  0
SECTION
  2
HEADER
  0
ENDSEC
  0
SECTION
  2
TABLES
  0
TABLE
  2
LTYPE
 70
     4
  0
LTYPE
  2
CONTINUOUS
 70
    64
  3
Solid line
 72
    65
 73
     0
 40
0.000000
  0
LTYPE
  2
DASHED
 70
    64
  3
__ __ __ __ __ __ __ __ __ __ __ __ __ __ __
 72
    65
 73
     2
 40
3.500000
 49
2.000000
 49
-1.500000
  0
LTYPE
  2
CENTER
 70
    64
  3
____ _ ____ _ ____ _ ____ _ ____ _ ____ _ ____
 72
    65
 73
     4
 40
17.500000
 49
13.000000
 49
-1.500000
 49
1.500000
 49
-1.500000
  0
LTYPE
  2
PHANTOM
 70
    64
  3
_____ _ _ _____ _ _ _____ _ _ _____ _ _ ____  
 72
    65
 73
     6
 40
15.500000
 49
8.000000
 49
-1.500000
 49
1.500000
 49
-1.500000
 49
1.500000
 49
-1.500000
  0
LTYPE
  2
DASHED1
 70
    64
  3
__ __ __ __ __ __ __ __ __ __ __ __ __ __ __
 72
    65
 73
     2
 40
1.500000
 49
1.000000
 49
-0.500000
  0
LTYPE
  2
DASHED2
 70
    64
  3
__ __ __ __ __ __ __ __ __ __ __ __ __ __ __
 72
    65
 73
     2
 40
3.500000
 49
2.500000
 49
-1.000000
  0
LTYPE
  2
DASHED3
 70
    64
  3
__ __ __ __ __ __ __ __ __ __ __ __ __ __ __
 72
    65
 73
     2
 40
6.000000
 49
4.000000
 49
-2.000000
  0
LTYPE
  2
DASHED4
 70
    64
  3
__ __ __ __ __ __ __ __ __ __ __ __ __ __ __
 72
    65
 73
     2
 40
12.000000
 49
10.000000
 49
-2.000000
  0
LTYPE
  2
DASHED5
 70
    64
  3
__ __ __ __ __ __ __ __ __ __ __ __ __ __ __
 72
    65
 73
     2
 40
17.000000
 49
15.000000
 49
-2.000000
  0
LTYPE
  2
DASHED6
 70
    64
  3
__ __ __ __ __ __ __ __ __ __ __ __ __ __ __
 72
    65
 73
     2
 40
29.000000
 49
27.000000
 49
-2.000000
  0
LTYPE
  2
PHANTOM1
 70
    64
  3
_____ _ _ _____ _ _ _____ _ _ _____ _ _ ____  
 72
    65
 73
     6
 40
31.000000
 49
25.000000
 49
-1.500000
 49
1.000000
 49
-1.000000
 49
1.000000
 49
-1.500000
  0
LTYPE
  2
PHANTOM2
 70
    64
  3
_____ _ _ _____ _ _ _____ _ _ _____ _ _ ____  
 72
    65
 73
     6
 40
36.000000
 49
27.000000
 49
-1.500000
 49
2.500000
 49
-1.000000
 49
2.500000
 49
-1.500000
  0
LTYPE
  2
PHANTOM3
 70
    64
  3
_____ _ _ _____ _ _ _____ _ _ _____ _ _ ____  
 72
    65
 73
     6
 40
78.000000
 49
64.000000
 49
-2.000000
 49
4.000000
 49
-2.000000
 49
4.000000
 49
-2.000000
  0
LTYPE
  2
CENTER1
 70
    64
  3
____ _ ____ _ ____ _ ____ _ ____ _ ____ _ ____
 72
    65
 73
     4
 40
19.000000
 49
14.000000
 49
-1.000000
 49
3.000000
 49
-1.000000
  0
LTYPE
  2
CENTER2
 70
    64
  3
____ _ ____ _ ____ _ ____ _ ____ _ ____ _ ____
 72
    65
 73
     4
 40
28.500000
 49
25.000000
 49
-1.000000
 49
1.500000
 49
-1.000000
  0
LTYPE
  2
CENTER3
 70
    64
  3
____ _ ____ _ ____ _ ____ _ ____ _ ____ _ ____
 72
    65
 73
     4
 40
31.500000
 49
27.000000
 49
-1.000000
 49
2.500000
 49
-1.000000
  0
LTYPE
  2
CENTER4
 70
    64
  3
____ _ ____ _ ____ _ ____ _ ____ _ ____ _ ____
 72
    65
 73
     4
 40
50.000000
 49
45.000000
 49
-1.000000
 49
3.000000
 49
-1.000000
  0
LTYPE
  2
CENTER5
 70
    64
  3
____ _ ____ _ ____ _ ____ _ ____ _ ____ _ ____
 72
    65
 73
     4
 40
100.000000
 49
92.000000
 49
-2.000000
 49
4.000000
 49
-2.000000
  0
LTYPE
  2
SBK1
 70
    64
  3
______ _ _ _ ______ _ _ _ ______ _ _ _ _____  
 72
    65
 73
     8
 40
60.500000
 49
45.000000
 49
-2.000000
 49
2.500000
 49
-2.000000
 49
2.500000
 49
-2.000000
 49
2.500000
 49
-2.000000
  0
LTYPE
  2
SBK2
 70
    64
  3
______ _ _ _ ______ _ _ _ ______ _ _ _ _____  
 72
    65
 73
     8
 40
84.000000
 49
64.000000
 49
-2.000000
 49
4.000000
 49
-2.000000
 49
4.000000
 49
-2.000000
 49
4.000000
 49
-2.000000
  0
LTYPE
  2
STCH
 70
    64
  3
__ __ __ __ __ __ __ __ __ __ __ __ __ __ __
 72
    65
 73
     2
 40
3.000000
 49
1.000000
 49
-2.000000
  0
LTYPE
  2
MTCH
 70
    64
  3
_____ _ _ _____ _ _ _____ _ _ _____ _ _ ____  
 72
    65
 73
     6
 40
80.000000
 49
66.000000
 49
-2.000000
 49
4.000000
 49
-2.000000
 49
4.000000
 49
-2.000000
  0
ENDTAB
  0
TABLE
  2
LAYER
 70
     1
  0
LAYER
  2
0
 70
     0
 62
     7
  6
CONTINUOUS
  0
ENDTAB
  0
TABLE
  2
STYLE
 70
     1
  0
STYLE
  2
STANDARD
 70
     0
 40
0.000000
 41
1.000000
 50
0.000000
 71
     0
 42
0.200000
  3
txt
  4
BIGFONT
  0
ENDTAB
  0
TABLE
  2
VIEW
 70
     0
  0
ENDTAB
  0
ENDSEC
  0
SECTION
  2
BLOCKS
  0
ENDSEC
  0
SECTION
  2
ENTITIES
  0
LINE
  8
0
 10
34.410233
 20
-57.683403
 11
34.410233
 21
-58.483402
  0
LINE
  8
0
 10
29.410233
 20
-57.368404
 11
29.410233
 21
-58.798405
  0
LINE
  8
0
 10
29.410233
 20
-58.483402
 11
34.410233
 21
-58.483402
  0
LINE
  8
0
 10
29.410233
 20
-57.683403
 11
34.410233
 21
-57.683403
  0
LINE
  8
0
 10
25.231565
 20
-57.368404
 11
29.410233
 21
-57.368404
  0
LINE
  8
0
 10
24.850231
 20
-58.798405
 11
29.410233
 21
-58.798405
  0
LINE
  8
0
 10
18.880232
 20
-58.798405
 11
23.610231
 21
-58.798405
  0
LINE
  8
0
 10
18.880232
 20
-57.368404
 11
23.991566
 21
-57.368404
  0
LINE
  8
0
 10
29.410233
 20
-52.288403
 11
29.410233
 21
-53.718403
  0
LINE
  8
0
 10
26.204899
 20
-53.718403
 11
29.410233
 21
-53.718403
  0
LINE
  8
0
 10
26.586231
 20
-52.288403
 11
29.410233
 21
-52.288403
  0
LINE
  8
0
 10
29.410233
 20
-53.403404
 11
34.410233
 21
-53.403404
  0
LINE
  8
0
 10
29.410233
 20
-52.603405
 11
34.410233
 21
-52.603405
  0
LINE
  8
0
 10
34.410233
 20
-53.403404
 11
34.410233
 21
-52.603405
  0
LINE
  8
0
 10
18.880232
 20
-53.718403
 11
24.964899
 21
-53.718403
  0
LINE
  8
0
 10
18.880232
 20
-52.288403
 11
25.346231
 21
-52.288403
  0
LINE
  8
0
 62
     2
 10
22.990229
 20
-61.123402
 11
25.949778
 21
-50.025089
  0
LINE
  8
0
 62
     2
 10
24.230228
 20
-61.123405
 11
27.189777
 21
-50.025089
  0
LINE
  8
0
  6
CENTER
 62
     2
 10
36.755787
 20
-55.543404
 11
-8.971138
 21
-55.543404
  0
LINE
  8
0
 10
-1.719769
 20
-50.543404
 11
18.880232
 21
-50.543404
  0
LINE
  8
0
 10
-1.719769
 20
-60.543404
 11
18.880232
 21
-60.543404
  0
LINE
  8
0
 10
17.880232
 20
-60.543404
 11
17.880232
 21
-50.543404
  0
LINE
  8
0
 10
-1.019769
 20
-59.543404
 11
-1.019769
 21
-51.543404
  0
LINE
  8
0
 10
1.080231
 20
-59.543404
 11
1.080231
 21
-51.543404
  0
LINE
  8
0
 10
-0.719769
 20
-59.843403
 11
0.780231
 21
-59.843403
  0
LINE
  8
0
 10
1.080231
 20
-55.890072
 11
-0.019769
 21
-55.890072
  0
LINE
  8
0
 10
1.080231
 20
-55.743404
 11
-1.019769
 21
-55.743404
  0
LINE
  8
0
 10
1.080231
 20
-55.343403
 11
-1.019769
 21
-55.343403
  0
LINE
  8
0
 10
1.080231
 20
-55.196735
 11
-0.019769
 21
-55.196735
  0
LINE
  8
0
 10
1.080231
 20
-53.243404
 11
-0.019769
 21
-53.243404
  0
LINE
  8
0
 10
1.080231
 20
-57.843403
 11
-0.019769
 21
-57.843403
  0
LINE
  8
0
 10
-0.019769
 20
-58.243404
 11
-0.019769
 21
-55.816738
  0
LINE
  8
0
 10
-0.219769
 20
-52.643402
 11
-1.019769
 21
-52.643402
  0
LINE
  8
0
 10
-0.219769
 20
-58.443405
 11
-1.019769
 21
-58.443405
  0
LINE
  8
0
 10
-0.019769
 20
-55.270069
 11
-0.019769
 21
-52.843403
  0
LINE
  8
0
 10
-0.019769
 20
-55.270069
 11
-1.019769
 21
-55.270069
  0
LINE
  8
0
 10
-0.019769
 20
-55.816738
 11
-1.019769
 21
-55.816738
  0
LINE
  8
0
 10
-0.719769
 20
-51.243404
 11
0.780231
 21
-51.243404
  0
LINE
  8
0
 10
-1.719769
 20
-60.543404
 11
-1.719769
 21
-50.543404
  0
LINE
  8
0
 10
18.880232
 20
-50.543404
 11
18.880232
 21
-60.543404
  0
LINE
  8
0
 62
     4
 10
-7.719769
 20
-50.543404
 11
-7.719769
 21
-60.543404
  0
LINE
  8
0
 62
     4
 10
-1.719769
 20
-60.543404
 11
-7.719769
 21
-60.543404
  0
LINE
  8
0
 62
     4
 10
-1.719769
 20
-50.543404
 11
-7.719769
 21
-50.543404
  0
LINE
  8
0
  6
CENTER
 62
     1
 10
-3.499299
 20
-52.043404
 11
-8.242901
 21
-52.043404
  0
LINE
  8
0
  6
CENTER
 62
     1
 10
-3.499299
 20
-59.043404
 11
-8.242901
 21
-59.043404
  0
LINE
  8
0
  6
CENTER
 62
     1
 10
-5.719769
 20
-49.588821
 11
-5.719769
 21
-61.497986
  0
LINE
  8
0
  6
CENTER
 62
     2
 10
1.715110
 20
-59.043404
 11
-2.779410
 21
-59.043404
  0
LINE
  8
0
  6
CENTER
 62
     2
 10
1.715110
 20
-52.043404
 11
-2.779410
 21
-52.043404
  0
LINE
  8
0
 10
15.880232
 20
-60.543404
 11
15.880232
 21
-50.543404
  0
LINE
  8
0
  6
CENTER
 62
     2
 10
78.766533
 20
-9.643404
 11
71.632332
 21
-9.643404
  0
LINE
  8
0
 62
     4
 10
70.280228
 20
-14.543404
 11
70.280228
 21
-13.543404
  0
LINE
  8
0
 62
     4
 10
80.280228
 20
-14.543404
 11
80.280228
 21
-13.543404
  0
LINE
  8
0
 62
     4
 10
80.280228
 20
-14.543404
 11
70.280228
 21
-14.543404
  0
LINE
  8
0
 10
80.280228
 20
-13.543404
 11
70.280228
 21
-13.543404
  0
LINE
  8
0
 10
79.487335
 20
-5.750511
 11
78.073120
 21
-4.336298
  0
LINE
  8
0
 10
79.487335
 20
-4.336297
 11
78.073120
 21
-5.750510
  0
LINE
  8
0
 10
71.073120
 20
-4.336296
 11
72.487335
 21
-5.750512
  0
LINE
  8
0
 10
71.073120
 20
-5.750511
 11
72.487335
 21
-4.336296
  0
LINE
  8
0
 10
77.105743
 20
-2.993403
 11
75.280228
 21
-2.993403
  0
LINE
  8
0
 10
75.280228
 20
-2.993403
 11
73.454712
 21
-2.993403
  0
LINE
  8
0
 10
77.105743
 20
-3.593404
 11
73.454712
 21
-3.593404
  0
LINE
  8
0
 10
78.180229
 20
7.156597
 11
72.380226
 21
7.156597
  0
LINE
  8
0
 10
78.180229
 20
3.156597
 11
72.380226
 21
3.156597
  0
LINE
  8
0
 62
     2
 10
73.780228
 20
13.456596
 11
76.780228
 21
13.456596
  0
LINE
  8
0
 62
     2
 10
73.780228
 20
13.456596
 11
73.780228
 21
18.456596
  0
LINE
  8
0
 62
     2
 10
76.780228
 20
13.456596
 11
76.780228
 21
18.456596
  0
LINE
  8
0
 10
80.280228
 20
0.956596
 11
70.280228
 21
0.956596
  0
LINE
  8
0
 10
70.280228
 20
18.456596
 11
80.280228
 21
18.456596
  0
LINE
  8
0
 10
80.280228
 20
18.456596
 11
80.280228
 21
-13.543404
  0
LINE
  8
0
  6
CENTER
 62
     2
 10
75.280228
 20
-15.328409
 11
75.280228
 21
20.592648
  0
LINE
  8
0
  6
CENTER
 62
     2
 10
77.780228
 20
-3.293404
 11
72.780228
 21
-3.293404
  0
LINE
  8
0
 10
70.280228
 20
18.456596
 11
70.280228
 21
-13.543404
  0
LINE
  8
0
 10
70.280228
 20
-3.443403
 11
71.780228
 21
-3.443403
  0
LINE
  8
0
 10
71.780228
 20
-6.643404
 11
70.280228
 21
-6.643404
  0
LINE
  8
0
 10
80.280228
 20
-6.643404
 11
78.780228
 21
-6.643404
  0
LINE
  8
0
 10
78.780228
 20
-3.443403
 11
80.280228
 21
-3.443403
  0
LINE
  8
0
 10
80.280228
 20
0.856596
 11
70.280228
 21
0.856596
  0
LINE
  8
0
 10
70.280228
 20
0.358518
 11
80.280228
 21
0.358518
  0
LINE
  8
0
 10
72.630226
 20
-7.143404
 11
70.280228
 21
-7.143404
  0
LINE
  8
0
 10
73.880226
 20
-5.893404
 11
76.680229
 21
-5.893404
  0
LINE
  8
0
 10
77.930229
 20
-7.143404
 11
76.680229
 21
-5.893403
  0
LINE
  8
0
 10
80.280228
 20
-7.143404
 11
77.930229
 21
-7.143404
  0
LINE
  8
0
 10
74.135857
 20
-6.334221
 11
76.424599
 21
-6.334221
  0
LINE
  8
0
 10
72.885857
 20
-7.584221
 11
70.280228
 21
-7.584221
  0
LINE
  8
0
 10
80.280228
 20
-7.584221
 11
77.674599
 21
-7.584221
  0
LINE
  8
0
 10
76.424599
 20
-6.334219
 11
77.674599
 21
-7.584221
  0
LINE
  8
0
 10
80.280228
 20
-0.452586
 11
70.280228
 21
-0.452586
  0
LINE
  8
0
 10
76.424599
 20
-6.334219
 11
76.680229
 21
-5.893401
  0
LINE
  8
0
 10
74.135857
 20
-6.334219
 11
72.885857
 21
-7.584221
  0
LINE
  8
0
 10
72.630226
 20
-7.143404
 11
73.880226
 21
-5.893403
  0
LINE
  8
0
 10
74.135857
 20
-6.334222
 11
73.880226
 21
-5.893405
  0
LINE
  8
0
 10
77.930229
 20
-7.143404
 11
77.674599
 21
-7.584220
  0
LINE
  8
0
 10
72.885857
 20
-7.584223
 11
72.630226
 21
-7.143406
  0
LINE
  8
0
  6
CENTER
 62
     1
 10
71.780228
 20
-15.845085
 11
71.780228
 21
-12.353722
  0
LINE
  8
0
  6
CENTER
 62
     1
 10
78.780228
 20
-15.845085
 11
78.780228
 21
-12.353722
  0
LINE
  8
0
 10
-61.719772
 20
17.456596
 11
-61.719772
 21
17.956596
  0
LINE
  8
0
 10
-67.719772
 20
17.456596
 11
-67.719772
 21
17.956596
  0
LINE
  8
0
 10
-61.719772
 20
17.456596
 11
-67.719772
 21
17.456596
  0
LINE
  8
0
 10
-61.719772
 20
17.956596
 11
-67.719772
 21
17.956596
  0
LINE
  8
0
  6
CENTER
 62
     1
 10
-67.204376
 20
-2.543404
 11
-62.235313
 21
-2.543404
  0
LINE
  8
0
  6
CENTER
 62
     1
 10
-67.204376
 20
-8.543404
 11
-62.235313
 21
-8.543404
  0
LINE
  8
0
 62
     4
 10
-69.719772
 20
3.456596
 11
-59.719772
 21
3.456596
  0
LINE
  8
0
  6
CENTER
 62
     1
 10
-64.719772
 20
-16.170364
 11
-64.719772
 21
0.309052
  0
LINE
  8
0
 62
     4
 10
-69.719772
 20
-14.543404
 11
-59.719772
 21
-14.543404
  0
LINE
  8
0
 10
-69.719772
 20
18.456596
 11
-69.719772
 21
3.456596
  0
LINE
  8
0
 10
-59.719772
 20
18.456596
 11
-69.719772
 21
18.456596
  0
LINE
  8
0
 10
-59.719772
 20
18.456596
 11
-59.719772
 21
3.456596
  0
LINE
  8
0
 62
     4
 10
-59.719772
 20
3.456596
 11
-59.719772
 21
-14.543404
  0
LINE
  8
0
 62
     4
 10
-69.719772
 20
3.456596
 11
-69.719772
 21
-14.543404
  0
LINE
  8
0
  6
CENTER
 62
     1
 10
-68.219772
 20
-16.170364
 11
-68.219772
 21
-12.837812
  0
LINE
  8
0
  6
CENTER
 62
     1
 10
-61.219772
 20
-16.170364
 11
-61.219772
 21
-12.837812
  0
LINE
  8
0
 10
13.280231
 20
-7.143404
 11
15.880230
 21
-7.584221
  0
LINE
  8
0
 10
15.880231
 20
-6.351854
 11
13.280231
 21
-5.893404
  0
LINE
  8
0
 10
15.880232
 20
-6.351853
 11
15.880232
 21
-13.543404
  0
LINE
  8
0
 62
     4
 10
-7.719769
 20
3.456596
 11
-7.719769
 21
-14.543404
  0
LINE
  8
0
 62
     4
 10
-1.719769
 20
3.456596
 11
-7.719769
 21
3.456596
  0
LINE
  8
0
 62
     4
 10
-1.719769
 20
-14.543404
 11
-7.719769
 21
-14.543404
  0
LINE
  8
0
 62
     4
 10
-1.719769
 20
-13.543404
 11
-1.719769
 21
-14.543404
  0
LINE
  8
0
 10
12.880232
 20
-6.043404
 11
12.880232
 21
-4.043404
  0
LINE
  8
0
 10
12.380232
 20
-3.543404
 11
12.280231
 21
-3.543404
  0
LINE
  8
0
 10
12.380232
 20
-6.543404
 11
12.280231
 21
-6.543404
  0
LINE
  8
0
 10
23.770231
 20
5.806597
 11
27.080231
 21
5.806597
  0
LINE
  8
0
 10
23.420231
 20
4.506596
 11
27.080231
 21
4.506596
  0
LINE
  8
0
 10
27.080231
 20
4.906597
 11
31.080231
 21
4.906597
  0
LINE
  8
0
 10
27.080231
 20
5.406597
 11
31.080231
 21
5.406597
  0
LINE
  8
0
 10
27.080231
 20
5.806597
 11
27.080231
 21
4.506596
  0
LINE
  8
0
 10
31.080231
 20
5.406597
 11
31.080231
 21
4.906597
  0
LINE
  8
0
 62
     2
 10
22.130230
 20
3.556597
 11
22.990231
 21
6.756598
  0
LINE
  8
0
 62
     2
 10
23.160231
 20
3.556598
 11
24.020231
 21
6.756597
  0
LINE
  8
0
 10
18.880232
 20
5.806597
 11
22.730232
 21
5.806597
  0
LINE
  8
0
 10
18.880232
 20
4.506596
 11
22.380232
 21
4.506596
  0
LINE
  8
0
 10
13.280231
 20
-6.643404
 11
12.280231
 21
-6.643404
  0
LINE
  8
0
 10
13.280231
 20
-3.443403
 11
12.280231
 21
-3.443403
  0
LINE
  8
0
 10
12.280231
 20
-6.643404
 11
12.280231
 21
-3.443403
  0
LINE
  8
0
 10
-0.519769
 20
18.456596
 11
17.580231
 21
18.456596
  0
LINE
  8
0
 10
11.980232
 20
16.956596
 11
11.980232
 21
0.856596
  0
LINE
  8
0
 10
17.880232
 20
0.956596
 11
17.880232
 21
18.156597
  0
LINE
  8
0
 10
-0.519769
 20
18.456596
 11
-0.519769
 21
16.956596
  0
LINE
  8
0
 10
11.980232
 20
0.956596
 11
17.880232
 21
0.956596
  0
LINE
  8
0
 10
18.680231
 20
7.156597
 11
17.880232
 21
7.156597
  0
LINE
  8
0
 10
18.880232
 20
3.356596
 11
18.880232
 21
6.956596
  0
LINE
  8
0
 10
18.680231
 20
3.156597
 11
17.880232
 21
3.156597
  0
LINE
  8
0
 10
1.480231
 20
-12.843404
 11
1.480231
 21
-12.043404
  0
LINE
  8
0
 10
9.080231
 20
-12.043404
 11
9.080231
 21
-12.843404
  0
LINE
  8
0
 10
9.080231
 20
-12.043404
 11
1.480231
 21
-12.043404
  0
LINE
  8
0
 10
13.280231
 20
-7.143404
 11
13.280231
 21
-0.452586
  0
LINE
  8
0
 10
-1.719769
 20
18.456596
 11
-1.719769
 21
-13.543404
  0
LINE
  8
0
 10
-1.719769
 20
-13.543404
 11
15.880232
 21
-13.543404
  0
LINE
  8
0
 10
-1.719769
 20
18.456596
 11
-0.819769
 21
18.456596
  0
LINE
  8
0
 10
9.080231
 20
-12.843404
 11
1.480231
 21
-12.843404
  0
LINE
  8
0
 10
11.980232
 20
0.856596
 11
17.880232
 21
0.856596
  0
LINE
  8
0
 10
13.280231
 20
-0.452586
 11
17.880232
 21
0.358518
  0
LINE
  8
0
 10
17.880232
 20
0.358518
 11
17.880232
 21
0.856596
  0
LINE
  8
0
 10
17.280231
 20
0.956596
 11
17.280231
 21
0.856596
  0
LINE
  8
0
 10
-0.819770
 20
18.456596
 11
-0.519769
 21
18.156597
  0
LINE
  8
0
 10
11.980232
 20
16.956596
 11
-0.519769
 21
16.956596
  0
LINE
  8
0
  6
CENTER
 62
     2
 10
5.280231
 20
-15.328409
 11
5.280231
 21
20.592648
  0
LINE
  8
0
  6
CENTER
 62
     1
 10
-5.719769
 20
-16.180498
 11
-5.719769
 21
-13.119735
  0
LINE
  8
0
  6
CENTER
 62
     2
 10
-3.357102
 20
-5.043404
 11
0.506926
 21
-5.043404
  0
LINE
  8
0
  6
CENTER
 62
     1
 10
-5.719769
 20
53.502014
 11
-5.719769
 21
65.411179
  0
LINE
  8
0
  6
CENTER
 62
     1
 10
-3.499299
 20
62.956596
 11
-8.242901
 21
62.956596
  0
LINE
  8
0
  6
CENTER
 62
     1
 10
-3.499299
 20
55.956596
 11
-8.242901
 21
55.956596
  0
LINE
  8
0
 62
     4
 10
-1.719769
 20
54.456596
 11
-7.719769
 21
54.456596
  0
LINE
  8
0
 62
     4
 10
-1.719769
 20
64.456596
 11
-7.719769
 21
64.456596
  0
LINE
  8
0
 62
     4
 10
-7.719769
 20
54.456596
 11
-7.719769
 21
64.456596
  0
LINE
  8
0
 10
-1.719769
 20
54.456596
 11
-1.719769
 21
64.456596
  0
LINE
  8
0
 62
     2
 10
23.160231
 20
60.756596
 11
24.020231
 21
63.956593
  0
LINE
  8
0
 62
     2
 10
22.130230
 20
60.756596
 11
22.990231
 21
63.956593
  0
LINE
  8
0
 10
31.080231
 20
62.606598
 11
31.080231
 21
62.106598
  0
LINE
  8
0
 10
27.080231
 20
63.006596
 11
27.080231
 21
61.706596
  0
LINE
  8
0
 10
27.080231
 20
62.606598
 11
31.080231
 21
62.606598
  0
LINE
  8
0
 10
27.080231
 20
62.106598
 11
31.080231
 21
62.106598
  0
LINE
  8
0
 10
23.420231
 20
61.706596
 11
27.080231
 21
61.706596
  0
LINE
  8
0
 10
23.770231
 20
63.006596
 11
27.080231
 21
63.006596
  0
LINE
  8
0
 10
18.880232
 20
63.006596
 11
22.730232
 21
63.006596
  0
LINE
  8
0
 10
18.880232
 20
61.706596
 11
22.380232
 21
61.706596
  0
LINE
  8
0
 62
     2
 10
23.160231
 20
54.956593
 11
24.020231
 21
58.156593
  0
LINE
  8
0
 62
     2
 10
22.130230
 20
54.956593
 11
22.990231
 21
58.156593
  0
LINE
  8
0
 10
31.080231
 20
56.806595
 11
31.080231
 21
56.306595
  0
LINE
  8
0
 10
27.080231
 20
57.206596
 11
27.080231
 21
55.906597
  0
LINE
  8
0
 10
27.080231
 20
56.806595
 11
31.080231
 21
56.806595
  0
LINE
  8
0
 10
27.080231
 20
56.306595
 11
31.080231
 21
56.306595
  0
LINE
  8
0
 10
23.420231
 20
55.906597
 11
27.080231
 21
55.906597
  0
LINE
  8
0
 10
23.770231
 20
57.206596
 11
27.080231
 21
57.206596
  0
LINE
  8
0
 10
18.880232
 20
57.206596
 11
22.730232
 21
57.206596
  0
LINE
  8
0
 10
18.880232
 20
55.906597
 11
22.380232
 21
55.906597
  0
LINE
  8
0
 10
-0.819769
 20
54.456596
 11
-0.819769
 21
64.456596
  0
LINE
  8
0
  6
CENTER
 62
     2
 10
-9.739188
 20
59.456596
 11
20.580315
 21
59.456596
  0
LINE
  8
0
 10
17.880232
 20
54.756596
 11
17.880232
 21
64.156593
  0
LINE
  8
0
 10
-0.519769
 20
54.456596
 11
-0.519769
 21
64.456596
  0
LINE
  8
0
 10
-1.719769
 20
54.456596
 11
17.580231
 21
54.456596
  0
LINE
  8
0
 10
-1.719769
 20
64.456596
 11
17.580231
 21
64.456596
  0
LINE
  8
0
 10
18.880232
 20
54.756596
 11
18.880232
 21
64.156593
  0
LINE
  8
0
 10
18.680231
 20
64.356598
 11
17.803839
 21
64.356598
  0
LINE
  8
0
 10
18.680231
 20
54.556595
 11
17.803839
 21
54.556595
  0
LINE
  8
0
 62
     2
 10
14.880232
 20
57.956596
 11
17.880232
 21
57.956596
  0
LINE
  8
0
 62
     2
 10
14.880232
 20
60.956596
 11
14.880232
 21
57.956596
  0
LINE
  8
0
 62
     2
 10
14.880232
 20
60.956596
 11
17.880232
 21
60.956596
  0
LINE
  8
0
  6
CENTER
 62
     2
 10
-2.713255
 20
62.956596
 11
0.372297
 21
62.956596
  0
LINE
  8
0
  6
CENTER
 62
     2
 10
-2.713255
 20
55.956596
 11
0.372297
 21
55.956596
  0
LINE
  8
0
 10
-138.399994
 20
94.500000
 11
138.350006
 21
94.500000
  0
LINE
  8
0
 10
138.350006
 20
94.500000
 11
138.350006
 21
-94.800003
  0
LINE
  8
0
 10
-138.399994
 20
-94.800003
 11
138.350006
 21
-94.800003
  0
LINE
  8
0
 10
-138.399994
 20
94.500000
 11
-138.399994
 21
-94.800003
  0
LINE
  8
0
 10
73.350006
 20
-84.800003
 11
138.350006
 21
-84.800003
  0
LINE
  8
0
 10
-138.399994
 20
84.500000
 11
-73.399994
 21
84.500000
  0
LINE
  8
0
 10
73.350006
 20
84.500000
 11
138.350006
 21
84.500000
  0
LINE
  8
0
 10
73.350006
 20
-84.800003
 11
73.350006
 21
-94.800003
  0
LINE
  8
0
 10
73.350006
 20
94.500000
 11
73.350006
 21
84.500000
  0
LINE
  8
0
 10
-73.399994
 20
94.500000
 11
-73.399994
 21
84.500000
  0
ARC
  8
0
 10
0.780231
 20
-51.543404
 40
0.300000
 50
0.000000
 51
90.000000
  0
ARC
  8
0
 10
-0.719769
 20
-51.543404
 40
0.299999
 50
90.000000
 51
180.000000
  0
ARC
  8
0
 10
0.780231
 20
-59.543404
 40
0.299999
 50
270.000000
 51
0.000000
  0
ARC
  8
0
 10
-0.719769
 20
-59.543404
 40
0.300000
 50
180.000000
 51
270.000000
  0
ARC
  8
0
 10
-0.219769
 20
-58.243404
 40
0.200001
 50
270.000000
 51
0.000000
  0
ARC
  8
0
 10
-0.219769
 20
-52.843403
 40
0.200000
 50
0.000000
 51
90.000008
  0
CIRCLE
  8
0
 62
     4
 10
-5.719769
 20
-52.043404
 40
1.100000
  0
CIRCLE
  8
0
 62
     4
 10
-5.719769
 20
-59.043404
 40
1.100000
  0
CIRCLE
  8
0
 10
75.280228
 20
-9.643404
 40
1.500000
  0
CIRCLE
  8
0
 10
75.280228
 20
-9.643404
 40
1.250000
  0
CIRCLE
  8
0
 10
75.280228
 20
-9.643404
 40
2.750000
  0
CIRCLE
  8
0
 10
78.780228
 20
-5.043404
 40
1.500000
  0
CIRCLE
  8
0
 10
71.780228
 20
-5.043404
 40
1.500000
  0
ARC
  8
0
 10
75.280228
 20
-3.293404
 40
0.800003
 50
202.024231
 51
337.975769
  0
ARC
  8
0
 10
75.280228
 20
-3.293404
 40
0.800003
 50
22.024227
 51
157.975769
  0
CIRCLE
  8
0
 10
75.280228
 20
-3.293404
 40
1.850000
  0
ARC
  8
0
 10
72.380226
 20
5.156597
 40
2.000000
 50
90.000000
 51
270.000000
  0
ARC
  8
0
 10
78.180229
 20
5.156597
 40
2.000000
 50
270.000000
 51
90.000000
  0
CIRCLE
  8
0
 10
78.180229
 20
5.156597
 40
0.875000
  0
CIRCLE
  8
0
 10
72.380226
 20
5.156597
 40
0.875000
  0
ARC
  8
0
 10
79.980225
 20
18.156597
 40
0.300003
 50
0.000000
 51
90.000000
  0
ARC
  8
0
 10
70.580231
 20
18.156597
 40
0.299999
 50
90.000000
 51
180.000000
  0
CIRCLE
  8
0
 10
75.280228
 20
-3.293404
 40
1.900000
  0
ARC
  8
0
 10
78.780228
 20
-5.043404
 40
1.600000
 50
90.000000
 51
270.000000
  0
ARC
  8
0
 10
71.780228
 20
-5.043404
 40
1.600000
 50
270.000000
 51
90.000000
  0
CIRCLE
  8
0
 10
75.280228
 20
-3.293404
 40
2.050000
  0
CIRCLE
  8
0
 62
     4
 10
-64.719772
 20
-2.543404
 40
1.200000
  0
CIRCLE
  8
0
 62
     4
 10
-64.719772
 20
-2.543404
 40
1.500000
  0
CIRCLE
  8
0
 62
     4
 10
-64.719772
 20
-8.543404
 40
1.200000
  0
CIRCLE
  8
0
 62
     4
 10
-64.719772
 20
-8.543404
 40
1.500000
  0
ARC
  8
0
 10
-69.419769
 20
18.156597
 40
0.299999
 50
90.000000
 51
180.000000
  0
ARC
  8
0
 10
-60.019772
 20
18.156597
 40
0.299999
 50
0.000000
 51
90.000000
  0
ARC
  8
0
 10
12.380232
 20
-6.043404
 40
0.500000
 50
270.000000
 51
0.000000
  0
ARC
  8
0
 10
12.380232
 20
-4.043404
 40
0.500000
 50
0.000000
 51
90.000000
  0
ARC
  8
0
 10
17.580231
 20
18.156597
 40
0.299999
 50
0.000000
 51
90.000000
  0
ARC
  8
0
 10
18.680943
 20
6.957308
 40
0.199291
 50
359.795471
 51
90.204536
  0
ARC
  8
0
 10
18.680943
 20
3.355885
 40
0.199290
 50
269.795471
 51
0.204539
  0
CIRCLE
  8
0
 62
     4
 10
-5.719769
 20
62.956596
 40
1.100000
  0
CIRCLE
  8
0
 62
     4
 10
-5.719769
 20
55.956596
 40
1.100000
  0
ARC
  8
0
 10
18.680943
 20
64.157310
 40
0.199291
 50
359.796021
 51
90.204544
  0
ARC
  8
0
 10
18.680943
 20
54.755886
 40
0.199289
 50
269.795471
 51
0.203990
  0
ARC
  8
0
 10
17.580231
 20
64.156593
 40
0.299999
 50
0.000000
 51
90.000000
  0
ARC
  8
0
 10
17.580231
 20
54.756596
 40
0.299999
 50
270.000000
 51
0.000000
  0
TEXT
  8
0
 10
76.207352
 20
-92.850006
 40
4.500000
  1
KOGANEI CORP.
 50
0.000000
 41
1.052632
 51
0.000000
  7
STANDARD
  0
TEXT
  8
0
 10
92.842865
 20
87.620003
 40
3.200000
  1
Ver. 1.0
 50
0.000000
 41
1.052632
 51
0.000000
  7
STANDARD
  0
TEXT
  8
0
 10
-123.707138
 20
87.620003
 40
3.200000
  1
G010 SERIES
 50
0.000000
 41
1.052632
 51
0.000000
  7
STANDARD
  0
TEXT
  8
0
 10
-130.207001
 20
72.620003
 40
3.200000
  1
MODEL:G010E1-21
 50
0.000000
 41
1.052632
 51
0.000000
  7
STANDARD
  0
ENDSEC
  0
EOF
