  0
SECTION
  2
HEADER
  9
$ACADVER
  1
AC1003
  9
$EXTMIN
 10
-3.99250000E+02
 20
-2.76750000E+02
  9
$EXTMAX
 10
3.99799805E+02
 20
2.76250000E+02
  9
$LIMMIN
 10
-3.99251000E+02
 20
-2.76751000E+02
  9
$LIMMAX
 10
3.99800805E+02
 20
2.76251000E+02
  9
$SNAPUNIT
 10
1
 20
1
  9
$SNAPBASE
 10
0
 20
0
  9
$GRIDMODE
 70
0
  9
$GRIDUNIT
 10
0
 20
0
  9
$LTSCALE
 40
1.33174967E+01
  9
$TEXTSIZE
 40
3.2
  9
$DIMTAD
 70
0
  9
$LUNITS
 70
2
  9
$LUPREC
 70
4
  9
$FILLETRAD
 40
0
  9
$AUNITS
 70
0
  9
$AUPREC
 70
0
  0
ENDSEC
  0
SECTION
  2
TABLES
  0
TABLE
  2
LTYPE
 70
2
  0
LTYPE
  2
CONTINUOUS
 70
64
  3
Solid-Line
 72
65
 73
0
 40
0
  0
LTYPE
  2
DASHED
 70
64
  3
DASHED
 72
65
 73
2
 40
.75
 49
.5
 49
-.25
  0
LTYPE
  2
HIDDEN
 70
64
  3
HIDDEN
 72
65
 73
2
 40
.375
 49
.25
 49
-.125
  0
LTYPE
  2
CENTER
 70
64
  3
CENTER
 72
65
 73
4
 40
2
 49
1.25
 49
-.25
 49
.25
 49
-.25
  0
LTYPE
  2
PHANTOM
 70
64
  3
PHANTOM
 72
65
 73
6
 40
2.5
 49
1.25
 49
-.25
 49
.25
 49
-.25
 49
.25
 49
-.25
  0
ENDTAB
  0
TABLE
  2
LAYER
 70
1
  0
LAYER
  2
0
 70
0
 62
3
  6
CONTINUOUS
 0
ENDTAB
  0
TABLE
  2
STYLE
 70
2
  0
STYLE
  2
MONOTXT
 70
0
 40
0
 41
1
 50
0
 71
0
 42
.2
  3
monotxt
  0
STYLE
  2
BIGFONT
 70
0
 40
0
 41
1
 50
0
 71
0
 42
.2
  3
txt
  4
bigfont
  0
ENDTAB
  0
ENDSEC
  0
SECTION
  2
ENTITIES
  0
LINE
  8
0
 62
7
 10
-3.28108818E+02
 20
4.70566210E+01
 11
-3.28108818E+02
 21
4.90566210E+01
  0
LINE
  8
0
 62
7
 10
-3.28108818E+02
 20
4.70566210E+01
 11
-3.16108818E+02
 21
4.70566210E+01
  0
LINE
  8
0
 62
7
 10
-3.16108818E+02
 20
4.70566210E+01
 11
-3.16108818E+02
 21
4.90566210E+01
  0
LINE
  8
0
 62
7
 10
-3.28108818E+02
 20
9.70566210E+01
 11
-3.28108818E+02
 21
9.50566210E+01
  0
LINE
  8
0
 62
7
 10
-3.28108818E+02
 20
9.70566210E+01
 11
-3.16108818E+02
 21
9.70566210E+01
  0
LINE
  8
0
 62
7
 10
-3.16108818E+02
 20
9.70566210E+01
 11
-3.16108818E+02
 21
9.50566210E+01
  0
CIRCLE
  8
0
 62
7
 10
-3.22108818E+02
 20
6.05566210E+01
 40
5.50000000E+00
  0
CIRCLE
  8
0
 62
7
 10
-3.22108818E+02
 20
6.05566210E+01
 40
3.25000000E+00
  0
CIRCLE
  8
0
 62
7
 10
-3.22108818E+02
 20
8.35566210E+01
 40
5.50000000E+00
  0
CIRCLE
  8
0
 62
7
 10
-3.22108818E+02
 20
8.35566210E+01
 40
3.25000000E+00
  0
LINE
  8
0
  6
CENTER
 62
2
 10
-3.29608818E+02
 20
6.05566210E+01
 11
-3.14608818E+02
 21
6.05566210E+01
  0
LINE
  8
0
  6
CENTER
 62
2
 10
-3.29608818E+02
 20
8.35566210E+01
 11
-3.14608818E+02
 21
8.35566210E+01
  0
LINE
  8
0
  6
CENTER
 62
2
 10
-3.22108818E+02
 20
9.87156181E+01
 11
-3.22108818E+02
 21
4.57282256E+01
  0
LINE
  8
0
  6
CENTER
 62
2
 10
-3.43108818E+02
 20
7.20566210E+01
 11
-3.01108818E+02
 21
7.20566210E+01
  0
LINE
  8
0
 62
7
 10
-3.41108818E+02
 20
9.50566210E+01
 11
-3.41108818E+02
 21
4.90566210E+01
  0
LINE
  8
0
 62
7
 10
-3.03108818E+02
 20
9.50566210E+01
 11
-3.03108818E+02
 21
4.90566210E+01
  0
LINE
  8
0
 62
7
 10
-3.41108818E+02
 20
9.50566210E+01
 11
-3.03108818E+02
 21
9.50566210E+01
  0
LINE
  8
0
 62
7
 10
-3.41108818E+02
 20
4.90566210E+01
 11
-3.03108818E+02
 21
4.90566210E+01
  0
LINE
  8
0
 62
7
 10
-3.12625471E+02
 20
5.45566210E+01
 11
-3.12625471E+02
 21
8.95566210E+01
  0
LINE
  8
0
 62
7
 10
-3.31582538E+02
 20
5.45566210E+01
 11
-3.31582538E+02
 21
8.95566210E+01
  0
LINE
  8
0
 62
7
 10
-3.31582538E+02
 20
8.95566210E+01
 11
-3.12625471E+02
 21
8.95566210E+01
  0
LINE
  8
0
 62
7
 10
-3.31582538E+02
 20
5.45566210E+01
 11
-3.12625471E+02
 21
5.45566210E+01
  0
LINE
  8
0
 62
7
 10
-3.12625471E+02
 20
8.95566210E+01
 11
-3.03108818E+02
 21
9.50566210E+01
  0
LINE
  8
0
 62
7
 10
-3.31578818E+02
 20
8.95566210E+01
 11
-3.41108818E+02
 21
9.50566210E+01
  0
LINE
  8
0
 62
7
 10
-3.31578818E+02
 20
5.45566210E+01
 11
-3.41108818E+02
 21
4.90566210E+01
  0
LINE
  8
0
 62
7
 10
-3.12625471E+02
 20
5.45566210E+01
 11
-3.03108818E+02
 21
4.90566210E+01
  0
LINE
  8
0
 62
7
 10
-2.46108818E+02
 20
5.61566210E+01
 11
-2.45508818E+02
 21
5.55566210E+01
  0
LINE
  8
0
 62
7
 10
-2.46108818E+02
 20
6.49566210E+01
 11
-2.45508818E+02
 21
6.55566210E+01
  0
LINE
  8
0
 62
7
 10
-2.45508818E+02
 20
5.55566210E+01
 11
-2.45508818E+02
 21
6.55566210E+01
  0
LINE
  8
0
 62
7
 10
-2.46108818E+02
 20
5.61566210E+01
 11
-2.46108818E+02
 21
6.49566210E+01
  0
LINE
  8
0
 62
7
 10
-2.45508818E+02
 20
6.55566210E+01
 11
-2.44608818E+02
 21
6.55566210E+01
  0
LINE
  8
0
 62
7
 10
-2.45508818E+02
 20
5.55566210E+01
 11
-2.44608818E+02
 21
5.55566210E+01
  0
LINE
  8
0
  6
CENTER
 62
2
 10
-2.47448241E+02
 20
6.05566210E+01
 11
-2.41631941E+02
 21
6.05566210E+01
  0
LINE
  8
0
 62
7
 10
-2.46108818E+02
 20
7.91566210E+01
 11
-2.45508818E+02
 21
7.85566210E+01
  0
LINE
  8
0
 62
7
 10
-2.46108818E+02
 20
8.79566210E+01
 11
-2.45508818E+02
 21
8.85566210E+01
  0
LINE
  8
0
 62
7
 10
-2.45508818E+02
 20
7.85566210E+01
 11
-2.45508818E+02
 21
8.85566210E+01
  0
LINE
  8
0
 62
7
 10
-2.46108818E+02
 20
7.91566210E+01
 11
-2.46108818E+02
 21
8.79566210E+01
  0
LINE
  8
0
 62
7
 10
-2.45508818E+02
 20
8.85566210E+01
 11
-2.44608818E+02
 21
8.85566210E+01
  0
LINE
  8
0
 62
7
 10
-2.45508818E+02
 20
7.85566210E+01
 11
-2.44608818E+02
 21
7.85566210E+01
  0
LINE
  8
0
  6
CENTER
 62
2
 10
-2.47448241E+02
 20
8.35566210E+01
 11
-2.41631941E+02
 21
8.35566210E+01
  0
LINE
  8
0
 62
7
 10
-2.37108818E+02
 20
8.65566210E+01
 11
-2.32608818E+02
 21
8.65566210E+01
  0
LINE
  8
0
 62
7
 10
-2.32608818E+02
 20
8.65566210E+01
 11
-2.32608818E+02
 21
5.75566210E+01
  0
LINE
  8
0
 62
7
 10
-2.37108818E+02
 20
5.75566210E+01
 11
-2.32608818E+02
 21
5.75566210E+01
  0
LINE
  8
0
 62
7
 10
-2.44608818E+02
 20
5.45566210E+01
 11
-2.39108818E+02
 21
4.90566210E+01
  0
LINE
  8
0
 62
7
 10
-2.39108818E+02
 20
4.90566210E+01
 11
-2.37108818E+02
 21
4.90566210E+01
  0
LINE
  8
0
 62
7
 10
-2.44608818E+02
 20
8.95566210E+01
 11
-2.39108818E+02
 21
9.50566210E+01
  0
LINE
  8
0
 62
7
 10
-2.39108818E+02
 20
9.50566210E+01
 11
-2.39108818E+02
 21
4.90566210E+01
  0
LINE
  8
0
 62
7
 10
-2.44608818E+02
 20
8.95566210E+01
 11
-2.44608818E+02
 21
5.45566210E+01
  0
LINE
  8
0
 62
7
 10
-2.39108818E+02
 20
9.50566210E+01
 11
-2.37108818E+02
 21
9.50566210E+01
  0
LINE
  8
0
 62
7
 10
-1.85108818E+02
 20
9.50566210E+01
 11
-1.85108818E+02
 21
4.90566210E+01
  0
LINE
  8
0
 62
7
 10
-1.91608818E+02
 20
8.65566210E+01
 11
-1.91608818E+02
 21
5.75566210E+01
  0
LINE
  8
0
 62
7
 10
-1.87108818E+02
 20
8.65566210E+01
 11
-1.91608818E+02
 21
8.65566210E+01
  0
LINE
  8
0
 62
7
 10
-1.87108818E+02
 20
5.75566210E+01
 11
-1.91608818E+02
 21
5.75566210E+01
  0
LINE
  8
0
 62
7
 10
-1.79608818E+02
 20
8.95566210E+01
 11
-1.85108818E+02
 21
9.50566210E+01
  0
LINE
  8
0
 62
7
 10
-1.88108818E+02
 20
4.70566210E+01
 11
-2.36108818E+02
 21
4.70566210E+01
  0
LINE
  8
0
 62
7
 10
-1.88108818E+02
 20
9.70566210E+01
 11
-2.36108818E+02
 21
9.70566210E+01
  0
LINE
  8
0
  6
CENTER
 62
2
 10
-2.12108818E+02
 20
8.75566210E+01
 11
-2.12108818E+02
 21
5.65566210E+01
  0
LINE
  8
0
 62
7
 10
-2.37108818E+02
 20
9.60566210E+01
 11
-2.37108818E+02
 21
4.80566210E+01
  0
LINE
  8
0
 62
7
 10
-1.79608818E+02
 20
8.95566210E+01
 11
-1.79608818E+02
 21
5.45566210E+01
  0
LINE
  8
0
 62
7
 10
-1.87108818E+02
 20
9.60566210E+01
 11
-1.87108818E+02
 21
4.80566210E+01
  0
LINE
  8
0
 62
7
 10
-2.36108818E+02
 20
9.70566210E+01
 11
-2.37108818E+02
 21
9.60566210E+01
  0
LINE
  8
0
 62
7
 10
-2.37108818E+02
 20
4.80566210E+01
 11
-2.36108818E+02
 21
4.70566210E+01
  0
LINE
  8
0
  6
CENTER
 62
2
 10
-1.77608818E+02
 20
7.20566210E+01
 11
-2.39108818E+02
 21
7.20566210E+01
  0
LINE
  8
0
 62
7
 10
-1.85108818E+02
 20
9.50566210E+01
 11
-1.87108818E+02
 21
9.50566210E+01
  0
LINE
  8
0
 62
7
 10
-1.85108818E+02
 20
4.90566210E+01
 11
-1.87108818E+02
 21
4.90566210E+01
  0
LINE
  8
0
 62
7
 10
-1.79608818E+02
 20
5.45566210E+01
 11
-1.85108818E+02
 21
4.90566210E+01
  0
LINE
  8
0
 62
7
 10
-1.87108818E+02
 20
9.60566210E+01
 11
-1.88108818E+02
 21
9.70566210E+01
  0
LINE
  8
0
 62
7
 10
-1.87108818E+02
 20
4.80566210E+01
 11
-1.88108818E+02
 21
4.70566210E+01
  0
CIRCLE
  8
0
 62
7
 10
-2.12108803E+02
 20
7.20566210E+01
 40
1.35000000E+01
  0
LINE
  8
0
 62
7
 10
-3.12625471E+02
 20
1.49556621E+02
 11
-3.31582538E+02
 21
1.49556621E+02
  0
LINE
  8
0
  6
CENTER
 62
2
 10
-3.41108818E+02
 20
1.82056621E+02
 11
-3.03108818E+02
 21
1.82056621E+02
  0
LINE
  8
0
 62
7
 10
-3.27108818E+02
 20
1.48656621E+02
 11
-3.27108818E+02
 21
1.49556621E+02
  0
LINE
  8
0
 62
7
 10
-3.17108818E+02
 20
1.48656621E+02
 11
-3.17108818E+02
 21
1.49556621E+02
  0
LINE
  8
0
 62
7
 10
-3.17708818E+02
 20
1.48056621E+02
 11
-3.26508818E+02
 21
1.48056621E+02
  0
LINE
  8
0
 62
7
 10
-3.17108818E+02
 20
1.48656621E+02
 11
-3.27108818E+02
 21
1.48656621E+02
  0
LINE
  8
0
 62
7
 10
-3.26508818E+02
 20
1.48056621E+02
 11
-3.27108818E+02
 21
1.48656621E+02
  0
LINE
  8
0
 62
7
 10
-3.17708818E+02
 20
1.48056621E+02
 11
-3.17108818E+02
 21
1.48656621E+02
  0
LINE
  8
0
 62
7
 10
-3.07908818E+02
 20
1.58845778E+02
 11
-3.07908818E+02
 21
1.61556621E+02
  0
LINE
  8
0
 62
7
 10
-3.36308818E+02
 20
1.58856621E+02
 11
-3.36308818E+02
 21
1.61556621E+02
  0
LINE
  8
0
 62
7
 10
-3.03498669E+02
 20
1.61556621E+02
 11
-3.03108818E+02
 21
1.57056621E+02
  0
LINE
  8
0
 62
7
 10
-3.41108818E+02
 20
1.57056621E+02
 11
-3.40707828E+02
 21
1.61556621E+02
  0
LINE
  8
0
 62
7
 10
-3.09708818E+02
 20
1.57056621E+02
 11
-3.07908818E+02
 21
1.58845778E+02
  0
LINE
  8
0
 62
7
 10
-3.36308818E+02
 20
1.58856621E+02
 11
-3.34508818E+02
 21
1.57056621E+02
  0
LINE
  8
0
 62
7
 10
-3.07908818E+02
 20
1.61556621E+02
 11
-3.03498669E+02
 21
1.61556621E+02
  0
LINE
  8
0
 62
7
 10
-3.41108818E+02
 20
1.55056621E+02
 11
-3.41108818E+02
 21
1.57056621E+02
  0
LINE
  8
0
 62
7
 10
-3.03108818E+02
 20
1.55056621E+02
 11
-3.03108818E+02
 21
1.57056621E+02
  0
LINE
  8
0
 62
7
 10
-3.41108818E+02
 20
1.55056621E+02
 11
-3.03099192E+02
 21
1.55056621E+02
  0
LINE
  8
0
 62
7
 10
-3.40707828E+02
 20
1.61556621E+02
 11
-3.36308818E+02
 21
1.61556621E+02
  0
LINE
  8
0
 62
7
 10
-3.41108818E+02
 20
1.57056621E+02
 11
-3.03108818E+02
 21
1.57056621E+02
  0
LINE
  8
0
 62
7
 10
-3.03108818E+02
 20
2.07056621E+02
 11
-3.41108818E+02
 21
2.07056621E+02
  0
LINE
  8
0
 62
7
 10
-3.03508818E+02
 20
2.02556621E+02
 11
-3.07908818E+02
 21
2.02556621E+02
  0
LINE
  8
0
 62
7
 10
-3.03108818E+02
 20
2.09056621E+02
 11
-3.41108818E+02
 21
2.09056621E+02
  0
LINE
  8
0
 62
7
 10
-3.41108818E+02
 20
2.09056621E+02
 11
-3.41108818E+02
 21
2.07056621E+02
  0
LINE
  8
0
 62
7
 10
-3.03108818E+02
 20
2.09056621E+02
 11
-3.03108818E+02
 21
2.07056621E+02
  0
LINE
  8
0
 62
7
 10
-3.36308818E+02
 20
2.02556621E+02
 11
-3.40718818E+02
 21
2.02556621E+02
  0
LINE
  8
0
 62
7
 10
-3.07908818E+02
 20
2.05256621E+02
 11
-3.09708818E+02
 21
2.07056621E+02
  0
LINE
  8
0
 62
7
 10
-3.34508818E+02
 20
2.07056621E+02
 11
-3.36308818E+02
 21
2.05256621E+02
  0
LINE
  8
0
  6
CENTER
 62
2
 10
-3.22108818E+02
 20
2.16556621E+02
 11
-3.22108818E+02
 21
1.46717198E+02
  0
LINE
  8
0
 62
7
 10
-3.03108818E+02
 20
2.07056621E+02
 11
-3.03508818E+02
 21
2.02556621E+02
  0
LINE
  8
0
 62
7
 10
-3.40718818E+02
 20
2.02556621E+02
 11
-3.41108818E+02
 21
2.07056621E+02
  0
LINE
  8
0
 62
7
 10
-3.07908818E+02
 20
2.05256621E+02
 11
-3.07908818E+02
 21
2.02556621E+02
  0
LINE
  8
0
 62
7
 10
-3.36308818E+02
 20
2.05256621E+02
 11
-3.36308818E+02
 21
2.02556621E+02
  0
LINE
  8
0
 62
7
 10
-3.16108818E+02
 20
2.07056621E+02
 11
-3.16108818E+02
 21
1.57056621E+02
  0
LINE
  8
0
 62
7
 10
-3.28108818E+02
 20
2.07056621E+02
 11
-3.28108818E+02
 21
1.57056621E+02
  0
LINE
  8
0
 62
7
 10
-3.12625471E+02
 20
1.49556621E+02
 11
-3.03108818E+02
 21
1.55051063E+02
  0
LINE
  8
0
 62
7
 10
-3.41108818E+02
 20
1.55056621E+02
 11
-3.31582538E+02
 21
1.49556621E+02
  0
LINE
  8
0
 62
7
 10
-3.12625471E+02
 20
2.14556621E+02
 11
-3.31582538E+02
 21
2.14556621E+02
  0
LINE
  8
0
 62
7
 10
-3.12625471E+02
 20
2.14556621E+02
 11
-3.03108818E+02
 21
2.09062179E+02
  0
LINE
  8
0
 62
7
 10
-3.41108818E+02
 20
2.09056621E+02
 11
-3.31582538E+02
 21
2.14556621E+02
  0
LINE
  8
0
 62
7
 10
-7.25099659E+01
 20
1.23056621E+02
 11
-7.25099659E+01
 21
2.10566210E+01
  0
LINE
  8
0
 62
7
 10
-3.45099659E+01
 20
1.23056621E+02
 11
-3.45099659E+01
 21
2.10566210E+01
  0
LINE
  8
0
 62
7
 10
-6.85099659E+01
 20
1.27056621E+02
 11
-3.85099659E+01
 21
1.27056621E+02
  0
LINE
  8
0
 62
7
 10
-6.85099659E+01
 20
1.70566210E+01
 11
-3.85099659E+01
 21
1.70566210E+01
  0
LINE
  8
0
 62
7
 10
-6.85099659E+01
 20
1.27056621E+02
 11
-7.25099659E+01
 21
1.23056621E+02
  0
LINE
  8
0
 62
7
 10
-3.85099659E+01
 20
1.27056621E+02
 11
-3.45099659E+01
 21
1.23056621E+02
  0
LINE
  8
0
 62
7
 10
-3.45099659E+01
 20
2.10566210E+01
 11
-3.85099659E+01
 21
1.70566210E+01
  0
LINE
  8
0
 62
7
 10
-6.85099659E+01
 20
1.70566210E+01
 11
-7.25099659E+01
 21
2.10566210E+01
  0
LINE
  8
0
 62
7
 10
-7.25099659E+01
 20
4.90566210E+01
 11
-3.45099659E+01
 21
4.90566210E+01
  0
LINE
  8
0
 62
7
 10
-7.25099659E+01
 20
9.50566210E+01
 11
-3.45099659E+01
 21
9.50566210E+01
  0
LINE
  8
0
 62
7
 10
-6.78899659E+01
 20
1.25556621E+02
 11
-3.91399659E+01
 21
1.25556621E+02
  0
LINE
  8
0
 62
7
 10
-6.78899659E+01
 20
1.25556621E+02
 11
-7.10099659E+01
 21
1.22426621E+02
  0
LINE
  8
0
 62
7
 10
-3.91399659E+01
 20
1.25556621E+02
 11
-3.60099659E+01
 21
1.22426621E+02
  0
LINE
  8
0
 62
7
 10
-7.10099659E+01
 20
1.22426621E+02
 11
-7.10099659E+01
 21
9.50566210E+01
  0
LINE
  8
0
 62
7
 10
-3.60099659E+01
 20
1.22426621E+02
 11
-3.60099659E+01
 21
9.50566210E+01
  0
LINE
  8
0
 62
7
 10
-6.78899659E+01
 20
1.25556621E+02
 11
-6.85099659E+01
 21
1.27056621E+02
  0
LINE
  8
0
 62
7
 10
-7.10099659E+01
 20
1.22426621E+02
 11
-7.25099659E+01
 21
1.23056621E+02
  0
LINE
  8
0
 62
7
 10
-3.91399659E+01
 20
1.25556621E+02
 11
-3.85099659E+01
 21
1.27056621E+02
  0
LINE
  8
0
 62
7
 10
-3.60099659E+01
 20
1.22426621E+02
 11
-3.45099659E+01
 21
1.23056621E+02
  0
LINE
  8
0
 62
7
 10
-7.10099659E+01
 20
2.16866210E+01
 11
-7.10099659E+01
 21
4.90566210E+01
  0
LINE
  8
0
 62
7
 10
-6.78899659E+01
 20
1.85566210E+01
 11
-7.10099659E+01
 21
2.16866210E+01
  0
LINE
  8
0
 62
7
 10
-7.10099659E+01
 20
2.16866210E+01
 11
-7.25099659E+01
 21
2.10566210E+01
  0
LINE
  8
0
 62
7
 10
-6.78899659E+01
 20
1.85566210E+01
 11
-6.85099659E+01
 21
1.70566210E+01
  0
LINE
  8
0
 62
7
 10
-6.78899659E+01
 20
1.85566210E+01
 11
-3.91399659E+01
 21
1.85566210E+01
  0
LINE
  8
0
 62
7
 10
-3.91399659E+01
 20
1.85566210E+01
 11
-3.85099659E+01
 21
1.70566210E+01
  0
LINE
  8
0
 62
7
 10
-3.60099659E+01
 20
2.16866210E+01
 11
-3.60099659E+01
 21
4.90566210E+01
  0
LINE
  8
0
 62
7
 10
-3.91399659E+01
 20
1.85566210E+01
 11
-3.60099659E+01
 21
2.16866210E+01
  0
LINE
  8
0
 62
7
 10
-3.60099659E+01
 20
2.16866210E+01
 11
-3.45099659E+01
 21
2.10566210E+01
  0
LINE
  8
0
  6
CENTER
 62
2
 10
-7.55099659E+01
 20
7.20566210E+01
 11
-3.15099659E+01
 21
7.20566210E+01
  0
LINE
  8
0
  6
CENTER
 62
2
 10
-6.20099659E+01
 20
1.17056621E+02
 11
-4.50099659E+01
 21
1.17056621E+02
  0
LINE
  8
0
 62
7
 10
-5.55099659E+01
 20
1.21556621E+02
 11
-5.15099659E+01
 21
1.21556621E+02
  0
LINE
  8
0
 62
7
 10
-5.55099659E+01
 20
1.12556621E+02
 11
-5.15099659E+01
 21
1.12556621E+02
  0
LINE
  8
0
  6
CENTER
 62
2
 10
-5.15099659E+01
 20
1.23556621E+02
 11
-5.15099659E+01
 21
1.10556621E+02
  0
LINE
  8
0
  6
CENTER
 62
2
 10
-5.55099659E+01
 20
1.23556621E+02
 11
-5.55099659E+01
 21
1.10556621E+02
  0
LINE
  8
0
 62
7
 10
-5.55099659E+01
 20
2.25566210E+01
 11
-5.15099659E+01
 21
2.25566210E+01
  0
LINE
  8
0
  6
CENTER
 62
2
 10
-5.55099659E+01
 20
2.05566210E+01
 11
-5.55099659E+01
 21
3.35566210E+01
  0
LINE
  8
0
  6
CENTER
 62
2
 10
-5.15099659E+01
 20
2.05566210E+01
 11
-5.15099659E+01
 21
3.35566210E+01
  0
LINE
  8
0
 62
7
 10
-5.55099659E+01
 20
3.15566210E+01
 11
-5.15099659E+01
 21
3.15566210E+01
  0
LINE
  8
0
  6
CENTER
 62
2
 10
-6.20099659E+01
 20
2.70566210E+01
 11
-4.50099659E+01
 21
2.70566210E+01
  0
LINE
  8
0
  6
CENTER
 62
2
 10
-5.35099659E+01
 20
1.32056621E+02
 11
-5.35099659E+01
 21
1.20566210E+01
  0
LINE
  8
0
 62
7
 10
-6.90099659E+01
 20
1.04016621E+02
 11
-3.80099659E+01
 21
1.04016621E+02
  0
LINE
  8
0
 62
7
 10
-6.90099659E+01
 20
4.00966210E+01
 11
-3.80099659E+01
 21
4.00966210E+01
  0
ARC
  8
0
 62
7
 10
-5.15099659E+01
 20
1.17056621E+02
 40
4.50000000E+00
 50
2.70000000E+02
 51
9.00000002E+01
  0
ARC
  8
0
 62
7
 10
-5.55099659E+01
 20
1.17056621E+02
 40
4.50000000E+00
 50
9.00000002E+01
 51
2.70000000E+02
  0
ARC
  8
0
 62
7
 10
-5.15099659E+01
 20
2.70566210E+01
 40
4.50000000E+00
 50
2.70000000E+02
 51
9.00000002E+01
  0
ARC
  8
0
 62
7
 10
-5.55099659E+01
 20
2.70566210E+01
 40
4.50000000E+00
 50
9.00000002E+01
 51
2.70000000E+02
  0
LINE
  8
0
 62
7
 10
-6.29799659E+01
 20
8.95566210E+01
 11
-6.29799659E+01
 21
5.45566210E+01
  0
LINE
  8
0
 62
7
 10
-6.29799659E+01
 20
8.95566210E+01
 11
-7.25099659E+01
 21
9.50566210E+01
  0
CIRCLE
  8
0
 62
7
 10
-5.35041993E+01
 20
8.35594433E+01
 40
5.50000000E+00
  0
LINE
  8
0
  6
CENTER
 62
2
 10
-4.49999659E+01
 20
8.35566210E+01
 11
-6.19999659E+01
 21
8.35566210E+01
  0
LINE
  8
0
 62
7
 10
-4.40299659E+01
 20
8.95566210E+01
 11
-6.29799659E+01
 21
8.95566210E+01
  0
CIRCLE
  8
0
 62
7
 10
-5.35041993E+01
 20
8.35594435E+01
 40
2.89829731E+00
  0
CIRCLE
  8
0
 62
7
 10
-5.35041993E+01
 20
8.35594435E+01
 40
3.96076870E+00
  0
CIRCLE
  8
0
 62
7
 10
-5.35041993E+01
 20
8.35594433E+01
 40
5.00000000E+00
  0
LINE
  8
0
 62
7
 10
-5.60141993E+01
 20
8.21194433E+01
 11
-5.35041993E+01
 21
8.06694433E+01
  0
LINE
  8
0
 62
7
 10
-5.60141993E+01
 20
8.49994433E+01
 11
-5.35041993E+01
 21
8.64494433E+01
  0
LINE
  8
0
 62
7
 10
-5.60141993E+01
 20
8.49994433E+01
 11
-5.60141993E+01
 21
8.21194433E+01
  0
LINE
  8
0
 62
7
 10
-6.29799659E+01
 20
5.45566210E+01
 11
-7.25099659E+01
 21
4.90566210E+01
  0
CIRCLE
  8
0
 62
7
 10
-5.35041993E+01
 20
6.05594433E+01
 40
5.50000000E+00
  0
LINE
  8
0
 62
7
 10
-4.40299659E+01
 20
5.45566210E+01
 11
-6.29799659E+01
 21
5.45566210E+01
  0
LINE
  8
0
  6
CENTER
 62
2
 10
-4.49999659E+01
 20
6.05566210E+01
 11
-6.19999659E+01
 21
6.05566210E+01
  0
CIRCLE
  8
0
 62
7
 10
-5.35041993E+01
 20
6.05594435E+01
 40
2.89829731E+00
  0
CIRCLE
  8
0
 62
7
 10
-5.35041993E+01
 20
6.05594435E+01
 40
3.96076870E+00
  0
CIRCLE
  8
0
 62
7
 10
-5.35041993E+01
 20
6.05594433E+01
 40
5.00000000E+00
  0
LINE
  8
0
 62
7
 10
-5.60141993E+01
 20
5.91194433E+01
 11
-5.35041993E+01
 21
5.76694433E+01
  0
LINE
  8
0
 62
7
 10
-5.60141993E+01
 20
6.19994433E+01
 11
-5.35041993E+01
 21
6.34494433E+01
  0
LINE
  8
0
 62
7
 10
-5.60141993E+01
 20
6.19994433E+01
 11
-5.60141993E+01
 21
5.91194433E+01
  0
LINE
  8
0
 62
7
 10
-4.40299659E+01
 20
5.45566210E+01
 11
-3.45099659E+01
 21
4.90566210E+01
  0
LINE
  8
0
 62
7
 10
-4.40299659E+01
 20
8.95566210E+01
 11
-4.40299659E+01
 21
5.45566210E+01
  0
LINE
  8
0
 62
7
 10
-5.35041993E+01
 20
6.34494433E+01
 11
-5.09941993E+01
 21
6.19994433E+01
  0
LINE
  8
0
 62
7
 10
-5.35041993E+01
 20
5.76694433E+01
 11
-5.09941993E+01
 21
5.91194433E+01
  0
LINE
  8
0
 62
7
 10
-5.09941993E+01
 20
6.19994433E+01
 11
-5.09941993E+01
 21
5.91194433E+01
  0
LINE
  8
0
 62
7
 10
-4.40299659E+01
 20
8.95566210E+01
 11
-3.45099659E+01
 21
9.50566210E+01
  0
LINE
  8
0
 62
7
 10
-5.35041993E+01
 20
8.64494433E+01
 11
-5.09941993E+01
 21
8.49994433E+01
  0
LINE
  8
0
 62
7
 10
-5.35041993E+01
 20
8.06694433E+01
 11
-5.09941993E+01
 21
8.21194433E+01
  0
LINE
  8
0
 62
7
 10
-5.09941993E+01
 20
8.49994433E+01
 11
-5.09941993E+01
 21
8.21194433E+01
  0
LINE
  8
0
  6
CENTER
 62
2
 10
9.48047729E+01
 20
7.20566210E+01
 11
-8.53440123E+00
 21
7.20566210E+01
  0
LINE
  8
0
 62
7
 10
8.91283881E+01
 20
1.26556621E+02
 11
8.91283881E+01
 21
1.75566210E+01
  0
LINE
  8
0
 62
7
 10
8.11283881E+01
 20
1.25556621E+02
 11
8.11283881E+01
 21
1.05586621E+02
  0
LINE
  8
0
 62
7
 10
7.46683881E+01
 20
4.90566210E+01
 11
2.12838808E+00
 21
4.90566210E+01
  0
LINE
  8
0
 62
7
 10
7.46683881E+01
 20
9.50566210E+01
 11
2.12838808E+00
 21
9.50566210E+01
  0
LINE
  8
0
 62
7
 10
8.86283881E+01
 20
1.27056621E+02
 11
8.26283881E+01
 21
1.27056621E+02
  0
LINE
  8
0
 62
7
 10
8.86283881E+01
 20
1.70566210E+01
 11
8.26283881E+01
 21
1.70566210E+01
  0
LINE
  8
0
 62
7
 10
8.11283881E+01
 20
3.85266210E+01
 11
8.11283881E+01
 21
1.85566210E+01
  0
LINE
  8
0
 62
7
 10
8.11283881E+01
 20
1.85566210E+01
 11
8.26283881E+01
 21
1.70566210E+01
  0
LINE
  8
0
 62
7
 10
8.26283881E+01
 20
1.27056621E+02
 11
8.11283881E+01
 21
1.25556621E+02
  0
LINE
  8
0
 62
7
 10
8.04583881E+01
 20
1.03086621E+02
 11
7.63983881E+01
 21
9.60566210E+01
  0
LINE
  8
0
 62
7
 10
8.04583881E+01
 20
4.10266210E+01
 11
7.63983881E+01
 21
4.80566210E+01
  0
LINE
  8
0
  6
CENTER
 62
2
 10
2.91283881E+01
 20
9.60566210E+01
 11
2.91283881E+01
 21
4.80566210E+01
  0
LINE
  8
0
 62
7
 10
5.41283881E+01
 20
9.50566210E+01
 11
5.41283881E+01
 21
4.90566210E+01
  0
LINE
  8
0
 62
7
 10
7.41283881E+01
 20
9.50566210E+01
 11
7.41283881E+01
 21
4.90566210E+01
  0
LINE
  8
0
 62
7
 10
8.26283881E+01
 20
1.27056621E+02
 11
8.26283881E+01
 21
1.05586621E+02
  0
LINE
  8
0
 62
7
 10
8.17583881E+01
 20
1.02336621E+02
 11
7.76983881E+01
 21
9.53066210E+01
  0
LINE
  8
0
 62
7
 10
7.46683881E+01
 20
9.35566210E+01
 11
7.41283881E+01
 21
9.35566210E+01
  0
LINE
  8
0
 62
7
 10
7.46683881E+01
 20
5.05566210E+01
 11
7.41283881E+01
 21
5.05566210E+01
  0
LINE
  8
0
 62
7
 10
8.17583881E+01
 20
4.17766210E+01
 11
7.76983881E+01
 21
4.88066210E+01
  0
LINE
  8
0
 62
7
 10
8.26283881E+01
 20
3.85266210E+01
 11
8.26283881E+01
 21
1.70566210E+01
  0
LINE
  8
0
 62
7
 10
8.91283881E+01
 20
1.23056621E+02
 11
8.26283881E+01
 21
1.23056621E+02
  0
LINE
  8
0
 62
7
 10
8.26283881E+01
 20
1.23056621E+02
 11
8.11283881E+01
 21
1.22426621E+02
  0
LINE
  8
0
 62
7
 10
8.26283881E+01
 20
2.10566210E+01
 11
8.11283881E+01
 21
2.16866210E+01
  0
LINE
  8
0
 62
7
 10
8.91283881E+01
 20
2.10566210E+01
 11
8.26283881E+01
 21
2.10566210E+01
  0
ARC
  8
0
 62
7
 10
8.86283881E+01
 20
1.26556621E+02
 40
5.00000000E-01
 50
0.00000000E+00
 51
9.00000002E+01
  0
ARC
  8
0
 62
7
 10
8.86283881E+01
 20
1.75566210E+01
 40
5.00000000E-01
 50
2.70000000E+02
 51
0.00000000E+00
  0
ARC
  8
0
 62
7
 10
7.61269679E+01
 20
1.05587222E+02
 40
5.00142023E+00
 50
3.30001448E+02
 51
3.59993120E+02
  0
ARC
  8
0
 62
7
 10
7.61269679E+01
 20
3.85260204E+01
 40
5.00142023E+00
 50
6.88056164E-03
 51
2.99985515E+01
  0
ARC
  8
0
 62
7
 10
7.46658238E+01
 20
4.70557348E+01
 40
2.00088785E+00
 50
3.00146252E+01
 51
8.99265711E+01
  0
ARC
  8
0
 62
7
 10
7.46658238E+01
 20
9.70575072E+01
 40
2.00088785E+00
 50
2.70073429E+02
 51
3.29985375E+02
  0
CIRCLE
  8
0
 62
7
 10
2.91283881E+01
 20
7.20566210E+01
 40
1.50000000E+01
  0
ARC
  8
0
 62
7
 10
7.61265523E+01
 20
1.05585666E+02
 40
6.50183586E+00
 50
3.30019054E+02
 51
8.41329891E-03
  0
ARC
  8
0
 62
7
 10
7.46665464E+01
 20
9.70579240E+01
 40
3.50130350E+00
 50
2.70030138E+02
 51
3.29987693E+02
  0
ARC
  8
0
 62
7
 10
7.46665464E+01
 20
4.70553180E+01
 40
3.50130350E+00
 50
3.00123068E+01
 51
8.99698626E+01
  0
ARC
  8
0
 62
7
 10
7.61265523E+01
 20
3.85275757E+01
 40
6.50183586E+00
 50
3.59991587E+02
 51
2.99809466E+01
  0
LINE
  8
0
 62
7
 10
7.01283881E+01
 20
9.50566210E+01
 11
7.01283881E+01
 21
4.90566210E+01
  0
CIRCLE
  8
0
 62
7
 10
6.41326520E+01
 20
7.20480260E+01
 40
2.30940056E+00
  0
CIRCLE
  8
0
 62
7
 10
6.41326520E+01
 20
7.20480260E+01
 40
3.73038483E+00
  0
CIRCLE
  8
0
 62
7
 10
6.41326520E+01
 20
7.20480260E+01
 40
4.25000000E+00
  0
CIRCLE
  8
0
 62
7
 10
6.41326520E+01
 20
7.20480260E+01
 40
4.75000000E+00
  0
LINE
  8
0
 62
7
 10
6.21283881E+01
 20
7.08966210E+01
 11
6.41283881E+01
 21
6.97466210E+01
  0
LINE
  8
0
 62
7
 10
6.41283881E+01
 20
7.43566210E+01
 11
6.61283881E+01
 21
7.32066210E+01
  0
LINE
  8
0
 62
7
 10
6.41283881E+01
 20
6.97466210E+01
 11
6.61283881E+01
 21
7.08966210E+01
  0
LINE
  8
0
 62
7
 10
6.21283881E+01
 20
7.32066210E+01
 11
6.41283881E+01
 21
7.43566210E+01
  0
LINE
  8
0
 62
7
 10
6.61283881E+01
 20
7.32066210E+01
 11
6.61283881E+01
 21
7.08966210E+01
  0
LINE
  8
0
 62
7
 10
6.21283881E+01
 20
7.32066210E+01
 11
6.21283881E+01
 21
7.08966210E+01
  0
LINE
  8
0
 62
7
 10
4.96283881E+01
 20
8.65566210E+01
 11
5.41283881E+01
 21
8.65566210E+01
  0
LINE
  8
0
 62
7
 10
4.96283881E+01
 20
5.75566210E+01
 11
5.41283881E+01
 21
5.75566210E+01
  0
LINE
  8
0
 62
7
 10
4.96283881E+01
 20
8.65566210E+01
 11
4.96283881E+01
 21
5.75566210E+01
  0
LINE
  8
0
  6
CENTER
 62
2
 10
6.41283881E+01
 20
7.95566210E+01
 11
6.41283881E+01
 21
6.45566210E+01
  0
LINE
  8
0
 62
7
 10
5.41283881E+01
 20
9.35566210E+01
 11
7.01283881E+01
 21
9.35566210E+01
  0
LINE
  8
0
 62
7
 10
5.41283881E+01
 20
5.05566210E+01
 11
7.01283881E+01
 21
5.05566210E+01
  0
LINE
  8
0
 62
7
 10
-3.37161192E+00
 20
8.95566210E+01
 11
-3.37161192E+00
 21
5.45566210E+01
  0
LINE
  8
0
 62
7
 10
8.62838808E+00
 20
8.65566210E+01
 11
8.62838808E+00
 21
5.75566210E+01
  0
LINE
  8
0
 62
7
 10
4.12838808E+00
 20
9.50566210E+01
 11
4.12838808E+00
 21
4.90566210E+01
  0
LINE
  8
0
 62
7
 10
2.12838808E+00
 20
9.50566210E+01
 11
2.12838808E+00
 21
4.90566210E+01
  0
LINE
  8
0
 62
7
 10
2.12838808E+00
 20
9.50566210E+01
 11
-3.37161192E+00
 21
8.95566210E+01
  0
LINE
  8
0
 62
7
 10
4.12838808E+00
 20
8.65566210E+01
 11
8.62838808E+00
 21
8.65566210E+01
  0
LINE
  8
0
 62
7
 10
-4.87161192E+00
 20
7.91566210E+01
 11
-4.27161192E+00
 21
7.85566210E+01
  0
LINE
  8
0
 62
7
 10
-4.27161192E+00
 20
8.85566210E+01
 11
-4.27161192E+00
 21
7.85566210E+01
  0
LINE
  8
0
  6
CENTER
 62
2
 10
-6.22103489E+00
 20
8.35566210E+01
 11
-4.04734819E-01
 21
8.35566210E+01
  0
LINE
  8
0
 62
7
 10
-4.27161192E+00
 20
8.85566210E+01
 11
-3.37161192E+00
 21
8.85566210E+01
  0
LINE
  8
0
 62
7
 10
-4.87161192E+00
 20
8.79566210E+01
 11
-4.87161192E+00
 21
7.91566210E+01
  0
LINE
  8
0
 62
7
 10
-4.87161192E+00
 20
8.79566210E+01
 11
-4.27161192E+00
 21
8.85566210E+01
  0
LINE
  8
0
 62
7
 10
-4.27161192E+00
 20
7.85566210E+01
 11
-3.37161192E+00
 21
7.85566210E+01
  0
LINE
  8
0
 62
7
 10
2.12838808E+00
 20
4.90566210E+01
 11
-3.37161192E+00
 21
5.45566210E+01
  0
LINE
  8
0
 62
7
 10
4.12838808E+00
 20
5.75566210E+01
 11
8.62838808E+00
 21
5.75566210E+01
  0
LINE
  8
0
 62
7
 10
-4.27161192E+00
 20
6.55566210E+01
 11
-4.27161192E+00
 21
5.55566210E+01
  0
LINE
  8
0
 62
7
 10
-4.87161192E+00
 20
6.49566210E+01
 11
-4.87161192E+00
 21
5.61566210E+01
  0
LINE
  8
0
  6
CENTER
 62
2
 10
-6.22103489E+00
 20
6.05566210E+01
 11
-4.04734819E-01
 21
6.05566210E+01
  0
LINE
  8
0
 62
7
 10
-4.87161192E+00
 20
6.49566210E+01
 11
-4.27161192E+00
 21
6.55566210E+01
  0
LINE
  8
0
 62
7
 10
-4.27161192E+00
 20
6.55566210E+01
 11
-3.36161192E+00
 21
6.55566210E+01
  0
LINE
  8
0
 62
7
 10
-4.87161192E+00
 20
5.61566210E+01
 11
-4.27161192E+00
 21
5.55566210E+01
  0
LINE
  8
0
 62
7
 10
-4.27161192E+00
 20
5.55566210E+01
 11
-3.36161192E+00
 21
5.55566210E+01
  0
LINE
  8
0
  6
CENTER
 62
2
 10
9.48047729E+01
 20
2.70566210E+01
 11
7.41283881E+01
 21
2.70566210E+01
  0
LINE
  8
0
  6
CENTER
 62
2
 10
9.48047729E+01
 20
1.17056621E+02
 11
7.41283881E+01
 21
1.17056621E+02
  0
ARC
  8
0
 62
7
 10
-6.00099659E+01
 20
2.03534495E+02
 40
5.00000000E-01
 50
0.00000000E+00
 51
9.00000002E+01
  0
ARC
  8
0
 62
7
 10
-7.20099659E+01
 20
2.24534495E+02
 40
5.00000000E-01
 50
1.80000000E+02
 51
2.70000000E+02
  0
ARC
  8
0
 62
7
 10
-4.80099659E+01
 20
1.54534495E+02
 40
5.00000000E-01
 50
2.70000000E+02
 51
0.00000000E+00
  0
ARC
  8
0
 62
7
 10
-5.90099659E+01
 20
1.54534495E+02
 40
5.00000000E-01
 50
1.80000000E+02
 51
2.70000000E+02
  0
ARC
  8
0
 62
7
 10
-4.70099659E+01
 20
2.03534495E+02
 40
5.00000000E-01
 50
9.00000002E+01
 51
1.80000000E+02
  0
ARC
  8
0
 62
7
 10
-3.50099659E+01
 20
2.24534495E+02
 40
5.00000000E-01
 50
2.70000000E+02
 51
0.00000000E+00
  0
ARC
  8
0
 62
7
 10
-3.50099659E+01
 20
2.38534495E+02
 40
5.00000000E-01
 50
0.00000000E+00
 51
9.00000002E+01
  0
ARC
  8
0
 62
7
 10
-7.20099659E+01
 20
2.38534495E+02
 40
5.00000000E-01
 50
9.00000002E+01
 51
1.80000000E+02
  0
LINE
  8
0
  6
CENTER
 62
2
 10
-5.35099659E+01
 20
2.44034495E+02
 11
-5.35099659E+01
 21
1.43685072E+02
  0
LINE
  8
0
 62
7
 10
-5.95099659E+01
 20
2.03534495E+02
 11
-5.95099659E+01
 21
1.54534495E+02
  0
LINE
  8
0
 62
7
 10
-6.35099659E+01
 20
2.04034495E+02
 11
-6.00099659E+01
 21
2.04034495E+02
  0
LINE
  8
0
 62
7
 10
-6.35099659E+01
 20
2.24034495E+02
 11
-6.35099659E+01
 21
2.04034495E+02
  0
LINE
  8
0
 62
7
 10
-7.20099659E+01
 20
2.24034495E+02
 11
-6.35099659E+01
 21
2.24034495E+02
  0
LINE
  8
0
 62
7
 10
-7.25099659E+01
 20
2.38534495E+02
 11
-7.25099659E+01
 21
2.24534495E+02
  0
LINE
  8
0
 62
7
 10
-4.00099659E+01
 20
2.31034495E+02
 11
-3.85099659E+01
 21
2.32534495E+02
  0
LINE
  8
0
 62
7
 10
-6.70099659E+01
 20
2.31034495E+02
 11
-6.85099659E+01
 21
2.32534495E+02
  0
LINE
  8
0
 62
7
 10
-3.85099659E+01
 20
2.39034495E+02
 11
-3.85099659E+01
 21
2.32534495E+02
  0
LINE
  8
0
 62
7
 10
-6.85099659E+01
 20
2.39034495E+02
 11
-6.85099659E+01
 21
2.32534495E+02
  0
LINE
  8
0
 62
7
 10
-6.90099659E+01
 20
2.26304495E+02
 11
-3.80099659E+01
 21
2.26304495E+02
  0
LINE
  8
0
 62
7
 10
-3.60099659E+01
 20
2.31034495E+02
 11
-3.45099659E+01
 21
2.32534495E+02
  0
LINE
  8
0
 62
7
 10
-7.10099659E+01
 20
2.31034495E+02
 11
-7.25099659E+01
 21
2.32534495E+02
  0
LINE
  8
0
 62
7
 10
-3.60099659E+01
 20
2.31034495E+02
 11
-3.60099659E+01
 21
2.24034495E+02
  0
LINE
  8
0
 62
7
 10
-7.10099659E+01
 20
2.31034495E+02
 11
-7.10099659E+01
 21
2.24034495E+02
  0
LINE
  8
0
  6
CENTER
 62
2
 10
-6.15099659E+01
 20
1.79034495E+02
 11
-4.55099659E+01
 21
1.79034495E+02
  0
LINE
  8
0
 62
7
 10
-4.70099659E+01
 20
2.04034495E+02
 11
-4.35099659E+01
 21
2.04034495E+02
  0
LINE
  8
0
 62
7
 10
-4.35099659E+01
 20
2.24034495E+02
 11
-3.50099659E+01
 21
2.24034495E+02
  0
LINE
  8
0
 62
7
 10
-4.35099659E+01
 20
2.24034495E+02
 11
-4.35099659E+01
 21
2.04034495E+02
  0
LINE
  8
0
 62
7
 10
-4.75099659E+01
 20
2.03534495E+02
 11
-4.75099659E+01
 21
1.54534495E+02
  0
LINE
  8
0
 62
7
 10
-7.25099659E+01
 20
2.31034495E+02
 11
-3.45099659E+01
 21
2.31034495E+02
  0
LINE
  8
0
 62
7
 10
-7.25099659E+01
 20
2.32534495E+02
 11
-3.45099659E+01
 21
2.32534495E+02
  0
LINE
  8
0
 62
7
 10
-7.20099659E+01
 20
2.39034495E+02
 11
-3.50099659E+01
 21
2.39034495E+02
  0
LINE
  8
0
 62
7
 10
-3.45099659E+01
 20
2.38534495E+02
 11
-3.45099659E+01
 21
2.24534495E+02
  0
LINE
  8
0
 62
7
 10
-4.40362453E+01
 20
1.46534495E+02
 11
-6.29836864E+01
 21
1.46534495E+02
  0
LINE
  8
0
 62
7
 10
-3.45099659E+01
 20
1.52034495E+02
 11
-7.25099659E+01
 21
1.52034495E+02
  0
LINE
  8
0
 62
7
 10
-3.45099659E+01
 20
1.54034495E+02
 11
-7.25099659E+01
 21
1.54034495E+02
  0
LINE
  8
0
 62
7
 10
-7.25099659E+01
 20
1.52034495E+02
 11
-7.25099659E+01
 21
1.54034495E+02
  0
LINE
  8
0
 62
7
 10
-7.25099659E+01
 20
1.54034495E+02
 11
-7.21162669E+01
 21
1.58534495E+02
  0
LINE
  8
0
 62
7
 10
-7.25099659E+01
 20
1.52034495E+02
 11
-6.29836864E+01
 21
1.46534495E+02
  0
LINE
  8
0
 62
7
 10
-6.77099659E+01
 20
1.55834495E+02
 11
-6.77099659E+01
 21
1.58534495E+02
  0
LINE
  8
0
 62
7
 10
-6.59099659E+01
 20
1.54034495E+02
 11
-6.77099659E+01
 21
1.55834495E+02
  0
LINE
  8
0
 62
7
 10
-6.77099659E+01
 20
1.58534495E+02
 11
-7.21162669E+01
 21
1.58534495E+02
  0
LINE
  8
0
 62
7
 10
-3.49036648E+01
 20
1.58534495E+02
 11
-3.93099659E+01
 21
1.58534495E+02
  0
LINE
  8
0
 62
7
 10
-3.45099659E+01
 20
1.52034495E+02
 11
-3.45099659E+01
 21
1.54034495E+02
  0
LINE
  8
0
 62
7
 10
-3.45099659E+01
 20
1.54034495E+02
 11
-3.49036648E+01
 21
1.58534495E+02
  0
LINE
  8
0
 62
7
 10
-3.45099659E+01
 20
1.52034495E+02
 11
-4.40362453E+01
 21
1.46534495E+02
  0
LINE
  8
0
 62
7
 10
-3.93099659E+01
 20
1.55834495E+02
 11
-3.93099659E+01
 21
1.58534495E+02
  0
LINE
  8
0
 62
7
 10
-4.11099659E+01
 20
1.54034495E+02
 11
-3.93099659E+01
 21
1.55834495E+02
  0
LINE
  8
0
 62
7
 10
-5.79099659E+01
 20
1.45034495E+02
 11
-4.91099659E+01
 21
1.45034495E+02
  0
LINE
  8
0
 62
7
 10
-5.85099659E+01
 20
1.45634495E+02
 11
-4.85099659E+01
 21
1.45634495E+02
  0
LINE
  8
0
 62
7
 10
-4.85099659E+01
 20
1.45634495E+02
 11
-4.85099659E+01
 21
1.46544495E+02
  0
LINE
  8
0
 62
7
 10
-4.91099659E+01
 20
1.45034495E+02
 11
-4.85099659E+01
 21
1.45634495E+02
  0
LINE
  8
0
 62
7
 10
-5.79099659E+01
 20
1.45034495E+02
 11
-5.85099659E+01
 21
1.45634495E+02
  0
LINE
  8
0
 62
7
 10
-5.85099659E+01
 20
1.45634495E+02
 11
-5.85099659E+01
 21
1.46544495E+02
  0
LINE
  8
0
 62
7
 10
-7.25099659E+01
 20
2.20034495E+02
 11
-6.85099659E+01
 21
2.24034495E+02
  0
LINE
  8
0
 62
7
 10
-7.25099659E+01
 20
2.04034495E+02
 11
-6.35099659E+01
 21
2.04034495E+02
  0
LINE
  8
0
 62
7
 10
-6.62099659E+01
 20
2.04034495E+02
 11
-6.80099659E+01
 21
2.02234495E+02
  0
LINE
  8
0
 62
7
 10
-7.10099659E+01
 20
2.21534495E+02
 11
-7.10099659E+01
 21
2.04034495E+02
  0
LINE
  8
0
 62
7
 10
-7.25099659E+01
 20
2.04034495E+02
 11
-7.21162669E+01
 21
1.99534495E+02
  0
LINE
  8
0
 62
7
 10
-6.80099659E+01
 20
2.02234495E+02
 11
-6.80570945E+01
 21
1.99534495E+02
  0
LINE
  8
0
 62
7
 10
-7.21162669E+01
 20
1.99534495E+02
 11
-6.80570945E+01
 21
1.99534495E+02
  0
LINE
  8
0
 62
7
 10
-7.25099659E+01
 20
2.20034495E+02
 11
-7.25099659E+01
 21
2.04034495E+02
  0
LINE
  8
0
 62
7
 10
-3.45099659E+01
 20
2.20034495E+02
 11
-3.85099659E+01
 21
2.24034495E+02
  0
LINE
  8
0
 62
7
 10
-3.45099659E+01
 20
2.04034495E+02
 11
-4.35099659E+01
 21
2.04034495E+02
  0
LINE
  8
0
 62
7
 10
-4.08099659E+01
 20
2.04034495E+02
 11
-3.90099659E+01
 21
2.02234495E+02
  0
LINE
  8
0
 62
7
 10
-3.60099659E+01
 20
2.21534495E+02
 11
-3.60099659E+01
 21
2.04034495E+02
  0
LINE
  8
0
 62
7
 10
-3.45099659E+01
 20
2.04034495E+02
 11
-3.49036648E+01
 21
1.99534495E+02
  0
LINE
  8
0
 62
7
 10
-3.90099659E+01
 20
2.02234495E+02
 11
-3.89628372E+01
 21
1.99534495E+02
  0
LINE
  8
0
 62
7
 10
-3.49036648E+01
 20
1.99534495E+02
 11
-3.89628372E+01
 21
1.99534495E+02
  0
LINE
  8
0
 62
7
 10
-3.45099659E+01
 20
2.20034495E+02
 11
-3.45099659E+01
 21
2.04034495E+02
  0
LINE
  8
0
 62
7
 10
2.13076265E+02
 20
1.06056621E+02
 11
2.13076265E+02
 21
9.80566210E+01
  0
LINE
  8
0
 62
7
 10
2.45076265E+02
 20
1.06056621E+02
 11
2.45076265E+02
 21
9.80566210E+01
  0
LINE
  8
0
 62
7
 10
2.44076265E+02
 20
1.07056621E+02
 11
2.14076265E+02
 21
1.07056621E+02
  0
LINE
  8
0
 62
7
 10
2.44076265E+02
 20
1.07056621E+02
 11
2.45076265E+02
 21
1.06056621E+02
  0
LINE
  8
0
 62
7
 10
2.14076265E+02
 20
1.07056621E+02
 11
2.13076265E+02
 21
1.06056621E+02
  0
LINE
  8
0
 62
7
 10
2.45076265E+02
 20
1.06056621E+02
 11
2.13076265E+02
 21
1.06056621E+02
  0
LINE
  8
0
 62
7
 10
2.57076265E+02
 20
4.70566210E+01
 11
2.09076265E+02
 21
4.70566210E+01
  0
LINE
  8
0
 62
7
 10
2.57076265E+02
 20
9.70566210E+01
 11
2.09076265E+02
 21
9.70566210E+01
  0
LINE
  8
0
  6
CENTER
 62
2
 10
2.29076265E+02
 20
1.10056621E+02
 11
2.29076265E+02
 21
9.40566210E+01
  0
LINE
  8
0
 62
7
 10
2.58076265E+02
 20
9.60566210E+01
 11
2.58076265E+02
 21
4.80566210E+01
  0
LINE
  8
0
 62
7
 10
2.58076265E+02
 20
4.80566210E+01
 11
2.57076265E+02
 21
4.70566210E+01
  0
LINE
  8
0
 62
7
 10
2.09076265E+02
 20
4.70566210E+01
 11
2.08076265E+02
 21
4.80566210E+01
  0
LINE
  8
0
 62
7
 10
2.09076265E+02
 20
9.70566210E+01
 11
2.08076265E+02
 21
9.60566210E+01
  0
LINE
  8
0
 62
7
 10
2.57076265E+02
 20
9.70566210E+01
 11
2.58076265E+02
 21
9.60566210E+01
  0
LINE
  8
0
 62
7
 10
2.58076265E+02
 20
9.60566210E+01
 11
2.08076265E+02
 21
9.60566210E+01
  0
LINE
  8
0
 62
7
 10
2.58076265E+02
 20
4.80566210E+01
 11
2.08076265E+02
 21
4.80566210E+01
  0
LINE
  8
0
 62
7
 10
2.57076265E+02
 20
9.70566210E+01
 11
2.57076265E+02
 21
4.70566210E+01
  0
LINE
  8
0
 62
7
 10
2.09076265E+02
 20
9.70566210E+01
 11
2.09076265E+02
 21
9.60566210E+01
  0
LINE
  8
0
 62
7
 10
2.50776265E+02
 20
8.70566210E+01
 11
2.21076265E+02
 21
8.70566210E+01
  0
LINE
  8
0
 62
7
 10
2.50776265E+02
 20
5.70566210E+01
 11
2.21076265E+02
 21
5.70566210E+01
  0
LINE
  8
0
 62
7
 10
2.51076265E+02
 20
8.67566210E+01
 11
2.51076265E+02
 21
5.73566210E+01
  0
LINE
  8
0
  6
CENTER
 62
2
 10
1.81076265E+02
 20
7.20566210E+01
 11
2.68076265E+02
 21
7.20566210E+01
  0
ARC
  8
0
 62
7
 10
2.50776262E+02
 20
8.67566178E+01
 40
3.00003147E-01
 50
6.01053124E-04
 51
9.00000002E+01
  0
ARC
  8
0
 62
7
 10
2.50776261E+02
 20
5.73566256E+01
 40
3.00004578E-01
 50
2.70000000E+02
 51
3.59999126E+02
  0
ARC
  8
0
 62
7
 10
2.46076264E+02
 20
9.80566195E+01
 40
9.99998474E-01
 50
1.79999913E+02
 51
2.70000000E+02
  0
ARC
  8
0
 62
7
 10
2.12076264E+02
 20
9.80566225E+01
 40
1.00000153E+00
 50
2.70000000E+02
 51
3.59999912E+02
  0
LINE
  8
0
 62
7
 10
1.96076265E+02
 20
4.70566210E+01
 11
1.96076265E+02
 21
4.90566210E+01
  0
LINE
  8
0
 62
7
 10
1.96076265E+02
 20
4.70566210E+01
 11
2.08076265E+02
 21
4.70566210E+01
  0
LINE
  8
0
 62
7
 10
2.08076265E+02
 20
4.70566210E+01
 11
2.08076265E+02
 21
4.90566210E+01
  0
LINE
  8
0
 62
7
 10
1.96076265E+02
 20
9.70566210E+01
 11
1.96076265E+02
 21
9.50566210E+01
  0
LINE
  8
0
 62
7
 10
1.96076265E+02
 20
9.70566210E+01
 11
2.08076265E+02
 21
9.70566210E+01
  0
LINE
  8
0
 62
7
 10
2.08076265E+02
 20
9.70566210E+01
 11
2.08076265E+02
 21
9.50566210E+01
  0
CIRCLE
  8
0
 62
7
 10
2.02076265E+02
 20
6.05566210E+01
 40
5.50000000E+00
  0
CIRCLE
  8
0
 62
7
 10
2.02076265E+02
 20
6.05566210E+01
 40
3.25000000E+00
  0
CIRCLE
  8
0
 62
7
 10
2.02076265E+02
 20
8.35566210E+01
 40
5.50000000E+00
  0
CIRCLE
  8
0
 62
7
 10
2.02076265E+02
 20
8.35566210E+01
 40
3.25000000E+00
  0
LINE
  8
0
  6
CENTER
 62
2
 10
1.94576265E+02
 20
6.05566210E+01
 11
2.09576265E+02
 21
6.05566210E+01
  0
LINE
  8
0
  6
CENTER
 62
2
 10
1.94576265E+02
 20
8.35566210E+01
 11
2.09576265E+02
 21
8.35566210E+01
  0
LINE
  8
0
  6
CENTER
 62
2
 10
2.02076265E+02
 20
9.87156181E+01
 11
2.02076265E+02
 21
4.57282256E+01
  0
LINE
  8
0
 62
7
 10
1.83076265E+02
 20
9.50566210E+01
 11
1.83076265E+02
 21
4.90566210E+01
  0
LINE
  8
0
 62
7
 10
2.21076265E+02
 20
9.50566210E+01
 11
2.21076265E+02
 21
4.90566210E+01
  0
LINE
  8
0
 62
7
 10
1.83076265E+02
 20
9.50566210E+01
 11
2.21076265E+02
 21
9.50566210E+01
  0
LINE
  8
0
 62
7
 10
1.83076265E+02
 20
4.90566210E+01
 11
2.21076265E+02
 21
4.90566210E+01
  0
LINE
  8
0
 62
7
 10
2.11559612E+02
 20
5.45566210E+01
 11
2.11559612E+02
 21
8.95566210E+01
  0
LINE
  8
0
 62
7
 10
1.92602545E+02
 20
5.45566210E+01
 11
1.92602545E+02
 21
8.95566210E+01
  0
LINE
  8
0
 62
7
 10
1.92602545E+02
 20
8.95566210E+01
 11
2.11559612E+02
 21
8.95566210E+01
  0
LINE
  8
0
 62
7
 10
1.92602545E+02
 20
5.45566210E+01
 11
2.11559612E+02
 21
5.45566210E+01
  0
LINE
  8
0
 62
7
 10
2.11559612E+02
 20
8.95566210E+01
 11
2.21076265E+02
 21
9.50566210E+01
  0
LINE
  8
0
 62
7
 10
1.92606265E+02
 20
8.95566210E+01
 11
1.83076265E+02
 21
9.50566210E+01
  0
LINE
  8
0
 62
7
 10
1.92606265E+02
 20
5.45566210E+01
 11
1.83076265E+02
 21
4.90566210E+01
  0
LINE
  8
0
 62
7
 10
2.11559612E+02
 20
5.45566210E+01
 11
2.21076265E+02
 21
4.90566210E+01
  0
LINE
  8
0
 62
7
 10
2.09076265E+02
 20
4.90566210E+01
 11
2.09076265E+02
 21
4.70566210E+01
  0
LINE
  8
0
  6
CENTER
 62
2
 10
3.23276265E+02
 20
1.12056621E+02
 11
3.23276265E+02
 21
4.20566210E+01
  0
LINE
  8
0
 62
7
 10
3.48276265E+02
 20
9.60566210E+01
 11
3.48276265E+02
 21
4.80566210E+01
  0
LINE
  8
0
 62
7
 10
2.98276265E+02
 20
9.60566210E+01
 11
2.98276265E+02
 21
4.80566210E+01
  0
LINE
  8
0
 62
7
 10
2.99276265E+02
 20
4.70566210E+01
 11
3.47276265E+02
 21
4.70566210E+01
  0
LINE
  8
0
  6
CENTER
 62
2
 10
2.87937802E+02
 20
7.20566210E+01
 11
3.58110611E+02
 21
7.20566210E+01
  0
LINE
  8
0
 62
7
 10
2.99276265E+02
 20
9.70566210E+01
 11
3.47276265E+02
 21
9.70566210E+01
  0
LINE
  8
0
 62
7
 10
2.98276265E+02
 20
4.80566210E+01
 11
2.99276265E+02
 21
4.70566210E+01
  0
LINE
  8
0
 62
7
 10
3.48276265E+02
 20
4.80566210E+01
 11
3.47276265E+02
 21
4.70566210E+01
  0
LINE
  8
0
 62
7
 10
3.47276265E+02
 20
9.70566210E+01
 11
3.48276265E+02
 21
9.60566210E+01
  0
LINE
  8
0
 62
7
 10
2.99276265E+02
 20
9.70566210E+01
 11
2.98276265E+02
 21
9.60566210E+01
  0
LINE
  8
0
 62
7
 10
2.98276265E+02
 20
9.60566210E+01
 11
3.48276265E+02
 21
9.60566210E+01
  0
LINE
  8
0
 62
7
 10
2.98276265E+02
 20
4.80566210E+01
 11
3.48276265E+02
 21
4.80566210E+01
  0
LINE
  8
0
 62
7
 10
2.99276265E+02
 20
9.70566210E+01
 11
2.99276265E+02
 21
4.70566210E+01
  0
LINE
  8
0
 62
7
 10
3.47276265E+02
 20
9.70566210E+01
 11
3.47276265E+02
 21
4.70566210E+01
  0
LINE
  8
0
 62
7
 10
3.07276265E+02
 20
1.06056621E+02
 11
3.07276265E+02
 21
9.80566210E+01
  0
LINE
  8
0
 62
7
 10
3.08276265E+02
 20
1.07056621E+02
 11
3.38276265E+02
 21
1.07056621E+02
  0
LINE
  8
0
 62
7
 10
3.07276265E+02
 20
1.06056621E+02
 11
3.39276265E+02
 21
1.06056621E+02
  0
LINE
  8
0
 62
7
 10
3.08276265E+02
 20
1.07056621E+02
 11
3.07276265E+02
 21
1.06056621E+02
  0
LINE
  8
0
 62
7
 10
3.38276265E+02
 20
1.07056621E+02
 11
3.39276265E+02
 21
1.06056621E+02
  0
LINE
  8
0
 62
7
 10
3.39276265E+02
 20
1.06056621E+02
 11
3.39276265E+02
 21
9.80566210E+01
  0
CIRCLE
  8
0
 62
7
 10
3.23276265E+02
 20
7.20566210E+01
 40
2.10000000E+01
  0
ARC
  8
0
 62
7
 10
3.06276265E+02
 20
9.80566210E+01
 40
1.00000000E+00
 50
2.70000000E+02
 51
0.00000000E+00
  0
ARC
  8
0
 62
7
 10
3.40276265E+02
 20
9.80566210E+01
 40
1.00000000E+00
 50
1.80000000E+02
 51
2.70000000E+02
  0
CIRCLE
  8
0
 62
7
 10
3.23276265E+02
 20
7.20566210E+01
 40
1.50500002E+01
  0
CIRCLE
  8
0
 62
2
 10
3.23276265E+02
 20
7.20566210E+01
 40
1.66244965E+01
  0
LINE
  8
0
 62
7
 10
2.89276265E+02
 20
5.61566210E+01
 11
2.89876265E+02
 21
5.55566210E+01
  0
LINE
  8
0
 62
7
 10
2.89276265E+02
 20
6.49566210E+01
 11
2.89876265E+02
 21
6.55566210E+01
  0
LINE
  8
0
 62
7
 10
2.89876265E+02
 20
5.55566210E+01
 11
2.89876265E+02
 21
6.55566210E+01
  0
LINE
  8
0
 62
7
 10
2.89276265E+02
 20
5.61566210E+01
 11
2.89276265E+02
 21
6.49566210E+01
  0
LINE
  8
0
 62
7
 10
2.89876265E+02
 20
6.55566210E+01
 11
2.90776265E+02
 21
6.55566210E+01
  0
LINE
  8
0
 62
7
 10
2.89876265E+02
 20
5.55566210E+01
 11
2.90776265E+02
 21
5.55566210E+01
  0
LINE
  8
0
  6
CENTER
 62
2
 10
2.87936842E+02
 20
6.05566210E+01
 11
2.93753142E+02
 21
6.05566210E+01
  0
LINE
  8
0
 62
7
 10
2.89276265E+02
 20
7.91566210E+01
 11
2.89876265E+02
 21
7.85566210E+01
  0
LINE
  8
0
 62
7
 10
2.89276265E+02
 20
8.79566210E+01
 11
2.89876265E+02
 21
8.85566210E+01
  0
LINE
  8
0
 62
7
 10
2.89876265E+02
 20
7.85566210E+01
 11
2.89876265E+02
 21
8.85566210E+01
  0
LINE
  8
0
 62
7
 10
2.89276265E+02
 20
7.91566210E+01
 11
2.89276265E+02
 21
8.79566210E+01
  0
LINE
  8
0
 62
7
 10
2.89876265E+02
 20
8.85566210E+01
 11
2.90776265E+02
 21
8.85566210E+01
  0
LINE
  8
0
 62
7
 10
2.89876265E+02
 20
7.85566210E+01
 11
2.90776265E+02
 21
7.85566210E+01
  0
LINE
  8
0
  6
CENTER
 62
2
 10
2.87936842E+02
 20
8.35566210E+01
 11
2.93753142E+02
 21
8.35566210E+01
  0
LINE
  8
0
 62
7
 10
2.90776265E+02
 20
5.45566210E+01
 11
2.96276265E+02
 21
4.90566210E+01
  0
LINE
  8
0
 62
7
 10
2.96276265E+02
 20
4.90566210E+01
 11
2.98276265E+02
 21
4.90566210E+01
  0
LINE
  8
0
 62
7
 10
2.90776265E+02
 20
8.95566210E+01
 11
2.96276265E+02
 21
9.50566210E+01
  0
LINE
  8
0
 62
7
 10
2.96276265E+02
 20
9.50566210E+01
 11
2.96276265E+02
 21
4.90566210E+01
  0
LINE
  8
0
 62
7
 10
2.90776265E+02
 20
8.95566210E+01
 11
2.90776265E+02
 21
5.45566210E+01
  0
LINE
  8
0
 62
7
 10
2.96276265E+02
 20
9.50566210E+01
 11
2.98276265E+02
 21
9.50566210E+01
  0
LINE
  8
0
 62
7
 10
3.50276265E+02
 20
9.50566210E+01
 11
3.50276265E+02
 21
4.90566210E+01
  0
LINE
  8
0
 62
7
 10
3.55776265E+02
 20
8.95566210E+01
 11
3.50276265E+02
 21
9.50566210E+01
  0
LINE
  8
0
 62
7
 10
3.55776265E+02
 20
8.95566210E+01
 11
3.55776265E+02
 21
5.45566210E+01
  0
LINE
  8
0
 62
7
 10
3.50276265E+02
 20
9.50566210E+01
 11
3.48276265E+02
 21
9.50566210E+01
  0
LINE
  8
0
 62
7
 10
3.50276265E+02
 20
4.90566210E+01
 11
3.48276265E+02
 21
4.90566210E+01
  0
LINE
  8
0
 62
7
 10
3.55776265E+02
 20
5.45566210E+01
 11
3.50276265E+02
 21
4.90566210E+01
  0
LINE
  8
0
 62
7
 10
1.83076265E+02
 20
2.14056621E+02
 11
2.57076265E+02
 21
2.14056621E+02
  0
LINE
  8
0
  6
CENTER
 62
2
 10
1.83076265E+02
 20
1.89056621E+02
 11
2.68076265E+02
 21
1.89056621E+02
  0
LINE
  8
0
 62
7
 10
1.83076265E+02
 20
1.64056621E+02
 11
2.57076265E+02
 21
1.64056621E+02
  0
CIRCLE
  8
0
 62
7
 10
2.29076265E+02
 20
1.89056621E+02
 40
9.31550026E+00
  0
CIRCLE
  8
0
 62
2
 10
2.29076265E+02
 20
1.89056621E+02
 40
1.04775000E+01
  0
LINE
  8
0
  6
CENTER
 62
2
 10
2.29076265E+02
 20
1.68571751E+02
 11
2.29076265E+02
 21
2.09515914E+02
  0
CIRCLE
  8
0
 62
7
 10
2.29076265E+02
 20
1.89056621E+02
 40
1.60000000E+01
  0
CIRCLE
  8
0
 62
7
 10
2.29076265E+02
 20
1.89056621E+02
 40
1.50000000E+01
  0
LINE
  8
0
 62
7
 10
2.58076265E+02
 20
1.65056621E+02
 11
2.58076265E+02
 21
2.13056621E+02
  0
LINE
  8
0
 62
7
 10
2.57076265E+02
 20
1.64056621E+02
 11
2.58076265E+02
 21
1.65056621E+02
  0
LINE
  8
0
 62
7
 10
2.08076265E+02
 20
1.65056621E+02
 11
2.09076265E+02
 21
1.64056621E+02
  0
LINE
  8
0
  6
CENTER
 62
2
 10
2.33076265E+02
 20
1.61056621E+02
 11
2.33076265E+02
 21
2.17056621E+02
  0
LINE
  8
0
 62
7
 10
2.08076265E+02
 20
2.13056621E+02
 11
2.09076265E+02
 21
2.14056621E+02
  0
LINE
  8
0
 62
7
 10
2.57076265E+02
 20
2.14056621E+02
 11
2.58076265E+02
 21
2.13056621E+02
  0
LINE
  8
0
  6
CENTER
 62
2
 10
2.02076265E+02
 20
2.23556621E+02
 11
2.02076265E+02
 21
1.53717198E+02
  0
LINE
  8
0
 62
7
 10
2.11559612E+02
 20
1.56556621E+02
 11
1.92602545E+02
 21
1.56556621E+02
  0
LINE
  8
0
 62
7
 10
1.97076265E+02
 20
1.55656621E+02
 11
1.97076265E+02
 21
1.56556621E+02
  0
LINE
  8
0
 62
7
 10
2.07076265E+02
 20
1.55656621E+02
 11
2.07076265E+02
 21
1.56556621E+02
  0
LINE
  8
0
 62
7
 10
2.06476265E+02
 20
1.55056621E+02
 11
1.97676265E+02
 21
1.55056621E+02
  0
LINE
  8
0
 62
7
 10
2.07076265E+02
 20
1.55656621E+02
 11
1.97076265E+02
 21
1.55656621E+02
  0
LINE
  8
0
 62
7
 10
1.97676265E+02
 20
1.55056621E+02
 11
1.97076265E+02
 21
1.55656621E+02
  0
LINE
  8
0
 62
7
 10
2.06476265E+02
 20
1.55056621E+02
 11
2.07076265E+02
 21
1.55656621E+02
  0
LINE
  8
0
 62
7
 10
1.87876265E+02
 20
1.65856621E+02
 11
1.87876265E+02
 21
1.68556621E+02
  0
LINE
  8
0
 62
7
 10
1.83076265E+02
 20
1.64056621E+02
 11
1.83477255E+02
 21
1.68556621E+02
  0
LINE
  8
0
 62
7
 10
1.87876265E+02
 20
1.65856621E+02
 11
1.89676265E+02
 21
1.64056621E+02
  0
LINE
  8
0
 62
7
 10
1.83076265E+02
 20
1.62056621E+02
 11
1.83076265E+02
 21
1.64056621E+02
  0
LINE
  8
0
 62
7
 10
2.21076265E+02
 20
1.62056621E+02
 11
2.21076265E+02
 21
1.64056621E+02
  0
LINE
  8
0
 62
7
 10
1.83076265E+02
 20
1.62056621E+02
 11
2.21085891E+02
 21
1.62056621E+02
  0
LINE
  8
0
 62
7
 10
1.83477255E+02
 20
1.68556621E+02
 11
1.87876265E+02
 21
1.68556621E+02
  0
LINE
  8
0
 62
7
 10
2.21076265E+02
 20
2.16056621E+02
 11
1.83076265E+02
 21
2.16056621E+02
  0
LINE
  8
0
 62
7
 10
1.83076265E+02
 20
2.16056621E+02
 11
1.83076265E+02
 21
2.14056621E+02
  0
LINE
  8
0
 62
7
 10
2.21076265E+02
 20
2.16056621E+02
 11
2.21076265E+02
 21
2.14056621E+02
  0
LINE
  8
0
 62
7
 10
1.87876265E+02
 20
2.09556621E+02
 11
1.83466265E+02
 21
2.09556621E+02
  0
LINE
  8
0
 62
7
 10
1.89676265E+02
 20
2.14056621E+02
 11
1.87876265E+02
 21
2.12256621E+02
  0
LINE
  8
0
 62
7
 10
1.83466265E+02
 20
2.09556621E+02
 11
1.83076265E+02
 21
2.14056621E+02
  0
LINE
  8
0
 62
7
 10
1.87876265E+02
 20
2.12256621E+02
 11
1.87876265E+02
 21
2.09556621E+02
  0
LINE
  8
0
 62
7
 10
2.08076265E+02
 20
2.14056621E+02
 11
2.08076265E+02
 21
1.64056621E+02
  0
LINE
  8
0
 62
7
 10
1.96076265E+02
 20
2.14056621E+02
 11
1.96076265E+02
 21
1.64056621E+02
  0
LINE
  8
0
 62
7
 10
2.11559612E+02
 20
1.56556621E+02
 11
2.21076265E+02
 21
1.62051063E+02
  0
LINE
  8
0
 62
7
 10
1.83076265E+02
 20
1.62056621E+02
 11
1.92602545E+02
 21
1.56556621E+02
  0
LINE
  8
0
 62
7
 10
2.11559612E+02
 20
2.21556621E+02
 11
1.92602545E+02
 21
2.21556621E+02
  0
LINE
  8
0
 62
7
 10
2.11559612E+02
 20
2.21556621E+02
 11
2.21076265E+02
 21
2.16062179E+02
  0
LINE
  8
0
 62
7
 10
1.83076265E+02
 20
2.16056621E+02
 11
1.92602545E+02
 21
2.21556621E+02
  0
LINE
  8
0
 62
7
 10
-3.21108818E+02
 20
-1.62522901E+02
 11
-3.21108818E+02
 21
-1.70522901E+02
  0
LINE
  8
0
 62
7
 10
-2.89108818E+02
 20
-1.62522901E+02
 11
-2.89108818E+02
 21
-1.70522901E+02
  0
LINE
  8
0
 62
7
 10
-2.90108818E+02
 20
-1.61522901E+02
 11
-3.20108818E+02
 21
-1.61522901E+02
  0
LINE
  8
0
 62
7
 10
-2.90108818E+02
 20
-1.61522901E+02
 11
-2.89108818E+02
 21
-1.62522901E+02
  0
LINE
  8
0
 62
7
 10
-3.20108818E+02
 20
-1.61522901E+02
 11
-3.21108818E+02
 21
-1.62522901E+02
  0
LINE
  8
0
 62
7
 10
-2.89108818E+02
 20
-1.62522901E+02
 11
-3.21108818E+02
 21
-1.62522901E+02
  0
LINE
  8
0
 62
7
 10
-2.77108818E+02
 20
-2.21522901E+02
 11
-3.25108818E+02
 21
-2.21522901E+02
  0
LINE
  8
0
 62
7
 10
-2.77108818E+02
 20
-1.71522901E+02
 11
-3.25108818E+02
 21
-1.71522901E+02
  0
LINE
  8
0
  6
CENTER
 62
2
 10
-3.05108818E+02
 20
-1.58522901E+02
 11
-3.05108818E+02
 21
-1.74522901E+02
  0
LINE
  8
0
 62
7
 10
-2.76108818E+02
 20
-1.72522901E+02
 11
-2.76108818E+02
 21
-2.20522901E+02
  0
LINE
  8
0
 62
7
 10
-2.76108818E+02
 20
-2.20522901E+02
 11
-2.77108818E+02
 21
-2.21522901E+02
  0
LINE
  8
0
 62
7
 10
-3.25108818E+02
 20
-2.21522901E+02
 11
-3.26108818E+02
 21
-2.20522901E+02
  0
LINE
  8
0
 62
7
 10
-3.25108818E+02
 20
-1.71522901E+02
 11
-3.26108818E+02
 21
-1.72522901E+02
  0
LINE
  8
0
 62
7
 10
-2.77108818E+02
 20
-1.71522901E+02
 11
-2.76108818E+02
 21
-1.72522901E+02
  0
LINE
  8
0
 62
7
 10
-2.76108818E+02
 20
-1.72522901E+02
 11
-3.26108818E+02
 21
-1.72522901E+02
  0
LINE
  8
0
 62
7
 10
-2.76108818E+02
 20
-2.20522901E+02
 11
-3.26108818E+02
 21
-2.20522901E+02
  0
LINE
  8
0
 62
7
 10
-2.77108818E+02
 20
-1.71522901E+02
 11
-2.77108818E+02
 21
-2.21522901E+02
  0
LINE
  8
0
 62
7
 10
-3.25108818E+02
 20
-1.71522901E+02
 11
-3.25108818E+02
 21
-1.72522901E+02
  0
LINE
  8
0
 62
7
 10
-2.83408818E+02
 20
-1.81522901E+02
 11
-3.13108818E+02
 21
-1.81522901E+02
  0
LINE
  8
0
 62
7
 10
-2.83408818E+02
 20
-2.11522901E+02
 11
-3.13108818E+02
 21
-2.11522901E+02
  0
LINE
  8
0
 62
7
 10
-2.83108818E+02
 20
-1.81822901E+02
 11
-2.83108818E+02
 21
-2.11222901E+02
  0
ARC
  8
0
 62
7
 10
-2.83408821E+02
 20
-1.81822904E+02
 40
3.00003147E-01
 50
6.01053124E-04
 51
9.00000002E+01
  0
ARC
  8
0
 62
7
 10
-2.83408822E+02
 20
-2.11222897E+02
 40
3.00004578E-01
 50
2.70000000E+02
 51
3.59999126E+02
  0
ARC
  8
0
 62
7
 10
-2.88108819E+02
 20
-1.70522903E+02
 40
9.99998474E-01
 50
1.79999913E+02
 51
2.70000000E+02
  0
ARC
  8
0
 62
7
 10
-3.22108819E+02
 20
-1.70522900E+02
 40
1.00000153E+00
 50
2.70000000E+02
 51
3.59999912E+02
  0
LINE
  8
0
 62
7
 10
-3.25108818E+02
 20
-2.19522901E+02
 11
-3.25108818E+02
 21
-2.21522901E+02
  0
LINE
  8
0
 62
7
 10
-3.29593051E+02
 20
-1.83580079E+02
 11
-3.29593051E+02
 21
-1.86460079E+02
  0
LINE
  8
0
 62
7
 10
-3.32103051E+02
 20
-1.87910079E+02
 11
-3.29593051E+02
 21
-1.86460079E+02
  0
LINE
  8
0
 62
7
 10
-3.32103051E+02
 20
-1.82130079E+02
 11
-3.29593051E+02
 21
-1.83580079E+02
  0
LINE
  8
0
 62
7
 10
-3.22628818E+02
 20
-1.79022901E+02
 11
-3.13108818E+02
 21
-1.73522901E+02
  0
LINE
  8
0
 62
7
 10
-3.29593051E+02
 20
-2.06580079E+02
 11
-3.29593051E+02
 21
-2.09460079E+02
  0
LINE
  8
0
 62
7
 10
-3.32103051E+02
 20
-2.10910079E+02
 11
-3.29593051E+02
 21
-2.09460079E+02
  0
LINE
  8
0
 62
7
 10
-3.32103051E+02
 20
-2.05130079E+02
 11
-3.29593051E+02
 21
-2.06580079E+02
  0
LINE
  8
0
 62
7
 10
-3.22628818E+02
 20
-1.79022901E+02
 11
-3.22628818E+02
 21
-2.14022901E+02
  0
LINE
  8
0
 62
7
 10
-3.22628818E+02
 20
-2.14022901E+02
 11
-3.13108818E+02
 21
-2.19522901E+02
  0
LINE
  8
0
 62
7
 10
-3.34613051E+02
 20
-2.06580079E+02
 11
-3.34613051E+02
 21
-2.09460079E+02
  0
LINE
  8
0
 62
7
 10
-3.34613051E+02
 20
-2.06580079E+02
 11
-3.32103051E+02
 21
-2.05130079E+02
  0
LINE
  8
0
 62
7
 10
-3.34613051E+02
 20
-2.09460079E+02
 11
-3.32103051E+02
 21
-2.10910079E+02
  0
CIRCLE
  8
0
 62
7
 10
-3.32103051E+02
 20
-2.08020079E+02
 40
5.00000000E+00
  0
CIRCLE
  8
0
 62
7
 10
-3.32103051E+02
 20
-2.08020079E+02
 40
3.96076870E+00
  0
CIRCLE
  8
0
 62
7
 10
-3.32103051E+02
 20
-2.08020079E+02
 40
2.89829731E+00
  0
LINE
  8
0
  6
CENTER
 62
2
 10
-3.23598818E+02
 20
-2.08022901E+02
 11
-3.40598818E+02
 21
-2.08022901E+02
  0
LINE
  8
0
 62
7
 10
-3.22628818E+02
 20
-2.14022901E+02
 11
-3.41578818E+02
 21
-2.14022901E+02
  0
CIRCLE
  8
0
 62
7
 10
-3.32103051E+02
 20
-2.08020079E+02
 40
5.50000000E+00
  0
LINE
  8
0
 62
7
 10
-3.41578818E+02
 20
-2.14022901E+02
 11
-3.51108818E+02
 21
-2.19522901E+02
  0
LINE
  8
0
 62
7
 10
-3.34613051E+02
 20
-1.83580079E+02
 11
-3.34613051E+02
 21
-1.86460079E+02
  0
LINE
  8
0
 62
7
 10
-3.34613051E+02
 20
-1.83580079E+02
 11
-3.32103051E+02
 21
-1.82130079E+02
  0
LINE
  8
0
 62
7
 10
-3.34613051E+02
 20
-1.86460079E+02
 11
-3.32103051E+02
 21
-1.87910079E+02
  0
CIRCLE
  8
0
 62
7
 10
-3.32103051E+02
 20
-1.85020079E+02
 40
5.00000000E+00
  0
CIRCLE
  8
0
 62
7
 10
-3.32103051E+02
 20
-1.85020079E+02
 40
3.96076870E+00
  0
CIRCLE
  8
0
 62
7
 10
-3.32103051E+02
 20
-1.85020079E+02
 40
2.89829731E+00
  0
LINE
  8
0
 62
7
 10
-3.22628818E+02
 20
-1.79022901E+02
 11
-3.41578818E+02
 21
-1.79022901E+02
  0
LINE
  8
0
  6
CENTER
 62
2
 10
-3.23598818E+02
 20
-1.85022901E+02
 11
-3.40598818E+02
 21
-1.85022901E+02
  0
CIRCLE
  8
0
 62
7
 10
-3.32103051E+02
 20
-1.85020079E+02
 40
5.50000000E+00
  0
LINE
  8
0
 62
7
 10
-3.41578818E+02
 20
-1.79022901E+02
 11
-3.51108818E+02
 21
-1.73522901E+02
  0
LINE
  8
0
 62
7
 10
-3.41578818E+02
 20
-1.79022901E+02
 11
-3.41578818E+02
 21
-2.14022901E+02
  0
ARC
  8
0
 62
7
 10
-3.34108818E+02
 20
-2.41522901E+02
 40
4.50000000E+00
 50
9.00000002E+01
 51
2.70000000E+02
  0
ARC
  8
0
 62
7
 10
-3.30108818E+02
 20
-2.41522901E+02
 40
4.50000000E+00
 50
2.70000000E+02
 51
9.00000002E+01
  0
ARC
  8
0
 62
7
 10
-3.34108818E+02
 20
-1.51522901E+02
 40
4.50000000E+00
 50
9.00000002E+01
 51
2.70000000E+02
  0
ARC
  8
0
 62
7
 10
-3.30108818E+02
 20
-1.51522901E+02
 40
4.50000000E+00
 50
2.70000000E+02
 51
9.00000002E+01
  0
LINE
  8
0
 62
7
 10
-3.47608818E+02
 20
-2.28482901E+02
 11
-3.16608818E+02
 21
-2.28482901E+02
  0
LINE
  8
0
 62
7
 10
-3.47608818E+02
 20
-1.64562901E+02
 11
-3.21108818E+02
 21
-1.64562901E+02
  0
LINE
  8
0
  6
CENTER
 62
2
 10
-3.32108818E+02
 20
-1.36522901E+02
 11
-3.32108818E+02
 21
-2.56522901E+02
  0
LINE
  8
0
  6
CENTER
 62
2
 10
-3.40608818E+02
 20
-2.41522901E+02
 11
-3.23608818E+02
 21
-2.41522901E+02
  0
LINE
  8
0
 62
7
 10
-3.34108818E+02
 20
-2.37022901E+02
 11
-3.30108818E+02
 21
-2.37022901E+02
  0
LINE
  8
0
  6
CENTER
 62
2
 10
-3.30108818E+02
 20
-2.48022901E+02
 11
-3.30108818E+02
 21
-2.35022901E+02
  0
LINE
  8
0
  6
CENTER
 62
2
 10
-3.34108818E+02
 20
-2.48022901E+02
 11
-3.34108818E+02
 21
-2.35022901E+02
  0
LINE
  8
0
 62
7
 10
-3.34108818E+02
 20
-2.46022901E+02
 11
-3.30108818E+02
 21
-2.46022901E+02
  0
LINE
  8
0
  6
CENTER
 62
2
 10
-3.34108818E+02
 20
-1.45022901E+02
 11
-3.34108818E+02
 21
-1.58022901E+02
  0
LINE
  8
0
  6
CENTER
 62
2
 10
-3.30108818E+02
 20
-1.45022901E+02
 11
-3.30108818E+02
 21
-1.58022901E+02
  0
LINE
  8
0
 62
7
 10
-3.34108818E+02
 20
-1.56022901E+02
 11
-3.30108818E+02
 21
-1.56022901E+02
  0
LINE
  8
0
 62
7
 10
-3.34108818E+02
 20
-1.47022901E+02
 11
-3.30108818E+02
 21
-1.47022901E+02
  0
LINE
  8
0
  6
CENTER
 62
2
 10
-3.40608818E+02
 20
-1.51522901E+02
 11
-3.23608818E+02
 21
-1.51522901E+02
  0
LINE
  8
0
  6
CENTER
 62
2
 10
-3.54108818E+02
 20
-1.96522901E+02
 11
-2.69388534E+02
 21
-1.96522901E+02
  0
LINE
  8
0
 62
7
 10
-3.14608818E+02
 20
-2.46892901E+02
 11
-3.13108818E+02
 21
-2.47522901E+02
  0
LINE
  8
0
 62
7
 10
-3.17738818E+02
 20
-2.50022901E+02
 11
-3.14608818E+02
 21
-2.46892901E+02
  0
LINE
  8
0
 62
7
 10
-3.14608818E+02
 20
-2.46892901E+02
 11
-3.14608818E+02
 21
-2.21522901E+02
  0
LINE
  8
0
 62
7
 10
-3.17738818E+02
 20
-2.50022901E+02
 11
-3.17108818E+02
 21
-2.51522901E+02
  0
LINE
  8
0
 62
7
 10
-3.46488818E+02
 20
-2.50022901E+02
 11
-3.17738818E+02
 21
-2.50022901E+02
  0
LINE
  8
0
 62
7
 10
-3.46488818E+02
 20
-2.50022901E+02
 11
-3.47108818E+02
 21
-2.51522901E+02
  0
LINE
  8
0
 62
7
 10
-3.49608818E+02
 20
-2.46892901E+02
 11
-3.51108818E+02
 21
-2.47522901E+02
  0
LINE
  8
0
 62
7
 10
-3.46488818E+02
 20
-2.50022901E+02
 11
-3.49608818E+02
 21
-2.46892901E+02
  0
LINE
  8
0
 62
7
 10
-3.49608818E+02
 20
-2.46892901E+02
 11
-3.49608818E+02
 21
-2.19522901E+02
  0
LINE
  8
0
 62
7
 10
-3.14608818E+02
 20
-1.46152901E+02
 11
-3.13108818E+02
 21
-1.45522901E+02
  0
LINE
  8
0
 62
7
 10
-3.17738818E+02
 20
-1.43022901E+02
 11
-3.17108818E+02
 21
-1.41522901E+02
  0
LINE
  8
0
 62
7
 10
-3.49608818E+02
 20
-1.46152901E+02
 11
-3.51108818E+02
 21
-1.45522901E+02
  0
LINE
  8
0
 62
7
 10
-3.46488818E+02
 20
-1.43022901E+02
 11
-3.47108818E+02
 21
-1.41522901E+02
  0
LINE
  8
0
 62
7
 10
-3.14608818E+02
 20
-1.46152901E+02
 11
-3.14608818E+02
 21
-1.61522901E+02
  0
LINE
  8
0
 62
7
 10
-3.49608818E+02
 20
-1.46152901E+02
 11
-3.49608818E+02
 21
-1.73522901E+02
  0
LINE
  8
0
 62
7
 10
-3.17738818E+02
 20
-1.43022901E+02
 11
-3.14608818E+02
 21
-1.46152901E+02
  0
LINE
  8
0
 62
7
 10
-3.46488818E+02
 20
-1.43022901E+02
 11
-3.49608818E+02
 21
-1.46152901E+02
  0
LINE
  8
0
 62
7
 10
-3.46488818E+02
 20
-1.43022901E+02
 11
-3.17738818E+02
 21
-1.43022901E+02
  0
LINE
  8
0
 62
7
 10
-3.51108818E+02
 20
-1.73522901E+02
 11
-3.13108818E+02
 21
-1.73522901E+02
  0
LINE
  8
0
 62
7
 10
-3.51108818E+02
 20
-2.19522901E+02
 11
-3.13108818E+02
 21
-2.19522901E+02
  0
LINE
  8
0
 62
7
 10
-3.47108818E+02
 20
-2.51522901E+02
 11
-3.51108818E+02
 21
-2.47522901E+02
  0
LINE
  8
0
 62
7
 10
-3.13108818E+02
 20
-2.47522901E+02
 11
-3.17108818E+02
 21
-2.51522901E+02
  0
LINE
  8
0
 62
7
 10
-3.17108818E+02
 20
-1.41522901E+02
 11
-3.13108818E+02
 21
-1.45522901E+02
  0
LINE
  8
0
 62
7
 10
-3.47108818E+02
 20
-1.41522901E+02
 11
-3.51108818E+02
 21
-1.45522901E+02
  0
LINE
  8
0
 62
7
 10
-3.47108818E+02
 20
-2.51522901E+02
 11
-3.17108818E+02
 21
-2.51522901E+02
  0
LINE
  8
0
 62
7
 10
-3.47108818E+02
 20
-1.41522901E+02
 11
-3.17108818E+02
 21
-1.41522901E+02
  0
LINE
  8
0
 62
7
 10
-3.13108818E+02
 20
-1.45522901E+02
 11
-3.13108818E+02
 21
-1.61522901E+02
  0
LINE
  8
0
 62
7
 10
-3.51108818E+02
 20
-1.45522901E+02
 11
-3.51108818E+02
 21
-2.47522901E+02
  0
LINE
  8
0
 62
7
 10
-3.13108818E+02
 20
-1.73522901E+02
 11
-3.13108818E+02
 21
-2.19522901E+02
  0
LINE
  8
0
 62
7
 10
-3.13108818E+02
 20
-2.21522901E+02
 11
-3.13108818E+02
 21
-2.47522901E+02
  0
LINE
  8
0
 62
7
 10
-3.26108818E+02
 20
-1.72522901E+02
 11
-3.26108818E+02
 21
-1.73522901E+02
  0
LINE
  8
0
 62
7
 10
-3.26108818E+02
 20
-2.20522901E+02
 11
-3.26108818E+02
 21
-2.19522901E+02
  0
LINE
  8
0
 62
7
 10
-1.97908818E+02
 20
-1.72522901E+02
 11
-1.97908818E+02
 21
-2.20522901E+02
  0
LINE
  8
0
 62
7
 10
-2.47908818E+02
 20
-1.72522901E+02
 11
-2.47908818E+02
 21
-2.20522901E+02
  0
LINE
  8
0
 62
7
 10
-2.46908818E+02
 20
-2.21522901E+02
 11
-1.98908818E+02
 21
-2.21522901E+02
  0
LINE
  8
0
 62
7
 10
-2.46908818E+02
 20
-1.71522901E+02
 11
-1.98908818E+02
 21
-1.71522901E+02
  0
LINE
  8
0
 62
7
 10
-2.47908818E+02
 20
-2.20522901E+02
 11
-2.46908818E+02
 21
-2.21522901E+02
  0
LINE
  8
0
 62
7
 10
-1.97908818E+02
 20
-2.20522901E+02
 11
-1.98908818E+02
 21
-2.21522901E+02
  0
LINE
  8
0
 62
7
 10
-1.98908818E+02
 20
-1.71522901E+02
 11
-1.97908818E+02
 21
-1.72522901E+02
  0
LINE
  8
0
 62
7
 10
-2.46908818E+02
 20
-1.71522901E+02
 11
-2.47908818E+02
 21
-1.72522901E+02
  0
LINE
  8
0
 62
7
 10
-2.47908818E+02
 20
-1.72522901E+02
 11
-1.97908818E+02
 21
-1.72522901E+02
  0
LINE
  8
0
 62
7
 10
-2.47908818E+02
 20
-2.20522901E+02
 11
-1.97908818E+02
 21
-2.20522901E+02
  0
LINE
  8
0
 62
7
 10
-2.46908818E+02
 20
-1.71522901E+02
 11
-2.46908818E+02
 21
-2.21522901E+02
  0
LINE
  8
0
 62
7
 10
-1.98908818E+02
 20
-1.71522901E+02
 11
-1.98908818E+02
 21
-2.21522901E+02
  0
LINE
  8
0
 62
7
 10
-2.38908818E+02
 20
-1.62522901E+02
 11
-2.38908818E+02
 21
-1.70522901E+02
  0
LINE
  8
0
 62
7
 10
-2.37908818E+02
 20
-1.61522901E+02
 11
-2.07908818E+02
 21
-1.61522901E+02
  0
LINE
  8
0
 62
7
 10
-2.38908818E+02
 20
-1.62522901E+02
 11
-2.06908818E+02
 21
-1.62522901E+02
  0
LINE
  8
0
 62
7
 10
-2.37908818E+02
 20
-1.61522901E+02
 11
-2.38908818E+02
 21
-1.62522901E+02
  0
LINE
  8
0
 62
7
 10
-2.07908818E+02
 20
-1.61522901E+02
 11
-2.06908818E+02
 21
-1.62522901E+02
  0
LINE
  8
0
 62
7
 10
-2.06908818E+02
 20
-1.62522901E+02
 11
-2.06908818E+02
 21
-1.70522901E+02
  0
CIRCLE
  8
0
 62
7
 10
-2.22908818E+02
 20
-1.96522901E+02
 40
2.10000000E+01
  0
ARC
  8
0
 62
7
 10
-2.39908818E+02
 20
-1.70522901E+02
 40
1.00000000E+00
 50
2.70000000E+02
 51
0.00000000E+00
  0
ARC
  8
0
 62
7
 10
-2.05908818E+02
 20
-1.70522901E+02
 40
1.00000000E+00
 50
1.80000000E+02
 51
2.70000000E+02
  0
CIRCLE
  8
0
 62
7
 10
-2.22908818E+02
 20
-1.96522901E+02
 40
1.50500002E+01
  0
CIRCLE
  8
0
 62
2
 10
-2.22908818E+02
 20
-1.96522901E+02
 40
1.66244965E+01
  0
LINE
  8
0
 62
7
 10
-2.56308818E+02
 20
-2.13022901E+02
 11
-2.55398818E+02
 21
-2.13022901E+02
  0
LINE
  8
0
 62
7
 10
-2.56908818E+02
 20
-2.12422901E+02
 11
-2.56308818E+02
 21
-2.13022901E+02
  0
LINE
  8
0
 62
7
 10
-2.56308818E+02
 20
-2.03022901E+02
 11
-2.55398818E+02
 21
-2.03022901E+02
  0
LINE
  8
0
 62
7
 10
-2.56908818E+02
 20
-2.03622901E+02
 11
-2.56308818E+02
 21
-2.03022901E+02
  0
LINE
  8
0
  6
CENTER
 62
2
 10
-2.58258241E+02
 20
-2.08022901E+02
 11
-2.52441941E+02
 21
-2.08022901E+02
  0
LINE
  8
0
 62
7
 10
-2.56908818E+02
 20
-2.03622901E+02
 11
-2.56908818E+02
 21
-2.12422901E+02
  0
LINE
  8
0
 62
7
 10
-2.56308818E+02
 20
-2.03022901E+02
 11
-2.56308818E+02
 21
-2.13022901E+02
  0
LINE
  8
0
 62
7
 10
-2.49908818E+02
 20
-2.19522901E+02
 11
-2.55408818E+02
 21
-2.14022901E+02
  0
LINE
  8
0
 62
7
 10
-2.56308818E+02
 20
-1.90022901E+02
 11
-2.55408818E+02
 21
-1.90022901E+02
  0
LINE
  8
0
 62
7
 10
-2.56908818E+02
 20
-1.80622901E+02
 11
-2.56308818E+02
 21
-1.80022901E+02
  0
LINE
  8
0
 62
7
 10
-2.56908818E+02
 20
-1.80622901E+02
 11
-2.56908818E+02
 21
-1.89422901E+02
  0
LINE
  8
0
 62
7
 10
-2.56308818E+02
 20
-1.80022901E+02
 11
-2.55408818E+02
 21
-1.80022901E+02
  0
LINE
  8
0
  6
CENTER
 62
2
 10
-2.58258241E+02
 20
-1.85022901E+02
 11
-2.52441941E+02
 21
-1.85022901E+02
  0
LINE
  8
0
 62
7
 10
-2.56308818E+02
 20
-1.80022901E+02
 11
-2.56308818E+02
 21
-1.90022901E+02
  0
LINE
  8
0
 62
7
 10
-2.56908818E+02
 20
-1.89422901E+02
 11
-2.56308818E+02
 21
-1.90022901E+02
  0
LINE
  8
0
 62
7
 10
-2.49908818E+02
 20
-1.73522901E+02
 11
-2.55408818E+02
 21
-1.79022901E+02
  0
LINE
  8
0
 62
7
 10
-2.49908818E+02
 20
-1.73522901E+02
 11
-2.49908818E+02
 21
-2.19522901E+02
  0
LINE
  8
0
 62
7
 10
-2.55408818E+02
 20
-1.79022901E+02
 11
-2.55408818E+02
 21
-2.14022901E+02
  0
LINE
  8
0
 62
7
 10
-1.97908818E+02
 20
-2.18022901E+02
 11
-1.81908818E+02
 21
-2.18022901E+02
  0
LINE
  8
0
 62
7
 10
-1.97908818E+02
 20
-1.75022901E+02
 11
-1.81908818E+02
 21
-1.75022901E+02
  0
LINE
  8
0
  6
CENTER
 62
2
 10
-1.87908818E+02
 20
-1.89022901E+02
 11
-1.87908818E+02
 21
-2.04022901E+02
  0
LINE
  8
0
 62
7
 10
-1.89908818E+02
 20
-1.95372901E+02
 11
-1.89908818E+02
 21
-1.97682901E+02
  0
LINE
  8
0
 62
7
 10
-1.85908818E+02
 20
-1.95372901E+02
 11
-1.85908818E+02
 21
-1.97682901E+02
  0
LINE
  8
0
 62
7
 10
-1.89908818E+02
 20
-1.95372901E+02
 11
-1.87908818E+02
 21
-1.94222901E+02
  0
LINE
  8
0
 62
7
 10
-1.87908818E+02
 20
-1.98832901E+02
 11
-1.85908818E+02
 21
-1.97682901E+02
  0
LINE
  8
0
 62
7
 10
-1.87908818E+02
 20
-1.94222901E+02
 11
-1.85908818E+02
 21
-1.95372901E+02
  0
LINE
  8
0
 62
7
 10
-1.89908818E+02
 20
-1.97682901E+02
 11
-1.87908818E+02
 21
-1.98832901E+02
  0
CIRCLE
  8
0
 62
7
 10
-1.87904554E+02
 20
-1.96531496E+02
 40
4.75000000E+00
  0
CIRCLE
  8
0
 62
7
 10
-1.87904554E+02
 20
-1.96531496E+02
 40
4.25000000E+00
  0
CIRCLE
  8
0
 62
7
 10
-1.87904554E+02
 20
-1.96531496E+02
 40
3.73038483E+00
  0
CIRCLE
  8
0
 62
7
 10
-1.87904554E+02
 20
-1.96531496E+02
 40
2.30940056E+00
  0
LINE
  8
0
 62
7
 10
-1.81908818E+02
 20
-1.73522901E+02
 11
-1.81908818E+02
 21
-2.19522901E+02
  0
ARC
  8
0
 62
7
 10
-1.75910654E+02
 20
-2.30051946E+02
 40
6.50183586E+00
 50
3.59991587E+02
 51
2.99809466E+01
  0
ARC
  8
0
 62
7
 10
-1.77370659E+02
 20
-2.21524204E+02
 40
3.50130350E+00
 50
3.00123068E+01
 51
8.99698626E+01
  0
ARC
  8
0
 62
7
 10
-1.77370659E+02
 20
-1.71521598E+02
 40
3.50130350E+00
 50
2.70030138E+02
 51
3.29987693E+02
  0
ARC
  8
0
 62
7
 10
-1.75910654E+02
 20
-1.62993856E+02
 40
6.50183586E+00
 50
3.30019054E+02
 51
8.41329891E-03
  0
ARC
  8
0
 62
7
 10
-1.77371382E+02
 20
-1.71522015E+02
 40
2.00088785E+00
 50
2.70073429E+02
 51
3.29985375E+02
  0
ARC
  8
0
 62
7
 10
-1.77371382E+02
 20
-2.21523787E+02
 40
2.00088785E+00
 50
3.00146252E+01
 51
8.99265711E+01
  0
ARC
  8
0
 62
7
 10
-1.75910238E+02
 20
-2.30053502E+02
 40
5.00142023E+00
 50
6.88056164E-03
 51
2.99985515E+01
  0
ARC
  8
0
 62
7
 10
-1.75910238E+02
 20
-1.62992301E+02
 40
5.00142023E+00
 50
3.30001448E+02
 51
3.59993120E+02
  0
ARC
  8
0
 62
7
 10
-1.63408818E+02
 20
-2.51022901E+02
 40
5.00000000E-01
 50
2.70000000E+02
 51
0.00000000E+00
  0
ARC
  8
0
 62
7
 10
-1.63408818E+02
 20
-1.42022901E+02
 40
5.00000000E-01
 50
0.00000000E+00
 51
9.00000002E+01
  0
LINE
  8
0
 62
7
 10
-1.62908818E+02
 20
-2.47522901E+02
 11
-1.69408818E+02
 21
-2.47522901E+02
  0
LINE
  8
0
 62
7
 10
-1.69408818E+02
 20
-2.47522901E+02
 11
-1.70908818E+02
 21
-2.46892901E+02
  0
LINE
  8
0
 62
7
 10
-1.69408818E+02
 20
-1.45522901E+02
 11
-1.70908818E+02
 21
-1.46152901E+02
  0
LINE
  8
0
 62
7
 10
-1.62908818E+02
 20
-1.45522901E+02
 11
-1.69408818E+02
 21
-1.45522901E+02
  0
LINE
  8
0
 62
7
 10
-1.69408818E+02
 20
-2.30052901E+02
 11
-1.69408818E+02
 21
-2.51522901E+02
  0
LINE
  8
0
 62
7
 10
-1.70278818E+02
 20
-2.26802901E+02
 11
-1.74338818E+02
 21
-2.19772901E+02
  0
LINE
  8
0
 62
7
 10
-1.77368818E+02
 20
-2.18022901E+02
 11
-1.77908818E+02
 21
-2.18022901E+02
  0
LINE
  8
0
 62
7
 10
-1.77368818E+02
 20
-1.75022901E+02
 11
-1.77908818E+02
 21
-1.75022901E+02
  0
LINE
  8
0
 62
7
 10
-1.70278818E+02
 20
-1.66242901E+02
 11
-1.74338818E+02
 21
-1.73272901E+02
  0
LINE
  8
0
 62
7
 10
-1.69408818E+02
 20
-1.41522901E+02
 11
-1.69408818E+02
 21
-1.62992901E+02
  0
LINE
  8
0
 62
7
 10
-1.77908818E+02
 20
-1.73522901E+02
 11
-1.77908818E+02
 21
-2.19522901E+02
  0
LINE
  8
0
  6
CENTER
 62
2
 10
-2.22908818E+02
 20
-1.56522901E+02
 11
-2.22908818E+02
 21
-2.26522901E+02
  0
LINE
  8
0
 62
7
 10
-1.71578818E+02
 20
-2.27552901E+02
 11
-1.75638818E+02
 21
-2.20522901E+02
  0
LINE
  8
0
 62
7
 10
-1.71578818E+02
 20
-1.65492901E+02
 11
-1.75638818E+02
 21
-1.72522901E+02
  0
LINE
  8
0
 62
7
 10
-1.69408818E+02
 20
-1.41522901E+02
 11
-1.70908818E+02
 21
-1.43022901E+02
  0
LINE
  8
0
 62
7
 10
-1.70908818E+02
 20
-2.50022901E+02
 11
-1.69408818E+02
 21
-2.51522901E+02
  0
LINE
  8
0
 62
7
 10
-1.70908818E+02
 20
-2.30052901E+02
 11
-1.70908818E+02
 21
-2.50022901E+02
  0
LINE
  8
0
 62
7
 10
-1.63408818E+02
 20
-2.51522901E+02
 11
-1.69408818E+02
 21
-2.51522901E+02
  0
LINE
  8
0
 62
7
 10
-1.63408818E+02
 20
-1.41522901E+02
 11
-1.69408818E+02
 21
-1.41522901E+02
  0
LINE
  8
0
 62
7
 10
-1.77368818E+02
 20
-1.73522901E+02
 11
-1.97908818E+02
 21
-1.73522901E+02
  0
LINE
  8
0
 62
7
 10
-1.77368818E+02
 20
-2.19522901E+02
 11
-1.97908818E+02
 21
-2.19522901E+02
  0
LINE
  8
0
 62
7
 10
-1.70908818E+02
 20
-1.43022901E+02
 11
-1.70908818E+02
 21
-1.62992901E+02
  0
LINE
  8
0
 62
7
 10
-1.62908818E+02
 20
-1.42022901E+02
 11
-1.62908818E+02
 21
-2.51022901E+02
  0
LINE
  8
0
  6
CENTER
 62
2
 10
-1.59908818E+02
 20
-1.96522901E+02
 11
-2.58247281E+02
 21
-1.96522901E+02
  0
LINE
  8
0
 62
7
 10
-2.47908818E+02
 20
-1.73522901E+02
 11
-2.49908818E+02
 21
-1.73522901E+02
  0
LINE
  8
0
 62
7
 10
-2.47908818E+02
 20
-2.19522901E+02
 11
-2.49908818E+02
 21
-2.19522901E+02
  0
LINE
  8
0
  6
CENTER
 62
2
 10
-1.59908818E+02
 20
-2.41522901E+02
 11
-1.77908818E+02
 21
-2.41522901E+02
  0
LINE
  8
0
  6
CENTER
 62
2
 10
-1.59908818E+02
 20
-1.51522901E+02
 11
-1.77908818E+02
 21
-1.51522901E+02
  0
CIRCLE
  8
0
 62
7
 10
-3.05108818E+02
 20
-8.85229011E+01
 40
9.31550026E+00
  0
CIRCLE
  8
0
 62
2
 10
-3.05108818E+02
 20
-8.85229011E+01
 40
1.04775000E+01
  0
LINE
  8
0
  6
CENTER
 62
2
 10
-3.05108818E+02
 20
-1.09007771E+02
 11
-3.05108818E+02
 21
-6.80636080E+01
  0
CIRCLE
  8
0
 62
7
 10
-3.05108818E+02
 20
-8.85229011E+01
 40
1.60000000E+01
  0
CIRCLE
  8
0
 62
7
 10
-3.05108818E+02
 20
-8.85229011E+01
 40
1.50000000E+01
  0
LINE
  8
0
 62
7
 10
-2.76108818E+02
 20
-1.12522901E+02
 11
-2.76108818E+02
 21
-6.45229011E+01
  0
LINE
  8
0
 62
7
 10
-2.77108818E+02
 20
-1.13522901E+02
 11
-2.76108818E+02
 21
-1.12522901E+02
  0
LINE
  8
0
 62
7
 10
-3.51108818E+02
 20
-1.13522901E+02
 11
-2.77108818E+02
 21
-1.13522901E+02
  0
LINE
  8
0
 62
7
 10
-3.26108818E+02
 20
-1.12522901E+02
 11
-3.25108818E+02
 21
-1.13522901E+02
  0
LINE
  8
0
  6
CENTER
 62
2
 10
-3.01108818E+02
 20
-1.16522901E+02
 11
-3.01108818E+02
 21
-6.05229011E+01
  0
LINE
  8
0
 62
7
 10
-3.26108818E+02
 20
-6.45229011E+01
 11
-3.25108818E+02
 21
-6.35229011E+01
  0
LINE
  8
0
 62
7
 10
-2.77108818E+02
 20
-6.35229011E+01
 11
-2.76108818E+02
 21
-6.45229011E+01
  0
LINE
  8
0
 62
7
 10
-3.25608818E+02
 20
-6.35229011E+01
 11
-2.77108818E+02
 21
-6.35229011E+01
  0
LINE
  8
0
 62
7
 10
-3.13108818E+02
 20
-4.75229011E+01
 11
-3.13108818E+02
 21
-6.35229011E+01
  0
LINE
  8
0
 62
7
 10
-3.14608818E+02
 20
-4.60229011E+01
 11
-3.14608818E+02
 21
-6.35229011E+01
  0
LINE
  8
0
 62
7
 10
-3.13108818E+02
 20
-4.75229011E+01
 11
-3.17108818E+02
 21
-4.35229011E+01
  0
LINE
  8
0
 62
7
 10
-3.51108818E+02
 20
-4.75229011E+01
 11
-3.51108818E+02
 21
-6.35229011E+01
  0
LINE
  8
0
 62
7
 10
-3.50715119E+02
 20
-6.80229011E+01
 11
-3.46655946E+02
 21
-6.80229011E+01
  0
LINE
  8
0
 62
7
 10
-3.46608818E+02
 20
-6.53229011E+01
 11
-3.46655946E+02
 21
-6.80229011E+01
  0
LINE
  8
0
 62
7
 10
-3.51108818E+02
 20
-6.35229011E+01
 11
-3.50715119E+02
 21
-6.80229011E+01
  0
LINE
  8
0
 62
7
 10
-3.49608818E+02
 20
-4.60229011E+01
 11
-3.49608818E+02
 21
-6.35229011E+01
  0
LINE
  8
0
 62
7
 10
-3.44808818E+02
 20
-6.35229011E+01
 11
-3.46608818E+02
 21
-6.53229011E+01
  0
LINE
  8
0
 62
7
 10
-3.51108818E+02
 20
-6.35229011E+01
 11
-3.42108818E+02
 21
-6.35229011E+01
  0
LINE
  8
0
 62
7
 10
-3.51108818E+02
 20
-4.75229011E+01
 11
-3.47108818E+02
 21
-4.35229011E+01
  0
LINE
  8
0
 62
7
 10
-3.37108818E+02
 20
-1.21922901E+02
 11
-3.37108818E+02
 21
-1.21012901E+02
  0
LINE
  8
0
 62
7
 10
-3.36508818E+02
 20
-1.22522901E+02
 11
-3.37108818E+02
 21
-1.21922901E+02
  0
LINE
  8
0
 62
7
 10
-3.27708818E+02
 20
-1.22522901E+02
 11
-3.27108818E+02
 21
-1.21922901E+02
  0
LINE
  8
0
 62
7
 10
-3.27108818E+02
 20
-1.21922901E+02
 11
-3.27108818E+02
 21
-1.21012901E+02
  0
LINE
  8
0
 62
7
 10
-3.37108818E+02
 20
-1.21922901E+02
 11
-3.27108818E+02
 21
-1.21922901E+02
  0
LINE
  8
0
 62
7
 10
-3.36508818E+02
 20
-1.22522901E+02
 11
-3.27708818E+02
 21
-1.22522901E+02
  0
LINE
  8
0
 62
7
 10
-3.13108818E+02
 20
-1.15522901E+02
 11
-3.22635097E+02
 21
-1.21022901E+02
  0
LINE
  8
0
 62
7
 10
-3.13108818E+02
 20
-1.15522901E+02
 11
-3.13108818E+02
 21
-1.13522901E+02
  0
LINE
  8
0
 62
7
 10
-3.46308818E+02
 20
-1.09022901E+02
 11
-3.50715119E+02
 21
-1.09022901E+02
  0
LINE
  8
0
 62
7
 10
-3.44508818E+02
 20
-1.13522901E+02
 11
-3.46308818E+02
 21
-1.11722901E+02
  0
LINE
  8
0
 62
7
 10
-3.46308818E+02
 20
-1.11722901E+02
 11
-3.46308818E+02
 21
-1.09022901E+02
  0
LINE
  8
0
 62
7
 10
-3.51108818E+02
 20
-1.15522901E+02
 11
-3.41582538E+02
 21
-1.21022901E+02
  0
LINE
  8
0
 62
7
 10
-3.51108818E+02
 20
-1.13522901E+02
 11
-3.50715119E+02
 21
-1.09022901E+02
  0
LINE
  8
0
 62
7
 10
-3.51108818E+02
 20
-1.15522901E+02
 11
-3.51108818E+02
 21
-1.13522901E+02
  0
LINE
  8
0
 62
7
 10
-3.13108818E+02
 20
-1.15522901E+02
 11
-3.51108818E+02
 21
-1.15522901E+02
  0
LINE
  8
0
 62
7
 10
-3.22635097E+02
 20
-1.21022901E+02
 11
-3.41582538E+02
 21
-1.21022901E+02
  0
LINE
  8
0
 62
7
 10
-3.13108818E+02
 20
-2.90229011E+01
 11
-3.13108818E+02
 21
-4.30229011E+01
  0
LINE
  8
0
 62
7
 10
-3.50608818E+02
 20
-2.85229011E+01
 11
-3.13608818E+02
 21
-2.85229011E+01
  0
LINE
  8
0
 62
7
 10
-3.51108818E+02
 20
-3.50229011E+01
 11
-3.13108818E+02
 21
-3.50229011E+01
  0
LINE
  8
0
 62
7
 10
-3.51108818E+02
 20
-3.65229011E+01
 11
-3.13108818E+02
 21
-3.65229011E+01
  0
LINE
  8
0
 62
7
 10
-3.26108818E+02
 20
-6.40229011E+01
 11
-3.26108818E+02
 21
-1.13022901E+02
  0
LINE
  8
0
 62
7
 10
-3.22108818E+02
 20
-4.35229011E+01
 11
-3.22108818E+02
 21
-6.35229011E+01
  0
LINE
  8
0
 62
7
 10
-3.22108818E+02
 20
-4.35229011E+01
 11
-3.13608818E+02
 21
-4.35229011E+01
  0
LINE
  8
0
  6
CENTER
 62
2
 10
-3.51108818E+02
 20
-8.85229011E+01
 11
-2.69388534E+02
 21
-8.85229011E+01
  0
LINE
  8
0
 62
7
 10
-3.49608818E+02
 20
-3.65229011E+01
 11
-3.49608818E+02
 21
-4.35229011E+01
  0
LINE
  8
0
 62
7
 10
-3.14608818E+02
 20
-3.65229011E+01
 11
-3.14608818E+02
 21
-4.35229011E+01
  0
LINE
  8
0
 62
7
 10
-3.49608818E+02
 20
-3.65229011E+01
 11
-3.51108818E+02
 21
-3.50229011E+01
  0
LINE
  8
0
 62
7
 10
-3.14608818E+02
 20
-3.65229011E+01
 11
-3.13108818E+02
 21
-3.50229011E+01
  0
LINE
  8
0
 62
7
 10
-3.47608818E+02
 20
-4.12529011E+01
 11
-3.16608818E+02
 21
-4.12529011E+01
  0
LINE
  8
0
 62
7
 10
-3.47108818E+02
 20
-2.85229011E+01
 11
-3.47108818E+02
 21
-3.50229011E+01
  0
LINE
  8
0
 62
7
 10
-3.17108818E+02
 20
-2.85229011E+01
 11
-3.17108818E+02
 21
-3.50229011E+01
  0
LINE
  8
0
 62
7
 10
-3.45608818E+02
 20
-3.65229011E+01
 11
-3.47108818E+02
 21
-3.50229011E+01
  0
LINE
  8
0
 62
7
 10
-3.18608818E+02
 20
-3.65229011E+01
 11
-3.17108818E+02
 21
-3.50229011E+01
  0
LINE
  8
0
 62
7
 10
-3.51108818E+02
 20
-2.90229011E+01
 11
-3.51108818E+02
 21
-4.30229011E+01
  0
LINE
  8
0
 62
7
 10
-3.50608818E+02
 20
-4.35229011E+01
 11
-3.42108818E+02
 21
-4.35229011E+01
  0
LINE
  8
0
 62
7
 10
-3.42108818E+02
 20
-4.35229011E+01
 11
-3.42108818E+02
 21
-6.35229011E+01
  0
LINE
  8
0
 62
7
 10
-3.42108818E+02
 20
-6.35229011E+01
 11
-3.38608818E+02
 21
-6.35229011E+01
  0
LINE
  8
0
 62
7
 10
-3.38108818E+02
 20
-6.40229011E+01
 11
-3.38108818E+02
 21
-1.13022901E+02
  0
LINE
  8
0
  6
CENTER
 62
2
 10
-3.32108818E+02
 20
-2.35229011E+01
 11
-3.32108818E+02
 21
-1.23872324E+02
  0
ARC
  8
0
 62
7
 10
-3.50608818E+02
 20
-2.90229011E+01
 40
5.00000000E-01
 50
9.00000002E+01
 51
1.80000000E+02
  0
ARC
  8
0
 62
7
 10
-3.13608818E+02
 20
-2.90229011E+01
 40
5.00000000E-01
 50
0.00000000E+00
 51
9.00000002E+01
  0
ARC
  8
0
 62
7
 10
-3.13608818E+02
 20
-4.30229011E+01
 40
5.00000000E-01
 50
2.70000000E+02
 51
0.00000000E+00
  0
ARC
  8
0
 62
7
 10
-3.25608818E+02
 20
-6.40229011E+01
 40
5.00000000E-01
 50
9.00000002E+01
 51
1.80000000E+02
  0
ARC
  8
0
 62
7
 10
-3.37608818E+02
 20
-1.13022901E+02
 40
5.00000000E-01
 50
1.80000000E+02
 51
2.70000000E+02
  0
ARC
  8
0
 62
7
 10
-3.26608818E+02
 20
-1.13022901E+02
 40
5.00000000E-01
 50
2.70000000E+02
 51
0.00000000E+00
  0
ARC
  8
0
 62
7
 10
-3.50608818E+02
 20
-4.30229011E+01
 40
5.00000000E-01
 50
1.80000000E+02
 51
2.70000000E+02
  0
ARC
  8
0
 62
7
 10
-3.38608818E+02
 20
-6.40229011E+01
 40
5.00000000E-01
 50
0.00000000E+00
 51
9.00000002E+01
  0
LINE
  8
0
 62
7
 10
-7.20099659E+01
 20
-2.19522901E+02
 11
-2.65099659E+01
 21
-2.19522901E+02
  0
LINE
  8
0
 62
7
 10
-7.20099659E+01
 20
-1.73522901E+02
 11
-2.65099659E+01
 21
-1.73522901E+02
  0
LINE
  8
0
 62
7
 10
-3.45099659E+01
 20
-1.74022901E+02
 11
-3.45099659E+01
 21
-2.19022901E+02
  0
LINE
  8
0
 62
7
 10
-7.25099659E+01
 20
-1.74022901E+02
 11
-7.25099659E+01
 21
-2.19022901E+02
  0
LINE
  8
0
 62
7
 10
-6.29799659E+01
 20
-1.79022901E+02
 11
-4.40299659E+01
 21
-1.79022901E+02
  0
LINE
  8
0
  6
CENTER
 62
2
 10
-7.45099659E+01
 20
-1.96522901E+02
 11
-1.43630982E+01
 21
-1.96522901E+02
  0
LINE
  8
0
 62
7
 10
-6.29799659E+01
 20
-2.14022901E+02
 11
-4.40299659E+01
 21
-2.14022901E+02
  0
LINE
  8
0
  6
CENTER
 62
2
 10
-5.35099659E+01
 20
-1.69819259E+02
 11
-5.35099659E+01
 21
-2.23413807E+02
  0
LINE
  8
0
  6
CENTER
 62
2
 10
-6.10099659E+01
 20
-1.85022901E+02
 11
-4.60099659E+01
 21
-1.85022901E+02
  0
LINE
  8
0
  6
CENTER
 62
2
 10
-6.10099659E+01
 20
-2.08022901E+02
 11
-4.60099659E+01
 21
-2.08022901E+02
  0
LINE
  8
0
 62
7
 10
-6.29799659E+01
 20
-1.79022901E+02
 11
-6.29799659E+01
 21
-2.14022901E+02
  0
LINE
  8
0
 62
7
 10
-4.40299659E+01
 20
-1.79022901E+02
 11
-4.40299659E+01
 21
-2.14022901E+02
  0
LINE
  8
0
 62
7
 10
-4.40299659E+01
 20
-1.79022901E+02
 11
-3.46899659E+01
 21
-1.73632901E+02
  0
LINE
  8
0
 62
7
 10
-6.29799659E+01
 20
-1.79022901E+02
 11
-7.23199659E+01
 21
-1.73632901E+02
  0
LINE
  8
0
 62
7
 10
-6.29799659E+01
 20
-2.14022901E+02
 11
-7.23199659E+01
 21
-2.19422901E+02
  0
LINE
  8
0
 62
7
 10
-4.40299659E+01
 20
-2.14022901E+02
 11
-3.46899659E+01
 21
-2.19422901E+02
  0
ARC
  8
0
 62
7
 10
-7.20099659E+01
 20
-1.74022901E+02
 40
5.00000000E-01
 50
9.00000002E+01
 51
1.80000000E+02
  0
ARC
  8
0
 62
7
 10
-7.20099659E+01
 20
-2.19022901E+02
 40
5.00000000E-01
 50
1.80000000E+02
 51
2.70000000E+02
  0
ARC
  8
0
 62
7
 10
-3.50099659E+01
 20
-1.74022901E+02
 40
5.00000000E-01
 50
0.00000000E+00
 51
9.00000002E+01
  0
ARC
  8
0
 62
7
 10
-3.50099659E+01
 20
-2.19022901E+02
 40
5.00000000E-01
 50
2.70000000E+02
 51
0.00000000E+00
  0
CIRCLE
  8
0
 62
7
 10
-5.35099659E+01
 20
-1.85022901E+02
 40
5.50000000E+00
  0
CIRCLE
  8
0
 62
7
 10
-5.35099659E+01
 20
-2.08022901E+02
 40
5.50000000E+00
  0
LINE
  8
0
 62
7
 10
-5.85099659E+01
 20
-1.71522901E+02
 11
-4.85099659E+01
 21
-1.71522901E+02
  0
LINE
  8
0
 62
7
 10
-5.85099659E+01
 20
-2.21522901E+02
 11
-4.85099659E+01
 21
-2.21522901E+02
  0
LINE
  8
0
 62
7
 10
-4.75099659E+01
 20
-1.72522901E+02
 11
-4.75099659E+01
 21
-1.73522901E+02
  0
LINE
  8
0
 62
7
 10
-5.95099659E+01
 20
-1.72522901E+02
 11
-5.95099659E+01
 21
-1.73522901E+02
  0
LINE
  8
0
 62
7
 10
-5.95099659E+01
 20
-2.19522901E+02
 11
-5.95099659E+01
 21
-2.20522901E+02
  0
LINE
  8
0
 62
7
 10
-4.75099659E+01
 20
-2.19522901E+02
 11
-4.75099659E+01
 21
-2.20522901E+02
  0
LINE
  8
0
 62
7
 10
-5.95099659E+01
 20
-1.72522901E+02
 11
-5.85099659E+01
 21
-1.71522901E+02
  0
LINE
  8
0
 62
7
 10
-4.85099659E+01
 20
-1.71522901E+02
 11
-4.75099659E+01
 21
-1.72522901E+02
  0
LINE
  8
0
 62
7
 10
-4.75099659E+01
 20
-2.20522901E+02
 11
-4.85099659E+01
 21
-2.21522901E+02
  0
LINE
  8
0
 62
7
 10
-5.85099659E+01
 20
-2.21522901E+02
 11
-5.95099659E+01
 21
-2.20522901E+02
  0
LINE
  8
0
 62
7
 10
-5.95099659E+01
 20
-1.72522901E+02
 11
-4.75099659E+01
 21
-1.72522901E+02
  0
LINE
  8
0
 62
7
 10
-4.75099659E+01
 20
-2.20522901E+02
 11
-5.95099659E+01
 21
-2.20522901E+02
  0
LINE
  8
0
 62
7
 10
-5.85099659E+01
 20
-2.21522901E+02
 11
-5.85099659E+01
 21
-2.19522901E+02
  0
LINE
  8
0
 62
7
 10
-4.85099659E+01
 20
-2.21522901E+02
 11
-4.85099659E+01
 21
-2.19522901E+02
  0
LINE
  8
0
 62
7
 10
-5.85099659E+01
 20
-1.71522901E+02
 11
-5.85099659E+01
 21
-1.73522901E+02
  0
LINE
  8
0
 62
7
 10
-4.85099659E+01
 20
-1.71522901E+02
 11
-4.85099659E+01
 21
-1.73522901E+02
  0
LINE
  8
0
 62
7
 10
-2.55099659E+01
 20
-1.74522901E+02
 11
-2.55099659E+01
 21
-2.18522901E+02
  0
LINE
  8
0
 62
7
 10
-2.65099659E+01
 20
-2.19522901E+02
 11
-2.55099659E+01
 21
-2.18522901E+02
  0
LINE
  8
0
 62
7
 10
-2.55099659E+01
 20
-1.74522901E+02
 11
-2.65099659E+01
 21
-1.73522901E+02
  0
LINE
  8
0
 62
7
 10
-2.65099659E+01
 20
-1.73522901E+02
 11
-2.65099659E+01
 21
-2.19522901E+02
  0
LINE
  8
0
 62
7
 10
-2.55099659E+01
 20
-1.74522901E+02
 11
-3.45099659E+01
 21
-1.74522901E+02
  0
LINE
  8
0
 62
7
 10
-2.55099659E+01
 20
-2.18522901E+02
 11
-3.45099659E+01
 21
-2.18522901E+02
  0
LINE
  8
0
 62
7
 10
-3.25099659E+01
 20
-1.84022901E+02
 11
-3.25099659E+01
 21
-2.09022901E+02
  0
ARC
  8
0
 62
7
 10
-3.50099659E+01
 20
-1.84022901E+02
 40
2.50000000E+00
 50
0.00000000E+00
 51
7.84630412E+01
  0
ARC
  8
0
 62
7
 10
-3.50099659E+01
 20
-2.09022901E+02
 40
2.50000000E+00
 50
2.81536959E+02
 51
0.00000000E+00
  0
CIRCLE
  8
0
 62
7
 10
-5.35099659E+01
 20
-1.85022901E+02
 40
5.00000000E+00
  0
CIRCLE
  8
0
 62
7
 10
-5.35099659E+01
 20
-2.08022901E+02
 40
5.00000000E+00
  0
CIRCLE
  8
0
 62
7
 10
-5.35099659E+01
 20
-1.85022901E+02
 40
4.40000000E+00
  0
CIRCLE
  8
0
 62
7
 10
-5.35099659E+01
 20
-2.08022901E+02
 40
4.40000000E+00
  0
LINE
  8
0
 62
7
 10
-5.60099659E+01
 20
-1.86466277E+02
 11
-5.60099659E+01
 21
-1.83579526E+02
  0
LINE
  8
0
 62
7
 10
-5.10099659E+01
 20
-1.86466277E+02
 11
-5.10099659E+01
 21
-1.83579525E+02
  0
LINE
  8
0
 62
7
 10
-5.60099657E+01
 20
-1.83579526E+02
 11
-5.35099657E+01
 21
-1.82136150E+02
  0
LINE
  8
0
 62
7
 10
-5.35099656E+01
 20
-1.87909652E+02
 11
-5.10099659E+01
 21
-1.86466277E+02
  0
LINE
  8
0
 62
7
 10
-5.35099657E+01
 20
-1.82136150E+02
 11
-5.10099656E+01
 21
-1.83579526E+02
  0
LINE
  8
0
 62
7
 10
-5.60099660E+01
 20
-1.86466277E+02
 11
-5.35099656E+01
 21
-1.87909653E+02
  0
CIRCLE
  8
0
 62
7
 10
-5.35099659E+01
 20
-1.85022901E+02
 40
2.88675124E+00
  0
LINE
  8
0
 62
7
 10
-5.60099657E+01
 20
-2.06579526E+02
 11
-5.35099657E+01
 21
-2.05136150E+02
  0
LINE
  8
0
 62
7
 10
-5.60099660E+01
 20
-2.09466277E+02
 11
-5.35099656E+01
 21
-2.10909653E+02
  0
CIRCLE
  8
0
 62
7
 10
-5.35099659E+01
 20
-2.08022901E+02
 40
2.88675124E+00
  0
LINE
  8
0
 62
7
 10
-5.60099659E+01
 20
-2.09466277E+02
 11
-5.60099659E+01
 21
-2.06579526E+02
  0
LINE
  8
0
 62
7
 10
-5.35099657E+01
 20
-2.05136150E+02
 11
-5.10099656E+01
 21
-2.06579526E+02
  0
LINE
  8
0
 62
7
 10
-5.10099659E+01
 20
-2.09466277E+02
 11
-5.10099659E+01
 21
-2.06579525E+02
  0
LINE
  8
0
 62
7
 10
-5.35099656E+01
 20
-2.10909652E+02
 11
-5.10099659E+01
 21
-2.09466277E+02
  0
LINE
  8
0
 62
7
 10
2.54900341E+01
 20
-1.72522901E+02
 11
2.54900341E+01
 21
-2.20522901E+02
  0
LINE
  8
0
 62
7
 10
2.34900341E+01
 20
-1.73572901E+02
 11
2.34900341E+01
 21
-2.19482901E+02
  0
LINE
  8
0
 62
7
 10
1.79900341E+01
 20
-1.79232901E+02
 11
1.79900341E+01
 21
-2.13822901E+02
  0
LINE
  8
0
 62
7
 10
2.36900341E+01
 20
-2.19522901E+02
 11
2.54900341E+01
 21
-2.19522901E+02
  0
LINE
  8
0
 62
7
 10
2.36900341E+01
 20
-1.73522901E+02
 11
2.54900341E+01
 21
-1.73522901E+02
  0
LINE
  8
0
  6
CENTER
 62
2
 10
1.29590226E+01
 20
-1.96522901E+02
 11
8.70486972E+01
 21
-1.96522901E+02
  0
LINE
  8
0
 62
7
 10
1.81300341E+01
 20
-1.78882901E+02
 11
2.33400341E+01
 21
-1.73672901E+02
  0
LINE
  8
0
 62
7
 10
1.81300341E+01
 20
-2.14172901E+02
 11
2.33400341E+01
 21
-2.19382901E+02
  0
ARC
  8
0
 62
7
 10
1.84900712E+01
 20
-1.79229916E+02
 40
5.00046003E-01
 50
1.36055136E+02
 51
1.80342045E+02
  0
ARC
  8
0
 62
7
 10
1.84935948E+01
 20
-2.13824477E+02
 40
5.03563123E-01
 50
1.79820711E+02
 51
2.23782108E+02
  0
ARC
  8
0
 62
7
 10
2.36971715E+01
 20
-1.74022888E+02
 40
5.00038156E-01
 50
9.08178487E+01
 51
1.35579333E+02
  0
ARC
  8
0
 62
7
 10
2.36884584E+01
 20
-2.19019340E+02
 40
5.03563123E-01
 50
2.26217892E+02
 51
2.70179289E+02
  0
LINE
  8
0
 62
7
 10
7.54900341E+01
 20
-1.72522901E+02
 11
7.44900341E+01
 21
-1.71522901E+02
  0
LINE
  8
0
 62
7
 10
7.54900341E+01
 20
-2.20522901E+02
 11
7.44900341E+01
 21
-2.21522901E+02
  0
LINE
  8
0
 62
7
 10
8.29900341E+01
 20
-1.79022901E+02
 11
7.74900341E+01
 21
-1.73522901E+02
  0
LINE
  8
0
 62
7
 10
7.74900341E+01
 20
-1.73522901E+02
 11
7.54900341E+01
 21
-1.73522901E+02
  0
LINE
  8
0
 62
7
 10
7.74900341E+01
 20
-2.19522901E+02
 11
7.54900341E+01
 21
-2.19522901E+02
  0
LINE
  8
0
 62
7
 10
2.54900341E+01
 20
-1.72522901E+02
 11
2.64900341E+01
 21
-1.71522901E+02
  0
LINE
  8
0
 62
7
 10
2.64900341E+01
 20
-2.21522901E+02
 11
2.54900341E+01
 21
-2.20522901E+02
  0
LINE
  8
0
 62
7
 10
7.54900341E+01
 20
-2.20522901E+02
 11
7.54900341E+01
 21
-1.72522901E+02
  0
LINE
  8
0
 62
7
 10
8.29900341E+01
 20
-2.14022901E+02
 11
8.29900341E+01
 21
-1.79022901E+02
  0
LINE
  8
0
  6
CENTER
 62
2
 10
5.04900341E+01
 20
-2.24039203E+02
 11
5.04900341E+01
 21
-1.69454422E+02
  0
LINE
  8
0
 62
7
 10
7.44900341E+01
 20
-2.21522901E+02
 11
2.64900341E+01
 21
-2.21522901E+02
  0
LINE
  8
0
 62
7
 10
7.44900341E+01
 20
-1.71522901E+02
 11
2.64900341E+01
 21
-1.71522901E+02
  0
LINE
  8
0
 62
7
 10
8.29900341E+01
 20
-2.14022901E+02
 11
7.74900341E+01
 21
-2.19522901E+02
  0
LINE
  8
0
 62
7
 10
7.74900341E+01
 20
-2.19522901E+02
 11
7.74900341E+01
 21
-1.73522901E+02
  0
LINE
  8
0
 62
7
 10
2.64900341E+01
 20
-1.73522901E+02
 11
2.54900341E+01
 21
-1.74522901E+02
  0
LINE
  8
0
 62
7
 10
2.64900341E+01
 20
-2.19522901E+02
 11
2.54900341E+01
 21
-2.18522901E+02
  0
LINE
  8
0
 62
7
 10
7.44900341E+01
 20
-2.19522901E+02
 11
2.64900341E+01
 21
-2.19522901E+02
  0
LINE
  8
0
 62
7
 10
7.44900341E+01
 20
-1.73522901E+02
 11
2.64900341E+01
 21
-1.73522901E+02
  0
LINE
  8
0
 62
7
 10
7.44900341E+01
 20
-1.73522901E+02
 11
7.54900341E+01
 21
-1.74522901E+02
  0
LINE
  8
0
 62
7
 10
7.44900341E+01
 20
-2.19522901E+02
 11
7.54900341E+01
 21
-2.18522901E+02
  0
LINE
  8
0
 62
7
 10
2.54900341E+01
 20
-1.74522901E+02
 11
7.54900341E+01
 21
-1.74522901E+02
  0
LINE
  8
0
 62
7
 10
7.54900341E+01
 20
-2.18522901E+02
 11
2.54900341E+01
 21
-2.18522901E+02
  0
LINE
  8
0
 62
7
 10
7.44900341E+01
 20
-1.73522901E+02
 11
7.44900341E+01
 21
-2.19522901E+02
  0
LINE
  8
0
 62
7
 10
2.64900341E+01
 20
-1.73522901E+02
 11
2.64900341E+01
 21
-2.19522901E+02
  0
CIRCLE
  8
0
 62
2
 10
5.04900341E+01
 20
-1.96522901E+02
 40
1.32205000E+01
  0
CIRCLE
  8
0
 62
7
 10
5.04900341E+01
 20
-1.96522901E+02
 40
1.20585003E+01
  0
LINE
  8
0
  6
CENTER
 62
2
 10
1.51506112E+01
 20
-1.85022901E+02
 11
2.09669112E+01
 21
-1.85022901E+02
  0
LINE
  8
0
  6
CENTER
 62
2
 10
1.59900341E+01
 20
-2.08022901E+02
 11
2.09669112E+01
 21
-2.08022901E+02
  0
LINE
  8
0
 62
7
 10
1.70900341E+01
 20
-1.80022901E+02
 11
1.79900341E+01
 21
-1.80022901E+02
  0
LINE
  8
0
 62
7
 10
1.70900341E+01
 20
-1.90022901E+02
 11
1.79900341E+01
 21
-1.90022901E+02
  0
LINE
  8
0
 62
7
 10
1.64900341E+01
 20
-1.80622901E+02
 11
1.64900341E+01
 21
-1.89422901E+02
  0
LINE
  8
0
 62
7
 10
1.70900341E+01
 20
-1.80022901E+02
 11
1.70900341E+01
 21
-1.90022901E+02
  0
LINE
  8
0
 62
7
 10
1.64900341E+01
 20
-1.89422901E+02
 11
1.70900341E+01
 21
-1.90022901E+02
  0
LINE
  8
0
 62
7
 10
1.64900341E+01
 20
-1.80622901E+02
 11
1.70900341E+01
 21
-1.80022901E+02
  0
LINE
  8
0
 62
7
 10
1.64900341E+01
 20
-2.03622901E+02
 11
1.70900341E+01
 21
-2.03022901E+02
  0
LINE
  8
0
 62
7
 10
1.64900341E+01
 20
-2.03622901E+02
 11
1.64900341E+01
 21
-2.12422901E+02
  0
LINE
  8
0
 62
7
 10
1.70900341E+01
 20
-2.03022901E+02
 11
1.70900341E+01
 21
-2.13022901E+02
  0
LINE
  8
0
 62
7
 10
1.70900341E+01
 20
-2.03022901E+02
 11
1.79900341E+01
 21
-2.03022901E+02
  0
LINE
  8
0
 62
7
 10
1.64900341E+01
 20
-2.12422901E+02
 11
1.70900341E+01
 21
-2.13022901E+02
  0
LINE
  8
0
 62
7
 10
1.70900341E+01
 20
-2.13022901E+02
 11
1.79900341E+01
 21
-2.13022901E+02
  0
LINE
  8
0
 62
7
 10
-6.29699659E+01
 20
-1.12522901E+02
 11
-4.40499659E+01
 21
-1.12522901E+02
  0
LINE
  8
0
 62
7
 10
-7.25099659E+01
 20
-1.05022901E+02
 11
-2.65099659E+01
 21
-1.05022901E+02
  0
LINE
  8
0
 62
7
 10
-7.16499659E+01
 20
-1.00522901E+02
 11
-6.82099659E+01
 21
-1.00522901E+02
  0
LINE
  8
0
 62
7
 10
-7.24099659E+01
 20
-1.07022901E+02
 11
-3.45982157E+01
 21
-1.07022901E+02
  0
LINE
  8
0
 62
7
 10
-3.45099659E+01
 20
-1.06742901E+02
 11
-3.45099659E+01
 21
-1.05022901E+02
  0
LINE
  8
0
 62
7
 10
-7.25099659E+01
 20
-1.06742901E+02
 11
-7.25099659E+01
 21
-1.05022901E+02
  0
LINE
  8
0
 62
7
 10
-7.22599659E+01
 20
-1.07172901E+02
 11
-6.29899659E+01
 21
-1.12522901E+02
  0
LINE
  8
0
 62
7
 10
-4.40199659E+01
 20
-1.12522901E+02
 11
-3.47599659E+01
 21
-1.07172901E+02
  0
LINE
  8
0
 62
7
 10
-6.75599659E+01
 20
-1.03372901E+02
 11
-6.59099659E+01
 21
-1.05022901E+02
  0
LINE
  8
0
  6
CENTER
 62
2
 10
-5.35099659E+01
 20
-1.14522901E+02
 11
-5.35099659E+01
 21
-4.42103692E+01
  0
LINE
  8
0
 62
7
 10
-7.25099659E+01
 20
-1.05022901E+02
 11
-7.21499659E+01
 21
-1.00982901E+02
  0
LINE
  8
0
 62
7
 10
-6.77099659E+01
 20
-1.03022901E+02
 11
-6.77099659E+01
 21
-1.01022901E+02
  0
ARC
  8
0
 62
7
 10
-6.29799659E+01
 20
-1.12472008E+02
 40
5.18662226E-02
 50
2.58883549E+02
 51
2.81116451E+02
  0
ARC
  8
0
 62
7
 10
-4.40349659E+01
 20
-1.12470952E+02
 40
5.40716521E-02
 50
2.53894333E+02
 51
2.86105667E+02
  0
ARC
  8
0
 62
7
 10
-7.20074921E+01
 20
-1.06738440E+02
 40
5.02493577E-01
 50
1.80508719E+02
 51
2.39838321E+02
  0
ARC
  8
0
 62
7
 10
-3.50124396E+01
 20
-1.06738440E+02
 40
5.02493577E-01
 50
3.00161679E+02
 51
3.59491281E+02
  0
ARC
  8
0
 62
7
 10
-7.16545488E+01
 20
-1.01019659E+02
 40
4.96778790E-01
 50
8.94714185E+01
 51
1.75756693E+02
  0
ARC
  8
0
 62
7
 10
-6.72099805E+01
 20
-1.03015765E+02
 40
5.00036304E-01
 50
1.80817761E+02
 51
2.25579420E+02
  0
ARC
  8
0
 62
7
 10
-6.82099643E+01
 20
-1.01022900E+02
 40
4.99998474E-01
 50
3.59999825E+02
 51
9.00000002E+01
  0
LINE
  8
0
 62
7
 10
-5.95099659E+01
 20
-1.04022901E+02
 11
-5.95099659E+01
 21
-5.50229011E+01
  0
LINE
  8
0
 62
7
 10
-4.75099659E+01
 20
-1.04022901E+02
 11
-4.75099659E+01
 21
-5.50229011E+01
  0
LINE
  8
0
  6
CENTER
 62
2
 10
-7.25099659E+01
 20
-8.00229011E+01
 11
-1.43630982E+01
 21
-8.00229011E+01
  0
LINE
  8
0
 62
7
 10
-7.25099659E+01
 20
-5.50229011E+01
 11
-2.65099659E+01
 21
-5.50229011E+01
  0
LINE
  8
0
 62
7
 10
-7.24099659E+01
 20
-5.30229011E+01
 11
-3.45982157E+01
 21
-5.30229011E+01
  0
ARC
  8
0
 62
7
 10
-6.82099643E+01
 20
-5.90229027E+01
 40
4.99998474E-01
 50
2.70000000E+02
 51
1.74853110E-04
  0
ARC
  8
0
 62
7
 10
-6.72099805E+01
 20
-5.70300377E+01
 40
5.00036304E-01
 50
1.34420580E+02
 51
1.79182239E+02
  0
ARC
  8
0
 62
7
 10
-7.16545488E+01
 20
-5.90261435E+01
 40
4.96778790E-01
 50
1.84243306E+02
 51
2.70528582E+02
  0
ARC
  8
0
 62
7
 10
-3.50124396E+01
 20
-5.33073626E+01
 40
5.02493577E-01
 50
5.08719280E-01
 51
5.98383210E+01
  0
ARC
  8
0
 62
7
 10
-7.20074921E+01
 20
-5.33073626E+01
 40
5.02493577E-01
 50
1.20161679E+02
 51
1.79491281E+02
  0
ARC
  8
0
 62
7
 10
-4.40349659E+01
 20
-4.75748506E+01
 40
5.40716521E-02
 50
7.38943325E+01
 51
1.06105667E+02
  0
ARC
  8
0
 62
7
 10
-6.29799659E+01
 20
-4.75737942E+01
 40
5.18662226E-02
 50
7.88835492E+01
 51
1.01116451E+02
  0
LINE
  8
0
 62
7
 10
-6.77099659E+01
 20
-5.70229011E+01
 11
-6.77099659E+01
 21
-5.90229011E+01
  0
LINE
  8
0
 62
7
 10
-7.25099659E+01
 20
-5.50229011E+01
 11
-7.21499659E+01
 21
-5.90629011E+01
  0
LINE
  8
0
 62
7
 10
-6.75599659E+01
 20
-5.66729011E+01
 11
-6.59099659E+01
 21
-5.50229011E+01
  0
LINE
  8
0
 62
7
 10
-4.40199659E+01
 20
-4.75229011E+01
 11
-3.47599659E+01
 21
-5.28729011E+01
  0
LINE
  8
0
 62
7
 10
-7.22599659E+01
 20
-5.28729011E+01
 11
-6.29899659E+01
 21
-4.75229011E+01
  0
LINE
  8
0
 62
7
 10
-7.25099659E+01
 20
-5.33029011E+01
 11
-7.25099659E+01
 21
-5.50229011E+01
  0
LINE
  8
0
 62
7
 10
-3.45099659E+01
 20
-5.33029011E+01
 11
-3.45099659E+01
 21
-5.50229011E+01
  0
LINE
  8
0
 62
7
 10
-7.16499659E+01
 20
-5.95229011E+01
 11
-6.82099659E+01
 21
-5.95229011E+01
  0
LINE
  8
0
 62
7
 10
-6.29699659E+01
 20
-4.75229011E+01
 11
-4.40499659E+01
 21
-4.75229011E+01
  0
LINE
  8
0
 62
7
 10
-5.95099659E+01
 20
-1.04022901E+02
 11
-5.85099659E+01
 21
-1.05022901E+02
  0
LINE
  8
0
 62
7
 10
-4.75099659E+01
 20
-1.04022901E+02
 11
-4.85099659E+01
 21
-1.05022901E+02
  0
LINE
  8
0
 62
7
 10
-2.55099659E+01
 20
-1.04022901E+02
 11
-2.55099659E+01
 21
-5.60229011E+01
  0
LINE
  8
0
 62
7
 10
-2.65099659E+01
 20
-1.05022901E+02
 11
-2.55099659E+01
 21
-1.04022901E+02
  0
LINE
  8
0
 62
7
 10
-2.55099659E+01
 20
-5.60229011E+01
 11
-2.65099659E+01
 21
-5.50229011E+01
  0
LINE
  8
0
 62
7
 10
-4.75099659E+01
 20
-1.04022901E+02
 11
-4.65099659E+01
 21
-1.05022901E+02
  0
LINE
  8
0
 62
7
 10
-4.75099659E+01
 20
-5.60229011E+01
 11
-4.65099659E+01
 21
-5.50229011E+01
  0
LINE
  8
0
 62
7
 10
-4.65099659E+01
 20
-1.05022901E+02
 11
-4.65099659E+01
 21
-5.50229011E+01
  0
LINE
  8
0
 62
7
 10
-2.65099659E+01
 20
-1.05022901E+02
 11
-2.65099659E+01
 21
-5.50229011E+01
  0
LINE
  8
0
 62
7
 10
-4.75099659E+01
 20
-5.60229011E+01
 11
-2.55099659E+01
 21
-5.60229011E+01
  0
LINE
  8
0
 62
7
 10
-4.75099659E+01
 20
-1.04022901E+02
 11
-2.55099659E+01
 21
-1.04022901E+02
  0
LINE
  8
0
 62
7
 10
-5.79099659E+01
 20
-1.14022901E+02
 11
-4.91099659E+01
 21
-1.14022901E+02
  0
LINE
  8
0
 62
7
 10
-5.85099659E+01
 20
-1.13422901E+02
 11
-4.85099659E+01
 21
-1.13422901E+02
  0
LINE
  8
0
 62
7
 10
-5.85099659E+01
 20
-1.13422901E+02
 11
-5.85099659E+01
 21
-1.12522901E+02
  0
LINE
  8
0
 62
7
 10
-4.85099659E+01
 20
-1.13422901E+02
 11
-4.85099659E+01
 21
-1.12522901E+02
  0
LINE
  8
0
 62
7
 10
-5.85099659E+01
 20
-1.13422901E+02
 11
-5.79099659E+01
 21
-1.14022901E+02
  0
LINE
  8
0
 62
7
 10
-4.91099659E+01
 20
-1.14022901E+02
 11
-4.85099659E+01
 21
-1.13422901E+02
  0
LINE
  8
0
  6
CENTER
 62
2
 10
1.96555475E+02
 20
-1.36522901E+02
 11
1.96555475E+02
 21
-2.56522901E+02
  0
LINE
  8
0
  6
CENTER
 62
2
 10
1.96555475E+02
 20
-1.36522901E+02
 11
1.96555475E+02
 21
-2.56522901E+02
  0
LINE
  8
0
  6
CENTER
 62
2
 10
1.74555475E+02
 20
-1.96522901E+02
 11
2.35702343E+02
 21
-1.96522901E+02
  0
LINE
  8
0
 62
7
 10
2.15555475E+02
 20
-2.19522901E+02
 11
2.23555475E+02
 21
-2.19522901E+02
  0
LINE
  8
0
 62
7
 10
2.15555475E+02
 20
-1.73522901E+02
 11
2.23555475E+02
 21
-1.73522901E+02
  0
LINE
  8
0
 62
7
 10
2.24555475E+02
 20
-1.74522901E+02
 11
2.24555475E+02
 21
-2.18522901E+02
  0
LINE
  8
0
 62
7
 10
2.23555475E+02
 20
-2.19522901E+02
 11
2.24555475E+02
 21
-2.18522901E+02
  0
LINE
  8
0
 62
7
 10
2.24555475E+02
 20
-1.74522901E+02
 11
2.23555475E+02
 21
-1.73522901E+02
  0
LINE
  8
0
 62
7
 10
2.15555475E+02
 20
-2.18522901E+02
 11
2.24555475E+02
 21
-2.18522901E+02
  0
LINE
  8
0
 62
7
 10
2.17555475E+02
 20
-1.84022901E+02
 11
2.17555475E+02
 21
-2.09022901E+02
  0
ARC
  8
0
 62
7
 10
2.15055475E+02
 20
-1.84022901E+02
 40
2.50000000E+00
 50
0.00000000E+00
 51
7.84630412E+01
  0
ARC
  8
0
 62
7
 10
2.15055475E+02
 20
-2.09022901E+02
 40
2.50000000E+00
 50
2.81536959E+02
 51
0.00000000E+00
  0
LINE
  8
0
 62
7
 10
2.23555475E+02
 20
-1.73522901E+02
 11
2.23555475E+02
 21
-2.19522901E+02
  0
LINE
  8
0
 62
7
 10
2.15555475E+02
 20
-1.74522901E+02
 11
2.24555475E+02
 21
-1.74522901E+02
  0
LINE
  8
0
 62
7
 10
1.99071242E+02
 20
-1.83580079E+02
 11
1.99071242E+02
 21
-1.86460079E+02
  0
LINE
  8
0
 62
7
 10
1.96561242E+02
 20
-1.87910079E+02
 11
1.99071242E+02
 21
-1.86460079E+02
  0
LINE
  8
0
 62
7
 10
1.96561242E+02
 20
-1.82130079E+02
 11
1.99071242E+02
 21
-1.83580079E+02
  0
LINE
  8
0
 62
7
 10
2.06035475E+02
 20
-1.79022901E+02
 11
2.15555475E+02
 21
-1.73522901E+02
  0
LINE
  8
0
 62
7
 10
1.99071242E+02
 20
-2.06580079E+02
 11
1.99071242E+02
 21
-2.09460079E+02
  0
LINE
  8
0
 62
7
 10
1.96561242E+02
 20
-2.10910079E+02
 11
1.99071242E+02
 21
-2.09460079E+02
  0
LINE
  8
0
 62
7
 10
1.96561242E+02
 20
-2.05130079E+02
 11
1.99071242E+02
 21
-2.06580079E+02
  0
LINE
  8
0
 62
7
 10
2.06035475E+02
 20
-1.79022901E+02
 11
2.06035475E+02
 21
-2.14022901E+02
  0
LINE
  8
0
 62
7
 10
2.06035475E+02
 20
-2.14022901E+02
 11
2.15555475E+02
 21
-2.19522901E+02
  0
LINE
  8
0
 62
7
 10
1.94051242E+02
 20
-2.06580079E+02
 11
1.94051242E+02
 21
-2.09460079E+02
  0
LINE
  8
0
 62
7
 10
1.94051242E+02
 20
-2.06580079E+02
 11
1.96561242E+02
 21
-2.05130079E+02
  0
LINE
  8
0
 62
7
 10
1.94051242E+02
 20
-2.09460079E+02
 11
1.96561242E+02
 21
-2.10910079E+02
  0
CIRCLE
  8
0
 62
7
 10
1.96561242E+02
 20
-2.08020079E+02
 40
5.00000000E+00
  0
CIRCLE
  8
0
 62
7
 10
1.96561242E+02
 20
-2.08020079E+02
 40
3.96076870E+00
  0
CIRCLE
  8
0
 62
7
 10
1.96561242E+02
 20
-2.08020079E+02
 40
2.89829731E+00
  0
LINE
  8
0
  6
CENTER
 62
2
 10
2.05065475E+02
 20
-2.08022901E+02
 11
1.88065475E+02
 21
-2.08022901E+02
  0
LINE
  8
0
 62
7
 10
2.06035475E+02
 20
-2.14022901E+02
 11
1.87085475E+02
 21
-2.14022901E+02
  0
CIRCLE
  8
0
 62
7
 10
1.96561242E+02
 20
-2.08020079E+02
 40
5.50000000E+00
  0
LINE
  8
0
 62
7
 10
1.87085475E+02
 20
-2.14022901E+02
 11
1.77555475E+02
 21
-2.19522901E+02
  0
LINE
  8
0
 62
7
 10
1.94051242E+02
 20
-1.83580079E+02
 11
1.94051242E+02
 21
-1.86460079E+02
  0
LINE
  8
0
 62
7
 10
1.94051242E+02
 20
-1.83580079E+02
 11
1.96561242E+02
 21
-1.82130079E+02
  0
LINE
  8
0
 62
7
 10
1.94051242E+02
 20
-1.86460079E+02
 11
1.96561242E+02
 21
-1.87910079E+02
  0
CIRCLE
  8
0
 62
7
 10
1.96561242E+02
 20
-1.85020079E+02
 40
5.00000000E+00
  0
CIRCLE
  8
0
 62
7
 10
1.96561242E+02
 20
-1.85020079E+02
 40
3.96076870E+00
  0
CIRCLE
  8
0
 62
7
 10
1.96561242E+02
 20
-1.85020079E+02
 40
2.89829731E+00
  0
LINE
  8
0
 62
7
 10
2.06035475E+02
 20
-1.79022901E+02
 11
1.87085475E+02
 21
-1.79022901E+02
  0
LINE
  8
0
  6
CENTER
 62
2
 10
2.05065475E+02
 20
-1.85022901E+02
 11
1.88065475E+02
 21
-1.85022901E+02
  0
CIRCLE
  8
0
 62
7
 10
1.96561242E+02
 20
-1.85020079E+02
 40
5.50000000E+00
  0
LINE
  8
0
 62
7
 10
1.87085475E+02
 20
-1.79022901E+02
 11
1.77555475E+02
 21
-1.73522901E+02
  0
LINE
  8
0
 62
7
 10
1.87085475E+02
 20
-1.79022901E+02
 11
1.87085475E+02
 21
-2.14022901E+02
  0
ARC
  8
0
 62
7
 10
1.94555475E+02
 20
-2.41522901E+02
 40
4.50000000E+00
 50
9.00000002E+01
 51
2.70000000E+02
  0
ARC
  8
0
 62
7
 10
1.98555475E+02
 20
-2.41522901E+02
 40
4.50000000E+00
 50
2.70000000E+02
 51
9.00000002E+01
  0
ARC
  8
0
 62
7
 10
1.94555475E+02
 20
-1.51522901E+02
 40
4.50000000E+00
 50
9.00000002E+01
 51
2.70000000E+02
  0
ARC
  8
0
 62
7
 10
1.98555475E+02
 20
-1.51522901E+02
 40
4.50000000E+00
 50
2.70000000E+02
 51
9.00000002E+01
  0
LINE
  8
0
 62
7
 10
1.81055475E+02
 20
-2.28482901E+02
 11
2.12055475E+02
 21
-2.28482901E+02
  0
LINE
  8
0
 62
7
 10
1.81055475E+02
 20
-1.64562901E+02
 11
2.12055475E+02
 21
-1.64562901E+02
  0
LINE
  8
0
  6
CENTER
 62
2
 10
1.88055475E+02
 20
-2.41522901E+02
 11
2.05055475E+02
 21
-2.41522901E+02
  0
LINE
  8
0
 62
7
 10
1.94555475E+02
 20
-2.37022901E+02
 11
1.98555475E+02
 21
-2.37022901E+02
  0
LINE
  8
0
  6
CENTER
 62
2
 10
1.98555475E+02
 20
-2.48022901E+02
 11
1.98555475E+02
 21
-2.35022901E+02
  0
LINE
  8
0
  6
CENTER
 62
2
 10
1.94555475E+02
 20
-2.48022901E+02
 11
1.94555475E+02
 21
-2.35022901E+02
  0
LINE
  8
0
 62
7
 10
1.94555475E+02
 20
-2.46022901E+02
 11
1.98555475E+02
 21
-2.46022901E+02
  0
LINE
  8
0
  6
CENTER
 62
2
 10
1.94555475E+02
 20
-1.45022901E+02
 11
1.94555475E+02
 21
-1.58022901E+02
  0
LINE
  8
0
  6
CENTER
 62
2
 10
1.98555475E+02
 20
-1.45022901E+02
 11
1.98555475E+02
 21
-1.58022901E+02
  0
LINE
  8
0
 62
7
 10
1.94555475E+02
 20
-1.56022901E+02
 11
1.98555475E+02
 21
-1.56022901E+02
  0
LINE
  8
0
 62
7
 10
1.94555475E+02
 20
-1.47022901E+02
 11
1.98555475E+02
 21
-1.47022901E+02
  0
LINE
  8
0
  6
CENTER
 62
2
 10
1.88055475E+02
 20
-1.51522901E+02
 11
2.05055475E+02
 21
-1.51522901E+02
  0
LINE
  8
0
 62
7
 10
2.14055475E+02
 20
-2.46892901E+02
 11
2.15555475E+02
 21
-2.47522901E+02
  0
LINE
  8
0
 62
7
 10
2.10925475E+02
 20
-2.50022901E+02
 11
2.14055475E+02
 21
-2.46892901E+02
  0
LINE
  8
0
 62
7
 10
2.14055475E+02
 20
-2.46892901E+02
 11
2.14055475E+02
 21
-2.19522901E+02
  0
LINE
  8
0
 62
7
 10
2.10925475E+02
 20
-2.50022901E+02
 11
2.11555475E+02
 21
-2.51522901E+02
  0
LINE
  8
0
 62
7
 10
1.82175475E+02
 20
-2.50022901E+02
 11
2.10925475E+02
 21
-2.50022901E+02
  0
LINE
  8
0
 62
7
 10
1.82175475E+02
 20
-2.50022901E+02
 11
1.81555475E+02
 21
-2.51522901E+02
  0
LINE
  8
0
 62
7
 10
1.79055475E+02
 20
-2.46892901E+02
 11
1.77555475E+02
 21
-2.47522901E+02
  0
LINE
  8
0
 62
7
 10
1.82175475E+02
 20
-2.50022901E+02
 11
1.79055475E+02
 21
-2.46892901E+02
  0
LINE
  8
0
 62
7
 10
1.79055475E+02
 20
-2.46892901E+02
 11
1.79055475E+02
 21
-2.19522901E+02
  0
LINE
  8
0
 62
7
 10
2.14055475E+02
 20
-1.46152901E+02
 11
2.15555475E+02
 21
-1.45522901E+02
  0
LINE
  8
0
 62
7
 10
2.10925475E+02
 20
-1.43022901E+02
 11
2.11555475E+02
 21
-1.41522901E+02
  0
LINE
  8
0
 62
7
 10
1.79055475E+02
 20
-1.46152901E+02
 11
1.77555475E+02
 21
-1.45522901E+02
  0
LINE
  8
0
 62
7
 10
1.82175475E+02
 20
-1.43022901E+02
 11
1.81555475E+02
 21
-1.41522901E+02
  0
LINE
  8
0
 62
7
 10
2.14055475E+02
 20
-1.46152901E+02
 11
2.14055475E+02
 21
-1.73522901E+02
  0
LINE
  8
0
 62
7
 10
1.79055475E+02
 20
-1.46152901E+02
 11
1.79055475E+02
 21
-1.73522901E+02
  0
LINE
  8
0
 62
7
 10
2.10925475E+02
 20
-1.43022901E+02
 11
2.14055475E+02
 21
-1.46152901E+02
  0
LINE
  8
0
 62
7
 10
1.82175475E+02
 20
-1.43022901E+02
 11
1.79055475E+02
 21
-1.46152901E+02
  0
LINE
  8
0
 62
7
 10
1.82175475E+02
 20
-1.43022901E+02
 11
2.10925475E+02
 21
-1.43022901E+02
  0
LINE
  8
0
 62
7
 10
1.77555475E+02
 20
-1.73522901E+02
 11
2.15555475E+02
 21
-1.73522901E+02
  0
LINE
  8
0
 62
7
 10
1.77555475E+02
 20
-2.19522901E+02
 11
2.15555475E+02
 21
-2.19522901E+02
  0
LINE
  8
0
 62
7
 10
1.81555475E+02
 20
-2.51522901E+02
 11
1.77555475E+02
 21
-2.47522901E+02
  0
LINE
  8
0
 62
7
 10
2.15555475E+02
 20
-2.47522901E+02
 11
2.11555475E+02
 21
-2.51522901E+02
  0
LINE
  8
0
 62
7
 10
2.11555475E+02
 20
-1.41522901E+02
 11
2.15555475E+02
 21
-1.45522901E+02
  0
LINE
  8
0
 62
7
 10
1.81555475E+02
 20
-1.41522901E+02
 11
1.77555475E+02
 21
-1.45522901E+02
  0
LINE
  8
0
 62
7
 10
1.81555475E+02
 20
-2.51522901E+02
 11
2.11555475E+02
 21
-2.51522901E+02
  0
LINE
  8
0
 62
7
 10
1.81555475E+02
 20
-1.41522901E+02
 11
2.11555475E+02
 21
-1.41522901E+02
  0
LINE
  8
0
 62
7
 10
2.15555475E+02
 20
-1.45522901E+02
 11
2.15555475E+02
 21
-2.47522901E+02
  0
LINE
  8
0
 62
7
 10
1.77555475E+02
 20
-1.45522901E+02
 11
1.77555475E+02
 21
-2.47522901E+02
  0
LINE
  8
0
  6
CENTER
 62
2
 10
2.61055475E+02
 20
-1.96522901E+02
 11
3.60618636E+02
 21
-1.96522901E+02
  0
LINE
  8
0
  6
CENTER
 62
2
 10
2.95555475E+02
 20
-2.24039203E+02
 11
2.95555475E+02
 21
-1.69454422E+02
  0
LINE
  8
0
 62
7
 10
2.71555475E+02
 20
-1.73522901E+02
 11
2.70555475E+02
 21
-1.74522901E+02
  0
LINE
  8
0
 62
7
 10
2.71555475E+02
 20
-2.19522901E+02
 11
2.70555475E+02
 21
-2.18522901E+02
  0
LINE
  8
0
 62
7
 10
3.19555475E+02
 20
-1.73522901E+02
 11
3.20555475E+02
 21
-1.74522901E+02
  0
LINE
  8
0
 62
7
 10
3.19555475E+02
 20
-2.19522901E+02
 11
3.20555475E+02
 21
-2.18522901E+02
  0
LINE
  8
0
 62
7
 10
2.70555475E+02
 20
-1.74522901E+02
 11
3.20555475E+02
 21
-1.74522901E+02
  0
LINE
  8
0
 62
7
 10
3.20555475E+02
 20
-2.18522901E+02
 11
2.70555475E+02
 21
-2.18522901E+02
  0
LINE
  8
0
 62
7
 10
3.19555475E+02
 20
-1.73522901E+02
 11
3.19555475E+02
 21
-2.19522901E+02
  0
LINE
  8
0
 62
7
 10
2.71555475E+02
 20
-1.73522901E+02
 11
2.71555475E+02
 21
-2.19522901E+02
  0
CIRCLE
  8
0
 62
2
 10
2.95555475E+02
 20
-1.96522901E+02
 40
1.32205000E+01
  0
CIRCLE
  8
0
 62
7
 10
2.95555475E+02
 20
-1.96522901E+02
 40
1.20585003E+01
  0
LINE
  8
0
 62
7
 10
2.62155475E+02
 20
-2.13022901E+02
 11
2.63065475E+02
 21
-2.13022901E+02
  0
LINE
  8
0
 62
7
 10
2.61555475E+02
 20
-2.12422901E+02
 11
2.62155475E+02
 21
-2.13022901E+02
  0
LINE
  8
0
 62
7
 10
2.62155475E+02
 20
-2.03022901E+02
 11
2.63065475E+02
 21
-2.03022901E+02
  0
LINE
  8
0
 62
7
 10
2.61555475E+02
 20
-2.03622901E+02
 11
2.62155475E+02
 21
-2.03022901E+02
  0
LINE
  8
0
  6
CENTER
 62
2
 10
2.60206052E+02
 20
-2.08022901E+02
 11
2.66022352E+02
 21
-2.08022901E+02
  0
LINE
  8
0
 62
7
 10
2.61555475E+02
 20
-2.03622901E+02
 11
2.61555475E+02
 21
-2.12422901E+02
  0
LINE
  8
0
 62
7
 10
2.62155475E+02
 20
-2.03022901E+02
 11
2.62155475E+02
 21
-2.13022901E+02
  0
LINE
  8
0
 62
7
 10
2.68555475E+02
 20
-2.19522901E+02
 11
2.63055475E+02
 21
-2.14022901E+02
  0
LINE
  8
0
 62
7
 10
2.62155475E+02
 20
-1.90022901E+02
 11
2.63055475E+02
 21
-1.90022901E+02
  0
LINE
  8
0
 62
7
 10
2.61555475E+02
 20
-1.80622901E+02
 11
2.62155475E+02
 21
-1.80022901E+02
  0
LINE
  8
0
 62
7
 10
2.61555475E+02
 20
-1.80622901E+02
 11
2.61555475E+02
 21
-1.89422901E+02
  0
LINE
  8
0
 62
7
 10
2.62155475E+02
 20
-1.80022901E+02
 11
2.63055475E+02
 21
-1.80022901E+02
  0
LINE
  8
0
  6
CENTER
 62
2
 10
2.60206052E+02
 20
-1.85022901E+02
 11
2.66022352E+02
 21
-1.85022901E+02
  0
LINE
  8
0
 62
7
 10
2.62155475E+02
 20
-1.80022901E+02
 11
2.62155475E+02
 21
-1.90022901E+02
  0
LINE
  8
0
 62
7
 10
2.61555475E+02
 20
-1.89422901E+02
 11
2.62155475E+02
 21
-1.90022901E+02
  0
LINE
  8
0
 62
7
 10
2.68555475E+02
 20
-1.73522901E+02
 11
2.63055475E+02
 21
-1.79022901E+02
  0
LINE
  8
0
 62
7
 10
2.68555475E+02
 20
-1.73522901E+02
 11
2.68555475E+02
 21
-2.19522901E+02
  0
LINE
  8
0
 62
7
 10
2.70555475E+02
 20
-1.73522901E+02
 11
2.70555475E+02
 21
-2.19522901E+02
  0
LINE
  8
0
 62
7
 10
2.63055475E+02
 20
-1.79022901E+02
 11
2.63055475E+02
 21
-2.14022901E+02
  0
LINE
  8
0
 62
7
 10
3.20555475E+02
 20
-2.18022901E+02
 11
3.36555475E+02
 21
-2.18022901E+02
  0
LINE
  8
0
 62
7
 10
3.20555475E+02
 20
-1.75022901E+02
 11
3.36555475E+02
 21
-1.75022901E+02
  0
LINE
  8
0
  6
CENTER
 62
2
 10
3.30555475E+02
 20
-1.89022901E+02
 11
3.30555475E+02
 21
-2.04022901E+02
  0
LINE
  8
0
 62
7
 10
3.28555475E+02
 20
-1.95372901E+02
 11
3.28555475E+02
 21
-1.97682901E+02
  0
LINE
  8
0
 62
7
 10
3.32555475E+02
 20
-1.95372901E+02
 11
3.32555475E+02
 21
-1.97682901E+02
  0
LINE
  8
0
 62
7
 10
3.28555475E+02
 20
-1.95372901E+02
 11
3.30555475E+02
 21
-1.94222901E+02
  0
LINE
  8
0
 62
7
 10
3.30555475E+02
 20
-1.98832901E+02
 11
3.32555475E+02
 21
-1.97682901E+02
  0
LINE
  8
0
 62
7
 10
3.30555475E+02
 20
-1.94222901E+02
 11
3.32555475E+02
 21
-1.95372901E+02
  0
LINE
  8
0
 62
7
 10
3.28555475E+02
 20
-1.97682901E+02
 11
3.30555475E+02
 21
-1.98832901E+02
  0
CIRCLE
  8
0
 62
7
 10
3.30559739E+02
 20
-1.96531496E+02
 40
4.75000000E+00
  0
CIRCLE
  8
0
 62
7
 10
3.30559739E+02
 20
-1.96531496E+02
 40
4.25000000E+00
  0
CIRCLE
  8
0
 62
7
 10
3.30559739E+02
 20
-1.96531496E+02
 40
3.73038483E+00
  0
CIRCLE
  8
0
 62
7
 10
3.30559739E+02
 20
-1.96531496E+02
 40
2.30940056E+00
  0
LINE
  8
0
 62
7
 10
3.36555475E+02
 20
-1.73522901E+02
 11
3.36555475E+02
 21
-2.19522901E+02
  0
LINE
  8
0
 62
7
 10
3.20555475E+02
 20
-1.73522901E+02
 11
3.20555475E+02
 21
-2.19522901E+02
  0
ARC
  8
0
 62
7
 10
3.42553639E+02
 20
-2.30051946E+02
 40
6.50183586E+00
 50
3.59991587E+02
 51
2.99809466E+01
  0
ARC
  8
0
 62
7
 10
3.41093633E+02
 20
-2.21524204E+02
 40
3.50130350E+00
 50
3.00123068E+01
 51
8.99698626E+01
  0
ARC
  8
0
 62
7
 10
3.41093633E+02
 20
-1.71521598E+02
 40
3.50130350E+00
 50
2.70030138E+02
 51
3.29987693E+02
  0
ARC
  8
0
 62
7
 10
3.42553639E+02
 20
-1.62993856E+02
 40
6.50183586E+00
 50
3.30019054E+02
 51
8.41329891E-03
  0
ARC
  8
0
 62
7
 10
3.41092911E+02
 20
-1.71522015E+02
 40
2.00088785E+00
 50
2.70073429E+02
 51
3.29985375E+02
  0
ARC
  8
0
 62
7
 10
3.41092911E+02
 20
-2.21523787E+02
 40
2.00088785E+00
 50
3.00146252E+01
 51
8.99265711E+01
  0
ARC
  8
0
 62
7
 10
3.42554055E+02
 20
-2.30053502E+02
 40
5.00142023E+00
 50
6.88056164E-03
 51
2.99985515E+01
  0
ARC
  8
0
 62
7
 10
3.42554055E+02
 20
-1.62992301E+02
 40
5.00142023E+00
 50
3.30001448E+02
 51
3.59993120E+02
  0
ARC
  8
0
 62
7
 10
3.55055475E+02
 20
-2.51022901E+02
 40
5.00000000E-01
 50
2.70000000E+02
 51
0.00000000E+00
  0
ARC
  8
0
 62
7
 10
3.55055475E+02
 20
-1.42022901E+02
 40
5.00000000E-01
 50
0.00000000E+00
 51
9.00000002E+01
  0
LINE
  8
0
 62
7
 10
3.55555475E+02
 20
-2.47522901E+02
 11
3.49055475E+02
 21
-2.47522901E+02
  0
LINE
  8
0
 62
7
 10
3.49055475E+02
 20
-2.47522901E+02
 11
3.47555475E+02
 21
-2.46892901E+02
  0
LINE
  8
0
 62
7
 10
3.49055475E+02
 20
-1.45522901E+02
 11
3.47555475E+02
 21
-1.46152901E+02
  0
LINE
  8
0
 62
7
 10
3.55555475E+02
 20
-1.45522901E+02
 11
3.49055475E+02
 21
-1.45522901E+02
  0
LINE
  8
0
 62
7
 10
3.49055475E+02
 20
-2.30052901E+02
 11
3.49055475E+02
 21
-2.51522901E+02
  0
LINE
  8
0
 62
7
 10
3.48185475E+02
 20
-2.26802901E+02
 11
3.44125475E+02
 21
-2.19772901E+02
  0
LINE
  8
0
 62
7
 10
3.41095475E+02
 20
-2.18022901E+02
 11
3.40555475E+02
 21
-2.18022901E+02
  0
LINE
  8
0
 62
7
 10
3.41095475E+02
 20
-1.75022901E+02
 11
3.40555475E+02
 21
-1.75022901E+02
  0
LINE
  8
0
 62
7
 10
3.48185475E+02
 20
-1.66242901E+02
 11
3.44125475E+02
 21
-1.73272901E+02
  0
LINE
  8
0
 62
7
 10
3.49055475E+02
 20
-1.41522901E+02
 11
3.49055475E+02
 21
-1.62992901E+02
  0
LINE
  8
0
 62
7
 10
3.40555475E+02
 20
-1.73522901E+02
 11
3.40555475E+02
 21
-2.19522901E+02
  0
LINE
  8
0
 62
7
 10
3.46885475E+02
 20
-2.27552901E+02
 11
3.42825475E+02
 21
-2.20522901E+02
  0
LINE
  8
0
 62
7
 10
3.46885475E+02
 20
-1.65492901E+02
 11
3.42825475E+02
 21
-1.72522901E+02
  0
LINE
  8
0
 62
7
 10
3.49055475E+02
 20
-1.41522901E+02
 11
3.47555475E+02
 21
-1.43022901E+02
  0
LINE
  8
0
 62
7
 10
3.47555475E+02
 20
-2.50022901E+02
 11
3.49055475E+02
 21
-2.51522901E+02
  0
LINE
  8
0
 62
7
 10
3.47555475E+02
 20
-2.30052901E+02
 11
3.47555475E+02
 21
-2.50022901E+02
  0
LINE
  8
0
 62
7
 10
3.55055475E+02
 20
-2.51522901E+02
 11
3.49055475E+02
 21
-2.51522901E+02
  0
LINE
  8
0
 62
7
 10
3.55055475E+02
 20
-1.41522901E+02
 11
3.49055475E+02
 21
-1.41522901E+02
  0
LINE
  8
0
 62
7
 10
3.41095475E+02
 20
-1.73522901E+02
 11
2.68555475E+02
 21
-1.73522901E+02
  0
LINE
  8
0
 62
7
 10
3.41095475E+02
 20
-2.19522901E+02
 11
2.68555475E+02
 21
-2.19522901E+02
  0
LINE
  8
0
 62
7
 10
3.47555475E+02
 20
-1.43022901E+02
 11
3.47555475E+02
 21
-1.62992901E+02
  0
LINE
  8
0
 62
7
 10
3.55555475E+02
 20
-1.42022901E+02
 11
3.55555475E+02
 21
-2.51022901E+02
  0
LINE
  8
0
  6
CENTER
 62
2
 10
3.40555475E+02
 20
-1.51522901E+02
 11
3.60618636E+02
 21
-1.51522901E+02
  0
LINE
  8
0
  6
CENTER
 62
2
 10
3.40555475E+02
 20
-2.41522901E+02
 11
3.60618636E+02
 21
-2.41522901E+02
  0
LINE
  8
0
  6
CENTER
 62
2
 10
1.77555475E+02
 20
-9.50229011E+01
 11
2.35702343E+02
 21
-9.50229011E+01
  0
LINE
  8
0
 62
7
 10
2.24555475E+02
 20
-1.19022901E+02
 11
2.24555475E+02
 21
-7.10229011E+01
  0
LINE
  8
0
 62
7
 10
2.23555475E+02
 20
-1.20022901E+02
 11
2.24555475E+02
 21
-1.19022901E+02
  0
LINE
  8
0
 62
7
 10
2.24555475E+02
 20
-7.10229011E+01
 11
2.23555475E+02
 21
-7.00229011E+01
  0
LINE
  8
0
 62
7
 10
2.02555475E+02
 20
-1.19022901E+02
 11
2.03555475E+02
 21
-1.20022901E+02
  0
LINE
  8
0
 62
7
 10
2.02555475E+02
 20
-7.10229011E+01
 11
2.03555475E+02
 21
-7.00229011E+01
  0
LINE
  8
0
 62
7
 10
2.03555475E+02
 20
-1.20022901E+02
 11
2.03555475E+02
 21
-7.00229011E+01
  0
LINE
  8
0
 62
7
 10
2.23555475E+02
 20
-1.20022901E+02
 11
2.23555475E+02
 21
-7.00229011E+01
  0
LINE
  8
0
 62
7
 10
2.02555475E+02
 20
-7.10229011E+01
 11
2.24555475E+02
 21
-7.10229011E+01
  0
LINE
  8
0
 62
7
 10
2.02555475E+02
 20
-1.19022901E+02
 11
2.24555475E+02
 21
-1.19022901E+02
  0
ARC
  8
0
 62
7
 10
1.90055475E+02
 20
-7.05229011E+01
 40
5.00000000E-01
 50
0.00000000E+00
 51
9.00000002E+01
  0
ARC
  8
0
 62
7
 10
1.78055475E+02
 20
-4.95229011E+01
 40
5.00000000E-01
 50
1.80000000E+02
 51
2.70000000E+02
  0
ARC
  8
0
 62
7
 10
2.02055475E+02
 20
-1.19522901E+02
 40
5.00000000E-01
 50
2.70000000E+02
 51
0.00000000E+00
  0
ARC
  8
0
 62
7
 10
1.91055475E+02
 20
-1.19522901E+02
 40
5.00000000E-01
 50
1.80000000E+02
 51
2.70000000E+02
  0
ARC
  8
0
 62
7
 10
2.03055475E+02
 20
-7.05229011E+01
 40
5.00000000E-01
 50
9.00000002E+01
 51
1.80000000E+02
  0
ARC
  8
0
 62
7
 10
2.15055475E+02
 20
-4.95229011E+01
 40
5.00000000E-01
 50
2.70000000E+02
 51
0.00000000E+00
  0
ARC
  8
0
 62
7
 10
2.15055475E+02
 20
-3.55229011E+01
 40
5.00000000E-01
 50
0.00000000E+00
 51
9.00000002E+01
  0
ARC
  8
0
 62
7
 10
1.78055475E+02
 20
-3.55229011E+01
 40
5.00000000E-01
 50
9.00000002E+01
 51
1.80000000E+02
  0
LINE
  8
0
  6
CENTER
 62
2
 10
1.96555475E+02
 20
-3.00229011E+01
 11
1.96555475E+02
 21
-1.30372324E+02
  0
LINE
  8
0
 62
7
 10
1.90555475E+02
 20
-7.05229011E+01
 11
1.90555475E+02
 21
-1.19522901E+02
  0
LINE
  8
0
 62
7
 10
1.86555475E+02
 20
-7.00229011E+01
 11
1.90055475E+02
 21
-7.00229011E+01
  0
LINE
  8
0
 62
7
 10
1.86555475E+02
 20
-5.00229011E+01
 11
1.86555475E+02
 21
-7.00229011E+01
  0
LINE
  8
0
 62
7
 10
1.78055475E+02
 20
-5.00229011E+01
 11
1.86555475E+02
 21
-5.00229011E+01
  0
LINE
  8
0
 62
7
 10
1.77555475E+02
 20
-3.55229011E+01
 11
1.77555475E+02
 21
-4.95229011E+01
  0
LINE
  8
0
 62
7
 10
2.10055475E+02
 20
-4.30229011E+01
 11
2.11555475E+02
 21
-4.15229011E+01
  0
LINE
  8
0
 62
7
 10
1.83055475E+02
 20
-4.30229011E+01
 11
1.81555475E+02
 21
-4.15229011E+01
  0
LINE
  8
0
 62
7
 10
2.11555475E+02
 20
-3.50229011E+01
 11
2.11555475E+02
 21
-4.15229011E+01
  0
LINE
  8
0
 62
7
 10
1.81555475E+02
 20
-3.50229011E+01
 11
1.81555475E+02
 21
-4.15229011E+01
  0
LINE
  8
0
 62
7
 10
1.81055475E+02
 20
-4.77529011E+01
 11
2.12055475E+02
 21
-4.77529011E+01
  0
LINE
  8
0
 62
7
 10
2.14055475E+02
 20
-4.30229011E+01
 11
2.15555475E+02
 21
-4.15229011E+01
  0
LINE
  8
0
 62
7
 10
1.79055475E+02
 20
-4.30229011E+01
 11
1.77555475E+02
 21
-4.15229011E+01
  0
LINE
  8
0
 62
7
 10
2.14055475E+02
 20
-4.30229011E+01
 11
2.14055475E+02
 21
-5.00229011E+01
  0
LINE
  8
0
 62
7
 10
1.79055475E+02
 20
-4.30229011E+01
 11
1.79055475E+02
 21
-5.00229011E+01
  0
LINE
  8
0
 62
7
 10
2.03055475E+02
 20
-7.00229011E+01
 11
2.23555475E+02
 21
-7.00229011E+01
  0
LINE
  8
0
 62
7
 10
2.06555475E+02
 20
-5.00229011E+01
 11
2.15055475E+02
 21
-5.00229011E+01
  0
LINE
  8
0
 62
7
 10
2.06555475E+02
 20
-5.00229011E+01
 11
2.06555475E+02
 21
-7.00229011E+01
  0
LINE
  8
0
 62
7
 10
2.02555475E+02
 20
-7.05229011E+01
 11
2.02555475E+02
 21
-1.19522901E+02
  0
LINE
  8
0
 62
7
 10
1.77555475E+02
 20
-4.30229011E+01
 11
2.15555475E+02
 21
-4.30229011E+01
  0
LINE
  8
0
 62
7
 10
1.77555475E+02
 20
-4.15229011E+01
 11
2.15555475E+02
 21
-4.15229011E+01
  0
LINE
  8
0
 62
7
 10
1.78055475E+02
 20
-3.50229011E+01
 11
2.15055475E+02
 21
-3.50229011E+01
  0
LINE
  8
0
 62
7
 10
2.15555475E+02
 20
-3.55229011E+01
 11
2.15555475E+02
 21
-4.95229011E+01
  0
LINE
  8
0
 62
7
 10
2.06029196E+02
 20
-1.27522901E+02
 11
1.87081755E+02
 21
-1.27522901E+02
  0
LINE
  8
0
 62
7
 10
2.15555475E+02
 20
-1.22022901E+02
 11
1.77555475E+02
 21
-1.22022901E+02
  0
LINE
  8
0
 62
7
 10
1.77555475E+02
 20
-1.20022901E+02
 11
2.23555475E+02
 21
-1.20022901E+02
  0
LINE
  8
0
 62
7
 10
1.77555475E+02
 20
-1.22022901E+02
 11
1.77555475E+02
 21
-1.20022901E+02
  0
LINE
  8
0
 62
7
 10
1.77555475E+02
 20
-1.20022901E+02
 11
1.77949174E+02
 21
-1.15522901E+02
  0
LINE
  8
0
 62
7
 10
1.77555475E+02
 20
-1.22022901E+02
 11
1.87081755E+02
 21
-1.27522901E+02
  0
LINE
  8
0
 62
7
 10
1.82355475E+02
 20
-1.18222901E+02
 11
1.82355475E+02
 21
-1.15522901E+02
  0
LINE
  8
0
 62
7
 10
1.84155475E+02
 20
-1.20022901E+02
 11
1.82355475E+02
 21
-1.18222901E+02
  0
LINE
  8
0
 62
7
 10
1.82355475E+02
 20
-1.15522901E+02
 11
1.77949174E+02
 21
-1.15522901E+02
  0
LINE
  8
0
 62
7
 10
2.15555475E+02
 20
-1.22022901E+02
 11
2.15555475E+02
 21
-1.20022901E+02
  0
LINE
  8
0
 62
7
 10
2.15555475E+02
 20
-1.22022901E+02
 11
2.06029196E+02
 21
-1.27522901E+02
  0
LINE
  8
0
 62
7
 10
1.92155475E+02
 20
-1.29022901E+02
 11
2.00955475E+02
 21
-1.29022901E+02
  0
LINE
  8
0
 62
7
 10
1.91555475E+02
 20
-1.28422901E+02
 11
2.01555475E+02
 21
-1.28422901E+02
  0
LINE
  8
0
 62
7
 10
2.01555475E+02
 20
-1.28422901E+02
 11
2.01555475E+02
 21
-1.27512901E+02
  0
LINE
  8
0
 62
7
 10
2.00955475E+02
 20
-1.29022901E+02
 11
2.01555475E+02
 21
-1.28422901E+02
  0
LINE
  8
0
 62
7
 10
1.92155475E+02
 20
-1.29022901E+02
 11
1.91555475E+02
 21
-1.28422901E+02
  0
LINE
  8
0
 62
7
 10
1.91555475E+02
 20
-1.28422901E+02
 11
1.91555475E+02
 21
-1.27512901E+02
  0
LINE
  8
0
 62
7
 10
1.77555475E+02
 20
-5.40229011E+01
 11
1.81555475E+02
 21
-5.00229011E+01
  0
LINE
  8
0
 62
7
 10
1.77555475E+02
 20
-7.00229011E+01
 11
1.86555475E+02
 21
-7.00229011E+01
  0
LINE
  8
0
 62
7
 10
1.83855475E+02
 20
-7.00229011E+01
 11
1.82055475E+02
 21
-7.18229011E+01
  0
LINE
  8
0
 62
7
 10
1.79055475E+02
 20
-5.25229011E+01
 11
1.79055475E+02
 21
-7.00229011E+01
  0
LINE
  8
0
 62
7
 10
1.77555475E+02
 20
-7.00229011E+01
 11
1.77949174E+02
 21
-7.45229011E+01
  0
LINE
  8
0
 62
7
 10
1.82055475E+02
 20
-7.18229011E+01
 11
1.82008346E+02
 21
-7.45229011E+01
  0
LINE
  8
0
 62
7
 10
1.77949174E+02
 20
-7.45229011E+01
 11
1.82008346E+02
 21
-7.45229011E+01
  0
LINE
  8
0
 62
7
 10
1.77555475E+02
 20
-5.40229011E+01
 11
1.77555475E+02
 21
-7.00229011E+01
  0
LINE
  8
0
 62
7
 10
2.15555475E+02
 20
-5.40229011E+01
 11
2.11555475E+02
 21
-5.00229011E+01
  0
LINE
  8
0
 62
7
 10
2.14055475E+02
 20
-5.25229011E+01
 11
2.14055475E+02
 21
-7.00229011E+01
  0
LINE
  8
0
 62
7
 10
2.15555475E+02
 20
-5.40229011E+01
 11
2.15555475E+02
 21
-7.00229011E+01
  0
TEXT
  8
0
 62
7
 10
-3.95800283E+02
 20
2.67100000E+02
 40
6.30000019E+00
  1
F.R.L.LARGE FLOW SERIES
 41
1.05504587E+00
  7
MONOTXT
  0
TEXT
  8
0
 62
7
 10
-3.67450282E+02
 20
2.59100000E+02
 40
6.30000019E+00
  1
MODULE,ADAPTOR
 41
1.00000000E+00
  7
MONOTXT
  0
LINE
  8
0
 62
7
 10
-2.49250000E+02
 20
2.76250000E+02
 11
-2.49250000E+02
 21
2.56250000E+02
  0
TEXT
  8
0
 62
7
 10
1.47099307E+02
 20
-1.84000001E+01
 40
6.30000019E+00
  1
MODEL:8-65DS6
 41
1.00000000E+00
  7
MONOTXT
  0
TEXT
  8
0
 62
7
 10
-1.04250627E+02
 20
-1.84000001E+01
 40
6.30000019E+00
  1
MODEL:8-65S6
 41
1.00000000E+00
  7
MONOTXT
  0
TEXT
  8
0
 62
7
 10
-3.85600562E+02
 20
-1.84000001E+01
 40
6.30000019E+00
  1
MODEL:8-65DT8
 41
1.00000000E+00
  7
MONOTXT
  0
TEXT
  8
0
 62
7
 10
1.47099307E+02
 20
2.58100000E+02
 40
6.30000019E+00
  1
MODEL:8-65T8
 41
1.00000000E+00
  7
MONOTXT
  0
TEXT
  8
0
 62
7
 10
-1.04250627E+02
 20
2.58100000E+02
 40
6.30000019E+00
  1
MODEL:8-65ND
 41
1.00000000E+00
  7
MONOTXT
  0
LINE
  8
0
 62
7
 10
1.33449870E+02
 20
-2.76750000E+02
 11
1.33449870E+02
 21
2.76250000E+02
  0
LINE
  8
0
 62
7
 10
-1.17900065E+02
 20
-2.76750000E+02
 11
-1.17900065E+02
 21
2.76250000E+02
  0
LINE
  8
0
 62
7
 10
-3.99250000E+02
 20
-2.50000000E-01
 11
3.99799805E+02
 21
-2.50000000E-01
  0
LINE
  8
0
 62
7
 10
2.79799927E+02
 20
-2.56750000E+02
 11
3.99799805E+02
 21
-2.56750000E+02
  0
LINE
  8
0
 62
7
 10
2.79799927E+02
 20
-2.56750000E+02
 11
2.79799927E+02
 21
-2.76750000E+02
  0
TEXT
  8
0
 62
7
 10
2.87585240E+02
 20
-2.71250000E+02
 40
9.00000000E+00
  1
KOGANEI CORP.
 41
1.04838710E+00
  7
MONOTXT
  0
TEXT
  8
0
 62
7
 10
3.15499645E+02
 20
2.63100000E+02
 40
6.30000019E+00
  1
Ver. 1.0
 41
1.08108108E+00
  7
MONOTXT
  0
LINE
  8
0
 62
7
 10
2.79799927E+02
 20
2.56250000E+02
 11
3.99799805E+02
 21
2.56250000E+02
  0
LINE
  8
0
 62
7
 10
2.79799927E+02
 20
2.76250000E+02
 11
2.79799927E+02
 21
2.56250000E+02
  0
TEXT
  8
0
 62
7
 10
-3.85600562E+02
 20
2.38100000E+02
 40
6.30000019E+00
  1
MODEL:8-65F
 41
1.00000000E+00
  7
MONOTXT
  0
LINE
  8
0
 62
7
 10
-3.99250000E+02
 20
2.56250000E+02
 11
-2.49250000E+02
 21
2.56250000E+02
  0
LINE
  8
0
 62
7
 10
-3.99250000E+02
 20
-2.76750000E+02
 11
3.99799805E+02
 21
-2.76750000E+02
  0
LINE
  8
0
 62
7
 10
-3.99250000E+02
 20
2.76250000E+02
 11
3.99799805E+02
 21
2.76250000E+02
  0
LINE
  8
0
 62
7
 10
-3.99250000E+02
 20
2.76250000E+02
 11
-3.99250000E+02
 21
-2.76750000E+02
  0
LINE
  8
0
 62
7
 10
3.99799805E+02
 20
2.76250000E+02
 11
3.99799805E+02
 21
-2.76750000E+02
  0
ENDSEC
  0
EOF
