  0
SECTION
  2
HEADER
  0
ENDSEC
  0
SECTION
  2
TABLES
  0
TABLE
  2
LTYPE
 70
     4
  0
LTYPE
  2
CONTINUOUS
 70
    64
  3
Solid line
 72
    65
 73
     0
 40
0.000000
  0
LTYPE
  2
DASHED
 70
    64
  3
__ __ __ __ __ __ __ __ __ __ __ __ __ __ __
 72
    65
 73
     2
 40
3.500000
 49
2.000000
 49
-1.500000
  0
LTYPE
  2
CENTER
 70
    64
  3
____ _ ____ _ ____ _ ____ _ ____ _ ____ _ ____
 72
    65
 73
     4
 40
17.500000
 49
13.000000
 49
-1.500000
 49
1.500000
 49
-1.500000
  0
LTYPE
  2
PHANTOM
 70
    64
  3
_____ _ _ _____ _ _ _____ _ _ _____ _ _ ____  
 72
    65
 73
     6
 40
15.500000
 49
8.000000
 49
-1.500000
 49
1.500000
 49
-1.500000
 49
1.500000
 49
-1.500000
  0
LTYPE
  2
DASHED1
 70
    64
  3
__ __ __ __ __ __ __ __ __ __ __ __ __ __ __
 72
    65
 73
     2
 40
1.500000
 49
1.000000
 49
-0.500000
  0
LTYPE
  2
DASHED2
 70
    64
  3
__ __ __ __ __ __ __ __ __ __ __ __ __ __ __
 72
    65
 73
     2
 40
3.500000
 49
2.500000
 49
-1.000000
  0
LTYPE
  2
DASHED3
 70
    64
  3
__ __ __ __ __ __ __ __ __ __ __ __ __ __ __
 72
    65
 73
     2
 40
6.000000
 49
4.000000
 49
-2.000000
  0
LTYPE
  2
DASHED4
 70
    64
  3
__ __ __ __ __ __ __ __ __ __ __ __ __ __ __
 72
    65
 73
     2
 40
12.000000
 49
10.000000
 49
-2.000000
  0
LTYPE
  2
DASHED5
 70
    64
  3
__ __ __ __ __ __ __ __ __ __ __ __ __ __ __
 72
    65
 73
     2
 40
17.000000
 49
15.000000
 49
-2.000000
  0
LTYPE
  2
DASHED6
 70
    64
  3
__ __ __ __ __ __ __ __ __ __ __ __ __ __ __
 72
    65
 73
     2
 40
29.000000
 49
27.000000
 49
-2.000000
  0
LTYPE
  2
PHANTOM1
 70
    64
  3
_____ _ _ _____ _ _ _____ _ _ _____ _ _ ____  
 72
    65
 73
     6
 40
31.000000
 49
25.000000
 49
-1.500000
 49
1.000000
 49
-1.000000
 49
1.000000
 49
-1.500000
  0
LTYPE
  2
PHANTOM2
 70
    64
  3
_____ _ _ _____ _ _ _____ _ _ _____ _ _ ____  
 72
    65
 73
     6
 40
36.000000
 49
27.000000
 49
-1.500000
 49
2.500000
 49
-1.000000
 49
2.500000
 49
-1.500000
  0
LTYPE
  2
PHANTOM3
 70
    64
  3
_____ _ _ _____ _ _ _____ _ _ _____ _ _ ____  
 72
    65
 73
     6
 40
78.000000
 49
64.000000
 49
-2.000000
 49
4.000000
 49
-2.000000
 49
4.000000
 49
-2.000000
  0
LTYPE
  2
CENTER1
 70
    64
  3
____ _ ____ _ ____ _ ____ _ ____ _ ____ _ ____
 72
    65
 73
     4
 40
19.000000
 49
14.000000
 49
-1.000000
 49
3.000000
 49
-1.000000
  0
LTYPE
  2
CENTER2
 70
    64
  3
____ _ ____ _ ____ _ ____ _ ____ _ ____ _ ____
 72
    65
 73
     4
 40
28.500000
 49
25.000000
 49
-1.000000
 49
1.500000
 49
-1.000000
  0
LTYPE
  2
CENTER3
 70
    64
  3
____ _ ____ _ ____ _ ____ _ ____ _ ____ _ ____
 72
    65
 73
     4
 40
31.500000
 49
27.000000
 49
-1.000000
 49
2.500000
 49
-1.000000
  0
LTYPE
  2
CENTER4
 70
    64
  3
____ _ ____ _ ____ _ ____ _ ____ _ ____ _ ____
 72
    65
 73
     4
 40
50.000000
 49
45.000000
 49
-1.000000
 49
3.000000
 49
-1.000000
  0
LTYPE
  2
CENTER5
 70
    64
  3
____ _ ____ _ ____ _ ____ _ ____ _ ____ _ ____
 72
    65
 73
     4
 40
100.000000
 49
92.000000
 49
-2.000000
 49
4.000000
 49
-2.000000
  0
LTYPE
  2
SBK1
 70
    64
  3
______ _ _ _ ______ _ _ _ ______ _ _ _ _____  
 72
    65
 73
     8
 40
60.500000
 49
45.000000
 49
-2.000000
 49
2.500000
 49
-2.000000
 49
2.500000
 49
-2.000000
 49
2.500000
 49
-2.000000
  0
LTYPE
  2
SBK2
 70
    64
  3
______ _ _ _ ______ _ _ _ ______ _ _ _ _____  
 72
    65
 73
     8
 40
84.000000
 49
64.000000
 49
-2.000000
 49
4.000000
 49
-2.000000
 49
4.000000
 49
-2.000000
 49
4.000000
 49
-2.000000
  0
LTYPE
  2
STCH
 70
    64
  3
__ __ __ __ __ __ __ __ __ __ __ __ __ __ __
 72
    65
 73
     2
 40
3.000000
 49
1.000000
 49
-2.000000
  0
LTYPE
  2
MTCH
 70
    64
  3
_____ _ _ _____ _ _ _____ _ _ _____ _ _ ____  
 72
    65
 73
     6
 40
80.000000
 49
66.000000
 49
-2.000000
 49
4.000000
 49
-2.000000
 49
4.000000
 49
-2.000000
  0
ENDTAB
  0
TABLE
  2
LAYER
 70
     1
  0
LAYER
  2
0
 70
     0
 62
     7
  6
CONTINUOUS
  0
ENDTAB
  0
TABLE
  2
STYLE
 70
     1
  0
STYLE
  2
STANDARD
 70
     0
 40
0.000000
 41
1.000000
 50
0.000000
 71
     0
 42
0.200000
  3
txt
  4
BIGFONT
  0
ENDTAB
  0
TABLE
  2
VIEW
 70
     0
  0
ENDTAB
  0
ENDSEC
  0
SECTION
  2
BLOCKS
  0
ENDSEC
  0
SECTION
  2
ENTITIES
  0
LINE
  8
0
 10
-420.500000
 20
297.000000
 11
420.500000
 21
297.000000
  0
LINE
  8
0
 10
-420.500000
 20
-297.000000
 11
420.500000
 21
-297.000000
  0
LINE
  8
0
 10
420.500000
 20
297.000000
 11
420.500000
 21
-297.000000
  0
LINE
  8
0
 10
-420.500000
 20
297.000000
 11
-420.500000
 21
-297.000000
  0
LINE
  8
0
 10
399.799988
 20
276.250000
 11
399.799988
 21
-276.750000
  0
LINE
  8
0
 10
-399.250000
 20
276.250000
 11
-399.250000
 21
-276.750000
  0
LINE
  8
0
 10
-399.250000
 20
276.250000
 11
399.799988
 21
276.250000
  0
LINE
  8
0
 10
-399.250000
 20
-276.750000
 11
399.799988
 21
-276.750000
  0
LINE
  8
0
 10
239.799988
 20
-251.750000
 11
399.799988
 21
-251.750000
  0
LINE
  8
0
 10
239.799988
 20
251.250000
 11
399.799988
 21
251.250000
  0
LINE
  8
0
 10
-399.250000
 20
251.250000
 11
-239.250000
 21
251.250000
  0
LINE
  8
0
 10
239.799988
 20
-251.750000
 11
239.799988
 21
-276.750000
  0
LINE
  8
0
 10
239.799988
 20
251.250000
 11
239.799988
 21
276.250000
  0
LINE
  8
0
 10
-239.250000
 20
276.250000
 11
-239.250000
 21
251.250000
  0
LINE
  8
0
 10
-132.899994
 20
-276.750000
 11
-132.899994
 21
276.250000
  0
LINE
  8
0
 10
133.450012
 20
-261.750000
 11
133.450012
 21
-12.750000
  0
LINE
  8
0
 10
-399.250000
 20
-12.750000
 11
399.799988
 21
-12.750000
  0
LINE
  8
0
 10
-399.250000
 20
2.250000
 11
399.799988
 21
2.250000
  0
LINE
  8
0
 10
-399.250000
 20
17.250000
 11
399.799988
 21
17.250000
  0
LINE
  8
0
 10
133.450012
 20
2.250000
 11
133.450012
 21
276.250000
  0
LINE
  8
0
 10
-399.250000
 20
-261.750000
 11
239.799988
 21
-261.750000
  0
LINE
  8
0
 10
-399.250000
 20
-246.750000
 11
399.799988
 21
-246.750000
  0
TEXT
  8
0
 10
-383.285309
 20
256.649994
 40
9.000000
  1
MODULE,ADAPTER
 50
0.000000
 41
1.052632
 51
0.000000
  7
STANDARD
  0
TEXT
  8
0
 10
242.014816
 20
-274.500000
 40
12.500000
  1
KOGANEI CORP.
 50
0.000000
 41
1.052632
 51
0.000000
  7
STANDARD
  0
TEXT
  8
0
 10
251.264664
 20
256.649994
 40
9.000000
  1
DATE: SEP ,1992
 50
0.000000
 41
1.052632
 51
0.000000
  7
STANDARD
  0
TEXT
  8
0
 10
-303.110321
 20
-12.350000
 40
9.000000
  1
F MODULE
 50
0.000000
 41
1.052632
 51
0.000000
  7
STANDARD
  0
TEXT
  8
0
 10
96.414703
 20
-12.350000
 40
9.000000
  1
T MODULE
 50
0.000000
 41
1.052632
 51
0.000000
  7
STANDARD
  0
TEXT
  8
0
 10
-289.610321
 20
2.650000
 40
9.000000
  1
8-30F
 50
0.000000
 41
1.052632
 51
0.000000
  7
STANDARD
  0
TEXT
  8
0
 10
-27.760319
 20
2.650000
 40
9.000000
  1
8-30T2
 50
0.000000
 41
1.052632
 51
0.000000
  7
STANDARD
  0
TEXT
  8
0
 10
234.089691
 20
2.650000
 40
9.000000
  1
8-30DT2
 50
0.000000
 41
1.052632
 51
0.000000
  7
STANDARD
  0
TEXT
  8
0
 10
91.914703
 20
-276.350006
 40
9.000000
  1
S ADAPTER
 50
0.000000
 41
1.052632
 51
0.000000
  7
STANDARD
  0
TEXT
  8
0
 10
-303.110321
 20
-276.350006
 40
9.000000
  1
D MODULE
 50
0.000000
 41
1.052632
 51
0.000000
  7
STANDARD
  0
TEXT
  8
0
 10
-289.610321
 20
-261.350006
 40
9.000000
  1
8-30D
 50
0.000000
 41
1.052632
 51
0.000000
  7
STANDARD
  0
TEXT
  8
0
 10
-27.760319
 20
-261.350006
 40
9.000000
  1
8-30S2
 50
0.000000
 41
1.052632
 51
0.000000
  7
STANDARD
  0
TEXT
  8
0
 10
154.089691
 20
-261.350006
 40
9.000000
  1
8-30DS2
 50
0.000000
 41
1.052632
 51
0.000000
  7
STANDARD
  0
POINT
  8
0
 10
-323.498505
 20
85.486649
  0
POINT
  8
0
 10
-308.798553
 20
85.486649
  0
LINE
  8
0
 10
-328.198517
 20
96.486649
 11
-328.198517
 21
74.486649
  0
LINE
  8
0
 10
-308.798553
 20
96.486649
 11
-308.798553
 21
74.486649
  0
LINE
  8
0
 10
-325.600494
 20
90.527878
 11
-325.600494
 21
80.445419
  0
LINE
  8
0
 10
-311.396637
 20
90.527878
 11
-311.396637
 21
80.445419
  0
LINE
  8
0
 10
-325.600494
 20
90.527878
 11
-311.396637
 21
90.527878
  0
LINE
  8
0
 10
-325.600494
 20
80.445412
 11
-311.396637
 21
80.445412
  0
LINE
  8
0
 10
-331.248199
 20
85.486649
 11
-305.699005
 21
85.486649
  0
LINE
  8
0
 10
-322.498566
 20
73.486649
 11
-314.498566
 21
73.486649
  0
LINE
  8
0
 10
-322.498566
 20
97.486649
 11
-314.498566
 21
97.486649
  0
LINE
  8
0
 10
-328.198578
 20
74.486649
 11
-308.798553
 21
74.486649
  0
LINE
  8
0
 10
-328.198608
 20
74.486664
 11
-325.600555
 21
80.445435
  0
LINE
  8
0
 10
-311.396606
 20
80.445435
 11
-308.798523
 21
74.486679
  0
LINE
  8
0
 10
-328.198578
 20
96.486649
 11
-308.798553
 21
96.486649
  0
LINE
  8
0
 10
-328.198578
 20
96.486649
 11
-325.600494
 21
90.527878
  0
LINE
  8
0
 10
-311.396576
 20
90.527847
 11
-308.798492
 21
96.486618
  0
LINE
  8
0
 10
-318.498505
 20
100.402084
 11
-318.498505
 21
70.643967
  0
LINE
  8
0
 10
-319.998566
 20
86.352676
 11
-319.998566
 21
84.620621
  0
LINE
  8
0
 10
-316.998566
 20
86.352676
 11
-316.998566
 21
84.620621
  0
LINE
  8
0
 10
-319.998566
 20
86.352737
 11
-318.498566
 21
87.218765
  0
LINE
  8
0
 10
-318.498535
 20
83.754570
 11
-316.998535
 21
84.620598
  0
LINE
  8
0
 10
-319.998566
 20
84.620605
 11
-318.498596
 21
83.754593
  0
LINE
  8
0
 10
-318.498566
 20
87.218681
 11
-316.998596
 21
86.352669
  0
LINE
  8
0
 10
-323.498505
 20
96.486603
 11
-322.498505
 21
97.486610
  0
LINE
  8
0
 10
-314.498505
 20
97.486702
 11
-313.498505
 21
96.486702
  0
LINE
  8
0
 10
-323.498566
 20
74.486633
 11
-322.498566
 21
73.486626
  0
LINE
  8
0
 10
-314.498535
 20
73.486649
 11
-313.498566
 21
74.486633
  0
CIRCLE
  8
0
 10
-318.498505
 20
85.486649
 40
4.000000
  0
CIRCLE
  8
0
 10
-318.498505
 20
85.486649
 40
3.500000
  0
CIRCLE
  8
0
 10
-318.498505
 20
85.486649
 40
1.732051
  0
CIRCLE
  8
0
 10
-318.498505
 20
85.486649
 40
3.100000
  0
POINT
  8
0
 10
-185.281342
 20
85.486649
  0
POINT
  8
0
 10
-164.781342
 20
85.486649
  0
LINE
  8
0
 10
-201.281372
 20
95.890778
 11
-200.281342
 21
95.890778
  0
LINE
  8
0
 10
-200.281342
 20
96.486649
 11
-200.281342
 21
74.486649
  0
LINE
  8
0
 10
-201.281372
 20
95.890778
 11
-201.281372
 21
75.082527
  0
LINE
  8
0
 10
-205.781357
 20
90.527870
 11
-201.281357
 21
95.890755
  0
LINE
  8
0
 10
-205.781372
 20
80.445435
 11
-201.281387
 21
75.082565
  0
LINE
  8
0
 10
-205.781342
 20
90.527878
 11
-205.781342
 21
80.445419
  0
LINE
  8
0
 10
-206.781372
 20
88.586647
 11
-206.781372
 21
82.386650
  0
LINE
  8
0
 10
-206.381348
 20
81.986649
 11
-205.781372
 21
81.986649
  0
LINE
  8
0
 10
-206.381348
 20
88.986649
 11
-205.781372
 21
88.986649
  0
LINE
  8
0
 10
-206.381454
 20
88.986679
 11
-206.781448
 21
88.586693
  0
LINE
  8
0
 10
-206.781357
 20
82.386627
 11
-206.381348
 21
81.986618
  0
LINE
  8
0
 10
-199.281372
 20
73.486649
 11
-171.281372
 21
73.486649
  0
LINE
  8
0
 10
-199.281372
 20
97.486649
 11
-171.281372
 21
97.486649
  0
LINE
  8
0
 10
-201.281372
 20
75.082527
 11
-200.281342
 21
75.082527
  0
LINE
  8
0
 10
-200.281326
 20
74.486664
 11
-199.281326
 21
73.486664
  0
LINE
  8
0
 10
-200.281372
 20
96.486649
 11
-199.281372
 21
97.486649
  0
LINE
  8
0
 10
-170.281342
 20
96.486649
 11
-170.281342
 21
74.486649
  0
LINE
  8
0
 10
-200.281342
 20
96.486649
 11
-169.281372
 21
96.486649
  0
LINE
  8
0
 10
-200.281342
 20
74.486649
 11
-169.281372
 21
74.486649
  0
LINE
  8
0
 10
-185.281342
 20
100.476791
 11
-185.281342
 21
71.573563
  0
LINE
  8
0
 10
-199.281372
 20
97.486649
 11
-199.281372
 21
73.486649
  0
LINE
  8
0
 10
-210.060822
 20
85.486649
 11
-162.271515
 21
85.486649
  0
LINE
  8
0
 10
-206.381348
 20
88.986649
 11
-206.381348
 21
81.986649
  0
LINE
  8
0
 10
-171.281326
 20
97.486664
 11
-170.281326
 21
96.486664
  0
LINE
  8
0
 10
-171.281342
 20
73.486610
 11
-170.281326
 21
74.486633
  0
LINE
  8
0
 10
-169.281372
 20
96.486649
 11
-169.281372
 21
74.486649
  0
LINE
  8
0
 10
-169.281311
 20
96.486664
 11
-164.781326
 21
91.123787
  0
LINE
  8
0
 10
-169.281326
 20
74.486610
 11
-164.781342
 21
79.849495
  0
LINE
  8
0
 10
-164.781342
 20
91.123764
 11
-164.781342
 21
79.849525
  0
POINT
  8
0
 10
-323.498505
 20
189.745102
  0
POINT
  8
0
 10
-313.498505
 20
189.745102
  0
LINE
  8
0
 10
-328.198517
 20
174.745117
 11
-328.198517
 21
173.745117
  0
LINE
  8
0
 10
-308.798553
 20
174.745117
 11
-308.798553
 21
173.745117
  0
LINE
  8
0
 10
-328.198578
 20
174.745102
 11
-308.798553
 21
174.745102
  0
LINE
  8
0
 10
-328.198578
 20
173.745117
 11
-308.798553
 21
173.745117
  0
LINE
  8
0
 10
-328.198608
 20
173.745102
 11
-325.600525
 21
169.245087
  0
LINE
  8
0
 10
-311.396637
 20
169.245132
 11
-308.798553
 21
173.745132
  0
LINE
  8
0
 10
-325.600494
 20
169.245117
 11
-311.396637
 21
169.245117
  0
LINE
  8
0
 10
-318.498505
 20
212.314423
 11
-318.498505
 21
166.291702
  0
LINE
  8
0
 10
-321.598541
 20
168.245117
 11
-315.398590
 21
168.245117
  0
LINE
  8
0
 10
-314.998566
 20
169.245117
 11
-314.998566
 21
168.645111
  0
LINE
  8
0
 10
-321.998566
 20
169.245117
 11
-321.998566
 21
168.645111
  0
LINE
  8
0
 10
-321.998535
 20
168.645111
 11
-321.598541
 21
168.245117
  0
LINE
  8
0
 10
-314.998566
 20
168.645111
 11
-315.398560
 21
168.245117
  0
LINE
  8
0
 10
-313.498505
 20
204.745117
 11
-313.498505
 21
175.745117
  0
LINE
  8
0
 10
-323.498505
 20
204.745117
 11
-323.498505
 21
175.745117
  0
LINE
  8
0
 10
-328.198578
 20
204.745102
 11
-308.798553
 21
204.745102
  0
LINE
  8
0
 10
-308.798553
 20
205.745102
 11
-308.798553
 21
204.745117
  0
LINE
  8
0
 10
-328.198517
 20
205.745102
 11
-328.198517
 21
204.745117
  0
LINE
  8
0
 10
-323.498566
 20
175.745117
 11
-322.498566
 21
174.745102
  0
LINE
  8
0
 10
-314.498535
 20
174.745087
 11
-313.498535
 21
175.745117
  0
LINE
  8
0
 10
-323.498566
 20
175.745117
 11
-313.498566
 21
175.745117
  0
LINE
  8
0
 10
-322.498566
 20
203.745117
 11
-322.498566
 21
174.745117
  0
LINE
  8
0
 10
-314.498566
 20
203.745117
 11
-314.498566
 21
174.745117
  0
LINE
  8
0
 10
-321.998566
 20
168.645111
 11
-314.998566
 21
168.645111
  0
LINE
  8
0
 10
-322.498566
 20
203.745117
 11
-314.498566
 21
203.745117
  0
LINE
  8
0
 10
-322.498566
 20
203.745132
 11
-323.498535
 21
204.745102
  0
LINE
  8
0
 10
-314.498413
 20
203.744980
 11
-313.498413
 21
204.744980
  0
LINE
  8
0
 10
-328.198578
 20
205.745102
 11
-308.798553
 21
205.745102
  0
LINE
  8
0
 10
-328.198578
 20
205.745132
 11
-325.600494
 21
210.245132
  0
LINE
  8
0
 10
-311.396698
 20
210.245087
 11
-308.798645
 21
205.745102
  0
LINE
  8
0
 10
-325.600494
 20
210.245117
 11
-311.396637
 21
210.245117
  0
LINE
  8
0
 10
-328.198578
 20
189.745102
 11
-308.798553
 21
189.745102
  0
POINT
  8
0
 10
-58.397667
 20
85.486649
  0
POINT
  8
0
 10
-13.397663
 20
85.486649
  0
LINE
  8
0
 10
-63.097668
 20
96.486649
 11
-63.097668
 21
74.486664
  0
LINE
  8
0
 10
-43.697666
 20
96.486649
 11
-43.697666
 21
74.486664
  0
LINE
  8
0
 10
-60.499592
 20
90.527878
 11
-60.499592
 21
80.445435
  0
LINE
  8
0
 10
-46.295742
 20
90.527878
 11
-46.295742
 21
80.445435
  0
LINE
  8
0
 10
-60.499592
 20
90.527878
 11
-46.295742
 21
90.527878
  0
LINE
  8
0
 10
-60.499592
 20
80.445435
 11
-46.295742
 21
80.445435
  0
LINE
  8
0
 10
-66.147293
 20
85.486649
 11
-10.068165
 21
85.486649
  0
LINE
  8
0
 10
-57.397667
 20
73.486664
 11
-49.397667
 21
73.486664
  0
LINE
  8
0
 10
-57.397667
 20
97.486649
 11
-49.397667
 21
97.486649
  0
LINE
  8
0
 10
-63.097668
 20
74.486664
 11
-13.397663
 21
74.486664
  0
LINE
  8
0
 10
-63.097660
 20
74.486664
 11
-60.499580
 21
80.445435
  0
LINE
  8
0
 10
-46.295731
 20
80.445427
 11
-43.697655
 21
74.486656
  0
LINE
  8
0
 10
-63.097668
 20
96.486649
 11
-13.397663
 21
96.486649
  0
LINE
  8
0
 10
-63.097664
 20
96.486649
 11
-60.499592
 21
90.527893
  0
LINE
  8
0
 10
-46.295757
 20
90.527878
 11
-43.697678
 21
96.486649
  0
LINE
  8
0
 10
-53.397667
 20
100.402100
 11
-53.397667
 21
70.643967
  0
LINE
  8
0
 10
-54.897667
 20
86.352676
 11
-54.897667
 21
84.620636
  0
LINE
  8
0
 10
-51.897667
 20
86.352676
 11
-51.897667
 21
84.620636
  0
LINE
  8
0
 10
-54.897667
 20
86.352669
 11
-53.397663
 21
87.218697
  0
LINE
  8
0
 10
-53.397667
 20
83.754601
 11
-51.897678
 21
84.620621
  0
LINE
  8
0
 10
-54.897675
 20
84.620621
 11
-53.397686
 21
83.754601
  0
LINE
  8
0
 10
-53.397667
 20
87.218666
 11
-51.897671
 21
86.352638
  0
LINE
  8
0
 10
-58.397671
 20
96.486664
 11
-57.397671
 21
97.486664
  0
LINE
  8
0
 10
-49.397652
 20
97.486664
 11
-48.397648
 21
96.486664
  0
LINE
  8
0
 10
-58.397636
 20
74.486664
 11
-57.397648
 21
73.486679
  0
LINE
  8
0
 10
-49.397690
 20
73.486671
 11
-48.397690
 21
74.486671
  0
LINE
  8
0
 10
-13.397663
 20
96.486649
 11
-13.397663
 21
74.486664
  0
LINE
  8
0
 10
-14.397671
 20
97.486633
 11
-13.397671
 21
96.486633
  0
LINE
  8
0
 10
-14.397678
 20
73.486649
 11
-13.397678
 21
74.486649
  0
LINE
  8
0
 10
-48.397675
 20
96.486679
 11
-47.397675
 21
97.486679
  0
LINE
  8
0
 10
-48.397667
 20
74.486694
 11
-47.397655
 21
73.486679
  0
LINE
  8
0
 10
-47.397667
 20
73.486664
 11
-14.397667
 21
73.486664
  0
LINE
  8
0
 10
-47.397667
 20
97.486649
 11
-14.397667
 21
97.486649
  0
LINE
  8
0
 10
-14.397667
 20
97.486649
 11
-14.397667
 21
73.486664
  0
LINE
  8
0
 10
-47.397667
 20
97.486649
 11
-47.397667
 21
96.486649
  0
LINE
  8
0
 10
-47.397667
 20
73.486664
 11
-47.397667
 21
74.486664
  0
LINE
  8
0
 10
-33.397667
 20
106.945847
 11
-33.397667
 21
93.966492
  0
LINE
  8
0
 10
-44.397667
 20
104.486664
 11
-22.397663
 21
104.486664
  0
LINE
  8
0
 10
-45.397667
 20
103.486664
 11
-45.397667
 21
97.486649
  0
LINE
  8
0
 10
-21.397667
 20
103.486664
 11
-21.397667
 21
97.486649
  0
LINE
  8
0
 10
-45.397663
 20
103.486633
 11
-44.397659
 21
104.486633
  0
LINE
  8
0
 10
-22.397655
 20
104.486633
 11
-21.397663
 21
103.486649
  0
LINE
  8
0
 10
-45.397667
 20
103.486664
 11
-21.397663
 21
103.486664
  0
LINE
  8
0
 10
-15.097664
 20
92.486649
 11
-15.097664
 21
78.486664
  0
LINE
  8
0
 10
-18.097668
 20
92.486649
 11
-18.097668
 21
78.486664
  0
LINE
  8
0
 10
-18.097668
 20
92.486649
 11
-15.097664
 21
92.486649
  0
LINE
  8
0
 10
-18.097668
 20
78.486664
 11
-15.097664
 21
78.486664
  0
LINE
  8
0
 10
-18.020840
 20
92.409821
 11
-18.020840
 21
78.563477
  0
LINE
  8
0
 10
-15.485584
 20
92.409821
 11
-15.485584
 21
78.563477
  0
LINE
  8
0
 10
-18.020840
 20
92.409821
 11
-15.485584
 21
92.409821
  0
LINE
  8
0
 10
-18.020840
 20
78.563492
 11
-15.485584
 21
78.563492
  0
LINE
  8
0
 10
-15.485588
 20
92.409821
 11
-15.097668
 21
92.486641
  0
LINE
  8
0
 10
-18.020824
 20
92.409821
 11
-18.097645
 21
92.486649
  0
LINE
  8
0
 10
-18.020855
 20
78.563484
 11
-18.097675
 21
78.486664
  0
LINE
  8
0
 10
-15.485588
 20
78.563477
 11
-15.097664
 21
78.486649
  0
CIRCLE
  8
0
 10
-53.397667
 20
85.486649
 40
4.000000
  0
CIRCLE
  8
0
 10
-53.397667
 20
85.486649
 40
3.500000
  0
CIRCLE
  8
0
 10
-53.397667
 20
85.486649
 40
1.732051
  0
CIRCLE
  8
0
 10
-53.397667
 20
85.486649
 40
3.100000
  0
POINT
  8
0
 10
78.956932
 20
85.486649
  0
POINT
  8
0
 10
99.456917
 20
85.486649
  0
LINE
  8
0
 10
62.956932
 20
95.890778
 11
63.956932
 21
95.890778
  0
LINE
  8
0
 10
63.956932
 20
96.486649
 11
63.956932
 21
74.486664
  0
LINE
  8
0
 10
62.956924
 20
95.890778
 11
62.956924
 21
75.082535
  0
LINE
  8
0
 10
58.456902
 20
90.527901
 11
62.956902
 21
95.890793
  0
LINE
  8
0
 10
58.456936
 20
80.445389
 11
62.956932
 21
75.082504
  0
LINE
  8
0
 10
58.456932
 20
90.527878
 11
58.456932
 21
80.445435
  0
LINE
  8
0
 10
57.456924
 20
88.586655
 11
57.456924
 21
82.386658
  0
LINE
  8
0
 10
57.856934
 20
81.986664
 11
58.456932
 21
81.986664
  0
LINE
  8
0
 10
57.856934
 20
88.986649
 11
58.456932
 21
88.986649
  0
LINE
  8
0
 10
57.856987
 20
88.986618
 11
57.456985
 21
88.586617
  0
LINE
  8
0
 10
57.456940
 20
82.386650
 11
57.856934
 21
81.986664
  0
LINE
  8
0
 10
64.956932
 20
73.486664
 11
92.956932
 21
73.486664
  0
LINE
  8
0
 10
64.956932
 20
97.486649
 11
92.956932
 21
97.486649
  0
LINE
  8
0
 10
62.956932
 20
75.082535
 11
63.956932
 21
75.082535
  0
LINE
  8
0
 10
63.956940
 20
74.486656
 11
64.956940
 21
73.486656
  0
LINE
  8
0
 10
63.956951
 20
96.486626
 11
64.956963
 21
97.486633
  0
LINE
  8
0
 10
93.956932
 20
96.486649
 11
93.956932
 21
74.486664
  0
LINE
  8
0
 10
63.956932
 20
96.486649
 11
94.956932
 21
96.486649
  0
LINE
  8
0
 10
63.956932
 20
74.486664
 11
94.956932
 21
74.486664
  0
LINE
  8
0
 10
78.956932
 20
106.401108
 11
78.956932
 21
71.573563
  0
LINE
  8
0
 10
64.956932
 20
97.486649
 11
64.956932
 21
73.486664
  0
LINE
  8
0
 10
54.177460
 20
85.486649
 11
101.966759
 21
85.486649
  0
LINE
  8
0
 10
57.856926
 20
88.986649
 11
57.856926
 21
81.986664
  0
LINE
  8
0
 10
92.956940
 20
97.486649
 11
93.956940
 21
96.486649
  0
LINE
  8
0
 10
92.956902
 20
73.486694
 11
93.956894
 21
74.486694
  0
LINE
  8
0
 10
94.956917
 20
96.486649
 11
94.956917
 21
74.486664
  0
LINE
  8
0
 10
94.956917
 20
96.486626
 11
99.456902
 21
91.123756
  0
LINE
  8
0
 10
94.956879
 20
74.486687
 11
99.456863
 21
79.849564
  0
LINE
  8
0
 10
99.456917
 20
91.123779
 11
99.456917
 21
79.849533
  0
LINE
  8
0
 10
92.956932
 20
97.486649
 11
92.956932
 21
73.486664
  0
LINE
  8
0
 10
67.956932
 20
104.486664
 11
89.956932
 21
104.486664
  0
LINE
  8
0
 10
90.956932
 20
103.486664
 11
90.956932
 21
97.486649
  0
LINE
  8
0
 10
66.956924
 20
103.486664
 11
66.956924
 21
97.486649
  0
LINE
  8
0
 10
66.956917
 20
103.486671
 11
67.956909
 21
104.486664
  0
LINE
  8
0
 10
89.956940
 20
104.486679
 11
90.956955
 21
103.486664
  0
LINE
  8
0
 10
66.956932
 20
103.486664
 11
90.956932
 21
103.486664
  0
CIRCLE
  8
0
 10
78.956932
 20
85.486649
 40
5.722500
  0
CIRCLE
  8
0
 10
78.956932
 20
85.486649
 40
6.578500
  0
CIRCLE
  8
0
 10
78.956932
 20
85.486649
 40
10.250000
  0
POINT
  8
0
 10
-58.397667
 20
177.142426
  0
POINT
  8
0
 10
-13.397663
 20
177.142426
  0
LINE
  8
0
 10
-63.097668
 20
162.142426
 11
-63.097668
 21
161.142426
  0
LINE
  8
0
 10
-43.697670
 20
162.142426
 11
-43.697670
 21
161.142426
  0
LINE
  8
0
 10
-63.097668
 20
162.142426
 11
-14.397667
 21
162.142426
  0
LINE
  8
0
 10
-63.097668
 20
161.142426
 11
-43.697670
 21
161.142426
  0
LINE
  8
0
 10
-63.097679
 20
161.142410
 11
-60.499603
 21
156.642410
  0
LINE
  8
0
 10
-46.295742
 20
156.642426
 11
-43.697666
 21
161.142426
  0
LINE
  8
0
 10
-60.499592
 20
156.642441
 11
-46.295746
 21
156.642441
  0
LINE
  8
0
 10
-53.397667
 20
199.711746
 11
-53.397667
 21
153.689026
  0
LINE
  8
0
 10
-56.497665
 20
155.642426
 11
-50.297668
 21
155.642426
  0
LINE
  8
0
 10
-49.897667
 20
156.642426
 11
-49.897667
 21
156.042419
  0
LINE
  8
0
 10
-56.897667
 20
156.642426
 11
-56.897667
 21
156.042419
  0
LINE
  8
0
 10
-56.897663
 20
156.042435
 11
-56.497662
 21
155.642441
  0
LINE
  8
0
 10
-49.897678
 20
156.042419
 11
-50.297680
 21
155.642426
  0
LINE
  8
0
 10
-48.397667
 20
192.142426
 11
-48.397667
 21
163.142426
  0
LINE
  8
0
 10
-58.397667
 20
192.142426
 11
-58.397667
 21
163.142426
  0
LINE
  8
0
 10
-63.097668
 20
192.142426
 11
-14.397667
 21
192.142426
  0
LINE
  8
0
 10
-43.697670
 20
193.142426
 11
-43.697670
 21
192.142426
  0
LINE
  8
0
 10
-63.097668
 20
193.142426
 11
-63.097668
 21
192.142426
  0
LINE
  8
0
 10
-58.397655
 20
163.142441
 11
-57.397663
 21
162.142441
  0
LINE
  8
0
 10
-49.397682
 20
162.142441
 11
-48.397682
 21
163.142441
  0
LINE
  8
0
 10
-58.397667
 20
163.142426
 11
-13.397663
 21
163.142426
  0
LINE
  8
0
 10
-57.397667
 20
191.142426
 11
-57.397667
 21
162.142426
  0
LINE
  8
0
 10
-49.397667
 20
191.142426
 11
-49.397667
 21
162.142426
  0
LINE
  8
0
 10
-56.897667
 20
156.042419
 11
-49.897667
 21
156.042419
  0
LINE
  8
0
 10
-57.397667
 20
191.142441
 11
-49.397667
 21
191.142441
  0
LINE
  8
0
 10
-57.397682
 20
191.142441
 11
-58.397659
 21
192.142426
  0
LINE
  8
0
 10
-49.397629
 20
191.142380
 11
-48.397629
 21
192.142380
  0
LINE
  8
0
 10
-63.097668
 20
193.142426
 11
-43.697670
 21
193.142426
  0
LINE
  8
0
 10
-63.097664
 20
193.142426
 11
-60.499596
 21
197.642410
  0
LINE
  8
0
 10
-46.295723
 20
197.642426
 11
-43.697655
 21
193.142441
  0
LINE
  8
0
 10
-60.499588
 20
197.642426
 11
-46.295746
 21
197.642426
  0
LINE
  8
0
 10
-13.397663
 20
191.142426
 11
-13.397663
 21
163.142426
  0
LINE
  8
0
 10
-63.097668
 20
177.142426
 11
-10.284489
 21
177.142426
  0
LINE
  8
0
 10
-14.397659
 20
162.142410
 11
-13.397655
 21
163.142410
  0
LINE
  8
0
 10
-14.397663
 20
192.142426
 11
-13.397663
 21
191.142426
  0
LINE
  8
0
 10
-48.397671
 20
191.142426
 11
-47.397671
 21
192.142426
  0
LINE
  8
0
 10
-48.397678
 20
163.142441
 11
-47.397678
 21
162.142426
  0
LINE
  8
0
 10
-47.397675
 20
192.142426
 11
-47.397675
 21
162.142426
  0
LINE
  8
0
 10
-14.397667
 20
162.142426
 11
-14.397667
 21
192.142426
  0
LINE
  8
0
 10
-13.397663
 20
191.142441
 11
-48.397667
 21
191.142441
  0
LINE
  8
0
 10
-33.397667
 20
194.053925
 11
-33.397667
 21
160.048019
  0
CIRCLE
  8
0
 10
-33.397667
 20
177.142426
 40
12.000000
  0
CIRCLE
  8
0
 10
-33.397667
 20
177.142426
 40
11.000000
  0
CIRCLE
  8
0
 10
-33.397667
 20
177.142426
 40
5.722500
  0
CIRCLE
  8
0
 10
-33.397667
 20
177.142426
 40
6.578500
  0
POINT
  8
0
 10
201.253403
 20
85.486649
  0
POINT
  8
0
 10
246.253403
 20
85.486649
  0
LINE
  8
0
 10
196.553406
 20
121.486649
 11
196.553406
 21
74.486618
  0
LINE
  8
0
 10
215.953415
 20
121.486649
 11
215.953415
 21
104.486618
  0
LINE
  8
0
 10
199.151489
 20
90.527878
 11
199.151489
 21
80.445419
  0
LINE
  8
0
 10
213.355347
 20
90.527878
 11
213.355347
 21
80.445419
  0
LINE
  8
0
 10
199.151489
 20
90.527878
 11
213.355331
 21
90.527878
  0
LINE
  8
0
 10
199.151489
 20
80.445419
 11
213.355331
 21
80.445419
  0
LINE
  8
0
 10
193.503784
 20
85.486649
 11
249.035706
 21
85.486649
  0
LINE
  8
0
 10
197.553421
 20
73.486649
 11
245.253403
 21
73.486649
  0
LINE
  8
0
 10
197.553421
 20
97.486618
 11
245.253403
 21
97.486618
  0
LINE
  8
0
 10
196.553406
 20
74.486618
 11
246.253403
 21
74.486618
  0
LINE
  8
0
 10
196.553406
 20
74.486626
 11
199.151489
 21
80.445412
  0
LINE
  8
0
 10
213.355331
 20
80.445381
 11
215.953400
 21
74.486626
  0
LINE
  8
0
 10
199.553406
 20
124.486618
 11
212.953400
 21
124.486618
  0
LINE
  8
0
 10
196.553391
 20
121.486626
 11
199.553421
 21
124.486649
  0
LINE
  8
0
 10
215.953384
 20
121.486618
 11
212.953384
 21
124.486618
  0
LINE
  8
0
 10
196.553406
 20
96.486649
 11
246.253403
 21
96.486649
  0
LINE
  8
0
 10
197.553421
 20
121.072433
 11
197.553421
 21
97.486649
  0
LINE
  8
0
 10
214.953415
 20
121.072433
 11
214.953415
 21
104.186630
  0
LINE
  8
0
 10
214.953400
 20
121.072449
 11
212.539185
 21
123.486664
  0
LINE
  8
0
 10
197.553406
 20
121.072395
 11
199.967606
 21
123.486588
  0
LINE
  8
0
 10
199.967621
 20
123.486649
 11
212.539185
 21
123.486649
  0
LINE
  8
0
 10
199.553436
 20
124.486664
 11
199.967651
 21
123.486664
  0
LINE
  8
0
 10
196.553421
 20
121.486618
 11
197.553436
 21
121.072403
  0
LINE
  8
0
 10
212.953400
 20
124.486603
 11
212.539200
 21
123.486633
  0
LINE
  8
0
 10
215.953415
 20
121.486679
 11
214.953384
 21
121.072449
  0
LINE
  8
0
 10
197.553406
 20
97.486656
 11
196.553375
 21
96.486633
  0
LINE
  8
0
 10
197.553421
 20
107.486618
 11
214.953415
 21
107.486618
  0
LINE
  8
0
 10
197.553406
 20
107.486633
 11
196.553421
 21
107.072433
  0
LINE
  8
0
 10
214.953400
 20
107.486626
 11
215.953415
 21
107.072411
  0
LINE
  8
0
 10
194.642914
 20
116.486649
 11
218.076538
 21
116.486649
  0
LINE
  8
0
 10
196.553421
 20
96.486649
 11
199.151505
 21
90.527870
  0
LINE
  8
0
 10
213.355316
 20
90.527908
 11
215.953384
 21
96.486664
  0
LINE
  8
0
 10
196.553452
 20
74.486748
 11
197.553436
 21
73.486755
  0
LINE
  8
0
 10
206.253403
 20
128.095657
 11
206.253403
 21
69.023392
  0
LINE
  8
0
 10
204.753403
 20
86.352676
 11
204.753403
 21
84.620590
  0
LINE
  8
0
 10
207.753403
 20
86.352676
 11
207.753403
 21
84.620590
  0
LINE
  8
0
 10
204.753372
 20
86.352623
 11
206.253372
 21
87.218651
  0
LINE
  8
0
 10
206.253372
 20
83.754539
 11
207.753387
 21
84.620567
  0
LINE
  8
0
 10
204.753387
 20
84.620567
 11
206.253387
 21
83.754539
  0
LINE
  8
0
 10
206.253403
 20
87.218651
 11
207.753403
 21
86.352623
  0
LINE
  8
0
 10
246.253403
 20
96.486649
 11
246.253403
 21
74.486618
  0
LINE
  8
0
 10
245.253387
 20
73.486641
 11
246.253403
 21
74.486664
  0
LINE
  8
0
 10
245.253479
 20
97.486687
 11
246.253479
 21
96.486687
  0
LINE
  8
0
 10
245.253403
 20
73.486649
 11
245.253403
 21
97.486649
  0
LINE
  8
0
 10
211.253403
 20
96.486687
 11
212.253387
 21
97.486671
  0
LINE
  8
0
 10
211.253418
 20
74.486641
 11
212.253433
 21
73.486626
  0
LINE
  8
0
 10
226.253403
 20
107.602158
 11
226.253403
 21
94.322891
  0
LINE
  8
0
 10
215.253403
 20
104.486618
 11
237.253403
 21
104.486618
  0
LINE
  8
0
 10
238.253418
 20
103.486649
 11
238.253418
 21
97.486649
  0
LINE
  8
0
 10
214.253418
 20
103.486649
 11
214.253418
 21
97.486649
  0
LINE
  8
0
 10
214.253372
 20
103.486649
 11
215.253387
 21
104.486671
  0
LINE
  8
0
 10
237.253418
 20
104.486656
 11
238.253418
 21
103.486656
  0
LINE
  8
0
 10
215.953415
 20
96.486649
 11
215.953415
 21
74.486618
  0
LINE
  8
0
 10
214.253418
 20
103.486649
 11
238.253403
 21
103.486649
  0
LINE
  8
0
 10
244.553406
 20
92.486618
 11
244.553406
 21
78.486649
  0
LINE
  8
0
 10
241.553406
 20
92.486618
 11
241.553406
 21
78.486649
  0
LINE
  8
0
 10
241.553406
 20
78.486649
 11
244.553406
 21
78.486649
  0
LINE
  8
0
 10
241.553406
 20
92.486618
 11
244.553406
 21
92.486618
  0
LINE
  8
0
 10
241.630234
 20
92.409836
 11
241.630234
 21
78.563461
  0
LINE
  8
0
 10
244.165482
 20
92.409836
 11
244.165482
 21
78.563461
  0
LINE
  8
0
 10
241.630234
 20
92.409836
 11
244.165482
 21
92.409836
  0
LINE
  8
0
 10
241.630234
 20
78.563461
 11
244.165482
 21
78.563461
  0
LINE
  8
0
 10
241.553406
 20
92.486565
 11
241.630219
 21
92.409744
  0
LINE
  8
0
 10
244.165497
 20
92.409790
 11
244.553436
 21
92.486618
  0
LINE
  8
0
 10
241.553375
 20
78.486641
 11
241.630203
 21
78.563461
  0
LINE
  8
0
 10
244.165482
 20
78.563454
 11
244.553406
 21
78.486626
  0
CIRCLE
  8
0
 10
206.253403
 20
85.486649
 40
4.000000
  0
CIRCLE
  8
0
 10
206.253403
 20
85.486649
 40
3.500000
  0
CIRCLE
  8
0
 10
206.253403
 20
116.486649
 40
3.500000
  0
CIRCLE
  8
0
 10
206.253403
 20
85.486649
 40
1.732051
  0
POINT
  8
0
 10
332.608002
 20
85.486649
  0
POINT
  8
0
 10
372.608002
 20
85.486649
  0
LINE
  8
0
 10
316.608002
 20
95.890793
 11
317.608002
 21
95.890793
  0
LINE
  8
0
 10
317.608002
 20
96.486649
 11
317.608002
 21
74.486618
  0
LINE
  8
0
 10
316.608002
 20
95.890762
 11
316.608002
 21
75.082535
  0
LINE
  8
0
 10
312.107941
 20
90.527901
 11
316.607971
 21
95.890816
  0
LINE
  8
0
 10
312.107971
 20
80.445435
 11
316.607971
 21
75.082542
  0
LINE
  8
0
 10
312.108002
 20
90.527878
 11
312.108002
 21
80.445419
  0
LINE
  8
0
 10
311.108002
 20
88.586624
 11
311.108002
 21
82.386642
  0
LINE
  8
0
 10
311.507996
 20
81.986618
 11
312.108002
 21
81.986618
  0
LINE
  8
0
 10
311.507996
 20
88.986649
 11
312.108002
 21
88.986649
  0
LINE
  8
0
 10
311.508087
 20
88.986572
 11
311.108063
 21
88.586555
  0
LINE
  8
0
 10
311.108032
 20
82.386627
 11
311.508026
 21
81.986626
  0
LINE
  8
0
 10
318.608002
 20
73.486649
 11
372.608002
 21
73.486649
  0
LINE
  8
0
 10
318.608002
 20
97.486618
 11
354.608002
 21
97.486618
  0
LINE
  8
0
 10
316.608002
 20
75.082535
 11
317.608002
 21
75.082535
  0
LINE
  8
0
 10
317.608002
 20
74.486641
 11
318.608002
 21
73.486633
  0
LINE
  8
0
 10
317.608063
 20
96.486679
 11
318.608063
 21
97.486679
  0
LINE
  8
0
 10
347.608002
 20
97.486649
 11
347.608002
 21
73.486649
  0
LINE
  8
0
 10
372.608002
 20
124.486618
 11
372.608002
 21
73.486649
  0
LINE
  8
0
 10
365.608002
 20
124.486618
 11
372.608002
 21
124.486618
  0
LINE
  8
0
 10
364.608002
 20
123.486649
 11
364.608002
 21
107.486649
  0
LINE
  8
0
 10
364.607971
 20
123.486679
 11
365.607971
 21
124.486702
  0
LINE
  8
0
 10
364.607971
 20
107.486664
 11
354.607941
 21
97.486656
  0
LINE
  8
0
 10
365.607941
 20
107.072433
 11
355.022156
 21
96.486649
  0
LINE
  8
0
 10
317.608002
 20
96.486649
 11
355.022217
 21
96.486649
  0
LINE
  8
0
 10
365.608002
 20
124.486618
 11
365.608002
 21
107.072403
  0
LINE
  8
0
 10
354.608002
 20
97.486595
 11
355.022217
 21
96.486588
  0
LINE
  8
0
 10
364.607971
 20
107.486633
 11
365.607971
 21
107.072418
  0
LINE
  8
0
 10
317.608002
 20
74.486618
 11
372.608002
 21
74.486618
  0
LINE
  8
0
 10
365.608002
 20
121.486649
 11
372.608002
 21
121.486649
  0
LINE
  8
0
 10
332.608002
 20
106.328812
 11
332.608002
 21
71.573563
  0
LINE
  8
0
 10
318.608002
 20
97.486649
 11
318.608002
 21
73.486649
  0
LINE
  8
0
 10
362.688660
 20
116.486649
 11
374.387573
 21
116.486649
  0
LINE
  8
0
 10
307.828522
 20
85.486649
 11
374.215546
 21
85.486649
  0
LINE
  8
0
 10
311.507996
 20
88.986649
 11
311.507996
 21
81.986618
  0
LINE
  8
0
 10
365.608002
 20
121.486702
 11
364.608002
 21
121.072487
  0
LINE
  8
0
 10
346.608002
 20
97.486626
 11
347.608002
 21
96.486633
  0
LINE
  8
0
 10
346.607910
 20
73.486649
 11
347.607941
 21
74.486664
  0
LINE
  8
0
 10
346.608002
 20
97.486649
 11
346.608002
 21
73.486649
  0
LINE
  8
0
 10
321.608002
 20
104.486618
 11
343.608002
 21
104.486618
  0
LINE
  8
0
 10
320.608002
 20
103.486649
 11
320.608002
 21
97.486649
  0
LINE
  8
0
 10
344.608002
 20
103.486649
 11
344.608002
 21
97.486649
  0
LINE
  8
0
 10
320.607941
 20
103.486633
 11
321.607941
 21
104.486641
  0
LINE
  8
0
 10
343.607941
 20
104.486618
 11
344.607941
 21
103.486603
  0
LINE
  8
0
 10
320.608002
 20
103.486649
 11
344.608002
 21
103.486649
  0
CIRCLE
  8
0
 10
332.608002
 20
85.486649
 40
5.722500
  0
CIRCLE
  8
0
 10
332.608002
 20
85.486649
 40
6.578500
  0
POINT
  8
0
 10
246.253403
 20
177.142426
  0
POINT
  8
0
 10
201.253403
 20
177.142426
  0
LINE
  8
0
 10
196.553406
 20
162.142426
 11
196.553406
 21
161.142426
  0
LINE
  8
0
 10
215.953415
 20
162.142426
 11
215.953415
 21
161.142426
  0
LINE
  8
0
 10
196.553406
 20
162.142426
 11
245.253403
 21
162.142426
  0
LINE
  8
0
 10
196.553406
 20
161.142456
 11
215.953415
 21
161.142456
  0
LINE
  8
0
 10
196.553421
 20
161.142426
 11
199.151489
 21
156.642426
  0
LINE
  8
0
 10
213.355347
 20
156.642410
 11
215.953430
 21
161.142426
  0
LINE
  8
0
 10
199.151489
 20
156.642426
 11
213.355331
 21
156.642426
  0
LINE
  8
0
 10
206.253403
 20
221.548401
 11
206.253403
 21
153.689026
  0
LINE
  8
0
 10
203.153412
 20
155.642426
 11
209.353394
 21
155.642426
  0
LINE
  8
0
 10
209.753403
 20
156.642426
 11
209.753403
 21
156.042419
  0
LINE
  8
0
 10
202.753403
 20
156.642426
 11
202.753403
 21
156.042419
  0
LINE
  8
0
 10
202.753387
 20
156.042419
 11
203.153397
 21
155.642410
  0
LINE
  8
0
 10
209.753387
 20
156.042435
 11
209.353394
 21
155.642441
  0
LINE
  8
0
 10
196.553406
 20
192.142426
 11
202.253403
 21
192.142426
  0
LINE
  8
0
 10
196.553406
 20
217.142426
 11
215.953415
 21
217.142426
  0
LINE
  8
0
 10
211.253403
 20
192.142426
 11
211.253403
 21
163.142426
  0
LINE
  8
0
 10
201.253403
 20
192.142426
 11
201.253403
 21
163.142426
  0
LINE
  8
0
 10
210.253403
 20
192.142426
 11
245.253403
 21
192.142426
  0
LINE
  8
0
 10
215.953415
 20
217.142426
 11
215.953415
 21
192.142426
  0
LINE
  8
0
 10
196.553406
 20
217.142426
 11
196.553406
 21
192.142426
  0
LINE
  8
0
 10
201.253418
 20
163.142410
 11
202.253418
 21
162.142410
  0
LINE
  8
0
 10
210.253403
 20
162.142456
 11
211.253403
 21
163.142456
  0
LINE
  8
0
 10
197.553421
 20
209.142426
 11
197.553421
 21
192.142426
  0
LINE
  8
0
 10
214.953415
 20
209.142426
 11
214.953415
 21
192.142426
  0
LINE
  8
0
 10
197.553421
 20
209.142426
 11
214.953415
 21
209.142426
  0
LINE
  8
0
 10
196.553406
 20
210.142426
 11
215.953415
 21
210.142426
  0
LINE
  8
0
 10
201.253403
 20
163.142426
 11
246.253403
 21
163.142426
  0
LINE
  8
0
 10
202.253403
 20
192.142426
 11
202.253403
 21
162.142426
  0
LINE
  8
0
 10
210.253403
 20
192.142426
 11
210.253403
 21
162.142426
  0
LINE
  8
0
 10
197.553436
 20
209.142410
 11
196.553436
 21
210.142426
  0
LINE
  8
0
 10
214.953430
 20
209.142410
 11
215.953461
 21
210.142426
  0
LINE
  8
0
 10
199.553406
 20
217.142426
 11
199.553406
 21
210.142426
  0
LINE
  8
0
 10
212.953400
 20
217.142426
 11
212.953400
 21
210.142426
  0
LINE
  8
0
 10
197.553421
 20
199.142426
 11
214.953415
 21
199.142426
  0
LINE
  8
0
 10
196.553406
 20
199.574463
 11
197.553406
 21
199.142456
  0
LINE
  8
0
 10
214.953400
 20
199.142426
 11
215.953369
 21
199.574417
  0
LINE
  8
0
 10
199.553391
 20
210.142410
 11
199.967606
 21
209.142426
  0
LINE
  8
0
 10
212.953400
 20
210.142410
 11
212.539185
 21
209.142395
  0
LINE
  8
0
 10
202.753403
 20
156.042419
 11
209.753403
 21
156.042419
  0
LINE
  8
0
 10
246.253403
 20
191.142426
 11
246.253403
 21
163.142426
  0
LINE
  8
0
 10
196.553406
 20
177.142426
 11
249.808823
 21
177.142426
  0
LINE
  8
0
 10
245.253387
 20
162.142441
 11
246.253387
 21
163.142456
  0
LINE
  8
0
 10
245.253403
 20
192.142410
 11
246.253403
 21
191.142410
  0
LINE
  8
0
 10
211.253418
 20
191.142441
 11
212.253418
 21
192.142441
  0
LINE
  8
0
 10
211.253418
 20
163.142441
 11
212.253418
 21
162.142441
  0
LINE
  8
0
 10
211.253403
 20
191.142456
 11
246.253403
 21
191.142456
  0
LINE
  8
0
 10
245.253403
 20
192.142426
 11
245.253403
 21
162.142426
  0
LINE
  8
0
 10
212.253403
 20
162.142426
 11
212.253403
 21
192.142426
  0
LINE
  8
0
 10
226.253403
 20
194.257446
 11
226.253403
 21
159.695038
  0
CIRCLE
  8
0
 10
226.253403
 20
177.142426
 40
12.000000
  0
CIRCLE
  8
0
 10
226.253403
 20
177.142426
 40
11.000000
  0
CIRCLE
  8
0
 10
226.253403
 20
177.142426
 40
5.722500
  0
CIRCLE
  8
0
 10
226.253403
 20
177.142426
 40
6.578500
  0
POINT
  8
0
 10
-320.498505
 20
-181.813400
  0
POINT
  8
0
 10
-305.798553
 20
-181.813400
  0
LINE
  8
0
 10
-325.198517
 20
-145.813400
 11
-325.198517
 21
-192.813370
  0
LINE
  8
0
 10
-305.798553
 20
-145.813400
 11
-305.798553
 21
-192.813370
  0
LINE
  8
0
 10
-322.600433
 20
-176.772141
 11
-322.600433
 21
-186.854630
  0
LINE
  8
0
 10
-308.396637
 20
-176.772141
 11
-308.396637
 21
-186.854630
  0
LINE
  8
0
 10
-322.600494
 20
-176.772141
 11
-308.396637
 21
-176.772141
  0
LINE
  8
0
 10
-322.600494
 20
-186.854630
 11
-308.396637
 21
-186.854630
  0
LINE
  8
0
 10
-328.248138
 20
-181.813400
 11
-302.699005
 21
-181.813400
  0
LINE
  8
0
 10
-324.198578
 20
-193.813400
 11
-306.798553
 21
-193.813400
  0
LINE
  8
0
 10
-324.198578
 20
-169.813370
 11
-306.798553
 21
-169.813370
  0
LINE
  8
0
 10
-325.198578
 20
-192.813400
 11
-305.798553
 21
-192.813400
  0
LINE
  8
0
 10
-325.198730
 20
-192.813339
 11
-322.600647
 21
-186.854584
  0
LINE
  8
0
 10
-308.396545
 20
-186.854630
 11
-305.798462
 21
-192.813416
  0
LINE
  8
0
 10
-322.198578
 20
-142.813400
 11
-308.798553
 21
-142.813400
  0
LINE
  8
0
 10
-325.198883
 20
-145.813049
 11
-322.198883
 21
-142.813049
  0
LINE
  8
0
 10
-305.798706
 20
-145.813477
 11
-308.798676
 21
-142.813507
  0
LINE
  8
0
 10
-325.198578
 20
-170.813400
 11
-305.798553
 21
-170.813400
  0
LINE
  8
0
 10
-324.198578
 20
-146.227585
 11
-324.198578
 21
-169.813370
  0
LINE
  8
0
 10
-306.798553
 20
-146.227585
 11
-306.798553
 21
-169.813370
  0
LINE
  8
0
 10
-306.798645
 20
-146.227707
 11
-309.212891
 21
-143.813477
  0
LINE
  8
0
 10
-324.198761
 20
-146.227386
 11
-321.784546
 21
-143.813171
  0
LINE
  8
0
 10
-321.784332
 20
-143.813400
 11
-309.212738
 21
-143.813400
  0
LINE
  8
0
 10
-322.198639
 20
-142.813278
 11
-321.784393
 21
-143.813339
  0
LINE
  8
0
 10
-325.198578
 20
-145.813400
 11
-324.198517
 21
-146.227646
  0
LINE
  8
0
 10
-308.798767
 20
-142.813232
 11
-309.212952
 21
-143.813248
  0
LINE
  8
0
 10
-305.798523
 20
-145.813370
 11
-306.798553
 21
-146.227600
  0
LINE
  8
0
 10
-324.198547
 20
-169.813400
 11
-325.198547
 21
-170.813431
  0
LINE
  8
0
 10
-306.798492
 20
-169.813385
 11
-305.798523
 21
-170.813370
  0
LINE
  8
0
 10
-324.198578
 20
-159.813370
 11
-306.798553
 21
-159.813370
  0
LINE
  8
0
 10
-324.198517
 20
-159.813507
 11
-325.198517
 21
-160.227722
  0
LINE
  8
0
 10
-306.798584
 20
-159.813400
 11
-305.798584
 21
-160.227615
  0
LINE
  8
0
 10
-327.109039
 20
-150.813400
 11
-303.675385
 21
-150.813400
  0
LINE
  8
0
 10
-325.198517
 20
-170.813263
 11
-322.600433
 21
-176.772049
  0
LINE
  8
0
 10
-308.396423
 20
-176.772232
 11
-305.798340
 21
-170.813477
  0
LINE
  8
0
 10
-325.198395
 20
-192.813293
 11
-324.198395
 21
-193.813263
  0
LINE
  8
0
 10
-306.798431
 20
-193.813461
 11
-305.798462
 21
-192.813477
  0
LINE
  8
0
 10
-315.498505
 20
-139.204361
 11
-315.498505
 21
-198.276627
  0
LINE
  8
0
 10
-316.998566
 20
-180.947372
 11
-316.998566
 21
-182.679398
  0
LINE
  8
0
 10
-313.998566
 20
-180.947372
 11
-313.998566
 21
-182.679398
  0
LINE
  8
0
 10
-316.998566
 20
-180.947311
 11
-315.498566
 21
-180.081284
  0
LINE
  8
0
 10
-315.498535
 20
-183.545334
 11
-313.998535
 21
-182.679306
  0
LINE
  8
0
 10
-316.998566
 20
-182.679459
 11
-315.498566
 21
-183.545486
  0
LINE
  8
0
 10
-315.498535
 20
-180.081345
 11
-313.998535
 21
-180.947372
  0
CIRCLE
  8
0
 10
-315.498505
 20
-181.813400
 40
4.000000
  0
CIRCLE
  8
0
 10
-315.498505
 20
-181.813400
 40
3.500000
  0
CIRCLE
  8
0
 10
-315.498505
 20
-150.813400
 40
3.500000
  0
CIRCLE
  8
0
 10
-315.498505
 20
-181.813400
 40
1.732051
  0
POINT
  8
0
 10
-203.143890
 20
-181.813400
  0
POINT
  8
0
 10
-163.143890
 20
-181.813400
  0
LINE
  8
0
 10
-219.143921
 20
-171.409256
 11
-218.143890
 21
-171.409256
  0
LINE
  8
0
 10
-218.143890
 20
-170.813400
 11
-218.143890
 21
-192.813370
  0
LINE
  8
0
 10
-219.143921
 20
-171.409256
 11
-219.143921
 21
-192.217514
  0
LINE
  8
0
 10
-223.643814
 20
-176.772232
 11
-219.143814
 21
-171.409332
  0
LINE
  8
0
 10
-223.643814
 20
-186.854599
 11
-219.143784
 21
-192.217514
  0
LINE
  8
0
 10
-223.643921
 20
-176.772141
 11
-223.643921
 21
-186.854630
  0
LINE
  8
0
 10
-224.643890
 20
-178.713394
 11
-224.643890
 21
-184.913406
  0
LINE
  8
0
 10
-224.243896
 20
-185.313400
 11
-223.643921
 21
-185.313400
  0
LINE
  8
0
 10
-224.243896
 20
-178.313400
 11
-223.643921
 21
-178.313400
  0
LINE
  8
0
 10
-224.244110
 20
-178.313171
 11
-224.644104
 21
-178.713165
  0
LINE
  8
0
 10
-224.643890
 20
-184.913391
 11
-224.243896
 21
-185.313385
  0
LINE
  8
0
 10
-217.143890
 20
-193.813400
 11
-163.143921
 21
-193.813400
  0
LINE
  8
0
 10
-217.143890
 20
-169.813370
 11
-181.143921
 21
-169.813370
  0
LINE
  8
0
 10
-219.143921
 20
-192.217514
 11
-218.143890
 21
-192.217514
  0
LINE
  8
0
 10
-218.143890
 20
-192.813385
 11
-217.143860
 21
-193.813416
  0
LINE
  8
0
 10
-218.143997
 20
-170.813339
 11
-217.143967
 21
-169.813309
  0
LINE
  8
0
 10
-188.143890
 20
-169.813370
 11
-188.143890
 21
-193.813370
  0
LINE
  8
0
 10
-163.143890
 20
-142.813400
 11
-163.143890
 21
-193.813370
  0
LINE
  8
0
 10
-170.143890
 20
-142.813400
 11
-163.143921
 21
-142.813400
  0
LINE
  8
0
 10
-171.143921
 20
-143.813339
 11
-171.143921
 21
-159.813370
  0
LINE
  8
0
 10
-171.143860
 20
-143.813446
 11
-170.143845
 21
-142.813446
  0
LINE
  8
0
 10
-171.143860
 20
-159.813446
 11
-181.143860
 21
-169.813446
  0
LINE
  8
0
 10
-170.143890
 20
-160.227600
 11
-180.729675
 21
-170.813400
  0
LINE
  8
0
 10
-218.143890
 20
-170.813400
 11
-180.729675
 21
-170.813400
  0
LINE
  8
0
 10
-170.143890
 20
-142.813400
 11
-170.143890
 21
-160.227615
  0
LINE
  8
0
 10
-181.143860
 20
-169.813400
 11
-180.729675
 21
-170.813339
  0
LINE
  8
0
 10
-171.143951
 20
-159.813446
 11
-170.143951
 21
-160.227661
  0
LINE
  8
0
 10
-218.143890
 20
-192.813400
 11
-163.143921
 21
-192.813400
  0
LINE
  8
0
 10
-170.143890
 20
-145.813400
 11
-163.143921
 21
-145.813400
  0
LINE
  8
0
 10
-203.143890
 20
-166.823257
 11
-203.143890
 21
-195.726486
  0
LINE
  8
0
 10
-217.143890
 20
-169.813370
 11
-217.143890
 21
-193.813370
  0
LINE
  8
0
 10
-173.063293
 20
-150.813400
 11
-161.364380
 21
-150.813400
  0
LINE
  8
0
 10
-227.923370
 20
-181.813400
 11
-161.536377
 21
-181.813400
  0
LINE
  8
0
 10
-224.243896
 20
-178.313400
 11
-224.243896
 21
-185.313370
  0
LINE
  8
0
 10
-170.143845
 20
-145.813477
 11
-171.143860
 21
-146.227707
  0
POINT
  8
0
 10
-310.498505
 20
-77.554947
  0
POINT
  8
0
 10
-320.498505
 20
-77.554947
  0
LINE
  8
0
 10
-325.198517
 20
-92.554947
 11
-325.198517
 21
-93.554947
  0
LINE
  8
0
 10
-305.798553
 20
-92.554947
 11
-305.798553
 21
-93.554947
  0
LINE
  8
0
 10
-325.198578
 20
-92.554947
 11
-305.798553
 21
-92.554947
  0
LINE
  8
0
 10
-325.198578
 20
-93.554947
 11
-305.798553
 21
-93.554947
  0
LINE
  8
0
 10
-325.198547
 20
-93.555054
 11
-322.600464
 21
-98.055069
  0
LINE
  8
0
 10
-308.396729
 20
-98.054909
 11
-305.798676
 21
-93.554909
  0
LINE
  8
0
 10
-322.600494
 20
-98.054947
 11
-308.396637
 21
-98.054947
  0
LINE
  8
0
 10
-315.498505
 20
-33.148972
 11
-315.498505
 21
-101.008377
  0
LINE
  8
0
 10
-318.598541
 20
-99.054977
 11
-312.398529
 21
-99.054977
  0
LINE
  8
0
 10
-311.998566
 20
-98.054947
 11
-311.998566
 21
-98.654953
  0
LINE
  8
0
 10
-318.998566
 20
-98.054947
 11
-318.998566
 21
-98.654953
  0
LINE
  8
0
 10
-318.998505
 20
-98.654922
 11
-318.598511
 21
-99.054916
  0
LINE
  8
0
 10
-311.998505
 20
-98.654984
 11
-312.398499
 21
-99.054977
  0
LINE
  8
0
 10
-325.198578
 20
-62.554947
 11
-319.498566
 21
-62.554947
  0
LINE
  8
0
 10
-325.198578
 20
-37.554947
 11
-305.798553
 21
-37.554947
  0
LINE
  8
0
 10
-310.498505
 20
-62.554947
 11
-310.498505
 21
-91.554977
  0
LINE
  8
0
 10
-320.498505
 20
-62.554947
 11
-320.498505
 21
-91.554977
  0
LINE
  8
0
 10
-311.498566
 20
-62.554947
 11
-305.798553
 21
-62.554947
  0
LINE
  8
0
 10
-305.798553
 20
-37.554947
 11
-305.798553
 21
-62.554947
  0
LINE
  8
0
 10
-325.198517
 20
-37.554947
 11
-325.198517
 21
-62.554947
  0
LINE
  8
0
 10
-320.498566
 20
-91.554962
 11
-319.498596
 21
-92.554939
  0
LINE
  8
0
 10
-311.498535
 20
-92.554970
 11
-310.498535
 21
-91.554970
  0
LINE
  8
0
 10
-324.198578
 20
-45.554947
 11
-324.198578
 21
-62.554947
  0
LINE
  8
0
 10
-306.798553
 20
-45.554947
 11
-306.798553
 21
-62.554947
  0
LINE
  8
0
 10
-324.198578
 20
-45.554947
 11
-306.798553
 21
-45.554947
  0
LINE
  8
0
 10
-325.198578
 20
-44.554977
 11
-305.798553
 21
-44.554977
  0
LINE
  8
0
 10
-320.498505
 20
-91.554977
 11
-310.498505
 21
-91.554977
  0
LINE
  8
0
 10
-319.498566
 20
-62.554947
 11
-319.498566
 21
-92.554947
  0
LINE
  8
0
 10
-311.498566
 20
-62.554947
 11
-311.498566
 21
-92.554947
  0
LINE
  8
0
 10
-324.198456
 20
-45.554974
 11
-325.198456
 21
-44.554996
  0
LINE
  8
0
 10
-306.798309
 20
-45.555206
 11
-305.798340
 21
-44.555214
  0
LINE
  8
0
 10
-322.198517
 20
-37.554947
 11
-322.198517
 21
-44.554916
  0
LINE
  8
0
 10
-308.798553
 20
-37.554947
 11
-308.798553
 21
-44.554916
  0
LINE
  8
0
 10
-324.198578
 20
-55.554947
 11
-306.798553
 21
-55.554947
  0
LINE
  8
0
 10
-325.198578
 20
-55.123028
 11
-324.198608
 21
-55.555016
  0
LINE
  8
0
 10
-306.798462
 20
-55.555138
 11
-305.798462
 21
-55.123138
  0
LINE
  8
0
 10
-322.198364
 20
-44.554878
 11
-321.784149
 21
-45.554886
  0
LINE
  8
0
 10
-308.798340
 20
-44.555035
 11
-309.212555
 21
-45.555038
  0
LINE
  8
0
 10
-318.998566
 20
-98.654953
 11
-311.998566
 21
-98.654953
  0
LINE
  8
0
 10
-325.198578
 20
-77.554947
 11
-305.798553
 21
-77.554947
  0
POINT
  8
0
 10
-58.397667
 20
-181.813400
  0
POINT
  8
0
 10
-36.397652
 20
-181.813400
  0
LINE
  8
0
 10
-63.097656
 20
-170.813400
 11
-63.097656
 21
-192.813400
  0
LINE
  8
0
 10
-43.697670
 20
-170.813400
 11
-43.697670
 21
-192.813400
  0
LINE
  8
0
 10
-60.499580
 20
-176.772171
 11
-60.499580
 21
-186.854630
  0
LINE
  8
0
 10
-46.295738
 20
-176.772171
 11
-46.295738
 21
-186.854630
  0
LINE
  8
0
 10
-60.499580
 20
-176.772171
 11
-46.295738
 21
-176.772171
  0
LINE
  8
0
 10
-60.499580
 20
-186.854630
 11
-46.295738
 21
-186.854630
  0
LINE
  8
0
 10
-66.147285
 20
-181.813400
 11
-32.805489
 21
-181.813400
  0
LINE
  8
0
 10
-57.397667
 20
-193.813400
 11
-49.397652
 21
-193.813400
  0
LINE
  8
0
 10
-57.397667
 20
-169.813400
 11
-49.397652
 21
-169.813400
  0
LINE
  8
0
 10
-63.097656
 20
-192.813400
 11
-36.397652
 21
-192.813400
  0
LINE
  8
0
 10
-63.097660
 20
-192.813416
 11
-60.499584
 21
-186.854645
  0
LINE
  8
0
 10
-46.295746
 20
-186.854645
 11
-43.697666
 21
-192.813416
  0
LINE
  8
0
 10
-63.097656
 20
-170.813400
 11
-36.397652
 21
-170.813400
  0
LINE
  8
0
 10
-63.097664
 20
-170.813416
 11
-60.499588
 21
-176.772186
  0
LINE
  8
0
 10
-46.295761
 20
-176.772156
 11
-43.697689
 21
-170.813400
  0
LINE
  8
0
 10
-53.397667
 20
-166.897964
 11
-53.397667
 21
-196.656082
  0
LINE
  8
0
 10
-54.897667
 20
-180.947372
 11
-54.897667
 21
-182.679428
  0
LINE
  8
0
 10
-51.897667
 20
-180.947372
 11
-51.897667
 21
-182.679428
  0
LINE
  8
0
 10
-54.897663
 20
-180.947388
 11
-53.397659
 21
-180.081360
  0
LINE
  8
0
 10
-53.397652
 20
-183.545456
 11
-51.897659
 21
-182.679443
  0
LINE
  8
0
 10
-54.897640
 20
-182.679413
 11
-53.397652
 21
-183.545441
  0
LINE
  8
0
 10
-53.397659
 20
-180.081360
 11
-51.897663
 21
-180.947388
  0
LINE
  8
0
 10
-58.397675
 20
-170.813400
 11
-57.397675
 21
-169.813400
  0
LINE
  8
0
 10
-49.397663
 20
-169.813385
 11
-48.397659
 21
-170.813385
  0
LINE
  8
0
 10
-58.397652
 20
-192.813416
 11
-57.397652
 21
-193.813416
  0
LINE
  8
0
 10
-49.397663
 20
-193.813385
 11
-48.397659
 21
-192.813385
  0
LINE
  8
0
 10
-36.397652
 20
-170.813400
 11
-36.397652
 21
-192.813400
  0
LINE
  8
0
 10
-37.397652
 20
-169.813400
 11
-36.397648
 21
-170.813416
  0
LINE
  8
0
 10
-37.397671
 20
-193.813385
 11
-36.397667
 21
-192.813385
  0
LINE
  8
0
 10
-48.397671
 20
-170.813370
 11
-47.397671
 21
-169.813370
  0
LINE
  8
0
 10
-48.397652
 20
-192.813385
 11
-47.397655
 21
-193.813385
  0
LINE
  8
0
 10
-47.397667
 20
-193.813400
 11
-37.397667
 21
-193.813400
  0
LINE
  8
0
 10
-47.397667
 20
-169.813400
 11
-37.397667
 21
-169.813400
  0
LINE
  8
0
 10
-37.397667
 20
-169.813400
 11
-37.397667
 21
-193.813400
  0
LINE
  8
0
 10
-47.397667
 20
-169.813400
 11
-47.397667
 21
-170.813400
  0
LINE
  8
0
 10
-47.397667
 20
-193.813400
 11
-47.397667
 21
-192.813400
  0
CIRCLE
  8
0
 10
-53.397667
 20
-181.813400
 40
4.000000
  0
CIRCLE
  8
0
 10
-53.397667
 20
-181.813400
 40
3.500000
  0
CIRCLE
  8
0
 10
-53.397667
 20
-181.813400
 40
1.732051
  0
CIRCLE
  8
0
 10
-53.397667
 20
-181.813400
 40
3.100000
  0
POINT
  8
0
 10
73.956932
 20
-181.813400
  0
POINT
  8
0
 10
94.456917
 20
-181.813400
  0
LINE
  8
0
 10
57.956917
 20
-171.409271
 11
58.956917
 21
-171.409271
  0
LINE
  8
0
 10
58.956932
 20
-170.813400
 11
58.956932
 21
-192.813400
  0
LINE
  8
0
 10
57.956917
 20
-171.409271
 11
57.956917
 21
-192.217529
  0
LINE
  8
0
 10
53.456886
 20
-176.772110
 11
57.956886
 21
-171.409225
  0
LINE
  8
0
 10
53.456921
 20
-186.854645
 11
57.956924
 21
-192.217545
  0
LINE
  8
0
 10
53.456932
 20
-176.772171
 11
53.456932
 21
-186.854630
  0
LINE
  8
0
 10
52.456917
 20
-178.713394
 11
52.456917
 21
-184.913406
  0
LINE
  8
0
 10
52.856941
 20
-185.313400
 11
53.456932
 21
-185.313400
  0
LINE
  8
0
 10
52.856941
 20
-178.313400
 11
53.456932
 21
-178.313400
  0
LINE
  8
0
 10
52.856995
 20
-178.313461
 11
52.457005
 21
-178.713455
  0
LINE
  8
0
 10
52.456909
 20
-184.913391
 11
52.856911
 21
-185.313385
  0
LINE
  8
0
 10
59.956917
 20
-193.813400
 11
87.956917
 21
-193.813400
  0
LINE
  8
0
 10
59.956917
 20
-169.813400
 11
87.956917
 21
-169.813400
  0
LINE
  8
0
 10
57.956917
 20
-192.217529
 11
58.956917
 21
-192.217529
  0
LINE
  8
0
 10
58.956924
 20
-192.813385
 11
59.956924
 21
-193.813385
  0
LINE
  8
0
 10
58.956966
 20
-170.813431
 11
59.956970
 21
-169.813431
  0
LINE
  8
0
 10
88.956947
 20
-170.813400
 11
88.956947
 21
-192.813400
  0
LINE
  8
0
 10
58.956917
 20
-170.813400
 11
89.956917
 21
-170.813400
  0
LINE
  8
0
 10
58.956917
 20
-192.813400
 11
89.956917
 21
-192.813400
  0
LINE
  8
0
 10
73.956932
 20
-166.823257
 11
73.956932
 21
-195.726486
  0
LINE
  8
0
 10
59.956917
 20
-169.813400
 11
59.956917
 21
-193.813400
  0
LINE
  8
0
 10
49.177452
 20
-181.813400
 11
96.966743
 21
-181.813400
  0
LINE
  8
0
 10
52.856926
 20
-178.313400
 11
52.856926
 21
-185.313400
  0
LINE
  8
0
 10
87.956909
 20
-169.813400
 11
88.956909
 21
-170.813400
  0
LINE
  8
0
 10
87.956886
 20
-193.813370
 11
88.956886
 21
-192.813370
  0
LINE
  8
0
 10
89.956917
 20
-170.813400
 11
89.956917
 21
-192.813400
  0
LINE
  8
0
 10
89.956909
 20
-170.813431
 11
94.456909
 21
-176.176315
  0
LINE
  8
0
 10
89.956863
 20
-192.813354
 11
94.456871
 21
-187.450455
  0
LINE
  8
0
 10
94.456917
 20
-176.176285
 11
94.456917
 21
-187.450516
  0
LINE
  8
0
 10
87.956917
 20
-169.813400
 11
87.956917
 21
-193.813400
  0
CIRCLE
  8
0
 10
73.956932
 20
-181.813400
 40
5.722500
  0
CIRCLE
  8
0
 10
73.956932
 20
-181.813400
 40
6.578500
  0
POINT
  8
0
 10
-58.397667
 20
-77.554947
  0
POINT
  8
0
 10
-36.397652
 20
-77.554947
  0
LINE
  8
0
 10
-63.097656
 20
-92.554947
 11
-63.097656
 21
-93.554947
  0
LINE
  8
0
 10
-43.697670
 20
-92.554947
 11
-43.697670
 21
-93.554947
  0
LINE
  8
0
 10
-63.097656
 20
-92.554947
 11
-37.397667
 21
-92.554947
  0
LINE
  8
0
 10
-63.097656
 20
-93.554955
 11
-43.697655
 21
-93.554955
  0
LINE
  8
0
 10
-63.097656
 20
-93.554947
 11
-60.499580
 21
-98.054947
  0
LINE
  8
0
 10
-46.295738
 20
-98.054932
 11
-43.697662
 21
-93.554939
  0
LINE
  8
0
 10
-60.499580
 20
-98.054947
 11
-46.295738
 21
-98.054947
  0
LINE
  8
0
 10
-53.397667
 20
-54.985626
 11
-53.397667
 21
-101.008362
  0
LINE
  8
0
 10
-56.497658
 20
-99.054947
 11
-50.297661
 21
-99.054947
  0
LINE
  8
0
 10
-49.897667
 20
-98.054947
 11
-49.897667
 21
-98.654945
  0
LINE
  8
0
 10
-56.897667
 20
-98.054947
 11
-56.897667
 21
-98.654945
  0
LINE
  8
0
 10
-56.897659
 20
-98.654938
 11
-56.497658
 21
-99.054939
  0
LINE
  8
0
 10
-49.897659
 20
-98.654945
 11
-50.297661
 21
-99.054947
  0
LINE
  8
0
 10
-48.397667
 20
-62.554947
 11
-48.397667
 21
-91.554947
  0
LINE
  8
0
 10
-58.397667
 20
-62.554947
 11
-58.397667
 21
-91.554947
  0
LINE
  8
0
 10
-63.097656
 20
-62.554947
 11
-37.397667
 21
-62.554947
  0
LINE
  8
0
 10
-43.697670
 20
-61.554947
 11
-43.697670
 21
-62.554947
  0
LINE
  8
0
 10
-63.097656
 20
-61.554947
 11
-63.097656
 21
-62.554947
  0
LINE
  8
0
 10
-58.397675
 20
-91.554947
 11
-57.397678
 21
-92.554947
  0
LINE
  8
0
 10
-49.397675
 20
-92.554947
 11
-48.397671
 21
-91.554947
  0
LINE
  8
0
 10
-58.397667
 20
-91.554947
 11
-36.397652
 21
-91.554947
  0
LINE
  8
0
 10
-57.397667
 20
-63.554939
 11
-57.397667
 21
-92.554947
  0
LINE
  8
0
 10
-49.397667
 20
-63.554939
 11
-49.397667
 21
-92.554947
  0
LINE
  8
0
 10
-56.897652
 20
-98.654945
 11
-49.897667
 21
-98.654945
  0
LINE
  8
0
 10
-57.397667
 20
-63.554939
 11
-49.397652
 21
-63.554939
  0
LINE
  8
0
 10
-57.397663
 20
-63.554951
 11
-58.397659
 21
-62.554955
  0
LINE
  8
0
 10
-49.397667
 20
-63.554962
 11
-48.397663
 21
-62.554962
  0
LINE
  8
0
 10
-63.097656
 20
-61.554947
 11
-43.697655
 21
-61.554947
  0
LINE
  8
0
 10
-63.097675
 20
-61.554955
 11
-60.499599
 21
-57.054958
  0
LINE
  8
0
 10
-46.295742
 20
-57.054955
 11
-43.697666
 21
-61.554955
  0
LINE
  8
0
 10
-60.499580
 20
-57.054947
 11
-46.295738
 21
-57.054947
  0
LINE
  8
0
 10
-36.397652
 20
-63.554939
 11
-36.397652
 21
-91.554947
  0
LINE
  8
0
 10
-63.097656
 20
-77.554947
 11
-31.495155
 21
-77.554947
  0
LINE
  8
0
 10
-37.397675
 20
-92.554955
 11
-36.397675
 21
-91.554947
  0
LINE
  8
0
 10
-37.397697
 20
-62.554981
 11
-36.397694
 21
-63.554981
  0
LINE
  8
0
 10
-48.397667
 20
-63.554955
 11
-47.397659
 21
-62.554943
  0
LINE
  8
0
 10
-48.397667
 20
-91.554924
 11
-47.397671
 21
-92.554924
  0
LINE
  8
0
 10
-47.397667
 20
-62.554947
 11
-47.397667
 21
-92.554947
  0
LINE
  8
0
 10
-37.397667
 20
-92.554947
 11
-37.397667
 21
-62.554947
  0
LINE
  8
0
 10
-36.397652
 20
-63.554939
 11
-48.397667
 21
-63.554939
  0
POINT
  8
0
 10
201.253403
 20
-181.813400
  0
POINT
  8
0
 10
223.253464
 20
-181.813400
  0
LINE
  8
0
 10
196.553391
 20
-145.813416
 11
196.553391
 21
-192.813416
  0
LINE
  8
0
 10
215.953415
 20
-145.813416
 11
215.953415
 21
-169.813416
  0
LINE
  8
0
 10
199.151474
 20
-176.772171
 11
199.151474
 21
-186.854645
  0
LINE
  8
0
 10
213.355392
 20
-176.772171
 11
213.355392
 21
-186.854645
  0
LINE
  8
0
 10
199.151474
 20
-176.772171
 11
213.355331
 21
-176.772171
  0
LINE
  8
0
 10
199.151474
 20
-186.854645
 11
213.355331
 21
-186.854645
  0
LINE
  8
0
 10
193.503769
 20
-181.813400
 11
226.888840
 21
-181.813400
  0
LINE
  8
0
 10
197.553452
 20
-193.813416
 11
222.253464
 21
-193.813416
  0
LINE
  8
0
 10
197.553452
 20
-169.813400
 11
222.253464
 21
-169.813400
  0
LINE
  8
0
 10
196.553391
 20
-192.813416
 11
223.253403
 21
-192.813416
  0
LINE
  8
0
 10
196.553391
 20
-192.813400
 11
199.151474
 21
-186.854614
  0
LINE
  8
0
 10
213.355423
 20
-186.854599
 11
215.953491
 21
-192.813354
  0
LINE
  8
0
 10
199.553391
 20
-142.813416
 11
212.953476
 21
-142.813416
  0
LINE
  8
0
 10
196.553391
 20
-145.813385
 11
199.553421
 21
-142.813354
  0
LINE
  8
0
 10
215.953293
 20
-145.813477
 11
212.953308
 21
-142.813492
  0
LINE
  8
0
 10
196.553391
 20
-170.813416
 11
223.253403
 21
-170.813416
  0
LINE
  8
0
 10
197.553452
 20
-146.227631
 11
197.553452
 21
-169.813416
  0
LINE
  8
0
 10
214.953415
 20
-146.227631
 11
214.953415
 21
-169.813416
  0
LINE
  8
0
 10
214.953354
 20
-146.227661
 11
212.539124
 21
-143.813431
  0
LINE
  8
0
 10
197.553406
 20
-146.227570
 11
199.967606
 21
-143.813370
  0
LINE
  8
0
 10
199.967636
 20
-143.813400
 11
212.539169
 21
-143.813400
  0
LINE
  8
0
 10
199.553436
 20
-142.813385
 11
199.967651
 21
-143.813400
  0
LINE
  8
0
 10
196.553467
 20
-145.813400
 11
197.553482
 21
-146.227615
  0
LINE
  8
0
 10
212.953369
 20
-142.813400
 11
212.539169
 21
-143.813416
  0
LINE
  8
0
 10
215.953430
 20
-145.813416
 11
214.953430
 21
-146.227631
  0
LINE
  8
0
 10
197.553436
 20
-169.813477
 11
196.553452
 21
-170.813461
  0
LINE
  8
0
 10
197.553452
 20
-159.813400
 11
214.953415
 21
-159.813400
  0
LINE
  8
0
 10
197.553452
 20
-159.813385
 11
196.553436
 21
-160.227600
  0
LINE
  8
0
 10
214.953476
 20
-159.813370
 11
215.953476
 21
-160.227585
  0
LINE
  8
0
 10
194.642929
 20
-150.813416
 11
218.076584
 21
-150.813416
  0
LINE
  8
0
 10
196.553421
 20
-170.813385
 11
199.151489
 21
-176.772156
  0
LINE
  8
0
 10
213.355377
 20
-176.772217
 11
215.953445
 21
-170.813492
  0
LINE
  8
0
 10
196.553467
 20
-192.813324
 11
197.553452
 21
-193.813309
  0
LINE
  8
0
 10
206.253403
 20
-139.204376
 11
206.253403
 21
-198.276642
  0
LINE
  8
0
 10
204.753403
 20
-180.947372
 11
204.753403
 21
-182.679443
  0
LINE
  8
0
 10
207.753403
 20
-180.947372
 11
207.753403
 21
-182.679443
  0
LINE
  8
0
 10
204.753433
 20
-180.947342
 11
206.253387
 21
-180.081345
  0
LINE
  8
0
 10
206.253448
 20
-183.545425
 11
207.753403
 21
-182.679428
  0
LINE
  8
0
 10
204.753433
 20
-182.679520
 11
206.253372
 21
-183.545517
  0
LINE
  8
0
 10
206.253433
 20
-180.081436
 11
207.753387
 21
-180.947433
  0
LINE
  8
0
 10
223.253464
 20
-170.813416
 11
223.253464
 21
-192.813416
  0
LINE
  8
0
 10
222.253387
 20
-193.813385
 11
223.253357
 21
-192.813416
  0
LINE
  8
0
 10
222.253479
 20
-169.813354
 11
223.253464
 21
-170.813339
  0
LINE
  8
0
 10
222.253403
 20
-193.813416
 11
222.253403
 21
-169.813416
  0
LINE
  8
0
 10
211.253433
 20
-170.813416
 11
212.253418
 21
-169.813446
  0
LINE
  8
0
 10
211.253464
 20
-192.813385
 11
212.253464
 21
-193.813385
  0
LINE
  8
0
 10
215.953415
 20
-170.813416
 11
215.953415
 21
-192.813416
  0
CIRCLE
  8
0
 10
206.253403
 20
-181.813400
 40
4.000000
  0
CIRCLE
  8
0
 10
206.253403
 20
-181.813400
 40
3.500000
  0
CIRCLE
  8
0
 10
206.253403
 20
-150.813416
 40
3.500000
  0
CIRCLE
  8
0
 10
206.253403
 20
-181.813400
 40
1.732051
  0
POINT
  8
0
 10
328.608002
 20
-181.813400
  0
POINT
  8
0
 10
368.607941
 20
-181.813400
  0
LINE
  8
0
 10
312.607941
 20
-171.409286
 11
313.608002
 21
-171.409286
  0
LINE
  8
0
 10
313.608002
 20
-170.813416
 11
313.608002
 21
-192.813416
  0
LINE
  8
0
 10
312.608002
 20
-171.409286
 11
312.608002
 21
-192.217529
  0
LINE
  8
0
 10
308.107910
 20
-176.772186
 11
312.607941
 21
-171.409271
  0
LINE
  8
0
 10
308.108032
 20
-186.854660
 11
312.608002
 21
-192.217529
  0
LINE
  8
0
 10
308.108002
 20
-176.772171
 11
308.108002
 21
-186.854645
  0
LINE
  8
0
 10
307.108002
 20
-178.713409
 11
307.108002
 21
-184.913406
  0
LINE
  8
0
 10
307.507965
 20
-185.313416
 11
308.107941
 21
-185.313416
  0
LINE
  8
0
 10
307.507965
 20
-178.313400
 11
308.107941
 21
-178.313400
  0
LINE
  8
0
 10
307.507996
 20
-178.313431
 11
307.107971
 21
-178.713455
  0
LINE
  8
0
 10
307.107910
 20
-184.913452
 11
307.507904
 21
-185.313446
  0
LINE
  8
0
 10
314.608002
 20
-193.813416
 11
368.607941
 21
-193.813416
  0
LINE
  8
0
 10
314.608002
 20
-169.813400
 11
350.607941
 21
-169.813400
  0
LINE
  8
0
 10
312.607941
 20
-192.217529
 11
313.608002
 21
-192.217529
  0
LINE
  8
0
 10
313.608002
 20
-192.813400
 11
314.608002
 21
-193.813400
  0
LINE
  8
0
 10
313.607941
 20
-170.813416
 11
314.607910
 21
-169.813446
  0
LINE
  8
0
 10
343.608002
 20
-169.813416
 11
343.608002
 21
-193.813416
  0
LINE
  8
0
 10
368.607941
 20
-142.813416
 11
368.607941
 21
-193.813416
  0
LINE
  8
0
 10
361.608002
 20
-142.813416
 11
368.607941
 21
-142.813416
  0
LINE
  8
0
 10
360.608002
 20
-143.813400
 11
360.608002
 21
-159.813416
  0
LINE
  8
0
 10
360.607910
 20
-143.813385
 11
361.607910
 21
-142.813385
  0
LINE
  8
0
 10
360.607910
 20
-159.813400
 11
350.607910
 21
-169.813416
  0
LINE
  8
0
 10
361.607971
 20
-160.227615
 11
351.022156
 21
-170.813400
  0
LINE
  8
0
 10
313.608002
 20
-170.813416
 11
351.022186
 21
-170.813416
  0
LINE
  8
0
 10
361.608002
 20
-142.813416
 11
361.608002
 21
-160.227615
  0
LINE
  8
0
 10
350.607971
 20
-169.813385
 11
351.022186
 21
-170.813385
  0
LINE
  8
0
 10
360.608002
 20
-159.813400
 11
361.607971
 21
-160.227600
  0
LINE
  8
0
 10
313.608002
 20
-192.813416
 11
368.607941
 21
-192.813416
  0
LINE
  8
0
 10
361.608002
 20
-145.813400
 11
368.607941
 21
-145.813400
  0
LINE
  8
0
 10
328.608002
 20
-166.222565
 11
328.608002
 21
-195.726486
  0
LINE
  8
0
 10
314.608002
 20
-169.813416
 11
314.608002
 21
-193.813416
  0
LINE
  8
0
 10
358.688629
 20
-150.813416
 11
370.387543
 21
-150.813416
  0
LINE
  8
0
 10
303.828522
 20
-181.813400
 11
370.215485
 21
-181.813400
  0
LINE
  8
0
 10
307.508026
 20
-178.313400
 11
307.508026
 21
-185.313416
  0
LINE
  8
0
 10
361.607971
 20
-145.813416
 11
360.607971
 21
-146.227631
  0
LINE
  8
0
 10
342.608002
 20
-169.813324
 11
343.608002
 21
-170.813324
  0
LINE
  8
0
 10
342.607971
 20
-193.813400
 11
343.608002
 21
-192.813385
  0
LINE
  8
0
 10
342.608002
 20
-169.813416
 11
342.608002
 21
-193.813416
  0
CIRCLE
  8
0
 10
328.608002
 20
-181.813400
 40
5.722500
  0
CIRCLE
  8
0
 10
328.608002
 20
-181.813400
 40
6.578500
  0
POINT
  8
0
 10
201.253403
 20
-77.554947
  0
POINT
  8
0
 10
223.253464
 20
-77.554947
  0
LINE
  8
0
 10
196.553391
 20
-92.554947
 11
196.553391
 21
-93.554947
  0
LINE
  8
0
 10
215.953415
 20
-92.554947
 11
215.953415
 21
-93.554947
  0
LINE
  8
0
 10
196.553391
 20
-92.554947
 11
222.253464
 21
-92.554947
  0
LINE
  8
0
 10
196.553391
 20
-93.554939
 11
215.953415
 21
-93.554939
  0
LINE
  8
0
 10
196.553391
 20
-93.554924
 11
199.151474
 21
-98.054939
  0
LINE
  8
0
 10
213.355286
 20
-98.054886
 11
215.953369
 21
-93.554871
  0
LINE
  8
0
 10
199.151474
 20
-98.054947
 11
213.355331
 21
-98.054947
  0
LINE
  8
0
 10
206.253403
 20
-33.148952
 11
206.253403
 21
-101.008354
  0
LINE
  8
0
 10
203.153427
 20
-99.054947
 11
209.353439
 21
-99.054947
  0
LINE
  8
0
 10
209.753403
 20
-98.054947
 11
209.753403
 21
-98.654938
  0
LINE
  8
0
 10
202.753403
 20
-98.054947
 11
202.753403
 21
-98.654938
  0
LINE
  8
0
 10
202.753433
 20
-98.654892
 11
203.153442
 21
-99.054901
  0
LINE
  8
0
 10
209.753418
 20
-98.654922
 11
209.353378
 21
-99.054962
  0
LINE
  8
0
 10
196.553391
 20
-62.554947
 11
202.253403
 21
-62.554947
  0
LINE
  8
0
 10
196.553391
 20
-37.554943
 11
215.953415
 21
-37.554943
  0
LINE
  8
0
 10
211.253403
 20
-62.554947
 11
211.253403
 21
-91.554939
  0
LINE
  8
0
 10
201.253403
 20
-62.554947
 11
201.253403
 21
-91.554939
  0
LINE
  8
0
 10
210.253403
 20
-62.554947
 11
222.253464
 21
-62.554947
  0
LINE
  8
0
 10
215.953415
 20
-37.554947
 11
215.953415
 21
-62.554947
  0
LINE
  8
0
 10
196.553391
 20
-37.554947
 11
196.553391
 21
-62.554947
  0
LINE
  8
0
 10
201.253448
 20
-91.554878
 11
202.253479
 21
-92.554901
  0
LINE
  8
0
 10
210.253387
 20
-92.554985
 11
211.253418
 21
-91.554962
  0
LINE
  8
0
 10
197.553452
 20
-45.554943
 11
197.553452
 21
-62.554947
  0
LINE
  8
0
 10
214.953415
 20
-45.554943
 11
214.953415
 21
-62.554947
  0
LINE
  8
0
 10
197.553452
 20
-45.554947
 11
214.953415
 21
-45.554947
  0
LINE
  8
0
 10
196.553391
 20
-44.554943
 11
215.953415
 21
-44.554943
  0
LINE
  8
0
 10
201.253403
 20
-91.554947
 11
223.253403
 21
-91.554947
  0
LINE
  8
0
 10
202.253403
 20
-62.554947
 11
202.253403
 21
-92.554947
  0
LINE
  8
0
 10
210.253403
 20
-62.554947
 11
210.253403
 21
-92.554947
  0
LINE
  8
0
 10
197.553421
 20
-45.554935
 11
196.553391
 21
-44.554916
  0
LINE
  8
0
 10
214.953522
 20
-45.554962
 11
215.953506
 21
-44.554977
  0
LINE
  8
0
 10
199.553391
 20
-37.554947
 11
199.553391
 21
-44.554943
  0
LINE
  8
0
 10
212.953476
 20
-37.554947
 11
212.953476
 21
-44.554943
  0
LINE
  8
0
 10
197.553452
 20
-55.554947
 11
214.953415
 21
-55.554947
  0
LINE
  8
0
 10
196.553452
 20
-55.122917
 11
197.553421
 21
-55.554901
  0
LINE
  8
0
 10
214.953445
 20
-55.554970
 11
215.953476
 21
-55.122955
  0
LINE
  8
0
 10
199.553558
 20
-44.554897
 11
199.967758
 21
-45.554886
  0
LINE
  8
0
 10
212.953430
 20
-44.554966
 11
212.539230
 21
-45.554970
  0
LINE
  8
0
 10
202.753403
 20
-98.654938
 11
209.753403
 21
-98.654938
  0
LINE
  8
0
 10
223.253464
 20
-63.554947
 11
223.253464
 21
-91.554939
  0
LINE
  8
0
 10
196.553391
 20
-77.554947
 11
227.683884
 21
-77.554947
  0
LINE
  8
0
 10
222.253464
 20
-92.554955
 11
223.253433
 21
-91.554970
  0
LINE
  8
0
 10
222.253387
 20
-62.554966
 11
223.253372
 21
-63.554947
  0
LINE
  8
0
 10
211.253387
 20
-63.555000
 11
212.253372
 21
-62.555019
  0
LINE
  8
0
 10
211.253357
 20
-91.554932
 11
212.253372
 21
-92.554962
  0
LINE
  8
0
 10
211.253403
 20
-63.554939
 11
223.253403
 21
-63.554939
  0
LINE
  8
0
 10
222.253403
 20
-62.554947
 11
222.253403
 21
-92.554947
  0
LINE
  8
0
 10
212.253403
 20
-92.554947
 11
212.253403
 21
-62.554947
  0
ENDSEC
  0
EOF
