  0
SECTION
  2
HEADER
  0
ENDSEC
  0
SECTION
  2
TABLES
  0
TABLE
  2
LTYPE
 70
     4
  0
LTYPE
  2
CONTINUOUS
 70
    64
  3
Solid line
 72
    65
 73
     0
 40
0.000000
  0
LTYPE
  2
DASHED
 70
    64
  3
__ __ __ __ __ __ __ __ __ __ __ __ __ __ __
 72
    65
 73
     2
 40
3.500000
 49
2.000000
 49
-1.500000
  0
LTYPE
  2
CENTER
 70
    64
  3
____ _ ____ _ ____ _ ____ _ ____ _ ____ _ ____
 72
    65
 73
     4
 40
17.500000
 49
13.000000
 49
-1.500000
 49
1.500000
 49
-1.500000
  0
LTYPE
  2
PHANTOM
 70
    64
  3
_____ _ _ _____ _ _ _____ _ _ _____ _ _ ____  
 72
    65
 73
     6
 40
15.500000
 49
8.000000
 49
-1.500000
 49
1.500000
 49
-1.500000
 49
1.500000
 49
-1.500000
  0
LTYPE
  2
DASHED1
 70
    64
  3
__ __ __ __ __ __ __ __ __ __ __ __ __ __ __
 72
    65
 73
     2
 40
1.500000
 49
1.000000
 49
-0.500000
  0
LTYPE
  2
DASHED2
 70
    64
  3
__ __ __ __ __ __ __ __ __ __ __ __ __ __ __
 72
    65
 73
     2
 40
3.500000
 49
2.500000
 49
-1.000000
  0
LTYPE
  2
DASHED3
 70
    64
  3
__ __ __ __ __ __ __ __ __ __ __ __ __ __ __
 72
    65
 73
     2
 40
6.000000
 49
4.000000
 49
-2.000000
  0
LTYPE
  2
DASHED4
 70
    64
  3
__ __ __ __ __ __ __ __ __ __ __ __ __ __ __
 72
    65
 73
     2
 40
12.000000
 49
10.000000
 49
-2.000000
  0
LTYPE
  2
DASHED5
 70
    64
  3
__ __ __ __ __ __ __ __ __ __ __ __ __ __ __
 72
    65
 73
     2
 40
17.000000
 49
15.000000
 49
-2.000000
  0
LTYPE
  2
DASHED6
 70
    64
  3
__ __ __ __ __ __ __ __ __ __ __ __ __ __ __
 72
    65
 73
     2
 40
29.000000
 49
27.000000
 49
-2.000000
  0
LTYPE
  2
PHANTOM1
 70
    64
  3
_____ _ _ _____ _ _ _____ _ _ _____ _ _ ____  
 72
    65
 73
     6
 40
31.000000
 49
25.000000
 49
-1.500000
 49
1.000000
 49
-1.000000
 49
1.000000
 49
-1.500000
  0
LTYPE
  2
PHANTOM2
 70
    64
  3
_____ _ _ _____ _ _ _____ _ _ _____ _ _ ____  
 72
    65
 73
     6
 40
36.000000
 49
27.000000
 49
-1.500000
 49
2.500000
 49
-1.000000
 49
2.500000
 49
-1.500000
  0
LTYPE
  2
PHANTOM3
 70
    64
  3
_____ _ _ _____ _ _ _____ _ _ _____ _ _ ____  
 72
    65
 73
     6
 40
78.000000
 49
64.000000
 49
-2.000000
 49
4.000000
 49
-2.000000
 49
4.000000
 49
-2.000000
  0
LTYPE
  2
CENTER1
 70
    64
  3
____ _ ____ _ ____ _ ____ _ ____ _ ____ _ ____
 72
    65
 73
     4
 40
19.000000
 49
14.000000
 49
-1.000000
 49
3.000000
 49
-1.000000
  0
LTYPE
  2
CENTER2
 70
    64
  3
____ _ ____ _ ____ _ ____ _ ____ _ ____ _ ____
 72
    65
 73
     4
 40
28.500000
 49
25.000000
 49
-1.000000
 49
1.500000
 49
-1.000000
  0
LTYPE
  2
CENTER3
 70
    64
  3
____ _ ____ _ ____ _ ____ _ ____ _ ____ _ ____
 72
    65
 73
     4
 40
31.500000
 49
27.000000
 49
-1.000000
 49
2.500000
 49
-1.000000
  0
LTYPE
  2
CENTER4
 70
    64
  3
____ _ ____ _ ____ _ ____ _ ____ _ ____ _ ____
 72
    65
 73
     4
 40
50.000000
 49
45.000000
 49
-1.000000
 49
3.000000
 49
-1.000000
  0
LTYPE
  2
CENTER5
 70
    64
  3
____ _ ____ _ ____ _ ____ _ ____ _ ____ _ ____
 72
    65
 73
     4
 40
100.000000
 49
92.000000
 49
-2.000000
 49
4.000000
 49
-2.000000
  0
LTYPE
  2
SBK1
 70
    64
  3
______ _ _ _ ______ _ _ _ ______ _ _ _ _____  
 72
    65
 73
     8
 40
60.500000
 49
45.000000
 49
-2.000000
 49
2.500000
 49
-2.000000
 49
2.500000
 49
-2.000000
 49
2.500000
 49
-2.000000
  0
LTYPE
  2
SBK2
 70
    64
  3
______ _ _ _ ______ _ _ _ ______ _ _ _ _____  
 72
    65
 73
     8
 40
84.000000
 49
64.000000
 49
-2.000000
 49
4.000000
 49
-2.000000
 49
4.000000
 49
-2.000000
 49
4.000000
 49
-2.000000
  0
LTYPE
  2
STCH
 70
    64
  3
__ __ __ __ __ __ __ __ __ __ __ __ __ __ __
 72
    65
 73
     2
 40
3.000000
 49
1.000000
 49
-2.000000
  0
LTYPE
  2
MTCH
 70
    64
  3
_____ _ _ _____ _ _ _____ _ _ _____ _ _ ____  
 72
    65
 73
     6
 40
80.000000
 49
66.000000
 49
-2.000000
 49
4.000000
 49
-2.000000
 49
4.000000
 49
-2.000000
  0
ENDTAB
  0
TABLE
  2
LAYER
 70
     1
  0
LAYER
  2
0
 70
     0
 62
     7
  6
CONTINUOUS
  0
ENDTAB
  0
TABLE
  2
STYLE
 70
     1
  0
STYLE
  2
STANDARD
 70
     0
 40
0.000000
 41
1.000000
 50
0.000000
 71
     0
 42
0.200000
  3
txt
  4
BIGFONT
  0
ENDTAB
  0
TABLE
  2
VIEW
 70
     0
  0
ENDTAB
  0
ENDSEC
  0
SECTION
  2
BLOCKS
  0
ENDSEC
  0
SECTION
  2
ENTITIES
  0
LINE
  8
0
 10
-420.500000
 20
297.000000
 11
420.500000
 21
297.000000
  0
LINE
  8
0
 10
-420.500000
 20
-297.000000
 11
420.500000
 21
-297.000000
  0
LINE
  8
0
 10
420.500000
 20
297.000000
 11
420.500000
 21
-297.000000
  0
LINE
  8
0
 10
-420.500000
 20
297.000000
 11
-420.500000
 21
-297.000000
  0
LINE
  8
0
 10
399.799988
 20
276.250000
 11
399.799988
 21
-276.750000
  0
LINE
  8
0
 10
-399.250000
 20
276.250000
 11
-399.250000
 21
-276.750000
  0
LINE
  8
0
 10
-399.250000
 20
276.250000
 11
399.799988
 21
276.250000
  0
LINE
  8
0
 10
-399.250000
 20
-276.750000
 11
399.799988
 21
-276.750000
  0
LINE
  8
0
 10
239.799988
 20
-251.750000
 11
399.799988
 21
-251.750000
  0
LINE
  8
0
 10
239.799988
 20
251.250000
 11
399.799988
 21
251.250000
  0
LINE
  8
0
 10
-399.250000
 20
251.250000
 11
-239.250000
 21
251.250000
  0
LINE
  8
0
 10
239.799988
 20
-251.750000
 11
239.799988
 21
-276.750000
  0
LINE
  8
0
 10
239.799988
 20
251.250000
 11
239.799988
 21
276.250000
  0
LINE
  8
0
 10
-239.250000
 20
276.250000
 11
-239.250000
 21
251.250000
  0
LINE
  8
0
 10
-132.899994
 20
-276.750000
 11
-132.899994
 21
276.250000
  0
LINE
  8
0
 10
133.450012
 20
-261.750000
 11
133.450012
 21
-12.750000
  0
LINE
  8
0
 10
-399.250000
 20
-12.750000
 11
399.799988
 21
-12.750000
  0
LINE
  8
0
 10
-399.250000
 20
2.250000
 11
399.799988
 21
2.250000
  0
LINE
  8
0
 10
-399.250000
 20
17.250000
 11
399.799988
 21
17.250000
  0
LINE
  8
0
 10
-399.250000
 20
-246.750000
 11
399.799988
 21
-246.750000
  0
LINE
  8
0
 10
133.450012
 20
2.250000
 11
133.450012
 21
276.250000
  0
LINE
  8
0
 10
-399.250000
 20
-261.750000
 11
239.799988
 21
-261.750000
  0
TEXT
  8
0
 10
-383.285309
 20
256.649994
 40
9.000000
  1
MODULE,ADAPTER
 50
0.000000
 41
1.052632
 51
0.000000
  7
STANDARD
  0
TEXT
  8
0
 10
242.014816
 20
-274.500000
 40
12.500000
  1
KOGANEI CORP.
 50
0.000000
 41
1.052632
 51
0.000000
  7
STANDARD
  0
TEXT
  8
0
 10
251.264664
 20
256.649994
 40
9.000000
  1
DATE: SEP ,1992
 50
0.000000
 41
1.052632
 51
0.000000
  7
STANDARD
  0
TEXT
  8
0
 10
-303.110321
 20
-12.350000
 40
9.000000
  1
F MODULE
 50
0.000000
 41
1.052632
 51
0.000000
  7
STANDARD
  0
TEXT
  8
0
 10
96.414703
 20
-12.350000
 40
9.000000
  1
T MODULE
 50
0.000000
 41
1.052632
 51
0.000000
  7
STANDARD
  0
TEXT
  8
0
 10
-289.610321
 20
2.650000
 40
9.000000
  1
8-15F
 50
0.000000
 41
1.052632
 51
0.000000
  7
STANDARD
  0
TEXT
  8
0
 10
-27.760319
 20
2.650000
 40
9.000000
  1
8-15T1
 50
0.000000
 41
1.052632
 51
0.000000
  7
STANDARD
  0
TEXT
  8
0
 10
234.089691
 20
2.650000
 40
9.000000
  1
8-15DT1
 50
0.000000
 41
1.052632
 51
0.000000
  7
STANDARD
  0
TEXT
  8
0
 10
91.914703
 20
-276.350006
 40
9.000000
  1
S ADAPTER
 50
0.000000
 41
1.052632
 51
0.000000
  7
STANDARD
  0
TEXT
  8
0
 10
-303.110321
 20
-276.350006
 40
9.000000
  1
D MODULE
 50
0.000000
 41
1.052632
 51
0.000000
  7
STANDARD
  0
TEXT
  8
0
 10
-289.610321
 20
-261.350006
 40
9.000000
  1
8-15D
 50
0.000000
 41
1.052632
 51
0.000000
  7
STANDARD
  0
TEXT
  8
0
 10
-27.760319
 20
-261.350006
 40
9.000000
  1
8-15S1
 50
0.000000
 41
1.052632
 51
0.000000
  7
STANDARD
  0
TEXT
  8
0
 10
154.089691
 20
-261.350006
 40
9.000000
  1
8-15DS1
 50
0.000000
 41
1.052632
 51
0.000000
  7
STANDARD
  0
POINT
  8
0
 10
-319.379822
 20
83.418396
  0
POINT
  8
0
 10
-306.679749
 20
83.418396
  0
LINE
  8
0
 10
-324.079834
 20
92.418396
 11
-306.679749
 21
92.418396
  0
LINE
  8
0
 10
-324.079834
 20
92.418396
 11
-324.079834
 21
74.418396
  0
LINE
  8
0
 10
-306.679749
 20
92.418396
 11
-306.679749
 21
74.418396
  0
LINE
  8
0
 10
-324.079834
 20
74.418396
 11
-306.679749
 21
74.418396
  0
LINE
  8
0
 10
-321.481689
 20
88.642441
 11
-321.481689
 21
78.194336
  0
LINE
  8
0
 10
-309.277893
 20
88.642441
 11
-309.277893
 21
78.194336
  0
LINE
  8
0
 10
-326.052795
 20
83.418396
 11
-303.865662
 21
83.418396
  0
LINE
  8
0
 10
-315.379822
 20
95.056747
 11
-315.379822
 21
71.069588
  0
LINE
  8
0
 10
-321.481750
 20
88.642441
 11
-309.277893
 21
88.642441
  0
LINE
  8
0
 10
-321.481750
 20
78.194336
 11
-309.277893
 21
78.194336
  0
LINE
  8
0
 10
-321.481873
 20
88.642403
 11
-324.079956
 21
92.418358
  0
LINE
  8
0
 10
-309.277863
 20
88.642456
 11
-306.679779
 21
92.418411
  0
LINE
  8
0
 10
-309.277802
 20
78.194366
 11
-306.679718
 21
74.418411
  0
LINE
  8
0
 10
-321.481750
 20
78.194382
 11
-324.079834
 21
74.418427
  0
LINE
  8
0
 10
-316.879822
 20
84.284424
 11
-316.879822
 21
82.552368
  0
LINE
  8
0
 10
-313.879761
 20
84.284424
 11
-313.879761
 21
82.552368
  0
LINE
  8
0
 10
-316.879822
 20
84.284447
 11
-315.379761
 21
85.150505
  0
LINE
  8
0
 10
-315.379822
 20
81.686363
 11
-313.879822
 21
82.552391
  0
LINE
  8
0
 10
-316.879883
 20
82.552361
 11
-315.379883
 21
81.686333
  0
LINE
  8
0
 10
-315.379913
 20
85.150414
 11
-313.879852
 21
84.284355
  0
LINE
  8
0
 10
-318.379822
 20
73.418396
 11
-312.379761
 21
73.418396
  0
LINE
  8
0
 10
-318.379822
 20
93.418396
 11
-312.379761
 21
93.418396
  0
LINE
  8
0
 10
-318.379730
 20
93.418350
 11
-319.379730
 21
92.418350
  0
LINE
  8
0
 10
-319.379730
 20
74.418419
 11
-318.379700
 21
73.418396
  0
LINE
  8
0
 10
-312.379822
 20
73.418373
 11
-311.379822
 21
74.418373
  0
LINE
  8
0
 10
-312.379791
 20
93.418442
 11
-311.379791
 21
92.418411
  0
CIRCLE
  8
0
 10
-315.379822
 20
83.418396
 40
4.000000
  0
CIRCLE
  8
0
 10
-315.379822
 20
83.418396
 40
3.500000
  0
CIRCLE
  8
0
 10
-315.379822
 20
83.418396
 40
3.100000
  0
CIRCLE
  8
0
 10
-315.379822
 20
83.418396
 40
1.732050
  0
POINT
  8
0
 10
-185.421356
 20
83.418396
  0
POINT
  8
0
 10
-167.921356
 20
83.418396
  0
LINE
  8
0
 10
-197.421356
 20
92.418396
 11
-197.421356
 21
74.418396
  0
LINE
  8
0
 10
-198.421356
 20
92.418396
 11
-198.421356
 21
74.418396
  0
LINE
  8
0
 10
-202.921417
 20
88.642441
 11
-202.921417
 21
78.194336
  0
LINE
  8
0
 10
-197.421356
 20
92.418396
 11
-198.421356
 21
92.418396
  0
LINE
  8
0
 10
-198.421356
 20
74.418396
 11
-172.421356
 21
74.418396
  0
LINE
  8
0
 10
-206.852814
 20
83.418396
 11
-165.278778
 21
83.418396
  0
LINE
  8
0
 10
-202.921356
 20
88.642403
 11
-198.421356
 21
92.418350
  0
LINE
  8
0
 10
-202.921356
 20
78.194397
 11
-198.421356
 21
74.418449
  0
LINE
  8
0
 10
-203.921356
 20
86.518402
 11
-203.921356
 21
80.318390
  0
LINE
  8
0
 10
-203.521393
 20
79.918396
 11
-202.921417
 21
79.918396
  0
LINE
  8
0
 10
-203.521393
 20
86.918396
 11
-202.921417
 21
86.918396
  0
LINE
  8
0
 10
-203.521347
 20
86.918381
 11
-203.921387
 21
86.518349
  0
LINE
  8
0
 10
-203.921371
 20
80.318420
 11
-203.521378
 21
79.918434
  0
LINE
  8
0
 10
-203.521393
 20
86.918396
 11
-203.521393
 21
79.918396
  0
LINE
  8
0
 10
-196.421356
 20
73.418396
 11
-174.421356
 21
73.418396
  0
LINE
  8
0
 10
-196.421356
 20
93.418396
 11
-174.421356
 21
93.418396
  0
LINE
  8
0
 10
-197.421356
 20
74.418457
 11
-196.421341
 21
73.418442
  0
LINE
  8
0
 10
-197.421341
 20
92.418350
 11
-196.421356
 21
93.418335
  0
LINE
  8
0
 10
-173.421356
 20
92.418396
 11
-173.421356
 21
74.418396
  0
LINE
  8
0
 10
-197.421356
 20
92.418396
 11
-172.421356
 21
92.418396
  0
LINE
  8
0
 10
-185.421356
 20
97.069580
 11
-185.421356
 21
70.069580
  0
LINE
  8
0
 10
-174.421356
 20
93.418442
 11
-173.421326
 21
92.418419
  0
LINE
  8
0
 10
-173.421402
 20
74.418419
 11
-174.421417
 21
73.418396
  0
LINE
  8
0
 10
-172.421356
 20
92.418396
 11
-172.421356
 21
74.418396
  0
LINE
  8
0
 10
-172.421341
 20
74.418327
 11
-167.921341
 21
78.194275
  0
LINE
  8
0
 10
-172.421356
 20
92.418434
 11
-167.921356
 21
88.642494
  0
LINE
  8
0
 10
-167.921356
 20
88.642441
 11
-167.921356
 21
78.194336
  0
LINE
  8
0
 10
-196.421356
 20
93.418396
 11
-196.421356
 21
73.418396
  0
POINT
  8
0
 10
-319.379822
 20
181.243317
  0
POINT
  8
0
 10
-311.379761
 20
181.243317
  0
LINE
  8
0
 10
-324.079834
 20
169.243317
 11
-306.679749
 21
169.243317
  0
LINE
  8
0
 10
-324.079834
 20
168.243301
 11
-306.679749
 21
168.243301
  0
LINE
  8
0
 10
-321.481750
 20
163.743317
 11
-309.277893
 21
163.743317
  0
LINE
  8
0
 10
-306.679749
 20
194.243317
 11
-306.679749
 21
193.243301
  0
LINE
  8
0
 10
-324.079834
 20
168.243271
 11
-321.481781
 21
163.743286
  0
LINE
  8
0
 10
-309.277954
 20
163.743332
 11
-306.679901
 21
168.243332
  0
LINE
  8
0
 10
-315.379822
 20
201.039520
 11
-315.379822
 21
160.536819
  0
LINE
  8
0
 10
-318.479797
 20
162.743317
 11
-312.279846
 21
162.743317
  0
LINE
  8
0
 10
-311.879822
 20
163.743317
 11
-311.879822
 21
163.143311
  0
LINE
  8
0
 10
-318.879761
 20
163.743317
 11
-318.879761
 21
163.143311
  0
LINE
  8
0
 10
-318.879761
 20
163.143326
 11
-318.479767
 21
162.743332
  0
LINE
  8
0
 10
-312.279755
 20
162.743256
 11
-311.879761
 21
163.143250
  0
LINE
  8
0
 10
-318.879822
 20
163.143311
 11
-311.879822
 21
163.143311
  0
LINE
  8
0
 10
-324.079834
 20
193.243301
 11
-306.679749
 21
193.243301
  0
LINE
  8
0
 10
-324.079834
 20
169.243317
 11
-324.079834
 21
168.243301
  0
LINE
  8
0
 10
-306.679749
 20
169.243317
 11
-306.679749
 21
168.243301
  0
LINE
  8
0
 10
-319.379822
 20
193.243301
 11
-319.379822
 21
170.243317
  0
LINE
  8
0
 10
-311.379761
 20
193.243301
 11
-311.379761
 21
170.243317
  0
LINE
  8
0
 10
-324.079834
 20
181.243317
 11
-307.931335
 21
181.243317
  0
LINE
  8
0
 10
-324.079834
 20
194.243301
 11
-306.679749
 21
194.243301
  0
LINE
  8
0
 10
-324.079834
 20
194.243317
 11
-324.079834
 21
193.243301
  0
LINE
  8
0
 10
-318.379822
 20
192.243317
 11
-318.379822
 21
169.243317
  0
LINE
  8
0
 10
-312.379761
 20
192.243317
 11
-312.379761
 21
169.243317
  0
LINE
  8
0
 10
-319.379822
 20
170.243317
 11
-311.379822
 21
170.243317
  0
LINE
  8
0
 10
-318.379822
 20
192.243301
 11
-312.379761
 21
192.243301
  0
LINE
  8
0
 10
-311.379761
 20
170.243195
 11
-312.379761
 21
169.243210
  0
LINE
  8
0
 10
-319.379730
 20
170.243378
 11
-318.379700
 21
169.243347
  0
LINE
  8
0
 10
-318.379852
 20
192.243332
 11
-319.379852
 21
193.243301
  0
LINE
  8
0
 10
-312.379761
 20
192.243286
 11
-311.379730
 21
193.243301
  0
LINE
  8
0
 10
-324.079773
 20
194.243301
 11
-321.481720
 21
198.743301
  0
LINE
  8
0
 10
-309.277924
 20
198.743317
 11
-306.679840
 21
194.243332
  0
LINE
  8
0
 10
-321.481750
 20
198.743317
 11
-309.277893
 21
198.743317
  0
POINT
  8
0
 10
-53.029816
 20
73.501480
  0
POINT
  8
0
 10
-14.029831
 20
73.501480
  0
LINE
  8
0
 10
-57.729828
 20
82.501465
 11
-14.029831
 21
82.501465
  0
LINE
  8
0
 10
-57.729828
 20
82.501465
 11
-57.729828
 21
64.501480
  0
LINE
  8
0
 10
-40.329834
 20
82.501465
 11
-40.329834
 21
64.501480
  0
LINE
  8
0
 10
-57.729828
 20
64.501480
 11
-14.029831
 21
64.501480
  0
LINE
  8
0
 10
-55.131760
 20
78.725525
 11
-55.131760
 21
68.277420
  0
LINE
  8
0
 10
-42.927902
 20
78.725525
 11
-42.927902
 21
68.277420
  0
LINE
  8
0
 10
-59.702789
 20
73.501480
 11
-10.396500
 21
73.501480
  0
LINE
  8
0
 10
-49.029816
 20
85.139832
 11
-49.029816
 21
61.152664
  0
LINE
  8
0
 10
-55.131760
 20
78.725525
 11
-42.927917
 21
78.725525
  0
LINE
  8
0
 10
-55.131760
 20
68.277420
 11
-42.927917
 21
68.277420
  0
LINE
  8
0
 10
-55.131821
 20
78.725494
 11
-57.729897
 21
82.501434
  0
LINE
  8
0
 10
-42.927914
 20
78.725540
 11
-40.329845
 21
82.501472
  0
LINE
  8
0
 10
-42.927887
 20
68.277412
 11
-40.329803
 21
64.501457
  0
LINE
  8
0
 10
-55.131760
 20
68.277435
 11
-57.729824
 21
64.501503
  0
LINE
  8
0
 10
-50.529831
 20
74.367508
 11
-50.529831
 21
72.635437
  0
LINE
  8
0
 10
-47.529831
 20
74.367508
 11
-47.529831
 21
72.635468
  0
LINE
  8
0
 10
-50.529865
 20
74.367485
 11
-49.029861
 21
75.233513
  0
LINE
  8
0
 10
-49.029804
 20
71.769432
 11
-47.529800
 21
72.635460
  0
LINE
  8
0
 10
-50.529819
 20
72.635429
 11
-49.029823
 21
71.769409
  0
LINE
  8
0
 10
-49.029827
 20
75.233528
 11
-47.529823
 21
74.367500
  0
LINE
  8
0
 10
-52.029831
 20
63.501480
 11
-46.029831
 21
63.501480
  0
LINE
  8
0
 10
-52.029831
 20
83.501480
 11
-46.029831
 21
83.501480
  0
LINE
  8
0
 10
-52.029808
 20
83.501472
 11
-53.029808
 21
82.501472
  0
LINE
  8
0
 10
-53.029816
 20
64.501495
 11
-52.029812
 21
63.501492
  0
LINE
  8
0
 10
-46.029823
 20
63.501480
 11
-45.029823
 21
64.501480
  0
LINE
  8
0
 10
-46.029808
 20
83.501488
 11
-45.029808
 21
82.501488
  0
LINE
  8
0
 10
-14.029831
 20
82.501465
 11
-14.029831
 21
64.501480
  0
LINE
  8
0
 10
-44.029816
 20
83.501480
 11
-15.029831
 21
83.501480
  0
LINE
  8
0
 10
-44.029816
 20
63.501480
 11
-15.029831
 21
63.501480
  0
LINE
  8
0
 10
-15.029823
 20
63.501476
 11
-14.029819
 21
64.501480
  0
LINE
  8
0
 10
-15.029804
 20
83.501518
 11
-14.029804
 21
82.501511
  0
LINE
  8
0
 10
-45.029835
 20
64.501465
 11
-44.029827
 21
63.501457
  0
LINE
  8
0
 10
-45.029839
 20
82.501457
 11
-44.029835
 21
83.501457
  0
LINE
  8
0
 10
-15.029831
 20
83.501465
 11
-15.029831
 21
63.501465
  0
LINE
  8
0
 10
-44.029816
 20
83.501465
 11
-44.029816
 21
82.501465
  0
LINE
  8
0
 10
-44.029816
 20
63.501465
 11
-44.029816
 21
64.501480
  0
LINE
  8
0
 10
-32.029831
 20
94.578171
 11
-32.029831
 21
80.542770
  0
LINE
  8
0
 10
-42.029831
 20
89.501480
 11
-42.029831
 21
83.501465
  0
LINE
  8
0
 10
-22.029816
 20
89.501480
 11
-22.029816
 21
83.501465
  0
LINE
  8
0
 10
-41.029831
 20
90.501480
 11
-23.029831
 21
90.501480
  0
LINE
  8
0
 10
-42.029827
 20
89.501457
 11
-41.029804
 21
90.501480
  0
LINE
  8
0
 10
-23.029821
 20
90.501472
 11
-22.029821
 21
89.501472
  0
LINE
  8
0
 10
-42.029831
 20
89.501480
 11
-22.029831
 21
89.501480
  0
LINE
  8
0
 10
-16.029831
 20
80.501480
 11
-16.029831
 21
66.501480
  0
LINE
  8
0
 10
-19.029831
 20
80.501480
 11
-19.029831
 21
66.501480
  0
LINE
  8
0
 10
-19.029831
 20
80.501480
 11
-16.029831
 21
80.501480
  0
LINE
  8
0
 10
-19.029831
 20
66.501480
 11
-16.029831
 21
66.501480
  0
LINE
  8
0
 10
-18.953003
 20
80.424652
 11
-18.953003
 21
66.578293
  0
LINE
  8
0
 10
-16.417740
 20
80.424652
 11
-16.417740
 21
66.578293
  0
LINE
  8
0
 10
-18.953003
 20
80.424652
 11
-16.417755
 21
80.424652
  0
LINE
  8
0
 10
-18.953003
 20
66.578293
 11
-16.417755
 21
66.578293
  0
LINE
  8
0
 10
-16.417744
 20
66.578270
 11
-16.029831
 21
66.501442
  0
LINE
  8
0
 10
-18.952980
 20
66.578300
 11
-19.029823
 21
66.501457
  0
LINE
  8
0
 10
-19.029831
 20
80.501480
 11
-16.029831
 21
80.501480
  0
LINE
  8
0
 10
-19.029827
 20
80.501472
 11
-18.953007
 21
80.424652
  0
LINE
  8
0
 10
-16.417728
 20
80.424652
 11
-16.029800
 21
80.501480
  0
CIRCLE
  8
0
 10
-49.029816
 20
73.501480
 40
4.000000
  0
CIRCLE
  8
0
 10
-49.029816
 20
73.501480
 40
3.500000
  0
CIRCLE
  8
0
 10
-49.029816
 20
73.501480
 40
3.100000
  0
CIRCLE
  8
0
 10
-49.029816
 20
73.501480
 40
1.732050
  0
POINT
  8
0
 10
80.928650
 20
73.501480
  0
POINT
  8
0
 10
98.428650
 20
73.501480
  0
LINE
  8
0
 10
68.928642
 20
82.501465
 11
68.928642
 21
64.501480
  0
LINE
  8
0
 10
67.928635
 20
82.501465
 11
67.928635
 21
64.501480
  0
LINE
  8
0
 10
63.428635
 20
78.725525
 11
63.428635
 21
68.277420
  0
LINE
  8
0
 10
68.928635
 20
82.501465
 11
67.928635
 21
82.501465
  0
LINE
  8
0
 10
67.928635
 20
64.501480
 11
93.928635
 21
64.501480
  0
LINE
  8
0
 10
59.497223
 20
73.501480
 11
101.071220
 21
73.501480
  0
LINE
  8
0
 10
63.428638
 20
78.725525
 11
67.928635
 21
82.501472
  0
LINE
  8
0
 10
63.428642
 20
68.277451
 11
67.928642
 21
64.501503
  0
LINE
  8
0
 10
62.428642
 20
76.601486
 11
62.428642
 21
70.401474
  0
LINE
  8
0
 10
62.828644
 20
70.001465
 11
63.428635
 21
70.001465
  0
LINE
  8
0
 10
62.828644
 20
77.001480
 11
63.428635
 21
77.001480
  0
LINE
  8
0
 10
62.828644
 20
77.001511
 11
62.428638
 21
76.601501
  0
LINE
  8
0
 10
62.428635
 20
70.401466
 11
62.828636
 21
70.001465
  0
LINE
  8
0
 10
62.828644
 20
77.001480
 11
62.828644
 21
70.001465
  0
LINE
  8
0
 10
69.928642
 20
63.501480
 11
91.928642
 21
63.501480
  0
LINE
  8
0
 10
69.928642
 20
83.501480
 11
91.928642
 21
83.501480
  0
LINE
  8
0
 10
68.928642
 20
64.501488
 11
69.928642
 21
63.501488
  0
LINE
  8
0
 10
68.928635
 20
82.501465
 11
69.928650
 21
83.501480
  0
LINE
  8
0
 10
92.928635
 20
82.501495
 11
92.928635
 21
64.501480
  0
LINE
  8
0
 10
68.928635
 20
82.501465
 11
93.928635
 21
82.501465
  0
LINE
  8
0
 10
80.928650
 20
92.277283
 11
80.928650
 21
60.152664
  0
LINE
  8
0
 10
91.928650
 20
83.501472
 11
92.928650
 21
82.501472
  0
LINE
  8
0
 10
92.928650
 20
64.501480
 11
91.928642
 21
63.501472
  0
LINE
  8
0
 10
93.928642
 20
82.501495
 11
93.928642
 21
64.501480
  0
LINE
  8
0
 10
93.928627
 20
64.501488
 11
98.428619
 21
68.277435
  0
LINE
  8
0
 10
93.928650
 20
82.501488
 11
98.428650
 21
78.725540
  0
LINE
  8
0
 10
98.428650
 20
78.725525
 11
98.428650
 21
68.277420
  0
LINE
  8
0
 10
69.928642
 20
83.501465
 11
69.928642
 21
63.501465
  0
LINE
  8
0
 10
91.928642
 20
83.501465
 11
91.928642
 21
63.501465
  0
LINE
  8
0
 10
71.928642
 20
90.501480
 11
89.928635
 21
90.501480
  0
LINE
  8
0
 10
70.928650
 20
89.501480
 11
70.928650
 21
83.501465
  0
LINE
  8
0
 10
90.928650
 20
89.501480
 11
90.928650
 21
83.501465
  0
LINE
  8
0
 10
70.928642
 20
89.501472
 11
71.928658
 21
90.501480
  0
LINE
  8
0
 10
90.928642
 20
89.501480
 11
89.928642
 21
90.501480
  0
LINE
  8
0
 10
70.928635
 20
89.501480
 11
90.928635
 21
89.501480
  0
CIRCLE
  8
0
 10
80.928650
 20
73.501480
 40
4.283000
  0
CIRCLE
  8
0
 10
80.928650
 20
73.501480
 40
4.864000
  0
CIRCLE
  8
0
 10
80.928650
 20
73.501480
 40
8.000000
  0
POINT
  8
0
 10
-53.029816
 20
172.207718
  0
POINT
  8
0
 10
-14.029816
 20
172.207718
  0
LINE
  8
0
 10
-57.729813
 20
160.207718
 11
-15.029816
 21
160.207718
  0
LINE
  8
0
 10
-57.729813
 20
159.207718
 11
-40.329819
 21
159.207718
  0
LINE
  8
0
 10
-55.131744
 20
154.707718
 11
-42.927902
 21
154.707718
  0
LINE
  8
0
 10
-40.329819
 20
185.207718
 11
-40.329819
 21
184.207718
  0
LINE
  8
0
 10
-57.729828
 20
159.207703
 11
-55.131752
 21
154.707703
  0
LINE
  8
0
 10
-42.927895
 20
154.707733
 11
-40.329819
 21
159.207733
  0
LINE
  8
0
 10
-49.029800
 20
192.003937
 11
-49.029800
 21
151.501221
  0
LINE
  8
0
 10
-52.129822
 20
153.707718
 11
-45.929810
 21
153.707718
  0
LINE
  8
0
 10
-45.529816
 20
154.707718
 11
-45.529816
 21
154.107727
  0
LINE
  8
0
 10
-52.529816
 20
154.707718
 11
-52.529816
 21
154.107727
  0
LINE
  8
0
 10
-52.529789
 20
154.107758
 11
-52.129784
 21
153.707764
  0
LINE
  8
0
 10
-45.929832
 20
153.707703
 11
-45.529827
 21
154.107697
  0
LINE
  8
0
 10
-52.529816
 20
154.107727
 11
-45.529831
 21
154.107727
  0
LINE
  8
0
 10
-57.729813
 20
184.207718
 11
-15.029816
 21
184.207718
  0
LINE
  8
0
 10
-57.729813
 20
160.207718
 11
-57.729813
 21
159.207718
  0
LINE
  8
0
 10
-40.329819
 20
160.207718
 11
-40.329819
 21
159.207718
  0
LINE
  8
0
 10
-53.029816
 20
184.207718
 11
-53.029816
 21
161.207718
  0
LINE
  8
0
 10
-45.029816
 20
184.207718
 11
-45.029816
 21
161.207718
  0
LINE
  8
0
 10
-57.729813
 20
172.207718
 11
-9.826172
 21
172.207718
  0
LINE
  8
0
 10
-57.729813
 20
185.207733
 11
-40.329819
 21
185.207733
  0
LINE
  8
0
 10
-57.729813
 20
185.207718
 11
-57.729813
 21
184.207718
  0
LINE
  8
0
 10
-52.029816
 20
183.207718
 11
-52.029816
 21
160.207718
  0
LINE
  8
0
 10
-46.029816
 20
183.207718
 11
-46.029816
 21
160.207718
  0
LINE
  8
0
 10
-53.029831
 20
161.207718
 11
-14.029816
 21
161.207718
  0
LINE
  8
0
 10
-52.029816
 20
183.207718
 11
-46.029816
 21
183.207718
  0
LINE
  8
0
 10
-45.029762
 20
161.207687
 11
-46.029762
 21
160.207687
  0
LINE
  8
0
 10
-53.029816
 20
161.207703
 11
-52.029816
 21
160.207703
  0
LINE
  8
0
 10
-52.029812
 20
183.207733
 11
-53.029816
 21
184.207733
  0
LINE
  8
0
 10
-46.029816
 20
183.207733
 11
-45.029812
 21
184.207733
  0
LINE
  8
0
 10
-57.729828
 20
185.207733
 11
-55.131752
 21
189.707733
  0
LINE
  8
0
 10
-42.927891
 20
189.707703
 11
-40.329815
 21
185.207703
  0
LINE
  8
0
 10
-55.131744
 20
189.707718
 11
-42.927902
 21
189.707718
  0
LINE
  8
0
 10
-14.029816
 20
183.207718
 11
-14.029816
 21
161.207718
  0
LINE
  8
0
 10
-15.029816
 20
184.207733
 11
-14.029816
 21
183.207733
  0
LINE
  8
0
 10
-14.029804
 20
161.207703
 11
-15.029808
 21
160.207703
  0
LINE
  8
0
 10
-44.029808
 20
160.207733
 11
-45.029808
 21
161.207733
  0
LINE
  8
0
 10
-45.029785
 20
183.207718
 11
-44.029774
 21
184.207733
  0
LINE
  8
0
 10
-45.029816
 20
183.207718
 11
-14.029816
 21
183.207718
  0
LINE
  8
0
 10
-44.029800
 20
184.207718
 11
-44.029800
 21
160.207718
  0
LINE
  8
0
 10
-15.029816
 20
160.207718
 11
-15.029816
 21
184.207718
  0
LINE
  8
0
 10
-32.029816
 20
185.488937
 11
-32.029816
 21
158.316864
  0
CIRCLE
  8
0
 10
-32.029816
 20
172.207718
 40
10.000000
  0
CIRCLE
  8
0
 10
-32.029816
 20
172.207718
 40
9.000000
  0
CIRCLE
  8
0
 10
-32.029816
 20
172.207718
 40
5.722500
  0
CIRCLE
  8
0
 10
-32.029816
 20
172.207718
 40
6.578500
  0
POINT
  8
0
 10
204.320190
 20
75.501480
  0
POINT
  8
0
 10
243.320190
 20
75.501480
  0
LINE
  8
0
 10
199.620117
 20
84.501511
 11
243.320190
 21
84.501511
  0
LINE
  8
0
 10
199.620117
 20
111.501511
 11
199.620117
 21
65.501480
  0
LINE
  8
0
 10
217.020142
 20
111.501511
 11
217.020142
 21
92.501480
  0
LINE
  8
0
 10
199.620117
 20
66.501480
 11
243.320190
 21
66.501480
  0
LINE
  8
0
 10
202.218201
 20
80.725510
 11
202.218201
 21
70.277451
  0
LINE
  8
0
 10
214.422058
 20
80.725510
 11
214.422058
 21
70.277451
  0
LINE
  8
0
 10
196.389771
 20
75.501480
 11
246.135254
 21
75.501480
  0
LINE
  8
0
 10
208.320190
 20
116.652695
 11
208.320190
 21
63.152695
  0
LINE
  8
0
 10
202.218140
 20
80.725510
 11
214.422058
 21
80.725510
  0
LINE
  8
0
 10
202.218140
 20
70.277451
 11
214.422058
 21
70.277451
  0
LINE
  8
0
 10
202.218109
 20
80.725395
 11
199.620041
 21
84.501343
  0
LINE
  8
0
 10
214.421997
 20
80.725540
 11
217.020081
 21
84.501495
  0
LINE
  8
0
 10
214.422073
 20
70.277428
 11
217.020142
 21
66.501480
  0
LINE
  8
0
 10
202.218246
 20
70.277504
 11
199.620163
 21
66.501549
  0
LINE
  8
0
 10
206.820129
 20
76.367477
 11
206.820129
 21
74.635483
  0
LINE
  8
0
 10
209.820129
 20
76.367477
 11
209.820129
 21
74.635483
  0
LINE
  8
0
 10
206.820068
 20
76.367477
 11
208.320084
 21
77.233505
  0
LINE
  8
0
 10
208.320068
 20
73.769402
 11
209.820084
 21
74.635429
  0
LINE
  8
0
 10
206.820114
 20
74.635399
 11
208.320114
 21
73.769371
  0
LINE
  8
0
 10
208.320160
 20
77.233551
 11
209.820160
 21
76.367523
  0
LINE
  8
0
 10
200.620117
 20
85.501480
 11
242.320068
 21
85.501480
  0
LINE
  8
0
 10
199.620117
 20
65.501480
 11
242.320068
 21
65.501480
  0
LINE
  8
0
 10
202.620117
 20
114.501511
 11
214.020142
 21
114.501511
  0
LINE
  8
0
 10
199.620132
 20
111.501366
 11
202.620117
 21
114.501350
  0
LINE
  8
0
 10
214.020142
 20
114.501495
 11
217.020142
 21
111.501495
  0
LINE
  8
0
 10
200.620178
 20
85.501495
 11
199.620193
 21
84.501511
  0
LINE
  8
0
 10
200.620117
 20
111.087265
 11
200.620117
 21
85.501480
  0
LINE
  8
0
 10
216.020142
 20
111.087265
 11
216.020142
 21
92.201492
  0
LINE
  8
0
 10
200.620178
 20
111.087296
 11
203.034332
 21
113.501450
  0
LINE
  8
0
 10
203.034363
 20
113.501480
 11
213.605896
 21
113.501480
  0
LINE
  8
0
 10
213.605835
 20
113.501389
 11
216.020035
 21
111.087181
  0
LINE
  8
0
 10
199.620193
 20
111.501518
 11
200.620163
 21
111.087318
  0
LINE
  8
0
 10
202.620117
 20
114.501465
 11
203.034332
 21
113.501472
  0
LINE
  8
0
 10
214.020142
 20
114.501419
 11
213.605942
 21
113.501411
  0
LINE
  8
0
 10
217.020050
 20
111.501442
 11
216.020111
 21
111.087234
  0
LINE
  8
0
 10
202.620117
 20
106.501480
 11
214.020142
 21
106.501480
  0
LINE
  8
0
 10
200.620087
 20
97.501419
 11
199.620117
 21
97.137451
  0
LINE
  8
0
 10
216.020126
 20
97.501434
 11
217.020126
 21
97.137466
  0
LINE
  8
0
 10
216.020142
 20
97.501480
 11
200.620117
 21
97.501480
  0
LINE
  8
0
 10
243.320190
 20
84.501511
 11
243.320190
 21
66.501450
  0
LINE
  8
0
 10
242.320160
 20
65.501465
 11
243.320129
 21
66.501450
  0
LINE
  8
0
 10
242.320221
 20
85.501587
 11
243.320221
 21
84.501587
  0
LINE
  8
0
 10
242.320129
 20
85.501480
 11
242.320129
 21
65.501480
  0
LINE
  8
0
 10
225.320129
 20
94.501511
 11
225.320129
 21
83.019577
  0
LINE
  8
0
 10
235.320129
 20
91.501511
 11
235.320129
 21
85.501480
  0
LINE
  8
0
 10
215.320129
 20
91.501511
 11
215.320129
 21
85.501480
  0
LINE
  8
0
 10
216.320129
 20
92.501480
 11
234.320129
 21
92.501480
  0
LINE
  8
0
 10
215.320190
 20
91.501472
 11
216.320160
 21
92.501450
  0
LINE
  8
0
 10
234.320160
 20
92.501526
 11
235.320175
 21
91.501511
  0
LINE
  8
0
 10
215.320129
 20
91.501480
 11
235.320129
 21
91.501480
  0
LINE
  8
0
 10
217.020142
 20
84.501511
 11
217.020142
 21
66.501450
  0
LINE
  8
0
 10
212.320114
 20
84.501549
 11
213.320099
 21
85.501526
  0
LINE
  8
0
 10
212.320145
 20
66.501511
 11
213.320145
 21
65.501503
  0
LINE
  8
0
 10
241.320129
 20
82.501480
 11
241.320129
 21
68.501480
  0
LINE
  8
0
 10
238.320190
 20
82.501480
 11
238.320190
 21
68.501480
  0
LINE
  8
0
 10
238.320190
 20
68.501480
 11
241.320129
 21
68.501480
  0
LINE
  8
0
 10
238.320190
 20
82.501480
 11
241.320129
 21
82.501480
  0
LINE
  8
0
 10
238.396973
 20
82.424667
 11
238.396973
 21
68.578293
  0
LINE
  8
0
 10
240.932251
 20
82.424667
 11
240.932251
 21
68.578293
  0
LINE
  8
0
 10
238.396973
 20
82.424667
 11
240.932251
 21
82.424667
  0
LINE
  8
0
 10
238.396973
 20
68.578293
 11
240.932251
 21
68.578293
  0
LINE
  8
0
 10
238.320160
 20
82.501503
 11
238.396973
 21
82.424683
  0
LINE
  8
0
 10
238.320129
 20
68.501534
 11
238.396957
 21
68.578354
  0
LINE
  8
0
 10
240.932190
 20
68.578217
 11
241.320114
 21
68.501389
  0
LINE
  8
0
 10
240.932205
 20
82.424721
 11
241.320114
 21
82.501549
  0
CIRCLE
  8
0
 10
208.320190
 20
75.501480
 40
4.000000
  0
CIRCLE
  8
0
 10
208.320190
 20
75.501480
 40
3.500000
  0
CIRCLE
  8
0
 10
208.320190
 20
75.501480
 40
3.100000
  0
CIRCLE
  8
0
 10
208.320190
 20
75.501480
 40
1.732050
  0
CIRCLE
  8
0
 10
208.320190
 20
106.501480
 40
4.000000
  0
POINT
  8
0
 10
338.278656
 20
75.501480
  0
POINT
  8
0
 10
370.278595
 20
75.501480
  0
LINE
  8
0
 10
326.278656
 20
84.501511
 11
326.278656
 21
66.501450
  0
LINE
  8
0
 10
325.278595
 20
84.501511
 11
325.278595
 21
66.501450
  0
LINE
  8
0
 10
320.778656
 20
80.725510
 11
320.778656
 21
70.277451
  0
LINE
  8
0
 10
326.278595
 20
84.501511
 11
325.278595
 21
84.501511
  0
LINE
  8
0
 10
325.278595
 20
66.501480
 11
350.278595
 21
66.501480
  0
LINE
  8
0
 10
316.847198
 20
75.501480
 11
373.775116
 21
75.501480
  0
LINE
  8
0
 10
320.778534
 20
80.725502
 11
325.278534
 21
84.501450
  0
LINE
  8
0
 10
320.778656
 20
70.277496
 11
325.278656
 21
66.501549
  0
LINE
  8
0
 10
319.778595
 20
78.601486
 11
319.778595
 21
72.401474
  0
LINE
  8
0
 10
320.178619
 20
72.001511
 11
320.778595
 21
72.001511
  0
LINE
  8
0
 10
320.178619
 20
79.001480
 11
320.778595
 21
79.001480
  0
LINE
  8
0
 10
320.178589
 20
79.001472
 11
319.778625
 21
78.601517
  0
LINE
  8
0
 10
319.778687
 20
72.401520
 11
320.178650
 21
72.001526
  0
LINE
  8
0
 10
320.178619
 20
79.001511
 11
320.178619
 21
72.001511
  0
LINE
  8
0
 10
327.278595
 20
65.501480
 11
370.278595
 21
65.501480
  0
LINE
  8
0
 10
327.278595
 20
85.501480
 11
354.209381
 21
85.501480
  0
LINE
  8
0
 10
326.278656
 20
66.501541
 11
327.278656
 21
65.501534
  0
LINE
  8
0
 10
326.278595
 20
84.501480
 11
327.278595
 21
85.501511
  0
LINE
  8
0
 10
350.278595
 20
85.501480
 11
350.278595
 21
65.501480
  0
LINE
  8
0
 10
370.278595
 20
114.501511
 11
370.278595
 21
65.501480
  0
LINE
  8
0
 10
365.278595
 20
114.501511
 11
370.278595
 21
114.501511
  0
LINE
  8
0
 10
364.278595
 20
113.501480
 11
364.278595
 21
97.501480
  0
LINE
  8
0
 10
365.278534
 20
114.501450
 11
364.278564
 21
113.501465
  0
LINE
  8
0
 10
365.278595
 20
111.501480
 11
370.278595
 21
111.501480
  0
LINE
  8
0
 10
354.209412
 20
85.501434
 11
364.278656
 21
97.501457
  0
LINE
  8
0
 10
326.278595
 20
84.501511
 11
354.675690
 21
84.501511
  0
LINE
  8
0
 10
354.675659
 20
84.501488
 11
365.278564
 21
97.137527
  0
LINE
  8
0
 10
365.278595
 20
114.501511
 11
365.278595
 21
97.137527
  0
LINE
  8
0
 10
354.209412
 20
85.501541
 11
354.675720
 21
84.501541
  0
LINE
  8
0
 10
364.278534
 20
97.501518
 11
365.278564
 21
97.137535
  0
LINE
  8
0
 10
365.278687
 20
111.501511
 11
364.278625
 21
111.087273
  0
LINE
  8
0
 10
361.691803
 20
106.501480
 11
373.358429
 21
106.501480
  0
LINE
  8
0
 10
338.278656
 20
94.394302
 11
338.278656
 21
62.152664
  0
LINE
  8
0
 10
327.278595
 20
85.501480
 11
327.278595
 21
65.501480
  0
LINE
  8
0
 10
349.278656
 20
85.501488
 11
350.278625
 21
84.501495
  0
LINE
  8
0
 10
349.278625
 20
65.501488
 11
350.278656
 21
66.501511
  0
LINE
  8
0
 10
349.278595
 20
65.501480
 11
349.278595
 21
85.501480
  0
LINE
  8
0
 10
329.278595
 20
92.501480
 11
347.278595
 21
92.501480
  0
LINE
  8
0
 10
328.278656
 20
91.501511
 11
328.278656
 21
85.501480
  0
LINE
  8
0
 10
348.278656
 20
91.501450
 11
348.278656
 21
85.501480
  0
LINE
  8
0
 10
328.278625
 20
91.501511
 11
329.278595
 21
92.501495
  0
LINE
  8
0
 10
347.278625
 20
92.501526
 11
348.278625
 21
91.501526
  0
LINE
  8
0
 10
328.278595
 20
91.501480
 11
348.278595
 21
91.501480
  0
CIRCLE
  8
0
 10
338.278656
 20
75.501480
 40
4.283000
  0
CIRCLE
  8
0
 10
338.278656
 20
75.501480
 40
4.864000
  0
CIRCLE
  8
0
 10
338.278656
 20
75.501480
 40
8.000000
  0
POINT
  8
0
 10
204.320190
 20
174.207718
  0
POINT
  8
0
 10
243.320267
 20
174.207718
  0
LINE
  8
0
 10
199.620178
 20
162.207687
 11
242.320129
 21
162.207687
  0
LINE
  8
0
 10
199.620178
 20
161.207687
 11
217.020203
 21
161.207687
  0
LINE
  8
0
 10
202.218201
 20
156.707657
 11
214.422119
 21
156.707657
  0
LINE
  8
0
 10
199.620178
 20
206.207687
 11
199.620178
 21
186.207687
  0
LINE
  8
0
 10
217.020203
 20
206.207687
 11
217.020203
 21
186.207687
  0
LINE
  8
0
 10
199.620209
 20
161.207703
 11
202.218292
 21
156.707703
  0
LINE
  8
0
 10
214.422058
 20
156.707733
 11
217.020142
 21
161.207748
  0
LINE
  8
0
 10
208.320190
 20
208.692215
 11
208.320190
 21
153.501175
  0
LINE
  8
0
 10
205.220154
 20
155.707687
 11
211.420227
 21
155.707687
  0
LINE
  8
0
 10
211.820190
 20
156.707657
 11
211.820190
 21
156.107681
  0
LINE
  8
0
 10
204.820190
 20
156.707657
 11
204.820190
 21
156.107681
  0
LINE
  8
0
 10
204.820206
 20
156.107681
 11
205.220200
 21
155.707687
  0
LINE
  8
0
 10
211.420212
 20
155.707672
 11
211.820251
 21
156.107697
  0
LINE
  8
0
 10
204.820129
 20
156.107681
 11
211.820190
 21
156.107681
  0
LINE
  8
0
 10
199.620178
 20
206.207687
 11
217.020203
 21
206.207687
  0
LINE
  8
0
 10
200.620178
 20
200.207687
 11
216.020203
 21
200.207687
  0
LINE
  8
0
 10
199.620178
 20
201.207687
 11
217.020203
 21
201.207687
  0
LINE
  8
0
 10
199.620178
 20
186.207687
 11
204.320190
 21
186.207687
  0
LINE
  8
0
 10
212.320129
 20
186.207687
 11
242.320129
 21
186.207687
  0
LINE
  8
0
 10
199.620178
 20
162.207687
 11
199.620178
 21
161.207687
  0
LINE
  8
0
 10
217.020203
 20
162.207687
 11
217.020203
 21
161.207687
  0
LINE
  8
0
 10
204.320190
 20
186.207687
 11
204.320190
 21
162.207687
  0
LINE
  8
0
 10
212.320190
 20
186.207687
 11
212.320190
 21
162.207687
  0
LINE
  8
0
 10
200.620178
 20
190.138687
 11
216.020203
 21
190.138687
  0
LINE
  8
0
 10
200.620178
 20
200.207687
 11
200.620178
 21
186.207687
  0
LINE
  8
0
 10
216.020203
 20
200.207687
 11
216.020203
 21
186.207687
  0
LINE
  8
0
 10
200.620193
 20
200.207672
 11
199.620193
 21
201.207672
  0
LINE
  8
0
 10
216.020279
 20
200.207733
 11
217.020294
 21
201.207748
  0
LINE
  8
0
 10
202.620239
 20
206.207687
 11
202.620239
 21
201.207687
  0
LINE
  8
0
 10
214.020203
 20
206.207687
 11
214.020203
 21
201.207687
  0
LINE
  8
0
 10
202.620239
 20
201.207703
 11
203.034454
 21
200.207703
  0
LINE
  8
0
 10
214.020203
 20
201.207672
 11
213.605988
 21
200.207672
  0
LINE
  8
0
 10
199.620209
 20
190.604721
 11
200.620224
 21
190.138702
  0
LINE
  8
0
 10
216.020172
 20
190.138611
 11
217.020203
 21
190.604630
  0
LINE
  8
0
 10
199.620178
 20
174.207718
 11
246.293274
 21
174.207718
  0
LINE
  8
0
 10
243.320251
 20
185.207687
 11
243.320251
 21
163.207687
  0
LINE
  8
0
 10
242.320236
 20
162.207703
 11
243.320221
 21
163.207687
  0
LINE
  8
0
 10
242.320251
 20
186.207764
 11
243.320267
 21
185.207748
  0
LINE
  8
0
 10
213.320206
 20
162.207718
 11
212.320221
 21
163.207703
  0
LINE
  8
0
 10
212.320206
 20
185.207657
 11
213.320190
 21
186.207642
  0
LINE
  8
0
 10
242.320190
 20
186.207687
 11
242.320190
 21
162.207687
  0
LINE
  8
0
 10
213.320251
 20
162.207687
 11
213.320251
 21
186.207687
  0
LINE
  8
0
 10
212.320129
 20
163.207687
 11
243.320251
 21
163.207687
  0
LINE
  8
0
 10
212.320129
 20
185.207687
 11
243.320251
 21
185.207687
  0
LINE
  8
0
 10
225.320190
 20
187.941208
 11
225.320190
 21
160.340439
  0
CIRCLE
  8
0
 10
225.320190
 20
174.207718
 40
10.000000
  0
CIRCLE
  8
0
 10
225.320190
 20
174.207718
 40
9.000000
  0
CIRCLE
  8
0
 10
225.320190
 20
174.207718
 40
5.722500
  0
CIRCLE
  8
0
 10
225.320190
 20
174.207718
 40
6.578500
  0
POINT
  8
0
 10
-319.379822
 20
-184.498520
  0
POINT
  8
0
 10
-306.679810
 20
-184.498520
  0
LINE
  8
0
 10
-324.079834
 20
-175.498489
 11
-306.679810
 21
-175.498489
  0
LINE
  8
0
 10
-324.079834
 20
-148.498489
 11
-324.079834
 21
-194.498520
  0
LINE
  8
0
 10
-306.679810
 20
-148.498489
 11
-306.679810
 21
-194.498520
  0
LINE
  8
0
 10
-324.079834
 20
-193.498520
 11
-306.679810
 21
-193.498520
  0
LINE
  8
0
 10
-321.481750
 20
-179.274490
 11
-321.481750
 21
-189.722549
  0
LINE
  8
0
 10
-309.277893
 20
-179.274490
 11
-309.277893
 21
-189.722549
  0
LINE
  8
0
 10
-327.310120
 20
-184.498520
 11
-302.666687
 21
-184.498520
  0
LINE
  8
0
 10
-315.379822
 20
-143.347305
 11
-315.379822
 21
-196.847305
  0
LINE
  8
0
 10
-321.481750
 20
-179.274490
 11
-309.277893
 21
-179.274490
  0
LINE
  8
0
 10
-321.481750
 20
-189.722549
 11
-309.277893
 21
-189.722549
  0
LINE
  8
0
 10
-321.481873
 20
-179.274567
 11
-324.079956
 21
-175.498611
  0
LINE
  8
0
 10
-309.277893
 20
-179.274475
 11
-306.679810
 21
-175.498520
  0
LINE
  8
0
 10
-309.277802
 20
-189.722580
 11
-306.679718
 21
-193.498535
  0
LINE
  8
0
 10
-321.481750
 20
-189.722565
 11
-324.079834
 21
-193.498505
  0
LINE
  8
0
 10
-316.879822
 20
-183.632492
 11
-316.879822
 21
-185.364517
  0
LINE
  8
0
 10
-313.879822
 20
-183.632492
 11
-313.879822
 21
-185.364517
  0
LINE
  8
0
 10
-316.879852
 20
-183.632492
 11
-315.379822
 21
-182.766449
  0
LINE
  8
0
 10
-315.379791
 20
-186.230530
 11
-313.879761
 21
-185.364487
  0
LINE
  8
0
 10
-316.879822
 20
-185.364578
 11
-315.379822
 21
-186.230606
  0
LINE
  8
0
 10
-315.379852
 20
-182.766434
 11
-313.879791
 21
-183.632492
  0
LINE
  8
0
 10
-323.079773
 20
-174.498520
 11
-307.679871
 21
-174.498520
  0
LINE
  8
0
 10
-324.079834
 20
-194.498520
 11
-306.679810
 21
-194.498520
  0
LINE
  8
0
 10
-321.079834
 20
-145.498489
 11
-309.679810
 21
-145.498489
  0
LINE
  8
0
 10
-324.079712
 20
-148.498703
 11
-321.079712
 21
-145.498688
  0
LINE
  8
0
 10
-309.679901
 20
-145.498627
 11
-306.679901
 21
-148.498611
  0
LINE
  8
0
 10
-323.079712
 20
-174.498627
 11
-324.079712
 21
-175.498627
  0
LINE
  8
0
 10
-307.679718
 20
-174.498520
 11
-306.679718
 21
-175.498550
  0
LINE
  8
0
 10
-323.079773
 20
-148.912735
 11
-323.079773
 21
-174.498520
  0
LINE
  8
0
 10
-307.679749
 20
-148.912735
 11
-307.679749
 21
-174.498520
  0
LINE
  8
0
 10
-323.079681
 20
-148.912903
 11
-320.665466
 21
-146.498718
  0
LINE
  8
0
 10
-320.665588
 20
-146.498520
 11
-310.094055
 21
-146.498520
  0
LINE
  8
0
 10
-310.094147
 20
-146.498642
 11
-307.679932
 21
-148.912872
  0
LINE
  8
0
 10
-324.079956
 20
-148.498474
 11
-323.079987
 21
-148.912659
  0
LINE
  8
0
 10
-321.079742
 20
-145.498428
 11
-320.665527
 21
-146.498444
  0
LINE
  8
0
 10
-309.679749
 20
-145.498535
 11
-310.093964
 21
-146.498535
  0
LINE
  8
0
 10
-306.679779
 20
-148.498596
 11
-307.679779
 21
-148.912827
  0
LINE
  8
0
 10
-321.079834
 20
-153.498489
 11
-309.679810
 21
-153.498489
  0
LINE
  8
0
 10
-323.079865
 20
-162.498550
 11
-324.079865
 21
-162.862503
  0
LINE
  8
0
 10
-307.679810
 20
-162.498535
 11
-306.679840
 21
-162.862488
  0
LINE
  8
0
 10
-307.679871
 20
-162.498520
 11
-323.079773
 21
-162.498520
  0
CIRCLE
  8
0
 10
-315.379822
 20
-184.498520
 40
4.000000
  0
CIRCLE
  8
0
 10
-315.379822
 20
-184.498520
 40
3.500000
  0
CIRCLE
  8
0
 10
-315.379822
 20
-184.498520
 40
3.100000
  0
CIRCLE
  8
0
 10
-315.379822
 20
-184.498520
 40
1.732050
  0
CIRCLE
  8
0
 10
-315.379822
 20
-153.498489
 40
4.000000
  0
POINT
  8
0
 10
-192.421356
 20
-184.498520
  0
POINT
  8
0
 10
-160.421417
 20
-184.498520
  0
LINE
  8
0
 10
-204.421356
 20
-175.498489
 11
-204.421356
 21
-193.498520
  0
LINE
  8
0
 10
-205.421356
 20
-175.498489
 11
-205.421356
 21
-193.498520
  0
LINE
  8
0
 10
-209.921417
 20
-179.274506
 11
-209.921417
 21
-189.722565
  0
LINE
  8
0
 10
-204.421356
 20
-175.498489
 11
-205.421356
 21
-175.498489
  0
LINE
  8
0
 10
-205.421356
 20
-193.498520
 11
-204.421356
 21
-193.498520
  0
LINE
  8
0
 10
-213.852875
 20
-184.498535
 11
-156.924896
 21
-184.498505
  0
LINE
  8
0
 10
-209.921310
 20
-179.274567
 11
-205.421326
 21
-175.498627
  0
LINE
  8
0
 10
-209.921402
 20
-189.722610
 11
-205.421402
 21
-193.498550
  0
LINE
  8
0
 10
-210.921417
 20
-181.398529
 11
-210.921417
 21
-187.598541
  0
LINE
  8
0
 10
-210.521393
 20
-187.998505
 11
-209.921417
 21
-187.998505
  0
LINE
  8
0
 10
-210.521393
 20
-180.998505
 11
-209.921417
 21
-180.998505
  0
LINE
  8
0
 10
-210.521378
 20
-180.998550
 11
-210.921371
 21
-181.398544
  0
LINE
  8
0
 10
-210.921448
 20
-187.598434
 11
-210.521454
 21
-187.998413
  0
LINE
  8
0
 10
-210.521393
 20
-180.998505
 11
-210.521393
 21
-187.998505
  0
LINE
  8
0
 10
-203.421417
 20
-194.498520
 11
-160.421417
 21
-194.498505
  0
LINE
  8
0
 10
-203.421417
 20
-174.498520
 11
-176.490570
 21
-174.498505
  0
LINE
  8
0
 10
-204.421341
 20
-193.498489
 11
-203.421326
 21
-194.498505
  0
LINE
  8
0
 10
-204.421402
 20
-175.498550
 11
-203.421402
 21
-174.498550
  0
LINE
  8
0
 10
-180.421417
 20
-174.498520
 11
-180.421417
 21
-194.498520
  0
LINE
  8
0
 10
-160.421432
 20
-145.498474
 11
-160.421417
 21
-194.498505
  0
LINE
  8
0
 10
-165.421432
 20
-145.498474
 11
-160.421432
 21
-145.498474
  0
LINE
  8
0
 10
-166.421371
 20
-146.498505
 11
-166.421371
 21
-162.498474
  0
LINE
  8
0
 10
-165.421356
 20
-145.498520
 11
-166.421371
 21
-146.498535
  0
LINE
  8
0
 10
-165.421432
 20
-148.498474
 11
-160.421432
 21
-148.498474
  0
LINE
  8
0
 10
-176.490509
 20
-174.498581
 11
-166.421326
 21
-162.498581
  0
LINE
  8
0
 10
-204.421356
 20
-175.498489
 11
-176.024261
 21
-175.498474
  0
LINE
  8
0
 10
-176.024170
 20
-175.498566
 11
-165.421280
 21
-162.862518
  0
LINE
  8
0
 10
-165.421432
 20
-145.498474
 11
-165.421432
 21
-162.862457
  0
LINE
  8
0
 10
-176.490524
 20
-174.498459
 11
-176.024216
 21
-175.498474
  0
LINE
  8
0
 10
-166.421417
 20
-162.498489
 11
-165.421448
 21
-162.862442
  0
LINE
  8
0
 10
-165.421387
 20
-148.498566
 11
-166.421387
 21
-148.912781
  0
LINE
  8
0
 10
-169.008224
 20
-153.498474
 11
-157.341599
 21
-153.498474
  0
LINE
  8
0
 10
-192.421356
 20
-170.847305
 11
-192.421356
 21
-197.847305
  0
POINT
  8
0
 10
-319.379791
 20
-85.792282
  0
POINT
  8
0
 10
-311.379822
 20
-85.792282
  0
LINE
  8
0
 10
-324.079834
 20
-97.792252
 11
-306.679810
 21
-97.792252
  0
LINE
  8
0
 10
-324.079834
 20
-98.792252
 11
-306.679810
 21
-98.792252
  0
LINE
  8
0
 10
-321.481750
 20
-103.292282
 11
-309.277893
 21
-103.292282
  0
LINE
  8
0
 10
-324.079834
 20
-53.792252
 11
-324.079834
 21
-73.792252
  0
LINE
  8
0
 10
-306.679810
 20
-53.792252
 11
-306.679810
 21
-73.792252
  0
LINE
  8
0
 10
-324.079865
 20
-98.792213
 11
-321.481781
 21
-103.292229
  0
LINE
  8
0
 10
-309.277954
 20
-103.292175
 11
-306.679871
 21
-98.792175
  0
LINE
  8
0
 10
-315.379822
 20
-51.307693
 11
-315.379822
 21
-106.498734
  0
LINE
  8
0
 10
-318.479797
 20
-104.292252
 11
-312.279846
 21
-104.292252
  0
LINE
  8
0
 10
-311.879822
 20
-103.292252
 11
-311.879822
 21
-103.892227
  0
LINE
  8
0
 10
-318.879822
 20
-103.292252
 11
-318.879822
 21
-103.892227
  0
LINE
  8
0
 10
-318.879791
 20
-103.892204
 11
-318.479767
 21
-104.292244
  0
LINE
  8
0
 10
-312.279694
 20
-104.292358
 11
-311.879669
 21
-103.892349
  0
LINE
  8
0
 10
-318.879822
 20
-103.892258
 11
-311.879822
 21
-103.892258
  0
LINE
  8
0
 10
-324.079834
 20
-53.792252
 11
-306.679810
 21
-53.792252
  0
LINE
  8
0
 10
-323.079773
 20
-59.792252
 11
-307.679871
 21
-59.792252
  0
LINE
  8
0
 10
-324.079834
 20
-58.792252
 11
-306.679810
 21
-58.792252
  0
LINE
  8
0
 10
-324.079834
 20
-73.792252
 11
-319.379822
 21
-73.792252
  0
LINE
  8
0
 10
-311.379822
 20
-73.792252
 11
-306.679810
 21
-73.792252
  0
LINE
  8
0
 10
-324.079834
 20
-97.792252
 11
-324.079834
 21
-98.792252
  0
LINE
  8
0
 10
-306.679810
 20
-97.792252
 11
-306.679810
 21
-98.792252
  0
LINE
  8
0
 10
-319.379822
 20
-73.792252
 11
-319.379822
 21
-97.792252
  0
LINE
  8
0
 10
-311.379822
 20
-73.792252
 11
-311.379822
 21
-97.792252
  0
LINE
  8
0
 10
-323.079773
 20
-69.861252
 11
-307.679871
 21
-69.861252
  0
LINE
  8
0
 10
-323.079773
 20
-59.792252
 11
-323.079773
 21
-73.792252
  0
LINE
  8
0
 10
-307.679749
 20
-59.792252
 11
-307.679749
 21
-73.792252
  0
LINE
  8
0
 10
-323.079742
 20
-59.792313
 11
-324.079742
 21
-58.792290
  0
LINE
  8
0
 10
-307.679718
 20
-59.792252
 11
-306.679718
 21
-58.792252
  0
LINE
  8
0
 10
-321.079834
 20
-53.792252
 11
-321.079834
 21
-58.792252
  0
LINE
  8
0
 10
-309.679810
 20
-53.792252
 11
-309.679810
 21
-58.792252
  0
LINE
  8
0
 10
-321.079803
 20
-58.792244
 11
-320.665619
 21
-59.792248
  0
LINE
  8
0
 10
-309.679749
 20
-58.792305
 11
-310.093964
 21
-59.792309
  0
LINE
  8
0
 10
-324.079712
 20
-69.395256
 11
-323.079712
 21
-69.861267
  0
LINE
  8
0
 10
-307.679749
 20
-69.861450
 11
-306.679718
 21
-69.395432
  0
LINE
  8
0
 10
-324.079834
 20
-85.792282
 11
-306.679810
 21
-85.792282
  0
POINT
  8
0
 10
-53.029816
 20
-190.498520
  0
POINT
  8
0
 10
-33.029819
 20
-190.498520
  0
LINE
  8
0
 10
-57.729820
 20
-181.498520
 11
-33.029819
 21
-181.498520
  0
LINE
  8
0
 10
-57.729813
 20
-181.498520
 11
-57.729813
 21
-199.498520
  0
LINE
  8
0
 10
-40.329819
 20
-181.498520
 11
-40.329819
 21
-199.498520
  0
LINE
  8
0
 10
-57.729820
 20
-199.498520
 11
-33.029819
 21
-199.498520
  0
LINE
  8
0
 10
-55.131737
 20
-185.274475
 11
-55.131737
 21
-195.722580
  0
LINE
  8
0
 10
-42.927898
 20
-185.274475
 11
-42.927898
 21
-195.722580
  0
LINE
  8
0
 10
-59.702782
 20
-190.498520
 11
-31.116249
 21
-190.498520
  0
LINE
  8
0
 10
-49.029816
 20
-178.860168
 11
-49.029816
 21
-202.847321
  0
LINE
  8
0
 10
-55.131744
 20
-185.274475
 11
-42.927902
 21
-185.274475
  0
LINE
  8
0
 10
-55.131744
 20
-195.722580
 11
-42.927902
 21
-195.722580
  0
LINE
  8
0
 10
-55.131794
 20
-185.274490
 11
-57.729870
 21
-181.498550
  0
LINE
  8
0
 10
-42.927895
 20
-185.274445
 11
-40.329819
 21
-181.498505
  0
LINE
  8
0
 10
-42.927895
 20
-195.722565
 11
-40.329819
 21
-199.498520
  0
LINE
  8
0
 10
-55.131752
 20
-195.722565
 11
-57.729828
 21
-199.498520
  0
LINE
  8
0
 10
-50.529816
 20
-189.632492
 11
-50.529816
 21
-191.364548
  0
LINE
  8
0
 10
-47.529823
 20
-189.632492
 11
-47.529823
 21
-191.364548
  0
LINE
  8
0
 10
-50.529816
 20
-189.632477
 11
-49.029823
 21
-188.766464
  0
LINE
  8
0
 10
-49.029827
 20
-192.230560
 11
-47.529823
 21
-191.364532
  0
LINE
  8
0
 10
-50.529823
 20
-191.364548
 11
-49.029827
 21
-192.230576
  0
LINE
  8
0
 10
-49.029831
 20
-188.766495
 11
-47.529827
 21
-189.632523
  0
LINE
  8
0
 10
-52.029823
 20
-200.498520
 11
-46.029823
 21
-200.498520
  0
LINE
  8
0
 10
-52.029823
 20
-180.498520
 11
-46.029823
 21
-180.498520
  0
LINE
  8
0
 10
-52.029827
 20
-180.498505
 11
-53.029827
 21
-181.498505
  0
LINE
  8
0
 10
-53.029831
 20
-199.498520
 11
-52.029827
 21
-200.498520
  0
LINE
  8
0
 10
-46.029816
 20
-200.498535
 11
-45.029816
 21
-199.498535
  0
LINE
  8
0
 10
-46.029816
 20
-180.498520
 11
-45.029823
 21
-181.498520
  0
LINE
  8
0
 10
-33.029819
 20
-181.498520
 11
-33.029819
 21
-199.498520
  0
LINE
  8
0
 10
-44.029816
 20
-180.498520
 11
-34.029819
 21
-180.498520
  0
LINE
  8
0
 10
-44.029819
 20
-200.498520
 11
-34.029819
 21
-200.498520
  0
LINE
  8
0
 10
-34.029839
 20
-200.498535
 11
-33.029839
 21
-199.498535
  0
LINE
  8
0
 10
-34.029816
 20
-180.498520
 11
-33.029823
 21
-181.498520
  0
LINE
  8
0
 10
-45.029819
 20
-199.498535
 11
-44.029819
 21
-200.498535
  0
LINE
  8
0
 10
-45.029819
 20
-181.498520
 11
-44.029816
 21
-180.498520
  0
LINE
  8
0
 10
-34.029823
 20
-180.498520
 11
-34.029823
 21
-200.498520
  0
LINE
  8
0
 10
-44.029812
 20
-180.498520
 11
-44.029812
 21
-181.498520
  0
LINE
  8
0
 10
-44.029819
 20
-200.498520
 11
-44.029819
 21
-199.498520
  0
CIRCLE
  8
0
 10
-49.029816
 20
-190.498520
 40
4.000000
  0
CIRCLE
  8
0
 10
-49.029816
 20
-190.498520
 40
3.500000
  0
CIRCLE
  8
0
 10
-49.029816
 20
-190.498520
 40
3.100000
  0
CIRCLE
  8
0
 10
-49.029816
 20
-190.498520
 40
1.732050
  0
POINT
  8
0
 10
80.928650
 20
-190.498520
  0
POINT
  8
0
 10
98.428650
 20
-190.498520
  0
LINE
  8
0
 10
68.928650
 20
-181.498520
 11
68.928650
 21
-199.498520
  0
LINE
  8
0
 10
67.928650
 20
-181.498520
 11
67.928650
 21
-199.498520
  0
LINE
  8
0
 10
63.428650
 20
-185.274475
 11
63.428650
 21
-195.722580
  0
LINE
  8
0
 10
68.928650
 20
-181.498520
 11
67.928650
 21
-181.498520
  0
LINE
  8
0
 10
67.928650
 20
-199.498520
 11
93.928650
 21
-199.498520
  0
LINE
  8
0
 10
59.497231
 20
-190.498520
 11
101.071228
 21
-190.498520
  0
LINE
  8
0
 10
63.428635
 20
-185.274445
 11
67.928635
 21
-181.498489
  0
LINE
  8
0
 10
63.428669
 20
-195.722580
 11
67.928665
 21
-199.498520
  0
LINE
  8
0
 10
62.428650
 20
-187.398514
 11
62.428650
 21
-193.598526
  0
LINE
  8
0
 10
62.828648
 20
-193.998520
 11
63.428650
 21
-193.998520
  0
LINE
  8
0
 10
62.828648
 20
-186.998520
 11
63.428650
 21
-186.998520
  0
LINE
  8
0
 10
62.828644
 20
-186.998520
 11
62.428650
 21
-187.398514
  0
LINE
  8
0
 10
62.428642
 20
-193.598511
 11
62.828644
 21
-193.998505
  0
LINE
  8
0
 10
62.828648
 20
-186.998520
 11
62.828648
 21
-193.998520
  0
LINE
  8
0
 10
69.928650
 20
-200.498520
 11
91.928650
 21
-200.498520
  0
LINE
  8
0
 10
69.928650
 20
-180.498520
 11
91.928650
 21
-180.498520
  0
LINE
  8
0
 10
68.928642
 20
-199.498520
 11
69.928650
 21
-200.498520
  0
LINE
  8
0
 10
68.928650
 20
-181.498520
 11
69.928650
 21
-180.498520
  0
LINE
  8
0
 10
92.928650
 20
-181.498520
 11
92.928650
 21
-199.498520
  0
LINE
  8
0
 10
68.928650
 20
-181.498520
 11
93.928650
 21
-181.498520
  0
LINE
  8
0
 10
80.928650
 20
-176.847336
 11
80.928650
 21
-203.847336
  0
LINE
  8
0
 10
91.928635
 20
-180.498520
 11
92.928627
 21
-181.498505
  0
LINE
  8
0
 10
92.928635
 20
-199.498520
 11
91.928642
 21
-200.498505
  0
LINE
  8
0
 10
93.928650
 20
-181.498520
 11
93.928650
 21
-199.498520
  0
LINE
  8
0
 10
93.928619
 20
-199.498489
 11
98.428619
 21
-195.722534
  0
LINE
  8
0
 10
93.928642
 20
-181.498505
 11
98.428635
 21
-185.274460
  0
LINE
  8
0
 10
98.428650
 20
-185.274475
 11
98.428650
 21
-195.722580
  0
LINE
  8
0
 10
69.928650
 20
-180.498520
 11
69.928650
 21
-200.498520
  0
LINE
  8
0
 10
91.928650
 20
-180.498520
 11
91.928650
 21
-200.498520
  0
CIRCLE
  8
0
 10
80.928650
 20
-190.498520
 40
4.283000
  0
CIRCLE
  8
0
 10
80.928650
 20
-190.498520
 40
4.864000
  0
POINT
  8
0
 10
-53.029816
 20
-91.792282
  0
POINT
  8
0
 10
-33.029816
 20
-91.792282
  0
LINE
  8
0
 10
-57.729820
 20
-103.792290
 11
-34.029823
 21
-103.792290
  0
LINE
  8
0
 10
-57.729820
 20
-104.792282
 11
-40.329819
 21
-104.792282
  0
LINE
  8
0
 10
-55.131744
 20
-109.292290
 11
-42.927902
 21
-109.292290
  0
LINE
  8
0
 10
-40.329819
 20
-78.792290
 11
-40.329819
 21
-79.792282
  0
LINE
  8
0
 10
-57.729820
 20
-104.792305
 11
-55.131744
 21
-109.292297
  0
LINE
  8
0
 10
-42.927917
 20
-109.292282
 11
-40.329842
 21
-104.792282
  0
LINE
  8
0
 10
-49.029816
 20
-71.996071
 11
-49.029816
 21
-112.498772
  0
LINE
  8
0
 10
-52.129814
 20
-110.292282
 11
-45.929825
 21
-110.292282
  0
LINE
  8
0
 10
-45.529816
 20
-109.292290
 11
-45.529816
 21
-109.892288
  0
LINE
  8
0
 10
-52.529823
 20
-109.292290
 11
-52.529823
 21
-109.892288
  0
LINE
  8
0
 10
-52.529823
 20
-109.892281
 11
-52.129822
 21
-110.292282
  0
LINE
  8
0
 10
-45.929810
 20
-110.292297
 11
-45.529804
 21
-109.892288
  0
LINE
  8
0
 10
-52.529823
 20
-109.892288
 11
-45.529823
 21
-109.892288
  0
LINE
  8
0
 10
-57.729820
 20
-79.792282
 11
-34.029823
 21
-79.792282
  0
LINE
  8
0
 10
-57.729813
 20
-103.792290
 11
-57.729813
 21
-104.792282
  0
LINE
  8
0
 10
-40.329819
 20
-103.792290
 11
-40.329819
 21
-104.792282
  0
LINE
  8
0
 10
-53.029816
 20
-79.792282
 11
-53.029816
 21
-102.792282
  0
LINE
  8
0
 10
-45.029823
 20
-79.792282
 11
-45.029823
 21
-102.792282
  0
LINE
  8
0
 10
-57.729820
 20
-91.792282
 11
-29.654102
 21
-91.792282
  0
LINE
  8
0
 10
-57.729820
 20
-78.792282
 11
-40.329819
 21
-78.792282
  0
LINE
  8
0
 10
-57.729813
 20
-78.792290
 11
-57.729813
 21
-79.792282
  0
LINE
  8
0
 10
-52.029816
 20
-80.792282
 11
-52.029816
 21
-103.792290
  0
LINE
  8
0
 10
-46.029823
 20
-80.792282
 11
-46.029823
 21
-103.792290
  0
LINE
  8
0
 10
-53.029823
 20
-102.792282
 11
-33.029819
 21
-102.792282
  0
LINE
  8
0
 10
-52.029823
 20
-80.792290
 11
-46.029823
 21
-80.792290
  0
LINE
  8
0
 10
-45.029785
 20
-102.792313
 11
-46.029785
 21
-103.792313
  0
LINE
  8
0
 10
-53.029808
 20
-102.792274
 11
-52.029808
 21
-103.792274
  0
LINE
  8
0
 10
-52.029819
 20
-80.792297
 11
-53.029831
 21
-79.792282
  0
LINE
  8
0
 10
-46.029823
 20
-80.792290
 11
-45.029823
 21
-79.792290
  0
LINE
  8
0
 10
-57.729839
 20
-78.792274
 11
-55.131763
 21
-74.292274
  0
LINE
  8
0
 10
-42.927891
 20
-74.292297
 11
-40.329815
 21
-78.792297
  0
LINE
  8
0
 10
-55.131744
 20
-74.292282
 11
-42.927895
 21
-74.292282
  0
LINE
  8
0
 10
-33.029819
 20
-80.792282
 11
-33.029819
 21
-102.792282
  0
LINE
  8
0
 10
-34.029816
 20
-79.792290
 11
-33.029812
 21
-80.792290
  0
LINE
  8
0
 10
-33.029804
 20
-102.792297
 11
-34.029808
 21
-103.792297
  0
LINE
  8
0
 10
-44.029808
 20
-103.792274
 11
-45.029812
 21
-102.792267
  0
LINE
  8
0
 10
-45.029812
 20
-80.792305
 11
-44.029808
 21
-79.792305
  0
LINE
  8
0
 10
-45.029823
 20
-80.792290
 11
-33.029819
 21
-80.792290
  0
LINE
  8
0
 10
-44.029819
 20
-79.792282
 11
-44.029819
 21
-103.792290
  0
LINE
  8
0
 10
-34.029823
 20
-103.792297
 11
-34.029823
 21
-79.792282
  0
POINT
  8
0
 10
224.320190
 20
-188.498520
  0
POINT
  8
0
 10
204.320190
 20
-188.498520
  0
LINE
  8
0
 10
199.620178
 20
-179.498520
 11
224.320190
 21
-179.498520
  0
LINE
  8
0
 10
199.620178
 20
-152.498520
 11
199.620178
 21
-198.498520
  0
LINE
  8
0
 10
217.020142
 20
-152.498520
 11
217.020142
 21
-198.498520
  0
LINE
  8
0
 10
199.620178
 20
-197.498520
 11
224.320190
 21
-197.498520
  0
LINE
  8
0
 10
202.218262
 20
-183.274475
 11
202.218262
 21
-193.722580
  0
LINE
  8
0
 10
214.422058
 20
-183.274475
 11
214.422058
 21
-193.722580
  0
LINE
  8
0
 10
196.389893
 20
-188.498520
 11
228.615051
 21
-188.498520
  0
LINE
  8
0
 10
208.320190
 20
-147.347321
 11
208.320190
 21
-200.847321
  0
LINE
  8
0
 10
202.218262
 20
-183.274475
 11
214.422119
 21
-183.274475
  0
LINE
  8
0
 10
202.218262
 20
-193.722565
 11
214.422119
 21
-193.722565
  0
LINE
  8
0
 10
202.218323
 20
-183.274429
 11
199.620255
 21
-179.498489
  0
LINE
  8
0
 10
214.422134
 20
-183.274536
 11
217.020218
 21
-179.498581
  0
LINE
  8
0
 10
214.422073
 20
-193.722595
 11
217.020142
 21
-197.498520
  0
LINE
  8
0
 10
202.218323
 20
-193.722641
 11
199.620239
 21
-197.498596
  0
LINE
  8
0
 10
206.820190
 20
-187.632492
 11
206.820190
 21
-189.364548
  0
LINE
  8
0
 10
209.820190
 20
-187.632492
 11
209.820190
 21
-189.364548
  0
LINE
  8
0
 10
206.820190
 20
-187.632507
 11
208.320236
 21
-186.766464
  0
LINE
  8
0
 10
208.320145
 20
-190.230621
 11
209.820160
 21
-189.364594
  0
LINE
  8
0
 10
206.820190
 20
-189.364502
 11
208.320190
 21
-190.230530
  0
LINE
  8
0
 10
208.320160
 20
-186.766479
 11
209.820160
 21
-187.632507
  0
LINE
  8
0
 10
200.620178
 20
-178.498520
 11
223.320190
 21
-178.498520
  0
LINE
  8
0
 10
199.620178
 20
-198.498520
 11
223.320190
 21
-198.498520
  0
LINE
  8
0
 10
202.620178
 20
-149.498520
 11
214.020203
 21
-149.498520
  0
LINE
  8
0
 10
199.620102
 20
-152.498413
 11
202.620087
 21
-149.498428
  0
LINE
  8
0
 10
214.020233
 20
-149.498383
 11
217.020264
 21
-152.498413
  0
LINE
  8
0
 10
200.620178
 20
-178.498505
 11
199.620178
 21
-179.498505
  0
LINE
  8
0
 10
200.620178
 20
-152.912720
 11
200.620178
 21
-178.498520
  0
LINE
  8
0
 10
216.020203
 20
-152.912735
 11
216.020203
 21
-178.498520
  0
LINE
  8
0
 10
200.620117
 20
-152.912689
 11
203.034348
 21
-150.498444
  0
LINE
  8
0
 10
203.034363
 20
-150.498520
 11
213.605957
 21
-150.498520
  0
LINE
  8
0
 10
213.606049
 20
-150.498444
 11
216.020248
 21
-152.912628
  0
LINE
  8
0
 10
199.620209
 20
-152.498550
 11
200.620224
 21
-152.912766
  0
LINE
  8
0
 10
202.620132
 20
-149.498581
 11
203.034332
 21
-150.498581
  0
LINE
  8
0
 10
214.020142
 20
-149.498520
 11
213.605942
 21
-150.498489
  0
LINE
  8
0
 10
217.020172
 20
-152.498474
 11
216.020172
 21
-152.912689
  0
LINE
  8
0
 10
202.620178
 20
-157.498520
 11
214.020203
 21
-157.498520
  0
LINE
  8
0
 10
200.620193
 20
-166.498520
 11
199.620224
 21
-166.862488
  0
LINE
  8
0
 10
216.020233
 20
-166.498520
 11
217.020203
 21
-166.862488
  0
LINE
  8
0
 10
216.020203
 20
-166.498520
 11
200.620178
 21
-166.498520
  0
LINE
  8
0
 10
224.320190
 20
-179.498520
 11
224.320190
 21
-197.498520
  0
LINE
  8
0
 10
223.320175
 20
-198.498474
 11
224.320175
 21
-197.498474
  0
LINE
  8
0
 10
223.320160
 20
-178.498596
 11
224.320160
 21
-179.498596
  0
LINE
  8
0
 10
223.320190
 20
-178.498520
 11
223.320190
 21
-198.498520
  0
LINE
  8
0
 10
212.320160
 20
-179.498505
 11
213.320160
 21
-178.498505
  0
LINE
  8
0
 10
212.320190
 20
-197.498566
 11
213.320190
 21
-198.498566
  0
CIRCLE
  8
0
 10
208.320190
 20
-188.498520
 40
4.000000
  0
CIRCLE
  8
0
 10
208.320190
 20
-188.498520
 40
3.500000
  0
CIRCLE
  8
0
 10
208.320190
 20
-188.498520
 40
3.100000
  0
CIRCLE
  8
0
 10
208.320190
 20
-188.498520
 40
1.732050
  0
CIRCLE
  8
0
 10
208.320190
 20
-157.498520
 40
4.000000
  0
POINT
  8
0
 10
338.278656
 20
-188.498520
  0
POINT
  8
0
 10
370.278656
 20
-188.498520
  0
LINE
  8
0
 10
326.278656
 20
-179.498520
 11
326.278656
 21
-197.498520
  0
LINE
  8
0
 10
325.278656
 20
-179.498520
 11
325.278656
 21
-197.498520
  0
LINE
  8
0
 10
320.778656
 20
-183.274475
 11
320.778656
 21
-193.722580
  0
LINE
  8
0
 10
326.278656
 20
-179.498520
 11
325.278656
 21
-179.498520
  0
LINE
  8
0
 10
325.278656
 20
-197.498520
 11
350.278656
 21
-197.498520
  0
LINE
  8
0
 10
316.847260
 20
-188.498520
 11
373.775116
 21
-188.498520
  0
LINE
  8
0
 10
320.778625
 20
-183.274445
 11
325.278625
 21
-179.498505
  0
LINE
  8
0
 10
320.778625
 20
-193.722595
 11
325.278625
 21
-197.498535
  0
LINE
  8
0
 10
319.778656
 20
-185.398514
 11
319.778656
 21
-191.598526
  0
LINE
  8
0
 10
320.178680
 20
-191.998520
 11
320.778656
 21
-191.998520
  0
LINE
  8
0
 10
320.178680
 20
-184.998520
 11
320.778656
 21
-184.998520
  0
LINE
  8
0
 10
320.178650
 20
-184.998474
 11
319.778625
 21
-185.398514
  0
LINE
  8
0
 10
319.778656
 20
-191.598557
 11
320.178650
 21
-191.998550
  0
LINE
  8
0
 10
320.178680
 20
-184.998520
 11
320.178680
 21
-191.998520
  0
LINE
  8
0
 10
327.278656
 20
-198.498520
 11
370.278656
 21
-198.498520
  0
LINE
  8
0
 10
327.278656
 20
-178.498520
 11
354.209442
 21
-178.498520
  0
LINE
  8
0
 10
326.278687
 20
-197.498520
 11
327.278717
 21
-198.498535
  0
LINE
  8
0
 10
326.278687
 20
-179.498474
 11
327.278656
 21
-178.498505
  0
LINE
  8
0
 10
350.278656
 20
-178.498520
 11
350.278656
 21
-198.498520
  0
LINE
  8
0
 10
370.278656
 20
-149.498520
 11
370.278656
 21
-198.498520
  0
LINE
  8
0
 10
365.278656
 20
-149.498520
 11
370.278656
 21
-149.498520
  0
LINE
  8
0
 10
364.278656
 20
-150.498520
 11
364.278656
 21
-166.498520
  0
LINE
  8
0
 10
365.278595
 20
-149.498520
 11
364.278595
 21
-150.498505
  0
LINE
  8
0
 10
365.278656
 20
-152.498520
 11
370.278656
 21
-152.498520
  0
LINE
  8
0
 10
354.209381
 20
-178.498413
 11
364.278564
 21
-166.498444
  0
LINE
  8
0
 10
326.278656
 20
-179.498520
 11
354.675751
 21
-179.498520
  0
LINE
  8
0
 10
354.675659
 20
-179.498428
 11
365.278564
 21
-166.862411
  0
LINE
  8
0
 10
365.278656
 20
-149.498520
 11
365.278656
 21
-166.862488
  0
LINE
  8
0
 10
354.209412
 20
-178.498550
 11
354.675690
 21
-179.498535
  0
LINE
  8
0
 10
364.278687
 20
-166.498474
 11
365.278717
 21
-166.862457
  0
LINE
  8
0
 10
365.278717
 20
-152.498474
 11
364.278656
 21
-152.912720
  0
LINE
  8
0
 10
361.691864
 20
-157.498520
 11
373.358490
 21
-157.498520
  0
LINE
  8
0
 10
338.278656
 20
-174.847336
 11
338.278656
 21
-201.847336
  0
LINE
  8
0
 10
327.278656
 20
-178.498520
 11
327.278656
 21
-198.498520
  0
LINE
  8
0
 10
349.278656
 20
-178.498520
 11
350.278687
 21
-179.498535
  0
LINE
  8
0
 10
349.278625
 20
-198.498505
 11
350.278656
 21
-197.498505
  0
LINE
  8
0
 10
349.278656
 20
-198.498520
 11
349.278656
 21
-178.498520
  0
CIRCLE
  8
0
 10
338.278656
 20
-188.498520
 40
4.283000
  0
CIRCLE
  8
0
 10
338.278656
 20
-188.498520
 40
4.864000
  0
POINT
  8
0
 10
204.320190
 20
-89.792282
  0
POINT
  8
0
 10
224.320190
 20
-89.792282
  0
LINE
  8
0
 10
199.620178
 20
-101.792290
 11
223.320190
 21
-101.792290
  0
LINE
  8
0
 10
199.620178
 20
-102.792290
 11
217.020203
 21
-102.792290
  0
LINE
  8
0
 10
202.218262
 20
-107.292290
 11
214.422119
 21
-107.292290
  0
LINE
  8
0
 10
199.620178
 20
-57.792282
 11
199.620178
 21
-77.792282
  0
LINE
  8
0
 10
217.020142
 20
-57.792282
 11
217.020142
 21
-77.792282
  0
LINE
  8
0
 10
199.620224
 20
-102.792297
 11
202.218292
 21
-107.292297
  0
LINE
  8
0
 10
214.422180
 20
-107.292290
 11
217.020248
 21
-102.792305
  0
LINE
  8
0
 10
208.320190
 20
-55.307762
 11
208.320190
 21
-110.498779
  0
LINE
  8
0
 10
205.220154
 20
-108.292290
 11
211.420227
 21
-108.292290
  0
LINE
  8
0
 10
211.820190
 20
-107.292282
 11
211.820190
 21
-107.892288
  0
LINE
  8
0
 10
204.820190
 20
-107.292282
 11
204.820190
 21
-107.892288
  0
LINE
  8
0
 10
204.820175
 20
-107.892349
 11
205.220169
 21
-108.292343
  0
LINE
  8
0
 10
211.420151
 20
-108.292274
 11
211.820175
 21
-107.892258
  0
LINE
  8
0
 10
204.820190
 20
-107.892288
 11
211.820190
 21
-107.892288
  0
LINE
  8
0
 10
199.620178
 20
-57.792282
 11
217.020203
 21
-57.792282
  0
LINE
  8
0
 10
200.620178
 20
-63.792290
 11
216.020203
 21
-63.792290
  0
LINE
  8
0
 10
199.620178
 20
-62.792282
 11
217.020203
 21
-62.792282
  0
LINE
  8
0
 10
199.620178
 20
-77.792282
 11
204.320190
 21
-77.792282
  0
LINE
  8
0
 10
212.320190
 20
-77.792282
 11
223.320190
 21
-77.792282
  0
LINE
  8
0
 10
199.620178
 20
-101.792290
 11
199.620178
 21
-102.792290
  0
LINE
  8
0
 10
217.020142
 20
-101.792290
 11
217.020142
 21
-102.792290
  0
LINE
  8
0
 10
204.320190
 20
-77.792282
 11
204.320190
 21
-101.792290
  0
LINE
  8
0
 10
212.320190
 20
-77.792282
 11
212.320190
 21
-101.792290
  0
LINE
  8
0
 10
200.620178
 20
-73.861282
 11
216.020203
 21
-73.861282
  0
LINE
  8
0
 10
200.620178
 20
-63.792282
 11
200.620178
 21
-77.792282
  0
LINE
  8
0
 10
216.020203
 20
-63.792282
 11
216.020203
 21
-77.792282
  0
LINE
  8
0
 10
200.620132
 20
-63.792362
 11
199.620132
 21
-62.792362
  0
LINE
  8
0
 10
216.020157
 20
-63.792248
 11
217.020187
 21
-62.792225
  0
LINE
  8
0
 10
202.620178
 20
-57.792282
 11
202.620178
 21
-62.792282
  0
LINE
  8
0
 10
214.020142
 20
-57.792282
 11
214.020142
 21
-62.792282
  0
LINE
  8
0
 10
202.620239
 20
-62.792278
 11
203.034439
 21
-63.792259
  0
LINE
  8
0
 10
214.020126
 20
-62.792267
 11
213.605911
 21
-63.792271
  0
LINE
  8
0
 10
199.620148
 20
-73.395401
 11
200.620163
 21
-73.861412
  0
LINE
  8
0
 10
216.020096
 20
-73.861252
 11
217.020126
 21
-73.395241
  0
LINE
  8
0
 10
199.620178
 20
-89.792282
 11
227.737427
 21
-89.792282
  0
LINE
  8
0
 10
224.320190
 20
-78.792282
 11
224.320190
 21
-100.792282
  0
LINE
  8
0
 10
223.320145
 20
-101.792213
 11
224.320160
 21
-100.792213
  0
LINE
  8
0
 10
223.320145
 20
-77.792297
 11
224.320129
 21
-78.792274
  0
LINE
  8
0
 10
213.320160
 20
-101.792328
 11
212.320160
 21
-100.792328
  0
LINE
  8
0
 10
212.320206
 20
-78.792274
 11
213.320190
 21
-77.792297
  0
LINE
  8
0
 10
223.320190
 20
-77.792282
 11
223.320190
 21
-101.792290
  0
LINE
  8
0
 10
213.320190
 20
-101.792290
 11
213.320190
 21
-77.792282
  0
LINE
  8
0
 10
212.320190
 20
-100.792290
 11
224.320190
 21
-100.792290
  0
LINE
  8
0
 10
212.320190
 20
-78.792290
 11
224.320190
 21
-78.792290
  0
ENDSEC
  0
EOF
