  0
SECTION
  2
HEADER
  0
ENDSEC
  0
SECTION
  2
TABLES
  0
TABLE
  2
LTYPE
 70
     4
  0
LTYPE
  2
CONTINUOUS
 70
    64
  3
Solid line
 72
    65
 73
     0
 40
0.000000
  0
LTYPE
  2
DASHED
 70
    64
  3
__ __ __ __ __ __ __ __ __ __ __ __ __ __ __
 72
    65
 73
     2
 40
3.500000
 49
2.000000
 49
-1.500000
  0
LTYPE
  2
CENTER
 70
    64
  3
____ _ ____ _ ____ _ ____ _ ____ _ ____ _ ____
 72
    65
 73
     4
 40
17.500000
 49
13.000000
 49
-1.500000
 49
1.500000
 49
-1.500000
  0
LTYPE
  2
PHANTOM
 70
    64
  3
_____ _ _ _____ _ _ _____ _ _ _____ _ _ ____  
 72
    65
 73
     6
 40
15.500000
 49
8.000000
 49
-1.500000
 49
1.500000
 49
-1.500000
 49
1.500000
 49
-1.500000
  0
LTYPE
  2
DASHED1
 70
    64
  3
__ __ __ __ __ __ __ __ __ __ __ __ __ __ __
 72
    65
 73
     2
 40
1.500000
 49
1.000000
 49
-0.500000
  0
LTYPE
  2
DASHED2
 70
    64
  3
__ __ __ __ __ __ __ __ __ __ __ __ __ __ __
 72
    65
 73
     2
 40
3.500000
 49
2.500000
 49
-1.000000
  0
LTYPE
  2
DASHED3
 70
    64
  3
__ __ __ __ __ __ __ __ __ __ __ __ __ __ __
 72
    65
 73
     2
 40
6.000000
 49
4.000000
 49
-2.000000
  0
LTYPE
  2
DASHED4
 70
    64
  3
__ __ __ __ __ __ __ __ __ __ __ __ __ __ __
 72
    65
 73
     2
 40
12.000000
 49
10.000000
 49
-2.000000
  0
LTYPE
  2
DASHED5
 70
    64
  3
__ __ __ __ __ __ __ __ __ __ __ __ __ __ __
 72
    65
 73
     2
 40
17.000000
 49
15.000000
 49
-2.000000
  0
LTYPE
  2
DASHED6
 70
    64
  3
__ __ __ __ __ __ __ __ __ __ __ __ __ __ __
 72
    65
 73
     2
 40
29.000000
 49
27.000000
 49
-2.000000
  0
LTYPE
  2
PHANTOM1
 70
    64
  3
_____ _ _ _____ _ _ _____ _ _ _____ _ _ ____  
 72
    65
 73
     6
 40
31.000000
 49
25.000000
 49
-1.500000
 49
1.000000
 49
-1.000000
 49
1.000000
 49
-1.500000
  0
LTYPE
  2
PHANTOM2
 70
    64
  3
_____ _ _ _____ _ _ _____ _ _ _____ _ _ ____  
 72
    65
 73
     6
 40
36.000000
 49
27.000000
 49
-1.500000
 49
2.500000
 49
-1.000000
 49
2.500000
 49
-1.500000
  0
LTYPE
  2
PHANTOM3
 70
    64
  3
_____ _ _ _____ _ _ _____ _ _ _____ _ _ ____  
 72
    65
 73
     6
 40
78.000000
 49
64.000000
 49
-2.000000
 49
4.000000
 49
-2.000000
 49
4.000000
 49
-2.000000
  0
LTYPE
  2
CENTER1
 70
    64
  3
____ _ ____ _ ____ _ ____ _ ____ _ ____ _ ____
 72
    65
 73
     4
 40
19.000000
 49
14.000000
 49
-1.000000
 49
3.000000
 49
-1.000000
  0
LTYPE
  2
CENTER2
 70
    64
  3
____ _ ____ _ ____ _ ____ _ ____ _ ____ _ ____
 72
    65
 73
     4
 40
28.500000
 49
25.000000
 49
-1.000000
 49
1.500000
 49
-1.000000
  0
LTYPE
  2
CENTER3
 70
    64
  3
____ _ ____ _ ____ _ ____ _ ____ _ ____ _ ____
 72
    65
 73
     4
 40
31.500000
 49
27.000000
 49
-1.000000
 49
2.500000
 49
-1.000000
  0
LTYPE
  2
CENTER4
 70
    64
  3
____ _ ____ _ ____ _ ____ _ ____ _ ____ _ ____
 72
    65
 73
     4
 40
50.000000
 49
45.000000
 49
-1.000000
 49
3.000000
 49
-1.000000
  0
LTYPE
  2
CENTER5
 70
    64
  3
____ _ ____ _ ____ _ ____ _ ____ _ ____ _ ____
 72
    65
 73
     4
 40
100.000000
 49
92.000000
 49
-2.000000
 49
4.000000
 49
-2.000000
  0
LTYPE
  2
SBK1
 70
    64
  3
______ _ _ _ ______ _ _ _ ______ _ _ _ _____  
 72
    65
 73
     8
 40
60.500000
 49
45.000000
 49
-2.000000
 49
2.500000
 49
-2.000000
 49
2.500000
 49
-2.000000
 49
2.500000
 49
-2.000000
  0
LTYPE
  2
SBK2
 70
    64
  3
______ _ _ _ ______ _ _ _ ______ _ _ _ _____  
 72
    65
 73
     8
 40
84.000000
 49
64.000000
 49
-2.000000
 49
4.000000
 49
-2.000000
 49
4.000000
 49
-2.000000
 49
4.000000
 49
-2.000000
  0
LTYPE
  2
STCH
 70
    64
  3
__ __ __ __ __ __ __ __ __ __ __ __ __ __ __
 72
    65
 73
     2
 40
3.000000
 49
1.000000
 49
-2.000000
  0
LTYPE
  2
MTCH
 70
    64
  3
_____ _ _ _____ _ _ _____ _ _ _____ _ _ ____  
 72
    65
 73
     6
 40
80.000000
 49
66.000000
 49
-2.000000
 49
4.000000
 49
-2.000000
 49
4.000000
 49
-2.000000
  0
ENDTAB
  0
TABLE
  2
LAYER
 70
     1
  0
LAYER
  2
0
 70
     0
 62
     7
  6
CONTINUOUS
  0
ENDTAB
  0
TABLE
  2
STYLE
 70
     1
  0
STYLE
  2
STANDARD
 70
     0
 40
0.000000
 41
1.000000
 50
0.000000
 71
     0
 42
0.200000
  3
txt
  4
BIGFONT
  0
ENDTAB
  0
TABLE
  2
VIEW
 70
     0
  0
ENDTAB
  0
ENDSEC
  0
SECTION
  2
BLOCKS
  0
ENDSEC
  0
SECTION
  2
ENTITIES
  0
LINE
  8
0
 10
-31.712147
 20
101.569702
 11
-45.712147
 21
108.069702
  0
LINE
  8
0
 10
-45.712147
 20
101.569710
 11
-31.712149
 21
108.069710
  0
LINE
  8
0
 10
-32.892151
 20
110.069702
 11
-31.992153
 21
108.519714
  0
LINE
  8
0
 10
-44.542145
 20
110.069695
 11
-45.442139
 21
108.519707
  0
LINE
  8
0
 10
-45.402145
 20
110.069702
 11
-32.032150
 21
110.069702
  0
LINE
  8
0
 10
-32.042149
 20
110.569717
 11
-31.982147
 21
108.069702
  0
LINE
  8
0
 10
-45.392159
 20
110.569710
 11
-45.452156
 21
108.069717
  0
LINE
  8
0
 10
-44.532158
 20
110.569710
 11
-44.542156
 21
110.069717
  0
LINE
  8
0
 10
-31.712143
 20
101.569702
 11
-31.712143
 21
108.069702
  0
LINE
  8
0
 10
-45.712143
 20
101.569702
 11
-45.712143
 21
108.069702
  0
LINE
  8
0
 10
-45.712143
 20
108.069702
 11
-31.712143
 21
108.069702
  0
LINE
  8
0
 10
-12.712143
 20
77.069702
 11
-12.712143
 21
96.569702
  0
LINE
  8
0
 10
-64.712143
 20
77.069702
 11
-64.712143
 21
96.569702
  0
LINE
  8
0
 10
-59.712143
 20
101.569702
 11
-17.712143
 21
101.569702
  0
LINE
  8
0
 10
-64.962143
 20
77.069702
 11
-12.462143
 21
77.069702
  0
LINE
  8
0
 10
-12.462143
 20
74.069702
 11
-12.462143
 21
77.069702
  0
LINE
  8
0
 10
-64.962143
 20
74.069702
 11
-64.962143
 21
77.069702
  0
LINE
  8
0
 10
-64.962143
 20
74.069702
 11
-12.462143
 21
74.069702
  0
LINE
  8
0
 10
-32.902153
 20
110.569702
 11
-32.882153
 21
110.069702
  0
LINE
  8
0
 10
-90.712143
 20
185.369690
 11
-84.082146
 21
146.329697
  0
LINE
  8
0
 10
-20.712156
 20
185.369705
 11
-27.352156
 21
146.329712
  0
LINE
  8
0
 10
-20.712143
 20
185.369690
 11
-90.712143
 21
185.369690
  0
LINE
  8
0
 10
-90.712143
 20
185.369690
 11
-90.712143
 21
188.569702
  0
LINE
  8
0
 10
-20.712143
 20
185.369690
 11
-20.712143
 21
188.569702
  0
LINE
  8
0
 10
-20.712143
 20
188.569702
 11
-90.712143
 21
188.569702
  0
LINE
  8
0
 10
-62.052143
 20
129.979706
 11
-61.632145
 21
130.889709
  0
LINE
  8
0
 10
-49.802162
 20
130.889709
 11
-49.382168
 21
129.979706
  0
LINE
  8
0
 10
-69.322144
 20
136.569702
 11
-42.112152
 21
136.569702
  0
LINE
  8
0
 10
-69.322144
 20
150.569702
 11
-42.112152
 21
150.569702
  0
LINE
  8
0
 10
-66.202148
 20
117.069702
 11
-45.232147
 21
117.069702
  0
LINE
  8
0
 10
-66.202148
 20
170.069702
 11
-45.232147
 21
170.069702
  0
LINE
  8
0
 10
-48.712143
 20
111.569702
 11
-28.712143
 21
111.569702
  0
LINE
  8
0
 10
-29.712145
 20
110.569702
 11
-28.712145
 21
111.569695
  0
LINE
  8
0
 10
-48.712147
 20
111.569702
 11
-47.712158
 21
110.569710
  0
LINE
  8
0
 10
-28.712143
 20
122.569702
 11
-28.712143
 21
111.569702
  0
LINE
  8
0
 10
-48.712143
 20
114.419708
 11
-48.712143
 21
111.569702
  0
LINE
  8
0
 10
-47.712143
 20
110.569702
 11
-29.712143
 21
110.569702
  0
LINE
  8
0
 10
-92.712143
 20
140.569702
 11
-84.472137
 21
143.569702
  0
LINE
  8
0
 10
-92.712143
 20
146.569702
 11
-84.472153
 21
143.569702
  0
LINE
  8
0
 10
-92.712143
 20
146.569702
 11
-92.712143
 21
140.569702
  0
LINE
  8
0
 10
-24.422150
 20
163.569702
 11
-16.712143
 21
163.569702
  0
LINE
  8
0
 10
-34.852158
 20
123.569702
 11
-16.712143
 21
123.569702
  0
LINE
  8
0
 10
-15.712143
 20
124.569702
 11
-33.942154
 21
124.569702
  0
LINE
  8
0
 10
-15.712143
 20
162.569702
 11
-24.592148
 21
162.569702
  0
LINE
  8
0
 10
-95.712143
 20
162.569702
 11
-86.842140
 21
162.569702
  0
LINE
  8
0
 10
-95.712143
 20
124.569702
 11
-77.492157
 21
124.569702
  0
LINE
  8
0
 10
-16.712143
 20
163.569702
 11
-16.712143
 21
123.569702
  0
LINE
  8
0
 10
-94.712143
 20
163.569702
 11
-94.712143
 21
123.569702
  0
LINE
  8
0
 10
-16.712139
 20
123.569702
 11
-15.712150
 21
124.569695
  0
LINE
  8
0
 10
-16.712147
 20
163.569702
 11
-15.712153
 21
162.569717
  0
LINE
  8
0
 10
-95.712143
 20
162.569702
 11
-94.712143
 21
163.569702
  0
LINE
  8
0
 10
-94.712143
 20
123.569702
 11
-95.712143
 21
124.569702
  0
LINE
  8
0
 10
-15.712143
 20
162.569702
 11
-15.712143
 21
124.569702
  0
LINE
  8
0
 10
-95.712143
 20
162.569702
 11
-95.712143
 21
124.569702
  0
LINE
  8
0
 10
-94.712143
 20
163.569702
 11
-87.012146
 21
163.569702
  0
LINE
  8
0
 10
-94.712143
 20
123.569702
 11
-76.582153
 21
123.569702
  0
LINE
  8
0
  6
CENTER
 62
     2
 10
-55.712143
 20
187.769699
 11
-55.712143
 21
104.509705
  0
LINE
  8
0
  6
CENTER
 62
     2
 10
-101.672142
 20
143.569702
 11
-9.882156
 21
143.569702
  0
LINE
  8
0
  6
CENTER
 62
     2
 10
-78.212143
 20
181.499695
 11
-78.212143
 21
193.029694
  0
LINE
  8
0
  6
CENTER
 62
     2
 10
-33.212143
 20
181.499695
 11
-33.212143
 21
193.029694
  0
LINE
  8
0
  6
CENTER
 62
     2
 10
-38.712143
 20
123.039703
 11
-38.712143
 21
70.879715
  0
LINE
  8
0
 10
117.965897
 20
-181.812332
 11
130.965897
 21
-181.812332
  0
LINE
  8
0
 10
121.615898
 20
-184.212326
 11
121.615898
 21
-182.312332
  0
LINE
  8
0
 10
127.315895
 20
-184.212326
 11
127.315895
 21
-182.312332
  0
LINE
  8
0
 10
127.715897
 20
-184.412338
 11
127.295898
 21
-186.812317
  0
LINE
  8
0
 10
127.715897
 20
-187.012344
 11
127.295898
 21
-189.412323
  0
LINE
  8
0
 10
121.215904
 20
-187.012329
 11
121.645912
 21
-189.412338
  0
LINE
  8
0
 10
121.215904
 20
-184.412338
 11
121.645905
 21
-186.812347
  0
LINE
  8
0
 10
127.715897
 20
-184.412323
 11
127.715897
 21
-184.212326
  0
LINE
  8
0
 10
121.215897
 20
-184.412323
 11
121.215897
 21
-184.212326
  0
LINE
  8
0
 10
127.715897
 20
-187.012329
 11
121.215897
 21
-187.012329
  0
LINE
  8
0
 10
127.715897
 20
-184.412323
 11
121.215897
 21
-184.412323
  0
LINE
  8
0
 10
127.715897
 20
-184.212326
 11
121.215897
 21
-184.212326
  0
LINE
  8
0
 10
127.715897
 20
-186.812332
 11
121.215897
 21
-186.812332
  0
LINE
  8
0
 10
127.715897
 20
-187.012329
 11
127.715897
 21
-186.812332
  0
LINE
  8
0
 10
121.215897
 20
-187.012329
 11
121.215897
 21
-186.812332
  0
LINE
  8
0
 10
127.295898
 20
-189.412323
 11
121.645897
 21
-189.412323
  0
LINE
  8
0
 10
130.465897
 20
-182.312332
 11
130.965897
 21
-181.812317
  0
LINE
  8
0
 10
117.965889
 20
-181.812317
 11
118.465889
 21
-182.312332
  0
LINE
  8
0
 10
117.965897
 20
-181.812332
 11
117.965897
 21
-180.812332
  0
LINE
  8
0
 10
130.965897
 20
-181.812332
 11
130.965897
 21
-180.812332
  0
LINE
  8
0
 10
130.465897
 20
-182.312332
 11
118.465897
 21
-182.312332
  0
LINE
  8
0
 10
118.205894
 20
-180.312332
 11
117.455894
 21
-180.312332
  0
LINE
  8
0
 10
131.485901
 20
-180.312332
 11
130.725891
 21
-180.312332
  0
LINE
  8
0
 10
122.625900
 20
-180.312332
 11
120.815895
 21
-180.312332
  0
LINE
  8
0
 10
118.035904
 20
-179.812332
 11
118.205902
 21
-180.312332
  0
LINE
  8
0
 10
130.905899
 20
-179.812332
 11
130.725906
 21
-180.312317
  0
LINE
  8
0
 10
131.485901
 20
-170.602325
 11
132.075897
 21
-170.312332
  0
LINE
  8
0
 10
128.125900
 20
-170.602325
 11
128.785904
 21
-170.312332
  0
LINE
  8
0
 10
126.315903
 20
-170.602341
 11
125.965912
 21
-170.312332
  0
LINE
  8
0
 10
122.625900
 20
-170.602325
 11
122.965904
 21
-170.312317
  0
LINE
  8
0
 10
120.815903
 20
-170.602325
 11
120.155899
 21
-170.312332
  0
LINE
  8
0
 10
117.455894
 20
-170.602325
 11
116.865891
 21
-170.312332
  0
LINE
  8
0
 10
117.455902
 20
-180.312332
 11
116.865891
 21
-179.812317
  0
LINE
  8
0
 10
120.815918
 20
-180.312332
 11
120.155914
 21
-179.812317
  0
LINE
  8
0
 10
122.965897
 20
-179.812317
 11
122.625900
 21
-180.312317
  0
LINE
  8
0
 10
126.315895
 20
-180.312332
 11
125.965881
 21
-179.812332
  0
LINE
  8
0
 10
128.125885
 20
-180.312332
 11
128.785889
 21
-179.812332
  0
LINE
  8
0
 10
131.485886
 20
-180.312332
 11
132.075897
 21
-179.812317
  0
LINE
  8
0
 10
128.125900
 20
-180.312332
 11
126.315895
 21
-180.312332
  0
LINE
  8
0
 10
130.905899
 20
-179.812332
 11
128.785889
 21
-179.812332
  0
LINE
  8
0
 10
116.865898
 20
-179.812332
 11
116.715897
 21
-179.812332
  0
LINE
  8
0
 10
120.155899
 20
-179.812332
 11
118.035896
 21
-179.812332
  0
LINE
  8
0
 10
125.965897
 20
-179.812332
 11
122.965897
 21
-179.812332
  0
LINE
  8
0
 10
118.035896
 20
-170.602325
 11
117.455894
 21
-170.602325
  0
LINE
  8
0
 10
118.035896
 20
-170.312332
 11
116.865898
 21
-170.312332
  0
LINE
  8
0
 10
128.125900
 20
-170.602325
 11
126.315895
 21
-170.602325
  0
LINE
  8
0
 10
128.785889
 20
-170.312332
 11
125.965897
 21
-170.312332
  0
LINE
  8
0
 10
122.625900
 20
-170.602325
 11
120.815895
 21
-170.602325
  0
LINE
  8
0
 10
122.965897
 20
-170.312332
 11
120.155899
 21
-170.312332
  0
LINE
  8
0
 10
132.215897
 20
-179.812332
 11
132.075897
 21
-179.812332
  0
LINE
  8
0
 10
131.485901
 20
-170.602325
 11
130.905899
 21
-170.602325
  0
LINE
  8
0
 10
132.075897
 20
-170.312332
 11
130.905899
 21
-170.312332
  0
LINE
  8
0
 10
132.075897
 20
-170.312332
 11
132.075897
 21
-179.812332
  0
LINE
  8
0
 10
131.485901
 20
-170.602325
 11
131.485901
 21
-180.312332
  0
LINE
  8
0
 10
130.905899
 20
-170.312332
 11
130.905899
 21
-179.812332
  0
LINE
  8
0
 10
128.785889
 20
-170.312332
 11
128.785889
 21
-179.812332
  0
LINE
  8
0
 10
128.125900
 20
-170.602325
 11
128.125900
 21
-180.312332
  0
LINE
  8
0
 10
116.865898
 20
-170.312332
 11
116.865898
 21
-179.812332
  0
LINE
  8
0
 10
117.455894
 20
-170.602325
 11
117.455894
 21
-180.312332
  0
LINE
  8
0
 10
118.035896
 20
-170.312332
 11
118.035896
 21
-179.812332
  0
LINE
  8
0
 10
120.155899
 20
-170.312332
 11
120.155899
 21
-179.812332
  0
LINE
  8
0
 10
120.815895
 20
-170.602325
 11
120.815895
 21
-180.312332
  0
LINE
  8
0
 10
122.625900
 20
-170.602325
 11
122.625900
 21
-180.312332
  0
LINE
  8
0
 10
126.315895
 20
-170.602325
 11
126.315895
 21
-180.312332
  0
LINE
  8
0
 10
125.965897
 20
-170.312332
 11
125.965897
 21
-179.812332
  0
LINE
  8
0
 10
122.965897
 20
-170.312332
 11
122.965897
 21
-179.812332
  0
LINE
  8
0
 10
117.715897
 20
-180.812317
 11
116.715897
 21
-179.812317
  0
LINE
  8
0
 10
132.215897
 20
-179.812317
 11
131.215897
 21
-180.812317
  0
LINE
  8
0
 10
131.215897
 20
-180.812332
 11
117.715897
 21
-180.812332
  0
LINE
  8
0
 10
116.395897
 20
-165.522324
 11
132.545898
 21
-165.522324
  0
LINE
  8
0
 10
95.755905
 20
-71.032333
 11
95.755905
 21
-147.022324
  0
LINE
  8
0
 10
96.345901
 20
-71.532333
 11
96.345901
 21
-146.522324
  0
LINE
  8
0
 10
96.605911
 20
-72.032333
 11
96.605911
 21
-104.032333
  0
LINE
  8
0
 10
98.445908
 20
-72.532333
 11
98.445908
 21
-103.532333
  0
LINE
  8
0
 10
105.515900
 20
-72.032333
 11
105.515900
 21
-104.032333
  0
LINE
  8
0
 10
105.895905
 20
-71.032333
 11
105.895905
 21
-147.022324
  0
LINE
  8
0
 10
96.755905
 20
-70.032333
 11
104.895905
 21
-70.032333
  0
LINE
  8
0
 10
97.345901
 20
-70.532333
 11
104.895905
 21
-70.532333
  0
LINE
  8
0
 10
104.895905
 20
-148.022324
 11
96.755905
 21
-148.022324
  0
LINE
  8
0
 10
104.895905
 20
-147.522324
 11
97.345901
 21
-147.522324
  0
LINE
  8
0
 10
105.515900
 20
-112.032333
 11
105.515900
 21
-146.022324
  0
LINE
  8
0
 10
98.445908
 20
-112.532333
 11
98.445908
 21
-145.522324
  0
LINE
  8
0
 10
96.605911
 20
-112.032333
 11
96.605911
 21
-146.022324
  0
LINE
  8
0
 10
104.515900
 20
-146.522324
 11
99.445908
 21
-146.522324
  0
LINE
  8
0
 10
104.515900
 20
-104.532333
 11
99.445908
 21
-104.532333
  0
LINE
  8
0
 10
104.515900
 20
-111.532333
 11
99.445908
 21
-111.532333
  0
LINE
  8
0
 10
99.445908
 20
-71.532333
 11
104.515900
 21
-71.532333
  0
LINE
  8
0
 10
97.605911
 20
-71.032333
 11
104.515900
 21
-71.032333
  0
LINE
  8
0
 10
104.515900
 20
-105.032333
 11
97.605911
 21
-105.032333
  0
LINE
  8
0
 10
104.515900
 20
-111.032333
 11
97.605911
 21
-111.032333
  0
LINE
  8
0
 10
104.515900
 20
-147.022324
 11
97.605911
 21
-147.022324
  0
LINE
  8
0
 10
153.185883
 20
-71.032333
 11
153.185883
 21
-147.022324
  0
LINE
  8
0
 10
152.585892
 20
-71.532333
 11
152.585892
 21
-146.522324
  0
LINE
  8
0
 10
152.335892
 20
-72.032333
 11
152.335892
 21
-104.032333
  0
LINE
  8
0
 10
150.495895
 20
-72.532333
 11
150.495895
 21
-103.532333
  0
LINE
  8
0
 10
143.425888
 20
-72.032333
 11
143.425888
 21
-104.032333
  0
LINE
  8
0
 10
143.045883
 20
-71.032333
 11
143.045883
 21
-147.022324
  0
LINE
  8
0
 10
152.185883
 20
-70.032333
 11
144.045883
 21
-70.032333
  0
LINE
  8
0
 10
151.585892
 20
-70.532333
 11
144.045883
 21
-70.532333
  0
LINE
  8
0
 10
144.045883
 20
-148.022324
 11
152.185883
 21
-148.022324
  0
LINE
  8
0
 10
144.045883
 20
-147.522324
 11
151.585892
 21
-147.522324
  0
LINE
  8
0
 10
143.425888
 20
-112.032333
 11
143.425888
 21
-146.022324
  0
LINE
  8
0
 10
150.495895
 20
-112.532333
 11
150.495895
 21
-145.522324
  0
LINE
  8
0
 10
152.335892
 20
-112.032333
 11
152.335892
 21
-146.022324
  0
LINE
  8
0
 10
144.425888
 20
-146.522324
 11
149.495895
 21
-146.522324
  0
LINE
  8
0
 10
144.425888
 20
-104.532333
 11
149.495895
 21
-104.532333
  0
LINE
  8
0
 10
144.425888
 20
-111.532333
 11
149.495895
 21
-111.532333
  0
LINE
  8
0
 10
149.495895
 20
-71.532333
 11
144.425888
 21
-71.532333
  0
LINE
  8
0
 10
151.335892
 20
-71.032333
 11
144.425888
 21
-71.032333
  0
LINE
  8
0
 10
144.425888
 20
-105.032333
 11
151.335892
 21
-105.032333
  0
LINE
  8
0
 10
144.425888
 20
-111.032333
 11
151.335892
 21
-111.032333
  0
LINE
  8
0
 10
144.425888
 20
-147.022324
 11
151.335892
 21
-147.022324
  0
LINE
  8
0
 10
142.885895
 20
-164.522324
 11
106.055908
 21
-164.522324
  0
LINE
  8
0
 10
132.215897
 20
-167.812332
 11
116.715897
 21
-167.812332
  0
LINE
  8
0
 62
     2
 10
129.715897
 20
-166.022324
 11
129.715897
 21
-167.312332
  0
LINE
  8
0
 62
     2
 10
119.215897
 20
-166.022324
 11
119.215897
 21
-167.312332
  0
LINE
  8
0
 10
118.465897
 20
-166.022324
 11
118.465897
 21
-167.312332
  0
LINE
  8
0
 10
130.465897
 20
-166.022324
 11
130.465897
 21
-167.312332
  0
LINE
  8
0
 10
117.215889
 20
-167.312332
 11
116.715889
 21
-167.812317
  0
LINE
  8
0
 10
131.715897
 20
-167.312332
 11
132.215897
 21
-167.812332
  0
LINE
  8
0
 10
131.715897
 20
-167.312332
 11
117.215897
 21
-167.312332
  0
LINE
  8
0
 10
116.895897
 20
-166.022324
 11
116.395897
 21
-165.522324
  0
LINE
  8
0
 10
132.045883
 20
-166.022324
 11
132.545883
 21
-165.522324
  0
LINE
  8
0
 10
132.545898
 20
-165.522324
 11
132.545898
 21
-164.522324
  0
LINE
  8
0
 10
116.395897
 20
-165.522324
 11
116.395897
 21
-164.522324
  0
LINE
  8
0
 10
116.895897
 20
-166.022324
 11
132.045898
 21
-166.022324
  0
LINE
  8
0
 10
116.715897
 20
-167.812332
 11
116.715897
 21
-179.812332
  0
LINE
  8
0
 10
132.215897
 20
-167.812332
 11
132.215897
 21
-179.812332
  0
LINE
  8
0
 10
163.965897
 20
-45.332336
 11
163.965897
 21
-64.332336
  0
LINE
  8
0
 10
166.265884
 20
26.667664
 11
169.465897
 21
26.667664
  0
LINE
  8
0
 10
166.265884
 20
4.367661
 11
166.265884
 21
29.667664
  0
LINE
  8
0
 10
169.465897
 20
4.367661
 11
169.465897
 21
29.667664
  0
LINE
  8
0
 10
107.295898
 20
12.867652
 11
107.575897
 21
11.867660
  0
LINE
  8
0
 10
113.355896
 20
11.867648
 11
114.125900
 21
12.867661
  0
LINE
  8
0
 10
120.965897
 20
11.867654
 11
120.685898
 21
12.867661
  0
LINE
  8
0
 10
127.965897
 20
11.867657
 11
128.245895
 21
12.867661
  0
LINE
  8
0
 10
135.575897
 20
11.867642
 11
134.805893
 21
12.867656
  0
LINE
  8
0
 10
141.635910
 20
12.867654
 11
141.355911
 21
11.867661
  0
LINE
  8
0
 10
147.205887
 20
11.867651
 11
146.155884
 21
12.867653
  0
LINE
  8
0
 10
152.745895
 20
11.867654
 11
151.695892
 21
12.867655
  0
LINE
  8
0
 10
98.225891
 20
11.867650
 11
98.985893
 21
12.867658
  0
LINE
  8
0
 10
150.705902
 20
11.867649
 11
149.945908
 21
12.867654
  0
LINE
  8
0
 10
150.705887
 20
11.867661
 11
147.205887
 21
11.867661
  0
LINE
  8
0
 10
101.725906
 20
11.867661
 11
98.225906
 21
11.867661
  0
LINE
  8
0
 10
141.355896
 20
11.867661
 11
135.575897
 21
11.867661
  0
LINE
  8
0
 10
113.355896
 20
11.867661
 11
107.575897
 21
11.867661
  0
LINE
  8
0
 10
127.965897
 20
11.867661
 11
120.965897
 21
11.867661
  0
LINE
  8
0
 10
152.965897
 20
11.867661
 11
152.745895
 21
11.867661
  0
LINE
  8
0
 10
152.965897
 20
11.867658
 11
151.965897
 21
12.867659
  0
LINE
  8
0
 10
151.965897
 20
12.867661
 11
96.965897
 21
12.867661
  0
LINE
  8
0
 10
98.225891
 20
11.867650
 11
98.985893
 21
12.867658
  0
LINE
  8
0
 10
101.725906
 20
11.867652
 11
102.775909
 21
12.867654
  0
LINE
  8
0
  6
CENTER
 62
     2
 10
171.585892
 20
19.667664
 11
163.755890
 21
19.667664
  0
LINE
  8
0
 10
166.265884
 20
29.667664
 11
169.465897
 21
29.667664
  0
LINE
  8
0
 10
145.715897
 20
29.367661
 11
103.215897
 21
29.367661
  0
LINE
  8
0
 10
109.405891
 20
28.867659
 11
108.845894
 21
12.867661
  0
LINE
  8
0
 10
119.855888
 20
28.867655
 11
119.295891
 21
12.867658
  0
LINE
  8
0
 10
129.635880
 20
12.867659
 11
129.075882
 21
28.867657
  0
LINE
  8
0
 10
140.085892
 20
12.867661
 11
139.525894
 21
28.867659
  0
LINE
  8
0
 10
105.895912
 20
28.867649
 11
105.345917
 21
12.867655
  0
LINE
  8
0
 10
143.585892
 20
12.867655
 11
143.035889
 21
28.867649
  0
LINE
  8
0
 10
113.295891
 20
32.867657
 11
114.535896
 21
33.517654
  0
LINE
  8
0
 10
105.175896
 20
33.517654
 11
103.785896
 21
32.867661
  0
LINE
  8
0
 10
104.615898
 20
58.177658
 11
103.785904
 21
32.867653
  0
LINE
  8
0
 10
105.975922
 20
58.867664
 11
105.175919
 21
33.517658
  0
LINE
  8
0
 10
105.975906
 20
58.867661
 11
105.395905
 21
58.867661
  0
LINE
  8
0
 10
104.615898
 20
58.177650
 11
105.975891
 21
58.867653
  0
LINE
  8
0
 10
104.215897
 20
58.177658
 11
104.615906
 21
58.177658
  0
LINE
  8
0
 10
107.605896
 20
58.177662
 11
106.395897
 21
32.867657
  0
LINE
  8
0
 10
108.305893
 20
58.867661
 11
107.605888
 21
58.177658
  0
LINE
  8
0
 10
108.305908
 20
58.867661
 11
114.475899
 21
58.867661
  0
LINE
  8
0
 10
107.605911
 20
58.177658
 11
113.265900
 21
58.177658
  0
LINE
  8
0
 10
113.295898
 20
32.867661
 11
119.585899
 21
32.867661
  0
LINE
  8
0
 10
114.535896
 20
33.517654
 11
119.225899
 21
33.517654
  0
LINE
  8
0
 10
113.265900
 20
58.177658
 11
113.295898
 21
32.867664
  0
LINE
  8
0
 10
114.475899
 20
58.867653
 11
114.535896
 21
33.517658
  0
LINE
  8
0
 10
113.265892
 20
58.177654
 11
114.475891
 21
58.867657
  0
LINE
  8
0
 10
105.175903
 20
33.517654
 11
106.425903
 21
33.517654
  0
LINE
  8
0
 10
103.215897
 20
29.367661
 11
104.215897
 21
58.177662
  0
LINE
  8
0
 10
104.215904
 20
58.177654
 11
105.395897
 21
58.867653
  0
LINE
  8
0
 10
103.785904
 20
32.867661
 11
106.395905
 21
32.867661
  0
LINE
  8
0
 10
105.395912
 20
58.867661
 11
105.435905
 21
59.897659
  0
LINE
  8
0
 10
119.585884
 20
32.867645
 11
119.225883
 21
33.517651
  0
LINE
  8
0
 10
129.705902
 20
33.517654
 11
129.345901
 21
32.867645
  0
LINE
  8
0
 10
135.635910
 20
32.867649
 11
134.395905
 21
33.517651
  0
LINE
  8
0
 10
143.755890
 20
33.517654
 11
145.145889
 21
32.867657
  0
LINE
  8
0
 10
144.315887
 20
58.177658
 11
145.145889
 21
32.867653
  0
LINE
  8
0
 10
142.955887
 20
58.867661
 11
143.755890
 21
33.517658
  0
LINE
  8
0
 10
142.955887
 20
58.867661
 11
143.535889
 21
58.867661
  0
LINE
  8
0
 10
144.315903
 20
58.177654
 11
142.955902
 21
58.867657
  0
LINE
  8
0
 10
144.715897
 20
58.177658
 11
144.315887
 21
58.177658
  0
LINE
  8
0
 10
141.325882
 20
58.177662
 11
142.535889
 21
32.867657
  0
LINE
  8
0
 10
140.625900
 20
58.867664
 11
141.325897
 21
58.177662
  0
LINE
  8
0
 10
140.625885
 20
58.867661
 11
134.455902
 21
58.867661
  0
LINE
  8
0
 10
141.325882
 20
58.177658
 11
135.665894
 21
58.177658
  0
LINE
  8
0
 10
135.635895
 20
32.867661
 11
129.345901
 21
32.867661
  0
LINE
  8
0
 10
134.395889
 20
33.517654
 11
129.705902
 21
33.517654
  0
LINE
  8
0
 10
135.665894
 20
58.177658
 11
135.635895
 21
32.867664
  0
LINE
  8
0
 10
134.455902
 20
58.867653
 11
134.395889
 21
33.517658
  0
LINE
  8
0
 10
135.665909
 20
58.177654
 11
134.455902
 21
58.867653
  0
LINE
  8
0
 10
143.755890
 20
33.517654
 11
142.505890
 21
33.517654
  0
LINE
  8
0
 10
120.105888
 20
58.867657
 11
119.225891
 21
33.517662
  0
LINE
  8
0
 10
129.705902
 20
33.517662
 11
128.825897
 21
58.867657
  0
LINE
  8
0
 10
120.465889
 20
58.177662
 11
119.585892
 21
32.867653
  0
LINE
  8
0
 10
129.345901
 20
32.867653
 11
128.465897
 21
58.177662
  0
LINE
  8
0
 10
128.465897
 20
58.177658
 11
120.465897
 21
58.177658
  0
LINE
  8
0
 10
103.695900
 20
28.867645
 11
103.215889
 21
29.347654
  0
LINE
  8
0
 10
145.715897
 20
29.367659
 11
145.255890
 21
28.867655
  0
LINE
  8
0
 10
145.715897
 20
29.367662
 11
144.715897
 21
58.177662
  0
LINE
  8
0
 10
144.715897
 20
58.177647
 11
143.535889
 21
58.867645
  0
LINE
  8
0
 10
145.145889
 20
32.867661
 11
142.535889
 21
32.867661
  0
LINE
  8
0
 10
128.825897
 20
58.867661
 11
120.105896
 21
58.867661
  0
LINE
  8
0
 10
145.255890
 20
28.867661
 11
103.695908
 21
28.867661
  0
LINE
  8
0
 10
143.535904
 20
58.867661
 11
143.495895
 21
59.897663
  0
LINE
  8
0
 10
142.495895
 20
60.867661
 11
106.435898
 21
60.867661
  0
LINE
  8
0
 10
95.965897
 20
11.867664
 11
96.965897
 21
12.867660
  0
LINE
  8
0
 10
97.235901
 20
12.867657
 11
96.185898
 21
11.867657
  0
LINE
  8
0
 10
82.465912
 20
-36.332336
 11
88.965912
 21
-22.332340
  0
LINE
  8
0
 10
82.465904
 20
-22.332335
 11
88.965904
 21
-36.332333
  0
LINE
  8
0
 10
90.965904
 20
-35.152332
 11
89.415901
 21
-36.052334
  0
LINE
  8
0
 10
90.965904
 20
-23.512341
 11
89.415901
 21
-22.612339
  0
LINE
  8
0
 10
90.965897
 20
-22.652336
 11
90.965897
 21
-36.012337
  0
LINE
  8
0
 10
91.465904
 20
-36.002335
 11
88.965904
 21
-36.062336
  0
LINE
  8
0
 10
91.465904
 20
-22.662336
 11
88.965904
 21
-22.602337
  0
LINE
  8
0
 10
91.465904
 20
-23.522337
 11
90.965904
 21
-23.502337
  0
LINE
  8
0
 10
82.465897
 20
-36.332336
 11
88.965897
 21
-36.332336
  0
LINE
  8
0
 10
82.465897
 20
-22.332336
 11
88.965897
 21
-22.332336
  0
LINE
  8
0
 10
88.965897
 20
-22.332336
 11
88.965897
 21
-36.332336
  0
LINE
  8
0
 10
57.965897
 20
-55.332336
 11
77.465897
 21
-55.332336
  0
LINE
  8
0
 10
57.965897
 20
-3.332336
 11
77.465897
 21
-3.332336
  0
LINE
  8
0
 10
82.465897
 20
-8.332336
 11
82.465897
 21
-50.332336
  0
LINE
  8
0
 10
57.965897
 20
-3.082336
 11
57.965897
 21
-55.582336
  0
LINE
  8
0
 10
54.965897
 20
-55.582336
 11
57.965897
 21
-55.582336
  0
LINE
  8
0
 10
54.965897
 20
-3.082336
 11
57.965897
 21
-3.082336
  0
LINE
  8
0
 10
54.965897
 20
-3.082336
 11
54.965897
 21
-55.582336
  0
LINE
  8
0
 10
91.465904
 20
-35.142338
 11
90.965904
 21
-35.162334
  0
LINE
  8
0
 10
157.465881
 20
-22.762337
 11
158.435883
 21
-22.732338
  0
LINE
  8
0
 10
157.465897
 20
-23.612337
 11
158.915894
 21
-23.572336
  0
LINE
  8
0
 10
158.435883
 20
-22.732334
 11
159.135895
 21
-23.942339
  0
LINE
  8
0
 10
158.435883
 20
-35.932327
 11
159.135895
 21
-34.722328
  0
LINE
  8
0
 10
159.135895
 20
-23.942337
 11
159.135895
 21
-34.722336
  0
LINE
  8
0
 10
158.435883
 20
-22.732338
 11
158.435883
 21
-35.932335
  0
LINE
  8
0
 10
157.465881
 20
-35.902336
 11
158.435883
 21
-35.932335
  0
LINE
  8
0
 10
157.465881
 20
-35.052338
 11
158.915894
 21
-35.092335
  0
LINE
  8
0
 10
156.465897
 20
-19.332336
 11
156.465897
 21
-39.332336
  0
LINE
  8
0
 10
92.465897
 20
-19.332336
 11
92.465897
 21
-39.332336
  0
LINE
  8
0
 10
153.575882
 20
-19.332336
 11
156.465897
 21
-19.332336
  0
LINE
  8
0
 10
154.275894
 20
-39.332336
 11
156.465897
 21
-39.332336
  0
LINE
  8
0
 10
156.465866
 20
-39.332325
 11
157.465881
 21
-38.332325
  0
LINE
  8
0
 10
156.465881
 20
-19.332350
 11
157.465881
 21
-20.332342
  0
LINE
  8
0
 10
91.465912
 20
-20.332335
 11
92.465904
 21
-19.332346
  0
LINE
  8
0
 10
92.465904
 20
-39.332333
 11
91.465904
 21
-38.332336
  0
LINE
  8
0
 10
157.465897
 20
-20.332336
 11
157.465897
 21
-38.332336
  0
LINE
  8
0
 10
91.465897
 20
-20.332336
 11
91.465897
 21
-38.332336
  0
LINE
  8
0
 10
92.465897
 20
-19.332336
 11
95.355911
 21
-19.332336
  0
LINE
  8
0
 10
92.465897
 20
-39.332336
 11
94.655899
 21
-39.332336
  0
LINE
  8
0
 62
     2
 10
102.965897
 20
-0.332336
 11
102.965897
 21
2.867661
  0
LINE
  8
0
 62
     2
 10
145.965897
 20
-0.332336
 11
145.965897
 21
2.867661
  0
LINE
  8
0
 10
101.965897
 20
-0.332336
 11
101.965897
 21
2.867661
  0
LINE
  8
0
 10
146.965897
 20
-0.332336
 11
146.965897
 21
2.867661
  0
LINE
  8
0
 10
96.965897
 20
-0.332336
 11
96.965897
 21
2.867661
  0
LINE
  8
0
 10
102.765907
 20
5.867660
 11
101.725906
 21
4.867657
  0
LINE
  8
0
 10
107.295898
 20
5.867663
 11
107.575897
 21
4.867656
  0
LINE
  8
0
 10
113.355904
 20
4.867656
 11
114.125900
 21
5.867656
  0
LINE
  8
0
 10
120.685890
 20
5.867655
 11
120.965897
 21
4.867650
  0
LINE
  8
0
 10
128.245895
 20
5.867655
 11
127.965889
 21
4.867650
  0
LINE
  8
0
 10
135.575897
 20
4.867653
 11
134.805893
 21
5.867656
  0
LINE
  8
0
 10
141.635895
 20
5.867666
 11
141.355896
 21
4.867658
  0
LINE
  8
0
 10
146.155899
 20
5.867662
 11
147.205902
 21
4.867666
  0
LINE
  8
0
 10
97.235909
 20
5.867655
 11
96.185905
 21
4.867653
  0
LINE
  8
0
 10
152.745880
 20
4.867655
 11
151.695892
 21
5.867654
  0
LINE
  8
0
 10
151.695892
 20
5.867661
 11
150.705887
 21
5.867661
  0
LINE
  8
0
 10
152.745895
 20
4.867661
 11
150.705887
 21
4.867661
  0
LINE
  8
0
 10
98.225906
 20
5.867661
 11
97.235901
 21
5.867661
  0
LINE
  8
0
 10
98.225906
 20
4.867661
 11
96.185898
 21
4.867661
  0
LINE
  8
0
 10
146.155884
 20
5.867661
 11
141.635895
 21
5.867661
  0
LINE
  8
0
 10
147.205887
 20
4.867661
 11
141.355896
 21
4.867661
  0
LINE
  8
0
 10
107.295898
 20
5.867661
 11
102.765900
 21
5.867661
  0
LINE
  8
0
 10
107.575897
 20
4.867661
 11
101.725906
 21
4.867661
  0
LINE
  8
0
 10
134.805893
 20
5.867661
 11
128.245895
 21
5.867661
  0
LINE
  8
0
 10
135.575897
 20
4.867661
 11
127.965897
 21
4.867661
  0
LINE
  8
0
 10
120.685898
 20
5.867661
 11
114.125900
 21
5.867661
  0
LINE
  8
0
 10
120.965897
 20
4.867661
 11
113.355896
 21
4.867661
  0
LINE
  8
0
 10
152.965897
 20
2.867661
 11
95.965897
 21
2.867661
  0
LINE
  8
0
 10
96.965897
 20
-0.332336
 11
97.465897
 21
-0.332336
  0
LINE
  8
0
 10
152.965881
 20
-1.832348
 11
154.415894
 21
-43.362335
  0
LINE
  8
0
 10
94.515907
 20
-43.362335
 11
95.965904
 21
-1.832348
  0
LINE
  8
0
 10
151.465897
 20
-0.332339
 11
152.965897
 21
-1.832340
  0
LINE
  8
0
 10
95.965897
 20
-1.832335
 11
97.465897
 21
-0.332333
  0
LINE
  8
0
 10
95.965897
 20
-1.832336
 11
152.965897
 21
-1.832336
  0
LINE
  8
0
 10
97.465897
 20
-0.332336
 11
151.465897
 21
-0.332336
  0
LINE
  8
0
 10
124.465897
 20
-12.632339
 11
124.465897
 21
-13.332336
  0
LINE
  8
0
 10
121.465897
 20
-12.632339
 11
121.465897
 21
-13.332336
  0
LINE
  8
0
 10
127.465897
 20
-12.632339
 11
127.465897
 21
-13.332336
  0
LINE
  8
0
 10
121.465897
 20
-12.632339
 11
127.465897
 21
-12.632339
  0
LINE
  8
0
 10
144.465897
 20
-14.332336
 11
144.465897
 21
-45.332336
  0
LINE
  8
0
 10
104.465897
 20
-14.332336
 11
104.465897
 21
-45.332336
  0
LINE
  8
0
  6
CENTER
 62
     2
 10
52.475906
 20
-29.332336
 11
160.305893
 21
-29.332336
  0
LINE
  8
0
 10
143.465897
 20
-13.332341
 11
144.465897
 21
-14.332337
  0
LINE
  8
0
 10
105.465897
 20
-13.332339
 11
104.465897
 21
-14.332340
  0
LINE
  8
0
 10
104.465897
 20
-14.332336
 11
144.465897
 21
-14.332336
  0
LINE
  8
0
 10
105.465897
 20
-13.332336
 11
105.465897
 21
-45.332336
  0
LINE
  8
0
 10
143.465897
 20
-13.332336
 11
143.465897
 21
-45.332336
  0
LINE
  8
0
 10
105.465897
 20
-13.332336
 11
143.465897
 21
-13.332336
  0
LINE
  8
0
 10
85.965897
 20
-65.332336
 11
162.965897
 21
-65.332336
  0
LINE
  8
0
 10
146.465897
 20
-44.332336
 11
162.965897
 21
-44.332336
  0
LINE
  8
0
 10
84.965904
 20
-45.332329
 11
85.965912
 21
-44.332329
  0
LINE
  8
0
 10
84.965904
 20
-64.332329
 11
85.965904
 21
-65.332329
  0
LINE
  8
0
 10
85.965897
 20
-44.332336
 11
102.465897
 21
-44.332336
  0
LINE
  8
0
 10
84.965897
 20
-45.332336
 11
84.965897
 21
-64.332336
  0
LINE
  8
0
 10
163.965881
 20
-64.332329
 11
162.965881
 21
-65.332329
  0
LINE
  8
0
 10
84.965897
 20
-64.332336
 11
163.965897
 21
-64.332336
  0
LINE
  8
0
 10
163.965881
 20
-45.332329
 11
162.965881
 21
-44.332329
  0
LINE
  8
0
 10
84.965897
 20
-45.332336
 11
163.965897
 21
-45.332336
  0
LINE
  8
0
 10
151.465897
 20
-0.332336
 11
164.765884
 21
-0.332336
  0
LINE
  8
0
 10
152.965897
 20
2.867661
 11
164.765884
 21
2.867661
  0
LINE
  8
0
 10
152.965897
 20
2.867661
 11
152.965897
 21
11.867661
  0
LINE
  8
0
 10
95.965897
 20
2.867661
 11
95.965897
 21
11.867661
  0
LINE
  8
0
 10
127.965897
 20
4.867661
 11
127.965897
 21
11.867661
  0
LINE
  8
0
 10
120.965897
 20
4.867661
 11
120.965897
 21
11.867661
  0
LINE
  8
0
 10
120.685898
 20
5.867661
 11
120.685898
 21
12.867661
  0
LINE
  8
0
 10
128.245895
 20
5.867661
 11
128.245895
 21
12.867661
  0
LINE
  8
0
 10
135.575897
 20
4.867661
 11
135.575897
 21
11.867661
  0
LINE
  8
0
 10
134.805893
 20
5.867661
 11
134.805893
 21
12.867661
  0
LINE
  8
0
 10
113.355896
 20
4.867661
 11
113.355896
 21
11.867661
  0
LINE
  8
0
 10
114.125900
 20
5.867661
 11
114.125900
 21
12.867661
  0
LINE
  8
0
 10
107.295898
 20
5.867661
 11
107.295898
 21
12.867661
  0
LINE
  8
0
 10
107.575897
 20
4.867661
 11
107.575897
 21
11.867661
  0
LINE
  8
0
 10
141.635895
 20
5.867661
 11
141.635895
 21
12.867661
  0
LINE
  8
0
 10
141.355896
 20
4.867661
 11
141.355896
 21
11.867661
  0
LINE
  8
0
 10
102.765900
 20
5.867661
 11
102.765900
 21
12.867661
  0
LINE
  8
0
 10
101.725906
 20
4.867661
 11
101.725906
 21
11.867661
  0
LINE
  8
0
 10
147.205887
 20
4.867661
 11
147.205887
 21
11.867661
  0
LINE
  8
0
 10
146.155884
 20
5.867661
 11
146.155884
 21
12.867661
  0
LINE
  8
0
 10
98.225906
 20
4.867661
 11
98.225906
 21
11.867661
  0
LINE
  8
0
 10
150.705887
 20
4.867661
 11
150.705887
 21
11.867661
  0
LINE
  8
0
 10
97.235901
 20
5.867661
 11
97.235901
 21
12.867661
  0
LINE
  8
0
 10
96.185898
 20
4.867661
 11
96.185898
 21
11.867661
  0
LINE
  8
0
 10
151.695892
 20
5.867661
 11
151.695892
 21
12.867661
  0
LINE
  8
0
 10
152.745895
 20
4.867661
 11
152.745895
 21
11.867661
  0
LINE
  8
0
 10
166.265900
 20
8.987658
 11
160.135895
 21
2.867652
  0
LINE
  8
0
 10
96.185883
 20
11.867661
 11
95.965881
 21
11.867661
  0
LINE
  8
0
  6
CENTER
 62
     2
 10
124.465897
 20
64.767654
 11
124.465897
 21
-193.112335
  0
LINE
  8
0
 10
157.885895
 20
-149.652328
 11
158.625900
 21
-65.332321
  0
LINE
  8
0
 10
91.055908
 20
-149.652328
 11
90.315910
 21
-65.332329
  0
LINE
  8
0
 62
     2
 10
-66.202164
 20
2.867629
 11
-45.232166
 21
11.867629
  0
LINE
  8
0
 62
     2
 10
-45.232170
 20
2.867646
 11
-66.202164
 21
11.867641
  0
LINE
  8
0
 10
-66.202164
 20
11.867642
 11
-63.062160
 21
12.867642
  0
LINE
  8
0
 10
-45.232170
 20
11.867636
 11
-48.372173
 21
12.867638
  0
LINE
  8
0
 62
     2
 10
-77.212158
 20
-0.332352
 11
-77.212158
 21
2.867645
  0
LINE
  8
0
 10
-78.212158
 20
-0.332352
 11
-78.212158
 21
2.867645
  0
LINE
  8
0
 62
     2
 10
-34.212158
 20
-0.332352
 11
-34.212158
 21
2.867645
  0
LINE
  8
0
 10
-33.212158
 20
-0.332352
 11
-33.212158
 21
2.867645
  0
LINE
  8
0
 10
-80.712158
 20
23.917648
 11
-75.712158
 21
23.917648
  0
LINE
  8
0
  6
CENTER
 62
     2
 10
-78.212158
 20
13.887634
 11
-78.212158
 21
25.937637
  0
LINE
  8
0
 10
-80.712158
 20
15.417648
 11
-75.712158
 21
15.417648
  0
LINE
  8
0
  6
CENTER
 62
     2
 10
-87.462158
 20
19.667648
 11
-73.612167
 21
19.667648
  0
LINE
  8
0
 10
-30.712158
 20
23.917648
 11
-35.712158
 21
23.917648
  0
LINE
  8
0
 10
-30.712158
 20
15.417648
 11
-35.712158
 21
15.417648
  0
LINE
  8
0
  6
CENTER
 62
     2
 10
-33.212158
 20
13.887634
 11
-33.212158
 21
25.937637
  0
LINE
  8
0
  6
CENTER
 62
     2
 10
-23.972168
 20
19.667648
 11
-37.822159
 21
19.667648
  0
LINE
  8
0
 10
-87.712158
 20
29.667637
 11
-90.712166
 21
26.667633
  0
LINE
  8
0
 10
-20.712162
 20
26.667643
 11
-23.712164
 21
29.667645
  0
LINE
  8
0
 10
-76.962158
 20
29.667648
 11
-87.712158
 21
29.667648
  0
LINE
  8
0
 10
-23.712158
 20
29.667648
 11
-34.472168
 21
29.667648
  0
LINE
  8
0
 10
-84.212158
 20
2.867645
 11
-90.712158
 21
2.867645
  0
LINE
  8
0
 10
-82.712158
 20
-0.332352
 11
-90.712158
 21
-0.332352
  0
LINE
  8
0
 10
-27.212158
 20
2.867645
 11
-84.212158
 21
2.867645
  0
LINE
  8
0
 10
-34.462158
 20
29.367645
 11
-76.972168
 21
29.367645
  0
LINE
  8
0
 10
-70.782166
 20
28.867640
 11
-71.342171
 21
12.867640
  0
LINE
  8
0
 10
-60.332169
 20
28.867638
 11
-60.892170
 21
12.867639
  0
LINE
  8
0
 10
-50.542160
 20
12.867647
 11
-51.102158
 21
28.867643
  0
LINE
  8
0
 10
-40.092159
 20
12.867634
 11
-40.652161
 21
28.867645
  0
LINE
  8
0
 10
-74.292175
 20
28.867645
 11
-74.842171
 21
12.867636
  0
LINE
  8
0
 10
-36.582165
 20
12.867635
 11
-37.142166
 21
28.867636
  0
LINE
  8
0
 10
-66.882164
 20
32.867638
 11
-65.652161
 21
33.517635
  0
LINE
  8
0
 10
-75.012154
 20
33.517624
 11
-76.402161
 21
32.867626
  0
LINE
  8
0
 10
-75.572159
 20
58.177639
 11
-76.402161
 21
32.867638
  0
LINE
  8
0
 10
-74.212166
 20
58.867645
 11
-75.012169
 21
33.517643
  0
LINE
  8
0
 10
-74.212158
 20
58.867645
 11
-74.782166
 21
58.867645
  0
LINE
  8
0
 10
-75.572159
 20
58.177635
 11
-74.212166
 21
58.867638
  0
LINE
  8
0
 10
-75.962158
 20
58.177643
 11
-75.572159
 21
58.177643
  0
LINE
  8
0
 10
-72.582161
 20
58.177639
 11
-73.792160
 21
32.867634
  0
LINE
  8
0
 10
-71.882164
 20
58.867634
 11
-72.582153
 21
58.177643
  0
LINE
  8
0
 10
-71.882172
 20
58.867645
 11
-65.702164
 21
58.867645
  0
LINE
  8
0
 10
-72.582169
 20
58.177643
 11
-66.922165
 21
58.177643
  0
LINE
  8
0
 10
-66.882172
 20
32.867645
 11
-60.602173
 21
32.867645
  0
LINE
  8
0
 10
-65.652161
 20
33.517639
 11
-60.962158
 21
33.517639
  0
LINE
  8
0
 10
-66.922165
 20
58.177643
 11
-66.882164
 21
32.867645
  0
LINE
  8
0
 10
-65.702164
 20
58.867638
 11
-65.652168
 21
33.517635
  0
LINE
  8
0
 10
-66.922165
 20
58.177628
 11
-65.702156
 21
58.867630
  0
LINE
  8
0
 10
-75.012161
 20
33.517639
 11
-73.762161
 21
33.517639
  0
LINE
  8
0
 10
-76.972176
 20
29.367643
 11
-75.962173
 21
58.177647
  0
LINE
  8
0
 10
-75.962158
 20
58.177643
 11
-74.782166
 21
58.867641
  0
LINE
  8
0
 10
-76.402161
 20
32.867645
 11
-73.792160
 21
32.867645
  0
LINE
  8
0
 10
-74.782173
 20
58.867641
 11
-74.752174
 21
59.897644
  0
LINE
  8
0
 10
-60.602161
 20
32.867645
 11
-60.962158
 21
33.517635
  0
LINE
  8
0
 10
-50.472164
 20
33.517639
 11
-50.832161
 21
32.867645
  0
LINE
  8
0
 10
-44.542156
 20
32.867641
 11
-45.782158
 21
33.517635
  0
LINE
  8
0
 10
-36.422169
 20
33.517651
 11
-35.032173
 21
32.867649
  0
LINE
  8
0
 10
-35.862171
 20
58.177635
 11
-35.032173
 21
32.867649
  0
LINE
  8
0
 10
-37.222164
 20
58.867641
 11
-36.422165
 21
33.517639
  0
LINE
  8
0
 10
-37.222168
 20
58.867645
 11
-36.642166
 21
58.867645
  0
LINE
  8
0
 10
-35.862160
 20
58.177643
 11
-37.222160
 21
58.867641
  0
LINE
  8
0
 10
-35.462158
 20
58.177643
 11
-35.862167
 21
58.177643
  0
LINE
  8
0
 10
-38.852173
 20
58.177639
 11
-37.642174
 21
32.867634
  0
LINE
  8
0
 10
-39.552162
 20
58.867626
 11
-38.852165
 21
58.177635
  0
LINE
  8
0
 10
-39.552170
 20
58.867645
 11
-45.722168
 21
58.867645
  0
LINE
  8
0
 10
-38.852173
 20
58.177643
 11
-44.512161
 21
58.177643
  0
LINE
  8
0
 10
-44.542160
 20
32.867645
 11
-50.832169
 21
32.867645
  0
LINE
  8
0
 10
-45.782166
 20
33.517639
 11
-50.472168
 21
33.517639
  0
LINE
  8
0
 10
-44.512161
 20
58.177639
 11
-44.542160
 21
32.867645
  0
LINE
  8
0
 10
-45.722164
 20
58.867645
 11
-45.782166
 21
33.517635
  0
LINE
  8
0
 10
-44.512165
 20
58.177647
 11
-45.722164
 21
58.867645
  0
LINE
  8
0
 10
-36.422165
 20
33.517639
 11
-37.672165
 21
33.517639
  0
LINE
  8
0
 10
-60.082165
 20
58.867634
 11
-60.962162
 21
33.517643
  0
LINE
  8
0
 10
-50.472168
 20
33.517643
 11
-51.352165
 21
58.867638
  0
LINE
  8
0
 10
-59.712173
 20
58.177635
 11
-60.602173
 21
32.867641
  0
LINE
  8
0
 10
-50.832165
 20
32.867645
 11
-51.712162
 21
58.177635
  0
LINE
  8
0
 10
-51.712158
 20
58.177643
 11
-59.712158
 21
58.177643
  0
LINE
  8
0
 10
-76.492165
 20
28.867643
 11
-76.972160
 21
29.347641
  0
LINE
  8
0
 10
-34.462166
 20
29.367640
 11
-34.922165
 21
28.867640
  0
LINE
  8
0
 10
-34.462170
 20
29.367645
 11
-35.462170
 21
58.177639
  0
LINE
  8
0
 10
-35.462166
 20
58.177647
 11
-36.642166
 21
58.867645
  0
LINE
  8
0
 10
-35.032166
 20
32.867645
 11
-37.642166
 21
32.867645
  0
LINE
  8
0
 10
-51.352173
 20
58.867645
 11
-60.082169
 21
58.867645
  0
LINE
  8
0
 10
-34.922165
 20
28.867645
 11
-76.492172
 21
28.867645
  0
LINE
  8
0
 10
-36.642159
 20
58.867645
 11
-36.682159
 21
59.897640
  0
LINE
  8
0
 10
-37.682159
 20
60.867645
 11
-73.752167
 21
60.867645
  0
LINE
  8
0
 10
-84.002159
 20
4.867640
 11
-82.952164
 21
5.867640
  0
LINE
  8
0
 10
-84.002151
 20
11.867641
 11
-82.952156
 21
12.867637
  0
LINE
  8
0
 10
-84.212158
 20
11.867645
 11
-84.002159
 21
11.867645
  0
LINE
  8
0
 10
-82.952156
 20
5.867645
 11
-81.962158
 21
5.867645
  0
LINE
  8
0
 10
-84.002159
 20
4.867645
 11
-84.002159
 21
11.867645
  0
LINE
  8
0
 10
-82.952156
 20
5.867645
 11
-82.952156
 21
12.867645
  0
LINE
  8
0
 10
-78.462158
 20
4.867645
 11
-72.892166
 21
4.867645
  0
LINE
  8
0
 10
-81.192162
 20
12.867640
 11
-81.962166
 21
11.867641
  0
LINE
  8
0
 10
-81.962158
 20
4.867645
 11
-81.962158
 21
11.867645
  0
LINE
  8
0
 10
-78.462166
 20
4.867638
 11
-77.412170
 21
5.867634
  0
LINE
  8
0
 10
-72.892166
 20
11.867645
 11
-66.202164
 21
11.867645
  0
LINE
  8
0
 10
-78.462158
 20
11.867641
 11
-77.412163
 21
12.867638
  0
LINE
  8
0
 10
-78.462158
 20
4.867645
 11
-78.462158
 21
11.867645
  0
LINE
  8
0
 10
-77.412170
 20
5.867645
 11
-77.412170
 21
12.867645
  0
LINE
  8
0
 10
-72.892151
 20
11.867648
 11
-72.612152
 21
12.867639
  0
LINE
  8
0
 10
-72.892166
 20
4.867645
 11
-72.892166
 21
11.867645
  0
LINE
  8
0
 10
-84.002159
 20
4.867645
 11
-81.962158
 21
4.867645
  0
LINE
  8
0
 10
-77.412170
 20
5.867645
 11
-72.892166
 21
5.867645
  0
LINE
  8
0
 10
-81.962158
 20
11.867645
 11
-78.462158
 21
11.867645
  0
LINE
  8
0
 10
-66.202164
 20
2.867645
 11
-66.202164
 21
11.867645
  0
LINE
  8
0
 10
-84.212158
 20
11.867644
 11
-83.212166
 21
12.867637
  0
LINE
  8
0
 10
-84.212158
 20
2.867645
 11
-84.212158
 21
11.867645
  0
LINE
  8
0
 10
-27.432169
 20
4.867646
 11
-28.482166
 21
5.867644
  0
LINE
  8
0
 10
-27.432169
 20
11.867654
 11
-28.482166
 21
12.867652
  0
LINE
  8
0
 10
-27.212158
 20
11.867645
 11
-27.432159
 21
11.867645
  0
LINE
  8
0
 10
-28.482162
 20
5.867645
 11
-29.472168
 21
5.867645
  0
LINE
  8
0
 10
-27.432159
 20
4.867645
 11
-27.432159
 21
11.867645
  0
LINE
  8
0
 10
-28.482162
 20
5.867645
 11
-28.482162
 21
12.867645
  0
LINE
  8
0
 10
-32.972168
 20
4.867645
 11
-38.542160
 21
4.867645
  0
LINE
  8
0
 10
-30.232166
 20
12.867640
 11
-29.472166
 21
11.867640
  0
LINE
  8
0
 10
-29.472168
 20
4.867645
 11
-29.472168
 21
11.867645
  0
LINE
  8
0
 10
-32.972176
 20
4.867651
 11
-34.012165
 21
5.867644
  0
LINE
  8
0
 10
-38.542160
 20
11.867645
 11
-45.232162
 21
11.867645
  0
LINE
  8
0
 10
-32.972168
 20
11.867657
 11
-34.012161
 21
12.867650
  0
LINE
  8
0
 10
-32.972168
 20
4.867645
 11
-32.972168
 21
11.867645
  0
LINE
  8
0
 10
-34.012161
 20
5.867645
 11
-34.012161
 21
12.867645
  0
LINE
  8
0
 10
-38.542171
 20
11.867639
 11
-38.822166
 21
12.867631
  0
LINE
  8
0
 10
-38.542160
 20
4.867645
 11
-38.542160
 21
11.867645
  0
LINE
  8
0
 10
-27.432159
 20
4.867645
 11
-29.472168
 21
4.867645
  0
LINE
  8
0
 10
-34.012161
 20
5.867645
 11
-38.542160
 21
5.867645
  0
LINE
  8
0
 10
-29.472168
 20
11.867645
 11
-32.972168
 21
11.867645
  0
LINE
  8
0
 10
-45.232162
 20
2.867645
 11
-45.232162
 21
11.867645
  0
LINE
  8
0
 10
-27.212172
 20
11.867656
 11
-28.212162
 21
12.867647
  0
LINE
  8
0
 10
-27.212158
 20
2.867645
 11
-27.212158
 21
11.867645
  0
LINE
  8
0
 10
-28.212158
 20
12.867645
 11
-83.212158
 21
12.867645
  0
LINE
  8
0
 10
-90.712158
 20
-0.332352
 11
-90.712158
 21
26.667648
  0
LINE
  8
0
 10
-20.712158
 20
-0.332352
 11
-20.712158
 21
26.667648
  0
LINE
  8
0
 10
-20.712158
 20
2.867645
 11
-27.212158
 21
2.867645
  0
LINE
  8
0
 10
-20.712158
 20
-0.332352
 11
-28.712158
 21
-0.332352
  0
LINE
  8
0
  6
CENTER
 62
     2
 10
-38.712158
 20
1.887634
 11
-38.712158
 21
-58.712341
  0
LINE
  8
0
 10
-92.712158
 20
-12.632355
 11
-84.592155
 21
-12.632355
  0
LINE
  8
0
 10
-92.712158
 20
-12.632355
 11
-92.712158
 21
-13.332352
  0
LINE
  8
0
 10
-32.082165
 20
-19.332355
 11
-30.052172
 21
-20.042353
  0
LINE
  8
0
 10
-32.082161
 20
-39.332348
 11
-30.052174
 21
-38.622353
  0
LINE
  8
0
 10
-33.802170
 20
-38.042351
 11
-33.382172
 21
-44.332344
  0
LINE
  8
0
 10
-35.412170
 20
-14.332356
 11
-35.022171
 21
-20.042356
  0
LINE
  8
0
 10
-34.412167
 20
-13.332357
 11
-35.412163
 21
-14.332356
  0
LINE
  8
0
 10
-35.412170
 20
-14.332352
 11
-15.712158
 21
-14.332352
  0
LINE
  8
0
 10
-34.412170
 20
-13.332352
 11
-16.712158
 21
-13.332352
  0
LINE
  8
0
 10
-78.052162
 20
-44.332352
 11
-76.022163
 21
-14.332355
  0
LINE
  8
0
 10
-77.022163
 20
-13.332357
 11
-76.022163
 21
-14.332355
  0
LINE
  8
0
 10
-28.712164
 20
-0.332354
 11
-27.212172
 21
-1.832345
  0
LINE
  8
0
 10
-84.212158
 20
-1.832351
 11
-82.712166
 21
-0.332361
  0
LINE
  8
0
 10
-27.212166
 20
-1.832360
 11
-26.812164
 21
-13.332353
  0
LINE
  8
0
 10
-84.622154
 20
-13.332360
 11
-84.212151
 21
-1.832357
  0
LINE
  8
0
 10
-84.212158
 20
-1.832352
 11
-27.212158
 21
-1.832352
  0
LINE
  8
0
 10
-82.712158
 20
-0.332352
 11
-28.712158
 21
-0.332352
  0
LINE
  8
0
 10
-80.712166
 20
-39.332340
 11
-81.422165
 21
-38.622341
  0
LINE
  8
0
 10
-90.712166
 20
-39.332355
 11
-90.012161
 21
-38.622353
  0
LINE
  8
0
 10
-90.712158
 20
-19.332354
 11
-90.012161
 21
-20.042356
  0
LINE
  8
0
 10
-81.422157
 20
-38.622353
 11
-90.012161
 21
-38.622353
  0
LINE
  8
0
 10
-81.422157
 20
-20.042351
 11
-81.422157
 21
-38.622353
  0
LINE
  8
0
 10
-81.422157
 20
-20.042351
 11
-90.012161
 21
-20.042351
  0
LINE
  8
0
 10
-90.012161
 20
-20.042351
 11
-90.012161
 21
-38.622353
  0
LINE
  8
0
 10
-80.712158
 20
-39.332352
 11
-90.712158
 21
-39.332352
  0
LINE
  8
0
 10
-80.712158
 20
-19.332352
 11
-90.712158
 21
-19.332352
  0
LINE
  8
0
 10
-80.712158
 20
-19.332352
 11
-80.712158
 21
-39.332352
  0
LINE
  8
0
 10
-90.712158
 20
-19.332352
 11
-90.712158
 21
-39.332352
  0
LINE
  8
0
 10
-20.712172
 20
-39.332352
 11
-21.422171
 21
-38.622353
  0
LINE
  8
0
 10
-20.712173
 20
-19.332352
 11
-21.422173
 21
-20.042351
  0
LINE
  8
0
 10
-30.052170
 20
-38.622353
 11
-21.422165
 21
-38.622353
  0
LINE
  8
0
 10
-30.052170
 20
-20.042351
 11
-21.422165
 21
-20.042351
  0
LINE
  8
0
 10
-21.422165
 20
-20.042351
 11
-21.422165
 21
-38.622353
  0
LINE
  8
0
 10
-32.082169
 20
-39.332352
 11
-20.712158
 21
-39.332352
  0
LINE
  8
0
 10
-32.082169
 20
-19.332352
 11
-20.712158
 21
-19.332352
  0
LINE
  8
0
 10
-20.712158
 20
-19.332352
 11
-20.712158
 21
-39.332352
  0
LINE
  8
0
 10
-16.712170
 20
-13.332345
 11
-15.712169
 21
-14.332346
  0
LINE
  8
0
 10
-94.712151
 20
-13.332350
 11
-95.712158
 21
-14.332351
  0
LINE
  8
0
 10
-95.712158
 20
-14.332352
 11
-76.022171
 21
-14.332352
  0
LINE
  8
0
 10
-16.712158
 20
-13.332352
 11
-16.712158
 21
-45.332352
  0
LINE
  8
0
 10
-94.712158
 20
-13.332352
 11
-94.712158
 21
-45.332352
  0
LINE
  8
0
 10
-15.712158
 20
-14.332352
 11
-15.712158
 21
-45.332352
  0
LINE
  8
0
 10
-95.712158
 20
-14.332352
 11
-95.712158
 21
-45.332352
  0
LINE
  8
0
 10
-94.712158
 20
-13.332352
 11
-77.022171
 21
-13.332352
  0
LINE
  8
0
 10
-95.712158
 20
-45.332352
 11
-15.712158
 21
-45.332352
  0
LINE
  8
0
 10
-21.652174
 20
-45.332348
 11
-22.652164
 21
-44.332355
  0
LINE
  8
0
 10
-89.782150
 20
-45.332348
 11
-88.782158
 21
-44.332352
  0
LINE
  8
0
 10
-88.782158
 20
-44.332352
 11
-22.652161
 21
-44.332352
  0
LINE
  8
0
 10
-95.212158
 20
-64.332352
 11
-16.212158
 21
-64.332352
  0
LINE
  8
0
 10
-16.212172
 20
-64.332344
 11
-17.212173
 21
-65.332344
  0
LINE
  8
0
 10
-95.212158
 20
-64.332336
 11
-94.212158
 21
-65.332336
  0
LINE
  8
0
 10
-16.212158
 20
-45.332352
 11
-16.212158
 21
-64.332352
  0
LINE
  8
0
 10
-95.212158
 20
-45.332352
 11
-95.212158
 21
-64.332352
  0
LINE
  8
0
 10
-94.212158
 20
-65.332352
 11
-17.212158
 21
-65.332352
  0
LINE
  8
0
 10
-22.292160
 20
-149.652344
 11
-21.562160
 21
-65.332352
  0
LINE
  8
0
 10
-89.752159
 20
-77.402344
 11
-89.862160
 21
-65.332336
  0
LINE
  8
0
 10
-92.172157
 20
-65.332336
 11
-92.132156
 21
-67.322342
  0
LINE
  8
0
 10
-91.602158
 20
-65.332336
 11
-91.552162
 21
-67.312347
  0
LINE
  8
0
 10
-63.782166
 20
-165.522339
 11
-47.632172
 21
-165.522339
  0
LINE
  8
0
 10
-62.212158
 20
-181.812347
 11
-49.212158
 21
-181.812347
  0
LINE
  8
0
 10
-58.562164
 20
-184.212341
 11
-58.562164
 21
-182.312347
  0
LINE
  8
0
 10
-52.862167
 20
-184.212341
 11
-52.862167
 21
-182.312347
  0
LINE
  8
0
 10
-52.462173
 20
-184.412338
 11
-52.882172
 21
-186.812347
  0
LINE
  8
0
 10
-52.462170
 20
-187.012344
 11
-52.882164
 21
-189.412338
  0
LINE
  8
0
 10
-58.962158
 20
-187.012344
 11
-58.542160
 21
-189.412354
  0
LINE
  8
0
 10
-58.962154
 20
-184.412323
 11
-58.542152
 21
-186.812332
  0
LINE
  8
0
 10
-52.462158
 20
-184.412338
 11
-52.462158
 21
-184.212341
  0
LINE
  8
0
 10
-58.962158
 20
-184.412338
 11
-58.962158
 21
-184.212341
  0
LINE
  8
0
 10
-52.462158
 20
-187.012344
 11
-58.962158
 21
-187.012344
  0
LINE
  8
0
 10
-52.462158
 20
-184.412338
 11
-58.962158
 21
-184.412338
  0
LINE
  8
0
 10
-52.462158
 20
-184.212341
 11
-58.962158
 21
-184.212341
  0
LINE
  8
0
 10
-52.462158
 20
-186.812347
 11
-58.962158
 21
-186.812347
  0
LINE
  8
0
 10
-52.462158
 20
-187.012344
 11
-52.462158
 21
-186.812347
  0
LINE
  8
0
 10
-58.962158
 20
-187.012344
 11
-58.962158
 21
-186.812347
  0
LINE
  8
0
 10
-52.882172
 20
-189.412338
 11
-58.542160
 21
-189.412338
  0
LINE
  8
0
 10
-49.712147
 20
-182.312332
 11
-49.212154
 21
-181.812332
  0
LINE
  8
0
 10
-62.212158
 20
-181.812332
 11
-61.712158
 21
-182.312332
  0
LINE
  8
0
 10
-62.212158
 20
-181.812347
 11
-62.212158
 21
-180.812347
  0
LINE
  8
0
 10
-49.212158
 20
-181.812347
 11
-49.212158
 21
-180.812347
  0
LINE
  8
0
 10
-49.712158
 20
-182.312347
 11
-61.712158
 21
-182.312347
  0
LINE
  8
0
 10
-47.962158
 20
-167.812347
 11
-63.462158
 21
-167.812347
  0
LINE
  8
0
 10
-61.972168
 20
-180.312347
 11
-62.722168
 21
-180.312347
  0
LINE
  8
0
 10
-48.702164
 20
-180.312347
 11
-49.452164
 21
-180.312347
  0
LINE
  8
0
 10
-57.552170
 20
-180.312347
 11
-59.372162
 21
-180.312347
  0
LINE
  8
0
 10
-62.152168
 20
-179.812332
 11
-61.972172
 21
-180.312347
  0
LINE
  8
0
 10
-49.272152
 20
-179.812347
 11
-49.452152
 21
-180.312347
  0
LINE
  8
0
 10
-48.702160
 20
-170.602341
 11
-48.112160
 21
-170.312332
  0
LINE
  8
0
 10
-52.052162
 20
-170.602341
 11
-51.392159
 21
-170.312347
  0
LINE
  8
0
 10
-53.872154
 20
-170.602356
 11
-54.212158
 21
-170.312347
  0
LINE
  8
0
 10
-57.552158
 20
-170.602341
 11
-57.212162
 21
-170.312347
  0
LINE
  8
0
 10
-59.372173
 20
-170.602356
 11
-60.022175
 21
-170.312363
  0
LINE
  8
0
 10
-62.722153
 20
-170.602341
 11
-63.312157
 21
-170.312347
  0
LINE
  8
0
 10
-62.722164
 20
-180.312347
 11
-63.312168
 21
-179.812347
  0
LINE
  8
0
 10
-59.372147
 20
-180.312347
 11
-60.022144
 21
-179.812347
  0
LINE
  8
0
 10
-57.212147
 20
-179.812347
 11
-57.552151
 21
-180.312332
  0
LINE
  8
0
 10
-53.872162
 20
-180.312332
 11
-54.212162
 21
-179.812347
  0
LINE
  8
0
 10
-52.052162
 20
-180.312347
 11
-51.392155
 21
-179.812347
  0
LINE
  8
0
 10
-48.702164
 20
-180.312347
 11
-48.112164
 21
-179.812332
  0
LINE
  8
0
 10
-52.052170
 20
-180.312347
 11
-53.872162
 21
-180.312347
  0
LINE
  8
0
 10
-49.272171
 20
-179.812347
 11
-51.392166
 21
-179.812347
  0
LINE
  8
0
 10
-63.312164
 20
-179.812347
 11
-63.462158
 21
-179.812347
  0
LINE
  8
0
 10
-60.022171
 20
-179.812347
 11
-62.152161
 21
-179.812347
  0
LINE
  8
0
 10
-54.212158
 20
-179.812347
 11
-57.212158
 21
-179.812347
  0
LINE
  8
0
 10
-62.152161
 20
-170.602341
 11
-62.722168
 21
-170.602341
  0
LINE
  8
0
 10
-62.152161
 20
-170.312347
 11
-63.312164
 21
-170.312347
  0
LINE
  8
0
 10
-52.052170
 20
-170.602341
 11
-53.872162
 21
-170.602341
  0
LINE
  8
0
 10
-51.392166
 20
-170.312347
 11
-54.212158
 21
-170.312347
  0
LINE
  8
0
 10
-57.552170
 20
-170.602341
 11
-59.372162
 21
-170.602341
  0
LINE
  8
0
 10
-57.212158
 20
-170.312347
 11
-60.022171
 21
-170.312347
  0
LINE
  8
0
 10
-47.962158
 20
-179.812347
 11
-48.112167
 21
-179.812347
  0
LINE
  8
0
 10
-48.702164
 20
-170.602341
 11
-49.272171
 21
-170.602341
  0
LINE
  8
0
 10
-48.112167
 20
-170.312347
 11
-49.272171
 21
-170.312347
  0
LINE
  8
0
 10
-48.112167
 20
-170.312347
 11
-48.112167
 21
-179.812347
  0
LINE
  8
0
 10
-48.702164
 20
-170.602341
 11
-48.702164
 21
-180.312347
  0
LINE
  8
0
 10
-49.272171
 20
-170.312347
 11
-49.272171
 21
-179.812347
  0
LINE
  8
0
 10
-51.392166
 20
-170.312347
 11
-51.392166
 21
-179.812347
  0
LINE
  8
0
 10
-52.052170
 20
-170.602341
 11
-52.052170
 21
-180.312347
  0
LINE
  8
0
 10
-63.312164
 20
-170.312347
 11
-63.312164
 21
-179.812347
  0
LINE
  8
0
 10
-62.722168
 20
-170.602341
 11
-62.722168
 21
-180.312347
  0
LINE
  8
0
 10
-62.152161
 20
-170.312347
 11
-62.152161
 21
-179.812347
  0
LINE
  8
0
 10
-60.022171
 20
-170.312347
 11
-60.022171
 21
-179.812347
  0
LINE
  8
0
 10
-59.372162
 20
-170.602341
 11
-59.372162
 21
-180.312347
  0
LINE
  8
0
 10
-57.552170
 20
-170.602341
 11
-57.552170
 21
-180.312347
  0
LINE
  8
0
 10
-53.872162
 20
-170.602341
 11
-53.872162
 21
-180.312347
  0
LINE
  8
0
 10
-54.212158
 20
-170.312347
 11
-54.212158
 21
-179.812347
  0
LINE
  8
0
 10
-57.212158
 20
-170.312347
 11
-57.212158
 21
-179.812347
  0
LINE
  8
0
 62
     2
 10
-50.462158
 20
-166.022339
 11
-50.462158
 21
-167.312347
  0
LINE
  8
0
 62
     2
 10
-60.962158
 20
-166.022339
 11
-60.962158
 21
-167.312347
  0
LINE
  8
0
 10
-61.712158
 20
-166.022339
 11
-61.712158
 21
-167.312347
  0
LINE
  8
0
 10
-49.712158
 20
-166.022339
 11
-49.712158
 21
-167.312347
  0
LINE
  8
0
 10
-62.962170
 20
-167.312347
 11
-63.462158
 21
-167.812332
  0
LINE
  8
0
 10
-48.462147
 20
-167.312347
 11
-47.962147
 21
-167.812347
  0
LINE
  8
0
 10
-48.462158
 20
-167.312347
 11
-62.962158
 21
-167.312347
  0
LINE
  8
0
 10
-62.462158
 20
-180.812332
 11
-63.462158
 21
-179.812332
  0
LINE
  8
0
 10
-47.962151
 20
-179.812332
 11
-48.962166
 21
-180.812347
  0
LINE
  8
0
 10
-63.462158
 20
-167.812347
 11
-63.462158
 21
-179.812347
  0
LINE
  8
0
 10
-47.962158
 20
-167.812347
 11
-47.962158
 21
-179.812347
  0
LINE
  8
0
 10
-48.962158
 20
-180.812347
 11
-62.462158
 21
-180.812347
  0
LINE
  8
0
 10
-63.282154
 20
-166.022339
 11
-63.782154
 21
-165.522339
  0
LINE
  8
0
 10
-48.132164
 20
-166.022339
 11
-47.632164
 21
-165.522339
  0
LINE
  8
0
 10
-47.632172
 20
-165.522339
 11
-47.632172
 21
-164.522339
  0
LINE
  8
0
 10
-63.782166
 20
-165.522339
 11
-63.782166
 21
-164.522339
  0
LINE
  8
0
 10
-63.282166
 20
-166.022339
 11
-48.132172
 21
-166.022339
  0
LINE
  8
0
 10
-92.632156
 20
-67.332344
 11
-92.282158
 21
-81.362343
  0
LINE
  8
0
 10
-93.112160
 20
-67.852341
 11
-92.632156
 21
-67.332336
  0
LINE
  8
0
 10
-92.572151
 20
-89.842339
 11
-92.452148
 21
-89.962341
  0
LINE
  8
0
 10
-92.632156
 20
-67.332344
 11
-91.552162
 21
-67.312347
  0
LINE
  8
0
 10
-93.112167
 20
-67.852341
 11
-92.572166
 21
-89.842354
  0
LINE
  8
0
 10
-89.752159
 20
-77.402336
 11
-92.522156
 21
-81.732338
  0
LINE
  8
0
 10
-92.442162
 20
-91.082344
 11
-92.522156
 21
-81.732346
  0
LINE
  8
0
 10
-89.602158
 20
-95.232346
 11
-92.382156
 21
-91.252350
  0
LINE
  8
0
 10
-26.992172
 20
-71.032349
 11
-26.992172
 21
-147.022339
  0
LINE
  8
0
 10
-27.592163
 20
-71.532349
 11
-27.592163
 21
-146.522339
  0
LINE
  8
0
 10
-27.852173
 20
-72.032349
 11
-27.852173
 21
-104.032349
  0
LINE
  8
0
 10
-29.682159
 20
-72.532349
 11
-29.682159
 21
-103.532349
  0
LINE
  8
0
 10
-36.752167
 20
-72.032349
 11
-36.752167
 21
-104.032349
  0
LINE
  8
0
 10
-37.142166
 20
-71.032349
 11
-37.142166
 21
-147.022339
  0
LINE
  8
0
 10
-27.992172
 20
-70.032349
 11
-36.142166
 21
-70.032349
  0
LINE
  8
0
 10
-28.592163
 20
-70.532349
 11
-36.142166
 21
-70.532349
  0
LINE
  8
0
 10
-36.142166
 20
-148.022339
 11
-27.992172
 21
-148.022339
  0
LINE
  8
0
 10
-36.142166
 20
-147.522339
 11
-28.592163
 21
-147.522339
  0
LINE
  8
0
 10
-36.752167
 20
-112.032349
 11
-36.752167
 21
-146.022339
  0
LINE
  8
0
 10
-29.682159
 20
-112.532349
 11
-29.682159
 21
-145.522339
  0
LINE
  8
0
 10
-27.852173
 20
-112.032349
 11
-27.852173
 21
-146.022339
  0
LINE
  8
0
 10
-35.752167
 20
-146.522339
 11
-30.682159
 21
-146.522339
  0
LINE
  8
0
 10
-35.752167
 20
-104.532349
 11
-30.682159
 21
-104.532349
  0
LINE
  8
0
 10
-35.752167
 20
-111.532349
 11
-30.682159
 21
-111.532349
  0
LINE
  8
0
 10
-30.682159
 20
-71.532349
 11
-35.752167
 21
-71.532349
  0
LINE
  8
0
 10
-28.852173
 20
-71.032349
 11
-35.752167
 21
-71.032349
  0
LINE
  8
0
 10
-35.752167
 20
-105.032349
 11
-28.852173
 21
-105.032349
  0
LINE
  8
0
 10
-35.752167
 20
-111.032349
 11
-28.852173
 21
-111.032349
  0
LINE
  8
0
 10
-35.752167
 20
-147.022339
 11
-28.852173
 21
-147.022339
  0
LINE
  8
0
 10
-84.432159
 20
-71.032349
 11
-84.432159
 21
-147.022339
  0
LINE
  8
0
 10
-83.832161
 20
-71.532349
 11
-83.832161
 21
-146.522339
  0
LINE
  8
0
 10
-83.572159
 20
-72.032349
 11
-83.572159
 21
-104.032349
  0
LINE
  8
0
 10
-81.742157
 20
-72.532349
 11
-81.742157
 21
-103.532349
  0
LINE
  8
0
 10
-74.672165
 20
-72.032349
 11
-74.672165
 21
-104.032349
  0
LINE
  8
0
 10
-74.282166
 20
-71.032349
 11
-74.282166
 21
-147.022339
  0
LINE
  8
0
 10
-83.432159
 20
-70.032349
 11
-75.282166
 21
-70.032349
  0
LINE
  8
0
 10
-82.832161
 20
-70.532349
 11
-75.282166
 21
-70.532349
  0
LINE
  8
0
 10
-75.282166
 20
-148.022339
 11
-83.432159
 21
-148.022339
  0
LINE
  8
0
 10
-75.282166
 20
-147.522339
 11
-82.832161
 21
-147.522339
  0
LINE
  8
0
 10
-74.672165
 20
-112.032349
 11
-74.672165
 21
-146.022339
  0
LINE
  8
0
 10
-81.742157
 20
-112.532349
 11
-81.742157
 21
-145.522339
  0
LINE
  8
0
 10
-83.572159
 20
-112.032349
 11
-83.572159
 21
-146.022339
  0
LINE
  8
0
 10
-75.672165
 20
-146.522339
 11
-80.742157
 21
-146.522339
  0
LINE
  8
0
 10
-75.672165
 20
-104.532349
 11
-80.742157
 21
-104.532349
  0
LINE
  8
0
 10
-75.672165
 20
-111.532349
 11
-80.742157
 21
-111.532349
  0
LINE
  8
0
 10
-80.742157
 20
-71.532349
 11
-75.672165
 21
-71.532349
  0
LINE
  8
0
 10
-89.122154
 20
-149.652344
 11
-89.602150
 21
-95.232353
  0
LINE
  8
0
 10
-82.572159
 20
-71.032349
 11
-75.672165
 21
-71.032349
  0
LINE
  8
0
 10
-75.672165
 20
-105.032349
 11
-82.572159
 21
-105.032349
  0
LINE
  8
0
 10
-75.672165
 20
-111.032349
 11
-82.572159
 21
-111.032349
  0
LINE
  8
0
 10
-75.672165
 20
-147.022339
 11
-82.572159
 21
-147.022339
  0
LINE
  8
0
 10
-74.122162
 20
-164.522339
 11
-37.292160
 21
-164.522339
  0
LINE
  8
0
  6
CENTER
 62
     2
 10
-55.712158
 20
68.727646
 11
-55.712158
 21
-191.882339
  0
LINE
  8
0
  6
CENTER
 62
     2
 10
-109.198540
 20
-29.332352
 11
-1.403564
 21
-29.332352
  0
LINE
  8
0
 10
-281.250000
 20
195.500000
 11
282.099854
 21
195.500000
  0
LINE
  8
0
 10
-281.250000
 20
195.500000
 11
-281.250000
 21
-195.000000
  0
LINE
  8
0
 10
282.099854
 20
195.500000
 11
282.099854
 21
-195.000000
  0
LINE
  8
0
 10
-281.250000
 20
-195.000000
 11
282.099854
 21
-195.000000
  0
LINE
  8
0
 10
162.099976
 20
-175.000000
 11
162.099976
 21
-195.000000
  0
LINE
  8
0
 10
162.099976
 20
-175.000000
 11
282.099854
 21
-175.000000
  0
LINE
  8
0
 10
162.099976
 20
175.500000
 11
282.099854
 21
175.500000
  0
LINE
  8
0
 10
-281.250000
 20
175.500000
 11
-161.250000
 21
175.500000
  0
LINE
  8
0
 10
162.099976
 20
195.500000
 11
162.099976
 21
175.500000
  0
LINE
  8
0
 10
-161.250000
 20
195.500000
 11
-161.250000
 21
175.500000
  0
ARC
  8
0
 10
-55.733612
 20
143.537079
 40
39.504536
 50
143.726196
 51
149.529358
  0
ARC
  8
0
 10
-55.729797
 20
143.542587
 40
38.501099
 50
145.192673
 51
148.656342
  0
ARC
  8
0
 10
-17.712128
 20
96.569733
 40
4.999977
 50
359.999725
 51
90.000259
  0
ARC
  8
0
 10
-59.712128
 20
96.569687
 40
5.000023
 50
90.000259
 51
179.999649
  0
CIRCLE
  8
0
 62
     2
 10
-55.712143
 20
143.569702
 40
21.500000
  0
CIRCLE
  8
0
 10
-55.712143
 20
143.569702
 40
22.500000
  0
ARC
  8
0
 10
-55.717148
 20
143.569702
 40
14.994004
 50
245.007355
 51
294.992676
  0
ARC
  8
0
 10
-55.717148
 20
143.569702
 40
13.991775
 50
244.991806
 51
295.008240
  0
ARC
  8
0
 10
-55.712143
 20
143.569702
 40
15.295750
 50
332.764862
 51
27.235149
  0
ARC
  8
0
 10
-55.712143
 20
143.569702
 40
15.304644
 50
152.781921
 51
207.218018
  0
CIRCLE
  8
0
 10
-55.712143
 20
143.569702
 40
21.250000
  0
CIRCLE
  8
0
 10
-55.712143
 20
143.569702
 40
19.000000
  0
CIRCLE
  8
0
 10
-55.712143
 20
143.569702
 40
28.500000
  0
ARC
  8
0
 10
-55.712143
 20
143.569702
 40
27.497726
 50
285.481750
 51
74.518242
  0
ARC
  8
0
 10
-55.712143
 20
143.569702
 40
27.500389
 50
105.501778
 51
254.498154
  0
ARC
  8
0
 10
-55.714508
 20
143.566757
 40
39.498428
 50
313.128052
 51
329.584015
  0
ARC
  8
0
 10
-55.718735
 20
143.561386
 40
38.494823
 50
314.552612
 51
328.712433
  0
ARC
  8
0
 10
-55.719528
 20
143.572754
 40
39.501694
 50
210.423340
 51
284.675293
  0
ARC
  8
0
 10
-55.720200
 20
143.572922
 40
38.496876
 50
211.305847
 51
285.068359
  0
ARC
  8
0
 10
-55.697479
 20
143.547150
 40
38.492706
 50
31.343283
 51
34.807659
  0
ARC
  8
0
 10
-55.693710
 20
143.541672
 40
39.496189
 50
30.470036
 51
36.274380
  0
ARC
  8
0
 10
-55.711899
 20
143.570511
 40
28.899139
 50
316.204254
 51
8.254752
  0
ARC
  8
0
 10
-55.713333
 20
143.573410
 40
28.907700
 50
171.753448
 51
223.787445
  0
ARC
  8
0
 10
-27.712143
 20
122.569702
 40
1.000000
 50
90.000000
 51
180.000000
  0
ARC
  8
0
 10
-55.717148
 20
143.569702
 40
29.980846
 50
221.843079
 51
318.156982
  0
ARC
  8
0
 10
97.613220
 20
-104.025009
 40
1.007343
 50
180.416153
 51
269.584290
  0
ARC
  8
0
 10
99.450363
 20
-103.527878
 40
1.004458
 50
180.254150
 51
269.746277
  0
ARC
  8
0
 10
104.511948
 20
-104.028366
 40
1.003968
 50
270.225983
 51
359.774017
  0
ARC
  8
0
 10
104.511948
 20
-103.528366
 40
1.003968
 50
270.225983
 51
359.774017
  0
ARC
  8
0
 10
96.752090
 20
-71.028519
 40
0.996193
 50
89.780159
 51
180.219406
  0
ARC
  8
0
 10
97.345779
 20
-71.532196
 40
0.999870
 50
89.992569
 51
180.007431
  0
ARC
  8
0
 10
97.604309
 20
-72.030746
 40
0.998414
 50
89.908936
 51
180.091064
  0
ARC
  8
0
 10
99.441422
 20
-72.527847
 40
0.995532
 50
89.742249
 51
180.257751
  0
ARC
  8
0
 10
104.902634
 20
-71.025604
 40
0.993301
 50
359.612274
 51
90.387711
  0
ARC
  8
0
 10
104.902634
 20
-71.525604
 40
0.993301
 50
359.612274
 51
90.387711
  0
ARC
  8
0
 10
104.520874
 20
-72.027359
 40
0.995046
 50
359.714020
 51
90.285988
  0
ARC
  8
0
 10
104.520874
 20
-72.527359
 40
0.995046
 50
359.714020
 51
90.285988
  0
ARC
  8
0
 10
96.756012
 20
-147.022232
 40
1.000099
 50
180.006119
 51
269.994324
  0
ARC
  8
0
 10
97.349670
 20
-146.518555
 40
1.003776
 50
180.215134
 51
269.784882
  0
ARC
  8
0
 10
97.608231
 20
-146.020004
 40
1.002322
 50
180.132584
 51
269.867432
  0
ARC
  8
0
 10
97.604309
 20
-112.030731
 40
0.998407
 50
89.908493
 51
180.091064
  0
ARC
  8
0
 10
99.445343
 20
-145.522888
 40
0.999443
 50
179.968506
 51
270.031494
  0
ARC
  8
0
 10
104.898697
 20
-147.025116
 40
0.997212
 50
269.839569
 51
0.160438
  0
ARC
  8
0
 10
104.898697
 20
-146.525116
 40
0.997212
 50
269.839569
 51
0.160438
  0
ARC
  8
0
 10
104.516953
 20
-146.023376
 40
0.998963
 50
269.940063
 51
0.059512
  0
ARC
  8
0
 10
104.516953
 20
-145.523376
 40
0.998963
 50
269.940063
 51
0.059512
  0
ARC
  8
0
 10
104.520874
 20
-112.027359
 40
0.995038
 50
359.713562
 51
90.286430
  0
ARC
  8
0
 10
104.520874
 20
-112.527359
 40
0.995038
 50
359.713562
 51
90.286430
  0
ARC
  8
0
 10
99.441422
 20
-112.527847
 40
0.995532
 50
89.742249
 51
180.257751
  0
ARC
  8
0
 10
151.331741
 20
-104.028183
 40
1.004159
 50
270.236816
 51
359.763184
  0
ARC
  8
0
 10
149.494492
 20
-103.530930
 40
1.001405
 50
270.080322
 51
359.919678
  0
ARC
  8
0
 10
144.432922
 20
-104.025299
 40
1.007059
 50
180.400208
 51
269.599792
  0
ARC
  8
0
 10
144.432922
 20
-103.525299
 40
1.007059
 50
180.400208
 51
269.599792
  0
ARC
  8
0
 10
152.192795
 20
-71.025421
 40
0.993112
 50
359.601196
 51
90.398788
  0
ARC
  8
0
 10
151.594223
 20
-71.524002
 40
0.991704
 50
359.518646
 51
90.481346
  0
ARC
  8
0
 10
151.340668
 20
-72.027542
 40
0.995236
 50
359.724609
 51
90.274956
  0
ARC
  8
0
 10
149.503433
 20
-72.524780
 40
0.992476
 50
359.563965
 51
90.436043
  0
ARC
  8
0
 10
144.042236
 20
-71.028671
 40
0.996352
 50
89.790283
 51
180.210159
  0
ARC
  8
0
 10
144.042236
 20
-71.528671
 40
0.996352
 50
89.790283
 51
180.210159
  0
ARC
  8
0
 10
144.424026
 20
-72.030457
 40
0.998133
 50
89.892265
 51
180.107300
  0
ARC
  8
0
 10
144.424026
 20
-72.530457
 40
0.998133
 50
89.892265
 51
180.107300
  0
ARC
  8
0
 10
152.188873
 20
-147.025314
 40
0.997029
 50
269.829010
 51
0.170990
  0
ARC
  8
0
 10
151.590286
 20
-146.526718
 40
0.995615
 50
269.747101
 51
0.252898
  0
ARC
  8
0
 10
151.336746
 20
-146.023193
 40
0.999146
 50
269.950989
 51
0.049001
  0
ARC
  8
0
 10
151.340668
 20
-112.027542
 40
0.995236
 50
359.724609
 51
90.274956
  0
ARC
  8
0
 10
149.499512
 20
-145.525940
 40
0.996390
 50
269.792053
 51
0.207952
  0
ARC
  8
0
 10
144.046158
 20
-147.022064
 40
1.000259
 50
180.014862
 51
269.985138
  0
ARC
  8
0
 10
144.046158
 20
-146.522064
 40
1.000259
 50
180.014862
 51
269.985138
  0
ARC
  8
0
 10
144.427933
 20
-146.020279
 40
1.002047
 50
180.116913
 51
269.883087
  0
ARC
  8
0
 10
144.427933
 20
-145.520279
 40
1.002047
 50
180.116913
 51
269.883087
  0
ARC
  8
0
 10
144.424011
 20
-112.030457
 40
0.998133
 50
89.892265
 51
180.107300
  0
ARC
  8
0
 10
144.424011
 20
-112.530457
 40
0.998133
 50
89.892265
 51
180.107300
  0
ARC
  8
0
 10
149.503448
 20
-112.524780
 40
0.992476
 50
359.563965
 51
90.436043
  0
ARC
  8
0
 10
106.056305
 20
-149.521362
 40
15.000969
 50
180.500290
 51
269.998535
  0
ARC
  8
0
 10
142.888641
 20
-149.524536
 40
14.997787
 50
269.989502
 51
359.511780
  0
ARC
  8
0
 10
164.765778
 20
4.367767
 40
4.700104
 50
270.001312
 51
359.998718
  0
ARC
  8
0
 10
164.765778
 20
4.367767
 40
1.500103
 50
270.004089
 51
359.996033
  0
ARC
  8
0
 10
106.433472
 20
59.869705
 40
0.997954
 50
89.860268
 51
178.394867
  0
ARC
  8
0
 10
142.498322
 20
59.869705
 40
0.997950
 50
1.605152
 51
90.140167
  0
ARC
  8
0
 10
77.465912
 20
-50.332336
 40
4.999992
 50
270.000000
 51
0.000087
  0
ARC
  8
0
 10
77.465897
 20
-8.332352
 40
5.000008
 50
0.000087
 51
89.999916
  0
ARC
  8
0
 10
155.415680
 20
-43.332085
 40
1.000244
 50
181.733078
 51
270.012238
  0
ARC
  8
0
 10
93.516113
 20
-43.332085
 40
1.000248
 50
269.988190
 51
358.266937
  0
CIRCLE
  8
0
 10
124.465897
 20
-29.332123
 40
13.500000
  0
CIRCLE
  8
0
 10
124.465897
 20
-29.332123
 40
7.474999
  0
CIRCLE
  8
0
 62
     2
 10
124.465897
 20
-29.332123
 40
8.331000
  0
ARC
  8
0
 10
102.465805
 20
-42.332245
 40
2.000092
 50
270.002625
 51
359.997375
  0
ARC
  8
0
 10
146.465988
 20
-42.332245
 40
2.000092
 50
180.002625
 51
269.997375
  0
ARC
  8
0
 10
-75.718582
 20
19.668594
 40
4.249051
 50
72.800880
 51
89.913483
  0
ARC
  8
0
 10
-75.712830
 20
19.667557
 40
4.249909
 50
270.009064
 51
283.064331
  0
ARC
  8
0
 10
-80.712158
 20
19.667648
 40
4.250000
 50
90.000000
 51
269.999908
  0
ARC
  8
0
 10
-35.721329
 20
19.668655
 40
4.251026
 50
256.936890
 51
270.123505
  0
ARC
  8
0
 10
-35.705750
 20
19.668579
 40
4.249063
 50
90.086472
 51
107.199074
  0
ARC
  8
0
 10
-30.712158
 20
19.667648
 40
4.250000
 50
270.000031
 51
89.999977
  0
ARC
  8
0
 10
-73.749634
 20
59.864563
 40
1.003082
 50
90.144684
 51
178.110077
  0
ARC
  8
0
 10
-37.679871
 20
59.869553
 40
0.998095
 50
1.613024
 51
90.132050
  0
CIRCLE
  8
0
  6
PHANTOM
 62
     2
 10
-38.712189
 20
-29.332352
 40
26.250000
  0
ARC
  8
0
 10
-38.712189
 20
-29.332352
 40
12.700403
 50
312.989990
 51
47.010010
  0
ARC
  8
0
 10
-38.712189
 20
-29.332352
 40
11.998221
 50
303.544495
 51
56.455498
  0
CIRCLE
  8
0
 62
     2
 10
-38.712189
 20
-29.332352
 40
6.578500
  0
CIRCLE
  8
0
 10
-38.712189
 20
-29.332352
 40
5.722500
  0
CIRCLE
  8
0
 10
-38.712189
 20
-29.332352
 40
9.000000
  0
CIRCLE
  8
0
 10
-38.712189
 20
-29.332352
 40
10.000000
  0
ARC
  8
0
 10
-92.135010
 20
-91.069519
 40
0.307419
 50
182.389557
 51
216.489670
  0
ARC
  8
0
 10
-28.852936
 20
-104.031570
 40
1.000771
 50
270.044006
 51
359.955872
  0
ARC
  8
0
 10
-30.685043
 20
-103.529465
 40
1.002888
 50
270.164764
 51
359.835236
  0
ARC
  8
0
 10
-35.746628
 20
-104.026810
 40
1.005550
 50
180.315170
 51
269.684814
  0
ARC
  8
0
 10
-35.746628
 20
-103.526810
 40
1.005550
 50
180.315170
 51
269.684814
  0
ARC
  8
0
 10
-27.986771
 20
-71.026947
 40
0.994613
 50
359.688843
 51
90.311058
  0
ARC
  8
0
 10
-28.585419
 20
-71.525604
 40
0.993279
 50
359.610962
 51
90.389046
  0
ARC
  8
0
 10
-28.843979
 20
-72.024155
 40
0.991842
 50
359.526642
 51
90.473129
  0
ARC
  8
0
 10
-30.676102
 20
-72.526291
 40
0.993961
 50
359.650818
 51
90.349197
  0
ARC
  8
0
 10
-36.142273
 20
-71.032227
 40
0.999893
 50
89.993660
 51
180.006119
  0
ARC
  8
0
 10
-36.142273
 20
-71.532227
 40
0.999893
 50
89.993660
 51
180.006119
  0
ARC
  8
0
 10
-35.755554
 20
-72.028961
 40
0.996618
 50
89.805473
 51
180.194305
  0
ARC
  8
0
 10
-35.755554
 20
-72.528961
 40
0.996618
 50
89.805473
 51
180.194305
  0
ARC
  8
0
 10
-27.990692
 20
-147.023819
 40
0.998521
 50
269.915283
 51
0.084929
  0
ARC
  8
0
 10
-28.589355
 20
-146.525162
 40
0.997196
 50
269.838348
 51
0.161318
  0
ARC
  8
0
 10
-28.847916
 20
-146.026596
 40
0.995752
 50
269.755157
 51
0.244961
  0
ARC
  8
0
 10
-28.843964
 20
-112.024155
 40
0.991838
 50
359.526642
 51
90.473351
  0
ARC
  8
0
 10
-30.680038
 20
-145.524475
 40
0.997866
 50
269.877655
 51
0.122658
  0
ARC
  8
0
 10
-36.138367
 20
-147.018555
 40
1.003803
 50
180.216873
 51
269.783356
  0
ARC
  8
0
 10
-36.138367
 20
-146.518555
 40
1.003803
 50
180.216873
 51
269.783356
  0
ARC
  8
0
 10
-35.751633
 20
-146.021805
 40
1.000534
 50
180.030579
 51
269.969421
  0
ARC
  8
0
 10
-35.751633
 20
-145.521805
 40
1.000534
 50
180.030579
 51
269.969421
  0
ARC
  8
0
 10
-35.755554
 20
-112.028961
 40
0.996618
 50
89.805252
 51
180.194748
  0
ARC
  8
0
 10
-35.755554
 20
-112.528961
 40
0.996618
 50
89.805252
 51
180.194748
  0
ARC
  8
0
 10
-30.676102
 20
-112.526276
 40
0.993957
 50
359.650360
 51
90.349419
  0
ARC
  8
0
 10
-82.566429
 20
-104.026611
 40
1.005746
 50
180.326416
 51
269.673584
  0
ARC
  8
0
 10
-80.734306
 20
-103.524490
 40
1.007881
 50
180.446289
 51
269.553711
  0
ARC
  8
0
 10
-75.672745
 20
-104.031769
 40
1.000572
 50
270.032776
 51
359.967224
  0
ARC
  8
0
 10
-75.672745
 20
-103.531769
 40
1.000572
 50
270.032776
 51
359.967224
  0
ARC
  8
0
 10
-83.432541
 20
-71.031967
 40
0.999619
 50
89.978134
 51
180.021866
  0
ARC
  8
0
 10
-82.833893
 20
-71.530609
 40
0.998270
 50
89.900597
 51
180.099396
  0
ARC
  8
0
 10
-82.575348
 20
-72.029160
 40
0.996816
 50
89.816696
 51
180.183304
  0
ARC
  8
0
 10
-80.743202
 20
-72.531296
 40
0.998955
 50
89.940048
 51
180.059952
  0
ARC
  8
0
 10
-75.277039
 20
-71.027222
 40
0.994886
 50
359.704742
 51
90.295265
  0
ARC
  8
0
 10
-75.277039
 20
-71.527222
 40
0.994886
 50
359.704742
 51
90.295265
  0
ARC
  8
0
 10
-75.663773
 20
-72.023956
 40
0.991651
 50
359.515533
 51
90.484459
  0
ARC
  8
0
 10
-75.663773
 20
-72.523956
 40
0.991651
 50
359.515533
 51
90.484459
  0
ARC
  8
0
 10
-83.428635
 20
-147.018829
 40
1.003531
 50
180.201248
 51
269.798767
  0
ARC
  8
0
 10
-82.829979
 20
-146.520172
 40
1.002177
 50
180.124756
 51
269.875702
  0
ARC
  8
0
 10
-82.571426
 20
-146.021622
 40
1.000725
 50
180.041931
 51
269.958069
  0
ARC
  8
0
 10
-82.575348
 20
-112.029160
 40
0.996816
 50
89.816696
 51
180.183304
  0
ARC
  8
0
 10
-80.739296
 20
-145.519485
 40
1.002865
 50
180.163895
 51
269.836548
  0
ARC
  8
0
 10
-75.280960
 20
-147.023544
 40
0.998795
 50
269.930847
 51
0.069150
  0
ARC
  8
0
 10
-75.280960
 20
-146.523544
 40
0.998795
 50
269.930847
 51
0.069150
  0
ARC
  8
0
 10
-75.667709
 20
-146.026794
 40
0.995554
 50
269.744019
 51
0.256424
  0
ARC
  8
0
 10
-75.667709
 20
-145.526794
 40
0.995554
 50
269.744019
 51
0.256424
  0
ARC
  8
0
 10
-75.663773
 20
-112.023956
 40
0.991643
 50
359.515106
 51
90.484901
  0
ARC
  8
0
 10
-75.663773
 20
-112.523956
 40
0.991643
 50
359.515106
 51
90.484901
  0
ARC
  8
0
 10
-80.743210
 20
-112.531296
 40
0.998955
 50
89.940048
 51
180.059952
  0
ARC
  8
0
 10
-37.291000
 20
-149.522949
 40
14.999390
 50
269.995575
 51
359.505737
  0
ARC
  8
0
 10
-74.123352
 20
-149.522980
 40
14.999368
 50
180.494217
 51
270.004547
  0
POLYLINE
  8
0
 66
     1
  0
VERTEX
  8
0
 10
-89.752159
 20
-77.402344
  0
VERTEX
  8
0
 10
-89.481216
 20
-78.342850
  0
VERTEX
  8
0
 10
-89.239525
 20
-79.271339
  0
VERTEX
  8
0
 10
-89.027245
 20
-80.199287
  0
VERTEX
  8
0
 10
-88.844528
 20
-81.138161
  0
VERTEX
  8
0
 10
-88.691505
 20
-82.099434
  0
VERTEX
  8
0
 10
-88.568336
 20
-83.094574
  0
VERTEX
  8
0
 10
-88.475174
 20
-84.135056
  0
VERTEX
  8
0
 10
-88.412155
 20
-85.232346
  0
VERTEX
  8
0
 10
-88.387375
 20
-86.151421
  0
VERTEX
  8
0
 10
-88.390617
 20
-87.071159
  0
VERTEX
  8
0
 10
-88.421394
 20
-87.990677
  0
VERTEX
  8
0
 10
-88.479240
 20
-88.909081
  0
VERTEX
  8
0
 10
-88.563683
 20
-89.825485
  0
VERTEX
  8
0
 10
-88.674240
 20
-90.739014
  0
VERTEX
  8
0
 10
-88.810440
 20
-91.648766
  0
VERTEX
  8
0
 10
-88.971802
 20
-92.553864
  0
VERTEX
  8
0
 10
-89.157860
 20
-93.453423
  0
VERTEX
  8
0
 10
-89.368141
 20
-94.346542
  0
VERTEX
  8
0
 10
-89.602158
 20
-95.232346
  0
SEQEND
  0
TEXT
  8
0
 10
-0.250015
 20
-28.332382
 40
6.300000
  1
OUT
 50
0.000000
 41
1.052632
 51
0.000000
  7
STANDARD
  0
TEXT
  8
0
 10
-272.299713
 20
180.830002
 40
6.300000
  1
FILTER REGULATOR
 50
0.000000
 41
1.052632
 51
0.000000
  7
STANDARD
  0
TEXT
  8
0
 10
-256.000000
 20
157.720001
 40
6.300000
  1
MODEL:FR600-03
 50
0.000000
 41
1.052632
 51
0.000000
  7
STANDARD
  0
TEXT
  8
0
 10
196.250259
 20
180.830002
 40
6.300000
  1
　Ｖｅｒ．２．０
 50
0.000000
 41
0.833333
 51
0.000000
  7
STANDARD
  0
TEXT
  8
0
 10
-125.250000
 20
-28.332321
 40
6.300000
  1
IN
 50
0.000000
 41
1.052632
 51
0.000000
  7
STANDARD
  0
TEXT
  8
0
 10
167.564667
 20
-192.100006
 40
9.000000
  1
KOGANEI CORP.
 50
0.000000
 41
1.052632
 51
0.000000
  7
STANDARD
  0
LINE
  8
0
 10
19.287811
 20
-29.332382
 11
-5.712173
 21
-29.332382
  0
LINE
  8
0
 10
19.287811
 20
-29.332382
 11
16.390034
 21
-28.555925
  0
LINE
  8
0
 10
19.287811
 20
-29.332382
 11
16.390034
 21
-30.108839
  0
LINE
  8
0
 10
-105.712158
 20
-29.332336
 11
-130.712143
 21
-29.332336
  0
LINE
  8
0
 10
-105.712158
 20
-29.332336
 11
-108.609940
 21
-28.555880
  0
LINE
  8
0
 10
-105.712158
 20
-29.332336
 11
-108.609932
 21
-30.108793
  0
ENDSEC
  0
EOF
