  0
SECTION
  2
HEADER
  9
$ACADVER
  1
AC1015
  9
$ACADMAINTVER
 70
    20
  9
$DWGCODEPAGE
  3
ANSI_932
  9
$INSBASE
 10
0.0
 20
0.0
 30
0.0
  9
$EXTMIN
 10
-194.25
 20
-133.5
 30
0.0
  9
$EXTMAX
 10
194.80000305
 20
132.6000061
 30
0.0
  9
$LIMMIN
 10
-194.25
 20
-133.5
  9
$LIMMAX
 10
194.80000305
 20
132.6000061
  9
$ORTHOMODE
 70
     0
  9
$REGENMODE
 70
     1
  9
$FILLMODE
 70
     1
  9
$QTEXTMODE
 70
     0
  9
$MIRRTEXT
 70
     1
  9
$LTSCALE
 40
1.0
  9
$ATTMODE
 70
     1
  9
$TEXTSIZE
 40
3.200000049999999
  9
$TRACEWID
 40
0.05
  9
$TEXTSTYLE
  7
MX_NOTE_STANDARD
  9
$CLAYER
  8
0
  9
$CELTYPE
  6
CONTINUOUS
  9
$CECOLOR
 62
   256
  9
$CELTSCALE
 40
1.0
  9
$DISPSILH
 70
     0
  9
$DIMSCALE
 40
1.0
  9
$DIMASZ
 40
2.5
  9
$DIMEXO
 40
1.5
  9
$DIMDLI
 40
3.75
  9
$DIMRND
 40
0.0
  9
$DIMDLE
 40
0.0
  9
$DIMEXE
 40
1.5
  9
$DIMTP
 40
0.0
  9
$DIMTM
 40
0.0
  9
$DIMTXT
 40
3.200000049999999
  9
$DIMCEN
 40
2.5
  9
$DIMTSZ
 40
0.0
  9
$DIMTOL
 70
     0
  9
$DIMLIM
 70
     0
  9
$DIMTIH
 70
     0
  9
$DIMTOH
 70
     0
  9
$DIMSE1
 70
     0
  9
$DIMSE2
 70
     0
  9
$DIMTAD
 70
     1
  9
$DIMZIN
 70
     8
  9
$DIMBLK
  1

  9
$DIMASO
 70
     1
  9
$DIMSHO
 70
     1
  9
$DIMPOST
  1

  9
$DIMAPOST
  1

  9
$DIMALT
 70
     0
  9
$DIMALTD
 70
     4
  9
$DIMALTF
 40
0.0394
  9
$DIMLFAC
 40
1.0
  9
$DIMTOFL
 70
     1
  9
$DIMTVP
 40
0.0
  9
$DIMTIX
 70
     0
  9
$DIMSOXD
 70
     0
  9
$DIMSAH
 70
     0
  9
$DIMBLK1
  1

  9
$DIMBLK2
  1

  9
$DIMSTYLE
  2
MXDIMSTYLE
  9
$DIMCLRD
 70
     0
  9
$DIMCLRE
 70
     0
  9
$DIMCLRT
 70
     0
  9
$DIMTFAC
 40
1.0
  9
$DIMGAP
 40
1.0
  9
$DIMJUST
 70
     0
  9
$DIMSD1
 70
     0
  9
$DIMSD2
 70
     0
  9
$DIMTOLJ
 70
     1
  9
$DIMTZIN
 70
     0
  9
$DIMALTZ
 70
     0
  9
$DIMALTTZ
 70
     0
  9
$DIMUPT
 70
     0
  9
$DIMDEC
 70
     4
  9
$DIMTDEC
 70
     4
  9
$DIMALTU
 70
     2
  9
$DIMALTTD
 70
     2
  9
$DIMTXSTY
  7
Standard
  9
$DIMAUNIT
 70
     0
  9
$DIMADEC
 70
     0
  9
$DIMALTRND
 40
0.0
  9
$DIMAZIN
 70
     0
  9
$DIMDSEP
 70
    46
  9
$DIMATFIT
 70
     3
  9
$DIMFRAC
 70
     0
  9
$DIMLDRBLK
  1

  9
$DIMLUNIT
 70
     2
  9
$DIMLWD
 70
    -2
  9
$DIMLWE
 70
    -2
  9
$DIMTMOVE
 70
     0
  9
$LUNITS
 70
     2
  9
$LUPREC
 70
     4
  9
$SKETCHINC
 40
0.1
  9
$FILLETRAD
 40
0.0
  9
$AUNITS
 70
     0
  9
$AUPREC
 70
     0
  9
$MENU
  1
acad
  9
$ELEVATION
 40
0.0
  9
$PELEVATION
 40
0.0
  9
$THICKNESS
 40
0.0
  9
$LIMCHECK
 70
     0
  9
$CHAMFERA
 40
0.0
  9
$CHAMFERB
 40
0.0
  9
$CHAMFERC
 40
0.0
  9
$CHAMFERD
 40
0.0
  9
$SKPOLY
 70
     0
  9
$TDCREATE
 40
2452902.575729167
  9
$TDUCREATE
 40
2452902.200729166
  9
$TDUPDATE
 40
2454204.720393473
  9
$TDUUPDATE
 40
2454204.345393472
  9
$TDINDWG
 40
0.0677598148
  9
$TDUSRTIMER
 40
0.0677598148
  9
$USRTIMER
 70
     1
  9
$ANGBASE
 50
0.0
  9
$ANGDIR
 70
     0
  9
$PDMODE
 70
     0
  9
$PDSIZE
 40
0.0
  9
$PLINEWID
 40
0.0
  9
$SPLFRAME
 70
     0
  9
$SPLINETYPE
 70
     6
  9
$SPLINESEGS
 70
     8
  9
$HANDSEED
  5
A9E
  9
$SURFTAB1
 70
     6
  9
$SURFTAB2
 70
     6
  9
$SURFTYPE
 70
     6
  9
$SURFU
 70
     6
  9
$SURFV
 70
     6
  9
$UCSBASE
  2

  9
$UCSNAME
  2

  9
$UCSORG
 10
0.0
 20
0.0
 30
0.0
  9
$UCSXDIR
 10
1.0
 20
0.0
 30
0.0
  9
$UCSYDIR
 10
0.0
 20
1.0
 30
0.0
  9
$UCSORTHOREF
  2

  9
$UCSORTHOVIEW
 70
     0
  9
$UCSORGTOP
 10
0.0
 20
0.0
 30
0.0
  9
$UCSORGBOTTOM
 10
0.0
 20
0.0
 30
0.0
  9
$UCSORGLEFT
 10
0.0
 20
0.0
 30
0.0
  9
$UCSORGRIGHT
 10
0.0
 20
0.0
 30
0.0
  9
$UCSORGFRONT
 10
0.0
 20
0.0
 30
0.0
  9
$UCSORGBACK
 10
0.0
 20
0.0
 30
0.0
  9
$PUCSBASE
  2

  9
$PUCSNAME
  2

  9
$PUCSORG
 10
0.0
 20
0.0
 30
0.0
  9
$PUCSXDIR
 10
1.0
 20
0.0
 30
0.0
  9
$PUCSYDIR
 10
0.0
 20
1.0
 30
0.0
  9
$PUCSORTHOREF
  2

  9
$PUCSORTHOVIEW
 70
     0
  9
$PUCSORGTOP
 10
0.0
 20
0.0
 30
0.0
  9
$PUCSORGBOTTOM
 10
0.0
 20
0.0
 30
0.0
  9
$PUCSORGLEFT
 10
0.0
 20
0.0
 30
0.0
  9
$PUCSORGRIGHT
 10
0.0
 20
0.0
 30
0.0
  9
$PUCSORGFRONT
 10
0.0
 20
0.0
 30
0.0
  9
$PUCSORGBACK
 10
0.0
 20
0.0
 30
0.0
  9
$USERI1
 70
     0
  9
$USERI2
 70
     0
  9
$USERI3
 70
     0
  9
$USERI4
 70
     0
  9
$USERI5
 70
     0
  9
$USERR1
 40
0.0
  9
$USERR2
 40
0.0
  9
$USERR3
 40
0.0
  9
$USERR4
 40
0.0
  9
$USERR5
 40
0.0
  9
$WORLDVIEW
 70
     1
  9
$SHADEDGE
 70
     3
  9
$SHADEDIF
 70
    70
  9
$TILEMODE
 70
     1
  9
$MAXACTVP
 70
    16
  9
$PINSBASE
 10
0.0
 20
0.0
 30
0.0
  9
$PLIMCHECK
 70
     0
  9
$PEXTMIN
 10
1.130750010332723
 20
0.7880833242821881
 30
0.0
  9
$PEXTMAX
 10
10.17675009299451
 20
7.092749918539693
 30
0.0
  9
$PLIMMIN
 10
-0.1912502979669045
 20
-0.1912499975970411
  9
$PLIMMAX
 10
11.50208240418922
 20
8.075416444793461
  9
$UNITMODE
 70
     0
  9
$VISRETAIN
 70
     0
  9
$PLINEGEN
 70
     1
  9
$PSLTSCALE
 70
     0
  9
$TREEDEPTH
 70
  3020
  9
$CMLSTYLE
  2
Standard
  9
$CMLJUST
 70
     0
  9
$CMLSCALE
 40
1.0
  9
$PROXYGRAPHICS
 70
     1
  9
$MEASUREMENT
 70
     0
  9
$CELWEIGHT
370
    -1
  9
$ENDCAPS
280
     0
  9
$JOINSTYLE
280
     0
  9
$LWDISPLAY
290
     0
  9
$INSUNITS
 70
     0
  9
$HYPERLINKBASE
  1

  9
$STYLESHEET
  1

  9
$XEDIT
290
     1
  9
$CEPSNTYPE
380
     0
  9
$PSTYLEMODE
290
     1
  9
$FINGERPRINTGUID
  2
{F7B81B36-5798-459A-B80E-3198B5262C43}
  9
$VERSIONGUID
  2
{7F793F87-5B54-405F-B4A8-4FBC354EFCAA}
  9
$EXTNAMES
290
     1
  9
$PSVPSCALE
 40
0.0
  9
$OLESTARTUP
290
     0
  0
ENDSEC
  0
SECTION
  2
CLASSES
  0
CLASS
  1
ACDBDICTIONARYWDFLT
  2
AcDbDictionaryWithDefault
  3
ObjectDBX Classes
 90
        0
280
     0
281
     0
  0
CLASS
  1
TABLESTYLE
  2
AcDbTableStyle
  3
ObjectDBX Classes
 90
     2047
280
     0
281
     0
  0
CLASS
  1
DICTIONARYVAR
  2
AcDbDictionaryVar
  3
ObjectDBX Classes
 90
        0
280
     0
281
     0
  0
CLASS
  1
SORTENTSTABLE
  2
AcDbSortentsTable
  3
ObjectDBX Classes
 90
        0
280
     0
281
     0
  0
CLASS
  1
ACDBPLACEHOLDER
  2
AcDbPlaceHolder
  3
ObjectDBX Classes
 90
        0
280
     0
281
     0
  0
CLASS
  1
LAYOUT
  2
AcDbLayout
  3
ObjectDBX Classes
 90
        0
280
     0
281
     0
  0
ENDSEC
  0
SECTION
  2
TABLES
  0
TABLE
  2
VPORT
  5
28C
330
0
100
AcDbSymbolTable
 70
    17
  0
VPORT
  5
A94
330
28C
100
AcDbSymbolTableRecord
100
AcDbViewportTableRecord
  2
*Active
 70
     0
 10
0.0
 20
0.0
 11
1.0
 21
1.0
 12
-39.86796137608707
 22
-13.60104780561798
 13
0.0
 23
0.0
 14
1.0
 24
1.0
 15
0.0
 25
0.0
 16
0.0
 26
0.0
 36
1.0
 17
0.0
 27
0.0
 37
0.0
 40
322.2092304044547
 41
1.599216710182767
 42
50.0
 43
0.0
 44
0.0
 50
0.0
 51
0.0
 71
     0
 72
   100
 73
     1
 74
     1
 75
     0
 76
     0
 77
     0
 78
     0
281
     0
 65
     1
110
0.0
120
0.0
130
0.0
111
1.0
121
0.0
131
0.0
112
0.0
122
1.0
132
0.0
 79
     0
146
0.0
  0
ENDTAB
  0
TABLE
  2
LTYPE
  5
289
330
0
100
AcDbSymbolTable
 70
     4
  0
LTYPE
  5
297
330
289
100
AcDbSymbolTableRecord
100
AcDbLinetypeTableRecord
  2
ByBlock
 70
     0
  3

 72
    65
 73
     0
 40
0.0
  0
LTYPE
  5
298
330
289
100
AcDbSymbolTableRecord
100
AcDbLinetypeTableRecord
  2
ByLayer
 70
     0
  3

 72
    65
 73
     0
 40
0.0
  0
LTYPE
  5
299
330
289
100
AcDbSymbolTableRecord
100
AcDbLinetypeTableRecord
  2
CONTINUOUS
 70
     0
  3
Solid line
 72
    65
 73
     0
 40
0.0
  0
LTYPE
  5
2AC
330
289
100
AcDbSymbolTableRecord
100
AcDbLinetypeTableRecord
  2
CENTER
 70
     0
  3
Center ____ _ ____ _ ____ _ ____ _ ____ _ ____
 72
    65
 73
     4
 40
50.8
 49
31.75
 74
     0
 49
-6.349999999999999
 74
     0
 49
6.349999999999999
 74
     0
 49
-6.349999999999999
 74
     0
  0
LTYPE
  5
A29
330
289
100
AcDbSymbolTableRecord
100
AcDbLinetypeTableRecord
  2
DASHED
 70
     0
  3
Dashed __ __ __ __ __ __ __ __ __ __ __ __ __ _
 72
    65
 73
     2
 40
4.0
 49
2.0
 74
     0
 49
-2.0
 74
     0
  0
ENDTAB
  0
TABLE
  2
LAYER
  5
286
102
{ACAD_XDICTIONARY
360
2C0
102
}
330
0
100
AcDbSymbolTable
 70
     2
  0
LAYER
  5
294
330
286
100
AcDbSymbolTableRecord
100
AcDbLayerTableRecord
  2
0
 70
     0
 62
     7
  6
CONTINUOUS
370
    -3
390
293
  0
LAYER
  5
2AD
330
286
100
AcDbSymbolTableRecord
100
AcDbLayerTableRecord
  2
DEFPOINTS
 70
     0
 62
     7
  6
CONTINUOUS
290
     0
370
    -3
390
293
  0
ENDTAB
  0
TABLE
  2
STYLE
  5
287
330
0
100
AcDbSymbolTable
 70
     2
  0
STYLE
  5
295
330
287
100
AcDbSymbolTableRecord
100
AcDbTextStyleTableRecord
  2
Standard
 70
     0
 40
0.0
 41
1.0
 50
0.0
 71
     0
 42
0.2
  3
txt
  4

  0
STYLE
  5
2AA
330
287
100
AcDbSymbolTableRecord
100
AcDbTextStyleTableRecord
  2
MX_NOTE_STANDARD
 70
     0
 40
3.200000049999999
 41
1.0
 50
0.0
 71
     0
 42
3.200000049999999
  3
txt.shx
  4
extfont.shx
  0
ENDTAB
  0
TABLE
  2
VIEW
  5
28A
330
0
100
AcDbSymbolTable
 70
     5
  0
ENDTAB
  0
TABLE
  2
UCS
  5
28B
330
0
100
AcDbSymbolTable
 70
     0
  0
ENDTAB
  0
TABLE
  2
APPID
  5
28D
330
0
100
AcDbSymbolTable
 70
     2
  0
APPID
  5
296
330
28D
100
AcDbSymbolTableRecord
100
AcDbRegAppTableRecord
  2
ACAD
 70
     0
  0
APPID
  5
2BA
330
28D
100
AcDbSymbolTableRecord
100
AcDbRegAppTableRecord
  2
ACAD_PSEXT
 70
     0
  0
ENDTAB
  0
TABLE
  2
DIMSTYLE
  5
28E
330
0
100
AcDbSymbolTable
 70
     3
100
AcDbDimStyleTable
 71
     1
340
2AE
  0
DIMSTYLE
105
2AE
330
28E
100
AcDbSymbolTableRecord
100
AcDbDimStyleTableRecord
  2
MXDIMSTYLE
 70
     0
 41
2.5
 42
1.5
 43
3.75
 44
1.5
 73
     0
 74
     0
 77
     1
 78
     8
140
3.200000049999999
141
2.5
143
0.0394
147
1.0
171
     4
172
     1
274
     4
279
     2
284
     8
285
     8
286
     8
340
2AA
  0
DIMSTYLE
105
9EB
330
28E
100
AcDbSymbolTableRecord
100
AcDbDimStyleTableRecord
  2
Standard
 70
     0
340
295
  0
ENDTAB
  0
TABLE
  2
BLOCK_RECORD
  5
285
330
0
100
AcDbSymbolTable
 70
     9
  0
BLOCK_RECORD
  5
2A6
102
{ACAD_XDICTIONARY
360
8CB
102
}
330
285
100
AcDbSymbolTableRecord
100
AcDbBlockTableRecord
  2
*Model_Space
340
2A9
  0
BLOCK_RECORD
  5
2A2
330
285
100
AcDbSymbolTableRecord
100
AcDbBlockTableRecord
  2
*Paper_Space
340
2A5
  0
BLOCK_RECORD
  5
2B1
330
285
100
AcDbSymbolTableRecord
100
AcDbBlockTableRecord
  2
*X0
340
0
  0
BLOCK_RECORD
  5
2B2
330
285
100
AcDbSymbolTableRecord
100
AcDbBlockTableRecord
  2
*X1
340
0
  0
BLOCK_RECORD
  5
2B3
330
285
100
AcDbSymbolTableRecord
100
AcDbBlockTableRecord
  2
*X2
340
0
  0
BLOCK_RECORD
  5
2B4
330
285
100
AcDbSymbolTableRecord
100
AcDbBlockTableRecord
  2
*X3
340
0
  0
BLOCK_RECORD
  5
2E8
330
285
100
AcDbSymbolTableRecord
100
AcDbBlockTableRecord
  2
_OPEN30
340
0
  0
ENDTAB
  0
ENDSEC
  0
SECTION
  2
BLOCKS
  0
BLOCK
  5
2A7
330
2A6
100
AcDbEntity
  8
0
100
AcDbBlockBegin
  2
*Model_Space
 70
     0
 10
0.0
 20
0.0
 30
0.0
  3
*Model_Space
  1

  0
ENDBLK
  5
2A8
330
2A6
100
AcDbEntity
  8
0
100
AcDbBlockEnd
  0
BLOCK
  5
2A3
330
2A2
100
AcDbEntity
 67
     1
  8
0
100
AcDbBlockBegin
  2
*Paper_Space
 70
     0
 10
0.0
 20
0.0
 30
0.0
  3
*Paper_Space
  1

  0
ENDBLK
  5
2A4
330
2A2
100
AcDbEntity
 67
     1
  8
0
100
AcDbBlockEnd
  0
BLOCK
  5
B0
330
2B1
100
AcDbEntity
  8
0
  6
ByBlock
 62
     0
100
AcDbBlockBegin
  2
*X0
 70
     1
 10
0.0
 20
0.0
 30
0.0
  3
*X0
  1

  0
LINE
  5
B1
330
2B1
100
AcDbEntity
  8
0
  6
ByBlock
 62
     0
100
AcDbLine
 10
115.80855153
 20
63.48264973
 30
0.0
 11
116.16402302
 21
63.83812121
 31
0.0
  0
LINE
  5
B2
330
2B1
100
AcDbEntity
  8
0
  6
ByBlock
 62
     0
100
AcDbLine
 10
114.39433797
 20
63.48264973
 30
0.0
 11
115.79170769
 21
64.88001945
 31
0.0
  0
LINE
  5
B3
330
2B1
100
AcDbEntity
  8
0
  6
ByBlock
 62
     0
100
AcDbLine
 10
113.53220238
 20
64.03472769
 30
0.0
 11
115.11424957
 21
65.61677489
 31
0.0
  0
LINE
  5
B4
330
2B1
100
AcDbEntity
  8
0
  6
ByBlock
 62
     0
100
AcDbLine
 10
113.53220238
 20
65.44894125999999
 30
0.0
 11
114.14875748
 21
66.06549636
 31
0.0
  0
LINE
  5
B5
330
2B1
100
AcDbEntity
  8
0
  6
ByBlock
 62
     0
100
AcDbLine
 10
114.70825913
 20
63.48264973
 30
0.0
 11
113.53220238
 21
64.65870648
 31
0.0
  0
LINE
  5
B6
330
2B1
100
AcDbEntity
  8
0
  6
ByBlock
 62
     0
100
AcDbLine
 10
116.1224727
 20
63.48264973
 30
0.0
 11
113.53220238
 21
66.07292004999999
 31
0.0
  0
ENDBLK
  5
B7
330
2B1
100
AcDbEntity
  8
0
  6
ByBlock
 62
     0
100
AcDbBlockEnd
  0
BLOCK
  5
BA
330
2B2
100
AcDbEntity
  8
0
  6
ByBlock
 62
     0
100
AcDbBlockBegin
  2
*X1
 70
     1
 10
0.0
 20
0.0
 30
0.0
  3
*X1
  1

  0
LINE
  5
BB
330
2B2
100
AcDbEntity
  8
0
  6
ByBlock
 62
     0
100
AcDbLine
 10
115.05396803
 20
61.31385266
 30
0.0
 11
115.71051863
 21
61.97040325999999
 31
0.0
  0
LINE
  5
BC
330
2B2
100
AcDbEntity
  8
0
  6
ByBlock
 62
     0
100
AcDbLine
 10
113.53220238
 20
61.20630057
 30
0.0
 11
115.80855153
 21
63.48264973
 31
0.0
  0
LINE
  5
BD
330
2B2
100
AcDbEntity
  8
0
  6
ByBlock
 62
     0
100
AcDbLine
 10
113.53220238
 20
62.62051413
 30
0.0
 11
114.39433797
 21
63.48264973
 31
0.0
  0
LINE
  5
BE
330
2B2
100
AcDbEntity
  8
0
  6
ByBlock
 62
     0
100
AcDbLine
 10
114.3859629
 20
60.97651883000001
 30
0.0
 11
113.53220238
 21
61.83027936
 31
0.0
  0
LINE
  5
BF
330
2B2
100
AcDbEntity
  8
0
  6
ByBlock
 62
     0
100
AcDbLine
 10
115.28328797
 20
61.49340732999999
 30
0.0
 11
113.53220238
 21
63.24449292
 31
0.0
  0
LINE
  5
C0
330
2B2
100
AcDbEntity
  8
0
  6
ByBlock
 62
     0
100
AcDbLine
 10
115.90140193
 20
62.28950693
 30
0.0
 11
114.70825913
 21
63.48264973
 31
0.0
  0
LINE
  5
C1
330
2B2
100
AcDbEntity
  8
0
  6
ByBlock
 62
     0
100
AcDbLine
 10
116.18650782
 20
63.4186146
 30
0.0
 11
116.1224727
 21
63.48264973
 31
0.0
  0
ENDBLK
  5
C2
330
2B2
100
AcDbEntity
  8
0
  6
ByBlock
 62
     0
100
AcDbBlockEnd
  0
BLOCK
  5
C5
330
2B3
100
AcDbEntity
  8
0
  6
ByBlock
 62
     0
100
AcDbBlockBegin
  2
*X2
 70
     1
 10
0.0
 20
0.0
 30
0.0
  3
*X2
  1

  0
LINE
  5
C6
330
2B3
100
AcDbEntity
  8
0
  6
ByBlock
 62
     0
100
AcDbLine
 10
113.18625008
 20
60.86034827999999
 30
0.0
 11
113.53220238
 21
61.20630057
 31
0.0
  0
LINE
  5
C7
330
2B3
100
AcDbEntity
  8
0
  6
ByBlock
 62
     0
100
AcDbLine
 10
112.14435185
 20
61.2326636
 30
0.0
 11
113.53220238
 21
62.62051413
 31
0.0
  0
LINE
  5
C8
330
2B3
100
AcDbEntity
  8
0
  6
ByBlock
 62
     0
100
AcDbLine
 10
111.40759641
 20
61.91012173
 30
0.0
 11
112.98012441
 21
63.48264973
 31
0.0
  0
LINE
  5
C9
330
2B3
100
AcDbEntity
  8
0
  6
ByBlock
 62
     0
100
AcDbLine
 10
110.95887494
 20
62.87561381999999
 30
0.0
 11
111.56591085
 21
63.48264973
 31
0.0
  0
LINE
  5
CA
330
2B3
100
AcDbEntity
  8
0
  6
ByBlock
 62
     0
100
AcDbLine
 10
113.06968777
 20
60.87858041
 30
0.0
 11
110.92898679
 21
63.01928139000001
 31
0.0
  0
LINE
  5
CB
330
2B3
100
AcDbEntity
  8
0
  6
ByBlock
 62
     0
100
AcDbLine
 10
113.53220238
 20
61.83027936
 30
0.0
 11
111.87983201
 21
63.48264973
 31
0.0
  0
LINE
  5
CC
330
2B3
100
AcDbEntity
  8
0
  6
ByBlock
 62
     0
100
AcDbLine
 10
113.53220238
 20
63.24449292
 30
0.0
 11
113.29404557
 21
63.48264973
 31
0.0
  0
ENDBLK
  5
CD
330
2B3
100
AcDbEntity
  8
0
  6
ByBlock
 62
     0
100
AcDbBlockEnd
  0
BLOCK
  5
D0
330
2B4
100
AcDbEntity
  8
0
  6
ByBlock
 62
     0
100
AcDbBlockBegin
  2
*X3
 70
     1
 10
0.0
 20
0.0
 30
0.0
  3
*X3
  1

  0
LINE
  5
D1
330
2B4
100
AcDbEntity
  8
0
  6
ByBlock
 62
     0
100
AcDbLine
 10
112.98012441
 20
63.48264973
 30
0.0
 11
113.53220238
 21
64.03472769
 31
0.0
  0
LINE
  5
D2
330
2B4
100
AcDbEntity
  8
0
  6
ByBlock
 62
     0
100
AcDbLine
 10
111.56591085
 20
63.48264973
 30
0.0
 11
113.53220238
 21
65.44894125999999
 31
0.0
  0
LINE
  5
D3
330
2B4
100
AcDbEntity
  8
0
  6
ByBlock
 62
     0
100
AcDbLine
 10
111.03871443
 20
64.36966688
 30
0.0
 11
112.65470442
 21
65.98565686
 31
0.0
  0
LINE
  5
D4
330
2B4
100
AcDbEntity
  8
0
  6
ByBlock
 62
     0
100
AcDbLine
 10
111.87983201
 20
63.48264973
 30
0.0
 11
111.02692521
 21
64.33555651999999
 31
0.0
  0
LINE
  5
D5
330
2B4
100
AcDbEntity
  8
0
  6
ByBlock
 62
     0
100
AcDbLine
 10
113.29404557
 20
63.48264973
 30
0.0
 11
111.54381371
 21
65.23288159
 31
0.0
  0
LINE
  5
D6
330
2B4
100
AcDbEntity
  8
0
  6
ByBlock
 62
     0
100
AcDbLine
 10
113.53220238
 20
64.65870648
 30
0.0
 11
112.33991331
 21
65.85099554999999
 31
0.0
  0
LINE
  5
D7
330
2B4
100
AcDbEntity
  8
0
  6
ByBlock
 62
     0
100
AcDbLine
 10
113.53220238
 20
66.07292004999999
 30
0.0
 11
113.46902098
 21
66.13610144
 31
0.0
  0
ENDBLK
  5
D8
330
2B4
100
AcDbEntity
  8
0
  6
ByBlock
 62
     0
100
AcDbBlockEnd
  0
BLOCK
  5
2E9
330
2E8
100
AcDbEntity
  8
0
  6
ByBlock
 62
     0
100
AcDbBlockBegin
  2
_OPEN30
 70
     2
 10
0.0
 20
0.0
 30
0.0
  3
_OPEN30
  1

  0
LINE
  5
2EA
330
2E8
100
AcDbEntity
  8
0
  6
ByBlock
 62
     0
100
AcDbLine
 10
-1.0
 20
0.267949
 30
0.0
 11
0.0
 21
0.0
 31
0.0
  0
LINE
  5
2EB
330
2E8
100
AcDbEntity
  8
0
  6
ByBlock
 62
     0
100
AcDbLine
 10
0.0
 20
0.0
 30
0.0
 11
-1.0
 21
-0.267949
 31
0.0
  0
LINE
  5
2EC
330
2E8
100
AcDbEntity
  8
0
  6
ByBlock
 62
     0
100
AcDbLine
 10
0.0
 20
0.0
 30
0.0
 11
-1.0
 21
0.0
 31
0.0
  0
ENDBLK
  5
2ED
330
2E8
100
AcDbEntity
  8
0
  6
ByBlock
 62
     0
100
AcDbBlockEnd
  0
ENDSEC
  0
SECTION
  2
ENTITIES
  0
ARC
  5
87
330
2A6
100
AcDbEntity
  8
0
  6
Continuous
 62
     7
100
AcDbCircle
 10
107.03220238
 20
-19.51734991
 30
0.0
 40
0.5
100
AcDbArc
 50
180.0
 51
270.0
  0
ARC
  5
88
330
2A6
100
AcDbEntity
  8
0
  6
Continuous
 62
     7
100
AcDbCircle
 10
146.03220238
 20
-19.51734991
 30
0.0
 40
0.5
100
AcDbArc
 50
270.0
 51
0.0
  0
LINE
  5
89
330
2A6
100
AcDbEntity
  8
0
  6
Continuous
 62
     7
100
AcDbLine
 10
146.03220238
 20
-20.01734991
 30
0.0
 11
107.03220238
 21
-20.01734991
 31
0.0
  0
ARC
  5
8A
330
2A6
100
AcDbEntity
  8
0
  6
Continuous
 62
     7
100
AcDbCircle
 10
-153.46779762
 20
-19.51735027
 30
0.0
 40
0.5
100
AcDbArc
 50
180.0
 51
270.0
  0
LINE
  5
8C
330
2A6
100
AcDbEntity
  8
0
  6
Continuous
 62
     7
100
AcDbLine
 10
-153.46779762
 20
-20.01735027
 30
0.0
 11
-127.46779762
 21
-20.01735027
 31
0.0
  0
LINE
  5
DA
330
2A6
100
AcDbEntity
  8
0
  6
CENTER
 62
     2
100
AcDbLine
 10
126.53220238
 20
-24.01735027
 30
0.0
 11
126.53220238
 21
99.30765008999999
 31
0.0
  0
LINE
  5
DB
330
2A6
100
AcDbEntity
  8
0
  6
Continuous
 62
     7
100
AcDbLine
 10
146.53220238
 20
66.48265009000001
 30
0.0
 11
106.53220238
 21
66.48265009000001
 31
0.0
  0
LINE
  5
DC
330
2A6
100
AcDbEntity
  8
0
  6
Continuous
 62
     7
100
AcDbLine
 10
146.53220238
 20
-19.51734991
 30
0.0
 11
146.53220238
 21
81.98265009000001
 31
0.0
  0
LINE
  5
DD
330
2A6
100
AcDbEntity
  8
0
  6
Continuous
 62
     7
100
AcDbLine
 10
147.53220238
 20
-14.01734991
 30
0.0
 11
106.53220238
 21
-14.01734991
 31
0.0
  0
LINE
  5
E2
330
2A6
100
AcDbEntity
  8
0
  6
Continuous
 62
     7
100
AcDbLine
 10
146.53220238
 20
95.98264973
 30
0.0
 11
106.53220238
 21
95.98264973
 31
0.0
  0
LINE
  5
E3
330
2A6
100
AcDbEntity
  8
0
  6
Continuous
 62
     7
100
AcDbLine
 10
149.03220238
 20
81.98265009000001
 30
0.0
 11
146.53220238
 21
81.98265009000001
 31
0.0
  0
LINE
  5
E4
330
2A6
100
AcDbEntity
  8
0
  6
Continuous
 62
     7
100
AcDbLine
 10
149.53220238
 20
82.48265009
 30
0.0
 11
149.53220238
 21
85.73265009000001
 31
0.0
  0
LINE
  5
E5
330
2A6
100
AcDbEntity
  8
0
  6
Continuous
 62
     7
100
AcDbLine
 10
146.53220238
 20
81.98265009000001
 30
0.0
 11
146.53220238
 21
95.98264973
 31
0.0
  0
LINE
  5
E6
330
2A6
100
AcDbEntity
  8
0
  6
Continuous
 62
     7
100
AcDbLine
 10
149.03220238
 20
86.98265009000001
 30
0.0
 11
146.53220238
 21
86.98265009000001
 31
0.0
  0
LINE
  5
E7
330
2A6
100
AcDbEntity
  8
0
  6
Continuous
 62
     7
100
AcDbLine
 10
149.53220238
 20
86.48265009000001
 30
0.0
 11
149.53220238
 21
85.73265009000001
 31
0.0
  0
LINE
  5
E8
330
2A6
100
AcDbEntity
  8
0
  6
CENTER
 62
     2
100
AcDbLine
 10
174.026497
 20
84.48265009000001
 30
0.0
 11
144.15720238
 21
84.48265009000001
 31
0.0
  0
LINE
  5
E9
330
2A6
100
AcDbEntity
  8
0
  6
Continuous
 62
     7
100
AcDbLine
 10
165.95720238
 20
83.23265009000001
 30
0.0
 11
163.55720238
 21
83.23265009000001
 31
0.0
  0
LINE
  5
EA
330
2A6
100
AcDbEntity
  8
0
  6
Continuous
 62
     7
100
AcDbLine
 10
165.86970238
 20
85.73265009000001
 30
0.0
 11
163.0697023799999
 21
85.73265009000001
 31
0.0
  0
LINE
  5
EB
330
2A6
100
AcDbEntity
  8
0
  6
Continuous
 62
     7
100
AcDbLine
 10
161.55720238
 20
83.23265009000001
 30
0.0
 11
149.53220238
 21
83.23265009000001
 31
0.0
  0
LINE
  5
EC
330
2A6
100
AcDbEntity
  8
0
  6
Continuous
 62
     7
100
AcDbLine
 10
161.06970238
 20
85.73265009000001
 30
0.0
 11
149.53220238
 21
85.73265009000001
 31
0.0
  0
LINE
  5
ED
330
2A6
100
AcDbEntity
  8
0
  6
Continuous
 62
     7
100
AcDbLine
 10
165.86970238
 20
83.23265009000001
 30
0.0
 11
165.86970238
 21
85.73265009000001
 31
0.0
  0
LINE
  5
EE
330
2A6
100
AcDbEntity
  8
0
  6
Continuous
 62
     7
100
AcDbLine
 10
170.86970238
 20
84.98265009
 30
0.0
 11
165.86970238
 21
84.98265009
 31
0.0
  0
LINE
  5
EF
330
2A6
100
AcDbEntity
  8
0
  6
Continuous
 62
     7
100
AcDbLine
 10
170.86970238
 20
83.98265009000001
 30
0.0
 11
165.86970238
 21
83.98265009000001
 31
0.0
  0
LINE
  5
F0
330
2A6
100
AcDbEntity
  8
0
  6
Continuous
 62
     7
100
AcDbLine
 10
170.86970238
 20
83.98265009000001
 30
0.0
 11
170.86970238
 21
84.98265009
 31
0.0
  0
LINE
  5
F1
330
2A6
100
AcDbEntity
  8
0
  6
Continuous
 62
     7
100
AcDbLine
 10
106.53220238
 20
-19.51734991
 30
0.0
 11
106.53220238
 21
95.98264973
 31
0.0
  0
LINE
  5
F2
330
2A6
100
AcDbEntity
  8
0
  6
Continuous
 62
     7
100
AcDbLine
 10
106.53220238
 20
49.98265009
 30
0.0
 11
147.53220238
 21
49.98265009
 31
0.0
  0
LINE
  5
F3
330
2A6
100
AcDbEntity
  8
0
  6
Continuous
 62
     7
100
AcDbLine
 10
117.33220238
 20
96.98264973
 30
0.0
 11
135.73220238
 21
96.98264973
 31
0.0
  0
LINE
  5
F4
330
2A6
100
AcDbEntity
  8
0
  6
Continuous
 62
     7
100
AcDbLine
 10
116.53220238
 20
96.18264973
 30
0.0
 11
117.33220238
 21
96.98264973
 31
0.0
  0
LINE
  5
F5
330
2A6
100
AcDbEntity
  8
0
  6
Continuous
 62
     7
100
AcDbLine
 10
136.53220238
 20
96.18264973
 30
0.0
 11
135.73220238
 21
96.98264973
 31
0.0
  0
LINE
  5
F6
330
2A6
100
AcDbEntity
  8
0
  6
Continuous
 62
     7
100
AcDbLine
 10
116.53220238
 20
95.98264973
 30
0.0
 11
116.53220238
 21
96.18264973
 31
0.0
  0
LINE
  5
F7
330
2A6
100
AcDbEntity
  8
0
  6
Continuous
 62
     7
100
AcDbLine
 10
136.53220238
 20
95.98264973
 30
0.0
 11
136.53220238
 21
96.18264973
 31
0.0
  0
LINE
  5
F8
330
2A6
100
AcDbEntity
  8
0
  6
Continuous
 62
     7
100
AcDbLine
 10
106.53220238
 20
15.63265009
 30
0.0
 11
109.53220238
 21
15.63265009
 31
0.0
  0
LINE
  5
F9
330
2A6
100
AcDbEntity
  8
0
  6
Continuous
 62
     7
100
AcDbLine
 10
106.53220238
 20
10.33265009
 30
0.0
 11
109.53220238
 21
10.33265009
 31
0.0
  0
LINE
  5
FA
330
2A6
100
AcDbEntity
  8
0
  6
Continuous
 62
     7
100
AcDbLine
 10
109.53220238
 20
10.33265009
 30
0.0
 11
109.53220238
 21
15.63265009
 31
0.0
  0
LINE
  5
FB
330
2A6
100
AcDbEntity
  8
0
  6
Continuous
 62
     7
100
AcDbLine
 10
119.53220238
 20
91.48264973000001
 30
0.0
 11
112.53220238
 21
91.48264973000001
 31
0.0
  0
LINE
  5
FC
330
2A6
100
AcDbEntity
  8
0
  6
Continuous
 62
     7
100
AcDbLine
 10
119.53220238
 20
91.48264973000001
 30
0.0
 11
119.53220238
 21
95.98264973
 31
0.0
  0
LINE
  5
FD
330
2A6
100
AcDbEntity
  8
0
  6
Continuous
 62
     7
100
AcDbLine
 10
112.53220238
 20
91.48264973000001
 30
0.0
 11
112.53220238
 21
95.98264973
 31
0.0
  0
LINE
  5
FE
330
2A6
100
AcDbEntity
  8
0
  6
Continuous
 62
     7
100
AcDbLine
 10
119.53220238
 20
92.48264973000001
 30
0.0
 11
112.53220238
 21
92.48264973000001
 31
0.0
  0
LINE
  5
FF
330
2A6
100
AcDbEntity
  8
0
  6
Continuous
 62
     7
100
AcDbLine
 10
117.03220238
 20
95.18264972999999
 30
0.0
 11
115.03220238
 21
95.18264972999999
 31
0.0
  0
LINE
  5
100
330
2A6
100
AcDbEntity
  8
0
  6
CENTER
 62
     2
100
AcDbLine
 10
116.03220238
 20
90.04514973
 30
0.0
 11
116.03220238
 21
96.68264972999999
 31
0.0
  0
ARC
  5
103
330
2A6
100
AcDbEntity
  8
0
  6
Continuous
 62
     7
100
AcDbCircle
 10
149.03261985
 20
82.48223262000001
 30
0.0
 40
0.4995827000000001
100
AcDbArc
 50
269.9521214499992
 51
0.0478785499999995
  0
ARC
  5
104
330
2A6
100
AcDbEntity
  8
0
  6
Continuous
 62
     7
100
AcDbCircle
 10
149.0369694099999
 20
86.48741712000001
 30
0.0
 40
0.4952559100000001
100
AcDbArc
 50
359.44849721
 51
90.55150279000057
  0
ARC
  5
105
330
2A6
100
AcDbEntity
  8
0
  6
Continuous
 62
     7
100
AcDbCircle
 10
115.03263645
 20
92.68221565000001
 30
0.0
 40
2.50043411
100
AcDbArc
 50
90.00994654000045
 51
179.99005346
  0
ARC
  5
106
330
2A6
100
AcDbEntity
  8
0
  6
Continuous
 62
     7
100
AcDbCircle
 10
117.03696118
 20
92.68740852
 30
0.0
 40
2.49524574
100
AcDbArc
 50
359.89072849
 51
90.10927150999988
  0
LWPOLYLINE
  5
107
330
2A6
100
AcDbEntity
  8
0
  6
Continuous
 62
     7
100
AcDbPolyline
 90
       49
 70
     0
 43
0.0
 10
162.78220238
 20
82.64515009
 10
162.8747952
 20
82.69972934
 10
162.97117635
 20
82.75987757999999
 10
163.06983049
 20
82.82509651999999
 10
163.16924231
 20
82.89488785999999
 10
163.2678964599999
 20
82.96875329
 10
163.36427763
 20
83.04619452999999
 10
163.45687047
 20
83.12671326
 10
163.54415967
 20
83.2098112
 10
163.62462988
 20
83.29499004
 10
163.6967657899999
 20
83.38175148000001
 10
163.75905207
 20
83.46959723000001
 10
163.80997338
 20
83.55802898
 10
163.84801439
 20
83.64654845
 10
163.87165978
 20
83.73465731999999
 10
163.87939422
 20
83.82185729999999
 10
163.86970238
 20
83.90765009
 10
163.84219071
 20
83.99036913000001
 10
163.79846664
 20
84.07145124999999
 10
163.74089298
 20
84.15111596
 10
163.6718325299999
 20
84.22958276999999
 10
163.59364811
 20
84.30707117999999
 10
163.50870254
 20
84.38380071999999
 10
163.41935863
 20
84.45999089
 10
163.3279792
 20
84.53586120000002
 10
163.2369270499999
 20
84.61163116999999
 10
163.1485649999999
 20
84.68752028999999
 10
163.06525587
 20
84.76374809000001
 10
162.98936246
 20
84.84053407999999
 10
162.9232475899999
 20
84.91809776
 10
162.86927408
 20
84.99665865
 10
162.82980474
 20
85.07643626
 10
162.80720238
 20
85.15765009
 10
162.80287518
 20
85.23662644999999
 10
162.8145030299999
 20
85.31673206
 10
162.8406879499999
 20
85.39752203
 10
162.8800319499999
 20
85.4785515
 10
162.9311370499999
 20
85.55937558
 10
162.99260527
 20
85.6395494
 10
163.06303861
 20
85.71862808
 10
163.14103911
 20
85.79616673
 10
163.22520877
 20
85.87172049999999
 10
163.31414961
 20
85.94484448999999
 10
163.4064636399999
 20
86.01509382999999
 10
163.5007529
 20
86.08202365
 10
163.59561938
 20
86.14518906
 10
163.6896651099999
 20
86.20414519
 10
163.7814921
 20
86.25844714999999
 10
163.86970238
 20
86.30765008999999
  0
LWPOLYLINE
  5
108
330
2A6
100
AcDbEntity
  8
0
  6
Continuous
 62
     7
100
AcDbPolyline
 90
       49
 70
     0
 43
0.0
 10
160.78220238
 20
82.64515009
 10
160.87479521
 20
82.69972934
 10
160.97117638
 20
82.75987759000001
 10
161.06983053
 20
82.82509652999999
 10
161.16924235
 20
82.89488787000001
 10
161.26789651
 20
82.96875329999998
 10
161.36427768
 20
83.04619452999999
 10
161.45687052
 20
83.12671326
 10
161.54415971
 20
83.20981119
 10
161.62462993
 20
83.29499003
 10
161.69676583
 20
83.38175146999999
 10
161.7590520999999
 20
83.46959721000001
 10
161.80997341
 20
83.55802897
 10
161.84801441
 20
83.64654843
 10
161.8716597999999
 20
83.73465729999999
 10
161.87939423
 20
83.82185728999999
 10
161.86970238
 20
83.90765009
 10
161.84219071
 20
83.99036913999999
 10
161.79846663
 20
84.07145126999999
 10
161.74089296
 20
84.15111598000001
 10
161.67183251
 20
84.22958278999999
 10
161.5936481
 20
84.30707121000001
 10
161.50870253
 20
84.38380075000001
 10
161.41935862
 20
84.45999093000001
 10
161.32797918
 20
84.53586124
 10
161.23692703
 20
84.6116312
 10
161.14856499
 20
84.68752032000001
 10
161.0652558499999
 20
84.76374812000001
 10
160.98936245
 20
84.84053410999999
 10
160.92324758
 20
84.91809778
 10
160.86927408
 20
84.99665865999999
 10
160.82980474
 20
85.07643626
 10
160.80720238
 20
85.15765009
 10
160.80287518
 20
85.23662643999999
 10
160.81450303
 20
85.31673204
 10
160.84068794
 20
85.39752201
 10
160.88003194
 20
85.47855146999999
 10
160.93113703
 20
85.55937554999999
 10
160.99260523
 20
85.63954936
 10
161.06303857
 20
85.71862803
 10
161.14103906
 20
85.79616669000001
 10
161.22520871
 20
85.87172045
 10
161.31414955
 20
85.94484445
 10
161.40646358
 20
86.01509378999999
 10
161.50075284
 20
86.08202361
 10
161.5956193299999
 20
86.14518902
 10
161.68966507
 20
86.20414516
 10
161.78149208
 20
86.25844714000001
 10
161.86970238
 20
86.30765008999999
  0
LINE
  5
109
330
2A6
100
AcDbEntity
  8
0
  6
Continuous
 62
     7
100
AcDbLine
 10
-153.96779762
 20
49.98264973
 30
0.0
 11
-126.96779762
 21
49.98264973
 31
0.0
  0
LINE
  5
10A
330
2A6
100
AcDbEntity
  8
0
  6
Continuous
 62
     7
100
AcDbLine
 10
-130.46779762
 20
95.98264973
 30
0.0
 11
-130.46779762
 21
96.18264973
 31
0.0
  0
LINE
  5
10B
330
2A6
100
AcDbEntity
  8
0
  6
Continuous
 62
     7
100
AcDbLine
 10
-130.46779762
 20
96.18264973
 30
0.0
 11
-131.26779762
 21
96.98264973
 31
0.0
  0
LINE
  5
10C
330
2A6
100
AcDbEntity
  8
0
  6
Continuous
 62
     7
100
AcDbLine
 10
-153.9750827099999
 20
95.98264973
 30
0.0
 11
-126.97508271
 21
95.98264973000002
 31
0.0
  0
LINE
  5
10D
330
2A6
100
AcDbEntity
  8
0
  6
Continuous
 62
     7
100
AcDbLine
 10
-149.66779762
 20
96.98264973
 30
0.0
 11
-131.26779762
 21
96.98264973
 31
0.0
  0
LINE
  5
10E
330
2A6
100
AcDbEntity
  8
0
  6
Continuous
 62
     7
100
AcDbLine
 10
-150.46779762
 20
96.18264973
 30
0.0
 11
-149.66779762
 21
96.98264973
 31
0.0
  0
LINE
  5
10F
330
2A6
100
AcDbEntity
  8
0
  6
Continuous
 62
     7
100
AcDbLine
 10
-150.46779762
 20
95.98264973
 30
0.0
 11
-150.46779762
 21
96.18264973
 31
0.0
  0
LINE
  5
112
330
2A6
100
AcDbEntity
  8
0
  6
Continuous
 62
     7
100
AcDbLine
 10
-126.96779762
 20
-14.01735027
 30
0.0
 11
-153.96779762
 21
-14.01735027
 31
0.0
  0
LINE
  5
113
330
2A6
100
AcDbEntity
  8
0
  6
Continuous
 62
     7
100
AcDbLine
 10
-126.96779762
 20
66.48264973
 30
0.0
 11
-153.96779762
 21
66.48264973
 31
0.0
  0
LINE
  5
116
330
2A6
100
AcDbEntity
  8
0
  6
CENTER
 62
     2
100
AcDbLine
 10
-125.48410795
 20
12.98264973
 30
0.0
 11
-135.06779762
 21
12.98264973
 31
0.0
  0
LINE
  5
118
330
2A6
100
AcDbEntity
  8
0
  6
CENTER
 62
     2
100
AcDbLine
 10
-129.96779762
 20
8.120149729999999
 30
0.0
 11
-129.96779762
 21
19.83568022
 31
0.0
  0
LINE
  5
119
330
2A6
100
AcDbEntity
  8
0
  6
CENTER
 62
     2
100
AcDbLine
 10
-150.96779762
 20
18.40764973
 30
0.0
 11
-150.96779762
 21
29.07265326
 31
0.0
  0
ARC
  5
11B
330
2A6
100
AcDbEntity
  8
0
  6
Continuous
 62
     7
100
AcDbCircle
 10
-150.9750827099999
 20
22.98264973
 30
0.0
 40
3.99735444
100
AcDbArc
 50
221.5243633799999
 51
138.4756366200001
  0
ARC
  5
11C
330
2A6
100
AcDbEntity
  8
0
  6
Continuous
 62
     7
100
AcDbCircle
 10
-129.97508239
 20
12.98264973
 30
0.0
 40
4.00827415
100
AcDbArc
 50
41.38629506000006
 51
318.6137049399999
  0
LINE
  5
11E
330
2A6
100
AcDbEntity
  8
0
  6
CENTER
 62
     2
100
AcDbLine
 10
-140.46779762
 20
-24.01735027
 30
0.0
 11
-140.46779762
 21
101.98264973
 31
0.0
  0
LINE
  5
11F
330
2A6
100
AcDbEntity
  8
0
  6
CENTER
 62
     2
100
AcDbLine
 10
-140.93317519
 20
43.98264972999999
 30
0.0
 11
-130.53533694
 21
43.98264972999999
 31
0.0
  0
LINE
  5
120
330
2A6
100
AcDbEntity
  8
0
  6
CENTER
 62
     2
100
AcDbLine
 10
-140.36602037
 20
-8.017350269999999
 30
0.0
 11
-150.10217801
 21
-8.017350269999999
 31
0.0
  0
LINE
  5
121
330
2A6
100
AcDbEntity
  8
0
  6
CENTER
 62
     2
100
AcDbLine
 10
-135.96779762
 20
38.68473038
 30
0.0
 11
-135.96779762
 21
49.27162023000001
 31
0.0
  0
LINE
  5
122
330
2A6
100
AcDbEntity
  8
0
  6
CENTER
 62
     2
100
AcDbLine
 10
-144.96779762
 20
-13.11540925
 30
0.0
 11
-144.96779762
 21
-2.812096809999999
 31
0.0
  0
CIRCLE
  5
123
330
2A6
100
AcDbEntity
  8
0
  6
ByBlock
 62
     7
100
AcDbCircle
 10
-135.96779762
 20
43.98264972999999
 30
0.0
 40
3.725
  0
CIRCLE
  5
124
330
2A6
100
AcDbEntity
  8
0
  6
ByBlock
 62
     7
100
AcDbCircle
 10
-144.96779762
 20
-8.017350269999999
 30
0.0
 40
3.725
  0
CIRCLE
  5
125
330
2A6
100
AcDbEntity
  8
0
  6
ByBlock
 62
     7
100
AcDbCircle
 10
-135.96779762
 20
43.98264972999999
 30
0.0
 40
2.5
  0
CIRCLE
  5
126
330
2A6
100
AcDbEntity
  8
0
  6
ByBlock
 62
     7
100
AcDbCircle
 10
-144.96779762
 20
-8.017350269999999
 30
0.0
 40
2.5
  0
CIRCLE
  5
127
330
2A6
100
AcDbEntity
  8
0
  6
ByBlock
 62
     7
100
AcDbCircle
 10
-135.96779762
 20
43.98264972999999
 30
0.0
 40
1.35
  0
CIRCLE
  5
128
330
2A6
100
AcDbEntity
  8
0
  6
ByBlock
 62
     7
100
AcDbCircle
 10
-144.96779762
 20
-8.017350269999999
 30
0.0
 40
1.35
  0
TEXT
  5
152
330
2A6
100
AcDbEntity
  8
0
  6
Continuous
 62
     7
100
AcDbText
 10
-185.6699029099999
 20
115.3500061
 30
0.0
 40
4.5
  1
MODEL:FM8A-03 stn.1～8　A300-4E1-IN DC24V
 41
1.10679612
  7
MX_NOTE_STANDARD
 11
-185.6699029099999
 21
117.6000061
 31
0.0
100
AcDbText
 73
     2
  0
LINE
  5
153
330
2A6
100
AcDbEntity
  8
0
  6
Continuous
 62
     7
100
AcDbLine
 10
-194.25
 20
132.6000061
 30
0.0
 11
194.80000305
 21
132.6000061
 31
0.0
  0
LINE
  5
154
330
2A6
100
AcDbEntity
  8
0
  6
Continuous
 62
     7
100
AcDbLine
 10
194.80000305
 20
132.6000061
 30
0.0
 11
194.80000305
 21
-133.5
 31
0.0
  0
LINE
  5
155
330
2A6
100
AcDbEntity
  8
0
  6
Continuous
 62
     7
100
AcDbLine
 10
-194.25
 20
132.6000061
 30
0.0
 11
-194.25
 21
-133.5
 31
0.0
  0
LINE
  5
156
330
2A6
100
AcDbEntity
  8
0
  6
Continuous
 62
     7
100
AcDbLine
 10
-194.25
 20
-133.5
 30
0.0
 11
194.80000305
 21
-133.5
 31
0.0
  0
ARC
  5
2CC
330
2A6
100
AcDbEntity
  8
0
  6
Continuous
 62
     7
100
AcDbCircle
 10
-127.46779762
 20
-19.51735027
 30
0.0
 40
0.5
100
AcDbArc
 50
270.0
 51
0.000000000000007
  0
LINE
  5
2DE
330
2A6
100
AcDbEntity
  8
0
  6
CENTER
 62
     2
100
AcDbLine
 10
110.96970238
 20
12.98265009
 30
0.0
 11
104.33220238
 21
12.98265009
 31
0.0
  0
LINE
  5
5A0
330
2A6
100
AcDbEntity
  8
0
  6
Continuous
 62
     7
100
AcDbLine
 10
-131.02779762
 20
-54.09231907301332
 30
0.0
 11
-133.94779762
 21
-57.01231907301331
 31
0.0
  0
LINE
  5
5A1
330
2A6
100
AcDbEntity
  8
0
  6
Continuous
 62
     7
100
AcDbLine
 10
-133.88779762
 20
-54.11231907301334
 30
0.0
 11
-131.1077976199999
 21
-56.89231907301331
 31
0.0
  0
LINE
  5
5A2
330
2A6
100
AcDbEntity
  8
0
  6
Continuous
 62
     2
100
AcDbLine
 10
-132.46779762
 20
-51.53231907301332
 30
0.0
 11
-132.46779762
 21
-59.53231907301333
 31
0.0
  0
LINE
  5
5A3
330
2A6
100
AcDbEntity
  8
0
  6
Continuous
 62
     2
100
AcDbLine
 10
-128.46779762
 20
-55.53231907301332
 30
0.0
 11
-136.46779762
 21
-55.53231907301332
 31
0.0
  0
LINE
  5
5A4
330
2A6
100
AcDbEntity
  8
0
  6
Continuous
 62
     2
100
AcDbLine
 10
-150.96779762
 20
-55.76427235301332
 30
0.0
 11
-150.96779762
 21
-61.35597096301333
 31
0.0
  0
LINE
  5
5A5
330
2A6
100
AcDbEntity
  8
0
  6
Continuous
 62
     2
100
AcDbLine
 10
-148.14427514
 20
-58.53231907301332
 30
0.0
 11
-153.67930113
 21
-58.53231907301332
 31
0.0
  0
LINE
  5
5A6
330
2A6
100
AcDbEntity
  8
0
  6
Continuous
 62
     7
100
AcDbLine
 10
-126.96779762
 20
-49.03231907301332
 30
0.0
 11
-153.96779762
 21
-49.03231907301332
 31
0.0
  0
ARC
  5
5A7
330
2A6
100
AcDbEntity
  8
0
  6
Continuous
 62
     7
100
AcDbCircle
 10
-132.46779762
 20
-55.53231907301332
 30
0.0
 40
3.5
100
AcDbArc
 50
90.0
 51
270.0
  0
CIRCLE
  5
5A8
330
2A6
100
AcDbEntity
  8
0
  6
Continuous
 62
     7
100
AcDbCircle
 10
-132.46779762
 20
-55.53231907301332
 30
0.0
 40
3.149999999999999
  0
LINE
  5
5A9
330
2A6
100
AcDbEntity
  8
0
  6
Continuous
 62
     7
100
AcDbLine
 10
-132.46779762
 20
-52.03231907301333
 30
0.0
 11
-126.96779762
 21
-52.03231907301333
 31
0.0
  0
LINE
  5
5AA
330
2A6
100
AcDbEntity
  8
0
  6
Continuous
 62
     7
100
AcDbLine
 10
-132.46779762
 20
-59.03231907301332
 30
0.0
 11
-126.96779762
 21
-59.03231907301332
 31
0.0
  0
LINE
  5
5AB
330
2A6
100
AcDbEntity
  8
0
  6
Continuous
 62
     2
100
AcDbLine
 10
-152.46779762
 20
-82.53231907301332
 30
0.0
 11
-144.46779762
 21
-82.53231907301332
 31
0.0
  0
LINE
  5
5AC
330
2A6
100
AcDbEntity
  8
0
  6
Continuous
 62
     7
100
AcDbLine
 10
-148.46779762
 20
-86.03231907301333
 30
0.0
 11
-153.96779762
 21
-86.03231907301333
 31
0.0
  0
LINE
  5
5AD
330
2A6
100
AcDbEntity
  8
0
  6
Continuous
 62
     7
100
AcDbLine
 10
-148.46779762
 20
-79.03231907301332
 30
0.0
 11
-153.96779762
 21
-79.03231907301332
 31
0.0
  0
CIRCLE
  5
5AE
330
2A6
100
AcDbEntity
  8
0
  6
Continuous
 62
     7
100
AcDbCircle
 10
-148.46779762
 20
-82.53231907301332
 30
0.0
 40
3.149999999999999
  0
ARC
  5
5AF
330
2A6
100
AcDbEntity
  8
0
  6
Continuous
 62
     7
100
AcDbCircle
 10
-148.46779762
 20
-82.53231907301332
 30
0.0
 40
3.5
100
AcDbArc
 50
270.0
 51
90.0
  0
LINE
  5
5B0
330
2A6
100
AcDbEntity
  8
0
  6
Continuous
 62
     2
100
AcDbLine
 10
-148.46779762
 20
-86.53231907301332
 30
0.0
 11
-148.46779762
 21
-78.53231907301332
 31
0.0
  0
LINE
  5
5B1
330
2A6
100
AcDbEntity
  8
0
  6
Continuous
 62
     7
100
AcDbLine
 10
-147.0477976199999
 20
-83.95231907301331
 30
0.0
 11
-149.82779762
 21
-81.17231907301334
 31
0.0
  0
LINE
  5
5B2
330
2A6
100
AcDbEntity
  8
0
  6
Continuous
 62
     7
100
AcDbLine
 10
-149.90779762
 20
-83.97231907301332
 30
0.0
 11
-146.98779762
 21
-81.05231907301334
 31
0.0
  0
CIRCLE
  5
5B3
330
2A6
100
AcDbEntity
  8
0
  6
Continuous
 62
     7
100
AcDbCircle
 10
-150.96779762
 20
-58.53231907301332
 30
0.0
 40
1.0
  0
CIRCLE
  5
5B4
330
2A6
100
AcDbEntity
  8
0
  6
Continuous
 62
     2
100
AcDbCircle
 10
-150.96779762
 20
-58.53231907301332
 30
0.0
 40
1.5
  0
LINE
  5
5B5
330
2A6
100
AcDbEntity
  8
0
  6
Continuous
 62
     2
100
AcDbLine
 10
-129.96779762
 20
-76.81815107301332
 30
0.0
 11
-129.96779762
 21
-82.54208580301332
 31
0.0
  0
CIRCLE
  5
5B6
330
2A6
100
AcDbEntity
  8
0
  6
Continuous
 62
     2
100
AcDbCircle
 10
-129.96779762
 20
-79.53231907301333
 30
0.0
 40
1.5
  0
CIRCLE
  5
5B7
330
2A6
100
AcDbEntity
  8
0
  6
Continuous
 62
     7
100
AcDbCircle
 10
-129.96779762
 20
-79.53231907301333
 30
0.0
 40
1.0
  0
LINE
  5
5B8
330
2A6
100
AcDbEntity
  8
0
  6
Continuous
 62
     2
100
AcDbLine
 10
-127.25096885
 20
-79.53231907301333
 30
0.0
 11
-132.9560127
 21
-79.53231907301333
 31
0.0
  0
CIRCLE
  5
5C6
330
2A6
100
AcDbEntity
  8
0
  6
Continuous
 62
     7
100
AcDbCircle
 10
-150.96779762
 20
-58.53231907301332
 30
0.0
 40
2.0
  0
CIRCLE
  5
5C7
330
2A6
100
AcDbEntity
  8
0
  6
Continuous
 62
     7
100
AcDbCircle
 10
-129.96779762
 20
-79.53231907301333
 30
0.0
 40
2.0
  0
LINE
  5
609
330
2A6
100
AcDbEntity
  8
0
  6
Continuous
 62
     7
100
AcDbLine
 10
-168.46779762
 20
-90.03231907301332
 30
0.0
 11
-168.46779762
 21
-125.0323190730133
 31
0.0
  0
LINE
  5
60D
330
2A6
100
AcDbEntity
  8
0
  6
Continuous
 62
     7
100
AcDbLine
 10
-153.96779762
 20
-89.03231907301332
 30
0.0
 11
-126.96779762
 21
-89.03231907301332
 31
0.0
  0
LINE
  5
655
330
2A6
100
AcDbEntity
  8
0
  6
Continuous
 62
     2
100
AcDbLine
 10
-39.41217151
 20
-69.03231907301332
 30
0.0
 11
-158.92723676
 21
-69.03231907301332
 31
0.0
  0
LINE
  5
65E
330
2A6
100
AcDbEntity
  8
0
  6
Continuous
 62
     7
100
AcDbLine
 10
-125.96779762
 20
-49.03231907301332
 30
0.0
 11
-125.96779762
 21
-90.03231907301332
 31
0.0
  0
LINE
  5
65F
330
2A6
100
AcDbEntity
  8
0
  6
Continuous
 62
     7
100
AcDbLine
 10
-98.96779762000001
 20
-49.03231907301332
 30
0.0
 11
-98.96779762000001
 21
-90.03231907301332
 31
0.0
  0
CIRCLE
  5
660
330
2A6
100
AcDbEntity
  8
0
  6
Continuous
 62
     7
100
AcDbCircle
 10
-122.96779762
 20
-58.53231907301332
 30
0.0
 40
2.0
  0
CIRCLE
  5
661
330
2A6
100
AcDbEntity
  8
0
  6
Continuous
 62
     2
100
AcDbCircle
 10
-122.96779762
 20
-58.53231907301332
 30
0.0
 40
1.5
  0
CIRCLE
  5
662
330
2A6
100
AcDbEntity
  8
0
  6
Continuous
 62
     7
100
AcDbCircle
 10
-122.96779762
 20
-58.53231907301332
 30
0.0
 40
1.0
  0
LINE
  5
663
330
2A6
100
AcDbEntity
  8
0
  6
Continuous
 62
     7
100
AcDbLine
 10
-104.46779762
 20
-59.03231907301332
 30
0.0
 11
-98.96779762000001
 21
-59.03231907301332
 31
0.0
  0
LINE
  5
664
330
2A6
100
AcDbEntity
  8
0
  6
Continuous
 62
     7
100
AcDbLine
 10
-104.46779762
 20
-52.03231907301333
 30
0.0
 11
-98.96779762000001
 21
-52.03231907301333
 31
0.0
  0
CIRCLE
  5
665
330
2A6
100
AcDbEntity
  8
0
  6
Continuous
 62
     7
100
AcDbCircle
 10
-104.46779762
 20
-55.53231907301332
 30
0.0
 40
3.149999999999999
  0
ARC
  5
666
330
2A6
100
AcDbEntity
  8
0
  6
Continuous
 62
     7
100
AcDbCircle
 10
-104.46779762
 20
-55.53231907301332
 30
0.0
 40
3.5
100
AcDbArc
 50
90.0
 51
270.0
  0
LINE
  5
667
330
2A6
100
AcDbEntity
  8
0
  6
Continuous
 62
     7
100
AcDbLine
 10
-98.96779762000001
 20
-49.03231907301332
 30
0.0
 11
-125.96779762
 21
-49.03231907301332
 31
0.0
  0
LINE
  5
668
330
2A6
100
AcDbEntity
  8
0
  6
Continuous
 62
     2
100
AcDbLine
 10
-120.14427514
 20
-58.53231907301332
 30
0.0
 11
-125.67930113
 21
-58.53231907301332
 31
0.0
  0
LINE
  5
669
330
2A6
100
AcDbEntity
  8
0
  6
Continuous
 62
     2
100
AcDbLine
 10
-122.96779762
 20
-55.76427235301332
 30
0.0
 11
-122.96779762
 21
-61.35597096301333
 31
0.0
  0
LINE
  5
66A
330
2A6
100
AcDbEntity
  8
0
  6
Continuous
 62
     2
100
AcDbLine
 10
-100.46779762
 20
-55.53231907301332
 30
0.0
 11
-108.46779762
 21
-55.53231907301332
 31
0.0
  0
LINE
  5
66B
330
2A6
100
AcDbEntity
  8
0
  6
Continuous
 62
     2
100
AcDbLine
 10
-104.46779762
 20
-51.53231907301332
 30
0.0
 11
-104.46779762
 21
-59.53231907301333
 31
0.0
  0
LINE
  5
66C
330
2A6
100
AcDbEntity
  8
0
  6
Continuous
 62
     7
100
AcDbLine
 10
-105.88779762
 20
-54.11231907301334
 30
0.0
 11
-103.10779762
 21
-56.89231907301331
 31
0.0
  0
LINE
  5
66D
330
2A6
100
AcDbEntity
  8
0
  6
Continuous
 62
     7
100
AcDbLine
 10
-103.02779762
 20
-54.09231907301332
 30
0.0
 11
-105.94779762
 21
-57.01231907301331
 31
0.0
  0
CIRCLE
  5
66E
330
2A6
100
AcDbEntity
  8
0
  6
Continuous
 62
     7
100
AcDbCircle
 10
-120.46779762
 20
-82.53231907301332
 30
0.0
 40
3.149999999999999
  0
ARC
  5
66F
330
2A6
100
AcDbEntity
  8
0
  6
Continuous
 62
     7
100
AcDbCircle
 10
-120.46779762
 20
-82.53231907301332
 30
0.0
 40
3.5
100
AcDbArc
 50
270.0
 51
90.0
  0
LINE
  5
670
330
2A6
100
AcDbEntity
  8
0
  6
Continuous
 62
     2
100
AcDbLine
 10
-120.46779762
 20
-86.53231907301332
 30
0.0
 11
-120.46779762
 21
-78.53231907301332
 31
0.0
  0
LINE
  5
671
330
2A6
100
AcDbEntity
  8
0
  6
Continuous
 62
     7
100
AcDbLine
 10
-119.04779762
 20
-83.95231907301331
 30
0.0
 11
-121.82779762
 21
-81.17231907301334
 31
0.0
  0
LINE
  5
672
330
2A6
100
AcDbEntity
  8
0
  6
Continuous
 62
     7
100
AcDbLine
 10
-121.90779762
 20
-83.97231907301332
 30
0.0
 11
-118.98779762
 21
-81.05231907301334
 31
0.0
  0
CIRCLE
  5
673
330
2A6
100
AcDbEntity
  8
0
  6
Continuous
 62
     7
100
AcDbCircle
 10
-101.96779762
 20
-79.53231907301333
 30
0.0
 40
2.0
  0
LINE
  5
674
330
2A6
100
AcDbEntity
  8
0
  6
Continuous
 62
     2
100
AcDbLine
 10
-99.25096885
 20
-79.53231907301333
 30
0.0
 11
-104.9560127
 21
-79.53231907301333
 31
0.0
  0
CIRCLE
  5
675
330
2A6
100
AcDbEntity
  8
0
  6
Continuous
 62
     7
100
AcDbCircle
 10
-101.96779762
 20
-79.53231907301333
 30
0.0
 40
1.0
  0
CIRCLE
  5
676
330
2A6
100
AcDbEntity
  8
0
  6
Continuous
 62
     2
100
AcDbCircle
 10
-101.96779762
 20
-79.53231907301333
 30
0.0
 40
1.5
  0
LINE
  5
677
330
2A6
100
AcDbEntity
  8
0
  6
Continuous
 62
     2
100
AcDbLine
 10
-101.96779762
 20
-76.81815107301332
 30
0.0
 11
-101.96779762
 21
-82.54208580301332
 31
0.0
  0
LINE
  5
678
330
2A6
100
AcDbEntity
  8
0
  6
Continuous
 62
     7
100
AcDbLine
 10
-120.46779762
 20
-79.03231907301332
 30
0.0
 11
-125.96779762
 21
-79.03231907301332
 31
0.0
  0
LINE
  5
679
330
2A6
100
AcDbEntity
  8
0
  6
Continuous
 62
     2
100
AcDbLine
 10
-124.46779762
 20
-82.53231907301332
 30
0.0
 11
-116.46779762
 21
-82.53231907301332
 31
0.0
  0
LINE
  5
67A
330
2A6
100
AcDbEntity
  8
0
  6
Continuous
 62
     7
100
AcDbLine
 10
-125.96779762
 20
-89.03231907301332
 30
0.0
 11
-98.96779762000001
 21
-89.03231907301332
 31
0.0
  0
LINE
  5
67B
330
2A6
100
AcDbEntity
  8
0
  6
Continuous
 62
     7
100
AcDbLine
 10
-120.46779762
 20
-86.03231907301333
 30
0.0
 11
-125.96779762
 21
-86.03231907301333
 31
0.0
  0
LINE
  5
681
330
2A6
100
AcDbEntity
  8
0
  6
Continuous
 62
     7
100
AcDbLine
 10
-168.46779762
 20
-90.03231907301332
 30
0.0
 11
83.53220238000002
 21
-90.0323190730133
 31
0.0
  0
LINE
  5
6DE
330
2A6
100
AcDbEntity
  8
0
  6
Continuous
 62
     2
100
AcDbLine
 10
-140.4677976199999
 20
-128.5481626648811
 30
0.0
 11
-140.46779762
 21
-44.40711255806272
 31
0.0
  0
LINE
  5
6E0
330
2A6
100
AcDbEntity
  8
0
  6
Continuous
 62
     7
100
AcDbLine
 10
-126.96779762
 20
-49.03231907301332
 30
0.0
 11
-126.96779762
 21
-90.03231907301332
 31
0.0
  0
LINE
  5
6E1
330
2A6
100
AcDbEntity
  8
0
  6
Continuous
 62
     7
100
AcDbLine
 10
-153.96779762
 20
-49.03231907301332
 30
0.0
 11
-153.96779762
 21
-90.03231907301332
 31
0.0
  0
LINE
  5
6E7
330
2A6
100
AcDbEntity
  8
0
  6
Continuous
 62
     7
100
AcDbLine
 10
-70.96779762
 20
-49.03231907301332
 30
0.0
 11
-70.96779762
 21
-90.03231907301332
 31
0.0
  0
CIRCLE
  5
6E8
330
2A6
100
AcDbEntity
  8
0
  6
Continuous
 62
     7
100
AcDbCircle
 10
-94.96779762
 20
-58.53231907301332
 30
0.0
 40
2.0
  0
CIRCLE
  5
6E9
330
2A6
100
AcDbEntity
  8
0
  6
Continuous
 62
     2
100
AcDbCircle
 10
-94.96779762
 20
-58.53231907301332
 30
0.0
 40
1.5
  0
CIRCLE
  5
6EA
330
2A6
100
AcDbEntity
  8
0
  6
Continuous
 62
     7
100
AcDbCircle
 10
-94.96779762
 20
-58.53231907301332
 30
0.0
 40
1.0
  0
LINE
  5
6EB
330
2A6
100
AcDbEntity
  8
0
  6
Continuous
 62
     7
100
AcDbLine
 10
-70.96779762
 20
-49.03231907301332
 30
0.0
 11
-97.96779761999999
 21
-49.03231907301332
 31
0.0
  0
LINE
  5
6EC
330
2A6
100
AcDbEntity
  8
0
  6
Continuous
 62
     2
100
AcDbLine
 10
-92.14427514
 20
-58.53231907301332
 30
0.0
 11
-97.67930112999998
 21
-58.53231907301332
 31
0.0
  0
LINE
  5
6EE
330
2A6
100
AcDbEntity
  8
0
  6
Continuous
 62
     7
100
AcDbLine
 10
-75.02779762
 20
-54.09231907301332
 30
0.0
 11
-77.94779762
 21
-57.01231907301331
 31
0.0
  0
LINE
  5
6EF
330
2A6
100
AcDbEntity
  8
0
  6
Continuous
 62
     7
100
AcDbLine
 10
-77.88779762
 20
-54.11231907301334
 30
0.0
 11
-75.10779762
 21
-56.89231907301331
 31
0.0
  0
LINE
  5
6F0
330
2A6
100
AcDbEntity
  8
0
  6
Continuous
 62
     2
100
AcDbLine
 10
-76.46779762
 20
-51.53231907301332
 30
0.0
 11
-76.46779762
 21
-59.53231907301333
 31
0.0
  0
LINE
  5
6F1
330
2A6
100
AcDbEntity
  8
0
  6
Continuous
 62
     2
100
AcDbLine
 10
-72.46779762
 20
-55.53231907301332
 30
0.0
 11
-80.46779761999999
 21
-55.53231907301332
 31
0.0
  0
LINE
  5
6F2
330
2A6
100
AcDbEntity
  8
0
  6
Continuous
 62
     2
100
AcDbLine
 10
-94.96779762
 20
-55.76427235301332
 30
0.0
 11
-94.96779762
 21
-61.35597096301333
 31
0.0
  0
ARC
  5
6F3
330
2A6
100
AcDbEntity
  8
0
  6
Continuous
 62
     7
100
AcDbCircle
 10
-76.46779762
 20
-55.53231907301332
 30
0.0
 40
3.5
100
AcDbArc
 50
90.0
 51
270.0
  0
CIRCLE
  5
6F4
330
2A6
100
AcDbEntity
  8
0
  6
Continuous
 62
     7
100
AcDbCircle
 10
-76.46779762
 20
-55.53231907301332
 30
0.0
 40
3.149999999999999
  0
LINE
  5
6F5
330
2A6
100
AcDbEntity
  8
0
  6
Continuous
 62
     7
100
AcDbLine
 10
-76.46779762
 20
-52.03231907301333
 30
0.0
 11
-70.96779762
 21
-52.03231907301333
 31
0.0
  0
LINE
  5
6F6
330
2A6
100
AcDbEntity
  8
0
  6
Continuous
 62
     7
100
AcDbLine
 10
-76.46779762
 20
-59.03231907301332
 30
0.0
 11
-70.96779762
 21
-59.03231907301332
 31
0.0
  0
LINE
  5
6F8
330
2A6
100
AcDbEntity
  8
0
  6
Continuous
 62
     7
100
AcDbLine
 10
-92.46779762
 20
-79.03231907301332
 30
0.0
 11
-97.96779761999999
 21
-79.03231907301332
 31
0.0
  0
LINE
  5
6F9
330
2A6
100
AcDbEntity
  8
0
  6
Continuous
 62
     2
100
AcDbLine
 10
-96.46779762000001
 20
-82.53231907301332
 30
0.0
 11
-88.46779762
 21
-82.53231907301332
 31
0.0
  0
LINE
  5
6FA
330
2A6
100
AcDbEntity
  8
0
  6
Continuous
 62
     7
100
AcDbLine
 10
-97.96779761999999
 20
-89.03231907301332
 30
0.0
 11
-70.96779762
 21
-89.03231907301332
 31
0.0
  0
LINE
  5
6FB
330
2A6
100
AcDbEntity
  8
0
  6
Continuous
 62
     7
100
AcDbLine
 10
-92.46779762
 20
-86.03231907301333
 30
0.0
 11
-97.96779761999999
 21
-86.03231907301333
 31
0.0
  0
LINE
  5
6FC
330
2A6
100
AcDbEntity
  8
0
  6
Continuous
 62
     2
100
AcDbLine
 10
-73.96779762
 20
-76.81815107301332
 30
0.0
 11
-73.96779762
 21
-82.54208580301332
 31
0.0
  0
CIRCLE
  5
6FD
330
2A6
100
AcDbEntity
  8
0
  6
Continuous
 62
     2
100
AcDbCircle
 10
-73.96779762
 20
-79.53231907301333
 30
0.0
 40
1.5
  0
CIRCLE
  5
6FE
330
2A6
100
AcDbEntity
  8
0
  6
Continuous
 62
     7
100
AcDbCircle
 10
-73.96779762
 20
-79.53231907301333
 30
0.0
 40
1.0
  0
LINE
  5
6FF
330
2A6
100
AcDbEntity
  8
0
  6
Continuous
 62
     2
100
AcDbLine
 10
-71.25096884999999
 20
-79.53231907301333
 30
0.0
 11
-76.95601269999999
 21
-79.53231907301333
 31
0.0
  0
CIRCLE
  5
700
330
2A6
100
AcDbEntity
  8
0
  6
Continuous
 62
     7
100
AcDbCircle
 10
-73.96779762
 20
-79.53231907301333
 30
0.0
 40
2.0
  0
LINE
  5
701
330
2A6
100
AcDbEntity
  8
0
  6
Continuous
 62
     7
100
AcDbLine
 10
-93.90779761999999
 20
-83.97231907301332
 30
0.0
 11
-90.98779761999999
 21
-81.05231907301334
 31
0.0
  0
LINE
  5
702
330
2A6
100
AcDbEntity
  8
0
  6
Continuous
 62
     7
100
AcDbLine
 10
-91.04779761999999
 20
-83.95231907301331
 30
0.0
 11
-93.82779762
 21
-81.17231907301334
 31
0.0
  0
LINE
  5
703
330
2A6
100
AcDbEntity
  8
0
  6
Continuous
 62
     2
100
AcDbLine
 10
-92.46779762
 20
-86.53231907301332
 30
0.0
 11
-92.46779762
 21
-78.53231907301332
 31
0.0
  0
ARC
  5
704
330
2A6
100
AcDbEntity
  8
0
  6
Continuous
 62
     7
100
AcDbCircle
 10
-92.46779762
 20
-82.53231907301332
 30
0.0
 40
3.5
100
AcDbArc
 50
270.0
 51
90.0
  0
CIRCLE
  5
705
330
2A6
100
AcDbEntity
  8
0
  6
Continuous
 62
     7
100
AcDbCircle
 10
-92.46779762
 20
-82.53231907301332
 30
0.0
 40
3.149999999999999
  0
LINE
  5
706
330
2A6
100
AcDbEntity
  8
0
  6
Continuous
 62
     7
100
AcDbLine
 10
-97.96779761999999
 20
-49.03231907301332
 30
0.0
 11
-97.96779761999999
 21
-90.03231907301332
 31
0.0
  0
LINE
  5
709
330
2A6
100
AcDbEntity
  8
0
  6
Continuous
 62
     7
100
AcDbLine
 10
-42.96779761999999
 20
-49.03231907301332
 30
0.0
 11
-42.96779761999999
 21
-90.03231907301332
 31
0.0
  0
CIRCLE
  5
70A
330
2A6
100
AcDbEntity
  8
0
  6
Continuous
 62
     7
100
AcDbCircle
 10
-66.96779762
 20
-58.53231907301332
 30
0.0
 40
2.0
  0
CIRCLE
  5
70B
330
2A6
100
AcDbEntity
  8
0
  6
Continuous
 62
     2
100
AcDbCircle
 10
-66.96779762
 20
-58.53231907301332
 30
0.0
 40
1.5
  0
CIRCLE
  5
70C
330
2A6
100
AcDbEntity
  8
0
  6
Continuous
 62
     7
100
AcDbCircle
 10
-66.96779762
 20
-58.53231907301332
 30
0.0
 40
1.0
  0
LINE
  5
70D
330
2A6
100
AcDbEntity
  8
0
  6
Continuous
 62
     7
100
AcDbLine
 10
-42.96779761999999
 20
-49.03231907301332
 30
0.0
 11
-69.96779762
 21
-49.03231907301332
 31
0.0
  0
LINE
  5
70E
330
2A6
100
AcDbEntity
  8
0
  6
Continuous
 62
     2
100
AcDbLine
 10
-64.14427513999999
 20
-58.53231907301332
 30
0.0
 11
-69.67930113
 21
-58.53231907301332
 31
0.0
  0
LINE
  5
710
330
2A6
100
AcDbEntity
  8
0
  6
Continuous
 62
     7
100
AcDbLine
 10
-47.02779761999998
 20
-54.09231907301332
 30
0.0
 11
-49.94779762
 21
-57.01231907301331
 31
0.0
  0
LINE
  5
711
330
2A6
100
AcDbEntity
  8
0
  6
Continuous
 62
     7
100
AcDbLine
 10
-49.88779762
 20
-54.11231907301334
 30
0.0
 11
-47.10779762
 21
-56.89231907301331
 31
0.0
  0
LINE
  5
712
330
2A6
100
AcDbEntity
  8
0
  6
Continuous
 62
     2
100
AcDbLine
 10
-48.46779761999998
 20
-51.53231907301332
 30
0.0
 11
-48.46779761999998
 21
-59.53231907301333
 31
0.0
  0
LINE
  5
713
330
2A6
100
AcDbEntity
  8
0
  6
Continuous
 62
     2
100
AcDbLine
 10
-44.46779761999998
 20
-55.53231907301332
 30
0.0
 11
-52.46779761999999
 21
-55.53231907301332
 31
0.0
  0
LINE
  5
714
330
2A6
100
AcDbEntity
  8
0
  6
Continuous
 62
     2
100
AcDbLine
 10
-66.96779762
 20
-55.76427235301332
 30
0.0
 11
-66.96779762
 21
-61.35597096301333
 31
0.0
  0
ARC
  5
715
330
2A6
100
AcDbEntity
  8
0
  6
Continuous
 62
     7
100
AcDbCircle
 10
-48.46779761999998
 20
-55.53231907301332
 30
0.0
 40
3.5
100
AcDbArc
 50
90.0
 51
270.0
  0
CIRCLE
  5
716
330
2A6
100
AcDbEntity
  8
0
  6
Continuous
 62
     7
100
AcDbCircle
 10
-48.46779761999998
 20
-55.53231907301332
 30
0.0
 40
3.149999999999999
  0
LINE
  5
717
330
2A6
100
AcDbEntity
  8
0
  6
Continuous
 62
     7
100
AcDbLine
 10
-48.46779761999998
 20
-52.03231907301333
 30
0.0
 11
-42.96779761999999
 21
-52.03231907301333
 31
0.0
  0
LINE
  5
718
330
2A6
100
AcDbEntity
  8
0
  6
Continuous
 62
     7
100
AcDbLine
 10
-48.46779761999998
 20
-59.03231907301332
 30
0.0
 11
-42.96779761999999
 21
-59.03231907301332
 31
0.0
  0
LINE
  5
71A
330
2A6
100
AcDbEntity
  8
0
  6
Continuous
 62
     7
100
AcDbLine
 10
-64.46779762
 20
-79.03231907301332
 30
0.0
 11
-69.96779762
 21
-79.03231907301332
 31
0.0
  0
LINE
  5
71B
330
2A6
100
AcDbEntity
  8
0
  6
Continuous
 62
     2
100
AcDbLine
 10
-68.46779762
 20
-82.53231907301332
 30
0.0
 11
-60.46779761999999
 21
-82.53231907301332
 31
0.0
  0
LINE
  5
71C
330
2A6
100
AcDbEntity
  8
0
  6
Continuous
 62
     7
100
AcDbLine
 10
-69.96779762
 20
-89.03231907301332
 30
0.0
 11
-42.96779761999999
 21
-89.03231907301332
 31
0.0
  0
LINE
  5
71D
330
2A6
100
AcDbEntity
  8
0
  6
Continuous
 62
     7
100
AcDbLine
 10
-64.46779762
 20
-86.03231907301333
 30
0.0
 11
-69.96779762
 21
-86.03231907301333
 31
0.0
  0
LINE
  5
71E
330
2A6
100
AcDbEntity
  8
0
  6
Continuous
 62
     2
100
AcDbLine
 10
-45.96779761999998
 20
-76.81815107301332
 30
0.0
 11
-45.96779761999998
 21
-82.54208580301332
 31
0.0
  0
CIRCLE
  5
71F
330
2A6
100
AcDbEntity
  8
0
  6
Continuous
 62
     2
100
AcDbCircle
 10
-45.96779761999998
 20
-79.53231907301333
 30
0.0
 40
1.5
  0
CIRCLE
  5
720
330
2A6
100
AcDbEntity
  8
0
  6
Continuous
 62
     7
100
AcDbCircle
 10
-45.96779761999998
 20
-79.53231907301333
 30
0.0
 40
1.0
  0
LINE
  5
721
330
2A6
100
AcDbEntity
  8
0
  6
Continuous
 62
     2
100
AcDbLine
 10
-43.25096885
 20
-79.53231907301333
 30
0.0
 11
-48.95601269999999
 21
-79.53231907301333
 31
0.0
  0
CIRCLE
  5
722
330
2A6
100
AcDbEntity
  8
0
  6
Continuous
 62
     7
100
AcDbCircle
 10
-45.96779761999998
 20
-79.53231907301333
 30
0.0
 40
2.0
  0
LINE
  5
723
330
2A6
100
AcDbEntity
  8
0
  6
Continuous
 62
     7
100
AcDbLine
 10
-65.90779762
 20
-83.97231907301332
 30
0.0
 11
-62.98779761999999
 21
-81.05231907301334
 31
0.0
  0
LINE
  5
724
330
2A6
100
AcDbEntity
  8
0
  6
Continuous
 62
     7
100
AcDbLine
 10
-63.04779761999999
 20
-83.95231907301331
 30
0.0
 11
-65.82779762
 21
-81.17231907301334
 31
0.0
  0
LINE
  5
725
330
2A6
100
AcDbEntity
  8
0
  6
Continuous
 62
     2
100
AcDbLine
 10
-64.46779762
 20
-86.53231907301332
 30
0.0
 11
-64.46779762
 21
-78.53231907301332
 31
0.0
  0
ARC
  5
726
330
2A6
100
AcDbEntity
  8
0
  6
Continuous
 62
     7
100
AcDbCircle
 10
-64.46779762
 20
-82.53231907301332
 30
0.0
 40
3.5
100
AcDbArc
 50
270.0
 51
90.0
  0
CIRCLE
  5
727
330
2A6
100
AcDbEntity
  8
0
  6
Continuous
 62
     7
100
AcDbCircle
 10
-64.46779762
 20
-82.53231907301332
 30
0.0
 40
3.149999999999999
  0
LINE
  5
728
330
2A6
100
AcDbEntity
  8
0
  6
Continuous
 62
     7
100
AcDbLine
 10
-69.96779762
 20
-49.03231907301332
 30
0.0
 11
-69.96779762
 21
-90.03231907301332
 31
0.0
  0
LINE
  5
80F
330
2A6
100
AcDbEntity
  8
0
  6
Continuous
 62
     7
100
AcDbLine
 10
-168.46779762
 20
-125.0323190730133
 30
0.0
 11
83.53220238000002
 21
-125.0323190730133
 31
0.0
  0
LINE
  5
810
330
2A6
100
AcDbEntity
  8
0
  6
Continuous
 62
     7
100
AcDbLine
 10
-131.38929627
 20
11.56843616999998
 30
0.0
 11
-128.56086915
 21
14.39686329
 31
0.0
  0
LINE
  5
811
330
2A6
100
AcDbEntity
  8
0
  6
Continuous
 62
     7
100
AcDbLine
 10
-128.56086915
 20
11.56843616999998
 30
0.0
 11
-131.38929627
 21
14.39686329
 31
0.0
  0
LINE
  5
812
330
2A6
100
AcDbEntity
  8
0
  6
Continuous
 62
     7
100
AcDbLine
 10
-149.56086915
 20
21.56843616999998
 30
0.0
 11
-152.38929627
 21
24.39686329
 31
0.0
  0
LINE
  5
813
330
2A6
100
AcDbEntity
  8
0
  6
Continuous
 62
     7
100
AcDbLine
 10
-152.38929627
 20
21.56843616999998
 30
0.0
 11
-149.56086915
 21
24.39686329
 31
0.0
  0
LINE
  5
814
330
2A6
100
AcDbEntity
  8
0
  6
Continuous
 62
     7
100
AcDbLine
 10
-126.97508271
 20
-19.51735027000001
 30
0.0
 11
-126.97508271
 21
11.17987408999994
 31
0.0
  0
LINE
  5
815
330
2A6
100
AcDbEntity
  8
0
  6
Continuous
 62
     7
100
AcDbLine
 10
-153.9750827099999
 20
-19.51735027000001
 30
0.0
 11
-153.9750827099999
 21
21.17987408999994
 31
0.0
  0
CIRCLE
  5
816
330
2A6
100
AcDbEntity
  8
0
  6
Continuous
 62
     7
100
AcDbCircle
 10
-150.9750827099999
 20
22.98264972999999
 30
0.0
 40
3.5
  0
CIRCLE
  5
817
330
2A6
100
AcDbEntity
  8
0
  6
Continuous
 62
     7
100
AcDbCircle
 10
-129.97508271
 20
12.98264972999999
 30
0.0
 40
3.5
  0
LINE
  5
818
330
2A6
100
AcDbEntity
  8
0
  6
Continuous
 62
     7
100
AcDbLine
 10
-153.9750827099999
 20
24.78542536999999
 30
0.0
 11
-153.9750827099999
 21
95.98264973
 31
0.0
  0
LINE
  5
819
330
2A6
100
AcDbEntity
  8
0
  6
Continuous
 62
     7
100
AcDbLine
 10
-126.97508271
 20
14.78542536999998
 30
0.0
 11
-126.97508271
 21
95.98264973000002
 31
0.0
  0
ARC
  5
81B
330
2A6
100
AcDbEntity
  8
0
  6
Continuous
 62
     7
100
AcDbCircle
 10
112.50720205
 20
12.99298005000003
 30
0.0
 40
5.6875
100
AcDbArc
 50
152.3468568799998
 51
207.6531431200002
  0
LINE
  5
81D
330
2A6
100
AcDbEntity
  8
0
  6
Continuous
 62
     7
100
AcDbLine
 10
-19.02779762
 20
-54.09231907301332
 30
0.0
 11
-21.94779762
 21
-57.01231907301331
 31
0.0
  0
LINE
  5
81E
330
2A6
100
AcDbEntity
  8
0
  6
Continuous
 62
     7
100
AcDbLine
 10
-21.88779762
 20
-54.11231907301334
 30
0.0
 11
-19.10779762
 21
-56.89231907301331
 31
0.0
  0
LINE
  5
81F
330
2A6
100
AcDbEntity
  8
0
  6
Continuous
 62
     2
100
AcDbLine
 10
-20.46779762
 20
-51.53231907301332
 30
0.0
 11
-20.46779762
 21
-59.53231907301333
 31
0.0
  0
LINE
  5
820
330
2A6
100
AcDbEntity
  8
0
  6
Continuous
 62
     2
100
AcDbLine
 10
-16.46779762
 20
-55.53231907301332
 30
0.0
 11
-24.46779762
 21
-55.53231907301332
 31
0.0
  0
LINE
  5
821
330
2A6
100
AcDbEntity
  8
0
  6
Continuous
 62
     2
100
AcDbLine
 10
-38.96779762
 20
-55.76427235301332
 30
0.0
 11
-38.96779762
 21
-61.35597096301333
 31
0.0
  0
LINE
  5
822
330
2A6
100
AcDbEntity
  8
0
  6
Continuous
 62
     2
100
AcDbLine
 10
-36.14427513999999
 20
-58.53231907301332
 30
0.0
 11
-41.67930112999999
 21
-58.53231907301332
 31
0.0
  0
LINE
  5
823
330
2A6
100
AcDbEntity
  8
0
  6
Continuous
 62
     7
100
AcDbLine
 10
-14.96779762
 20
-49.03231907301332
 30
0.0
 11
-41.96779762
 21
-49.03231907301332
 31
0.0
  0
ARC
  5
824
330
2A6
100
AcDbEntity
  8
0
  6
Continuous
 62
     7
100
AcDbCircle
 10
-20.46779762
 20
-55.53231907301332
 30
0.0
 40
3.5
100
AcDbArc
 50
90.0
 51
270.0
  0
CIRCLE
  5
825
330
2A6
100
AcDbEntity
  8
0
  6
Continuous
 62
     7
100
AcDbCircle
 10
-20.46779762
 20
-55.53231907301332
 30
0.0
 40
3.149999999999999
  0
LINE
  5
826
330
2A6
100
AcDbEntity
  8
0
  6
Continuous
 62
     7
100
AcDbLine
 10
-20.46779762
 20
-52.03231907301333
 30
0.0
 11
-14.96779762
 21
-52.03231907301333
 31
0.0
  0
LINE
  5
827
330
2A6
100
AcDbEntity
  8
0
  6
Continuous
 62
     7
100
AcDbLine
 10
-20.46779762
 20
-59.03231907301332
 30
0.0
 11
-14.96779762
 21
-59.03231907301332
 31
0.0
  0
LINE
  5
828
330
2A6
100
AcDbEntity
  8
0
  6
Continuous
 62
     2
100
AcDbLine
 10
-40.46779761999999
 20
-82.53231907301332
 30
0.0
 11
-32.46779762
 21
-82.53231907301332
 31
0.0
  0
LINE
  5
829
330
2A6
100
AcDbEntity
  8
0
  6
Continuous
 62
     7
100
AcDbLine
 10
-36.46779762
 20
-86.03231907301333
 30
0.0
 11
-41.96779762
 21
-86.03231907301333
 31
0.0
  0
LINE
  5
82A
330
2A6
100
AcDbEntity
  8
0
  6
Continuous
 62
     7
100
AcDbLine
 10
-36.46779762
 20
-79.03231907301332
 30
0.0
 11
-41.96779762
 21
-79.03231907301332
 31
0.0
  0
CIRCLE
  5
82B
330
2A6
100
AcDbEntity
  8
0
  6
Continuous
 62
     7
100
AcDbCircle
 10
-36.46779762
 20
-82.53231907301332
 30
0.0
 40
3.149999999999999
  0
ARC
  5
82C
330
2A6
100
AcDbEntity
  8
0
  6
Continuous
 62
     7
100
AcDbCircle
 10
-36.46779762
 20
-82.53231907301332
 30
0.0
 40
3.5
100
AcDbArc
 50
270.0
 51
90.0
  0
LINE
  5
82D
330
2A6
100
AcDbEntity
  8
0
  6
Continuous
 62
     2
100
AcDbLine
 10
-36.46779762
 20
-86.53231907301332
 30
0.0
 11
-36.46779762
 21
-78.53231907301332
 31
0.0
  0
LINE
  5
82E
330
2A6
100
AcDbEntity
  8
0
  6
Continuous
 62
     7
100
AcDbLine
 10
-35.04779762
 20
-83.95231907301331
 30
0.0
 11
-37.82779762
 21
-81.17231907301334
 31
0.0
  0
LINE
  5
82F
330
2A6
100
AcDbEntity
  8
0
  6
Continuous
 62
     7
100
AcDbLine
 10
-37.90779762
 20
-83.97231907301332
 30
0.0
 11
-34.98779762
 21
-81.05231907301334
 31
0.0
  0
CIRCLE
  5
830
330
2A6
100
AcDbEntity
  8
0
  6
Continuous
 62
     7
100
AcDbCircle
 10
-38.96779762
 20
-58.53231907301332
 30
0.0
 40
1.0
  0
CIRCLE
  5
831
330
2A6
100
AcDbEntity
  8
0
  6
Continuous
 62
     2
100
AcDbCircle
 10
-38.96779762
 20
-58.53231907301332
 30
0.0
 40
1.5
  0
LINE
  5
832
330
2A6
100
AcDbEntity
  8
0
  6
Continuous
 62
     2
100
AcDbLine
 10
-17.96779762
 20
-76.81815107301332
 30
0.0
 11
-17.96779762
 21
-82.54208580301332
 31
0.0
  0
CIRCLE
  5
833
330
2A6
100
AcDbEntity
  8
0
  6
Continuous
 62
     2
100
AcDbCircle
 10
-17.96779762
 20
-79.53231907301333
 30
0.0
 40
1.5
  0
CIRCLE
  5
834
330
2A6
100
AcDbEntity
  8
0
  6
Continuous
 62
     7
100
AcDbCircle
 10
-17.96779762
 20
-79.53231907301333
 30
0.0
 40
1.0
  0
LINE
  5
835
330
2A6
100
AcDbEntity
  8
0
  6
Continuous
 62
     2
100
AcDbLine
 10
-15.25096884999999
 20
-79.53231907301333
 30
0.0
 11
-20.9560127
 21
-79.53231907301333
 31
0.0
  0
CIRCLE
  5
836
330
2A6
100
AcDbEntity
  8
0
  6
Continuous
 62
     7
100
AcDbCircle
 10
-38.96779762
 20
-58.53231907301332
 30
0.0
 40
2.0
  0
CIRCLE
  5
837
330
2A6
100
AcDbEntity
  8
0
  6
Continuous
 62
     7
100
AcDbCircle
 10
-17.96779762
 20
-79.53231907301333
 30
0.0
 40
2.0
  0
LINE
  5
838
330
2A6
100
AcDbEntity
  8
0
  6
Continuous
 62
     7
100
AcDbLine
 10
-41.96779762
 20
-89.03231907301332
 30
0.0
 11
-14.96779762
 21
-89.03231907301332
 31
0.0
  0
LINE
  5
839
330
2A6
100
AcDbEntity
  8
0
  6
Continuous
 62
     2
100
AcDbLine
 10
72.58782849000001
 20
-69.03231907301332
 30
0.0
 11
-46.92723675999999
 21
-69.03231907301332
 31
0.0
  0
LINE
  5
83A
330
2A6
100
AcDbEntity
  8
0
  6
Continuous
 62
     7
100
AcDbLine
 10
-13.96779762
 20
-49.03231907301332
 30
0.0
 11
-13.96779762
 21
-90.03231907301332
 31
0.0
  0
LINE
  5
83B
330
2A6
100
AcDbEntity
  8
0
  6
Continuous
 62
     7
100
AcDbLine
 10
13.03220238
 20
-49.03231907301332
 30
0.0
 11
13.03220238
 21
-90.03231907301332
 31
0.0
  0
CIRCLE
  5
83C
330
2A6
100
AcDbEntity
  8
0
  6
Continuous
 62
     7
100
AcDbCircle
 10
-10.96779762
 20
-58.53231907301332
 30
0.0
 40
2.0
  0
CIRCLE
  5
83D
330
2A6
100
AcDbEntity
  8
0
  6
Continuous
 62
     2
100
AcDbCircle
 10
-10.96779762
 20
-58.53231907301332
 30
0.0
 40
1.5
  0
CIRCLE
  5
83E
330
2A6
100
AcDbEntity
  8
0
  6
Continuous
 62
     7
100
AcDbCircle
 10
-10.96779762
 20
-58.53231907301332
 30
0.0
 40
1.0
  0
LINE
  5
83F
330
2A6
100
AcDbEntity
  8
0
  6
Continuous
 62
     7
100
AcDbLine
 10
7.532202380000001
 20
-59.03231907301332
 30
0.0
 11
13.03220238
 21
-59.03231907301332
 31
0.0
  0
LINE
  5
840
330
2A6
100
AcDbEntity
  8
0
  6
Continuous
 62
     7
100
AcDbLine
 10
7.532202380000001
 20
-52.03231907301333
 30
0.0
 11
13.03220238
 21
-52.03231907301333
 31
0.0
  0
CIRCLE
  5
841
330
2A6
100
AcDbEntity
  8
0
  6
Continuous
 62
     7
100
AcDbCircle
 10
7.532202380000001
 20
-55.53231907301332
 30
0.0
 40
3.149999999999999
  0
ARC
  5
842
330
2A6
100
AcDbEntity
  8
0
  6
Continuous
 62
     7
100
AcDbCircle
 10
7.532202380000001
 20
-55.53231907301332
 30
0.0
 40
3.5
100
AcDbArc
 50
90.0
 51
270.0
  0
LINE
  5
843
330
2A6
100
AcDbEntity
  8
0
  6
Continuous
 62
     7
100
AcDbLine
 10
13.03220238
 20
-49.03231907301332
 30
0.0
 11
-13.96779762
 21
-49.03231907301332
 31
0.0
  0
LINE
  5
844
330
2A6
100
AcDbEntity
  8
0
  6
Continuous
 62
     2
100
AcDbLine
 10
-8.14427513999999
 20
-58.53231907301332
 30
0.0
 11
-13.67930113
 21
-58.53231907301332
 31
0.0
  0
LINE
  5
845
330
2A6
100
AcDbEntity
  8
0
  6
Continuous
 62
     2
100
AcDbLine
 10
-10.96779762
 20
-55.76427235301332
 30
0.0
 11
-10.96779762
 21
-61.35597096301333
 31
0.0
  0
LINE
  5
846
330
2A6
100
AcDbEntity
  8
0
  6
Continuous
 62
     2
100
AcDbLine
 10
11.53220238
 20
-55.53231907301332
 30
0.0
 11
3.532202380000001
 21
-55.53231907301332
 31
0.0
  0
LINE
  5
847
330
2A6
100
AcDbEntity
  8
0
  6
Continuous
 62
     2
100
AcDbLine
 10
7.532202380000001
 20
-51.53231907301332
 30
0.0
 11
7.532202380000001
 21
-59.53231907301333
 31
0.0
  0
LINE
  5
848
330
2A6
100
AcDbEntity
  8
0
  6
Continuous
 62
     7
100
AcDbLine
 10
6.112202379999999
 20
-54.11231907301334
 30
0.0
 11
8.89220238
 21
-56.89231907301331
 31
0.0
  0
LINE
  5
849
330
2A6
100
AcDbEntity
  8
0
  6
Continuous
 62
     7
100
AcDbLine
 10
8.972202380000013
 20
-54.09231907301332
 30
0.0
 11
6.052202379999997
 21
-57.01231907301331
 31
0.0
  0
CIRCLE
  5
84A
330
2A6
100
AcDbEntity
  8
0
  6
Continuous
 62
     7
100
AcDbCircle
 10
-8.467797619999998
 20
-82.53231907301332
 30
0.0
 40
3.149999999999999
  0
ARC
  5
84B
330
2A6
100
AcDbEntity
  8
0
  6
Continuous
 62
     7
100
AcDbCircle
 10
-8.467797619999998
 20
-82.53231907301332
 30
0.0
 40
3.5
100
AcDbArc
 50
270.0
 51
90.0
  0
LINE
  5
84C
330
2A6
100
AcDbEntity
  8
0
  6
Continuous
 62
     2
100
AcDbLine
 10
-8.467797619999998
 20
-86.53231907301332
 30
0.0
 11
-8.467797619999998
 21
-78.53231907301332
 31
0.0
  0
LINE
  5
84D
330
2A6
100
AcDbEntity
  8
0
  6
Continuous
 62
     7
100
AcDbLine
 10
-7.047797619999997
 20
-83.95231907301331
 30
0.0
 11
-9.827797619999998
 21
-81.17231907301334
 31
0.0
  0
LINE
  5
84E
330
2A6
100
AcDbEntity
  8
0
  6
Continuous
 62
     7
100
AcDbLine
 10
-9.907797619999996
 20
-83.97231907301332
 30
0.0
 11
-6.987797619999994
 21
-81.05231907301334
 31
0.0
  0
CIRCLE
  5
84F
330
2A6
100
AcDbEntity
  8
0
  6
Continuous
 62
     7
100
AcDbCircle
 10
10.03220238
 20
-79.53231907301333
 30
0.0
 40
2.0
  0
LINE
  5
850
330
2A6
100
AcDbEntity
  8
0
  6
Continuous
 62
     2
100
AcDbLine
 10
12.74903115
 20
-79.53231907301333
 30
0.0
 11
7.043987300000011
 21
-79.53231907301333
 31
0.0
  0
CIRCLE
  5
851
330
2A6
100
AcDbEntity
  8
0
  6
Continuous
 62
     7
100
AcDbCircle
 10
10.03220238
 20
-79.53231907301333
 30
0.0
 40
1.0
  0
CIRCLE
  5
852
330
2A6
100
AcDbEntity
  8
0
  6
Continuous
 62
     2
100
AcDbCircle
 10
10.03220238
 20
-79.53231907301333
 30
0.0
 40
1.5
  0
LINE
  5
853
330
2A6
100
AcDbEntity
  8
0
  6
Continuous
 62
     2
100
AcDbLine
 10
10.03220238
 20
-76.81815107301332
 30
0.0
 11
10.03220238
 21
-82.54208580301332
 31
0.0
  0
LINE
  5
854
330
2A6
100
AcDbEntity
  8
0
  6
Continuous
 62
     7
100
AcDbLine
 10
-8.467797619999998
 20
-79.03231907301332
 30
0.0
 11
-13.96779762
 21
-79.03231907301332
 31
0.0
  0
LINE
  5
855
330
2A6
100
AcDbEntity
  8
0
  6
Continuous
 62
     2
100
AcDbLine
 10
-12.46779762
 20
-82.53231907301332
 30
0.0
 11
-4.467797619999998
 21
-82.53231907301332
 31
0.0
  0
LINE
  5
856
330
2A6
100
AcDbEntity
  8
0
  6
Continuous
 62
     7
100
AcDbLine
 10
-13.96779762
 20
-89.03231907301332
 30
0.0
 11
13.03220238
 21
-89.03231907301332
 31
0.0
  0
LINE
  5
857
330
2A6
100
AcDbEntity
  8
0
  6
Continuous
 62
     7
100
AcDbLine
 10
-8.467797619999998
 20
-86.03231907301333
 30
0.0
 11
-13.96779762
 21
-86.03231907301333
 31
0.0
  0
LINE
  5
85A
330
2A6
100
AcDbEntity
  8
0
  6
Continuous
 62
     7
100
AcDbLine
 10
-14.96779762
 20
-49.03231907301332
 30
0.0
 11
-14.96779762
 21
-90.03231907301332
 31
0.0
  0
LINE
  5
85B
330
2A6
100
AcDbEntity
  8
0
  6
Continuous
 62
     7
100
AcDbLine
 10
-41.96779762
 20
-49.03231907301332
 30
0.0
 11
-41.96779762
 21
-90.03231907301332
 31
0.0
  0
LINE
  5
85D
330
2A6
100
AcDbEntity
  8
0
  6
Continuous
 62
     7
100
AcDbLine
 10
41.03220238
 20
-49.03231907301332
 30
0.0
 11
41.03220238
 21
-90.03231907301332
 31
0.0
  0
CIRCLE
  5
85E
330
2A6
100
AcDbEntity
  8
0
  6
Continuous
 62
     7
100
AcDbCircle
 10
17.03220238
 20
-58.53231907301332
 30
0.0
 40
2.0
  0
CIRCLE
  5
85F
330
2A6
100
AcDbEntity
  8
0
  6
Continuous
 62
     2
100
AcDbCircle
 10
17.03220238
 20
-58.53231907301332
 30
0.0
 40
1.5
  0
CIRCLE
  5
860
330
2A6
100
AcDbEntity
  8
0
  6
Continuous
 62
     7
100
AcDbCircle
 10
17.03220238
 20
-58.53231907301332
 30
0.0
 40
1.0
  0
LINE
  5
861
330
2A6
100
AcDbEntity
  8
0
  6
Continuous
 62
     7
100
AcDbLine
 10
41.03220238
 20
-49.03231907301332
 30
0.0
 11
14.03220238
 21
-49.03231907301332
 31
0.0
  0
LINE
  5
862
330
2A6
100
AcDbEntity
  8
0
  6
Continuous
 62
     2
100
AcDbLine
 10
19.85572485999999
 20
-58.53231907301332
 30
0.0
 11
14.32069887000001
 21
-58.53231907301332
 31
0.0
  0
LINE
  5
863
330
2A6
100
AcDbEntity
  8
0
  6
Continuous
 62
     7
100
AcDbLine
 10
36.97220238
 20
-54.09231907301332
 30
0.0
 11
34.05220238
 21
-57.01231907301331
 31
0.0
  0
LINE
  5
864
330
2A6
100
AcDbEntity
  8
0
  6
Continuous
 62
     7
100
AcDbLine
 10
34.11220238
 20
-54.11231907301334
 30
0.0
 11
36.89220238
 21
-56.89231907301331
 31
0.0
  0
LINE
  5
865
330
2A6
100
AcDbEntity
  8
0
  6
Continuous
 62
     2
100
AcDbLine
 10
35.53220238
 20
-51.53231907301332
 30
0.0
 11
35.53220238
 21
-59.53231907301333
 31
0.0
  0
LINE
  5
866
330
2A6
100
AcDbEntity
  8
0
  6
Continuous
 62
     2
100
AcDbLine
 10
39.53220238
 20
-55.53231907301332
 30
0.0
 11
31.53220238
 21
-55.53231907301332
 31
0.0
  0
LINE
  5
867
330
2A6
100
AcDbEntity
  8
0
  6
Continuous
 62
     2
100
AcDbLine
 10
17.03220238
 20
-55.76427235301332
 30
0.0
 11
17.03220238
 21
-61.35597096301333
 31
0.0
  0
ARC
  5
868
330
2A6
100
AcDbEntity
  8
0
  6
Continuous
 62
     7
100
AcDbCircle
 10
35.53220238
 20
-55.53231907301332
 30
0.0
 40
3.5
100
AcDbArc
 50
90.0
 51
270.0
  0
CIRCLE
  5
869
330
2A6
100
AcDbEntity
  8
0
  6
Continuous
 62
     7
100
AcDbCircle
 10
35.53220238
 20
-55.53231907301332
 30
0.0
 40
3.149999999999999
  0
LINE
  5
86A
330
2A6
100
AcDbEntity
  8
0
  6
Continuous
 62
     7
100
AcDbLine
 10
35.53220238
 20
-52.03231907301333
 30
0.0
 11
41.03220238
 21
-52.03231907301333
 31
0.0
  0
LINE
  5
86B
330
2A6
100
AcDbEntity
  8
0
  6
Continuous
 62
     7
100
AcDbLine
 10
35.53220238
 20
-59.03231907301332
 30
0.0
 11
41.03220238
 21
-59.03231907301332
 31
0.0
  0
LINE
  5
86C
330
2A6
100
AcDbEntity
  8
0
  6
Continuous
 62
     7
100
AcDbLine
 10
19.53220238
 20
-79.03231907301332
 30
0.0
 11
14.03220238
 21
-79.03231907301332
 31
0.0
  0
LINE
  5
86D
330
2A6
100
AcDbEntity
  8
0
  6
Continuous
 62
     2
100
AcDbLine
 10
15.53220238
 20
-82.53231907301332
 30
0.0
 11
23.53220238
 21
-82.53231907301332
 31
0.0
  0
LINE
  5
86E
330
2A6
100
AcDbEntity
  8
0
  6
Continuous
 62
     7
100
AcDbLine
 10
14.03220238
 20
-89.03231907301332
 30
0.0
 11
41.03220238
 21
-89.03231907301332
 31
0.0
  0
LINE
  5
86F
330
2A6
100
AcDbEntity
  8
0
  6
Continuous
 62
     7
100
AcDbLine
 10
19.53220238
 20
-86.03231907301333
 30
0.0
 11
14.03220238
 21
-86.03231907301333
 31
0.0
  0
LINE
  5
870
330
2A6
100
AcDbEntity
  8
0
  6
Continuous
 62
     2
100
AcDbLine
 10
38.03220238
 20
-76.81815107301332
 30
0.0
 11
38.03220238
 21
-82.54208580301332
 31
0.0
  0
CIRCLE
  5
871
330
2A6
100
AcDbEntity
  8
0
  6
Continuous
 62
     2
100
AcDbCircle
 10
38.03220238
 20
-79.53231907301333
 30
0.0
 40
1.5
  0
CIRCLE
  5
872
330
2A6
100
AcDbEntity
  8
0
  6
Continuous
 62
     7
100
AcDbCircle
 10
38.03220238
 20
-79.53231907301333
 30
0.0
 40
1.0
  0
LINE
  5
873
330
2A6
100
AcDbEntity
  8
0
  6
Continuous
 62
     2
100
AcDbLine
 10
40.74903115
 20
-79.53231907301333
 30
0.0
 11
35.04398730000001
 21
-79.53231907301333
 31
0.0
  0
CIRCLE
  5
874
330
2A6
100
AcDbEntity
  8
0
  6
Continuous
 62
     7
100
AcDbCircle
 10
38.03220238
 20
-79.53231907301333
 30
0.0
 40
2.0
  0
LINE
  5
875
330
2A6
100
AcDbEntity
  8
0
  6
Continuous
 62
     7
100
AcDbLine
 10
18.09220238
 20
-83.97231907301332
 30
0.0
 11
21.01220238000001
 21
-81.05231907301334
 31
0.0
  0
LINE
  5
876
330
2A6
100
AcDbEntity
  8
0
  6
Continuous
 62
     7
100
AcDbLine
 10
20.95220238
 20
-83.95231907301331
 30
0.0
 11
18.17220238
 21
-81.17231907301334
 31
0.0
  0
LINE
  5
877
330
2A6
100
AcDbEntity
  8
0
  6
Continuous
 62
     2
100
AcDbLine
 10
19.53220238
 20
-86.53231907301332
 30
0.0
 11
19.53220238
 21
-78.53231907301332
 31
0.0
  0
ARC
  5
878
330
2A6
100
AcDbEntity
  8
0
  6
Continuous
 62
     7
100
AcDbCircle
 10
19.53220238
 20
-82.53231907301332
 30
0.0
 40
3.5
100
AcDbArc
 50
270.0
 51
90.0
  0
CIRCLE
  5
879
330
2A6
100
AcDbEntity
  8
0
  6
Continuous
 62
     7
100
AcDbCircle
 10
19.53220238
 20
-82.53231907301332
 30
0.0
 40
3.149999999999999
  0
LINE
  5
87A
330
2A6
100
AcDbEntity
  8
0
  6
Continuous
 62
     7
100
AcDbLine
 10
14.03220238
 20
-49.03231907301332
 30
0.0
 11
14.03220238
 21
-90.03231907301332
 31
0.0
  0
LINE
  5
87C
330
2A6
100
AcDbEntity
  8
0
  6
Continuous
 62
     7
100
AcDbLine
 10
69.03220238000002
 20
-49.03231907301332
 30
0.0
 11
69.03220238000002
 21
-90.03231907301332
 31
0.0
  0
CIRCLE
  5
87D
330
2A6
100
AcDbEntity
  8
0
  6
Continuous
 62
     7
100
AcDbCircle
 10
45.03220237999999
 20
-58.53231907301332
 30
0.0
 40
2.0
  0
CIRCLE
  5
87E
330
2A6
100
AcDbEntity
  8
0
  6
Continuous
 62
     2
100
AcDbCircle
 10
45.03220237999999
 20
-58.53231907301332
 30
0.0
 40
1.5
  0
CIRCLE
  5
87F
330
2A6
100
AcDbEntity
  8
0
  6
Continuous
 62
     7
100
AcDbCircle
 10
45.03220237999999
 20
-58.53231907301332
 30
0.0
 40
1.0
  0
LINE
  5
880
330
2A6
100
AcDbEntity
  8
0
  6
Continuous
 62
     7
100
AcDbLine
 10
69.03220238000002
 20
-49.03231907301332
 30
0.0
 11
42.03220238
 21
-49.03231907301332
 31
0.0
  0
LINE
  5
881
330
2A6
100
AcDbEntity
  8
0
  6
Continuous
 62
     2
100
AcDbLine
 10
47.85572486000001
 20
-58.53231907301332
 30
0.0
 11
42.32069887
 21
-58.53231907301332
 31
0.0
  0
LINE
  5
882
330
2A6
100
AcDbEntity
  8
0
  6
Continuous
 62
     7
100
AcDbLine
 10
64.97220238000001
 20
-54.09231907301332
 30
0.0
 11
62.05220237999999
 21
-57.01231907301331
 31
0.0
  0
LINE
  5
883
330
2A6
100
AcDbEntity
  8
0
  6
Continuous
 62
     7
100
AcDbLine
 10
62.11220238
 20
-54.11231907301334
 30
0.0
 11
64.89220238
 21
-56.89231907301331
 31
0.0
  0
LINE
  5
884
330
2A6
100
AcDbEntity
  8
0
  6
Continuous
 62
     2
100
AcDbLine
 10
63.53220238000002
 20
-51.53231907301332
 30
0.0
 11
63.53220238000002
 21
-59.53231907301333
 31
0.0
  0
LINE
  5
885
330
2A6
100
AcDbEntity
  8
0
  6
Continuous
 62
     2
100
AcDbLine
 10
67.53220238000001
 20
-55.53231907301332
 30
0.0
 11
59.53220238000001
 21
-55.53231907301332
 31
0.0
  0
LINE
  5
886
330
2A6
100
AcDbEntity
  8
0
  6
Continuous
 62
     2
100
AcDbLine
 10
45.03220237999999
 20
-55.76427235301332
 30
0.0
 11
45.03220237999999
 21
-61.35597096301333
 31
0.0
  0
ARC
  5
887
330
2A6
100
AcDbEntity
  8
0
  6
Continuous
 62
     7
100
AcDbCircle
 10
63.53220238000002
 20
-55.53231907301332
 30
0.0
 40
3.5
100
AcDbArc
 50
90.0
 51
270.0
  0
CIRCLE
  5
888
330
2A6
100
AcDbEntity
  8
0
  6
Continuous
 62
     7
100
AcDbCircle
 10
63.53220238000002
 20
-55.53231907301332
 30
0.0
 40
3.149999999999999
  0
LINE
  5
889
330
2A6
100
AcDbEntity
  8
0
  6
Continuous
 62
     7
100
AcDbLine
 10
63.53220238000002
 20
-52.03231907301333
 30
0.0
 11
69.03220238000002
 21
-52.03231907301333
 31
0.0
  0
LINE
  5
88A
330
2A6
100
AcDbEntity
  8
0
  6
Continuous
 62
     7
100
AcDbLine
 10
63.53220238000002
 20
-59.03231907301332
 30
0.0
 11
69.03220238000002
 21
-59.03231907301332
 31
0.0
  0
LINE
  5
88B
330
2A6
100
AcDbEntity
  8
0
  6
Continuous
 62
     7
100
AcDbLine
 10
47.53220237999999
 20
-79.03231907301332
 30
0.0
 11
42.03220238
 21
-79.03231907301332
 31
0.0
  0
LINE
  5
88C
330
2A6
100
AcDbEntity
  8
0
  6
Continuous
 62
     2
100
AcDbLine
 10
43.53220238
 20
-82.53231907301332
 30
0.0
 11
51.53220238
 21
-82.53231907301332
 31
0.0
  0
LINE
  5
88D
330
2A6
100
AcDbEntity
  8
0
  6
Continuous
 62
     7
100
AcDbLine
 10
42.03220238
 20
-89.03231907301332
 30
0.0
 11
69.03220238000002
 21
-89.03231907301332
 31
0.0
  0
LINE
  5
88E
330
2A6
100
AcDbEntity
  8
0
  6
Continuous
 62
     7
100
AcDbLine
 10
47.53220237999999
 20
-86.03231907301333
 30
0.0
 11
42.03220238
 21
-86.03231907301333
 31
0.0
  0
LINE
  5
88F
330
2A6
100
AcDbEntity
  8
0
  6
Continuous
 62
     2
100
AcDbLine
 10
66.03220238000002
 20
-76.81815107301332
 30
0.0
 11
66.03220238000002
 21
-82.54208580301332
 31
0.0
  0
CIRCLE
  5
890
330
2A6
100
AcDbEntity
  8
0
  6
Continuous
 62
     2
100
AcDbCircle
 10
66.03220238000002
 20
-79.53231907301333
 30
0.0
 40
1.5
  0
CIRCLE
  5
891
330
2A6
100
AcDbEntity
  8
0
  6
Continuous
 62
     7
100
AcDbCircle
 10
66.03220238000002
 20
-79.53231907301333
 30
0.0
 40
1.0
  0
LINE
  5
892
330
2A6
100
AcDbEntity
  8
0
  6
Continuous
 62
     2
100
AcDbLine
 10
68.74903114999999
 20
-79.53231907301333
 30
0.0
 11
63.04398730000001
 21
-79.53231907301333
 31
0.0
  0
CIRCLE
  5
893
330
2A6
100
AcDbEntity
  8
0
  6
Continuous
 62
     7
100
AcDbCircle
 10
66.03220238000002
 20
-79.53231907301333
 30
0.0
 40
2.0
  0
LINE
  5
894
330
2A6
100
AcDbEntity
  8
0
  6
Continuous
 62
     7
100
AcDbLine
 10
46.09220238
 20
-83.97231907301332
 30
0.0
 11
49.01220238
 21
-81.05231907301334
 31
0.0
  0
LINE
  5
895
330
2A6
100
AcDbEntity
  8
0
  6
Continuous
 62
     7
100
AcDbLine
 10
48.95220238
 20
-83.95231907301331
 30
0.0
 11
46.17220238
 21
-81.17231907301334
 31
0.0
  0
LINE
  5
896
330
2A6
100
AcDbEntity
  8
0
  6
Continuous
 62
     2
100
AcDbLine
 10
47.53220237999999
 20
-86.53231907301332
 30
0.0
 11
47.53220237999999
 21
-78.53231907301332
 31
0.0
  0
ARC
  5
897
330
2A6
100
AcDbEntity
  8
0
  6
Continuous
 62
     7
100
AcDbCircle
 10
47.53220237999999
 20
-82.53231907301332
 30
0.0
 40
3.5
100
AcDbArc
 50
270.0
 51
90.0
  0
CIRCLE
  5
898
330
2A6
100
AcDbEntity
  8
0
  6
Continuous
 62
     7
100
AcDbCircle
 10
47.53220237999999
 20
-82.53231907301332
 30
0.0
 40
3.149999999999999
  0
LINE
  5
899
330
2A6
100
AcDbEntity
  8
0
  6
Continuous
 62
     7
100
AcDbLine
 10
42.03220238
 20
-49.03231907301332
 30
0.0
 11
42.03220238
 21
-90.03231907301332
 31
0.0
  0
LINE
  5
89A
330
2A6
100
AcDbEntity
  8
0
  6
Continuous
 62
     7
100
AcDbLine
 10
83.53220238000002
 20
-90.0323190730133
 30
0.0
 11
83.53220238000002
 21
-125.0323190730133
 31
0.0
  0
LINE
  5
89E
330
2A6
100
AcDbEntity
  8
0
  6
ByBlock
 62
     7
100
AcDbLine
 10
83.53220238000004
 20
-28.01735027000004
 30
0.0
 11
-168.4677976199999
 21
-28.01735026999999
 31
0.0
  0
LINE
  5
8A0
330
2A6
100
AcDbEntity
  8
0
  6
Continuous
100
AcDbLine
 10
-168.4677976199999
 20
-28.01735026999999
 30
0.0
 11
-168.46779762
 21
63.98264972999999
 31
0.0
  0
LINE
  5
8A1
330
2A6
100
AcDbEntity
  8
0
  6
Continuous
100
AcDbLine
 10
83.53220238000004
 20
-28.01735027000004
 30
0.0
 11
83.53220238000002
 21
63.98264972999999
 31
0.0
  0
LINE
  5
8A2
330
2A6
100
AcDbEntity
  8
0
  6
ByBlock
 62
     7
100
AcDbLine
 10
-125.9750827099999
 20
63.98264972999999
 30
0.0
 11
-126.97508271
 21
63.98264973
 31
0.0
  0
ARC
  5
8A3
330
2A6
100
AcDbEntity
  8
0
  6
Continuous
 62
     7
100
AcDbCircle
 10
-125.46779762
 20
-19.51735027
 30
0.0
 40
0.5
100
AcDbArc
 50
180.0
 51
270.0
  0
LINE
  5
8A4
330
2A6
100
AcDbEntity
  8
0
  6
Continuous
 62
     7
100
AcDbLine
 10
-125.46779762
 20
-20.01735027
 30
0.0
 11
-99.46779762
 21
-20.01735027
 31
0.0
  0
LINE
  5
8A5
330
2A6
100
AcDbEntity
  8
0
  6
Continuous
 62
     7
100
AcDbLine
 10
-125.96779762
 20
49.98264973
 30
0.0
 11
-98.96779762000001
 21
49.98264973
 31
0.0
  0
LINE
  5
8A6
330
2A6
100
AcDbEntity
  8
0
  6
Continuous
 62
     7
100
AcDbLine
 10
-102.46779762
 20
95.98264973
 30
0.0
 11
-102.46779762
 21
96.18264973
 31
0.0
  0
LINE
  5
8A7
330
2A6
100
AcDbEntity
  8
0
  6
Continuous
 62
     7
100
AcDbLine
 10
-102.46779762
 20
96.18264973
 30
0.0
 11
-103.26779762
 21
96.98264973
 31
0.0
  0
LINE
  5
8A8
330
2A6
100
AcDbEntity
  8
0
  6
Continuous
 62
     7
100
AcDbLine
 10
-125.97508271
 20
95.98264973
 30
0.0
 11
-98.97508271000001
 21
95.98264973000002
 31
0.0
  0
LINE
  5
8A9
330
2A6
100
AcDbEntity
  8
0
  6
Continuous
 62
     7
100
AcDbLine
 10
-121.66779762
 20
96.98264973
 30
0.0
 11
-103.26779762
 21
96.98264973
 31
0.0
  0
LINE
  5
8AA
330
2A6
100
AcDbEntity
  8
0
  6
Continuous
 62
     7
100
AcDbLine
 10
-122.46779762
 20
96.18264973
 30
0.0
 11
-121.66779762
 21
96.98264973
 31
0.0
  0
LINE
  5
8AB
330
2A6
100
AcDbEntity
  8
0
  6
Continuous
 62
     7
100
AcDbLine
 10
-122.46779762
 20
95.98264973
 30
0.0
 11
-122.46779762
 21
96.18264973
 31
0.0
  0
LINE
  5
8AC
330
2A6
100
AcDbEntity
  8
0
  6
Continuous
 62
     7
100
AcDbLine
 10
-98.96779762000001
 20
-14.01735027
 30
0.0
 11
-125.96779762
 21
-14.01735027
 31
0.0
  0
LINE
  5
8AD
330
2A6
100
AcDbEntity
  8
0
  6
Continuous
 62
     7
100
AcDbLine
 10
-98.96779762000001
 20
66.48264973
 30
0.0
 11
-125.96779762
 21
66.48264973
 31
0.0
  0
LINE
  5
8AE
330
2A6
100
AcDbEntity
  8
0
  6
CENTER
 62
     2
100
AcDbLine
 10
-97.48410794999999
 20
12.98264973
 30
0.0
 11
-107.06779762
 21
12.98264973
 31
0.0
  0
LINE
  5
8B0
330
2A6
100
AcDbEntity
  8
0
  6
CENTER
 62
     2
100
AcDbLine
 10
-101.96779762
 20
8.120149729999999
 30
0.0
 11
-101.96779762
 21
19.83568022
 31
0.0
  0
LINE
  5
8B1
330
2A6
100
AcDbEntity
  8
0
  6
CENTER
 62
     2
100
AcDbLine
 10
-122.96779762
 20
18.40764973
 30
0.0
 11
-122.96779762
 21
29.07265326
 31
0.0
  0
ARC
  5
8B2
330
2A6
100
AcDbEntity
  8
0
  6
Continuous
 62
     7
100
AcDbCircle
 10
-122.97508271
 20
22.98264973
 30
0.0
 40
3.99735444
100
AcDbArc
 50
221.5243633799999
 51
138.4756366200001
  0
ARC
  5
8B3
330
2A6
100
AcDbEntity
  8
0
  6
Continuous
 62
     7
100
AcDbCircle
 10
-101.97508239
 20
12.98264973
 30
0.0
 40
4.00827415
100
AcDbArc
 50
41.38629506000007
 51
318.6137049399999
  0
LINE
  5
8B4
330
2A6
100
AcDbEntity
  8
0
  6
CENTER
 62
     2
100
AcDbLine
 10
-112.46779762
 20
-24.01735027
 30
0.0
 11
-112.46779762
 21
101.98264973
 31
0.0
  0
LINE
  5
8B5
330
2A6
100
AcDbEntity
  8
0
  6
CENTER
 62
     2
100
AcDbLine
 10
-112.93317519
 20
43.98264972999999
 30
0.0
 11
-102.53533694
 21
43.98264972999999
 31
0.0
  0
LINE
  5
8B6
330
2A6
100
AcDbEntity
  8
0
  6
CENTER
 62
     2
100
AcDbLine
 10
-112.36602037
 20
-8.017350269999999
 30
0.0
 11
-122.10217801
 21
-8.017350269999999
 31
0.0
  0
LINE
  5
8B7
330
2A6
100
AcDbEntity
  8
0
  6
CENTER
 62
     2
100
AcDbLine
 10
-107.96779762
 20
38.68473038
 30
0.0
 11
-107.96779762
 21
49.27162023000001
 31
0.0
  0
LINE
  5
8B8
330
2A6
100
AcDbEntity
  8
0
  6
CENTER
 62
     2
100
AcDbLine
 10
-116.96779762
 20
-13.11540925
 30
0.0
 11
-116.96779762
 21
-2.812096809999999
 31
0.0
  0
CIRCLE
  5
8B9
330
2A6
100
AcDbEntity
  8
0
  6
ByBlock
 62
     7
100
AcDbCircle
 10
-107.96779762
 20
43.98264972999999
 30
0.0
 40
3.725
  0
CIRCLE
  5
8BA
330
2A6
100
AcDbEntity
  8
0
  6
ByBlock
 62
     7
100
AcDbCircle
 10
-116.96779762
 20
-8.017350269999999
 30
0.0
 40
3.725
  0
CIRCLE
  5
8BB
330
2A6
100
AcDbEntity
  8
0
  6
ByBlock
 62
     7
100
AcDbCircle
 10
-107.96779762
 20
43.98264972999999
 30
0.0
 40
2.5
  0
CIRCLE
  5
8BC
330
2A6
100
AcDbEntity
  8
0
  6
ByBlock
 62
     7
100
AcDbCircle
 10
-116.96779762
 20
-8.017350269999999
 30
0.0
 40
2.5
  0
CIRCLE
  5
8BD
330
2A6
100
AcDbEntity
  8
0
  6
ByBlock
 62
     7
100
AcDbCircle
 10
-107.96779762
 20
43.98264972999999
 30
0.0
 40
1.35
  0
CIRCLE
  5
8BE
330
2A6
100
AcDbEntity
  8
0
  6
ByBlock
 62
     7
100
AcDbCircle
 10
-116.96779762
 20
-8.017350269999999
 30
0.0
 40
1.35
  0
ARC
  5
8BF
330
2A6
100
AcDbEntity
  8
0
  6
Continuous
 62
     7
100
AcDbCircle
 10
-99.46779762
 20
-19.51735027
 30
0.0
 40
0.5
100
AcDbArc
 50
270.0
 51
0.000000000000007
  0
LINE
  5
8C0
330
2A6
100
AcDbEntity
  8
0
  6
Continuous
 62
     7
100
AcDbLine
 10
-103.38929627
 20
11.56843616999998
 30
0.0
 11
-100.56086915
 21
14.39686329
 31
0.0
  0
LINE
  5
8C1
330
2A6
100
AcDbEntity
  8
0
  6
Continuous
 62
     7
100
AcDbLine
 10
-100.56086915
 20
11.56843616999998
 30
0.0
 11
-103.38929627
 21
14.39686329
 31
0.0
  0
LINE
  5
8C2
330
2A6
100
AcDbEntity
  8
0
  6
Continuous
 62
     7
100
AcDbLine
 10
-121.56086915
 20
21.56843616999998
 30
0.0
 11
-124.38929627
 21
24.39686329
 31
0.0
  0
LINE
  5
8C3
330
2A6
100
AcDbEntity
  8
0
  6
Continuous
 62
     7
100
AcDbLine
 10
-124.38929627
 20
21.56843616999998
 30
0.0
 11
-121.56086915
 21
24.39686329
 31
0.0
  0
LINE
  5
8C4
330
2A6
100
AcDbEntity
  8
0
  6
Continuous
 62
     7
100
AcDbLine
 10
-98.97508270999999
 20
-19.51735027000001
 30
0.0
 11
-98.97508270999999
 21
11.17987408999994
 31
0.0
  0
LINE
  5
8C5
330
2A6
100
AcDbEntity
  8
0
  6
Continuous
 62
     7
100
AcDbLine
 10
-125.97508271
 20
-19.51735027000001
 30
0.0
 11
-125.97508271
 21
21.17987408999994
 31
0.0
  0
CIRCLE
  5
8C6
330
2A6
100
AcDbEntity
  8
0
  6
Continuous
 62
     7
100
AcDbCircle
 10
-122.97508271
 20
22.98264972999999
 30
0.0
 40
3.5
  0
CIRCLE
  5
8C7
330
2A6
100
AcDbEntity
  8
0
  6
Continuous
 62
     7
100
AcDbCircle
 10
-101.97508271
 20
12.98264972999999
 30
0.0
 40
3.5
  0
LINE
  5
8C8
330
2A6
100
AcDbEntity
  8
0
  6
Continuous
 62
     7
100
AcDbLine
 10
-125.97508271
 20
24.78542536999999
 30
0.0
 11
-125.97508271
 21
95.98264973
 31
0.0
  0
LINE
  5
8C9
330
2A6
100
AcDbEntity
  8
0
  6
Continuous
 62
     7
100
AcDbLine
 10
-98.97508270999999
 20
14.78542536999998
 30
0.0
 11
-98.97508271000001
 21
95.98264973000002
 31
0.0
  0
LINE
  5
8CA
330
2A6
100
AcDbEntity
  8
0
  6
ByBlock
 62
     7
100
AcDbLine
 10
-153.97508271
 20
63.98264972999999
 30
0.0
 11
-168.46779762
 21
63.98264972999999
 31
0.0
  0
ARC
  5
8CD
330
2A6
100
AcDbEntity
  8
0
  6
Continuous
 62
     7
100
AcDbCircle
 10
-97.46779762
 20
-19.51735027
 30
0.0
 40
0.5
100
AcDbArc
 50
180.0
 51
270.0
  0
LINE
  5
8CE
330
2A6
100
AcDbEntity
  8
0
  6
Continuous
 62
     7
100
AcDbLine
 10
-97.46779762
 20
-20.01735027
 30
0.0
 11
-71.46779762
 21
-20.01735027
 31
0.0
  0
LINE
  5
8CF
330
2A6
100
AcDbEntity
  8
0
  6
Continuous
 62
     7
100
AcDbLine
 10
-97.96779761999999
 20
49.98264973
 30
0.0
 11
-70.96779762
 21
49.98264973
 31
0.0
  0
LINE
  5
8D0
330
2A6
100
AcDbEntity
  8
0
  6
Continuous
 62
     7
100
AcDbLine
 10
-74.46779762
 20
95.98264973
 30
0.0
 11
-74.46779762
 21
96.18264973
 31
0.0
  0
LINE
  5
8D1
330
2A6
100
AcDbEntity
  8
0
  6
Continuous
 62
     7
100
AcDbLine
 10
-74.46779762
 20
96.18264973
 30
0.0
 11
-75.26779762
 21
96.98264973
 31
0.0
  0
LINE
  5
8D2
330
2A6
100
AcDbEntity
  8
0
  6
Continuous
 62
     7
100
AcDbLine
 10
-97.97508270999999
 20
95.98264973
 30
0.0
 11
-70.97508271000001
 21
95.98264973000002
 31
0.0
  0
LINE
  5
8D3
330
2A6
100
AcDbEntity
  8
0
  6
Continuous
 62
     7
100
AcDbLine
 10
-93.66779762
 20
96.98264973
 30
0.0
 11
-75.26779762
 21
96.98264973
 31
0.0
  0
LINE
  5
8D4
330
2A6
100
AcDbEntity
  8
0
  6
Continuous
 62
     7
100
AcDbLine
 10
-94.46779762
 20
96.18264973
 30
0.0
 11
-93.66779762
 21
96.98264973
 31
0.0
  0
LINE
  5
8D5
330
2A6
100
AcDbEntity
  8
0
  6
Continuous
 62
     7
100
AcDbLine
 10
-94.46779762
 20
95.98264973
 30
0.0
 11
-94.46779762
 21
96.18264973
 31
0.0
  0
LINE
  5
8D6
330
2A6
100
AcDbEntity
  8
0
  6
Continuous
 62
     7
100
AcDbLine
 10
-70.96779762
 20
-14.01735027
 30
0.0
 11
-97.96779761999999
 21
-14.01735027
 31
0.0
  0
LINE
  5
8D7
330
2A6
100
AcDbEntity
  8
0
  6
Continuous
 62
     7
100
AcDbLine
 10
-70.96779762
 20
66.48264973
 30
0.0
 11
-97.96779761999999
 21
66.48264973
 31
0.0
  0
LINE
  5
8D8
330
2A6
100
AcDbEntity
  8
0
  6
CENTER
 62
     2
100
AcDbLine
 10
-69.48410795
 20
12.98264973
 30
0.0
 11
-79.06779761999999
 21
12.98264973
 31
0.0
  0
LINE
  5
8DA
330
2A6
100
AcDbEntity
  8
0
  6
CENTER
 62
     2
100
AcDbLine
 10
-73.96779762
 20
8.120149729999999
 30
0.0
 11
-73.96779762
 21
19.83568022
 31
0.0
  0
LINE
  5
8DB
330
2A6
100
AcDbEntity
  8
0
  6
CENTER
 62
     2
100
AcDbLine
 10
-94.96779762
 20
18.40764973
 30
0.0
 11
-94.96779762
 21
29.07265326
 31
0.0
  0
ARC
  5
8DC
330
2A6
100
AcDbEntity
  8
0
  6
Continuous
 62
     7
100
AcDbCircle
 10
-94.97508270999999
 20
22.98264973
 30
0.0
 40
3.99735444
100
AcDbArc
 50
221.5243633800001
 51
138.4756366199998
  0
ARC
  5
8DD
330
2A6
100
AcDbEntity
  8
0
  6
Continuous
 62
     7
100
AcDbCircle
 10
-73.97508239
 20
12.98264973
 30
0.0
 40
4.00827415
100
AcDbArc
 50
41.38629505999982
 51
318.6137049400001
  0
LINE
  5
8DE
330
2A6
100
AcDbEntity
  8
0
  6
CENTER
 62
     2
100
AcDbLine
 10
-84.46779762
 20
-24.01735027
 30
0.0
 11
-84.46779762
 21
101.98264973
 31
0.0
  0
LINE
  5
8DF
330
2A6
100
AcDbEntity
  8
0
  6
CENTER
 62
     2
100
AcDbLine
 10
-84.93317518999999
 20
43.98264972999999
 30
0.0
 11
-74.53533693999999
 21
43.98264972999999
 31
0.0
  0
LINE
  5
8E0
330
2A6
100
AcDbEntity
  8
0
  6
CENTER
 62
     2
100
AcDbLine
 10
-84.36602037
 20
-8.017350269999999
 30
0.0
 11
-94.10217800999999
 21
-8.017350269999999
 31
0.0
  0
LINE
  5
8E1
330
2A6
100
AcDbEntity
  8
0
  6
CENTER
 62
     2
100
AcDbLine
 10
-79.96779762
 20
38.68473038
 30
0.0
 11
-79.96779762
 21
49.27162023000001
 31
0.0
  0
LINE
  5
8E2
330
2A6
100
AcDbEntity
  8
0
  6
CENTER
 62
     2
100
AcDbLine
 10
-88.96779761999999
 20
-13.11540925
 30
0.0
 11
-88.96779761999999
 21
-2.812096809999999
 31
0.0
  0
CIRCLE
  5
8E3
330
2A6
100
AcDbEntity
  8
0
  6
ByBlock
 62
     7
100
AcDbCircle
 10
-79.96779762
 20
43.98264972999999
 30
0.0
 40
3.725
  0
CIRCLE
  5
8E4
330
2A6
100
AcDbEntity
  8
0
  6
ByBlock
 62
     7
100
AcDbCircle
 10
-88.96779761999999
 20
-8.017350269999999
 30
0.0
 40
3.725
  0
CIRCLE
  5
8E5
330
2A6
100
AcDbEntity
  8
0
  6
ByBlock
 62
     7
100
AcDbCircle
 10
-79.96779762
 20
43.98264972999999
 30
0.0
 40
2.5
  0
CIRCLE
  5
8E6
330
2A6
100
AcDbEntity
  8
0
  6
ByBlock
 62
     7
100
AcDbCircle
 10
-88.96779761999999
 20
-8.017350269999999
 30
0.0
 40
2.5
  0
CIRCLE
  5
8E7
330
2A6
100
AcDbEntity
  8
0
  6
ByBlock
 62
     7
100
AcDbCircle
 10
-79.96779762
 20
43.98264972999999
 30
0.0
 40
1.35
  0
CIRCLE
  5
8E8
330
2A6
100
AcDbEntity
  8
0
  6
ByBlock
 62
     7
100
AcDbCircle
 10
-88.96779761999999
 20
-8.017350269999999
 30
0.0
 40
1.35
  0
ARC
  5
8E9
330
2A6
100
AcDbEntity
  8
0
  6
Continuous
 62
     7
100
AcDbCircle
 10
-71.46779762
 20
-19.51735027
 30
0.0
 40
0.5
100
AcDbArc
 50
270.0
 51
0.000000000000007
  0
LINE
  5
8EA
330
2A6
100
AcDbEntity
  8
0
  6
Continuous
 62
     7
100
AcDbLine
 10
-75.38929626999999
 20
11.56843616999998
 30
0.0
 11
-72.56086914999999
 21
14.39686329
 31
0.0
  0
LINE
  5
8EB
330
2A6
100
AcDbEntity
  8
0
  6
Continuous
 62
     7
100
AcDbLine
 10
-72.56086914999999
 20
11.56843616999998
 30
0.0
 11
-75.38929626999999
 21
14.39686329
 31
0.0
  0
LINE
  5
8EC
330
2A6
100
AcDbEntity
  8
0
  6
Continuous
 62
     7
100
AcDbLine
 10
-93.56086914999998
 20
21.56843616999998
 30
0.0
 11
-96.38929626999999
 21
24.39686329
 31
0.0
  0
LINE
  5
8ED
330
2A6
100
AcDbEntity
  8
0
  6
Continuous
 62
     7
100
AcDbLine
 10
-96.38929626999999
 20
21.56843616999998
 30
0.0
 11
-93.56086914999998
 21
24.39686329
 31
0.0
  0
LINE
  5
8EE
330
2A6
100
AcDbEntity
  8
0
  6
Continuous
 62
     7
100
AcDbLine
 10
-70.97508270999999
 20
-19.51735027000001
 30
0.0
 11
-70.97508270999999
 21
11.17987408999994
 31
0.0
  0
LINE
  5
8EF
330
2A6
100
AcDbEntity
  8
0
  6
Continuous
 62
     7
100
AcDbLine
 10
-97.97508270999999
 20
-19.51735027000001
 30
0.0
 11
-97.97508270999999
 21
21.17987408999994
 31
0.0
  0
CIRCLE
  5
8F0
330
2A6
100
AcDbEntity
  8
0
  6
Continuous
 62
     7
100
AcDbCircle
 10
-94.97508270999999
 20
22.98264972999999
 30
0.0
 40
3.5
  0
CIRCLE
  5
8F1
330
2A6
100
AcDbEntity
  8
0
  6
Continuous
 62
     7
100
AcDbCircle
 10
-73.97508270999999
 20
12.98264972999999
 30
0.0
 40
3.5
  0
LINE
  5
8F2
330
2A6
100
AcDbEntity
  8
0
  6
Continuous
 62
     7
100
AcDbLine
 10
-97.97508270999999
 20
24.78542536999999
 30
0.0
 11
-97.97508270999999
 21
95.98264973
 31
0.0
  0
LINE
  5
8F3
330
2A6
100
AcDbEntity
  8
0
  6
Continuous
 62
     7
100
AcDbLine
 10
-70.97508270999999
 20
14.78542536999998
 30
0.0
 11
-70.97508271000001
 21
95.98264973000002
 31
0.0
  0
LINE
  5
8F4
330
2A6
100
AcDbEntity
  8
0
  6
ByBlock
 62
     7
100
AcDbLine
 10
-69.97508270999998
 20
63.98264972999999
 30
0.0
 11
-70.97508271000001
 21
63.98264973
 31
0.0
  0
ARC
  5
8F5
330
2A6
100
AcDbEntity
  8
0
  6
Continuous
 62
     7
100
AcDbCircle
 10
-69.46779762
 20
-19.51735027
 30
0.0
 40
0.5
100
AcDbArc
 50
180.0
 51
270.0
  0
LINE
  5
8F6
330
2A6
100
AcDbEntity
  8
0
  6
Continuous
 62
     7
100
AcDbLine
 10
-69.46779762
 20
-20.01735027
 30
0.0
 11
-43.46779761999999
 21
-20.01735027
 31
0.0
  0
LINE
  5
8F7
330
2A6
100
AcDbEntity
  8
0
  6
Continuous
 62
     7
100
AcDbLine
 10
-69.96779762
 20
49.98264973
 30
0.0
 11
-42.96779761999999
 21
49.98264973
 31
0.0
  0
LINE
  5
8F8
330
2A6
100
AcDbEntity
  8
0
  6
Continuous
 62
     7
100
AcDbLine
 10
-46.46779762
 20
95.98264973
 30
0.0
 11
-46.46779762
 21
96.18264973
 31
0.0
  0
LINE
  5
8F9
330
2A6
100
AcDbEntity
  8
0
  6
Continuous
 62
     7
100
AcDbLine
 10
-46.46779762
 20
96.18264973
 30
0.0
 11
-47.26779761999999
 21
96.98264973
 31
0.0
  0
LINE
  5
8FA
330
2A6
100
AcDbEntity
  8
0
  6
Continuous
 62
     7
100
AcDbLine
 10
-69.97508271
 20
95.98264973
 30
0.0
 11
-42.97508271
 21
95.98264973000002
 31
0.0
  0
LINE
  5
8FB
330
2A6
100
AcDbEntity
  8
0
  6
Continuous
 62
     7
100
AcDbLine
 10
-65.66779762
 20
96.98264973
 30
0.0
 11
-47.26779761999999
 21
96.98264973
 31
0.0
  0
LINE
  5
8FC
330
2A6
100
AcDbEntity
  8
0
  6
Continuous
 62
     7
100
AcDbLine
 10
-66.46779762
 20
96.18264973
 30
0.0
 11
-65.66779762
 21
96.98264973
 31
0.0
  0
LINE
  5
8FD
330
2A6
100
AcDbEntity
  8
0
  6
Continuous
 62
     7
100
AcDbLine
 10
-66.46779762
 20
95.98264973
 30
0.0
 11
-66.46779762
 21
96.18264973
 31
0.0
  0
LINE
  5
8FE
330
2A6
100
AcDbEntity
  8
0
  6
Continuous
 62
     7
100
AcDbLine
 10
-42.96779761999999
 20
-14.01735027
 30
0.0
 11
-69.96779762
 21
-14.01735027
 31
0.0
  0
LINE
  5
8FF
330
2A6
100
AcDbEntity
  8
0
  6
Continuous
 62
     7
100
AcDbLine
 10
-42.96779761999999
 20
66.48264973
 30
0.0
 11
-69.96779762
 21
66.48264973
 31
0.0
  0
LINE
  5
900
330
2A6
100
AcDbEntity
  8
0
  6
CENTER
 62
     2
100
AcDbLine
 10
-41.48410794999999
 20
12.98264973
 30
0.0
 11
-51.06779761999999
 21
12.98264973
 31
0.0
  0
LINE
  5
902
330
2A6
100
AcDbEntity
  8
0
  6
CENTER
 62
     2
100
AcDbLine
 10
-45.96779761999999
 20
8.120149729999999
 30
0.0
 11
-45.96779761999999
 21
19.83568022
 31
0.0
  0
LINE
  5
903
330
2A6
100
AcDbEntity
  8
0
  6
CENTER
 62
     2
100
AcDbLine
 10
-66.96779762
 20
18.40764973
 30
0.0
 11
-66.96779762
 21
29.07265326
 31
0.0
  0
ARC
  5
904
330
2A6
100
AcDbEntity
  8
0
  6
Continuous
 62
     7
100
AcDbCircle
 10
-66.97508271
 20
22.98264973
 30
0.0
 40
3.99735444
100
AcDbArc
 50
221.52436338
 51
138.4756366199998
  0
ARC
  5
905
330
2A6
100
AcDbEntity
  8
0
  6
Continuous
 62
     7
100
AcDbCircle
 10
-45.97508238999999
 20
12.98264973
 30
0.0
 40
4.00827415
100
AcDbArc
 50
41.38629505999982
 51
318.6137049399996
  0
LINE
  5
906
330
2A6
100
AcDbEntity
  8
0
  6
CENTER
 62
     2
100
AcDbLine
 10
-56.46779762
 20
-24.01735027
 30
0.0
 11
-56.46779762
 21
101.98264973
 31
0.0
  0
LINE
  5
907
330
2A6
100
AcDbEntity
  8
0
  6
CENTER
 62
     2
100
AcDbLine
 10
-56.93317519
 20
43.98264972999999
 30
0.0
 11
-46.53533693999999
 21
43.98264972999999
 31
0.0
  0
LINE
  5
908
330
2A6
100
AcDbEntity
  8
0
  6
CENTER
 62
     2
100
AcDbLine
 10
-56.36602037
 20
-8.017350269999999
 30
0.0
 11
-66.10217801000001
 21
-8.017350269999999
 31
0.0
  0
LINE
  5
909
330
2A6
100
AcDbEntity
  8
0
  6
CENTER
 62
     2
100
AcDbLine
 10
-51.96779762
 20
38.68473038
 30
0.0
 11
-51.96779762
 21
49.27162023000001
 31
0.0
  0
LINE
  5
90A
330
2A6
100
AcDbEntity
  8
0
  6
CENTER
 62
     2
100
AcDbLine
 10
-60.96779762
 20
-13.11540925
 30
0.0
 11
-60.96779762
 21
-2.812096809999999
 31
0.0
  0
CIRCLE
  5
90B
330
2A6
100
AcDbEntity
  8
0
  6
ByBlock
 62
     7
100
AcDbCircle
 10
-51.96779762
 20
43.98264972999999
 30
0.0
 40
3.725
  0
CIRCLE
  5
90C
330
2A6
100
AcDbEntity
  8
0
  6
ByBlock
 62
     7
100
AcDbCircle
 10
-60.96779762
 20
-8.017350269999999
 30
0.0
 40
3.725
  0
CIRCLE
  5
90D
330
2A6
100
AcDbEntity
  8
0
  6
ByBlock
 62
     7
100
AcDbCircle
 10
-51.96779762
 20
43.98264972999999
 30
0.0
 40
2.5
  0
CIRCLE
  5
90E
330
2A6
100
AcDbEntity
  8
0
  6
ByBlock
 62
     7
100
AcDbCircle
 10
-60.96779762
 20
-8.017350269999999
 30
0.0
 40
2.5
  0
CIRCLE
  5
90F
330
2A6
100
AcDbEntity
  8
0
  6
ByBlock
 62
     7
100
AcDbCircle
 10
-51.96779762
 20
43.98264972999999
 30
0.0
 40
1.35
  0
CIRCLE
  5
910
330
2A6
100
AcDbEntity
  8
0
  6
ByBlock
 62
     7
100
AcDbCircle
 10
-60.96779762
 20
-8.017350269999999
 30
0.0
 40
1.35
  0
ARC
  5
911
330
2A6
100
AcDbEntity
  8
0
  6
Continuous
 62
     7
100
AcDbCircle
 10
-43.46779761999999
 20
-19.51735027
 30
0.0
 40
0.5
100
AcDbArc
 50
270.0
 51
0.000000000000007
  0
LINE
  5
912
330
2A6
100
AcDbEntity
  8
0
  6
Continuous
 62
     7
100
AcDbLine
 10
-47.38929626999999
 20
11.56843616999998
 30
0.0
 11
-44.56086914999999
 21
14.39686329
 31
0.0
  0
LINE
  5
913
330
2A6
100
AcDbEntity
  8
0
  6
Continuous
 62
     7
100
AcDbLine
 10
-44.56086914999999
 20
11.56843616999998
 30
0.0
 11
-47.38929626999999
 21
14.39686329
 31
0.0
  0
LINE
  5
914
330
2A6
100
AcDbEntity
  8
0
  6
Continuous
 62
     7
100
AcDbLine
 10
-65.56086914999998
 20
21.56843616999998
 30
0.0
 11
-68.38929626999998
 21
24.39686329
 31
0.0
  0
LINE
  5
915
330
2A6
100
AcDbEntity
  8
0
  6
Continuous
 62
     7
100
AcDbLine
 10
-68.38929626999998
 20
21.56843616999998
 30
0.0
 11
-65.56086914999998
 21
24.39686329
 31
0.0
  0
LINE
  5
916
330
2A6
100
AcDbEntity
  8
0
  6
Continuous
 62
     7
100
AcDbLine
 10
-42.97508270999999
 20
-19.51735027000001
 30
0.0
 11
-42.97508270999999
 21
11.17987408999994
 31
0.0
  0
LINE
  5
917
330
2A6
100
AcDbEntity
  8
0
  6
Continuous
 62
     7
100
AcDbLine
 10
-69.97508271
 20
-19.51735027000001
 30
0.0
 11
-69.97508271
 21
21.17987408999994
 31
0.0
  0
CIRCLE
  5
918
330
2A6
100
AcDbEntity
  8
0
  6
Continuous
 62
     7
100
AcDbCircle
 10
-66.97508271
 20
22.98264972999999
 30
0.0
 40
3.5
  0
CIRCLE
  5
919
330
2A6
100
AcDbEntity
  8
0
  6
Continuous
 62
     7
100
AcDbCircle
 10
-45.97508270999999
 20
12.98264972999999
 30
0.0
 40
3.5
  0
LINE
  5
91A
330
2A6
100
AcDbEntity
  8
0
  6
Continuous
 62
     7
100
AcDbLine
 10
-69.97508271
 20
24.78542536999999
 30
0.0
 11
-69.97508271
 21
95.98264973
 31
0.0
  0
LINE
  5
91B
330
2A6
100
AcDbEntity
  8
0
  6
Continuous
 62
     7
100
AcDbLine
 10
-42.97508270999999
 20
14.78542536999998
 30
0.0
 11
-42.97508271
 21
95.98264973000002
 31
0.0
  0
LINE
  5
91C
330
2A6
100
AcDbEntity
  8
0
  6
ByBlock
 62
     7
100
AcDbLine
 10
-97.97508270999998
 20
63.98264972999999
 30
0.0
 11
-98.97508271000001
 21
63.98264973
 31
0.0
  0
ARC
  5
91D
330
2A6
100
AcDbEntity
  8
0
  6
Continuous
 62
     7
100
AcDbCircle
 10
-41.46779762
 20
-19.51735027
 30
0.0
 40
0.5
100
AcDbArc
 50
180.0
 51
270.0
  0
LINE
  5
91E
330
2A6
100
AcDbEntity
  8
0
  6
Continuous
 62
     7
100
AcDbLine
 10
-41.46779762
 20
-20.01735027
 30
0.0
 11
-15.46779762
 21
-20.01735027
 31
0.0
  0
LINE
  5
91F
330
2A6
100
AcDbEntity
  8
0
  6
Continuous
 62
     7
100
AcDbLine
 10
-41.96779762
 20
49.98264973
 30
0.0
 11
-14.96779762
 21
49.98264973
 31
0.0
  0
LINE
  5
920
330
2A6
100
AcDbEntity
  8
0
  6
Continuous
 62
     7
100
AcDbLine
 10
-18.46779762
 20
95.98264973
 30
0.0
 11
-18.46779762
 21
96.18264973
 31
0.0
  0
LINE
  5
921
330
2A6
100
AcDbEntity
  8
0
  6
Continuous
 62
     7
100
AcDbLine
 10
-18.46779762
 20
96.18264973
 30
0.0
 11
-19.26779761999999
 21
96.98264973
 31
0.0
  0
LINE
  5
922
330
2A6
100
AcDbEntity
  8
0
  6
Continuous
 62
     7
100
AcDbLine
 10
-41.97508270999999
 20
95.98264973
 30
0.0
 11
-14.97508271000001
 21
95.98264973000002
 31
0.0
  0
LINE
  5
923
330
2A6
100
AcDbEntity
  8
0
  6
Continuous
 62
     7
100
AcDbLine
 10
-37.66779762
 20
96.98264973
 30
0.0
 11
-19.26779761999999
 21
96.98264973
 31
0.0
  0
LINE
  5
924
330
2A6
100
AcDbEntity
  8
0
  6
Continuous
 62
     7
100
AcDbLine
 10
-38.46779762
 20
96.18264973
 30
0.0
 11
-37.66779762
 21
96.98264973
 31
0.0
  0
LINE
  5
925
330
2A6
100
AcDbEntity
  8
0
  6
Continuous
 62
     7
100
AcDbLine
 10
-38.46779762
 20
95.98264973
 30
0.0
 11
-38.46779762
 21
96.18264973
 31
0.0
  0
LINE
  5
926
330
2A6
100
AcDbEntity
  8
0
  6
Continuous
 62
     7
100
AcDbLine
 10
-14.96779762
 20
-14.01735027
 30
0.0
 11
-41.96779762
 21
-14.01735027
 31
0.0
  0
LINE
  5
927
330
2A6
100
AcDbEntity
  8
0
  6
Continuous
 62
     7
100
AcDbLine
 10
-14.96779762
 20
66.48264973
 30
0.0
 11
-41.96779762
 21
66.48264973
 31
0.0
  0
LINE
  5
928
330
2A6
100
AcDbEntity
  8
0
  6
CENTER
 62
     2
100
AcDbLine
 10
-13.48410794999999
 20
12.98264973
 30
0.0
 11
-23.06779761999999
 21
12.98264973
 31
0.0
  0
LINE
  5
92A
330
2A6
100
AcDbEntity
  8
0
  6
CENTER
 62
     2
100
AcDbLine
 10
-17.96779762
 20
8.120149729999999
 30
0.0
 11
-17.96779762
 21
19.83568022
 31
0.0
  0
LINE
  5
92B
330
2A6
100
AcDbEntity
  8
0
  6
CENTER
 62
     2
100
AcDbLine
 10
-38.96779762
 20
18.40764973
 30
0.0
 11
-38.96779762
 21
29.07265326
 31
0.0
  0
ARC
  5
92C
330
2A6
100
AcDbEntity
  8
0
  6
Continuous
 62
     7
100
AcDbCircle
 10
-38.97508270999999
 20
22.98264973
 30
0.0
 40
3.99735444
100
AcDbArc
 50
221.5243633800001
 51
138.4756366199998
  0
ARC
  5
92D
330
2A6
100
AcDbEntity
  8
0
  6
Continuous
 62
     7
100
AcDbCircle
 10
-17.97508239
 20
12.98264973
 30
0.0
 40
4.00827415
100
AcDbArc
 50
41.38629506000011
 51
318.6137049399999
  0
LINE
  5
92E
330
2A6
100
AcDbEntity
  8
0
  6
CENTER
 62
     2
100
AcDbLine
 10
-28.46779762
 20
-24.01735027
 30
0.0
 11
-28.46779762
 21
101.98264973
 31
0.0
  0
LINE
  5
931
330
2A6
100
AcDbEntity
  8
0
  6
CENTER
 62
     2
100
AcDbLine
 10
-23.96779762
 20
38.68473038
 30
0.0
 11
-23.96779762
 21
49.27162023000001
 31
0.0
  0
LINE
  5
932
330
2A6
100
AcDbEntity
  8
0
  6
CENTER
 62
     2
100
AcDbLine
 10
-32.96779762
 20
-13.11540925
 30
0.0
 11
-32.96779762
 21
-2.812096809999999
 31
0.0
  0
ARC
  5
939
330
2A6
100
AcDbEntity
  8
0
  6
Continuous
 62
     7
100
AcDbCircle
 10
-15.46779762
 20
-19.51735027
 30
0.0
 40
0.5
100
AcDbArc
 50
270.0
 51
0.000000000000007
  0
LINE
  5
93A
330
2A6
100
AcDbEntity
  8
0
  6
Continuous
 62
     7
100
AcDbLine
 10
-19.38929626999999
 20
11.56843616999998
 30
0.0
 11
-16.56086914999999
 21
14.39686329
 31
0.0
  0
LINE
  5
93B
330
2A6
100
AcDbEntity
  8
0
  6
Continuous
 62
     7
100
AcDbLine
 10
-16.56086914999999
 20
11.56843616999998
 30
0.0
 11
-19.38929626999999
 21
14.39686329
 31
0.0
  0
LINE
  5
93C
330
2A6
100
AcDbEntity
  8
0
  6
Continuous
 62
     7
100
AcDbLine
 10
-37.56086914999999
 20
21.56843616999998
 30
0.0
 11
-40.38929626999999
 21
24.39686329
 31
0.0
  0
LINE
  5
93D
330
2A6
100
AcDbEntity
  8
0
  6
Continuous
 62
     7
100
AcDbLine
 10
-40.38929626999999
 20
21.56843616999998
 30
0.0
 11
-37.56086914999999
 21
24.39686329
 31
0.0
  0
LINE
  5
93E
330
2A6
100
AcDbEntity
  8
0
  6
Continuous
 62
     7
100
AcDbLine
 10
-14.97508270999999
 20
-19.51735027000001
 30
0.0
 11
-14.97508270999999
 21
11.17987408999994
 31
0.0
  0
LINE
  5
93F
330
2A6
100
AcDbEntity
  8
0
  6
Continuous
 62
     7
100
AcDbLine
 10
-41.97508270999999
 20
-19.51735027000001
 30
0.0
 11
-41.97508270999999
 21
21.17987408999994
 31
0.0
  0
CIRCLE
  5
940
330
2A6
100
AcDbEntity
  8
0
  6
Continuous
 62
     7
100
AcDbCircle
 10
-38.97508270999999
 20
22.98264972999999
 30
0.0
 40
3.5
  0
CIRCLE
  5
941
330
2A6
100
AcDbEntity
  8
0
  6
Continuous
 62
     7
100
AcDbCircle
 10
-17.97508270999999
 20
12.98264972999999
 30
0.0
 40
3.5
  0
LINE
  5
942
330
2A6
100
AcDbEntity
  8
0
  6
Continuous
 62
     7
100
AcDbLine
 10
-41.97508270999999
 20
24.78542536999999
 30
0.0
 11
-41.97508270999999
 21
95.98264973
 31
0.0
  0
LINE
  5
943
330
2A6
100
AcDbEntity
  8
0
  6
Continuous
 62
     7
100
AcDbLine
 10
-14.97508270999999
 20
14.78542536999998
 30
0.0
 11
-14.97508271000001
 21
95.98264973000002
 31
0.0
  0
LINE
  5
944
330
2A6
100
AcDbEntity
  8
0
  6
ByBlock
 62
     7
100
AcDbLine
 10
-13.97508270999998
 20
63.98264972999999
 30
0.0
 11
-14.97508271000001
 21
63.98264973
 31
0.0
  0
ARC
  5
945
330
2A6
100
AcDbEntity
  8
0
  6
Continuous
 62
     7
100
AcDbCircle
 10
-13.46779762
 20
-19.51735027
 30
0.0
 40
0.5
100
AcDbArc
 50
180.0
 51
270.0
  0
LINE
  5
946
330
2A6
100
AcDbEntity
  8
0
  6
Continuous
 62
     7
100
AcDbLine
 10
-13.46779762
 20
-20.01735027
 30
0.0
 11
12.53220238
 21
-20.01735027
 31
0.0
  0
LINE
  5
947
330
2A6
100
AcDbEntity
  8
0
  6
Continuous
 62
     7
100
AcDbLine
 10
-13.96779762
 20
49.98264973
 30
0.0
 11
13.03220238
 21
49.98264973
 31
0.0
  0
LINE
  5
948
330
2A6
100
AcDbEntity
  8
0
  6
Continuous
 62
     7
100
AcDbLine
 10
9.532202380000001
 20
95.98264973
 30
0.0
 11
9.532202380000001
 21
96.18264973
 31
0.0
  0
LINE
  5
949
330
2A6
100
AcDbEntity
  8
0
  6
Continuous
 62
     7
100
AcDbLine
 10
9.532202380000001
 20
96.18264973
 30
0.0
 11
8.732202380000003
 21
96.98264973
 31
0.0
  0
LINE
  5
94A
330
2A6
100
AcDbEntity
  8
0
  6
Continuous
 62
     7
100
AcDbLine
 10
-13.97508270999999
 20
95.98264973
 30
0.0
 11
13.02491728999999
 21
95.98264973000002
 31
0.0
  0
LINE
  5
94B
330
2A6
100
AcDbEntity
  8
0
  6
Continuous
 62
     7
100
AcDbLine
 10
-9.667797620000001
 20
96.98264973
 30
0.0
 11
8.732202380000003
 21
96.98264973
 31
0.0
  0
LINE
  5
94C
330
2A6
100
AcDbEntity
  8
0
  6
Continuous
 62
     7
100
AcDbLine
 10
-10.46779762
 20
96.18264973
 30
0.0
 11
-9.667797620000001
 21
96.98264973
 31
0.0
  0
LINE
  5
94D
330
2A6
100
AcDbEntity
  8
0
  6
Continuous
 62
     7
100
AcDbLine
 10
-10.46779762
 20
95.98264973
 30
0.0
 11
-10.46779762
 21
96.18264973
 31
0.0
  0
LINE
  5
94E
330
2A6
100
AcDbEntity
  8
0
  6
Continuous
 62
     7
100
AcDbLine
 10
13.03220238
 20
-14.01735027
 30
0.0
 11
-13.96779762
 21
-14.01735027
 31
0.0
  0
LINE
  5
94F
330
2A6
100
AcDbEntity
  8
0
  6
Continuous
 62
     7
100
AcDbLine
 10
13.03220238
 20
66.48264973
 30
0.0
 11
-13.96779762
 21
66.48264973
 31
0.0
  0
LINE
  5
950
330
2A6
100
AcDbEntity
  8
0
  6
CENTER
 62
     2
100
AcDbLine
 10
14.51589205
 20
12.98264973
 30
0.0
 11
4.932202380000006
 21
12.98264973
 31
0.0
  0
LINE
  5
952
330
2A6
100
AcDbEntity
  8
0
  6
CENTER
 62
     2
100
AcDbLine
 10
10.03220238
 20
8.120149729999999
 30
0.0
 11
10.03220238
 21
19.83568022
 31
0.0
  0
LINE
  5
953
330
2A6
100
AcDbEntity
  8
0
  6
CENTER
 62
     2
100
AcDbLine
 10
-10.96779762
 20
18.40764973
 30
0.0
 11
-10.96779762
 21
29.07265326
 31
0.0
  0
ARC
  5
954
330
2A6
100
AcDbEntity
  8
0
  6
Continuous
 62
     7
100
AcDbCircle
 10
-10.97508270999999
 20
22.98264973
 30
0.0
 40
3.99735444
100
AcDbArc
 50
221.52436338
 51
138.4756366199998
  0
ARC
  5
955
330
2A6
100
AcDbEntity
  8
0
  6
Continuous
 62
     7
100
AcDbCircle
 10
10.02491761
 20
12.98264973
 30
0.0
 40
4.00827415
100
AcDbArc
 50
41.38629506000012
 51
318.6137049399996
  0
LINE
  5
956
330
2A6
100
AcDbEntity
  8
0
  6
CENTER
 62
     2
100
AcDbLine
 10
-0.467797619999999
 20
-24.01735027
 30
0.0
 11
-0.467797619999999
 21
101.98264973
 31
0.0
  0
LINE
  5
959
330
2A6
100
AcDbEntity
  8
0
  6
CENTER
 62
     2
100
AcDbLine
 10
4.032202380000001
 20
38.68473038
 30
0.0
 11
4.032202380000001
 21
49.27162023000001
 31
0.0
  0
LINE
  5
95A
330
2A6
100
AcDbEntity
  8
0
  6
CENTER
 62
     2
100
AcDbLine
 10
-4.967797619999998
 20
-13.11540925
 30
0.0
 11
-4.967797619999998
 21
-2.812096809999999
 31
0.0
  0
ARC
  5
961
330
2A6
100
AcDbEntity
  8
0
  6
Continuous
 62
     7
100
AcDbCircle
 10
12.53220238
 20
-19.51735027
 30
0.0
 40
0.5
100
AcDbArc
 50
270.0
 51
0.000000000000007
  0
LINE
  5
962
330
2A6
100
AcDbEntity
  8
0
  6
Continuous
 62
     7
100
AcDbLine
 10
8.610703730000011
 20
11.56843616999998
 30
0.0
 11
11.43913085000001
 21
14.39686329
 31
0.0
  0
LINE
  5
963
330
2A6
100
AcDbEntity
  8
0
  6
Continuous
 62
     7
100
AcDbLine
 10
11.43913085000001
 20
11.56843616999998
 30
0.0
 11
8.610703730000011
 21
14.39686329
 31
0.0
  0
LINE
  5
964
330
2A6
100
AcDbEntity
  8
0
  6
Continuous
 62
     7
100
AcDbLine
 10
-9.560869149999987
 20
21.56843616999998
 30
0.0
 11
-12.38929626999999
 21
24.39686329
 31
0.0
  0
LINE
  5
965
330
2A6
100
AcDbEntity
  8
0
  6
Continuous
 62
     7
100
AcDbLine
 10
-12.38929626999999
 20
21.56843616999998
 30
0.0
 11
-9.560869149999987
 21
24.39686329
 31
0.0
  0
LINE
  5
966
330
2A6
100
AcDbEntity
  8
0
  6
Continuous
 62
     7
100
AcDbLine
 10
13.02491729
 20
-19.51735027000001
 30
0.0
 11
13.02491729
 21
11.17987408999994
 31
0.0
  0
LINE
  5
967
330
2A6
100
AcDbEntity
  8
0
  6
Continuous
 62
     7
100
AcDbLine
 10
-13.97508270999999
 20
-19.51735027000001
 30
0.0
 11
-13.97508270999999
 21
21.17987408999994
 31
0.0
  0
CIRCLE
  5
968
330
2A6
100
AcDbEntity
  8
0
  6
Continuous
 62
     7
100
AcDbCircle
 10
-10.97508270999999
 20
22.98264972999999
 30
0.0
 40
3.5
  0
CIRCLE
  5
969
330
2A6
100
AcDbEntity
  8
0
  6
Continuous
 62
     7
100
AcDbCircle
 10
10.02491729
 20
12.98264972999999
 30
0.0
 40
3.5
  0
LINE
  5
96A
330
2A6
100
AcDbEntity
  8
0
  6
Continuous
 62
     7
100
AcDbLine
 10
-13.97508270999999
 20
24.78542536999999
 30
0.0
 11
-13.97508270999999
 21
95.98264973
 31
0.0
  0
LINE
  5
96B
330
2A6
100
AcDbEntity
  8
0
  6
Continuous
 62
     7
100
AcDbLine
 10
13.02491729
 20
14.78542536999998
 30
0.0
 11
13.02491728999999
 21
95.98264973000002
 31
0.0
  0
ARC
  5
96C
330
2A6
100
AcDbEntity
  8
0
  6
Continuous
 62
     7
100
AcDbCircle
 10
14.53220238
 20
-19.51735027
 30
0.0
 40
0.5
100
AcDbArc
 50
180.0
 51
270.0
  0
LINE
  5
96D
330
2A6
100
AcDbEntity
  8
0
  6
Continuous
 62
     7
100
AcDbLine
 10
14.53220238
 20
-20.01735027
 30
0.0
 11
40.53220238
 21
-20.01735027
 31
0.0
  0
LINE
  5
96E
330
2A6
100
AcDbEntity
  8
0
  6
Continuous
 62
     7
100
AcDbLine
 10
14.03220238
 20
49.98264973
 30
0.0
 11
41.03220238
 21
49.98264973
 31
0.0
  0
LINE
  5
96F
330
2A6
100
AcDbEntity
  8
0
  6
Continuous
 62
     7
100
AcDbLine
 10
37.53220238
 20
95.98264973
 30
0.0
 11
37.53220238
 21
96.18264973
 31
0.0
  0
LINE
  5
970
330
2A6
100
AcDbEntity
  8
0
  6
Continuous
 62
     7
100
AcDbLine
 10
37.53220238
 20
96.18264973
 30
0.0
 11
36.73220238000001
 21
96.98264973
 31
0.0
  0
LINE
  5
971
330
2A6
100
AcDbEntity
  8
0
  6
Continuous
 62
     7
100
AcDbLine
 10
14.02491729
 20
95.98264973
 30
0.0
 11
41.02491728999999
 21
95.98264973000002
 31
0.0
  0
LINE
  5
972
330
2A6
100
AcDbEntity
  8
0
  6
Continuous
 62
     7
100
AcDbLine
 10
18.33220238
 20
96.98264973
 30
0.0
 11
36.73220238000001
 21
96.98264973
 31
0.0
  0
LINE
  5
973
330
2A6
100
AcDbEntity
  8
0
  6
Continuous
 62
     7
100
AcDbLine
 10
17.53220238
 20
96.18264973
 30
0.0
 11
18.33220238
 21
96.98264973
 31
0.0
  0
LINE
  5
974
330
2A6
100
AcDbEntity
  8
0
  6
Continuous
 62
     7
100
AcDbLine
 10
17.53220238
 20
95.98264973
 30
0.0
 11
17.53220238
 21
96.18264973
 31
0.0
  0
LINE
  5
975
330
2A6
100
AcDbEntity
  8
0
  6
Continuous
 62
     7
100
AcDbLine
 10
41.03220238
 20
-14.01735027
 30
0.0
 11
14.03220238
 21
-14.01735027
 31
0.0
  0
LINE
  5
976
330
2A6
100
AcDbEntity
  8
0
  6
Continuous
 62
     7
100
AcDbLine
 10
41.03220238
 20
66.48264973
 30
0.0
 11
14.03220238
 21
66.48264973
 31
0.0
  0
LINE
  5
977
330
2A6
100
AcDbEntity
  8
0
  6
CENTER
 62
     2
100
AcDbLine
 10
42.51589205000001
 20
12.98264973
 30
0.0
 11
32.93220238000001
 21
12.98264973
 31
0.0
  0
LINE
  5
979
330
2A6
100
AcDbEntity
  8
0
  6
CENTER
 62
     2
100
AcDbLine
 10
38.03220238
 20
8.120149729999999
 30
0.0
 11
38.03220238
 21
19.83568022
 31
0.0
  0
LINE
  5
97A
330
2A6
100
AcDbEntity
  8
0
  6
CENTER
 62
     2
100
AcDbLine
 10
17.03220238
 20
18.40764973
 30
0.0
 11
17.03220238
 21
29.07265326
 31
0.0
  0
ARC
  5
97B
330
2A6
100
AcDbEntity
  8
0
  6
Continuous
 62
     7
100
AcDbCircle
 10
17.02491729
 20
22.98264973
 30
0.0
 40
3.99735444
100
AcDbArc
 50
221.5243633800002
 51
138.4756366199998
  0
ARC
  5
97C
330
2A6
100
AcDbEntity
  8
0
  6
Continuous
 62
     7
100
AcDbCircle
 10
38.02491761
 20
12.98264973
 30
0.0
 40
4.00827415
100
AcDbArc
 50
41.38629506000009
 51
318.6137049399999
  0
LINE
  5
97D
330
2A6
100
AcDbEntity
  8
0
  6
CENTER
 62
     2
100
AcDbLine
 10
27.53220238
 20
-24.01735027
 30
0.0
 11
27.53220238
 21
101.98264973
 31
0.0
  0
LINE
  5
980
330
2A6
100
AcDbEntity
  8
0
  6
CENTER
 62
     2
100
AcDbLine
 10
32.03220238
 20
38.68473038
 30
0.0
 11
32.03220238
 21
49.27162023000001
 31
0.0
  0
LINE
  5
981
330
2A6
100
AcDbEntity
  8
0
  6
CENTER
 62
     2
100
AcDbLine
 10
23.03220238
 20
-13.11540925
 30
0.0
 11
23.03220238
 21
-2.812096809999999
 31
0.0
  0
ARC
  5
988
330
2A6
100
AcDbEntity
  8
0
  6
Continuous
 62
     7
100
AcDbCircle
 10
40.53220238
 20
-19.51735027
 30
0.0
 40
0.5
100
AcDbArc
 50
270.0
 51
0.000000000000007
  0
LINE
  5
989
330
2A6
100
AcDbEntity
  8
0
  6
Continuous
 62
     7
100
AcDbLine
 10
36.61070373000001
 20
11.56843616999998
 30
0.0
 11
39.43913085000001
 21
14.39686329
 31
0.0
  0
LINE
  5
98A
330
2A6
100
AcDbEntity
  8
0
  6
Continuous
 62
     7
100
AcDbLine
 10
39.43913085000001
 20
11.56843616999998
 30
0.0
 11
36.61070373000001
 21
14.39686329
 31
0.0
  0
LINE
  5
98B
330
2A6
100
AcDbEntity
  8
0
  6
Continuous
 62
     7
100
AcDbLine
 10
18.43913085000001
 20
21.56843616999998
 30
0.0
 11
15.61070373000001
 21
24.39686329
 31
0.0
  0
LINE
  5
98C
330
2A6
100
AcDbEntity
  8
0
  6
Continuous
 62
     7
100
AcDbLine
 10
15.61070373000001
 20
21.56843616999998
 30
0.0
 11
18.43913085000001
 21
24.39686329
 31
0.0
  0
LINE
  5
98D
330
2A6
100
AcDbEntity
  8
0
  6
Continuous
 62
     7
100
AcDbLine
 10
41.02491729
 20
-19.51735027000001
 30
0.0
 11
41.02491729
 21
11.17987408999994
 31
0.0
  0
LINE
  5
98E
330
2A6
100
AcDbEntity
  8
0
  6
Continuous
 62
     7
100
AcDbLine
 10
14.02491729
 20
-19.51735027000001
 30
0.0
 11
14.02491729
 21
21.17987408999994
 31
0.0
  0
CIRCLE
  5
98F
330
2A6
100
AcDbEntity
  8
0
  6
Continuous
 62
     7
100
AcDbCircle
 10
17.02491729
 20
22.98264972999999
 30
0.0
 40
3.5
  0
CIRCLE
  5
990
330
2A6
100
AcDbEntity
  8
0
  6
Continuous
 62
     7
100
AcDbCircle
 10
38.02491729000001
 20
12.98264972999999
 30
0.0
 40
3.5
  0
LINE
  5
991
330
2A6
100
AcDbEntity
  8
0
  6
Continuous
 62
     7
100
AcDbLine
 10
14.02491729
 20
24.78542536999999
 30
0.0
 11
14.02491729
 21
95.98264973
 31
0.0
  0
LINE
  5
992
330
2A6
100
AcDbEntity
  8
0
  6
Continuous
 62
     7
100
AcDbLine
 10
41.02491729
 20
14.78542536999998
 30
0.0
 11
41.02491728999999
 21
95.98264973000002
 31
0.0
  0
LINE
  5
993
330
2A6
100
AcDbEntity
  8
0
  6
ByBlock
 62
     7
100
AcDbLine
 10
42.02491729000001
 20
63.98264972999999
 30
0.0
 11
41.02491728999999
 21
63.98264973
 31
0.0
  0
ARC
  5
994
330
2A6
100
AcDbEntity
  8
0
  6
Continuous
 62
     7
100
AcDbCircle
 10
42.53220237999999
 20
-19.51735027
 30
0.0
 40
0.5
100
AcDbArc
 50
180.0
 51
270.0
  0
LINE
  5
995
330
2A6
100
AcDbEntity
  8
0
  6
Continuous
 62
     7
100
AcDbLine
 10
42.53220237999999
 20
-20.01735027
 30
0.0
 11
68.53220238
 21
-20.01735027
 31
0.0
  0
LINE
  5
996
330
2A6
100
AcDbEntity
  8
0
  6
Continuous
 62
     7
100
AcDbLine
 10
42.03220238
 20
49.98264973
 30
0.0
 11
69.03220238
 21
49.98264973
 31
0.0
  0
LINE
  5
997
330
2A6
100
AcDbEntity
  8
0
  6
Continuous
 62
     7
100
AcDbLine
 10
65.53220238
 20
95.98264973
 30
0.0
 11
65.53220238
 21
96.18264973
 31
0.0
  0
LINE
  5
998
330
2A6
100
AcDbEntity
  8
0
  6
Continuous
 62
     7
100
AcDbLine
 10
65.53220238
 20
96.18264973
 30
0.0
 11
64.73220238
 21
96.98264973
 31
0.0
  0
LINE
  5
999
330
2A6
100
AcDbEntity
  8
0
  6
Continuous
 62
     7
100
AcDbLine
 10
42.02491729000001
 20
95.98264973
 30
0.0
 11
69.02491728999999
 21
95.98264973000002
 31
0.0
  0
LINE
  5
99A
330
2A6
100
AcDbEntity
  8
0
  6
Continuous
 62
     7
100
AcDbLine
 10
46.33220237999999
 20
96.98264973
 30
0.0
 11
64.73220238
 21
96.98264973
 31
0.0
  0
LINE
  5
99B
330
2A6
100
AcDbEntity
  8
0
  6
Continuous
 62
     7
100
AcDbLine
 10
45.53220238
 20
96.18264973
 30
0.0
 11
46.33220237999999
 21
96.98264973
 31
0.0
  0
LINE
  5
99C
330
2A6
100
AcDbEntity
  8
0
  6
Continuous
 62
     7
100
AcDbLine
 10
45.53220238
 20
95.98264973
 30
0.0
 11
45.53220238
 21
96.18264973
 31
0.0
  0
LINE
  5
99D
330
2A6
100
AcDbEntity
  8
0
  6
Continuous
 62
     7
100
AcDbLine
 10
69.03220238
 20
-14.01735027
 30
0.0
 11
42.03220238
 21
-14.01735027
 31
0.0
  0
LINE
  5
99E
330
2A6
100
AcDbEntity
  8
0
  6
Continuous
 62
     7
100
AcDbLine
 10
69.03220238
 20
66.48264973
 30
0.0
 11
42.03220238
 21
66.48264973
 31
0.0
  0
LINE
  5
99F
330
2A6
100
AcDbEntity
  8
0
  6
CENTER
 62
     2
100
AcDbLine
 10
70.51589205
 20
12.98264973
 30
0.0
 11
60.93220238
 21
12.98264973
 31
0.0
  0
LINE
  5
9A1
330
2A6
100
AcDbEntity
  8
0
  6
CENTER
 62
     2
100
AcDbLine
 10
66.03220238
 20
8.120149729999999
 30
0.0
 11
66.03220238
 21
19.83568022
 31
0.0
  0
LINE
  5
9A2
330
2A6
100
AcDbEntity
  8
0
  6
CENTER
 62
     2
100
AcDbLine
 10
45.03220237999999
 20
18.40764973
 30
0.0
 11
45.03220237999999
 21
29.07265326
 31
0.0
  0
ARC
  5
9A3
330
2A6
100
AcDbEntity
  8
0
  6
Continuous
 62
     7
100
AcDbCircle
 10
45.02491729
 20
22.98264973
 30
0.0
 40
3.99735444
100
AcDbArc
 50
221.5243633800002
 51
138.4756366199998
  0
ARC
  5
9A4
330
2A6
100
AcDbEntity
  8
0
  6
Continuous
 62
     7
100
AcDbCircle
 10
66.02491761
 20
12.98264973
 30
0.0
 40
4.00827415
100
AcDbArc
 50
41.3862950600001
 51
318.6137049399996
  0
LINE
  5
9A5
330
2A6
100
AcDbEntity
  8
0
  6
CENTER
 62
     2
100
AcDbLine
 10
55.53220238
 20
-24.01735027
 30
0.0
 11
55.53220238
 21
101.98264973
 31
0.0
  0
LINE
  5
9A8
330
2A6
100
AcDbEntity
  8
0
  6
CENTER
 62
     2
100
AcDbLine
 10
60.03220238
 20
38.68473038
 30
0.0
 11
60.03220238
 21
49.27162023000001
 31
0.0
  0
LINE
  5
9A9
330
2A6
100
AcDbEntity
  8
0
  6
CENTER
 62
     2
100
AcDbLine
 10
51.03220238
 20
-13.11540925
 30
0.0
 11
51.03220238
 21
-2.812096809999999
 31
0.0
  0
ARC
  5
9B0
330
2A6
100
AcDbEntity
  8
0
  6
Continuous
 62
     7
100
AcDbCircle
 10
68.53220238
 20
-19.51735027
 30
0.0
 40
0.5
100
AcDbArc
 50
270.0
 51
0.000000000000007
  0
LINE
  5
9B1
330
2A6
100
AcDbEntity
  8
0
  6
Continuous
 62
     7
100
AcDbLine
 10
64.61070373000001
 20
11.56843616999998
 30
0.0
 11
67.43913085000001
 21
14.39686329
 31
0.0
  0
LINE
  5
9B2
330
2A6
100
AcDbEntity
  8
0
  6
Continuous
 62
     7
100
AcDbLine
 10
67.43913085000001
 20
11.56843616999998
 30
0.0
 11
64.61070373000001
 21
14.39686329
 31
0.0
  0
LINE
  5
9B3
330
2A6
100
AcDbEntity
  8
0
  6
Continuous
 62
     7
100
AcDbLine
 10
46.43913085000001
 20
21.56843616999998
 30
0.0
 11
43.61070373000001
 21
24.39686329
 31
0.0
  0
LINE
  5
9B4
330
2A6
100
AcDbEntity
  8
0
  6
Continuous
 62
     7
100
AcDbLine
 10
43.61070373000001
 20
21.56843616999998
 30
0.0
 11
46.43913085000001
 21
24.39686329
 31
0.0
  0
LINE
  5
9B5
330
2A6
100
AcDbEntity
  8
0
  6
Continuous
 62
     7
100
AcDbLine
 10
69.02491729000001
 20
-19.51735027000001
 30
0.0
 11
69.02491729000001
 21
11.17987408999994
 31
0.0
  0
LINE
  5
9B6
330
2A6
100
AcDbEntity
  8
0
  6
Continuous
 62
     7
100
AcDbLine
 10
42.02491729000001
 20
-19.51735027000001
 30
0.0
 11
42.02491729000001
 21
21.17987408999994
 31
0.0
  0
CIRCLE
  5
9B7
330
2A6
100
AcDbEntity
  8
0
  6
Continuous
 62
     7
100
AcDbCircle
 10
45.02491729
 20
22.98264972999999
 30
0.0
 40
3.5
  0
CIRCLE
  5
9B8
330
2A6
100
AcDbEntity
  8
0
  6
Continuous
 62
     7
100
AcDbCircle
 10
66.02491729
 20
12.98264972999999
 30
0.0
 40
3.5
  0
LINE
  5
9B9
330
2A6
100
AcDbEntity
  8
0
  6
Continuous
 62
     7
100
AcDbLine
 10
42.02491729000001
 20
24.78542536999999
 30
0.0
 11
42.02491729000001
 21
95.98264973
 31
0.0
  0
LINE
  5
9BA
330
2A6
100
AcDbEntity
  8
0
  6
Continuous
 62
     7
100
AcDbLine
 10
69.02491729000001
 20
14.78542536999998
 30
0.0
 11
69.02491728999999
 21
95.98264973000002
 31
0.0
  0
LINE
  5
9BB
330
2A6
100
AcDbEntity
  8
0
  6
ByBlock
 62
     7
100
AcDbLine
 10
14.02491729000002
 20
63.98264972999999
 30
0.0
 11
13.02491728999999
 21
63.98264973
 31
0.0
  0
LINE
  5
9BC
330
2A6
100
AcDbEntity
  8
0
  6
Continuous
100
AcDbLine
 10
69.02491728999999
 20
63.98264972999999
 30
0.0
 11
83.53220238000002
 21
63.98264972999999
 31
0.0
  0
LINE
  5
9BE
330
2A6
100
AcDbEntity
  8
0
  6
CENTER
 62
     2
100
AcDbLine
 10
-146.48410795
 20
22.96807955000002
 30
0.0
 11
-156.06779762
 21
22.96807955000002
 31
0.0
  0
LINE
  5
9BF
330
2A6
100
AcDbEntity
  8
0
  6
CENTER
 62
     2
100
AcDbLine
 10
-118.49139304
 20
22.98993481999999
 30
0.0
 11
-128.07508271
 21
22.98993481999999
 31
0.0
  0
LINE
  5
9C0
330
2A6
100
AcDbEntity
  8
0
  6
CENTER
 62
     2
100
AcDbLine
 10
-90.48410795
 20
22.98264973
 30
0.0
 11
-100.06779762
 21
22.98264973
 31
0.0
  0
LINE
  5
9C1
330
2A6
100
AcDbEntity
  8
0
  6
CENTER
 62
     2
100
AcDbLine
 10
-34.48410795
 20
22.98264973
 30
0.0
 11
-44.06779761999999
 21
22.98264973
 31
0.0
  0
LINE
  5
9C2
330
2A6
100
AcDbEntity
  8
0
  6
CENTER
 62
     2
100
AcDbLine
 10
-62.49139303999999
 20
22.98993481999999
 30
0.0
 11
-72.07508270999999
 21
22.98993481999999
 31
0.0
  0
LINE
  5
9C3
330
2A6
100
AcDbEntity
  8
0
  6
CENTER
 62
     2
100
AcDbLine
 10
-6.484107949999994
 20
22.99721990999998
 30
0.0
 11
-16.06779761999999
 21
22.99721990999998
 31
0.0
  0
LINE
  5
9C4
330
2A6
100
AcDbEntity
  8
0
  6
CENTER
 62
     2
100
AcDbLine
 10
21.51589205
 20
22.98264973
 30
0.0
 11
11.93220238
 21
22.98264973
 31
0.0
  0
LINE
  5
9C5
330
2A6
100
AcDbEntity
  8
0
  6
CENTER
 62
     2
100
AcDbLine
 10
49.51589205000001
 20
22.99721990999998
 30
0.0
 11
39.93220238000001
 21
22.99721990999998
 31
0.0
  0
LINE
  5
9CA
330
2A6
100
AcDbEntity
  8
0
  6
CENTER
 62
     2
100
AcDbLine
 10
-156.46779762
 20
1.982649730000005
 30
0.0
 11
-166.4677976199999
 21
1.982649730000005
 31
0.0
  0
LINE
  5
9CB
330
2A6
100
AcDbEntity
  8
0
  6
CENTER
 62
     2
100
AcDbLine
 10
-161.4677976199999
 20
-3.017350269999994
 30
0.0
 11
-161.4677976199999
 21
6.982649730000005
 31
0.0
  0
CIRCLE
  5
9CC
330
2A6
100
AcDbEntity
  8
0
  6
Continuous
100
AcDbCircle
 10
-161.4677976199999
 20
1.982649730000005
 30
0.0
 40
3.25
  0
LINE
  5
9DD
330
2A6
100
AcDbEntity
  8
0
  6
Continuous
100
AcDbLine
 10
155.53220238
 20
63.98264973000002
 30
0.0
 11
182.53220238
 21
63.98264973
 31
0.0
  0
LINE
  5
9DE
330
2A6
100
AcDbEntity
  8
0
  6
Continuous
100
AcDbLine
 10
155.53220238
 20
-28.01735027000004
 30
0.0
 11
182.53220238
 21
-28.01735027000004
 31
0.0
  0
LINE
  5
9DF
330
2A6
100
AcDbEntity
  8
0
  6
Continuous
 62
     7
100
AcDbLine
 10
147.53220238
 20
-21.30455322058177
 30
0.0
 11
147.53220238
 21
57.26985268058179
 31
0.0
  0
LINE
  5
9E0
330
2A6
100
AcDbEntity
  8
0
  6
Continuous
 62
     7
100
AcDbLine
 10
182.53220238
 20
-28.01735027000004
 30
0.0
 11
182.53220238
 21
63.98264973
 31
0.0
  0
LINE
  5
9E6
330
2A6
100
AcDbEntity
  8
0
  6
Continuous
100
AcDbLine
 10
155.53220238
 20
63.98264973000002
 30
0.0
 11
147.53220238
 21
57.26985268058179
 31
0.0
  0
LINE
  5
9E8
330
2A6
100
AcDbEntity
  8
0
  6
Continuous
100
AcDbLine
 10
155.53220238
 20
-28.01735027000004
 30
0.0
 11
147.53220238
 21
-21.30455322058177
 31
0.0
  0
LINE
  5
9E9
330
2A6
100
AcDbEntity
  8
0
  6
CENTER
 62
     2
100
AcDbLine
 10
153.53220238
 20
17.98264972999996
 30
0.0
 11
181.53220238
 21
17.98264972999996
 31
0.0
  0
LINE
  5
9EA
330
2A6
100
AcDbEntity
  8
0
  6
CENTER
 62
     2
100
AcDbLine
 10
167.53220238
 20
3.982649729999959
 30
0.0
 11
167.53220238
 21
31.98264972999996
 31
0.0
  0
CIRCLE
  5
9F2
330
2A6
100
AcDbEntity
  8
0
 62
     2
100
AcDbCircle
 10
167.53220238
 20
17.98264972999996
 30
0.0
 40
10.477499
  0
CIRCLE
  5
9F3
330
2A6
100
AcDbEntity
  8
0
 62
     7
100
AcDbCircle
 10
167.53220238
 20
17.98264972999996
 30
0.0
 40
9.31550026
  0
LINE
  5
9F6
330
2A6
100
AcDbEntity
  8
0
  6
CENTER
 62
     2
100
AcDbLine
 10
147.53220238
 20
49.98264972999996
 30
0.0
 11
175.53220238
 21
49.98264972999996
 31
0.0
  0
LINE
  5
9F7
330
2A6
100
AcDbEntity
  8
0
  6
CENTER
 62
     2
100
AcDbLine
 10
161.53220238
 20
35.98264972999996
 30
0.0
 11
161.53220238
 21
63.98264972999996
 31
0.0
  0
CIRCLE
  5
9F8
330
2A6
100
AcDbEntity
  8
0
 62
     2
100
AcDbCircle
 10
161.53220238
 20
49.98264972999996
 30
0.0
 40
10.477499
  0
CIRCLE
  5
9F9
330
2A6
100
AcDbEntity
  8
0
 62
     7
100
AcDbCircle
 10
161.53220238
 20
49.98264972999996
 30
0.0
 40
9.31550026
  0
LINE
  5
9FA
330
2A6
100
AcDbEntity
  8
0
  6
CENTER
 62
     2
100
AcDbLine
 10
147.53220238
 20
-14.01735027000004
 30
0.0
 11
175.53220238
 21
-14.01735027000004
 31
0.0
  0
LINE
  5
9FB
330
2A6
100
AcDbEntity
  8
0
  6
CENTER
 62
     2
100
AcDbLine
 10
161.53220238
 20
-0.0173502700000441
 30
0.0
 11
161.53220238
 21
-28.01735027000005
 31
0.0
  0
CIRCLE
  5
9FC
330
2A6
100
AcDbEntity
  8
0
 62
     2
100
AcDbCircle
 10
161.53220238
 20
-14.01735027000004
 30
0.0
 40
10.477499
  0
CIRCLE
  5
9FD
330
2A6
100
AcDbEntity
  8
0
 62
     7
100
AcDbCircle
 10
161.53220238
 20
-14.01735027000004
 30
0.0
 40
9.31550026
  0
LINE
  5
A08
330
2A6
100
AcDbEntity
  8
0
  6
CENTER
 62
     2
100
AcDbLine
 10
-28.93317518999999
 20
43.98264972999999
 30
0.0
 11
-18.53533693999998
 21
43.98264972999999
 31
0.0
  0
LINE
  5
A09
330
2A6
100
AcDbEntity
  8
0
  6
CENTER
 62
     2
100
AcDbLine
 10
-28.36602037
 20
-8.017350269999999
 30
0.0
 11
-38.10217800999999
 21
-8.017350269999999
 31
0.0
  0
CIRCLE
  5
A0A
330
2A6
100
AcDbEntity
  8
0
  6
ByBlock
 62
     7
100
AcDbCircle
 10
-23.96779762
 20
43.98264972999999
 30
0.0
 40
3.725
  0
CIRCLE
  5
A0B
330
2A6
100
AcDbEntity
  8
0
  6
ByBlock
 62
     7
100
AcDbCircle
 10
-32.96779762
 20
-8.017350269999999
 30
0.0
 40
3.725
  0
CIRCLE
  5
A0C
330
2A6
100
AcDbEntity
  8
0
  6
ByBlock
 62
     7
100
AcDbCircle
 10
-23.96779762
 20
43.98264972999999
 30
0.0
 40
2.5
  0
CIRCLE
  5
A0D
330
2A6
100
AcDbEntity
  8
0
  6
ByBlock
 62
     7
100
AcDbCircle
 10
-32.96779762
 20
-8.017350269999999
 30
0.0
 40
2.5
  0
CIRCLE
  5
A0E
330
2A6
100
AcDbEntity
  8
0
  6
ByBlock
 62
     7
100
AcDbCircle
 10
-23.96779762
 20
43.98264972999999
 30
0.0
 40
1.35
  0
CIRCLE
  5
A0F
330
2A6
100
AcDbEntity
  8
0
  6
ByBlock
 62
     7
100
AcDbCircle
 10
-32.96779762
 20
-8.017350269999999
 30
0.0
 40
1.35
  0
LINE
  5
A10
330
2A6
100
AcDbEntity
  8
0
  6
CENTER
 62
     2
100
AcDbLine
 10
-0.93317519
 20
43.98264972999999
 30
0.0
 11
9.464663060000006
 21
43.98264972999999
 31
0.0
  0
LINE
  5
A11
330
2A6
100
AcDbEntity
  8
0
  6
CENTER
 62
     2
100
AcDbLine
 10
-0.3660203700000011
 20
-8.017350269999999
 30
0.0
 11
-10.10217801
 21
-8.017350269999999
 31
0.0
  0
CIRCLE
  5
A12
330
2A6
100
AcDbEntity
  8
0
  6
ByBlock
 62
     7
100
AcDbCircle
 10
4.032202380000001
 20
43.98264972999999
 30
0.0
 40
3.725
  0
CIRCLE
  5
A13
330
2A6
100
AcDbEntity
  8
0
  6
ByBlock
 62
     7
100
AcDbCircle
 10
-4.967797619999998
 20
-8.017350269999999
 30
0.0
 40
3.725
  0
CIRCLE
  5
A14
330
2A6
100
AcDbEntity
  8
0
  6
ByBlock
 62
     7
100
AcDbCircle
 10
4.032202380000001
 20
43.98264972999999
 30
0.0
 40
2.5
  0
CIRCLE
  5
A15
330
2A6
100
AcDbEntity
  8
0
  6
ByBlock
 62
     7
100
AcDbCircle
 10
-4.967797619999998
 20
-8.017350269999999
 30
0.0
 40
2.5
  0
CIRCLE
  5
A16
330
2A6
100
AcDbEntity
  8
0
  6
ByBlock
 62
     7
100
AcDbCircle
 10
4.032202380000001
 20
43.98264972999999
 30
0.0
 40
1.35
  0
CIRCLE
  5
A17
330
2A6
100
AcDbEntity
  8
0
  6
ByBlock
 62
     7
100
AcDbCircle
 10
-4.967797619999998
 20
-8.017350269999999
 30
0.0
 40
1.35
  0
LINE
  5
A18
330
2A6
100
AcDbEntity
  8
0
  6
CENTER
 62
     2
100
AcDbLine
 10
27.06682481
 20
43.98264972999999
 30
0.0
 11
37.46466306000001
 21
43.98264972999999
 31
0.0
  0
LINE
  5
A19
330
2A6
100
AcDbEntity
  8
0
  6
CENTER
 62
     2
100
AcDbLine
 10
27.63397963
 20
-8.017350269999999
 30
0.0
 11
17.89782199
 21
-8.017350269999999
 31
0.0
  0
CIRCLE
  5
A1A
330
2A6
100
AcDbEntity
  8
0
  6
ByBlock
 62
     7
100
AcDbCircle
 10
32.03220238
 20
43.98264972999999
 30
0.0
 40
3.725
  0
CIRCLE
  5
A1B
330
2A6
100
AcDbEntity
  8
0
  6
ByBlock
 62
     7
100
AcDbCircle
 10
23.03220238
 20
-8.017350269999999
 30
0.0
 40
3.725
  0
CIRCLE
  5
A1C
330
2A6
100
AcDbEntity
  8
0
  6
ByBlock
 62
     7
100
AcDbCircle
 10
32.03220238
 20
43.98264972999999
 30
0.0
 40
2.5
  0
CIRCLE
  5
A1D
330
2A6
100
AcDbEntity
  8
0
  6
ByBlock
 62
     7
100
AcDbCircle
 10
23.03220238
 20
-8.017350269999999
 30
0.0
 40
2.5
  0
CIRCLE
  5
A1E
330
2A6
100
AcDbEntity
  8
0
  6
ByBlock
 62
     7
100
AcDbCircle
 10
32.03220238
 20
43.98264972999999
 30
0.0
 40
1.35
  0
CIRCLE
  5
A1F
330
2A6
100
AcDbEntity
  8
0
  6
ByBlock
 62
     7
100
AcDbCircle
 10
23.03220238
 20
-8.017350269999999
 30
0.0
 40
1.35
  0
LINE
  5
A20
330
2A6
100
AcDbEntity
  8
0
  6
CENTER
 62
     2
100
AcDbLine
 10
55.06682481
 20
43.98264972999999
 30
0.0
 11
65.46466306000001
 21
43.98264972999999
 31
0.0
  0
LINE
  5
A21
330
2A6
100
AcDbEntity
  8
0
  6
CENTER
 62
     2
100
AcDbLine
 10
55.63397962999999
 20
-8.017350269999999
 30
0.0
 11
45.89782199
 21
-8.017350269999999
 31
0.0
  0
CIRCLE
  5
A22
330
2A6
100
AcDbEntity
  8
0
  6
ByBlock
 62
     7
100
AcDbCircle
 10
60.03220238
 20
43.98264972999999
 30
0.0
 40
3.725
  0
CIRCLE
  5
A23
330
2A6
100
AcDbEntity
  8
0
  6
ByBlock
 62
     7
100
AcDbCircle
 10
51.03220238
 20
-8.017350269999999
 30
0.0
 40
3.725
  0
CIRCLE
  5
A24
330
2A6
100
AcDbEntity
  8
0
  6
ByBlock
 62
     7
100
AcDbCircle
 10
60.03220238
 20
43.98264972999999
 30
0.0
 40
2.5
  0
CIRCLE
  5
A25
330
2A6
100
AcDbEntity
  8
0
  6
ByBlock
 62
     7
100
AcDbCircle
 10
51.03220238
 20
-8.017350269999999
 30
0.0
 40
2.5
  0
CIRCLE
  5
A26
330
2A6
100
AcDbEntity
  8
0
  6
ByBlock
 62
     7
100
AcDbCircle
 10
60.03220238
 20
43.98264972999999
 30
0.0
 40
1.35
  0
CIRCLE
  5
A27
330
2A6
100
AcDbEntity
  8
0
  6
ByBlock
 62
     7
100
AcDbCircle
 10
51.03220238
 20
-8.017350269999999
 30
0.0
 40
1.35
  0
LINE
  5
A3F
330
2A6
100
AcDbEntity
  8
0
  6
Continuous
 62
     2
100
AcDbLine
 10
187.01902535
 20
34.98264972999996
 30
0.0
 11
158.85567049
 21
34.98264972999996
 31
0.0
  0
LINE
  5
A40
330
2A6
100
AcDbEntity
  8
0
  6
DASHED
 62
     2
100
AcDbLine
 10
182.53220238
 20
26.40790072999997
 30
0.0
 11
166.53221838
 21
27.00789872999997
 31
0.0
  0
LINE
  5
A41
330
2A6
100
AcDbEntity
  8
0
  6
DASHED
100
AcDbLine
 10
182.53220238
 20
27.26390172999996
 30
0.0
 11
170.53220238
 21
27.71390172999997
 31
0.0
  0
LINE
  5
A42
330
2A6
100
AcDbEntity
  8
0
  6
DASHED
100
AcDbLine
 10
182.5322183800001
 20
42.70139972999996
 30
0.0
 11
170.53220238
 21
42.25139988000097
 31
0.0
  0
LINE
  5
A43
330
2A6
100
AcDbEntity
  8
0
  6
DASHED
 62
     2
100
AcDbLine
 10
182.5322183800001
 20
43.55740072999995
 30
0.0
 11
170.53220238
 21
43.10740012999994
 31
0.0
  0
LINE
  5
A49
330
2A6
100
AcDbEntity
  8
0
  6
Continuous
 62
     2
100
AcDbLine
 10
187.01902535
 20
0.982649729999963
 30
0.0
 11
158.85567049
 21
0.982649729999963
 31
0.0
  0
LINE
  5
A4A
330
2A6
100
AcDbEntity
  8
0
  6
DASHED
 62
     2
100
AcDbLine
 10
182.53220238
 20
-7.592099270000034
 30
0.0
 11
170.53220238
 21
-7.142100320001082
 31
0.0
  0
LINE
  5
A4B
330
2A6
100
AcDbEntity
  8
0
  6
DASHED
100
AcDbLine
 10
182.53220238
 20
-6.736098270000042
 30
0.0
 11
170.53220238
 21
-6.286098270000036
 31
0.0
  0
LINE
  5
A4C
330
2A6
100
AcDbEntity
  8
0
  6
DASHED
100
AcDbLine
 10
182.5322183800001
 20
8.701399729999963
 30
0.0
 11
170.53220238
 21
8.251399880000967
 31
0.0
  0
LINE
  5
A4D
330
2A6
100
AcDbEntity
  8
0
  6
DASHED
 62
     2
100
AcDbLine
 10
182.5322183800001
 20
9.557400729999947
 30
0.0
 11
170.53220238
 21
9.107400129999954
 31
0.0
  0
LINE
  5
A4F
330
2A6
100
AcDbEntity
  8
0
  6
DASHED
 62
     2
100
AcDbLine
 10
-149.04254662
 20
-125.0323190730133
 30
0.0
 11
-148.44254862
 21
-109.0323350730134
 31
0.0
  0
LINE
  5
A50
330
2A6
100
AcDbEntity
  8
0
  6
DASHED
100
AcDbLine
 10
-148.18654562
 20
-125.0323190730133
 30
0.0
 11
-147.58654562
 21
-109.0323190730133
 31
0.0
  0
LINE
  5
A51
330
2A6
100
AcDbEntity
  8
0
  6
DASHED
100
AcDbLine
 10
-132.74904762
 20
-125.0323350730134
 30
0.0
 11
-133.34904662
 21
-109.0323350730134
 31
0.0
  0
LINE
  5
A52
330
2A6
100
AcDbEntity
  8
0
  6
DASHED
 62
     2
100
AcDbLine
 10
-131.89304662
 20
-125.0323350730134
 30
0.0
 11
-132.49304662
 21
-109.0323350730134
 31
0.0
  0
LINE
  5
A55
330
2A6
100
AcDbEntity
  8
0
  6
Continuous
 62
     2
100
AcDbLine
 10
-112.4677976199999
 20
-128.5481626648811
 30
0.0
 11
-112.46779762
 21
-44.40711255806272
 31
0.0
  0
LINE
  5
A56
330
2A6
100
AcDbEntity
  8
0
  6
DASHED
 62
     2
100
AcDbLine
 10
-121.04254662
 20
-125.0323190730133
 30
0.0
 11
-120.44254862
 21
-109.0323350730134
 31
0.0
  0
LINE
  5
A57
330
2A6
100
AcDbEntity
  8
0
  6
DASHED
100
AcDbLine
 10
-120.18654562
 20
-125.0323190730133
 30
0.0
 11
-119.5865456199999
 21
-109.0323190730133
 31
0.0
  0
LINE
  5
A58
330
2A6
100
AcDbEntity
  8
0
  6
DASHED
100
AcDbLine
 10
-104.74904762
 20
-125.0323350730134
 30
0.0
 11
-105.3490466199999
 21
-109.0323350730134
 31
0.0
  0
LINE
  5
A59
330
2A6
100
AcDbEntity
  8
0
  6
DASHED
 62
     2
100
AcDbLine
 10
-103.89304662
 20
-125.0323350730134
 30
0.0
 11
-104.49304662
 21
-109.0323350730134
 31
0.0
  0
LINE
  5
A5A
330
2A6
100
AcDbEntity
  8
0
  6
Continuous
 62
     2
100
AcDbLine
 10
-84.46779761999996
 20
-128.5481626648811
 30
0.0
 11
-84.46779762
 21
-44.40711255806272
 31
0.0
  0
LINE
  5
A5B
330
2A6
100
AcDbEntity
  8
0
  6
DASHED
 62
     2
100
AcDbLine
 10
-93.04254661999999
 20
-125.0323190730133
 30
0.0
 11
-92.44254862
 21
-109.0323350730134
 31
0.0
  0
LINE
  5
A5C
330
2A6
100
AcDbEntity
  8
0
  6
DASHED
100
AcDbLine
 10
-92.18654562000001
 20
-125.0323190730133
 30
0.0
 11
-91.58654561999998
 21
-109.0323190730133
 31
0.0
  0
LINE
  5
A5D
330
2A6
100
AcDbEntity
  8
0
  6
DASHED
100
AcDbLine
 10
-76.74904762
 20
-125.0323350730134
 30
0.0
 11
-77.34904661999997
 21
-109.0323350730134
 31
0.0
  0
LINE
  5
A5E
330
2A6
100
AcDbEntity
  8
0
  6
DASHED
 62
     2
100
AcDbLine
 10
-75.89304662
 20
-125.0323350730134
 30
0.0
 11
-76.49304662
 21
-109.0323350730134
 31
0.0
  0
LINE
  5
A5F
330
2A6
100
AcDbEntity
  8
0
  6
Continuous
 62
     2
100
AcDbLine
 10
-56.46779761999997
 20
-128.5481626648811
 30
0.0
 11
-56.46779762
 21
-44.40711255806272
 31
0.0
  0
LINE
  5
A60
330
2A6
100
AcDbEntity
  8
0
  6
DASHED
 62
     2
100
AcDbLine
 10
-65.04254662
 20
-125.0323190730133
 30
0.0
 11
-64.44254862
 21
-109.0323350730134
 31
0.0
  0
LINE
  5
A61
330
2A6
100
AcDbEntity
  8
0
  6
DASHED
100
AcDbLine
 10
-64.18654562
 20
-125.0323190730133
 30
0.0
 11
-63.58654561999998
 21
-109.0323190730133
 31
0.0
  0
LINE
  5
A62
330
2A6
100
AcDbEntity
  8
0
  6
DASHED
100
AcDbLine
 10
-48.74904761999999
 20
-125.0323350730134
 30
0.0
 11
-49.34904661999997
 21
-109.0323350730134
 31
0.0
  0
LINE
  5
A63
330
2A6
100
AcDbEntity
  8
0
  6
DASHED
 62
     2
100
AcDbLine
 10
-47.89304662000001
 20
-125.0323350730134
 30
0.0
 11
-48.49304662
 21
-109.0323350730134
 31
0.0
  0
LINE
  5
A64
330
2A6
100
AcDbEntity
  8
0
  6
Continuous
 62
     2
100
AcDbLine
 10
-28.46779761999997
 20
-128.5481626648811
 30
0.0
 11
-28.46779762
 21
-44.40711255806272
 31
0.0
  0
LINE
  5
A65
330
2A6
100
AcDbEntity
  8
0
  6
DASHED
 62
     2
100
AcDbLine
 10
-37.04254662
 20
-125.0323190730133
 30
0.0
 11
-36.44254862
 21
-109.0323350730134
 31
0.0
  0
LINE
  5
A66
330
2A6
100
AcDbEntity
  8
0
  6
DASHED
100
AcDbLine
 10
-36.18654562000001
 20
-125.0323190730133
 30
0.0
 11
-35.58654561999998
 21
-109.0323190730133
 31
0.0
  0
LINE
  5
A67
330
2A6
100
AcDbEntity
  8
0
  6
DASHED
100
AcDbLine
 10
-20.74904762
 20
-125.0323350730134
 30
0.0
 11
-21.34904661999997
 21
-109.0323350730134
 31
0.0
  0
LINE
  5
A68
330
2A6
100
AcDbEntity
  8
0
  6
DASHED
 62
     2
100
AcDbLine
 10
-19.89304662000001
 20
-125.0323350730134
 30
0.0
 11
-20.49304662
 21
-109.0323350730134
 31
0.0
  0
LINE
  5
A69
330
2A6
100
AcDbEntity
  8
0
  6
Continuous
 62
     2
100
AcDbLine
 10
-0.4677976199999705
 20
-128.5481626648811
 30
0.0
 11
-0.467797619999999
 21
-44.40711255806272
 31
0.0
  0
LINE
  5
A6A
330
2A6
100
AcDbEntity
  8
0
  6
DASHED
 62
     2
100
AcDbLine
 10
-9.042546619999995
 20
-125.0323190730133
 30
0.0
 11
-8.442548619999996
 21
-109.0323350730134
 31
0.0
  0
LINE
  5
A6B
330
2A6
100
AcDbEntity
  8
0
  6
DASHED
100
AcDbLine
 10
-8.186545620000003
 20
-125.0323190730133
 30
0.0
 11
-7.586545619999981
 21
-109.0323190730133
 31
0.0
  0
LINE
  5
A6C
330
2A6
100
AcDbEntity
  8
0
  6
DASHED
100
AcDbLine
 10
7.250952380000001
 20
-125.0323350730134
 30
0.0
 11
6.650953380000032
 21
-109.0323350730134
 31
0.0
  0
LINE
  5
A6D
330
2A6
100
AcDbEntity
  8
0
  6
DASHED
 62
     2
100
AcDbLine
 10
8.106953379999993
 20
-125.0323350730134
 30
0.0
 11
7.506953379999998
 21
-109.0323350730134
 31
0.0
  0
LINE
  5
A6E
330
2A6
100
AcDbEntity
  8
0
  6
Continuous
 62
     2
100
AcDbLine
 10
27.53220238000003
 20
-128.5481626648811
 30
0.0
 11
27.53220238
 21
-44.40711255806272
 31
0.0
  0
LINE
  5
A6F
330
2A6
100
AcDbEntity
  8
0
  6
DASHED
 62
     2
100
AcDbLine
 10
18.95745338
 20
-125.0323190730133
 30
0.0
 11
19.55745138
 21
-109.0323350730134
 31
0.0
  0
LINE
  5
A70
330
2A6
100
AcDbEntity
  8
0
  6
DASHED
100
AcDbLine
 10
19.81345437999999
 20
-125.0323190730133
 30
0.0
 11
20.41345438000002
 21
-109.0323190730133
 31
0.0
  0
LINE
  5
A71
330
2A6
100
AcDbEntity
  8
0
  6
DASHED
100
AcDbLine
 10
35.25095238
 20
-125.0323350730134
 30
0.0
 11
34.65095338000003
 21
-109.0323350730134
 31
0.0
  0
LINE
  5
A72
330
2A6
100
AcDbEntity
  8
0
  6
DASHED
 62
     2
100
AcDbLine
 10
36.10695337999999
 20
-125.0323350730134
 30
0.0
 11
35.50695338
 21
-109.0323350730134
 31
0.0
  0
LINE
  5
A73
330
2A6
100
AcDbEntity
  8
0
  6
Continuous
 62
     2
100
AcDbLine
 10
55.53220238000003
 20
-128.5481626648811
 30
0.0
 11
55.53220238
 21
-44.40711255806272
 31
0.0
  0
LINE
  5
A74
330
2A6
100
AcDbEntity
  8
0
  6
DASHED
 62
     2
100
AcDbLine
 10
46.95745338
 20
-125.0323190730133
 30
0.0
 11
47.55745138
 21
-109.0323350730134
 31
0.0
  0
LINE
  5
A75
330
2A6
100
AcDbEntity
  8
0
  6
DASHED
100
AcDbLine
 10
47.81345437999999
 20
-125.0323190730133
 30
0.0
 11
48.41345438000002
 21
-109.0323190730133
 31
0.0
  0
LINE
  5
A76
330
2A6
100
AcDbEntity
  8
0
  6
DASHED
100
AcDbLine
 10
63.25095238
 20
-125.0323350730134
 30
0.0
 11
62.65095338000003
 21
-109.0323350730134
 31
0.0
  0
LINE
  5
A77
330
2A6
100
AcDbEntity
  8
0
  6
DASHED
 62
     2
100
AcDbLine
 10
64.10695338
 20
-125.0323350730134
 30
0.0
 11
63.50695338
 21
-109.0323350730134
 31
0.0
  0
LINE
  5
A8A
330
2A6
100
AcDbEntity
  8
0
  6
CENTER
 62
     2
100
AcDbLine
 10
-156.46779762
 20
33.98264973000001
 30
0.0
 11
-166.4677976199999
 21
33.98264973000001
 31
0.0
  0
LINE
  5
A8B
330
2A6
100
AcDbEntity
  8
0
  6
CENTER
 62
     2
100
AcDbLine
 10
-161.4677976199999
 20
28.98264973000001
 30
0.0
 11
-161.4677976199999
 21
38.98264973000001
 31
0.0
  0
CIRCLE
  5
A8C
330
2A6
100
AcDbEntity
  8
0
  6
Continuous
100
AcDbCircle
 10
-161.4677976199999
 20
33.98264973000001
 30
0.0
 40
3.25
  0
LINE
  5
A8D
330
2A6
100
AcDbEntity
  8
0
  6
CENTER
 62
     2
100
AcDbLine
 10
81.53220238000002
 20
1.982649730000005
 30
0.0
 11
71.53220238000002
 21
1.982649730000005
 31
0.0
  0
LINE
  5
A8E
330
2A6
100
AcDbEntity
  8
0
  6
CENTER
 62
     2
100
AcDbLine
 10
76.53220238000002
 20
-3.017350269999994
 30
0.0
 11
76.53220238000002
 21
6.982649730000005
 31
0.0
  0
CIRCLE
  5
A8F
330
2A6
100
AcDbEntity
  8
0
  6
Continuous
100
AcDbCircle
 10
76.53220238000002
 20
1.982649730000005
 30
0.0
 40
3.25
  0
LINE
  5
A90
330
2A6
100
AcDbEntity
  8
0
  6
CENTER
 62
     2
100
AcDbLine
 10
81.53220238000002
 20
33.98264973000001
 30
0.0
 11
71.53220238000002
 21
33.98264973000001
 31
0.0
  0
LINE
  5
A91
330
2A6
100
AcDbEntity
  8
0
  6
CENTER
 62
     2
100
AcDbLine
 10
76.53220238000002
 20
28.98264973000001
 30
0.0
 11
76.53220238000002
 21
38.98264973000001
 31
0.0
  0
CIRCLE
  5
A92
330
2A6
100
AcDbEntity
  8
0
  6
Continuous
100
AcDbCircle
 10
76.53220238000002
 20
33.98264973000001
 30
0.0
 40
3.25
  0
VIEWPORT
  5
2B9
102
{ACAD_XDICTIONARY
360
A9A
102
}
330
2A2
100
AcDbEntity
 67
     1
  8
0
  6
Continuous
100
AcDbViewport
 10
5.141671530142375
 20
3.919413318874072
 30
0.0
 40
10.98089717669643
 41
6.866422234570993
 68
     1
 69
     1
 12
5.141671530142375
 22
3.919413318874072
 13
0.0
 23
0.0
 14
10.0
 24
10.0
 15
10.0
 25
10.0
 16
0.0
 26
0.0
 36
1.0
 17
0.0
 27
0.0
 37
0.0
 42
50.0
 43
0.0
 44
0.0
 45
6.866422234570993
 50
0.0
 51
0.0
 72
   100
 90
    32800
  1

281
     0
 71
     1
 74
     0
110
0.0
120
0.0
130
0.0
111
1.0
121
0.0
131
0.0
112
0.0
122
1.0
132
0.0
 79
     0
146
0.0
  0
VIEWPORT
  5
2BC
102
{ACAD_XDICTIONARY
360
A9C
102
}
330
2A2
100
AcDbEntity
 67
     1
  8
0
  6
Continuous
100
AcDbViewport
 10
5.653750051663616
 20
3.94041662141094
 30
0.0
 40
9.046000082661784
 41
6.304666594257505
 68
     2
 69
     2
 12
0.2750015249999933
 22
-0.4499969500000134
 13
0.0
 23
0.0
 14
1.0
 24
1.0
 15
0.0
 25
0.0
 16
0.0
 26
0.0
 36
1.0
 17
0.0
 27
0.0
 37
0.0
 42
50.0
 43
0.0
 44
0.0
 45
273.2076140466927
 50
0.0
 51
0.0
 72
   100
 90
    32800
  1

281
     0
 71
     1
 74
     0
110
0.0
120
0.0
130
0.0
111
1.0
121
0.0
131
0.0
112
0.0
122
1.0
132
0.0
 79
     0
146
0.0
  0
ENDSEC
  0
SECTION
  2
OBJECTS
  0
DICTIONARY
  5
290
330
0
100
AcDbDictionary
281
     1
  3
ACAD_COLOR
350
29F
  3
ACAD_GROUP
350
291
  3
ACAD_LAYOUT
350
29D
  3
ACAD_MATERIAL
350
29E
  3
ACAD_MLINESTYLE
350
29A
  3
ACAD_PLOTSETTINGS
350
29C
  3
ACAD_PLOTSTYLENAME
350
292
  3
ACAD_TABLESTYLE
350
2A0
  3
ACDBHEADERROUNDTRIPXREC
350
A96
  3
AcDbVariableDictionary
350
2CD
  3
DWGPROPS
350
A95
  0
DICTIONARY
  5
2C0
330
286
100
AcDbDictionary
280
     1
281
     1
  3
ACAD_LAYERSTATES
360
2C1
  0
DICTIONARY
  5
8CB
330
2A6
100
AcDbDictionary
280
     1
281
     1
  3
ACAD_SORTENTS
360
8CC
  0
DICTIONARY
  5
A9A
330
2B9
100
AcDbDictionary
280
     1
281
     1
  3
ACAD_XREC_ROUNDTRIP
360
A9B
  0
DICTIONARY
  5
A9C
330
2BC
100
AcDbDictionary
280
     1
281
     1
  3
ACAD_XREC_ROUNDTRIP
360
A9D
  0
DICTIONARY
  5
29F
102
{ACAD_REACTORS
330
290
102
}
330
290
100
AcDbDictionary
281
     1
  0
DICTIONARY
  5
291
102
{ACAD_REACTORS
330
290
102
}
330
290
100
AcDbDictionary
281
     1
  0
DICTIONARY
  5
29D
102
{ACAD_REACTORS
330
290
102
}
330
290
100
AcDbDictionary
281
     1
  3
Model
350
2A9
  3
レイアウト1
350
2A5
  0
DICTIONARY
  5
29E
102
{ACAD_REACTORS
330
290
102
}
330
290
100
AcDbDictionary
281
     1
  0
DICTIONARY
  5
29A
102
{ACAD_REACTORS
330
290
102
}
330
290
100
AcDbDictionary
281
     1
  3
Standard
350
29B
  0
DICTIONARY
  5
29C
102
{ACAD_REACTORS
330
290
102
}
330
290
100
AcDbDictionary
281
     1
  0
ACDBDICTIONARYWDFLT
  5
292
102
{ACAD_REACTORS
330
290
102
}
330
290
100
AcDbDictionary
281
     1
  3
Normal
350
293
100
AcDbDictionaryWithDefault
340
293
  0
DICTIONARY
  5
2A0
102
{ACAD_REACTORS
330
290
102
}
330
290
100
AcDbDictionary
281
     1
  3
Standard
350
2A1
  0
DICTIONARY
  5
A96
102
{ACAD_REACTORS
330
290
102
}
330
290
100
AcDbDictionary
281
     1
  0
DICTIONARY
  5
2CD
102
{ACAD_REACTORS
330
290
102
}
330
290
100
AcDbDictionary
281
     1
  3
CTABLESTYLE
350
2CE
  3
DIMASSOC
350
2CF
  3
PROJECTNAME
350
2D0
  0
XRECORD
  5
A95
102
{ACAD_REACTORS
330
290
102
}
330
290
100
AcDbXrecord
280
     1
  1
DWGPROPS COOKIE
  2

  3

  4

  6

  7

  8

  9

300
=
301
=
302
=
303
=
304
=
305
=
306
=
307
=
308
=
309
=
 40
0.0677596296296296
 41
2452902.575729167
 42
2454204.720393473
  1

 90
        0
  0
DICTIONARY
  5
2C1
102
{ACAD_REACTORS
330
2C0
102
}
330
2C0
100
AcDbDictionary
281
     1
  0
SORTENTSTABLE
  5
8CC
102
{ACAD_REACTORS
330
8CB
102
}
330
8CB
100
AcDbSortentsTable
330
2A6
331
8C9
  5
8CA
331
674
  5
674
331
816
  5
816
331
5A7
  5
5A7
331
10C
  5
10C
331
838
  5
838
331
85A
  5
85A
331
87C
  5
87C
331
896
  5
896
331
716
  5
716
331
6F4
  5
6F4
331
8B8
  5
8B9
331
663
  5
663
331
827
  5
827
331
128
  5
128
331
849
  5
849
331
86B
  5
86B
331
705
  5
705
331
8A7
  5
8A8
331
F0
  5
F0
331
672
  5
672
331
814
  5
814
331
5A5
  5
5A5
331
10A
  5
10A
331
836
  5
836
331
87A
  5
87A
331
6F2
  5
6F2
331
126
  5
126
331
EE
  5
EE
331
894
  5
894
331
714
  5
714
331
8B6
  5
8B7
331
661
  5
661
331
825
  5
825
331
5B6
  5
5B6
331
106
  5
106
331
847
  5
847
331
869
  5
869
331
6E1
  5
6E1
331
703
  5
703
331
8A5
  5
8A6
331
8C7
  5
8C8
331
FF
  5
FF
331
DC
  5
DC
331
670
  5
670
331
812
  5
812
331
5A3
  5
5A3
331
108
  5
108
331
834
  5
834
331
856
  5
856
331
878
  5
878
331
6F0
  5
6F0
331
124
  5
124
331
EC
  5
EC
331
892
  5
892
331
712
  5
712
331
8B4
  5
8B5
331
65F
  5
65F
331
104
  5
104
331
DA
  5
DA
331
681
  5
681
331
823
  5
823
331
5B4
  5
5B4
331
113
  5
113
331
845
  5
845
331
867
  5
867
331
701
  5
701
331
8A3
  5
8A4
331
8C5
  5
8C6
331
FD
  5
FD
331
89
  5
89
331
810
  5
810
331
5A1
  5
5A1
331
832
  5
832
331
854
  5
854
331
876
  5
876
331
890
  5
890
331
710
  5
710
331
6EE
  5
6EE
331
8B2
  5
8B3
331
122
  5
122
331
EA
  5
EA
331
821
  5
821
331
5B2
  5
5B2
331
843
  5
843
331
865
  5
865
331
887
  5
887
331
6FF
  5
6FF
331
8A1
  5
8A1
331
8C3
  5
8C4
331
66E
  5
66E
331
155
  5
155
331
FB
  5
FB
331
87
  5
87
331
830
  5
830
331
852
  5
852
331
874
  5
874
331
88E
  5
88E
331
70E
  5
70E
331
6EC
  5
6EC
331
120
  5
120
331
8B0
  5
8B1
331
728
  5
728
331
81F
  5
81F
331
5B0
  5
5B0
331
100
  5
100
331
841
  5
841
331
863
  5
863
331
885
  5
885
331
6FD
  5
6FD
331
8C1
  5
8C2
331
71F
  5
71F
331
66C
  5
66C
331
153
  5
153
331
F9
  5
F9
331
E8
  5
E8
331
850
  5
850
331
872
  5
872
331
88C
  5
88C
331
70C
  5
70C
331
6EA
  5
6EA
331
8AE
  5
8AF
331
726
  5
726
331
67B
  5
67B
331
81D
  5
81D
331
5AE
  5
5AE
331
83F
  5
83F
331
861
  5
861
331
883
  5
883
331
71D
  5
71D
331
6FB
  5
6FB
331
8BF
  5
8C0
331
66A
  5
66A
331
2DE
  5
2DE
331
F7
  5
F7
331
82E
  5
82E
331
11E
  5
11E
331
E6
  5
E6
331
870
  5
870
331
6E8
  5
6E8
331
88A
  5
88A
331
70A
  5
70A
331
8AC
  5
8AD
331
724
  5
724
331
679
  5
679
331
81B
  5
81B
331
5AC
  5
5AC
331
83D
  5
83D
331
85F
  5
85F
331
881
  5
881
331
71B
  5
71B
331
6F9
  5
6F9
331
8BD
  5
8BE
331
668
  5
668
331
5C6
  5
5C6
331
F5
  5
F5
331
82C
  5
82C
331
84E
  5
84E
331
11C
  5
11C
331
E4
  5
E4
331
888
  5
888
331
8AA
  5
8AB
331
722
  5
722
331
677
  5
677
331
655
  5
655
331
819
  5
819
331
5AA
  5
5AA
331
10F
  5
10F
331
83B
  5
83B
331
85D
  5
85D
331
899
  5
899
331
87F
  5
87F
331
8BB
  5
8BC
331
666
  5
666
331
F3
  5
F3
331
82A
  5
82A
331
84C
  5
84C
331
86E
  5
86E
331
E2
  5
E2
331
8A8
  5
8A9
331
720
  5
720
331
8CA
  5
8A3
331
675
  5
675
331
817
  5
817
331
5A8
  5
5A8
331
10D
  5
10D
331
839
  5
839
331
85B
  5
85B
331
87D
  5
87D
331
897
  5
897
331
717
  5
717
331
6F5
  5
6F5
331
8B9
  5
8BA
331
664
  5
664
331
828
  5
828
331
84A
  5
84A
331
86C
  5
86C
331
706
  5
706
331
118
  5
118
331
F1
  5
F1
331
8C8
  5
8C9
331
673
  5
673
331
815
  5
815
331
5A6
  5
5A6
331
10B
  5
10B
331
837
  5
837
331
6F3
  5
6F3
331
127
  5
127
331
EF
  5
EF
331
895
  5
895
331
715
  5
715
331
8B7
  5
8B8
331
662
  5
662
331
107
  5
107
331
DD
  5
DD
331
826
  5
826
331
848
  5
848
331
86A
  5
86A
331
704
  5
704
331
8A6
  5
8A7
331
5B7
  5
5B7
331
116
  5
116
331
8C
  5
8C
331
671
  5
671
331
813
  5
813
331
5A4
  5
5A4
331
109
  5
109
331
835
  5
835
331
857
  5
857
331
879
  5
879
331
6F1
  5
6F1
331
125
  5
125
331
ED
  5
ED
331
893
  5
893
331
713
  5
713
331
8B5
  5
8B6
331
660
  5
660
331
105
  5
105
331
DB
  5
DB
331
824
  5
824
331
5B5
  5
5B5
331
846
  5
846
331
868
  5
868
331
6E0
  5
6E0
331
702
  5
702
331
8A4
  5
8A5
331
8C6
  5
8C7
331
FE
  5
FE
331
8A
  5
8A
331
811
  5
811
331
5A2
  5
5A2
331
833
  5
833
331
855
  5
855
331
877
  5
877
331
891
  5
891
331
711
  5
711
331
6EF
  5
6EF
331
123
  5
123
331
8B3
  5
8B4
331
65E
  5
65E
331
103
  5
103
331
EB
  5
EB
331
822
  5
822
331
5B3
  5
5B3
331
112
  5
112
331
844
  5
844
331
866
  5
866
331
6DE
  5
6DE
331
700
  5
700
331
8A2
  5
8A2
331
8C4
  5
8C5
331
66F
  5
66F
331
156
  5
156
331
FC
  5
FC
331
88
  5
88
331
5A0
  5
5A0
331
831
  5
831
331
853
  5
853
331
88F
  5
88F
331
875
  5
875
331
8B1
  5
8B2
331
820
  5
820
331
5B1
  5
5B1
331
121
  5
121
331
842
  5
842
331
864
  5
864
331
886
  5
886
331
6FE
  5
6FE
331
8A0
  5
8A0
331
80F
  5
80F
331
8C2
  5
8C3
331
66D
  5
66D
331
154
  5
154
331
FA
  5
FA
331
E9
  5
E9
331
851
  5
851
331
873
  5
873
331
88D
  5
88D
331
70D
  5
70D
331
6EB
  5
6EB
331
727
  5
727
331
5B8
  5
5B8
331
81E
  5
81E
331
5AF
  5
5AF
331
840
  5
840
331
862
  5
862
331
884
  5
884
331
6FC
  5
6FC
331
89E
  5
89E
331
71E
  5
71E
331
8C0
  5
8C1
331
66B
  5
66B
331
60D
  5
60D
331
152
  5
152
331
F8
  5
F8
331
82F
  5
82F
331
11F
  5
11F
331
E7
  5
E7
331
871
  5
871
331
88B
  5
88B
331
70B
  5
70B
331
6E9
  5
6E9
331
8AD
  5
8AE
331
725
  5
725
331
67A
  5
67A
331
5AD
  5
5AD
331
2CC
  5
2CC
331
83E
  5
83E
331
860
  5
860
331
882
  5
882
331
71C
  5
71C
331
6FA
  5
6FA
331
8BE
  5
8BF
331
669
  5
669
331
5C7
  5
5C7
331
F6
  5
F6
331
82D
  5
82D
331
84F
  5
84F
331
E5
  5
E5
331
889
  5
889
331
709
  5
709
331
8AB
  5
8AC
331
723
  5
723
331
678
  5
678
331
5AB
  5
5AB
331
83C
  5
83C
331
85E
  5
85E
331
880
  5
880
331
6F8
  5
6F8
331
89A
  5
89A
331
71A
  5
71A
331
8BC
  5
8BD
331
667
  5
667
331
609
  5
609
331
F4
  5
F4
331
82B
  5
82B
331
84D
  5
84D
331
86F
  5
86F
331
6E7
  5
6E7
331
11B
  5
11B
331
E3
  5
E3
331
8A9
  5
8AA
331
721
  5
721
331
676
  5
676
331
818
  5
818
331
5A9
  5
5A9
331
10E
  5
10E
331
83A
  5
83A
331
87E
  5
87E
331
898
  5
898
331
718
  5
718
331
6F6
  5
6F6
331
8BA
  5
8BB
331
665
  5
665
331
829
  5
829
331
84B
  5
84B
331
86D
  5
86D
331
119
  5
119
331
F2
  5
F2
  0
XRECORD
  5
A9B
102
{ACAD_REACTORS
330
A9A
102
}
330
A9A
100
AcDbXrecord
280
     1
102
SHADEPLOT
 70
     0
  0
XRECORD
  5
A9D
102
{ACAD_REACTORS
330
A9C
102
}
330
A9C
100
AcDbXrecord
280
     1
102
SHADEPLOT
 70
     0
  0
LAYOUT
  5
2A9
102
{ACAD_XDICTIONARY
360
A98
102
}
102
{ACAD_REACTORS
330
29D
102
}
330
29D
100
AcDbPlotSettings
  1

  2
DocuCentre Color f450
  4

  6

 40
0.0
 41
0.0
 42
0.0
 43
0.0
 44
0.0
 45
0.0
 46
0.0
 47
0.0
 48
0.0
 49
0.0
140
0.0
141
0.0
142
1.0
143
1.0
 70
  1712
 72
     0
 73
     0
 74
     0
  7

 75
     0
147
1.0
148
0.0
149
0.0
100
AcDbLayout
  1
Model
 70
     1
 71
     0
 10
0.0
 20
0.0
 11
12.0
 21
9.0
 12
0.0
 22
0.0
 32
0.0
 14
0.0
 24
0.0
 34
0.0
 15
0.0
 25
0.0
 35
0.0
146
0.0
 13
0.0
 23
0.0
 33
0.0
 16
1.0
 26
0.0
 36
0.0
 17
0.0
 27
1.0
 37
0.0
 76
     0
330
2A6
  0
LAYOUT
  5
2A5
102
{ACAD_XDICTIONARY
360
2C3
102
}
102
{ACAD_REACTORS
330
29D
102
}
330
29D
100
AcDbPlotSettings
  1

  2
DocuCentre Color f450
  4
A4
  6

 40
4.857749938964843
 41
4.942390441894531
 42
4.942413330078125
 43
4.857757568359375
 44
209.9733276367187
 45
297.0106506347656
 46
0.0
 47
0.0
 48
0.0
 49
0.0
140
0.0
141
0.0
142
1.0
143
1.0
 70
   688
 72
     0
 73
     1
 74
     5
  7

 75
    16
147
1.0
148
0.0
149
0.0
100
AcDbLayout
  1
レイアウト1
 70
     0
 71
     1
 10
-0.1912502979669045
 20
-0.1912499975970411
 11
11.50208240418922
 21
8.075416444793461
 12
0.0
 22
0.0
 32
0.0
 14
1.130750010332723
 24
0.7880833242821881
 34
0.0
 15
10.17675009299451
 25
7.092749918539693
 35
0.0
146
0.0
 13
0.0
 23
0.0
 33
0.0
 16
1.0
 26
0.0
 36
0.0
 17
0.0
 27
1.0
 37
0.0
 76
     0
330
2A2
331
2B9
1001
ACAD_PSEXT
1000
DocuCentre Color f450
1000
FX DocuCentre Color f450
1000
192.168.41.214
1000

1070
     0
  0
MLINESTYLE
  5
29B
102
{ACAD_REACTORS
330
29A
102
}
330
29A
100
AcDbMlineStyle
  2
STANDARD
 70
     0
  3

 62
   256
 51
90.0
 52
90.0
 71
     2
 49
0.5
 62
   256
  6
BYLAYER
 49
-0.5
 62
   256
  6
BYLAYER
  0
ACDBPLACEHOLDER
  5
293
102
{ACAD_REACTORS
330
292
102
}
330
292
  0
TABLESTYLE
  5
2A1
102
{ACAD_REACTORS
330
2A0
102
}
330
2A0
100
AcDbTableStyle
  3
Standard
 70
     0
 71
     0
 40
0.06
 41
0.06
280
     0
281
     0
  7
Standard
140
0.18
170
     2
 62
     0
 63
     7
283
     0
274
    -2
284
     1
 64
     0
275
    -2
285
     1
 65
     0
276
    -2
286
     1
 66
     0
277
    -2
287
     1
 67
     0
278
    -2
288
     1
 68
     0
279
    -2
289
     1
 69
     0
  7
Standard
140
0.25
170
     5
 62
     0
 63
     7
283
     0
274
    -2
284
     1
 64
     0
275
    -2
285
     1
 65
     0
276
    -2
286
     1
 66
     0
277
    -2
287
     1
 67
     0
278
    -2
288
     1
 68
     0
279
    -2
289
     1
 69
     0
  7
Standard
140
0.18
170
     5
 62
     0
 63
     7
283
     0
274
    -2
284
     1
 64
     0
275
    -2
285
     1
 65
     0
276
    -2
286
     1
 66
     0
277
    -2
287
     1
 67
     0
278
    -2
288
     1
 68
     0
279
    -2
289
     1
 69
     0
  0
DICTIONARYVAR
  5
2CE
102
{ACAD_REACTORS
330
2CD
102
}
330
2CD
100
DictionaryVariables
280
     0
  1
STANDARD
  0
DICTIONARYVAR
  5
2CF
102
{ACAD_REACTORS
330
2CD
102
}
330
2CD
100
DictionaryVariables
280
     0
  1
1
  0
DICTIONARYVAR
  5
2D0
102
{ACAD_REACTORS
330
2CD
102
}
330
2CD
100
DictionaryVariables
280
     0
  1

  0
DICTIONARY
  5
A98
330
2A9
100
AcDbDictionary
280
     1
281
     1
  3
ACAD_XREC_ROUNDTRIP
360
A99
  0
DICTIONARY
  5
2C3
330
2A5
100
AcDbDictionary
280
     1
281
     1
  3
ACAD_XREC_ROUNDTRIP
360
A97
  3
ADSK_XREC_LAYOUTTHUMBNAIL
360
2C4
  0
XRECORD
  5
A99
102
{ACAD_REACTORS
330
A98
102
}
330
A98
100
AcDbXrecord
280
     1
102
SHADEPLOT
 70
     0
102
SHADEPLOTRESLEVEL
 70
     2
102
SHADEPLOTCUSTOMDPI
 70
   300
  0
XRECORD
  5
A97
102
{ACAD_REACTORS
330
2C3
102
}
330
2C3
100
AcDbXrecord
280
     1
102
SHADEPLOT
 70
     0
102
SHADEPLOTRESLEVEL
 70
     2
102
SHADEPLOTCUSTOMDPI
 70
   300
  0
XRECORD
  5
2C4
102
{ACAD_REACTORS
330
2C3
102
}
330
2C3
100
AcDbXrecord
280
     1
310
28000000B40000007F00000001000800000000004C590000000000000000000000010000000000000000000000000000FFFFFF000000000000000000000000000000000000000000000000000000000000000000330000006600000099000000CC000000FF00000000330000333300006633000099330000CC330000FF3300
310
0000660000336600006666000099660000CC660000FF66000000990000339900006699000099990000CC990000FF99000000CC000033CC000066CC000099CC0000CCCC0000FFCC000000FF000033FF000066FF000099FF0000CCFF0000FFFF000000003300330033006600330099003300CC003300FF003300003333003333
310
33006633330099333300CC333300FF33330000663300336633006666330099663300CC663300FF66330000993300339933006699330099993300CC993300FF99330000CC330033CC330066CC330099CC3300CCCC3300FFCC330000FF330033FF330066FF330099FF3300CCFF3300FFFF330000006600330066006600660099
310
006600CC006600FF00660000336600333366006633660099336600CC336600FF33660000666600336666006666660099666600CC666600FF66660000996600339966006699660099996600CC996600FF99660000CC660033CC660066CC660099CC6600CCCC6600FFCC660000FF660033FF660066FF660099FF6600CCFF6600
310
FFFF660000009900330099006600990099009900CC009900FF00990000339900333399006633990099339900CC339900FF33990000669900336699006666990099669900CC669900FF66990000999900339999006699990099999900CC999900FF99990000CC990033CC990066CC990099CC9900CCCC9900FFCC990000FF99
310
0033FF990066FF990099FF9900CCFF9900FFFF99000000CC003300CC006600CC009900CC00CC00CC00FF00CC000033CC003333CC006633CC009933CC00CC33CC00FF33CC000066CC003366CC006666CC009966CC00CC66CC00FF66CC000099CC003399CC006699CC009999CC00CC99CC00FF99CC0000CCCC0033CCCC0066CC
310
CC0099CCCC00CCCCCC00FFCCCC0000FFCC0033FFCC0066FFCC0099FFCC00CCFFCC00FFFFCC000000FF003300FF006600FF009900FF00CC00FF00FF00FF000033FF003333FF006633FF009933FF00CC33FF00FF33FF000066FF003366FF006666FF009966FF00CC66FF00FF66FF000099FF003399FF006699FF009999FF00CC
310
99FF00FF99FF0000CCFF0033CCFF0066CCFF0099CCFF00CCCCFF00FFCCFF0000FFFF0033FFFF0066FFFF0099FFFF00CCFFFF00FFFFFF00000000000D0D0D001A1A1A00282828003535350043434300505050005D5D5D006B6B6B00787878008686860093939300A1A1A100AEAEAE00BBBBBB00C9C9C900D6D6D600E4E4E400
310
F1F1F100FFFFFF0000000000000000000000000000000000000000000000000000000000000000000000000000000000EFF5F5F5F5F5F5F5F5F5F5F5F5F5F5F5F5F5F5F5F5F5F5F5F5F5F5F5F5F5F5F5F5F5F5F5F5F5F5F5F5F5F5F5F5F5F5F5F5F5F5F5F5F5F5F5F5F5F5F5F5F5F5F5F5F5F5F5F5F5F5F5F5F5F5F5F5F5F5
310
F5F5F5F5F5F5F5F5F5F5F5F5F5F5F5F5F5F5F5F5F5F5F5F5F5F5F5F5F5F5F5F5F5F5F5F5F5F5F5F5F5F5F5F5F5F5F5F5F5F5F5F5F5F5F5F5F5F5F5F5F5F5F5F5F5F5F5F5F5F5F5F5F5F5F5F5F5F5F5F5F5F5F5F5F5F5F5F5F5F5F5F5F5F5F5F5F5F5F5F5F5EFF5E2E2E2E2E2E2E2E2E2E2E2E2E2E2E2E2E2E2E2E2E2E2E2E2
310
E2E2E2E2E2E2E2E2E2E2E2E2E2E2E2E2E2E2E2E2E2E2E2E2E2E2E2E2E2E2E2E2E2E2E2E2E2E2E2E2E2E2E2E2E2E2E2E2E2E2E2E2E2E2E2E2E2E2E2E2E2E2E2E2E2E2E2E2E2E2E2E2E2E2E2E2E2E2E2E2E2E2E2E2E2E2E2E2E2E2E2E2E2E2E2E2E2E2E2E2E2E2E2E2E2E2E2E2E2E2E2E2E2E2E2E2E2E2E2E2E2E2E2E2E2E2E2
310
E2E2E2E2E2E2E2E2E2E2E2E2E2E2E2E2E2E2E2E2E2E2E2E2E2F5F5EFF5E2E2E2E2E2E2E2E2E2E2E2E2E2E2E2E2E2E2E2E2E2E2E2E2E2E2E2E2E2E2E2E2E2E2E2E2E2E2E2E2E2E2E2E2E2E2E2E2E2E2E2E2E2E2E2E2E2E2E2E2E2E2E2E2E2E2E2E2E2E2E2E2E2E2E2E2E2E2E2E2E2E2E2E2E2E2E2E2E2E2E2E2E2E2E2E2E2E2
310
E2E2E2E2E2E2E2E2E2E2E2E2E2E2E2E2E2E2E2E2E2E2E2E2E2E2E2E2E2E2E2E2E2E2E2E2E2E2E2E2E2E2E2E2E2E2E2E2E2E2E2E2E2E2E2E2E2E2E2E2E2E2E2E2E2E2E2E2E2E2E2E2E2E2E2E2E2E2F5F5EFF5E2E2F5F5F5F5F5F5F5F5E2E2E2E2E2E2E2E2E2F5F5F5F5F5F5F5F5F5F5F5F5F5F5F5F5E2E2E2E2E2E2E2E2E2F5
310
F5F5F5F5F5F5F5F5F5F5F5F5F5F5E2E2E2E2E2E2E2E2E2F5F5F5F5F5F5F5F5F5F5F5F5F5F5F5F5E2E2E2E2E2E2E2E2F5F5F5F5F5F5F5F5F5F5F5F5F5F5F5F5E2E2E2E2E2E2E2E2E2F5F5F5F5F5F5F5F5F5F5F5F5F5F5F5E2E2E2E2E2E2E2E2E2F5F5F5F5F5F5F5F5F5F5F5F5F5F5F5F5E2E2E2E2E2E2E2E2E2F5F5F5F5F5F5
310
F5F5E2E2F5F5EFF5E2E2F5E2E2E2E2E2E2E2E2E2E2E2E2E2E2E2E2E2E2E2E2E2E2E2E2E2E2E2E2E2E2E2E2E2E2E2E2E2E2E2E2E2E2E2E2E2E2E2E2E2E2E2E2E2E2E2E2E2E2E2E2E2E2E2E2E2E2E2E2E2E2E2E2E2E2E2E2E2E2E2E2E2E2E2E2E2E2E2E2E2E2E2E2E2E2E2E2E2E2E2E2E2E2E2E2E2E2E2E2E2E2E2E2E2E2E2E2
310
E2E2E2E2E2E2E2E2E2E2E2E2E2E2E2E2E2E2E2E2E2E2E2E2E2E2E2E2E2E2E2E2E2E2E2E2E2E2E2E2E2E2E2E2E2E2E2E2E2E2E2E2E2E2F5E2E2F5F5EFF5E2E2F5E2E2E2E2E2E2E2E2E2E2E2E2E2E2E2E2E2E2E2E2E2E2E2E2E2E2E2E2E2E2E2E2E2E2E2E2E2E2E2E2E2E2E2E2E2E2E2E2E2E2E2E2E2E2E2E2E2E2E2E2E2E2E2
310
E2E2E2E2E2E2E2E2E2E2E2E2E2E2E2E2E2E2E2E2E2E2E2E2E2E2E2E2E2E2E2E2E2E2E2E2E2E2E2E2E2E2E2E2E2E2E2E2E2E2E2E2E2E2E2E2E2E2E2E2E2E2E2E2E2E2E2E2E2E2E2E2E2E2E2E2E2E2E2E2E2E2E2E2E2E2E2E2E2E2E2E2E2E2E2E2E2E2E2E2E2E2E2E2E2E2E2F5E2E2F5F5EFF5E2E2F5E2E2E2E2E2E2E2E2E2E2
310
E2E2E2E2E2E2E2E2E2E2E2E2E2E2E2E2E2E2E2E2E2E2E2E2E2E2E2E2E2E2E2E2E2E2E2E2E2E2E2E2E2E2E2E2E2E2E2E2E2E2E2E2E2E2E2E2E2E2E2E2E2E2E2E2E2E2E2E2E2E2E2E2E2E2E2E2E2E2E2E2E2E2E2E2E2E2E2E2E2E2E2E2E2E2E2E2E2E2E2E2E2E2E2E2E2E2E2E2E2E2E2E2E2E2E2E2E2E2E2E2E2E2E2E2E2E2E2
310
E2E2E2E2E2E2E2E2E2E2E2E2E2E2E2E2E2E2E2E2E2E2E2E2E2E2E2E2E2E2E2E2E2F5E2E2F5F5EFF5E2E2F5E2E2E2E2E2E2E2E2E2E2E2E2E2E2E2E2E2E2E2E2E2E2E2E2E2E2E2E2E2E2E2E2E2E2E2E2E2E2E2E2E2E2E2E2E2E2E2E2E2E2E2E2E2E2E2E2E2E2E2E2E2E2E2E2E2E2E2E2E2E2E2E2E2E2E2E2E2E2E2E2E2E2E2E2
310
E2E2E2E2E2E2E2E2E2E2E2E2E2E2E2E2E2E2E2E2E2E2E2E2E2E2E2E2E2E2E2E2E2E2E2E2E2E2E2E2E2E2E2E2E2E2E2E2E2E2E2E2E2E2E2E2E2E2E2E2E2E2E2E2E2E2E2E2E2E2E2E2E2E2E2E2E2E2E2E2E2E2E2E2E2E2F5E2E2F5F5EFF5E2E2F5E2E2E2E2E2E2E2E2E2E2E2E2E2E2E2E2E2E2E2E2E2E2E2E2E2E2E2E2E2E2E2
310
E2E2E2E2E2E2E2E2E2E2E2E2E2E2E2E2E2E2E2E2E2E2E2E2E2E2E2E2E2E2E2E2E2E2E2E2E2E2E2E2E2E2E2E2E2E2E2E2E2E2E2E2E2E2E2E2E2E2E2E2E2E2E2E2E2E2E2E2E2E2E2E2E2E2E2E2E2E2E2E2E2E2E2E2E2E2E2E2E2E2E2E2E2E2E2E2E2E2E2E2E2E2E2E2E2E2E2E2E2E2E2E2E2E2E2E2E2E2E2E2E2E2E2E2E2E2E2
310
E2E2E2E2E2E2E2E2E2E2E2E2F5E2E2F5F5EFF5E2E2F5E2E2E2E2E2E2E2E2E2E2E2E2E2E2E2E2E2E2E2E2E2E2E2E2E2E2E2E2E2E2E2E2E2E2E2E2E2E2E2E2E2E2E2E2E2E2E2E2E2E2E2E2E2E2E2E2E2E2E2E2E2E2E2E2E2E2E2E2E2E2E2E2E2E2E2E2E2E2E2E2E2E2E2E2E2E2E2E2E2E2E2E2E2E2E2E2E2E2E2E2E2E2E2E2E2
310
E2E2E2E2E2E2E2E2E2E2E2E2E2E2E2E2E2E2E2E2E2E2E2E2E2E2E2E2E2E2E2E2E2E2E2E2E2E2E2E2E2E2E2E2E2E2E2E2E2E2E2E2E2E2E2E2E2E2E2E2E2E2E2E2E2F5E2E2F5F5EFF5E2E2F5E2E2E2E2E2E2E2E2E2E2E2E2E2E2E2E2E2E2E2E2E2E2E2E2E2E2E2E2E2E2E2E2E2E2E2E2E2E2E2E2E2E2E2E2E2E2E2E2E2E2E2E2
310
E2E2E2E2E2E2E2E2E2E2E2E2E2E2E2E2E2E2E2E2E2E2E2E2E2E2E2E2E2E2E2E2E2E2E2E2E2E2E2E2E2E2E2E2E2E2E2E2E2E2E2E2E2E2E2E2E2E2E2E2E2E2E2E2E2E2E2E2E2E2E2E2E2E2E2E2E2E2E2E2E2E2E2E2E2E2E2E2E2E2E2E2E2E2E2E2E2E2E2E2E2E2E2E2E2E2E2E2E2E2E2E2E2E2E2E2E2E2F5E2E2F5F5EFF5E2E2
310
E2E2E2E2E2E2E2E2E2E2E2E2E2E2E2E2E2E2E2E2E2E2E2E2E2E2E2E2E2E2E2E2E2E2E2E2E2E2E2E2E2E2E2E2E2E2E2E2E2E2E2E2E2E2E2E2E2E2E2E2E2E2E2E2E2E2E2E2E2E2E2E2E2E2E2E2E2E2E2E2E2E2E2E2E2E2E2E2E2E2E2E2E2E2E2E2E2E2E2E2E2E2E2E2E2E2E2E2E2E2E2E2E2E2E2E2E2E2E2E2E2E2E2E2E2E2E2
310
E2E2E2E2E2E2E2E2E2E2E2E2E2E2E2E2E2E2E2E2E2E2E2E2E2E2E2E2E2E2E2E2E2E2E2E2E2E2E2E2E2E2E2E2E2E2E2F5F5EFF5E2E2E2E2E2E2E2E2E2E2E2E2E2E2E2E2E2E2E2E2E2E2E2E2E2E2E2E2E2E2E2E2E2E2E2E2E2E2E2E2E2E2E2E2E2E2E2E2E2E2E2E2E2E2E2E2E2E2E2E2E2E2E2E2E2E2E2E2E2E2E2E2E2E2E2E2
310
E2E2E2E2E2E2E2E2E2E2E2E2E2E2E2E2E2E2E2E2E2E2E2E2E2E2E2E2E2E2E2E2E2E2E2E2E2E2E2E2E2E2E2E2E2E2E2E2E2E2E2E2E2E2E2E2E2E2E2E2E2E2E2E2E2E2E2E2E2E2E2E2E2E2E2E2E2E2E2E2E2E2E2E2E2E2E2E2E2E2E2E2E2E2E2E2E2E2E2E2F5F5EFF5E2E2E2E2E2E2E2E2E2E2E2E2E2E2E2E2E2E2E2E2E2E2E2
310
E2E2E2E2E2E2E2E2E2E2E2E2E2E2E2E2E2E2E2E2E2E2E2E2E2E2E2E2E2E2E2E2E2E2E2E2E2E2E2E2E2E2E2E2E2E2E2E2E2E2E2E2E2E2E2E2E2E2E2E2E2E2E2E2E2E2E2E2E2E2E2E2E2E2E2E2E2E2E2E2E2E2E2E2E2E2E2E2E2E2E2E2E2E2E2E2E2E2E2E2E2E2E2E2E2E2E2E2E2E2E2E2E2E2E2E2E2E2E2E2E2E2E2E2E2E2E2
310
E2E2E2E2E2E2E2E2E2E2E2E2E2E2E2E2E2E2E2E2E2E2E2E2E2E2F5F5EFF5E2E2E2E2E2E2E2E2E2E2E2E2E2E2E2E2E2E2E2E2E2E2E2E2E2E2E2E2E2E2E2E2E2E2E2E2E2E2E2E2E2E2E2E2E2E2E2E2E2E2E2E2E2E2E2E2E2E2E2E2E2E2E2E2E2E2E2E2E2E2E2E2E2E2E2E2E2E2E2E2E2E2E2E2E2E2E2E2E2E2E2E2E2E2E2E2E2
310
E2E2E2E2E2E2E2E2E2E2E2E2E2E2E2E2E2E2E2E2E2E2E2E2E2E2E2E2E2E2E2E2E2E2E2E2E2E2E2E2E2E2E2E2E2E2E2E2E2E2E2E2E2E2E2E2E2E2E2E2E2E2E2E2E2E2E2E2E2E2E2E2E2E2E2E2E2E2E2F5F5EFF5E2E2E2E2E2E2E2E2E2E2E2E2E2E2E2E2E2E2E2F5F5F5F5F5F5F5F5F5F5F5F5F5F5F5F5F5F5F5F5F5F5F5F5F5
310
F5F5F5F5F5F5F5F5F5F5F5F5F5F5F5F5F5F5F5F5F5F5F5F5F5F5F5F5F5F5F5F5F5F5F5F5F5F5F5F5F5F5F5F5F5F5F5F5F5F5F5F5F5F5F5F5F5F5F5F5F5F5F5F5F5F5F5F5F5F5F5F5F5F5F5F5F5F5F5F5F5F5F5F5F5F5F5F5F5F5F5F5F5F5F5F5F5F5F5F5F5F5F5F5F5F5F5F5F5F5F5F5F5E2E2E2E2E2E2E2E2E2E2E2E2E2E2
310
E2E2E2E2E2F5F5EFF5E2E2E2E2E2E2E2E2E2E2E2E2E2E2E2E2E2E2E2F5F5F5F5F5F5F5F5F5F5F5F5F5F5F5F5F5F5F5F5F5F5F5F5F5F5F5F5F5F5F5F5F5F5F5F5F5F5F5F5F5F5F5F5F5F5F5F5F5F5F5F5F5F5F5F5F5F5F5F5F5F5F5F5F5F5F5F5F5F5F5F5F5F5F5F5F5F5F5F5F5F5F5F5F5F5F5F5F5F5F5F5F5F5F5F5F5F5F5
310
F5F5F5F5F5F5F5F5F5F5F5F5F5F5F5F5F5F5F5F5F5F5F5F5F5F5F5F5F5F5F5F5F5F5F5F5F5F5F5E2E2E2E2E2E2E2E2E2E2E2E2E2E2E2E2E2E2E2F5F5EFF5E2E2E2E2E2E2E2E2E2E2E2E2E2E2E2E2E2E2E2F5E2E2E2E2E2E2E2E2E2E2E2E2E2E2E2E2E2E2E2E2E2E2E2E2E2E2E2E2E2E2E2E2E2E2E2E2E2E2E2E2E2E2E2E2E2
310
E2E2E2E2E2E2E2E2E2E2E2E2E2E2E2E2E2E2E2E2E2E2E2E2E2E2E2E2E2E2E2E2E2E2E2E2E2E2E2E2E2E2E2E2E2E2E2E2E2E2E2E2E2E2E2E2E2E2E2E2E2E2E2E2E2E2E2E2E2E2E2E2E2E2E2E2E2E2E2E2E2E2E2E2E2E2E2E2E2E2E2F5E2E2E2E2E2E2E2E2E2E2E2E2E2E2E2E2E2E2E2F5F5EFF5E2E2E2E2E2E2E2E2E2E2E2E2
310
E2E2E2E2E2E2E2F5E2E2E2E2E2E2E2E2E2E2E2E2E2E2E2E2E2E2DCE2E2E2E2E2E2E2E2E2DCE2E2E2E2E2E2E2E2E2DCE2E2E2E2E2E2E2E2E2DCE2E2E2E2E2E2E2E2DCE2E2E2E2E2E2E2E2E2DCE2E2E2E2E2E2E2E2E2DCE2E2E2E2E2E2E2E2E2DCE2E2E2E2E2E2E2E2E2E2E2E2E2E2E2E2E2E2E2E2E2E2E2E2E2E2E2E2E2E2E2
310
E2E2E2E2E2E2E2E2E2E2E2E2E2E2E2E2E2F5E2E2E2E2E2E2E2E2E2E2E2E2E2E2E2E2E2E2E2F5F5EFF5E2E2E2E2E2E2E2E2E2E2E2E2E2E2E2E2E2E2E2F5E2E2E2E2E2E2E2E2F5F5F5F5F5F5F5F5F5F5F5F5F5DCF5F5F5F5F5F5DCF5F5DCF5F5F5F5F5F5DCF5F5DCF5F5F5F5F5F5DCF5F5DCF5F5DCF5F5DCF5F5DCF5F5F5DCF5
310
F5DCF5F5DCF5F5F5F5F5F5DCF5F5DCF5F5F5F5F5F5DCF5F5DCF5F5F5F5F5F5F5E2E2E2E2E2E2E2E2E2E2E2E2E2E2E2E2E2E2E2E2E2E2E2E2E2E2E2E2E2E2E2E2E2E2E2E2E2E2F5E2E2E2E2E2E2E2E2E2E2E2E2E2E2E2E2E2E2E2F5F5EFF5E2E2F5E2E2E2E2E2E2E2E2E2E2E2E2E2E2E2E2F5E2E2E2E2E2E2E2E2F5E2E2E2E2
310
E2E2DCF5E2DCE2E2DCE2E2E2F5E2E2DCE2E2DCE2E2E2F5E2E2DCE2F5DCE2E2E2F5E2E2DCE2F5DCE2E2DCF5E2DCE2E2DCE2E2E2DCF5E2DCE2E2DCE2E2E2F5E2E2DCE2E2DCE2E2E2F5E2E2DCE2E2DCE2E2E2E2E2E2F5E2E2E2E2E2E2E2E2E2E2E2E2E2E2E2E2E2E2E2E2E2E2E2E2E2E2E2E2E2E2E2E2E2E2E2E2E2E2F5E2E2E2
310
E2E2E2E2E2E2E2E2E2E2E2E2E2F5E2E2F5F5EFF5E2E2F5E2E2E2E2E2E2E2E2E2E2E2E2E2E2E2E2F5E2E2E2E2E2E2E2E2F5E2E2E2E2E2E2DCF5E2DCE2E2DCE2E2E2F5E2E2DCE2E2DCE2E2E2F5E2E2DCE2F5DCE2E2E2F5E2E2DCE2F5DCE2E2DCF5E2DCE2E2DCE2E2E2DCF5E2DCE2E2DCE2E2E2F5E2E2DCE2E2DCE2E2E2F5E2E2
310
DCE2F5DCE2E2E2E2E2E2F5E2E2E2E2E2E2E2E2E2E2E2E2E2E2E2E2E2E2E2E2E2E2E2E2E2E2E2E2E2E2E2E2E2E2E2E2E2E2F5E2E2E2E2E2E2E2E2E2E2E2E2E2E2E2E2F5E2E2F5F5EFF5E2E2F5E2E2E2E2E2E2E2E2E2E2E2E2E2E2E2E2F5E2E2E2E2E2E2E2E2F5E2E2E2E2E2E2DCF5E2DCE2E2DCE2E2E2F5E2E2DCE2E2DCE2E2
310
E2F5E2E2DCE2F5DCE2E2E2F5E2E2DCE2F5DCE2E2E2F5E2DCE2E2DCE2E2E2DCF5E2DCE2E2DCE2E2E2F5E2E2DCE2E2DCE2E2E2F5E2E2DCE2F5DCE2E2E2E2E2E2F5E2E2E2E2E2E2E2E2E2E2E2E2E2E2E2E2E2E2E2E2E2E2E2E2E2E2E2E2E2E2E2E2E2E2E2E2E2E2F5E2E2E2E2E2E2E2E2E2E2E2E2E2E2E2E2F5E2E2F5F5EFF5E2
310
E2F5E2E2E2E2E2E2E2E2E2E2E2E2E2E2E2E2F5E2E2E2E2E2E2E2E2F5E2E2E2E2E2E2DCF5E2DCE2E2DCE2E2E2F5E2E2DCE2E2DCE2E2E2F5E2E2DCE2F5DCE2E2E2F5E2E2DCE2DCE2E2E2E2F5E2DCE2E2DCE2E2E2DCF5E2DCE2E2DCE2E2E2F5E2E2DCE2E2DCE2E2E2F5E2E2DCE2F5DCE2E2E2E2E2E2F5E2E2E2E2E2E2E2E2E2E2
310
E2E2E2E2E2E2E2E2E2E2E2E2E2E2E2E2E2E2E2E2E2E2E2E2E2E2E2E2F5E2E2E2E2E2E2E2E2E2E2E2E2E2E2E2E2F5E2E2F5F5EFF5E2E2F5E2E2E2E2E2E2E2E2E2E2E2E2E2E2E2E2F5E2E2E2E2E2E2E2E2F5E2E2E2E2E2E2DCF5E2DCE2E2DCE2E2E2F5E2E2DCE2E2DCE2E2E2F5E2E2DCE2F5DCE2E2E2F5E2E2DCE2DCE2E2E2E2
310
F5E2DCE2E2DCE2E2E2DCF5E2DCE2E2DCE2E2E2DCF5E2DCE2E2DCE2E2E2F5E2E2DCE2F5DCE2E2E2E2E2E2F5E2E2E2E2E2E2E2E2E2E2E2E2E2E2E2E2E2E2E2E2E2E2E2E2E2E2E2E2E2E2E2E2E2E2E2E2E2E2F5E2E2E2E2E2E2E2E2E2E2E2E2E2E2E2E2F5E2E2F5F5EFF5E2E2F5E2E2E2E2E2E2E2E2E2E2E2E2E2E2E2E2F5E2E2
310
E2E2E2E2E2E2F5E2E2E2E2E2E2DCF5E2DCE2E2DCE2E2E2DCF5E2DCE2F5DCE2E2E2F5E2E2DCE2F5DCE2E2E2F5E2E2DCE2DCE2E2E2E2F5E2DCE2E2DCE2E2E2DCF5E2DCE2E2DCE2E2E2DCF5E2DCE2E2DCE2E2E2F5E2E2DCE2F5DCE2E2E2E2E2E2F5E2E2E2E2E2E2E2E2E2E2E2E2E2E2E2E2E2E2E2E2E2E2E2E2E2E2E2E2E2E2E2
310
E2E2E2E2E2E2E2F5E2E2E2E2E2E2E2E2E2E2E2E2E2E2E2E2F5E2E2F5F5EFF5E2E2F5E2E2E2E2E2E2E2E2E2E2E2E2E2E2E2E2F5E2E2E2E2E2E2E2E2F5E2E2E2E2E2E2E2E2E2DCE2E2E2E2E2E2E2E2E2DCE2E2E2E2E2E2E2E2E2DCE2E2E2E2E2E2E2E2E2DCE2E2E2E2E2E2E2E2DCE2E2E2E2E2E2E2E2E2DCE2E2E2E2E2E2E2E2
310
E2DCE2E2E2E2E2E2E2E2E2DCE2E2E2E2E2E2E2E2E2F5E2E2E2E2E2E2E2E2E2E2E2E2E2E2E2E2E2E2E2E2E2E2E2E2E2E2E2E2E2E2E2E2E2E2E2E2E2E2F5E2E2E2E2E2E2E2E2E2E2E2E2E2E2E2E2F5E2E2F5F5EFF5E2E2F5E2E2E2E2E2E2E2E2E2E2E2E2E2E2E2E2F5E2E2E2E2E2E2E2E2F5E2E2E2E2E2E2E2E2E2DCE2E2E2E2
310
E2E2E2E2E2DCE2E2E2E2E2E2E2E2E2DCE2E2E2E2E2E2E2E2E2DCE2E2E2E2E2E2E2E2DCE2E2E2E2E2E2E2E2E2DCE2E2E2E2E2E2E2E2E2DCE2E2E2E2E2E2E2E2E2DCE2E2E2E2E2E2E2E2E2F5E2E2E2E2E2E2E2E2E2E2E2E2E2E2E2E2E2E2E2E2E2E2E2E2E2E2E2E2E2E2E2E2E2E2E2E2E2E2F5E2E2E2E2E2E2E2E2E2E2E2E2E2
310
E2E2E2F5E2E2F5F5EFF5E2E2F5E2E2E2E2E2E2E2E2E2E2E2E2E2E2E2E2F5E2E2E2E2E2E2E2E2F5E2E2E2E2E2E2E2E2E2DCE2E2E2E2E2E2E2E2E2DCE2E2E2E2E2E2E2E2E2DCE2E2E2E2E2E2E2E2E2DCE2E2E2E2E2E2E2E2DCE2E2E2E2E2E2E2E2E2DCE2E2E2E2E2E2E2E2E2DCE2E2E2E2E2E2E2E2E2DCE2E2E2E2E2E2E2E2E2
310
F5E2E2E2E2E2E2E2E2E2E2E2E2E2E2E2E2E2E2E2E2E2E2E2E2E2E2E2E2E2E2E2E2E2E2E2E2E2E2F5E2E2E2E2E2E2E2E2E2E2E2E2E2E2E2E2F5E2E2F5F5EFF5E2E2F5E2E2E2E2E2E2E2E2E2E2E2E2E2E2E2E2F5E2E2E2E2E2E2E2E2F5E2E2E2E2E2E2E2E2E2DCE2E2E2E2E2E2E2E2E2DCE2E2E2E2E2E2E2E2E2DCE2E2E2E2E2
310
E2E2E2E2DCE2E2E2E2E2E2E2E2DCE2E2E2E2E2E2E2E2E2DCE2E2E2E2E2E2E2E2E2DCE2E2E2E2E2E2E2E2E2DCE2E2E2E2E2E2E2E2E2F5E2E2E2E2E2E2E2E2E2E2E2E2E2E2E2E2E2E2E2E2E2E2E2E2E2E2E2E2E2E2E2E2E2E2E2E2E2E2F5E2E2E2E2E2E2E2E2E2E2E2E2E2E2E2E2F5E2E2F5F5EFF5E2E2F5E2E2E2E2E2E2E2E2
310
E2E2E2E2E2E2E2E2F5E2E2E2E2E2E2E2E2F5E2E2E2E2E2E2E2E2E2DCE2E2E2E2E2E2E2E2E2DCE2E2E2E2E2E2E2E2E2DCE2E2E2E2E2E2E2E2E2DCE2E2E2E2E2E2E2E2DCE2E2E2E2E2E2E2E2E2DCE2E2E2E2E2E2E2E2E2DCE2E2E2E2E2E2E2E2E2DCE2E2E2E2E2E2E2E2E2F5E2E2E2E2E2E2E2E2E2E2E2E2E2E2E2E2E2E2E2E2
310
E2E2E2E2E2E2E2E2E2E2E2E2E2E2E2E2E2E2F5E2E2E2E2E2E2E2E2E2E2E2E2E2E2E2E2F5E2E2F5F5EFF5E2E2F5E2E2E2E2E2E2E2E2E2E2E2E2E2E2E2E2F5E2E2E2E2E2E2E2E2F5F5F5F5F5F5F5F5F5F5DCF5F5F5F5F5F5F5F5F5DCF5F5F5F5F5F5F5F5F5DCF5F5F5F5F5F5F5F5F5DCF5F5F5F5F5F5F5F5DCF5F5F5F5F5F5F5
310
F5F5DCF5F5F5F5F5F5F5F5F5DCF5F5F5F5F5F5F5F5F5DCF5F5F5F5F5F5F5F5F5F5E2E2E2E2E2E2E2E2E2E2E2E2E2E2E2E2E2E2E2E2E2E2E2E2E2E2E2E2E2E2E2E2E2E2E2E2E2E2F5E2E2E2E2E2E2E2E2E2E2E2E2E2E2E2E2F5E2E2F5F5EFF5E2E2F5E2E2E2E2E2E2E2E2E2E2E2E2E2E2E2E2F5E2E2E2E2E2E2E2E2E2E2E2E2
310
E2F5F5F5F5F5DCF5F5F5F5F5F5F5F5F5DCF5F5F5F5F5F5F5F5F5DCF5F5F5F5F5F5F5F5F5DCF5F5F5F5F5F5F5F5DCF5F5F5F5F5F5F5F5F5DCF5F5F5F5F5F5F5F5F5DCF5F5F5F5F5F5F5F5F5DCF5F5F5F5F5E2E2E2E2E2E2E2E2E2E2E2E2E2E2E2E2E2E2E2E2E2E2E2E2E2E2E2E2E2E2E2E2E2E2E2E2E2E2E2E2E2E2E2F5E2E2
310
E2E2E2E2E2E2E2E2E2E2E2E2E2E2F5E2E2F5F5EFF5E2E2F5E2E2E2E2E2E2E2E2E2E2E2E2E2E2E2E2F5E2E2E2E2E2E2E2E2E2E2E2E2E2F5F5DCF5E2DCE2E2E2E2F5F5F5F5E2DCE2E2E2E2F5F5F5F5E2DCE2E2E2E2F5F5F5F5E2DCE2E2E2F5F5F5DCF5DCE2E2E2E2F5F5F5F5E2DCE2E2E2E2F5F5F5F5E2DCE2E2E2E2F5F5F5F5
310
E2DCE2E2E2E2F5E2E2E2E2E2E2E2E2E2E2E2E2E2E2E2E2E2E2E2E2E2E2E2E2E2E2E2E2E2E2E2E2E2E2E2E2E2E2E2E2E2E2E2F5E2E2E2E2E2E2E2E2E2E2E2E2E2E2E2E2F5E2E2F5F5EFF5E2E2F5E2E2E2E2E2E2E2E2E2E2E2E2E2E2E2E2F5E2E2E2E2E2E2E2E2E2E2E2E2E2F5F5F5F5F5DCE2E2E2F5F5DCDCDCDCDCE2E2E2DC
310
F5F5DCF5E2DCE2E2F5E2F5F5DCF5E2DCE2E2F5F5F5F5F5F5DCE2E2E2F5F5DCDCDCDCDCE2E2E2DCF5F5DCF5DCDCE2E2E2F5F5F5DCF5E2DCE2E2E2F5F5E2E2E2E2E2E2E2E2E2E2E2E2E2E2E2E2E2E2E2E2E2E2E2E2E2E2E2E2E2E2E2E2E2E2E2E2E2E2E2E2E2E2E2F5E2E2E2E2E2E2E2E2E2E2E2E2E2E2E2E2F5E2E2F5F5EFF5
310
E2E2E2E2E2E2E2E2E2E2E2E2E2E2E2E2E2E2E2F5E2E2E2E2E2E2E2E2E2E2E2E2E2F5F5F5F5E2DCE2E2F5F5F5F5F5F5E2DCE2E2DCDCF5F5F5F5E2DCE2DCF5F5F5F5F5F5E2DCE2DCF5F5F5F5F5F5DCE2E2F5F5F5F5F5F5E2DCE2E2DCDCF5F5F5F5E2DCE2E2F5F5F5F5F5F5E2DCE2DCF5F5F5E2E2E2E2E2E2E2E2E2E2E2E2E2E2
310
E2E2E2E2E2E2E2E2E2E2E2E2E2E2E2E2E2E2E2E2E2E2E2E2E2E2E2E2E2F5E2E2E2E2E2E2E2E2E2E2E2E2E2E2E2E2E2E2E2F5F5EFF5E2E2E2E2E2E2E2E2E2E2E2E2E2E2E2E2E2E2E2F5E2E2E2E2E2E2E2E2E2E2E2E2E2F5E2E2E2E2DCE2E2F5F5F5E2E2E2E2DCE2E2F5DCF5E2E2E2E2DCE2E2F5F5F5E2E2E2E2DCE2E2F5F5F5
310
E2E2E2DCE2E2E2F5F5F5E2E2E2DCE2E2F5DCF5E2E2E2E2DCE2E2F5F5F5E2E2E2E2DCE2E2F5F5F5E2E2E2E2E2E2E2E2E2E2E2E2E2E2E2E2E2E2E2E2E2E2E2E2E2E2E2E2E2E2E2E2E2E2E2E2E2E2E2E2E2E2E2F5E2E2E2E2E2E2E2E2E2E2E2E2E2E2E2E2E2E2E2F5F5EFF5E2E2E2E2E2E2E2E2E2E2E2E2E2E2E2E2E2E2E2F5E2
310
E2E2E2E2E2E2E2E2E2E2E2E2F5E2E2E2E2DCE2E2E2E2F5E2E2E2E2DCE2E2E2E2F5E2E2E2E2DCE2E2E2E2F5E2E2E2E2DCE2E2E2F5F5E2E2E2DCE2E2E2E2F5F5E2E2E2DCE2E2E2E2F5E2E2E2E2DCE2E2E2E2F5E2E2E2E2DCE2E2E2E2F5E2E2E2E2E2E2E2E2E2E2E2E2E2E2E2E2E2E2E2E2E2E2E2E2E2E2E2E2E2E2E2E2E2E2E2
310
E2E2E2E2E2E2E2E2F5E2E2E2E2E2E2E2E2E2E2E2E2E2E2E2E2E2E2E2F5F5EFF5E2E2E2E2E2E2E2E2E2E2E2E2E2E2E2E2E2E2E2F5E2E2E2E2E2E2E2E2E2E2E2E2E2F5E2E2E2E2DCE2E2E2E2F5E2E2E2E2DCE2E2E2E2F5E2E2E2E2DCE2E2E2E2F5E2E2E2E2DCE2E2E2F5F5E2E2E2DCE2E2E2E2F5F5E2E2E2DCE2E2E2E2F5E2E2
310
E2E2DCE2E2E2E2F5E2E2E2E2DCE2E2E2E2F5E2E2E2E2E2E2E2E2E2E2E2E2E2E2E2E2E2E2E2E2E2E2E2E2E2E2E2E2E2E2E2E2E2E2E2E2E2E2E2E2E2E2E2F5E2E2E2E2E2E2E2E2E2E2E2E2E2E2E2E2E2E2E2F5F5EFF5E2E2E2E2E2E2E2E2E2E2E2E2E2E2E2E2E2E2E2F5E2E2E2E2E2E2E2E2E2E2E2E2DCF5DCDCDCDCDCDCDCDC
310
DCF5DCDCDCDCDCDCDCDCDCF5DCDCDCDCDCDCDCDCDCF5DCDCDCDCDCDCDCDCDCF5DCDCDCDCDCDCDCDCF5F5DCDCDCDCDCDCDCDCF5DCDCDCDCDCDCDCDCDCF5DCDCDCDCDCDCDCDCDCF5DCE2E2E2E2E2E2E2E2E2E2E2E2E2E2E2E2E2E2E2E2E2E2E2E2E2E2E2E2E2E2E2E2E2E2E2E2E2E2E2E2E2E2F5E2E2E2E2E2E2E2E2E2E2E2E2
310
E2E2E2E2E2E2E2F5F5EFF5E2E2E2E2E2E2E2E2E2E2E2E2E2E2E2E2E2E2E2F5E2E2E2E2E2E2E2E2E2E2E2E2E2F5E2E2E2E2DCE2E2E2E2F5E2E2E2E2DCE2E2E2E2F5E2E2E2E2DCE2E2E2E2F5E2E2E2E2DCE2E2E2F5F5E2E2E2DCE2E2E2E2F5F5E2E2E2DCE2E2E2E2F5E2E2E2E2DCE2E2E2E2F5E2E2E2E2DCE2E2E2E2F5E2E2E2
310
E2E2E2E2E2E2E2E2E2E2E2E2E2E2E2E2E2E2E2E2E2E2E2E2E2E2E2E2E2E2E2E2E2E2E2E2E2E2E2E2F5E2E2E2E2E2E2E2E2E2E2E2E2E2E2E2E2E2E2E2F5F5EFF5E2E2E2E2E2E2E2E2E2E2E2E2E2E2E2E2E2E2E2F5E2E2E2E2E2E2E2E2E2E2E2E2E2F5E2E2E2E2DCE2E2E2E2F5E2E2E2E2DCE2E2E2E2F5E2E2E2E2DCE2E2E2E2
310
F5E2E2E2E2DCE2E2E2F5F5E2E2E2DCE2E2E2E2F5F5E2E2E2DCE2E2E2E2F5E2E2E2E2DCE2E2E2E2F5E2E2E2E2DCE2E2E2E2F5E2E2E2E2E2E2E2E2E2E2E2E2E2E2E2E2E2E2E2E2E2E2E2E2E2E2E2E2E2E2E2E2E2E2E2E2E2E2E2E2E2E2E2F5E2E2E2E2E2E2E2E2E2E2E2E2E2E2E2E2E2E2E2F5F5EFF5E2E2E2E2E2E2E2E2E2E2
310
E2E2E2E2E2E2E2E2E2F5E2E2E2E2E2E2E2E2E2E2E2E2E2F5F5F5E2E2DCE2E2F5F5F5DCF5E2E2DCE2E2DCF5F5DCDCE2E2DCE2E2F5F5F5DCE2E2E2DCE2F5F5F5F5F5E2E2DCE2E2F5F5F5F5DCE2E2DCE2E2DCF5F5DCF5E2E2DCE2E2F5F5F5DCDCE2E2DCE2E2F5F5F5E2E2E2E2E2E2E2E2E2E2E2E2E2E2E2E2E2E2E2E2E2E2E2E2
310
E2E2E2E2E2E2E2E2E2E2E2E2E2E2E2E2E2E2E2F5E2E2E2E2E2E2E2E2E2E2E2E2E2E2E2E2E2E2E2F5F5EFF5E2E2E2E2E2E2E2E2E2E2E2E2E2E2E2E2E2E2E2F5E2E2E2E2E2E2E2E2E2E2E2E2E2F5F5F5E2E2DCE2F5DCF5F5DCDCE2E2DCE2F5F5F5F5DCDCE2E2DCE2F5F5E2F5DCDCE2E2DCF5F5F5F5F5F5DCE2DCE2F5F5F5F5DC
310
DCDCE2DCE2F5F5F5F5DCDCE2E2DCE2F5DCF5F5DCDCE2E2DCE2F5F5E2F5E2E2E2E2E2E2E2E2E2E2E2E2E2E2E2E2E2E2E2E2E2E2E2E2E2E2E2E2E2E2E2E2E2E2E2E2E2E2E2E2E2E2E2F5E2E2E2E2E2E2E2E2E2E2E2E2E2E2E2E2E2E2E2F5F5EFF5E2E2F5E2E2E2E2E2E2E2E2E2E2E2E2E2E2E2E2F5E2E2E2E2E2E2E2E2E2E2E2
310
E2E2F5E2E2E2E2DCE2F5DCF5F5E2E2E2E2DCDCF5F5DCF5E2E2E2E2DCF5F5F5F5F5E2E2E2E2DCF5F5F5F5F5E2E2E2DCE2F5DCF5F5F5E2E2E2DCE2DCF5F5F5E2E2E2E2DCDCF5DCF5F5E2E2E2E2DCF5F5F5F5F5E2E2E2E2E2E2E2E2E2E2E2E2E2E2E2E2E2E2E2E2E2E2E2E2E2E2E2E2E2E2E2E2E2E2E2E2E2E2E2E2E2E2E2F5E2
310
E2E2E2E2E2E2E2E2E2E2E2E2E2E2E2F5E2E2F5F5EFF5E2E2F5E2E2E2E2E2E2E2E2E2E2E2E2E2E2E2E2F5E2E2E2E2E2E2E2E2E2E2E2E2E2F5E2E2E2E2DCE2F5F5F5F5E2E2E2E2DCE2F5DCF5F5E2E2E2E2DCE2F5F5F5F5E2E2E2E2DCE2F5F5F5F5E2E2E2DCE2E2F5F5F5F5E2E2E2DCE2F5DCF5F5E2E2E2E2DCE2F5F5F5F5E2E2
310
E2E2DCE2F5F5F5F5E2E2E2E2E2E2E2E2E2E2E2E2E2E2E2E2E2E2E2E2E2E2E2E2E2E2E2E2E2E2E2E2E2E2E2E2E2E2E2E2E2E2E2F5E2E2E2E2E2E2E2E2E2E2E2E2E2E2E2E2F5E2E2F5F5EFF5E2E2F5E2E2E2E2E2E2E2E2E2E2E2E2E2E2E2E2F5E2E2E2E2E2E2E2E2E2E2E2E2E2F5F5F5F5F5DCF5F5F5F5F5F5F5F5F5DCF5F5F5
310
F5F5F5F5F5F5DCF5F5F5F5F5F5F5F5F5DCF5F5F5F5F5F5F5F5DCF5F5F5F5F5F5F5F5F5DCF5F5F5F5F5F5F5F5F5DCF5F5F5F5F5F5F5F5F5DCF5F5F5F5F5E2E2E2E2E2E2E2E2E2E2E2E2E2E2E2E2E2E2E2E2E2E2E2E2E2E2E2E2E2E2E2E2E2E2E2E2E2E2E2E2E2E2E2F5E2E2E2E2E2E2E2E2E2E2E2E2E2E2E2E2F5E2E2F5F5EF
310
F5E2E2F5E2E2E2E2E2E2E2E2E2E2E2E2E2E2E2E2F5E2E2E2E2E2E2E2E2E2E2E2E2E2E2E2E2E2E2DCE2E2E2E2E2E2E2E2E2DCE2E2E2E2E2E2E2E2E2DCE2E2E2E2E2E2E2E2E2DCE2E2E2E2E2E2E2E2DCE2E2E2E2E2E2E2E2E2DCE2E2E2E2E2E2E2E2E2DCE2E2E2E2E2E2E2E2E2DCE2E2E2E2E2E2E2E2E2E2E2E2E2E2E2E2E2E2
310
E2E2E2E2E2E2E2E2E2E2E2E2E2E2E2E2E2E2E2E2E2E2E2E2E2E2E2E2E2E2F5E2E2E2E2E2E2E2E2E2E2E2E2E2E2E2E2F5E2E2F5F5EFF5E2E2F5E2E2E2E2E2E2E2E2E2E2E2E2E2E2E2E2F5E2E2E2E2E2E2E2E2E2E2E2E2E2E2E2E2E2E2E2E2E2E2E2E2E2E2E2E2E2E2E2E2E2E2E2E2E2E2E2E2E2E2E2E2E2E2E2E2E2E2E2E2E2
310
E2E2E2E2E2E2E2E2E2E2E2E2E2E2E2E2E2E2E2E2E2E2E2E2E2E2E2E2E2E2E2E2E2E2E2E2E2E2E2E2E2E2E2E2E2E2E2E2E2E2E2E2E2E2E2E2E2E2E2E2E2E2E2E2E2E2E2E2E2E2E2E2E2E2E2E2E2E2E2E2E2E2E2F5E2E2E2E2E2E2E2E2E2E2E2E2E2E2E2E2F5E2E2F5F5EFF5E2E2F5E2E2E2E2E2E2E2E2E2E2E2E2E2E2E2E2F5
310
E2E2E2E2E2E2E2E2E2E2E2E2E2E2E2E2E2E2E2E2E2E2E2E2E2E2E2E2E2E2E2E2E2E2E2E2E2E2E2E2E2E2E2E2E2E2E2E2E2E2E2E2E2E2E2E2E2E2E2E2E2E2E2E2E2E2E2E2E2E2E2E2E2E2E2E2E2E2E2E2E2E2E2E2E2E2E2E2E2E2E2E2E2E2E2E2E2E2E2E2E2E2E2E2E2E2E2E2E2E2E2E2E2E2E2E2E2E2E2E2E2E2E2E2E2E2E2
310
E2E2E2E2E2E2E2E2E2F5E2E2E2E2E2E2E2E2E2E2E2E2E2E2E2E2F5E2E2F5F5EFF5E2E2F5E2E2E2E2E2E2E2E2E2E2E2E2E2E2E2E2F5E2E2E2E2E2E2E2E2E2E2E2E2E2E2E2E2E2E2E2E2E2E2E2E2E2E2E2E2E2E2E2E2E2E2E2E2E2E2E2E2E2E2E2E2E2E2E2E2E2E2E2E2E2E2E2E2E2E2E2E2E2E2E2E2E2E2E2E2E2E2E2E2E2E2
310
E2E2E2E2E2E2E2E2E2E2E2E2E2E2E2E2E2E2E2E2E2E2E2E2E2E2E2E2E2E2E2E2E2E2E2E2E2E2E2E2E2E2E2E2E2E2E2E2E2E2E2E2E2E2E2E2E2E2E2E2E2E2F5E2E2E2E2E2E2E2E2E2E2E2E2E2E2E2E2F5E2E2F5F5EFF5E2E2F5E2E2E2E2E2E2E2E2E2E2E2E2E2E2E2E2F5E2E2E2E2E2E2E2E2E2E2E2E2E2E2E2E2E2E2E2E2E2
310
E2E2E2E2E2E2E2E2E2E2E2E2E2E2E2E2E2E2E2E2E2E2E2E2E2E2E2E2E2E2E2E2E2E2E2E2E2E2E2E2E2E2E2E2E2E2E2E2E2E2E2E2E2E2E2E2E2E2E2E2E2E2E2E2E2E2E2E2E2E2E2E2E2E2E2E2E2E2E2E2E2E2E2E2E2E2E2E2E2E2E2E2E2E2E2E2E2E2E2E2E2E2E2E2E2E2E2E2E2E2E2E2E2E2E2F5E2E2E2E2E2E2E2E2E2E2E2
310
E2E2E2E2E2F5E2E2F5F5EFF5E2E2F5E2E2E2E2E2E2E2E2E2E2E2E2E2E2E2E2F5E2E2E2E2E2E2E2E2E2E2E2E2E2E2E2E2E2E2E2E2E2E2E2E2E2E2E2E2E2E2E2E2E2E2E2E2E2E2E2E2E2E2E2E2E2E2E2E2E2E2E2E2E2E2E2E2E2E2E2E2E2E2E2E2E2E2E2E2E2E2E2E2E2E2E2E2E2E2E2E2E2E2E2E2E2E2E2E2E2E2E2E2E2E2E2
310
E2E2E2E2E2E2E2E2E2E2E2E2E2E2E2E2E2E2E2E2E2E2E2E2E2E2E2E2E2E2E2E2E2E2E2E2E2E2E2E2E2F5E2E2E2E2E2E2E2E2E2E2E2E2E2E2E2E2F5E2E2F5F5EFF5E2E2F5E2E2E2E2E2E2E2E2E2E2E2E2E2E2E2E2F5E2E2E2E2E2E2E2E2F5F5F5F5F5F5F5F5F5F5F5F5F5F5F5F5F5F5F5F5F5F5F5F5F5F5F5F5F5F5F5F5F5F5
310
F5F5F5F5F5F5F5F5F5F5F5F5F5F5F5F5F5F5F5F5F5F5F5F5F5F5F5F5F5F5F5F5F5F5F5F5F5F5F5F5F5F5F5F5F5F5F5F5F5F5F5F5F5F5F5F5E2E2E2E2E2E2E2E2E2E2E2E2E2E2E2E2E2E2E2E2E2E2E2E2F5F5DCF5F5F5F5F5F5F5E2E2E2E2F5E2E2E2E2E2E2E2E2E2E2E2E2E2E2E2E2F5E2E2F5F5EFF5E2E2F5E2E2E2E2E2E2
310
E2E2E2E2E2E2E2E2E2E2F5E2E2E2E2E2E2E2E2F5E2E2E2E2E2E2E2E2E2E2E2E2E2E2E2E2E2E2E2E2E2E2E2E2E2E2E2E2E2E2E2E2E2E2E2E2E2E2E2E2E2E2E2E2E2E2E2E2E2E2E2E2E2E2E2E2E2E2E2E2E2E2E2E2E2E2E2E2E2E2E2E2E2E2E2E2E2E2E2E2E2E2E2E2E2E2E2E2F5E2E2E2E2E2E2E2E2E2E2E2E2E2E2E2E2E2E2
310
E2E2E2E2E2F5E2E2DCE2E2E2E2E2E2F5E2E2E2E2F5E2E2E2E2E2E2E2E2E2E2E2E2E2E2E2E2F5E2E2F5F5EFF5E2E2F5E2E2E2E2E2E2E2E2E2E2E2E2E2E2E2E2F5E2E2E2E2E2E2E2E2F5E2E2E2E2E2E2E2E2E2DCE2E2E2E2E2E2E2E2E2DCE2E2E2E2E2E2E2E2E2DCE2E2E2E2E2E2E2E2E2DCE2E2E2E2E2E2E2E2DCE2E2E2E2E2
310
E2E2E2E2DCE2E2E2E2E2E2E2E2E2DCE2E2E2E2E2E2E2E2E2DCE2E2E2E2E2E2E2E2E2F5E2E2E2E2E2E2E2E2E2E2E2E2E2E2DCE2E2E2E2E2E2E2F5E2E2F5F5F5E2E2E2E2E2F5E2E2E2E2F5E2E2E2E2E2E2E2E2E2E2E2E2E2E2E2E2F5E2E2F5F5EFF5E2E2F5E2E2E2E2E2E2E2E2E2E2E2E2E2E2E2E2F5E2E2E2E2E2E2E2E2F5E2
310
E2E2E2F5F5F5F5F5DCF5F5F5F5F5F5F5F5F5DCF5F5F5F5F5F5F5F5F5DCF5F5F5F5F5F5F5F5F5DCF5F5F5F5F5F5F5F5DCF5F5F5F5F5F5F5F5F5DCF5F5F5F5F5F5F5F5F5DCF5F5F5F5F5F5F5F5F5DCF5F5F5F5F5E2E2E2E2F5E2E2E2E2E2E2E2F5F5F5F5F5F5F5DCF5F5F5F5F5F5F5E2DCF5E2DCE2F5DCE2E2E2F5E2E2E2E2F5
310
E2E2E2E2E2E2E2E2E2E2E2E2E2E2E2E2F5E2E2F5F5EFF5E2E2F5E2E2E2E2E2E2E2E2E2E2E2E2E2E2E2E2F5E2E2E2E2E2E2E2E2F5E2E2E2E2F5E2E2E2E2DCE2E2E2E2F5E2E2E2E2DCE2E2E2E2F5E2E2E2E2DCE2E2E2E2F5E2E2E2E2DCE2E2E2F5F5E2E2E2DCE2E2E2E2F5F5E2E2E2DCE2E2E2E2F5E2E2E2E2DCE2E2E2E2F5E2
310
E2E2E2DCE2E2E2E2F5E2E2E2E2F5E2E2E2E2E2E2E2F5E2E2E2E2E2E2DCE2E2E2E2E2E2F5E2F5E2E2DCE2E2F5E2E2E2F5E2E2E2E2F5E2E2E2E2E2E2E2E2E2E2E2E2E2E2E2E2F5E2E2F5F5EFF5E2E2F5E2E2E2E2E2E2E2E2E2E2E2E2E2E2E2E2F5E2E2E2E2E2E2E2E2F5E2E2E2E2F5F5F5F5F5DCF5F5F5F5F5F5F5F5F5DCF5F5
310
F5F5F5F5F5F5F5DCF5F5F5F5F5F5F5F5F5DCF5F5F5F5F5F5F5F5DCF5F5F5F5F5F5F5F5F5DCF5F5F5F5F5F5F5F5F5DCF5F5F5F5F5F5F5F5F5DCF5F5F5F5F5E2E2E2E2F5E2E2E2E2E2E2E2F5F5F5F5F5F5F5F5F5F5F5F5F5F5DCDCF5DCDCDCDCDCF5DCDCE2F5E2E2E2E2F5E2E2E2E2E2E2E2E2E2E2E2E2E2E2E2E2F5E2E2F5F5
310
EFF5E2E2E2E2E2E2E2E2E2E2E2E2E2E2E2E2E2E2E2F5E2E2E2E2E2E2E2E2F5E2E2E2E2F5E2E2F5F5DCE2E2E2E2F5E2E2F5F5DCE2E2E2E2F5E2E2F5F5DCE2E2E2E2F5E2F5F5F5DCE2E2E2F5F5E2F5F5F5E2E2E2E2F5F5E2F5F5DCE2E2E2E2F5E2E2F5F5DCE2E2E2E2F5E2E2F5F5DCE2E2E2E2F5E2E2E2E2F5E2E2E2E2E2E2E2
310
F5E2E2E2E2E2E2DCE2E2E2E2E2E2F5E2F5E2E2DCE2E2F5DCE2E2F5E2E2E2E2F5E2E2E2E2E2E2E2E2E2E2E2E2E2E2E2E2E2E2E2F5F5EFF5E2E2E2E2E2E2E2E2E2E2E2E2E2E2E2E2E2E2E2F5E2E2E2E2E2E2E2E2F5E2E2E2E2F5E2F5F5F5F5E2E2E2E2F5E2F5F5F5F5E2E2E2E2F5DCF5F5F5F5E2E2E2E2F5DCF5F5F5DCE2E2E2
310
F5F5DCF5F5F5E2E2E2E2F5F5F5F5F5F5E2E2E2E2F5E2F5F5F5F5E2E2E2E2F5DCF5F5F5F5E2E2E2E2F5E2E2E2E2F5E2E2E2E2E2E2E2F5E2E2E2E2E2E2DCE2E2E2E2E2E2F5E2DCF5E2DCE2E2F5E2E2E2DCE2E2E2E2F5E2E2E2E2E2E2E2E2E2E2E2E2E2E2E2E2E2E2E2F5F5EFF5E2E2E2E2E2E2E2E2E2E2E2E2E2E2E2E2E2E2E2
310
F5E2E2E2E2E2E2E2E2F5E2E2E2E2F5E2F5F5F5F5E2E2E2E2F5E2F5F5F5F5E2E2E2E2F5E2F5F5F5DCE2E2E2E2F5E2F5F5F5DCE2E2E2F5F5E2F5F5F5E2E2E2E2F5F5E2F5F5F5E2E2E2E2F5E2F5F5F5F5E2E2E2E2F5E2F5F5F5DCE2E2E2E2F5E2E2E2E2F5E2E2E2E2E2E2E2F5E2E2E2E2E2E2DCE2E2E2E2E2E2F5E2DCF5F5DCF5
310
F5F5F5F5F5F5E2E2E2E2F5E2E2E2E2E2E2E2E2E2E2E2E2E2E2E2E2E2E2E2F5F5EFF5E2E2E2E2E2E2E2E2E2E2E2E2E2E2E2E2E2E2E2F5E2E2E2E2E2E2E2E2F5E2E2DCE2F5E2E2E2F5DCE2E2E2E2F5E2E2F5E2DCE2E2E2E2F5E2E2F5E2DCE2E2E2E2F5E2E2F5E2DCE2E2E2F5F5E2E2F5DCE2E2E2E2F5F5E2E2F5DCE2E2E2E2F5
310
E2E2F5E2DCE2E2E2E2F5E2E2F5E2DCE2E2E2E2F5E2DCE2E2F5E2E2E2E2E2E2E2F5E2E2E2E2E2E2DCE2E2E2E2E2E2F5E2E2DCDCF5DCDCE2E2E2E2F5E2E2E2E2F5E2E2E2E2E2E2E2E2E2E2E2E2E2E2E2E2E2E2E2F5F5EFF5E2E2E2E2E2E2E2E2E2E2E2E2E2E2E2E2E2E2E2F5E2E2E2E2E2E2E2E2F5E2F5F5F5F5E2E2E2E2DCE2
310
E2E2E2F5E2E2E2E2DCE2E2E2E2F5E2E2E2E2DCE2E2E2E2F5E2E2E2E2DCE2E2E2F5F5E2E2E2DCE2E2E2E2F5F5E2E2E2DCE2E2E2E2F5E2E2E2E2DCE2E2E2E2F5E2E2E2E2DCE2E2E2E2F5F5F5F5E2F5E2E2E2E2E2E2E2F5E2E2E2E2E2E2DCE2E2E2E2E2E2F5E2E2E2E2DCE2E2E2E2E2E2F5E2E2E2E2F5E2E2E2E2E2E2E2E2E2E2
310
E2E2E2E2E2E2E2E2E2F5F5EFF5E2E2E2E2E2E2E2E2E2E2E2E2E2E2E2E2E2E2E2F5E2E2E2E2E2E2E2E2F5DCF5DCF5DCE2E2E2E2DCE2E2E2E2F5E2E2E2E2DCE2E2E2E2F5E2E2E2E2DCE2E2E2E2F5E2E2E2E2DCE2E2E2F5F5E2E2E2DCE2E2E2E2F5F5E2E2E2DCE2E2E2E2F5E2E2E2E2DCE2E2E2E2F5E2E2E2E2DCE2E2E2E2DCF5
310
DCF5DCF5E2E2E2E2E2E2E2F5E2E2E2E2E2E2DCE2E2E2E2E2E2F5E2E2E2DCDCDCDCDCDCDCDCDCDCDCE2E2F5E2E2E2E2E2E2E2E2E2E2E2E2E2E2E2E2E2E2E2F5F5EFF5E2E2E2E2E2E2E2E2E2E2E2E2E2E2E2E2E2E2E2F5E2E2E2E2E2E2E2E2F5E2F5F5E2F5E2E2E2E2DCE2E2E2E2F5E2E2E2E2DCE2E2E2E2F5E2E2E2E2DCE2E2
310
E2E2F5E2E2E2E2DCE2E2E2F5F5E2E2E2DCE2E2E2E2F5F5E2E2E2DCE2E2E2E2F5E2E2E2E2DCE2E2E2E2F5E2E2E2E2DCE2E2E2E2F5E2F5F5E2F5E2E2E2E2E2E2E2F5E2E2E2E2E2E2E2E2E2E2E2E2E2F5E2E2E2E2E2E2DCE2E2E2E2F5E2E2E2E2F5E2E2E2E2E2E2E2E2E2E2E2E2E2E2E2E2E2E2E2F5F5EFF5E2E2E2E2E2E2E2E2
310
E2E2E2E2E2E2E2E2E2E2E2F5E2E2E2E2E2E2E2E2F5E2E2DCE2F5E2E2E2E2E2E2E2E2F5F5E2E2E2E2E2E2E2F5F5F5E2E2E2E2E2E2E2F5F5F5E2E2E2E2E2E2E2F5F5F5E2E2E2E2E2E2E2F5F5F5E2E2E2E2E2E2E2F5F5E2E2E2E2E2E2E2F5F5F5E2E2E2E2E2E2E2F5F5F5E2DCE2E2F5E2E2E2E2E2E2E2F5E2E2E2E2E2E2DCE2E2
310
E2E2E2E2F5E2E2E2E2E2F5F5DCDCDCDCF5E2E2E2E2F5E2E2E2E2E2E2E2E2E2E2E2E2E2E2E2E2E2E2E2F5F5EFF5E2E2E2E2E2E2E2E2E2E2E2E2E2E2E2E2E2E2E2F5E2E2E2E2E2E2E2E2F5E2E2E2E2F5E2E2E2E2DCE2E2F5F5F5E2E2E2E2DCE2F5F5F5F5E2E2E2E2DCE2F5F5F5F5E2E2E2E2DCE2F5F5F5F5E2E2E2DCE2E2F5F5
310
F5F5E2E2E2DCE2E2F5F5F5E2E2E2E2DCE2F5F5F5F5E2E2E2E2DCE2F5F5F5F5E2E2E2E2F5E2E2E2E2E2E2E2F5F5E2E2E2E2E2DCE2E2E2E2E2E2F5E2E2E2E2F5E2DCE2F5DCE2DCE2E2E2E2F5E2E2E2E2E2E2E2E2E2E2E2E2E2E2E2E2E2E2E2F5F5EFF5E2E2F5E2E2E2E2E2E2E2E2E2E2E2E2E2E2E2E2F5E2E2E2E2E2E2E2E2F5
310
E2E2E2E2F5E2E2E2E2DCE2DCF5F5F5E2E2E2E2DCE2F5F5F5F5E2E2E2E2DCE2F5F5F5F5E2E2E2E2DCE2F5F5F5F5E2E2E2DCE2DCF5F5F5F5E2E2E2DCE2DCF5F5F5E2E2E2E2DCE2F5F5F5F5E2E2E2E2DCE2F5F5F5F5E2E2E2E2F5E2E2E2E2E2E2DCF5DCE2E2E2E2E2DCE2E2E2E2E2E2F5E2E2E2F5E2E2DCE2E2F5E2F5E2E2E2E2
310
F5E2E2E2E2E2E2E2E2E2E2E2E2E2E2E2E2F5E2E2F5F5EFF5E2E2F5E2E2E2E2E2E2E2E2E2E2E2E2E2E2E2E2F5E2E2E2E2E2E2E2E2F5E2E2E2E2F5E2E2E2E2DCE2E2F5F5F5E2E2E2E2DCE2E2F5F5F5E2E2E2E2DCE2E2F5F5F5E2E2E2E2DCE2F5F5F5F5E2E2E2DCE2E2F5F5F5F5E2E2E2DCE2E2F5F5F5E2E2E2E2DCE2E2F5F5F5
310
E2E2E2E2DCE2E2F5F5F5E2E2E2E2F5E2E2E2E2E2E2E2F5F5E2E2E2E2E2DCE2E2E2E2E2E2F5E2E2E2F5E2E2DCE2E2F5DCF5E2E2E2E2F5E2E2E2E2E2E2E2E2E2E2E2E2E2E2E2E2F5E2E2F5F5EFF5E2E2F5E2E2E2E2E2E2E2E2E2E2E2E2E2E2E2E2F5E2E2E2E2E2E2E2E2F5E2E2E2E2F5F5F5E2E2E2E2E2E2DCF5F5F5E2E2E2E2
310
E2E2DCF5F5F5E2E2E2E2E2DCE2F5F5F5E2E2E2E2E2DCF5F5F5F5E2E2E2E2E2DCF5F5F5F5E2E2E2E2E2DCF5F5F5E2E2E2E2E2E2DCF5F5F5E2E2E2E2E2E2DCF5E2E2E2E2F5E2E2E2E2E2E2E2F5E2E2E2E2E2E2E2E2E2E2E2E2E2F5E2DCDCF5DCDCDCDCDCF5DCDCE2E2E2E2F5E2E2E2E2E2E2E2E2E2E2E2E2E2E2E2E2F5E2E2F5
310
F5EFF5E2E2F5E2E2E2E2E2E2E2E2E2E2E2E2E2E2E2E2F5E2E2E2E2E2E2E2E2F5E2E2E2E2DCDCDCDCE2DCE2E2E2E2DCDCDCDCE2DCE2E2E2DCDCDCDCDCE2DCE2E2E2DCDCDCDCDCE2DCE2E2E2DCDCDCDCE2DCE2E2E2E2DCDCDCDCE2DCE2E2E2E2DCDCDCDCE2DCE2E2E2DCDCDCDCDCE2DCE2E2E2E2F5E2E2E2E2F5E2E2E2E2E2E2
310
E2F5E2E2E2E2E2E2DCE2E2E2E2E2E2F5E2E2E2F5E2E2DCE2E2F5E2F5E2E2E2E2F5E2E2E2E2E2E2E2E2E2E2E2E2E2E2E2E2F5E2E2F5F5EFF5E2E2F5E2E2E2E2E2E2E2E2E2E2E2E2E2E2E2E2F5E2E2E2E2E2E2E2E2F5E2E2E2E2F5F5F5F5E2DCE2E2E2E2F5F5F5F5E2DCE2E2E2E2F5F5F5E2E2DCE2E2E2E2F5F5F5E2E2DCE2E2
310
E2F5F5F5F5E2DCE2E2E2E2F5F5F5F5E2DCE2E2E2E2F5F5F5F5E2DCE2E2E2E2F5F5F5F5E2DCE2E2E2E2F5E2E2E2E2F5E2E2E2E2E2E2E2F5E2E2E2E2E2E2DCE2E2E2E2E2E2F5E2E2E2E2F5E2DCE2F5DCE2DCE2E2E2E2F5E2E2E2E2E2E2E2E2E2E2E2E2E2E2E2E2F5E2E2F5F5EFF5E2E2F5E2E2E2E2E2E2E2E2E2E2E2E2E2E2E2
310
E2F5E2E2E2E2E2E2E2E2F5E2E2DCE2F5F5F5E2E2DCE2E2E2E2F5F5F5E2E2DCE2E2E2E2F5F5E2E2E2DCE2E2E2E2F5F5E2E2E2DCE2E2E2F5F5F5E2E2DCE2E2E2E2F5F5F5E2E2DCE2E2E2E2F5F5F5E2E2DCE2E2E2E2F5F5E2E2E2DCE2E2E2E2F5E2DCE2E2F5E2E2E2E2E2E2E2F5E2E2E2E2E2E2DCE2E2E2E2E2E2F5E2E2E2E2E2
310
F5DCF5F5F5F5F5E2E2E2E2F5E2E2E2E2E2E2E2E2E2E2E2E2E2E2E2E2F5E2E2F5F5EFF5E2E2F5E2E2E2E2E2E2E2E2E2E2E2E2E2E2E2E2F5E2E2E2E2E2E2E2E2F5E2F5F5E2F5E2E2E2E2DCE2E2E2E2F5E2E2E2E2DCE2E2E2E2F5E2E2E2E2DCE2E2E2E2F5E2E2E2E2DCE2E2E2F5F5E2E2E2DCE2E2E2E2F5F5E2E2E2DCE2E2E2E2
310
F5E2E2E2E2DCE2E2E2E2F5E2E2E2E2DCE2E2E2E2F5E2F5F5E2F5E2E2E2E2E2E2E2F5E2E2E2E2E2E2DCE2E2E2E2E2E2F5E2E2E2E2E2E2DCE2E2E2E2F5E2E2E2E2F5E2E2E2E2E2E2E2E2E2E2E2E2E2E2E2E2F5E2E2F5F5EFF5E2E2F5E2E2E2E2E2E2E2E2E2E2E2E2E2E2E2E2F5E2E2E2E2E2E2E2E2F5DCF5DCF5DCE2E2E2E2DC
310
E2E2E2E2F5E2E2E2E2DCE2E2E2E2F5E2E2E2E2DCE2E2E2E2F5E2E2E2E2DCE2E2E2F5F5E2E2E2DCE2E2E2E2F5F5E2E2E2DCE2E2E2E2F5E2E2E2E2DCE2E2E2E2F5E2E2E2E2DCE2E2E2E2DCF5DCF5DCF5E2E2E2E2E2E2E2F5E2E2E2E2E2E2DCE2E2E2E2E2E2F5E2E2E2DCDCDCDCDCDCDCDCDCDCDCE2E2F5E2E2E2E2E2E2E2E2E2
310
E2E2E2E2E2E2E2F5E2E2F5F5EFF5E2E2F5E2E2E2E2E2E2E2E2E2E2E2E2E2E2E2E2F5E2E2E2E2E2E2E2E2F5E2F5F5F5F5E2E2E2E2DCE2E2E2E2F5E2E2E2E2DCE2E2E2E2F5E2E2E2E2DCE2E2E2E2F5E2E2E2E2DCE2E2E2F5F5E2E2E2DCE2E2E2E2F5F5E2E2E2DCE2E2E2E2F5E2E2E2E2DCE2E2E2E2F5E2E2E2E2DCE2E2E2E2F5
310
F5F5F5E2F5E2E2E2E2E2E2E2F5E2E2E2E2E2E2DCE2E2E2E2E2E2F5E2E2E2E2DCE2E2E2E2E2E2F5E2E2E2E2F5E2E2E2E2E2E2E2E2E2E2E2E2E2E2E2E2F5E2E2F5F5EFF5E2E2F5E2E2E2E2E2E2E2E2E2E2E2E2E2E2E2E2F5E2E2E2E2E2E2E2E2F5E2E2DCE2F5E2E2E2E2DCE2F5E2E2F5E2E2E2E2DCE2F5E2E2F5E2E2E2E2DCF5
310
E2E2E2F5E2E2E2E2DCF5E2E2F5F5E2E2E2DCE2F5E2E2F5F5E2E2E2DCE2F5E2E2F5E2E2E2E2DCE2F5E2E2F5E2E2E2E2DCF5E2E2E2F5E2DCE2E2F5E2E2E2E2E2E2E2F5E2E2E2E2E2E2DCE2E2E2E2E2E2F5E2E2E2DCF5DCE2E2E2E2E2F5E2E2E2E2F5E2E2E2E2E2E2E2E2E2E2E2E2E2E2E2E2F5E2E2F5F5EFF5E2E2F5E2E2E2E2
310
E2E2E2E2E2E2E2E2E2E2E2E2F5E2E2E2E2E2E2E2E2F5E2E2E2E2F5E2E2E2E2DCF5F5F5E2F5E2E2E2E2F5F5F5F5E2F5E2E2E2E2F5F5F5F5E2F5E2E2E2E2F5F5F5E2F5F5E2E2E2DCF5F5F5E2F5F5E2E2E2DCF5F5F5E2F5E2E2E2E2F5F5F5F5E2F5E2E2E2E2F5F5F5F5E2F5E2E2E2E2F5E2E2E2E2E2E2E2F5E2E2E2E2E2E2DCE2
310
E2E2E2E2E2F5E2DCF5F5DCF5F5DCDCDCDCF5E2E2E2E2F5E2E2E2E2E2E2E2E2E2E2E2E2E2E2E2E2F5E2E2F5F5EFF5E2E2F5E2E2E2E2E2E2E2E2E2E2E2E2E2E2E2E2F5E2E2E2E2E2E2E2E2F5E2E2E2E2F5E2E2E2E2F5F5F5F5DCF5E2E2E2E2F5F5F5F5E2F5E2E2E2E2F5F5F5F5E2F5E2E2E2DCF5F5F5F5F5F5E2E2E2DCF5F5F5
310
DCF5F5E2E2E2DCF5F5F5DCF5E2E2E2E2F5F5F5F5DCF5E2E2E2E2F5F5F5F5E2F5E2E2E2E2F5E2E2E2E2E2E2E2F5E2E2E2E2E2E2DCE2E2E2E2E2E2F5E2DCF5E2DCE2E2F5E2E2E2DCE2E2E2E2F5E2E2E2E2E2E2E2E2E2E2E2E2E2E2E2E2F5E2E2F5F5EFF5E2E2F5E2E2E2E2E2E2E2E2E2E2E2E2E2E2E2E2F5E2E2E2E2E2E2E2E2
310
F5E2E2E2E2F5E2E2E2E2DCF5F5E2E2F5E2E2E2E2DCF5F5E2E2F5E2E2E2E2DCF5F5E2E2F5E2E2E2E2DCF5F5E2F5F5E2E2E2DCF5F5F5E2F5F5E2E2E2DCF5F5E2E2F5E2E2E2E2DCF5F5E2E2F5E2E2E2E2DCF5F5E2E2F5E2E2E2E2F5E2E2E2E2E2E2E2F5E2E2E2E2E2E2DCE2E2E2E2E2E2F5E2F5E2E2DCE2E2F5DCE2E2F5E2E2E2
310
E2F5E2E2E2E2E2E2E2E2E2E2E2E2E2E2E2E2F5E2E2F5F5EFF5E2E2F5E2E2E2E2E2E2E2E2E2E2E2E2E2E2E2E2F5E2E2E2E2E2E2E2E2F5E2E2E2E2F5F5F5F5F5DCF5DCF5F5F5F5F5F5F5DCF5DCF5F5F5F5F5F5F5DCDCF5F5F5F5F5F5F5F5DCDCF5F5F5F5F5F5F5DCF5DCF5F5F5F5F5F5F5DCF5DCF5F5F5F5F5F5F5DCF5DCF5F5
310
F5F5F5F5F5DCDCF5F5F5F5E2E2E2E2F5E2E2E2E2E2E2E2F5F5F5F5F5F5F5F5F5F5F5F5F5F5DCDCF5DCDCDCDCDCF5DCDCE2F5E2E2E2E2F5E2E2E2E2E2E2E2E2E2E2E2E2E2E2E2E2F5E2E2F5F5EFF5E2E2F5E2E2E2E2E2E2E2E2E2E2E2E2E2E2E2E2F5E2E2E2E2E2E2E2E2F5E2E2E2E2F5E2E2E2E2DCE2E2E2E2F5E2E2E2E2DC
310
E2E2E2E2F5E2E2E2E2DCE2E2E2E2F5E2E2E2E2DCE2E2E2F5F5E2E2E2DCE2E2E2E2F5F5E2E2E2DCE2E2E2E2F5E2E2E2E2DCE2E2E2E2F5E2E2E2E2DCE2E2E2E2F5E2E2E2E2F5E2E2E2E2E2E2E2F5E2E2E2E2E2E2DCE2E2E2E2E2E2F5E2F5E2E2DCE2E2F5E2E2E2F5E2E2E2E2F5E2E2E2E2E2E2E2E2E2E2E2E2E2E2E2E2F5E2E2
310
F5F5EFF5E2E2E2E2E2E2E2E2E2E2E2E2E2E2E2E2E2E2E2F5E2E2E2E2E2E2E2E2F5E2E2E2E2F5E2E2E2E2DCE2E2E2E2F5E2E2E2E2DCE2E2E2E2F5E2E2E2E2DCE2E2E2E2F5E2E2E2E2DCE2E2E2F5F5E2E2E2DCE2E2E2E2F5F5E2E2E2DCE2E2E2E2F5E2E2E2E2DCE2E2E2E2F5E2E2E2E2DCE2E2E2E2F5E2E2E2E2F5E2E2E2E2E2
310
E2E2F5E2E2E2E2E2E2E2E2E2E2E2E2E2F5E2DCF5E2DCE2F5DCE2E2E2F5E2E2E2E2F5E2E2E2E2E2E2E2E2E2E2E2E2E2E2E2E2E2E2E2F5F5EFF5E2E2E2E2E2E2E2E2E2E2E2E2E2E2E2E2E2E2E2F5E2E2E2E2E2E2E2E2F5E2E2E2E2F5E2E2E2E2E2E2E2E2E2F5E2E2E2E2E2E2E2E2E2F5E2E2E2E2E2E2E2E2E2F5E2E2E2E2E2E2
310
E2E2F5F5E2E2E2E2E2E2E2E2F5F5E2E2E2E2E2E2E2E2F5E2E2E2E2E2E2E2E2E2F5E2E2E2E2E2E2E2E2E2F5E2E2E2E2F5E2E2E2E2E2E2E2F5E2E2E2E2E2E2DCE2E2E2E2E2E2F5F5E2DCF5F5F5DCE2E2E2E2F5E2E2E2E2F5E2E2E2E2E2E2E2E2E2E2E2E2E2E2E2E2E2E2E2F5F5EFF5E2E2E2E2E2E2E2E2E2E2E2E2E2E2E2E2E2
310
E2E2F5E2E2E2E2E2E2E2E2F5E2E2E2E2F5E2E2E2E2DCE2E2E2E2F5E2E2E2E2DCE2E2E2E2F5E2E2E2E2DCE2E2E2E2F5E2E2E2E2DCE2E2E2F5F5E2E2E2DCE2E2E2E2F5F5E2E2E2DCE2E2E2E2F5E2E2E2E2DCE2E2E2E2F5E2E2E2E2DCE2E2E2E2F5E2E2E2E2F5E2E2E2E2E2E2E2F5E2E2E2E2E2E2DCE2E2E2E2E2E2F5E2F5E2E2
310
DCE2E2E2E2E2E2F5E2E2E2E2F5E2E2E2E2E2E2E2E2E2E2E2E2E2E2E2E2E2E2E2F5F5EFF5E2E2E2E2E2E2E2E2E2E2E2E2E2E2E2E2E2E2E2F5E2E2E2E2E2E2E2E2F5F5F5F5F5F5E2E2E2E2DCE2E2E2E2F5E2E2E2E2DCE2E2E2E2F5E2E2E2E2DCE2E2E2E2F5E2E2E2E2DCE2E2E2F5F5E2E2E2DCE2E2E2E2F5F5E2E2E2DCE2E2E2
310
E2F5E2E2E2E2DCE2E2E2E2F5E2E2E2E2DCE2E2E2E2F5F5F5F5F5F5E2E2E2E2E2E2E2F5E2E2E2E2E2E2DCE2E2E2E2E2E2F5E2E2F5F5DCF5F5F5F5F5F5F5E2E2E2E2F5E2E2E2E2E2E2E2E2E2E2E2E2E2E2E2E2E2E2E2F5F5EFF5E2E2E2E2E2E2E2E2E2E2E2E2E2E2E2E2E2E2E2F5E2E2E2E2E2E2E2E2E2E2E2E2E2F5F5F5F5F5
310
DCF5F5F5F5F5F5F5F5F5DCF5F5F5F5F5F5F5F5F5DCF5F5F5F5F5F5F5F5F5DCF5F5F5F5F5F5F5F5DCF5F5F5F5F5F5F5F5F5DCF5F5F5F5F5F5F5F5F5DCF5F5F5F5F5F5F5F5F5DCF5F5F5F5F5E2E2E2E2E2E2E2E2E2E2E2E2F5F5F5F5F5F5F5F5F5F5F5F5F5F5F5E2E2E2E2E2E2E2E2E2E2E2E2E2E2E2E2F5E2E2E2E2E2E2E2E2
310
E2E2E2E2E2E2E2E2E2E2E2F5F5EFF5E2E2E2E2E2E2E2E2E2E2E2E2E2E2E2E2E2E2E2F5E2E2E2E2E2E2E2E2E2E2E2E2E2F5E2E2E2E2E2E2E2E2E2F5E2E2E2E2E2E2E2E2E2F5E2E2E2E2E2E2E2E2E2F5E2E2E2E2E2E2E2E2F5F5E2E2E2E2E2E2E2E2F5F5E2E2E2E2E2E2E2E2F5E2E2E2E2E2E2E2E2E2F5E2E2E2E2E2E2E2E2E2
310
F5E2E2E2E2E2E2E2E2E2E2E2E2F5E2E2E2E2E2E2E2E2E2E2E2E2E2F5E2E2E2E2E2E2E2E2E2E2E2E2E2E2E2E2F5E2E2E2E2E2E2E2E2E2E2E2E2E2E2E2E2E2E2E2F5F5EFF5E2E2E2E2E2E2E2E2E2E2E2E2E2E2E2E2E2E2E2F5E2E2E2E2E2E2E2E2E2E2E2E2E2F5E2E2E2E2DCE2E2E2E2F5E2E2E2E2DCE2E2E2E2F5E2E2E2E2DC
310
E2E2E2E2F5E2E2E2E2DCE2E2E2F5F5E2E2E2DCE2E2E2E2F5F5E2E2E2DCE2E2E2E2F5E2E2E2E2DCE2E2E2E2F5E2E2E2E2DCE2E2E2E2F5E2E2E2E2E2E2E2E2E2E2E2E2F5E2E2E2E2E2E2DCE2E2E2E2E2E2F5E2E2E2E2E2E2E2E2E2E2E2E2E2E2E2E2F5E2E2E2E2E2E2E2E2E2E2E2E2E2E2E2E2E2E2E2F5F5EFF5E2E2E2E2E2E2
310
E2E2E2E2E2E2E2E2E2E2E2E2E2F5E2E2E2E2E2E2E2E2E2E2E2E2E2F5E2E2E2E2DCE2E2E2E2F5E2E2E2E2DCE2E2E2E2F5E2E2E2E2DCE2E2E2E2F5E2E2E2E2DCE2E2E2F5F5E2E2E2DCE2E2E2E2F5F5E2E2E2DCE2E2E2E2F5E2E2E2E2DCE2E2E2E2F5E2E2E2E2DCE2E2E2E2F5E2E2E2E2E2E2E2E2E2E2E2E2F5E2E2E2E2E2E2DC
310
E2E2E2E2E2E2F5E2E2E2E2E2E2E2E2E2E2E2E2E2E2E2E2F5E2E2E2E2E2E2E2E2E2E2E2E2E2E2E2E2E2E2E2F5F5EFF5E2E2E2E2E2E2E2E2E2E2E2E2E2E2E2E2E2E2E2F5E2E2E2E2E2E2E2E2E2E2E2E2E2F5E2E2E2E2DCE2E2E2E2F5E2E2E2E2DCE2E2E2E2F5E2E2E2E2DCE2E2E2E2F5E2E2E2E2DCE2E2E2F5F5E2E2E2DCE2E2
310
E2E2F5F5E2E2E2DCE2E2E2E2F5E2E2E2E2DCE2E2E2E2F5E2E2E2E2DCE2E2E2E2F5E2E2E2E2E2E2E2E2E2E2E2E2F5E2E2E2E2E2E2DCE2E2E2E2E2E2F5E2E2E2E2E2E2E2E2E2E2E2E2E2E2E2E2F5E2E2E2E2E2E2E2E2E2E2E2E2E2E2E2E2E2E2E2F5F5EFF5E2E2F5E2E2E2E2E2E2E2E2E2E2E2E2E2E2E2E2F5E2E2E2E2E2E2E2
310
E2E2E2E2E2E2F5E2E2E2E2DCE2E2E2E2F5E2E2E2E2DCE2E2E2E2F5E2E2E2E2DCE2E2E2E2F5E2E2E2E2DCE2E2E2F5F5E2E2E2DCE2E2E2E2F5F5E2E2E2DCE2E2E2E2F5E2E2E2E2DCE2E2E2E2F5E2E2E2E2DCE2E2E2E2F5E2E2E2E2E2E2E2E2E2E2E2E2F5E2E2E2E2E2E2DCE2E2E2E2E2E2F5F5E2E2E2F5F5E2E2E2E2E2E2E2E2
310
E2E2F5E2E2E2E2E2E2E2E2E2E2E2E2E2E2E2E2F5E2E2F5F5EFF5E2E2F5E2E2E2E2E2E2E2E2E2E2E2E2E2E2E2E2F5E2E2E2E2E2E2E2E2E2E2E2E2E2F5E2E2E2E2DCE2E2E2E2F5E2E2E2E2DCE2E2E2E2F5E2E2E2E2DCE2E2E2E2F5E2E2E2E2DCE2E2E2F5F5E2E2E2DCE2E2E2E2F5F5E2E2E2DCE2E2E2E2F5E2E2E2E2DCE2E2E2
310
E2F5E2E2E2E2DCE2E2E2E2F5E2E2E2E2E2E2E2E2E2E2E2E2F5E2E2E2E2E2E2DCE2E2E2E2E2DCDCF5F5F5F5F5F5F5F5DCE2E2E2E2E2E2E2F5E2E2E2E2E2E2E2E2E2E2E2E2E2E2E2E2F5E2E2F5F5EFF5E2E2F5E2E2E2E2E2E2E2E2E2E2E2E2E2E2E2E2F5E2E2E2E2E2E2E2E2E2E2E2E2E2F5E2E2E2E2DCE2E2E2E2F5E2E2E2E2
310
DCE2E2E2E2F5E2E2E2E2DCE2E2E2E2F5E2E2E2E2DCE2E2E2F5F5E2E2E2DCE2E2E2E2F5F5E2E2E2DCE2E2E2E2F5E2E2E2E2DCE2E2E2E2F5E2E2E2E2DCE2E2E2E2F5E2E2E2E2E2E2E2E2E2E2E2E2F5E2E2E2E2E2E2DCE2E2E2E2E2E2F5F5E2E2E2F5F5E2E2E2E2E2E2E2E2E2E2F5E2E2E2E2E2E2E2E2E2E2E2E2E2E2E2E2F5E2
310
E2F5F5EFF5E2E2F5E2E2E2E2E2E2E2E2E2E2E2E2E2E2E2E2F5E2E2E2E2E2E2E2E2E2E2E2E2E2F5E2E2E2E2DCE2E2E2E2F5E2E2E2E2DCE2E2E2E2F5E2E2E2E2DCE2E2E2E2F5E2E2E2E2DCE2E2E2F5F5E2E2E2DCE2E2E2E2F5F5E2E2E2DCE2E2E2E2F5E2E2E2E2DCE2E2E2E2F5E2E2E2E2DCE2E2E2E2F5E2E2E2E2E2E2E2E2E2
310
E2E2E2F5E2F5DCF5E2E2DCE2E2E2E2E2E2F5E2E2E2E2E2E2E2E2E2E2E2E2E2E2E2E2F5E2E2E2E2E2E2E2E2E2E2E2E2E2E2E2E2F5E2E2F5F5EFF5E2E2F5E2E2E2E2E2E2E2E2E2E2E2E2E2E2E2E2F5E2E2E2E2E2E2E2E2E2E2E2E2E2F5E2E2E2E2DCE2E2E2E2F5E2E2E2E2DCE2E2E2E2F5E2E2E2E2DCE2E2E2E2F5E2E2E2E2DC
310
E2E2E2F5F5E2E2E2DCE2E2E2E2F5F5E2E2E2DCE2E2E2E2F5E2E2E2E2DCE2E2E2E2F5E2E2E2E2DCE2E2E2E2F5E2E2E2E2E2E2E2E2E2E2E2E2F5E2F5DCF5E2E2DCE2E2E2E2E2E2F5E2E2E2E2E2E2E2E2E2E2E2E2E2E2E2E2F5E2E2E2E2E2E2E2E2E2E2E2E2E2E2E2E2F5E2E2F5F5EFF5E2E2F5E2E2E2E2E2E2E2E2E2E2E2E2E2
310
E2E2E2F5E2E2E2E2E2E2E2E2E2E2E2E2E2F5F5F5F5F5DCF5F5F5F5F5F5F5F5F5DCF5F5F5F5F5F5F5F5F5DCF5F5F5F5F5F5F5F5F5DCF5F5F5F5F5F5F5F5DCF5F5F5F5F5F5F5F5F5DCF5F5F5F5F5F5F5F5F5DCF5F5F5F5F5F5F5F5F5DCF5F5F5F5F5E2E2E2E2E2E2E2E2E2E2E2E2F5F5F5F5F5F5F5F5F5F5F5F5F5F5F5E2E2E2
310
E2E2E2E2E2E2E2E2E2E2E2E2E2F5E2E2E2E2E2E2E2E2E2E2E2E2E2E2E2E2F5E2E2F5F5EFF5E2E2F5E2E2E2E2E2E2E2E2E2E2E2E2E2E2E2E2F5E2E2E2E2E2E2E2E2E2E2E2E2E2E2E2E2E2E2DCE2E2E2E2E2E2E2E2E2DCE2E2E2E2E2E2E2E2E2DCE2E2E2E2E2E2E2E2E2DCE2E2E2E2E2E2E2E2DCE2E2E2E2E2E2E2E2E2DCE2E2
310
E2E2E2E2E2E2E2DCE2E2E2E2E2E2E2E2E2DCE2E2E2E2E2E2E2E2E2E2E2E2E2E2E2E2E2E2E2E2E2E2E2E2DCE2E2E2E2E2E2E2E2E2E2E2E2E2E2E2E2E2E2E2E2E2E2E2F5E2E2E2E2E2E2E2E2E2E2E2E2E2E2E2E2F5E2E2F5F5EFF5E2E2F5E2E2E2E2E2E2E2E2E2E2E2E2E2E2E2E2F5E2E2E2E2E2E2E2E2E2E2E2E2E2E2E2E2E2
310
E2DCE2E2E2E2E2E2E2E2E2DCE2E2E2E2E2E2E2E2E2DCE2E2E2E2E2E2E2E2E2DCE2E2E2E2E2E2E2E2DCE2E2E2E2E2E2E2E2E2DCE2E2E2E2E2E2E2E2E2DCE2E2E2E2E2E2E2E2E2DCE2E2E2E2E2E2E2E2E2E2E2E2E2E2E2E2E2E2E2E2E2E2E2E2E2E2E2E2E2E2E2E2E2E2E2E2E2E2E2E2E2E2E2E2E2E2E2E2F5E2E2E2E2E2E2E2
310
E2E2E2E2E2E2E2E2E2F5E2E2F5F5EFF5E2E2F5E2E2E2E2E2E2E2E2E2E2E2E2E2E2E2E2F5E2E2E2E2E2E2E2E2E2E2E2E2E2E2E2E2E2E2E2E2E2E2E2E2E2E2E2E2E2E2E2E2E2E2E2E2E2E2E2E2E2E2E2E2E2E2E2E2E2E2E2E2E2E2E2E2E2E2E2E2E2E2E2E2E2E2E2E2E2E2E2E2E2E2E2E2E2E2E2E2E2E2E2E2E2E2E2E2E2E2E2
310
E2E2E2E2E2E2E2E2E2E2E2E2E2E2E2E2E2E2E2E2E2E2E2E2E2E2E2E2E2E2E2E2E2E2E2E2E2E2E2E2E2E2E2E2E2F5E2E2E2E2E2E2E2E2E2E2E2E2E2E2E2E2F5E2E2F5F5EFF5E2E2F5E2E2E2E2E2E2E2E2E2E2E2E2E2E2E2E2F5E2E2E2E2E2E2E2E2E2E2E2E2E2E2E2E2E2E2E2E2E2E2E2E2E2E2E2E2E2E2E2E2E2E2E2E2E2E2
310
E2E2E2E2E2E2E2E2E2E2E2E2E2E2E2E2E2E2E2E2E2E2E2E2E2E2E2E2E2E2E2E2E2E2E2E2E2E2E2E2E2E2E2E2E2E2E2E2E2E2E2E2E2E2E2E2E2E2E2E2E2E2E2E2E2E2E2E2E2E2E2E2E2E2E2E2E2E2E2E2E2E2E2E2E2E2E2E2E2E2E2E2E2E2E2E2E2E2F5E2E2E2E2E2E2E2E2E2E2E2E2E2E2E2E2F5E2E2F5F5EFF5E2E2F5E2E2
310
E2E2E2E2E2E2E2E2E2E2E2E2E2E2F5E2E2E2E2E2E2E2E2E2E2E2E2E2E2E2E2E2E2E2E2E2E2E2E2E2E2E2E2E2E2E2E2E2E2E2E2E2E2E2E2E2E2E2E2E2E2E2E2E2E2E2E2E2E2E2E2E2E2E2E2E2E2E2E2E2E2E2E2E2E2E2E2E2E2E2E2E2E2E2E2E2E2E2E2E2E2E2E2E2E2E2E2E2E2E2E2E2E2E2E2E2E2E2E2E2E2E2E2E2E2E2E2
310
E2E2E2E2E2E2E2E2E2E2E2E2E2E2E2E2E2E2E2E2E2E2E2E2F5E2E2E2E2E2E2E2E2E2E2E2E2E2E2E2E2F5E2E2F5F5EFF5E2E2F5E2E2E2E2E2E2E2E2E2E2E2E2E2E2E2E2F5E2E2E2E2E2E2E2E2E2E2E2E2E2E2E2E2E2E2E2E2E2E2E2E2E2E2E2E2E2E2E2E2E2E2E2E2E2E2E2E2E2E2E2E2E2E2E2E2E2E2E2E2E2E2E2E2E2E2E2
310
E2E2E2E2E2E2E2E2E2E2E2E2E2E2E2E2E2E2E2E2E2E2E2E2E2E2E2E2E2E2E2E2E2E2E2E2E2E2E2E2E2E2E2E2E2E2E2E2E2E2E2E2E2E2E2E2E2E2E2E2E2E2E2E2E2E2E2E2E2E2E2E2E2E2E2E2E2F5E2E2E2E2E2E2E2E2E2E2E2E2E2E2E2E2F5E2E2F5F5EFF5E2E2F5E2E2E2E2E2E2E2E2E2E2E2E2E2E2E2E2F5E2E2F5F5F5F5
310
F5F5F5F5F5F5F5F5F5F5F5F5F5E2F5F5F5F5E2F5F5F5F5F5F5F5F5F5F5F5E2E2F5F5F5F5F5F5E2E2F5F5F5F5F5E2F5F5F5E2F5F5F5F5F5F5F5E2F5E2E2E2E2E2E2E2E2E2E2E2E2E2E2E2E2E2E2E2E2E2E2E2E2E2E2E2E2E2E2E2E2E2E2E2E2E2E2E2E2E2E2E2E2E2E2E2E2E2E2E2E2E2E2E2E2E2E2E2E2E2E2E2E2E2E2E2E2
310
E2E2E2F5E2E2E2E2E2E2E2E2E2E2E2E2E2E2E2E2F5E2E2F5F5EFF5E2E2F5E2E2E2E2E2E2E2E2E2E2E2E2E2E2E2E2F5E2E2F5E2F5F5F5F5F5F5E2F5F5F5E2F5F5F5E2F5F5F5F5F5E2F5F5F5F5F5F5F5F5F5F5F5E2E2F5F5F5F5F5F5F5F5E2F5F5F5F5F5F5F5F5E2F5F5F5F5F5F5F5F5E2F5E2E2E2E2E2E2E2E2E2E2E2E2E2E2
310
E2E2E2E2E2E2E2E2E2E2E2E2E2E2E2E2E2E2E2E2E2E2E2E2E2E2E2E2E2E2E2E2E2E2E2E2E2E2E2E2E2E2E2E2E2E2E2E2E2E2E2E2E2E2E2E2F5E2E2E2E2E2E2E2E2E2E2E2E2E2E2E2E2F5E2E2F5F5EFF5E2E2F5E2E2E2E2E2E2E2E2E2E2E2E2E2E2E2E2F5E2E2E2E2E2E2E2E2E2E2E2E2E2E2E2E2E2E2E2E2E2E2E2E2E2E2E2
310
E2E2E2E2E2E2E2E2E2E2E2E2E2E2E2E2E2E2E2E2E2E2E2E2E2E2E2E2E2E2E2E2E2E2E2E2E2E2E2E2E2E2E2E2E2E2E2E2E2E2E2E2E2E2E2E2E2E2E2E2E2E2E2E2E2E2E2E2E2E2E2E2E2E2E2E2E2E2E2E2E2E2E2E2E2E2E2E2E2E2E2E2E2E2E2E2E2E2E2E2E2E2E2E2E2E2E2E2E2F5E2E2E2E2E2E2E2E2E2E2E2E2E2E2E2E2F5
310
E2E2F5F5EFF5E2E2E2E2E2E2E2E2E2E2E2E2E2E2E2E2E2E2E2F5E2E2E2E2E2E2E2E2E2E2E2E2E2E2E2E2E2E2E2E2E2E2E2E2E2E2E2E2E2E2E2E2E2E2E2E2E2E2E2E2E2E2E2E2E2E2E2E2E2E2E2E2E2E2E2E2E2E2E2E2E2E2E2E2E2E2E2E2E2E2E2E2E2E2E2E2E2E2E2E2E2E2E2E2E2E2E2E2E2E2E2E2E2E2E2E2E2E2E2E2E2
310
E2E2E2E2E2E2E2E2E2E2E2E2E2E2E2E2E2E2E2E2E2E2E2E2E2E2E2E2E2E2E2E2E2E2E2F5E2E2E2E2E2E2E2E2E2E2E2E2E2E2E2E2E2E2E2F5F5EFF5E2E2E2E2E2E2E2E2E2E2E2E2E2E2E2E2E2E2E2F5E2E2E2E2E2E2E2E2E2E2E2E2E2E2E2E2E2E2E2E2E2E2E2E2E2E2E2E2E2E2E2E2E2E2E2E2E2E2E2E2E2E2E2E2E2E2E2E2
310
E2E2E2E2E2E2E2E2E2E2E2E2E2E2E2E2E2E2E2E2E2E2E2E2E2E2E2E2E2E2E2E2E2E2E2E2E2E2E2E2E2E2E2E2E2E2E2E2E2E2E2E2E2E2E2E2E2E2E2E2E2E2E2E2E2E2E2E2E2E2E2E2E2E2E2E2E2E2E2E2E2E2E2E2E2E2E2E2F5E2E2E2E2E2E2E2E2E2E2E2E2E2E2E2E2E2E2E2F5F5EFF5E2E2E2E2E2E2E2E2E2E2E2E2E2E2E2
310
E2E2E2E2F5E2E2E2E2E2E2E2E2E2E2E2E2E2E2E2E2E2E2E2E2E2E2E2E2E2E2E2E2E2E2E2E2E2E2E2E2E2E2E2E2E2E2E2E2E2E2E2E2E2E2E2E2E2E2E2E2E2E2E2E2E2E2E2E2E2E2E2E2E2E2E2E2E2E2E2E2E2E2E2E2E2E2E2E2E2E2E2E2E2E2E2E2E2E2E2E2E2E2E2E2E2E2E2E2E2E2E2E2E2E2E2E2E2E2E2E2E2E2E2E2E2E2
310
E2E2E2E2E2E2E2E2E2E2E2E2E2E2F5E2E2E2E2E2E2E2E2E2E2E2E2E2E2E2E2E2E2E2F5F5EFF5E2E2E2E2E2E2E2E2E2E2E2E2E2E2E2E2E2E2E2F5F5F5F5F5F5F5F5F5F5F5F5F5F5F5F5F5F5F5F5F5F5F5F5F5F5F5F5F5F5F5F5F5F5F5F5F5F5F5F5F5F5F5F5F5F5F5F5F5F5F5F5F5F5F5F5F5F5F5F5F5F5F5F5F5F5F5F5F5F5
310
F5F5F5F5F5F5F5F5F5F5F5F5F5F5F5F5F5F5F5F5F5F5F5F5F5F5F5F5F5F5F5F5F5F5F5F5F5F5F5F5F5F5F5F5F5F5F5F5F5F5F5F5F5F5F5F5F5F5F5F5F5F5F5F5F5F5F5F5E2E2E2E2E2E2E2E2E2E2E2E2E2E2E2E2E2E2E2F5F5EFF5E2E2E2E2E2E2E2E2E2E2E2E2E2E2E2E2E2E2E2F5F5F5F5F5F5F5F5F5F5F5F5F5F5F5F5F5
310
F5F5F5F5F5F5F5F5F5F5F5F5F5F5F5F5F5F5F5F5F5F5F5F5F5F5F5F5F5F5F5F5F5F5F5F5F5F5F5F5F5F5F5F5F5F5F5F5F5F5F5F5F5F5F5F5F5F5F5F5F5F5F5F5F5F5F5F5F5F5F5F5F5F5F5F5F5F5F5F5F5F5F5F5F5F5F5F5F5F5F5F5F5F5F5F5F5F5F5F5F5F5F5F5F5F5F5F5F5F5F5F5F5F5F5F5F5F5F5F5F5E2E2E2E2E2E2
310
E2E2E2E2E2E2E2E2E2E2E2E2E2F5F5EFF5E2E2E2E2E2E2E2E2E2E2E2E2E2E2E2E2E2E2E2E2E2E2E2E2E2E2E2E2E2E2E2E2E2E2E2E2E2E2E2E2E2E2E2E2E2E2E2E2E2E2E2E2E2E2E2E2E2E2E2E2E2E2E2E2E2E2E2E2E2E2E2E2E2E2E2E2E2E2E2E2E2E2E2E2E2E2E2E2E2E2E2E2E2E2E2E2E2E2E2E2E2E2E2E2E2E2E2E2E2E2
310
E2E2E2E2E2E2E2E2E2E2E2E2E2E2E2E2E2E2E2E2E2E2E2E2E2E2E2E2E2E2E2E2E2E2E2E2E2E2E2E2E2E2E2E2E2E2E2E2E2E2E2E2E2E2E2E2E2E2E2E2E2E2E2E2E2E2F5F5EFF5E2E2E2E2E2E2E2E2E2E2E2E2E2E2E2E2E2E2E2E2E2E2E2E2E2E2E2E2E2E2E2E2E2E2E2E2E2E2E2E2E2E2E2E2E2E2E2E2E2E2E2E2E2E2E2E2E2
310
E2E2E2E2E2E2E2E2E2E2E2E2E2E2E2E2E2E2E2E2E2E2E2E2E2E2E2E2E2E2E2E2E2E2E2E2E2E2E2E2E2E2E2E2E2E2E2E2E2E2E2E2E2E2E2E2E2E2E2E2E2E2E2E2E2E2E2E2E2E2E2E2E2E2E2E2E2E2E2E2E2E2E2E2E2E2E2E2E2E2E2E2E2E2E2E2E2E2E2E2E2E2E2E2E2E2E2E2E2E2E2E2E2E2E2E2E2E2E2F5F5EFF5E2E2E2E2
310
E2E2E2E2E2E2E2E2E2E2E2E2E2E2E2E2E2E2E2E2E2E2E2E2E2E2E2E2E2E2E2E2E2E2E2E2E2E2E2E2E2E2E2E2E2E2E2E2E2E2E2E2E2E2E2E2E2E2E2E2E2E2E2E2E2E2E2E2E2E2E2E2E2E2E2E2E2E2E2E2E2E2E2E2E2E2E2E2E2E2E2E2E2E2E2E2E2E2E2E2E2E2E2E2E2E2E2E2E2E2E2E2E2E2E2E2E2E2E2E2E2E2E2E2E2E2E2
310
E2E2E2E2E2E2E2E2E2E2E2E2E2E2E2E2E2E2E2E2E2E2E2E2E2E2E2E2E2E2E2E2E2E2E2E2E2E2E2E2E2E2E2E2E2F5F5EFF5E2E2E2E2E2E2E2E2E2E2E2E2E2E2E2E2E2E2E2E2E2E2E2E2E2E2E2E2E2E2E2E2E2E2E2E2E2E2E2E2E2E2E2E2E2E2E2E2E2E2E2E2E2E2E2E2E2E2E2E2E2E2E2E2E2E2E2E2E2E2E2E2E2E2E2E2E2E2
310
E2E2E2E2E2E2E2E2E2E2E2E2E2E2E2E2E2E2E2E2E2E2E2E2E2E2E2E2E2E2E2E2E2E2E2E2E2E2E2E2E2E2E2E2E2E2E2E2E2E2E2E2E2E2E2E2E2E2E2E2E2E2E2E2E2E2E2E2E2E2E2E2E2E2E2E2E2E2E2E2E2E2E2E2E2E2E2E2E2E2E2E2E2E2E2E2E2E2F5F5EFF5E2E2F5E2E2E2E2E2E2E2E2E2E2E2E2E2E2E2E2E2E2E2E2E2E2
310
E2E2E2E2E2E2E2E2E2E2E2E2E2E2E2E2E2E2E2E2E2E2E2E2E2E2E2E2E2E2E2E2E2E2E2E2E2E2E2E2E2E2E2E2E2E2E2E2E2E2E2E2E2E2E2E2E2E2E2E2E2E2E2E2E2E2E2E2E2E2E2E2E2E2E2E2E2E2E2E2E2E2E2E2E2E2E2E2E2E2E2E2E2E2E2E2E2E2E2E2E2E2E2E2E2E2E2E2E2E2E2E2E2E2E2E2E2E2E2E2E2E2E2E2E2E2E2
310
E2E2E2E2E2E2E2E2E2E2E2E2E2E2E2E2E2E2E2E2E2F5E2E2F5F5EFF5E2E2F5E2E2E2E2E2E2E2E2E2E2E2E2E2E2E2E2E2E2E2E2E2E2E2E2E2E2E2E2E2E2E2E2E2E2E2E2E2E2E2E2E2E2E2E2E2E2E2E2E2E2E2E2E2E2E2E2E2E2E2E2E2E2E2E2E2E2E2E2E2E2E2E2E2E2E2E2E2E2E2E2E2E2E2E2E2E2E2E2E2E2E2E2E2E2E2E2
310
E2E2E2E2E2E2E2E2E2E2E2E2E2E2E2E2E2E2E2E2E2E2E2E2E2E2E2E2E2E2E2E2E2E2E2E2E2E2E2E2E2E2E2E2E2E2E2E2E2E2E2E2E2E2E2E2E2E2E2E2E2E2E2E2E2E2E2E2E2E2E2E2E2E2F5E2E2F5F5EFF5E2E2F5E2E2E2E2E2E2E2E2E2E2E2E2E2E2E2E2E2E2E2E2E2E2E2E2E2E2E2E2E2E2E2E2E2E2E2E2E2E2E2E2E2E2E2
310
E2E2E2E2E2E2E2E2E2E2E2E2E2E2E2E2E2E2E2E2E2E2E2E2E2E2E2E2E2E2E2E2E2E2E2E2E2E2E2E2E2E2E2E2E2E2E2E2E2E2E2E2E2E2E2E2E2E2E2E2E2E2E2E2E2E2E2E2E2E2E2E2E2E2E2E2E2E2E2E2E2E2E2E2E2E2E2E2E2E2E2E2E2E2E2E2E2E2E2E2E2E2E2E2E2E2E2E2E2E2E2E2E2E2E2E2E2E2E2E2E2E2E2E2E2E2E2
310
F5E2E2F5F5EFF5E2E2F5E2E2E2E2E2E2E2E2E2E2E2E2E2E2E2E2E2E2E2E2E2E2E2E2E2E2E2E2E2E2E2E2E2E2E2E2E2E2E2E2E2E2E2E2E2E2E2E2E2E2E2E2E2E2E2E2E2E2E2E2E2E2E2E2E2E2E2E2E2E2E2E2E2E2E2E2E2E2E2E2E2E2E2E2E2E2E2E2E2E2E2E2E2E2E2E2E2E2E2E2E2E2E2E2E2E2E2E2E2E2E2E2E2E2E2E2E2
310
E2E2E2E2E2E2E2E2E2E2E2E2E2E2E2E2E2E2E2E2E2E2E2E2E2E2E2E2E2E2E2E2E2E2E2E2E2E2E2E2E2E2E2E2E2E2E2E2E2E2E2E2E2F5E2E2F5F5EFF5E2E2F5E2E2E2E2E2E2E2E2E2E2E2E2E2E2E2E2E2E2E2E2E2E2E2E2E2E2E2E2E2E2E2E2E2E2E2E2E2E2E2E2E2E2E2E2E2E2E2E2E2E2E2E2E2E2E2E2E2E2E2E2E2E2E2E2
310
E2E2E2E2E2E2E2E2E2E2E2E2E2E2E2E2E2E2E2E2E2E2E2E2E2E2E2E2E2E2E2E2E2E2E2E2E2E2E2E2E2E2E2E2E2E2E2E2E2E2E2E2E2E2E2E2E2E2E2E2E2E2E2E2E2E2E2E2E2E2E2E2E2E2E2E2E2E2E2E2E2E2E2E2E2E2E2E2E2E2E2E2E2E2E2E2E2E2E2E2E2E2E2E2E2E2F5E2E2F5F5EFF5E2E2F5E2E2E2E2E2E2E2E2E2E2E2
310
E2E2E2E2E2E2E2E2E2E2E2E2E2E2E2E2E2E2E2E2E2E2E2E2E2E2E2E2E2E2E2E2E2E2E2E2E2E2E2E2E2E2E2E2E2E2E2E2E2E2E2E2E2E2E2E2E2E2E2E2E2E2E2E2E2E2E2E2E2E2E2E2E2E2E2E2E2E2E2E2E2E2E2E2E2E2E2E2E2E2E2E2E2E2E2E2E2E2E2E2E2E2E2E2E2E2E2E2E2E2E2E2E2E2E2E2E2E2E2E2E2E2E2E2E2E2E2
310
E2E2E2E2E2E2E2E2E2E2E2E2E2E2E2E2E2E2E2E2E2E2E2E2E2E2E2E2E2E2E2E2F5E2E2F5F5EFF5E2E2F5E2E2E2E2E2E2E2E2E2E2E2E2E2E2E2E2E2E2E2E2E2E2E2E2E2E2E2E2E2E2E2E2E2E2E2E2E2E2E2E2E2E2E2E2E2E2E2E2E2E2E2E2E2E2E2E2E2E2E2E2E2E2E2E2E2E2E2E2E2E2E2E2E2E2E2E2E2E2E2E2E2E2E2E2E2
310
E2E2E2E2E2E2E2E2E2E2E2E2E2E2E2E2E2E2E2E2E2E2E2E2E2E2E2E2E2E2E2E2E2E2E2E2E2E2E2E2E2E2E2E2E2E2E2E2E2E2E2E2E2E2E2E2E2E2E2E2E2E2E2E2E2E2E2E2E2E2E2E2E2E2E2E2E2E2E2E2E2E2E2E2E2F5E2E2F5F5EFF5E2E2F5F5F5F5F5F5F5F5E2E2E2E2E2E2E2E2E2F5F5F5F5F5F5F5F5F5F5F5F5F5F5F5F5
310
E2E2E2E2E2E2E2E2E2F5F5F5F5F5F5F5F5F5F5F5F5F5F5F5E2E2E2E2E2E2E2E2E2F5F5F5F5F5F5F5F5F5F5F5F5F5F5F5F5E2E2E2E2E2E2E2E2F5F5F5F5F5F5F5F5F5F5F5F5F5F5F5F5E2E2E2E2E2E2E2E2E2F5F5F5F5F5F5F5F5F5F5F5F5F5F5F5E2E2E2E2E2E2E2E2E2F5F5F5F5F5F5F5F5F5F5F5F5F5F5F5F5E2E2E2E2E2
310
E2E2E2E2F5F5F5F5F5F5F5F5E2E2F5F5EFF5E2E2E2E2E2E2E2E2E2E2E2E2E2E2E2E2E2E2E2E2E2E2E2E2E2E2E2E2E2E2E2E2E2E2E2E2E2E2E2E2E2E2E2E2E2E2E2E2E2E2E2E2E2E2E2E2E2E2E2E2E2E2E2E2E2E2E2E2E2E2E2E2E2E2E2E2E2E2E2E2E2E2E2E2E2E2E2E2E2E2E2E2E2E2E2E2E2E2E2E2E2E2E2E2E2E2E2E2E2
310
E2E2E2E2E2E2E2E2E2E2E2E2E2E2E2E2E2E2E2E2E2E2E2E2E2E2E2E2E2E2E2E2E2E2E2E2E2E2E2E2E2E2E2E2E2E2E2E2E2E2E2E2E2E2E2E2E2E2E2E2E2E2E2E2E2E2E2F5F5EFF5E2E2E2E2E2E2E2E2E2E2E2E2E2E2E2E2E2E2E2E2E2E2E2E2E2E2E2E2E2E2E2E2E2E2E2E2E2E2E2E2E2E2E2E2E2E2E2E2E2E2E2E2E2E2E2E2
310
E2E2E2E2E2E2E2E2E2E2E2E2E2E2E2E2E2E2E2E2E2E2E2E2E2E2E2E2E2E2E2E2E2E2E2E2E2E2E2E2E2E2E2E2E2E2E2E2E2E2E2E2E2E2E2E2E2E2E2E2E2E2E2E2E2E2E2E2E2E2E2E2E2E2E2E2E2E2E2E2E2E2E2E2E2E2E2E2E2E2E2E2E2E2E2E2E2E2E2E2E2E2E2E2E2E2E2E2E2E2E2E2E2E2E2E2E2E2E2E2F5EFEFF5F5F5F5
310
F5F5F5F5F5F5F5F5F5F5F5F5F5F5F5F5F5F5F5F5F5F5F5F5F5F5F5F5F5F5F5F5F5F5F5F5F5F5F5F5F5F5F5F5F5F5F5F5F5F5F5F5F5F5F5F5F5F5F5F5F5F5F5F5F5F5F5F5F5F5F5F5F5F5F5F5F5F5F5F5F5F5F5F5F5F5F5F5F5F5F5F5F5F5F5F5F5F5F5F5F5F5F5F5F5F5F5F5F5F5F5F5F5F5F5F5F5F5F5F5F5F5F5F5F5F5F5
310
F5F5F5F5F5F5F5F5F5F5F5F5F5F5F5F5F5F5F5F5F5F5F5F5F5F5F5F5F5F5F5F5F5F5F5F5F5F5F5F5F5F5F5F5F5F5F5EF
  0
ENDSEC
  0
EOF
