  0
SECTION
  2
HEADER
  9
$ACADVER
  1
AC1012
  9
$DWGCODEPAGE
  3
dos932
  9
$INSBASE
 10
0.0
 20
0.0
 30
0.0
  9
$EXTMIN
 10
-399.25
 20
-276.75
 30
0.0
  9
$EXTMAX
 10
406.09414987197181
 20
276.25
 30
0.0
  9
$LIMMIN
 10
-399.25
 20
-276.75
  9
$LIMMAX
 10
406.09414987197181
 20
276.25
  9
$ORTHOMODE
 70
               0
  9
$REGENMODE
 70
               1
  9
$FILLMODE
 70
               1
  9
$QTEXTMODE
 70
               0
  9
$MIRRTEXT
 70
               1
  9
$DRAGMODE
 70
               2
  9
$LTSCALE
 40
1.0
  9
$OSMODE
 70
               0
  9
$ATTMODE
 70
               1
  9
$TEXTSIZE
 40
3.2000000476837158
  9
$TRACEWID
 40
0.05
  9
$TEXTSTYLE
  7
MX_NOTE_STANDARD
  9
$CLAYER
  8
0
  9
$CELTYPE
  6
CONTINUOUS
  9
$CECOLOR
 62
             256
  9
$CELTSCALE
 40
1.0
  9
$DELOBJ
 70
               1
  9
$DISPSILH
 70
               0
  9
$DIMSCALE
 40
1.0
  9
$DIMASZ
 40
2.5
  9
$DIMEXO
 40
1.5
  9
$DIMDLI
 40
3.75
  9
$DIMRND
 40
0.0
  9
$DIMDLE
 40
0.0
  9
$DIMEXE
 40
1.5
  9
$DIMTP
 40
0.0
  9
$DIMTM
 40
0.0
  9
$DIMTXT
 40
3.2000000476837158
  9
$DIMCEN
 40
2.5
  9
$DIMTSZ
 40
0.0
  9
$DIMTOL
 70
               0
  9
$DIMLIM
 70
               0
  9
$DIMTIH
 70
               0
  9
$DIMTOH
 70
               0
  9
$DIMSE1
 70
               0
  9
$DIMSE2
 70
               0
  9
$DIMTAD
 70
               1
  9
$DIMZIN
 70
               8
  9
$DIMBLK
  1

  9
$DIMASO
 70
               1
  9
$DIMSHO
 70
               1
  9
$DIMPOST
  1

  9
$DIMAPOST
  1

  9
$DIMALT
 70
               0
  9
$DIMALTD
 70
               4
  9
$DIMALTF
 40
0.03937007874016
  9
$DIMLFAC
 40
1.0
  9
$DIMTOFL
 70
               1
  9
$DIMTVP
 40
0.0
  9
$DIMTIX
 70
               0
  9
$DIMSOXD
 70
               0
  9
$DIMSAH
 70
               0
  9
$DIMBLK1
  1

  9
$DIMBLK2
  1

  9
$DIMSTYLE
  2
MXDIMSTYLE
  9
$DIMCLRD
 70
               0
  9
$DIMCLRE
 70
               0
  9
$DIMCLRT
 70
               0
  9
$DIMTFAC
 40
1.0
  9
$DIMGAP
 40
1.0
  9
$DIMJUST
 70
               0
  9
$DIMSD1
 70
               0
  9
$DIMSD2
 70
               0
  9
$DIMTOLJ
 70
               1
  9
$DIMTZIN
 70
               0
  9
$DIMALTZ
 70
               0
  9
$DIMALTTZ
 70
               0
  9
$DIMFIT
 70
               3
  9
$DIMUPT
 70
               1
  9
$DIMUNIT
 70
               2
  9
$DIMDEC
 70
               4
  9
$DIMTDEC
 70
               4
  9
$DIMALTU
 70
               2
  9
$DIMALTTD
 70
               4
  9
$DIMTXSTY
  7
MX_NOTE_STANDARD
  9
$DIMAUNIT
 70
               0
  9
$LUNITS
 70
               2
  9
$LUPREC
 70
               4
  9
$SKETCHINC
 40
0.1
  9
$FILLETRAD
 40
0.0
  9
$AUNITS
 70
               0
  9
$AUPREC
 70
               0
  9
$MENU
  1
acad
  9
$ELEVATION
 40
0.0
  9
$PELEVATION
 40
0.0
  9
$THICKNESS
 40
0.0
  9
$LIMCHECK
 70
               0
  9
$BLIPMODE
 70
               1
  9
$CHAMFERA
 40
0.0
  9
$CHAMFERB
 40
0.0
  9
$CHAMFERC
 40
0.0
  9
$CHAMFERD
 40
0.0
  9
$SKPOLY
 70
               0
  9
$TDCREATE
 40
2453378.356504630
  9
$TDUPDATE
 40
2453378.356504630
  9
$TDINDWG
 40
0.0000000000
  9
$TDUSRTIMER
 40
0.0000000000
  9
$USRTIMER
 70
               1
  9
$ANGBASE
 50
0.0
  9
$ANGDIR
 70
               0
  9
$PDMODE
 70
               0
  9
$PDSIZE
 40
0.0
  9
$PLINEWID
 40
0.0
  9
$COORDS
 70
               1
  9
$SPLFRAME
 70
               0
  9
$SPLINETYPE
 70
               6
  9
$SPLINESEGS
 70
               8
  9
$ATTDIA
 70
               0
  9
$ATTREQ
 70
               1
  9
$HANDLING
 70
               1
  9
$HANDSEED
  5
661
  9
$SURFTAB1
 70
               6
  9
$SURFTAB2
 70
               6
  9
$SURFTYPE
 70
               6
  9
$SURFU
 70
               6
  9
$SURFV
 70
               6
  9
$UCSNAME
  2

  9
$UCSORG
 10
0.0
 20
0.0
 30
0.0
  9
$UCSXDIR
 10
1.0
 20
0.0
 30
0.0
  9
$UCSYDIR
 10
0.0
 20
1.0
 30
0.0
  9
$PUCSNAME
  2

  9
$PUCSORG
 10
0.0
 20
0.0
 30
0.0
  9
$PUCSXDIR
 10
1.0
 20
0.0
 30
0.0
  9
$PUCSYDIR
 10
0.0
 20
1.0
 30
0.0
  9
$USERI1
 70
               0
  9
$USERI2
 70
               0
  9
$USERI3
 70
               0
  9
$USERI4
 70
               0
  9
$USERI5
 70
               0
  9
$USERR1
 40
0.0
  9
$USERR2
 40
0.0
  9
$USERR3
 40
0.0
  9
$USERR4
 40
0.0
  9
$USERR5
 40
0.0
  9
$WORLDVIEW
 70
               1
  9
$SHADEDGE
 70
               3
  9
$SHADEDIF
 70
              70
  9
$TILEMODE
 70
               1
  9
$MAXACTVP
 70
              16
  9
$PINSBASE
 10
0.0
 20
0.0
 30
0.0
  9
$PLIMCHECK
 70
               0
  9
$PEXTMIN
 10
1.0000000000000000E+20
 20
1.0000000000000000E+20
 30
1.0000000000000000E+20
  9
$PEXTMAX
 10
-1.0000000000000000E+20
 20
-1.0000000000000000E+20
 30
-1.0000000000000000E+20
  9
$PLIMMIN
 10
0.0
 20
0.0
  9
$PLIMMAX
 10
12.0
 20
9.0
  9
$UNITMODE
 70
               0
  9
$VISRETAIN
 70
               0
  9
$PLINEGEN
 70
               1
  9
$PSLTSCALE
 70
               0
  9
$TREEDEPTH
 70
            3020
  9
$PICKSTYLE
 70
               1
  9
$CMLSTYLE
  2
Standard
  9
$CMLJUST
 70
               0
  9
$CMLSCALE
 40
1.0
  9
$SAVEIMAGES
 70
               0
  0
ENDSEC
  0
SECTION
  2
CLASSES
  0
CLASS
  1
LWPOLYLINE
  2
AcDbPolyline
  3
"AutoCAD"
 90
        0
280
               0
281
               1
  0
CLASS
  1
IMAGE
  2
AcDbRasterImage
  3
ISM
 90
      127
280
               0
281
               1
  0
CLASS
  1
OLE2FRAME
  2
AcDbOle2Frame
  3
""
 90
        0
280
               0
281
               1
  0
CLASS
  1
HATCH
  2
AcDbHatch
  3
"ACAD_SEDONA"
 90
        0
280
               0
281
               1
  0
CLASS
  1
DICTIONARYVAR
  2
AcDbDictionaryVar
  3
"AutoCAD"
 90
        0
280
               0
281
               0
  0
CLASS
  1
RASTERVARIABLES
  2
AcDbRasterVariables
  3
ISM
 90
        0
280
               0
281
               0
  0
CLASS
  1
IMAGEDEF
  2
AcDbRasterImageDef
  3
ISM
 90
        0
280
               0
281
               0
  0
CLASS
  1
IMAGEDEF_REACTOR
  2
AcDbRasterImageDefReactor
  3
ISM
 90
        1
280
               0
281
               0
  0
CLASS
  1
IDBUFFER
  2
AcDbIdBuffer
  3
"Acad"
 90
        0
280
               0
281
               0
  0
CLASS
  1
SPATIAL_FILTER
  2
AcDbSpatialFilter
  3
"Acad"
 90
        0
280
               0
281
               0
  0
CLASS
  1
XRECORD
  2
AcDbXrecord
  3
"<Built In>"
 90
        0
280
               0
281
               0
  0
CLASS
  1
SORTENTSTABLE
  2
AcDbSortentsTable
  3
"AutoCAD"
 90
        0
280
               0
281
               0
  0
CLASS
  1
LAYER_INDEX
  2
AcDbLayerIndex
  3
"Acad"
 90
        0
280
               0
281
               0
  0
CLASS
  1
SPATIAL_INDEX
  2
AcDbSpatialIndex
  3
"Acad"
 90
        0
280
               0
281
               0
  0
CLASS
  1
OBJECT_PTR
  2
CAseDLPNTableRecord
  3
"ASE-LPNTableRecord"
 90
        1
280
               0
281
               0
  0
CLASS
  1
LAYOUT
  2
AcDbLayout
  3
"AutoCAD 2000"
 90
        1
280
               0
281
               0
  0
CLASS
  1
PLOTSETTINGS
  2
AcDbPlotSettings
  3
"AutoCAD 2000"
 90
        1
280
               0
281
               0
  0
CLASS
  1
ACDBDICTIONARYWDFLT
  2
AcDbDictionaryWithDefault
  3
"AutoCAD 2000"
 90
        1
280
               0
281
               0
  0
CLASS
  1
ACDBPLACEHOLDER
  2
AcDbPlaceHolder
  3
"AutoCAD 2000"
 90
        1
280
               0
281
               0
  0
ENDSEC
  0
SECTION
  2
TABLES
  0
TABLE
  2
VPORT
  5
7
100
AcDbSymbolTable
 70
               1
  0
VPORT
  5
15
100
AcDbSymbolTableRecord
100
AcDbViewportTableRecord
  2
*ACTIVE
 70
               0
 10
0.0
 20
0.0
 11
1.0
 21
1.0
 12
3.4220749359859042
 22
-0.25
 13
0.0
 23
0.0
 14
1.0
 24
1.0
 15
0.0
 25
0.0
 16
0.0
 26
0.0
 36
1.0
 17
0.0
 27
0.0
 37
0.0
 40
558.52999999999997
 41
1.7320508075688772
 42
50.0
 43
0.0
 44
0.0
 50
0.0
 51
0.0
 71
               0
 72
             100
 73
               1
 74
               1
 75
               0
 76
               0
 77
               0
 78
               0
  0
ENDTAB
  0
TABLE
  2
LTYPE
  5
4
100
AcDbSymbolTable
 70
               4
  0
LTYPE
  5
11
100
AcDbSymbolTableRecord
100
AcDbLinetypeTableRecord
  2
BYBLOCK
 70
              64
  3

 72
              65
 73
               0
 40
0.0
  0
LTYPE
  5
12
100
AcDbSymbolTableRecord
100
AcDbLinetypeTableRecord
  2
BYLAYER
 70
              64
  3

 72
              65
 73
               0
 40
0.0
  0
LTYPE
  5
13
100
AcDbSymbolTableRecord
100
AcDbLinetypeTableRecord
  2
CONTINUOUS
 70
              64
  3
Solid line
 72
              65
 73
               0
 40
0.0
  0
LTYPE
  5
60B
100
AcDbSymbolTableRecord
100
AcDbLinetypeTableRecord
  2
DASHED
 70
              64
  3
Dashed __ __ __ __ __ __ __ __ __ __ __ __ __ _
 72
              65
 73
               2
 40
4.0
 49
2.0
 74
               0
 49
-2.0
 74
               0
  0
ENDTAB
  0
TABLE
  2
LAYER
  5
2
100
AcDbSymbolTable
 70
               2
  0
LAYER
  5
14
100
AcDbSymbolTableRecord
100
AcDbLayerTableRecord
  2
0
 70
               0
 62
               7
  6
CONTINUOUS
  0
LAYER
  5
1D
100
AcDbSymbolTableRecord
100
AcDbLayerTableRecord
  2
DEFPOINTS
 70
               0
 62
               7
  6
CONTINUOUS
  0
ENDTAB
  0
TABLE
  2
STYLE
  5
3
100
AcDbSymbolTable
 70
               1
  0
STYLE
  5
17
100
AcDbSymbolTableRecord
100
AcDbTextStyleTableRecord
  2
MX_NOTE_STANDARD
 70
               0
 40
0.0
 41
1.0
 50
0.0
 71
               0
 42
3.2000000476837158
  3
txt.shx
  4
extfont.shx
  0
ENDTAB
  0
TABLE
  2
VIEW
  5
5
100
AcDbSymbolTable
 70
               0
  0
ENDTAB
  0
TABLE
  2
UCS
  5
6
100
AcDbSymbolTable
 70
               0
  0
ENDTAB
  0
TABLE
  2
APPID
  5
8
100
AcDbSymbolTable
 70
               1
  0
APPID
  5
16
100
AcDbSymbolTableRecord
100
AcDbRegAppTableRecord
  2
ACAD
 70
               0
  0
ENDTAB
  0
TABLE
  2
DIMSTYLE
  5
9
100
AcDbSymbolTable
 70
               1
  0
DIMSTYLE
105
18
100
AcDbSymbolTableRecord
100
AcDbDimStyleTableRecord
  2
MXDIMSTYLE
 70
               0
  3

  4

  5

  6

  7

 40
1.0
 41
2.5
 42
1.5
 43
3.75
 44
1.5
 45
0.0
 46
0.0
 47
0.0
 48
0.0
 71
               0
 72
               0
 73
               0
 74
               0
 75
               0
 76
               0
 77
               1
 78
               8
140
3.2000000476837158
141
2.5
142
0.0
143
0.03937007874016
144
1.0
145
0.0
146
1.0
147
1.0
170
               0
171
               4
172
               1
173
               0
174
               0
175
               0
176
               0
177
               0
178
               0
270
               2
271
               4
272
               4
273
               2
274
               4
275
               0
280
               0
281
               0
282
               0
283
               1
284
               0
285
               0
286
               0
287
               3
288
               1
340
17
  0
ENDTAB
  0
TABLE
  2
BLOCK_RECORD
  5
1
100
AcDbSymbolTable
 70
              16
  0
BLOCK_RECORD
  5
A
100
AcDbSymbolTableRecord
100
AcDbBlockTableRecord
  2
*MODEL_SPACE
  0
BLOCK_RECORD
  5
B
100
AcDbSymbolTableRecord
100
AcDbBlockTableRecord
  2
*PAPER_SPACE
  0
BLOCK_RECORD
  5
1E
100
AcDbSymbolTableRecord
100
AcDbBlockTableRecord
  2
F18_CONNECTER-1
  0
BLOCK_RECORD
  5
1F
100
AcDbSymbolTableRecord
100
AcDbBlockTableRecord
  2
F18_CONNECTER-2
  0
BLOCK_RECORD
  5
20
100
AcDbSymbolTableRecord
100
AcDbBlockTableRecord
  2
F18_CONNECTER-3
  0
BLOCK_RECORD
  5
21
100
AcDbSymbolTableRecord
100
AcDbBlockTableRecord
  2
F18_CONNECTER-4
  0
BLOCK_RECORD
  5
22
100
AcDbSymbolTableRecord
100
AcDbBlockTableRecord
  2
F18_CONNECTER-5
  0
BLOCK_RECORD
  5
23
100
AcDbSymbolTableRecord
100
AcDbBlockTableRecord
  2
F18_CONNECTER-6
  0
BLOCK_RECORD
  5
24
100
AcDbSymbolTableRecord
100
AcDbBlockTableRecord
  2
F18_CONNECTER-7
  0
BLOCK_RECORD
  5
25
100
AcDbSymbolTableRecord
100
AcDbBlockTableRecord
  2
F18_CONNECTER-8
  0
BLOCK_RECORD
  5
26
100
AcDbSymbolTableRecord
100
AcDbBlockTableRecord
  2
F18_CONNECTER-9
  0
BLOCK_RECORD
  5
27
100
AcDbSymbolTableRecord
100
AcDbBlockTableRecord
  2
F18_CONNECTER-10
  0
BLOCK_RECORD
  5
28
100
AcDbSymbolTableRecord
100
AcDbBlockTableRecord
  2
F18_CONNECTER-11
  0
BLOCK_RECORD
  5
29
100
AcDbSymbolTableRecord
100
AcDbBlockTableRecord
  2
F18_CONNECTER-12
  0
BLOCK_RECORD
  5
2A
100
AcDbSymbolTableRecord
100
AcDbBlockTableRecord
  2
F18_CONNECTER-13
  0
BLOCK_RECORD
  5
2B
100
AcDbSymbolTableRecord
100
AcDbBlockTableRecord
  2
F18_CONNECTER-14
  0
BLOCK_RECORD
  5
2C
100
AcDbSymbolTableRecord
100
AcDbBlockTableRecord
  2
F18_CONNECTER-15
  0
BLOCK_RECORD
  5
2D
100
AcDbSymbolTableRecord
100
AcDbBlockTableRecord
  2
F18_CONNECTER-16
  0
ENDTAB
  0
ENDSEC
  0
SECTION
  2
BLOCKS
  0
BLOCK
  5
D
100
AcDbEntity
  8
0
100
AcDbBlockBegin
  2
*MODEL_SPACE
 70
               0
 10
0.0
 20
0.0
 30
0.0
  3
*MODEL_SPACE
  1

  0
ENDBLK
  5
E
100
AcDbEntity
  8
0
100
AcDbBlockEnd
  0
BLOCK
  5
F
100
AcDbEntity
 67
               1
  8
0
100
AcDbBlockBegin
  2
*PAPER_SPACE
 70
               0
 10
0.0
 20
0.0
 30
0.0
  3
*PAPER_SPACE
  1

  0
ENDBLK
  5
10
100
AcDbEntity
 67
               1
  8
0
100
AcDbBlockEnd
  0
BLOCK
  5
2E
100
AcDbEntity
  8
0
100
AcDbBlockBegin
  2
F18_CONNECTER-1
 70
               0
 10
0.0
 20
0.0
 30
0.0
  3
F18_CONNECTER-1
  1

  0
LINE
  5
2F
100
AcDbEntity
  8
0
  6
CONTINUOUS
 62
               4
100
AcDbLine
 10
21.0
 20
-73.0
 30
0.0
 11
21.0
 21
50.0
 31
0.0
  0
LINE
  5
30
100
AcDbEntity
  8
0
  6
CONTINUOUS
 62
               4
100
AcDbLine
 10
1.6000000000000001
 20
-73.0
 30
0.0
 11
0.0
 21
-73.0
 31
0.0
  0
LINE
  5
31
100
AcDbEntity
  8
0
  6
CONTINUOUS
 62
               4
100
AcDbLine
 10
0.0
 20
-73.0
 30
0.0
 11
0.0
 21
50.0
 31
0.0
  0
LINE
  5
32
100
AcDbEntity
  8
0
  6
CONTINUOUS
 62
               4
100
AcDbLine
 10
0.0
 20
20.5
 30
0.0
 11
21.0
 21
20.5
 31
0.0
  0
LINE
  5
33
100
AcDbEntity
  8
0
  6
CONTINUOUS
 62
               4
100
AcDbLine
 10
0.0
 20
20.0
 30
0.0
 11
21.0
 21
20.0
 31
0.0
  0
LINE
  5
34
100
AcDbEntity
  8
0
  6
CONTINUOUS
 62
               4
100
AcDbLine
 10
9.4299999999999997
 20
13.43
 30
0.0
 11
11.56
 21
15.56
 31
0.0
  0
LINE
  5
35
100
AcDbEntity
  8
0
  6
CONTINUOUS
 62
               4
100
AcDbLine
 10
9.4299999999999997
 20
15.56
 30
0.0
 11
11.56
 21
13.43
 31
0.0
  0
LINE
  5
36
100
AcDbEntity
  8
0
  6
CONTINUOUS
 62
               4
100
AcDbLine
 10
1.5
 20
-71.299999999999997
 30
0.0
 11
19.5
 21
-71.299999999999997
 31
0.0
  0
LINE
  5
37
100
AcDbEntity
  8
0
  6
CONTINUOUS
 62
               4
100
AcDbLine
 10
1.5
 20
-71.5
 30
0.0
 11
19.5
 21
-71.5
 31
0.0
  0
LINE
  5
38
100
AcDbEntity
  8
0
  6
CONTINUOUS
 62
               4
100
AcDbLine
 10
1.5
 20
-52.0
 30
0.0
 11
1.5
 21
-73.0
 31
0.0
  0
LINE
  5
39
100
AcDbEntity
  8
0
  6
CONTINUOUS
 62
               4
100
AcDbLine
 10
19.5
 20
-52.0
 30
0.0
 11
19.5
 21
-73.0
 31
0.0
  0
LINE
  5
3A
100
AcDbEntity
  8
0
  6
CONTINUOUS
 62
               4
100
AcDbLine
 10
14.0
 20
-71.299999999999997
 30
0.0
 11
14.0
 21
-71.5
 31
0.0
  0
LINE
  5
3B
100
AcDbEntity
  8
0
  6
CONTINUOUS
 62
               4
100
AcDbLine
 10
7.0
 20
-71.299999999999997
 30
0.0
 11
7.0
 21
-71.5
 31
0.0
  0
LINE
  5
3C
100
AcDbEntity
  8
0
  6
CONTINUOUS
 62
               4
100
AcDbLine
 10
1.5
 20
-61.0
 30
0.0
 11
19.5
 21
-61.0
 31
0.0
  0
LINE
  5
3D
100
AcDbEntity
  8
0
  6
CONTINUOUS
 62
               4
100
AcDbLine
 10
1.5
 20
-52.0
 30
0.0
 11
19.5
 21
-52.0
 31
0.0
  0
LINE
  5
3E
100
AcDbEntity
  8
0
  6
CONTINUOUS
 62
               4
100
AcDbLine
 10
9.5
 20
-70.799999999999997
 30
0.0
 11
11.5
 21
-70.799999999999997
 31
0.0
  0
LINE
  5
3F
100
AcDbEntity
  8
0
  6
CONTINUOUS
 62
               4
100
AcDbLine
 10
11.5
 20
-61.0
 30
0.0
 11
11.5
 21
-70.799999999999997
 31
0.0
  0
LINE
  5
40
100
AcDbEntity
  8
0
  6
CONTINUOUS
 62
               4
100
AcDbLine
 10
9.5
 20
-61.0
 30
0.0
 11
9.5
 21
-70.799999999999997
 31
0.0
  0
LINE
  5
41
100
AcDbEntity
  8
0
  6
CONTINUOUS
 62
               4
100
AcDbLine
 10
3.8500000000000001
 20
-69.799999999999997
 30
0.0
 11
8.1500000000000004
 21
-69.799999999999997
 31
0.0
  0
LINE
  5
42
100
AcDbEntity
  8
0
  6
CONTINUOUS
 62
               4
100
AcDbLine
 10
3.8500000000000001
 20
-62.799999999999997
 30
0.0
 11
8.1500000000000004
 21
-62.799999999999997
 31
0.0
  0
LINE
  5
43
100
AcDbEntity
  8
0
  6
CONTINUOUS
 62
               4
100
AcDbLine
 10
12.85
 20
-62.799999999999997
 30
0.0
 11
12.85
 21
-63.600000000000001
 31
0.0
  0
LINE
  5
44
100
AcDbEntity
  8
0
  6
CONTINUOUS
 62
               4
100
AcDbLine
 10
8.1500000000000004
 20
-62.799999999999997
 30
0.0
 11
8.1500000000000004
 21
-63.600000000000001
 31
0.0
  0
LINE
  5
45
100
AcDbEntity
  8
0
  6
CONTINUOUS
 62
               4
100
AcDbLine
 10
3.8500000000000001
 20
-62.799999999999997
 30
0.0
 11
3.8500000000000001
 21
-63.600000000000001
 31
0.0
  0
LINE
  5
46
100
AcDbEntity
  8
0
  6
CONTINUOUS
 62
               4
100
AcDbLine
 10
17.149999999999999
 20
-62.799999999999997
 30
0.0
 11
17.149999999999999
 21
-63.600000000000001
 31
0.0
  0
LINE
  5
47
100
AcDbEntity
  8
0
  6
CONTINUOUS
 62
               4
100
AcDbLine
 10
2.5
 20
-61.0
 30
0.0
 11
2.5
 21
-71.299999999999997
 31
0.0
  0
LINE
  5
48
100
AcDbEntity
  8
0
  6
CONTINUOUS
 62
               4
100
AcDbLine
 10
18.5
 20
-61.0
 30
0.0
 11
18.5
 21
-71.299999999999997
 31
0.0
  0
LINE
  5
49
100
AcDbEntity
  8
0
  6
CONTINUOUS
 62
               4
100
AcDbLine
 10
12.85
 20
-62.799999999999997
 30
0.0
 11
17.149999999999999
 21
-62.799999999999997
 31
0.0
  0
LINE
  5
4A
100
AcDbEntity
  8
0
  6
CONTINUOUS
 62
               4
100
AcDbLine
 10
12.85
 20
-69.799999999999997
 30
0.0
 11
17.149999999999999
 21
-69.799999999999997
 31
0.0
  0
LINE
  5
4B
100
AcDbEntity
  8
0
  6
CONTINUOUS
 62
               4
100
AcDbLine
 10
3.8500000000000001
 20
-69.0
 30
0.0
 11
3.8500000000000001
 21
-69.799999999999997
 31
0.0
  0
LINE
  5
4C
100
AcDbEntity
  8
0
  6
CONTINUOUS
 62
               4
100
AcDbLine
 10
8.1500000000000004
 20
-69.0
 30
0.0
 11
8.1500000000000004
 21
-69.799999999999997
 31
0.0
  0
LINE
  5
4D
100
AcDbEntity
  8
0
  6
CONTINUOUS
 62
               4
100
AcDbLine
 10
12.85
 20
-69.0
 30
0.0
 11
12.85
 21
-69.799999999999997
 31
0.0
  0
LINE
  5
4E
100
AcDbEntity
  8
0
  6
CONTINUOUS
 62
               4
100
AcDbLine
 10
17.149999999999999
 20
-69.0
 30
0.0
 11
17.149999999999999
 21
-69.799999999999997
 31
0.0
  0
LINE
  5
4F
100
AcDbEntity
  8
0
  6
CONTINUOUS
 62
               4
100
AcDbLine
 10
12.050000000000001
 20
-63.600000000000001
 30
0.0
 11
12.050000000000001
 21
-69.0
 31
0.0
  0
LINE
  5
50
100
AcDbEntity
  8
0
  6
CONTINUOUS
 62
               4
100
AcDbLine
 10
17.949999999999999
 20
-63.600000000000001
 30
0.0
 11
17.949999999999999
 21
-69.0
 31
0.0
  0
LINE
  5
51
100
AcDbEntity
  8
0
  6
CONTINUOUS
 62
               4
100
AcDbLine
 10
8.9499999999999993
 20
-63.600000000000001
 30
0.0
 11
8.9499999999999993
 21
-69.0
 31
0.0
  0
LINE
  5
52
100
AcDbEntity
  8
0
  6
CONTINUOUS
 62
               4
100
AcDbLine
 10
3.0499999999999998
 20
-63.600000000000001
 30
0.0
 11
3.0499999999999998
 21
-69.0
 31
0.0
  0
LINE
  5
53
100
AcDbEntity
  8
0
  6
CONTINUOUS
 62
               4
100
AcDbLine
 10
8.1500000000000004
 20
-63.600000000000001
 30
0.0
 11
8.9499999999999993
 21
-63.600000000000001
 31
0.0
  0
LINE
  5
54
100
AcDbEntity
  8
0
  6
CONTINUOUS
 62
               4
100
AcDbLine
 10
3.0499999999999998
 20
-63.600000000000001
 30
0.0
 11
3.8500000000000001
 21
-63.600000000000001
 31
0.0
  0
LINE
  5
55
100
AcDbEntity
  8
0
  6
CONTINUOUS
 62
               4
100
AcDbLine
 10
3.0499999999999998
 20
-69.0
 30
0.0
 11
3.8500000000000001
 21
-69.0
 31
0.0
  0
LINE
  5
56
100
AcDbEntity
  8
0
  6
CONTINUOUS
 62
               4
100
AcDbLine
 10
8.1500000000000004
 20
-69.0
 30
0.0
 11
8.9499999999999993
 21
-69.0
 31
0.0
  0
LINE
  5
57
100
AcDbEntity
  8
0
  6
CONTINUOUS
 62
               4
100
AcDbLine
 10
12.050000000000001
 20
-69.0
 30
0.0
 11
12.85
 21
-69.0
 31
0.0
  0
LINE
  5
58
100
AcDbEntity
  8
0
  6
CONTINUOUS
 62
               4
100
AcDbLine
 10
17.149999999999999
 20
-69.0
 30
0.0
 11
17.949999999999999
 21
-69.0
 31
0.0
  0
LINE
  5
59
100
AcDbEntity
  8
0
  6
CONTINUOUS
 62
               4
100
AcDbLine
 10
17.149999999999999
 20
-63.600000000000001
 30
0.0
 11
17.949999999999999
 21
-63.600000000000001
 31
0.0
  0
LINE
  5
5A
100
AcDbEntity
  8
0
  6
CONTINUOUS
 62
               4
100
AcDbLine
 10
12.050000000000001
 20
-63.600000000000001
 30
0.0
 11
12.85
 21
-63.600000000000001
 31
0.0
  0
LINE
  5
5B
100
AcDbEntity
  8
0
  6
CONTINUOUS
 62
               4
100
AcDbLine
 10
1.6000000000000001
 20
-52.25
 30
0.0
 11
1.6000000000000001
 21
-73.25
 31
0.0
  0
LINE
  5
5C
100
AcDbEntity
  8
0
  6
CONTINUOUS
 62
               4
100
AcDbLine
 10
19.399999999999999
 20
-52.25
 30
0.0
 11
19.399999999999999
 21
-73.25
 31
0.0
  0
LINE
  5
5D
100
AcDbEntity
  8
0
  6
CONTINUOUS
 62
               4
100
AcDbLine
 10
1.6000000000000001
 20
-52.25
 30
0.0
 11
19.399999999999999
 21
-52.25
 31
0.0
  0
LINE
  5
5E
100
AcDbEntity
  8
0
  6
CONTINUOUS
 62
               4
100
AcDbLine
 10
1.6000000000000001
 20
-73.25
 30
0.0
 11
19.399999999999999
 21
-73.25
 31
0.0
  0
LINE
  5
5F
100
AcDbEntity
  8
0
  6
CONTINUOUS
 62
               4
100
AcDbLine
 10
19.399999999999999
 20
-73.0
 30
0.0
 11
21.0
 21
-73.0
 31
0.0
  0
LINE
  5
60
100
AcDbEntity
  8
0
  6
CONTINUOUS
 62
               4
100
AcDbLine
 10
2.0
 20
-50.0
 30
0.0
 11
19.0
 21
-50.0
 31
0.0
  0
LINE
  5
61
100
AcDbEntity
  8
0
  6
CONTINUOUS
 62
               4
100
AcDbLine
 10
2.0
 20
9.0
 30
0.0
 11
19.0
 21
9.0
 31
0.0
  0
LINE
  5
62
100
AcDbEntity
  8
0
  6
CONTINUOUS
 62
               4
100
AcDbLine
 10
19.0
 20
9.0
 30
0.0
 11
19.0
 21
-50.0
 31
0.0
  0
LINE
  5
63
100
AcDbEntity
  8
0
  6
CONTINUOUS
 62
               4
100
AcDbLine
 10
2.0
 20
9.0
 30
0.0
 11
2.0
 21
-50.0
 31
0.0
  0
LINE
  5
64
100
AcDbEntity
  8
0
  6
CONTINUOUS
 62
               4
100
AcDbLine
 10
15.0
 20
-4.1500000000000004
 30
0.0
 11
15.0
 21
-36.850000000000001
 31
0.0
  0
LINE
  5
65
100
AcDbEntity
  8
0
  6
CONTINUOUS
 62
               4
100
AcDbLine
 10
6.0
 20
-4.1500000000000004
 30
0.0
 11
6.0
 21
-36.850000000000001
 31
0.0
  0
LINE
  5
66
100
AcDbEntity
  8
0
  6
CONTINUOUS
 62
               4
100
AcDbLine
 10
6.0
 20
-36.850000000000001
 30
0.0
 11
15.0
 21
-36.850000000000001
 31
0.0
  0
LINE
  5
67
100
AcDbEntity
  8
0
  6
CONTINUOUS
 62
               4
100
AcDbLine
 10
6.0
 20
-4.1500000000000004
 30
0.0
 11
15.0
 21
-4.1500000000000004
 31
0.0
  0
LINE
  5
68
100
AcDbEntity
  8
0
  6
CONTINUOUS
 62
               4
100
AcDbLine
 10
6.5
 20
-36.5
 30
0.0
 11
15.0
 21
-36.5
 31
0.0
  0
LINE
  5
69
100
AcDbEntity
  8
0
  6
CONTINUOUS
 62
               4
100
AcDbLine
 10
6.5
 20
-4.5
 30
0.0
 11
15.0
 21
-4.5
 31
0.0
  0
LINE
  5
6A
100
AcDbEntity
  8
0
  6
CONTINUOUS
 62
               4
100
AcDbLine
 10
6.5
 20
-4.5
 30
0.0
 11
6.5
 21
-36.5
 31
0.0
  0
LINE
  5
6B
100
AcDbEntity
  8
0
  6
CONTINUOUS
 62
               4
100
AcDbLine
 10
8.75
 20
-5.5
 30
0.0
 11
12.75
 21
-5.5
 31
0.0
  0
LINE
  5
6C
100
AcDbEntity
  8
0
  6
CONTINUOUS
 62
               4
100
AcDbLine
 10
8.75
 20
-35.5
 30
0.0
 11
12.75
 21
-35.5
 31
0.0
  0
LINE
  5
6D
100
AcDbEntity
  8
0
  6
CONTINUOUS
 62
               4
100
AcDbLine
 10
6.5
 20
-11.5
 30
0.0
 11
8.75
 21
-11.5
 31
0.0
  0
LINE
  5
6E
100
AcDbEntity
  8
0
  6
CONTINUOUS
 62
               4
100
AcDbLine
 10
6.5
 20
-29.5
 30
0.0
 11
8.75
 21
-29.5
 31
0.0
  0
LINE
  5
6F
100
AcDbEntity
  8
0
  6
CONTINUOUS
 62
               4
100
AcDbLine
 10
8.75
 20
-26.5
 30
0.0
 11
12.75
 21
-26.5
 31
0.0
  0
LINE
  5
70
100
AcDbEntity
  8
0
  6
CONTINUOUS
 62
               4
100
AcDbLine
 10
8.75
 20
-14.5
 30
0.0
 11
12.75
 21
-14.5
 31
0.0
  0
LINE
  5
71
100
AcDbEntity
  8
0
  6
CONTINUOUS
 62
               4
100
AcDbLine
 10
12.75
 20
-11.5
 30
0.0
 11
15.0
 21
-11.5
 31
0.0
  0
LINE
  5
72
100
AcDbEntity
  8
0
  6
CONTINUOUS
 62
               4
100
AcDbLine
 10
12.75
 20
-29.5
 30
0.0
 11
15.0
 21
-29.5
 31
0.0
  0
LINE
  5
73
100
AcDbEntity
  8
0
  6
CONTINUOUS
 62
               4
100
AcDbLine
 10
7.5
 20
-11.5
 30
0.0
 11
7.5
 21
-29.5
 31
0.0
  0
LINE
  5
74
100
AcDbEntity
  8
0
  6
CONTINUOUS
 62
               4
100
AcDbLine
 10
14.0
 20
-11.5
 30
0.0
 11
14.0
 21
-18.5
 31
0.0
  0
LINE
  5
75
100
AcDbEntity
  8
0
  6
CONTINUOUS
 62
               4
100
AcDbLine
 10
6.5
 20
-10.5
 30
0.0
 11
8.75
 21
-10.5
 31
0.0
  0
LINE
  5
76
100
AcDbEntity
  8
0
  6
CONTINUOUS
 62
               4
100
AcDbLine
 10
12.75
 20
-10.5
 30
0.0
 11
15.0
 21
-10.5
 31
0.0
  0
LINE
  5
77
100
AcDbEntity
  8
0
  6
CONTINUOUS
 62
               4
100
AcDbLine
 10
12.75
 20
-30.5
 30
0.0
 11
15.0
 21
-30.5
 31
0.0
  0
LINE
  5
78
100
AcDbEntity
  8
0
  6
CONTINUOUS
 62
               4
100
AcDbLine
 10
6.5
 20
-30.5
 30
0.0
 11
8.75
 21
-30.5
 31
0.0
  0
LINE
  5
79
100
AcDbEntity
  8
0
  6
CONTINUOUS
 62
               4
100
AcDbLine
 10
12.75
 20
-26.5
 30
0.0
 11
12.75
 21
-36.5
 31
0.0
  0
LINE
  5
7A
100
AcDbEntity
  8
0
  6
CONTINUOUS
 62
               4
100
AcDbLine
 10
8.75
 20
-26.5
 30
0.0
 11
8.75
 21
-36.5
 31
0.0
  0
LINE
  5
7B
100
AcDbEntity
  8
0
  6
CONTINUOUS
 62
               4
100
AcDbLine
 10
8.75
 20
-4.5
 30
0.0
 11
8.75
 21
-14.5
 31
0.0
  0
LINE
  5
7C
100
AcDbEntity
  8
0
  6
CONTINUOUS
 62
               4
100
AcDbLine
 10
12.75
 20
-4.5
 30
0.0
 11
12.75
 21
-14.5
 31
0.0
  0
LINE
  5
7D
100
AcDbEntity
  8
0
  6
CONTINUOUS
 62
               4
100
AcDbLine
 10
6.5
 20
-9.0
 30
0.0
 11
8.75
 21
-9.0
 31
0.0
  0
LINE
  5
7E
100
AcDbEntity
  8
0
  6
CONTINUOUS
 62
               4
100
AcDbLine
 10
12.75
 20
-9.0
 30
0.0
 11
15.0
 21
-9.0
 31
0.0
  0
LINE
  5
7F
100
AcDbEntity
  8
0
  6
CONTINUOUS
 62
               4
100
AcDbLine
 10
6.5
 20
-32.0
 30
0.0
 11
8.75
 21
-32.0
 31
0.0
  0
LINE
  5
80
100
AcDbEntity
  8
0
  6
CONTINUOUS
 62
               4
100
AcDbLine
 10
12.75
 20
-32.0
 30
0.0
 11
15.0
 21
-32.0
 31
0.0
  0
LINE
  5
81
100
AcDbEntity
  8
0
  6
CONTINUOUS
 62
               4
100
AcDbLine
 10
6.5
 20
-33.25
 30
0.0
 11
8.75
 21
-33.25
 31
0.0
  0
LINE
  5
82
100
AcDbEntity
  8
0
  6
CONTINUOUS
 62
               4
100
AcDbLine
 10
12.75
 20
-33.25
 30
0.0
 11
15.0
 21
-33.25
 31
0.0
  0
LINE
  5
83
100
AcDbEntity
  8
0
  6
CONTINUOUS
 62
               4
100
AcDbLine
 10
6.5
 20
-7.75
 30
0.0
 11
8.75
 21
-7.75
 31
0.0
  0
LINE
  5
84
100
AcDbEntity
  8
0
  6
CONTINUOUS
 62
               4
100
AcDbLine
 10
12.75
 20
-7.75
 30
0.0
 11
15.0
 21
-7.75
 31
0.0
  0
LINE
  5
85
100
AcDbEntity
  8
0
  6
CONTINUOUS
 62
               4
100
AcDbLine
 10
13.0
 20
-18.5
 30
0.0
 11
15.0
 21
-18.5
 31
0.0
  0
LINE
  5
86
100
AcDbEntity
  8
0
  6
CONTINUOUS
 62
               4
100
AcDbLine
 10
13.0
 20
-22.5
 30
0.0
 11
15.0
 21
-22.5
 31
0.0
  0
LINE
  5
87
100
AcDbEntity
  8
0
  6
CONTINUOUS
 62
               4
100
AcDbLine
 10
13.0
 20
-18.5
 30
0.0
 11
13.0
 21
-22.5
 31
0.0
  0
LINE
  5
88
100
AcDbEntity
  8
0
  6
CONTINUOUS
 62
               4
100
AcDbLine
 10
14.0
 20
-22.5
 30
0.0
 11
14.0
 21
-29.5
 31
0.0
  0
LINE
  5
89
100
AcDbEntity
  8
0
  6
CONTINUOUS
 62
               4
100
AcDbLine
 10
8.75
 20
-13.5
 30
0.0
 11
12.75
 21
-13.5
 31
0.0
  0
LINE
  5
8A
100
AcDbEntity
  8
0
  6
CONTINUOUS
 62
               4
100
AcDbLine
 10
8.75
 20
-27.5
 30
0.0
 11
12.75
 21
-27.5
 31
0.0
  0
LINE
  5
8B
100
AcDbEntity
  8
0
  6
CONTINUOUS
 62
               4
100
AcDbLine
 10
8.75
 20
-8.0
 30
0.0
 11
12.75
 21
-8.0
 31
0.0
  0
LINE
  5
8C
100
AcDbEntity
  8
0
  6
CONTINUOUS
 62
               4
100
AcDbLine
 10
8.75
 20
-33.0
 30
0.0
 11
12.75
 21
-33.0
 31
0.0
  0
LINE
  5
8D
100
AcDbEntity
  8
0
  6
CONTINUOUS
 62
               4
100
AcDbLine
 10
8.75
 20
-32.200000000000003
 30
0.0
 11
12.75
 21
-32.200000000000003
 31
0.0
  0
LINE
  5
8E
100
AcDbEntity
  8
0
  6
CONTINUOUS
 62
               4
100
AcDbLine
 10
8.75
 20
-8.8000000000000007
 30
0.0
 11
12.75
 21
-8.8000000000000007
 31
0.0
  0
LINE
  5
8F
100
AcDbEntity
  8
0
  6
CONTINUOUS
 62
               4
100
AcDbLine
 10
8.75
 20
-9.0999999999999996
 30
0.0
 11
12.75
 21
-9.0999999999999996
 31
0.0
  0
LINE
  5
90
100
AcDbEntity
  8
0
  6
CONTINUOUS
 62
               4
100
AcDbLine
 10
8.75
 20
-9.4000000000000004
 30
0.0
 11
12.75
 21
-9.4000000000000004
 31
0.0
  0
LINE
  5
91
100
AcDbEntity
  8
0
  6
CONTINUOUS
 62
               4
100
AcDbLine
 10
8.75
 20
-9.6999999999999993
 30
0.0
 11
12.75
 21
-9.6999999999999993
 31
0.0
  0
LINE
  5
92
100
AcDbEntity
  8
0
  6
CONTINUOUS
 62
               4
100
AcDbLine
 10
8.75
 20
-10.0
 30
0.0
 11
12.75
 21
-10.0
 31
0.0
  0
LINE
  5
93
100
AcDbEntity
  8
0
  6
CONTINUOUS
 62
               4
100
AcDbLine
 10
8.75
 20
-10.300000000000001
 30
0.0
 11
12.75
 21
-10.300000000000001
 31
0.0
  0
LINE
  5
94
100
AcDbEntity
  8
0
  6
CONTINUOUS
 62
               4
100
AcDbLine
 10
8.75
 20
-10.6
 30
0.0
 11
12.75
 21
-10.6
 31
0.0
  0
LINE
  5
95
100
AcDbEntity
  8
0
  6
CONTINUOUS
 62
               4
100
AcDbLine
 10
8.75
 20
-10.9
 30
0.0
 11
12.75
 21
-10.9
 31
0.0
  0
LINE
  5
96
100
AcDbEntity
  8
0
  6
CONTINUOUS
 62
               4
100
AcDbLine
 10
8.75
 20
-31.899999999999999
 30
0.0
 11
12.75
 21
-31.899999999999999
 31
0.0
  0
LINE
  5
97
100
AcDbEntity
  8
0
  6
CONTINUOUS
 62
               4
100
AcDbLine
 10
8.75
 20
-31.600000000000001
 30
0.0
 11
12.75
 21
-31.600000000000001
 31
0.0
  0
LINE
  5
98
100
AcDbEntity
  8
0
  6
CONTINUOUS
 62
               4
100
AcDbLine
 10
8.75
 20
-31.300000000000001
 30
0.0
 11
12.75
 21
-31.300000000000001
 31
0.0
  0
LINE
  5
99
100
AcDbEntity
  8
0
  6
CONTINUOUS
 62
               4
100
AcDbLine
 10
8.75
 20
-31.0
 30
0.0
 11
12.75
 21
-31.0
 31
0.0
  0
LINE
  5
9A
100
AcDbEntity
  8
0
  6
CONTINUOUS
 62
               4
100
AcDbLine
 10
8.75
 20
-30.699999999999999
 30
0.0
 11
12.75
 21
-30.699999999999999
 31
0.0
  0
LINE
  5
9B
100
AcDbEntity
  8
0
  6
CONTINUOUS
 62
               4
100
AcDbLine
 10
8.75
 20
-30.399999999999999
 30
0.0
 11
12.75
 21
-30.399999999999999
 31
0.0
  0
LINE
  5
9C
100
AcDbEntity
  8
0
  6
CONTINUOUS
 62
               4
100
AcDbLine
 10
8.75
 20
-30.100000000000001
 30
0.0
 11
12.75
 21
-30.100000000000001
 31
0.0
  0
LINE
  5
9D
100
AcDbEntity
  8
0
  6
CONTINUOUS
 62
               4
100
AcDbLine
 10
4.9299999999999997
 20
-67.359999999999999
 30
0.0
 11
7.0599999999999996
 21
-65.230000000000004
 31
0.0
  0
LINE
  5
9E
100
AcDbEntity
  8
0
  6
CONTINUOUS
 62
               4
100
AcDbLine
 10
4.9299999999999997
 20
-65.230000000000004
 30
0.0
 11
7.0599999999999996
 21
-67.359999999999999
 31
0.0
  0
LINE
  5
9F
100
AcDbEntity
  8
0
  6
CONTINUOUS
 62
               4
100
AcDbLine
 10
13.93
 20
-67.359999999999999
 30
0.0
 11
16.059999999999999
 21
-65.230000000000004
 31
0.0
  0
LINE
  5
A0
100
AcDbEntity
  8
0
  6
CONTINUOUS
 62
               4
100
AcDbLine
 10
13.93
 20
-65.230000000000004
 30
0.0
 11
16.059999999999999
 21
-67.359999999999999
 31
0.0
  0
LINE
  5
A1
100
AcDbEntity
  8
0
  6
CONTINUOUS
 62
               4
100
AcDbLine
 10
0.0
 20
50.0
 30
0.0
 11
21.0
 21
50.0
 31
0.0
  0
CIRCLE
  5
A2
100
AcDbEntity
  8
0
  6
CONTINUOUS
 62
               4
100
AcDbCircle
 10
10.5
 20
14.500015258789063
 30
0.0
 40
3.1999998092651367
  0
CIRCLE
  5
A3
100
AcDbEntity
  8
0
  6
CONTINUOUS
 62
               4
100
AcDbCircle
 10
16.0
 20
-56.499984741210937
 30
0.0
 40
1.5999994277954102
  0
CIRCLE
  5
A4
100
AcDbEntity
  8
0
  6
CONTINUOUS
 62
               4
100
AcDbCircle
 10
6.0
 20
-66.29998779296875
 30
0.0
 40
2.7999992370605469
  0
CIRCLE
  5
A5
100
AcDbEntity
  8
0
  6
CONTINUOUS
 62
               4
100
AcDbCircle
 10
15.0
 20
-66.29998779296875
 30
0.0
 40
2.7999992370605469
  0
CIRCLE
  5
A6
100
AcDbEntity
  8
0
  6
CONTINUOUS
 62
               4
100
AcDbCircle
 10
9.47998046875
 20
-15.419990539550781
 30
0.0
 40
0.3199996948242188
  0
CIRCLE
  5
A7
100
AcDbEntity
  8
0
  6
CONTINUOUS
 62
               4
100
AcDbCircle
 10
12.019989013671875
 20
-15.419990539550781
 30
0.0
 40
0.3199996948242188
  0
CIRCLE
  5
A8
100
AcDbEntity
  8
0
  6
CONTINUOUS
 62
               4
100
AcDbCircle
 10
9.47998046875
 20
-17.959976196289063
 30
0.0
 40
0.3199996948242188
  0
CIRCLE
  5
A9
100
AcDbEntity
  8
0
  6
CONTINUOUS
 62
               4
100
AcDbCircle
 10
12.019989013671875
 20
-17.959976196289063
 30
0.0
 40
0.3199996948242188
  0
CIRCLE
  5
AA
100
AcDbEntity
  8
0
  6
CONTINUOUS
 62
               4
100
AcDbCircle
 10
9.47998046875
 20
-20.499984741210938
 30
0.0
 40
0.3199996948242188
  0
CIRCLE
  5
AB
100
AcDbEntity
  8
0
  6
CONTINUOUS
 62
               4
100
AcDbCircle
 10
12.019989013671875
 20
-20.499984741210938
 30
0.0
 40
0.3199996948242188
  0
CIRCLE
  5
AC
100
AcDbEntity
  8
0
  6
CONTINUOUS
 62
               4
100
AcDbCircle
 10
12.019989013671875
 20
-23.03997802734375
 30
0.0
 40
0.3199996948242188
  0
CIRCLE
  5
AD
100
AcDbEntity
  8
0
  6
CONTINUOUS
 62
               4
100
AcDbCircle
 10
9.47998046875
 20
-23.03997802734375
 30
0.0
 40
0.3199996948242188
  0
CIRCLE
  5
AE
100
AcDbEntity
  8
0
  6
CONTINUOUS
 62
               4
100
AcDbCircle
 10
9.47998046875
 20
-25.579986572265625
 30
0.0
 40
0.3199996948242188
  0
CIRCLE
  5
AF
100
AcDbEntity
  8
0
  6
CONTINUOUS
 62
               4
100
AcDbCircle
 10
12.019989013671875
 20
-25.579986572265625
 30
0.0
 40
0.3199996948242188
  0
ENDBLK
  5
B0
100
AcDbEntity
  8
0
100
AcDbBlockEnd
  0
BLOCK
  5
B1
100
AcDbEntity
  8
0
100
AcDbBlockBegin
  2
F18_CONNECTER-2
 70
               0
 10
0.0
 20
0.0
 30
0.0
  3
F18_CONNECTER-2
  1

  0
LINE
  5
B2
100
AcDbEntity
  8
0
  6
CONTINUOUS
 62
               4
100
AcDbLine
 10
21.0
 20
-73.0
 30
0.0
 11
21.0
 21
50.0
 31
0.0
  0
LINE
  5
B3
100
AcDbEntity
  8
0
  6
CONTINUOUS
 62
               4
100
AcDbLine
 10
1.6000000000000001
 20
-73.0
 30
0.0
 11
0.0
 21
-73.0
 31
0.0
  0
LINE
  5
B4
100
AcDbEntity
  8
0
  6
CONTINUOUS
 62
               4
100
AcDbLine
 10
0.0
 20
-73.0
 30
0.0
 11
0.0
 21
50.0
 31
0.0
  0
LINE
  5
B5
100
AcDbEntity
  8
0
  6
CONTINUOUS
 62
               4
100
AcDbLine
 10
0.0
 20
50.0
 30
0.0
 11
21.0
 21
50.0
 31
0.0
  0
LINE
  5
B6
100
AcDbEntity
  8
0
  6
CONTINUOUS
 62
               4
100
AcDbLine
 10
0.0
 20
20.5
 30
0.0
 11
21.0
 21
20.5
 31
0.0
  0
LINE
  5
B7
100
AcDbEntity
  8
0
  6
CONTINUOUS
 62
               4
100
AcDbLine
 10
0.0
 20
20.0
 30
0.0
 11
21.0
 21
20.0
 31
0.0
  0
LINE
  5
B8
100
AcDbEntity
  8
0
  6
CONTINUOUS
 62
               4
100
AcDbLine
 10
9.4299999999999997
 20
13.43
 30
0.0
 11
11.56
 21
15.56
 31
0.0
  0
LINE
  5
B9
100
AcDbEntity
  8
0
  6
CONTINUOUS
 62
               4
100
AcDbLine
 10
9.4299999999999997
 20
15.56
 30
0.0
 11
11.56
 21
13.43
 31
0.0
  0
LINE
  5
BA
100
AcDbEntity
  8
0
  6
CONTINUOUS
 62
               4
100
AcDbLine
 10
1.5
 20
-71.299999999999997
 30
0.0
 11
19.5
 21
-71.299999999999997
 31
0.0
  0
LINE
  5
BB
100
AcDbEntity
  8
0
  6
CONTINUOUS
 62
               4
100
AcDbLine
 10
1.5
 20
-71.5
 30
0.0
 11
19.5
 21
-71.5
 31
0.0
  0
LINE
  5
BC
100
AcDbEntity
  8
0
  6
CONTINUOUS
 62
               4
100
AcDbLine
 10
1.5
 20
-52.0
 30
0.0
 11
1.5
 21
-73.0
 31
0.0
  0
LINE
  5
BD
100
AcDbEntity
  8
0
  6
CONTINUOUS
 62
               4
100
AcDbLine
 10
19.5
 20
-52.0
 30
0.0
 11
19.5
 21
-73.0
 31
0.0
  0
LINE
  5
BE
100
AcDbEntity
  8
0
  6
CONTINUOUS
 62
               4
100
AcDbLine
 10
14.0
 20
-71.299999999999997
 30
0.0
 11
14.0
 21
-71.5
 31
0.0
  0
LINE
  5
BF
100
AcDbEntity
  8
0
  6
CONTINUOUS
 62
               4
100
AcDbLine
 10
7.0
 20
-71.299999999999997
 30
0.0
 11
7.0
 21
-71.5
 31
0.0
  0
LINE
  5
C0
100
AcDbEntity
  8
0
  6
CONTINUOUS
 62
               4
100
AcDbLine
 10
1.5
 20
-61.0
 30
0.0
 11
19.5
 21
-61.0
 31
0.0
  0
LINE
  5
C1
100
AcDbEntity
  8
0
  6
CONTINUOUS
 62
               4
100
AcDbLine
 10
1.5
 20
-52.0
 30
0.0
 11
19.5
 21
-52.0
 31
0.0
  0
LINE
  5
C2
100
AcDbEntity
  8
0
  6
CONTINUOUS
 62
               4
100
AcDbLine
 10
9.5
 20
-70.799999999999997
 30
0.0
 11
11.5
 21
-70.799999999999997
 31
0.0
  0
LINE
  5
C3
100
AcDbEntity
  8
0
  6
CONTINUOUS
 62
               4
100
AcDbLine
 10
11.5
 20
-61.0
 30
0.0
 11
11.5
 21
-70.799999999999997
 31
0.0
  0
LINE
  5
C4
100
AcDbEntity
  8
0
  6
CONTINUOUS
 62
               4
100
AcDbLine
 10
9.5
 20
-61.0
 30
0.0
 11
9.5
 21
-70.799999999999997
 31
0.0
  0
LINE
  5
C5
100
AcDbEntity
  8
0
  6
CONTINUOUS
 62
               4
100
AcDbLine
 10
3.8500000000000001
 20
-69.799999999999997
 30
0.0
 11
8.1500000000000004
 21
-69.799999999999997
 31
0.0
  0
LINE
  5
C6
100
AcDbEntity
  8
0
  6
CONTINUOUS
 62
               4
100
AcDbLine
 10
3.8500000000000001
 20
-62.799999999999997
 30
0.0
 11
8.1500000000000004
 21
-62.799999999999997
 31
0.0
  0
LINE
  5
C7
100
AcDbEntity
  8
0
  6
CONTINUOUS
 62
               4
100
AcDbLine
 10
12.85
 20
-62.799999999999997
 30
0.0
 11
12.85
 21
-63.600000000000001
 31
0.0
  0
LINE
  5
C8
100
AcDbEntity
  8
0
  6
CONTINUOUS
 62
               4
100
AcDbLine
 10
8.1500000000000004
 20
-62.799999999999997
 30
0.0
 11
8.1500000000000004
 21
-63.600000000000001
 31
0.0
  0
LINE
  5
C9
100
AcDbEntity
  8
0
  6
CONTINUOUS
 62
               4
100
AcDbLine
 10
3.8500000000000001
 20
-62.799999999999997
 30
0.0
 11
3.8500000000000001
 21
-63.600000000000001
 31
0.0
  0
LINE
  5
CA
100
AcDbEntity
  8
0
  6
CONTINUOUS
 62
               4
100
AcDbLine
 10
17.149999999999999
 20
-62.799999999999997
 30
0.0
 11
17.149999999999999
 21
-63.600000000000001
 31
0.0
  0
LINE
  5
CB
100
AcDbEntity
  8
0
  6
CONTINUOUS
 62
               4
100
AcDbLine
 10
2.5
 20
-61.0
 30
0.0
 11
2.5
 21
-71.299999999999997
 31
0.0
  0
LINE
  5
CC
100
AcDbEntity
  8
0
  6
CONTINUOUS
 62
               4
100
AcDbLine
 10
18.5
 20
-61.0
 30
0.0
 11
18.5
 21
-71.299999999999997
 31
0.0
  0
LINE
  5
CD
100
AcDbEntity
  8
0
  6
CONTINUOUS
 62
               4
100
AcDbLine
 10
12.85
 20
-62.799999999999997
 30
0.0
 11
17.149999999999999
 21
-62.799999999999997
 31
0.0
  0
LINE
  5
CE
100
AcDbEntity
  8
0
  6
CONTINUOUS
 62
               4
100
AcDbLine
 10
12.85
 20
-69.799999999999997
 30
0.0
 11
17.149999999999999
 21
-69.799999999999997
 31
0.0
  0
LINE
  5
CF
100
AcDbEntity
  8
0
  6
CONTINUOUS
 62
               4
100
AcDbLine
 10
3.8500000000000001
 20
-69.0
 30
0.0
 11
3.8500000000000001
 21
-69.799999999999997
 31
0.0
  0
LINE
  5
D0
100
AcDbEntity
  8
0
  6
CONTINUOUS
 62
               4
100
AcDbLine
 10
8.1500000000000004
 20
-69.0
 30
0.0
 11
8.1500000000000004
 21
-69.799999999999997
 31
0.0
  0
LINE
  5
D1
100
AcDbEntity
  8
0
  6
CONTINUOUS
 62
               4
100
AcDbLine
 10
12.85
 20
-69.0
 30
0.0
 11
12.85
 21
-69.799999999999997
 31
0.0
  0
LINE
  5
D2
100
AcDbEntity
  8
0
  6
CONTINUOUS
 62
               4
100
AcDbLine
 10
17.149999999999999
 20
-69.0
 30
0.0
 11
17.149999999999999
 21
-69.799999999999997
 31
0.0
  0
LINE
  5
D3
100
AcDbEntity
  8
0
  6
CONTINUOUS
 62
               4
100
AcDbLine
 10
12.050000000000001
 20
-63.600000000000001
 30
0.0
 11
12.050000000000001
 21
-69.0
 31
0.0
  0
LINE
  5
D4
100
AcDbEntity
  8
0
  6
CONTINUOUS
 62
               4
100
AcDbLine
 10
17.949999999999999
 20
-63.600000000000001
 30
0.0
 11
17.949999999999999
 21
-69.0
 31
0.0
  0
LINE
  5
D5
100
AcDbEntity
  8
0
  6
CONTINUOUS
 62
               4
100
AcDbLine
 10
8.9499999999999993
 20
-63.600000000000001
 30
0.0
 11
8.9499999999999993
 21
-69.0
 31
0.0
  0
LINE
  5
D6
100
AcDbEntity
  8
0
  6
CONTINUOUS
 62
               4
100
AcDbLine
 10
3.0499999999999998
 20
-63.600000000000001
 30
0.0
 11
3.0499999999999998
 21
-69.0
 31
0.0
  0
LINE
  5
D7
100
AcDbEntity
  8
0
  6
CONTINUOUS
 62
               4
100
AcDbLine
 10
8.1500000000000004
 20
-63.600000000000001
 30
0.0
 11
8.9499999999999993
 21
-63.600000000000001
 31
0.0
  0
LINE
  5
D8
100
AcDbEntity
  8
0
  6
CONTINUOUS
 62
               4
100
AcDbLine
 10
3.0499999999999998
 20
-63.600000000000001
 30
0.0
 11
3.8500000000000001
 21
-63.600000000000001
 31
0.0
  0
LINE
  5
D9
100
AcDbEntity
  8
0
  6
CONTINUOUS
 62
               4
100
AcDbLine
 10
3.0499999999999998
 20
-69.0
 30
0.0
 11
3.8500000000000001
 21
-69.0
 31
0.0
  0
LINE
  5
DA
100
AcDbEntity
  8
0
  6
CONTINUOUS
 62
               4
100
AcDbLine
 10
8.1500000000000004
 20
-69.0
 30
0.0
 11
8.9499999999999993
 21
-69.0
 31
0.0
  0
LINE
  5
DB
100
AcDbEntity
  8
0
  6
CONTINUOUS
 62
               4
100
AcDbLine
 10
12.050000000000001
 20
-69.0
 30
0.0
 11
12.85
 21
-69.0
 31
0.0
  0
LINE
  5
DC
100
AcDbEntity
  8
0
  6
CONTINUOUS
 62
               4
100
AcDbLine
 10
17.149999999999999
 20
-69.0
 30
0.0
 11
17.949999999999999
 21
-69.0
 31
0.0
  0
LINE
  5
DD
100
AcDbEntity
  8
0
  6
CONTINUOUS
 62
               4
100
AcDbLine
 10
17.149999999999999
 20
-63.600000000000001
 30
0.0
 11
17.949999999999999
 21
-63.600000000000001
 31
0.0
  0
LINE
  5
DE
100
AcDbEntity
  8
0
  6
CONTINUOUS
 62
               4
100
AcDbLine
 10
12.050000000000001
 20
-63.600000000000001
 30
0.0
 11
12.85
 21
-63.600000000000001
 31
0.0
  0
LINE
  5
DF
100
AcDbEntity
  8
0
  6
CONTINUOUS
 62
               4
100
AcDbLine
 10
1.6000000000000001
 20
-52.25
 30
0.0
 11
1.6000000000000001
 21
-73.25
 31
0.0
  0
LINE
  5
E0
100
AcDbEntity
  8
0
  6
CONTINUOUS
 62
               4
100
AcDbLine
 10
19.399999999999999
 20
-52.25
 30
0.0
 11
19.399999999999999
 21
-73.25
 31
0.0
  0
LINE
  5
E1
100
AcDbEntity
  8
0
  6
CONTINUOUS
 62
               4
100
AcDbLine
 10
1.6000000000000001
 20
-52.25
 30
0.0
 11
19.399999999999999
 21
-52.25
 31
0.0
  0
LINE
  5
E2
100
AcDbEntity
  8
0
  6
CONTINUOUS
 62
               4
100
AcDbLine
 10
1.6000000000000001
 20
-73.25
 30
0.0
 11
19.399999999999999
 21
-73.25
 31
0.0
  0
LINE
  5
E3
100
AcDbEntity
  8
0
  6
CONTINUOUS
 62
               4
100
AcDbLine
 10
19.399999999999999
 20
-73.0
 30
0.0
 11
21.0
 21
-73.0
 31
0.0
  0
LINE
  5
E4
100
AcDbEntity
  8
0
  6
CONTINUOUS
 62
               4
100
AcDbLine
 10
2.0
 20
-50.0
 30
0.0
 11
19.0
 21
-50.0
 31
0.0
  0
LINE
  5
E5
100
AcDbEntity
  8
0
  6
CONTINUOUS
 62
               4
100
AcDbLine
 10
2.0
 20
9.0
 30
0.0
 11
19.0
 21
9.0
 31
0.0
  0
LINE
  5
E6
100
AcDbEntity
  8
0
  6
CONTINUOUS
 62
               4
100
AcDbLine
 10
19.0
 20
9.0
 30
0.0
 11
19.0
 21
-50.0
 31
0.0
  0
LINE
  5
E7
100
AcDbEntity
  8
0
  6
CONTINUOUS
 62
               4
100
AcDbLine
 10
2.0
 20
9.0
 30
0.0
 11
2.0
 21
-50.0
 31
0.0
  0
LINE
  5
E8
100
AcDbEntity
  8
0
  6
CONTINUOUS
 62
               4
100
AcDbLine
 10
4.9299999999999997
 20
-67.359999999999999
 30
0.0
 11
7.0599999999999996
 21
-65.230000000000004
 31
0.0
  0
LINE
  5
E9
100
AcDbEntity
  8
0
  6
CONTINUOUS
 62
               4
100
AcDbLine
 10
4.9299999999999997
 20
-65.230000000000004
 30
0.0
 11
7.0599999999999996
 21
-67.359999999999999
 31
0.0
  0
LINE
  5
EA
100
AcDbEntity
  8
0
  6
CONTINUOUS
 62
               4
100
AcDbLine
 10
13.93
 20
-67.359999999999999
 30
0.0
 11
16.059999999999999
 21
-65.230000000000004
 31
0.0
  0
LINE
  5
EB
100
AcDbEntity
  8
0
  6
CONTINUOUS
 62
               4
100
AcDbLine
 10
13.93
 20
-65.230000000000004
 30
0.0
 11
16.059999999999999
 21
-67.359999999999999
 31
0.0
  0
LINE
  5
EC
100
AcDbEntity
  8
0
  6
CONTINUOUS
 62
               4
100
AcDbLine
 10
4.25
 20
5.0999999999999996
 30
0.0
 11
4.25
 21
-46.100000000000001
 31
0.0
  0
LINE
  5
ED
100
AcDbEntity
  8
0
  6
CONTINUOUS
 62
               4
100
AcDbLine
 10
16.75
 20
5.0999999999999996
 30
0.0
 11
16.75
 21
-46.100000000000001
 31
0.0
  0
LINE
  5
EE
100
AcDbEntity
  8
0
  6
CONTINUOUS
 62
               4
100
AcDbLine
 10
5.25
 20
6.0999999999999996
 30
0.0
 11
15.75
 21
6.0999999999999996
 31
0.0
  0
LINE
  5
EF
100
AcDbEntity
  8
0
  6
CONTINUOUS
 62
               4
100
AcDbLine
 10
5.25
 20
-47.100000000000001
 30
0.0
 11
15.75
 21
-47.100000000000001
 31
0.0
  0
LINE
  5
F0
100
AcDbEntity
  8
0
  6
CONTINUOUS
 62
               4
100
AcDbLine
 10
9.0500000000000007
 20
0.5
 30
0.0
 11
11.94
 21
0.5
 31
0.0
  0
LINE
  5
F1
100
AcDbEntity
  8
0
  6
CONTINUOUS
 62
               4
100
AcDbLine
 10
9.0500000000000007
 20
5.5
 30
0.0
 11
11.94
 21
5.5
 31
0.0
  0
LINE
  5
F2
100
AcDbEntity
  8
0
  6
CONTINUOUS
 62
               4
100
AcDbLine
 10
9.0500000000000007
 20
0.5
 30
0.0
 11
7.6100000000000003
 21
3.0
 31
0.0
  0
LINE
  5
F3
100
AcDbEntity
  8
0
  6
CONTINUOUS
 62
               4
100
AcDbLine
 10
13.380000000000001
 20
3.0
 30
0.0
 11
11.94
 21
5.5
 31
0.0
  0
LINE
  5
F4
100
AcDbEntity
  8
0
  6
CONTINUOUS
 62
               4
100
AcDbLine
 10
7.6100000000000003
 20
3.0
 30
0.0
 11
9.0500000000000007
 21
5.5
 31
0.0
  0
LINE
  5
F5
100
AcDbEntity
  8
0
  6
CONTINUOUS
 62
               4
100
AcDbLine
 10
11.94
 20
0.5
 30
0.0
 11
13.380000000000001
 21
3.0
 31
0.0
  0
LINE
  5
F6
100
AcDbEntity
  8
0
  6
CONTINUOUS
 62
               4
100
AcDbLine
 10
9.0500000000000007
 20
-46.5
 30
0.0
 11
11.94
 21
-46.5
 31
0.0
  0
LINE
  5
F7
100
AcDbEntity
  8
0
  6
CONTINUOUS
 62
               4
100
AcDbLine
 10
9.0500000000000007
 20
-41.5
 30
0.0
 11
11.94
 21
-41.5
 31
0.0
  0
LINE
  5
F8
100
AcDbEntity
  8
0
  6
CONTINUOUS
 62
               4
100
AcDbLine
 10
9.0500000000000007
 20
-46.5
 30
0.0
 11
7.6100000000000003
 21
-44.0
 31
0.0
  0
LINE
  5
F9
100
AcDbEntity
  8
0
  6
CONTINUOUS
 62
               4
100
AcDbLine
 10
13.380000000000001
 20
-44.0
 30
0.0
 11
11.94
 21
-41.5
 31
0.0
  0
LINE
  5
FA
100
AcDbEntity
  8
0
  6
CONTINUOUS
 62
               4
100
AcDbLine
 10
7.6100000000000003
 20
-44.0
 30
0.0
 11
9.0500000000000007
 21
-41.5
 31
0.0
  0
LINE
  5
FB
100
AcDbEntity
  8
0
  6
CONTINUOUS
 62
               4
100
AcDbLine
 10
11.94
 20
-46.5
 30
0.0
 11
13.380000000000001
 21
-44.0
 31
0.0
  0
LINE
  5
FC
100
AcDbEntity
  8
0
  6
CONTINUOUS
 62
               4
100
AcDbLine
 10
6.5899999999999999
 20
-4.0499999999999998
 30
0.0
 11
6.5899999999999999
 21
-36.939999999999998
 31
0.0
  0
LINE
  5
FD
100
AcDbEntity
  8
0
  6
CONTINUOUS
 62
               4
100
AcDbLine
 10
14.41
 20
-3.3500000000000001
 30
0.0
 11
14.41
 21
-37.649999999999999
 31
0.0
  0
LINE
  5
FE
100
AcDbEntity
  8
0
  6
CONTINUOUS
 62
               4
100
AcDbLine
 10
8.2400000000000002
 20
-38.909999999999997
 30
0.0
 11
12.41
 21
-39.649999999999999
 31
0.0
  0
LINE
  5
FF
100
AcDbEntity
  8
0
  6
CONTINUOUS
 62
               4
100
AcDbLine
 10
8.2400000000000002
 20
-2.0800000000000001
 30
0.0
 11
12.41
 21
-1.3500000000000001
 31
0.0
  0
LINE
  5
100
100
AcDbEntity
  8
0
  6
CONTINUOUS
 62
               4
100
AcDbLine
 10
8.3800000000000008
 20
-38.119999999999997
 30
0.0
 11
12.470000000000001
 21
-38.840000000000003
 31
0.0
  0
LINE
  5
101
100
AcDbEntity
  8
0
  6
CONTINUOUS
 62
               4
100
AcDbLine
 10
13.609999999999999
 20
-3.3500000000000001
 30
0.0
 11
13.609999999999999
 21
-37.649999999999999
 31
0.0
  0
LINE
  5
102
100
AcDbEntity
  8
0
  6
CONTINUOUS
 62
               4
100
AcDbLine
 10
7.3899999999999997
 20
-4.0499999999999998
 30
0.0
 11
7.3899999999999997
 21
-36.939999999999998
 31
0.0
  0
LINE
  5
103
100
AcDbEntity
  8
0
  6
CONTINUOUS
 62
               4
100
AcDbLine
 10
8.3800000000000008
 20
-2.8700000000000001
 30
0.0
 11
12.470000000000001
 21
-2.1499999999999999
 31
0.0
  0
CIRCLE
  5
104
100
AcDbEntity
  8
0
  6
CONTINUOUS
 62
               4
100
AcDbCircle
 10
10.5
 20
14.500015258789063
 30
0.0
 40
3.1999998092651367
  0
CIRCLE
  5
105
100
AcDbEntity
  8
0
  6
CONTINUOUS
 62
               4
100
AcDbCircle
 10
10.5
 20
14.500015258789063
 30
0.0
 40
2.7999992370605469
  0
CIRCLE
  5
106
100
AcDbEntity
  8
0
  6
CONTINUOUS
 62
               4
100
AcDbCircle
 10
16.0
 20
-56.499984741210937
 30
0.0
 40
1.5999994277954102
  0
CIRCLE
  5
107
100
AcDbEntity
  8
0
  6
CONTINUOUS
 62
               4
100
AcDbCircle
 10
6.0
 20
-66.29998779296875
 30
0.0
 40
2.7999992370605469
  0
CIRCLE
  5
108
100
AcDbEntity
  8
0
  6
CONTINUOUS
 62
               4
100
AcDbCircle
 10
15.0
 20
-66.29998779296875
 30
0.0
 40
2.7999992370605469
  0
ARC
  5
109
100
AcDbEntity
  8
0
  6
CONTINUOUS
 62
               4
100
AcDbCircle
 10
5.249996948246844
 20
5.1000030517531556
 30
0.0
 40
0.9999969482515005
100
AcDbArc
 50
89.999825146890245
 51
180.00017485310914
  0
ARC
  5
10A
100
AcDbEntity
  8
0
  6
CONTINUOUS
 62
               4
100
AcDbCircle
 10
15.750003051753156
 20
5.1000030517531556
 30
0.0
 40
0.9999969482515005
100
AcDbArc
 50
359.99982514688963
 51
90.000174853109371
  0
ARC
  5
10B
100
AcDbEntity
  8
0
  6
CONTINUOUS
 62
               4
100
AcDbCircle
 10
15.749995422352804
 20
-46.099995422352805
 30
0.0
 40
1.0000045776576743
100
AcDbArc
 50
270.00026227866323
 51
359.99973772133535
  0
ARC
  5
10C
100
AcDbEntity
  8
0
  6
CONTINUOUS
 62
               4
100
AcDbCircle
 10
5.2500045776471964
 20
-46.099995422352805
 30
0.0
 40
1.0000045776576743
100
AcDbArc
 50
180.00026227866343
 51
269.99973772133558
  0
CIRCLE
  5
10D
100
AcDbEntity
  8
0
  6
CONTINUOUS
 62
               4
100
AcDbCircle
 10
10.5
 20
3.0000152587890625
 30
0.0
 40
2.5
  0
CIRCLE
  5
10E
100
AcDbEntity
  8
0
  6
CONTINUOUS
 62
               4
100
AcDbCircle
 10
10.5
 20
3.0000152587890625
 30
0.0
 40
1.2999992370605469
  0
CIRCLE
  5
10F
100
AcDbEntity
  8
0
  6
CONTINUOUS
 62
               4
100
AcDbCircle
 10
10.5
 20
3.0000152587890625
 30
0.0
 40
1.0564994812011719
  0
CIRCLE
  5
110
100
AcDbEntity
  8
0
  6
CONTINUOUS
 62
               4
100
AcDbCircle
 10
10.5
 20
-43.999984741210938
 30
0.0
 40
2.5
  0
CIRCLE
  5
111
100
AcDbEntity
  8
0
  6
CONTINUOUS
 62
               4
100
AcDbCircle
 10
10.5
 20
-43.999984741210938
 30
0.0
 40
1.2999992370605469
  0
CIRCLE
  5
112
100
AcDbEntity
  8
0
  6
CONTINUOUS
 62
               4
100
AcDbCircle
 10
10.5
 20
-43.999984741210938
 30
0.0
 40
1.0564994812011719
  0
ARC
  5
113
100
AcDbEntity
  8
0
  6
CONTINUOUS
 62
               4
100
AcDbCircle
 10
12.409998779290916
 20
-37.649998779290911
 30
0.0
 40
2.0000012207094571
100
AcDbArc
 50
270.00003497071731
 51
359.99996502928116
  0
ARC
  5
114
100
AcDbEntity
  8
0
  6
CONTINUOUS
 62
               4
100
AcDbCircle
 10
8.587681793627219
 20
-36.942804589093953
 30
0.0
 40
1.9976837623381849
100
AcDbArc
 50
179.91956125680693
 51
259.97706005566721
  0
ARC
  5
115
100
AcDbEntity
  8
0
  6
CONTINUOUS
 62
               4
100
AcDbCircle
 10
12.410006408689521
 20
-3.3499935913104797
 30
0.0
 40
1.9999935913207476
100
AcDbArc
 50
359.99981640397999
 51
90.000183596018985
  0
ARC
  5
116
100
AcDbEntity
  8
0
  6
CONTINUOUS
 62
               4
100
AcDbCircle
 10
8.5925972389709919
 20
-4.051312408275197
 30
0.0
 40
2.0025976690163514
100
AcDbArc
 50
100.14092764791383
 51
179.96245103961039
  0
ARC
  5
117
100
AcDbEntity
  8
0
  6
CONTINUOUS
 62
               4
100
AcDbCircle
 10
12.414251358133114
 20
-37.645543317875429
 30
0.0
 40
1.1957569471017329
100
AcDbArc
 50
272.67221543670229
 51
359.78645353625257
  0
ARC
  5
118
100
AcDbEntity
  8
0
  6
CONTINUOUS
 62
               4
100
AcDbCircle
 10
8.5865312002538587
 20
-36.941427213346337
 30
0.0
 40
1.1965320514381883
100
AcDbArc
 50
179.93165806089132
 51
260.06050203462706
  0
ARC
  5
119
100
AcDbEntity
  8
0
  6
CONTINUOUS
 62
               4
100
AcDbCircle
 10
8.591441691662915
 20
-4.0526926057171924
 30
0.0
 40
1.2014447089198064
100
AcDbArc
 50
100.13624787156299
 51
179.87159203291699
  0
ARC
  5
11A
100
AcDbEntity
  8
0
  6
CONTINUOUS
 62
               4
100
AcDbCircle
 10
12.409257225323891
 20
-3.3492056359423019
 30
0.0
 40
1.2007430374360424
100
AcDbArc
 50
359.96209537777452
 51
87.100303193452717
  0
CIRCLE
  5
11B
100
AcDbEntity
  8
0
  6
CONTINUOUS
 62
               4
100
AcDbCircle
 10
11.75
 20
-5.259979248046875
 30
0.0
 40
0.5
  0
CIRCLE
  5
11C
100
AcDbEntity
  8
0
  6
CONTINUOUS
 62
               4
100
AcDbCircle
 10
11.75
 20
-35.739990234375
 30
0.0
 40
0.5
  0
CIRCLE
  5
11D
100
AcDbEntity
  8
0
  6
CONTINUOUS
 62
               4
100
AcDbCircle
 10
11.75
 20
-17.959991455078125
 30
0.0
 40
0.5
  0
CIRCLE
  5
11E
100
AcDbEntity
  8
0
  6
CONTINUOUS
 62
               4
100
AcDbCircle
 10
11.75
 20
-15.41998291015625
 30
0.0
 40
0.5
  0
CIRCLE
  5
11F
100
AcDbEntity
  8
0
  6
CONTINUOUS
 62
               4
100
AcDbCircle
 10
11.75
 20
-12.879989624023438
 30
0.0
 40
0.5
  0
CIRCLE
  5
120
100
AcDbEntity
  8
0
  6
CONTINUOUS
 62
               4
100
AcDbCircle
 10
11.75
 20
-10.339981079101562
 30
0.0
 40
0.5
  0
CIRCLE
  5
121
100
AcDbEntity
  8
0
  6
CONTINUOUS
 62
               4
100
AcDbCircle
 10
11.75
 20
-7.79998779296875
 30
0.0
 40
0.5
  0
CIRCLE
  5
122
100
AcDbEntity
  8
0
  6
CONTINUOUS
 62
               4
100
AcDbCircle
 10
11.75
 20
-20.499984741210938
 30
0.0
 40
0.5
  0
CIRCLE
  5
123
100
AcDbEntity
  8
0
  6
CONTINUOUS
 62
               4
100
AcDbCircle
 10
11.75
 20
-23.039993286132812
 30
0.0
 40
0.5
  0
CIRCLE
  5
124
100
AcDbEntity
  8
0
  6
CONTINUOUS
 62
               4
100
AcDbCircle
 10
11.75
 20
-25.579986572265625
 30
0.0
 40
0.5
  0
CIRCLE
  5
125
100
AcDbEntity
  8
0
  6
CONTINUOUS
 62
               4
100
AcDbCircle
 10
11.75
 20
-28.1199951171875
 30
0.0
 40
0.5
  0
CIRCLE
  5
126
100
AcDbEntity
  8
0
  6
CONTINUOUS
 62
               4
100
AcDbCircle
 10
11.75
 20
-30.659988403320313
 30
0.0
 40
0.5
  0
CIRCLE
  5
127
100
AcDbEntity
  8
0
  6
CONTINUOUS
 62
               4
100
AcDbCircle
 10
11.75
 20
-33.199996948242187
 30
0.0
 40
0.5
  0
CIRCLE
  5
128
100
AcDbEntity
  8
0
  6
CONTINUOUS
 62
               4
100
AcDbCircle
 10
9.25
 20
-34.469985961914063
 30
0.0
 40
0.5
  0
CIRCLE
  5
129
100
AcDbEntity
  8
0
  6
CONTINUOUS
 62
               4
100
AcDbCircle
 10
9.25
 20
-6.5299835205078125
 30
0.0
 40
0.5
  0
CIRCLE
  5
12A
100
AcDbEntity
  8
0
  6
CONTINUOUS
 62
               4
100
AcDbCircle
 10
9.25
 20
-21.769989013671875
 30
0.0
 40
0.5
  0
CIRCLE
  5
12B
100
AcDbEntity
  8
0
  6
CONTINUOUS
 62
               4
100
AcDbCircle
 10
9.25
 20
-24.309982299804688
 30
0.0
 40
0.5
  0
CIRCLE
  5
12C
100
AcDbEntity
  8
0
  6
CONTINUOUS
 62
               4
100
AcDbCircle
 10
9.25
 20
-26.849990844726562
 30
0.0
 40
0.5
  0
CIRCLE
  5
12D
100
AcDbEntity
  8
0
  6
CONTINUOUS
 62
               4
100
AcDbCircle
 10
9.25
 20
-29.389984130859375
 30
0.0
 40
0.5
  0
CIRCLE
  5
12E
100
AcDbEntity
  8
0
  6
CONTINUOUS
 62
               4
100
AcDbCircle
 10
9.25
 20
-31.92999267578125
 30
0.0
 40
0.5
  0
CIRCLE
  5
12F
100
AcDbEntity
  8
0
  6
CONTINUOUS
 62
               4
100
AcDbCircle
 10
9.25
 20
-19.22998046875
 30
0.0
 40
0.5
  0
CIRCLE
  5
130
100
AcDbEntity
  8
0
  6
CONTINUOUS
 62
               4
100
AcDbCircle
 10
9.25
 20
-16.689987182617188
 30
0.0
 40
0.5
  0
CIRCLE
  5
131
100
AcDbEntity
  8
0
  6
CONTINUOUS
 62
               4
100
AcDbCircle
 10
9.25
 20
-14.149978637695312
 30
0.0
 40
0.5
  0
CIRCLE
  5
132
100
AcDbEntity
  8
0
  6
CONTINUOUS
 62
               4
100
AcDbCircle
 10
9.25
 20
-11.6099853515625
 30
0.0
 40
0.5
  0
CIRCLE
  5
133
100
AcDbEntity
  8
0
  6
CONTINUOUS
 62
               4
100
AcDbCircle
 10
9.25
 20
-9.069976806640625
 30
0.0
 40
0.5
  0
ENDBLK
  5
134
100
AcDbEntity
  8
0
100
AcDbBlockEnd
  0
BLOCK
  5
135
100
AcDbEntity
  8
0
100
AcDbBlockBegin
  2
F18_CONNECTER-3
 70
               0
 10
0.0
 20
0.0
 30
0.0
  3
F18_CONNECTER-3
  1

  0
LINE
  5
136
100
AcDbEntity
  8
0
  6
CONTINUOUS
 62
               4
100
AcDbLine
 10
32.0
 20
6.0999999999999996
 30
0.0
 11
32.0
 21
-47.100000000000001
 31
0.0
  0
LINE
  5
137
100
AcDbEntity
  8
0
  6
CONTINUOUS
 62
               4
100
AcDbLine
 10
31.0
 20
-47.100000000000001
 30
0.0
 11
32.0
 21
-47.100000000000001
 31
0.0
  0
LINE
  5
138
100
AcDbEntity
  8
0
  6
CONTINUOUS
 62
               4
100
AcDbLine
 10
31.0
 20
6.0999999999999996
 30
0.0
 11
32.0
 21
6.0999999999999996
 31
0.0
  0
LINE
  5
139
100
AcDbEntity
  8
0
  6
CONTINUOUS
 62
               4
100
AcDbLine
 10
38.0
 20
-1.8500000000000001
 30
0.0
 11
38.0
 21
-39.149999999999999
 31
0.0
  0
LINE
  5
13A
100
AcDbEntity
  8
0
  6
CONTINUOUS
 62
               4
100
AcDbLine
 10
32.0
 20
-1.3500000000000001
 30
0.0
 11
37.5
 21
-1.3500000000000001
 31
0.0
  0
LINE
  5
13B
100
AcDbEntity
  8
0
  6
CONTINUOUS
 62
               4
100
AcDbLine
 10
32.0
 20
-39.649999999999999
 30
0.0
 11
37.5
 21
-39.649999999999999
 31
0.0
  0
LINE
  5
13C
100
AcDbEntity
  8
0
  6
CONTINUOUS
 62
               4
100
AcDbLine
 10
32.0
 20
-41.5
 30
0.0
 11
38.0
 21
-41.5
 31
0.0
  0
LINE
  5
13D
100
AcDbEntity
  8
0
  6
CONTINUOUS
 62
               4
100
AcDbLine
 10
32.0
 20
-44.0
 30
0.0
 11
37.770000000000003
 21
-44.0
 31
0.0
  0
LINE
  5
13E
100
AcDbEntity
  8
0
  6
CONTINUOUS
 62
               4
100
AcDbLine
 10
32.0
 20
-46.5
 30
0.0
 11
38.0
 21
-46.5
 31
0.0
  0
LINE
  5
13F
100
AcDbEntity
  8
0
  6
CONTINUOUS
 62
               4
100
AcDbLine
 10
38.0
 20
-41.5
 30
0.0
 11
38.0
 21
-46.5
 31
0.0
  0
LINE
  5
140
100
AcDbEntity
  8
0
  6
CONTINUOUS
 62
               4
100
AcDbLine
 10
32.0
 20
5.5
 30
0.0
 11
38.0
 21
5.5
 31
0.0
  0
LINE
  5
141
100
AcDbEntity
  8
0
  6
CONTINUOUS
 62
               4
100
AcDbLine
 10
32.0
 20
3.0
 30
0.0
 11
37.770000000000003
 21
3.0
 31
0.0
  0
LINE
  5
142
100
AcDbEntity
  8
0
  6
CONTINUOUS
 62
               4
100
AcDbLine
 10
32.0
 20
0.5
 30
0.0
 11
38.0
 21
0.5
 31
0.0
  0
LINE
  5
143
100
AcDbEntity
  8
0
  6
CONTINUOUS
 62
               4
100
AcDbLine
 10
38.0
 20
5.5
 30
0.0
 11
38.0
 21
0.5
 31
0.0
  0
ARC
  5
144
100
AcDbEntity
  8
0
  6
CONTINUOUS
 62
               4
100
AcDbCircle
 10
34.389556884735327
 20
-45.25
 30
0.0
 40
3.6041497826173003
100
AcDbArc
 50
339.70691632642098
 51
20.293083673578188
  0
ARC
  5
145
100
AcDbEntity
  8
0
  6
CONTINUOUS
 62
               4
100
AcDbCircle
 10
34.389556884735327
 20
-42.75
 30
0.0
 40
3.6041497826173003
100
AcDbArc
 50
339.70691632642098
 51
20.293083673578188
  0
ARC
  5
146
100
AcDbEntity
  8
0
  6
CONTINUOUS
 62
               4
100
AcDbCircle
 10
34.389556884735327
 20
1.75
 30
0.0
 40
3.6041497826173003
100
AcDbArc
 50
339.70691632642098
 51
20.293083673578188
  0
ARC
  5
147
100
AcDbEntity
  8
0
  6
CONTINUOUS
 62
               4
100
AcDbCircle
 10
34.389556884735327
 20
4.25
 30
0.0
 40
3.6041497826173003
100
AcDbArc
 50
339.70691632642098
 51
20.293083673578188
  0
ARC
  5
148
100
AcDbEntity
  8
0
  6
CONTINUOUS
 62
               4
100
AcDbCircle
 10
37.500004577615762
 20
-1.8499954223842359
 30
0.0
 40
0.4999954224051907
100
AcDbArc
 50
359.99947543906967
 51
90.000524560929065
  0
ARC
  5
149
100
AcDbEntity
  8
0
  6
CONTINUOUS
 62
               4
100
AcDbCircle
 10
37.499996948232877
 20
-39.149996948232875
 30
0.0
 40
0.5000030517764382
100
AcDbArc
 50
270.00034970461741
 51
359.99965029538117
  0
ENDBLK
  5
14A
100
AcDbEntity
  8
0
100
AcDbBlockEnd
  0
BLOCK
  5
14B
100
AcDbEntity
  8
0
100
AcDbBlockBegin
  2
F18_CONNECTER-4
 70
               0
 10
0.0
 20
0.0
 30
0.0
  3
F18_CONNECTER-4
  1

  0
LINE
  5
14C
100
AcDbEntity
  8
0
  6
CONTINUOUS
 62
               4
100
AcDbLine
 10
21.0
 20
31.0
 30
0.0
 11
21.0
 21
-22.0
 31
0.0
  0
LINE
  5
14D
100
AcDbEntity
  8
0
  6
CONTINUOUS
 62
               4
100
AcDbLine
 10
0.0
 20
-22.0
 30
0.0
 11
21.0
 21
-22.0
 31
0.0
  0
LINE
  5
14E
100
AcDbEntity
  8
0
  6
CONTINUOUS
 62
               4
100
AcDbLine
 10
0.0
 20
31.0
 30
0.0
 11
0.0
 21
-22.0
 31
0.0
  0
LINE
  5
14F
100
AcDbEntity
  8
0
  6
CONTINUOUS
 62
               4
100
AcDbLine
 10
0.0
 20
21.0
 30
0.0
 11
21.0
 21
21.0
 31
0.0
  0
LINE
  5
150
100
AcDbEntity
  8
0
  6
CONTINUOUS
 62
               4
100
AcDbLine
 10
0.0
 20
31.0
 30
0.0
 11
21.0
 21
31.0
 31
0.0
  0
LINE
  5
151
100
AcDbEntity
  8
0
  6
CONTINUOUS
 62
               4
100
AcDbLine
 10
2.5
 20
22.5
 30
0.0
 11
18.5
 21
22.5
 31
0.0
  0
LINE
  5
152
100
AcDbEntity
  8
0
  6
CONTINUOUS
 62
               4
100
AcDbLine
 10
1.5
 20
31.0
 30
0.0
 11
1.5
 21
21.0
 31
0.0
  0
LINE
  5
153
100
AcDbEntity
  8
0
  6
CONTINUOUS
 62
               4
100
AcDbLine
 10
19.5
 20
31.0
 30
0.0
 11
19.5
 21
21.0
 31
0.0
  0
LINE
  5
154
100
AcDbEntity
  8
0
  6
CONTINUOUS
 62
               4
100
AcDbLine
 10
18.5
 20
29.5
 30
0.0
 11
18.5
 21
22.5
 31
0.0
  0
LINE
  5
155
100
AcDbEntity
  8
0
  6
CONTINUOUS
 62
               4
100
AcDbLine
 10
2.5
 20
29.5
 30
0.0
 11
2.5
 21
22.5
 31
0.0
  0
LINE
  5
156
100
AcDbEntity
  8
0
  6
CONTINUOUS
 62
               4
100
AcDbLine
 10
1.5
 20
29.5
 30
0.0
 11
19.5
 21
29.5
 31
0.0
  0
LINE
  5
157
100
AcDbEntity
  8
0
  6
CONTINUOUS
 62
               4
100
AcDbLine
 10
9.5
 20
29.5
 30
0.0
 11
9.5
 21
22.5
 31
0.0
  0
LINE
  5
158
100
AcDbEntity
  8
0
  6
CONTINUOUS
 62
               4
100
AcDbLine
 10
11.5
 20
29.5
 30
0.0
 11
11.5
 21
22.5
 31
0.0
  0
LINE
  5
159
100
AcDbEntity
  8
0
  6
CONTINUOUS
 62
               4
100
AcDbLine
 10
2.5
 20
28.5
 30
0.0
 11
9.5
 21
28.5
 31
0.0
  0
LINE
  5
15A
100
AcDbEntity
  8
0
  6
CONTINUOUS
 62
               4
100
AcDbLine
 10
11.5
 20
28.5
 30
0.0
 11
18.5
 21
28.5
 31
0.0
  0
LINE
  5
15B
100
AcDbEntity
  8
0
  6
CONTINUOUS
 62
               4
100
AcDbLine
 10
3.0499999999999998
 20
23.300000000000001
 30
0.0
 11
8.9499999999999993
 21
23.300000000000001
 31
0.0
  0
LINE
  5
15C
100
AcDbEntity
  8
0
  6
CONTINUOUS
 62
               4
100
AcDbLine
 10
3.0499999999999998
 20
23.300000000000001
 30
0.0
 11
3.0499999999999998
 21
22.5
 31
0.0
  0
LINE
  5
15D
100
AcDbEntity
  8
0
  6
CONTINUOUS
 62
               4
100
AcDbLine
 10
3.8500000000000001
 20
23.300000000000001
 30
0.0
 11
3.8500000000000001
 21
22.5
 31
0.0
  0
LINE
  5
15E
100
AcDbEntity
  8
0
  6
CONTINUOUS
 62
               4
100
AcDbLine
 10
8.1500000000000004
 20
23.300000000000001
 30
0.0
 11
8.1500000000000004
 21
22.5
 31
0.0
  0
LINE
  5
15F
100
AcDbEntity
  8
0
  6
CONTINUOUS
 62
               4
100
AcDbLine
 10
8.9499999999999993
 20
23.300000000000001
 30
0.0
 11
8.9499999999999993
 21
22.5
 31
0.0
  0
LINE
  5
160
100
AcDbEntity
  8
0
  6
CONTINUOUS
 62
               4
100
AcDbLine
 10
12.050000000000001
 20
23.300000000000001
 30
0.0
 11
12.050000000000001
 21
22.5
 31
0.0
  0
LINE
  5
161
100
AcDbEntity
  8
0
  6
CONTINUOUS
 62
               4
100
AcDbLine
 10
12.85
 20
23.300000000000001
 30
0.0
 11
12.85
 21
22.5
 31
0.0
  0
LINE
  5
162
100
AcDbEntity
  8
0
  6
CONTINUOUS
 62
               4
100
AcDbLine
 10
17.149999999999999
 20
23.300000000000001
 30
0.0
 11
17.149999999999999
 21
22.5
 31
0.0
  0
LINE
  5
163
100
AcDbEntity
  8
0
  6
CONTINUOUS
 62
               4
100
AcDbLine
 10
17.949999999999999
 20
23.300000000000001
 30
0.0
 11
17.949999999999999
 21
22.5
 31
0.0
  0
LINE
  5
164
100
AcDbEntity
  8
0
  6
CONTINUOUS
 62
               4
100
AcDbLine
 10
12.050000000000001
 20
23.300000000000001
 30
0.0
 11
17.949999999999999
 21
23.300000000000001
 31
0.0
  0
LINE
  5
165
100
AcDbEntity
  8
0
  6
CONTINUOUS
 62
               4
100
AcDbLine
 10
8.9499999999999993
 20
24.0
 30
0.0
 11
8.9499999999999993
 21
23.300000000000001
 31
0.0
  0
LINE
  5
166
100
AcDbEntity
  8
0
  6
CONTINUOUS
 62
               4
100
AcDbLine
 10
3.0499999999999998
 20
24.0
 30
0.0
 11
3.0499999999999998
 21
23.300000000000001
 31
0.0
  0
LINE
  5
167
100
AcDbEntity
  8
0
  6
CONTINUOUS
 62
               4
100
AcDbLine
 10
17.949999999999999
 20
24.0
 30
0.0
 11
12.050000000000001
 21
24.0
 31
0.0
  0
LINE
  5
168
100
AcDbEntity
  8
0
  6
CONTINUOUS
 62
               4
100
AcDbLine
 10
17.949999999999999
 20
24.0
 30
0.0
 11
17.949999999999999
 21
23.300000000000001
 31
0.0
  0
LINE
  5
169
100
AcDbEntity
  8
0
  6
CONTINUOUS
 62
               4
100
AcDbLine
 10
12.050000000000001
 20
24.0
 30
0.0
 11
12.050000000000001
 21
23.300000000000001
 31
0.0
  0
LINE
  5
16A
100
AcDbEntity
  8
0
  6
CONTINUOUS
 62
               4
100
AcDbLine
 10
8.8000000000000007
 20
25.170000000000002
 30
0.0
 11
8.8000000000000007
 21
24.0
 31
0.0
  0
LINE
  5
16B
100
AcDbEntity
  8
0
  6
CONTINUOUS
 62
               4
100
AcDbLine
 10
3.2000000000000002
 20
25.170000000000002
 30
0.0
 11
3.2000000000000002
 21
24.0
 31
0.0
  0
LINE
  5
16C
100
AcDbEntity
  8
0
  6
CONTINUOUS
 62
               4
100
AcDbLine
 10
17.800000000000001
 20
25.170000000000002
 30
0.0
 11
17.800000000000001
 21
24.0
 31
0.0
  0
LINE
  5
16D
100
AcDbEntity
  8
0
  6
CONTINUOUS
 62
               4
100
AcDbLine
 10
12.199999999999999
 20
25.170000000000002
 30
0.0
 11
12.199999999999999
 21
24.0
 31
0.0
  0
LINE
  5
16E
100
AcDbEntity
  8
0
  6
CONTINUOUS
 62
               4
100
AcDbLine
 10
4.25
 20
32.0
 30
0.0
 11
16.75
 21
32.0
 31
0.0
  0
LINE
  5
16F
100
AcDbEntity
  8
0
  6
CONTINUOUS
 62
               4
100
AcDbLine
 10
4.25
 20
32.0
 30
0.0
 11
4.25
 21
31.0
 31
0.0
  0
LINE
  5
170
100
AcDbEntity
  8
0
  6
CONTINUOUS
 62
               4
100
AcDbLine
 10
16.75
 20
32.0
 30
0.0
 11
16.75
 21
31.0
 31
0.0
  0
LINE
  5
171
100
AcDbEntity
  8
0
  6
CONTINUOUS
 62
               4
100
AcDbLine
 10
7.6100000000000003
 20
32.0
 30
0.0
 11
7.6100000000000003
 21
37.770000000000003
 31
0.0
  0
LINE
  5
172
100
AcDbEntity
  8
0
  6
CONTINUOUS
 62
               4
100
AcDbLine
 10
9.0500000000000007
 20
32.0
 30
0.0
 11
9.0500000000000007
 21
37.770000000000003
 31
0.0
  0
LINE
  5
173
100
AcDbEntity
  8
0
  6
CONTINUOUS
 62
               4
100
AcDbLine
 10
11.94
 20
32.0
 30
0.0
 11
11.94
 21
37.770000000000003
 31
0.0
  0
LINE
  5
174
100
AcDbEntity
  8
0
  6
CONTINUOUS
 62
               4
100
AcDbLine
 10
13.380000000000001
 20
32.0
 30
0.0
 11
13.380000000000001
 21
37.770000000000003
 31
0.0
  0
LINE
  5
175
100
AcDbEntity
  8
0
  6
CONTINUOUS
 62
               4
100
AcDbLine
 10
13.0
 20
38.0
 30
0.0
 11
13.380000000000001
 21
37.770000000000003
 31
0.0
  0
LINE
  5
176
100
AcDbEntity
  8
0
  6
CONTINUOUS
 62
               4
100
AcDbLine
 10
7.0899999999999999
 20
38.0
 30
0.0
 11
13.91
 21
38.0
 31
0.0
  0
LINE
  5
177
100
AcDbEntity
  8
0
  6
CONTINUOUS
 62
               4
100
AcDbLine
 10
8.0
 20
38.0
 30
0.0
 11
7.6100000000000003
 21
37.770000000000003
 31
0.0
  0
LINE
  5
178
100
AcDbEntity
  8
0
  6
CONTINUOUS
 62
               4
100
AcDbLine
 10
6.5899999999999999
 20
37.5
 30
0.0
 11
6.5899999999999999
 21
32.0
 31
0.0
  0
LINE
  5
179
100
AcDbEntity
  8
0
  6
CONTINUOUS
 62
               4
100
AcDbLine
 10
14.41
 20
37.5
 30
0.0
 11
14.41
 21
32.0
 31
0.0
  0
LINE
  5
17A
100
AcDbEntity
  8
0
  6
CONTINUOUS
 62
               4
100
AcDbLine
 10
3.0499999999999998
 20
24.0
 30
0.0
 11
8.9499999999999993
 21
24.0
 31
0.0
  0
ARC
  5
17B
100
AcDbEntity
  8
0
  6
CONTINUOUS
 62
               4
100
AcDbCircle
 10
5.9950000000000001
 20
21.400006980160171
 30
0.0
 40
4.9998664254813097
100
AcDbArc
 50
60.461178304918043
 51
119.53882169508157
  0
ARC
  5
17C
100
AcDbEntity
  8
0
  6
CONTINUOUS
 62
               4
100
AcDbCircle
 10
8.134627656357754
 20
25.169609315795924
 30
0.0
 40
0.6653724583405332
100
AcDbArc
 50
0.0336421458714143
 51
60.724609876865323
  0
ARC
  5
17D
100
AcDbEntity
  8
0
  6
CONTINUOUS
 62
               4
100
AcDbCircle
 10
3.8678490002748012
 20
25.173896258464339
 30
0.0
 40
0.667860365643951
100
AcDbArc
 50
120.38897048789522
 51
180.33426213580151
  0
ARC
  5
17E
100
AcDbEntity
  8
0
  6
CONTINUOUS
 62
               4
100
AcDbCircle
 10
14.995000000000001
 20
21.400006980160171
 30
0.0
 40
4.9998664254813097
100
AcDbArc
 50
60.46117830491805
 51
119.53882169508159
  0
ARC
  5
17F
100
AcDbEntity
  8
0
  6
CONTINUOUS
 62
               4
100
AcDbCircle
 10
17.134627656357754
 20
25.169609315795924
 30
0.0
 40
0.6653724583405332
100
AcDbArc
 50
0.0336421458714143
 51
60.724609876865323
  0
ARC
  5
180
100
AcDbEntity
  8
0
  6
CONTINUOUS
 62
               4
100
AcDbCircle
 10
12.8678490002748
 20
25.173896258464335
 30
0.0
 40
0.6678603656439516
100
AcDbArc
 50
120.38897048789502
 51
180.3342621358012
  0
ARC
  5
181
100
AcDbEntity
  8
0
  6
CONTINUOUS
 62
               4
100
AcDbCircle
 10
12.661472031649842
 20
36.72180519804693
 30
0.0
 40
1.2724913497915793
100
AcDbArc
 50
64.464759195497138
 51
124.53961978858376
  0
ARC
  5
182
100
AcDbEntity
  8
0
  6
CONTINUOUS
 62
               4
100
AcDbCircle
 10
10.495000000000001
 20
33.223294622108661
 30
0.0
 40
4.7708023217637141
100
AcDbArc
 50
72.369090622170972
 51
107.63090937782867
  0
ARC
  5
183
100
AcDbEntity
  8
0
  6
CONTINUOUS
 62
               4
100
AcDbCircle
 10
8.328588756744205
 20
36.722577210651338
 30
0.0
 40
1.2718210100257097
100
AcDbArc
 50
55.442916994847117
 51
115.55270402107107
  0
ARC
  5
184
100
AcDbEntity
  8
0
  6
CONTINUOUS
 62
               4
100
AcDbCircle
 10
7.0899981689486653
 20
37.500001831051335
 30
0.0
 40
0.4999981689520181
100
AcDbArc
 50
89.999790176204314
 51
180.00020982379519
  0
ARC
  5
185
100
AcDbEntity
  8
0
  6
CONTINUOUS
 62
               4
100
AcDbCircle
 10
13.910001831051336
 20
37.500001831051335
 30
0.0
 40
0.4999981689520181
100
AcDbArc
 50
359.99979017620365
 51
90.000209823795402
  0
ENDBLK
  5
186
100
AcDbEntity
  8
0
100
AcDbBlockEnd
  0
BLOCK
  5
187
100
AcDbEntity
  8
0
100
AcDbBlockBegin
  2
F18_CONNECTER-5
 70
               0
 10
0.0
 20
0.0
 30
0.0
  3
F18_CONNECTER-5
  1

  0
INSERT
  5
188
100
AcDbEntity
  8
0
  6
ByBlock
100
AcDbBlockReference
  2
F18_CONNECTER-8
 10
21.0
 20
0.4300079345703125
 30
0.0
  0
INSERT
  5
189
100
AcDbEntity
  8
0
  6
ByBlock
100
AcDbBlockReference
  2
F18_CONNECTER-8
 10
21.0
 20
-7.1899871826171875
 30
0.0
  0
INSERT
  5
18A
100
AcDbEntity
  8
0
  6
ByBlock
100
AcDbBlockReference
  2
F18_CONNECTER-8
 10
21.0
 20
-14.80999755859375
 30
0.0
  0
INSERT
  5
18B
100
AcDbEntity
  8
0
  6
ByBlock
100
AcDbBlockReference
  2
F18_CONNECTER-8
 10
21.0
 20
-22.430007934570313
 30
0.0
  0
INSERT
  5
18C
100
AcDbEntity
  8
0
  6
ByBlock
100
AcDbBlockReference
  2
F18_CONNECTER-8
 10
21.0
 20
-30.050003051757812
 30
0.0
  0
INSERT
  5
18D
100
AcDbEntity
  8
0
  6
ByBlock
100
AcDbBlockReference
  2
F18_CONNECTER-8
 10
21.0
 20
-37.669998168945313
 30
0.0
  0
INSERT
  5
18E
100
AcDbEntity
  8
0
  6
ByBlock
100
AcDbBlockReference
  2
F18_CONNECTER-8
 10
21.0
 20
-45.289993286132813
 30
0.0
  0
INSERT
  5
18F
100
AcDbEntity
  8
0
  6
ByBlock
100
AcDbBlockReference
  2
F18_CONNECTER-8
 10
21.0
 20
-52.910003662109375
 30
0.0
  0
INSERT
  5
190
100
AcDbEntity
  8
0
  6
ByBlock
100
AcDbBlockReference
  2
F18_CONNECTER-8
 10
21.0
 20
-60.529998779296875
 30
0.0
  0
INSERT
  5
191
100
AcDbEntity
  8
0
  6
ByBlock
100
AcDbBlockReference
  2
F18_CONNECTER-8
 10
30.0
 20
4.2400054931640625
 30
0.0
  0
INSERT
  5
192
100
AcDbEntity
  8
0
  6
ByBlock
100
AcDbBlockReference
  2
F18_CONNECTER-8
 10
30.0
 20
-3.3799896240234375
 30
0.0
  0
INSERT
  5
193
100
AcDbEntity
  8
0
  6
ByBlock
100
AcDbBlockReference
  2
F18_CONNECTER-8
 10
30.0
 20
-11.0
 30
0.0
  0
INSERT
  5
194
100
AcDbEntity
  8
0
  6
ByBlock
100
AcDbBlockReference
  2
F18_CONNECTER-8
 10
30.0
 20
-18.6199951171875
 30
0.0
  0
INSERT
  5
195
100
AcDbEntity
  8
0
  6
ByBlock
100
AcDbBlockReference
  2
F18_CONNECTER-8
 10
30.0
 20
-26.240005493164063
 30
0.0
  0
INSERT
  5
196
100
AcDbEntity
  8
0
  6
ByBlock
100
AcDbBlockReference
  2
F18_CONNECTER-8
 10
30.0
 20
-33.860000610351563
 30
0.0
  0
INSERT
  5
197
100
AcDbEntity
  8
0
  6
ByBlock
100
AcDbBlockReference
  2
F18_CONNECTER-8
 10
30.0
 20
-41.479995727539063
 30
0.0
  0
INSERT
  5
198
100
AcDbEntity
  8
0
  6
ByBlock
100
AcDbBlockReference
  2
F18_CONNECTER-8
 10
30.0
 20
-49.100006103515625
 30
0.0
  0
INSERT
  5
199
100
AcDbEntity
  8
0
  6
ByBlock
100
AcDbBlockReference
  2
F18_CONNECTER-8
 10
30.0
 20
-56.720001220703125
 30
0.0
  0
INSERT
  5
19A
100
AcDbEntity
  8
0
  6
ByBlock
100
AcDbBlockReference
  2
F18_CONNECTER-8
 10
30.0
 20
-64.340011596679688
 30
0.0
  0
LINE
  5
19B
100
AcDbEntity
  8
0
  6
CONTINUOUS
 62
               4
100
AcDbLine
 10
42.0
 20
-73.0
 30
0.0
 11
42.0
 21
50.0
 31
0.0
  0
LINE
  5
19C
100
AcDbEntity
  8
0
  6
CONTINUOUS
 62
               4
100
AcDbLine
 10
0.0
 20
-73.0
 30
0.0
 11
0.0
 21
50.0
 31
0.0
  0
LINE
  5
19D
100
AcDbEntity
  8
0
  6
CONTINUOUS
 62
               4
100
AcDbLine
 10
21.0
 20
50.0
 30
0.0
 11
21.0
 21
20.0
 31
0.0
  0
LINE
  5
19E
100
AcDbEntity
  8
0
  6
CONTINUOUS
 62
               4
100
AcDbLine
 10
0.0
 20
-73.0
 30
0.0
 11
19.0
 21
-73.0
 31
0.0
  0
LINE
  5
19F
100
AcDbEntity
  8
0
  6
CONTINUOUS
 62
               4
100
AcDbLine
 10
0.0
 20
20.0
 30
0.0
 11
42.0
 21
20.0
 31
0.0
  0
LINE
  5
1A0
100
AcDbEntity
  8
0
  6
CONTINUOUS
 62
               4
100
AcDbLine
 10
0.0
 20
20.5
 30
0.0
 11
42.0
 21
20.5
 31
0.0
  0
LINE
  5
1A1
100
AcDbEntity
  8
0
  6
CONTINUOUS
 62
               4
100
AcDbLine
 10
7.0
 20
-71.299999999999997
 30
0.0
 11
14.0
 21
-71.299999999999997
 31
0.0
  0
LINE
  5
1A2
100
AcDbEntity
  8
0
  6
CONTINUOUS
 62
               4
100
AcDbLine
 10
14.0
 20
-71.299999999999997
 30
0.0
 11
14.0
 21
-73.0
 31
0.0
  0
LINE
  5
1A3
100
AcDbEntity
  8
0
  6
CONTINUOUS
 62
               4
100
AcDbLine
 10
7.0
 20
-71.299999999999997
 30
0.0
 11
7.0
 21
-73.0
 31
0.0
  0
LINE
  5
1A4
100
AcDbEntity
  8
0
  6
CONTINUOUS
 62
               4
100
AcDbLine
 10
28.0
 20
-71.299999999999997
 30
0.0
 11
28.0
 21
-73.0
 31
0.0
  0
LINE
  5
1A5
100
AcDbEntity
  8
0
  6
CONTINUOUS
 62
               4
100
AcDbLine
 10
35.0
 20
-71.299999999999997
 30
0.0
 11
35.0
 21
-73.0
 31
0.0
  0
LINE
  5
1A6
100
AcDbEntity
  8
0
  6
CONTINUOUS
 62
               4
100
AcDbLine
 10
28.0
 20
-71.299999999999997
 30
0.0
 11
35.0
 21
-71.299999999999997
 31
0.0
  0
LINE
  5
1A7
100
AcDbEntity
  8
0
  6
CONTINUOUS
 62
               4
100
AcDbLine
 10
35.0
 20
11.109999999999999
 30
0.0
 11
35.0
 21
-71.209999999999994
 31
0.0
  0
LINE
  5
1A8
100
AcDbEntity
  8
0
  6
CONTINUOUS
 62
               4
100
AcDbLine
 10
16.0
 20
12.050000000000001
 30
0.0
 11
16.0
 21
-72.150000000000006
 31
0.0
  0
LINE
  5
1A9
100
AcDbEntity
  8
0
  6
CONTINUOUS
 62
               4
100
AcDbLine
 10
25.0
 20
11.109999999999999
 30
0.0
 11
25.0
 21
-71.209999999999994
 31
0.0
  0
LINE
  5
1AA
100
AcDbEntity
  8
0
  6
CONTINUOUS
 62
               4
100
AcDbLine
 10
16.0
 20
11.109999999999999
 30
0.0
 11
35.0
 21
11.109999999999999
 31
0.0
  0
LINE
  5
1AB
100
AcDbEntity
  8
0
  6
CONTINUOUS
 62
               4
100
AcDbLine
 10
16.0
 20
-71.209999999999994
 30
0.0
 11
35.0
 21
-71.209999999999994
 31
0.0
  0
LINE
  5
1AC
100
AcDbEntity
  8
0
  6
CONTINUOUS
 62
               4
100
AcDbLine
 10
26.0
 20
12.050000000000001
 30
0.0
 11
26.0
 21
11.109999999999999
 31
0.0
  0
LINE
  5
1AD
100
AcDbEntity
  8
0
  6
CONTINUOUS
 62
               4
100
AcDbLine
 10
16.0
 20
-72.150000000000006
 30
0.0
 11
26.0
 21
-72.150000000000006
 31
0.0
  0
LINE
  5
1AE
100
AcDbEntity
  8
0
  6
CONTINUOUS
 62
               4
100
AcDbLine
 10
16.0
 20
12.050000000000001
 30
0.0
 11
26.0
 21
12.050000000000001
 31
0.0
  0
LINE
  5
1AF
100
AcDbEntity
  8
0
  6
CONTINUOUS
 62
               4
100
AcDbLine
 10
26.0
 20
-71.209999999999994
 30
0.0
 11
26.0
 21
-72.150000000000006
 31
0.0
  0
LINE
  5
1B0
100
AcDbEntity
  8
0
  6
CONTINUOUS
 62
               4
100
AcDbLine
 10
34.0
 20
11.109999999999999
 30
0.0
 11
34.0
 21
8.6999999999999993
 31
0.0
  0
LINE
  5
1B1
100
AcDbEntity
  8
0
  6
CONTINUOUS
 62
               4
100
AcDbLine
 10
26.5
 20
8.6999999999999993
 30
0.0
 11
34.0
 21
8.6999999999999993
 31
0.0
  0
LINE
  5
1B2
100
AcDbEntity
  8
0
  6
CONTINUOUS
 62
               4
100
AcDbLine
 10
25.0
 20
7.4000000000000004
 30
0.0
 11
34.0
 21
7.4000000000000004
 31
0.0
  0
LINE
  5
1B3
100
AcDbEntity
  8
0
  6
CONTINUOUS
 62
               4
100
AcDbLine
 10
25.0
 20
1.0800000000000001
 30
0.0
 11
34.0
 21
1.0800000000000001
 31
0.0
  0
LINE
  5
1B4
100
AcDbEntity
  8
0
  6
CONTINUOUS
 62
               4
100
AcDbLine
 10
25.0
 20
-0.22
 30
0.0
 11
34.0
 21
-0.22
 31
0.0
  0
LINE
  5
1B5
100
AcDbEntity
  8
0
  6
CONTINUOUS
 62
               4
100
AcDbLine
 10
25.0
 20
-6.54
 30
0.0
 11
34.0
 21
-6.54
 31
0.0
  0
LINE
  5
1B6
100
AcDbEntity
  8
0
  6
CONTINUOUS
 62
               4
100
AcDbLine
 10
25.0
 20
-7.8399999999999999
 30
0.0
 11
34.0
 21
-7.8399999999999999
 31
0.0
  0
LINE
  5
1B7
100
AcDbEntity
  8
0
  6
CONTINUOUS
 62
               4
100
AcDbLine
 10
25.0
 20
-14.16
 30
0.0
 11
34.0
 21
-14.16
 31
0.0
  0
LINE
  5
1B8
100
AcDbEntity
  8
0
  6
CONTINUOUS
 62
               4
100
AcDbLine
 10
25.0
 20
-15.460000000000001
 30
0.0
 11
34.0
 21
-15.460000000000001
 31
0.0
  0
LINE
  5
1B9
100
AcDbEntity
  8
0
  6
CONTINUOUS
 62
               4
100
AcDbLine
 10
25.0
 20
-21.780000000000001
 30
0.0
 11
34.0
 21
-21.780000000000001
 31
0.0
  0
LINE
  5
1BA
100
AcDbEntity
  8
0
  6
CONTINUOUS
 62
               4
100
AcDbLine
 10
25.0
 20
-23.079999999999998
 30
0.0
 11
34.0
 21
-23.079999999999998
 31
0.0
  0
LINE
  5
1BB
100
AcDbEntity
  8
0
  6
CONTINUOUS
 62
               4
100
AcDbLine
 10
25.0
 20
-29.399999999999999
 30
0.0
 11
34.0
 21
-29.399999999999999
 31
0.0
  0
LINE
  5
1BC
100
AcDbEntity
  8
0
  6
CONTINUOUS
 62
               4
100
AcDbLine
 10
25.0
 20
-30.699999999999999
 30
0.0
 11
34.0
 21
-30.699999999999999
 31
0.0
  0
LINE
  5
1BD
100
AcDbEntity
  8
0
  6
CONTINUOUS
 62
               4
100
AcDbLine
 10
25.0
 20
-37.020000000000003
 30
0.0
 11
34.0
 21
-37.020000000000003
 31
0.0
  0
LINE
  5
1BE
100
AcDbEntity
  8
0
  6
CONTINUOUS
 62
               4
100
AcDbLine
 10
25.0
 20
-38.32
 30
0.0
 11
34.0
 21
-38.32
 31
0.0
  0
LINE
  5
1BF
100
AcDbEntity
  8
0
  6
CONTINUOUS
 62
               4
100
AcDbLine
 10
25.0
 20
-44.640000000000001
 30
0.0
 11
34.0
 21
-44.640000000000001
 31
0.0
  0
LINE
  5
1C0
100
AcDbEntity
  8
0
  6
CONTINUOUS
 62
               4
100
AcDbLine
 10
25.0
 20
-45.939999999999998
 30
0.0
 11
34.0
 21
-45.939999999999998
 31
0.0
  0
LINE
  5
1C1
100
AcDbEntity
  8
0
  6
CONTINUOUS
 62
               4
100
AcDbLine
 10
25.0
 20
-52.259999999999998
 30
0.0
 11
34.0
 21
-52.259999999999998
 31
0.0
  0
LINE
  5
1C2
100
AcDbEntity
  8
0
  6
CONTINUOUS
 62
               4
100
AcDbLine
 10
25.0
 20
-53.560000000000002
 30
0.0
 11
34.0
 21
-53.560000000000002
 31
0.0
  0
LINE
  5
1C3
100
AcDbEntity
  8
0
  6
CONTINUOUS
 62
               4
100
AcDbLine
 10
25.0
 20
-59.880000000000003
 30
0.0
 11
34.0
 21
-59.880000000000003
 31
0.0
  0
LINE
  5
1C4
100
AcDbEntity
  8
0
  6
CONTINUOUS
 62
               4
100
AcDbLine
 10
25.0
 20
-61.18
 30
0.0
 11
34.0
 21
-61.18
 31
0.0
  0
LINE
  5
1C5
100
AcDbEntity
  8
0
  6
CONTINUOUS
 62
               4
100
AcDbLine
 10
25.0
 20
-67.5
 30
0.0
 11
34.0
 21
-67.5
 31
0.0
  0
LINE
  5
1C6
100
AcDbEntity
  8
0
  6
CONTINUOUS
 62
               4
100
AcDbLine
 10
26.5
 20
-68.799999999999997
 30
0.0
 11
34.0
 21
-68.799999999999997
 31
0.0
  0
LINE
  5
1C7
100
AcDbEntity
  8
0
  6
CONTINUOUS
 62
               4
100
AcDbLine
 10
34.0
 20
7.4000000000000004
 30
0.0
 11
34.0
 21
1.0800000000000001
 31
0.0
  0
LINE
  5
1C8
100
AcDbEntity
  8
0
  6
CONTINUOUS
 62
               4
100
AcDbLine
 10
34.0
 20
-0.22
 30
0.0
 11
34.0
 21
-6.54
 31
0.0
  0
LINE
  5
1C9
100
AcDbEntity
  8
0
  6
CONTINUOUS
 62
               4
100
AcDbLine
 10
34.0
 20
-7.8399999999999999
 30
0.0
 11
34.0
 21
-14.16
 31
0.0
  0
LINE
  5
1CA
100
AcDbEntity
  8
0
  6
CONTINUOUS
 62
               4
100
AcDbLine
 10
34.0
 20
-15.460000000000001
 30
0.0
 11
34.0
 21
-21.780000000000001
 31
0.0
  0
LINE
  5
1CB
100
AcDbEntity
  8
0
  6
CONTINUOUS
 62
               4
100
AcDbLine
 10
34.0
 20
-23.079999999999998
 30
0.0
 11
34.0
 21
-29.399999999999999
 31
0.0
  0
LINE
  5
1CC
100
AcDbEntity
  8
0
  6
CONTINUOUS
 62
               4
100
AcDbLine
 10
34.0
 20
-30.699999999999999
 30
0.0
 11
34.0
 21
-37.020000000000003
 31
0.0
  0
LINE
  5
1CD
100
AcDbEntity
  8
0
  6
CONTINUOUS
 62
               4
100
AcDbLine
 10
34.0
 20
-38.32
 30
0.0
 11
34.0
 21
-44.640000000000001
 31
0.0
  0
LINE
  5
1CE
100
AcDbEntity
  8
0
  6
CONTINUOUS
 62
               4
100
AcDbLine
 10
34.0
 20
-45.939999999999998
 30
0.0
 11
34.0
 21
-52.259999999999998
 31
0.0
  0
LINE
  5
1CF
100
AcDbEntity
  8
0
  6
CONTINUOUS
 62
               4
100
AcDbLine
 10
34.0
 20
-53.560000000000002
 30
0.0
 11
34.0
 21
-59.880000000000003
 31
0.0
  0
LINE
  5
1D0
100
AcDbEntity
  8
0
  6
CONTINUOUS
 62
               4
100
AcDbLine
 10
34.0
 20
-61.18
 30
0.0
 11
34.0
 21
-67.5
 31
0.0
  0
LINE
  5
1D1
100
AcDbEntity
  8
0
  6
CONTINUOUS
 62
               4
100
AcDbLine
 10
34.0
 20
-68.799999999999997
 30
0.0
 11
34.0
 21
-71.209999999999994
 31
0.0
  0
LINE
  5
1D2
100
AcDbEntity
  8
0
  6
CONTINUOUS
 62
               4
100
AcDbLine
 10
16.0
 20
4.8899999999999997
 30
0.0
 11
25.0
 21
4.8899999999999997
 31
0.0
  0
LINE
  5
1D3
100
AcDbEntity
  8
0
  6
CONTINUOUS
 62
               4
100
AcDbLine
 10
16.0
 20
3.5899999999999999
 30
0.0
 11
25.0
 21
3.5899999999999999
 31
0.0
  0
LINE
  5
1D4
100
AcDbEntity
  8
0
  6
CONTINUOUS
 62
               4
100
AcDbLine
 10
16.0
 20
-2.73
 30
0.0
 11
25.0
 21
-2.73
 31
0.0
  0
LINE
  5
1D5
100
AcDbEntity
  8
0
  6
CONTINUOUS
 62
               4
100
AcDbLine
 10
16.0
 20
-4.0300000000000002
 30
0.0
 11
25.0
 21
-4.0300000000000002
 31
0.0
  0
LINE
  5
1D6
100
AcDbEntity
  8
0
  6
CONTINUOUS
 62
               4
100
AcDbLine
 10
16.0
 20
-10.35
 30
0.0
 11
25.0
 21
-10.35
 31
0.0
  0
LINE
  5
1D7
100
AcDbEntity
  8
0
  6
CONTINUOUS
 62
               4
100
AcDbLine
 10
16.0
 20
-11.65
 30
0.0
 11
25.0
 21
-11.65
 31
0.0
  0
LINE
  5
1D8
100
AcDbEntity
  8
0
  6
CONTINUOUS
 62
               4
100
AcDbLine
 10
16.0
 20
-17.969999999999999
 30
0.0
 11
25.0
 21
-17.969999999999999
 31
0.0
  0
LINE
  5
1D9
100
AcDbEntity
  8
0
  6
CONTINUOUS
 62
               4
100
AcDbLine
 10
16.0
 20
-19.27
 30
0.0
 11
25.0
 21
-19.27
 31
0.0
  0
LINE
  5
1DA
100
AcDbEntity
  8
0
  6
CONTINUOUS
 62
               4
100
AcDbLine
 10
16.0
 20
-25.59
 30
0.0
 11
25.0
 21
-25.59
 31
0.0
  0
LINE
  5
1DB
100
AcDbEntity
  8
0
  6
CONTINUOUS
 62
               4
100
AcDbLine
 10
16.0
 20
-26.890000000000001
 30
0.0
 11
25.0
 21
-26.890000000000001
 31
0.0
  0
LINE
  5
1DC
100
AcDbEntity
  8
0
  6
CONTINUOUS
 62
               4
100
AcDbLine
 10
16.0
 20
-33.210000000000001
 30
0.0
 11
25.0
 21
-33.210000000000001
 31
0.0
  0
LINE
  5
1DD
100
AcDbEntity
  8
0
  6
CONTINUOUS
 62
               4
100
AcDbLine
 10
16.0
 20
-34.509999999999998
 30
0.0
 11
25.0
 21
-34.509999999999998
 31
0.0
  0
LINE
  5
1DE
100
AcDbEntity
  8
0
  6
CONTINUOUS
 62
               4
100
AcDbLine
 10
16.0
 20
-40.829999999999998
 30
0.0
 11
25.0
 21
-40.829999999999998
 31
0.0
  0
LINE
  5
1DF
100
AcDbEntity
  8
0
  6
CONTINUOUS
 62
               4
100
AcDbLine
 10
16.0
 20
-42.130000000000003
 30
0.0
 11
25.0
 21
-42.130000000000003
 31
0.0
  0
LINE
  5
1E0
100
AcDbEntity
  8
0
  6
CONTINUOUS
 62
               4
100
AcDbLine
 10
16.0
 20
-48.450000000000003
 30
0.0
 11
25.0
 21
-48.450000000000003
 31
0.0
  0
LINE
  5
1E1
100
AcDbEntity
  8
0
  6
CONTINUOUS
 62
               4
100
AcDbLine
 10
16.0
 20
-49.75
 30
0.0
 11
25.0
 21
-49.75
 31
0.0
  0
LINE
  5
1E2
100
AcDbEntity
  8
0
  6
CONTINUOUS
 62
               4
100
AcDbLine
 10
16.0
 20
-56.07
 30
0.0
 11
25.0
 21
-56.07
 31
0.0
  0
LINE
  5
1E3
100
AcDbEntity
  8
0
  6
CONTINUOUS
 62
               4
100
AcDbLine
 10
16.0
 20
-57.369999999999997
 30
0.0
 11
25.0
 21
-57.369999999999997
 31
0.0
  0
LINE
  5
1E4
100
AcDbEntity
  8
0
  6
CONTINUOUS
 62
               4
100
AcDbLine
 10
16.0
 20
-63.689999999999998
 30
0.0
 11
25.0
 21
-63.689999999999998
 31
0.0
  0
LINE
  5
1E5
100
AcDbEntity
  8
0
  6
CONTINUOUS
 62
               4
100
AcDbLine
 10
16.0
 20
-64.989999999999995
 30
0.0
 11
25.0
 21
-64.989999999999995
 31
0.0
  0
LINE
  5
1E6
100
AcDbEntity
  8
0
  6
CONTINUOUS
 62
               4
100
AcDbLine
 10
23.0
 20
12.99
 30
0.0
 11
23.0
 21
12.050000000000001
 31
0.0
  0
LINE
  5
1E7
100
AcDbEntity
  8
0
  6
CONTINUOUS
 62
               4
100
AcDbLine
 10
19.0
 20
12.99
 30
0.0
 11
19.0
 21
12.050000000000001
 31
0.0
  0
LINE
  5
1E8
100
AcDbEntity
  8
0
  6
CONTINUOUS
 62
               4
100
AcDbLine
 10
19.0
 20
12.99
 30
0.0
 11
23.0
 21
12.99
 31
0.0
  0
LINE
  5
1E9
100
AcDbEntity
  8
0
  6
CONTINUOUS
 62
               4
100
AcDbLine
 10
19.0
 20
-73.090000000000003
 30
0.0
 11
23.0
 21
-73.090000000000003
 31
0.0
  0
LINE
  5
1EA
100
AcDbEntity
  8
0
  6
CONTINUOUS
 62
               4
100
AcDbLine
 10
19.0
 20
-72.150000000000006
 30
0.0
 11
19.0
 21
-73.090000000000003
 31
0.0
  0
LINE
  5
1EB
100
AcDbEntity
  8
0
  6
CONTINUOUS
 62
               4
100
AcDbLine
 10
23.0
 20
-72.150000000000006
 30
0.0
 11
23.0
 21
-73.090000000000003
 31
0.0
  0
LINE
  5
1EC
100
AcDbEntity
  8
0
  6
CONTINUOUS
 62
               4
100
AcDbLine
 10
23.0
 20
-73.0
 30
0.0
 11
42.0
 21
-73.0
 31
0.0
  0
LINE
  5
1ED
100
AcDbEntity
  8
0
  6
CONTINUOUS
 62
               4
100
AcDbLine
 10
19.93
 20
6.9800000000000004
 30
0.0
 11
22.059999999999999
 21
9.1099999999999994
 31
0.0
  0
LINE
  5
1EE
100
AcDbEntity
  8
0
  6
CONTINUOUS
 62
               4
100
AcDbLine
 10
19.93
 20
9.1099999999999994
 30
0.0
 11
22.059999999999999
 21
6.9800000000000004
 31
0.0
  0
LINE
  5
1EF
100
AcDbEntity
  8
0
  6
CONTINUOUS
 62
               4
100
AcDbLine
 10
18.100000000000001
 20
10.949999999999999
 30
0.0
 11
23.899999999999999
 21
10.949999999999999
 31
0.0
  0
LINE
  5
1F0
100
AcDbEntity
  8
0
  6
CONTINUOUS
 62
               4
100
AcDbLine
 10
18.100000000000001
 20
5.1500000000000004
 30
0.0
 11
23.899999999999999
 21
5.1500000000000004
 31
0.0
  0
LINE
  5
1F1
100
AcDbEntity
  8
0
  6
CONTINUOUS
 62
               4
100
AcDbLine
 10
18.100000000000001
 20
10.949999999999999
 30
0.0
 11
18.100000000000001
 21
10.550000000000001
 31
0.0
  0
LINE
  5
1F2
100
AcDbEntity
  8
0
  6
CONTINUOUS
 62
               4
100
AcDbLine
 10
23.899999999999999
 20
10.949999999999999
 30
0.0
 11
23.899999999999999
 21
10.550000000000001
 31
0.0
  0
LINE
  5
1F3
100
AcDbEntity
  8
0
  6
CONTINUOUS
 62
               4
100
AcDbLine
 10
24.399999999999999
 20
10.550000000000001
 30
0.0
 11
24.399999999999999
 21
5.5499999999999998
 31
0.0
  0
LINE
  5
1F4
100
AcDbEntity
  8
0
  6
CONTINUOUS
 62
               4
100
AcDbLine
 10
17.600000000000001
 20
10.550000000000001
 30
0.0
 11
17.600000000000001
 21
5.5499999999999998
 31
0.0
  0
LINE
  5
1F5
100
AcDbEntity
  8
0
  6
CONTINUOUS
 62
               4
100
AcDbLine
 10
17.600000000000001
 20
5.5499999999999998
 30
0.0
 11
18.100000000000001
 21
5.5499999999999998
 31
0.0
  0
LINE
  5
1F6
100
AcDbEntity
  8
0
  6
CONTINUOUS
 62
               4
100
AcDbLine
 10
17.600000000000001
 20
10.550000000000001
 30
0.0
 11
18.100000000000001
 21
10.550000000000001
 31
0.0
  0
LINE
  5
1F7
100
AcDbEntity
  8
0
  6
CONTINUOUS
 62
               4
100
AcDbLine
 10
23.899999999999999
 20
10.550000000000001
 30
0.0
 11
24.399999999999999
 21
10.550000000000001
 31
0.0
  0
LINE
  5
1F8
100
AcDbEntity
  8
0
  6
CONTINUOUS
 62
               4
100
AcDbLine
 10
23.899999999999999
 20
5.5499999999999998
 30
0.0
 11
24.399999999999999
 21
5.5499999999999998
 31
0.0
  0
LINE
  5
1F9
100
AcDbEntity
  8
0
  6
CONTINUOUS
 62
               4
100
AcDbLine
 10
19.93
 20
-69.209999999999994
 30
0.0
 11
22.059999999999999
 21
-67.079999999999998
 31
0.0
  0
LINE
  5
1FA
100
AcDbEntity
  8
0
  6
CONTINUOUS
 62
               4
100
AcDbLine
 10
19.93
 20
-67.079999999999998
 30
0.0
 11
22.059999999999999
 21
-69.209999999999994
 31
0.0
  0
LINE
  5
1FB
100
AcDbEntity
  8
0
  6
CONTINUOUS
 62
               4
100
AcDbLine
 10
18.100000000000001
 20
-65.25
 30
0.0
 11
23.899999999999999
 21
-65.25
 31
0.0
  0
LINE
  5
1FC
100
AcDbEntity
  8
0
  6
CONTINUOUS
 62
               4
100
AcDbLine
 10
18.100000000000001
 20
-71.049999999999997
 30
0.0
 11
23.899999999999999
 21
-71.049999999999997
 31
0.0
  0
LINE
  5
1FD
100
AcDbEntity
  8
0
  6
CONTINUOUS
 62
               4
100
AcDbLine
 10
18.100000000000001
 20
-65.25
 30
0.0
 11
18.100000000000001
 21
-65.650000000000006
 31
0.0
  0
LINE
  5
1FE
100
AcDbEntity
  8
0
  6
CONTINUOUS
 62
               4
100
AcDbLine
 10
23.899999999999999
 20
-65.25
 30
0.0
 11
23.899999999999999
 21
-65.650000000000006
 31
0.0
  0
LINE
  5
1FF
100
AcDbEntity
  8
0
  6
CONTINUOUS
 62
               4
100
AcDbLine
 10
24.399999999999999
 20
-65.650000000000006
 30
0.0
 11
24.399999999999999
 21
-70.650000000000006
 31
0.0
  0
LINE
  5
200
100
AcDbEntity
  8
0
  6
CONTINUOUS
 62
               4
100
AcDbLine
 10
17.600000000000001
 20
-65.650000000000006
 30
0.0
 11
17.600000000000001
 21
-70.650000000000006
 31
0.0
  0
LINE
  5
201
100
AcDbEntity
  8
0
  6
CONTINUOUS
 62
               4
100
AcDbLine
 10
17.600000000000001
 20
-70.650000000000006
 30
0.0
 11
18.100000000000001
 21
-70.650000000000006
 31
0.0
  0
LINE
  5
202
100
AcDbEntity
  8
0
  6
CONTINUOUS
 62
               4
100
AcDbLine
 10
17.600000000000001
 20
-65.650000000000006
 30
0.0
 11
18.100000000000001
 21
-65.650000000000006
 31
0.0
  0
LINE
  5
203
100
AcDbEntity
  8
0
  6
CONTINUOUS
 62
               4
100
AcDbLine
 10
23.899999999999999
 20
-65.650000000000006
 30
0.0
 11
24.399999999999999
 21
-65.650000000000006
 31
0.0
  0
LINE
  5
204
100
AcDbEntity
  8
0
  6
CONTINUOUS
 62
               4
100
AcDbLine
 10
23.899999999999999
 20
-70.650000000000006
 30
0.0
 11
24.399999999999999
 21
-70.650000000000006
 31
0.0
  0
LINE
  5
205
100
AcDbEntity
  8
0
  6
CONTINUOUS
 62
               4
100
AcDbLine
 10
18.100000000000001
 20
-70.650000000000006
 30
0.0
 11
18.100000000000001
 21
-71.049999999999997
 31
0.0
  0
LINE
  5
206
100
AcDbEntity
  8
0
  6
CONTINUOUS
 62
               4
100
AcDbLine
 10
23.899999999999999
 20
-70.650000000000006
 30
0.0
 11
23.899999999999999
 21
-71.049999999999997
 31
0.0
  0
LINE
  5
207
100
AcDbEntity
  8
0
  6
CONTINUOUS
 62
               4
100
AcDbLine
 10
18.100000000000001
 20
5.5499999999999998
 30
0.0
 11
18.100000000000001
 21
5.1500000000000004
 31
0.0
  0
LINE
  5
208
100
AcDbEntity
  8
0
  6
CONTINUOUS
 62
               4
100
AcDbLine
 10
23.899999999999999
 20
5.5499999999999998
 30
0.0
 11
23.899999999999999
 21
5.1500000000000004
 31
0.0
  0
LINE
  5
209
100
AcDbEntity
  8
0
  6
CONTINUOUS
 62
               4
100
AcDbLine
 10
9.4299999999999997
 20
13.43
 30
0.0
 11
11.56
 21
15.56
 31
0.0
  0
LINE
  5
20A
100
AcDbEntity
  8
0
  6
CONTINUOUS
 62
               4
100
AcDbLine
 10
9.4299999999999997
 20
15.56
 30
0.0
 11
11.56
 21
13.43
 31
0.0
  0
LINE
  5
20B
100
AcDbEntity
  8
0
  6
CONTINUOUS
 62
               4
100
AcDbLine
 10
30.43
 20
13.43
 30
0.0
 11
32.560000000000002
 21
15.56
 31
0.0
  0
LINE
  5
20C
100
AcDbEntity
  8
0
  6
CONTINUOUS
 62
               4
100
AcDbLine
 10
30.43
 20
15.56
 30
0.0
 11
32.560000000000002
 21
13.43
 31
0.0
  0
LINE
  5
20D
100
AcDbEntity
  8
0
  6
CONTINUOUS
 62
               4
100
AcDbLine
 10
1.5
 20
8.9000000000000004
 30
0.0
 11
1.5
 21
-69.0
 31
0.0
  0
LINE
  5
20E
100
AcDbEntity
  8
0
  6
CONTINUOUS
 62
               4
100
AcDbLine
 10
13.5
 20
8.9000000000000004
 30
0.0
 11
13.5
 21
-69.0
 31
0.0
  0
LINE
  5
20F
100
AcDbEntity
  8
0
  6
CONTINUOUS
 62
               4
100
AcDbLine
 10
1.5
 20
-69.0
 30
0.0
 11
13.5
 21
-69.0
 31
0.0
  0
LINE
  5
210
100
AcDbEntity
  8
0
  6
CONTINUOUS
 62
               4
100
AcDbLine
 10
1.5
 20
8.9000000000000004
 30
0.0
 11
13.5
 21
8.9000000000000004
 31
0.0
  0
LINE
  5
211
100
AcDbEntity
  8
0
  6
CONTINUOUS
 62
               4
100
AcDbLine
 10
26.5
 20
11.109999999999999
 30
0.0
 11
26.5
 21
8.6999999999999993
 31
0.0
  0
LINE
  5
212
100
AcDbEntity
  8
0
  6
CONTINUOUS
 62
               4
100
AcDbLine
 10
26.5
 20
-68.799999999999997
 30
0.0
 11
26.5
 21
-71.209999999999994
 31
0.0
  0
LINE
  5
213
100
AcDbEntity
  8
0
  6
CONTINUOUS
 62
               4
100
AcDbLine
 10
13.0
 20
7.9500000000000002
 30
0.0
 11
13.0
 21
-68.049999999999997
 31
0.0
  0
LINE
  5
214
100
AcDbEntity
  8
0
  6
CONTINUOUS
 62
               4
100
AcDbLine
 10
2.0
 20
7.9500000000000002
 30
0.0
 11
2.0
 21
-68.049999999999997
 31
0.0
  0
LINE
  5
215
100
AcDbEntity
  8
0
  6
CONTINUOUS
 62
               4
100
AcDbLine
 10
2.0
 20
7.9500000000000002
 30
0.0
 11
13.0
 21
7.9500000000000002
 31
0.0
  0
LINE
  5
216
100
AcDbEntity
  8
0
  6
CONTINUOUS
 62
               4
100
AcDbLine
 10
2.0
 20
-68.049999999999997
 30
0.0
 11
13.0
 21
-68.049999999999997
 31
0.0
  0
LINE
  5
217
100
AcDbEntity
  8
0
  6
CONTINUOUS
 62
               4
100
AcDbLine
 10
7.5
 20
-30.050000000000001
 30
0.0
 11
13.0
 21
-30.050000000000001
 31
0.0
  0
LINE
  5
218
100
AcDbEntity
  8
0
  6
CONTINUOUS
 62
               4
100
AcDbLine
 10
7.5
 20
7.9500000000000002
 30
0.0
 11
7.5
 21
-68.049999999999997
 31
0.0
  0
LINE
  5
219
100
AcDbEntity
  8
0
  6
CONTINUOUS
 62
               4
100
AcDbLine
 10
2.0
 20
-33.859999999999999
 30
0.0
 11
7.5
 21
-33.859999999999999
 31
0.0
  0
LINE
  5
21A
100
AcDbEntity
  8
0
  6
CONTINUOUS
 62
               4
100
AcDbLine
 10
2.0
 20
-26.239999999999998
 30
0.0
 11
7.5
 21
-26.239999999999998
 31
0.0
  0
LINE
  5
21B
100
AcDbEntity
  8
0
  6
CONTINUOUS
 62
               4
100
AcDbLine
 10
2.0
 20
-18.620000000000001
 30
0.0
 11
7.5
 21
-18.620000000000001
 31
0.0
  0
LINE
  5
21C
100
AcDbEntity
  8
0
  6
CONTINUOUS
 62
               4
100
AcDbLine
 10
2.0
 20
-11.0
 30
0.0
 11
7.5
 21
-11.0
 31
0.0
  0
LINE
  5
21D
100
AcDbEntity
  8
0
  6
CONTINUOUS
 62
               4
100
AcDbLine
 10
2.0
 20
-3.3799999999999999
 30
0.0
 11
7.5
 21
-3.3799999999999999
 31
0.0
  0
LINE
  5
21E
100
AcDbEntity
  8
0
  6
CONTINUOUS
 62
               4
100
AcDbLine
 10
2.0
 20
4.2400000000000002
 30
0.0
 11
7.5
 21
4.2400000000000002
 31
0.0
  0
LINE
  5
21F
100
AcDbEntity
  8
0
  6
CONTINUOUS
 62
               4
100
AcDbLine
 10
2.0
 20
-41.479999999999997
 30
0.0
 11
7.5
 21
-41.479999999999997
 31
0.0
  0
LINE
  5
220
100
AcDbEntity
  8
0
  6
CONTINUOUS
 62
               4
100
AcDbLine
 10
2.0
 20
-49.100000000000001
 30
0.0
 11
7.5
 21
-49.100000000000001
 31
0.0
  0
LINE
  5
221
100
AcDbEntity
  8
0
  6
CONTINUOUS
 62
               4
100
AcDbLine
 10
2.0
 20
-56.719999999999999
 30
0.0
 11
7.5
 21
-56.719999999999999
 31
0.0
  0
LINE
  5
222
100
AcDbEntity
  8
0
  6
CONTINUOUS
 62
               4
100
AcDbLine
 10
2.0
 20
-64.340000000000003
 30
0.0
 11
7.5
 21
-64.340000000000003
 31
0.0
  0
LINE
  5
223
100
AcDbEntity
  8
0
  6
CONTINUOUS
 62
               4
100
AcDbLine
 10
7.5
 20
-22.43
 30
0.0
 11
13.0
 21
-22.43
 31
0.0
  0
LINE
  5
224
100
AcDbEntity
  8
0
  6
CONTINUOUS
 62
               4
100
AcDbLine
 10
7.5
 20
-14.81
 30
0.0
 11
13.0
 21
-14.81
 31
0.0
  0
LINE
  5
225
100
AcDbEntity
  8
0
  6
CONTINUOUS
 62
               4
100
AcDbLine
 10
7.5
 20
-7.1900000000000004
 30
0.0
 11
13.0
 21
-7.1900000000000004
 31
0.0
  0
LINE
  5
226
100
AcDbEntity
  8
0
  6
CONTINUOUS
 62
               4
100
AcDbLine
 10
7.5
 20
0.43
 30
0.0
 11
13.0
 21
0.43
 31
0.0
  0
LINE
  5
227
100
AcDbEntity
  8
0
  6
CONTINUOUS
 62
               4
100
AcDbLine
 10
7.5
 20
-37.670000000000002
 30
0.0
 11
13.0
 21
-37.670000000000002
 31
0.0
  0
LINE
  5
228
100
AcDbEntity
  8
0
  6
CONTINUOUS
 62
               4
100
AcDbLine
 10
7.5
 20
-45.289999999999999
 30
0.0
 11
13.0
 21
-45.289999999999999
 31
0.0
  0
LINE
  5
229
100
AcDbEntity
  8
0
  6
CONTINUOUS
 62
               4
100
AcDbLine
 10
7.5
 20
-52.909999999999997
 30
0.0
 11
13.0
 21
-52.909999999999997
 31
0.0
  0
LINE
  5
22A
100
AcDbEntity
  8
0
  6
CONTINUOUS
 62
               4
100
AcDbLine
 10
7.5
 20
-60.530000000000001
 30
0.0
 11
13.0
 21
-60.530000000000001
 31
0.0
  0
LINE
  5
22B
100
AcDbEntity
  8
0
  6
CONTINUOUS
 62
               4
100
AcDbLine
 10
0.0
 20
50.0
 30
0.0
 11
42.0
 21
50.0
 31
0.0
  0
CIRCLE
  5
22C
100
AcDbEntity
  8
0
  6
CONTINUOUS
 62
               4
100
AcDbCircle
 10
10.5
 20
14.500015258789063
 30
0.0
 40
3.1999998092651367
  0
CIRCLE
  5
22D
100
AcDbEntity
  8
0
  6
CONTINUOUS
 62
               4
100
AcDbCircle
 10
31.5
 20
14.500015258789063
 30
0.0
 40
3.1999998092651367
  0
CIRCLE
  5
22E
100
AcDbEntity
  8
0
  6
CONTINUOUS
 62
               4
100
AcDbCircle
 10
21.0
 20
8.0500030517578125
 30
0.0
 40
2.7999992370605469
  0
CIRCLE
  5
22F
100
AcDbEntity
  8
0
  6
CONTINUOUS
 62
               4
100
AcDbCircle
 10
21.0
 20
-68.149993896484375
 30
0.0
 40
2.7999992370605469
  0
ENDBLK
  5
230
100
AcDbEntity
  8
0
100
AcDbBlockEnd
  0
BLOCK
  5
231
100
AcDbEntity
  8
0
100
AcDbBlockBegin
  2
F18_CONNECTER-6
 70
               0
 10
0.0
 20
0.0
 30
0.0
  3
F18_CONNECTER-6
  1

  0
LINE
  5
232
100
AcDbEntity
  8
0
  6
CONTINUOUS
 62
               4
100
AcDbLine
 10
55.0
 20
11.109999999999999
 30
0.0
 11
38.600000000000001
 21
11.109999999999999
 31
0.0
  0
LINE
  5
233
100
AcDbEntity
  8
0
  6
CONTINUOUS
 62
               4
100
AcDbLine
 10
55.0
 20
-71.209999999999994
 30
0.0
 11
38.600000000000001
 21
-71.209999999999994
 31
0.0
  0
LINE
  5
234
100
AcDbEntity
  8
0
  6
CONTINUOUS
 62
               4
100
AcDbLine
 10
52.0
 20
-71.209999999999994
 30
0.0
 11
52.0
 21
11.109999999999999
 31
0.0
  0
LINE
  5
235
100
AcDbEntity
  8
0
  6
CONTINUOUS
 62
               4
100
AcDbLine
 10
44.0
 20
-71.209999999999994
 30
0.0
 11
44.0
 21
11.109999999999999
 31
0.0
  0
LINE
  5
236
100
AcDbEntity
  8
0
  6
CONTINUOUS
 62
               4
100
AcDbLine
 10
38.0
 20
-71.349999999999994
 30
0.0
 11
38.0
 21
11.25
 31
0.0
  0
LINE
  5
237
100
AcDbEntity
  8
0
  6
CONTINUOUS
 62
               4
100
AcDbLine
 10
46.0
 20
-71.209999999999994
 30
0.0
 11
46.0
 21
11.109999999999999
 31
0.0
  0
LINE
  5
238
100
AcDbEntity
  8
0
  6
CONTINUOUS
 62
               4
100
AcDbLine
 10
38.600000000000001
 20
-71.209999999999994
 30
0.0
 11
38.600000000000001
 21
-64.989999999999995
 31
0.0
  0
LINE
  5
239
100
AcDbEntity
  8
0
  6
CONTINUOUS
 62
               4
100
AcDbLine
 10
44.0
 20
3.5899999999999999
 30
0.0
 11
38.0
 21
3.5899999999999999
 31
0.0
  0
LINE
  5
23A
100
AcDbEntity
  8
0
  6
CONTINUOUS
 62
               4
100
AcDbLine
 10
44.0
 20
4.8899999999999997
 30
0.0
 11
38.0
 21
4.8899999999999997
 31
0.0
  0
LINE
  5
23B
100
AcDbEntity
  8
0
  6
CONTINUOUS
 62
               4
100
AcDbLine
 10
44.0
 20
-4.0300000000000002
 30
0.0
 11
38.0
 21
-4.0300000000000002
 31
0.0
  0
LINE
  5
23C
100
AcDbEntity
  8
0
  6
CONTINUOUS
 62
               4
100
AcDbLine
 10
44.0
 20
-2.73
 30
0.0
 11
38.0
 21
-2.73
 31
0.0
  0
LINE
  5
23D
100
AcDbEntity
  8
0
  6
CONTINUOUS
 62
               4
100
AcDbLine
 10
44.0
 20
-10.35
 30
0.0
 11
38.0
 21
-10.35
 31
0.0
  0
LINE
  5
23E
100
AcDbEntity
  8
0
  6
CONTINUOUS
 62
               4
100
AcDbLine
 10
44.0
 20
-11.65
 30
0.0
 11
38.0
 21
-11.65
 31
0.0
  0
LINE
  5
23F
100
AcDbEntity
  8
0
  6
CONTINUOUS
 62
               4
100
AcDbLine
 10
44.0
 20
-17.969999999999999
 30
0.0
 11
38.0
 21
-17.969999999999999
 31
0.0
  0
LINE
  5
240
100
AcDbEntity
  8
0
  6
CONTINUOUS
 62
               4
100
AcDbLine
 10
44.0
 20
-19.27
 30
0.0
 11
38.0
 21
-19.27
 31
0.0
  0
LINE
  5
241
100
AcDbEntity
  8
0
  6
CONTINUOUS
 62
               4
100
AcDbLine
 10
44.0
 20
-26.890000000000001
 30
0.0
 11
38.0
 21
-26.890000000000001
 31
0.0
  0
LINE
  5
242
100
AcDbEntity
  8
0
  6
CONTINUOUS
 62
               4
100
AcDbLine
 10
44.0
 20
-25.59
 30
0.0
 11
38.0
 21
-25.59
 31
0.0
  0
LINE
  5
243
100
AcDbEntity
  8
0
  6
CONTINUOUS
 62
               4
100
AcDbLine
 10
44.0
 20
-33.210000000000001
 30
0.0
 11
38.0
 21
-33.210000000000001
 31
0.0
  0
LINE
  5
244
100
AcDbEntity
  8
0
  6
CONTINUOUS
 62
               4
100
AcDbLine
 10
44.0
 20
-34.509999999999998
 30
0.0
 11
38.0
 21
-34.509999999999998
 31
0.0
  0
LINE
  5
245
100
AcDbEntity
  8
0
  6
CONTINUOUS
 62
               4
100
AcDbLine
 10
44.0
 20
-40.829999999999998
 30
0.0
 11
38.0
 21
-40.829999999999998
 31
0.0
  0
LINE
  5
246
100
AcDbEntity
  8
0
  6
CONTINUOUS
 62
               4
100
AcDbLine
 10
44.0
 20
-42.130000000000003
 30
0.0
 11
38.0
 21
-42.130000000000003
 31
0.0
  0
LINE
  5
247
100
AcDbEntity
  8
0
  6
CONTINUOUS
 62
               4
100
AcDbLine
 10
44.0
 20
-48.450000000000003
 30
0.0
 11
38.0
 21
-48.450000000000003
 31
0.0
  0
LINE
  5
248
100
AcDbEntity
  8
0
  6
CONTINUOUS
 62
               4
100
AcDbLine
 10
44.0
 20
-49.75
 30
0.0
 11
38.0
 21
-49.75
 31
0.0
  0
LINE
  5
249
100
AcDbEntity
  8
0
  6
CONTINUOUS
 62
               4
100
AcDbLine
 10
44.0
 20
-56.07
 30
0.0
 11
38.0
 21
-56.07
 31
0.0
  0
LINE
  5
24A
100
AcDbEntity
  8
0
  6
CONTINUOUS
 62
               4
100
AcDbLine
 10
44.0
 20
-57.369999999999997
 30
0.0
 11
38.0
 21
-57.369999999999997
 31
0.0
  0
LINE
  5
24B
100
AcDbEntity
  8
0
  6
CONTINUOUS
 62
               4
100
AcDbLine
 10
44.0
 20
-64.989999999999995
 30
0.0
 11
38.0
 21
-64.989999999999995
 31
0.0
  0
LINE
  5
24C
100
AcDbEntity
  8
0
  6
CONTINUOUS
 62
               4
100
AcDbLine
 10
44.0
 20
-63.689999999999998
 30
0.0
 11
38.0
 21
-63.689999999999998
 31
0.0
  0
LINE
  5
24D
100
AcDbEntity
  8
0
  6
CONTINUOUS
 62
               4
100
AcDbLine
 10
52.0
 20
-68.799999999999997
 30
0.0
 11
46.0
 21
-68.799999999999997
 31
0.0
  0
LINE
  5
24E
100
AcDbEntity
  8
0
  6
CONTINUOUS
 62
               4
100
AcDbLine
 10
39.600000000000001
 20
-2.73
 30
0.0
 11
39.600000000000001
 21
3.5899999999999999
 31
0.0
  0
LINE
  5
24F
100
AcDbEntity
  8
0
  6
CONTINUOUS
 62
               4
100
AcDbLine
 10
38.600000000000001
 20
-2.73
 30
0.0
 11
38.600000000000001
 21
3.5899999999999999
 31
0.0
  0
LINE
  5
250
100
AcDbEntity
  8
0
  6
CONTINUOUS
 62
               4
100
AcDbLine
 10
39.600000000000001
 20
-10.35
 30
0.0
 11
39.600000000000001
 21
-4.0300000000000002
 31
0.0
  0
LINE
  5
251
100
AcDbEntity
  8
0
  6
CONTINUOUS
 62
               4
100
AcDbLine
 10
38.600000000000001
 20
-10.35
 30
0.0
 11
38.600000000000001
 21
-4.0300000000000002
 31
0.0
  0
LINE
  5
252
100
AcDbEntity
  8
0
  6
CONTINUOUS
 62
               4
100
AcDbLine
 10
39.600000000000001
 20
-17.969999999999999
 30
0.0
 11
39.600000000000001
 21
-11.65
 31
0.0
  0
LINE
  5
253
100
AcDbEntity
  8
0
  6
CONTINUOUS
 62
               4
100
AcDbLine
 10
38.600000000000001
 20
-17.969999999999999
 30
0.0
 11
38.600000000000001
 21
-11.65
 31
0.0
  0
LINE
  5
254
100
AcDbEntity
  8
0
  6
CONTINUOUS
 62
               4
100
AcDbLine
 10
39.600000000000001
 20
-25.59
 30
0.0
 11
39.600000000000001
 21
-19.27
 31
0.0
  0
LINE
  5
255
100
AcDbEntity
  8
0
  6
CONTINUOUS
 62
               4
100
AcDbLine
 10
38.600000000000001
 20
-25.59
 30
0.0
 11
38.600000000000001
 21
-19.27
 31
0.0
  0
LINE
  5
256
100
AcDbEntity
  8
0
  6
CONTINUOUS
 62
               4
100
AcDbLine
 10
39.600000000000001
 20
-33.210000000000001
 30
0.0
 11
39.600000000000001
 21
-26.890000000000001
 31
0.0
  0
LINE
  5
257
100
AcDbEntity
  8
0
  6
CONTINUOUS
 62
               4
100
AcDbLine
 10
38.600000000000001
 20
-33.210000000000001
 30
0.0
 11
38.600000000000001
 21
-26.890000000000001
 31
0.0
  0
LINE
  5
258
100
AcDbEntity
  8
0
  6
CONTINUOUS
 62
               4
100
AcDbLine
 10
39.600000000000001
 20
-40.829999999999998
 30
0.0
 11
39.600000000000001
 21
-34.509999999999998
 31
0.0
  0
LINE
  5
259
100
AcDbEntity
  8
0
  6
CONTINUOUS
 62
               4
100
AcDbLine
 10
38.600000000000001
 20
-40.829999999999998
 30
0.0
 11
38.600000000000001
 21
-34.509999999999998
 31
0.0
  0
LINE
  5
25A
100
AcDbEntity
  8
0
  6
CONTINUOUS
 62
               4
100
AcDbLine
 10
39.600000000000001
 20
-48.450000000000003
 30
0.0
 11
39.600000000000001
 21
-42.130000000000003
 31
0.0
  0
LINE
  5
25B
100
AcDbEntity
  8
0
  6
CONTINUOUS
 62
               4
100
AcDbLine
 10
38.600000000000001
 20
-48.450000000000003
 30
0.0
 11
38.600000000000001
 21
-42.130000000000003
 31
0.0
  0
LINE
  5
25C
100
AcDbEntity
  8
0
  6
CONTINUOUS
 62
               4
100
AcDbLine
 10
39.600000000000001
 20
-56.07
 30
0.0
 11
39.600000000000001
 21
-49.75
 31
0.0
  0
LINE
  5
25D
100
AcDbEntity
  8
0
  6
CONTINUOUS
 62
               4
100
AcDbLine
 10
38.600000000000001
 20
-56.07
 30
0.0
 11
38.600000000000001
 21
-49.75
 31
0.0
  0
LINE
  5
25E
100
AcDbEntity
  8
0
  6
CONTINUOUS
 62
               4
100
AcDbLine
 10
39.600000000000001
 20
-63.689999999999998
 30
0.0
 11
39.600000000000001
 21
-57.369999999999997
 31
0.0
  0
LINE
  5
25F
100
AcDbEntity
  8
0
  6
CONTINUOUS
 62
               4
100
AcDbLine
 10
38.600000000000001
 20
-63.689999999999998
 30
0.0
 11
38.600000000000001
 21
-57.369999999999997
 31
0.0
  0
LINE
  5
260
100
AcDbEntity
  8
0
  6
CONTINUOUS
 62
               4
100
AcDbLine
 10
47.600000000000001
 20
-67.5
 30
0.0
 11
47.600000000000001
 21
-61.18
 31
0.0
  0
LINE
  5
261
100
AcDbEntity
  8
0
  6
CONTINUOUS
 62
               4
100
AcDbLine
 10
46.600000000000001
 20
-67.5
 30
0.0
 11
46.600000000000001
 21
-61.18
 31
0.0
  0
LINE
  5
262
100
AcDbEntity
  8
0
  6
CONTINUOUS
 62
               4
100
AcDbLine
 10
46.600000000000001
 20
-59.880000000000003
 30
0.0
 11
46.600000000000001
 21
-53.560000000000002
 31
0.0
  0
LINE
  5
263
100
AcDbEntity
  8
0
  6
CONTINUOUS
 62
               4
100
AcDbLine
 10
52.0
 20
7.4000000000000004
 30
0.0
 11
46.0
 21
7.4000000000000004
 31
0.0
  0
LINE
  5
264
100
AcDbEntity
  8
0
  6
CONTINUOUS
 62
               4
100
AcDbLine
 10
52.0
 20
8.6999999999999993
 30
0.0
 11
46.0
 21
8.6999999999999993
 31
0.0
  0
LINE
  5
265
100
AcDbEntity
  8
0
  6
CONTINUOUS
 62
               4
100
AcDbLine
 10
52.0
 20
-0.22
 30
0.0
 11
46.0
 21
-0.22
 31
0.0
  0
LINE
  5
266
100
AcDbEntity
  8
0
  6
CONTINUOUS
 62
               4
100
AcDbLine
 10
52.0
 20
1.0800000000000001
 30
0.0
 11
46.0
 21
1.0800000000000001
 31
0.0
  0
LINE
  5
267
100
AcDbEntity
  8
0
  6
CONTINUOUS
 62
               4
100
AcDbLine
 10
52.0
 20
-6.54
 30
0.0
 11
46.0
 21
-6.54
 31
0.0
  0
LINE
  5
268
100
AcDbEntity
  8
0
  6
CONTINUOUS
 62
               4
100
AcDbLine
 10
52.0
 20
-7.8399999999999999
 30
0.0
 11
46.0
 21
-7.8399999999999999
 31
0.0
  0
LINE
  5
269
100
AcDbEntity
  8
0
  6
CONTINUOUS
 62
               4
100
AcDbLine
 10
52.0
 20
-14.16
 30
0.0
 11
46.0
 21
-14.16
 31
0.0
  0
LINE
  5
26A
100
AcDbEntity
  8
0
  6
CONTINUOUS
 62
               4
100
AcDbLine
 10
52.0
 20
-15.460000000000001
 30
0.0
 11
46.0
 21
-15.460000000000001
 31
0.0
  0
LINE
  5
26B
100
AcDbEntity
  8
0
  6
CONTINUOUS
 62
               4
100
AcDbLine
 10
52.0
 20
-23.079999999999998
 30
0.0
 11
46.0
 21
-23.079999999999998
 31
0.0
  0
LINE
  5
26C
100
AcDbEntity
  8
0
  6
CONTINUOUS
 62
               4
100
AcDbLine
 10
52.0
 20
-21.780000000000001
 30
0.0
 11
46.0
 21
-21.780000000000001
 31
0.0
  0
LINE
  5
26D
100
AcDbEntity
  8
0
  6
CONTINUOUS
 62
               4
100
AcDbLine
 10
52.0
 20
-29.399999999999999
 30
0.0
 11
46.0
 21
-29.399999999999999
 31
0.0
  0
LINE
  5
26E
100
AcDbEntity
  8
0
  6
CONTINUOUS
 62
               4
100
AcDbLine
 10
52.0
 20
-30.699999999999999
 30
0.0
 11
46.0
 21
-30.699999999999999
 31
0.0
  0
LINE
  5
26F
100
AcDbEntity
  8
0
  6
CONTINUOUS
 62
               4
100
AcDbLine
 10
52.0
 20
-37.020000000000003
 30
0.0
 11
46.0
 21
-37.020000000000003
 31
0.0
  0
LINE
  5
270
100
AcDbEntity
  8
0
  6
CONTINUOUS
 62
               4
100
AcDbLine
 10
52.0
 20
-38.32
 30
0.0
 11
46.0
 21
-38.32
 31
0.0
  0
LINE
  5
271
100
AcDbEntity
  8
0
  6
CONTINUOUS
 62
               4
100
AcDbLine
 10
52.0
 20
-44.640000000000001
 30
0.0
 11
46.0
 21
-44.640000000000001
 31
0.0
  0
LINE
  5
272
100
AcDbEntity
  8
0
  6
CONTINUOUS
 62
               4
100
AcDbLine
 10
52.0
 20
-45.939999999999998
 30
0.0
 11
46.0
 21
-45.939999999999998
 31
0.0
  0
LINE
  5
273
100
AcDbEntity
  8
0
  6
CONTINUOUS
 62
               4
100
AcDbLine
 10
52.0
 20
-52.259999999999998
 30
0.0
 11
46.0
 21
-52.259999999999998
 31
0.0
  0
LINE
  5
274
100
AcDbEntity
  8
0
  6
CONTINUOUS
 62
               4
100
AcDbLine
 10
52.0
 20
-53.560000000000002
 30
0.0
 11
46.0
 21
-53.560000000000002
 31
0.0
  0
LINE
  5
275
100
AcDbEntity
  8
0
  6
CONTINUOUS
 62
               4
100
AcDbLine
 10
52.0
 20
-61.18
 30
0.0
 11
46.0
 21
-61.18
 31
0.0
  0
LINE
  5
276
100
AcDbEntity
  8
0
  6
CONTINUOUS
 62
               4
100
AcDbLine
 10
52.0
 20
-59.880000000000003
 30
0.0
 11
46.0
 21
-59.880000000000003
 31
0.0
  0
LINE
  5
277
100
AcDbEntity
  8
0
  6
CONTINUOUS
 62
               4
100
AcDbLine
 10
52.0
 20
-67.5
 30
0.0
 11
46.0
 21
-67.5
 31
0.0
  0
LINE
  5
278
100
AcDbEntity
  8
0
  6
CONTINUOUS
 62
               4
100
AcDbLine
 10
47.600000000000001
 20
-59.880000000000003
 30
0.0
 11
47.600000000000001
 21
-53.560000000000002
 31
0.0
  0
LINE
  5
279
100
AcDbEntity
  8
0
  6
CONTINUOUS
 62
               4
100
AcDbLine
 10
38.600000000000001
 20
4.8899999999999997
 30
0.0
 11
38.600000000000001
 21
11.109999999999999
 31
0.0
  0
LINE
  5
27A
100
AcDbEntity
  8
0
  6
CONTINUOUS
 62
               4
100
AcDbLine
 10
47.600000000000001
 20
-6.54
 30
0.0
 11
47.600000000000001
 21
-0.22
 31
0.0
  0
LINE
  5
27B
100
AcDbEntity
  8
0
  6
CONTINUOUS
 62
               4
100
AcDbLine
 10
46.600000000000001
 20
-6.54
 30
0.0
 11
46.600000000000001
 21
-0.22
 31
0.0
  0
LINE
  5
27C
100
AcDbEntity
  8
0
  6
CONTINUOUS
 62
               4
100
AcDbLine
 10
47.600000000000001
 20
-14.16
 30
0.0
 11
47.600000000000001
 21
-7.8399999999999999
 31
0.0
  0
LINE
  5
27D
100
AcDbEntity
  8
0
  6
CONTINUOUS
 62
               4
100
AcDbLine
 10
46.600000000000001
 20
-14.16
 30
0.0
 11
46.600000000000001
 21
-7.8399999999999999
 31
0.0
  0
LINE
  5
27E
100
AcDbEntity
  8
0
  6
CONTINUOUS
 62
               4
100
AcDbLine
 10
47.600000000000001
 20
-21.780000000000001
 30
0.0
 11
47.600000000000001
 21
-15.460000000000001
 31
0.0
  0
LINE
  5
27F
100
AcDbEntity
  8
0
  6
CONTINUOUS
 62
               4
100
AcDbLine
 10
46.600000000000001
 20
-21.780000000000001
 30
0.0
 11
46.600000000000001
 21
-15.460000000000001
 31
0.0
  0
LINE
  5
280
100
AcDbEntity
  8
0
  6
CONTINUOUS
 62
               4
100
AcDbLine
 10
47.600000000000001
 20
-29.399999999999999
 30
0.0
 11
47.600000000000001
 21
-23.079999999999998
 31
0.0
  0
LINE
  5
281
100
AcDbEntity
  8
0
  6
CONTINUOUS
 62
               4
100
AcDbLine
 10
46.600000000000001
 20
-29.399999999999999
 30
0.0
 11
46.600000000000001
 21
-23.079999999999998
 31
0.0
  0
LINE
  5
282
100
AcDbEntity
  8
0
  6
CONTINUOUS
 62
               4
100
AcDbLine
 10
47.600000000000001
 20
-37.020000000000003
 30
0.0
 11
47.600000000000001
 21
-30.699999999999999
 31
0.0
  0
LINE
  5
283
100
AcDbEntity
  8
0
  6
CONTINUOUS
 62
               4
100
AcDbLine
 10
46.600000000000001
 20
-37.020000000000003
 30
0.0
 11
46.600000000000001
 21
-30.699999999999999
 31
0.0
  0
LINE
  5
284
100
AcDbEntity
  8
0
  6
CONTINUOUS
 62
               4
100
AcDbLine
 10
47.600000000000001
 20
-44.640000000000001
 30
0.0
 11
47.600000000000001
 21
-38.32
 31
0.0
  0
LINE
  5
285
100
AcDbEntity
  8
0
  6
CONTINUOUS
 62
               4
100
AcDbLine
 10
46.600000000000001
 20
-44.640000000000001
 30
0.0
 11
46.600000000000001
 21
-38.32
 31
0.0
  0
LINE
  5
286
100
AcDbEntity
  8
0
  6
CONTINUOUS
 62
               4
100
AcDbLine
 10
47.600000000000001
 20
-52.259999999999998
 30
0.0
 11
47.600000000000001
 21
-45.939999999999998
 31
0.0
  0
LINE
  5
287
100
AcDbEntity
  8
0
  6
CONTINUOUS
 62
               4
100
AcDbLine
 10
46.600000000000001
 20
-52.259999999999998
 30
0.0
 11
46.600000000000001
 21
-45.939999999999998
 31
0.0
  0
LINE
  5
288
100
AcDbEntity
  8
0
  6
CONTINUOUS
 62
               4
100
AcDbLine
 10
47.600000000000001
 20
1.0800000000000001
 30
0.0
 11
47.600000000000001
 21
7.4000000000000004
 31
0.0
  0
LINE
  5
289
100
AcDbEntity
  8
0
  6
CONTINUOUS
 62
               4
100
AcDbLine
 10
46.600000000000001
 20
1.0800000000000001
 30
0.0
 11
46.600000000000001
 21
7.4000000000000004
 31
0.0
  0
LINE
  5
28A
100
AcDbEntity
  8
0
  6
CONTINUOUS
 62
               4
100
AcDbLine
 10
48.770000000000003
 20
1.4399999999999999
 30
0.0
 11
47.600000000000001
 21
1.4399999999999999
 31
0.0
  0
LINE
  5
28B
100
AcDbEntity
  8
0
  6
CONTINUOUS
 62
               4
100
AcDbLine
 10
48.770000000000003
 20
7.04
 30
0.0
 11
47.600000000000001
 21
7.04
 31
0.0
  0
LINE
  5
28C
100
AcDbEntity
  8
0
  6
CONTINUOUS
 62
               4
100
AcDbLine
 10
40.469999999999999
 20
5.25
 30
0.0
 11
39.299999999999997
 21
5.25
 31
0.0
  0
LINE
  5
28D
100
AcDbEntity
  8
0
  6
CONTINUOUS
 62
               4
100
AcDbLine
 10
40.469999999999999
 20
10.85
 30
0.0
 11
39.299999999999997
 21
10.85
 31
0.0
  0
LINE
  5
28E
100
AcDbEntity
  8
0
  6
CONTINUOUS
 62
               4
100
AcDbLine
 10
48.770000000000003
 20
-6.1799999999999997
 30
0.0
 11
47.600000000000001
 21
-6.1799999999999997
 31
0.0
  0
LINE
  5
28F
100
AcDbEntity
  8
0
  6
CONTINUOUS
 62
               4
100
AcDbLine
 10
48.770000000000003
 20
-0.58
 30
0.0
 11
47.600000000000001
 21
-0.58
 31
0.0
  0
LINE
  5
290
100
AcDbEntity
  8
0
  6
CONTINUOUS
 62
               4
100
AcDbLine
 10
40.770000000000003
 20
-2.3700000000000001
 30
0.0
 11
39.600000000000001
 21
-2.3700000000000001
 31
0.0
  0
LINE
  5
291
100
AcDbEntity
  8
0
  6
CONTINUOUS
 62
               4
100
AcDbLine
 10
40.770000000000003
 20
3.23
 30
0.0
 11
39.600000000000001
 21
3.23
 31
0.0
  0
LINE
  5
292
100
AcDbEntity
  8
0
  6
CONTINUOUS
 62
               4
100
AcDbLine
 10
48.770000000000003
 20
-13.800000000000001
 30
0.0
 11
47.600000000000001
 21
-13.800000000000001
 31
0.0
  0
LINE
  5
293
100
AcDbEntity
  8
0
  6
CONTINUOUS
 62
               4
100
AcDbLine
 10
48.770000000000003
 20
-8.1999999999999993
 30
0.0
 11
47.600000000000001
 21
-8.1999999999999993
 31
0.0
  0
LINE
  5
294
100
AcDbEntity
  8
0
  6
CONTINUOUS
 62
               4
100
AcDbLine
 10
40.770000000000003
 20
-9.9900000000000002
 30
0.0
 11
39.600000000000001
 21
-9.9900000000000002
 31
0.0
  0
LINE
  5
295
100
AcDbEntity
  8
0
  6
CONTINUOUS
 62
               4
100
AcDbLine
 10
40.770000000000003
 20
-4.3899999999999997
 30
0.0
 11
39.600000000000001
 21
-4.3899999999999997
 31
0.0
  0
LINE
  5
296
100
AcDbEntity
  8
0
  6
CONTINUOUS
 62
               4
100
AcDbLine
 10
40.770000000000003
 20
-17.609999999999999
 30
0.0
 11
39.600000000000001
 21
-17.609999999999999
 31
0.0
  0
LINE
  5
297
100
AcDbEntity
  8
0
  6
CONTINUOUS
 62
               4
100
AcDbLine
 10
40.770000000000003
 20
-12.01
 30
0.0
 11
39.600000000000001
 21
-12.01
 31
0.0
  0
LINE
  5
298
100
AcDbEntity
  8
0
  6
CONTINUOUS
 62
               4
100
AcDbLine
 10
48.770000000000003
 20
-21.420000000000002
 30
0.0
 11
47.600000000000001
 21
-21.420000000000002
 31
0.0
  0
LINE
  5
299
100
AcDbEntity
  8
0
  6
CONTINUOUS
 62
               4
100
AcDbLine
 10
48.770000000000003
 20
-15.82
 30
0.0
 11
47.600000000000001
 21
-15.82
 31
0.0
  0
LINE
  5
29A
100
AcDbEntity
  8
0
  6
CONTINUOUS
 62
               4
100
AcDbLine
 10
48.770000000000003
 20
-29.039999999999999
 30
0.0
 11
47.600000000000001
 21
-29.039999999999999
 31
0.0
  0
LINE
  5
29B
100
AcDbEntity
  8
0
  6
CONTINUOUS
 62
               4
100
AcDbLine
 10
48.770000000000003
 20
-23.440000000000001
 30
0.0
 11
47.600000000000001
 21
-23.440000000000001
 31
0.0
  0
LINE
  5
29C
100
AcDbEntity
  8
0
  6
CONTINUOUS
 62
               4
100
AcDbLine
 10
40.770000000000003
 20
-25.23
 30
0.0
 11
39.600000000000001
 21
-25.23
 31
0.0
  0
LINE
  5
29D
100
AcDbEntity
  8
0
  6
CONTINUOUS
 62
               4
100
AcDbLine
 10
40.770000000000003
 20
-19.629999999999999
 30
0.0
 11
39.600000000000001
 21
-19.629999999999999
 31
0.0
  0
LINE
  5
29E
100
AcDbEntity
  8
0
  6
CONTINUOUS
 62
               4
100
AcDbLine
 10
40.770000000000003
 20
-32.850000000000001
 30
0.0
 11
39.600000000000001
 21
-32.850000000000001
 31
0.0
  0
LINE
  5
29F
100
AcDbEntity
  8
0
  6
CONTINUOUS
 62
               4
100
AcDbLine
 10
40.770000000000003
 20
-27.25
 30
0.0
 11
39.600000000000001
 21
-27.25
 31
0.0
  0
LINE
  5
2A0
100
AcDbEntity
  8
0
  6
CONTINUOUS
 62
               4
100
AcDbLine
 10
48.770000000000003
 20
-36.659999999999997
 30
0.0
 11
47.600000000000001
 21
-36.659999999999997
 31
0.0
  0
LINE
  5
2A1
100
AcDbEntity
  8
0
  6
CONTINUOUS
 62
               4
100
AcDbLine
 10
48.770000000000003
 20
-31.059999999999999
 30
0.0
 11
47.600000000000001
 21
-31.059999999999999
 31
0.0
  0
LINE
  5
2A2
100
AcDbEntity
  8
0
  6
CONTINUOUS
 62
               4
100
AcDbLine
 10
48.770000000000003
 20
-44.280000000000001
 30
0.0
 11
47.600000000000001
 21
-44.280000000000001
 31
0.0
  0
LINE
  5
2A3
100
AcDbEntity
  8
0
  6
CONTINUOUS
 62
               4
100
AcDbLine
 10
48.770000000000003
 20
-38.68
 30
0.0
 11
47.600000000000001
 21
-38.68
 31
0.0
  0
LINE
  5
2A4
100
AcDbEntity
  8
0
  6
CONTINUOUS
 62
               4
100
AcDbLine
 10
40.770000000000003
 20
-40.469999999999999
 30
0.0
 11
39.600000000000001
 21
-40.469999999999999
 31
0.0
  0
LINE
  5
2A5
100
AcDbEntity
  8
0
  6
CONTINUOUS
 62
               4
100
AcDbLine
 10
40.770000000000003
 20
-34.869999999999997
 30
0.0
 11
39.600000000000001
 21
-34.869999999999997
 31
0.0
  0
LINE
  5
2A6
100
AcDbEntity
  8
0
  6
CONTINUOUS
 62
               4
100
AcDbLine
 10
40.770000000000003
 20
-48.090000000000003
 30
0.0
 11
39.600000000000001
 21
-48.090000000000003
 31
0.0
  0
LINE
  5
2A7
100
AcDbEntity
  8
0
  6
CONTINUOUS
 62
               4
100
AcDbLine
 10
40.770000000000003
 20
-42.490000000000002
 30
0.0
 11
39.600000000000001
 21
-42.490000000000002
 31
0.0
  0
LINE
  5
2A8
100
AcDbEntity
  8
0
  6
CONTINUOUS
 62
               4
100
AcDbLine
 10
48.770000000000003
 20
-51.899999999999999
 30
0.0
 11
47.600000000000001
 21
-51.899999999999999
 31
0.0
  0
LINE
  5
2A9
100
AcDbEntity
  8
0
  6
CONTINUOUS
 62
               4
100
AcDbLine
 10
48.770000000000003
 20
-46.299999999999997
 30
0.0
 11
47.600000000000001
 21
-46.299999999999997
 31
0.0
  0
LINE
  5
2AA
100
AcDbEntity
  8
0
  6
CONTINUOUS
 62
               4
100
AcDbLine
 10
40.770000000000003
 20
-55.710000000000001
 30
0.0
 11
39.600000000000001
 21
-55.710000000000001
 31
0.0
  0
LINE
  5
2AB
100
AcDbEntity
  8
0
  6
CONTINUOUS
 62
               4
100
AcDbLine
 10
40.770000000000003
 20
-50.109999999999999
 30
0.0
 11
39.600000000000001
 21
-50.109999999999999
 31
0.0
  0
LINE
  5
2AC
100
AcDbEntity
  8
0
  6
CONTINUOUS
 62
               4
100
AcDbLine
 10
48.770000000000003
 20
-59.520000000000003
 30
0.0
 11
47.600000000000001
 21
-59.520000000000003
 31
0.0
  0
LINE
  5
2AD
100
AcDbEntity
  8
0
  6
CONTINUOUS
 62
               4
100
AcDbLine
 10
48.770000000000003
 20
-53.920000000000002
 30
0.0
 11
47.600000000000001
 21
-53.920000000000002
 31
0.0
  0
LINE
  5
2AE
100
AcDbEntity
  8
0
  6
CONTINUOUS
 62
               4
100
AcDbLine
 10
40.770000000000003
 20
-63.329999999999998
 30
0.0
 11
39.600000000000001
 21
-63.329999999999998
 31
0.0
  0
LINE
  5
2AF
100
AcDbEntity
  8
0
  6
CONTINUOUS
 62
               4
100
AcDbLine
 10
40.770000000000003
 20
-57.729999999999997
 30
0.0
 11
39.600000000000001
 21
-57.729999999999997
 31
0.0
  0
LINE
  5
2B0
100
AcDbEntity
  8
0
  6
CONTINUOUS
 62
               4
100
AcDbLine
 10
48.770000000000003
 20
-67.140000000000001
 30
0.0
 11
47.600000000000001
 21
-67.140000000000001
 31
0.0
  0
LINE
  5
2B1
100
AcDbEntity
  8
0
  6
CONTINUOUS
 62
               4
100
AcDbLine
 10
48.770000000000003
 20
-61.539999999999999
 30
0.0
 11
47.600000000000001
 21
-61.539999999999999
 31
0.0
  0
LINE
  5
2B2
100
AcDbEntity
  8
0
  6
CONTINUOUS
 62
               4
100
AcDbLine
 10
40.469999999999999
 20
-70.950000000000003
 30
0.0
 11
39.299999999999997
 21
-70.950000000000003
 31
0.0
  0
LINE
  5
2B3
100
AcDbEntity
  8
0
  6
CONTINUOUS
 62
               4
100
AcDbLine
 10
40.469999999999999
 20
-65.349999999999994
 30
0.0
 11
39.299999999999997
 21
-65.349999999999994
 31
0.0
  0
LINE
  5
2B4
100
AcDbEntity
  8
0
  6
CONTINUOUS
 62
               4
100
AcDbLine
 10
39.299999999999997
 20
-71.099999999999994
 30
0.0
 11
38.600000000000001
 21
-71.099999999999994
 31
0.0
  0
LINE
  5
2B5
100
AcDbEntity
  8
0
  6
CONTINUOUS
 62
               4
100
AcDbLine
 10
39.299999999999997
 20
-71.099999999999994
 30
0.0
 11
39.299999999999997
 21
-65.200000000000003
 31
0.0
  0
LINE
  5
2B6
100
AcDbEntity
  8
0
  6
CONTINUOUS
 62
               4
100
AcDbLine
 10
39.299999999999997
 20
-65.200000000000003
 30
0.0
 11
38.600000000000001
 21
-65.200000000000003
 31
0.0
  0
LINE
  5
2B7
100
AcDbEntity
  8
0
  6
CONTINUOUS
 62
               4
100
AcDbLine
 10
39.299999999999997
 20
5.0999999999999996
 30
0.0
 11
38.600000000000001
 21
5.0999999999999996
 31
0.0
  0
LINE
  5
2B8
100
AcDbEntity
  8
0
  6
CONTINUOUS
 62
               4
100
AcDbLine
 10
39.299999999999997
 20
5.0999999999999996
 30
0.0
 11
39.299999999999997
 21
11.0
 31
0.0
  0
LINE
  5
2B9
100
AcDbEntity
  8
0
  6
CONTINUOUS
 62
               4
100
AcDbLine
 10
39.299999999999997
 20
11.0
 30
0.0
 11
38.600000000000001
 21
11.0
 31
0.0
  0
LINE
  5
2BA
100
AcDbEntity
  8
0
  6
CONTINUOUS
 62
               4
100
AcDbLine
 10
55.0
 20
11.109999999999999
 30
0.0
 11
55.0
 21
12.050000000000001
 31
0.0
  0
LINE
  5
2BB
100
AcDbEntity
  8
0
  6
CONTINUOUS
 62
               4
100
AcDbLine
 10
53.299999999999997
 20
-71.209999999999994
 30
0.0
 11
53.299999999999997
 21
11.109999999999999
 31
0.0
  0
LINE
  5
2BC
100
AcDbEntity
  8
0
  6
CONTINUOUS
 62
               4
100
AcDbLine
 10
55.0
 20
12.050000000000001
 30
0.0
 11
38.799999999999997
 21
12.050000000000001
 31
0.0
  0
LINE
  5
2BD
100
AcDbEntity
  8
0
  6
CONTINUOUS
 62
               4
100
AcDbLine
 10
53.299999999999997
 20
12.550000000000001
 30
0.0
 11
53.299999999999997
 21
12.050000000000001
 31
0.0
  0
LINE
  5
2BE
100
AcDbEntity
  8
0
  6
CONTINUOUS
 62
               4
100
AcDbLine
 10
53.299999999999997
 20
12.550000000000001
 30
0.0
 11
52.0
 21
12.550000000000001
 31
0.0
  0
LINE
  5
2BF
100
AcDbEntity
  8
0
  6
CONTINUOUS
 62
               4
100
AcDbLine
 10
52.0
 20
12.550000000000001
 30
0.0
 11
52.0
 21
12.050000000000001
 31
0.0
  0
LINE
  5
2C0
100
AcDbEntity
  8
0
  6
CONTINUOUS
 62
               4
100
AcDbLine
 10
55.0
 20
-71.209999999999994
 30
0.0
 11
55.0
 21
-72.150000000000006
 31
0.0
  0
LINE
  5
2C1
100
AcDbEntity
  8
0
  6
CONTINUOUS
 62
               4
100
AcDbLine
 10
55.0
 20
-72.150000000000006
 30
0.0
 11
38.799999999999997
 21
-72.150000000000006
 31
0.0
  0
LINE
  5
2C2
100
AcDbEntity
  8
0
  6
CONTINUOUS
 62
               4
100
AcDbLine
 10
53.299999999999997
 20
-72.650000000000006
 30
0.0
 11
53.299999999999997
 21
-72.150000000000006
 31
0.0
  0
LINE
  5
2C3
100
AcDbEntity
  8
0
  6
CONTINUOUS
 62
               4
100
AcDbLine
 10
53.299999999999997
 20
-72.650000000000006
 30
0.0
 11
52.0
 21
-72.650000000000006
 31
0.0
  0
LINE
  5
2C4
100
AcDbEntity
  8
0
  6
CONTINUOUS
 62
               4
100
AcDbLine
 10
52.0
 20
-72.650000000000006
 30
0.0
 11
52.0
 21
-72.150000000000006
 31
0.0
  0
LINE
  5
2C5
100
AcDbEntity
  8
0
  6
CONTINUOUS
 62
               4
100
AcDbLine
 10
38.0
 20
11.109999999999999
 30
0.0
 11
31.0
 21
11.109999999999999
 31
0.0
  0
LINE
  5
2C6
100
AcDbEntity
  8
0
  6
CONTINUOUS
 62
               4
100
AcDbLine
 10
38.0
 20
-71.209999999999994
 30
0.0
 11
31.0
 21
-71.209999999999994
 31
0.0
  0
ARC
  5
2C7
100
AcDbEntity
  8
0
  6
CONTINUOUS
 62
               4
100
AcDbCircle
 10
44.999997828074115
 20
-64.334999999999994
 30
0.0
 40
4.9998743879981555
100
AcDbArc
 50
330.4612300110619
 51
29.538769988937233
  0
ARC
  5
2C8
100
AcDbEntity
  8
0
  6
CONTINUOUS
 62
               4
100
AcDbCircle
 10
38.7999984741924
 20
-71.350001525807599
 30
0.0
 40
0.7999984741938561
100
AcDbArc
 50
179.99989072187105
 51
270.00010927812747
  0
ARC
  5
2C9
100
AcDbEntity
  8
0
  6
CONTINUOUS
 62
               4
100
AcDbCircle
 10
38.799978637747699
 20
11.250021362252301
 30
0.0
 40
0.7999786380329235
100
AcDbArc
 50
89.998470000522929
 51
180.0015299994767
  0
ARC
  5
2CA
100
AcDbEntity
  8
0
  6
CONTINUOUS
 62
               4
100
AcDbCircle
 10
48.773909629329175
 20
-62.207825499966901
 30
0.0
 40
0.6678369438774239
100
AcDbArc
 50
30.38781161773646
 51
90.335421005960242
  0
ARC
  5
2CB
100
AcDbEntity
  8
0
  6
CONTINUOUS
 62
               4
100
AcDbCircle
 10
48.769613147188622
 20
-66.47463419226294
 30
0.0
 40
0.6653659201978156
100
AcDbArc
 50
270.03331254872018
 51
330.72493947401551
  0
ARC
  5
2CC
100
AcDbEntity
  8
0
  6
CONTINUOUS
 62
               4
100
AcDbCircle
 10
40.773908581796718
 20
-58.397827341084543
 30
0.0
 40
0.6678387788319311
100
AcDbArc
 50
30.387902411663688
 51
90.33533021203192
  0
ARC
  5
2CD
100
AcDbEntity
  8
0
  6
CONTINUOUS
 62
               4
100
AcDbCircle
 10
36.700010037224295
 20
-68.14500000000001
 30
0.0
 40
4.999863765768958
100
AcDbArc
 50
330.46116103351795
 51
29.538838966481389
  0
ARC
  5
2CE
100
AcDbEntity
  8
0
  6
CONTINUOUS
 62
               4
100
AcDbCircle
 10
40.473899627644165
 20
-66.017843078685985
 30
0.0
 40
0.6678544638201892
100
AcDbArc
 50
30.388678484377532
 51
90.334554139317206
  0
ARC
  5
2CF
100
AcDbEntity
  8
0
  6
CONTINUOUS
 62
               4
100
AcDbCircle
 10
40.469607423780651
 20
-70.284624428802303
 30
0.0
 40
0.6653756870090457
100
AcDbArc
 50
270.0338049048824
 51
330.72444711785397
  0
ARC
  5
2D0
100
AcDbEntity
  8
0
  6
CONTINUOUS
 62
               4
100
AcDbCircle
 10
44.999997820107161
 20
4.2350000000000003
 30
0.0
 40
4.9998743949295816
100
AcDbArc
 50
330.4612300560724
 51
29.538769943926788
  0
ARC
  5
2D1
100
AcDbEntity
  8
0
  6
CONTINUOUS
 62
               4
100
AcDbCircle
 10
48.773891650421504
 20
2.1078570992591805
 30
0.0
 40
0.6678684376236761
100
AcDbArc
 50
269.66613723040007
 51
329.61063014590115
  0
ARC
  5
2D2
100
AcDbEntity
  8
0
  6
CONTINUOUS
 62
               4
100
AcDbCircle
 10
48.769609388854192
 20
6.374627780986561
 30
0.0
 40
0.6653723336688524
100
AcDbArc
 50
29.275383838327301
 51
89.966364138935631
  0
ARC
  5
2D3
100
AcDbEntity
  8
0
  6
CONTINUOUS
 62
               4
100
AcDbCircle
 10
36.700010002612302
 20
8.0449999999999999
 30
0.0
 40
4.9998637958821464
100
AcDbArc
 50
330.46116122906426
 51
29.538838770934934
  0
ARC
  5
2D4
100
AcDbEntity
  8
0
  6
CONTINUOUS
 62
               4
100
AcDbCircle
 10
40.473882605245521
 20
5.9178729968412043
 30
0.0
 40
0.6678842822923323
100
AcDbArc
 50
269.66692112246773
 51
329.6098462538335
  0
ARC
  5
2D5
100
AcDbEntity
  8
0
  6
CONTINUOUS
 62
               4
100
AcDbCircle
 10
40.46963143613911
 20
10.184665391060841
 30
0.0
 40
0.665334711022612
100
AcDbArc
 50
29.273487122147703
 51
89.968260855115091
  0
ARC
  5
2D6
100
AcDbEntity
  8
0
  6
CONTINUOUS
 62
               4
100
AcDbCircle
 10
44.99999783390728
 20
-3.375
 30
0.0
 40
4.9998743829231742
100
AcDbArc
 50
330.46122997810659
 51
29.538770021892613
  0
ARC
  5
2D7
100
AcDbEntity
  8
0
  6
CONTINUOUS
 62
               4
100
AcDbCircle
 10
48.769610212277989
 20
-5.514629185650687
 30
0.0
 40
0.6653709285220808
100
AcDbArc
 50
270.03356502620881
 51
330.72468699652688
  0
ARC
  5
2D8
100
AcDbEntity
  8
0
  6
CONTINUOUS
 62
               4
100
AcDbCircle
 10
48.773898459286869
 20
-1.2478451321624719
 30
0.0
 40
0.6678565104406193
100
AcDbArc
 50
30.388779745346749
 51
90.334452878349921
  0
ARC
  5
2D9
100
AcDbEntity
  8
0
  6
CONTINUOUS
 62
               4
100
AcDbCircle
 10
36.999999999994515
 20
0.4300000000000002
 30
0.0
 40
4.9974093288470698
100
AcDbArc
 50
330.5110921877577
 51
29.488907812241532
  0
ARC
  5
2DA
100
AcDbEntity
  8
0
  6
CONTINUOUS
 62
               4
100
AcDbCircle
 10
40.76961127951909
 20
-1.7046310062384427
 30
0.0
 40
0.6653691073102808
100
AcDbArc
 50
270.03347321657776
 51
330.72477880615753
  0
ARC
  5
2DB
100
AcDbEntity
  8
0
  6
CONTINUOUS
 62
               4
100
AcDbCircle
 10
40.769618216562037
 20
2.5646428400175898
 30
0.0
 40
0.6653572695165
100
AcDbArc
 50
29.274624421071611
 51
89.967123556191339
  0
ARC
  5
2DC
100
AcDbEntity
  8
0
  6
CONTINUOUS
 62
               4
100
AcDbCircle
 10
44.999997838144651
 20
-10.995000000000001
 30
0.0
 40
4.9998743792365659
100
AcDbArc
 50
330.46122995416692
 51
29.538770045832269
  0
ARC
  5
2DD
100
AcDbEntity
  8
0
  6
CONTINUOUS
 62
               4
100
AcDbCircle
 10
48.769608077792817
 20
-13.134625544470097
 30
0.0
 40
0.6653745709558874
100
AcDbArc
 50
270.03374864421858
 51
330.72450337851683
  0
ARC
  5
2DE
100
AcDbEntity
  8
0
  6
CONTINUOUS
 62
               4
100
AcDbCircle
 10
48.773908058030138
 20
-8.8678282616439947
 30
0.0
 40
0.6678396963104317
100
AcDbArc
 50
30.387947808472006
 51
90.335284815224341
  0
ARC
  5
2DF
100
AcDbEntity
  8
0
  6
CONTINUOUS
 62
               4
100
AcDbCircle
 10
36.999997836026481
 20
-7.1850000000000005
 30
0.0
 40
4.9998743810794188
100
AcDbArc
 50
330.46122996613389
 51
29.53877003386534
  0
ARC
  5
2E0
100
AcDbEntity
  8
0
  6
CONTINUOUS
 62
               4
100
AcDbCircle
 10
40.769609145035901
 20
-9.3246273650612395
 30
0.0
 40
0.6653727497372832
100
AcDbArc
 50
270.03365683542222
 51
330.72459518731324
  0
ARC
  5
2E1
100
AcDbEntity
  8
0
  6
CONTINUOUS
 62
               4
100
AcDbCircle
 10
40.773907010496274
 20
-5.057830102764127
 30
0.0
 40
0.6678415312699286
100
AcDbArc
 50
30.388038601774426
 51
90.335194021922447
  0
ARC
  5
2E2
100
AcDbEntity
  8
0
  6
CONTINUOUS
 62
               4
100
AcDbCircle
 10
36.999997840261784
 20
-14.805
 30
0.0
 40
4.9998743773946135
100
AcDbArc
 50
330.46122994220593
 51
29.53877005779329
  0
ARC
  5
2E3
100
AcDbEntity
  8
0
  6
CONTINUOUS
 62
               4
100
AcDbCircle
 10
40.769607010548739
 20
-16.94462372387726
 30
0.0
 40
0.6653763921778921
100
AcDbArc
 50
270.03384045259793
 51
330.72441157013776
  0
ARC
  5
2E4
100
AcDbEntity
  8
0
  6
CONTINUOUS
 62
               4
100
AcDbCircle
 10
40.773909105563064
 20
-12.677826420525522
 30
0.0
 40
0.6678378613542607
100
AcDbArc
 50
30.387857014752672
 51
90.335375608943892
  0
ARC
  5
2E5
100
AcDbEntity
  8
0
  6
CONTINUOUS
 62
               4
100
AcDbCircle
 10
44.999997842377873
 20
-18.614999999999998
 30
0.0
 40
4.9998743755535653
100
AcDbArc
 50
330.46122993025074
 51
29.538770069748463
  0
ARC
  5
2E6
100
AcDbEntity
  8
0
  6
CONTINUOUS
 62
               4
100
AcDbCircle
 10
48.769605943303674
 20
-20.754621903282739
 30
0.0
 40
0.6653782134033004
100
AcDbArc
 50
270.03393226055971
 51
330.72431976217621
  0
ARC
  5
2E7
100
AcDbEntity
  8
0
  6
CONTINUOUS
 62
               4
100
AcDbCircle
 10
48.773910153095052
 20
-16.487824579408702
 30
0.0
 40
0.6678360264014169
100
AcDbArc
 50
30.387766220616232
 51
90.335466403081043
  0
ARC
  5
2E8
100
AcDbEntity
  8
0
  6
CONTINUOUS
 62
               4
100
AcDbCircle
 10
44.999997833377314
 20
-26.234999999999999
 30
0.0
 40
4.9998743833842543
100
AcDbArc
 50
330.46122998110076
 51
29.538770018898465
  0
ARC
  5
2E9
100
AcDbEntity
  8
0
  6
CONTINUOUS
 62
               4
100
AcDbCircle
 10
48.769610479088357
 20
-28.374629640797782
 30
0.0
 40
0.6653704732188114
100
AcDbArc
 50
270.03354207384024
 51
330.72470994889528
  0
ARC
  5
2EA
100
AcDbEntity
  8
0
  6
CONTINUOUS
 62
               4
100
AcDbCircle
 10
48.773912248156194
 20
-24.107820897180027
 30
0.0
 40
0.6678323565057085
100
AcDbArc
 50
30.38758463109054
 51
90.33564799260644
  0
ARC
  5
2EB
100
AcDbEntity
  8
0
  6
CONTINUOUS
 62
               4
100
AcDbCircle
 10
36.999997831256813
 20
-22.425000000000001
 30
0.0
 40
4.9998743852291376
100
AcDbArc
 50
330.46122999308079
 51
29.538770006918408
  0
ARC
  5
2EC
100
AcDbEntity
  8
0
  6
CONTINUOUS
 62
               4
100
AcDbCircle
 10
40.769611546329209
 20
-24.564631461385119
 30
0.0
 40
0.6653686520078626
100
AcDbArc
 50
270.03345026410494
 51
330.72480175863058
  0
ARC
  5
2ED
100
AcDbEntity
  8
0
  6
CONTINUOUS
 62
               4
100
AcDbCircle
 10
40.773911200626095
 20
-20.297822738293537
 30
0.0
 40
0.6678341914518998
100
AcDbArc
 50
30.387675426061957
 51
90.335557197635211
  0
ARC
  5
2EE
100
AcDbEntity
  8
0
  6
CONTINUOUS
 62
               4
100
AcDbCircle
 10
36.999997835496778
 20
-30.044999999999998
 30
0.0
 40
4.9998743815402733
100
AcDbArc
 50
330.46122996912646
 51
29.538770030872719
  0
ARC
  5
2EF
100
AcDbEntity
  8
0
  6
CONTINUOUS
 62
               4
100
AcDbCircle
 10
40.769601651527516
 20
-32.184614582017531
 30
0.0
 40
0.6653855372227548
100
AcDbArc
 50
270.03430144831106
 51
330.72395057442503
  0
ARC
  5
2F0
100
AcDbEntity
  8
0
  6
CONTINUOUS
 62
               4
100
AcDbCircle
 10
40.773913295685354
 20
-27.917819056068168
 30
0.0
 40
0.6678305215628457
100
AcDbArc
 50
30.387493835701726
 51
90.335738787995297
  0
ARC
  5
2F1
100
AcDbEntity
  8
0
  6
CONTINUOUS
 62
               4
100
AcDbCircle
 10
44.999997837615204
 20
-33.855000000000004
 30
0.0
 40
4.9998743796971938
100
AcDbArc
 50
330.4612299571582
 51
29.538770042841122
  0
ARC
  5
2F2
100
AcDbEntity
  8
0
  6
CONTINUOUS
 62
               4
100
AcDbCircle
 10
48.769600584305955
 20
-35.994612761463088
 30
0.0
 40
0.665387358416634
100
AcDbArc
 50
270.03439325172729
 51
330.72385877100749
  0
ARC
  5
2F3
100
AcDbEntity
  8
0
  6
CONTINUOUS
 62
               4
100
AcDbCircle
 10
48.773907796146759
 20
-31.727828721923874
 30
0.0
 40
0.6678401550499942
100
AcDbArc
 50
30.387970506836719
 51
90.335262116859639
  0
ARC
  5
2F4
100
AcDbEntity
  8
0
  6
CONTINUOUS
 62
               4
100
AcDbCircle
 10
44.999997841848952
 20
-41.474999999999994
 30
0.0
 40
4.999874376013743
100
AcDbArc
 50
330.461229933239
 51
29.538770066760215
  0
ARC
  5
2F5
100
AcDbEntity
  8
0
  6
CONTINUOUS
 62
               4
100
AcDbCircle
 10
48.769598449859842
 20
-43.614609120349144
 30
0.0
 40
0.6653910008146029
100
AcDbArc
 50
270.03457685730956
 51
330.72367516542641
  0
ARC
  5
2F6
100
AcDbEntity
  8
0
  6
CONTINUOUS
 62
               4
100
AcDbCircle
 10
48.773902387460332
 20
-39.347838228100031
 30
0.0
 40
0.6678496294374045
100
AcDbArc
 50
30.388439289971721
 51
90.334793333725727
  0
ARC
  5
2F7
100
AcDbEntity
  8
0
  6
CONTINUOUS
 62
               4
100
AcDbCircle
 10
36.999997826481888
 20
-37.665000000000006
 30
0.0
 40
4.9998743893834252
100
AcDbArc
 50
330.46123002005749
 51
29.538769979941812
  0
ARC
  5
2F8
100
AcDbEntity
  8
0
  6
CONTINUOUS
 62
               4
100
AcDbCircle
 10
40.769613947617493
 20
-39.804635557700422
 30
0.0
 40
0.6653645542956632
100
AcDbArc
 50
270.03324369067548
 51
330.72500833205942
  0
ARC
  5
2F9
100
AcDbEntity
  8
0
  6
CONTINUOUS
 62
               4
100
AcDbCircle
 10
40.773894792979689
 20
-35.537851575975083
 30
0.0
 40
0.6678629327524939
100
AcDbArc
 50
30.389097498402688
 51
90.334135125293159
  0
ARC
  5
2FA
100
AcDbEntity
  8
0
  6
CONTINUOUS
 62
               4
100
AcDbCircle
 10
36.999997830726521
 20
-45.284999999999997
 30
0.0
 40
4.9998743856905001
100
AcDbArc
 50
330.46122999607678
 51
29.538770003922377
  0
ARC
  5
2FB
100
AcDbEntity
  8
0
  6
CONTINUOUS
 62
               4
100
AcDbCircle
 10
40.769605142869217
 20
-47.424620537835736
 30
0.0
 40
0.6653795793245896
100
AcDbArc
 50
270.03400111625774
 51
330.72425090647886
  0
ARC
  5
2FC
100
AcDbEntity
  8
0
  6
CONTINUOUS
 62
               4
100
AcDbCircle
 10
40.77391093874342
 20
-43.157823198572174
 30
0.0
 40
0.6678346501889658
100
AcDbArc
 50
30.387698124739643
 51
90.335534498957301
  0
ARC
  5
2FD
100
AcDbEntity
  8
0
  6
CONTINUOUS
 62
               4
100
AcDbCircle
 10
44.999997832847285
 20
-49.094999999999999
 30
0.0
 40
4.9998743838453903
100
AcDbArc
 50
330.46122998409521
 51
29.53877001590396
  0
ARC
  5
2FE
100
AcDbEntity
  8
0
  6
CONTINUOUS
 62
               4
100
AcDbCircle
 10
48.769602985553085
 20
-51.234616857708197
 30
0.0
 40
0.6653832607351869
100
AcDbArc
 50
270.03418669345291
 51
330.72406532928204
  0
ARC
  5
2FF
100
AcDbEntity
  8
0
  6
CONTINUOUS
 62
               4
100
AcDbCircle
 10
48.773897935529405
 20
-46.967846052705895
 30
0.0
 40
0.6678574279112499
100
AcDbArc
 50
30.388825138953546
 51
90.334407484742997
  0
ARC
  5
300
100
AcDbEntity
  8
0
  6
CONTINUOUS
 62
               4
100
AcDbCircle
 10
36.999997834967012
 20
-52.905000000000001
 30
0.0
 40
4.9998743820011828
100
AcDbArc
 50
330.4612299721195
 51
29.538770027879742
  0
ARC
  5
301
100
AcDbEntity
  8
0
  6
CONTINUOUS
 62
               4
100
AcDbCircle
 10
40.769609678657069
 20
-55.044628275356175
 30
0.0
 40
0.6653718391292566
100
AcDbArc
 50
270.03361093086761
 51
330.72464109186808
  0
ARC
  5
302
100
AcDbEntity
  8
0
  6
CONTINUOUS
 62
               4
100
AcDbCircle
 10
40.77390648672899
 20
-50.777831023324815
 30
0.0
 40
0.6678424487509254
100
AcDbArc
 50
30.388083998269455
 51
90.33514862542809
  0
ARC
  5
303
100
AcDbEntity
  8
0
  6
CONTINUOUS
 62
               4
100
AcDbCircle
 10
44.999997837085694
 20
-56.715000000000003
 30
0.0
 40
4.9998743801578787
100
AcDbArc
 50
330.46122996014975
 51
29.538770039849567
  0
ARC
  5
304
100
AcDbEntity
  8
0
  6
CONTINUOUS
 62
               4
100
AcDbCircle
 10
48.769608611414483
 20
-58.854626454765878
 30
0.0
 40
0.6653736603461613
100
AcDbArc
 50
270.03370273987252
 51
330.72454928286277
  0
ARC
  5
305
100
AcDbEntity
  8
0
  6
CONTINUOUS
 62
               4
100
AcDbCircle
 10
48.77390753426333
 20
-54.587829182203855
 30
0.0
 40
0.6678406137897631
100
AcDbArc
 50
30.387993205175697
 51
90.335239418521795
  0
ARC
  5
306
100
AcDbEntity
  8
0
  6
CONTINUOUS
 62
               4
100
AcDbCircle
 10
36.999997839203346
 20
-60.525000000000006
 30
0.0
 40
4.9998743783154769
100
AcDbArc
 50
330.46122994818575
 51
29.538770051813543
  0
ARC
  5
307
100
AcDbEntity
  8
0
  6
CONTINUOUS
 62
               4
100
AcDbCircle
 10
40.769614214426994
 20
-62.664636012846039
 30
0.0
 40
0.6653640989953705
100
AcDbArc
 50
270.03322073794175
 51
330.72503128479303
  0
ENDBLK
  5
308
100
AcDbEntity
  8
0
100
AcDbBlockEnd
  0
BLOCK
  5
309
100
AcDbEntity
  8
0
100
AcDbBlockBegin
  2
F18_CONNECTER-7
 70
               0
 10
0.0
 20
0.0
 30
0.0
  3
F18_CONNECTER-7
  1

  0
LINE
  5
30A
100
AcDbEntity
  8
0
  6
CONTINUOUS
 62
               4
100
AcDbLine
 10
42.0
 20
31.0
 30
0.0
 11
42.0
 21
-22.0
 31
0.0
  0
LINE
  5
30B
100
AcDbEntity
  8
0
  6
CONTINUOUS
 62
               4
100
AcDbLine
 10
0.0
 20
-22.0
 30
0.0
 11
42.0
 21
-22.0
 31
0.0
  0
LINE
  5
30C
100
AcDbEntity
  8
0
  6
CONTINUOUS
 62
               4
100
AcDbLine
 10
0.0
 20
31.0
 30
0.0
 11
0.0
 21
-22.0
 31
0.0
  0
LINE
  5
30D
100
AcDbEntity
  8
0
  6
CONTINUOUS
 62
               4
100
AcDbLine
 10
0.0
 20
31.0
 30
0.0
 11
42.0
 21
31.0
 31
0.0
  0
LINE
  5
30E
100
AcDbEntity
  8
0
  6
CONTINUOUS
 62
               4
100
AcDbLine
 10
16.0
 20
54.0
 30
0.0
 11
16.0
 21
31.0
 31
0.0
  0
LINE
  5
30F
100
AcDbEntity
  8
0
  6
CONTINUOUS
 62
               4
100
AcDbLine
 10
26.0
 20
52.0
 30
0.0
 11
35.0
 21
52.0
 31
0.0
  0
LINE
  5
310
100
AcDbEntity
  8
0
  6
CONTINUOUS
 62
               4
100
AcDbLine
 10
35.0
 20
53.299999999999997
 30
0.0
 11
35.0
 21
31.0
 31
0.0
  0
LINE
  5
311
100
AcDbEntity
  8
0
  6
CONTINUOUS
 62
               4
100
AcDbLine
 10
17.0
 20
55.0
 30
0.0
 11
25.0
 21
55.0
 31
0.0
  0
LINE
  5
312
100
AcDbEntity
  8
0
  6
CONTINUOUS
 62
               4
100
AcDbLine
 10
23.5
 20
53.299999999999997
 30
0.0
 11
18.5
 21
53.299999999999997
 31
0.0
  0
LINE
  5
313
100
AcDbEntity
  8
0
  6
CONTINUOUS
 62
               4
100
AcDbLine
 10
18.5
 20
53.299999999999997
 30
0.0
 11
18.5
 21
52.0
 31
0.0
  0
LINE
  5
314
100
AcDbEntity
  8
0
  6
CONTINUOUS
 62
               4
100
AcDbLine
 10
23.5
 20
52.0
 30
0.0
 11
18.5
 21
52.0
 31
0.0
  0
LINE
  5
315
100
AcDbEntity
  8
0
  6
CONTINUOUS
 62
               4
100
AcDbLine
 10
23.5
 20
53.299999999999997
 30
0.0
 11
23.5
 21
52.0
 31
0.0
  0
LINE
  5
316
100
AcDbEntity
  8
0
  6
CONTINUOUS
 62
               4
100
AcDbLine
 10
26.0
 20
53.299999999999997
 30
0.0
 11
35.0
 21
53.299999999999997
 31
0.0
  0
LINE
  5
317
100
AcDbEntity
  8
0
  6
CONTINUOUS
 62
               4
100
AcDbLine
 10
16.0
 20
38.0
 30
0.0
 11
26.0
 21
38.0
 31
0.0
  0
LINE
  5
318
100
AcDbEntity
  8
0
  6
CONTINUOUS
 62
               4
100
AcDbLine
 10
26.0
 20
54.0
 30
0.0
 11
26.0
 21
38.0
 31
0.0
  0
LINE
  5
319
100
AcDbEntity
  8
0
  6
CONTINUOUS
 62
               4
100
AcDbLine
 10
7.0
 20
31.0
 30
0.0
 11
7.0
 21
21.0
 31
0.0
  0
LINE
  5
31A
100
AcDbEntity
  8
0
  6
CONTINUOUS
 62
               4
100
AcDbLine
 10
14.0
 20
31.0
 30
0.0
 11
14.0
 21
21.0
 31
0.0
  0
LINE
  5
31B
100
AcDbEntity
  8
0
  6
CONTINUOUS
 62
               4
100
AcDbLine
 10
28.0
 20
31.0
 30
0.0
 11
28.0
 21
21.0
 31
0.0
  0
LINE
  5
31C
100
AcDbEntity
  8
0
  6
CONTINUOUS
 62
               4
100
AcDbLine
 10
35.0
 20
31.0
 30
0.0
 11
35.0
 21
21.0
 31
0.0
  0
LINE
  5
31D
100
AcDbEntity
  8
0
  6
CONTINUOUS
 62
               4
100
AcDbLine
 10
21.0
 20
21.0
 30
0.0
 11
21.0
 21
-22.0
 31
0.0
  0
LINE
  5
31E
100
AcDbEntity
  8
0
  6
CONTINUOUS
 62
               4
100
AcDbLine
 10
0.0
 20
21.0
 30
0.0
 11
42.0
 21
21.0
 31
0.0
  0
ARC
  5
31F
100
AcDbEntity
  8
0
  6
CONTINUOUS
 62
               4
100
AcDbCircle
 10
25.0
 20
54.0
 30
0.0
 40
1.0
100
AcDbArc
 50
0.0
 51
89.999999999999815
  0
ARC
  5
320
100
AcDbEntity
  8
0
  6
CONTINUOUS
 62
               4
100
AcDbCircle
 10
17.0
 20
54.0
 30
0.0
 40
1.0
100
AcDbArc
 50
89.999999999999815
 51
179.99999999999963
  0
ENDBLK
  5
321
100
AcDbEntity
  8
0
100
AcDbBlockEnd
  0
BLOCK
  5
322
100
AcDbEntity
  8
0
100
AcDbBlockBegin
  2
F18_CONNECTER-8
 70
               0
 10
0.0
 20
0.0
 30
0.0
  3
F18_CONNECTER-8
  1

  0
LINE
  5
323
100
AcDbEntity
  8
0
  6
CONTINUOUS
 62
               4
100
AcDbLine
 10
-0.35
 20
-0.35
 30
0.0
 11
-0.35
 21
-2.77
 31
0.0
  0
LINE
  5
324
100
AcDbEntity
  8
0
  6
CONTINUOUS
 62
               4
100
AcDbLine
 10
0.35
 20
-0.35
 30
0.0
 11
0.35
 21
-2.77
 31
0.0
  0
LINE
  5
325
100
AcDbEntity
  8
0
  6
CONTINUOUS
 62
               4
100
AcDbLine
 10
-2.8999999999999999
 20
2.8999999999999999
 30
0.0
 11
2.8999999999999999
 21
2.8999999999999999
 31
0.0
  0
LINE
  5
326
100
AcDbEntity
  8
0
  6
CONTINUOUS
 62
               4
100
AcDbLine
 10
-2.8999999999999999
 20
-2.8999999999999999
 30
0.0
 11
2.8999999999999999
 21
-2.8999999999999999
 31
0.0
  0
LINE
  5
327
100
AcDbEntity
  8
0
  6
CONTINUOUS
 62
               4
100
AcDbLine
 10
-2.8999999999999999
 20
2.8999999999999999
 30
0.0
 11
-2.8999999999999999
 21
-2.8999999999999999
 31
0.0
  0
LINE
  5
328
100
AcDbEntity
  8
0
  6
CONTINUOUS
 62
               4
100
AcDbLine
 10
2.8999999999999999
 20
2.8999999999999999
 30
0.0
 11
2.8999999999999999
 21
-2.8999999999999999
 31
0.0
  0
LINE
  5
329
100
AcDbEntity
  8
0
  6
CONTINUOUS
 62
               4
100
AcDbLine
 10
3.3999999999999999
 20
2.5
 30
0.0
 11
3.3999999999999999
 21
-2.5
 31
0.0
  0
LINE
  5
32A
100
AcDbEntity
  8
0
  6
CONTINUOUS
 62
               4
100
AcDbLine
 10
-3.3999999999999999
 20
2.5
 30
0.0
 11
-3.3999999999999999
 21
-2.5
 31
0.0
  0
LINE
  5
32B
100
AcDbEntity
  8
0
  6
CONTINUOUS
 62
               4
100
AcDbLine
 10
-3.3999999999999999
 20
-2.5
 30
0.0
 11
-2.8999999999999999
 21
-2.5
 31
0.0
  0
LINE
  5
32C
100
AcDbEntity
  8
0
  6
CONTINUOUS
 62
               4
100
AcDbLine
 10
-3.3999999999999999
 20
2.5
 30
0.0
 11
-2.8999999999999999
 21
2.5
 31
0.0
  0
LINE
  5
32D
100
AcDbEntity
  8
0
  6
CONTINUOUS
 62
               4
100
AcDbLine
 10
2.8999999999999999
 20
2.5
 30
0.0
 11
3.3999999999999999
 21
2.5
 31
0.0
  0
LINE
  5
32E
100
AcDbEntity
  8
0
  6
CONTINUOUS
 62
               4
100
AcDbLine
 10
2.8999999999999999
 20
-2.5
 30
0.0
 11
3.3999999999999999
 21
-2.5
 31
0.0
  0
LINE
  5
32F
100
AcDbEntity
  8
0
  6
CONTINUOUS
 62
               4
100
AcDbLine
 10
0.35
 20
2.77
 30
0.0
 11
0.35
 21
0.35
 31
0.0
  0
LINE
  5
330
100
AcDbEntity
  8
0
  6
CONTINUOUS
 62
               4
100
AcDbLine
 10
-0.35
 20
2.77
 30
0.0
 11
-0.35
 21
0.35
 31
0.0
  0
LINE
  5
331
100
AcDbEntity
  8
0
  6
CONTINUOUS
 62
               4
100
AcDbLine
 10
-1.5
 20
-0.35
 30
0.0
 11
-0.35
 21
-0.35
 31
0.0
  0
LINE
  5
332
100
AcDbEntity
  8
0
  6
CONTINUOUS
 62
               4
100
AcDbLine
 10
-1.5
 20
0.35
 30
0.0
 11
-0.35
 21
0.35
 31
0.0
  0
LINE
  5
333
100
AcDbEntity
  8
0
  6
CONTINUOUS
 62
               4
100
AcDbLine
 10
-1.5
 20
0.35
 30
0.0
 11
-1.5
 21
-0.35
 31
0.0
  0
LINE
  5
334
100
AcDbEntity
  8
0
  6
CONTINUOUS
 62
               4
100
AcDbLine
 10
1.5
 20
0.35
 30
0.0
 11
1.5
 21
-0.35
 31
0.0
  0
LINE
  5
335
100
AcDbEntity
  8
0
  6
CONTINUOUS
 62
               4
100
AcDbLine
 10
0.35
 20
0.35
 30
0.0
 11
1.5
 21
0.35
 31
0.0
  0
LINE
  5
336
100
AcDbEntity
  8
0
  6
CONTINUOUS
 62
               4
100
AcDbLine
 10
0.35
 20
-0.35
 30
0.0
 11
1.5
 21
-0.35
 31
0.0
  0
CIRCLE
  5
337
100
AcDbEntity
  8
0
  6
CONTINUOUS
 62
               4
100
AcDbCircle
 10
0.0
 20
0.0
 30
0.0
 40
2.7999992370605469
  0
ENDBLK
  5
338
100
AcDbEntity
  8
0
100
AcDbBlockEnd
  0
BLOCK
  5
339
100
AcDbEntity
  8
0
100
AcDbBlockBegin
  2
F18_CONNECTER-9
 70
               0
 10
0.0
 20
0.0
 30
0.0
  3
F18_CONNECTER-9
  1

  0
LINE
  5
33A
100
AcDbEntity
  8
0
  6
CONTINUOUS
 62
               4
100
AcDbLine
 10
39.5
 20
-10.5
 30
0.0
 11
39.5
 21
-11.119999999999999
 31
0.0
  0
LINE
  5
33B
100
AcDbEntity
  8
0
  6
CONTINUOUS
 62
               4
100
AcDbLine
 10
31.0
 20
-36.5
 30
0.0
 11
42.759999999999998
 21
-32.0
 31
0.0
  0
LINE
  5
33C
100
AcDbEntity
  8
0
  6
CONTINUOUS
 62
               4
100
AcDbLine
 10
36.0
 20
-13.630000000000001
 30
0.0
 11
36.0
 21
-27.359999999999999
 31
0.0
  0
LINE
  5
33D
100
AcDbEntity
  8
0
  6
CONTINUOUS
 62
               4
100
AcDbLine
 10
42.759999999999998
 20
-9.0
 30
0.0
 11
31.0
 21
-4.5
 31
0.0
  0
LINE
  5
33E
100
AcDbEntity
  8
0
  6
CONTINUOUS
 62
               4
100
AcDbLine
 10
37.079999999999998
 20
-12.18
 30
0.0
 11
39.130000000000003
 21
-11.6
 31
0.0
  0
LINE
  5
33F
100
AcDbEntity
  8
0
  6
CONTINUOUS
 62
               4
100
AcDbLine
 10
37.079999999999998
 20
-28.809999999999999
 30
0.0
 11
39.130000000000003
 21
-29.390000000000001
 31
0.0
  0
LINE
  5
340
100
AcDbEntity
  8
0
  6
CONTINUOUS
 62
               4
100
AcDbLine
 10
39.5
 20
-29.870000000000001
 30
0.0
 11
39.5
 21
-30.5
 31
0.0
  0
LINE
  5
341
100
AcDbEntity
  8
0
  6
CONTINUOUS
 62
               4
100
AcDbLine
 10
39.0
 20
-32.390000000000001
 30
0.0
 11
39.0
 21
-32.75
 31
0.0
  0
LINE
  5
342
100
AcDbEntity
  8
0
  6
CONTINUOUS
 62
               4
100
AcDbLine
 10
39.0
 20
-8.2400000000000002
 30
0.0
 11
39.0
 21
-8.5999999999999996
 31
0.0
  0
LINE
  5
343
100
AcDbEntity
  8
0
  6
CONTINUOUS
 62
               4
100
AcDbLine
 10
39.0
 20
-30.5
 30
0.0
 11
39.5
 21
-30.5
 31
0.0
  0
LINE
  5
344
100
AcDbEntity
  8
0
  6
CONTINUOUS
 62
               4
100
AcDbLine
 10
39.0
 20
-10.5
 30
0.0
 11
39.5
 21
-10.5
 31
0.0
  0
LINE
  5
345
100
AcDbEntity
  8
0
  6
CONTINUOUS
 62
               4
100
AcDbLine
 10
39.32
 20
-29.5
 30
0.0
 11
45.5
 21
-29.5
 31
0.0
  0
LINE
  5
346
100
AcDbEntity
  8
0
  6
CONTINUOUS
 62
               4
100
AcDbLine
 10
39.32
 20
-11.5
 30
0.0
 11
45.5
 21
-11.5
 31
0.0
  0
LINE
  5
347
100
AcDbEntity
  8
0
  6
CONTINUOUS
 62
               4
100
AcDbLine
 10
42.759999999999998
 20
-32.0
 30
0.0
 11
46.32
 21
-32.0
 31
0.0
  0
LINE
  5
348
100
AcDbEntity
  8
0
  6
CONTINUOUS
 62
               4
100
AcDbLine
 10
42.759999999999998
 20
-9.0
 30
0.0
 11
46.32
 21
-9.0
 31
0.0
  0
LINE
  5
349
100
AcDbEntity
  8
0
  6
CONTINUOUS
 62
               4
100
AcDbLine
 10
40.0
 20
-29.5
 30
0.0
 11
40.0
 21
-33.049999999999997
 31
0.0
  0
LINE
  5
34A
100
AcDbEntity
  8
0
  6
CONTINUOUS
 62
               4
100
AcDbLine
 10
40.0
 20
-7.9400000000000004
 30
0.0
 11
40.0
 21
-11.5
 31
0.0
  0
LINE
  5
34B
100
AcDbEntity
  8
0
  6
CONTINUOUS
 62
               4
100
AcDbLine
 10
45.5
 20
-11.5
 30
0.0
 11
45.5
 21
-12.5
 31
0.0
  0
LINE
  5
34C
100
AcDbEntity
  8
0
  6
CONTINUOUS
 62
               4
100
AcDbLine
 10
45.5
 20
-28.5
 30
0.0
 11
45.5
 21
-29.5
 31
0.0
  0
LINE
  5
34D
100
AcDbEntity
  8
0
  6
CONTINUOUS
 62
               4
100
AcDbLine
 10
45.5
 20
-13.5
 30
0.0
 11
45.689999999999998
 21
-13.5
 31
0.0
  0
LINE
  5
34E
100
AcDbEntity
  8
0
  6
CONTINUOUS
 62
               4
100
AcDbLine
 10
45.5
 20
-27.5
 30
0.0
 11
45.689999999999998
 21
-27.5
 31
0.0
  0
LINE
  5
34F
100
AcDbEntity
  8
0
  6
CONTINUOUS
 62
               4
100
AcDbLine
 10
46.130000000000003
 20
-27.77
 30
0.0
 11
47.0
 21
-29.5
 31
0.0
  0
LINE
  5
350
100
AcDbEntity
  8
0
  6
CONTINUOUS
 62
               4
100
AcDbLine
 10
46.130000000000003
 20
-13.220000000000001
 30
0.0
 11
47.0
 21
-11.5
 31
0.0
  0
LINE
  5
351
100
AcDbEntity
  8
0
  6
CONTINUOUS
 62
               4
100
AcDbLine
 10
47.0
 20
-11.5
 30
0.0
 11
47.5
 21
-10.9
 31
0.0
  0
LINE
  5
352
100
AcDbEntity
  8
0
  6
CONTINUOUS
 62
               4
100
AcDbLine
 10
47.0
 20
-29.5
 30
0.0
 11
47.5
 21
-30.100000000000001
 31
0.0
  0
LINE
  5
353
100
AcDbEntity
  8
0
  6
CONTINUOUS
 62
               4
100
AcDbLine
 10
46.32
 20
-32.0
 30
0.0
 11
49.0
 21
-32.969999999999999
 31
0.0
  0
LINE
  5
354
100
AcDbEntity
  8
0
  6
CONTINUOUS
 62
               4
100
AcDbLine
 10
46.32
 20
-9.0
 30
0.0
 11
49.0
 21
-8.0199999999999996
 31
0.0
  0
LINE
  5
355
100
AcDbEntity
  8
0
  6
CONTINUOUS
 62
               4
100
AcDbLine
 10
47.5
 20
-10.9
 30
0.0
 11
47.75
 21
-10.9
 31
0.0
  0
LINE
  5
356
100
AcDbEntity
  8
0
  6
CONTINUOUS
 62
               4
100
AcDbLine
 10
47.75
 20
-10.6
 30
0.0
 11
48.0
 21
-10.6
 31
0.0
  0
LINE
  5
357
100
AcDbEntity
  8
0
  6
CONTINUOUS
 62
               4
100
AcDbLine
 10
48.0
 20
-10.300000000000001
 30
0.0
 11
48.25
 21
-10.300000000000001
 31
0.0
  0
LINE
  5
358
100
AcDbEntity
  8
0
  6
CONTINUOUS
 62
               4
100
AcDbLine
 10
48.25
 20
-10.0
 30
0.0
 11
48.5
 21
-10.0
 31
0.0
  0
LINE
  5
359
100
AcDbEntity
  8
0
  6
CONTINUOUS
 62
               4
100
AcDbLine
 10
48.5
 20
-9.6999999999999993
 30
0.0
 11
48.75
 21
-9.6999999999999993
 31
0.0
  0
LINE
  5
35A
100
AcDbEntity
  8
0
  6
CONTINUOUS
 62
               4
100
AcDbLine
 10
48.75
 20
-9.4000000000000004
 30
0.0
 11
49.0
 21
-9.4000000000000004
 31
0.0
  0
LINE
  5
35B
100
AcDbEntity
  8
0
  6
CONTINUOUS
 62
               4
100
AcDbLine
 10
49.0
 20
-9.0999999999999996
 30
0.0
 11
49.25
 21
-9.0999999999999996
 31
0.0
  0
LINE
  5
35C
100
AcDbEntity
  8
0
  6
CONTINUOUS
 62
               4
100
AcDbLine
 10
47.75
 20
-10.6
 30
0.0
 11
47.75
 21
-10.9
 31
0.0
  0
LINE
  5
35D
100
AcDbEntity
  8
0
  6
CONTINUOUS
 62
               4
100
AcDbLine
 10
48.0
 20
-10.300000000000001
 30
0.0
 11
48.0
 21
-10.6
 31
0.0
  0
LINE
  5
35E
100
AcDbEntity
  8
0
  6
CONTINUOUS
 62
               4
100
AcDbLine
 10
48.25
 20
-10.0
 30
0.0
 11
48.25
 21
-10.300000000000001
 31
0.0
  0
LINE
  5
35F
100
AcDbEntity
  8
0
  6
CONTINUOUS
 62
               4
100
AcDbLine
 10
48.5
 20
-9.6999999999999993
 30
0.0
 11
48.5
 21
-10.0
 31
0.0
  0
LINE
  5
360
100
AcDbEntity
  8
0
  6
CONTINUOUS
 62
               4
100
AcDbLine
 10
48.75
 20
-9.4000000000000004
 30
0.0
 11
48.75
 21
-9.6999999999999993
 31
0.0
  0
LINE
  5
361
100
AcDbEntity
  8
0
  6
CONTINUOUS
 62
               4
100
AcDbLine
 10
49.0
 20
-9.0999999999999996
 30
0.0
 11
49.0
 21
-9.4000000000000004
 31
0.0
  0
LINE
  5
362
100
AcDbEntity
  8
0
  6
CONTINUOUS
 62
               4
100
AcDbLine
 10
49.25
 20
-8.8000000000000007
 30
0.0
 11
49.409999999999997
 21
-8.5999999999999996
 31
0.0
  0
LINE
  5
363
100
AcDbEntity
  8
0
  6
CONTINUOUS
 62
               4
100
AcDbLine
 10
49.25
 20
-8.8000000000000007
 30
0.0
 11
49.25
 21
-9.0999999999999996
 31
0.0
  0
LINE
  5
364
100
AcDbEntity
  8
0
  6
CONTINUOUS
 62
               4
100
AcDbLine
 10
47.5
 20
-30.100000000000001
 30
0.0
 11
47.75
 21
-30.100000000000001
 31
0.0
  0
LINE
  5
365
100
AcDbEntity
  8
0
  6
CONTINUOUS
 62
               4
100
AcDbLine
 10
47.75
 20
-30.399999999999999
 30
0.0
 11
48.0
 21
-30.399999999999999
 31
0.0
  0
LINE
  5
366
100
AcDbEntity
  8
0
  6
CONTINUOUS
 62
               4
100
AcDbLine
 10
48.0
 20
-30.699999999999999
 30
0.0
 11
48.25
 21
-30.699999999999999
 31
0.0
  0
LINE
  5
367
100
AcDbEntity
  8
0
  6
CONTINUOUS
 62
               4
100
AcDbLine
 10
48.25
 20
-31.0
 30
0.0
 11
48.5
 21
-31.0
 31
0.0
  0
LINE
  5
368
100
AcDbEntity
  8
0
  6
CONTINUOUS
 62
               4
100
AcDbLine
 10
48.5
 20
-31.300000000000001
 30
0.0
 11
48.75
 21
-31.300000000000001
 31
0.0
  0
LINE
  5
369
100
AcDbEntity
  8
0
  6
CONTINUOUS
 62
               4
100
AcDbLine
 10
48.75
 20
-31.600000000000001
 30
0.0
 11
49.0
 21
-31.600000000000001
 31
0.0
  0
LINE
  5
36A
100
AcDbEntity
  8
0
  6
CONTINUOUS
 62
               4
100
AcDbLine
 10
49.0
 20
-31.899999999999999
 30
0.0
 11
49.25
 21
-31.899999999999999
 31
0.0
  0
LINE
  5
36B
100
AcDbEntity
  8
0
  6
CONTINUOUS
 62
               4
100
AcDbLine
 10
49.25
 20
-31.899999999999999
 30
0.0
 11
49.25
 21
-32.200000000000003
 31
0.0
  0
LINE
  5
36C
100
AcDbEntity
  8
0
  6
CONTINUOUS
 62
               4
100
AcDbLine
 10
49.0
 20
-31.600000000000001
 30
0.0
 11
49.0
 21
-31.899999999999999
 31
0.0
  0
LINE
  5
36D
100
AcDbEntity
  8
0
  6
CONTINUOUS
 62
               4
100
AcDbLine
 10
48.75
 20
-31.300000000000001
 30
0.0
 11
48.75
 21
-31.600000000000001
 31
0.0
  0
LINE
  5
36E
100
AcDbEntity
  8
0
  6
CONTINUOUS
 62
               4
100
AcDbLine
 10
48.5
 20
-31.0
 30
0.0
 11
48.5
 21
-31.300000000000001
 31
0.0
  0
LINE
  5
36F
100
AcDbEntity
  8
0
  6
CONTINUOUS
 62
               4
100
AcDbLine
 10
48.25
 20
-30.699999999999999
 30
0.0
 11
48.25
 21
-31.0
 31
0.0
  0
LINE
  5
370
100
AcDbEntity
  8
0
  6
CONTINUOUS
 62
               4
100
AcDbLine
 10
48.0
 20
-30.399999999999999
 30
0.0
 11
48.0
 21
-30.699999999999999
 31
0.0
  0
LINE
  5
371
100
AcDbEntity
  8
0
  6
CONTINUOUS
 62
               4
100
AcDbLine
 10
47.75
 20
-30.100000000000001
 30
0.0
 11
47.75
 21
-30.399999999999999
 31
0.0
  0
LINE
  5
372
100
AcDbEntity
  8
0
  6
CONTINUOUS
 62
               4
100
AcDbLine
 10
49.25
 20
-32.200000000000003
 30
0.0
 11
49.409999999999997
 21
-32.390000000000001
 31
0.0
  0
ARC
  5
373
100
AcDbEntity
  8
0
  6
CONTINUOUS
 62
               4
100
AcDbCircle
 10
37.505481369050017
 20
-13.624117157637254
 30
0.0
 40
1.5054928629492013
100
AcDbArc
 50
106.41659629703253
 51
180.22388873770581
  0
ARC
  5
374
100
AcDbEntity
  8
0
  6
CONTINUOUS
 62
               4
100
AcDbCircle
 10
37.50068785081217
 20
-27.369453186981282
 30
0.0
 40
1.5007176244448335
100
AcDbArc
 50
179.63908513495551
 51
253.7204298303044
  0
ARC
  5
375
100
AcDbEntity
  8
0
  6
CONTINUOUS
 62
               4
100
AcDbCircle
 10
39.002724566550604
 20
-11.119287686716094
 30
0.0
 40
0.4972759436193307
100
AcDbArc
 50
284.82960497920044
 51
359.9179277434593
  0
ARC
  5
376
100
AcDbEntity
  8
0
  6
CONTINUOUS
 62
               4
100
AcDbCircle
 10
38.997894548582615
 20
-29.874435452134232
 30
0.0
 40
0.5021250417761349
100
AcDbArc
 50
0.5061209288897324
 51
74.746346348448924
  0
ARC
  5
377
100
AcDbEntity
  8
0
  6
CONTINUOUS
 62
               4
100
AcDbCircle
 10
37.999868103936862
 20
-8.246866378968857
 30
0.0
 40
1.0001554662566143
100
AcDbArc
 50
0.393356472295527
 51
69.507946351454265
  0
ARC
  5
378
100
AcDbEntity
  8
0
  6
CONTINUOUS
 62
               4
100
AcDbCircle
 10
38.004527968694518
 20
-32.746390515754243
 30
0.0
 40
0.9954785751024344
100
AcDbArc
 50
290.30644515980981
 51
359.79225201643931
  0
ARC
  5
379
100
AcDbEntity
  8
0
  6
CONTINUOUS
 62
               4
100
AcDbCircle
 10
38.999753656535589
 20
-9.7488013215550868
 30
0.0
 40
0.7511987188370917
100
AcDbArc
 50
113.51778863993748
 51
270.0187892241027
  0
ARC
  5
37A
100
AcDbEntity
  8
0
  6
CONTINUOUS
 62
               4
100
AcDbCircle
 10
39.000711249939499
 20
-31.246617744742551
 30
0.0
 40
0.7466180835212402
100
AcDbArc
 50
90.05458162181607
 51
246.24888590135453
  0
ARC
  5
37B
100
AcDbEntity
  8
0
  6
CONTINUOUS
 62
               4
100
AcDbCircle
 10
38.501186544280742
 20
-8.6025129636613578
 30
0.0
 40
0.4988197856871245
100
AcDbArc
 50
293.48866910686377
 51
0.2886469723925828
  0
ARC
  5
37C
100
AcDbEntity
  8
0
  6
CONTINUOUS
 62
               4
100
AcDbCircle
 10
38.496594578688743
 20
-32.390481796507338
 30
0.0
 40
0.5034056518687854
100
AcDbArc
 50
0.0548363145435369
 51
66.167847606199416
  0
ARC
  5
37D
100
AcDbEntity
  8
0
  6
CONTINUOUS
 62
               4
100
AcDbCircle
 10
45.499992370663676
 20
-12.999992370663676
 30
0.0
 40
0.4999923707218841
100
AcDbArc
 50
89.999125729116003
 51
180.0008742708834
  0
ARC
  5
37E
100
AcDbEntity
  8
0
  6
CONTINUOUS
 62
               4
100
AcDbCircle
 10
45.500007629452739
 20
-27.999992370547261
 30
0.0
 40
0.5000076295109466
100
AcDbArc
 50
180.00087425754319
 51
269.99912574245582
  0
ARC
  5
37F
100
AcDbEntity
  8
0
  6
CONTINUOUS
 62
               4
100
AcDbCircle
 10
45.500007629452739
 20
-12.999992370547261
 30
0.0
 40
0.5000076295109466
100
AcDbArc
 50
180.00087425754319
 51
269.99912574245582
  0
ARC
  5
380
100
AcDbEntity
  8
0
  6
CONTINUOUS
 62
               4
100
AcDbCircle
 10
45.499992370663676
 20
-27.999992370663676
 30
0.0
 40
0.4999923707218841
100
AcDbArc
 50
89.999125729116003
 51
180.0008742708834
  0
ARC
  5
381
100
AcDbEntity
  8
0
  6
CONTINUOUS
 62
               4
100
AcDbCircle
 10
45.683771370820281
 20
-13.004497868431871
 30
0.0
 40
0.4955412780082177
100
AcDbArc
 50
270.72018937201381
 51
334.22219520968167
  0
ARC
  5
382
100
AcDbEntity
  8
0
  6
CONTINUOUS
 62
               4
100
AcDbCircle
 10
45.687377313055464
 20
-27.997792526872569
 30
0.0
 40
0.4977994358142538
100
AcDbArc
 50
27.232283924479034
 51
89.698132265143457
  0
ARC
  5
383
100
AcDbEntity
  8
0
  6
CONTINUOUS
 62
               4
100
AcDbCircle
 10
49.129993828928313
 20
-8.3630216036886011
 30
0.0
 40
0.3668272293008591
100
AcDbArc
 50
319.75766826710094
 51
110.75504915882313
  0
ARC
  5
384
100
AcDbEntity
  8
0
  6
CONTINUOUS
 62
               4
100
AcDbCircle
 10
49.134704462026249
 20
-32.630308326604762
 30
0.0
 40
0.3654254028715528
100
AcDbArc
 50
248.36923803277571
 51
41.118044541298133
  0
ENDBLK
  5
385
100
AcDbEntity
  8
0
100
AcDbBlockEnd
  0
BLOCK
  5
386
100
AcDbEntity
  8
0
100
AcDbBlockBegin
  2
F18_CONNECTER-10
 70
               0
 10
0.0
 20
0.0
 30
0.0
  3
F18_CONNECTER-10
  1

  0
LINE
  5
387
100
AcDbEntity
  8
0
  6
CONTINUOUS
 62
               4
100
AcDbLine
 10
21.0
 20
31.0
 30
0.0
 11
21.0
 21
-22.0
 31
0.0
  0
LINE
  5
388
100
AcDbEntity
  8
0
  6
CONTINUOUS
 62
               4
100
AcDbLine
 10
0.0
 20
-22.0
 30
0.0
 11
21.0
 21
-22.0
 31
0.0
  0
LINE
  5
389
100
AcDbEntity
  8
0
  6
CONTINUOUS
 62
               4
100
AcDbLine
 10
0.0
 20
31.0
 30
0.0
 11
0.0
 21
-22.0
 31
0.0
  0
LINE
  5
38A
100
AcDbEntity
  8
0
  6
CONTINUOUS
 62
               4
100
AcDbLine
 10
0.0
 20
21.0
 30
0.0
 11
21.0
 21
21.0
 31
0.0
  0
LINE
  5
38B
100
AcDbEntity
  8
0
  6
CONTINUOUS
 62
               4
100
AcDbLine
 10
0.0
 20
31.0
 30
0.0
 11
21.0
 21
31.0
 31
0.0
  0
LINE
  5
38C
100
AcDbEntity
  8
0
  6
CONTINUOUS
 62
               4
100
AcDbLine
 10
2.5
 20
22.5
 30
0.0
 11
18.5
 21
22.5
 31
0.0
  0
LINE
  5
38D
100
AcDbEntity
  8
0
  6
CONTINUOUS
 62
               4
100
AcDbLine
 10
1.5
 20
31.0
 30
0.0
 11
1.5
 21
21.0
 31
0.0
  0
LINE
  5
38E
100
AcDbEntity
  8
0
  6
CONTINUOUS
 62
               4
100
AcDbLine
 10
19.5
 20
31.0
 30
0.0
 11
19.5
 21
21.0
 31
0.0
  0
LINE
  5
38F
100
AcDbEntity
  8
0
  6
CONTINUOUS
 62
               4
100
AcDbLine
 10
18.5
 20
29.5
 30
0.0
 11
18.5
 21
22.5
 31
0.0
  0
LINE
  5
390
100
AcDbEntity
  8
0
  6
CONTINUOUS
 62
               4
100
AcDbLine
 10
2.5
 20
29.5
 30
0.0
 11
2.5
 21
22.5
 31
0.0
  0
LINE
  5
391
100
AcDbEntity
  8
0
  6
CONTINUOUS
 62
               4
100
AcDbLine
 10
1.5
 20
29.5
 30
0.0
 11
19.5
 21
29.5
 31
0.0
  0
LINE
  5
392
100
AcDbEntity
  8
0
  6
CONTINUOUS
 62
               4
100
AcDbLine
 10
9.5
 20
29.5
 30
0.0
 11
9.5
 21
22.5
 31
0.0
  0
LINE
  5
393
100
AcDbEntity
  8
0
  6
CONTINUOUS
 62
               4
100
AcDbLine
 10
11.5
 20
29.5
 30
0.0
 11
11.5
 21
22.5
 31
0.0
  0
LINE
  5
394
100
AcDbEntity
  8
0
  6
CONTINUOUS
 62
               4
100
AcDbLine
 10
2.5
 20
28.5
 30
0.0
 11
9.5
 21
28.5
 31
0.0
  0
LINE
  5
395
100
AcDbEntity
  8
0
  6
CONTINUOUS
 62
               4
100
AcDbLine
 10
11.5
 20
28.5
 30
0.0
 11
18.5
 21
28.5
 31
0.0
  0
LINE
  5
396
100
AcDbEntity
  8
0
  6
CONTINUOUS
 62
               4
100
AcDbLine
 10
3.0499999999999998
 20
23.300000000000001
 30
0.0
 11
8.9499999999999993
 21
23.300000000000001
 31
0.0
  0
LINE
  5
397
100
AcDbEntity
  8
0
  6
CONTINUOUS
 62
               4
100
AcDbLine
 10
3.0499999999999998
 20
23.300000000000001
 30
0.0
 11
3.0499999999999998
 21
22.5
 31
0.0
  0
LINE
  5
398
100
AcDbEntity
  8
0
  6
CONTINUOUS
 62
               4
100
AcDbLine
 10
3.8500000000000001
 20
23.300000000000001
 30
0.0
 11
3.8500000000000001
 21
22.5
 31
0.0
  0
LINE
  5
399
100
AcDbEntity
  8
0
  6
CONTINUOUS
 62
               4
100
AcDbLine
 10
8.1500000000000004
 20
23.300000000000001
 30
0.0
 11
8.1500000000000004
 21
22.5
 31
0.0
  0
LINE
  5
39A
100
AcDbEntity
  8
0
  6
CONTINUOUS
 62
               4
100
AcDbLine
 10
8.9499999999999993
 20
23.300000000000001
 30
0.0
 11
8.9499999999999993
 21
22.5
 31
0.0
  0
LINE
  5
39B
100
AcDbEntity
  8
0
  6
CONTINUOUS
 62
               4
100
AcDbLine
 10
12.050000000000001
 20
23.300000000000001
 30
0.0
 11
12.050000000000001
 21
22.5
 31
0.0
  0
LINE
  5
39C
100
AcDbEntity
  8
0
  6
CONTINUOUS
 62
               4
100
AcDbLine
 10
12.85
 20
23.300000000000001
 30
0.0
 11
12.85
 21
22.5
 31
0.0
  0
LINE
  5
39D
100
AcDbEntity
  8
0
  6
CONTINUOUS
 62
               4
100
AcDbLine
 10
17.149999999999999
 20
23.300000000000001
 30
0.0
 11
17.149999999999999
 21
22.5
 31
0.0
  0
LINE
  5
39E
100
AcDbEntity
  8
0
  6
CONTINUOUS
 62
               4
100
AcDbLine
 10
17.949999999999999
 20
23.300000000000001
 30
0.0
 11
17.949999999999999
 21
22.5
 31
0.0
  0
LINE
  5
39F
100
AcDbEntity
  8
0
  6
CONTINUOUS
 62
               4
100
AcDbLine
 10
12.050000000000001
 20
23.300000000000001
 30
0.0
 11
17.949999999999999
 21
23.300000000000001
 31
0.0
  0
LINE
  5
3A0
100
AcDbEntity
  8
0
  6
CONTINUOUS
 62
               4
100
AcDbLine
 10
8.9499999999999993
 20
24.0
 30
0.0
 11
3.0499999999999998
 21
24.0
 31
0.0
  0
LINE
  5
3A1
100
AcDbEntity
  8
0
  6
CONTINUOUS
 62
               4
100
AcDbLine
 10
8.9499999999999993
 20
24.0
 30
0.0
 11
8.9499999999999993
 21
23.300000000000001
 31
0.0
  0
LINE
  5
3A2
100
AcDbEntity
  8
0
  6
CONTINUOUS
 62
               4
100
AcDbLine
 10
3.0499999999999998
 20
24.0
 30
0.0
 11
3.0499999999999998
 21
23.300000000000001
 31
0.0
  0
LINE
  5
3A3
100
AcDbEntity
  8
0
  6
CONTINUOUS
 62
               4
100
AcDbLine
 10
17.949999999999999
 20
24.0
 30
0.0
 11
12.050000000000001
 21
24.0
 31
0.0
  0
LINE
  5
3A4
100
AcDbEntity
  8
0
  6
CONTINUOUS
 62
               4
100
AcDbLine
 10
17.949999999999999
 20
24.0
 30
0.0
 11
17.949999999999999
 21
23.300000000000001
 31
0.0
  0
LINE
  5
3A5
100
AcDbEntity
  8
0
  6
CONTINUOUS
 62
               4
100
AcDbLine
 10
12.050000000000001
 20
24.0
 30
0.0
 11
12.050000000000001
 21
23.300000000000001
 31
0.0
  0
LINE
  5
3A6
100
AcDbEntity
  8
0
  6
CONTINUOUS
 62
               4
100
AcDbLine
 10
8.8000000000000007
 20
25.170000000000002
 30
0.0
 11
8.8000000000000007
 21
24.0
 31
0.0
  0
LINE
  5
3A7
100
AcDbEntity
  8
0
  6
CONTINUOUS
 62
               4
100
AcDbLine
 10
3.2000000000000002
 20
25.170000000000002
 30
0.0
 11
3.2000000000000002
 21
24.0
 31
0.0
  0
LINE
  5
3A8
100
AcDbEntity
  8
0
  6
CONTINUOUS
 62
               4
100
AcDbLine
 10
17.800000000000001
 20
25.170000000000002
 30
0.0
 11
17.800000000000001
 21
24.0
 31
0.0
  0
LINE
  5
3A9
100
AcDbEntity
  8
0
  6
CONTINUOUS
 62
               4
100
AcDbLine
 10
12.199999999999999
 20
25.170000000000002
 30
0.0
 11
12.199999999999999
 21
24.0
 31
0.0
  0
LINE
  5
3AA
100
AcDbEntity
  8
0
  6
CONTINUOUS
 62
               4
100
AcDbLine
 10
6.5
 20
40.0
 30
0.0
 11
6.5
 21
31.0
 31
0.0
  0
LINE
  5
3AB
100
AcDbEntity
  8
0
  6
CONTINUOUS
 62
               4
100
AcDbLine
 10
15.0
 20
40.0
 30
0.0
 11
15.0
 21
31.0
 31
0.0
  0
LINE
  5
3AC
100
AcDbEntity
  8
0
  6
CONTINUOUS
 62
               4
100
AcDbLine
 10
8.75
 20
49.5
 30
0.0
 11
8.75
 21
40.200000000000003
 31
0.0
  0
LINE
  5
3AD
100
AcDbEntity
  8
0
  6
CONTINUOUS
 62
               4
100
AcDbLine
 10
12.75
 20
49.5
 30
0.0
 11
12.75
 21
40.200000000000003
 31
0.0
  0
LINE
  5
3AE
100
AcDbEntity
  8
0
  6
CONTINUOUS
 62
               4
100
AcDbLine
 10
6.5
 20
40.0
 30
0.0
 11
9.25
 21
40.0
 31
0.0
  0
LINE
  5
3AF
100
AcDbEntity
  8
0
  6
CONTINUOUS
 62
               4
100
AcDbLine
 10
9.25
 20
40.200000000000003
 30
0.0
 11
9.25
 21
31.0
 31
0.0
  0
LINE
  5
3B0
100
AcDbEntity
  8
0
  6
CONTINUOUS
 62
               4
100
AcDbLine
 10
12.25
 20
40.200000000000003
 30
0.0
 11
12.25
 21
31.0
 31
0.0
  0
LINE
  5
3B1
100
AcDbEntity
  8
0
  6
CONTINUOUS
 62
               4
100
AcDbLine
 10
12.25
 20
40.0
 30
0.0
 11
15.0
 21
40.0
 31
0.0
  0
LINE
  5
3B2
100
AcDbEntity
  8
0
  6
CONTINUOUS
 62
               4
100
AcDbLine
 10
12.25
 20
40.200000000000003
 30
0.0
 11
12.75
 21
40.200000000000003
 31
0.0
  0
LINE
  5
3B3
100
AcDbEntity
  8
0
  6
CONTINUOUS
 62
               4
100
AcDbLine
 10
8.75
 20
40.200000000000003
 30
0.0
 11
9.25
 21
40.200000000000003
 31
0.0
  0
LINE
  5
3B4
100
AcDbEntity
  8
0
  6
CONTINUOUS
 62
               4
100
AcDbLine
 10
8.75
 20
46.5
 30
0.0
 11
12.75
 21
46.5
 31
0.0
  0
LINE
  5
3B5
100
AcDbEntity
  8
0
  6
CONTINUOUS
 62
               4
100
AcDbLine
 10
8.75
 20
49.5
 30
0.0
 11
12.75
 21
49.5
 31
0.0
  0
LINE
  5
3B6
100
AcDbEntity
  8
0
  6
CONTINUOUS
 62
               4
100
AcDbLine
 10
9.25
 20
31.5
 30
0.0
 11
12.25
 21
31.5
 31
0.0
  0
LINE
  5
3B7
100
AcDbEntity
  8
0
  6
CONTINUOUS
 62
               4
100
AcDbLine
 10
6.5
 20
39.5
 30
0.0
 11
9.25
 21
39.5
 31
0.0
  0
LINE
  5
3B8
100
AcDbEntity
  8
0
  6
CONTINUOUS
 62
               4
100
AcDbLine
 10
12.25
 20
39.5
 30
0.0
 11
15.0
 21
39.5
 31
0.0
  0
LINE
  5
3B9
100
AcDbEntity
  8
0
  6
CONTINUOUS
 62
               4
100
AcDbLine
 10
8.75
 20
42.799999999999997
 30
0.0
 11
12.75
 21
42.799999999999997
 31
0.0
  0
ARC
  5
3BA
100
AcDbEntity
  8
0
  6
CONTINUOUS
 62
               4
100
AcDbCircle
 10
5.9950000000000001
 20
21.400006980160171
 30
0.0
 40
4.9998664254813097
100
AcDbArc
 50
60.461178304918043
 51
119.53882169508157
  0
ARC
  5
3BB
100
AcDbEntity
  8
0
  6
CONTINUOUS
 62
               4
100
AcDbCircle
 10
8.1346048992753737
 20
25.169595975437286
 30
0.0
 40
0.6653952233854585
100
AcDbArc
 50
0.0347897052339918
 51
60.723462317502928
  0
ARC
  5
3BC
100
AcDbEntity
  8
0
  6
CONTINUOUS
 62
               4
100
AcDbCircle
 10
3.8678259866001916
 20
25.173909352451616
 30
0.0
 40
0.667837428881543
100
AcDbArc
 50
120.38783561589705
 51
180.33539700779963
  0
ARC
  5
3BD
100
AcDbEntity
  8
0
  6
CONTINUOUS
 62
               4
100
AcDbCircle
 10
14.995000000000001
 20
21.400006980160171
 30
0.0
 40
4.9998664254813097
100
AcDbArc
 50
60.46117830491805
 51
119.53882169508159
  0
ARC
  5
3BE
100
AcDbEntity
  8
0
  6
CONTINUOUS
 62
               4
100
AcDbCircle
 10
17.134604899275374
 20
25.169595975437286
 30
0.0
 40
0.6653952233854585
100
AcDbArc
 50
0.0347897052339918
 51
60.723462317502928
  0
ARC
  5
3BF
100
AcDbEntity
  8
0
  6
CONTINUOUS
 62
               4
100
AcDbCircle
 10
12.86782598660019
 20
25.173909352451616
 30
0.0
 40
0.6678374288815436
100
AcDbArc
 50
120.38783561589695
 51
180.33539700779963
  0
ENDBLK
  5
3C0
100
AcDbEntity
  8
0
100
AcDbBlockEnd
  0
BLOCK
  5
3C1
100
AcDbEntity
  8
0
100
AcDbBlockBegin
  2
F18_CONNECTER-11
 70
               0
 10
0.0
 20
0.0
 30
0.0
  3
F18_CONNECTER-11
  1

  0
LINE
  5
3C2
100
AcDbEntity
  8
0
  6
CONTINUOUS
 62
               4
100
AcDbLine
 10
21.0
 20
-73.0
 30
0.0
 11
21.0
 21
50.0
 31
0.0
  0
LINE
  5
3C3
100
AcDbEntity
  8
0
  6
CONTINUOUS
 62
               4
100
AcDbLine
 10
1.6000000000000001
 20
-73.0
 30
0.0
 11
0.0
 21
-73.0
 31
0.0
  0
LINE
  5
3C4
100
AcDbEntity
  8
0
  6
CONTINUOUS
 62
               4
100
AcDbLine
 10
0.0
 20
-73.0
 30
0.0
 11
0.0
 21
50.0
 31
0.0
  0
LINE
  5
3C5
100
AcDbEntity
  8
0
  6
CONTINUOUS
 62
               4
100
AcDbLine
 10
0.0
 20
50.0
 30
0.0
 11
21.0
 21
50.0
 31
0.0
  0
LINE
  5
3C6
100
AcDbEntity
  8
0
  6
CONTINUOUS
 62
               4
100
AcDbLine
 10
0.0
 20
20.5
 30
0.0
 11
21.0
 21
20.5
 31
0.0
  0
LINE
  5
3C7
100
AcDbEntity
  8
0
  6
CONTINUOUS
 62
               4
100
AcDbLine
 10
0.0
 20
20.0
 30
0.0
 11
21.0
 21
20.0
 31
0.0
  0
LINE
  5
3C8
100
AcDbEntity
  8
0
  6
CONTINUOUS
 62
               4
100
AcDbLine
 10
9.4299999999999997
 20
13.43
 30
0.0
 11
11.56
 21
15.56
 31
0.0
  0
LINE
  5
3C9
100
AcDbEntity
  8
0
  6
CONTINUOUS
 62
               4
100
AcDbLine
 10
9.4299999999999997
 20
15.56
 30
0.0
 11
11.56
 21
13.43
 31
0.0
  0
LINE
  5
3CA
100
AcDbEntity
  8
0
  6
CONTINUOUS
 62
               4
100
AcDbLine
 10
1.5
 20
-71.299999999999997
 30
0.0
 11
19.5
 21
-71.299999999999997
 31
0.0
  0
LINE
  5
3CB
100
AcDbEntity
  8
0
  6
CONTINUOUS
 62
               4
100
AcDbLine
 10
1.5
 20
-71.5
 30
0.0
 11
19.5
 21
-71.5
 31
0.0
  0
LINE
  5
3CC
100
AcDbEntity
  8
0
  6
CONTINUOUS
 62
               4
100
AcDbLine
 10
1.5
 20
-52.0
 30
0.0
 11
1.5
 21
-73.0
 31
0.0
  0
LINE
  5
3CD
100
AcDbEntity
  8
0
  6
CONTINUOUS
 62
               4
100
AcDbLine
 10
19.5
 20
-52.0
 30
0.0
 11
19.5
 21
-73.0
 31
0.0
  0
LINE
  5
3CE
100
AcDbEntity
  8
0
  6
CONTINUOUS
 62
               4
100
AcDbLine
 10
14.0
 20
-71.299999999999997
 30
0.0
 11
14.0
 21
-71.5
 31
0.0
  0
LINE
  5
3CF
100
AcDbEntity
  8
0
  6
CONTINUOUS
 62
               4
100
AcDbLine
 10
7.0
 20
-71.299999999999997
 30
0.0
 11
7.0
 21
-71.5
 31
0.0
  0
LINE
  5
3D0
100
AcDbEntity
  8
0
  6
CONTINUOUS
 62
               4
100
AcDbLine
 10
1.5
 20
-61.0
 30
0.0
 11
19.5
 21
-61.0
 31
0.0
  0
LINE
  5
3D1
100
AcDbEntity
  8
0
  6
CONTINUOUS
 62
               4
100
AcDbLine
 10
1.5
 20
-52.0
 30
0.0
 11
19.5
 21
-52.0
 31
0.0
  0
LINE
  5
3D2
100
AcDbEntity
  8
0
  6
CONTINUOUS
 62
               4
100
AcDbLine
 10
9.5
 20
-70.799999999999997
 30
0.0
 11
11.5
 21
-70.799999999999997
 31
0.0
  0
LINE
  5
3D3
100
AcDbEntity
  8
0
  6
CONTINUOUS
 62
               4
100
AcDbLine
 10
11.5
 20
-61.0
 30
0.0
 11
11.5
 21
-70.799999999999997
 31
0.0
  0
LINE
  5
3D4
100
AcDbEntity
  8
0
  6
CONTINUOUS
 62
               4
100
AcDbLine
 10
9.5
 20
-61.0
 30
0.0
 11
9.5
 21
-70.799999999999997
 31
0.0
  0
LINE
  5
3D5
100
AcDbEntity
  8
0
  6
CONTINUOUS
 62
               4
100
AcDbLine
 10
3.8500000000000001
 20
-69.799999999999997
 30
0.0
 11
8.1500000000000004
 21
-69.799999999999997
 31
0.0
  0
LINE
  5
3D6
100
AcDbEntity
  8
0
  6
CONTINUOUS
 62
               4
100
AcDbLine
 10
3.8500000000000001
 20
-62.799999999999997
 30
0.0
 11
8.1500000000000004
 21
-62.799999999999997
 31
0.0
  0
LINE
  5
3D7
100
AcDbEntity
  8
0
  6
CONTINUOUS
 62
               4
100
AcDbLine
 10
12.85
 20
-62.799999999999997
 30
0.0
 11
12.85
 21
-63.600000000000001
 31
0.0
  0
LINE
  5
3D8
100
AcDbEntity
  8
0
  6
CONTINUOUS
 62
               4
100
AcDbLine
 10
8.1500000000000004
 20
-62.799999999999997
 30
0.0
 11
8.1500000000000004
 21
-63.600000000000001
 31
0.0
  0
LINE
  5
3D9
100
AcDbEntity
  8
0
  6
CONTINUOUS
 62
               4
100
AcDbLine
 10
3.8500000000000001
 20
-62.799999999999997
 30
0.0
 11
3.8500000000000001
 21
-63.600000000000001
 31
0.0
  0
LINE
  5
3DA
100
AcDbEntity
  8
0
  6
CONTINUOUS
 62
               4
100
AcDbLine
 10
17.149999999999999
 20
-62.799999999999997
 30
0.0
 11
17.149999999999999
 21
-63.600000000000001
 31
0.0
  0
LINE
  5
3DB
100
AcDbEntity
  8
0
  6
CONTINUOUS
 62
               4
100
AcDbLine
 10
2.5
 20
-61.0
 30
0.0
 11
2.5
 21
-71.299999999999997
 31
0.0
  0
LINE
  5
3DC
100
AcDbEntity
  8
0
  6
CONTINUOUS
 62
               4
100
AcDbLine
 10
18.5
 20
-61.0
 30
0.0
 11
18.5
 21
-71.299999999999997
 31
0.0
  0
LINE
  5
3DD
100
AcDbEntity
  8
0
  6
CONTINUOUS
 62
               4
100
AcDbLine
 10
12.85
 20
-62.799999999999997
 30
0.0
 11
17.149999999999999
 21
-62.799999999999997
 31
0.0
  0
LINE
  5
3DE
100
AcDbEntity
  8
0
  6
CONTINUOUS
 62
               4
100
AcDbLine
 10
12.85
 20
-69.799999999999997
 30
0.0
 11
17.149999999999999
 21
-69.799999999999997
 31
0.0
  0
LINE
  5
3DF
100
AcDbEntity
  8
0
  6
CONTINUOUS
 62
               4
100
AcDbLine
 10
3.8500000000000001
 20
-69.0
 30
0.0
 11
3.8500000000000001
 21
-69.799999999999997
 31
0.0
  0
LINE
  5
3E0
100
AcDbEntity
  8
0
  6
CONTINUOUS
 62
               4
100
AcDbLine
 10
8.1500000000000004
 20
-69.0
 30
0.0
 11
8.1500000000000004
 21
-69.799999999999997
 31
0.0
  0
LINE
  5
3E1
100
AcDbEntity
  8
0
  6
CONTINUOUS
 62
               4
100
AcDbLine
 10
12.85
 20
-69.0
 30
0.0
 11
12.85
 21
-69.799999999999997
 31
0.0
  0
LINE
  5
3E2
100
AcDbEntity
  8
0
  6
CONTINUOUS
 62
               4
100
AcDbLine
 10
17.149999999999999
 20
-69.0
 30
0.0
 11
17.149999999999999
 21
-69.799999999999997
 31
0.0
  0
LINE
  5
3E3
100
AcDbEntity
  8
0
  6
CONTINUOUS
 62
               4
100
AcDbLine
 10
12.050000000000001
 20
-63.600000000000001
 30
0.0
 11
12.050000000000001
 21
-69.0
 31
0.0
  0
LINE
  5
3E4
100
AcDbEntity
  8
0
  6
CONTINUOUS
 62
               4
100
AcDbLine
 10
17.949999999999999
 20
-63.600000000000001
 30
0.0
 11
17.949999999999999
 21
-69.0
 31
0.0
  0
LINE
  5
3E5
100
AcDbEntity
  8
0
  6
CONTINUOUS
 62
               4
100
AcDbLine
 10
8.9499999999999993
 20
-63.600000000000001
 30
0.0
 11
8.9499999999999993
 21
-69.0
 31
0.0
  0
LINE
  5
3E6
100
AcDbEntity
  8
0
  6
CONTINUOUS
 62
               4
100
AcDbLine
 10
3.0499999999999998
 20
-63.600000000000001
 30
0.0
 11
3.0499999999999998
 21
-69.0
 31
0.0
  0
LINE
  5
3E7
100
AcDbEntity
  8
0
  6
CONTINUOUS
 62
               4
100
AcDbLine
 10
8.1500000000000004
 20
-63.600000000000001
 30
0.0
 11
8.9499999999999993
 21
-63.600000000000001
 31
0.0
  0
LINE
  5
3E8
100
AcDbEntity
  8
0
  6
CONTINUOUS
 62
               4
100
AcDbLine
 10
3.0499999999999998
 20
-63.600000000000001
 30
0.0
 11
3.8500000000000001
 21
-63.600000000000001
 31
0.0
  0
LINE
  5
3E9
100
AcDbEntity
  8
0
  6
CONTINUOUS
 62
               4
100
AcDbLine
 10
3.0499999999999998
 20
-69.0
 30
0.0
 11
3.8500000000000001
 21
-69.0
 31
0.0
  0
LINE
  5
3EA
100
AcDbEntity
  8
0
  6
CONTINUOUS
 62
               4
100
AcDbLine
 10
8.1500000000000004
 20
-69.0
 30
0.0
 11
8.9499999999999993
 21
-69.0
 31
0.0
  0
LINE
  5
3EB
100
AcDbEntity
  8
0
  6
CONTINUOUS
 62
               4
100
AcDbLine
 10
12.050000000000001
 20
-69.0
 30
0.0
 11
12.85
 21
-69.0
 31
0.0
  0
LINE
  5
3EC
100
AcDbEntity
  8
0
  6
CONTINUOUS
 62
               4
100
AcDbLine
 10
17.149999999999999
 20
-69.0
 30
0.0
 11
17.949999999999999
 21
-69.0
 31
0.0
  0
LINE
  5
3ED
100
AcDbEntity
  8
0
  6
CONTINUOUS
 62
               4
100
AcDbLine
 10
17.149999999999999
 20
-63.600000000000001
 30
0.0
 11
17.949999999999999
 21
-63.600000000000001
 31
0.0
  0
LINE
  5
3EE
100
AcDbEntity
  8
0
  6
CONTINUOUS
 62
               4
100
AcDbLine
 10
12.050000000000001
 20
-63.600000000000001
 30
0.0
 11
12.85
 21
-63.600000000000001
 31
0.0
  0
LINE
  5
3EF
100
AcDbEntity
  8
0
  6
CONTINUOUS
 62
               4
100
AcDbLine
 10
1.6000000000000001
 20
-52.25
 30
0.0
 11
1.6000000000000001
 21
-73.25
 31
0.0
  0
LINE
  5
3F0
100
AcDbEntity
  8
0
  6
CONTINUOUS
 62
               4
100
AcDbLine
 10
19.399999999999999
 20
-52.25
 30
0.0
 11
19.399999999999999
 21
-73.25
 31
0.0
  0
LINE
  5
3F1
100
AcDbEntity
  8
0
  6
CONTINUOUS
 62
               4
100
AcDbLine
 10
1.6000000000000001
 20
-52.25
 30
0.0
 11
19.399999999999999
 21
-52.25
 31
0.0
  0
LINE
  5
3F2
100
AcDbEntity
  8
0
  6
CONTINUOUS
 62
               4
100
AcDbLine
 10
1.6000000000000001
 20
-73.25
 30
0.0
 11
19.399999999999999
 21
-73.25
 31
0.0
  0
LINE
  5
3F3
100
AcDbEntity
  8
0
  6
CONTINUOUS
 62
               4
100
AcDbLine
 10
19.399999999999999
 20
-73.0
 30
0.0
 11
21.0
 21
-73.0
 31
0.0
  0
LINE
  5
3F4
100
AcDbEntity
  8
0
  6
CONTINUOUS
 62
               4
100
AcDbLine
 10
2.0
 20
-50.0
 30
0.0
 11
19.0
 21
-50.0
 31
0.0
  0
LINE
  5
3F5
100
AcDbEntity
  8
0
  6
CONTINUOUS
 62
               4
100
AcDbLine
 10
2.0
 20
9.0
 30
0.0
 11
19.0
 21
9.0
 31
0.0
  0
LINE
  5
3F6
100
AcDbEntity
  8
0
  6
CONTINUOUS
 62
               4
100
AcDbLine
 10
19.0
 20
9.0
 30
0.0
 11
19.0
 21
-50.0
 31
0.0
  0
LINE
  5
3F7
100
AcDbEntity
  8
0
  6
CONTINUOUS
 62
               4
100
AcDbLine
 10
2.0
 20
9.0
 30
0.0
 11
2.0
 21
-50.0
 31
0.0
  0
LINE
  5
3F8
100
AcDbEntity
  8
0
  6
CONTINUOUS
 62
               4
100
AcDbLine
 10
4.9299999999999997
 20
-67.359999999999999
 30
0.0
 11
7.0599999999999996
 21
-65.230000000000004
 31
0.0
  0
LINE
  5
3F9
100
AcDbEntity
  8
0
  6
CONTINUOUS
 62
               4
100
AcDbLine
 10
4.9299999999999997
 20
-65.230000000000004
 30
0.0
 11
7.0599999999999996
 21
-67.359999999999999
 31
0.0
  0
LINE
  5
3FA
100
AcDbEntity
  8
0
  6
CONTINUOUS
 62
               4
100
AcDbLine
 10
13.93
 20
-67.359999999999999
 30
0.0
 11
16.059999999999999
 21
-65.230000000000004
 31
0.0
  0
LINE
  5
3FB
100
AcDbEntity
  8
0
  6
CONTINUOUS
 62
               4
100
AcDbLine
 10
13.93
 20
-65.230000000000004
 30
0.0
 11
16.059999999999999
 21
-67.359999999999999
 31
0.0
  0
LINE
  5
3FC
100
AcDbEntity
  8
0
  6
CONTINUOUS
 62
               4
100
AcDbLine
 10
15.0
 20
2.2000000000000002
 30
0.0
 11
15.0
 21
-43.200000000000003
 31
0.0
  0
LINE
  5
3FD
100
AcDbEntity
  8
0
  6
CONTINUOUS
 62
               4
100
AcDbLine
 10
6.0
 20
2.2000000000000002
 30
0.0
 11
6.0
 21
-43.200000000000003
 31
0.0
  0
LINE
  5
3FE
100
AcDbEntity
  8
0
  6
CONTINUOUS
 62
               4
100
AcDbLine
 10
6.5
 20
-42.950000000000003
 30
0.0
 11
15.0
 21
-42.950000000000003
 31
0.0
  0
LINE
  5
3FF
100
AcDbEntity
  8
0
  6
CONTINUOUS
 62
               4
100
AcDbLine
 10
6.5
 20
1.95
 30
0.0
 11
15.0
 21
1.95
 31
0.0
  0
LINE
  5
400
100
AcDbEntity
  8
0
  6
CONTINUOUS
 62
               4
100
AcDbLine
 10
6.5
 20
1.95
 30
0.0
 11
6.5
 21
-42.950000000000003
 31
0.0
  0
LINE
  5
401
100
AcDbEntity
  8
0
  6
CONTINUOUS
 62
               4
100
AcDbLine
 10
8.75
 20
0.95
 30
0.0
 11
12.75
 21
0.95
 31
0.0
  0
LINE
  5
402
100
AcDbEntity
  8
0
  6
CONTINUOUS
 62
               4
100
AcDbLine
 10
8.75
 20
-41.950000000000003
 30
0.0
 11
12.75
 21
-41.950000000000003
 31
0.0
  0
LINE
  5
403
100
AcDbEntity
  8
0
  6
CONTINUOUS
 62
               4
100
AcDbLine
 10
6.5
 20
-5.0499999999999998
 30
0.0
 11
8.75
 21
-5.0499999999999998
 31
0.0
  0
LINE
  5
404
100
AcDbEntity
  8
0
  6
CONTINUOUS
 62
               4
100
AcDbLine
 10
6.5
 20
-35.950000000000003
 30
0.0
 11
8.75
 21
-35.950000000000003
 31
0.0
  0
LINE
  5
405
100
AcDbEntity
  8
0
  6
CONTINUOUS
 62
               4
100
AcDbLine
 10
8.75
 20
-32.950000000000003
 30
0.0
 11
12.75
 21
-32.950000000000003
 31
0.0
  0
LINE
  5
406
100
AcDbEntity
  8
0
  6
CONTINUOUS
 62
               4
100
AcDbLine
 10
8.75
 20
-8.0500000000000007
 30
0.0
 11
12.75
 21
-8.0500000000000007
 31
0.0
  0
LINE
  5
407
100
AcDbEntity
  8
0
  6
CONTINUOUS
 62
               4
100
AcDbLine
 10
12.75
 20
-5.0499999999999998
 30
0.0
 11
15.0
 21
-5.0499999999999998
 31
0.0
  0
LINE
  5
408
100
AcDbEntity
  8
0
  6
CONTINUOUS
 62
               4
100
AcDbLine
 10
12.75
 20
-35.950000000000003
 30
0.0
 11
15.0
 21
-35.950000000000003
 31
0.0
  0
LINE
  5
409
100
AcDbEntity
  8
0
  6
CONTINUOUS
 62
               4
100
AcDbLine
 10
7.5
 20
-5.0499999999999998
 30
0.0
 11
7.5
 21
-35.950000000000003
 31
0.0
  0
LINE
  5
40A
100
AcDbEntity
  8
0
  6
CONTINUOUS
 62
               4
100
AcDbLine
 10
14.0
 20
-5.0499999999999998
 30
0.0
 11
14.0
 21
-18.5
 31
0.0
  0
LINE
  5
40B
100
AcDbEntity
  8
0
  6
CONTINUOUS
 62
               4
100
AcDbLine
 10
6.5
 20
-4.0499999999999998
 30
0.0
 11
8.75
 21
-4.0499999999999998
 31
0.0
  0
LINE
  5
40C
100
AcDbEntity
  8
0
  6
CONTINUOUS
 62
               4
100
AcDbLine
 10
12.75
 20
-4.0499999999999998
 30
0.0
 11
15.0
 21
-4.0499999999999998
 31
0.0
  0
LINE
  5
40D
100
AcDbEntity
  8
0
  6
CONTINUOUS
 62
               4
100
AcDbLine
 10
12.75
 20
-36.950000000000003
 30
0.0
 11
15.0
 21
-36.950000000000003
 31
0.0
  0
LINE
  5
40E
100
AcDbEntity
  8
0
  6
CONTINUOUS
 62
               4
100
AcDbLine
 10
6.5
 20
-36.950000000000003
 30
0.0
 11
8.75
 21
-36.950000000000003
 31
0.0
  0
LINE
  5
40F
100
AcDbEntity
  8
0
  6
CONTINUOUS
 62
               4
100
AcDbLine
 10
12.75
 20
-32.950000000000003
 30
0.0
 11
12.75
 21
-42.950000000000003
 31
0.0
  0
LINE
  5
410
100
AcDbEntity
  8
0
  6
CONTINUOUS
 62
               4
100
AcDbLine
 10
8.75
 20
-32.950000000000003
 30
0.0
 11
8.75
 21
-42.950000000000003
 31
0.0
  0
LINE
  5
411
100
AcDbEntity
  8
0
  6
CONTINUOUS
 62
               4
100
AcDbLine
 10
8.75
 20
1.95
 30
0.0
 11
8.75
 21
-8.0500000000000007
 31
0.0
  0
LINE
  5
412
100
AcDbEntity
  8
0
  6
CONTINUOUS
 62
               4
100
AcDbLine
 10
12.75
 20
1.95
 30
0.0
 11
12.75
 21
-8.0500000000000007
 31
0.0
  0
LINE
  5
413
100
AcDbEntity
  8
0
  6
CONTINUOUS
 62
               4
100
AcDbLine
 10
6.5
 20
-2.5499999999999998
 30
0.0
 11
8.75
 21
-2.5499999999999998
 31
0.0
  0
LINE
  5
414
100
AcDbEntity
  8
0
  6
CONTINUOUS
 62
               4
100
AcDbLine
 10
12.75
 20
-2.5499999999999998
 30
0.0
 11
15.0
 21
-2.5499999999999998
 31
0.0
  0
LINE
  5
415
100
AcDbEntity
  8
0
  6
CONTINUOUS
 62
               4
100
AcDbLine
 10
6.5
 20
-38.450000000000003
 30
0.0
 11
8.75
 21
-38.450000000000003
 31
0.0
  0
LINE
  5
416
100
AcDbEntity
  8
0
  6
CONTINUOUS
 62
               4
100
AcDbLine
 10
12.75
 20
-38.450000000000003
 30
0.0
 11
15.0
 21
-38.450000000000003
 31
0.0
  0
LINE
  5
417
100
AcDbEntity
  8
0
  6
CONTINUOUS
 62
               4
100
AcDbLine
 10
6.5
 20
-39.700000000000003
 30
0.0
 11
8.75
 21
-39.700000000000003
 31
0.0
  0
LINE
  5
418
100
AcDbEntity
  8
0
  6
CONTINUOUS
 62
               4
100
AcDbLine
 10
12.75
 20
-39.700000000000003
 30
0.0
 11
15.0
 21
-39.700000000000003
 31
0.0
  0
LINE
  5
419
100
AcDbEntity
  8
0
  6
CONTINUOUS
 62
               4
100
AcDbLine
 10
6.5
 20
-1.3
 30
0.0
 11
8.75
 21
-1.3
 31
0.0
  0
LINE
  5
41A
100
AcDbEntity
  8
0
  6
CONTINUOUS
 62
               4
100
AcDbLine
 10
12.75
 20
-1.3
 30
0.0
 11
15.0
 21
-1.3
 31
0.0
  0
LINE
  5
41B
100
AcDbEntity
  8
0
  6
CONTINUOUS
 62
               4
100
AcDbLine
 10
13.0
 20
-18.5
 30
0.0
 11
15.0
 21
-18.5
 31
0.0
  0
LINE
  5
41C
100
AcDbEntity
  8
0
  6
CONTINUOUS
 62
               4
100
AcDbLine
 10
13.0
 20
-22.5
 30
0.0
 11
15.0
 21
-22.5
 31
0.0
  0
LINE
  5
41D
100
AcDbEntity
  8
0
  6
CONTINUOUS
 62
               4
100
AcDbLine
 10
13.0
 20
-18.5
 30
0.0
 11
13.0
 21
-22.5
 31
0.0
  0
LINE
  5
41E
100
AcDbEntity
  8
0
  6
CONTINUOUS
 62
               4
100
AcDbLine
 10
14.0
 20
-22.5
 30
0.0
 11
14.0
 21
-35.950000000000003
 31
0.0
  0
LINE
  5
41F
100
AcDbEntity
  8
0
  6
CONTINUOUS
 62
               4
100
AcDbLine
 10
8.75
 20
-7.0499999999999998
 30
0.0
 11
12.75
 21
-7.0499999999999998
 31
0.0
  0
LINE
  5
420
100
AcDbEntity
  8
0
  6
CONTINUOUS
 62
               4
100
AcDbLine
 10
8.75
 20
-33.950000000000003
 30
0.0
 11
12.75
 21
-33.950000000000003
 31
0.0
  0
LINE
  5
421
100
AcDbEntity
  8
0
  6
CONTINUOUS
 62
               4
100
AcDbLine
 10
8.75
 20
-1.55
 30
0.0
 11
12.75
 21
-1.55
 31
0.0
  0
LINE
  5
422
100
AcDbEntity
  8
0
  6
CONTINUOUS
 62
               4
100
AcDbLine
 10
8.75
 20
-39.450000000000003
 30
0.0
 11
12.75
 21
-39.450000000000003
 31
0.0
  0
LINE
  5
423
100
AcDbEntity
  8
0
  6
CONTINUOUS
 62
               4
100
AcDbLine
 10
8.75
 20
-38.649999999999999
 30
0.0
 11
12.75
 21
-38.649999999999999
 31
0.0
  0
LINE
  5
424
100
AcDbEntity
  8
0
  6
CONTINUOUS
 62
               4
100
AcDbLine
 10
8.75
 20
-2.3500000000000001
 30
0.0
 11
12.75
 21
-2.3500000000000001
 31
0.0
  0
LINE
  5
425
100
AcDbEntity
  8
0
  6
CONTINUOUS
 62
               4
100
AcDbLine
 10
8.75
 20
-2.6499999999999999
 30
0.0
 11
12.75
 21
-2.6499999999999999
 31
0.0
  0
LINE
  5
426
100
AcDbEntity
  8
0
  6
CONTINUOUS
 62
               4
100
AcDbLine
 10
8.75
 20
-2.9500000000000002
 30
0.0
 11
12.75
 21
-2.9500000000000002
 31
0.0
  0
LINE
  5
427
100
AcDbEntity
  8
0
  6
CONTINUOUS
 62
               4
100
AcDbLine
 10
8.75
 20
-3.25
 30
0.0
 11
12.75
 21
-3.25
 31
0.0
  0
LINE
  5
428
100
AcDbEntity
  8
0
  6
CONTINUOUS
 62
               4
100
AcDbLine
 10
8.75
 20
-3.5499999999999998
 30
0.0
 11
12.75
 21
-3.5499999999999998
 31
0.0
  0
LINE
  5
429
100
AcDbEntity
  8
0
  6
CONTINUOUS
 62
               4
100
AcDbLine
 10
8.75
 20
-3.8500000000000001
 30
0.0
 11
12.75
 21
-3.8500000000000001
 31
0.0
  0
LINE
  5
42A
100
AcDbEntity
  8
0
  6
CONTINUOUS
 62
               4
100
AcDbLine
 10
8.75
 20
-4.1500000000000004
 30
0.0
 11
12.75
 21
-4.1500000000000004
 31
0.0
  0
LINE
  5
42B
100
AcDbEntity
  8
0
  6
CONTINUOUS
 62
               4
100
AcDbLine
 10
8.75
 20
-4.4500000000000002
 30
0.0
 11
12.75
 21
-4.4500000000000002
 31
0.0
  0
LINE
  5
42C
100
AcDbEntity
  8
0
  6
CONTINUOUS
 62
               4
100
AcDbLine
 10
8.75
 20
-38.350000000000001
 30
0.0
 11
12.75
 21
-38.350000000000001
 31
0.0
  0
LINE
  5
42D
100
AcDbEntity
  8
0
  6
CONTINUOUS
 62
               4
100
AcDbLine
 10
8.75
 20
-38.049999999999997
 30
0.0
 11
12.75
 21
-38.049999999999997
 31
0.0
  0
LINE
  5
42E
100
AcDbEntity
  8
0
  6
CONTINUOUS
 62
               4
100
AcDbLine
 10
8.75
 20
-37.75
 30
0.0
 11
12.75
 21
-37.75
 31
0.0
  0
LINE
  5
42F
100
AcDbEntity
  8
0
  6
CONTINUOUS
 62
               4
100
AcDbLine
 10
8.75
 20
-37.450000000000003
 30
0.0
 11
12.75
 21
-37.450000000000003
 31
0.0
  0
LINE
  5
430
100
AcDbEntity
  8
0
  6
CONTINUOUS
 62
               4
100
AcDbLine
 10
8.75
 20
-37.149999999999999
 30
0.0
 11
12.75
 21
-37.149999999999999
 31
0.0
  0
LINE
  5
431
100
AcDbEntity
  8
0
  6
CONTINUOUS
 62
               4
100
AcDbLine
 10
8.75
 20
-36.850000000000001
 30
0.0
 11
12.75
 21
-36.850000000000001
 31
0.0
  0
LINE
  5
432
100
AcDbEntity
  8
0
  6
CONTINUOUS
 62
               4
100
AcDbLine
 10
8.75
 20
-36.549999999999997
 30
0.0
 11
12.75
 21
-36.549999999999997
 31
0.0
  0
LINE
  5
433
100
AcDbEntity
  8
0
  6
CONTINUOUS
 62
               4
100
AcDbLine
 10
6.0
 20
2.2000000000000002
 30
0.0
 11
15.0
 21
2.2000000000000002
 31
0.0
  0
LINE
  5
434
100
AcDbEntity
  8
0
  6
CONTINUOUS
 62
               4
100
AcDbLine
 10
6.0
 20
-43.200000000000003
 30
0.0
 11
15.0
 21
-43.200000000000003
 31
0.0
  0
CIRCLE
  5
435
100
AcDbEntity
  8
0
  6
CONTINUOUS
 62
               4
100
AcDbCircle
 10
10.5
 20
14.500015258789063
 30
0.0
 40
3.1999998092651367
  0
CIRCLE
  5
436
100
AcDbEntity
  8
0
  6
CONTINUOUS
 62
               4
100
AcDbCircle
 10
16.0
 20
-56.499984741210937
 30
0.0
 40
1.5999994277954102
  0
CIRCLE
  5
437
100
AcDbEntity
  8
0
  6
CONTINUOUS
 62
               4
100
AcDbCircle
 10
6.0
 20
-66.29998779296875
 30
0.0
 40
2.7999992370605469
  0
CIRCLE
  5
438
100
AcDbEntity
  8
0
  6
CONTINUOUS
 62
               4
100
AcDbCircle
 10
15.0
 20
-66.29998779296875
 30
0.0
 40
2.7999992370605469
  0
CIRCLE
  5
439
100
AcDbEntity
  8
0
  6
CONTINUOUS
 62
               4
100
AcDbCircle
 10
12.247161865234375
 20
-9.0771560668945313
 30
0.0
 40
0.3271713256835938
  0
CIRCLE
  5
43A
100
AcDbEntity
  8
0
  6
CONTINUOUS
 62
               4
100
AcDbCircle
 10
12.247161865234375
 20
-11.617149353027344
 30
0.0
 40
0.3271713256835938
  0
CIRCLE
  5
43B
100
AcDbEntity
  8
0
  6
CONTINUOUS
 62
               4
100
AcDbCircle
 10
12.247161865234375
 20
-14.157157897949219
 30
0.0
 40
0.3271713256835938
  0
CIRCLE
  5
43C
100
AcDbEntity
  8
0
  6
CONTINUOUS
 62
               4
100
AcDbCircle
 10
12.247161865234375
 20
-16.6971435546875
 30
0.0
 40
0.3271713256835938
  0
CIRCLE
  5
43D
100
AcDbEntity
  8
0
  6
CONTINUOUS
 62
               4
100
AcDbCircle
 10
12.247161865234375
 20
-19.237152099609375
 30
0.0
 40
0.3271713256835938
  0
CIRCLE
  5
43E
100
AcDbEntity
  8
0
  6
CONTINUOUS
 62
               4
100
AcDbCircle
 10
12.239990234375
 20
-21.769989013671875
 30
0.0
 40
0.3199996948242188
  0
CIRCLE
  5
43F
100
AcDbEntity
  8
0
  6
CONTINUOUS
 62
               4
100
AcDbCircle
 10
12.239990234375
 20
-24.309982299804688
 30
0.0
 40
0.3199996948242188
  0
CIRCLE
  5
440
100
AcDbEntity
  8
0
  6
CONTINUOUS
 62
               4
100
AcDbCircle
 10
12.239990234375
 20
-26.8499755859375
 30
0.0
 40
0.3199996948242188
  0
CIRCLE
  5
441
100
AcDbEntity
  8
0
  6
CONTINUOUS
 62
               4
100
AcDbCircle
 10
12.239990234375
 20
-29.389984130859375
 30
0.0
 40
0.3199996948242188
  0
CIRCLE
  5
442
100
AcDbEntity
  8
0
  6
CONTINUOUS
 62
               4
100
AcDbCircle
 10
12.239990234375
 20
-31.92999267578125
 30
0.0
 40
0.3199996948242188
  0
CIRCLE
  5
443
100
AcDbEntity
  8
0
  6
CONTINUOUS
 62
               4
100
AcDbCircle
 10
9.7071609497070312
 20
-9.0771560668945313
 30
0.0
 40
0.3271713256835938
  0
CIRCLE
  5
444
100
AcDbEntity
  8
0
  6
CONTINUOUS
 62
               4
100
AcDbCircle
 10
9.7071609497070312
 20
-11.617149353027344
 30
0.0
 40
0.3271713256835938
  0
CIRCLE
  5
445
100
AcDbEntity
  8
0
  6
CONTINUOUS
 62
               4
100
AcDbCircle
 10
9.7071609497070312
 20
-14.157157897949219
 30
0.0
 40
0.3271713256835938
  0
CIRCLE
  5
446
100
AcDbEntity
  8
0
  6
CONTINUOUS
 62
               4
100
AcDbCircle
 10
9.7071609497070312
 20
-16.6971435546875
 30
0.0
 40
0.3271713256835938
  0
CIRCLE
  5
447
100
AcDbEntity
  8
0
  6
CONTINUOUS
 62
               4
100
AcDbCircle
 10
9.7071609497070312
 20
-19.237152099609375
 30
0.0
 40
0.3271713256835938
  0
CIRCLE
  5
448
100
AcDbEntity
  8
0
  6
CONTINUOUS
 62
               4
100
AcDbCircle
 10
9.6999893188476563
 20
-21.769989013671875
 30
0.0
 40
0.3199996948242188
  0
CIRCLE
  5
449
100
AcDbEntity
  8
0
  6
CONTINUOUS
 62
               4
100
AcDbCircle
 10
9.6999893188476563
 20
-24.309982299804688
 30
0.0
 40
0.3199996948242188
  0
CIRCLE
  5
44A
100
AcDbEntity
  8
0
  6
CONTINUOUS
 62
               4
100
AcDbCircle
 10
9.6999893188476563
 20
-26.8499755859375
 30
0.0
 40
0.3199996948242188
  0
CIRCLE
  5
44B
100
AcDbEntity
  8
0
  6
CONTINUOUS
 62
               4
100
AcDbCircle
 10
9.6999893188476563
 20
-29.389984130859375
 30
0.0
 40
0.3199996948242188
  0
CIRCLE
  5
44C
100
AcDbEntity
  8
0
  6
CONTINUOUS
 62
               4
100
AcDbCircle
 10
9.6999893188476563
 20
-31.92999267578125
 30
0.0
 40
0.3199996948242188
  0
ENDBLK
  5
44D
100
AcDbEntity
  8
0
100
AcDbBlockEnd
  0
BLOCK
  5
44E
100
AcDbEntity
  8
0
100
AcDbBlockBegin
  2
F18_CONNECTER-12
 70
               0
 10
0.0
 20
0.0
 30
0.0
  3
F18_CONNECTER-12
  1

  0
LINE
  5
44F
100
AcDbEntity
  8
0
  6
CONTINUOUS
 62
               4
100
AcDbLine
 10
39.5
 20
-4.0499999999999998
 30
0.0
 11
39.5
 21
-4.6699999999999999
 31
0.0
  0
LINE
  5
450
100
AcDbEntity
  8
0
  6
CONTINUOUS
 62
               4
100
AcDbLine
 10
31.0
 20
-42.950000000000003
 30
0.0
 11
42.759999999999998
 21
-38.450000000000003
 31
0.0
  0
LINE
  5
451
100
AcDbEntity
  8
0
  6
CONTINUOUS
 62
               4
100
AcDbLine
 10
36.0
 20
-7.1799999999999997
 30
0.0
 11
36.0
 21
-33.810000000000002
 31
0.0
  0
LINE
  5
452
100
AcDbEntity
  8
0
  6
CONTINUOUS
 62
               4
100
AcDbLine
 10
42.759999999999998
 20
-2.5499999999999998
 30
0.0
 11
31.0
 21
1.95
 31
0.0
  0
LINE
  5
453
100
AcDbEntity
  8
0
  6
CONTINUOUS
 62
               4
100
AcDbLine
 10
37.079999999999998
 20
-5.7300000000000004
 30
0.0
 11
39.130000000000003
 21
-5.1500000000000004
 31
0.0
  0
LINE
  5
454
100
AcDbEntity
  8
0
  6
CONTINUOUS
 62
               4
100
AcDbLine
 10
37.079999999999998
 20
-35.259999999999998
 30
0.0
 11
39.130000000000003
 21
-35.840000000000003
 31
0.0
  0
LINE
  5
455
100
AcDbEntity
  8
0
  6
CONTINUOUS
 62
               4
100
AcDbLine
 10
39.5
 20
-36.32
 30
0.0
 11
39.5
 21
-36.950000000000003
 31
0.0
  0
LINE
  5
456
100
AcDbEntity
  8
0
  6
CONTINUOUS
 62
               4
100
AcDbLine
 10
39.0
 20
-38.840000000000003
 30
0.0
 11
39.0
 21
-39.200000000000003
 31
0.0
  0
LINE
  5
457
100
AcDbEntity
  8
0
  6
CONTINUOUS
 62
               4
100
AcDbLine
 10
39.0
 20
-1.79
 30
0.0
 11
39.0
 21
-2.1499999999999999
 31
0.0
  0
LINE
  5
458
100
AcDbEntity
  8
0
  6
CONTINUOUS
 62
               4
100
AcDbLine
 10
39.0
 20
-36.950000000000003
 30
0.0
 11
39.5
 21
-36.950000000000003
 31
0.0
  0
LINE
  5
459
100
AcDbEntity
  8
0
  6
CONTINUOUS
 62
               4
100
AcDbLine
 10
39.0
 20
-4.0499999999999998
 30
0.0
 11
39.5
 21
-4.0499999999999998
 31
0.0
  0
LINE
  5
45A
100
AcDbEntity
  8
0
  6
CONTINUOUS
 62
               4
100
AcDbLine
 10
39.32
 20
-35.950000000000003
 30
0.0
 11
45.5
 21
-35.950000000000003
 31
0.0
  0
LINE
  5
45B
100
AcDbEntity
  8
0
  6
CONTINUOUS
 62
               4
100
AcDbLine
 10
39.32
 20
-5.0499999999999998
 30
0.0
 11
45.5
 21
-5.0499999999999998
 31
0.0
  0
LINE
  5
45C
100
AcDbEntity
  8
0
  6
CONTINUOUS
 62
               4
100
AcDbLine
 10
42.759999999999998
 20
-38.450000000000003
 30
0.0
 11
46.32
 21
-38.450000000000003
 31
0.0
  0
LINE
  5
45D
100
AcDbEntity
  8
0
  6
CONTINUOUS
 62
               4
100
AcDbLine
 10
42.759999999999998
 20
-2.5499999999999998
 30
0.0
 11
46.32
 21
-2.5499999999999998
 31
0.0
  0
LINE
  5
45E
100
AcDbEntity
  8
0
  6
CONTINUOUS
 62
               4
100
AcDbLine
 10
40.0
 20
-35.950000000000003
 30
0.0
 11
40.0
 21
-39.5
 31
0.0
  0
LINE
  5
45F
100
AcDbEntity
  8
0
  6
CONTINUOUS
 62
               4
100
AcDbLine
 10
40.0
 20
-1.49
 30
0.0
 11
40.0
 21
-5.0499999999999998
 31
0.0
  0
LINE
  5
460
100
AcDbEntity
  8
0
  6
CONTINUOUS
 62
               4
100
AcDbLine
 10
45.5
 20
-5.0499999999999998
 30
0.0
 11
45.5
 21
-6.0499999999999998
 31
0.0
  0
LINE
  5
461
100
AcDbEntity
  8
0
  6
CONTINUOUS
 62
               4
100
AcDbLine
 10
45.5
 20
-34.950000000000003
 30
0.0
 11
45.5
 21
-35.950000000000003
 31
0.0
  0
LINE
  5
462
100
AcDbEntity
  8
0
  6
CONTINUOUS
 62
               4
100
AcDbLine
 10
45.5
 20
-7.0499999999999998
 30
0.0
 11
45.689999999999998
 21
-7.0499999999999998
 31
0.0
  0
LINE
  5
463
100
AcDbEntity
  8
0
  6
CONTINUOUS
 62
               4
100
AcDbLine
 10
45.5
 20
-33.950000000000003
 30
0.0
 11
45.689999999999998
 21
-33.950000000000003
 31
0.0
  0
LINE
  5
464
100
AcDbEntity
  8
0
  6
CONTINUOUS
 62
               4
100
AcDbLine
 10
46.130000000000003
 20
-34.219999999999999
 30
0.0
 11
47.0
 21
-35.950000000000003
 31
0.0
  0
LINE
  5
465
100
AcDbEntity
  8
0
  6
CONTINUOUS
 62
               4
100
AcDbLine
 10
46.130000000000003
 20
-6.7699999999999996
 30
0.0
 11
47.0
 21
-5.0499999999999998
 31
0.0
  0
LINE
  5
466
100
AcDbEntity
  8
0
  6
CONTINUOUS
 62
               4
100
AcDbLine
 10
47.0
 20
-5.0499999999999998
 30
0.0
 11
47.5
 21
-4.4500000000000002
 31
0.0
  0
LINE
  5
467
100
AcDbEntity
  8
0
  6
CONTINUOUS
 62
               4
100
AcDbLine
 10
47.0
 20
-35.950000000000003
 30
0.0
 11
47.5
 21
-36.549999999999997
 31
0.0
  0
LINE
  5
468
100
AcDbEntity
  8
0
  6
CONTINUOUS
 62
               4
100
AcDbLine
 10
46.32
 20
-38.450000000000003
 30
0.0
 11
49.0
 21
-39.420000000000002
 31
0.0
  0
LINE
  5
469
100
AcDbEntity
  8
0
  6
CONTINUOUS
 62
               4
100
AcDbLine
 10
46.32
 20
-2.5499999999999998
 30
0.0
 11
49.0
 21
-1.5700000000000001
 31
0.0
  0
LINE
  5
46A
100
AcDbEntity
  8
0
  6
CONTINUOUS
 62
               4
100
AcDbLine
 10
47.5
 20
-4.4500000000000002
 30
0.0
 11
47.75
 21
-4.4500000000000002
 31
0.0
  0
LINE
  5
46B
100
AcDbEntity
  8
0
  6
CONTINUOUS
 62
               4
100
AcDbLine
 10
47.75
 20
-4.1500000000000004
 30
0.0
 11
48.0
 21
-4.1500000000000004
 31
0.0
  0
LINE
  5
46C
100
AcDbEntity
  8
0
  6
CONTINUOUS
 62
               4
100
AcDbLine
 10
48.0
 20
-3.8500000000000001
 30
0.0
 11
48.25
 21
-3.8500000000000001
 31
0.0
  0
LINE
  5
46D
100
AcDbEntity
  8
0
  6
CONTINUOUS
 62
               4
100
AcDbLine
 10
48.25
 20
-3.5499999999999998
 30
0.0
 11
48.5
 21
-3.5499999999999998
 31
0.0
  0
LINE
  5
46E
100
AcDbEntity
  8
0
  6
CONTINUOUS
 62
               4
100
AcDbLine
 10
48.5
 20
-3.25
 30
0.0
 11
48.75
 21
-3.25
 31
0.0
  0
LINE
  5
46F
100
AcDbEntity
  8
0
  6
CONTINUOUS
 62
               4
100
AcDbLine
 10
48.75
 20
-2.9500000000000002
 30
0.0
 11
49.0
 21
-2.9500000000000002
 31
0.0
  0
LINE
  5
470
100
AcDbEntity
  8
0
  6
CONTINUOUS
 62
               4
100
AcDbLine
 10
49.0
 20
-2.6499999999999999
 30
0.0
 11
49.25
 21
-2.6499999999999999
 31
0.0
  0
LINE
  5
471
100
AcDbEntity
  8
0
  6
CONTINUOUS
 62
               4
100
AcDbLine
 10
47.75
 20
-4.1500000000000004
 30
0.0
 11
47.75
 21
-4.4500000000000002
 31
0.0
  0
LINE
  5
472
100
AcDbEntity
  8
0
  6
CONTINUOUS
 62
               4
100
AcDbLine
 10
48.0
 20
-3.8500000000000001
 30
0.0
 11
48.0
 21
-4.1500000000000004
 31
0.0
  0
LINE
  5
473
100
AcDbEntity
  8
0
  6
CONTINUOUS
 62
               4
100
AcDbLine
 10
48.25
 20
-3.5499999999999998
 30
0.0
 11
48.25
 21
-3.8500000000000001
 31
0.0
  0
LINE
  5
474
100
AcDbEntity
  8
0
  6
CONTINUOUS
 62
               4
100
AcDbLine
 10
48.5
 20
-3.25
 30
0.0
 11
48.5
 21
-3.5499999999999998
 31
0.0
  0
LINE
  5
475
100
AcDbEntity
  8
0
  6
CONTINUOUS
 62
               4
100
AcDbLine
 10
48.75
 20
-2.9500000000000002
 30
0.0
 11
48.75
 21
-3.25
 31
0.0
  0
LINE
  5
476
100
AcDbEntity
  8
0
  6
CONTINUOUS
 62
               4
100
AcDbLine
 10
49.0
 20
-2.6499999999999999
 30
0.0
 11
49.0
 21
-2.9500000000000002
 31
0.0
  0
LINE
  5
477
100
AcDbEntity
  8
0
  6
CONTINUOUS
 62
               4
100
AcDbLine
 10
49.25
 20
-2.3500000000000001
 30
0.0
 11
49.409999999999997
 21
-2.1499999999999999
 31
0.0
  0
LINE
  5
478
100
AcDbEntity
  8
0
  6
CONTINUOUS
 62
               4
100
AcDbLine
 10
49.25
 20
-2.3500000000000001
 30
0.0
 11
49.25
 21
-2.6499999999999999
 31
0.0
  0
LINE
  5
479
100
AcDbEntity
  8
0
  6
CONTINUOUS
 62
               4
100
AcDbLine
 10
47.5
 20
-36.549999999999997
 30
0.0
 11
47.75
 21
-36.549999999999997
 31
0.0
  0
LINE
  5
47A
100
AcDbEntity
  8
0
  6
CONTINUOUS
 62
               4
100
AcDbLine
 10
47.75
 20
-36.850000000000001
 30
0.0
 11
48.0
 21
-36.850000000000001
 31
0.0
  0
LINE
  5
47B
100
AcDbEntity
  8
0
  6
CONTINUOUS
 62
               4
100
AcDbLine
 10
48.0
 20
-37.149999999999999
 30
0.0
 11
48.25
 21
-37.149999999999999
 31
0.0
  0
LINE
  5
47C
100
AcDbEntity
  8
0
  6
CONTINUOUS
 62
               4
100
AcDbLine
 10
48.25
 20
-37.450000000000003
 30
0.0
 11
48.5
 21
-37.450000000000003
 31
0.0
  0
LINE
  5
47D
100
AcDbEntity
  8
0
  6
CONTINUOUS
 62
               4
100
AcDbLine
 10
48.5
 20
-37.75
 30
0.0
 11
48.75
 21
-37.75
 31
0.0
  0
LINE
  5
47E
100
AcDbEntity
  8
0
  6
CONTINUOUS
 62
               4
100
AcDbLine
 10
48.75
 20
-38.049999999999997
 30
0.0
 11
49.0
 21
-38.049999999999997
 31
0.0
  0
LINE
  5
47F
100
AcDbEntity
  8
0
  6
CONTINUOUS
 62
               4
100
AcDbLine
 10
49.0
 20
-38.350000000000001
 30
0.0
 11
49.25
 21
-38.350000000000001
 31
0.0
  0
LINE
  5
480
100
AcDbEntity
  8
0
  6
CONTINUOUS
 62
               4
100
AcDbLine
 10
49.25
 20
-38.350000000000001
 30
0.0
 11
49.25
 21
-38.649999999999999
 31
0.0
  0
LINE
  5
481
100
AcDbEntity
  8
0
  6
CONTINUOUS
 62
               4
100
AcDbLine
 10
49.0
 20
-38.049999999999997
 30
0.0
 11
49.0
 21
-38.350000000000001
 31
0.0
  0
LINE
  5
482
100
AcDbEntity
  8
0
  6
CONTINUOUS
 62
               4
100
AcDbLine
 10
48.75
 20
-37.75
 30
0.0
 11
48.75
 21
-38.049999999999997
 31
0.0
  0
LINE
  5
483
100
AcDbEntity
  8
0
  6
CONTINUOUS
 62
               4
100
AcDbLine
 10
48.5
 20
-37.450000000000003
 30
0.0
 11
48.5
 21
-37.75
 31
0.0
  0
LINE
  5
484
100
AcDbEntity
  8
0
  6
CONTINUOUS
 62
               4
100
AcDbLine
 10
48.25
 20
-37.149999999999999
 30
0.0
 11
48.25
 21
-37.450000000000003
 31
0.0
  0
LINE
  5
485
100
AcDbEntity
  8
0
  6
CONTINUOUS
 62
               4
100
AcDbLine
 10
48.0
 20
-36.850000000000001
 30
0.0
 11
48.0
 21
-37.149999999999999
 31
0.0
  0
LINE
  5
486
100
AcDbEntity
  8
0
  6
CONTINUOUS
 62
               4
100
AcDbLine
 10
47.75
 20
-36.549999999999997
 30
0.0
 11
47.75
 21
-36.850000000000001
 31
0.0
  0
LINE
  5
487
100
AcDbEntity
  8
0
  6
CONTINUOUS
 62
               4
100
AcDbLine
 10
49.25
 20
-38.649999999999999
 30
0.0
 11
49.409999999999997
 21
-38.840000000000003
 31
0.0
  0
LINE
  5
488
100
AcDbEntity
  8
0
  6
CONTINUOUS
 62
               4
100
AcDbLine
 10
46.450000000000003
 20
-2.5
 30
0.0
 11
42.630000000000003
 21
-2.5
 31
0.0
  0
ARC
  5
489
100
AcDbEntity
  8
0
  6
CONTINUOUS
 62
               4
100
AcDbCircle
 10
37.505482840555473
 20
-7.1741182536551129
 30
0.0
 40
1.5054943301610435
100
AcDbArc
 50
106.41663822755955
 51
180.22384680717869
  0
ARC
  5
48A
100
AcDbEntity
  8
0
  6
CONTINUOUS
 62
               4
100
AcDbCircle
 10
37.500681998123035
 20
-33.819457546225593
 30
0.0
 40
1.5007117993376218
100
AcDbArc
 50
179.63891729882997
 51
253.72059766643056
  0
ARC
  5
48B
100
AcDbEntity
  8
0
  6
CONTINUOUS
 62
               4
100
AcDbCircle
 10
39.002718718848271
 20
-4.6692831791122114
 30
0.0
 40
0.4972817977928494
100
AcDbArc
 50
284.83012337034273
 51
359.91740935231684
  0
ARC
  5
48C
100
AcDbEntity
  8
0
  6
CONTINUOUS
 62
               4
100
AcDbCircle
 10
38.997896034628198
 20
-36.324434306640761
 30
0.0
 40
0.5021235456712476
100
AcDbArc
 50
0.505991723095104
 51
74.746475554243432
  0
ARC
  5
48D
100
AcDbEntity
  8
0
  6
CONTINUOUS
 62
               4
100
AcDbCircle
 10
37.999866670590094
 20
-1.796867380770363
 30
0.0
 40
1.0001569064477764
100
AcDbArc
 50
0.3934132972130517
 51
69.507889526536886
  0
ARC
  5
48E
100
AcDbEntity
  8
0
  6
CONTINUOUS
 62
               4
100
AcDbCircle
 10
38.00453364666182
 20
-39.196394484226012
 30
0.0
 40
0.9954728827910911
100
AcDbArc
 50
290.3062179355336
 51
359.79247924071524
  0
ARC
  5
48F
100
AcDbEntity
  8
0
  6
CONTINUOUS
 62
               4
100
AcDbCircle
 10
38.999753048158439
 20
-3.2988014483003263
 30
0.0
 40
0.7511985922916121
100
AcDbArc
 50
113.51774223433587
 51
270.01883562970431
  0
ARC
  5
490
100
AcDbEntity
  8
0
  6
CONTINUOUS
 62
               4
100
AcDbCircle
 10
39.000710633904639
 20
-37.696617615504479
 30
0.0
 40
0.7466179536966187
100
AcDbArc
 50
90.054534356508114
 51
246.24893316666225
  0
ARC
  5
491
100
AcDbEntity
  8
0
  6
CONTINUOUS
 62
               4
100
AcDbCircle
 10
38.501187932826852
 20
-2.1525138692349053
 30
0.0
 40
0.4988184017215864
100
AcDbArc
 50
293.48856428779163
 51
0.2887517914642442
  0
ARC
  5
492
100
AcDbEntity
  8
0
  6
CONTINUOUS
 62
               4
100
AcDbCircle
 10
38.496595997052367
 20
-38.840480871487586
 30
0.0
 40
0.5034042326213478
100
AcDbArc
 50
0.0547311864528224
 51
66.167952734290083
  0
ARC
  5
493
100
AcDbEntity
  8
0
  6
CONTINUOUS
 62
               4
100
AcDbCircle
 10
45.49999389652163
 20
-6.5499938965216273
 30
0.0
 40
0.4999938965588809
100
AcDbArc
 50
89.999300584360213
 51
180.00069941563947
  0
ARC
  5
494
100
AcDbEntity
  8
0
  6
CONTINUOUS
 62
               4
100
AcDbCircle
 10
45.500001525881238
 20
-34.449998474118765
 30
0.0
 40
0.5000015258835643
100
AcDbArc
 50
180.00017485257595
 51
269.99982514742305
  0
ARC
  5
495
100
AcDbEntity
  8
0
  6
CONTINUOUS
 62
               4
100
AcDbCircle
 10
45.500006103552877
 20
-6.5499938964471225
 30
0.0
 40
0.5000061035901307
100
AcDbArc
 50
180.00069940710162
 51
269.99930059289738
  0
ARC
  5
496
100
AcDbEntity
  8
0
  6
CONTINUOUS
 62
               4
100
AcDbCircle
 10
45.499998474123423
 20
-34.449998474123426
 30
0.0
 40
0.4999984741257489
100
AcDbArc
 50
89.999825146890345
 51
180.00017485310903
  0
ARC
  5
497
100
AcDbEntity
  8
0
  6
CONTINUOUS
 62
               4
100
AcDbCircle
 10
45.683772765831904
 20
-6.5545000605929911
 30
0.0
 40
0.495539068487777
100
AcDbArc
 50
270.72003127502484
 51
334.22235330667064
  0
ARC
  5
498
100
AcDbEntity
  8
0
  6
CONTINUOUS
 62
               4
100
AcDbCircle
 10
45.687375971806098
 20
-34.447794712612286
 30
0.0
 40
0.4978016285918622
100
AcDbArc
 50
27.232436971508729
 51
89.697979218114796
  0
ARC
  5
499
100
AcDbEntity
  8
0
  6
CONTINUOUS
 62
               4
100
AcDbCircle
 10
49.130012685174009
 20
-1.9130082742735457
 30
0.0
 40
0.3668214477457271
100
AcDbArc
 50
319.75417634331575
 51
110.75854108260866
  0
ARC
  5
49A
100
AcDbEntity
  8
0
  6
CONTINUOUS
 62
               4
100
AcDbCircle
 10
49.134723406787899
 20
-39.080321718591449
 30
0.0
 40
0.3654199381495282
100
AcDbArc
 50
248.36570275139889
 51
41.121579822674995
  0
ENDBLK
  5
49B
100
AcDbEntity
  8
0
100
AcDbBlockEnd
  0
BLOCK
  5
49C
100
AcDbEntity
  8
0
100
AcDbBlockBegin
  2
F18_CONNECTER-13
 70
               0
 10
0.0
 20
0.0
 30
0.0
  3
F18_CONNECTER-13
  1

  0
LINE
  5
49D
100
AcDbEntity
  8
0
  6
CONTINUOUS
 62
               4
100
AcDbLine
 10
21.0
 20
31.0
 30
0.0
 11
21.0
 21
-22.0
 31
0.0
  0
LINE
  5
49E
100
AcDbEntity
  8
0
  6
CONTINUOUS
 62
               4
100
AcDbLine
 10
0.0
 20
-22.0
 30
0.0
 11
21.0
 21
-22.0
 31
0.0
  0
LINE
  5
49F
100
AcDbEntity
  8
0
  6
CONTINUOUS
 62
               4
100
AcDbLine
 10
0.0
 20
31.0
 30
0.0
 11
0.0
 21
-22.0
 31
0.0
  0
LINE
  5
4A0
100
AcDbEntity
  8
0
  6
CONTINUOUS
 62
               4
100
AcDbLine
 10
0.0
 20
21.0
 30
0.0
 11
21.0
 21
21.0
 31
0.0
  0
LINE
  5
4A1
100
AcDbEntity
  8
0
  6
CONTINUOUS
 62
               4
100
AcDbLine
 10
0.0
 20
31.0
 30
0.0
 11
21.0
 21
31.0
 31
0.0
  0
LINE
  5
4A2
100
AcDbEntity
  8
0
  6
CONTINUOUS
 62
               4
100
AcDbLine
 10
2.5
 20
22.5
 30
0.0
 11
18.5
 21
22.5
 31
0.0
  0
LINE
  5
4A3
100
AcDbEntity
  8
0
  6
CONTINUOUS
 62
               4
100
AcDbLine
 10
1.5
 20
31.0
 30
0.0
 11
1.5
 21
21.0
 31
0.0
  0
LINE
  5
4A4
100
AcDbEntity
  8
0
  6
CONTINUOUS
 62
               4
100
AcDbLine
 10
19.5
 20
31.0
 30
0.0
 11
19.5
 21
21.0
 31
0.0
  0
LINE
  5
4A5
100
AcDbEntity
  8
0
  6
CONTINUOUS
 62
               4
100
AcDbLine
 10
18.5
 20
29.5
 30
0.0
 11
18.5
 21
22.5
 31
0.0
  0
LINE
  5
4A6
100
AcDbEntity
  8
0
  6
CONTINUOUS
 62
               4
100
AcDbLine
 10
2.5
 20
29.5
 30
0.0
 11
2.5
 21
22.5
 31
0.0
  0
LINE
  5
4A7
100
AcDbEntity
  8
0
  6
CONTINUOUS
 62
               4
100
AcDbLine
 10
1.5
 20
29.5
 30
0.0
 11
19.5
 21
29.5
 31
0.0
  0
LINE
  5
4A8
100
AcDbEntity
  8
0
  6
CONTINUOUS
 62
               4
100
AcDbLine
 10
9.5
 20
29.5
 30
0.0
 11
9.5
 21
22.5
 31
0.0
  0
LINE
  5
4A9
100
AcDbEntity
  8
0
  6
CONTINUOUS
 62
               4
100
AcDbLine
 10
11.5
 20
29.5
 30
0.0
 11
11.5
 21
22.5
 31
0.0
  0
LINE
  5
4AA
100
AcDbEntity
  8
0
  6
CONTINUOUS
 62
               4
100
AcDbLine
 10
2.5
 20
28.5
 30
0.0
 11
9.5
 21
28.5
 31
0.0
  0
LINE
  5
4AB
100
AcDbEntity
  8
0
  6
CONTINUOUS
 62
               4
100
AcDbLine
 10
11.5
 20
28.5
 30
0.0
 11
18.5
 21
28.5
 31
0.0
  0
LINE
  5
4AC
100
AcDbEntity
  8
0
  6
CONTINUOUS
 62
               4
100
AcDbLine
 10
3.0499999999999998
 20
23.300000000000001
 30
0.0
 11
8.9499999999999993
 21
23.300000000000001
 31
0.0
  0
LINE
  5
4AD
100
AcDbEntity
  8
0
  6
CONTINUOUS
 62
               4
100
AcDbLine
 10
3.0499999999999998
 20
23.300000000000001
 30
0.0
 11
3.0499999999999998
 21
22.5
 31
0.0
  0
LINE
  5
4AE
100
AcDbEntity
  8
0
  6
CONTINUOUS
 62
               4
100
AcDbLine
 10
3.8500000000000001
 20
23.300000000000001
 30
0.0
 11
3.8500000000000001
 21
22.5
 31
0.0
  0
LINE
  5
4AF
100
AcDbEntity
  8
0
  6
CONTINUOUS
 62
               4
100
AcDbLine
 10
8.1500000000000004
 20
23.300000000000001
 30
0.0
 11
8.1500000000000004
 21
22.5
 31
0.0
  0
LINE
  5
4B0
100
AcDbEntity
  8
0
  6
CONTINUOUS
 62
               4
100
AcDbLine
 10
8.9499999999999993
 20
23.300000000000001
 30
0.0
 11
8.9499999999999993
 21
22.5
 31
0.0
  0
LINE
  5
4B1
100
AcDbEntity
  8
0
  6
CONTINUOUS
 62
               4
100
AcDbLine
 10
12.050000000000001
 20
23.300000000000001
 30
0.0
 11
12.050000000000001
 21
22.5
 31
0.0
  0
LINE
  5
4B2
100
AcDbEntity
  8
0
  6
CONTINUOUS
 62
               4
100
AcDbLine
 10
12.85
 20
23.300000000000001
 30
0.0
 11
12.85
 21
22.5
 31
0.0
  0
LINE
  5
4B3
100
AcDbEntity
  8
0
  6
CONTINUOUS
 62
               4
100
AcDbLine
 10
17.149999999999999
 20
23.300000000000001
 30
0.0
 11
17.149999999999999
 21
22.5
 31
0.0
  0
LINE
  5
4B4
100
AcDbEntity
  8
0
  6
CONTINUOUS
 62
               4
100
AcDbLine
 10
17.949999999999999
 20
23.300000000000001
 30
0.0
 11
17.949999999999999
 21
22.5
 31
0.0
  0
LINE
  5
4B5
100
AcDbEntity
  8
0
  6
CONTINUOUS
 62
               4
100
AcDbLine
 10
12.050000000000001
 20
23.300000000000001
 30
0.0
 11
17.949999999999999
 21
23.300000000000001
 31
0.0
  0
LINE
  5
4B6
100
AcDbEntity
  8
0
  6
CONTINUOUS
 62
               4
100
AcDbLine
 10
8.9499999999999993
 20
24.0
 30
0.0
 11
3.0499999999999998
 21
24.0
 31
0.0
  0
LINE
  5
4B7
100
AcDbEntity
  8
0
  6
CONTINUOUS
 62
               4
100
AcDbLine
 10
8.9499999999999993
 20
24.0
 30
0.0
 11
8.9499999999999993
 21
23.300000000000001
 31
0.0
  0
LINE
  5
4B8
100
AcDbEntity
  8
0
  6
CONTINUOUS
 62
               4
100
AcDbLine
 10
3.0499999999999998
 20
24.0
 30
0.0
 11
3.0499999999999998
 21
23.300000000000001
 31
0.0
  0
LINE
  5
4B9
100
AcDbEntity
  8
0
  6
CONTINUOUS
 62
               4
100
AcDbLine
 10
17.949999999999999
 20
24.0
 30
0.0
 11
12.050000000000001
 21
24.0
 31
0.0
  0
LINE
  5
4BA
100
AcDbEntity
  8
0
  6
CONTINUOUS
 62
               4
100
AcDbLine
 10
17.949999999999999
 20
24.0
 30
0.0
 11
17.949999999999999
 21
23.300000000000001
 31
0.0
  0
LINE
  5
4BB
100
AcDbEntity
  8
0
  6
CONTINUOUS
 62
               4
100
AcDbLine
 10
12.050000000000001
 20
24.0
 30
0.0
 11
12.050000000000001
 21
23.300000000000001
 31
0.0
  0
LINE
  5
4BC
100
AcDbEntity
  8
0
  6
CONTINUOUS
 62
               4
100
AcDbLine
 10
8.8000000000000007
 20
25.170000000000002
 30
0.0
 11
8.8000000000000007
 21
24.0
 31
0.0
  0
LINE
  5
4BD
100
AcDbEntity
  8
0
  6
CONTINUOUS
 62
               4
100
AcDbLine
 10
3.2000000000000002
 20
25.170000000000002
 30
0.0
 11
3.2000000000000002
 21
24.0
 31
0.0
  0
LINE
  5
4BE
100
AcDbEntity
  8
0
  6
CONTINUOUS
 62
               4
100
AcDbLine
 10
17.800000000000001
 20
25.170000000000002
 30
0.0
 11
17.800000000000001
 21
24.0
 31
0.0
  0
LINE
  5
4BF
100
AcDbEntity
  8
0
  6
CONTINUOUS
 62
               4
100
AcDbLine
 10
12.199999999999999
 20
25.170000000000002
 30
0.0
 11
12.199999999999999
 21
24.0
 31
0.0
  0
LINE
  5
4C0
100
AcDbEntity
  8
0
  6
CONTINUOUS
 62
               4
100
AcDbLine
 10
6.5
 20
40.0
 30
0.0
 11
6.5
 21
31.0
 31
0.0
  0
LINE
  5
4C1
100
AcDbEntity
  8
0
  6
CONTINUOUS
 62
               4
100
AcDbLine
 10
15.0
 20
40.0
 30
0.0
 11
15.0
 21
31.0
 31
0.0
  0
LINE
  5
4C2
100
AcDbEntity
  8
0
  6
CONTINUOUS
 62
               4
100
AcDbLine
 10
8.75
 20
49.5
 30
0.0
 11
8.75
 21
40.200000000000003
 31
0.0
  0
LINE
  5
4C3
100
AcDbEntity
  8
0
  6
CONTINUOUS
 62
               4
100
AcDbLine
 10
12.75
 20
49.5
 30
0.0
 11
12.75
 21
40.200000000000003
 31
0.0
  0
LINE
  5
4C4
100
AcDbEntity
  8
0
  6
CONTINUOUS
 62
               4
100
AcDbLine
 10
6.5
 20
40.0
 30
0.0
 11
9.25
 21
40.0
 31
0.0
  0
LINE
  5
4C5
100
AcDbEntity
  8
0
  6
CONTINUOUS
 62
               4
100
AcDbLine
 10
9.25
 20
40.200000000000003
 30
0.0
 11
9.25
 21
31.0
 31
0.0
  0
LINE
  5
4C6
100
AcDbEntity
  8
0
  6
CONTINUOUS
 62
               4
100
AcDbLine
 10
12.25
 20
40.200000000000003
 30
0.0
 11
12.25
 21
31.0
 31
0.0
  0
LINE
  5
4C7
100
AcDbEntity
  8
0
  6
CONTINUOUS
 62
               4
100
AcDbLine
 10
12.25
 20
40.0
 30
0.0
 11
15.0
 21
40.0
 31
0.0
  0
LINE
  5
4C8
100
AcDbEntity
  8
0
  6
CONTINUOUS
 62
               4
100
AcDbLine
 10
12.25
 20
40.200000000000003
 30
0.0
 11
12.75
 21
40.200000000000003
 31
0.0
  0
LINE
  5
4C9
100
AcDbEntity
  8
0
  6
CONTINUOUS
 62
               4
100
AcDbLine
 10
8.75
 20
40.200000000000003
 30
0.0
 11
9.25
 21
40.200000000000003
 31
0.0
  0
LINE
  5
4CA
100
AcDbEntity
  8
0
  6
CONTINUOUS
 62
               4
100
AcDbLine
 10
8.75
 20
46.5
 30
0.0
 11
12.75
 21
46.5
 31
0.0
  0
LINE
  5
4CB
100
AcDbEntity
  8
0
  6
CONTINUOUS
 62
               4
100
AcDbLine
 10
8.75
 20
49.5
 30
0.0
 11
12.75
 21
49.5
 31
0.0
  0
LINE
  5
4CC
100
AcDbEntity
  8
0
  6
CONTINUOUS
 62
               4
100
AcDbLine
 10
9.25
 20
31.5
 30
0.0
 11
12.25
 21
31.5
 31
0.0
  0
LINE
  5
4CD
100
AcDbEntity
  8
0
  6
CONTINUOUS
 62
               4
100
AcDbLine
 10
6.5
 20
39.5
 30
0.0
 11
9.25
 21
39.5
 31
0.0
  0
LINE
  5
4CE
100
AcDbEntity
  8
0
  6
CONTINUOUS
 62
               4
100
AcDbLine
 10
12.25
 20
39.5
 30
0.0
 11
15.0
 21
39.5
 31
0.0
  0
LINE
  5
4CF
100
AcDbEntity
  8
0
  6
CONTINUOUS
 62
               4
100
AcDbLine
 10
8.75
 20
42.799999999999997
 30
0.0
 11
12.75
 21
42.799999999999997
 31
0.0
  0
ARC
  5
4D0
100
AcDbEntity
  8
0
  6
CONTINUOUS
 62
               4
100
AcDbCircle
 10
5.9950000000000001
 20
21.400006980160171
 30
0.0
 40
4.9998664254813097
100
AcDbArc
 50
60.461178304918043
 51
119.53882169508157
  0
ARC
  5
4D1
100
AcDbEntity
  8
0
  6
CONTINUOUS
 62
               4
100
AcDbCircle
 10
8.134627656357754
 20
25.169609315795924
 30
0.0
 40
0.6653724583405332
100
AcDbArc
 50
0.0336421458714143
 51
60.724609876865323
  0
ARC
  5
4D2
100
AcDbEntity
  8
0
  6
CONTINUOUS
 62
               4
100
AcDbCircle
 10
3.8678490002748012
 20
25.173896258464339
 30
0.0
 40
0.667860365643951
100
AcDbArc
 50
120.38897048789522
 51
180.33426213580151
  0
ARC
  5
4D3
100
AcDbEntity
  8
0
  6
CONTINUOUS
 62
               4
100
AcDbCircle
 10
14.995000000000001
 20
21.400006980160171
 30
0.0
 40
4.9998664254813097
100
AcDbArc
 50
60.46117830491805
 51
119.53882169508159
  0
ARC
  5
4D4
100
AcDbEntity
  8
0
  6
CONTINUOUS
 62
               4
100
AcDbCircle
 10
17.134627656357754
 20
25.169609315795924
 30
0.0
 40
0.6653724583405332
100
AcDbArc
 50
0.0336421458714143
 51
60.724609876865323
  0
ARC
  5
4D5
100
AcDbEntity
  8
0
  6
CONTINUOUS
 62
               4
100
AcDbCircle
 10
12.8678490002748
 20
25.173896258464335
 30
0.0
 40
0.6678603656439516
100
AcDbArc
 50
120.38897048789502
 51
180.3342621358012
  0
ENDBLK
  5
4D6
100
AcDbEntity
  8
0
100
AcDbBlockEnd
  0
BLOCK
  5
4D7
100
AcDbEntity
  8
0
100
AcDbBlockBegin
  2
F18_CONNECTER-14
 70
               0
 10
0.0
 20
0.0
 30
0.0
  3
F18_CONNECTER-14
  1

  0
LINE
  5
4D8
100
AcDbEntity
  8
0
  6
CONTINUOUS
 62
               4
100
AcDbLine
 10
21.0
 20
-73.0
 30
0.0
 11
21.0
 21
50.0
 31
0.0
  0
LINE
  5
4D9
100
AcDbEntity
  8
0
  6
CONTINUOUS
 62
               4
100
AcDbLine
 10
1.6000000000000001
 20
-73.0
 30
0.0
 11
0.0
 21
-73.0
 31
0.0
  0
LINE
  5
4DA
100
AcDbEntity
  8
0
  6
CONTINUOUS
 62
               4
100
AcDbLine
 10
0.0
 20
-73.0
 30
0.0
 11
0.0
 21
50.0
 31
0.0
  0
LINE
  5
4DB
100
AcDbEntity
  8
0
  6
CONTINUOUS
 62
               4
100
AcDbLine
 10
0.0
 20
50.0
 30
0.0
 11
21.0
 21
50.0
 31
0.0
  0
LINE
  5
4DC
100
AcDbEntity
  8
0
  6
CONTINUOUS
 62
               4
100
AcDbLine
 10
0.0
 20
20.5
 30
0.0
 11
21.0
 21
20.5
 31
0.0
  0
LINE
  5
4DD
100
AcDbEntity
  8
0
  6
CONTINUOUS
 62
               4
100
AcDbLine
 10
0.0
 20
20.0
 30
0.0
 11
21.0
 21
20.0
 31
0.0
  0
LINE
  5
4DE
100
AcDbEntity
  8
0
  6
CONTINUOUS
 62
               4
100
AcDbLine
 10
9.4299999999999997
 20
13.43
 30
0.0
 11
11.56
 21
15.56
 31
0.0
  0
LINE
  5
4DF
100
AcDbEntity
  8
0
  6
CONTINUOUS
 62
               4
100
AcDbLine
 10
9.4299999999999997
 20
15.56
 30
0.0
 11
11.56
 21
13.43
 31
0.0
  0
LINE
  5
4E0
100
AcDbEntity
  8
0
  6
CONTINUOUS
 62
               4
100
AcDbLine
 10
1.5
 20
-71.299999999999997
 30
0.0
 11
19.5
 21
-71.299999999999997
 31
0.0
  0
LINE
  5
4E1
100
AcDbEntity
  8
0
  6
CONTINUOUS
 62
               4
100
AcDbLine
 10
1.5
 20
-71.5
 30
0.0
 11
19.5
 21
-71.5
 31
0.0
  0
LINE
  5
4E2
100
AcDbEntity
  8
0
  6
CONTINUOUS
 62
               4
100
AcDbLine
 10
1.5
 20
-52.0
 30
0.0
 11
1.5
 21
-73.0
 31
0.0
  0
LINE
  5
4E3
100
AcDbEntity
  8
0
  6
CONTINUOUS
 62
               4
100
AcDbLine
 10
19.5
 20
-52.0
 30
0.0
 11
19.5
 21
-73.0
 31
0.0
  0
LINE
  5
4E4
100
AcDbEntity
  8
0
  6
CONTINUOUS
 62
               4
100
AcDbLine
 10
14.0
 20
-71.299999999999997
 30
0.0
 11
14.0
 21
-71.5
 31
0.0
  0
LINE
  5
4E5
100
AcDbEntity
  8
0
  6
CONTINUOUS
 62
               4
100
AcDbLine
 10
7.0
 20
-71.299999999999997
 30
0.0
 11
7.0
 21
-71.5
 31
0.0
  0
LINE
  5
4E6
100
AcDbEntity
  8
0
  6
CONTINUOUS
 62
               4
100
AcDbLine
 10
1.5
 20
-61.0
 30
0.0
 11
19.5
 21
-61.0
 31
0.0
  0
LINE
  5
4E7
100
AcDbEntity
  8
0
  6
CONTINUOUS
 62
               4
100
AcDbLine
 10
1.5
 20
-52.0
 30
0.0
 11
19.5
 21
-52.0
 31
0.0
  0
LINE
  5
4E8
100
AcDbEntity
  8
0
  6
CONTINUOUS
 62
               4
100
AcDbLine
 10
9.5
 20
-70.799999999999997
 30
0.0
 11
11.5
 21
-70.799999999999997
 31
0.0
  0
LINE
  5
4E9
100
AcDbEntity
  8
0
  6
CONTINUOUS
 62
               4
100
AcDbLine
 10
11.5
 20
-61.0
 30
0.0
 11
11.5
 21
-70.799999999999997
 31
0.0
  0
LINE
  5
4EA
100
AcDbEntity
  8
0
  6
CONTINUOUS
 62
               4
100
AcDbLine
 10
9.5
 20
-61.0
 30
0.0
 11
9.5
 21
-70.799999999999997
 31
0.0
  0
LINE
  5
4EB
100
AcDbEntity
  8
0
  6
CONTINUOUS
 62
               4
100
AcDbLine
 10
3.8500000000000001
 20
-69.799999999999997
 30
0.0
 11
8.1500000000000004
 21
-69.799999999999997
 31
0.0
  0
LINE
  5
4EC
100
AcDbEntity
  8
0
  6
CONTINUOUS
 62
               4
100
AcDbLine
 10
3.8500000000000001
 20
-62.799999999999997
 30
0.0
 11
8.1500000000000004
 21
-62.799999999999997
 31
0.0
  0
LINE
  5
4ED
100
AcDbEntity
  8
0
  6
CONTINUOUS
 62
               4
100
AcDbLine
 10
12.85
 20
-62.799999999999997
 30
0.0
 11
12.85
 21
-63.600000000000001
 31
0.0
  0
LINE
  5
4EE
100
AcDbEntity
  8
0
  6
CONTINUOUS
 62
               4
100
AcDbLine
 10
8.1500000000000004
 20
-62.799999999999997
 30
0.0
 11
8.1500000000000004
 21
-63.600000000000001
 31
0.0
  0
LINE
  5
4EF
100
AcDbEntity
  8
0
  6
CONTINUOUS
 62
               4
100
AcDbLine
 10
3.8500000000000001
 20
-62.799999999999997
 30
0.0
 11
3.8500000000000001
 21
-63.600000000000001
 31
0.0
  0
LINE
  5
4F0
100
AcDbEntity
  8
0
  6
CONTINUOUS
 62
               4
100
AcDbLine
 10
17.149999999999999
 20
-62.799999999999997
 30
0.0
 11
17.149999999999999
 21
-63.600000000000001
 31
0.0
  0
LINE
  5
4F1
100
AcDbEntity
  8
0
  6
CONTINUOUS
 62
               4
100
AcDbLine
 10
2.5
 20
-61.0
 30
0.0
 11
2.5
 21
-71.299999999999997
 31
0.0
  0
LINE
  5
4F2
100
AcDbEntity
  8
0
  6
CONTINUOUS
 62
               4
100
AcDbLine
 10
18.5
 20
-61.0
 30
0.0
 11
18.5
 21
-71.299999999999997
 31
0.0
  0
LINE
  5
4F3
100
AcDbEntity
  8
0
  6
CONTINUOUS
 62
               4
100
AcDbLine
 10
12.85
 20
-62.799999999999997
 30
0.0
 11
17.149999999999999
 21
-62.799999999999997
 31
0.0
  0
LINE
  5
4F4
100
AcDbEntity
  8
0
  6
CONTINUOUS
 62
               4
100
AcDbLine
 10
12.85
 20
-69.799999999999997
 30
0.0
 11
17.149999999999999
 21
-69.799999999999997
 31
0.0
  0
LINE
  5
4F5
100
AcDbEntity
  8
0
  6
CONTINUOUS
 62
               4
100
AcDbLine
 10
3.8500000000000001
 20
-69.0
 30
0.0
 11
3.8500000000000001
 21
-69.799999999999997
 31
0.0
  0
LINE
  5
4F6
100
AcDbEntity
  8
0
  6
CONTINUOUS
 62
               4
100
AcDbLine
 10
8.1500000000000004
 20
-69.0
 30
0.0
 11
8.1500000000000004
 21
-69.799999999999997
 31
0.0
  0
LINE
  5
4F7
100
AcDbEntity
  8
0
  6
CONTINUOUS
 62
               4
100
AcDbLine
 10
12.85
 20
-69.0
 30
0.0
 11
12.85
 21
-69.799999999999997
 31
0.0
  0
LINE
  5
4F8
100
AcDbEntity
  8
0
  6
CONTINUOUS
 62
               4
100
AcDbLine
 10
17.149999999999999
 20
-69.0
 30
0.0
 11
17.149999999999999
 21
-69.799999999999997
 31
0.0
  0
LINE
  5
4F9
100
AcDbEntity
  8
0
  6
CONTINUOUS
 62
               4
100
AcDbLine
 10
12.050000000000001
 20
-63.600000000000001
 30
0.0
 11
12.050000000000001
 21
-69.0
 31
0.0
  0
LINE
  5
4FA
100
AcDbEntity
  8
0
  6
CONTINUOUS
 62
               4
100
AcDbLine
 10
17.949999999999999
 20
-63.600000000000001
 30
0.0
 11
17.949999999999999
 21
-69.0
 31
0.0
  0
LINE
  5
4FB
100
AcDbEntity
  8
0
  6
CONTINUOUS
 62
               4
100
AcDbLine
 10
8.9499999999999993
 20
-63.600000000000001
 30
0.0
 11
8.9499999999999993
 21
-69.0
 31
0.0
  0
LINE
  5
4FC
100
AcDbEntity
  8
0
  6
CONTINUOUS
 62
               4
100
AcDbLine
 10
3.0499999999999998
 20
-63.600000000000001
 30
0.0
 11
3.0499999999999998
 21
-69.0
 31
0.0
  0
LINE
  5
4FD
100
AcDbEntity
  8
0
  6
CONTINUOUS
 62
               4
100
AcDbLine
 10
8.1500000000000004
 20
-63.600000000000001
 30
0.0
 11
8.9499999999999993
 21
-63.600000000000001
 31
0.0
  0
LINE
  5
4FE
100
AcDbEntity
  8
0
  6
CONTINUOUS
 62
               4
100
AcDbLine
 10
3.0499999999999998
 20
-63.600000000000001
 30
0.0
 11
3.8500000000000001
 21
-63.600000000000001
 31
0.0
  0
LINE
  5
4FF
100
AcDbEntity
  8
0
  6
CONTINUOUS
 62
               4
100
AcDbLine
 10
3.0499999999999998
 20
-69.0
 30
0.0
 11
3.8500000000000001
 21
-69.0
 31
0.0
  0
LINE
  5
500
100
AcDbEntity
  8
0
  6
CONTINUOUS
 62
               4
100
AcDbLine
 10
8.1500000000000004
 20
-69.0
 30
0.0
 11
8.9499999999999993
 21
-69.0
 31
0.0
  0
LINE
  5
501
100
AcDbEntity
  8
0
  6
CONTINUOUS
 62
               4
100
AcDbLine
 10
12.050000000000001
 20
-69.0
 30
0.0
 11
12.85
 21
-69.0
 31
0.0
  0
LINE
  5
502
100
AcDbEntity
  8
0
  6
CONTINUOUS
 62
               4
100
AcDbLine
 10
17.149999999999999
 20
-69.0
 30
0.0
 11
17.949999999999999
 21
-69.0
 31
0.0
  0
LINE
  5
503
100
AcDbEntity
  8
0
  6
CONTINUOUS
 62
               4
100
AcDbLine
 10
17.149999999999999
 20
-63.600000000000001
 30
0.0
 11
17.949999999999999
 21
-63.600000000000001
 31
0.0
  0
LINE
  5
504
100
AcDbEntity
  8
0
  6
CONTINUOUS
 62
               4
100
AcDbLine
 10
12.050000000000001
 20
-63.600000000000001
 30
0.0
 11
12.85
 21
-63.600000000000001
 31
0.0
  0
LINE
  5
505
100
AcDbEntity
  8
0
  6
CONTINUOUS
 62
               4
100
AcDbLine
 10
1.6000000000000001
 20
-52.25
 30
0.0
 11
1.6000000000000001
 21
-73.25
 31
0.0
  0
LINE
  5
506
100
AcDbEntity
  8
0
  6
CONTINUOUS
 62
               4
100
AcDbLine
 10
19.399999999999999
 20
-52.25
 30
0.0
 11
19.399999999999999
 21
-73.25
 31
0.0
  0
LINE
  5
507
100
AcDbEntity
  8
0
  6
CONTINUOUS
 62
               4
100
AcDbLine
 10
1.6000000000000001
 20
-52.25
 30
0.0
 11
19.399999999999999
 21
-52.25
 31
0.0
  0
LINE
  5
508
100
AcDbEntity
  8
0
  6
CONTINUOUS
 62
               4
100
AcDbLine
 10
1.6000000000000001
 20
-73.25
 30
0.0
 11
19.399999999999999
 21
-73.25
 31
0.0
  0
LINE
  5
509
100
AcDbEntity
  8
0
  6
CONTINUOUS
 62
               4
100
AcDbLine
 10
19.399999999999999
 20
-73.0
 30
0.0
 11
21.0
 21
-73.0
 31
0.0
  0
LINE
  5
50A
100
AcDbEntity
  8
0
  6
CONTINUOUS
 62
               4
100
AcDbLine
 10
2.0
 20
-50.0
 30
0.0
 11
19.0
 21
-50.0
 31
0.0
  0
LINE
  5
50B
100
AcDbEntity
  8
0
  6
CONTINUOUS
 62
               4
100
AcDbLine
 10
2.0
 20
9.0
 30
0.0
 11
19.0
 21
9.0
 31
0.0
  0
LINE
  5
50C
100
AcDbEntity
  8
0
  6
CONTINUOUS
 62
               4
100
AcDbLine
 10
19.0
 20
9.0
 30
0.0
 11
19.0
 21
-50.0
 31
0.0
  0
LINE
  5
50D
100
AcDbEntity
  8
0
  6
CONTINUOUS
 62
               4
100
AcDbLine
 10
2.0
 20
9.0
 30
0.0
 11
2.0
 21
-50.0
 31
0.0
  0
LINE
  5
50E
100
AcDbEntity
  8
0
  6
CONTINUOUS
 62
               4
100
AcDbLine
 10
4.9299999999999997
 20
-67.359999999999999
 30
0.0
 11
7.0599999999999996
 21
-65.230000000000004
 31
0.0
  0
LINE
  5
50F
100
AcDbEntity
  8
0
  6
CONTINUOUS
 62
               4
100
AcDbLine
 10
4.9299999999999997
 20
-65.230000000000004
 30
0.0
 11
7.0599999999999996
 21
-67.359999999999999
 31
0.0
  0
LINE
  5
510
100
AcDbEntity
  8
0
  6
CONTINUOUS
 62
               4
100
AcDbLine
 10
13.93
 20
-67.359999999999999
 30
0.0
 11
16.059999999999999
 21
-65.230000000000004
 31
0.0
  0
LINE
  5
511
100
AcDbEntity
  8
0
  6
CONTINUOUS
 62
               4
100
AcDbLine
 10
13.93
 20
-65.230000000000004
 30
0.0
 11
16.059999999999999
 21
-67.359999999999999
 31
0.0
  0
LINE
  5
512
100
AcDbEntity
  8
0
  6
CONTINUOUS
 62
               4
100
AcDbLine
 10
15.0
 20
6.0
 30
0.0
 11
15.0
 21
-47.0
 31
0.0
  0
LINE
  5
513
100
AcDbEntity
  8
0
  6
CONTINUOUS
 62
               4
100
AcDbLine
 10
6.0
 20
6.0
 30
0.0
 11
6.0
 21
-47.0
 31
0.0
  0
LINE
  5
514
100
AcDbEntity
  8
0
  6
CONTINUOUS
 62
               4
100
AcDbLine
 10
6.5
 20
-46.75
 30
0.0
 11
15.0
 21
-46.75
 31
0.0
  0
LINE
  5
515
100
AcDbEntity
  8
0
  6
CONTINUOUS
 62
               4
100
AcDbLine
 10
6.5
 20
5.75
 30
0.0
 11
15.0
 21
5.75
 31
0.0
  0
LINE
  5
516
100
AcDbEntity
  8
0
  6
CONTINUOUS
 62
               4
100
AcDbLine
 10
6.5
 20
5.75
 30
0.0
 11
6.5
 21
-46.75
 31
0.0
  0
LINE
  5
517
100
AcDbEntity
  8
0
  6
CONTINUOUS
 62
               4
100
AcDbLine
 10
8.75
 20
4.75
 30
0.0
 11
12.75
 21
4.75
 31
0.0
  0
LINE
  5
518
100
AcDbEntity
  8
0
  6
CONTINUOUS
 62
               4
100
AcDbLine
 10
8.75
 20
-45.75
 30
0.0
 11
12.75
 21
-45.75
 31
0.0
  0
LINE
  5
519
100
AcDbEntity
  8
0
  6
CONTINUOUS
 62
               4
100
AcDbLine
 10
6.5
 20
-1.25
 30
0.0
 11
8.75
 21
-1.25
 31
0.0
  0
LINE
  5
51A
100
AcDbEntity
  8
0
  6
CONTINUOUS
 62
               4
100
AcDbLine
 10
6.5
 20
-39.75
 30
0.0
 11
8.75
 21
-39.75
 31
0.0
  0
LINE
  5
51B
100
AcDbEntity
  8
0
  6
CONTINUOUS
 62
               4
100
AcDbLine
 10
8.75
 20
-36.75
 30
0.0
 11
12.75
 21
-36.75
 31
0.0
  0
LINE
  5
51C
100
AcDbEntity
  8
0
  6
CONTINUOUS
 62
               4
100
AcDbLine
 10
8.75
 20
-4.25
 30
0.0
 11
12.75
 21
-4.25
 31
0.0
  0
LINE
  5
51D
100
AcDbEntity
  8
0
  6
CONTINUOUS
 62
               4
100
AcDbLine
 10
12.75
 20
-1.25
 30
0.0
 11
15.0
 21
-1.25
 31
0.0
  0
LINE
  5
51E
100
AcDbEntity
  8
0
  6
CONTINUOUS
 62
               4
100
AcDbLine
 10
12.75
 20
-39.75
 30
0.0
 11
15.0
 21
-39.75
 31
0.0
  0
LINE
  5
51F
100
AcDbEntity
  8
0
  6
CONTINUOUS
 62
               4
100
AcDbLine
 10
7.5
 20
-1.25
 30
0.0
 11
7.5
 21
-39.75
 31
0.0
  0
LINE
  5
520
100
AcDbEntity
  8
0
  6
CONTINUOUS
 62
               4
100
AcDbLine
 10
14.0
 20
-1.25
 30
0.0
 11
14.0
 21
-18.5
 31
0.0
  0
LINE
  5
521
100
AcDbEntity
  8
0
  6
CONTINUOUS
 62
               4
100
AcDbLine
 10
6.5
 20
-0.25
 30
0.0
 11
8.75
 21
-0.25
 31
0.0
  0
LINE
  5
522
100
AcDbEntity
  8
0
  6
CONTINUOUS
 62
               4
100
AcDbLine
 10
12.75
 20
-0.25
 30
0.0
 11
15.0
 21
-0.25
 31
0.0
  0
LINE
  5
523
100
AcDbEntity
  8
0
  6
CONTINUOUS
 62
               4
100
AcDbLine
 10
12.75
 20
-40.75
 30
0.0
 11
15.0
 21
-40.75
 31
0.0
  0
LINE
  5
524
100
AcDbEntity
  8
0
  6
CONTINUOUS
 62
               4
100
AcDbLine
 10
6.5
 20
-40.75
 30
0.0
 11
8.75
 21
-40.75
 31
0.0
  0
LINE
  5
525
100
AcDbEntity
  8
0
  6
CONTINUOUS
 62
               4
100
AcDbLine
 10
12.75
 20
-36.75
 30
0.0
 11
12.75
 21
-46.75
 31
0.0
  0
LINE
  5
526
100
AcDbEntity
  8
0
  6
CONTINUOUS
 62
               4
100
AcDbLine
 10
8.75
 20
-36.75
 30
0.0
 11
8.75
 21
-46.75
 31
0.0
  0
LINE
  5
527
100
AcDbEntity
  8
0
  6
CONTINUOUS
 62
               4
100
AcDbLine
 10
8.75
 20
5.75
 30
0.0
 11
8.75
 21
-4.25
 31
0.0
  0
LINE
  5
528
100
AcDbEntity
  8
0
  6
CONTINUOUS
 62
               4
100
AcDbLine
 10
12.75
 20
5.75
 30
0.0
 11
12.75
 21
-4.25
 31
0.0
  0
LINE
  5
529
100
AcDbEntity
  8
0
  6
CONTINUOUS
 62
               4
100
AcDbLine
 10
6.5
 20
1.25
 30
0.0
 11
8.75
 21
1.25
 31
0.0
  0
LINE
  5
52A
100
AcDbEntity
  8
0
  6
CONTINUOUS
 62
               4
100
AcDbLine
 10
12.75
 20
1.25
 30
0.0
 11
15.0
 21
1.25
 31
0.0
  0
LINE
  5
52B
100
AcDbEntity
  8
0
  6
CONTINUOUS
 62
               4
100
AcDbLine
 10
6.5
 20
-42.25
 30
0.0
 11
8.75
 21
-42.25
 31
0.0
  0
LINE
  5
52C
100
AcDbEntity
  8
0
  6
CONTINUOUS
 62
               4
100
AcDbLine
 10
12.75
 20
-42.25
 30
0.0
 11
15.0
 21
-42.25
 31
0.0
  0
LINE
  5
52D
100
AcDbEntity
  8
0
  6
CONTINUOUS
 62
               4
100
AcDbLine
 10
6.5
 20
-43.5
 30
0.0
 11
8.75
 21
-43.5
 31
0.0
  0
LINE
  5
52E
100
AcDbEntity
  8
0
  6
CONTINUOUS
 62
               4
100
AcDbLine
 10
12.75
 20
-43.5
 30
0.0
 11
15.0
 21
-43.5
 31
0.0
  0
LINE
  5
52F
100
AcDbEntity
  8
0
  6
CONTINUOUS
 62
               4
100
AcDbLine
 10
6.5
 20
2.5
 30
0.0
 11
8.75
 21
2.5
 31
0.0
  0
LINE
  5
530
100
AcDbEntity
  8
0
  6
CONTINUOUS
 62
               4
100
AcDbLine
 10
12.75
 20
2.5
 30
0.0
 11
15.0
 21
2.5
 31
0.0
  0
LINE
  5
531
100
AcDbEntity
  8
0
  6
CONTINUOUS
 62
               4
100
AcDbLine
 10
13.0
 20
-18.5
 30
0.0
 11
15.0
 21
-18.5
 31
0.0
  0
LINE
  5
532
100
AcDbEntity
  8
0
  6
CONTINUOUS
 62
               4
100
AcDbLine
 10
13.0
 20
-22.5
 30
0.0
 11
15.0
 21
-22.5
 31
0.0
  0
LINE
  5
533
100
AcDbEntity
  8
0
  6
CONTINUOUS
 62
               4
100
AcDbLine
 10
13.0
 20
-18.5
 30
0.0
 11
13.0
 21
-22.5
 31
0.0
  0
LINE
  5
534
100
AcDbEntity
  8
0
  6
CONTINUOUS
 62
               4
100
AcDbLine
 10
14.0
 20
-22.5
 30
0.0
 11
14.0
 21
-39.75
 31
0.0
  0
LINE
  5
535
100
AcDbEntity
  8
0
  6
CONTINUOUS
 62
               4
100
AcDbLine
 10
8.75
 20
-3.25
 30
0.0
 11
12.75
 21
-3.25
 31
0.0
  0
LINE
  5
536
100
AcDbEntity
  8
0
  6
CONTINUOUS
 62
               4
100
AcDbLine
 10
8.75
 20
-37.75
 30
0.0
 11
12.75
 21
-37.75
 31
0.0
  0
LINE
  5
537
100
AcDbEntity
  8
0
  6
CONTINUOUS
 62
               4
100
AcDbLine
 10
8.75
 20
2.25
 30
0.0
 11
12.75
 21
2.25
 31
0.0
  0
LINE
  5
538
100
AcDbEntity
  8
0
  6
CONTINUOUS
 62
               4
100
AcDbLine
 10
8.75
 20
-43.25
 30
0.0
 11
12.75
 21
-43.25
 31
0.0
  0
LINE
  5
539
100
AcDbEntity
  8
0
  6
CONTINUOUS
 62
               4
100
AcDbLine
 10
8.75
 20
-42.450000000000003
 30
0.0
 11
12.75
 21
-42.450000000000003
 31
0.0
  0
LINE
  5
53A
100
AcDbEntity
  8
0
  6
CONTINUOUS
 62
               4
100
AcDbLine
 10
8.75
 20
1.45
 30
0.0
 11
12.75
 21
1.45
 31
0.0
  0
LINE
  5
53B
100
AcDbEntity
  8
0
  6
CONTINUOUS
 62
               4
100
AcDbLine
 10
8.75
 20
1.1499999999999999
 30
0.0
 11
12.75
 21
1.1499999999999999
 31
0.0
  0
LINE
  5
53C
100
AcDbEntity
  8
0
  6
CONTINUOUS
 62
               4
100
AcDbLine
 10
8.75
 20
0.85
 30
0.0
 11
12.75
 21
0.85
 31
0.0
  0
LINE
  5
53D
100
AcDbEntity
  8
0
  6
CONTINUOUS
 62
               4
100
AcDbLine
 10
8.75
 20
0.55
 30
0.0
 11
12.75
 21
0.55
 31
0.0
  0
LINE
  5
53E
100
AcDbEntity
  8
0
  6
CONTINUOUS
 62
               4
100
AcDbLine
 10
8.75
 20
0.25
 30
0.0
 11
12.75
 21
0.25
 31
0.0
  0
LINE
  5
53F
100
AcDbEntity
  8
0
  6
CONTINUOUS
 62
               4
100
AcDbLine
 10
8.75
 20
-0.05
 30
0.0
 11
12.75
 21
-0.05
 31
0.0
  0
LINE
  5
540
100
AcDbEntity
  8
0
  6
CONTINUOUS
 62
               4
100
AcDbLine
 10
8.75
 20
-0.35
 30
0.0
 11
12.75
 21
-0.35
 31
0.0
  0
LINE
  5
541
100
AcDbEntity
  8
0
  6
CONTINUOUS
 62
               4
100
AcDbLine
 10
8.75
 20
-0.65
 30
0.0
 11
12.75
 21
-0.65
 31
0.0
  0
LINE
  5
542
100
AcDbEntity
  8
0
  6
CONTINUOUS
 62
               4
100
AcDbLine
 10
8.75
 20
-42.149999999999999
 30
0.0
 11
12.75
 21
-42.149999999999999
 31
0.0
  0
LINE
  5
543
100
AcDbEntity
  8
0
  6
CONTINUOUS
 62
               4
100
AcDbLine
 10
8.75
 20
-41.850000000000001
 30
0.0
 11
12.75
 21
-41.850000000000001
 31
0.0
  0
LINE
  5
544
100
AcDbEntity
  8
0
  6
CONTINUOUS
 62
               4
100
AcDbLine
 10
8.75
 20
-41.549999999999997
 30
0.0
 11
12.75
 21
-41.549999999999997
 31
0.0
  0
LINE
  5
545
100
AcDbEntity
  8
0
  6
CONTINUOUS
 62
               4
100
AcDbLine
 10
8.75
 20
-41.25
 30
0.0
 11
12.75
 21
-41.25
 31
0.0
  0
LINE
  5
546
100
AcDbEntity
  8
0
  6
CONTINUOUS
 62
               4
100
AcDbLine
 10
8.75
 20
-40.950000000000003
 30
0.0
 11
12.75
 21
-40.950000000000003
 31
0.0
  0
LINE
  5
547
100
AcDbEntity
  8
0
  6
CONTINUOUS
 62
               4
100
AcDbLine
 10
8.75
 20
-40.649999999999999
 30
0.0
 11
12.75
 21
-40.649999999999999
 31
0.0
  0
LINE
  5
548
100
AcDbEntity
  8
0
  6
CONTINUOUS
 62
               4
100
AcDbLine
 10
8.75
 20
-40.350000000000001
 30
0.0
 11
12.75
 21
-40.350000000000001
 31
0.0
  0
LINE
  5
549
100
AcDbEntity
  8
0
  6
CONTINUOUS
 62
               4
100
AcDbLine
 10
6.0
 20
6.0
 30
0.0
 11
15.0
 21
6.0
 31
0.0
  0
LINE
  5
54A
100
AcDbEntity
  8
0
  6
CONTINUOUS
 62
               4
100
AcDbLine
 10
6.0
 20
-47.0
 30
0.0
 11
15.0
 21
-47.0
 31
0.0
  0
CIRCLE
  5
54B
100
AcDbEntity
  8
0
  6
CONTINUOUS
 62
               4
100
AcDbCircle
 10
10.5
 20
14.500015258789063
 30
0.0
 40
3.1999998092651367
  0
CIRCLE
  5
54C
100
AcDbEntity
  8
0
  6
CONTINUOUS
 62
               4
100
AcDbCircle
 10
16.0
 20
-56.499984741210937
 30
0.0
 40
1.5999994277954102
  0
CIRCLE
  5
54D
100
AcDbEntity
  8
0
  6
CONTINUOUS
 62
               4
100
AcDbCircle
 10
6.0
 20
-66.29998779296875
 30
0.0
 40
2.7999992370605469
  0
CIRCLE
  5
54E
100
AcDbEntity
  8
0
  6
CONTINUOUS
 62
               4
100
AcDbCircle
 10
15.0
 20
-66.29998779296875
 30
0.0
 40
2.7999992370605469
  0
CIRCLE
  5
54F
100
AcDbEntity
  8
0
  6
CONTINUOUS
 62
               4
100
AcDbCircle
 10
9.6999893188476563
 20
-35.739974975585938
 30
0.0
 40
0.3199996948242188
  0
CIRCLE
  5
550
100
AcDbEntity
  8
0
  6
CONTINUOUS
 62
               4
100
AcDbCircle
 10
12.239997863769531
 20
-35.739974975585938
 30
0.0
 40
0.3199996948242188
  0
CIRCLE
  5
551
100
AcDbEntity
  8
0
  6
CONTINUOUS
 62
               4
100
AcDbCircle
 10
9.6999893188476563
 20
-5.2599868774414062
 30
0.0
 40
0.3199996948242188
  0
CIRCLE
  5
552
100
AcDbEntity
  8
0
  6
CONTINUOUS
 62
               4
100
AcDbCircle
 10
12.239997863769531
 20
-5.2599868774414062
 30
0.0
 40
0.3199996948242188
  0
CIRCLE
  5
553
100
AcDbEntity
  8
0
  6
CONTINUOUS
 62
               4
100
AcDbCircle
 10
9.6999893188476563
 20
-7.79998779296875
 30
0.0
 40
0.3199996948242188
  0
CIRCLE
  5
554
100
AcDbEntity
  8
0
  6
CONTINUOUS
 62
               4
100
AcDbCircle
 10
12.239997863769531
 20
-7.79998779296875
 30
0.0
 40
0.3199996948242188
  0
CIRCLE
  5
555
100
AcDbEntity
  8
0
  6
CONTINUOUS
 62
               4
100
AcDbCircle
 10
9.6999893188476563
 20
-10.339988708496094
 30
0.0
 40
0.3199996948242188
  0
CIRCLE
  5
556
100
AcDbEntity
  8
0
  6
CONTINUOUS
 62
               4
100
AcDbCircle
 10
12.239997863769531
 20
-10.339988708496094
 30
0.0
 40
0.3199996948242188
  0
CIRCLE
  5
557
100
AcDbEntity
  8
0
  6
CONTINUOUS
 62
               4
100
AcDbCircle
 10
9.6999893188476563
 20
-12.879989624023438
 30
0.0
 40
0.3199996948242188
  0
CIRCLE
  5
558
100
AcDbEntity
  8
0
  6
CONTINUOUS
 62
               4
100
AcDbCircle
 10
12.239997863769531
 20
-12.879989624023438
 30
0.0
 40
0.3199996948242188
  0
CIRCLE
  5
559
100
AcDbEntity
  8
0
  6
CONTINUOUS
 62
               4
100
AcDbCircle
 10
9.6999893188476563
 20
-15.41998291015625
 30
0.0
 40
0.3199996948242188
  0
CIRCLE
  5
55A
100
AcDbEntity
  8
0
  6
CONTINUOUS
 62
               4
100
AcDbCircle
 10
12.239997863769531
 20
-15.41998291015625
 30
0.0
 40
0.3199996948242188
  0
CIRCLE
  5
55B
100
AcDbEntity
  8
0
  6
CONTINUOUS
 62
               4
100
AcDbCircle
 10
9.6999893188476563
 20
-17.959976196289063
 30
0.0
 40
0.3199996948242188
  0
CIRCLE
  5
55C
100
AcDbEntity
  8
0
  6
CONTINUOUS
 62
               4
100
AcDbCircle
 10
12.239997863769531
 20
-17.959976196289063
 30
0.0
 40
0.3199996948242188
  0
CIRCLE
  5
55D
100
AcDbEntity
  8
0
  6
CONTINUOUS
 62
               4
100
AcDbCircle
 10
9.6999893188476563
 20
-20.499969482421875
 30
0.0
 40
0.3199996948242188
  0
CIRCLE
  5
55E
100
AcDbEntity
  8
0
  6
CONTINUOUS
 62
               4
100
AcDbCircle
 10
12.239997863769531
 20
-20.499969482421875
 30
0.0
 40
0.3199996948242188
  0
CIRCLE
  5
55F
100
AcDbEntity
  8
0
  6
CONTINUOUS
 62
               4
100
AcDbCircle
 10
9.6999893188476563
 20
-23.03997802734375
 30
0.0
 40
0.3199996948242188
  0
CIRCLE
  5
560
100
AcDbEntity
  8
0
  6
CONTINUOUS
 62
               4
100
AcDbCircle
 10
12.239997863769531
 20
-23.03997802734375
 30
0.0
 40
0.3199996948242188
  0
CIRCLE
  5
561
100
AcDbEntity
  8
0
  6
CONTINUOUS
 62
               4
100
AcDbCircle
 10
9.6999893188476563
 20
-25.579971313476563
 30
0.0
 40
0.3199996948242188
  0
CIRCLE
  5
562
100
AcDbEntity
  8
0
  6
CONTINUOUS
 62
               4
100
AcDbCircle
 10
12.239997863769531
 20
-25.579971313476563
 30
0.0
 40
0.3199996948242188
  0
CIRCLE
  5
563
100
AcDbEntity
  8
0
  6
CONTINUOUS
 62
               4
100
AcDbCircle
 10
9.6999893188476563
 20
-28.119979858398438
 30
0.0
 40
0.3199996948242188
  0
CIRCLE
  5
564
100
AcDbEntity
  8
0
  6
CONTINUOUS
 62
               4
100
AcDbCircle
 10
12.239997863769531
 20
-28.119979858398438
 30
0.0
 40
0.3199996948242188
  0
CIRCLE
  5
565
100
AcDbEntity
  8
0
  6
CONTINUOUS
 62
               4
100
AcDbCircle
 10
9.6999893188476563
 20
-30.65997314453125
 30
0.0
 40
0.3199996948242188
  0
CIRCLE
  5
566
100
AcDbEntity
  8
0
  6
CONTINUOUS
 62
               4
100
AcDbCircle
 10
12.239997863769531
 20
-30.65997314453125
 30
0.0
 40
0.3199996948242188
  0
CIRCLE
  5
567
100
AcDbEntity
  8
0
  6
CONTINUOUS
 62
               4
100
AcDbCircle
 10
9.6999893188476563
 20
-33.199981689453125
 30
0.0
 40
0.3199996948242188
  0
CIRCLE
  5
568
100
AcDbEntity
  8
0
  6
CONTINUOUS
 62
               4
100
AcDbCircle
 10
12.239997863769531
 20
-33.199981689453125
 30
0.0
 40
0.3199996948242188
  0
ENDBLK
  5
569
100
AcDbEntity
  8
0
100
AcDbBlockEnd
  0
BLOCK
  5
56A
100
AcDbEntity
  8
0
100
AcDbBlockBegin
  2
F18_CONNECTER-15
 70
               0
 10
0.0
 20
0.0
 30
0.0
  3
F18_CONNECTER-15
  1

  0
LINE
  5
56B
100
AcDbEntity
  8
0
  6
CONTINUOUS
 62
               4
100
AcDbLine
 10
39.5
 20
-0.25
 30
0.0
 11
39.5
 21
-0.87
 31
0.0
  0
LINE
  5
56C
100
AcDbEntity
  8
0
  6
CONTINUOUS
 62
               4
100
AcDbLine
 10
31.0
 20
-46.75
 30
0.0
 11
42.759999999999998
 21
-42.25
 31
0.0
  0
LINE
  5
56D
100
AcDbEntity
  8
0
  6
CONTINUOUS
 62
               4
100
AcDbLine
 10
36.0
 20
-3.3799999999999999
 30
0.0
 11
36.0
 21
-37.609999999999999
 31
0.0
  0
LINE
  5
56E
100
AcDbEntity
  8
0
  6
CONTINUOUS
 62
               4
100
AcDbLine
 10
42.759999999999998
 20
1.25
 30
0.0
 11
31.0
 21
5.75
 31
0.0
  0
LINE
  5
56F
100
AcDbEntity
  8
0
  6
CONTINUOUS
 62
               4
100
AcDbLine
 10
37.079999999999998
 20
-1.9299999999999999
 30
0.0
 11
39.100000000000001
 21
-1.3600000000000001
 31
0.0
  0
LINE
  5
570
100
AcDbEntity
  8
0
  6
CONTINUOUS
 62
               4
100
AcDbLine
 10
37.079999999999998
 20
-39.060000000000002
 30
0.0
 11
39.130000000000003
 21
-39.640000000000001
 31
0.0
  0
LINE
  5
571
100
AcDbEntity
  8
0
  6
CONTINUOUS
 62
               4
100
AcDbLine
 10
39.5
 20
-40.119999999999997
 30
0.0
 11
39.5
 21
-40.75
 31
0.0
  0
LINE
  5
572
100
AcDbEntity
  8
0
  6
CONTINUOUS
 62
               4
100
AcDbLine
 10
39.0
 20
-42.640000000000001
 30
0.0
 11
39.0
 21
-43.0
 31
0.0
  0
LINE
  5
573
100
AcDbEntity
  8
0
  6
CONTINUOUS
 62
               4
100
AcDbLine
 10
39.0
 20
2.0
 30
0.0
 11
39.0
 21
1.6399999999999999
 31
0.0
  0
LINE
  5
574
100
AcDbEntity
  8
0
  6
CONTINUOUS
 62
               4
100
AcDbLine
 10
39.0
 20
-40.75
 30
0.0
 11
39.5
 21
-40.75
 31
0.0
  0
LINE
  5
575
100
AcDbEntity
  8
0
  6
CONTINUOUS
 62
               4
100
AcDbLine
 10
39.0
 20
-0.25
 30
0.0
 11
39.5
 21
-0.25
 31
0.0
  0
LINE
  5
576
100
AcDbEntity
  8
0
  6
CONTINUOUS
 62
               4
100
AcDbLine
 10
39.32
 20
-39.75
 30
0.0
 11
45.5
 21
-39.75
 31
0.0
  0
LINE
  5
577
100
AcDbEntity
  8
0
  6
CONTINUOUS
 62
               4
100
AcDbLine
 10
39.32
 20
-1.25
 30
0.0
 11
45.5
 21
-1.25
 31
0.0
  0
LINE
  5
578
100
AcDbEntity
  8
0
  6
CONTINUOUS
 62
               4
100
AcDbLine
 10
42.759999999999998
 20
-42.25
 30
0.0
 11
46.32
 21
-42.25
 31
0.0
  0
LINE
  5
579
100
AcDbEntity
  8
0
  6
CONTINUOUS
 62
               4
100
AcDbLine
 10
42.759999999999998
 20
1.25
 30
0.0
 11
46.32
 21
1.25
 31
0.0
  0
LINE
  5
57A
100
AcDbEntity
  8
0
  6
CONTINUOUS
 62
               4
100
AcDbLine
 10
40.0
 20
-39.75
 30
0.0
 11
40.0
 21
-43.299999999999997
 31
0.0
  0
LINE
  5
57B
100
AcDbEntity
  8
0
  6
CONTINUOUS
 62
               4
100
AcDbLine
 10
40.0
 20
2.2999999999999998
 30
0.0
 11
40.0
 21
-1.25
 31
0.0
  0
LINE
  5
57C
100
AcDbEntity
  8
0
  6
CONTINUOUS
 62
               4
100
AcDbLine
 10
45.5
 20
-1.25
 30
0.0
 11
45.5
 21
-2.25
 31
0.0
  0
LINE
  5
57D
100
AcDbEntity
  8
0
  6
CONTINUOUS
 62
               4
100
AcDbLine
 10
45.5
 20
-38.75
 30
0.0
 11
45.5
 21
-39.75
 31
0.0
  0
LINE
  5
57E
100
AcDbEntity
  8
0
  6
CONTINUOUS
 62
               4
100
AcDbLine
 10
45.5
 20
-3.25
 30
0.0
 11
45.689999999999998
 21
-3.25
 31
0.0
  0
LINE
  5
57F
100
AcDbEntity
  8
0
  6
CONTINUOUS
 62
               4
100
AcDbLine
 10
45.5
 20
-37.75
 30
0.0
 11
45.689999999999998
 21
-37.75
 31
0.0
  0
LINE
  5
580
100
AcDbEntity
  8
0
  6
CONTINUOUS
 62
               4
100
AcDbLine
 10
46.130000000000003
 20
-38.020000000000003
 30
0.0
 11
47.0
 21
-39.75
 31
0.0
  0
LINE
  5
581
100
AcDbEntity
  8
0
  6
CONTINUOUS
 62
               4
100
AcDbLine
 10
46.130000000000003
 20
-2.9700000000000002
 30
0.0
 11
47.0
 21
-1.25
 31
0.0
  0
LINE
  5
582
100
AcDbEntity
  8
0
  6
CONTINUOUS
 62
               4
100
AcDbLine
 10
47.0
 20
-1.25
 30
0.0
 11
47.5
 21
-0.65
 31
0.0
  0
LINE
  5
583
100
AcDbEntity
  8
0
  6
CONTINUOUS
 62
               4
100
AcDbLine
 10
47.0
 20
-39.75
 30
0.0
 11
47.5
 21
-40.350000000000001
 31
0.0
  0
LINE
  5
584
100
AcDbEntity
  8
0
  6
CONTINUOUS
 62
               4
100
AcDbLine
 10
46.32
 20
-42.25
 30
0.0
 11
49.0
 21
-43.219999999999999
 31
0.0
  0
LINE
  5
585
100
AcDbEntity
  8
0
  6
CONTINUOUS
 62
               4
100
AcDbLine
 10
46.32
 20
1.25
 30
0.0
 11
49.0
 21
2.2200000000000002
 31
0.0
  0
LINE
  5
586
100
AcDbEntity
  8
0
  6
CONTINUOUS
 62
               4
100
AcDbLine
 10
47.5
 20
-0.65
 30
0.0
 11
47.75
 21
-0.65
 31
0.0
  0
LINE
  5
587
100
AcDbEntity
  8
0
  6
CONTINUOUS
 62
               4
100
AcDbLine
 10
47.75
 20
-0.35
 30
0.0
 11
48.0
 21
-0.35
 31
0.0
  0
LINE
  5
588
100
AcDbEntity
  8
0
  6
CONTINUOUS
 62
               4
100
AcDbLine
 10
48.0
 20
-0.05
 30
0.0
 11
48.25
 21
-0.05
 31
0.0
  0
LINE
  5
589
100
AcDbEntity
  8
0
  6
CONTINUOUS
 62
               4
100
AcDbLine
 10
48.25
 20
0.25
 30
0.0
 11
48.5
 21
0.25
 31
0.0
  0
LINE
  5
58A
100
AcDbEntity
  8
0
  6
CONTINUOUS
 62
               4
100
AcDbLine
 10
48.5
 20
0.55
 30
0.0
 11
48.75
 21
0.55
 31
0.0
  0
LINE
  5
58B
100
AcDbEntity
  8
0
  6
CONTINUOUS
 62
               4
100
AcDbLine
 10
48.75
 20
0.85
 30
0.0
 11
49.0
 21
0.85
 31
0.0
  0
LINE
  5
58C
100
AcDbEntity
  8
0
  6
CONTINUOUS
 62
               4
100
AcDbLine
 10
49.0
 20
1.1499999999999999
 30
0.0
 11
49.25
 21
1.1499999999999999
 31
0.0
  0
LINE
  5
58D
100
AcDbEntity
  8
0
  6
CONTINUOUS
 62
               4
100
AcDbLine
 10
47.75
 20
-0.35
 30
0.0
 11
47.75
 21
-0.65
 31
0.0
  0
LINE
  5
58E
100
AcDbEntity
  8
0
  6
CONTINUOUS
 62
               4
100
AcDbLine
 10
48.0
 20
-0.05
 30
0.0
 11
48.0
 21
-0.35
 31
0.0
  0
LINE
  5
58F
100
AcDbEntity
  8
0
  6
CONTINUOUS
 62
               4
100
AcDbLine
 10
48.25
 20
0.25
 30
0.0
 11
48.25
 21
-0.05
 31
0.0
  0
LINE
  5
590
100
AcDbEntity
  8
0
  6
CONTINUOUS
 62
               4
100
AcDbLine
 10
48.5
 20
0.55
 30
0.0
 11
48.5
 21
0.25
 31
0.0
  0
LINE
  5
591
100
AcDbEntity
  8
0
  6
CONTINUOUS
 62
               4
100
AcDbLine
 10
48.75
 20
0.85
 30
0.0
 11
48.75
 21
0.55
 31
0.0
  0
LINE
  5
592
100
AcDbEntity
  8
0
  6
CONTINUOUS
 62
               4
100
AcDbLine
 10
49.0
 20
1.1499999999999999
 30
0.0
 11
49.0
 21
0.85
 31
0.0
  0
LINE
  5
593
100
AcDbEntity
  8
0
  6
CONTINUOUS
 62
               4
100
AcDbLine
 10
49.25
 20
1.45
 30
0.0
 11
49.409999999999997
 21
1.6399999999999999
 31
0.0
  0
LINE
  5
594
100
AcDbEntity
  8
0
  6
CONTINUOUS
 62
               4
100
AcDbLine
 10
49.25
 20
1.45
 30
0.0
 11
49.25
 21
1.1499999999999999
 31
0.0
  0
LINE
  5
595
100
AcDbEntity
  8
0
  6
CONTINUOUS
 62
               4
100
AcDbLine
 10
47.5
 20
-40.350000000000001
 30
0.0
 11
47.75
 21
-40.350000000000001
 31
0.0
  0
LINE
  5
596
100
AcDbEntity
  8
0
  6
CONTINUOUS
 62
               4
100
AcDbLine
 10
47.75
 20
-40.649999999999999
 30
0.0
 11
48.0
 21
-40.649999999999999
 31
0.0
  0
LINE
  5
597
100
AcDbEntity
  8
0
  6
CONTINUOUS
 62
               4
100
AcDbLine
 10
48.0
 20
-40.950000000000003
 30
0.0
 11
48.25
 21
-40.950000000000003
 31
0.0
  0
LINE
  5
598
100
AcDbEntity
  8
0
  6
CONTINUOUS
 62
               4
100
AcDbLine
 10
48.25
 20
-41.25
 30
0.0
 11
48.5
 21
-41.25
 31
0.0
  0
LINE
  5
599
100
AcDbEntity
  8
0
  6
CONTINUOUS
 62
               4
100
AcDbLine
 10
48.5
 20
-41.549999999999997
 30
0.0
 11
48.75
 21
-41.549999999999997
 31
0.0
  0
LINE
  5
59A
100
AcDbEntity
  8
0
  6
CONTINUOUS
 62
               4
100
AcDbLine
 10
48.75
 20
-41.850000000000001
 30
0.0
 11
49.0
 21
-41.850000000000001
 31
0.0
  0
LINE
  5
59B
100
AcDbEntity
  8
0
  6
CONTINUOUS
 62
               4
100
AcDbLine
 10
49.0
 20
-42.149999999999999
 30
0.0
 11
49.25
 21
-42.149999999999999
 31
0.0
  0
LINE
  5
59C
100
AcDbEntity
  8
0
  6
CONTINUOUS
 62
               4
100
AcDbLine
 10
49.25
 20
-42.149999999999999
 30
0.0
 11
49.25
 21
-42.450000000000003
 31
0.0
  0
LINE
  5
59D
100
AcDbEntity
  8
0
  6
CONTINUOUS
 62
               4
100
AcDbLine
 10
49.0
 20
-41.850000000000001
 30
0.0
 11
49.0
 21
-42.149999999999999
 31
0.0
  0
LINE
  5
59E
100
AcDbEntity
  8
0
  6
CONTINUOUS
 62
               4
100
AcDbLine
 10
48.75
 20
-41.549999999999997
 30
0.0
 11
48.75
 21
-41.850000000000001
 31
0.0
  0
LINE
  5
59F
100
AcDbEntity
  8
0
  6
CONTINUOUS
 62
               4
100
AcDbLine
 10
48.5
 20
-41.25
 30
0.0
 11
48.5
 21
-41.549999999999997
 31
0.0
  0
LINE
  5
5A0
100
AcDbEntity
  8
0
  6
CONTINUOUS
 62
               4
100
AcDbLine
 10
48.25
 20
-40.950000000000003
 30
0.0
 11
48.25
 21
-41.25
 31
0.0
  0
LINE
  5
5A1
100
AcDbEntity
  8
0
  6
CONTINUOUS
 62
               4
100
AcDbLine
 10
48.0
 20
-40.649999999999999
 30
0.0
 11
48.0
 21
-40.950000000000003
 31
0.0
  0
LINE
  5
5A2
100
AcDbEntity
  8
0
  6
CONTINUOUS
 62
               4
100
AcDbLine
 10
47.75
 20
-40.350000000000001
 30
0.0
 11
47.75
 21
-40.649999999999999
 31
0.0
  0
LINE
  5
5A3
100
AcDbEntity
  8
0
  6
CONTINUOUS
 62
               4
100
AcDbLine
 10
49.25
 20
-42.450000000000003
 30
0.0
 11
49.409999999999997
 21
-42.640000000000001
 31
0.0
  0
ARC
  5
5A4
100
AcDbEntity
  8
0
  6
CONTINUOUS
 62
               4
100
AcDbCircle
 10
37.505481369050017
 20
-3.3741171576372544
 30
0.0
 40
1.505492862949201
100
AcDbArc
 50
106.41659629703253
 51
180.22388873770578
  0
ARC
  5
5A5
100
AcDbEntity
  8
0
  6
CONTINUOUS
 62
               4
100
AcDbCircle
 10
37.500680534957141
 20
-37.619458636031922
 30
0.0
 40
1.5007103430691884
100
AcDbArc
 50
179.63887533977768
 51
253.72063962548245
  0
ARC
  5
5A6
100
AcDbEntity
  8
0
  6
CONTINUOUS
 62
               4
100
AcDbCircle
 10
39.002717256904155
 20
-0.869282052196959
 30
0.0
 40
0.4972832613611373
100
AcDbArc
 50
284.83025296786423
 51
359.91727975479591
  0
ARC
  5
5A7
100
AcDbEntity
  8
0
  6
CONTINUOUS
 62
               4
100
AcDbCircle
 10
38.997894548582615
 20
-40.124435452134229
 30
0.0
 40
0.5021250417761349
100
AcDbArc
 50
0.5061209288897324
 51
74.746346348448824
  0
ARC
  5
5A8
100
AcDbEntity
  8
0
  6
CONTINUOUS
 62
               4
100
AcDbCircle
 10
38.004542163485169
 20
1.9964004368444741
 30
0.0
 40
0.9954643444813565
100
AcDbArc
 50
0.2071799231042032
 51
69.694122900645752
  0
ARC
  5
5A9
100
AcDbEntity
  8
0
  6
CONTINUOUS
 62
               4
100
AcDbCircle
 10
38.004527968694518
 20
-42.996390515754243
 30
0.0
 40
0.9954785751024344
100
AcDbArc
 50
290.30644515980981
 51
359.79225201643931
  0
ARC
  5
5AA
100
AcDbEntity
  8
0
  6
CONTINUOUS
 62
               4
100
AcDbCircle
 10
39.000714330150267
 20
0.4966183909406149
 30
0.0
 40
0.7466187326596597
100
AcDbArc
 50
113.7513504277356
 51
269.94518204909218
  0
ARC
  5
5AB
100
AcDbEntity
  8
0
  6
CONTINUOUS
 62
               4
100
AcDbCircle
 10
39.000711249939499
 20
-41.496617744742558
 30
0.0
 40
0.7466180835212402
100
AcDbArc
 50
90.05458162181607
 51
246.24888590135433
  0
ARC
  5
5AC
100
AcDbEntity
  8
0
  6
CONTINUOUS
 62
               4
100
AcDbCircle
 10
38.49658748673501
 20
1.6404864216945576
 30
0.0
 40
0.5034127482671043
100
AcDbArc
 50
293.83267803541287
 51
359.94463804384213
  0
ARC
  5
5AD
100
AcDbEntity
  8
0
  6
CONTINUOUS
 62
               4
100
AcDbCircle
 10
38.496594578688743
 20
-42.640481796507338
 30
0.0
 40
0.5034056518687854
100
AcDbArc
 50
0.0548363145435369
 51
66.167847606199416
  0
ARC
  5
5AE
100
AcDbEntity
  8
0
  6
CONTINUOUS
 62
               4
100
AcDbCircle
 10
45.499992370663676
 20
-2.7499923706636764
 30
0.0
 40
0.4999923707218841
100
AcDbArc
 50
89.999125729116003
 51
180.0008742708834
  0
ARC
  5
5AF
100
AcDbEntity
  8
0
  6
CONTINUOUS
 62
               4
100
AcDbCircle
 10
45.5
 20
-38.25
 30
0.0
 40
0.5
100
AcDbArc
 50
179.99999999999963
 51
269.99999999999937
  0
ARC
  5
5B0
100
AcDbEntity
  8
0
  6
CONTINUOUS
 62
               4
100
AcDbCircle
 10
45.500007629452739
 20
-2.7499923705472611
 30
0.0
 40
0.5000076295109466
100
AcDbArc
 50
180.00087425754319
 51
269.99912574245582
  0
ARC
  5
5B1
100
AcDbEntity
  8
0
  6
CONTINUOUS
 62
               4
100
AcDbCircle
 10
45.5
 20
-38.25
 30
0.0
 40
0.5
100
AcDbArc
 50
89.999999999999815
 51
179.99999999999963
  0
ARC
  5
5B2
100
AcDbEntity
  8
0
  6
CONTINUOUS
 62
               4
100
AcDbCircle
 10
45.683771370820281
 20
-2.7544978684318715
 30
0.0
 40
0.4955412780082176
100
AcDbArc
 50
270.72018937201381
 51
334.22219520968167
  0
ARC
  5
5B3
100
AcDbEntity
  8
0
  6
CONTINUOUS
 62
               4
100
AcDbCircle
 10
45.687374605345525
 20
-38.247796939436924
 30
0.0
 40
0.4978038625903332
100
AcDbArc
 50
27.232592893946123
 51
89.697823295677011
  0
ARC
  5
5B4
100
AcDbEntity
  8
0
  6
CONTINUOUS
 62
               4
100
AcDbCircle
 10
49.134732012997155
 20
1.8803278022910945
 30
0.0
 40
0.3654174561000934
100
AcDbArc
 50
318.87681413795951
 51
111.63590328796477
  0
ARC
  5
5B5
100
AcDbEntity
  8
0
  6
CONTINUOUS
 62
               4
100
AcDbCircle
 10
49.134724841163901
 20
-42.880322732546901
 30
0.0
 40
0.3654195244524353
100
AcDbArc
 50
248.365435078232
 51
41.121847495842154
  0
ENDBLK
  5
5B6
100
AcDbEntity
  8
0
100
AcDbBlockEnd
  0
BLOCK
  5
5B7
100
AcDbEntity
  8
0
100
AcDbBlockBegin
  2
F18_CONNECTER-16
 70
               0
 10
0.0
 20
0.0
 30
0.0
  3
F18_CONNECTER-16
  1

  0
LINE
  5
5B8
100
AcDbEntity
  8
0
  6
CONTINUOUS
 62
               4
100
AcDbLine
 10
21.0
 20
31.0
 30
0.0
 11
21.0
 21
-22.0
 31
0.0
  0
LINE
  5
5B9
100
AcDbEntity
  8
0
  6
CONTINUOUS
 62
               4
100
AcDbLine
 10
0.0
 20
-22.0
 30
0.0
 11
21.0
 21
-22.0
 31
0.0
  0
LINE
  5
5BA
100
AcDbEntity
  8
0
  6
CONTINUOUS
 62
               4
100
AcDbLine
 10
0.0
 20
31.0
 30
0.0
 11
0.0
 21
-22.0
 31
0.0
  0
LINE
  5
5BB
100
AcDbEntity
  8
0
  6
CONTINUOUS
 62
               4
100
AcDbLine
 10
0.0
 20
21.0
 30
0.0
 11
21.0
 21
21.0
 31
0.0
  0
LINE
  5
5BC
100
AcDbEntity
  8
0
  6
CONTINUOUS
 62
               4
100
AcDbLine
 10
0.0
 20
31.0
 30
0.0
 11
21.0
 21
31.0
 31
0.0
  0
LINE
  5
5BD
100
AcDbEntity
  8
0
  6
CONTINUOUS
 62
               4
100
AcDbLine
 10
2.5
 20
22.5
 30
0.0
 11
18.5
 21
22.5
 31
0.0
  0
LINE
  5
5BE
100
AcDbEntity
  8
0
  6
CONTINUOUS
 62
               4
100
AcDbLine
 10
1.5
 20
31.0
 30
0.0
 11
1.5
 21
21.0
 31
0.0
  0
LINE
  5
5BF
100
AcDbEntity
  8
0
  6
CONTINUOUS
 62
               4
100
AcDbLine
 10
19.5
 20
31.0
 30
0.0
 11
19.5
 21
21.0
 31
0.0
  0
LINE
  5
5C0
100
AcDbEntity
  8
0
  6
CONTINUOUS
 62
               4
100
AcDbLine
 10
18.5
 20
29.5
 30
0.0
 11
18.5
 21
22.5
 31
0.0
  0
LINE
  5
5C1
100
AcDbEntity
  8
0
  6
CONTINUOUS
 62
               4
100
AcDbLine
 10
2.5
 20
29.5
 30
0.0
 11
2.5
 21
22.5
 31
0.0
  0
LINE
  5
5C2
100
AcDbEntity
  8
0
  6
CONTINUOUS
 62
               4
100
AcDbLine
 10
1.5
 20
29.5
 30
0.0
 11
19.5
 21
29.5
 31
0.0
  0
LINE
  5
5C3
100
AcDbEntity
  8
0
  6
CONTINUOUS
 62
               4
100
AcDbLine
 10
9.5
 20
29.5
 30
0.0
 11
9.5
 21
22.5
 31
0.0
  0
LINE
  5
5C4
100
AcDbEntity
  8
0
  6
CONTINUOUS
 62
               4
100
AcDbLine
 10
11.5
 20
29.5
 30
0.0
 11
11.5
 21
22.5
 31
0.0
  0
LINE
  5
5C5
100
AcDbEntity
  8
0
  6
CONTINUOUS
 62
               4
100
AcDbLine
 10
2.5
 20
28.5
 30
0.0
 11
9.5
 21
28.5
 31
0.0
  0
LINE
  5
5C6
100
AcDbEntity
  8
0
  6
CONTINUOUS
 62
               4
100
AcDbLine
 10
11.5
 20
28.5
 30
0.0
 11
18.5
 21
28.5
 31
0.0
  0
LINE
  5
5C7
100
AcDbEntity
  8
0
  6
CONTINUOUS
 62
               4
100
AcDbLine
 10
3.0499999999999998
 20
23.300000000000001
 30
0.0
 11
8.9499999999999993
 21
23.300000000000001
 31
0.0
  0
LINE
  5
5C8
100
AcDbEntity
  8
0
  6
CONTINUOUS
 62
               4
100
AcDbLine
 10
3.0499999999999998
 20
23.300000000000001
 30
0.0
 11
3.0499999999999998
 21
22.5
 31
0.0
  0
LINE
  5
5C9
100
AcDbEntity
  8
0
  6
CONTINUOUS
 62
               4
100
AcDbLine
 10
3.8500000000000001
 20
23.300000000000001
 30
0.0
 11
3.8500000000000001
 21
22.5
 31
0.0
  0
LINE
  5
5CA
100
AcDbEntity
  8
0
  6
CONTINUOUS
 62
               4
100
AcDbLine
 10
8.1500000000000004
 20
23.300000000000001
 30
0.0
 11
8.1500000000000004
 21
22.5
 31
0.0
  0
LINE
  5
5CB
100
AcDbEntity
  8
0
  6
CONTINUOUS
 62
               4
100
AcDbLine
 10
8.9499999999999993
 20
23.300000000000001
 30
0.0
 11
8.9499999999999993
 21
22.5
 31
0.0
  0
LINE
  5
5CC
100
AcDbEntity
  8
0
  6
CONTINUOUS
 62
               4
100
AcDbLine
 10
12.050000000000001
 20
23.300000000000001
 30
0.0
 11
12.050000000000001
 21
22.5
 31
0.0
  0
LINE
  5
5CD
100
AcDbEntity
  8
0
  6
CONTINUOUS
 62
               4
100
AcDbLine
 10
12.85
 20
23.300000000000001
 30
0.0
 11
12.85
 21
22.5
 31
0.0
  0
LINE
  5
5CE
100
AcDbEntity
  8
0
  6
CONTINUOUS
 62
               4
100
AcDbLine
 10
17.149999999999999
 20
23.300000000000001
 30
0.0
 11
17.149999999999999
 21
22.5
 31
0.0
  0
LINE
  5
5CF
100
AcDbEntity
  8
0
  6
CONTINUOUS
 62
               4
100
AcDbLine
 10
17.949999999999999
 20
23.300000000000001
 30
0.0
 11
17.949999999999999
 21
22.5
 31
0.0
  0
LINE
  5
5D0
100
AcDbEntity
  8
0
  6
CONTINUOUS
 62
               4
100
AcDbLine
 10
12.050000000000001
 20
23.300000000000001
 30
0.0
 11
17.949999999999999
 21
23.300000000000001
 31
0.0
  0
LINE
  5
5D1
100
AcDbEntity
  8
0
  6
CONTINUOUS
 62
               4
100
AcDbLine
 10
8.9499999999999993
 20
24.0
 30
0.0
 11
3.0499999999999998
 21
24.0
 31
0.0
  0
LINE
  5
5D2
100
AcDbEntity
  8
0
  6
CONTINUOUS
 62
               4
100
AcDbLine
 10
8.9499999999999993
 20
24.0
 30
0.0
 11
8.9499999999999993
 21
23.300000000000001
 31
0.0
  0
LINE
  5
5D3
100
AcDbEntity
  8
0
  6
CONTINUOUS
 62
               4
100
AcDbLine
 10
3.0499999999999998
 20
24.0
 30
0.0
 11
3.0499999999999998
 21
23.300000000000001
 31
0.0
  0
LINE
  5
5D4
100
AcDbEntity
  8
0
  6
CONTINUOUS
 62
               4
100
AcDbLine
 10
17.949999999999999
 20
24.0
 30
0.0
 11
12.050000000000001
 21
24.0
 31
0.0
  0
LINE
  5
5D5
100
AcDbEntity
  8
0
  6
CONTINUOUS
 62
               4
100
AcDbLine
 10
17.949999999999999
 20
24.0
 30
0.0
 11
17.949999999999999
 21
23.300000000000001
 31
0.0
  0
LINE
  5
5D6
100
AcDbEntity
  8
0
  6
CONTINUOUS
 62
               4
100
AcDbLine
 10
12.050000000000001
 20
24.0
 30
0.0
 11
12.050000000000001
 21
23.300000000000001
 31
0.0
  0
LINE
  5
5D7
100
AcDbEntity
  8
0
  6
CONTINUOUS
 62
               4
100
AcDbLine
 10
8.8000000000000007
 20
25.170000000000002
 30
0.0
 11
8.8000000000000007
 21
24.0
 31
0.0
  0
LINE
  5
5D8
100
AcDbEntity
  8
0
  6
CONTINUOUS
 62
               4
100
AcDbLine
 10
3.2000000000000002
 20
25.170000000000002
 30
0.0
 11
3.2000000000000002
 21
24.0
 31
0.0
  0
LINE
  5
5D9
100
AcDbEntity
  8
0
  6
CONTINUOUS
 62
               4
100
AcDbLine
 10
17.800000000000001
 20
25.170000000000002
 30
0.0
 11
17.800000000000001
 21
24.0
 31
0.0
  0
LINE
  5
5DA
100
AcDbEntity
  8
0
  6
CONTINUOUS
 62
               4
100
AcDbLine
 10
12.199999999999999
 20
25.170000000000002
 30
0.0
 11
12.199999999999999
 21
24.0
 31
0.0
  0
LINE
  5
5DB
100
AcDbEntity
  8
0
  6
CONTINUOUS
 62
               4
100
AcDbLine
 10
6.5
 20
40.0
 30
0.0
 11
6.5
 21
31.0
 31
0.0
  0
LINE
  5
5DC
100
AcDbEntity
  8
0
  6
CONTINUOUS
 62
               4
100
AcDbLine
 10
15.0
 20
40.0
 30
0.0
 11
15.0
 21
31.0
 31
0.0
  0
LINE
  5
5DD
100
AcDbEntity
  8
0
  6
CONTINUOUS
 62
               4
100
AcDbLine
 10
8.75
 20
49.5
 30
0.0
 11
8.75
 21
40.200000000000003
 31
0.0
  0
LINE
  5
5DE
100
AcDbEntity
  8
0
  6
CONTINUOUS
 62
               4
100
AcDbLine
 10
12.75
 20
49.5
 30
0.0
 11
12.75
 21
40.200000000000003
 31
0.0
  0
LINE
  5
5DF
100
AcDbEntity
  8
0
  6
CONTINUOUS
 62
               4
100
AcDbLine
 10
6.5
 20
40.0
 30
0.0
 11
9.25
 21
40.0
 31
0.0
  0
LINE
  5
5E0
100
AcDbEntity
  8
0
  6
CONTINUOUS
 62
               4
100
AcDbLine
 10
9.25
 20
40.200000000000003
 30
0.0
 11
9.25
 21
31.0
 31
0.0
  0
LINE
  5
5E1
100
AcDbEntity
  8
0
  6
CONTINUOUS
 62
               4
100
AcDbLine
 10
12.25
 20
40.200000000000003
 30
0.0
 11
12.25
 21
31.0
 31
0.0
  0
LINE
  5
5E2
100
AcDbEntity
  8
0
  6
CONTINUOUS
 62
               4
100
AcDbLine
 10
12.25
 20
40.0
 30
0.0
 11
15.0
 21
40.0
 31
0.0
  0
LINE
  5
5E3
100
AcDbEntity
  8
0
  6
CONTINUOUS
 62
               4
100
AcDbLine
 10
12.25
 20
40.200000000000003
 30
0.0
 11
12.75
 21
40.200000000000003
 31
0.0
  0
LINE
  5
5E4
100
AcDbEntity
  8
0
  6
CONTINUOUS
 62
               4
100
AcDbLine
 10
8.75
 20
40.200000000000003
 30
0.0
 11
9.25
 21
40.200000000000003
 31
0.0
  0
LINE
  5
5E5
100
AcDbEntity
  8
0
  6
CONTINUOUS
 62
               4
100
AcDbLine
 10
8.75
 20
46.5
 30
0.0
 11
12.75
 21
46.5
 31
0.0
  0
LINE
  5
5E6
100
AcDbEntity
  8
0
  6
CONTINUOUS
 62
               4
100
AcDbLine
 10
8.75
 20
49.5
 30
0.0
 11
12.75
 21
49.5
 31
0.0
  0
LINE
  5
5E7
100
AcDbEntity
  8
0
  6
CONTINUOUS
 62
               4
100
AcDbLine
 10
9.25
 20
31.5
 30
0.0
 11
12.25
 21
31.5
 31
0.0
  0
LINE
  5
5E8
100
AcDbEntity
  8
0
  6
CONTINUOUS
 62
               4
100
AcDbLine
 10
6.5
 20
39.5
 30
0.0
 11
9.25
 21
39.5
 31
0.0
  0
LINE
  5
5E9
100
AcDbEntity
  8
0
  6
CONTINUOUS
 62
               4
100
AcDbLine
 10
12.25
 20
39.5
 30
0.0
 11
15.0
 21
39.5
 31
0.0
  0
LINE
  5
5EA
100
AcDbEntity
  8
0
  6
CONTINUOUS
 62
               4
100
AcDbLine
 10
8.75
 20
42.799999999999997
 30
0.0
 11
12.75
 21
42.799999999999997
 31
0.0
  0
ARC
  5
5EB
100
AcDbEntity
  8
0
  6
CONTINUOUS
 62
               4
100
AcDbCircle
 10
5.9950000000000001
 20
21.400006980160171
 30
0.0
 40
4.9998664254813097
100
AcDbArc
 50
60.461178304918043
 51
119.53882169508157
  0
ARC
  5
5EC
100
AcDbEntity
  8
0
  6
CONTINUOUS
 62
               4
100
AcDbCircle
 10
8.134627656357754
 20
25.169609315795924
 30
0.0
 40
0.6653724583405332
100
AcDbArc
 50
0.0336421458714143
 51
60.724609876865323
  0
ARC
  5
5ED
100
AcDbEntity
  8
0
  6
CONTINUOUS
 62
               4
100
AcDbCircle
 10
3.8678490002748012
 20
25.173896258464339
 30
0.0
 40
0.667860365643951
100
AcDbArc
 50
120.38897048789522
 51
180.33426213580151
  0
ARC
  5
5EE
100
AcDbEntity
  8
0
  6
CONTINUOUS
 62
               4
100
AcDbCircle
 10
14.995000000000001
 20
21.400006980160171
 30
0.0
 40
4.9998664254813097
100
AcDbArc
 50
60.46117830491805
 51
119.53882169508159
  0
ARC
  5
5EF
100
AcDbEntity
  8
0
  6
CONTINUOUS
 62
               4
100
AcDbCircle
 10
17.134627656357754
 20
25.169609315795924
 30
0.0
 40
0.6653724583405332
100
AcDbArc
 50
0.0336421458714143
 51
60.724609876865323
  0
ARC
  5
5F0
100
AcDbEntity
  8
0
  6
CONTINUOUS
 62
               4
100
AcDbCircle
 10
12.8678490002748
 20
25.173896258464335
 30
0.0
 40
0.6678603656439516
100
AcDbArc
 50
120.38897048789502
 51
180.3342621358012
  0
ENDBLK
  5
5F1
100
AcDbEntity
  8
0
100
AcDbBlockEnd
  0
ENDSEC
  0
SECTION
  2
ENTITIES
  0
INSERT
  5
5F2
100
AcDbEntity
  8
0
  6
ByBlock
100
AcDbBlockReference
  2
F18_CONNECTER-1
 10
-233.8382568359375
 20
166.43173217773437
 30
0.0
  0
INSERT
  5
5F3
100
AcDbEntity
  8
0
  6
ByBlock
100
AcDbBlockReference
  2
F18_CONNECTER-9
 10
-329.838134765625
 20
166.43173217773437
 30
0.0
  0
INSERT
  5
5F4
100
AcDbEntity
  8
0
  6
ByBlock
100
AcDbBlockReference
  2
F18_CONNECTER-10
 10
-233.8382568359375
 20
29.4317626953125
 30
0.0
  0
INSERT
  5
5F5
100
AcDbEntity
  8
0
  6
ByBlock
100
AcDbBlockReference
  2
F18_CONNECTER-11
 10
32.511749267578125
 20
166.43174743652344
 30
0.0
  0
INSERT
  5
5F6
100
AcDbEntity
  8
0
  6
ByBlock
100
AcDbBlockReference
  2
F18_CONNECTER-12
 10
-63.488250732421875
 20
166.43174743652344
 30
0.0
  0
INSERT
  5
5F7
100
AcDbEntity
  8
0
  6
ByBlock
100
AcDbBlockReference
  2
F18_CONNECTER-13
 10
32.511749267578125
 20
29.4317626953125
 30
0.0
  0
INSERT
  5
5F8
100
AcDbEntity
  8
0
  6
ByBlock
100
AcDbBlockReference
  2
F18_CONNECTER-14
 10
298.861572265625
 20
166.43174743652344
 30
0.0
  0
INSERT
  5
5F9
100
AcDbEntity
  8
0
  6
ByBlock
100
AcDbBlockReference
  2
F18_CONNECTER-15
 10
202.86175537109375
 20
166.43174743652344
 30
0.0
  0
INSERT
  5
5FA
100
AcDbEntity
  8
0
  6
ByBlock
100
AcDbBlockReference
  2
F18_CONNECTER-16
 10
298.861572265625
 20
29.4317626953125
 30
0.0
  0
INSERT
  5
5FB
100
AcDbEntity
  8
0
  6
ByBlock
100
AcDbBlockReference
  2
F18_CONNECTER-2
 10
-173.8382568359375
 20
-85.068252563476562
 30
0.0
  0
INSERT
  5
5FC
100
AcDbEntity
  8
0
  6
ByBlock
100
AcDbBlockReference
  2
F18_CONNECTER-3
 10
-269.838134765625
 20
-85.068252563476562
 30
0.0
  0
INSERT
  5
5FD
100
AcDbEntity
  8
0
  6
ByBlock
100
AcDbBlockReference
  2
F18_CONNECTER-4
 10
-173.8382568359375
 20
-222.0682373046875
 30
0.0
  0
INSERT
  5
5FE
100
AcDbEntity
  8
0
  6
ByBlock
100
AcDbBlockReference
  2
F18_CONNECTER-5
 10
235.68673706054687
 20
-85.068252563476562
 30
0.0
  0
INSERT
  5
5FF
100
AcDbEntity
  8
0
  6
ByBlock
100
AcDbBlockReference
  2
F18_CONNECTER-6
 10
129.68673706054687
 20
-85.068252563476562
 30
0.0
  0
INSERT
  5
600
100
AcDbEntity
  8
0
  6
ByBlock
100
AcDbBlockReference
  2
F18_CONNECTER-7
 10
235.68673706054687
 20
-222.0682373046875
 30
0.0
  0
LINE
  5
601
100
AcDbEntity
  8
0
  6
CONTINUOUS
 62
               7
100
AcDbLine
 10
399.80000000000001
 20
276.25
 30
0.0
 11
399.80000000000001
 21
-276.75
 31
0.0
  0
LINE
  5
602
100
AcDbEntity
  8
0
  6
CONTINUOUS
 62
               7
100
AcDbLine
 10
-399.25
 20
276.25
 30
0.0
 11
-399.25
 21
-276.75
 31
0.0
  0
LINE
  5
603
100
AcDbEntity
  8
0
  6
CONTINUOUS
 62
               7
100
AcDbLine
 10
-399.25
 20
276.25
 30
0.0
 11
399.80000000000001
 21
276.25
 31
0.0
  0
LINE
  5
604
100
AcDbEntity
  8
0
  6
CONTINUOUS
 62
               7
100
AcDbLine
 10
-399.25
 20
-276.75
 30
0.0
 11
399.80000000000001
 21
-276.75
 31
0.0
  0
LINE
  5
605
100
AcDbEntity
  8
0
  6
CONTINUOUS
 62
               7
100
AcDbLine
 10
239.80000000000001
 20
-251.75
 30
0.0
 11
399.80000000000001
 21
-251.75
 31
0.0
  0
LINE
  5
606
100
AcDbEntity
  8
0
  6
CONTINUOUS
 62
               7
100
AcDbLine
 10
239.80000000000001
 20
251.25
 30
0.0
 11
399.80000000000001
 21
251.25
 31
0.0
  0
LINE
  5
607
100
AcDbEntity
  8
0
  6
CONTINUOUS
 62
               7
100
AcDbLine
 10
-399.25
 20
251.25
 30
0.0
 11
-239.25
 21
251.25
 31
0.0
  0
LINE
  5
608
100
AcDbEntity
  8
0
  6
CONTINUOUS
 62
               7
100
AcDbLine
 10
239.80000000000001
 20
-251.75
 30
0.0
 11
239.80000000000001
 21
-276.75
 31
0.0
  0
LINE
  5
609
100
AcDbEntity
  8
0
  6
CONTINUOUS
 62
               7
100
AcDbLine
 10
239.80000000000001
 20
251.25
 30
0.0
 11
239.80000000000001
 21
276.25
 31
0.0
  0
LINE
  5
60A
100
AcDbEntity
  8
0
  6
CONTINUOUS
 62
               7
100
AcDbLine
 10
-239.25
 20
276.25
 30
0.0
 11
-239.25
 21
251.25
 31
0.0
  0
LINE
  5
60C
100
AcDbEntity
  8
0
  6
DASHED
 62
               2
100
AcDbLine
 10
-351.82999999999998
 20
216.43000000000001
 30
0.0
 11
-298.82999999999998
 21
216.43000000000001
 31
0.0
  0
LINE
  5
60D
100
AcDbEntity
  8
0
  6
DASHED
 62
               2
100
AcDbLine
 10
-351.82999999999998
 20
183.43000000000001
 30
0.0
 11
-351.82999999999998
 21
216.43000000000001
 31
0.0
  0
LINE
  5
60E
100
AcDbEntity
  8
0
  6
DASHED
 62
               2
100
AcDbLine
 10
-352.82999999999998
 20
183.43000000000001
 30
0.0
 11
-351.82999999999998
 21
183.43000000000001
 31
0.0
  0
LINE
  5
60F
100
AcDbEntity
  8
0
  6
DASHED
 62
               2
100
AcDbLine
 10
-352.82999999999998
 20
157.93000000000001
 30
0.0
 11
-352.82999999999998
 21
183.43000000000001
 31
0.0
  0
LINE
  5
610
100
AcDbEntity
  8
0
  6
DASHED
 62
               2
100
AcDbLine
 10
-352.82999999999998
 20
157.93000000000001
 30
0.0
 11
-349.82999999999998
 21
157.93000000000001
 31
0.0
  0
LINE
  5
611
100
AcDbEntity
  8
0
  6
DASHED
 62
               2
100
AcDbLine
 10
-349.82999999999998
 20
121.93000000000001
 30
0.0
 11
-349.82999999999998
 21
157.93000000000001
 31
0.0
  0
LINE
  5
612
100
AcDbEntity
  8
0
  6
DASHED
 62
               2
100
AcDbLine
 10
-352.82999999999998
 20
121.93000000000001
 30
0.0
 11
-349.82999999999998
 21
121.93000000000001
 31
0.0
  0
LINE
  5
613
100
AcDbEntity
  8
0
  6
DASHED
 62
               2
100
AcDbLine
 10
-352.82999999999998
 20
93.430000000000007
 30
0.0
 11
-352.82999999999998
 21
121.93000000000001
 31
0.0
  0
LINE
  5
614
100
AcDbEntity
  8
0
  6
DASHED
 62
               2
100
AcDbLine
 10
-352.82999999999998
 20
93.430000000000007
 30
0.0
 11
-298.82999999999998
 21
93.430000000000007
 31
0.0
  0
LINE
  5
615
100
AcDbEntity
  8
0
  6
DASHED
 62
               2
100
AcDbLine
 10
-298.82999999999998
 20
93.430000000000007
 30
0.0
 11
-298.82999999999998
 21
216.43000000000001
 31
0.0
  0
LINE
  5
616
100
AcDbEntity
  8
0
  6
DASHED
 62
               2
100
AcDbLine
 10
-85.480000000000004
 20
216.43000000000001
 30
0.0
 11
-32.479999999999997
 21
216.43000000000001
 31
0.0
  0
LINE
  5
617
100
AcDbEntity
  8
0
  6
DASHED
 62
               2
100
AcDbLine
 10
-85.480000000000004
 20
183.43000000000001
 30
0.0
 11
-85.480000000000004
 21
216.43000000000001
 31
0.0
  0
LINE
  5
618
100
AcDbEntity
  8
0
  6
DASHED
 62
               2
100
AcDbLine
 10
-86.480000000000004
 20
183.43000000000001
 30
0.0
 11
-85.480000000000004
 21
183.43000000000001
 31
0.0
  0
LINE
  5
619
100
AcDbEntity
  8
0
  6
DASHED
 62
               2
100
AcDbLine
 10
-86.480000000000004
 20
157.93000000000001
 30
0.0
 11
-86.480000000000004
 21
183.43000000000001
 31
0.0
  0
LINE
  5
61A
100
AcDbEntity
  8
0
  6
DASHED
 62
               2
100
AcDbLine
 10
-86.480000000000004
 20
157.93000000000001
 30
0.0
 11
-83.480000000000004
 21
157.93000000000001
 31
0.0
  0
LINE
  5
61B
100
AcDbEntity
  8
0
  6
DASHED
 62
               2
100
AcDbLine
 10
-83.480000000000004
 20
121.93000000000001
 30
0.0
 11
-83.480000000000004
 21
157.93000000000001
 31
0.0
  0
LINE
  5
61C
100
AcDbEntity
  8
0
  6
DASHED
 62
               2
100
AcDbLine
 10
-86.480000000000004
 20
121.93000000000001
 30
0.0
 11
-83.480000000000004
 21
121.93000000000001
 31
0.0
  0
LINE
  5
61D
100
AcDbEntity
  8
0
  6
DASHED
 62
               2
100
AcDbLine
 10
-86.480000000000004
 20
93.430000000000007
 30
0.0
 11
-86.480000000000004
 21
121.93000000000001
 31
0.0
  0
LINE
  5
61E
100
AcDbEntity
  8
0
  6
DASHED
 62
               2
100
AcDbLine
 10
-86.480000000000004
 20
93.430000000000007
 30
0.0
 11
-32.479999999999997
 21
93.430000000000007
 31
0.0
  0
LINE
  5
61F
100
AcDbEntity
  8
0
  6
DASHED
 62
               2
100
AcDbLine
 10
-32.479999999999997
 20
93.430000000000007
 30
0.0
 11
-32.479999999999997
 21
216.43000000000001
 31
0.0
  0
LINE
  5
620
100
AcDbEntity
  8
0
  6
DASHED
 62
               2
100
AcDbLine
 10
180.86000000000001
 20
216.43000000000001
 30
0.0
 11
233.86000000000001
 21
216.43000000000001
 31
0.0
  0
LINE
  5
621
100
AcDbEntity
  8
0
  6
DASHED
 62
               2
100
AcDbLine
 10
180.86000000000001
 20
183.43000000000001
 30
0.0
 11
180.86000000000001
 21
216.43000000000001
 31
0.0
  0
LINE
  5
622
100
AcDbEntity
  8
0
  6
DASHED
 62
               2
100
AcDbLine
 10
179.86000000000001
 20
183.43000000000001
 30
0.0
 11
180.86000000000001
 21
183.43000000000001
 31
0.0
  0
LINE
  5
623
100
AcDbEntity
  8
0
  6
DASHED
 62
               2
100
AcDbLine
 10
179.86000000000001
 20
157.93000000000001
 30
0.0
 11
179.86000000000001
 21
183.43000000000001
 31
0.0
  0
LINE
  5
624
100
AcDbEntity
  8
0
  6
DASHED
 62
               2
100
AcDbLine
 10
179.86000000000001
 20
157.93000000000001
 30
0.0
 11
182.86000000000001
 21
157.93000000000001
 31
0.0
  0
LINE
  5
625
100
AcDbEntity
  8
0
  6
DASHED
 62
               2
100
AcDbLine
 10
182.86000000000001
 20
121.93000000000001
 30
0.0
 11
182.86000000000001
 21
157.93000000000001
 31
0.0
  0
LINE
  5
626
100
AcDbEntity
  8
0
  6
DASHED
 62
               2
100
AcDbLine
 10
179.86000000000001
 20
121.93000000000001
 30
0.0
 11
182.86000000000001
 21
121.93000000000001
 31
0.0
  0
LINE
  5
627
100
AcDbEntity
  8
0
  6
DASHED
 62
               2
100
AcDbLine
 10
179.86000000000001
 20
93.430000000000007
 30
0.0
 11
179.86000000000001
 21
121.93000000000001
 31
0.0
  0
LINE
  5
628
100
AcDbEntity
  8
0
  6
DASHED
 62
               2
100
AcDbLine
 10
179.86000000000001
 20
93.430000000000007
 30
0.0
 11
233.86000000000001
 21
93.430000000000007
 31
0.0
  0
LINE
  5
629
100
AcDbEntity
  8
0
  6
DASHED
 62
               2
100
AcDbLine
 10
233.86000000000001
 20
93.430000000000007
 30
0.0
 11
233.86000000000001
 21
216.43000000000001
 31
0.0
  0
LINE
  5
62A
100
AcDbEntity
  8
0
  6
DASHED
 62
               2
100
AcDbLine
 10
-291.82999999999998
 20
-35.060000000000002
 30
0.0
 11
-238.83000000000001
 21
-35.060000000000002
 31
0.0
  0
LINE
  5
62B
100
AcDbEntity
  8
0
  6
DASHED
 62
               2
100
AcDbLine
 10
-291.82999999999998
 20
-68.060000000000002
 30
0.0
 11
-291.82999999999998
 21
-35.060000000000002
 31
0.0
  0
LINE
  5
62C
100
AcDbEntity
  8
0
  6
DASHED
 62
               2
100
AcDbLine
 10
-292.82999999999998
 20
-68.060000000000002
 30
0.0
 11
-291.82999999999998
 21
-68.060000000000002
 31
0.0
  0
LINE
  5
62D
100
AcDbEntity
  8
0
  6
DASHED
 62
               2
100
AcDbLine
 10
-292.82999999999998
 20
-93.560000000000002
 30
0.0
 11
-292.82999999999998
 21
-68.060000000000002
 31
0.0
  0
LINE
  5
62E
100
AcDbEntity
  8
0
  6
DASHED
 62
               2
100
AcDbLine
 10
-292.82999999999998
 20
-93.560000000000002
 30
0.0
 11
-289.82999999999998
 21
-93.560000000000002
 31
0.0
  0
LINE
  5
62F
100
AcDbEntity
  8
0
  6
DASHED
 62
               2
100
AcDbLine
 10
-289.82999999999998
 20
-129.56
 30
0.0
 11
-289.82999999999998
 21
-93.560000000000002
 31
0.0
  0
LINE
  5
630
100
AcDbEntity
  8
0
  6
DASHED
 62
               2
100
AcDbLine
 10
-292.82999999999998
 20
-129.56
 30
0.0
 11
-289.82999999999998
 21
-129.56
 31
0.0
  0
LINE
  5
631
100
AcDbEntity
  8
0
  6
DASHED
 62
               2
100
AcDbLine
 10
-292.82999999999998
 20
-158.06
 30
0.0
 11
-292.82999999999998
 21
-129.56
 31
0.0
  0
LINE
  5
632
100
AcDbEntity
  8
0
  6
DASHED
 62
               2
100
AcDbLine
 10
-292.82999999999998
 20
-158.06
 30
0.0
 11
-238.83000000000001
 21
-158.06
 31
0.0
  0
LINE
  5
633
100
AcDbEntity
  8
0
  6
DASHED
 62
               2
100
AcDbLine
 10
-238.83000000000001
 20
-158.06
 30
0.0
 11
-238.83000000000001
 21
-35.060000000000002
 31
0.0
  0
LINE
  5
634
100
AcDbEntity
  8
0
  6
DASHED
 62
               2
100
AcDbLine
 10
107.68000000000001
 20
-35.060000000000002
 30
0.0
 11
160.68000000000001
 21
-35.060000000000002
 31
0.0
  0
LINE
  5
635
100
AcDbEntity
  8
0
  6
DASHED
 62
               2
100
AcDbLine
 10
107.68000000000001
 20
-68.060000000000002
 30
0.0
 11
107.68000000000001
 21
-35.060000000000002
 31
0.0
  0
LINE
  5
636
100
AcDbEntity
  8
0
  6
DASHED
 62
               2
100
AcDbLine
 10
106.68000000000001
 20
-68.060000000000002
 30
0.0
 11
107.68000000000001
 21
-68.060000000000002
 31
0.0
  0
LINE
  5
637
100
AcDbEntity
  8
0
  6
DASHED
 62
               2
100
AcDbLine
 10
106.68000000000001
 20
-93.560000000000002
 30
0.0
 11
106.68000000000001
 21
-68.060000000000002
 31
0.0
  0
LINE
  5
638
100
AcDbEntity
  8
0
  6
DASHED
 62
               2
100
AcDbLine
 10
106.68000000000001
 20
-93.560000000000002
 30
0.0
 11
109.68000000000001
 21
-93.560000000000002
 31
0.0
  0
LINE
  5
639
100
AcDbEntity
  8
0
  6
DASHED
 62
               2
100
AcDbLine
 10
109.68000000000001
 20
-129.56
 30
0.0
 11
109.68000000000001
 21
-93.560000000000002
 31
0.0
  0
LINE
  5
63A
100
AcDbEntity
  8
0
  6
DASHED
 62
               2
100
AcDbLine
 10
106.68000000000001
 20
-129.56
 30
0.0
 11
109.68000000000001
 21
-129.56
 31
0.0
  0
LINE
  5
63B
100
AcDbEntity
  8
0
  6
DASHED
 62
               2
100
AcDbLine
 10
106.68000000000001
 20
-158.06
 30
0.0
 11
106.68000000000001
 21
-129.56
 31
0.0
  0
LINE
  5
63C
100
AcDbEntity
  8
0
  6
DASHED
 62
               2
100
AcDbLine
 10
106.68000000000001
 20
-158.06
 30
0.0
 11
160.68000000000001
 21
-158.06
 31
0.0
  0
LINE
  5
63D
100
AcDbEntity
  8
0
  6
DASHED
 62
               2
100
AcDbLine
 10
160.68000000000001
 20
-158.06
 30
0.0
 11
160.68000000000001
 21
-35.060000000000002
 31
0.0
  0
LINE
  5
63E
100
AcDbEntity
  8
0
  6
DASHED
 62
               2
100
AcDbLine
 10
-335.82999999999998
 20
102.43000000000001
 30
0.0
 11
-335.82999999999998
 21
114.43000000000001
 31
0.0
  0
LINE
  5
63F
100
AcDbEntity
  8
0
  6
DASHED
 62
               2
100
AcDbLine
 10
-341.82999999999998
 20
108.43000000000001
 30
0.0
 11
-329.82999999999998
 21
108.43000000000001
 31
0.0
  0
LINE
  5
640
100
AcDbEntity
  8
0
  6
DASHED
 62
               2
100
AcDbLine
 10
-329.82999999999998
 20
160.43000000000001
 30
0.0
 11
-329.82999999999998
 21
172.43000000000001
 31
0.0
  0
LINE
  5
641
100
AcDbEntity
  8
0
  6
DASHED
 62
               2
100
AcDbLine
 10
-335.82999999999998
 20
166.43000000000001
 30
0.0
 11
-323.82999999999998
 21
166.43000000000001
 31
0.0
  0
LINE
  5
642
100
AcDbEntity
  8
0
  6
DASHED
 62
               2
100
AcDbLine
 10
-69.480000000000004
 20
102.43000000000001
 30
0.0
 11
-69.480000000000004
 21
114.43000000000001
 31
0.0
  0
LINE
  5
643
100
AcDbEntity
  8
0
  6
DASHED
 62
               2
100
AcDbLine
 10
-75.480000000000004
 20
108.43000000000001
 30
0.0
 11
-63.479999999999997
 21
108.43000000000001
 31
0.0
  0
LINE
  5
644
100
AcDbEntity
  8
0
  6
DASHED
 62
               2
100
AcDbLine
 10
-63.479999999999997
 20
160.43000000000001
 30
0.0
 11
-63.479999999999997
 21
172.43000000000001
 31
0.0
  0
LINE
  5
645
100
AcDbEntity
  8
0
  6
DASHED
 62
               2
100
AcDbLine
 10
-69.480000000000004
 20
166.43000000000001
 30
0.0
 11
-57.479999999999997
 21
166.43000000000001
 31
0.0
  0
LINE
  5
646
100
AcDbEntity
  8
0
  6
DASHED
 62
               2
100
AcDbLine
 10
196.86000000000001
 20
102.43000000000001
 30
0.0
 11
196.86000000000001
 21
114.43000000000001
 31
0.0
  0
LINE
  5
647
100
AcDbEntity
  8
0
  6
DASHED
 62
               2
100
AcDbLine
 10
190.86000000000001
 20
108.43000000000001
 30
0.0
 11
202.86000000000001
 21
108.43000000000001
 31
0.0
  0
LINE
  5
648
100
AcDbEntity
  8
0
  6
DASHED
 62
               2
100
AcDbLine
 10
202.86000000000001
 20
160.43000000000001
 30
0.0
 11
202.86000000000001
 21
172.43000000000001
 31
0.0
  0
LINE
  5
649
100
AcDbEntity
  8
0
  6
DASHED
 62
               2
100
AcDbLine
 10
196.86000000000001
 20
166.43000000000001
 30
0.0
 11
208.86000000000001
 21
166.43000000000001
 31
0.0
  0
LINE
  5
64A
100
AcDbEntity
  8
0
  6
DASHED
 62
               2
100
AcDbLine
 10
-275.82999999999998
 20
-149.06
 30
0.0
 11
-275.82999999999998
 21
-137.06
 31
0.0
  0
LINE
  5
64B
100
AcDbEntity
  8
0
  6
DASHED
 62
               2
100
AcDbLine
 10
-281.82999999999998
 20
-143.06
 30
0.0
 11
-269.82999999999998
 21
-143.06
 31
0.0
  0
LINE
  5
64C
100
AcDbEntity
  8
0
  6
DASHED
 62
               2
100
AcDbLine
 10
-269.82999999999998
 20
-91.060000000000002
 30
0.0
 11
-269.82999999999998
 21
-79.060000000000002
 31
0.0
  0
LINE
  5
64D
100
AcDbEntity
  8
0
  6
DASHED
 62
               2
100
AcDbLine
 10
-275.82999999999998
 20
-85.060000000000002
 30
0.0
 11
-263.82999999999998
 21
-85.060000000000002
 31
0.0
  0
LINE
  5
64E
100
AcDbEntity
  8
0
  6
DASHED
 62
               2
100
AcDbLine
 10
123.68000000000001
 20
-149.06
 30
0.0
 11
123.68000000000001
 21
-137.06
 31
0.0
  0
LINE
  5
64F
100
AcDbEntity
  8
0
  6
DASHED
 62
               2
100
AcDbLine
 10
117.68000000000001
 20
-143.06
 30
0.0
 11
129.68000000000001
 21
-143.06
 31
0.0
  0
LINE
  5
650
100
AcDbEntity
  8
0
  6
DASHED
 62
               2
100
AcDbLine
 10
129.68000000000001
 20
-91.060000000000002
 30
0.0
 11
129.68000000000001
 21
-79.060000000000002
 31
0.0
  0
LINE
  5
651
100
AcDbEntity
  8
0
  6
DASHED
 62
               2
100
AcDbLine
 10
123.68000000000001
 20
-85.060000000000002
 30
0.0
 11
135.68000000000001
 21
-85.060000000000002
 31
0.0
  0
LINE
  5
652
100
AcDbEntity
  8
0
  6
CONTINUOUS
 62
               7
100
AcDbLine
 10
-399.25
 20
-0.25
 30
0.0
 11
399.80000000000001
 21
-0.25
 31
0.0
  0
LINE
  5
653
100
AcDbEntity
  8
0
  6
CONTINUOUS
 62
               7
100
AcDbLine
 10
0.27
 20
-0.25
 30
0.0
 11
0.27
 21
-276.75
 31
0.0
  0
LINE
  5
654
100
AcDbEntity
  8
0
  6
CONTINUOUS
 62
               7
100
AcDbLine
 10
-132.90000000000001
 20
-0.25
 30
0.0
 11
-132.90000000000001
 21
276.25
 31
0.0
  0
LINE
  5
655
100
AcDbEntity
  8
0
  6
CONTINUOUS
 62
               7
100
AcDbLine
 10
133.44999999999999
 20
-0.25
 30
0.0
 11
133.44999999999999
 21
276.25
 31
0.0
  0
MTEXT
  5
656
100
AcDbEntity
  8
0
  6
CONTINUOUS
 62
               7
100
AcDbMText
 10
245.88456269755227
 20
-264.25
 30
0.0
 40
12.5
 41
0.0
 71
               4
 72
               1
  1
\W1.121;\A1;KOGANEI CORP.
  0
MTEXT
  5
657
100
AcDbEntity
  8
0
  6
CONTINUOUS
 62
               7
100
AcDbMText
 10
290.09979829720089
 20
263.75
 30
0.0
 40
9.0
 41
0.0
 71
               4
 72
               1
  1
\W1.200;\A1;Ver.2.0
  0
MTEXT
  5
658
100
AcDbEntity
  8
0
  6
CONTINUOUS
 62
               7
100
AcDbMText
 10
17.424993266562623
 20
-20.25
 30
0.0
 40
9.0
 41
0.0
 71
               4
 72
               1
  1
\W1.100;\A1;MODEL:-T200
  0
MTEXT
  5
659
100
AcDbEntity
  8
0
  6
CONTINUOUS
 62
               7
100
AcDbMText
 10
-358.25000858306885
 20
258.75
 30
0.0
 40
9.0
 41
0.0
 71
               4
 72
               1
  1
\A1;CONNECTER
  0
MTEXT
  5
65A
100
AcDbEntity
  8
0
  6
CONTINUOUS
 62
               7
100
AcDbMText
 10
-382.04310404492458
 20
231.25
 30
0.0
 40
9.0
 41
0.0
 71
               4
 72
               1
  1
\W1.138;\A1;MODEL:-F100
  0
MTEXT
  5
65B
100
AcDbEntity
  8
0
  6
CONTINUOUS
 62
               7
100
AcDbMText
 10
-115.74999452640613
 20
231.25
 30
0.0
 40
9.0
 41
0.0
 71
               4
 72
               1
  1
\W1.100;\A1;MODEL:-F200
  0
MTEXT
  5
65C
100
AcDbEntity
  8
0
  6
CONTINUOUS
 62
               7
100
AcDbMText
 10
150.57296239865212
 20
231.25
 30
0.0
 40
9.0
 41
0.0
 71
               4
 72
               1
  1
\W1.082;\A1;MODEL:-F260
  0
MTEXT
  5
65D
100
AcDbEntity
  8
0
  6
CONTINUOUS
 62
               7
100
AcDbMText
 10
-382.12704980837913
 20
-20.25
 30
0.0
 40
9.0
 41
0.0
 71
               4
 72
               1
  1
\W1.082;\A1;MODEL:-D250
  0
MTEXT
  5
65E
100
AcDbEntity
  8
0
  6
CONTINUOUS
 62
               7
100
AcDbMText
 10
-362.57090654372104
 20
268.75
 30
0.0
 40
9.0
 41
0.0
 71
               4
 72
               1
  1
\W1.119;\A1;F18 SERIES
  0
ENDSEC
  0
SECTION
  2
OBJECTS
  0
DICTIONARY
  5
19
100
AcDbDictionary
  3
ACAD_GROUP
350
1A
  3
ACAD_MLINESTYLE
350
1B
  0
DICTIONARY
  5
1A
102
{ACAD_REACTORS
330
19
102
}
100
AcDbDictionary
  0
DICTIONARY
  5
1B
102
{ACAD_REACTORS
330
19
102
}
100
AcDbDictionary
  3
STANDARD
350
1C
  0
MLINESTYLE
  5
1C
102
{ACAD_REACTORS
330
1B
102
}
100
AcDbMlineStyle
  2
Standard
 70
               0
  3

 62
               0
 51
90.0
 52
90.0
 71
               2
 49
0.5
 62
             256
  6
ByLayer
 49
-0.5
 62
             256
  6
ByLayer
  0
ENDSEC
  0
EOF
