  0
SECTION
  2
HEADER
  9
$ACADVER
  1
AC1012
  9
$DWGCODEPAGE
  3
dos932
  9
$INSBASE
 10
0.0
 20
0.0
 30
0.0
  9
$EXTMIN
 10
-399.25
 20
-276.75
 30
0.0
  9
$EXTMAX
 10
406.09414987197181
 20
276.25
 30
0.0
  9
$LIMMIN
 10
-399.25
 20
-276.75
  9
$LIMMAX
 10
406.09414987197181
 20
276.25
  9
$ORTHOMODE
 70
               0
  9
$REGENMODE
 70
               1
  9
$FILLMODE
 70
               1
  9
$QTEXTMODE
 70
               0
  9
$MIRRTEXT
 70
               1
  9
$DRAGMODE
 70
               2
  9
$LTSCALE
 40
1.0
  9
$OSMODE
 70
               0
  9
$ATTMODE
 70
               1
  9
$TEXTSIZE
 40
3.2000000476837158
  9
$TRACEWID
 40
0.05
  9
$TEXTSTYLE
  7
MX_NOTE_STANDARD
  9
$CLAYER
  8
0
  9
$CELTYPE
  6
CONTINUOUS
  9
$CECOLOR
 62
             256
  9
$CELTSCALE
 40
1.0
  9
$DELOBJ
 70
               1
  9
$DISPSILH
 70
               0
  9
$DIMSCALE
 40
1.0
  9
$DIMASZ
 40
2.5
  9
$DIMEXO
 40
1.5
  9
$DIMDLI
 40
3.75
  9
$DIMRND
 40
0.0
  9
$DIMDLE
 40
0.0
  9
$DIMEXE
 40
1.5
  9
$DIMTP
 40
0.0
  9
$DIMTM
 40
0.0
  9
$DIMTXT
 40
3.2000000476837158
  9
$DIMCEN
 40
2.5
  9
$DIMTSZ
 40
0.0
  9
$DIMTOL
 70
               0
  9
$DIMLIM
 70
               0
  9
$DIMTIH
 70
               0
  9
$DIMTOH
 70
               0
  9
$DIMSE1
 70
               0
  9
$DIMSE2
 70
               0
  9
$DIMTAD
 70
               1
  9
$DIMZIN
 70
               8
  9
$DIMBLK
  1

  9
$DIMASO
 70
               1
  9
$DIMSHO
 70
               1
  9
$DIMPOST
  1

  9
$DIMAPOST
  1

  9
$DIMALT
 70
               0
  9
$DIMALTD
 70
               4
  9
$DIMALTF
 40
0.03937007874016
  9
$DIMLFAC
 40
1.0
  9
$DIMTOFL
 70
               1
  9
$DIMTVP
 40
0.0
  9
$DIMTIX
 70
               0
  9
$DIMSOXD
 70
               0
  9
$DIMSAH
 70
               0
  9
$DIMBLK1
  1

  9
$DIMBLK2
  1

  9
$DIMSTYLE
  2
MXDIMSTYLE
  9
$DIMCLRD
 70
               0
  9
$DIMCLRE
 70
               0
  9
$DIMCLRT
 70
               0
  9
$DIMTFAC
 40
1.0
  9
$DIMGAP
 40
1.0
  9
$DIMJUST
 70
               0
  9
$DIMSD1
 70
               0
  9
$DIMSD2
 70
               0
  9
$DIMTOLJ
 70
               1
  9
$DIMTZIN
 70
               0
  9
$DIMALTZ
 70
               0
  9
$DIMALTTZ
 70
               0
  9
$DIMFIT
 70
               3
  9
$DIMUPT
 70
               1
  9
$DIMUNIT
 70
               2
  9
$DIMDEC
 70
               4
  9
$DIMTDEC
 70
               4
  9
$DIMALTU
 70
               2
  9
$DIMALTTD
 70
               4
  9
$DIMTXSTY
  7
MX_NOTE_STANDARD
  9
$DIMAUNIT
 70
               0
  9
$LUNITS
 70
               2
  9
$LUPREC
 70
               4
  9
$SKETCHINC
 40
0.1
  9
$FILLETRAD
 40
0.0
  9
$AUNITS
 70
               0
  9
$AUPREC
 70
               0
  9
$MENU
  1
acad
  9
$ELEVATION
 40
0.0
  9
$PELEVATION
 40
0.0
  9
$THICKNESS
 40
0.0
  9
$LIMCHECK
 70
               0
  9
$BLIPMODE
 70
               1
  9
$CHAMFERA
 40
0.0
  9
$CHAMFERB
 40
0.0
  9
$CHAMFERC
 40
0.0
  9
$CHAMFERD
 40
0.0
  9
$SKPOLY
 70
               0
  9
$TDCREATE
 40
2453378.356516204
  9
$TDUPDATE
 40
2453378.356516204
  9
$TDINDWG
 40
0.0000000000
  9
$TDUSRTIMER
 40
0.0000000000
  9
$USRTIMER
 70
               1
  9
$ANGBASE
 50
0.0
  9
$ANGDIR
 70
               0
  9
$PDMODE
 70
               0
  9
$PDSIZE
 40
0.0
  9
$PLINEWID
 40
0.0
  9
$COORDS
 70
               1
  9
$SPLFRAME
 70
               0
  9
$SPLINETYPE
 70
               6
  9
$SPLINESEGS
 70
               8
  9
$ATTDIA
 70
               0
  9
$ATTREQ
 70
               1
  9
$HANDLING
 70
               1
  9
$HANDSEED
  5
747
  9
$SURFTAB1
 70
               6
  9
$SURFTAB2
 70
               6
  9
$SURFTYPE
 70
               6
  9
$SURFU
 70
               6
  9
$SURFV
 70
               6
  9
$UCSNAME
  2

  9
$UCSORG
 10
0.0
 20
0.0
 30
0.0
  9
$UCSXDIR
 10
1.0
 20
0.0
 30
0.0
  9
$UCSYDIR
 10
0.0
 20
1.0
 30
0.0
  9
$PUCSNAME
  2

  9
$PUCSORG
 10
0.0
 20
0.0
 30
0.0
  9
$PUCSXDIR
 10
1.0
 20
0.0
 30
0.0
  9
$PUCSYDIR
 10
0.0
 20
1.0
 30
0.0
  9
$USERI1
 70
               0
  9
$USERI2
 70
               0
  9
$USERI3
 70
               0
  9
$USERI4
 70
               0
  9
$USERI5
 70
               0
  9
$USERR1
 40
0.0
  9
$USERR2
 40
0.0
  9
$USERR3
 40
0.0
  9
$USERR4
 40
0.0
  9
$USERR5
 40
0.0
  9
$WORLDVIEW
 70
               1
  9
$SHADEDGE
 70
               3
  9
$SHADEDIF
 70
              70
  9
$TILEMODE
 70
               1
  9
$MAXACTVP
 70
              16
  9
$PINSBASE
 10
0.0
 20
0.0
 30
0.0
  9
$PLIMCHECK
 70
               0
  9
$PEXTMIN
 10
1.0000000000000000E+20
 20
1.0000000000000000E+20
 30
1.0000000000000000E+20
  9
$PEXTMAX
 10
-1.0000000000000000E+20
 20
-1.0000000000000000E+20
 30
-1.0000000000000000E+20
  9
$PLIMMIN
 10
0.0
 20
0.0
  9
$PLIMMAX
 10
12.0
 20
9.0
  9
$UNITMODE
 70
               0
  9
$VISRETAIN
 70
               0
  9
$PLINEGEN
 70
               1
  9
$PSLTSCALE
 70
               0
  9
$TREEDEPTH
 70
            3020
  9
$PICKSTYLE
 70
               1
  9
$CMLSTYLE
  2
Standard
  9
$CMLJUST
 70
               0
  9
$CMLSCALE
 40
1.0
  9
$SAVEIMAGES
 70
               0
  0
ENDSEC
  0
SECTION
  2
CLASSES
  0
CLASS
  1
LWPOLYLINE
  2
AcDbPolyline
  3
"AutoCAD"
 90
        0
280
               0
281
               1
  0
CLASS
  1
IMAGE
  2
AcDbRasterImage
  3
ISM
 90
      127
280
               0
281
               1
  0
CLASS
  1
OLE2FRAME
  2
AcDbOle2Frame
  3
""
 90
        0
280
               0
281
               1
  0
CLASS
  1
HATCH
  2
AcDbHatch
  3
"ACAD_SEDONA"
 90
        0
280
               0
281
               1
  0
CLASS
  1
DICTIONARYVAR
  2
AcDbDictionaryVar
  3
"AutoCAD"
 90
        0
280
               0
281
               0
  0
CLASS
  1
RASTERVARIABLES
  2
AcDbRasterVariables
  3
ISM
 90
        0
280
               0
281
               0
  0
CLASS
  1
IMAGEDEF
  2
AcDbRasterImageDef
  3
ISM
 90
        0
280
               0
281
               0
  0
CLASS
  1
IMAGEDEF_REACTOR
  2
AcDbRasterImageDefReactor
  3
ISM
 90
        1
280
               0
281
               0
  0
CLASS
  1
IDBUFFER
  2
AcDbIdBuffer
  3
"Acad"
 90
        0
280
               0
281
               0
  0
CLASS
  1
SPATIAL_FILTER
  2
AcDbSpatialFilter
  3
"Acad"
 90
        0
280
               0
281
               0
  0
CLASS
  1
XRECORD
  2
AcDbXrecord
  3
"<Built In>"
 90
        0
280
               0
281
               0
  0
CLASS
  1
SORTENTSTABLE
  2
AcDbSortentsTable
  3
"AutoCAD"
 90
        0
280
               0
281
               0
  0
CLASS
  1
LAYER_INDEX
  2
AcDbLayerIndex
  3
"Acad"
 90
        0
280
               0
281
               0
  0
CLASS
  1
SPATIAL_INDEX
  2
AcDbSpatialIndex
  3
"Acad"
 90
        0
280
               0
281
               0
  0
CLASS
  1
OBJECT_PTR
  2
CAseDLPNTableRecord
  3
"ASE-LPNTableRecord"
 90
        1
280
               0
281
               0
  0
CLASS
  1
LAYOUT
  2
AcDbLayout
  3
"AutoCAD 2000"
 90
        1
280
               0
281
               0
  0
CLASS
  1
PLOTSETTINGS
  2
AcDbPlotSettings
  3
"AutoCAD 2000"
 90
        1
280
               0
281
               0
  0
CLASS
  1
ACDBDICTIONARYWDFLT
  2
AcDbDictionaryWithDefault
  3
"AutoCAD 2000"
 90
        1
280
               0
281
               0
  0
CLASS
  1
ACDBPLACEHOLDER
  2
AcDbPlaceHolder
  3
"AutoCAD 2000"
 90
        1
280
               0
281
               0
  0
ENDSEC
  0
SECTION
  2
TABLES
  0
TABLE
  2
VPORT
  5
7
100
AcDbSymbolTable
 70
               1
  0
VPORT
  5
15
100
AcDbSymbolTableRecord
100
AcDbViewportTableRecord
  2
*ACTIVE
 70
               0
 10
0.0
 20
0.0
 11
1.0
 21
1.0
 12
3.4220749359859042
 22
-0.25
 13
0.0
 23
0.0
 14
1.0
 24
1.0
 15
0.0
 25
0.0
 16
0.0
 26
0.0
 36
1.0
 17
0.0
 27
0.0
 37
0.0
 40
558.52999999999997
 41
1.7320508075688772
 42
50.0
 43
0.0
 44
0.0
 50
0.0
 51
0.0
 71
               0
 72
             100
 73
               1
 74
               1
 75
               0
 76
               0
 77
               0
 78
               0
  0
ENDTAB
  0
TABLE
  2
LTYPE
  5
4
100
AcDbSymbolTable
 70
               4
  0
LTYPE
  5
11
100
AcDbSymbolTableRecord
100
AcDbLinetypeTableRecord
  2
BYBLOCK
 70
              64
  3

 72
              65
 73
               0
 40
0.0
  0
LTYPE
  5
12
100
AcDbSymbolTableRecord
100
AcDbLinetypeTableRecord
  2
BYLAYER
 70
              64
  3

 72
              65
 73
               0
 40
0.0
  0
LTYPE
  5
13
100
AcDbSymbolTableRecord
100
AcDbLinetypeTableRecord
  2
CONTINUOUS
 70
              64
  3
Solid line
 72
              65
 73
               0
 40
0.0
  0
LTYPE
  5
6F9
100
AcDbSymbolTableRecord
100
AcDbLinetypeTableRecord
  2
DASHED
 70
              64
  3
Dashed __ __ __ __ __ __ __ __ __ __ __ __ __ _
 72
              65
 73
               2
 40
4.0
 49
2.0
 74
               0
 49
-2.0
 74
               0
  0
ENDTAB
  0
TABLE
  2
LAYER
  5
2
100
AcDbSymbolTable
 70
               2
  0
LAYER
  5
14
100
AcDbSymbolTableRecord
100
AcDbLayerTableRecord
  2
0
 70
               0
 62
               7
  6
CONTINUOUS
  0
LAYER
  5
1D
100
AcDbSymbolTableRecord
100
AcDbLayerTableRecord
  2
DEFPOINTS
 70
               0
 62
               7
  6
CONTINUOUS
  0
ENDTAB
  0
TABLE
  2
STYLE
  5
3
100
AcDbSymbolTable
 70
               1
  0
STYLE
  5
17
100
AcDbSymbolTableRecord
100
AcDbTextStyleTableRecord
  2
MX_NOTE_STANDARD
 70
               0
 40
0.0
 41
1.0
 50
0.0
 71
               0
 42
3.2000000476837158
  3
txt.shx
  4
extfont.shx
  0
ENDTAB
  0
TABLE
  2
VIEW
  5
5
100
AcDbSymbolTable
 70
               0
  0
ENDTAB
  0
TABLE
  2
UCS
  5
6
100
AcDbSymbolTable
 70
               0
  0
ENDTAB
  0
TABLE
  2
APPID
  5
8
100
AcDbSymbolTable
 70
               1
  0
APPID
  5
16
100
AcDbSymbolTableRecord
100
AcDbRegAppTableRecord
  2
ACAD
 70
               0
  0
ENDTAB
  0
TABLE
  2
DIMSTYLE
  5
9
100
AcDbSymbolTable
 70
               1
  0
DIMSTYLE
105
18
100
AcDbSymbolTableRecord
100
AcDbDimStyleTableRecord
  2
MXDIMSTYLE
 70
               0
  3

  4

  5

  6

  7

 40
1.0
 41
2.5
 42
1.5
 43
3.75
 44
1.5
 45
0.0
 46
0.0
 47
0.0
 48
0.0
 71
               0
 72
               0
 73
               0
 74
               0
 75
               0
 76
               0
 77
               1
 78
               8
140
3.2000000476837158
141
2.5
142
0.0
143
0.03937007874016
144
1.0
145
0.0
146
1.0
147
1.0
170
               0
171
               4
172
               1
173
               0
174
               0
175
               0
176
               0
177
               0
178
               0
270
               2
271
               4
272
               4
273
               2
274
               4
275
               0
280
               0
281
               0
282
               0
283
               1
284
               0
285
               0
286
               0
287
               3
288
               1
340
17
  0
ENDTAB
  0
TABLE
  2
BLOCK_RECORD
  5
1
100
AcDbSymbolTable
 70
              21
  0
BLOCK_RECORD
  5
A
100
AcDbSymbolTableRecord
100
AcDbBlockTableRecord
  2
*MODEL_SPACE
  0
BLOCK_RECORD
  5
B
100
AcDbSymbolTableRecord
100
AcDbBlockTableRecord
  2
*PAPER_SPACE
  0
BLOCK_RECORD
  5
1E
100
AcDbSymbolTableRecord
100
AcDbBlockTableRecord
  2
F18MNJ-1
  0
BLOCK_RECORD
  5
1F
100
AcDbSymbolTableRecord
100
AcDbBlockTableRecord
  2
F18MNJ-2
  0
BLOCK_RECORD
  5
20
100
AcDbSymbolTableRecord
100
AcDbBlockTableRecord
  2
F18MNJ-3
  0
BLOCK_RECORD
  5
21
100
AcDbSymbolTableRecord
100
AcDbBlockTableRecord
  2
F18MNJ-4
  0
BLOCK_RECORD
  5
22
100
AcDbSymbolTableRecord
100
AcDbBlockTableRecord
  2
F18MNJ-5
  0
BLOCK_RECORD
  5
23
100
AcDbSymbolTableRecord
100
AcDbBlockTableRecord
  2
F18MNJ-6
  0
BLOCK_RECORD
  5
24
100
AcDbSymbolTableRecord
100
AcDbBlockTableRecord
  2
F18MNJ-7
  0
BLOCK_RECORD
  5
25
100
AcDbSymbolTableRecord
100
AcDbBlockTableRecord
  2
F18MNJ-8
  0
BLOCK_RECORD
  5
26
100
AcDbSymbolTableRecord
100
AcDbBlockTableRecord
  2
F18MNJ-9
  0
BLOCK_RECORD
  5
27
100
AcDbSymbolTableRecord
100
AcDbBlockTableRecord
  2
F18MNJ-10
  0
BLOCK_RECORD
  5
28
100
AcDbSymbolTableRecord
100
AcDbBlockTableRecord
  2
F18MNJ-11
  0
BLOCK_RECORD
  5
29
100
AcDbSymbolTableRecord
100
AcDbBlockTableRecord
  2
F18MNJ-12
  0
BLOCK_RECORD
  5
2A
100
AcDbSymbolTableRecord
100
AcDbBlockTableRecord
  2
F18MNJ-13
  0
BLOCK_RECORD
  5
2B
100
AcDbSymbolTableRecord
100
AcDbBlockTableRecord
  2
F18MNJ-14
  0
BLOCK_RECORD
  5
2C
100
AcDbSymbolTableRecord
100
AcDbBlockTableRecord
  2
F18MNJ-15
  0
BLOCK_RECORD
  5
2D
100
AcDbSymbolTableRecord
100
AcDbBlockTableRecord
  2
F18MNJ-16
  0
BLOCK_RECORD
  5
2E
100
AcDbSymbolTableRecord
100
AcDbBlockTableRecord
  2
F18MNJ-17
  0
BLOCK_RECORD
  5
2F
100
AcDbSymbolTableRecord
100
AcDbBlockTableRecord
  2
F18MNJ-18
  0
BLOCK_RECORD
  5
30
100
AcDbSymbolTableRecord
100
AcDbBlockTableRecord
  2
F18MNJ-19
  0
BLOCK_RECORD
  5
31
100
AcDbSymbolTableRecord
100
AcDbBlockTableRecord
  2
F18MNJ-20
  0
BLOCK_RECORD
  5
32
100
AcDbSymbolTableRecord
100
AcDbBlockTableRecord
  2
F18MNJ-21
  0
ENDTAB
  0
ENDSEC
  0
SECTION
  2
BLOCKS
  0
BLOCK
  5
D
100
AcDbEntity
  8
0
100
AcDbBlockBegin
  2
*MODEL_SPACE
 70
               0
 10
0.0
 20
0.0
 30
0.0
  3
*MODEL_SPACE
  1

  0
ENDBLK
  5
E
100
AcDbEntity
  8
0
100
AcDbBlockEnd
  0
BLOCK
  5
F
100
AcDbEntity
 67
               1
  8
0
100
AcDbBlockBegin
  2
*PAPER_SPACE
 70
               0
 10
0.0
 20
0.0
 30
0.0
  3
*PAPER_SPACE
  1

  0
ENDBLK
  5
10
100
AcDbEntity
 67
               1
  8
0
100
AcDbBlockEnd
  0
BLOCK
  5
33
100
AcDbEntity
  8
0
100
AcDbBlockBegin
  2
F18MNJ-1
 70
               0
 10
0.0
 20
0.0
 30
0.0
  3
F18MNJ-1
  1

  0
LINE
  5
34
100
AcDbEntity
  8
0
  6
CONTINUOUS
 62
               7
100
AcDbLine
 10
-6.5
 20
5.5
 30
0.0
 11
9.5
 21
5.5
 31
0.0
  0
LINE
  5
35
100
AcDbEntity
  8
0
  6
CONTINUOUS
 62
               7
100
AcDbLine
 10
106.5
 20
-84.5
 30
0.0
 11
106.5
 21
5.5
 31
0.0
  0
LINE
  5
36
100
AcDbEntity
  8
0
  6
CONTINUOUS
 62
               7
100
AcDbLine
 10
106.5
 20
-84.5
 30
0.0
 11
122.5
 21
-84.5
 31
0.0
  0
LINE
  5
37
100
AcDbEntity
  8
0
  6
CONTINUOUS
 62
               7
100
AcDbLine
 10
109.5
 20
-73.5
 30
0.0
 11
122.5
 21
-73.5
 31
0.0
  0
LINE
  5
38
100
AcDbEntity
  8
0
  6
CONTINUOUS
 62
               7
100
AcDbLine
 10
122.5
 20
-84.5
 30
0.0
 11
122.5
 21
5.5
 31
0.0
  0
LINE
  5
39
100
AcDbEntity
  8
0
  6
CONTINUOUS
 62
               7
100
AcDbLine
 10
109.5
 20
-84.5
 30
0.0
 11
109.5
 21
-73.5
 31
0.0
  0
LINE
  5
3A
100
AcDbEntity
  8
0
  6
CONTINUOUS
 62
               2
100
AcDbLine
 10
111.20999999999999
 20
-79.0
 30
0.0
 11
121.05
 21
-79.0
 31
0.0
  0
LINE
  5
3B
100
AcDbEntity
  8
0
  6
CONTINUOUS
 62
               7
100
AcDbLine
 10
115.0
 20
-76.799999999999997
 30
0.0
 11
117.0
 21
-76.799999999999997
 31
0.0
  0
LINE
  5
3C
100
AcDbEntity
  8
0
  6
CONTINUOUS
 62
               7
100
AcDbLine
 10
115.0
 20
-81.200000000000003
 30
0.0
 11
117.0
 21
-81.200000000000003
 31
0.0
  0
LINE
  5
3D
100
AcDbEntity
  8
0
  6
CONTINUOUS
 62
               2
100
AcDbLine
 10
116.0
 20
-83.010000000000005
 30
0.0
 11
116.0
 21
-75.209999999999994
 31
0.0
  0
LINE
  5
3E
100
AcDbEntity
  8
0
  6
CONTINUOUS
 62
               7
100
AcDbLine
 10
109.5
 20
-5.5
 30
0.0
 11
122.5
 21
-5.5
 31
0.0
  0
LINE
  5
3F
100
AcDbEntity
  8
0
  6
CONTINUOUS
 62
               7
100
AcDbLine
 10
109.5
 20
5.5
 30
0.0
 11
109.5
 21
-5.5
 31
0.0
  0
LINE
  5
40
100
AcDbEntity
  8
0
  6
CONTINUOUS
 62
               2
100
AcDbLine
 10
111.20999999999999
 20
0.0
 30
0.0
 11
121.05
 21
0.0
 31
0.0
  0
LINE
  5
41
100
AcDbEntity
  8
0
  6
CONTINUOUS
 62
               7
100
AcDbLine
 10
115.0
 20
-2.1999999999999886
 30
0.0
 11
117.0
 21
-2.1999999999999886
 31
0.0
  0
LINE
  5
42
100
AcDbEntity
  8
0
  6
CONTINUOUS
 62
               7
100
AcDbLine
 10
115.0
 20
2.1999999999999886
 30
0.0
 11
117.0
 21
2.1999999999999886
 31
0.0
  0
LINE
  5
43
100
AcDbEntity
  8
0
  6
CONTINUOUS
 62
               7
100
AcDbLine
 10
6.5
 20
-73.5
 30
0.0
 11
-6.5
 21
-73.5
 31
0.0
  0
LINE
  5
44
100
AcDbEntity
  8
0
  6
CONTINUOUS
 62
               7
100
AcDbLine
 10
-6.5
 20
-84.5
 30
0.0
 11
-6.5
 21
5.5
 31
0.0
  0
LINE
  5
45
100
AcDbEntity
  8
0
  6
CONTINUOUS
 62
               7
100
AcDbLine
 10
6.5
 20
-84.5
 30
0.0
 11
6.5
 21
-73.5
 31
0.0
  0
LINE
  5
46
100
AcDbEntity
  8
0
  6
CONTINUOUS
 62
               2
100
AcDbLine
 10
4.789999999999992
 20
-79.0
 30
0.0
 11
-5.0500000000000114
 21
-79.0
 31
0.0
  0
LINE
  5
47
100
AcDbEntity
  8
0
  6
CONTINUOUS
 62
               7
100
AcDbLine
 10
1.0
 20
-76.799999999999997
 30
0.0
 11
-1.0
 21
-76.799999999999997
 31
0.0
  0
LINE
  5
48
100
AcDbEntity
  8
0
  6
CONTINUOUS
 62
               7
100
AcDbLine
 10
1.0
 20
-81.200000000000003
 30
0.0
 11
-1.0
 21
-81.200000000000003
 31
0.0
  0
LINE
  5
49
100
AcDbEntity
  8
0
  6
CONTINUOUS
 62
               2
100
AcDbLine
 10
0.0
 20
-83.010000000000005
 30
0.0
 11
0.0
 21
-75.209999999999994
 31
0.0
  0
LINE
  5
4A
100
AcDbEntity
  8
0
  6
CONTINUOUS
 62
               7
100
AcDbLine
 10
6.5
 20
-5.5
 30
0.0
 11
-6.5
 21
-5.5
 31
0.0
  0
LINE
  5
4B
100
AcDbEntity
  8
0
  6
CONTINUOUS
 62
               7
100
AcDbLine
 10
6.5
 20
5.5
 30
0.0
 11
6.5
 21
-5.5
 31
0.0
  0
LINE
  5
4C
100
AcDbEntity
  8
0
  6
CONTINUOUS
 62
               2
100
AcDbLine
 10
4.789999999999992
 20
0.0
 30
0.0
 11
-5.0500000000000114
 21
0.0
 31
0.0
  0
LINE
  5
4D
100
AcDbEntity
  8
0
  6
CONTINUOUS
 62
               7
100
AcDbLine
 10
1.0
 20
-2.1999999999999886
 30
0.0
 11
-1.0
 21
-2.1999999999999886
 31
0.0
  0
LINE
  5
4E
100
AcDbEntity
  8
0
  6
CONTINUOUS
 62
               7
100
AcDbLine
 10
1.0
 20
2.1999999999999886
 30
0.0
 11
-1.0
 21
2.1999999999999886
 31
0.0
  0
LINE
  5
4F
100
AcDbEntity
  8
0
  6
CONTINUOUS
 62
               2
100
AcDbLine
 10
0.0
 20
4.0099999999999909
 30
0.0
 11
0.0
 21
-3.7800000000000011
 31
0.0
  0
LINE
  5
50
100
AcDbEntity
  8
0
  6
CONTINUOUS
 62
               7
100
AcDbLine
 10
9.5
 20
-84.5
 30
0.0
 11
9.5
 21
5.5
 31
0.0
  0
LINE
  5
51
100
AcDbEntity
  8
0
  6
CONTINUOUS
 62
               2
100
AcDbLine
 10
116.0
 20
4.0099999999999909
 30
0.0
 11
116.0
 21
-3.7800000000000011
 31
0.0
  0
LINE
  5
52
100
AcDbEntity
  8
0
  6
CONTINUOUS
 62
               7
100
AcDbLine
 10
9.5
 20
-84.5
 30
0.0
 11
-6.5
 21
-84.5
 31
0.0
  0
LINE
  5
53
100
AcDbEntity
  8
0
  6
CONTINUOUS
 62
               7
100
AcDbLine
 10
106.5
 20
5.5
 30
0.0
 11
122.5
 21
5.5
 31
0.0
  0
LINE
  5
54
100
AcDbEntity
  8
0
  6
CONTINUOUS
 62
               2
100
AcDbLine
 10
-16.5
 20
-11.5
 30
0.0
 11
132.5
 21
-11.5
 31
0.0
  0
LINE
  5
55
100
AcDbEntity
  8
0
  6
CONTINUOUS
 62
               2
100
AcDbLine
 10
-16.5
 20
-69.5
 30
0.0
 11
132.5
 21
-69.5
 31
0.0
  0
ARC
  5
56
100
AcDbEntity
  8
0
  6
CONTINUOUS
 62
               7
100
AcDbCircle
 10
117.0
 20
-79.0
 30
0.0
 40
2.2000000000000028
100
AcDbArc
 50
270.0
 51
90.0
  0
ARC
  5
57
100
AcDbEntity
  8
0
  6
CONTINUOUS
 62
               7
100
AcDbCircle
 10
115.0
 20
-79.0
 30
0.0
 40
2.2000000000000028
100
AcDbArc
 50
90.0
 51
270.0
  0
ARC
  5
58
100
AcDbEntity
  8
0
  6
CONTINUOUS
 62
               7
100
AcDbCircle
 10
117.0
 20
0.0
 30
0.0
 40
2.2000000000000002
100
AcDbArc
 50
270.0
 51
90.0
  0
ARC
  5
59
100
AcDbEntity
  8
0
  6
CONTINUOUS
 62
               7
100
AcDbCircle
 10
115.0
 20
0.0
 30
0.0
 40
2.2000000000000002
100
AcDbArc
 50
90.0
 51
270.0
  0
ARC
  5
5A
100
AcDbEntity
  8
0
  6
CONTINUOUS
 62
               7
100
AcDbCircle
 10
-1.0
 20
-79.0
 30
0.0
 40
2.2000000000000028
100
AcDbArc
 50
90.0
 51
270.0
  0
ARC
  5
5B
100
AcDbEntity
  8
0
  6
CONTINUOUS
 62
               7
100
AcDbCircle
 10
1.0
 20
-79.0
 30
0.0
 40
2.2000000000000028
100
AcDbArc
 50
270.0
 51
90.0
  0
ARC
  5
5C
100
AcDbEntity
  8
0
  6
CONTINUOUS
 62
               7
100
AcDbCircle
 10
-1.0
 20
0.0
 30
0.0
 40
2.2000000000000002
100
AcDbArc
 50
90.0
 51
270.0
  0
ARC
  5
5D
100
AcDbEntity
  8
0
  6
CONTINUOUS
 62
               7
100
AcDbCircle
 10
1.0
 20
0.0
 30
0.0
 40
2.2000000000000002
100
AcDbArc
 50
270.0
 51
90.0
  0
ENDBLK
  5
5E
100
AcDbEntity
  8
0
100
AcDbBlockEnd
  0
BLOCK
  5
5F
100
AcDbEntity
  8
0
100
AcDbBlockBegin
  2
F18MNJ-2
 70
               0
 10
0.0
 20
0.0
 30
0.0
  3
F18MNJ-2
  1

  0
ARC
  5
60
100
AcDbEntity
  8
0
  6
CONTINUOUS
 62
               4
100
AcDbCircle
 10
0.9000152587890398
 20
-99.308248748779306
 30
0.0
 40
0.3
100
AcDbArc
 50
180.0000000000006
 51
270.0000000000008
  0
ARC
  5
61
100
AcDbEntity
  8
0
  6
CONTINUOUS
 62
               4
100
AcDbCircle
 10
17.100015258789057
 20
-99.308248748779306
 30
0.0
 40
0.3
100
AcDbArc
 50
270.0
 51
0.0000000000002036
  0
LINE
  5
62
100
AcDbEntity
  8
0
  6
CONTINUOUS
 62
             200
100
AcDbLine
 10
9.0000152587890625
 20
-100.35040802001953
 30
0.0
 11
9.0000152587890625
 21
-78.508237304687498
 31
0.0
  0
LINE
  5
63
100
AcDbEntity
  8
0
  6
CONTINUOUS
 62
               4
100
AcDbLine
 10
18.000015258789063
 20
-78.008237185478208
 30
0.0
 11
18.000015258789063
 21
-86.708248548779295
 31
0.0
  0
LINE
  5
64
100
AcDbEntity
  8
0
  6
CONTINUOUS
 62
               7
100
AcDbLine
 10
0.0
 20
-2.7082456970214821
 30
0.0
 11
0.0
 21
7.4917817687988304
 31
0.0
  0
LINE
  5
65
100
AcDbEntity
  8
0
  6
CONTINUOUS
 62
               4
100
AcDbLine
 10
18.000015258789063
 20
-2.7082456970214821
 30
0.0
 11
18.000015258789063
 21
-55.308251800537107
 31
0.0
  0
LINE
  5
66
100
AcDbEntity
  8
0
  6
CONTINUOUS
 62
               4
100
AcDbLine
 10
18.000015258789063
 20
-95.373162748779293
 30
0.0
 11
18.000015258789063
 21
-93.008248748779295
 31
0.0
  0
LINE
  5
67
100
AcDbEntity
  8
0
  6
CONTINUOUS
 62
               4
100
AcDbLine
 10
18.000015258789063
 20
-87.108248348779284
 30
0.0
 11
18.000015258789063
 21
-91.808248748779306
 31
0.0
  0
LINE
  5
68
100
AcDbEntity
  8
0
  6
CONTINUOUS
 62
               4
100
AcDbLine
 10
17.800015258789074
 20
-92.808248748779306
 30
0.0
 11
18.000015258789063
 21
-93.008248748779295
 31
0.0
  0
LINE
  5
69
100
AcDbEntity
  8
0
  6
CONTINUOUS
 62
               4
100
AcDbLine
 10
18.000015258789063
 20
-91.808248748779306
 30
0.0
 11
17.90001525878904
 21
-91.9082487487793
 31
0.0
  0
LINE
  5
6A
100
AcDbEntity
  8
0
  6
CONTINUOUS
 62
               4
100
AcDbLine
 10
17.800015258789074
 20
-86.908248148779307
 30
0.0
 11
18.000015258789063
 21
-87.108248348779284
 31
0.0
  0
LINE
  5
6B
100
AcDbEntity
  8
0
  6
CONTINUOUS
 62
               4
100
AcDbLine
 10
17.800015258789074
 20
-86.9082487487793
 30
0.0
 11
18.000015258789063
 21
-86.708248548779295
 31
0.0
  0
LINE
  5
6C
100
AcDbEntity
  8
0
  6
CONTINUOUS
 62
               7
100
AcDbLine
 10
18.000015258789063
 20
-55.308251800537107
 30
0.0
 11
18.000015258789063
 21
-78.008237185478208
 31
0.0
  0
LINE
  5
6D
100
AcDbEntity
  8
0
  6
CONTINUOUS
 62
               4
100
AcDbLine
 10
4.0
 20
20.991766510009768
 30
0.0
 11
4.0
 21
44.99178176879883
 31
0.0
  0
LINE
  5
6E
100
AcDbEntity
  8
0
  6
CONTINUOUS
 62
               4
100
AcDbLine
 10
14.0
 20
20.991766510009768
 30
0.0
 11
14.0
 21
44.99178176879883
 31
0.0
  0
LINE
  5
6F
100
AcDbEntity
  8
0
  6
CONTINUOUS
 62
               7
100
AcDbLine
 10
14.0
 20
9.9917817687988304
 30
0.0
 11
14.0
 21
20.991766510009768
 31
0.0
  0
LINE
  5
70
100
AcDbEntity
  8
0
  6
CONTINUOUS
 62
               7
100
AcDbLine
 10
4.0
 20
20.991766510009768
 30
0.0
 11
14.0
 21
20.991766510009768
 31
0.0
  0
LINE
  5
71
100
AcDbEntity
  8
0
  6
CONTINUOUS
 62
               7
100
AcDbLine
 10
4.0
 20
9.9917817687988304
 30
0.0
 11
4.0
 21
20.991766510009768
 31
0.0
  0
LINE
  5
72
100
AcDbEntity
  8
0
  6
CONTINUOUS
 62
               4
100
AcDbLine
 10
0.0
 20
-47.442181714419036
 30
0.0
 11
0.0
 21
-8.2691587829589821
 31
0.0
  0
LINE
  5
73
100
AcDbEntity
  8
0
  6
CONTINUOUS
 62
               7
100
AcDbLine
 10
18.000015258789063
 20
7.4917665100097679
 30
0.0
 11
18.000015258789063
 21
-2.7082456970214821
 31
0.0
  0
LINE
  5
74
100
AcDbEntity
  8
0
  6
CONTINUOUS
 62
               7
100
AcDbLine
 10
4.0000152587890625
 20
11.491766510009768
 30
0.0
 11
14.000015258789063
 21
11.491766510009768
 31
0.0
  0
LINE
  5
75
100
AcDbEntity
  8
0
  6
CONTINUOUS
 62
               7
100
AcDbLine
 10
6.5000152587890625
 20
17.691763458251955
 30
0.0
 11
11.500015258789063
 21
17.691763458251955
 31
0.0
  0
LINE
  5
76
100
AcDbEntity
  8
0
  6
CONTINUOUS
 62
               4
100
AcDbLine
 10
4.000030517578125
 20
44.991766510009768
 30
0.0
 11
14.000030517578125
 21
44.991766510009768
 31
0.0
  0
LINE
  5
77
100
AcDbEntity
  8
0
  6
CONTINUOUS
 62
               7
100
AcDbLine
 10
7.0732269287109375
 20
17.391760406494143
 30
0.0
 11
10.926803588867188
 21
17.391760406494143
 31
0.0
  0
LINE
  5
78
100
AcDbEntity
  8
0
  6
CONTINUOUS
 62
               7
100
AcDbLine
 10
7.0732269287109375
 20
17.991766510009768
 30
0.0
 11
10.926803588867188
 21
17.991766510009768
 31
0.0
  0
LINE
  5
79
100
AcDbEntity
  8
0
  6
CONTINUOUS
 62
               4
100
AcDbLine
 10
4.050018310546875
 20
44.991766510009768
 30
0.0
 11
4.050018310546875
 21
58.491766510009768
 31
0.0
  0
LINE
  5
7A
100
AcDbEntity
  8
0
  6
CONTINUOUS
 62
               4
100
AcDbLine
 10
13.500030517578125
 20
53.991766510009768
 30
0.0
 11
4.500030517578125
 21
53.991766510009768
 31
0.0
  0
LINE
  5
7B
100
AcDbEntity
  8
0
  6
CONTINUOUS
 62
               4
100
AcDbLine
 10
13.95001220703125
 20
49.491766510009768
 30
0.0
 11
4.050018310546875
 21
49.491766510009768
 31
0.0
  0
LINE
  5
7C
100
AcDbEntity
  8
0
  6
CONTINUOUS
 62
               4
100
AcDbLine
 10
13.95001220703125
 20
44.991766510009768
 30
0.0
 11
13.95001220703125
 21
58.491766510009768
 31
0.0
  0
LINE
  5
7D
100
AcDbEntity
  8
0
  6
CONTINUOUS
 62
               4
100
AcDbLine
 10
4.050018310546875
 20
58.491766510009768
 30
0.0
 11
5.500030517578125
 21
58.491766510009768
 31
0.0
  0
LINE
  5
7E
100
AcDbEntity
  8
0
  6
CONTINUOUS
 62
               4
100
AcDbLine
 10
4.95001220703125
 20
53.991766510009768
 30
0.0
 11
4.95001220703125
 21
56.491766510009768
 31
0.0
  0
LINE
  5
7F
100
AcDbEntity
  8
0
  6
CONTINUOUS
 62
               4
100
AcDbLine
 10
13.050018310546875
 20
53.991766510009768
 30
0.0
 11
13.050018310546875
 21
56.491766510009768
 31
0.0
  0
LINE
  5
80
100
AcDbEntity
  8
0
  6
CONTINUOUS
 62
               4
100
AcDbLine
 10
12.500015258789063
 20
54.490240631103518
 30
0.0
 11
12.500015258789063
 21
64.991766510009768
 31
0.0
  0
LINE
  5
81
100
AcDbEntity
  8
0
  6
CONTINUOUS
 62
               4
100
AcDbLine
 10
5.5000152587890625
 20
54.490240631103518
 30
0.0
 11
5.5000152587890625
 21
64.991766510009768
 31
0.0
  0
LINE
  5
82
100
AcDbEntity
  8
0
  6
CONTINUOUS
 62
               4
100
AcDbLine
 10
5.500030517578125
 20
54.490240631103518
 30
0.0
 11
12.500030517578125
 21
54.490240631103518
 31
0.0
  0
LINE
  5
83
100
AcDbEntity
  8
0
  6
CONTINUOUS
 62
               4
100
AcDbLine
 10
5.500030517578125
 20
58.047918853759768
 30
0.0
 11
12.500030517578125
 21
58.047918853759768
 31
0.0
  0
LINE
  5
84
100
AcDbEntity
  8
0
  6
CONTINUOUS
 62
               4
100
AcDbLine
 10
5.500030517578125
 20
63.491766510009768
 30
0.0
 11
12.500030517578125
 21
63.491766510009768
 31
0.0
  0
LINE
  5
85
100
AcDbEntity
  8
0
  6
CONTINUOUS
 62
               4
100
AcDbLine
 10
4.1000213623046875
 20
64.991766510009768
 30
0.0
 11
13.9000244140625
 21
64.991766510009768
 31
0.0
  0
LINE
  5
86
100
AcDbEntity
  8
0
  6
CONTINUOUS
 62
               4
100
AcDbLine
 10
12.500030517578125
 20
58.491766510009768
 30
0.0
 11
13.95001220703125
 21
58.491766510009768
 31
0.0
  0
LINE
  5
87
100
AcDbEntity
  8
0
  6
CONTINUOUS
 62
               4
100
AcDbLine
 10
12.500030517578125
 20
57.491766510009768
 30
0.0
 11
13.050018310546875
 21
57.491766510009768
 31
0.0
  0
LINE
  5
88
100
AcDbEntity
  8
0
  6
CONTINUOUS
 62
               4
100
AcDbLine
 10
12.500030517578125
 20
56.491766510009768
 30
0.0
 11
13.050018310546875
 21
56.491766510009768
 31
0.0
  0
LINE
  5
89
100
AcDbEntity
  8
0
  6
CONTINUOUS
 62
               4
100
AcDbLine
 10
4.95001220703125
 20
57.491766510009768
 30
0.0
 11
5.500030517578125
 21
57.491766510009768
 31
0.0
  0
LINE
  5
8A
100
AcDbEntity
  8
0
  6
CONTINUOUS
 62
               4
100
AcDbLine
 10
4.95001220703125
 20
56.491766510009768
 30
0.0
 11
5.500030517578125
 21
56.491766510009768
 31
0.0
  0
LINE
  5
8B
100
AcDbEntity
  8
0
  6
CONTINUOUS
 62
               4
100
AcDbLine
 10
4.95001220703125
 20
57.491766510009768
 30
0.0
 11
4.95001220703125
 21
58.491766510009768
 31
0.0
  0
LINE
  5
8C
100
AcDbEntity
  8
0
  6
CONTINUOUS
 62
               4
100
AcDbLine
 10
13.050018310546875
 20
57.491766510009768
 30
0.0
 11
13.050018310546875
 21
58.491766510009768
 31
0.0
  0
LINE
  5
8D
100
AcDbEntity
  8
0
  6
CONTINUOUS
 62
               4
100
AcDbLine
 10
7.71502685546875
 20
69.700995025634768
 30
0.0
 11
7.71502685546875
 21
72.991766510009768
 31
0.0
  0
LINE
  5
8E
100
AcDbEntity
  8
0
  6
CONTINUOUS
 62
               4
100
AcDbLine
 10
6.285003662109375
 20
69.317816314697268
 30
0.0
 11
6.285003662109375
 21
72.991766510009768
 31
0.0
  0
LINE
  5
8F
100
AcDbEntity
  8
0
  6
CONTINUOUS
 62
               4
100
AcDbLine
 10
6.285003662109375
 20
72.991766510009768
 30
0.0
 11
7.7150115966796875
 21
72.991766510009768
 31
0.0
  0
LINE
  5
90
100
AcDbEntity
  8
0
  6
CONTINUOUS
 62
               4
100
AcDbLine
 10
7.4000244140625
 20
72.991766510009768
 30
0.0
 11
7.4000244140625
 21
77.991766510009768
 31
0.0
  0
LINE
  5
91
100
AcDbEntity
  8
0
  6
CONTINUOUS
 62
               4
100
AcDbLine
 10
6.600006103515625
 20
72.991766510009768
 30
0.0
 11
6.600006103515625
 21
77.991766510009768
 31
0.0
  0
LINE
  5
92
100
AcDbEntity
  8
0
  6
CONTINUOUS
 62
               4
100
AcDbLine
 10
6.600006103515625
 20
77.991766510009768
 30
0.0
 11
7.4000091552734375
 21
77.991766510009768
 31
0.0
  0
LINE
  5
93
100
AcDbEntity
  8
0
  6
CONTINUOUS
 62
               4
100
AcDbLine
 10
7.71502685546875
 20
64.991766510009768
 30
0.0
 11
7.71502685546875
 21
68.665716705322268
 31
0.0
  0
LINE
  5
94
100
AcDbEntity
  8
0
  6
CONTINUOUS
 62
               4
100
AcDbLine
 10
6.285003662109375
 20
64.991766510009768
 30
0.0
 11
6.285003662109375
 21
68.282537994384768
 31
0.0
  0
LINE
  5
95
100
AcDbEntity
  8
0
  6
CONTINUOUS
 62
               4
100
AcDbLine
 10
13.9000244140625
 20
58.491766510009768
 30
0.0
 11
13.9000244140625
 21
64.991766510009768
 31
0.0
  0
LINE
  5
96
100
AcDbEntity
  8
0
  6
CONTINUOUS
 62
               4
100
AcDbLine
 10
4.1000213623046875
 20
58.491766510009768
 30
0.0
 11
4.1000213623046875
 21
64.991766510009768
 31
0.0
  0
LINE
  5
97
100
AcDbEntity
  8
0
  6
CONTINUOUS
 62
               4
100
AcDbLine
 10
5.0000152587890625
 20
58.491766510009768
 30
0.0
 11
5.0000152587890625
 21
64.991766510009768
 31
0.0
  0
LINE
  5
98
100
AcDbEntity
  8
0
  6
CONTINUOUS
 62
               4
100
AcDbLine
 10
13.000015258789062
 20
58.491766510009768
 30
0.0
 11
13.000015258789062
 21
64.991766510009768
 31
0.0
  0
LINE
  5
99
100
AcDbEntity
  8
0
  6
CONTINUOUS
 62
               4
100
AcDbLine
 10
0.0000152587890625
 20
-52.008248748779295
 30
0.0
 11
2.5000152587890625
 21
-52.008248748779295
 31
0.0
  0
LINE
  5
9A
100
AcDbEntity
  8
0
  6
CONTINUOUS
 62
               4
100
AcDbLine
 10
0.0000152587890625
 20
-46.008248748779295
 30
0.0
 11
2.5000152587890625
 21
-46.008248748779295
 31
0.0
  0
LINE
  5
9B
100
AcDbEntity
  8
0
  6
CONTINUOUS
 62
               4
100
AcDbLine
 10
12.500015258789063
 20
-51.008233489990232
 30
0.0
 11
12.500015258789063
 21
-55.308251800537107
 31
0.0
  0
LINE
  5
9C
100
AcDbEntity
  8
0
  6
CONTINUOUS
 62
               4
100
AcDbLine
 10
5.5000152587890625
 20
-7.0082182312011696
 30
0.0
 11
5.5000152587890625
 21
-2.7082304382324196
 31
0.0
  0
LINE
  5
9D
100
AcDbEntity
  8
0
  6
CONTINUOUS
 62
               4
100
AcDbLine
 10
2.5000152587890625
 20
-10.008233489990232
 30
0.0
 11
0.0000152587890625
 21
-10.008233489990232
 31
0.0
  0
LINE
  5
9E
100
AcDbEntity
  8
0
  6
CONTINUOUS
 62
               4
100
AcDbLine
 10
0.0000152587890625
 20
-53.308251800537107
 30
0.0
 11
12.500015258789063
 21
-53.308251800537107
 31
0.0
  0
LINE
  5
9F
100
AcDbEntity
  8
0
  6
CONTINUOUS
 62
               4
100
AcDbLine
 10
16.560693240367073
 20
-10.068886380237416
 30
0.0
 11
14.439368462763923
 21
-7.9475703645170483
 31
0.0
  0
LINE
  5
A0
100
AcDbEntity
  8
0
  6
CONTINUOUS
 62
               4
100
AcDbLine
 10
3.5606958712805863
 20
-8.0688597796237786
 30
0.0
 11
1.4393830742110367
 21
-5.947531604555877
 31
0.0
  0
LINE
  5
A1
100
AcDbEntity
  8
0
  6
CONTINUOUS
 62
               4
100
AcDbLine
 10
1.439359449001131
 20
-8.0688989436834504
 30
0.0
 11
3.5606819020231342
 21
-5.9475807821958711
 31
0.0
  0
LINE
  5
A2
100
AcDbEntity
  8
0
  6
CONTINUOUS
 62
               4
100
AcDbLine
 10
14.43936462577858
 20
-10.068875461796267
 30
0.0
 11
16.560693873730088
 21
-7.947563916424258
 31
0.0
  0
LINE
  5
A3
100
AcDbEntity
  8
0
  6
CONTINUOUS
 62
               7
100
AcDbLine
 10
0.5000152587890625
 20
-78.508237304687498
 30
0.0
 11
17.500015258789063
 21
-78.508237304687498
 31
0.0
  0
LINE
  5
A4
100
AcDbEntity
  8
0
  6
CONTINUOUS
 62
               7
100
AcDbLine
 10
16.500015258789063
 20
-66.508248748779295
 30
0.0
 11
1.5000152587890625
 21
-66.508248748779295
 31
0.0
  0
LINE
  5
A5
100
AcDbEntity
  8
0
  6
CONTINUOUS
 62
               7
100
AcDbLine
 10
16.500015258789063
 20
-66.508248748779295
 30
0.0
 11
16.500015258789063
 21
-56.508248748779295
 31
0.0
  0
LINE
  5
A6
100
AcDbEntity
  8
0
  6
CONTINUOUS
 62
               7
100
AcDbLine
 10
1.5000152587890625
 20
-66.508248748779295
 30
0.0
 11
1.5000152587890625
 21
-56.508248748779295
 31
0.0
  0
LINE
  5
A7
100
AcDbEntity
  8
0
  6
CONTINUOUS
 62
               7
100
AcDbLine
 10
1.5000152587890625
 20
-56.508248748779295
 30
0.0
 11
16.500015258789063
 21
-56.508248748779295
 31
0.0
  0
LINE
  5
A8
100
AcDbEntity
  8
0
  6
CONTINUOUS
 62
               7
100
AcDbLine
 10
15.500015258789063
 20
-65.508248748779295
 30
0.0
 11
2.5000152587890625
 21
-65.508248748779295
 31
0.0
  0
LINE
  5
A9
100
AcDbEntity
  8
0
  6
CONTINUOUS
 62
               7
100
AcDbLine
 10
2.5000152587890625
 20
-57.508248748779295
 30
0.0
 11
15.500015258789063
 21
-57.508248748779295
 31
0.0
  0
LINE
  5
AA
100
AcDbEntity
  8
0
  6
CONTINUOUS
 62
               7
100
AcDbLine
 10
15.500015258789063
 20
-65.508248748779295
 30
0.0
 11
15.500015258789063
 21
-57.508248748779295
 31
0.0
  0
LINE
  5
AB
100
AcDbEntity
  8
0
  6
CONTINUOUS
 62
               7
100
AcDbLine
 10
2.5000152587890625
 20
-65.508248748779295
 30
0.0
 11
2.5000152587890625
 21
-57.508248748779295
 31
0.0
  0
LINE
  5
AC
100
AcDbEntity
  8
0
  6
CONTINUOUS
 62
               7
100
AcDbLine
 10
16.500013452862902
 20
-66.508232052307221
 30
0.0
 11
15.500012391273401
 21
-65.50823099071772
 31
0.0
  0
LINE
  5
AD
100
AcDbEntity
  8
0
  6
CONTINUOUS
 62
               7
100
AcDbLine
 10
15.500003687947412
 20
-57.508233055765515
 30
0.0
 11
16.49999901756928
 21
-56.508235787395677
 31
0.0
  0
LINE
  5
AE
100
AcDbEntity
  8
0
  6
CONTINUOUS
 62
               7
100
AcDbLine
 10
1.5000389171204915
 20
-56.508220045471205
 30
0.0
 11
2.5000380399528694
 21
-57.508223045817829
 31
0.0
  0
LINE
  5
AF
100
AcDbEntity
  8
0
  6
CONTINUOUS
 62
               7
100
AcDbLine
 10
2.5000201689320534
 20
-65.508218008591598
 30
0.0
 11
1.500013375364972
 21
-66.508213338203518
 31
0.0
  0
LINE
  5
B0
100
AcDbEntity
  8
0
  6
CONTINUOUS
 62
               7
100
AcDbLine
 10
2.5000152587890625
 20
-67.508248748779295
 30
0.0
 11
2.5000152587890625
 21
-66.508248748779295
 31
0.0
  0
LINE
  5
B1
100
AcDbEntity
  8
0
  6
CONTINUOUS
 62
               7
100
AcDbLine
 10
0.0000152587890625
 20
-64.508248748779295
 30
0.0
 11
1.5000152587890625
 21
-64.508248748779295
 31
0.0
  0
LINE
  5
B2
100
AcDbEntity
  8
0
  6
CONTINUOUS
 62
               7
100
AcDbLine
 10
2.5000152587890625
 20
-56.508248748779295
 30
0.0
 11
2.5000152587890625
 21
-55.508248748779295
 31
0.0
  0
LINE
  5
B3
100
AcDbEntity
  8
0
  6
CONTINUOUS
 62
               7
100
AcDbLine
 10
0.0000152587890625
 20
-58.508248748779295
 30
0.0
 11
1.5000152587890625
 21
-58.508248748779295
 31
0.0
  0
LINE
  5
B4
100
AcDbEntity
  8
0
  6
CONTINUOUS
 62
               7
100
AcDbLine
 10
15.500015258789063
 20
-56.508248748779295
 30
0.0
 11
15.500015258789063
 21
-55.508248748779295
 31
0.0
  0
LINE
  5
B5
100
AcDbEntity
  8
0
  6
CONTINUOUS
 62
               7
100
AcDbLine
 10
15.500015258789063
 20
-67.508264007568357
 30
0.0
 11
15.500015258789063
 21
-66.508248748779295
 31
0.0
  0
LINE
  5
B6
100
AcDbEntity
  8
0
  6
CONTINUOUS
 62
               4
100
AcDbLine
 10
14.439373265220638
 20
-52.068915539098668
 30
0.0
 11
16.560689280941006
 21
-49.947590761495519
 31
0.0
  0
LINE
  5
B7
100
AcDbEntity
  8
0
  6
CONTINUOUS
 62
               4
100
AcDbLine
 10
16.560671249801089
 20
-52.068902503065544
 30
0.0
 11
14.439352015429904
 21
-49.947581122927147
 31
0.0
  0
LINE
  5
B8
100
AcDbEntity
  8
0
  6
CONTINUOUS
 62
               4
100
AcDbLine
 10
1.43937606759971
 20
-50.068879564059046
 30
0.0
 11
3.5606892222971283
 21
-47.947552104246881
 31
0.0
  0
LINE
  5
B9
100
AcDbEntity
  8
0
  6
CONTINUOUS
 62
               4
100
AcDbLine
 10
3.5606899557960787
 20
-50.068890848326873
 30
0.0
 11
1.4393717943084994
 21
-47.947568216490936
 31
0.0
  0
LINE
  5
BA
100
AcDbEntity
  8
0
  6
CONTINUOUS
 62
               7
100
AcDbLine
 10
11.5
 20
17.69179397583008
 30
0.0
 11
12.5
 21
17.69179397583008
 31
0.0
  0
LINE
  5
BB
100
AcDbEntity
  8
0
  6
CONTINUOUS
 62
               7
100
AcDbLine
 10
9.0
 20
14.19179397583008
 30
0.0
 11
9.0
 21
15.19179397583008
 31
0.0
  0
LINE
  5
BC
100
AcDbEntity
  8
0
  6
CONTINUOUS
 62
               7
100
AcDbLine
 10
8.9999933120707283
 20
14.691780394571254
 30
0.0
 11
9.999995365011273
 21
14.423830711517951
 31
0.0
  0
LINE
  5
BD
100
AcDbEntity
  8
0
  6
CONTINUOUS
 62
               7
100
AcDbLine
 10
2.0
 20
9.9917817687988304
 30
0.0
 11
15.999997138977051
 21
9.9917817687988304
 31
0.0
  0
LINE
  5
BE
100
AcDbEntity
  8
0
  6
CONTINUOUS
 62
               7
100
AcDbLine
 10
0.0000614865421085
 20
7.4917629160177626
 30
0.0
 11
2.0000055033533499
 21
9.9917572929758194
 31
0.0
  0
LINE
  5
BF
100
AcDbEntity
  8
0
  6
CONTINUOUS
 62
               4
100
AcDbLine
 10
0.0
 20
-5.7472471618652321
 30
0.0
 11
0.0
 21
-2.7082456970214821
 31
0.0
  0
LINE
  5
C0
100
AcDbEntity
  8
0
  6
CONTINUOUS
 62
               4
100
AcDbLine
 10
0.0
 20
-55.308251800537107
 30
0.0
 11
0.0
 21
-50.574224230405179
 31
0.0
  0
CIRCLE
  5
C1
100
AcDbEntity
  8
0
  6
CONTINUOUS
 62
               7
100
AcDbCircle
 10
9.0000152587890625
 20
17.691778717041018
 30
0.0
 40
2.0
  0
CIRCLE
  5
C2
100
AcDbEntity
  8
0
  6
CONTINUOUS
 62
               7
100
AcDbCircle
 10
9.0000152587890625
 20
17.691778717041018
 30
0.0
 40
1.9499998092651367
  0
ARC
  5
C3
100
AcDbEntity
  8
0
  6
CONTINUOUS
 62
               4
100
AcDbCircle
 10
13.45001220703125
 20
53.491766510009768
 30
0.0
 40
0.5
100
AcDbArc
 50
359.99994535848663
 51
89.999982013910653
  0
ARC
  5
C4
100
AcDbEntity
  8
0
  6
CONTINUOUS
 62
               4
100
AcDbCircle
 10
4.550018310546875
 20
53.491766510009768
 30
0.0
 40
0.5
100
AcDbArc
 50
89.999982013910653
 51
179.99996402782131
  0
CIRCLE
  5
C5
100
AcDbEntity
  8
0
  6
CONTINUOUS
 62
               4
100
AcDbCircle
 10
2.5000152587890625
 20
-7.0082182312011696
 30
0.0
 40
2.75
  0
ARC
  5
C6
100
AcDbEntity
  8
0
  6
CONTINUOUS
 62
               4
100
AcDbCircle
 10
15.500015258789063
 20
-9.0082182312011696
 30
0.0
 40
3.0
100
AcDbArc
 50
89.999982013910653
 51
269.99994604173196
  0
ARC
  5
C7
100
AcDbEntity
  8
0
  6
CONTINUOUS
 62
               4
100
AcDbCircle
 10
2.5000152587890625
 20
-49.008233489990232
 30
0.0
 40
3.0
100
AcDbArc
 50
269.99996334457597
 51
89.999982013910653
  0
ARC
  5
C8
100
AcDbEntity
  8
0
  6
CONTINUOUS
 62
               4
100
AcDbCircle
 10
2.5000152587890625
 20
-7.0082182312011696
 30
0.0
 40
3.0
100
AcDbArc
 50
270.00001798608935
 51
0.00001366037834
  0
ARC
  5
C9
100
AcDbEntity
  8
0
  6
CONTINUOUS
 62
               4
100
AcDbCircle
 10
15.500015258789063
 20
-51.008233489990232
 30
0.0
 40
3.0
100
AcDbArc
 50
89.999982013910653
 51
179.99996402782131
  0
ARC
  5
CA
100
AcDbEntity
  8
0
  6
CONTINUOUS
 62
               7
100
AcDbCircle
 10
0.5000152587890625
 20
-78.008229675292966
 30
0.0
 40
0.5
100
AcDbArc
 50
180.00003597217869
 51
269.99996334457597
  0
CIRCLE
  5
CB
100
AcDbEntity
  8
0
  6
CONTINUOUS
 62
               4
100
AcDbCircle
 10
2.500030517578125
 20
-49.008233489990232
 30
0.0
 40
2.75
  0
ARC
  5
CC
100
AcDbEntity
  8
0
  6
CONTINUOUS
 62
               7
100
AcDbCircle
 10
9.100006103515625
 20
17.69179397583008
 30
0.0
 40
3.0
100
AcDbArc
 50
268.08980532053351
 51
0.0
  0
ARC
  5
CD
100
AcDbEntity
  8
0
  6
CONTINUOUS
 62
               7
100
AcDbCircle
 10
9.0
 20
17.69179397583008
 30
0.0
 40
3.0
100
AcDbArc
 50
266.17746163595666
 51
3.822566595416411
  0
ARC
  5
CE
100
AcDbEntity
  8
0
  6
CONTINUOUS
 62
               7
100
AcDbCircle
 10
8.9000091552734375
 20
17.69179397583008
 30
0.0
 40
3.0
100
AcDbArc
 50
271.91023065164512
 51
0.0
  0
ARC
  5
CF
100
AcDbEntity
  8
0
  6
CONTINUOUS
 62
               7
100
AcDbCircle
 10
15.000045776367188
 20
10.49184280395508
 30
0.0
 40
2.5000734329223633
100
AcDbArc
 50
191.53802865027112
 51
319.45890333229613
  0
CIRCLE
  5
D0
100
AcDbEntity
  8
0
  6
CONTINUOUS
 62
               4
100
AcDbCircle
 10
2.5000152587890625
 20
-49.008202972412107
 30
0.0
 40
2.9499998092651367
  0
LINE
  5
D1
100
AcDbEntity
  8
0
  6
CONTINUOUS
 62
             200
100
AcDbLine
 10
5.0000135876007334
 20
67.938221620664592
 30
0.0
 11
9.0000217993629121
 21
69.010020599707389
 31
0.0
  0
LINE
  5
D2
100
AcDbEntity
  8
0
  6
CONTINUOUS
 62
             200
100
AcDbLine
 10
5.0000088944188974
 20
68.973496530160958
 30
0.0
 11
9.0000171061810761
 21
70.045295509203754
 31
0.0
  0
LINE
  5
D3
100
AcDbEntity
  8
0
  6
CONTINUOUS
 62
               4
100
AcDbLine
 10
0.0000152587890625
 20
-86.708248748779283
 30
0.0
 11
0.0000152587890625
 21
-78.008229675292966
 31
0.0
  0
LINE
  5
D4
100
AcDbEntity
  8
0
  6
CONTINUOUS
 62
               4
100
AcDbLine
 10
17.246424858789055
 20
-95.808247748779308
 30
0.0
 11
0.7536056587890698
 21
-95.808247748779308
 31
0.0
  0
LINE
  5
D5
100
AcDbEntity
  8
0
  6
CONTINUOUS
 62
               4
100
AcDbLine
 10
16.100015258789057
 20
-97.4082487487793
 30
0.0
 11
1.9000152587890398
 21
-97.4082487487793
 31
0.0
  0
LINE
  5
D6
100
AcDbEntity
  8
0
  6
CONTINUOUS
 62
               4
100
AcDbLine
 10
3.0000152587890625
 20
-97.9082487487793
 30
0.0
 11
3.0000152587890625
 21
-97.508248748779295
 31
0.0
  0
LINE
  5
D7
100
AcDbEntity
  8
0
  6
CONTINUOUS
 62
               4
100
AcDbLine
 10
0.2000152587890511
 20
-86.9082487487793
 30
0.0
 11
0.0000152587890625
 21
-86.708248548779295
 31
0.0
  0
LINE
  5
D8
100
AcDbEntity
  8
0
  6
CONTINUOUS
 62
               4
100
AcDbLine
 10
17.300015258789074
 20
-92.808248748779306
 30
0.0
 11
17.300015258789074
 21
-91.9082487487793
 31
0.0
  0
LINE
  5
D9
100
AcDbEntity
  8
0
  6
CONTINUOUS
 62
               4
100
AcDbLine
 10
0.7000152587890511
 20
-92.808248748779306
 30
0.0
 11
0.7000152587890511
 21
-91.9082487487793
 31
0.0
  0
LINE
  5
DA
100
AcDbEntity
  8
0
  6
CONTINUOUS
 62
               4
100
AcDbLine
 10
0.0000152587890625
 20
-91.808248748779306
 30
0.0
 11
0.1000152587890852
 21
-91.9082487487793
 31
0.0
  0
LINE
  5
DB
100
AcDbEntity
  8
0
  6
CONTINUOUS
 62
               4
100
AcDbLine
 10
0.0000152587890625
 20
-91.808248748779306
 30
0.0
 11
0.0000152587890625
 21
-87.108248348779284
 31
0.0
  0
LINE
  5
DC
100
AcDbEntity
  8
0
  6
CONTINUOUS
 62
               4
100
AcDbLine
 10
0.2000152587890511
 20
-86.908248148779307
 30
0.0
 11
0.0000152587890625
 21
-87.108248348779284
 31
0.0
  0
LINE
  5
DD
100
AcDbEntity
  8
0
  6
CONTINUOUS
 62
               4
100
AcDbLine
 10
0.2000152587890511
 20
-92.808248748779306
 30
0.0
 11
0.0000152587890625
 21
-93.008248748779295
 31
0.0
  0
LINE
  5
DE
100
AcDbEntity
  8
0
  6
CONTINUOUS
 62
               4
100
AcDbLine
 10
0.0000152587890625
 20
-95.373162748779293
 30
0.0
 11
0.0000152587890625
 21
-93.008248748779295
 31
0.0
  0
LINE
  5
DF
100
AcDbEntity
  8
0
  6
CONTINUOUS
 62
               4
100
AcDbLine
 10
17.246424858789055
 20
-95.808247748779308
 30
0.0
 11
16.900014458789059
 21
-96.408247748779303
 31
0.0
  0
LINE
  5
E0
100
AcDbEntity
  8
0
  6
CONTINUOUS
 62
               4
100
AcDbLine
 10
0.7536056587890698
 20
-95.808247748779308
 30
0.0
 11
1.1000160587890377
 21
-96.408247748779303
 31
0.0
  0
LINE
  5
E1
100
AcDbEntity
  8
0
  6
CONTINUOUS
 62
               4
100
AcDbLine
 10
0.0000152587890625
 20
-95.373161748779296
 30
0.0
 11
0.7536056587890698
 21
-95.808247748779308
 31
0.0
  0
LINE
  5
E2
100
AcDbEntity
  8
0
  6
CONTINUOUS
 62
               4
100
AcDbLine
 10
16.900015258789068
 20
-96.408247748779303
 30
0.0
 11
1.1000160587890377
 21
-96.408247748779303
 31
0.0
  0
LINE
  5
E3
100
AcDbEntity
  8
0
  6
CONTINUOUS
 62
               4
100
AcDbLine
 10
16.100015258789057
 20
-97.4082487487793
 30
0.0
 11
16.100015258789057
 21
-96.408247748779303
 31
0.0
  0
LINE
  5
E4
100
AcDbEntity
  8
0
  6
CONTINUOUS
 62
               4
100
AcDbLine
 10
16.000015258789063
 20
-97.508248748779295
 30
0.0
 11
2.0000152587890625
 21
-97.508248748779295
 31
0.0
  0
LINE
  5
E5
100
AcDbEntity
  8
0
  6
CONTINUOUS
 62
               4
100
AcDbLine
 10
16.000015258789063
 20
-97.508248748779295
 30
0.0
 11
16.100015258789057
 21
-97.4082487487793
 31
0.0
  0
LINE
  5
E6
100
AcDbEntity
  8
0
  6
CONTINUOUS
 62
               4
100
AcDbLine
 10
2.0000152587890625
 20
-97.508248748779295
 30
0.0
 11
1.9000152587890398
 21
-97.4082487487793
 31
0.0
  0
LINE
  5
E7
100
AcDbEntity
  8
0
  6
CONTINUOUS
 62
               4
100
AcDbLine
 10
1.9000152587890398
 20
-97.4082487487793
 30
0.0
 11
1.9000152587890398
 21
-96.408247748779303
 31
0.0
  0
LINE
  5
E8
100
AcDbEntity
  8
0
  6
CONTINUOUS
 62
               4
100
AcDbLine
 10
15.000015258789063
 20
-97.9082487487793
 30
0.0
 11
15.000015258789063
 21
-97.508248748779295
 31
0.0
  0
LINE
  5
E9
100
AcDbEntity
  8
0
  6
CONTINUOUS
 62
               4
100
AcDbLine
 10
17.400015258789068
 20
-99.308929748779292
 30
0.0
 11
17.400015258789068
 21
-98.4082487487793
 31
0.0
  0
LINE
  5
EA
100
AcDbEntity
  8
0
  6
CONTINUOUS
 62
               4
100
AcDbLine
 10
0.6000152587890852
 20
-98.4082487487793
 30
0.0
 11
17.400015258789068
 21
-98.4082487487793
 31
0.0
  0
LINE
  5
EB
100
AcDbEntity
  8
0
  6
CONTINUOUS
 62
               4
100
AcDbLine
 10
0.6000152587890852
 20
-99.308929748779292
 30
0.0
 11
0.6000152587890852
 21
-98.4082487487793
 31
0.0
  0
ARC
  5
EC
100
AcDbEntity
  8
0
  6
CONTINUOUS
 62
               4
100
AcDbCircle
 10
2.5000152587890625
 20
-97.9082487487793
 30
0.0
 40
0.5
100
AcDbArc
 50
270.0
 51
0.0000000000002036
  0
ARC
  5
ED
100
AcDbEntity
  8
0
  6
CONTINUOUS
 62
               4
100
AcDbCircle
 10
15.500015258789063
 20
-97.9082487487793
 30
0.0
 40
0.5
100
AcDbArc
 50
180.0000000000006
 51
270.0000000000008
  0
LINE
  5
EE
100
AcDbEntity
  8
0
  6
CONTINUOUS
 62
               7
100
AcDbLine
 10
0.0000152587890625
 20
-78.008229675292966
 30
0.0
 11
0.0000152587890625
 21
-55.308251800537107
 31
0.0
  0
LINE
  5
EF
100
AcDbEntity
  8
0
  6
CONTINUOUS
 62
               4
100
AcDbLine
 10
0.1000152587890852
 20
-91.9082487487793
 30
0.0
 11
17.900015258789068
 21
-91.9082487487793
 31
0.0
  0
LINE
  5
F0
100
AcDbEntity
  8
0
  6
CONTINUOUS
 62
               4
100
AcDbLine
 10
18.000015258789063
 20
-95.373161748779296
 30
0.0
 11
17.246424858789055
 21
-95.808247748779308
 31
0.0
  0
LINE
  5
F1
100
AcDbEntity
  8
0
  6
CONTINUOUS
 62
               4
100
AcDbLine
 10
0.2000152587890511
 20
-92.808248748779306
 30
0.0
 11
17.800015258789074
 21
-92.808248748779306
 31
0.0
  0
LINE
  5
F2
100
AcDbEntity
  8
0
  6
CONTINUOUS
 62
               4
100
AcDbLine
 10
17.800015258789074
 20
-86.908248348779296
 30
0.0
 11
0.2000152587890511
 21
-86.908248348779296
 31
0.0
  0
LINE
  5
F3
100
AcDbEntity
  8
0
  6
CONTINUOUS
 62
               4
100
AcDbLine
 10
18.000015258789063
 20
-87.108248348779284
 30
0.0
 11
0.0000152587890625
 21
-87.108248348779284
 31
0.0
  0
LINE
  5
F4
100
AcDbEntity
  8
0
  6
CONTINUOUS
 62
               4
100
AcDbLine
 10
18.000015258789063
 20
-95.373161748779296
 30
0.0
 11
0.0000152587890625
 21
-95.373161748779296
 31
0.0
  0
LINE
  5
F5
100
AcDbEntity
  8
0
  6
CONTINUOUS
 62
               4
100
AcDbLine
 10
18.000015258789063
 20
-93.008248748779295
 30
0.0
 11
0.0000152587890625
 21
-93.008248748779295
 31
0.0
  0
LINE
  5
F6
100
AcDbEntity
  8
0
  6
CONTINUOUS
 62
               4
100
AcDbLine
 10
18.000015258789063
 20
-91.808248748779306
 30
0.0
 11
0.0000152587890625
 21
-91.808248748779306
 31
0.0
  0
LINE
  5
F7
100
AcDbEntity
  8
0
  6
CONTINUOUS
 62
               4
100
AcDbLine
 10
0.0000152587890625
 20
-86.708248548779295
 30
0.0
 11
18.000015258789063
 21
-86.708248548779295
 31
0.0
  0
CIRCLE
  5
F8
100
AcDbEntity
  8
0
  6
CONTINUOUS
 62
               4
100
AcDbCircle
 10
15.5
 20
-9.0082182312011696
 30
0.0
 40
2.9499998092651367
  0
CIRCLE
  5
F9
100
AcDbEntity
  8
0
  6
CONTINUOUS
 62
               4
100
AcDbCircle
 10
15.500015258789063
 20
-51.008233489990232
 30
0.0
 40
2.75
  0
ARC
  5
FA
100
AcDbEntity
  8
0
  6
CONTINUOUS
 62
               7
100
AcDbCircle
 10
17.500015258789063
 20
-78.008237304687498
 30
0.0
 40
0.5
100
AcDbArc
 50
270.00001798608935
 51
0.00001366037834
  0
CIRCLE
  5
FB
100
AcDbEntity
  8
0
  6
CONTINUOUS
 62
               4
100
AcDbCircle
 10
15.500030517578125
 20
-9.0082182312011696
 30
0.0
 40
2.75
  0
LINE
  5
FC
100
AcDbEntity
  8
0
  6
CONTINUOUS
 62
               4
100
AcDbLine
 10
15.5
 20
-12.00821823120117
 30
0.0
 11
18.0
 21
-12.00821823120117
 31
0.0
  0
LINE
  5
FD
100
AcDbEntity
  8
0
  6
CONTINUOUS
 62
               4
100
AcDbLine
 10
15.5
 20
-6.0082182312011696
 30
0.0
 11
18.0
 21
-6.0082182312011696
 31
0.0
  0
LINE
  5
FE
100
AcDbEntity
  8
0
  6
CONTINUOUS
 62
               7
100
AcDbLine
 10
17.999957281960633
 20
7.4917794663384143
 30
0.0
 11
16.000002969903107
 21
9.9917853768752707
 31
0.0
  0
LINE
  5
FF
100
AcDbEntity
  8
0
  6
CONTINUOUS
 62
               7
100
AcDbLine
 10
16.500015258789063
 20
-64.508248748779295
 30
0.0
 11
18.000015258789063
 21
-64.508248748779295
 31
0.0
  0
LINE
  5
100
100
AcDbEntity
  8
0
  6
CONTINUOUS
 62
               7
100
AcDbLine
 10
16.500015258789063
 20
-58.508248748779295
 30
0.0
 11
18.000015258789063
 21
-58.508248748779295
 31
0.0
  0
LINE
  5
101
100
AcDbEntity
  8
0
  6
CONTINUOUS
 62
               4
100
AcDbLine
 10
5.5000152587890625
 20
-4.7082456970214821
 30
0.0
 11
18.000015258789063
 21
-4.7082456970214821
 31
0.0
  0
LINE
  5
102
100
AcDbEntity
  8
0
  6
CONTINUOUS
 62
               4
100
AcDbLine
 10
15.500015258789063
 20
-48.008233489990232
 30
0.0
 11
18.000015258789063
 21
-48.008233489990232
 31
0.0
  0
LINE
  5
103
100
AcDbEntity
  8
0
  6
CONTINUOUS
 62
               4
100
AcDbLine
 10
0.0000152587890625
 20
-55.308251800537107
 30
0.0
 11
18.000015258789063
 21
-55.308251800537107
 31
0.0
  0
LINE
  5
104
100
AcDbEntity
  8
0
  6
CONTINUOUS
 62
               4
100
AcDbLine
 10
0.0000152587890625
 20
-2.7082456970214821
 30
0.0
 11
18.000015258789063
 21
-2.7082456970214821
 31
0.0
  0
LINE
  5
105
100
AcDbEntity
  8
0
  6
CONTINUOUS
 62
               7
100
AcDbLine
 10
0.0000152587890625
 20
-67.508248748779295
 30
0.0
 11
18.000015258789063
 21
-67.508248748779295
 31
0.0
  0
LINE
  5
106
100
AcDbEntity
  8
0
  6
CONTINUOUS
 62
               7
100
AcDbLine
 10
0.0000152587890625
 20
-55.508248748779295
 30
0.0
 11
18.000015258789063
 21
-55.508248748779295
 31
0.0
  0
LINE
  5
107
100
AcDbEntity
  8
0
  6
CONTINUOUS
 62
               7
100
AcDbLine
 10
0.0000152587890625
 20
7.4917665100097679
 30
0.0
 11
18.000015258789063
 21
7.4917665100097679
 31
0.0
  0
LINE
  5
108
100
AcDbEntity
  8
0
  6
CONTINUOUS
 62
               7
100
AcDbLine
 10
0.0000152587890625
 20
-2.5082334899902321
 30
0.0
 11
18.000015258789063
 21
-2.5082334899902321
 31
0.0
  0
LINE
  5
109
100
AcDbEntity
  8
0
  6
CONTINUOUS
 62
               2
100
AcDbLine
 10
9.0000152587890625
 20
-78.508237304687498
 30
0.0
 11
9.0000152587890625
 21
67.731762695312511
 31
0.0
  0
ENDBLK
  5
10A
100
AcDbEntity
  8
0
100
AcDbBlockEnd
  0
BLOCK
  5
10B
100
AcDbEntity
  8
0
100
AcDbBlockBegin
  2
F18MNJ-3
 70
               0
 10
0.0
 20
0.0
 30
0.0
  3
F18MNJ-3
  1

  0
LINE
  5
10C
100
AcDbEntity
  8
0
  6
CONTINUOUS
 62
               4
100
AcDbLine
 10
40.700006103515648
 20
72.991762695312502
 30
0.0
 11
40.700006103515648
 21
77.991762695312502
 31
0.0
  0
LINE
  5
10D
100
AcDbEntity
  8
0
  6
CONTINUOUS
 62
               4
100
AcDbLine
 10
41.50000915527346
 20
72.991762695312502
 30
0.0
 11
41.50000915527346
 21
77.991762695312502
 31
0.0
  0
LINE
  5
10E
100
AcDbEntity
  8
0
  6
CONTINUOUS
 62
               4
100
AcDbLine
 10
39.00000915527346
 20
72.991762695312502
 30
0.0
 11
39.00000915527346
 21
77.991762695312502
 31
0.0
  0
LINE
  5
10F
100
AcDbEntity
  8
0
  6
CONTINUOUS
 62
               4
100
AcDbLine
 10
38.200006103515648
 20
72.991762695312502
 30
0.0
 11
38.200006103515648
 21
77.99174743652344
 31
0.0
  0
LINE
  5
110
100
AcDbEntity
  8
0
  6
CONTINUOUS
 62
               7
100
AcDbLine
 10
63.0
 20
-2.5082373046874977
 30
0.0
 11
31.0
 21
-2.5082373046874977
 31
0.0
  0
LINE
  5
111
100
AcDbEntity
  8
0
  6
CONTINUOUS
 62
               7
100
AcDbLine
 10
63.0
 20
-58.508237304687498
 30
0.0
 11
63.0
 21
7.4917626953125023
 31
0.0
  0
LINE
  5
112
100
AcDbEntity
  8
0
  6
CONTINUOUS
 62
               7
100
AcDbLine
 10
65.0
 20
-55.508237304687498
 30
0.0
 11
31.0
 21
-55.508237304687498
 31
0.0
  0
LINE
  5
113
100
AcDbEntity
  8
0
  6
CONTINUOUS
 62
               7
100
AcDbLine
 10
65.0
 20
-67.508237304687498
 30
0.0
 11
31.0
 21
-67.508237304687498
 31
0.0
  0
LINE
  5
114
100
AcDbEntity
  8
0
  6
CONTINUOUS
 62
               7
100
AcDbLine
 10
65.0
 20
-78.008237304687498
 30
0.0
 11
65.0
 21
-66.508237304687498
 31
0.0
  0
LINE
  5
115
100
AcDbEntity
  8
0
  6
CONTINUOUS
 62
               4
100
AcDbLine
 10
68.0
 20
-53.308237304687495
 30
0.0
 11
68.0
 21
-4.7082373046875006
 31
0.0
  0
LINE
  5
116
100
AcDbEntity
  8
0
  6
CONTINUOUS
 62
               4
100
AcDbLine
 10
66.0
 20
-55.308237304687509
 30
0.0
 11
63.0
 21
-55.308237304687509
 31
0.0
  0
LINE
  5
117
100
AcDbEntity
  8
0
  6
CONTINUOUS
 62
               4
100
AcDbLine
 10
66.0
 20
-2.7082373046875006
 30
0.0
 11
63.0
 21
-2.7082373046875006
 31
0.0
  0
LINE
  5
118
100
AcDbEntity
  8
0
  6
CONTINUOUS
 62
               4
100
AcDbLine
 10
68.0
 20
-4.7082373046875006
 30
0.0
 11
66.0
 21
-2.7082373046875006
 31
0.0
  0
LINE
  5
119
100
AcDbEntity
  8
0
  6
CONTINUOUS
 62
               4
100
AcDbLine
 10
68.0
 20
-53.308237304687495
 30
0.0
 11
66.0
 21
-55.308237304687509
 31
0.0
  0
LINE
  5
11A
100
AcDbEntity
  8
0
  6
CONTINUOUS
 62
               7
100
AcDbLine
 10
64.5
 20
-78.508237304687498
 30
0.0
 11
31.5
 21
-78.508237304687498
 31
0.0
  0
LINE
  5
11B
100
AcDbEntity
  8
0
  6
CONTINUOUS
 62
               2
100
AcDbLine
 10
62.5
 20
17.691762695312505
 30
0.0
 11
59.800000000000011
 21
17.691762695312505
 31
0.0
  0
LINE
  5
11C
100
AcDbEntity
  8
0
  6
CONTINUOUS
 62
               7
100
AcDbLine
 10
61.5
 20
15.741762695312502
 30
0.0
 11
61.5
 21
17.391762695312501
 31
0.0
  0
LINE
  5
11D
100
AcDbEntity
  8
0
  6
CONTINUOUS
 62
               7
100
AcDbLine
 10
61.5
 20
15.741762695312502
 30
0.0
 11
60.5
 21
15.741762695312502
 31
0.0
  0
LINE
  5
11E
100
AcDbEntity
  8
0
  6
CONTINUOUS
 62
               7
100
AcDbLine
 10
61.5
 20
19.641762695312501
 30
0.0
 11
60.5
 21
19.641762695312501
 31
0.0
  0
LINE
  5
11F
100
AcDbEntity
  8
0
  6
CONTINUOUS
 62
               7
100
AcDbLine
 10
60.899999999999977
 20
17.391762695312501
 30
0.0
 11
60.899999999999977
 21
17.991762695312502
 31
0.0
  0
LINE
  5
120
100
AcDbEntity
  8
0
  6
CONTINUOUS
 62
               7
100
AcDbLine
 10
61.5
 20
17.391762695312501
 30
0.0
 11
60.899999999999977
 21
17.391762695312501
 31
0.0
  0
LINE
  5
121
100
AcDbEntity
  8
0
  6
CONTINUOUS
 62
               7
100
AcDbLine
 10
61.5
 20
17.991762695312502
 30
0.0
 11
60.899999999999977
 21
17.991762695312502
 31
0.0
  0
LINE
  5
122
100
AcDbEntity
  8
0
  6
CONTINUOUS
 62
               7
100
AcDbLine
 10
61.5
 20
17.991762695312502
 30
0.0
 11
61.5
 21
19.641762695312501
 31
0.0
  0
LINE
  5
123
100
AcDbEntity
  8
0
  6
CONTINUOUS
 62
               7
100
AcDbLine
 10
33.5
 20
20.991762695312502
 30
0.0
 11
60.5
 21
20.991762695312502
 31
0.0
  0
LINE
  5
124
100
AcDbEntity
  8
0
  6
CONTINUOUS
 62
               7
100
AcDbLine
 10
60.5
 20
9.9917626953125023
 30
0.0
 11
60.5
 21
20.991762695312502
 31
0.0
  0
LINE
  5
125
100
AcDbEntity
  8
0
  6
CONTINUOUS
 62
               7
100
AcDbLine
 10
33.5
 20
9.9917626953125023
 30
0.0
 11
33.5
 21
20.991762695312502
 31
0.0
  0
LINE
  5
126
100
AcDbEntity
  8
0
  6
CONTINUOUS
 62
               7
100
AcDbLine
 10
65.0
 20
-64.608237304687492
 30
0.0
 11
65.0
 21
-58.408237304687503
 31
0.0
  0
LINE
  5
127
100
AcDbEntity
  8
0
  6
CONTINUOUS
 62
               7
100
AcDbLine
 10
67.0
 20
-65.508237304687498
 30
0.0
 11
67.0
 21
-57.508237304687498
 31
0.0
  0
LINE
  5
128
100
AcDbEntity
  8
0
  6
CONTINUOUS
 62
               7
100
AcDbLine
 10
66.0
 20
-56.508237304687498
 30
0.0
 11
67.0
 21
-57.508237304687498
 31
0.0
  0
LINE
  5
129
100
AcDbEntity
  8
0
  6
CONTINUOUS
 62
               7
100
AcDbLine
 10
66.0
 20
-66.508237304687498
 30
0.0
 11
67.0
 21
-65.508237304687498
 31
0.0
  0
LINE
  5
12A
100
AcDbEntity
  8
0
  6
CONTINUOUS
 62
               7
100
AcDbLine
 10
65.800000000000011
 20
-64.608237304687492
 30
0.0
 11
65.800000000000011
 21
-58.408237304687503
 31
0.0
  0
LINE
  5
12B
100
AcDbEntity
  8
0
  6
CONTINUOUS
 62
               7
100
AcDbLine
 10
66.0
 20
-66.508237304687498
 30
0.0
 11
66.0
 21
-56.508237304687498
 31
0.0
  0
LINE
  5
12C
100
AcDbEntity
  8
0
  6
CONTINUOUS
 62
               7
100
AcDbLine
 10
65.0
 20
-64.508237304687498
 30
0.0
 11
63.0
 21
-64.508237304687498
 31
0.0
  0
LINE
  5
12D
100
AcDbEntity
  8
0
  6
CONTINUOUS
 62
               7
100
AcDbLine
 10
65.0
 20
-58.508237304687498
 30
0.0
 11
63.0
 21
-58.508237304687498
 31
0.0
  0
LINE
  5
12E
100
AcDbEntity
  8
0
  6
CONTINUOUS
 62
               7
100
AcDbLine
 10
64.0
 20
-67.508237304687498
 30
0.0
 11
64.0
 21
-66.508237304687498
 31
0.0
  0
LINE
  5
12F
100
AcDbEntity
  8
0
  6
CONTINUOUS
 62
               7
100
AcDbLine
 10
63.0
 20
-67.508237304687498
 30
0.0
 11
63.0
 21
-64.508237304687498
 31
0.0
  0
LINE
  5
130
100
AcDbEntity
  8
0
  6
CONTINUOUS
 62
               7
100
AcDbLine
 10
64.0
 20
-58.508237304687498
 30
0.0
 11
64.0
 21
-58.408237304687503
 31
0.0
  0
LINE
  5
131
100
AcDbEntity
  8
0
  6
CONTINUOUS
 62
               7
100
AcDbLine
 10
63.100000000000023
 20
-66.508237304687498
 30
0.0
 11
63.100000000000023
 21
-64.608237304687492
 31
0.0
  0
LINE
  5
132
100
AcDbEntity
  8
0
  6
CONTINUOUS
 62
               7
100
AcDbLine
 10
65.800000000000011
 20
-58.408237304687503
 30
0.0
 11
63.100000000000023
 21
-58.408237304687503
 31
0.0
  0
LINE
  5
133
100
AcDbEntity
  8
0
  6
CONTINUOUS
 62
               7
100
AcDbLine
 10
65.800000000000011
 20
-64.608237304687492
 30
0.0
 11
63.100000000000023
 21
-64.608237304687492
 31
0.0
  0
LINE
  5
134
100
AcDbEntity
  8
0
  6
CONTINUOUS
 62
               7
100
AcDbLine
 10
63.100000000000023
 20
-58.408237304687503
 30
0.0
 11
63.100000000000023
 21
-56.508237304687498
 31
0.0
  0
LINE
  5
135
100
AcDbEntity
  8
0
  6
CONTINUOUS
 62
               7
100
AcDbLine
 10
66.0
 20
-66.508237304687498
 30
0.0
 11
63.100000000000023
 21
-66.508237304687498
 31
0.0
  0
LINE
  5
136
100
AcDbEntity
  8
0
  6
CONTINUOUS
 62
               7
100
AcDbLine
 10
66.0
 20
-56.508237304687498
 30
0.0
 11
63.100000000000023
 21
-56.508237304687498
 31
0.0
  0
LINE
  5
137
100
AcDbEntity
  8
0
  6
CONTINUOUS
 62
               7
100
AcDbLine
 10
65.0
 20
-56.508237304687498
 30
0.0
 11
65.0
 21
-55.508237304687498
 31
0.0
  0
LINE
  5
138
100
AcDbEntity
  8
0
  6
CONTINUOUS
 62
               7
100
AcDbLine
 10
64.0
 20
-64.608237304687492
 30
0.0
 11
64.0
 21
-64.508237304687498
 31
0.0
  0
LINE
  5
139
100
AcDbEntity
  8
0
  6
CONTINUOUS
 62
               7
100
AcDbLine
 10
64.0
 20
-56.508237304687498
 30
0.0
 11
64.0
 21
-55.508237304687498
 31
0.0
  0
LINE
  5
13A
100
AcDbEntity
  8
0
  6
CONTINUOUS
 62
               4
100
AcDbLine
 10
68.0
 20
-10.008237304687498
 30
0.0
 11
66.0
 21
-10.008237304687498
 31
0.0
  0
LINE
  5
13B
100
AcDbEntity
  8
0
  6
CONTINUOUS
 62
               4
100
AcDbLine
 10
68.0
 20
-46.008237304687498
 30
0.0
 11
63.0
 21
-46.008237304687498
 31
0.0
  0
LINE
  5
13C
100
AcDbEntity
  8
0
  6
CONTINUOUS
 62
               4
100
AcDbLine
 10
68.0
 20
-52.008237304687498
 30
0.0
 11
63.0
 21
-52.008237304687498
 31
0.0
  0
LINE
  5
13D
100
AcDbEntity
  8
0
  6
CONTINUOUS
 62
               7
100
AcDbLine
 10
63.0
 20
7.4917626953125023
 30
0.0
 11
31.0
 21
7.4917626953125023
 31
0.0
  0
LINE
  5
13E
100
AcDbEntity
  8
0
  6
CONTINUOUS
 62
               7
100
AcDbLine
 10
63.199999999999989
 20
-78.508237304687498
 30
0.0
 11
63.199999999999989
 21
-76.008237304687498
 31
0.0
  0
LINE
  5
13F
100
AcDbEntity
  8
0
  6
CONTINUOUS
 62
               7
100
AcDbLine
 10
56.800000000000011
 20
-78.508237304687498
 30
0.0
 11
56.800000000000011
 21
-76.008237304687498
 31
0.0
  0
LINE
  5
140
100
AcDbEntity
  8
0
  6
CONTINUOUS
 62
               7
100
AcDbLine
 10
63.199999999999989
 20
-76.008237304687498
 30
0.0
 11
56.800000000000011
 21
-76.008237304687498
 31
0.0
  0
LINE
  5
141
100
AcDbEntity
  8
0
  6
CONTINUOUS
 62
               7
100
AcDbLine
 10
61.25
 20
-78.008237304687498
 30
0.0
 11
58.75
 21
-78.008237304687498
 31
0.0
  0
LINE
  5
142
100
AcDbEntity
  8
0
  6
CONTINUOUS
 62
               7
100
AcDbLine
 10
62.75
 20
-76.508237304687498
 30
0.0
 11
62.75
 21
-76.008237304687498
 31
0.0
  0
LINE
  5
143
100
AcDbEntity
  8
0
  6
CONTINUOUS
 62
               7
100
AcDbLine
 10
57.25
 20
-76.508237304687498
 30
0.0
 11
57.25
 21
-76.008237304687498
 31
0.0
  0
LINE
  5
144
100
AcDbEntity
  8
0
  6
CONTINUOUS
 62
               4
100
AcDbLine
 10
66.0
 20
-10.008237304687498
 30
0.0
 11
66.0
 21
-2.7082373046875006
 31
0.0
  0
LINE
  5
145
100
AcDbEntity
  8
0
  6
CONTINUOUS
 62
               4
100
AcDbLine
 10
66.5
 20
-9.7582373046874977
 30
0.0
 11
66.0
 21
-9.7582373046874977
 31
0.0
  0
LINE
  5
146
100
AcDbEntity
  8
0
  6
CONTINUOUS
 62
               4
100
AcDbLine
 10
66.5
 20
-4.2582373046874977
 30
0.0
 11
66.0
 21
-4.2582373046874977
 31
0.0
  0
LINE
  5
147
100
AcDbEntity
  8
0
  6
CONTINUOUS
 62
               4
100
AcDbLine
 10
64.199999999999989
 20
-51.758237304687498
 30
0.0
 11
63.699999999999989
 21
-51.758237304687498
 31
0.0
  0
LINE
  5
148
100
AcDbEntity
  8
0
  6
CONTINUOUS
 62
               4
100
AcDbLine
 10
65.699999999999989
 20
-50.258237304687498
 30
0.0
 11
65.699999999999989
 21
-47.758237304687498
 31
0.0
  0
LINE
  5
149
100
AcDbEntity
  8
0
  6
CONTINUOUS
 62
               4
100
AcDbLine
 10
63.699999999999989
 20
-51.958237304687501
 30
0.0
 11
63.699999999999989
 21
-46.058237304687495
 31
0.0
  0
LINE
  5
14A
100
AcDbEntity
  8
0
  6
CONTINUOUS
 62
               4
100
AcDbLine
 10
63.699999999999989
 20
-46.058237304687495
 30
0.0
 11
63.0
 21
-46.058237304687495
 31
0.0
  0
LINE
  5
14B
100
AcDbEntity
  8
0
  6
CONTINUOUS
 62
               4
100
AcDbLine
 10
63.699999999999989
 20
-51.958237304687501
 30
0.0
 11
63.0
 21
-51.958237304687501
 31
0.0
  0
LINE
  5
14C
100
AcDbEntity
  8
0
  6
CONTINUOUS
 62
               4
100
AcDbLine
 10
64.199999999999989
 20
-46.258237304687498
 30
0.0
 11
63.699999999999989
 21
-46.258237304687498
 31
0.0
  0
LINE
  5
14D
100
AcDbEntity
  8
0
  6
CONTINUOUS
 62
               7
100
AcDbLine
 10
61.0
 20
9.9917626953125023
 30
0.0
 11
33.0
 21
9.9917626953125023
 31
0.0
  0
LINE
  5
14E
100
AcDbEntity
  8
0
  6
CONTINUOUS
 62
               7
100
AcDbLine
 10
31.0
 20
7.4917626953125023
 30
0.0
 11
33.0
 21
9.9917626953125023
 31
0.0
  0
LINE
  5
14F
100
AcDbEntity
  8
0
  6
CONTINUOUS
 62
               7
100
AcDbLine
 10
61.0
 20
9.9917626953125023
 30
0.0
 11
63.0
 21
7.4917626953125023
 31
0.0
  0
LINE
  5
150
100
AcDbEntity
  8
0
  6
CONTINUOUS
 62
               7
100
AcDbLine
 10
31.0
 20
-78.008237304687498
 30
0.0
 11
31.0
 21
-73.008237304687498
 31
0.0
  0
ARC
  5
151
100
AcDbEntity
  8
0
  6
CONTINUOUS
 62
               7
100
AcDbCircle
 10
31.499992370663676
 20
-78.008244934023821
 30
0.0
 40
0.4999923707218841
100
AcDbArc
 50
179.9991257291162
 51
270.00087427088374
  0
ARC
  5
152
100
AcDbEntity
  8
0
  6
CONTINUOUS
 62
               7
100
AcDbCircle
 10
64.500007629336324
 20
-78.008244934023821
 30
0.0
 40
0.4999923707218841
100
AcDbArc
 50
269.9991257291162
 51
0.0008742708838174
  0
ARC
  5
153
100
AcDbEntity
  8
0
  6
CONTINUOUS
 62
               7
100
AcDbCircle
 10
58.749984741288529
 20
-76.508252563398969
 30
0.0
 40
1.4999847413661578
100
AcDbArc
 50
179.99941715422617
 51
270.00058284577358
  0
ARC
  5
154
100
AcDbEntity
  8
0
  6
CONTINUOUS
 62
               7
100
AcDbCircle
 10
61.250015258711471
 20
-76.508252563398969
 30
0.0
 40
1.4999847413661578
100
AcDbArc
 50
269.99941715422642
 51
0.0005828457738246
  0
ARC
  5
155
100
AcDbEntity
  8
0
  6
CONTINUOUS
 62
               4
100
AcDbCircle
 10
66.499977111641783
 20
-5.7582601930457145
 30
0.0
 40
1.5000228885328397
100
AcDbArc
 50
0.0008742575435872
 51
89.999125742456414
  0
ARC
  5
156
100
AcDbEntity
  8
0
  6
CONTINUOUS
 62
               4
100
AcDbCircle
 10
66.500022888008971
 20
-8.2582601926964685
 30
0.0
 40
1.4999771121656522
100
AcDbArc
 50
269.9991257291162
 51
0.0008742708838174
  0
ARC
  5
157
100
AcDbEntity
  8
0
  6
CONTINUOUS
 62
               7
100
AcDbCircle
 10
33.993154238820523
 20
10.490046415240819
 30
0.0
 40
2.4970664477637854
100
AcDbArc
 50
220.69850717856482
 51
348.4894924166054
  0
ARC
  5
158
100
AcDbEntity
  8
0
  6
CONTINUOUS
 62
               4
100
AcDbCircle
 10
64.200021362276743
 20
-50.258258666964252
 30
0.0
 40
1.4999786378753712
100
AcDbArc
 50
269.99918400951378
 51
0.000815990486498
  0
ARC
  5
159
100
AcDbEntity
  8
0
  6
CONTINUOUS
 62
               4
100
AcDbCircle
 10
64.199990844574472
 20
-47.758246460113043
 30
0.0
 40
1.5000091554534953
100
AcDbArc
 50
0.0003497093613508
 51
89.999650290638371
  0
LINE
  5
15A
100
AcDbEntity
  8
0
  6
CONTINUOUS
 62
               4
100
AcDbLine
 10
44.600000000000023
 20
53.991762695312502
 30
0.0
 11
58.174999999999955
 21
53.991762695312502
 31
0.0
  0
LINE
  5
15B
100
AcDbEntity
  8
0
  6
CONTINUOUS
 62
               4
100
AcDbLine
 10
60.5
 20
20.991762695312502
 30
0.0
 11
60.5
 21
44.991762695312502
 31
0.0
  0
LINE
  5
15C
100
AcDbEntity
  8
0
  6
CONTINUOUS
 62
               4
100
AcDbLine
 10
33.5
 20
20.991762695312502
 30
0.0
 11
33.5
 21
44.991762695312502
 31
0.0
  0
LINE
  5
15D
100
AcDbEntity
  8
0
  6
CONTINUOUS
 62
               4
100
AcDbLine
 10
33.5
 20
53.491762695312502
 30
0.0
 11
33.5
 21
44.991762695312502
 31
0.0
  0
LINE
  5
15E
100
AcDbEntity
  8
0
  6
CONTINUOUS
 62
               4
100
AcDbLine
 10
60.5
 20
49.171762695312509
 30
0.0
 11
60.5
 21
44.991762695312502
 31
0.0
  0
LINE
  5
15F
100
AcDbEntity
  8
0
  6
CONTINUOUS
 62
               4
100
AcDbLine
 10
58.629999999999995
 20
53.696762695312515
 30
0.0
 11
60.370000000000005
 21
49.781762695312494
 31
0.0
  0
ARC
  5
160
100
AcDbEntity
  8
0
  6
CONTINUOUS
 62
               4
100
AcDbCircle
 10
58.174020838564047
 20
53.491862632758767
 30
0.0
 40
0.4999010215015999
100
AcDbArc
 50
24.197376208904824
 51
89.887774076865014
  0
ARC
  5
161
100
AcDbEntity
  8
0
  6
CONTINUOUS
 62
               4
100
AcDbCircle
 10
59.002020395360546
 20
49.171373599241804
 30
0.0
 40
1.4979796551727449
100
AcDbArc
 50
0.0148824203654679
 51
24.046309772710739
  0
LINE
  5
162
100
AcDbEntity
  8
0
  6
CONTINUOUS
 62
               4
100
AcDbLine
 10
44.600000000000023
 20
58.491762695312502
 30
0.0
 11
44.600000000000023
 21
53.991762695312502
 31
0.0
  0
LINE
  5
163
100
AcDbEntity
  8
0
  6
CONTINUOUS
 62
               4
100
AcDbLine
 10
36.0
 20
58.491762695312502
 30
0.0
 11
36.0
 21
53.991762695312502
 31
0.0
  0
LINE
  5
164
100
AcDbEntity
  8
0
  6
CONTINUOUS
 62
               4
100
AcDbLine
 10
36.0
 20
53.991762695312502
 30
0.0
 11
34.0
 21
53.991762695312502
 31
0.0
  0
ARC
  5
165
100
AcDbEntity
  8
0
  6
CONTINUOUS
 62
               4
100
AcDbCircle
 10
34.0
 20
53.491762695312502
 30
0.0
 40
0.5
100
AcDbArc
 50
90.0
 51
180.0
  0
LINE
  5
166
100
AcDbEntity
  8
0
  6
CONTINUOUS
 62
             200
100
AcDbLine
 10
43.314994343097737
 20
70.456227510391329
 30
0.0
 11
36.384984189578631
 21
66.455175605875922
 31
0.0
  0
LINE
  5
167
100
AcDbEntity
  8
0
  6
CONTINUOUS
 62
             200
100
AcDbLine
 10
43.31501889147205
 20
71.610868505247311
 30
0.0
 11
36.384989799908567
 21
67.609819941466014
 31
0.0
  0
LINE
  5
168
100
AcDbEntity
  8
0
  6
CONTINUOUS
 62
               4
100
AcDbLine
 10
37.885003662109398
 20
64.991762695312502
 30
0.0
 11
37.885003662109398
 21
67.321184692382815
 31
0.0
  0
LINE
  5
169
100
AcDbEntity
  8
0
  6
CONTINUOUS
 62
               4
100
AcDbLine
 10
39.31501159667971
 20
64.991762695312502
 30
0.0
 11
39.31501159667971
 21
68.146791992187502
 31
0.0
  0
LINE
  5
16A
100
AcDbEntity
  8
0
  6
CONTINUOUS
 62
               4
100
AcDbLine
 10
37.885003662109398
 20
72.991762695312502
 30
0.0
 11
39.31501159667971
 21
72.991762695312502
 31
0.0
  0
LINE
  5
16B
100
AcDbEntity
  8
0
  6
CONTINUOUS
 62
               4
100
AcDbLine
 10
37.885003662109398
 20
68.47587829589844
 30
0.0
 11
37.885003662109398
 21
72.991762695312502
 31
0.0
  0
LINE
  5
16C
100
AcDbEntity
  8
0
  6
CONTINUOUS
 62
               4
100
AcDbLine
 10
39.31501159667971
 20
69.30150085449219
 30
0.0
 11
39.31501159667971
 21
72.991762695312502
 31
0.0
  0
LINE
  5
16D
100
AcDbEntity
  8
0
  6
CONTINUOUS
 62
               4
100
AcDbLine
 10
41.81501159667971
 20
70.744875488281252
 30
0.0
 11
41.81501159667971
 21
72.991762695312502
 31
0.0
  0
LINE
  5
16E
100
AcDbEntity
  8
0
  6
CONTINUOUS
 62
               4
100
AcDbLine
 10
40.385003662109398
 20
69.919252929687502
 30
0.0
 11
40.385003662109398
 21
72.991762695312502
 31
0.0
  0
LINE
  5
16F
100
AcDbEntity
  8
0
  6
CONTINUOUS
 62
               4
100
AcDbLine
 10
41.81501159667971
 20
72.991762695312502
 30
0.0
 11
40.385003662109398
 21
72.991762695312502
 31
0.0
  0
LINE
  5
170
100
AcDbEntity
  8
0
  6
CONTINUOUS
 62
               4
100
AcDbLine
 10
40.385003662109398
 20
64.991762695312502
 30
0.0
 11
40.385003662109398
 21
68.764559326171877
 31
0.0
  0
LINE
  5
171
100
AcDbEntity
  8
0
  6
CONTINUOUS
 62
               4
100
AcDbLine
 10
41.81501159667971
 20
64.991762695312502
 30
0.0
 11
41.81501159667971
 21
69.590166625976565
 31
0.0
  0
LINE
  5
172
100
AcDbEntity
  8
0
  6
CONTINUOUS
 62
               4
100
AcDbLine
 10
46.650003051757835
 20
63.491762695312502
 30
0.0
 11
46.650003051757835
 21
64.991762695312502
 31
0.0
  0
LINE
  5
173
100
AcDbEntity
  8
0
  6
CONTINUOUS
 62
               4
100
AcDbLine
 10
44.650044511604051
 20
63.991721638214187
 30
0.0
 11
45.227396327367956
 21
64.991730343168967
 31
0.0
  0
LINE
  5
174
100
AcDbEntity
  8
0
  6
CONTINUOUS
 62
               4
100
AcDbLine
 10
44.650003051757835
 20
58.491762695312502
 30
0.0
 11
44.650003051757835
 21
64.991762695312502
 31
0.0
  0
LINE
  5
175
100
AcDbEntity
  8
0
  6
CONTINUOUS
 62
               4
100
AcDbLine
 10
45.650001302236547
 20
54.490213437071873
 30
0.0
 11
46.150000411113638
 21
58.047901520760718
 31
0.0
  0
LINE
  5
176
100
AcDbEntity
  8
0
  6
CONTINUOUS
 62
               4
100
AcDbLine
 10
46.150003051757835
 20
58.047915039062502
 30
0.0
 11
46.150003051757835
 21
63.491762695312502
 31
0.0
  0
LINE
  5
177
100
AcDbEntity
  8
0
  6
CONTINUOUS
 62
               4
100
AcDbLine
 10
35.649987792968773
 20
63.991762695312502
 30
0.0
 11
36.149987792968773
 21
63.991762695312502
 31
0.0
  0
LINE
  5
178
100
AcDbEntity
  8
0
  6
CONTINUOUS
 62
               4
100
AcDbLine
 10
35.650003051757835
 20
63.991762695312502
 30
0.0
 11
35.650003051757835
 21
64.991762695312502
 31
0.0
  0
LINE
  5
179
100
AcDbEntity
  8
0
  6
CONTINUOUS
 62
               4
100
AcDbLine
 10
36.150003051757835
 20
58.491762695312502
 30
0.0
 11
36.150003051757835
 21
63.991762695312502
 31
0.0
  0
LINE
  5
17A
100
AcDbEntity
  8
0
  6
CONTINUOUS
 62
               4
100
AcDbLine
 10
44.650000209407722
 20
54.490236847182643
 30
0.0
 11
44.599979656101482
 21
54.540257400488883
 31
0.0
  0
LINE
  5
17B
100
AcDbEntity
  8
0
  6
CONTINUOUS
 62
               4
100
AcDbLine
 10
46.149995422363304
 20
63.491762695312502
 30
0.0
 11
46.649995422363304
 21
63.491762695312502
 31
0.0
  0
LINE
  5
17C
100
AcDbEntity
  8
0
  6
CONTINUOUS
 62
               4
100
AcDbLine
 10
44.650003051757835
 20
55.99022155761719
 30
0.0
 11
44.650003051757835
 21
58.491762695312502
 31
0.0
  0
LINE
  5
17D
100
AcDbEntity
  8
0
  6
CONTINUOUS
 62
               4
100
AcDbLine
 10
44.650003051757835
 20
54.49022155761719
 30
0.0
 11
45.649995422363304
 21
54.49022155761719
 31
0.0
  0
LINE
  5
17E
100
AcDbEntity
  8
0
  6
CONTINUOUS
 62
               4
100
AcDbLine
 10
44.600000000000023
 20
55.99022155761719
 30
0.0
 11
44.650003051757835
 21
55.99022155761719
 31
0.0
  0
LINE
  5
17F
100
AcDbEntity
  8
0
  6
CONTINUOUS
 62
               4
100
AcDbLine
 10
45.227349853515648
 20
64.991762695312502
 30
0.0
 11
46.649995422363304
 21
64.991762695312502
 31
0.0
  0
LINE
  5
180
100
AcDbEntity
  8
0
  6
CONTINUOUS
 62
               4
100
AcDbLine
 10
36.0
 20
58.491762695312502
 30
0.0
 11
44.650003051757835
 21
58.491762695312502
 31
0.0
  0
LINE
  5
181
100
AcDbEntity
  8
0
  6
CONTINUOUS
 62
               4
100
AcDbLine
 10
35.649987792968773
 20
64.991762695312502
 30
0.0
 11
44.649987792968773
 21
64.991762695312502
 31
0.0
  0
LINE
  5
182
100
AcDbEntity
  8
0
  6
CONTINUOUS
 62
               4
100
AcDbLine
 10
33.5
 20
44.991762695312502
 30
0.0
 11
60.499992370605469
 21
44.991762695312502
 31
0.0
  0
LINE
  5
183
100
AcDbEntity
  8
0
  6
CONTINUOUS
 62
               4
100
AcDbLine
 10
3.7999999999999545
 20
-92.808260192871103
 30
0.0
 11
4.0
 21
-93.008260192871091
 31
0.0
  0
LINE
  5
184
100
AcDbEntity
  8
0
  6
CONTINUOUS
 62
               4
100
AcDbLine
 10
5.2000000000000455
 20
-92.808260192871103
 30
0.0
 11
5.0
 21
-93.008260192871091
 31
0.0
  0
LINE
  5
185
100
AcDbEntity
  8
0
  6
CONTINUOUS
 62
               4
100
AcDbLine
 10
5.7000000000000455
 20
-92.808260192871103
 30
0.0
 11
5.7000000000000455
 21
-91.908260192871097
 31
0.0
  0
LINE
  5
186
100
AcDbEntity
  8
0
  6
CONTINUOUS
 62
               4
100
AcDbLine
 10
5.0
 20
-91.808260192871103
 30
0.0
 11
5.1000000000000227
 21
-91.908260192871097
 31
0.0
  0
LINE
  5
187
100
AcDbEntity
  8
0
  6
CONTINUOUS
 62
               4
100
AcDbLine
 10
5.0
 20
-91.808260192871103
 30
0.0
 11
5.0
 21
-87.108259792871081
 31
0.0
  0
LINE
  5
188
100
AcDbEntity
  8
0
  6
CONTINUOUS
 62
               4
100
AcDbLine
 10
5.2000000000000455
 20
-86.908259592871104
 30
0.0
 11
5.0
 21
-87.108259792871081
 31
0.0
  0
LINE
  5
189
100
AcDbEntity
  8
0
  6
CONTINUOUS
 62
               4
100
AcDbLine
 10
5.2000000000000455
 20
-86.908260192871097
 30
0.0
 11
5.0
 21
-86.708259992871092
 31
0.0
  0
LINE
  5
18A
100
AcDbEntity
  8
0
  6
CONTINUOUS
 62
               4
100
AcDbLine
 10
5.0
 20
-86.70826019287108
 30
0.0
 11
5.0
 21
-76.008260192871091
 31
0.0
  0
LINE
  5
18B
100
AcDbEntity
  8
0
  6
CONTINUOUS
 62
               4
100
AcDbLine
 10
3.7999999999999545
 20
-86.908260192871097
 30
0.0
 11
4.0
 21
-86.708259992871092
 31
0.0
  0
LINE
  5
18C
100
AcDbEntity
  8
0
  6
CONTINUOUS
 62
               4
100
AcDbLine
 10
3.7999999999999545
 20
-86.908259592871104
 30
0.0
 11
4.0
 21
-87.108259792871081
 31
0.0
  0
LINE
  5
18D
100
AcDbEntity
  8
0
  6
CONTINUOUS
 62
               4
100
AcDbLine
 10
4.0
 20
-91.808260192871103
 30
0.0
 11
3.8999999999999773
 21
-91.908260192871097
 31
0.0
  0
LINE
  5
18E
100
AcDbEntity
  8
0
  6
CONTINUOUS
 62
               4
100
AcDbLine
 10
3.2999999999999545
 20
-92.808260192871103
 30
0.0
 11
3.2999999999999545
 21
-91.908260192871097
 31
0.0
  0
LINE
  5
18F
100
AcDbEntity
  8
0
  6
CONTINUOUS
 62
               4
100
AcDbLine
 10
4.0
 20
-95.37317419287109
 30
0.0
 11
4.0
 21
-93.008260192871091
 31
0.0
  0
LINE
  5
190
100
AcDbEntity
  8
0
  6
CONTINUOUS
 62
               4
100
AcDbLine
 10
4.0
 20
-91.808260192871103
 30
0.0
 11
4.0
 21
-87.108259792871081
 31
0.0
  0
LINE
  5
191
100
AcDbEntity
  8
0
  6
CONTINUOUS
 62
               4
100
AcDbLine
 10
4.0
 20
-86.70826019287108
 30
0.0
 11
4.0
 21
-76.008260192871091
 31
0.0
  0
LINE
  5
192
100
AcDbEntity
  8
0
  6
CONTINUOUS
 62
             200
100
AcDbLine
 10
14.0
 20
-103.60140469851257
 30
0.0
 11
14.0
 21
-76.008260192871091
 31
0.0
  0
LINE
  5
193
100
AcDbEntity
  8
0
  6
CONTINUOUS
 62
             200
100
AcDbLine
 10
-5.0
 20
-103.60140469851257
 30
0.0
 11
-5.0
 21
-76.008260192871091
 31
0.0
  0
LINE
  5
194
100
AcDbEntity
  8
0
  6
CONTINUOUS
 62
               4
100
AcDbLine
 10
5.0
 20
-91.808260192871103
 30
0.0
 11
23.0
 21
-91.808260192871103
 31
0.0
  0
LINE
  5
195
100
AcDbEntity
  8
0
  6
CONTINUOUS
 62
               4
100
AcDbLine
 10
5.0
 20
-93.008260192871091
 30
0.0
 11
23.0
 21
-93.008260192871091
 31
0.0
  0
LINE
  5
196
100
AcDbEntity
  8
0
  6
CONTINUOUS
 62
               4
100
AcDbLine
 10
5.0
 20
-95.373173192871093
 30
0.0
 11
23.0
 21
-95.373173192871093
 31
0.0
  0
LINE
  5
197
100
AcDbEntity
  8
0
  6
CONTINUOUS
 62
               4
100
AcDbLine
 10
5.7535904000000073
 20
-95.808259192871105
 30
0.0
 11
22.246409599999993
 21
-95.808259192871105
 31
0.0
  0
LINE
  5
198
100
AcDbEntity
  8
0
  6
CONTINUOUS
 62
               4
100
AcDbLine
 10
6.8999999999999773
 20
-97.408260192871097
 30
0.0
 11
21.100000000000023
 21
-97.408260192871097
 31
0.0
  0
LINE
  5
199
100
AcDbEntity
  8
0
  6
CONTINUOUS
 62
               4
100
AcDbLine
 10
20.0
 20
-97.908260192871097
 30
0.0
 11
20.0
 21
-97.508260192871091
 31
0.0
  0
LINE
  5
19A
100
AcDbEntity
  8
0
  6
CONTINUOUS
 62
               4
100
AcDbLine
 10
5.0
 20
-87.108259792871081
 30
0.0
 11
23.0
 21
-87.108259792871081
 31
0.0
  0
LINE
  5
19B
100
AcDbEntity
  8
0
  6
CONTINUOUS
 62
               4
100
AcDbLine
 10
22.799999999999955
 20
-86.908260192871097
 30
0.0
 11
23.0
 21
-86.708259992871092
 31
0.0
  0
LINE
  5
19C
100
AcDbEntity
  8
0
  6
CONTINUOUS
 62
               4
100
AcDbLine
 10
22.299999999999955
 20
-92.808260192871103
 30
0.0
 11
22.299999999999955
 21
-91.908260192871097
 31
0.0
  0
LINE
  5
19D
100
AcDbEntity
  8
0
  6
CONTINUOUS
 62
               4
100
AcDbLine
 10
23.0
 20
-86.70826019287108
 30
0.0
 11
23.0
 21
-75.511554592871079
 31
0.0
  0
LINE
  5
19E
100
AcDbEntity
  8
0
  6
CONTINUOUS
 62
               4
100
AcDbLine
 10
23.0
 20
-91.808260192871103
 30
0.0
 11
22.899999999999977
 21
-91.908260192871097
 31
0.0
  0
LINE
  5
19F
100
AcDbEntity
  8
0
  6
CONTINUOUS
 62
               4
100
AcDbLine
 10
23.0
 20
-91.808260192871103
 30
0.0
 11
23.0
 21
-87.108259792871081
 31
0.0
  0
LINE
  5
1A0
100
AcDbEntity
  8
0
  6
CONTINUOUS
 62
               4
100
AcDbLine
 10
5.2000000000000455
 20
-86.908259792871092
 30
0.0
 11
22.799999999999955
 21
-86.908259792871092
 31
0.0
  0
LINE
  5
1A1
100
AcDbEntity
  8
0
  6
CONTINUOUS
 62
               4
100
AcDbLine
 10
22.799999999999955
 20
-86.908259592871104
 30
0.0
 11
23.0
 21
-87.108259792871081
 31
0.0
  0
LINE
  5
1A2
100
AcDbEntity
  8
0
  6
CONTINUOUS
 62
               4
100
AcDbLine
 10
5.0
 20
-95.37317419287109
 30
0.0
 11
5.0
 21
-93.008260192871091
 31
0.0
  0
LINE
  5
1A3
100
AcDbEntity
  8
0
  6
CONTINUOUS
 62
               4
100
AcDbLine
 10
22.799999999999955
 20
-92.808260192871103
 30
0.0
 11
23.0
 21
-93.008260192871091
 31
0.0
  0
LINE
  5
1A4
100
AcDbEntity
  8
0
  6
CONTINUOUS
 62
               4
100
AcDbLine
 10
23.0
 20
-95.37317419287109
 30
0.0
 11
23.0
 21
-93.008260192871091
 31
0.0
  0
LINE
  5
1A5
100
AcDbEntity
  8
0
  6
CONTINUOUS
 62
               4
100
AcDbLine
 10
22.799999999999955
 20
-92.808260192871103
 30
0.0
 11
5.2000000000000455
 21
-92.808260192871103
 31
0.0
  0
LINE
  5
1A6
100
AcDbEntity
  8
0
  6
CONTINUOUS
 62
               4
100
AcDbLine
 10
5.7535904000000073
 20
-95.808259192871105
 30
0.0
 11
6.1000007999999752
 21
-96.4082591928711
 31
0.0
  0
LINE
  5
1A7
100
AcDbEntity
  8
0
  6
CONTINUOUS
 62
               4
100
AcDbLine
 10
22.246409599999993
 20
-95.808259192871105
 30
0.0
 11
21.899999200000025
 21
-96.4082591928711
 31
0.0
  0
LINE
  5
1A8
100
AcDbEntity
  8
0
  6
CONTINUOUS
 62
               4
100
AcDbLine
 10
23.0
 20
-95.373173192871093
 30
0.0
 11
22.246409599999993
 21
-95.808259192871105
 31
0.0
  0
LINE
  5
1A9
100
AcDbEntity
  8
0
  6
CONTINUOUS
 62
               4
100
AcDbLine
 10
5.0
 20
-95.373173192871093
 30
0.0
 11
5.7535904000000073
 21
-95.808259192871105
 31
0.0
  0
LINE
  5
1AA
100
AcDbEntity
  8
0
  6
CONTINUOUS
 62
               4
100
AcDbLine
 10
6.1000000000000227
 20
-96.4082591928711
 30
0.0
 11
21.899999200000025
 21
-96.4082591928711
 31
0.0
  0
LINE
  5
1AB
100
AcDbEntity
  8
0
  6
CONTINUOUS
 62
               4
100
AcDbLine
 10
22.899999999999977
 20
-91.908260192871097
 30
0.0
 11
5.1000000000000227
 21
-91.908260192871097
 31
0.0
  0
LINE
  5
1AC
100
AcDbEntity
  8
0
  6
CONTINUOUS
 62
               4
100
AcDbLine
 10
6.8999999999999773
 20
-97.408260192871097
 30
0.0
 11
6.8999999999999773
 21
-96.4082591928711
 31
0.0
  0
LINE
  5
1AD
100
AcDbEntity
  8
0
  6
CONTINUOUS
 62
               4
100
AcDbLine
 10
7.0
 20
-97.508260192871091
 30
0.0
 11
21.0
 21
-97.508260192871091
 31
0.0
  0
LINE
  5
1AE
100
AcDbEntity
  8
0
  6
CONTINUOUS
 62
               4
100
AcDbLine
 10
7.0
 20
-97.508260192871091
 30
0.0
 11
6.8999999999999773
 21
-97.408260192871097
 31
0.0
  0
LINE
  5
1AF
100
AcDbEntity
  8
0
  6
CONTINUOUS
 62
               4
100
AcDbLine
 10
21.0
 20
-97.508260192871091
 30
0.0
 11
21.100000000000023
 21
-97.408260192871097
 31
0.0
  0
LINE
  5
1B0
100
AcDbEntity
  8
0
  6
CONTINUOUS
 62
               4
100
AcDbLine
 10
21.100000000000023
 20
-97.408260192871097
 30
0.0
 11
21.100000000000023
 21
-96.4082591928711
 31
0.0
  0
LINE
  5
1B1
100
AcDbEntity
  8
0
  6
CONTINUOUS
 62
               4
100
AcDbLine
 10
8.0
 20
-97.908260192871097
 30
0.0
 11
8.0
 21
-97.508260192871091
 31
0.0
  0
LINE
  5
1B2
100
AcDbEntity
  8
0
  6
CONTINUOUS
 62
               4
100
AcDbLine
 10
5.6000000000000227
 20
-99.308941192871089
 30
0.0
 11
5.6000000000000227
 21
-98.408260192871097
 31
0.0
  0
LINE
  5
1B3
100
AcDbEntity
  8
0
  6
CONTINUOUS
 62
               4
100
AcDbLine
 10
22.399999999999977
 20
-98.408260192871097
 30
0.0
 11
5.6000000000000227
 21
-98.408260192871097
 31
0.0
  0
LINE
  5
1B4
100
AcDbEntity
  8
0
  6
CONTINUOUS
 62
               4
100
AcDbLine
 10
5.8999999999999773
 20
-99.608260192871086
 30
0.0
 11
22.100000000000023
 21
-99.608260192871086
 31
0.0
  0
LINE
  5
1B5
100
AcDbEntity
  8
0
  6
CONTINUOUS
 62
               4
100
AcDbLine
 10
22.399999999999977
 20
-99.308941192871089
 30
0.0
 11
22.399999999999977
 21
-98.408260192871097
 31
0.0
  0
ARC
  5
1B6
100
AcDbEntity
  8
0
  6
CONTINUOUS
 62
               4
100
AcDbCircle
 10
20.5
 20
-97.908260192871097
 30
0.0
 40
0.5
100
AcDbArc
 50
179.9999999999998
 51
270.0
  0
ARC
  5
1B7
100
AcDbEntity
  8
0
  6
CONTINUOUS
 62
               4
100
AcDbCircle
 10
5.8999999999999773
 20
-99.308260192871103
 30
0.0
 40
0.3
100
AcDbArc
 50
179.9999999999998
 51
270.0
  0
ARC
  5
1B8
100
AcDbEntity
  8
0
  6
CONTINUOUS
 62
               4
100
AcDbCircle
 10
7.5
 20
-97.908260192871097
 30
0.0
 40
0.5
100
AcDbArc
 50
269.9999999999992
 51
359.99999999999937
  0
ARC
  5
1B9
100
AcDbEntity
  8
0
  6
CONTINUOUS
 62
               4
100
AcDbCircle
 10
22.100000000000023
 20
-99.308260192871103
 30
0.0
 40
0.3
100
AcDbArc
 50
269.9999999999992
 51
359.99999999999937
  0
LINE
  5
1BA
100
AcDbEntity
  8
0
  6
CONTINUOUS
 62
               4
100
AcDbLine
 10
22.13974596215553
 20
-76.008260192871091
 30
0.0
 11
-13.13974596215553
 21
-76.008260192871091
 31
0.0
  0
LINE
  5
1BB
100
AcDbEntity
  8
0
  6
CONTINUOUS
 62
               4
100
AcDbLine
 10
23.0
 20
-86.708259992871092
 30
0.0
 11
5.0
 21
-86.708259992871092
 31
0.0
  0
ARC
  5
1BC
100
AcDbEntity
  8
0
  6
CONTINUOUS
 62
               4
100
AcDbCircle
 10
-13.100000000000023
 20
-99.308260192871103
 30
0.0
 40
0.3
100
AcDbArc
 50
180.0000000000006
 51
270.0000000000008
  0
ARC
  5
1BD
100
AcDbEntity
  8
0
  6
CONTINUOUS
 62
               4
100
AcDbCircle
 10
1.5
 20
-97.908260192871097
 30
0.0
 40
0.5
100
AcDbArc
 50
180.0000000000006
 51
270.0000000000008
  0
ARC
  5
1BE
100
AcDbEntity
  8
0
  6
CONTINUOUS
 62
               4
100
AcDbCircle
 10
3.1000000000000227
 20
-99.308260192871103
 30
0.0
 40
0.3
100
AcDbArc
 50
270.0
 51
0.0000000000002036
  0
ARC
  5
1BF
100
AcDbEntity
  8
0
  6
CONTINUOUS
 62
               4
100
AcDbCircle
 10
-11.5
 20
-97.908260192871097
 30
0.0
 40
0.5
100
AcDbArc
 50
270.0
 51
0.0000000000002036
  0
LINE
  5
1C0
100
AcDbEntity
  8
0
  6
CONTINUOUS
 62
               4
100
AcDbLine
 10
-13.399999999999977
 20
-99.308941192871089
 30
0.0
 11
-13.399999999999977
 21
-98.408260192871097
 31
0.0
  0
LINE
  5
1C1
100
AcDbEntity
  8
0
  6
CONTINUOUS
 62
               4
100
AcDbLine
 10
3.1000000000000227
 20
-99.608260192871086
 30
0.0
 11
-13.100000000000023
 21
-99.608260192871086
 31
0.0
  0
LINE
  5
1C2
100
AcDbEntity
  8
0
  6
CONTINUOUS
 62
               4
100
AcDbLine
 10
-13.399999999999977
 20
-98.408260192871097
 30
0.0
 11
3.3999999999999773
 21
-98.408260192871097
 31
0.0
  0
LINE
  5
1C3
100
AcDbEntity
  8
0
  6
CONTINUOUS
 62
               4
100
AcDbLine
 10
3.3999999999999773
 20
-99.308941192871089
 30
0.0
 11
3.3999999999999773
 21
-98.408260192871097
 31
0.0
  0
LINE
  5
1C4
100
AcDbEntity
  8
0
  6
CONTINUOUS
 62
               4
100
AcDbLine
 10
1.0
 20
-97.908260192871097
 30
0.0
 11
1.0
 21
-97.508260192871091
 31
0.0
  0
LINE
  5
1C5
100
AcDbEntity
  8
0
  6
CONTINUOUS
 62
               4
100
AcDbLine
 10
-12.100000000000023
 20
-97.408260192871097
 30
0.0
 11
-12.100000000000023
 21
-96.4082591928711
 31
0.0
  0
LINE
  5
1C6
100
AcDbEntity
  8
0
  6
CONTINUOUS
 62
               4
100
AcDbLine
 10
-12.0
 20
-97.508260192871091
 30
0.0
 11
-12.100000000000023
 21
-97.408260192871097
 31
0.0
  0
LINE
  5
1C7
100
AcDbEntity
  8
0
  6
CONTINUOUS
 62
               4
100
AcDbLine
 10
2.0
 20
-97.508260192871091
 30
0.0
 11
2.1000000000000227
 21
-97.408260192871097
 31
0.0
  0
LINE
  5
1C8
100
AcDbEntity
  8
0
  6
CONTINUOUS
 62
               4
100
AcDbLine
 10
2.0
 20
-97.508260192871091
 30
0.0
 11
-12.0
 21
-97.508260192871091
 31
0.0
  0
LINE
  5
1C9
100
AcDbEntity
  8
0
  6
CONTINUOUS
 62
               4
100
AcDbLine
 10
2.1000000000000227
 20
-97.408260192871097
 30
0.0
 11
2.1000000000000227
 21
-96.4082591928711
 31
0.0
  0
LINE
  5
1CA
100
AcDbEntity
  8
0
  6
CONTINUOUS
 62
               4
100
AcDbLine
 10
-13.899999999999977
 20
-91.908260192871097
 30
0.0
 11
3.8999999999999773
 21
-91.908260192871097
 31
0.0
  0
LINE
  5
1CB
100
AcDbEntity
  8
0
  6
CONTINUOUS
 62
               4
100
AcDbLine
 10
2.8999999999999773
 20
-96.4082591928711
 30
0.0
 11
-12.899999200000025
 21
-96.4082591928711
 31
0.0
  0
LINE
  5
1CC
100
AcDbEntity
  8
0
  6
CONTINUOUS
 62
               4
100
AcDbLine
 10
4.0
 20
-95.373173192871093
 30
0.0
 11
3.2464095999999927
 21
-95.808259192871105
 31
0.0
  0
LINE
  5
1CD
100
AcDbEntity
  8
0
  6
CONTINUOUS
 62
               4
100
AcDbLine
 10
-14.0
 20
-95.373173192871093
 30
0.0
 11
-13.246409599999993
 21
-95.808259192871105
 31
0.0
  0
LINE
  5
1CE
100
AcDbEntity
  8
0
  6
CONTINUOUS
 62
               4
100
AcDbLine
 10
-13.246409599999993
 20
-95.808259192871105
 30
0.0
 11
-12.899999200000025
 21
-96.4082591928711
 31
0.0
  0
LINE
  5
1CF
100
AcDbEntity
  8
0
  6
CONTINUOUS
 62
               4
100
AcDbLine
 10
3.2464095999999927
 20
-95.808259192871105
 30
0.0
 11
2.8999992000000248
 21
-96.4082591928711
 31
0.0
  0
LINE
  5
1D0
100
AcDbEntity
  8
0
  6
CONTINUOUS
 62
               4
100
AcDbLine
 10
-13.799999999999955
 20
-92.808260192871103
 30
0.0
 11
3.7999999999999545
 21
-92.808260192871103
 31
0.0
  0
LINE
  5
1D1
100
AcDbEntity
  8
0
  6
CONTINUOUS
 62
               4
100
AcDbLine
 10
-14.0
 20
-95.37317419287109
 30
0.0
 11
-14.0
 21
-93.008260192871091
 31
0.0
  0
LINE
  5
1D2
100
AcDbEntity
  8
0
  6
CONTINUOUS
 62
               4
100
AcDbLine
 10
-13.799999999999955
 20
-92.808260192871103
 30
0.0
 11
-14.0
 21
-93.008260192871091
 31
0.0
  0
LINE
  5
1D3
100
AcDbEntity
  8
0
  6
CONTINUOUS
 62
               4
100
AcDbLine
 10
-13.799999999999955
 20
-86.908259592871104
 30
0.0
 11
-14.0
 21
-87.108259792871081
 31
0.0
  0
LINE
  5
1D4
100
AcDbEntity
  8
0
  6
CONTINUOUS
 62
               4
100
AcDbLine
 10
3.7999999999999545
 20
-86.908259792871092
 30
0.0
 11
-13.799999999999955
 21
-86.908259792871092
 31
0.0
  0
LINE
  5
1D5
100
AcDbEntity
  8
0
  6
CONTINUOUS
 62
               4
100
AcDbLine
 10
-14.0
 20
-91.808260192871103
 30
0.0
 11
-14.0
 21
-87.108259792871081
 31
0.0
  0
LINE
  5
1D6
100
AcDbEntity
  8
0
  6
CONTINUOUS
 62
               4
100
AcDbLine
 10
-14.0
 20
-91.808260192871103
 30
0.0
 11
-13.899999999999977
 21
-91.908260192871097
 31
0.0
  0
LINE
  5
1D7
100
AcDbEntity
  8
0
  6
CONTINUOUS
 62
               4
100
AcDbLine
 10
-14.0
 20
-86.70826019287108
 30
0.0
 11
-14.0
 21
-75.511554592871079
 31
0.0
  0
LINE
  5
1D8
100
AcDbEntity
  8
0
  6
CONTINUOUS
 62
               4
100
AcDbLine
 10
-13.299999999999955
 20
-92.808260192871103
 30
0.0
 11
-13.299999999999955
 21
-91.908260192871097
 31
0.0
  0
LINE
  5
1D9
100
AcDbEntity
  8
0
  6
CONTINUOUS
 62
               4
100
AcDbLine
 10
-14.0
 20
-86.708259992871092
 30
0.0
 11
4.0
 21
-86.708259992871092
 31
0.0
  0
LINE
  5
1DA
100
AcDbEntity
  8
0
  6
CONTINUOUS
 62
               4
100
AcDbLine
 10
-13.799999999999955
 20
-86.908260192871097
 30
0.0
 11
-14.0
 21
-86.708259992871092
 31
0.0
  0
LINE
  5
1DB
100
AcDbEntity
  8
0
  6
CONTINUOUS
 62
               4
100
AcDbLine
 10
4.0
 20
-87.108259792871081
 30
0.0
 11
-14.0
 21
-87.108259792871081
 31
0.0
  0
LINE
  5
1DC
100
AcDbEntity
  8
0
  6
CONTINUOUS
 62
               4
100
AcDbLine
 10
-11.0
 20
-97.908260192871097
 30
0.0
 11
-11.0
 21
-97.508260192871091
 31
0.0
  0
LINE
  5
1DD
100
AcDbEntity
  8
0
  6
CONTINUOUS
 62
               4
100
AcDbLine
 10
2.1000000000000227
 20
-97.408260192871097
 30
0.0
 11
-12.100000000000023
 21
-97.408260192871097
 31
0.0
  0
LINE
  5
1DE
100
AcDbEntity
  8
0
  6
CONTINUOUS
 62
               4
100
AcDbLine
 10
3.2464095999999927
 20
-95.808259192871105
 30
0.0
 11
-13.246409599999993
 21
-95.808259192871105
 31
0.0
  0
LINE
  5
1DF
100
AcDbEntity
  8
0
  6
CONTINUOUS
 62
               4
100
AcDbLine
 10
4.0
 20
-95.373173192871093
 30
0.0
 11
-14.0
 21
-95.373173192871093
 31
0.0
  0
LINE
  5
1E0
100
AcDbEntity
  8
0
  6
CONTINUOUS
 62
               4
100
AcDbLine
 10
4.0
 20
-93.008260192871091
 30
0.0
 11
-14.0
 21
-93.008260192871091
 31
0.0
  0
LINE
  5
1E1
100
AcDbEntity
  8
0
  6
CONTINUOUS
 62
               4
100
AcDbLine
 10
4.0
 20
-91.808260192871103
 30
0.0
 11
-14.0
 21
-91.808260192871103
 31
0.0
  0
LINE
  5
1E2
100
AcDbEntity
  8
0
  6
CONTINUOUS
 62
               4
100
AcDbLine
 10
21.499992370605469
 20
-76.008260192871091
 30
0.0
 11
21.499992370605469
 21
-73.008237304687498
 31
0.0
  0
LINE
  5
1E3
100
AcDbEntity
  8
0
  6
CONTINUOUS
 62
               4
100
AcDbLine
 10
27.335938028359237
 20
-73.008237304687498
 30
0.0
 11
22.13974596215553
 21
-76.008260192871091
 31
0.0
  0
LINE
  5
1E4
100
AcDbEntity
  8
0
  6
CONTINUOUS
 62
               4
100
AcDbLine
 10
-18.335911599361225
 20
-73.008252563476503
 30
0.0
 11
-13.13974596215553
 21
-76.008260192871091
 31
0.0
  0
LINE
  5
1E5
100
AcDbEntity
  8
0
  6
CONTINUOUS
 62
               4
100
AcDbLine
 10
-14.5
 20
-75.222917157955351
 30
0.0
 11
-14.5
 21
-73.008237304687498
 31
0.0
  0
ENDBLK
  5
1E6
100
AcDbEntity
  8
0
100
AcDbBlockEnd
  0
BLOCK
  5
1E7
100
AcDbEntity
  8
0
100
AcDbBlockBegin
  2
F18MNJ-4
 70
               0
 10
0.0
 20
0.0
 30
0.0
  3
F18MNJ-4
  1

  0
LINE
  5
1E8
100
AcDbEntity
  8
0
  6
CONTINUOUS
 62
               2
100
AcDbLine
 10
9.5
 20
71.310000000000002
 30
0.0
 11
9.5
 21
-23.379999999999995
 31
0.0
  0
LINE
  5
1E9
100
AcDbEntity
  8
0
  6
CONTINUOUS
 62
               7
100
AcDbLine
 10
0.5
 20
66.0
 30
0.0
 11
0.5
 21
31.0
 31
0.0
  0
LINE
  5
1EA
100
AcDbEntity
  8
0
  6
CONTINUOUS
 62
               7
100
AcDbLine
 10
3.5
 20
57.0
 30
0.0
 11
0.5
 21
57.0
 31
0.0
  0
LINE
  5
1EB
100
AcDbEntity
  8
0
  6
CONTINUOUS
 62
               7
100
AcDbLine
 10
18.5
 20
67.5
 30
0.0
 11
18.5
 21
67.319999999999993
 31
0.0
  0
LINE
  5
1EC
100
AcDbEntity
  8
0
  6
CONTINUOUS
 62
               4
100
AcDbLine
 10
0.5
 20
67.5
 30
0.0
 11
0.5
 21
66.0
 31
0.0
  0
LINE
  5
1ED
100
AcDbEntity
  8
0
  6
CONTINUOUS
 62
               7
100
AcDbLine
 10
18.0
 20
65.0
 30
0.0
 11
1.0
 21
65.0
 31
0.0
  0
LINE
  5
1EE
100
AcDbEntity
  8
0
  6
CONTINUOUS
 62
               7
100
AcDbLine
 10
16.0
 20
67.0
 30
0.0
 11
3.0
 21
67.0
 31
0.0
  0
LINE
  5
1EF
100
AcDbEntity
  8
0
  6
CONTINUOUS
 62
               7
100
AcDbLine
 10
17.0
 20
66.0
 30
0.0
 11
17.0
 21
65.0
 31
0.0
  0
LINE
  5
1F0
100
AcDbEntity
  8
0
  6
CONTINUOUS
 62
               7
100
AcDbLine
 10
2.0
 20
66.0
 30
0.0
 11
2.0
 21
65.0
 31
0.0
  0
LINE
  5
1F1
100
AcDbEntity
  8
0
  6
CONTINUOUS
 62
               7
100
AcDbLine
 10
17.0
 20
66.0
 30
0.0
 11
16.0
 21
67.0
 31
0.0
  0
LINE
  5
1F2
100
AcDbEntity
  8
0
  6
CONTINUOUS
 62
               7
100
AcDbLine
 10
3.0
 20
67.0
 30
0.0
 11
2.0
 21
66.0
 31
0.0
  0
LINE
  5
1F3
100
AcDbEntity
  8
0
  6
CONTINUOUS
 62
               7
100
AcDbLine
 10
4.5600000000000023
 20
58.930000000000007
 30
0.0
 11
2.4300000000000068
 21
61.060000000000002
 31
0.0
  0
LINE
  5
1F4
100
AcDbEntity
  8
0
  6
CONTINUOUS
 62
               7
100
AcDbLine
 10
2.4300000000000068
 20
58.930000000000007
 30
0.0
 11
4.5600000000000023
 21
61.060000000000002
 31
0.0
  0
LINE
  5
1F5
100
AcDbEntity
  8
0
  6
CONTINUOUS
 62
               7
100
AcDbLine
 10
15.5
 20
37.0
 30
0.0
 11
18.5
 21
37.0
 31
0.0
  0
LINE
  5
1F6
100
AcDbEntity
  8
0
  6
CONTINUOUS
 62
               7
100
AcDbLine
 10
12.5
 20
34.0
 30
0.0
 11
12.5
 21
31.0
 31
0.0
  0
LINE
  5
1F7
100
AcDbEntity
  8
0
  6
CONTINUOUS
 62
               7
100
AcDbLine
 10
16.560000000000002
 20
35.060000000000002
 30
0.0
 11
14.430000000000007
 21
32.930000000000007
 31
0.0
  0
LINE
  5
1F8
100
AcDbEntity
  8
0
  6
CONTINUOUS
 62
               7
100
AcDbLine
 10
14.430000000000007
 20
35.060000000000002
 30
0.0
 11
16.560000000000002
 21
32.930000000000007
 31
0.0
  0
LINE
  5
1F9
100
AcDbEntity
  8
0
  6
CONTINUOUS
 62
               7
100
AcDbLine
 10
3.5
 20
63.0
 30
0.0
 11
0.5
 21
63.0
 31
0.0
  0
LINE
  5
1FA
100
AcDbEntity
  8
0
  6
CONTINUOUS
 62
               4
100
AcDbLine
 10
1.0
 20
68.0
 30
0.0
 11
18.0
 21
68.0
 31
0.0
  0
LINE
  5
1FB
100
AcDbEntity
  8
0
  6
CONTINUOUS
 62
               7
100
AcDbLine
 10
0.5
 20
66.0
 30
0.0
 11
18.75
 21
66.0
 31
0.0
  0
LINE
  5
1FC
100
AcDbEntity
  8
0
  6
CONTINUOUS
 62
               4
100
AcDbLine
 10
13.0
 20
68.0
 30
0.0
 11
13.0
 21
67.0
 31
0.0
  0
LINE
  5
1FD
100
AcDbEntity
  8
0
  6
CONTINUOUS
 62
               4
100
AcDbLine
 10
18.75
 20
66.5
 30
0.0
 11
18.75
 21
66.0
 31
0.0
  0
LINE
  5
1FE
100
AcDbEntity
  8
0
  6
CONTINUOUS
 62
               7
100
AcDbLine
 10
18.5
 20
66.0
 30
0.0
 11
18.5
 21
31.0
 31
0.0
  0
LINE
  5
1FF
100
AcDbEntity
  8
0
  6
CONTINUOUS
 62
               7
100
AcDbLine
 10
0.0
 20
31.0
 30
0.0
 11
0.0
 21
-22.0
 31
0.0
  0
LINE
  5
200
100
AcDbEntity
  8
0
  6
CONTINUOUS
 62
               7
100
AcDbLine
 10
19.0
 20
31.0
 30
0.0
 11
19.0
 21
-22.0
 31
0.0
  0
LINE
  5
201
100
AcDbEntity
  8
0
  6
CONTINUOUS
 62
               7
100
AcDbLine
 10
0.0
 20
31.0
 30
0.0
 11
19.0
 21
31.0
 31
0.0
  0
LINE
  5
202
100
AcDbEntity
  8
0
  6
CONTINUOUS
 62
               7
100
AcDbLine
 10
0.0
 20
-22.0
 30
0.0
 11
19.0
 21
-22.0
 31
0.0
  0
LINE
  5
203
100
AcDbEntity
  8
0
  6
CONTINUOUS
 62
               4
100
AcDbLine
 10
18.5
 20
-21.800000000000011
 30
0.0
 11
18.5
 21
-18.639999999999986
 31
0.0
  0
LINE
  5
204
100
AcDbEntity
  8
0
  6
CONTINUOUS
 62
               4
100
AcDbLine
 10
0.5
 20
-21.800000000000011
 30
0.0
 11
0.5
 21
-18.5
 31
0.0
  0
LINE
  5
205
100
AcDbEntity
  8
0
  6
CONTINUOUS
 62
               4
100
AcDbLine
 10
0.5
 20
30.800000000000011
 30
0.0
 11
18.5
 21
30.800000000000011
 31
0.0
  0
LINE
  5
206
100
AcDbEntity
  8
0
  6
CONTINUOUS
 62
               4
100
AcDbLine
 10
0.5
 20
-21.800000000000011
 30
0.0
 11
18.5
 21
-21.800000000000011
 31
0.0
  0
LINE
  5
207
100
AcDbEntity
  8
0
  6
CONTINUOUS
 62
               4
100
AcDbLine
 10
16.0
 20
-14.5
 30
0.0
 11
18.5
 21
-14.5
 31
0.0
  0
LINE
  5
208
100
AcDbEntity
  8
0
  6
CONTINUOUS
 62
               4
100
AcDbLine
 10
13.0
 20
-21.800000000000011
 30
0.0
 11
13.0
 21
-17.5
 31
0.0
  0
LINE
  5
209
100
AcDbEntity
  8
0
  6
CONTINUOUS
 62
               4
100
AcDbLine
 10
6.0
 20
26.5
 30
0.0
 11
6.0
 21
30.800000000000011
 31
0.0
  0
LINE
  5
20A
100
AcDbEntity
  8
0
  6
CONTINUOUS
 62
               4
100
AcDbLine
 10
0.5
 20
23.5
 30
0.0
 11
3.0
 21
23.5
 31
0.0
  0
LINE
  5
20B
100
AcDbEntity
  8
0
  6
CONTINUOUS
 62
               4
100
AcDbLine
 10
17.060000000000002
 20
-18.560000000000002
 30
0.0
 11
14.930000000000007
 21
-16.439999999999998
 31
0.0
  0
LINE
  5
20C
100
AcDbEntity
  8
0
  6
CONTINUOUS
 62
               4
100
AcDbLine
 10
4.0600000000000023
 20
25.430000000000007
 30
0.0
 11
1.9300000000000068
 21
27.560000000000002
 31
0.0
  0
LINE
  5
20D
100
AcDbEntity
  8
0
  6
CONTINUOUS
 62
               4
100
AcDbLine
 10
1.9300000000000068
 20
25.430000000000007
 30
0.0
 11
4.0600000000000023
 21
27.560000000000002
 31
0.0
  0
LINE
  5
20E
100
AcDbEntity
  8
0
  6
CONTINUOUS
 62
               4
100
AcDbLine
 10
14.930000000000007
 20
-18.560000000000002
 30
0.0
 11
17.060000000000002
 21
-16.430000000000007
 31
0.0
  0
LINE
  5
20F
100
AcDbEntity
  8
0
  6
CONTINUOUS
 62
               4
100
AcDbLine
 10
18.5
 20
-16.350000000000023
 30
0.0
 11
18.5
 21
21.5
 31
0.0
  0
LINE
  5
210
100
AcDbEntity
  8
0
  6
CONTINUOUS
 62
               4
100
AcDbLine
 10
0.5
 20
27.639999999999986
 30
0.0
 11
0.5
 21
30.800000000000011
 31
0.0
  0
LINE
  5
211
100
AcDbEntity
  8
0
  6
CONTINUOUS
 62
               4
100
AcDbLine
 10
0.5
 20
-18.5
 30
0.0
 11
3.0
 21
-18.5
 31
0.0
  0
LINE
  5
212
100
AcDbEntity
  8
0
  6
CONTINUOUS
 62
               4
100
AcDbLine
 10
0.5
 20
-12.5
 30
0.0
 11
3.0
 21
-12.5
 31
0.0
  0
LINE
  5
213
100
AcDbEntity
  8
0
  6
CONTINUOUS
 62
               4
100
AcDbLine
 10
16.0
 20
21.5
 30
0.0
 11
18.5
 21
21.5
 31
0.0
  0
LINE
  5
214
100
AcDbEntity
  8
0
  6
CONTINUOUS
 62
               4
100
AcDbLine
 10
16.0
 20
27.5
 30
0.0
 11
18.5
 21
27.5
 31
0.0
  0
LINE
  5
215
100
AcDbEntity
  8
0
  6
CONTINUOUS
 62
               4
100
AcDbLine
 10
0.5
 20
-12.5
 30
0.0
 11
0.5
 21
25.349999999999994
 31
0.0
  0
LINE
  5
216
100
AcDbEntity
  8
0
  6
CONTINUOUS
 62
               4
100
AcDbLine
 10
18.5
 20
27.5
 30
0.0
 11
18.5
 21
30.800000000000011
 31
0.0
  0
LINE
  5
217
100
AcDbEntity
  8
0
  6
CONTINUOUS
 62
               4
100
AcDbLine
 10
0.5
 20
-19.800000000000011
 30
0.0
 11
13.0
 21
-19.800000000000011
 31
0.0
  0
LINE
  5
218
100
AcDbEntity
  8
0
  6
CONTINUOUS
 62
               4
100
AcDbLine
 10
6.0
 20
28.800000000000011
 30
0.0
 11
18.5
 21
28.800000000000011
 31
0.0
  0
LINE
  5
219
100
AcDbEntity
  8
0
  6
CONTINUOUS
 62
             200
100
AcDbLine
 10
0.0
 20
-5.0
 30
0.0
 11
19.0
 21
-5.0
 31
0.0
  0
LINE
  5
21A
100
AcDbEntity
  8
0
  6
CONTINUOUS
 62
             200
100
AcDbLine
 10
0.0
 20
14.0
 30
0.0
 11
19.0
 21
14.0
 31
0.0
  0
ARC
  5
21B
100
AcDbEntity
  8
0
  6
CONTINUOUS
 62
               7
100
AcDbCircle
 10
3.5
 20
60.0
 30
0.0
 40
3.0000000001552203
100
AcDbArc
 50
270.0
 51
90.0
  0
ARC
  5
21C
100
AcDbEntity
  8
0
  6
CONTINUOUS
 62
               7
100
AcDbCircle
 10
18.000015258556232
 20
64.500015258556232
 30
0.0
 40
0.4999847416765988
100
AcDbArc
 50
359.99825144489262
 51
90.001748555107383
  0
ARC
  5
21D
100
AcDbEntity
  8
0
  6
CONTINUOUS
 62
               7
100
AcDbCircle
 10
1.0000152590218931
 20
64.499984740978107
 30
0.0
 40
0.5000152592547238
100
AcDbArc
 50
90.001748501746562
 51
179.99825149825347
  0
CIRCLE
  5
21E
100
AcDbEntity
  8
0
  6
CONTINUOUS
 62
               7
100
AcDbCircle
 10
3.500030517578125
 20
60.0
 30
0.0
 40
2.7999992370605469
  0
ARC
  5
21F
100
AcDbEntity
  8
0
  6
CONTINUOUS
 62
               7
100
AcDbCircle
 10
15.500022888193286
 20
33.999977111806714
 30
0.0
 40
3.0000228882806059
100
AcDbArc
 50
90.000437128957131
 51
179.99956287104294
  0
CIRCLE
  5
220
100
AcDbEntity
  8
0
  6
CONTINUOUS
 62
               7
100
AcDbCircle
 10
15.500030517578125
 20
33.999984741210937
 30
0.0
 40
2.7999992370605469
  0
ARC
  5
221
100
AcDbEntity
  8
0
  6
CONTINUOUS
 62
               4
100
AcDbCircle
 10
18.000007628870662
 20
67.500007628870662
 30
0.0
 40
0.4999923711875383
100
AcDbArc
 50
359.99912578247864
 51
90.000874217521329
  0
ARC
  5
222
100
AcDbEntity
  8
0
  6
CONTINUOUS
 62
               4
100
AcDbCircle
 10
1.0000228882418014
 20
67.499977111758199
 30
0.0
 40
0.500022888765649
100
AcDbArc
 50
90.002622679252539
 51
179.99737732074746
  0
ARC
  5
223
100
AcDbEntity
  8
0
  6
CONTINUOUS
 62
               4
100
AcDbCircle
 10
17.250007629219908
 20
66.500007629219908
 30
0.0
 40
1.4999923707994935
100
AcDbArc
 50
359.99970858378333
 51
90.000291416216655
  0
ARC
  5
224
100
AcDbEntity
  8
0
  6
CONTINUOUS
 62
               4
100
AcDbCircle
 10
14.746160578896593
 20
66.497251977966812
 30
0.0
 40
1.5027529267577582
100
AcDbArc
 50
89.853613418140668
 51
160.45474184615398
  0
ARC
  5
225
100
AcDbEntity
  8
0
  6
CONTINUOUS
 62
               4
100
AcDbCircle
 10
16.000030517733336
 20
-17.500030517733364
 30
0.0
 40
3.0000305178885656
100
AcDbArc
 50
90.000582839844697
 51
179.9994171601553
  0
ARC
  5
226
100
AcDbEntity
  8
0
  6
CONTINUOUS
 62
               4
100
AcDbCircle
 10
3.0000381468853448
 20
26.499961853114655
 30
0.0
 40
2.9999618533571892
100
AcDbArc
 50
269.99927143889198
 51
0.0007285611079896
  0
CIRCLE
  5
227
100
AcDbEntity
  8
0
  6
CONTINUOUS
 62
               4
100
AcDbCircle
 10
16.00006103515625
 20
-17.5
 30
0.0
 40
2.75
  0
CIRCLE
  5
228
100
AcDbEntity
  8
0
  6
CONTINUOUS
 62
               4
100
AcDbCircle
 10
3.00006103515625
 20
26.499984741210938
 30
0.0
 40
2.75
  0
ARC
  5
229
100
AcDbEntity
  8
0
  6
CONTINUOUS
 62
               4
100
AcDbCircle
 10
3.0
 20
-15.5
 30
0.0
 40
3.0000000006208816
100
AcDbArc
 50
270.0
 51
90.0
  0
ARC
  5
22A
100
AcDbEntity
  8
0
  6
CONTINUOUS
 62
               4
100
AcDbCircle
 10
16.0
 20
24.5
 30
0.0
 40
3.0000000006208816
100
AcDbArc
 50
90.0
 51
270.0
  0
CIRCLE
  5
22B
100
AcDbEntity
  8
0
  6
CONTINUOUS
 62
               4
100
AcDbCircle
 10
9.50006103515625
 20
-5.0000152587890625
 30
0.0
 40
4.0
  0
CIRCLE
  5
22C
100
AcDbEntity
  8
0
  6
CONTINUOUS
 62
               4
100
AcDbCircle
 10
9.50006103515625
 20
-5.0000152587890625
 30
0.0
 40
5.0
  0
CIRCLE
  5
22D
100
AcDbEntity
  8
0
  6
CONTINUOUS
 62
               4
100
AcDbCircle
 10
9.50006103515625
 20
-5.0000152587890625
 30
0.0
 40
8.5
  0
CIRCLE
  5
22E
100
AcDbEntity
  8
0
  6
CONTINUOUS
 62
               4
100
AcDbCircle
 10
9.50006103515625
 20
-5.0000152587890625
 30
0.0
 40
8.0
  0
CIRCLE
  5
22F
100
AcDbEntity
  8
0
  6
CONTINUOUS
 62
               4
100
AcDbCircle
 10
9.50006103515625
 20
13.999984741210938
 30
0.0
 40
8.5
  0
CIRCLE
  5
230
100
AcDbEntity
  8
0
  6
CONTINUOUS
 62
               4
100
AcDbCircle
 10
9.50006103515625
 20
13.999984741210938
 30
0.0
 40
8.0
  0
CIRCLE
  5
231
100
AcDbEntity
  8
0
  6
CONTINUOUS
 62
               4
100
AcDbCircle
 10
9.50006103515625
 20
13.999984741210938
 30
0.0
 40
5.0
  0
CIRCLE
  5
232
100
AcDbEntity
  8
0
  6
CONTINUOUS
 62
               4
100
AcDbCircle
 10
9.50006103515625
 20
13.999984741210938
 30
0.0
 40
4.0
  0
LINE
  5
233
100
AcDbEntity
  8
0
  6
CONTINUOUS
 62
               7
100
AcDbLine
 10
0.0
 20
-22.0
 30
0.0
 11
19.0
 21
-22.0
 31
0.0
  0
ENDBLK
  5
234
100
AcDbEntity
  8
0
100
AcDbBlockEnd
  0
BLOCK
  5
235
100
AcDbEntity
  8
0
100
AcDbBlockBegin
  2
F18MNJ-5
 70
               0
 10
0.0
 20
0.0
 30
0.0
  3
F18MNJ-5
  1

  0
LINE
  5
236
100
AcDbEntity
  8
0
  6
CONTINUOUS
 62
               4
100
AcDbLine
 10
18.000003814697244
 20
-79.410840611059797
 30
0.0
 11
18.000003814697244
 21
-78.008237185478208
 31
0.0
  0
LINE
  5
237
100
AcDbEntity
  8
0
  6
CONTINUOUS
 62
               4
100
AcDbLine
 10
0.0000152587890625
 20
-79.41084045410156
 30
0.0
 11
0.0000152587890625
 21
-78.00822998920944
 31
0.0
  0
LINE
  5
238
100
AcDbEntity
  8
0
  6
CONTINUOUS
 62
               4
100
AcDbLine
 10
0.5000152587890625
 20
-79.91084045410156
 30
0.0
 11
17.500003814697266
 21
-79.91084045410156
 31
0.0
  0
ARC
  5
239
100
AcDbEntity
  8
0
  6
CONTINUOUS
 62
               4
100
AcDbCircle
 10
0.5000152587890625
 20
-79.41084045410156
 30
0.0
 40
0.5
100
AcDbArc
 50
180.0
 51
270.0
  0
ARC
  5
23A
100
AcDbEntity
  8
0
  6
CONTINUOUS
 62
               4
100
AcDbCircle
 10
17.500003814697266
 20
-79.41084045410156
 30
0.0
 40
0.5
100
AcDbArc
 50
270.0
 51
359.99998201391065
  0
LINE
  5
23B
100
AcDbEntity
  8
0
  6
CONTINUOUS
 62
             200
100
AcDbLine
 10
9.0000152587890625
 20
-81.696469726562498
 30
0.0
 11
9.0000152587890625
 21
-67.508237304687498
 31
0.0
  0
LINE
  5
23C
100
AcDbEntity
  8
0
  6
CONTINUOUS
 62
               4
100
AcDbLine
 10
14.0
 20
20.991766510009768
 30
0.0
 11
14.0
 21
44.99178176879883
 31
0.0
  0
LINE
  5
23D
100
AcDbEntity
  8
0
  6
CONTINUOUS
 62
               4
100
AcDbLine
 10
4.0
 20
20.991766510009768
 30
0.0
 11
4.0
 21
44.99178176879883
 31
0.0
  0
LINE
  5
23E
100
AcDbEntity
  8
0
  6
CONTINUOUS
 62
               4
100
AcDbLine
 10
18.000015258789063
 20
-55.308251800537107
 30
0.0
 11
18.000015258789063
 21
-52.153878631591795
 31
0.0
  0
LINE
  5
23F
100
AcDbEntity
  8
0
  6
CONTINUOUS
 62
               4
100
AcDbLine
 10
0.0
 20
-55.308251800537107
 30
0.0
 11
0.0
 21
-50.574227752685545
 31
0.0
  0
LINE
  5
240
100
AcDbEntity
  8
0
  6
CONTINUOUS
 62
               7
100
AcDbLine
 10
0.0
 20
-2.7082456970214821
 30
0.0
 11
0.0
 21
7.4917817687988304
 31
0.0
  0
LINE
  5
241
100
AcDbEntity
  8
0
  6
CONTINUOUS
 62
               7
100
AcDbLine
 10
18.0
 20
-2.7082456970214821
 30
0.0
 11
18.0
 21
7.4917817687988304
 31
0.0
  0
LINE
  5
242
100
AcDbEntity
  8
0
  6
CONTINUOUS
 62
               7
100
AcDbLine
 10
4.0000152587890625
 20
11.491766510009768
 30
0.0
 11
14.000015258789063
 21
11.491766510009768
 31
0.0
  0
LINE
  5
243
100
AcDbEntity
  8
0
  6
CONTINUOUS
 62
               7
100
AcDbLine
 10
6.5000152587890625
 20
17.691763458251955
 30
0.0
 11
11.500015258789063
 21
17.691763458251955
 31
0.0
  0
LINE
  5
244
100
AcDbEntity
  8
0
  6
CONTINUOUS
 62
               4
100
AcDbLine
 10
4.000030517578125
 20
44.991766510009768
 30
0.0
 11
14.000030517578125
 21
44.991766510009768
 31
0.0
  0
LINE
  5
245
100
AcDbEntity
  8
0
  6
CONTINUOUS
 62
               7
100
AcDbLine
 10
4.0000152587890625
 20
20.991766510009768
 30
0.0
 11
14.000015258789063
 21
20.991766510009768
 31
0.0
  0
LINE
  5
246
100
AcDbEntity
  8
0
  6
CONTINUOUS
 62
               7
100
AcDbLine
 10
7.0732269287109375
 20
17.391760406494143
 30
0.0
 11
10.926803588867188
 21
17.391760406494143
 31
0.0
  0
LINE
  5
247
100
AcDbEntity
  8
0
  6
CONTINUOUS
 62
               7
100
AcDbLine
 10
7.0732269287109375
 20
17.991766510009768
 30
0.0
 11
10.926803588867188
 21
17.991766510009768
 31
0.0
  0
LINE
  5
248
100
AcDbEntity
  8
0
  6
CONTINUOUS
 62
               4
100
AcDbLine
 10
4.050018310546875
 20
44.991766510009768
 30
0.0
 11
4.050018310546875
 21
58.491766510009768
 31
0.0
  0
LINE
  5
249
100
AcDbEntity
  8
0
  6
CONTINUOUS
 62
               4
100
AcDbLine
 10
13.500030517578125
 20
53.991766510009768
 30
0.0
 11
4.500030517578125
 21
53.991766510009768
 31
0.0
  0
LINE
  5
24A
100
AcDbEntity
  8
0
  6
CONTINUOUS
 62
               4
100
AcDbLine
 10
13.95001220703125
 20
49.491766510009768
 30
0.0
 11
4.050018310546875
 21
49.491766510009768
 31
0.0
  0
LINE
  5
24B
100
AcDbEntity
  8
0
  6
CONTINUOUS
 62
               4
100
AcDbLine
 10
13.95001220703125
 20
44.991766510009768
 30
0.0
 11
13.95001220703125
 21
58.491766510009768
 31
0.0
  0
LINE
  5
24C
100
AcDbEntity
  8
0
  6
CONTINUOUS
 62
               4
100
AcDbLine
 10
4.050018310546875
 20
58.491766510009768
 30
0.0
 11
5.500030517578125
 21
58.491766510009768
 31
0.0
  0
LINE
  5
24D
100
AcDbEntity
  8
0
  6
CONTINUOUS
 62
               4
100
AcDbLine
 10
4.95001220703125
 20
53.991766510009768
 30
0.0
 11
4.95001220703125
 21
56.491766510009768
 31
0.0
  0
LINE
  5
24E
100
AcDbEntity
  8
0
  6
CONTINUOUS
 62
               4
100
AcDbLine
 10
13.050018310546875
 20
53.991766510009768
 30
0.0
 11
13.050018310546875
 21
56.491766510009768
 31
0.0
  0
LINE
  5
24F
100
AcDbEntity
  8
0
  6
CONTINUOUS
 62
               4
100
AcDbLine
 10
12.500015258789063
 20
54.490240631103518
 30
0.0
 11
12.500015258789063
 21
64.991766510009768
 31
0.0
  0
LINE
  5
250
100
AcDbEntity
  8
0
  6
CONTINUOUS
 62
               4
100
AcDbLine
 10
5.5000152587890625
 20
54.490240631103518
 30
0.0
 11
5.5000152587890625
 21
64.991766510009768
 31
0.0
  0
LINE
  5
251
100
AcDbEntity
  8
0
  6
CONTINUOUS
 62
               4
100
AcDbLine
 10
5.500030517578125
 20
54.490240631103518
 30
0.0
 11
12.500030517578125
 21
54.490240631103518
 31
0.0
  0
LINE
  5
252
100
AcDbEntity
  8
0
  6
CONTINUOUS
 62
               4
100
AcDbLine
 10
5.500030517578125
 20
58.047918853759768
 30
0.0
 11
12.500030517578125
 21
58.047918853759768
 31
0.0
  0
LINE
  5
253
100
AcDbEntity
  8
0
  6
CONTINUOUS
 62
               4
100
AcDbLine
 10
5.500030517578125
 20
63.491766510009768
 30
0.0
 11
12.500030517578125
 21
63.491766510009768
 31
0.0
  0
LINE
  5
254
100
AcDbEntity
  8
0
  6
CONTINUOUS
 62
               4
100
AcDbLine
 10
4.1000213623046875
 20
64.991766510009768
 30
0.0
 11
13.9000244140625
 21
64.991766510009768
 31
0.0
  0
LINE
  5
255
100
AcDbEntity
  8
0
  6
CONTINUOUS
 62
               4
100
AcDbLine
 10
12.500030517578125
 20
58.491766510009768
 30
0.0
 11
13.95001220703125
 21
58.491766510009768
 31
0.0
  0
LINE
  5
256
100
AcDbEntity
  8
0
  6
CONTINUOUS
 62
               4
100
AcDbLine
 10
12.500030517578125
 20
57.491766510009768
 30
0.0
 11
13.050018310546875
 21
57.491766510009768
 31
0.0
  0
LINE
  5
257
100
AcDbEntity
  8
0
  6
CONTINUOUS
 62
               4
100
AcDbLine
 10
12.500030517578125
 20
56.491766510009768
 30
0.0
 11
13.050018310546875
 21
56.491766510009768
 31
0.0
  0
LINE
  5
258
100
AcDbEntity
  8
0
  6
CONTINUOUS
 62
               4
100
AcDbLine
 10
4.95001220703125
 20
57.491766510009768
 30
0.0
 11
5.500030517578125
 21
57.491766510009768
 31
0.0
  0
LINE
  5
259
100
AcDbEntity
  8
0
  6
CONTINUOUS
 62
               4
100
AcDbLine
 10
4.95001220703125
 20
56.491766510009768
 30
0.0
 11
5.500030517578125
 21
56.491766510009768
 31
0.0
  0
LINE
  5
25A
100
AcDbEntity
  8
0
  6
CONTINUOUS
 62
               4
100
AcDbLine
 10
4.95001220703125
 20
57.491766510009768
 30
0.0
 11
4.95001220703125
 21
58.491766510009768
 31
0.0
  0
LINE
  5
25B
100
AcDbEntity
  8
0
  6
CONTINUOUS
 62
               4
100
AcDbLine
 10
13.050018310546875
 20
57.491766510009768
 30
0.0
 11
13.050018310546875
 21
58.491766510009768
 31
0.0
  0
LINE
  5
25C
100
AcDbEntity
  8
0
  6
CONTINUOUS
 62
               4
100
AcDbLine
 10
7.71502685546875
 20
69.700995025634768
 30
0.0
 11
7.71502685546875
 21
72.991766510009768
 31
0.0
  0
LINE
  5
25D
100
AcDbEntity
  8
0
  6
CONTINUOUS
 62
               4
100
AcDbLine
 10
6.285003662109375
 20
69.317816314697268
 30
0.0
 11
6.285003662109375
 21
72.991766510009768
 31
0.0
  0
LINE
  5
25E
100
AcDbEntity
  8
0
  6
CONTINUOUS
 62
               4
100
AcDbLine
 10
6.285003662109375
 20
72.991766510009768
 30
0.0
 11
7.7150115966796875
 21
72.991766510009768
 31
0.0
  0
LINE
  5
25F
100
AcDbEntity
  8
0
  6
CONTINUOUS
 62
               4
100
AcDbLine
 10
7.4000244140625
 20
72.991766510009768
 30
0.0
 11
7.4000244140625
 21
77.991766510009768
 31
0.0
  0
LINE
  5
260
100
AcDbEntity
  8
0
  6
CONTINUOUS
 62
               4
100
AcDbLine
 10
6.600006103515625
 20
72.991766510009768
 30
0.0
 11
6.600006103515625
 21
77.991766510009768
 31
0.0
  0
LINE
  5
261
100
AcDbEntity
  8
0
  6
CONTINUOUS
 62
               4
100
AcDbLine
 10
6.600006103515625
 20
77.991766510009768
 30
0.0
 11
7.4000091552734375
 21
77.991766510009768
 31
0.0
  0
LINE
  5
262
100
AcDbEntity
  8
0
  6
CONTINUOUS
 62
               4
100
AcDbLine
 10
7.71502685546875
 20
64.991766510009768
 30
0.0
 11
7.71502685546875
 21
68.665716705322268
 31
0.0
  0
LINE
  5
263
100
AcDbEntity
  8
0
  6
CONTINUOUS
 62
               4
100
AcDbLine
 10
6.285003662109375
 20
64.991766510009768
 30
0.0
 11
6.285003662109375
 21
68.282537994384768
 31
0.0
  0
LINE
  5
264
100
AcDbEntity
  8
0
  6
CONTINUOUS
 62
               4
100
AcDbLine
 10
13.9000244140625
 20
58.491766510009768
 30
0.0
 11
13.9000244140625
 21
64.991766510009768
 31
0.0
  0
LINE
  5
265
100
AcDbEntity
  8
0
  6
CONTINUOUS
 62
               4
100
AcDbLine
 10
4.1000213623046875
 20
58.491766510009768
 30
0.0
 11
4.1000213623046875
 21
64.991766510009768
 31
0.0
  0
LINE
  5
266
100
AcDbEntity
  8
0
  6
CONTINUOUS
 62
               4
100
AcDbLine
 10
5.0000152587890625
 20
58.491766510009768
 30
0.0
 11
5.0000152587890625
 21
64.991766510009768
 31
0.0
  0
LINE
  5
267
100
AcDbEntity
  8
0
  6
CONTINUOUS
 62
               4
100
AcDbLine
 10
13.000015258789062
 20
58.491766510009768
 30
0.0
 11
13.000015258789062
 21
64.991766510009768
 31
0.0
  0
LINE
  5
268
100
AcDbEntity
  8
0
  6
CONTINUOUS
 62
               7
100
AcDbLine
 10
0.0000152587890625
 20
-2.5082334899902321
 30
0.0
 11
18.000015258789063
 21
-2.5082334899902321
 31
0.0
  0
LINE
  5
269
100
AcDbEntity
  8
0
  6
CONTINUOUS
 62
               7
100
AcDbLine
 10
18.000015258789063
 20
-78.008244934082029
 30
0.0
 11
18.000015258789063
 21
-55.308251800537107
 31
0.0
  0
LINE
  5
26A
100
AcDbEntity
  8
0
  6
CONTINUOUS
 62
               7
100
AcDbLine
 10
0.0000152587890625
 20
7.4917665100097679
 30
0.0
 11
18.000015258789063
 21
7.4917665100097679
 31
0.0
  0
LINE
  5
26B
100
AcDbEntity
  8
0
  6
CONTINUOUS
 62
               7
100
AcDbLine
 10
0.0000152587890625
 20
-55.508248748779295
 30
0.0
 11
18.000015258789063
 21
-55.508248748779295
 31
0.0
  0
LINE
  5
26C
100
AcDbEntity
  8
0
  6
CONTINUOUS
 62
               7
100
AcDbLine
 10
0.0000152587890625
 20
-67.508237304687498
 30
0.0
 11
18.000015258789063
 21
-67.508237304687498
 31
0.0
  0
LINE
  5
26D
100
AcDbEntity
  8
0
  6
CONTINUOUS
 62
               4
100
AcDbLine
 10
0.0000152587890625
 20
-2.7082456970214821
 30
0.0
 11
18.000015258789063
 21
-2.7082456970214821
 31
0.0
  0
LINE
  5
26E
100
AcDbEntity
  8
0
  6
CONTINUOUS
 62
               4
100
AcDbLine
 10
0.0000152587890625
 20
-55.308251800537107
 30
0.0
 11
18.000015258789063
 21
-55.308251800537107
 31
0.0
  0
LINE
  5
26F
100
AcDbEntity
  8
0
  6
CONTINUOUS
 62
               4
100
AcDbLine
 10
15.500015258789063
 20
-6.0082334899902321
 30
0.0
 11
18.000015258789063
 21
-6.0082334899902321
 31
0.0
  0
LINE
  5
270
100
AcDbEntity
  8
0
  6
CONTINUOUS
 62
               4
100
AcDbLine
 10
15.500015258789063
 20
-12.008233489990232
 30
0.0
 11
18.000015258789063
 21
-12.008233489990232
 31
0.0
  0
LINE
  5
271
100
AcDbEntity
  8
0
  6
CONTINUOUS
 62
               4
100
AcDbLine
 10
0.0000152587890625
 20
-52.008248748779295
 30
0.0
 11
2.5000152587890625
 21
-52.008248748779295
 31
0.0
  0
LINE
  5
272
100
AcDbEntity
  8
0
  6
CONTINUOUS
 62
               4
100
AcDbLine
 10
0.0000152587890625
 20
-46.008248748779295
 30
0.0
 11
2.5000152587890625
 21
-46.008248748779295
 31
0.0
  0
LINE
  5
273
100
AcDbEntity
  8
0
  6
CONTINUOUS
 62
               4
100
AcDbLine
 10
12.500015258789063
 20
-51.008233489990232
 30
0.0
 11
12.500015258789063
 21
-55.308251800537107
 31
0.0
  0
LINE
  5
274
100
AcDbEntity
  8
0
  6
CONTINUOUS
 62
               4
100
AcDbLine
 10
5.5000152587890625
 20
-7.0082182312011696
 30
0.0
 11
5.5000152587890625
 21
-2.7082304382324196
 31
0.0
  0
LINE
  5
275
100
AcDbEntity
  8
0
  6
CONTINUOUS
 62
               4
100
AcDbLine
 10
2.5000152587890625
 20
-10.008233489990232
 30
0.0
 11
0.0000152587890625
 21
-10.008233489990232
 31
0.0
  0
LINE
  5
276
100
AcDbEntity
  8
0
  6
CONTINUOUS
 62
               4
100
AcDbLine
 10
15.500015258789063
 20
-48.008233489990232
 30
0.0
 11
18.000015258789063
 21
-48.008233489990232
 31
0.0
  0
LINE
  5
277
100
AcDbEntity
  8
0
  6
CONTINUOUS
 62
               4
100
AcDbLine
 10
0.0000152587890625
 20
-53.308251800537107
 30
0.0
 11
12.500015258789063
 21
-53.308251800537107
 31
0.0
  0
LINE
  5
278
100
AcDbEntity
  8
0
  6
CONTINUOUS
 62
               4
100
AcDbLine
 10
5.5000152587890625
 20
-4.7082456970214821
 30
0.0
 11
18.000015258789063
 21
-4.7082456970214821
 31
0.0
  0
LINE
  5
279
100
AcDbEntity
  8
0
  6
CONTINUOUS
 62
               4
100
AcDbLine
 10
16.560692313113577
 20
-10.068875838458951
 30
0.0
 11
14.439367535510428
 21
-7.9475598227385831
 31
0.0
  0
LINE
  5
27A
100
AcDbEntity
  8
0
  6
CONTINUOUS
 62
               4
100
AcDbLine
 10
3.5606919937727071
 20
-8.0688604489800468
 30
0.0
 11
1.4393791967031575
 21
-5.9475322739121452
 31
0.0
  0
LINE
  5
27B
100
AcDbEntity
  8
0
  6
CONTINUOUS
 62
               4
100
AcDbLine
 10
1.4393601233505251
 20
-8.0688987699963377
 30
0.0
 11
3.5606825763725283
 21
-5.9475806085087584
 31
0.0
  0
LINE
  5
27C
100
AcDbEntity
  8
0
  6
CONTINUOUS
 62
               4
100
AcDbLine
 10
14.43937684836601
 20
-10.068875709791826
 30
0.0
 11
16.560706096317517
 21
-7.9475641644198163
 31
0.0
  0
LINE
  5
27D
100
AcDbEntity
  8
0
  6
CONTINUOUS
 62
               7
100
AcDbLine
 10
0.5000152587890625
 20
-78.508237304687498
 30
0.0
 11
17.500015258789063
 21
-78.508237304687498
 31
0.0
  0
LINE
  5
27E
100
AcDbEntity
  8
0
  6
CONTINUOUS
 62
               7
100
AcDbLine
 10
16.500015258789063
 20
-66.508248748779295
 30
0.0
 11
1.5000152587890625
 21
-66.508248748779295
 31
0.0
  0
LINE
  5
27F
100
AcDbEntity
  8
0
  6
CONTINUOUS
 62
               7
100
AcDbLine
 10
16.500015258789063
 20
-66.508248748779295
 30
0.0
 11
16.500015258789063
 21
-56.508248748779295
 31
0.0
  0
LINE
  5
280
100
AcDbEntity
  8
0
  6
CONTINUOUS
 62
               7
100
AcDbLine
 10
1.5000152587890625
 20
-66.508248748779295
 30
0.0
 11
1.5000152587890625
 21
-56.508248748779295
 31
0.0
  0
LINE
  5
281
100
AcDbEntity
  8
0
  6
CONTINUOUS
 62
               7
100
AcDbLine
 10
1.5000152587890625
 20
-56.508248748779295
 30
0.0
 11
16.500015258789063
 21
-56.508248748779295
 31
0.0
  0
LINE
  5
282
100
AcDbEntity
  8
0
  6
CONTINUOUS
 62
               7
100
AcDbLine
 10
15.500015258789063
 20
-65.508248748779295
 30
0.0
 11
2.5000152587890625
 21
-65.508248748779295
 31
0.0
  0
LINE
  5
283
100
AcDbEntity
  8
0
  6
CONTINUOUS
 62
               7
100
AcDbLine
 10
2.5000152587890625
 20
-57.508248748779295
 30
0.0
 11
15.500015258789063
 21
-57.508248748779295
 31
0.0
  0
LINE
  5
284
100
AcDbEntity
  8
0
  6
CONTINUOUS
 62
               7
100
AcDbLine
 10
15.500015258789063
 20
-65.508248748779295
 30
0.0
 11
15.500015258789063
 21
-57.508248748779295
 31
0.0
  0
LINE
  5
285
100
AcDbEntity
  8
0
  6
CONTINUOUS
 62
               7
100
AcDbLine
 10
2.5000152587890625
 20
-65.508248748779295
 30
0.0
 11
2.5000152587890625
 21
-57.508248748779295
 31
0.0
  0
LINE
  5
286
100
AcDbEntity
  8
0
  6
CONTINUOUS
 62
               7
100
AcDbLine
 10
16.500008058066385
 20
-66.508226483812678
 30
0.0
 11
15.500017786069918
 21
-65.508236211816211
 31
0.0
  0
LINE
  5
287
100
AcDbEntity
  8
0
  6
CONTINUOUS
 62
               7
100
AcDbLine
 10
15.500003266478871
 20
-57.508231786259273
 30
0.0
 11
16.500003316542916
 21
-56.508229797438105
 31
0.0
  0
LINE
  5
288
100
AcDbEntity
  8
0
  6
CONTINUOUS
 62
               7
100
AcDbLine
 10
1.5000453234282816
 20
-56.508226446731442
 30
0.0
 11
2.5000444462606595
 21
-57.508229447078065
 31
0.0
  0
LINE
  5
289
100
AcDbEntity
  8
0
  6
CONTINUOUS
 62
               7
100
AcDbLine
 10
2.5000201689504138
 20
-65.508214463474303
 30
0.0
 11
1.5000133753833325
 21
-66.508209793086223
 31
0.0
  0
LINE
  5
28A
100
AcDbEntity
  8
0
  6
CONTINUOUS
 62
               7
100
AcDbLine
 10
2.5000152587890625
 20
-67.508244934082029
 30
0.0
 11
2.5000152587890625
 21
-66.508248748779295
 31
0.0
  0
LINE
  5
28B
100
AcDbEntity
  8
0
  6
CONTINUOUS
 62
               7
100
AcDbLine
 10
0.0000152587890625
 20
-64.508248748779295
 30
0.0
 11
1.5000152587890625
 21
-64.508248748779295
 31
0.0
  0
LINE
  5
28C
100
AcDbEntity
  8
0
  6
CONTINUOUS
 62
               7
100
AcDbLine
 10
2.5000152587890625
 20
-56.508248748779295
 30
0.0
 11
2.5000152587890625
 21
-55.508248748779295
 31
0.0
  0
LINE
  5
28D
100
AcDbEntity
  8
0
  6
CONTINUOUS
 62
               7
100
AcDbLine
 10
0.0000152587890625
 20
-58.508248748779295
 30
0.0
 11
1.5000152587890625
 21
-58.508248748779295
 31
0.0
  0
LINE
  5
28E
100
AcDbEntity
  8
0
  6
CONTINUOUS
 62
               7
100
AcDbLine
 10
15.500015258789063
 20
-56.508248748779295
 30
0.0
 11
15.500015258789063
 21
-55.508248748779295
 31
0.0
  0
LINE
  5
28F
100
AcDbEntity
  8
0
  6
CONTINUOUS
 62
               7
100
AcDbLine
 10
16.500015258789063
 20
-58.508248748779295
 30
0.0
 11
18.000015258789063
 21
-58.508248748779295
 31
0.0
  0
LINE
  5
290
100
AcDbEntity
  8
0
  6
CONTINUOUS
 62
               7
100
AcDbLine
 10
15.500015258789063
 20
-67.50825256347656
 30
0.0
 11
15.500015258789063
 21
-66.508248748779295
 31
0.0
  0
LINE
  5
291
100
AcDbEntity
  8
0
  6
CONTINUOUS
 62
               7
100
AcDbLine
 10
16.500015258789063
 20
-64.508248748779295
 30
0.0
 11
18.000015258789063
 21
-64.508248748779295
 31
0.0
  0
LINE
  5
292
100
AcDbEntity
  8
0
  6
CONTINUOUS
 62
               4
100
AcDbLine
 10
14.439388522368517
 20
-52.068910392083524
 30
0.0
 11
16.560704538088885
 21
-49.947585614480374
 31
0.0
  0
LINE
  5
293
100
AcDbEntity
  8
0
  6
CONTINUOUS
 62
               4
100
AcDbLine
 10
16.560669563934255
 20
-52.068888168028366
 30
0.0
 11
14.439361119150647
 21
-49.94757757748846
 31
0.0
  0
LINE
  5
294
100
AcDbEntity
  8
0
  6
CONTINUOUS
 62
               4
100
AcDbLine
 10
1.4393760676048259
 20
-50.068880739173835
 30
0.0
 11
3.5606892223022442
 21
-47.947553279361671
 31
0.0
  0
LINE
  5
295
100
AcDbEntity
  8
0
  6
CONTINUOUS
 62
               4
100
AcDbLine
 10
3.560689534327139
 20
-50.068891770457583
 30
0.0
 11
1.4393713728395596
 21
-47.947569138621645
 31
0.0
  0
LINE
  5
296
100
AcDbEntity
  8
0
  6
CONTINUOUS
 62
               7
100
AcDbLine
 10
11.5
 20
17.69179397583008
 30
0.0
 11
12.5
 21
17.69179397583008
 31
0.0
  0
LINE
  5
297
100
AcDbEntity
  8
0
  6
CONTINUOUS
 62
               7
100
AcDbLine
 10
9.0
 20
14.19179397583008
 30
0.0
 11
9.0
 21
15.19179397583008
 31
0.0
  0
LINE
  5
298
100
AcDbEntity
  8
0
  6
CONTINUOUS
 62
               7
100
AcDbLine
 10
8.9999996248025127
 20
14.691781502777815
 30
0.0
 11
10.000001677743057
 21
14.423831819724512
 31
0.0
  0
LINE
  5
299
100
AcDbEntity
  8
0
  6
CONTINUOUS
 62
               7
100
AcDbLine
 10
2.0
 20
9.9917817687988304
 30
0.0
 11
15.999997138977051
 21
9.9917817687988304
 31
0.0
  0
LINE
  5
29A
100
AcDbEntity
  8
0
  6
CONTINUOUS
 62
               7
100
AcDbLine
 10
17.999953465419821
 20
7.4917803224348631
 30
0.0
 11
15.999999153362296
 21
9.9917862329717195
 31
0.0
  0
LINE
  5
29B
100
AcDbEntity
  8
0
  6
CONTINUOUS
 62
               7
100
AcDbLine
 10
0.0000559942882319
 20
7.4917738625441075
 30
0.0
 11
2.0000000110994733
 21
9.9917682395021643
 31
0.0
  0
LINE
  5
29C
100
AcDbEntity
  8
0
  6
CONTINUOUS
 62
               7
100
AcDbLine
 10
4.0
 20
9.9917817687988304
 30
0.0
 11
4.0
 21
20.991766510009768
 31
0.0
  0
LINE
  5
29D
100
AcDbEntity
  8
0
  6
CONTINUOUS
 62
               7
100
AcDbLine
 10
14.0
 20
9.9917817687988304
 30
0.0
 11
14.0
 21
20.991766510009768
 31
0.0
  0
LINE
  5
29E
100
AcDbEntity
  8
0
  6
CONTINUOUS
 62
               4
100
AcDbLine
 10
18.0
 20
-7.4421781921386696
 30
0.0
 11
18.0
 21
-2.7082456970214821
 31
0.0
  0
LINE
  5
29F
100
AcDbEntity
  8
0
  6
CONTINUOUS
 62
               4
100
AcDbLine
 10
18.0
 20
-49.747247161865232
 30
0.0
 11
18.0
 21
-10.574273529052732
 31
0.0
  0
LINE
  5
2A0
100
AcDbEntity
  8
0
  6
CONTINUOUS
 62
               4
100
AcDbLine
 10
0.0
 20
-5.7472471618652321
 30
0.0
 11
0.0
 21
-2.7082456970214821
 31
0.0
  0
LINE
  5
2A1
100
AcDbEntity
  8
0
  6
CONTINUOUS
 62
               4
100
AcDbLine
 10
0.0
 20
-47.442193450927732
 30
0.0
 11
0.0
 21
-8.2691587829589821
 31
0.0
  0
LINE
  5
2A2
100
AcDbEntity
  8
0
  6
CONTINUOUS
 62
               7
100
AcDbLine
 10
0.0
 20
-78.00821823120117
 30
0.0
 11
0.0
 21
-55.308251800537107
 31
0.0
  0
CIRCLE
  5
2A3
100
AcDbEntity
  8
0
  6
CONTINUOUS
 62
               7
100
AcDbCircle
 10
9.0000152587890625
 20
17.691778717041018
 30
0.0
 40
2.0
  0
CIRCLE
  5
2A4
100
AcDbEntity
  8
0
  6
CONTINUOUS
 62
               7
100
AcDbCircle
 10
9.0000152587890625
 20
17.691778717041018
 30
0.0
 40
1.9499998092651367
  0
ARC
  5
2A5
100
AcDbEntity
  8
0
  6
CONTINUOUS
 62
               4
100
AcDbCircle
 10
13.45001220703125
 20
53.491766510009768
 30
0.0
 40
0.5
100
AcDbArc
 50
359.99994535848663
 51
89.999982013910653
  0
ARC
  5
2A6
100
AcDbEntity
  8
0
  6
CONTINUOUS
 62
               4
100
AcDbCircle
 10
4.550018310546875
 20
53.491766510009768
 30
0.0
 40
0.5
100
AcDbArc
 50
89.999982013910653
 51
179.99996402782131
  0
CIRCLE
  5
2A7
100
AcDbEntity
  8
0
  6
CONTINUOUS
 62
               4
100
AcDbCircle
 10
2.5000152587890625
 20
-7.0082182312011696
 30
0.0
 40
2.75
  0
ARC
  5
2A8
100
AcDbEntity
  8
0
  6
CONTINUOUS
 62
               4
100
AcDbCircle
 10
15.500015258789063
 20
-9.0082182312011696
 30
0.0
 40
3.0
100
AcDbArc
 50
89.999982013910653
 51
269.99994604173196
  0
ARC
  5
2A9
100
AcDbEntity
  8
0
  6
CONTINUOUS
 62
               4
100
AcDbCircle
 10
2.5000152587890625
 20
-49.008233489990232
 30
0.0
 40
3.0
100
AcDbArc
 50
269.99996334457597
 51
89.999982013910653
  0
ARC
  5
2AA
100
AcDbEntity
  8
0
  6
CONTINUOUS
 62
               4
100
AcDbCircle
 10
2.5000152587890625
 20
-7.0082182312011696
 30
0.0
 40
3.0
100
AcDbArc
 50
270.00001798608935
 51
0.00001366037834
  0
ARC
  5
2AB
100
AcDbEntity
  8
0
  6
CONTINUOUS
 62
               4
100
AcDbCircle
 10
15.500015258789063
 20
-51.008233489990232
 30
0.0
 40
3.0
100
AcDbArc
 50
89.999982013910653
 51
179.99996402782131
  0
CIRCLE
  5
2AC
100
AcDbEntity
  8
0
  6
CONTINUOUS
 62
               4
100
AcDbCircle
 10
15.500030517578125
 20
-9.0082182312011696
 30
0.0
 40
2.75
  0
ARC
  5
2AD
100
AcDbEntity
  8
0
  6
CONTINUOUS
 62
               7
100
AcDbCircle
 10
0.5000152587890625
 20
-78.008229675292966
 30
0.0
 40
0.5
100
AcDbArc
 50
180.00003597217869
 51
269.99996334457597
  0
ARC
  5
2AE
100
AcDbEntity
  8
0
  6
CONTINUOUS
 62
               7
100
AcDbCircle
 10
17.500015258789063
 20
-78.008237304687498
 30
0.0
 40
0.5
100
AcDbArc
 50
270.00001798608935
 51
0.00001366037834
  0
CIRCLE
  5
2AF
100
AcDbEntity
  8
0
  6
CONTINUOUS
 62
               4
100
AcDbCircle
 10
15.500015258789063
 20
-51.008233489990232
 30
0.0
 40
2.75
  0
CIRCLE
  5
2B0
100
AcDbEntity
  8
0
  6
CONTINUOUS
 62
               4
100
AcDbCircle
 10
2.500030517578125
 20
-49.008233489990232
 30
0.0
 40
2.75
  0
ARC
  5
2B1
100
AcDbEntity
  8
0
  6
CONTINUOUS
 62
               7
100
AcDbCircle
 10
9.100006103515625
 20
17.69179397583008
 30
0.0
 40
3.0
100
AcDbArc
 50
268.08980532053351
 51
0.0
  0
ARC
  5
2B2
100
AcDbEntity
  8
0
  6
CONTINUOUS
 62
               7
100
AcDbCircle
 10
9.0
 20
17.69179397583008
 30
0.0
 40
3.0
100
AcDbArc
 50
266.17746163595666
 51
3.822566595416411
  0
ARC
  5
2B3
100
AcDbEntity
  8
0
  6
CONTINUOUS
 62
               7
100
AcDbCircle
 10
8.9000091552734375
 20
17.69179397583008
 30
0.0
 40
3.0
100
AcDbArc
 50
271.91023065164512
 51
0.0
  0
ARC
  5
2B4
100
AcDbEntity
  8
0
  6
CONTINUOUS
 62
               7
100
AcDbCircle
 10
15.000045776367188
 20
10.49184280395508
 30
0.0
 40
2.5000734329223633
100
AcDbArc
 50
191.53802865027112
 51
319.45890333229613
  0
CIRCLE
  5
2B5
100
AcDbEntity
  8
0
  6
CONTINUOUS
 62
               4
100
AcDbCircle
 10
15.5
 20
-9.0082182312011696
 30
0.0
 40
2.9499998092651367
  0
CIRCLE
  5
2B6
100
AcDbEntity
  8
0
  6
CONTINUOUS
 62
               4
100
AcDbCircle
 10
2.5000152587890625
 20
-49.008202972412107
 30
0.0
 40
2.9499998092651367
  0
LINE
  5
2B7
100
AcDbEntity
  8
0
  6
CONTINUOUS
 62
             200
100
AcDbLine
 10
5.0000161412132229
 20
67.938224796064333
 30
0.0
 11
9.0000160623676493
 21
69.010021553645458
 31
0.0
  0
LINE
  5
2B8
100
AcDbEntity
  8
0
  6
CONTINUOUS
 62
             200
100
AcDbLine
 10
5.0000160539245826
 20
68.973500939706071
 30
0.0
 11
9.0000113691858132
 21
70.045296463141824
 31
0.0
  0
LINE
  5
2B9
100
AcDbEntity
  8
0
  6
CONTINUOUS
 62
               2
100
AcDbLine
 10
9.0000152587890625
 20
-67.508237304687498
 30
0.0
 11
9.0000152587890625
 21
67.731762695312511
 31
0.0
  0
ENDBLK
  5
2BA
100
AcDbEntity
  8
0
100
AcDbBlockEnd
  0
BLOCK
  5
2BB
100
AcDbEntity
  8
0
100
AcDbBlockBegin
  2
F18MNJ-6
 70
               0
 10
0.0
 20
0.0
 30
0.0
  3
F18MNJ-6
  1

  0
LINE
  5
2BC
100
AcDbEntity
  8
0
  6
CONTINUOUS
 62
               4
100
AcDbLine
 10
13.99251220703124
 20
-74.910825195312498
 30
0.0
 11
28.792503814697255
 21
-74.910825195312498
 31
0.0
  0
LINE
  5
2BD
100
AcDbEntity
  8
0
  6
CONTINUOUS
 62
               7
100
AcDbLine
 10
62.99251220703124
 20
-2.5082373046874977
 30
0.0
 11
30.99251220703124
 21
-2.5082373046874977
 31
0.0
  0
LINE
  5
2BE
100
AcDbEntity
  8
0
  6
CONTINUOUS
 62
               7
100
AcDbLine
 10
62.99251220703124
 20
-58.508237304687498
 30
0.0
 11
62.99251220703124
 21
7.4917626953125023
 31
0.0
  0
LINE
  5
2BF
100
AcDbEntity
  8
0
  6
CONTINUOUS
 62
               7
100
AcDbLine
 10
64.99251220703124
 20
-55.508237304687498
 30
0.0
 11
30.99251220703124
 21
-55.508237304687498
 31
0.0
  0
LINE
  5
2C0
100
AcDbEntity
  8
0
  6
CONTINUOUS
 62
               7
100
AcDbLine
 10
64.99251220703124
 20
-67.508237304687498
 30
0.0
 11
30.99251220703124
 21
-67.508237304687498
 31
0.0
  0
LINE
  5
2C1
100
AcDbEntity
  8
0
  6
CONTINUOUS
 62
               7
100
AcDbLine
 10
64.99251220703124
 20
-78.008237304687498
 30
0.0
 11
64.99251220703124
 21
-66.508237304687498
 31
0.0
  0
LINE
  5
2C2
100
AcDbEntity
  8
0
  6
CONTINUOUS
 62
               4
100
AcDbLine
 10
67.99251220703124
 20
-53.308237304687495
 30
0.0
 11
67.99251220703124
 21
-4.7082373046875006
 31
0.0
  0
LINE
  5
2C3
100
AcDbEntity
  8
0
  6
CONTINUOUS
 62
               4
100
AcDbLine
 10
65.99251220703124
 20
-55.308237304687509
 30
0.0
 11
62.99251220703124
 21
-55.308237304687509
 31
0.0
  0
LINE
  5
2C4
100
AcDbEntity
  8
0
  6
CONTINUOUS
 62
               4
100
AcDbLine
 10
65.99251220703124
 20
-2.7082373046875006
 30
0.0
 11
62.99251220703124
 21
-2.7082373046875006
 31
0.0
  0
LINE
  5
2C5
100
AcDbEntity
  8
0
  6
CONTINUOUS
 62
               4
100
AcDbLine
 10
67.99251220703124
 20
-4.7082373046875006
 30
0.0
 11
65.99251220703124
 21
-2.7082373046875006
 31
0.0
  0
LINE
  5
2C6
100
AcDbEntity
  8
0
  6
CONTINUOUS
 62
               4
100
AcDbLine
 10
67.99251220703124
 20
-53.308237304687495
 30
0.0
 11
65.99251220703124
 21
-55.308237304687509
 31
0.0
  0
LINE
  5
2C7
100
AcDbEntity
  8
0
  6
CONTINUOUS
 62
               7
100
AcDbLine
 10
64.49251220703124
 20
-78.508237304687498
 30
0.0
 11
31.49251220703124
 21
-78.508237304687498
 31
0.0
  0
LINE
  5
2C8
100
AcDbEntity
  8
0
  6
CONTINUOUS
 62
               2
100
AcDbLine
 10
62.49251220703124
 20
17.691762695312505
 30
0.0
 11
59.792512207031237
 21
17.691762695312505
 31
0.0
  0
LINE
  5
2C9
100
AcDbEntity
  8
0
  6
CONTINUOUS
 62
               7
100
AcDbLine
 10
61.49251220703124
 20
15.741762695312502
 30
0.0
 11
61.49251220703124
 21
17.391762695312501
 31
0.0
  0
LINE
  5
2CA
100
AcDbEntity
  8
0
  6
CONTINUOUS
 62
               7
100
AcDbLine
 10
61.49251220703124
 20
15.741762695312502
 30
0.0
 11
60.49251220703124
 21
15.741762695312502
 31
0.0
  0
LINE
  5
2CB
100
AcDbEntity
  8
0
  6
CONTINUOUS
 62
               7
100
AcDbLine
 10
61.49251220703124
 20
19.641762695312501
 30
0.0
 11
60.49251220703124
 21
19.641762695312501
 31
0.0
  0
LINE
  5
2CC
100
AcDbEntity
  8
0
  6
CONTINUOUS
 62
               7
100
AcDbLine
 10
60.892512207031245
 20
17.391762695312501
 30
0.0
 11
60.892512207031245
 21
17.991762695312502
 31
0.0
  0
LINE
  5
2CD
100
AcDbEntity
  8
0
  6
CONTINUOUS
 62
               7
100
AcDbLine
 10
61.49251220703124
 20
17.391762695312501
 30
0.0
 11
60.892512207031245
 21
17.391762695312501
 31
0.0
  0
LINE
  5
2CE
100
AcDbEntity
  8
0
  6
CONTINUOUS
 62
               7
100
AcDbLine
 10
61.49251220703124
 20
17.991762695312502
 30
0.0
 11
60.892512207031245
 21
17.991762695312502
 31
0.0
  0
LINE
  5
2CF
100
AcDbEntity
  8
0
  6
CONTINUOUS
 62
               7
100
AcDbLine
 10
61.49251220703124
 20
17.991762695312502
 30
0.0
 11
61.49251220703124
 21
19.641762695312501
 31
0.0
  0
LINE
  5
2D0
100
AcDbEntity
  8
0
  6
CONTINUOUS
 62
               7
100
AcDbLine
 10
33.49251220703124
 20
20.991762695312502
 30
0.0
 11
60.49251220703124
 21
20.991762695312502
 31
0.0
  0
LINE
  5
2D1
100
AcDbEntity
  8
0
  6
CONTINUOUS
 62
               7
100
AcDbLine
 10
60.49251220703124
 20
9.9917626953125023
 30
0.0
 11
60.49251220703124
 21
20.991762695312502
 31
0.0
  0
LINE
  5
2D2
100
AcDbEntity
  8
0
  6
CONTINUOUS
 62
               7
100
AcDbLine
 10
33.49251220703124
 20
9.9917626953125023
 30
0.0
 11
33.49251220703124
 21
20.991762695312502
 31
0.0
  0
LINE
  5
2D3
100
AcDbEntity
  8
0
  6
CONTINUOUS
 62
               7
100
AcDbLine
 10
64.99251220703124
 20
-64.608237304687492
 30
0.0
 11
64.99251220703124
 21
-58.408237304687503
 31
0.0
  0
LINE
  5
2D4
100
AcDbEntity
  8
0
  6
CONTINUOUS
 62
               7
100
AcDbLine
 10
66.99251220703124
 20
-65.508237304687498
 30
0.0
 11
66.99251220703124
 21
-57.508237304687498
 31
0.0
  0
LINE
  5
2D5
100
AcDbEntity
  8
0
  6
CONTINUOUS
 62
               7
100
AcDbLine
 10
65.99251220703124
 20
-56.508237304687498
 30
0.0
 11
66.99251220703124
 21
-57.508237304687498
 31
0.0
  0
LINE
  5
2D6
100
AcDbEntity
  8
0
  6
CONTINUOUS
 62
               7
100
AcDbLine
 10
65.99251220703124
 20
-66.508237304687498
 30
0.0
 11
66.99251220703124
 21
-65.508237304687498
 31
0.0
  0
LINE
  5
2D7
100
AcDbEntity
  8
0
  6
CONTINUOUS
 62
               7
100
AcDbLine
 10
65.792512207031237
 20
-64.608237304687492
 30
0.0
 11
65.792512207031237
 21
-58.408237304687503
 31
0.0
  0
LINE
  5
2D8
100
AcDbEntity
  8
0
  6
CONTINUOUS
 62
               7
100
AcDbLine
 10
65.99251220703124
 20
-66.508237304687498
 30
0.0
 11
65.99251220703124
 21
-56.508237304687498
 31
0.0
  0
LINE
  5
2D9
100
AcDbEntity
  8
0
  6
CONTINUOUS
 62
               7
100
AcDbLine
 10
64.99251220703124
 20
-64.508237304687498
 30
0.0
 11
62.99251220703124
 21
-64.508237304687498
 31
0.0
  0
LINE
  5
2DA
100
AcDbEntity
  8
0
  6
CONTINUOUS
 62
               7
100
AcDbLine
 10
64.99251220703124
 20
-58.508237304687498
 30
0.0
 11
62.99251220703124
 21
-58.508237304687498
 31
0.0
  0
LINE
  5
2DB
100
AcDbEntity
  8
0
  6
CONTINUOUS
 62
               7
100
AcDbLine
 10
63.99251220703124
 20
-67.508237304687498
 30
0.0
 11
63.99251220703124
 21
-66.508237304687498
 31
0.0
  0
LINE
  5
2DC
100
AcDbEntity
  8
0
  6
CONTINUOUS
 62
               7
100
AcDbLine
 10
62.99251220703124
 20
-67.508237304687498
 30
0.0
 11
62.99251220703124
 21
-64.508237304687498
 31
0.0
  0
LINE
  5
2DD
100
AcDbEntity
  8
0
  6
CONTINUOUS
 62
               7
100
AcDbLine
 10
63.99251220703124
 20
-58.508237304687498
 30
0.0
 11
63.99251220703124
 21
-58.408237304687503
 31
0.0
  0
LINE
  5
2DE
100
AcDbEntity
  8
0
  6
CONTINUOUS
 62
               7
100
AcDbLine
 10
63.092512207031234
 20
-66.508237304687498
 30
0.0
 11
63.092512207031234
 21
-64.608237304687492
 31
0.0
  0
LINE
  5
2DF
100
AcDbEntity
  8
0
  6
CONTINUOUS
 62
               7
100
AcDbLine
 10
65.792512207031237
 20
-58.408237304687503
 30
0.0
 11
63.092512207031234
 21
-58.408237304687503
 31
0.0
  0
LINE
  5
2E0
100
AcDbEntity
  8
0
  6
CONTINUOUS
 62
               7
100
AcDbLine
 10
65.792512207031237
 20
-64.608237304687492
 30
0.0
 11
63.092512207031234
 21
-64.608237304687492
 31
0.0
  0
LINE
  5
2E1
100
AcDbEntity
  8
0
  6
CONTINUOUS
 62
               7
100
AcDbLine
 10
63.092512207031234
 20
-58.408237304687503
 30
0.0
 11
63.092512207031234
 21
-56.508237304687498
 31
0.0
  0
LINE
  5
2E2
100
AcDbEntity
  8
0
  6
CONTINUOUS
 62
               7
100
AcDbLine
 10
65.99251220703124
 20
-66.508237304687498
 30
0.0
 11
63.092512207031234
 21
-66.508237304687498
 31
0.0
  0
LINE
  5
2E3
100
AcDbEntity
  8
0
  6
CONTINUOUS
 62
               7
100
AcDbLine
 10
65.99251220703124
 20
-56.508237304687498
 30
0.0
 11
63.092512207031234
 21
-56.508237304687498
 31
0.0
  0
LINE
  5
2E4
100
AcDbEntity
  8
0
  6
CONTINUOUS
 62
               7
100
AcDbLine
 10
64.99251220703124
 20
-56.508237304687498
 30
0.0
 11
64.99251220703124
 21
-55.508237304687498
 31
0.0
  0
LINE
  5
2E5
100
AcDbEntity
  8
0
  6
CONTINUOUS
 62
               7
100
AcDbLine
 10
63.99251220703124
 20
-64.608237304687492
 30
0.0
 11
63.99251220703124
 21
-64.508237304687498
 31
0.0
  0
LINE
  5
2E6
100
AcDbEntity
  8
0
  6
CONTINUOUS
 62
               7
100
AcDbLine
 10
63.99251220703124
 20
-56.508237304687498
 30
0.0
 11
63.99251220703124
 21
-55.508237304687498
 31
0.0
  0
LINE
  5
2E7
100
AcDbEntity
  8
0
  6
CONTINUOUS
 62
               4
100
AcDbLine
 10
67.99251220703124
 20
-10.008237304687498
 30
0.0
 11
65.99251220703124
 21
-10.008237304687498
 31
0.0
  0
LINE
  5
2E8
100
AcDbEntity
  8
0
  6
CONTINUOUS
 62
               4
100
AcDbLine
 10
67.99251220703124
 20
-46.008237304687498
 30
0.0
 11
62.99251220703124
 21
-46.008237304687498
 31
0.0
  0
LINE
  5
2E9
100
AcDbEntity
  8
0
  6
CONTINUOUS
 62
               4
100
AcDbLine
 10
67.99251220703124
 20
-52.008237304687498
 30
0.0
 11
62.99251220703124
 21
-52.008237304687498
 31
0.0
  0
LINE
  5
2EA
100
AcDbEntity
  8
0
  6
CONTINUOUS
 62
               7
100
AcDbLine
 10
62.99251220703124
 20
7.4917626953125023
 30
0.0
 11
30.99251220703124
 21
7.4917626953125023
 31
0.0
  0
LINE
  5
2EB
100
AcDbEntity
  8
0
  6
CONTINUOUS
 62
               7
100
AcDbLine
 10
63.192512207031243
 20
-78.508237304687498
 30
0.0
 11
63.192512207031243
 21
-76.008237304687498
 31
0.0
  0
LINE
  5
2EC
100
AcDbEntity
  8
0
  6
CONTINUOUS
 62
               7
100
AcDbLine
 10
56.792512207031237
 20
-78.508237304687498
 30
0.0
 11
56.792512207031237
 21
-76.008237304687498
 31
0.0
  0
LINE
  5
2ED
100
AcDbEntity
  8
0
  6
CONTINUOUS
 62
               7
100
AcDbLine
 10
63.192512207031243
 20
-76.008237304687498
 30
0.0
 11
56.792512207031237
 21
-76.008237304687498
 31
0.0
  0
LINE
  5
2EE
100
AcDbEntity
  8
0
  6
CONTINUOUS
 62
               7
100
AcDbLine
 10
61.24251220703124
 20
-78.008237304687498
 30
0.0
 11
58.74251220703124
 21
-78.008237304687498
 31
0.0
  0
LINE
  5
2EF
100
AcDbEntity
  8
0
  6
CONTINUOUS
 62
               7
100
AcDbLine
 10
62.74251220703124
 20
-76.508237304687498
 30
0.0
 11
62.74251220703124
 21
-76.008237304687498
 31
0.0
  0
LINE
  5
2F0
100
AcDbEntity
  8
0
  6
CONTINUOUS
 62
               7
100
AcDbLine
 10
57.24251220703124
 20
-76.508237304687498
 30
0.0
 11
57.24251220703124
 21
-76.008237304687498
 31
0.0
  0
LINE
  5
2F1
100
AcDbEntity
  8
0
  6
CONTINUOUS
 62
               4
100
AcDbLine
 10
65.99251220703124
 20
-10.008237304687498
 30
0.0
 11
65.99251220703124
 21
-2.7082373046875006
 31
0.0
  0
LINE
  5
2F2
100
AcDbEntity
  8
0
  6
CONTINUOUS
 62
               4
100
AcDbLine
 10
66.49251220703124
 20
-9.7582373046874977
 30
0.0
 11
65.99251220703124
 21
-9.7582373046874977
 31
0.0
  0
LINE
  5
2F3
100
AcDbEntity
  8
0
  6
CONTINUOUS
 62
               4
100
AcDbLine
 10
66.49251220703124
 20
-4.2582373046874977
 30
0.0
 11
65.99251220703124
 21
-4.2582373046874977
 31
0.0
  0
LINE
  5
2F4
100
AcDbEntity
  8
0
  6
CONTINUOUS
 62
               4
100
AcDbLine
 10
64.192512207031243
 20
-51.758237304687498
 30
0.0
 11
63.692512207031243
 21
-51.758237304687498
 31
0.0
  0
LINE
  5
2F5
100
AcDbEntity
  8
0
  6
CONTINUOUS
 62
               4
100
AcDbLine
 10
65.692512207031243
 20
-50.258237304687498
 30
0.0
 11
65.692512207031243
 21
-47.758237304687498
 31
0.0
  0
LINE
  5
2F6
100
AcDbEntity
  8
0
  6
CONTINUOUS
 62
               4
100
AcDbLine
 10
63.692512207031243
 20
-51.958237304687501
 30
0.0
 11
63.692512207031243
 21
-46.058237304687495
 31
0.0
  0
LINE
  5
2F7
100
AcDbEntity
  8
0
  6
CONTINUOUS
 62
               4
100
AcDbLine
 10
63.692512207031243
 20
-46.058237304687495
 30
0.0
 11
62.99251220703124
 21
-46.058237304687495
 31
0.0
  0
LINE
  5
2F8
100
AcDbEntity
  8
0
  6
CONTINUOUS
 62
               4
100
AcDbLine
 10
63.692512207031243
 20
-51.958237304687501
 30
0.0
 11
62.99251220703124
 21
-51.958237304687501
 31
0.0
  0
LINE
  5
2F9
100
AcDbEntity
  8
0
  6
CONTINUOUS
 62
               4
100
AcDbLine
 10
64.192512207031243
 20
-46.258237304687498
 30
0.0
 11
63.692512207031243
 21
-46.258237304687498
 31
0.0
  0
LINE
  5
2FA
100
AcDbEntity
  8
0
  6
CONTINUOUS
 62
               7
100
AcDbLine
 10
60.99251220703124
 20
9.9917626953125023
 30
0.0
 11
32.99251220703124
 21
9.9917626953125023
 31
0.0
  0
LINE
  5
2FB
100
AcDbEntity
  8
0
  6
CONTINUOUS
 62
               7
100
AcDbLine
 10
30.99251220703124
 20
7.4917626953125023
 30
0.0
 11
32.99251220703124
 21
9.9917626953125023
 31
0.0
  0
LINE
  5
2FC
100
AcDbEntity
  8
0
  6
CONTINUOUS
 62
               7
100
AcDbLine
 10
60.99251220703124
 20
9.9917626953125023
 30
0.0
 11
62.99251220703124
 21
7.4917626953125023
 31
0.0
  0
LINE
  5
2FD
100
AcDbEntity
  8
0
  6
CONTINUOUS
 62
               7
100
AcDbLine
 10
30.99251220703124
 20
-73.008237304687498
 30
0.0
 11
30.99251220703124
 21
-78.008237304687498
 31
0.0
  0
ARC
  5
2FE
100
AcDbEntity
  8
0
  6
CONTINUOUS
 62
               7
100
AcDbCircle
 10
64.492519836367563
 20
-78.008244934023821
 30
0.0
 40
0.4999923707218841
100
AcDbArc
 50
269.9991257291162
 51
0.0008742708838174
  0
ARC
  5
2FF
100
AcDbEntity
  8
0
  6
CONTINUOUS
 62
               7
100
AcDbCircle
 10
58.742496948319797
 20
-76.508252563398969
 30
0.0
 40
1.4999847413661578
100
AcDbArc
 50
179.99941715422617
 51
270.00058284577358
  0
ARC
  5
300
100
AcDbEntity
  8
0
  6
CONTINUOUS
 62
               7
100
AcDbCircle
 10
61.242527465742683
 20
-76.508252563398969
 30
0.0
 40
1.4999847413661578
100
AcDbArc
 50
269.99941715422642
 51
0.0005828457738246
  0
ARC
  5
301
100
AcDbEntity
  8
0
  6
CONTINUOUS
 62
               4
100
AcDbCircle
 10
66.492489318673023
 20
-5.7582601930457145
 30
0.0
 40
1.5000228885328397
100
AcDbArc
 50
0.0008742575435872
 51
89.999125742456414
  0
ARC
  5
302
100
AcDbEntity
  8
0
  6
CONTINUOUS
 62
               4
100
AcDbCircle
 10
66.492535095040211
 20
-8.2582601926964685
 30
0.0
 40
1.4999771121656522
100
AcDbArc
 50
269.9991257291162
 51
0.0008742708838174
  0
ARC
  5
303
100
AcDbEntity
  8
0
  6
CONTINUOUS
 62
               7
100
AcDbCircle
 10
33.985666445851734
 20
10.490046415240819
 30
0.0
 40
2.4970664477637854
100
AcDbArc
 50
220.69850717856482
 51
348.4894924166054
  0
ARC
  5
304
100
AcDbEntity
  8
0
  6
CONTINUOUS
 62
               4
100
AcDbCircle
 10
64.192533569307983
 20
-50.258258666964252
 30
0.0
 40
1.4999786378753712
100
AcDbArc
 50
269.99918400951378
 51
0.000815990486498
  0
ARC
  5
305
100
AcDbEntity
  8
0
  6
CONTINUOUS
 62
               4
100
AcDbCircle
 10
64.192503051605684
 20
-47.758246460113043
 30
0.0
 40
1.5000091554534953
100
AcDbArc
 50
0.0003497093613508
 51
89.999650290638371
  0
ARC
  5
306
100
AcDbEntity
  8
0
  6
CONTINUOUS
 62
               7
100
AcDbCircle
 10
31.492504577694916
 20
-78.008244934023821
 30
0.0
 40
0.4999923707218841
100
AcDbArc
 50
179.9991257291162
 51
270.00087427088374
  0
LINE
  5
307
100
AcDbEntity
  8
0
  6
CONTINUOUS
 62
               4
100
AcDbLine
 10
44.592512207031234
 20
53.991762695312502
 30
0.0
 11
58.167512207031223
 21
53.991762695312502
 31
0.0
  0
LINE
  5
308
100
AcDbEntity
  8
0
  6
CONTINUOUS
 62
               4
100
AcDbLine
 10
60.49251220703124
 20
20.991762695312502
 30
0.0
 11
60.49251220703124
 21
44.991762695312502
 31
0.0
  0
LINE
  5
309
100
AcDbEntity
  8
0
  6
CONTINUOUS
 62
               4
100
AcDbLine
 10
33.49251220703124
 20
20.991762695312502
 30
0.0
 11
33.49251220703124
 21
44.991762695312502
 31
0.0
  0
LINE
  5
30A
100
AcDbEntity
  8
0
  6
CONTINUOUS
 62
               4
100
AcDbLine
 10
33.49251220703124
 20
53.491762695312502
 30
0.0
 11
33.49251220703124
 21
44.991762695312502
 31
0.0
  0
LINE
  5
30B
100
AcDbEntity
  8
0
  6
CONTINUOUS
 62
               4
100
AcDbLine
 10
60.49251220703124
 20
49.171762695312509
 30
0.0
 11
60.49251220703124
 21
44.991762695312502
 31
0.0
  0
LINE
  5
30C
100
AcDbEntity
  8
0
  6
CONTINUOUS
 62
               4
100
AcDbLine
 10
58.622512207031235
 20
53.696762695312515
 30
0.0
 11
60.362512207031244
 21
49.781762695312494
 31
0.0
  0
ARC
  5
30D
100
AcDbEntity
  8
0
  6
CONTINUOUS
 62
               4
100
AcDbCircle
 10
58.166533045595287
 20
53.491862632758767
 30
0.0
 40
0.4999010215015999
100
AcDbArc
 50
24.197376208904824
 51
89.887774076865014
  0
ARC
  5
30E
100
AcDbEntity
  8
0
  6
CONTINUOUS
 62
               4
100
AcDbCircle
 10
58.994532602391814
 20
49.171373599241804
 30
0.0
 40
1.4979796551727449
100
AcDbArc
 50
0.0148824203654679
 51
24.046309772710739
  0
LINE
  5
30F
100
AcDbEntity
  8
0
  6
CONTINUOUS
 62
               4
100
AcDbLine
 10
44.592512207031234
 20
58.491762695312502
 30
0.0
 11
44.592512207031234
 21
53.991762695312502
 31
0.0
  0
LINE
  5
310
100
AcDbEntity
  8
0
  6
CONTINUOUS
 62
               4
100
AcDbLine
 10
35.99251220703124
 20
58.491762695312502
 30
0.0
 11
35.99251220703124
 21
53.991762695312502
 31
0.0
  0
LINE
  5
311
100
AcDbEntity
  8
0
  6
CONTINUOUS
 62
               4
100
AcDbLine
 10
35.99251220703124
 20
53.991762695312502
 30
0.0
 11
33.99251220703124
 21
53.991762695312502
 31
0.0
  0
ARC
  5
312
100
AcDbEntity
  8
0
  6
CONTINUOUS
 62
               4
100
AcDbCircle
 10
33.99251220703124
 20
53.491762695312502
 30
0.0
 40
0.5
100
AcDbArc
 50
90.0
 51
180.0
  0
LINE
  5
313
100
AcDbEntity
  8
0
  6
CONTINUOUS
 62
             200
100
AcDbLine
 10
43.307506550128949
 20
70.456227510391329
 30
0.0
 11
36.377496396609843
 21
66.455175605875922
 31
0.0
  0
LINE
  5
314
100
AcDbEntity
  8
0
  6
CONTINUOUS
 62
             200
100
AcDbLine
 10
43.307531098503262
 20
71.610868505247311
 30
0.0
 11
36.377502006939778
 21
67.609819941466014
 31
0.0
  0
LINE
  5
315
100
AcDbEntity
  8
0
  6
CONTINUOUS
 62
               4
100
AcDbLine
 10
37.877515869140609
 20
64.991762695312502
 30
0.0
 11
37.877515869140609
 21
67.321184692382815
 31
0.0
  0
LINE
  5
316
100
AcDbEntity
  8
0
  6
CONTINUOUS
 62
               4
100
AcDbLine
 10
39.307523803710922
 20
64.991762695312502
 30
0.0
 11
39.307523803710922
 21
68.146791992187502
 31
0.0
  0
LINE
  5
317
100
AcDbEntity
  8
0
  6
CONTINUOUS
 62
               4
100
AcDbLine
 10
38.192518310546859
 20
77.991762695312502
 30
0.0
 11
38.992521362304672
 21
77.991762695312502
 31
0.0
  0
LINE
  5
318
100
AcDbEntity
  8
0
  6
CONTINUOUS
 62
               4
100
AcDbLine
 10
38.192518310546859
 20
72.991762695312502
 30
0.0
 11
38.192518310546859
 21
77.99174743652344
 31
0.0
  0
LINE
  5
319
100
AcDbEntity
  8
0
  6
CONTINUOUS
 62
               4
100
AcDbLine
 10
38.992521362304672
 20
72.991762695312502
 30
0.0
 11
38.992521362304672
 21
77.991762695312502
 31
0.0
  0
LINE
  5
31A
100
AcDbEntity
  8
0
  6
CONTINUOUS
 62
               4
100
AcDbLine
 10
37.877515869140609
 20
72.991762695312502
 30
0.0
 11
39.307523803710922
 21
72.991762695312502
 31
0.0
  0
LINE
  5
31B
100
AcDbEntity
  8
0
  6
CONTINUOUS
 62
               4
100
AcDbLine
 10
37.877515869140609
 20
68.47587829589844
 30
0.0
 11
37.877515869140609
 21
72.991762695312502
 31
0.0
  0
LINE
  5
31C
100
AcDbEntity
  8
0
  6
CONTINUOUS
 62
               4
100
AcDbLine
 10
39.307523803710922
 20
69.30150085449219
 30
0.0
 11
39.307523803710922
 21
72.991762695312502
 31
0.0
  0
LINE
  5
31D
100
AcDbEntity
  8
0
  6
CONTINUOUS
 62
               4
100
AcDbLine
 10
41.807523803710922
 20
70.744875488281252
 30
0.0
 11
41.807523803710922
 21
72.991762695312502
 31
0.0
  0
LINE
  5
31E
100
AcDbEntity
  8
0
  6
CONTINUOUS
 62
               4
100
AcDbLine
 10
40.377515869140609
 20
69.919252929687502
 30
0.0
 11
40.377515869140609
 21
72.991762695312502
 31
0.0
  0
LINE
  5
31F
100
AcDbEntity
  8
0
  6
CONTINUOUS
 62
               4
100
AcDbLine
 10
41.807523803710922
 20
72.991762695312502
 30
0.0
 11
40.377515869140609
 21
72.991762695312502
 31
0.0
  0
LINE
  5
320
100
AcDbEntity
  8
0
  6
CONTINUOUS
 62
               4
100
AcDbLine
 10
40.377515869140609
 20
64.991762695312502
 30
0.0
 11
40.377515869140609
 21
68.764559326171877
 31
0.0
  0
LINE
  5
321
100
AcDbEntity
  8
0
  6
CONTINUOUS
 62
               4
100
AcDbLine
 10
41.807523803710922
 20
64.991762695312502
 30
0.0
 11
41.807523803710922
 21
69.590166625976565
 31
0.0
  0
LINE
  5
322
100
AcDbEntity
  8
0
  6
CONTINUOUS
 62
               4
100
AcDbLine
 10
41.492521362304672
 20
72.991762695312502
 30
0.0
 11
41.492521362304672
 21
77.991762695312502
 31
0.0
  0
LINE
  5
323
100
AcDbEntity
  8
0
  6
CONTINUOUS
 62
               4
100
AcDbLine
 10
40.692518310546859
 20
72.991762695312502
 30
0.0
 11
40.692518310546859
 21
77.991762695312502
 31
0.0
  0
LINE
  5
324
100
AcDbEntity
  8
0
  6
CONTINUOUS
 62
               4
100
AcDbLine
 10
41.492521362304672
 20
77.991762695312502
 30
0.0
 11
40.692518310546859
 21
77.991762695312502
 31
0.0
  0
LINE
  5
325
100
AcDbEntity
  8
0
  6
CONTINUOUS
 62
               4
100
AcDbLine
 10
46.642515258789047
 20
63.491762695312502
 30
0.0
 11
46.642515258789047
 21
64.991762695312502
 31
0.0
  0
LINE
  5
326
100
AcDbEntity
  8
0
  6
CONTINUOUS
 62
               4
100
AcDbLine
 10
44.642556718635262
 20
63.991721638214187
 30
0.0
 11
45.219908534399167
 21
64.991730343168967
 31
0.0
  0
LINE
  5
327
100
AcDbEntity
  8
0
  6
CONTINUOUS
 62
               4
100
AcDbLine
 10
44.642515258789047
 20
58.491762695312502
 30
0.0
 11
44.642515258789047
 21
64.991762695312502
 31
0.0
  0
LINE
  5
328
100
AcDbEntity
  8
0
  6
CONTINUOUS
 62
               4
100
AcDbLine
 10
45.642513509267758
 20
54.490213437071873
 30
0.0
 11
46.142512618144849
 21
58.047901520760718
 31
0.0
  0
LINE
  5
329
100
AcDbEntity
  8
0
  6
CONTINUOUS
 62
               4
100
AcDbLine
 10
46.142515258789047
 20
58.047915039062502
 30
0.0
 11
46.142515258789047
 21
63.491762695312502
 31
0.0
  0
LINE
  5
32A
100
AcDbEntity
  8
0
  6
CONTINUOUS
 62
               4
100
AcDbLine
 10
35.642499999999984
 20
63.991762695312502
 30
0.0
 11
36.142499999999984
 21
63.991762695312502
 31
0.0
  0
LINE
  5
32B
100
AcDbEntity
  8
0
  6
CONTINUOUS
 62
               4
100
AcDbLine
 10
35.642515258789047
 20
63.991762695312502
 30
0.0
 11
35.642515258789047
 21
64.991762695312502
 31
0.0
  0
LINE
  5
32C
100
AcDbEntity
  8
0
  6
CONTINUOUS
 62
               4
100
AcDbLine
 10
36.142515258789047
 20
58.491762695312502
 30
0.0
 11
36.142515258789047
 21
63.991762695312502
 31
0.0
  0
LINE
  5
32D
100
AcDbEntity
  8
0
  6
CONTINUOUS
 62
               4
100
AcDbLine
 10
44.642512416438933
 20
54.490236847182643
 30
0.0
 11
44.592491863132693
 21
54.540257400488883
 31
0.0
  0
LINE
  5
32E
100
AcDbEntity
  8
0
  6
CONTINUOUS
 62
               4
100
AcDbLine
 10
46.142507629394515
 20
63.491762695312502
 30
0.0
 11
46.642507629394515
 21
63.491762695312502
 31
0.0
  0
LINE
  5
32F
100
AcDbEntity
  8
0
  6
CONTINUOUS
 62
               4
100
AcDbLine
 10
44.642515258789047
 20
55.99022155761719
 30
0.0
 11
44.642515258789047
 21
58.491762695312502
 31
0.0
  0
LINE
  5
330
100
AcDbEntity
  8
0
  6
CONTINUOUS
 62
               4
100
AcDbLine
 10
44.642515258789047
 20
54.49022155761719
 30
0.0
 11
45.642507629394515
 21
54.49022155761719
 31
0.0
  0
LINE
  5
331
100
AcDbEntity
  8
0
  6
CONTINUOUS
 62
               4
100
AcDbLine
 10
44.592512207031234
 20
55.99022155761719
 30
0.0
 11
44.642515258789047
 21
55.99022155761719
 31
0.0
  0
LINE
  5
332
100
AcDbEntity
  8
0
  6
CONTINUOUS
 62
               4
100
AcDbLine
 10
45.219862060546859
 20
64.991762695312502
 30
0.0
 11
46.642507629394515
 21
64.991762695312502
 31
0.0
  0
LINE
  5
333
100
AcDbEntity
  8
0
  6
CONTINUOUS
 62
               4
100
AcDbLine
 10
35.99251220703124
 20
58.491762695312502
 30
0.0
 11
44.642515258789047
 21
58.491762695312502
 31
0.0
  0
LINE
  5
334
100
AcDbEntity
  8
0
  6
CONTINUOUS
 62
               4
100
AcDbLine
 10
35.642499999999984
 20
64.991762695312502
 30
0.0
 11
44.642499999999984
 21
64.991762695312502
 31
0.0
  0
LINE
  5
335
100
AcDbEntity
  8
0
  6
CONTINUOUS
 62
               4
100
AcDbLine
 10
33.49251220703124
 20
44.991762695312502
 30
0.0
 11
60.492504577636709
 21
44.991762695312502
 31
0.0
  0
LINE
  5
336
100
AcDbEntity
  8
0
  6
CONTINUOUS
 62
               4
100
AcDbLine
 10
28.79253008513794
 20
-74.910828749715108
 30
0.0
 11
30.692529751934927
 21
-73.010840454101555
 31
0.0
  0
LINE
  5
337
100
AcDbEntity
  8
0
  6
CONTINUOUS
 62
               4
100
AcDbLine
 10
-19.807472137582891
 20
-74.910814984246315
 30
0.0
 11
-21.707439300571451
 21
-73.010840454101555
 31
0.0
  0
LINE
  5
338
100
AcDbEntity
  8
0
  6
CONTINUOUS
 62
               7
100
AcDbLine
 10
-5.0074877929687602
 20
-72.910825195312498
 30
0.0
 11
-5.0074877929687602
 21
-74.910825195312498
 31
0.0
  0
LINE
  5
339
100
AcDbEntity
  8
0
  6
CONTINUOUS
 62
               7
100
AcDbLine
 10
13.99251220703124
 20
-72.910825195312498
 30
0.0
 11
13.99251220703124
 21
-74.910825195312498
 31
0.0
  0
LINE
  5
33A
100
AcDbEntity
  8
0
  6
CONTINUOUS
 62
               4
100
AcDbLine
 10
-5.0074877929687602
 20
-72.910825195312498
 30
0.0
 11
13.99251220703124
 21
-72.910825195312498
 31
0.0
  0
ARC
  5
33B
100
AcDbEntity
  8
0
  6
CONTINUOUS
 62
               4
100
AcDbCircle
 10
3.4925122070312398
 20
-79.41084045410156
 30
0.0
 40
0.5
100
AcDbArc
 50
270.0
 51
0.0
  0
ARC
  5
33C
100
AcDbEntity
  8
0
  6
CONTINUOUS
 62
               4
100
AcDbCircle
 10
5.4925122070312398
 20
-79.41084045410156
 30
0.0
 40
0.5
100
AcDbArc
 50
180.0
 51
270.0
  0
LINE
  5
33D
100
AcDbEntity
  8
0
  6
CONTINUOUS
 62
               4
100
AcDbLine
 10
5.4925122070312398
 20
-79.91084045410156
 30
0.0
 11
22.492500762939443
 21
-79.91084045410156
 31
0.0
  0
LINE
  5
33E
100
AcDbEntity
  8
0
  6
CONTINUOUS
 62
               4
100
AcDbLine
 10
3.9925122070312398
 20
-72.910825195312498
 30
0.0
 11
3.9925122070312398
 21
-79.41084045410156
 31
0.0
  0
LINE
  5
33F
100
AcDbEntity
  8
0
  6
CONTINUOUS
 62
               4
100
AcDbLine
 10
4.9925122070312398
 20
-72.910825195312498
 30
0.0
 11
4.9925122070312398
 21
-79.41084045410156
 31
0.0
  0
ARC
  5
340
100
AcDbEntity
  8
0
  6
CONTINUOUS
 62
               4
100
AcDbCircle
 10
-13.507483978271495
 20
-79.41084045410156
 30
0.0
 40
0.5
100
AcDbArc
 50
179.99996334457597
 51
270.0
  0
ARC
  5
341
100
AcDbEntity
  8
0
  6
CONTINUOUS
 62
               4
100
AcDbCircle
 10
22.492500762939443
 20
-79.41084045410156
 30
0.0
 40
0.5
100
AcDbArc
 50
270.0
 51
359.99998201391065
  0
LINE
  5
342
100
AcDbEntity
  8
0
  6
CONTINUOUS
 62
               4
100
AcDbLine
 10
-18.507483978271495
 20
-74.910825195312498
 30
0.0
 11
-18.507483978271495
 21
-73.010840454101555
 31
0.0
  0
LINE
  5
343
100
AcDbEntity
  8
0
  6
CONTINUOUS
 62
               4
100
AcDbLine
 10
-12.507483978271495
 20
-74.910825195312498
 30
0.0
 11
-12.507483978271495
 21
-73.010840454101555
 31
0.0
  0
LINE
  5
344
100
AcDbEntity
  8
0
  6
CONTINUOUS
 62
               4
100
AcDbLine
 10
23.492500762939443
 20
-74.910825195312498
 30
0.0
 11
23.492500762939443
 21
-73.010840454101555
 31
0.0
  0
LINE
  5
345
100
AcDbEntity
  8
0
  6
CONTINUOUS
 62
               4
100
AcDbLine
 10
-19.807471771240245
 20
-74.910825195312498
 30
0.0
 11
-5.0074877929687602
 21
-74.910825195312498
 31
0.0
  0
LINE
  5
346
100
AcDbEntity
  8
0
  6
CONTINUOUS
 62
             200
100
AcDbLine
 10
13.99251220703124
 20
-81.696469726562498
 30
0.0
 11
13.99251220703124
 21
-71.008237304687498
 31
0.0
  0
LINE
  5
347
100
AcDbEntity
  8
0
  6
CONTINUOUS
 62
             200
100
AcDbLine
 10
-5.0074877929687602
 20
-81.696469726562498
 30
0.0
 11
-5.0074877929687602
 21
-71.008237304687498
 31
0.0
  0
LINE
  5
348
100
AcDbEntity
  8
0
  6
CONTINUOUS
 62
               4
100
AcDbLine
 10
-14.007483978271495
 20
-79.41084045410156
 30
0.0
 11
-14.007483978271495
 21
-74.910825195312498
 31
0.0
  0
LINE
  5
349
100
AcDbEntity
  8
0
  6
CONTINUOUS
 62
               4
100
AcDbLine
 10
22.992500762939443
 20
-79.41084045410156
 30
0.0
 11
22.992500762939443
 21
-74.910825195312498
 31
0.0
  0
LINE
  5
34A
100
AcDbEntity
  8
0
  6
CONTINUOUS
 62
               4
100
AcDbLine
 10
-13.507483978271495
 20
-79.91084045410156
 30
0.0
 11
3.4925122070312398
 21
-79.91084045410156
 31
0.0
  0
ENDBLK
  5
34B
100
AcDbEntity
  8
0
100
AcDbBlockEnd
  0
BLOCK
  5
34C
100
AcDbEntity
  8
0
100
AcDbBlockBegin
  2
F18MNJ-7
 70
               0
 10
0.0
 20
0.0
 30
0.0
  3
F18MNJ-7
  1

  0
CIRCLE
  5
34D
100
AcDbEntity
  8
0
  6
CONTINUOUS
 62
               4
100
AcDbCircle
 10
16.00006103515625
 20
-17.5
 30
0.0
 40
2.7999992370605469
  0
LINE
  5
34E
100
AcDbEntity
  8
0
  6
CONTINUOUS
 62
               4
100
AcDbLine
 10
13.0
 20
-17.5
 30
0.0
 11
13.0
 21
-21.800000000000011
 31
0.0
  0
LINE
  5
34F
100
AcDbEntity
  8
0
  6
CONTINUOUS
 62
               4
100
AcDbLine
 10
0.5
 20
-21.800000000000011
 30
0.0
 11
0.5
 21
-16.759999999999991
 31
0.0
  0
LINE
  5
350
100
AcDbEntity
  8
0
  6
CONTINUOUS
 62
               4
100
AcDbLine
 10
18.5
 20
-21.800000000000011
 30
0.0
 11
18.5
 21
-18.759999999999991
 31
0.0
  0
LINE
  5
351
100
AcDbEntity
  8
0
  6
CONTINUOUS
 62
               7
100
AcDbLine
 10
19.0
 20
31.0
 30
0.0
 11
19.0
 21
-22.0
 31
0.0
  0
LINE
  5
352
100
AcDbEntity
  8
0
  6
CONTINUOUS
 62
               7
100
AcDbLine
 10
0.0
 20
31.0
 30
0.0
 11
0.0
 21
-22.0
 31
0.0
  0
LINE
  5
353
100
AcDbEntity
  8
0
  6
CONTINUOUS
 62
               2
100
AcDbLine
 10
9.5
 20
71.310000000000002
 30
0.0
 11
9.5
 21
-23.379999999999995
 31
0.0
  0
LINE
  5
354
100
AcDbEntity
  8
0
  6
CONTINUOUS
 62
               7
100
AcDbLine
 10
0.5
 20
66.0
 30
0.0
 11
0.5
 21
31.0
 31
0.0
  0
LINE
  5
355
100
AcDbEntity
  8
0
  6
CONTINUOUS
 62
               7
100
AcDbLine
 10
3.5
 20
57.0
 30
0.0
 11
0.5
 21
57.0
 31
0.0
  0
LINE
  5
356
100
AcDbEntity
  8
0
  6
CONTINUOUS
 62
               4
100
AcDbLine
 10
18.5
 20
67.5
 30
0.0
 11
18.5
 21
67.319999999999993
 31
0.0
  0
LINE
  5
357
100
AcDbEntity
  8
0
  6
CONTINUOUS
 62
               4
100
AcDbLine
 10
0.5
 20
67.5
 30
0.0
 11
0.5
 21
66.0
 31
0.0
  0
LINE
  5
358
100
AcDbEntity
  8
0
  6
CONTINUOUS
 62
               7
100
AcDbLine
 10
18.0
 20
65.0
 30
0.0
 11
1.0
 21
65.0
 31
0.0
  0
LINE
  5
359
100
AcDbEntity
  8
0
  6
CONTINUOUS
 62
               7
100
AcDbLine
 10
16.0
 20
67.0
 30
0.0
 11
3.0
 21
67.0
 31
0.0
  0
LINE
  5
35A
100
AcDbEntity
  8
0
  6
CONTINUOUS
 62
               7
100
AcDbLine
 10
17.0
 20
66.0
 30
0.0
 11
17.0
 21
65.0
 31
0.0
  0
LINE
  5
35B
100
AcDbEntity
  8
0
  6
CONTINUOUS
 62
               7
100
AcDbLine
 10
2.0
 20
66.0
 30
0.0
 11
2.0
 21
65.0
 31
0.0
  0
LINE
  5
35C
100
AcDbEntity
  8
0
  6
CONTINUOUS
 62
               7
100
AcDbLine
 10
17.0
 20
66.0
 30
0.0
 11
16.0
 21
67.0
 31
0.0
  0
LINE
  5
35D
100
AcDbEntity
  8
0
  6
CONTINUOUS
 62
               7
100
AcDbLine
 10
3.0
 20
67.0
 30
0.0
 11
2.0
 21
66.0
 31
0.0
  0
LINE
  5
35E
100
AcDbEntity
  8
0
  6
CONTINUOUS
 62
               7
100
AcDbLine
 10
4.5600000000000023
 20
58.930000000000007
 30
0.0
 11
2.4299999999999997
 21
61.060000000000002
 31
0.0
  0
LINE
  5
35F
100
AcDbEntity
  8
0
  6
CONTINUOUS
 62
               7
100
AcDbLine
 10
2.4399999999999977
 20
58.930000000000007
 30
0.0
 11
4.5600000000000023
 21
61.060000000000002
 31
0.0
  0
LINE
  5
360
100
AcDbEntity
  8
0
  6
CONTINUOUS
 62
               7
100
AcDbLine
 10
15.5
 20
37.0
 30
0.0
 11
18.5
 21
37.0
 31
0.0
  0
LINE
  5
361
100
AcDbEntity
  8
0
  6
CONTINUOUS
 62
               7
100
AcDbLine
 10
12.5
 20
34.0
 30
0.0
 11
12.5
 21
31.0
 31
0.0
  0
LINE
  5
362
100
AcDbEntity
  8
0
  6
CONTINUOUS
 62
               7
100
AcDbLine
 10
16.560000000000002
 20
35.060000000000002
 30
0.0
 11
14.439999999999998
 21
32.930000000000007
 31
0.0
  0
LINE
  5
363
100
AcDbEntity
  8
0
  6
CONTINUOUS
 62
               7
100
AcDbLine
 10
14.43
 20
35.060000000000002
 30
0.0
 11
16.560000000000002
 21
32.930000000000007
 31
0.0
  0
LINE
  5
364
100
AcDbEntity
  8
0
  6
CONTINUOUS
 62
               7
100
AcDbLine
 10
3.5
 20
63.0
 30
0.0
 11
0.5
 21
63.0
 31
0.0
  0
LINE
  5
365
100
AcDbEntity
  8
0
  6
CONTINUOUS
 62
               4
100
AcDbLine
 10
1.0
 20
68.0
 30
0.0
 11
18.0
 21
68.0
 31
0.0
  0
LINE
  5
366
100
AcDbEntity
  8
0
  6
CONTINUOUS
 62
               7
100
AcDbLine
 10
0.5
 20
66.0
 30
0.0
 11
18.75
 21
66.0
 31
0.0
  0
LINE
  5
367
100
AcDbEntity
  8
0
  6
CONTINUOUS
 62
               4
100
AcDbLine
 10
13.0
 20
68.0
 30
0.0
 11
13.0
 21
67.0
 31
0.0
  0
LINE
  5
368
100
AcDbEntity
  8
0
  6
CONTINUOUS
 62
               4
100
AcDbLine
 10
18.75
 20
66.5
 30
0.0
 11
18.75
 21
66.0
 31
0.0
  0
LINE
  5
369
100
AcDbEntity
  8
0
  6
CONTINUOUS
 62
               7
100
AcDbLine
 10
18.5
 20
66.0
 30
0.0
 11
18.5
 21
31.0
 31
0.0
  0
LINE
  5
36A
100
AcDbEntity
  8
0
  6
CONTINUOUS
 62
               7
100
AcDbLine
 10
0.0
 20
31.0
 30
0.0
 11
19.0
 21
31.0
 31
0.0
  0
LINE
  5
36B
100
AcDbEntity
  8
0
  6
CONTINUOUS
 62
               4
100
AcDbLine
 10
0.5
 20
30.800000000000011
 30
0.0
 11
18.5
 21
30.800000000000011
 31
0.0
  0
LINE
  5
36C
100
AcDbEntity
  8
0
  6
CONTINUOUS
 62
               4
100
AcDbLine
 10
16.0
 20
27.5
 30
0.0
 11
18.5
 21
27.5
 31
0.0
  0
LINE
  5
36D
100
AcDbEntity
  8
0
  6
CONTINUOUS
 62
               4
100
AcDbLine
 10
16.0
 20
21.5
 30
0.0
 11
18.5
 21
21.5
 31
0.0
  0
LINE
  5
36E
100
AcDbEntity
  8
0
  6
CONTINUOUS
 62
               4
100
AcDbLine
 10
0.5
 20
-18.5
 30
0.0
 11
3.0
 21
-18.5
 31
0.0
  0
LINE
  5
36F
100
AcDbEntity
  8
0
  6
CONTINUOUS
 62
               4
100
AcDbLine
 10
0.5
 20
-12.5
 30
0.0
 11
3.0
 21
-12.5
 31
0.0
  0
LINE
  5
370
100
AcDbEntity
  8
0
  6
CONTINUOUS
 62
               4
100
AcDbLine
 10
6.0
 20
26.5
 30
0.0
 11
6.0
 21
30.800000000000011
 31
0.0
  0
LINE
  5
371
100
AcDbEntity
  8
0
  6
CONTINUOUS
 62
               4
100
AcDbLine
 10
3.0
 20
23.5
 30
0.0
 11
0.5
 21
23.5
 31
0.0
  0
LINE
  5
372
100
AcDbEntity
  8
0
  6
CONTINUOUS
 62
               4
100
AcDbLine
 10
0.5
 20
-19.800000000000011
 30
0.0
 11
13.0
 21
-19.800000000000011
 31
0.0
  0
LINE
  5
373
100
AcDbEntity
  8
0
  6
CONTINUOUS
 62
               4
100
AcDbLine
 10
6.0
 20
28.800000000000011
 30
0.0
 11
18.5
 21
28.800000000000011
 31
0.0
  0
LINE
  5
374
100
AcDbEntity
  8
0
  6
CONTINUOUS
 62
             200
100
AcDbLine
 10
-0.5
 20
14.0
 30
0.0
 11
19.5
 21
14.0
 31
0.0
  0
LINE
  5
375
100
AcDbEntity
  8
0
  6
CONTINUOUS
 62
             200
100
AcDbLine
 10
-0.5
 20
-5.0
 30
0.0
 11
19.5
 21
-5.0
 31
0.0
  0
LINE
  5
376
100
AcDbEntity
  8
0
  6
CONTINUOUS
 62
               4
100
AcDbLine
 10
16.0
 20
-14.5
 30
0.0
 11
18.5
 21
-14.5
 31
0.0
  0
LINE
  5
377
100
AcDbEntity
  8
0
  6
CONTINUOUS
 62
               4
100
AcDbLine
 10
1.9399999999999977
 20
-16.560000000000002
 30
0.0
 11
4.0600000000000023
 21
-14.439999999999998
 31
0.0
  0
LINE
  5
378
100
AcDbEntity
  8
0
  6
CONTINUOUS
 62
               4
100
AcDbLine
 10
1.9399999999999977
 20
-14.430000000000007
 30
0.0
 11
4.0600000000000023
 21
-16.560000000000002
 31
0.0
  0
LINE
  5
379
100
AcDbEntity
  8
0
  6
CONTINUOUS
 62
               4
100
AcDbLine
 10
14.939999999999998
 20
-18.560000000000002
 30
0.0
 11
17.060000000000002
 21
-16.439999999999998
 31
0.0
  0
LINE
  5
37A
100
AcDbEntity
  8
0
  6
CONTINUOUS
 62
               4
100
AcDbLine
 10
14.93
 20
-16.430000000000007
 30
0.0
 11
17.060000000000002
 21
-18.560000000000002
 31
0.0
  0
LINE
  5
37B
100
AcDbEntity
  8
0
  6
CONTINUOUS
 62
               4
100
AcDbLine
 10
14.939999999999998
 20
23.430000000000007
 30
0.0
 11
17.060000000000002
 21
25.560000000000002
 31
0.0
  0
LINE
  5
37C
100
AcDbEntity
  8
0
  6
CONTINUOUS
 62
               4
100
AcDbLine
 10
14.93
 20
25.560000000000002
 30
0.0
 11
17.060000000000002
 21
23.430000000000007
 31
0.0
  0
LINE
  5
37D
100
AcDbEntity
  8
0
  6
CONTINUOUS
 62
               4
100
AcDbLine
 10
1.9299999999999997
 20
25.430000000000007
 30
0.0
 11
4.0600000000000023
 21
27.560000000000002
 31
0.0
  0
LINE
  5
37E
100
AcDbEntity
  8
0
  6
CONTINUOUS
 62
               4
100
AcDbLine
 10
1.9299999999999997
 20
27.560000000000002
 30
0.0
 11
4.0600000000000023
 21
25.430000000000007
 31
0.0
  0
LINE
  5
37F
100
AcDbEntity
  8
0
  6
CONTINUOUS
 62
               4
100
AcDbLine
 10
0.5
 20
-14.230000000000018
 30
0.0
 11
0.5
 21
25.22999999999999
 31
0.0
  0
LINE
  5
380
100
AcDbEntity
  8
0
  6
CONTINUOUS
 62
               4
100
AcDbLine
 10
18.5
 20
25.759999999999991
 30
0.0
 11
18.5
 21
30.800000000000011
 31
0.0
  0
LINE
  5
381
100
AcDbEntity
  8
0
  6
CONTINUOUS
 62
               4
100
AcDbLine
 10
0.5
 20
27.759999999999991
 30
0.0
 11
0.5
 21
30.800000000000011
 31
0.0
  0
LINE
  5
382
100
AcDbEntity
  8
0
  6
CONTINUOUS
 62
               4
100
AcDbLine
 10
18.5
 20
-16.230000000000018
 30
0.0
 11
18.5
 21
23.22999999999999
 31
0.0
  0
ARC
  5
383
100
AcDbEntity
  8
0
  6
CONTINUOUS
 62
               7
100
AcDbCircle
 10
3.5
 20
60.0
 30
0.0
 40
3.0000000001552203
100
AcDbArc
 50
270.0
 51
90.0
  0
ARC
  5
384
100
AcDbEntity
  8
0
  6
CONTINUOUS
 62
               7
100
AcDbCircle
 10
18.000015258556232
 20
64.500015258556232
 30
0.0
 40
0.4999847416765988
100
AcDbArc
 50
359.99825144489262
 51
90.001748555107383
  0
ARC
  5
385
100
AcDbEntity
  8
0
  6
CONTINUOUS
 62
               7
100
AcDbCircle
 10
1.0000152590218931
 20
64.499984740978107
 30
0.0
 40
0.5000152592547238
100
AcDbArc
 50
90.001748501746562
 51
179.99825149825347
  0
CIRCLE
  5
386
100
AcDbEntity
  8
0
  6
CONTINUOUS
 62
               7
100
AcDbCircle
 10
3.500030517578125
 20
60.0
 30
0.0
 40
2.7999992370605469
  0
ARC
  5
387
100
AcDbEntity
  8
0
  6
CONTINUOUS
 62
               7
100
AcDbCircle
 10
15.500022888193293
 20
33.999977111806714
 30
0.0
 40
3.0000228882806059
100
AcDbArc
 50
90.000437128957131
 51
179.99956287104294
  0
CIRCLE
  5
388
100
AcDbEntity
  8
0
  6
CONTINUOUS
 62
               7
100
AcDbCircle
 10
15.500030517578125
 20
33.999984741210937
 30
0.0
 40
2.7999992370605469
  0
ARC
  5
389
100
AcDbEntity
  8
0
  6
CONTINUOUS
 62
               4
100
AcDbCircle
 10
18.000007628870662
 20
67.500007628870662
 30
0.0
 40
0.4999923711875383
100
AcDbArc
 50
359.99912578247864
 51
90.000874217521329
  0
ARC
  5
38A
100
AcDbEntity
  8
0
  6
CONTINUOUS
 62
               4
100
AcDbCircle
 10
1.0000228882418014
 20
67.499977111758199
 30
0.0
 40
0.500022888765649
100
AcDbArc
 50
90.002622679252539
 51
179.99737732074746
  0
ARC
  5
38B
100
AcDbEntity
  8
0
  6
CONTINUOUS
 62
               4
100
AcDbCircle
 10
17.250007629219908
 20
66.500007629219908
 30
0.0
 40
1.4999923707994935
100
AcDbArc
 50
359.99970858378333
 51
90.000291416216655
  0
ARC
  5
38C
100
AcDbEntity
  8
0
  6
CONTINUOUS
 62
               4
100
AcDbCircle
 10
14.746160578896593
 20
66.497251977966812
 30
0.0
 40
1.5027529267577582
100
AcDbArc
 50
89.853613418140668
 51
160.45474184615398
  0
ARC
  5
38D
100
AcDbEntity
  8
0
  6
CONTINUOUS
 62
               4
100
AcDbCircle
 10
16.0
 20
24.5
 30
0.0
 40
3.0000000006208816
100
AcDbArc
 50
90.0
 51
270.0
  0
ARC
  5
38E
100
AcDbEntity
  8
0
  6
CONTINUOUS
 62
               4
100
AcDbCircle
 10
3.0
 20
-15.5
 30
0.0
 40
3.0000000006208816
100
AcDbArc
 50
270.0
 51
90.0
  0
ARC
  5
38F
100
AcDbEntity
  8
0
  6
CONTINUOUS
 62
               4
100
AcDbCircle
 10
3.0000381468853448
 20
26.499961853114655
 30
0.0
 40
2.9999618533571892
100
AcDbArc
 50
269.99927143889198
 51
0.0007285611079896
  0
CIRCLE
  5
390
100
AcDbEntity
  8
0
  6
CONTINUOUS
 62
               4
100
AcDbCircle
 10
9.4949999999999974
 20
13.999955452309166
 30
0.0
 40
9.0052169235346611
  0
CIRCLE
  5
391
100
AcDbEntity
  8
0
  6
CONTINUOUS
 62
               4
100
AcDbCircle
 10
9.4949999999999974
 20
-5.000047005814622
 30
0.0
 40
8.9966580168732051
  0
CIRCLE
  5
392
100
AcDbEntity
  8
0
  6
CONTINUOUS
 62
               4
100
AcDbCircle
 10
9.50006103515625
 20
13.999954223632813
 30
0.0
 40
5.6799993515014648
  0
CIRCLE
  5
393
100
AcDbEntity
  8
0
  6
CONTINUOUS
 62
             200
100
AcDbCircle
 10
9.50006103515625
 20
13.999954223632813
 30
0.0
 40
6.5
  0
CIRCLE
  5
394
100
AcDbEntity
  8
0
  6
CONTINUOUS
 62
             200
100
AcDbCircle
 10
9.50006103515625
 20
-5.0000457763671875
 30
0.0
 40
6.5
  0
CIRCLE
  5
395
100
AcDbEntity
  8
0
  6
CONTINUOUS
 62
               4
100
AcDbCircle
 10
9.50006103515625
 20
-5.0000457763671875
 30
0.0
 40
5.6799993515014648
  0
ARC
  5
396
100
AcDbEntity
  8
0
  6
CONTINUOUS
 62
               4
100
AcDbCircle
 10
16.00003051773335
 20
-17.500030517733364
 30
0.0
 40
3.0000305178885656
100
AcDbArc
 50
90.000582839844697
 51
179.9994171601553
  0
CIRCLE
  5
397
100
AcDbEntity
  8
0
  6
CONTINUOUS
 62
               4
100
AcDbCircle
 10
3.00006103515625
 20
-15.5
 30
0.0
 40
2.7999992370605469
  0
CIRCLE
  5
398
100
AcDbEntity
  8
0
  6
CONTINUOUS
 62
               4
100
AcDbCircle
 10
16.00006103515625
 20
24.499969482421875
 30
0.0
 40
2.7999992370605469
  0
CIRCLE
  5
399
100
AcDbEntity
  8
0
  6
CONTINUOUS
 62
               4
100
AcDbCircle
 10
3.00006103515625
 20
26.499984741210938
 30
0.0
 40
2.7999992370605469
  0
LINE
  5
39A
100
AcDbEntity
  8
0
  6
CONTINUOUS
 62
               7
100
AcDbLine
 10
0.0
 20
-22.0
 30
0.0
 11
19.0
 21
-22.0
 31
0.0
  0
LINE
  5
39B
100
AcDbEntity
  8
0
  6
CONTINUOUS
 62
               4
100
AcDbLine
 10
0.5
 20
-21.800000000000011
 30
0.0
 11
18.5
 21
-21.800000000000011
 31
0.0
  0
ENDBLK
  5
39C
100
AcDbEntity
  8
0
100
AcDbBlockEnd
  0
BLOCK
  5
39D
100
AcDbEntity
  8
0
100
AcDbBlockBegin
  2
F18MNJ-8
 70
               0
 10
0.0
 20
0.0
 30
0.0
  3
F18MNJ-8
  1

  0
LINE
  5
39E
100
AcDbEntity
  8
0
  6
CONTINUOUS
 62
               7
100
AcDbLine
 10
21.0
 20
-66.600006103515625
 30
0.0
 11
21.0
 21
17.0
 31
0.0
  0
LINE
  5
39F
100
AcDbEntity
  8
0
  6
CONTINUOUS
 62
               7
100
AcDbLine
 10
0.0
 20
-66.600006103515625
 30
0.0
 11
0.0
 21
17.0
 31
0.0
  0
LINE
  5
3A0
100
AcDbEntity
  8
0
  6
CONTINUOUS
 62
               7
100
AcDbLine
 10
21.0
 20
-73.000015258789063
 30
0.0
 11
21.0
 21
-66.600006103515625
 31
0.0
  0
LINE
  5
3A1
100
AcDbEntity
  8
0
  6
CONTINUOUS
 62
               7
100
AcDbLine
 10
0.0
 20
-73.000015258789063
 30
0.0
 11
0.0
 21
-66.600006103515625
 31
0.0
  0
LINE
  5
3A2
100
AcDbEntity
  8
0
  6
CONTINUOUS
 62
               7
100
AcDbLine
 10
5.5
 20
-17.800003051757812
 30
0.0
 11
15.5
 21
-17.800003051757812
 31
0.0
  0
LINE
  5
3A3
100
AcDbEntity
  8
0
  6
CONTINUOUS
 62
               7
100
AcDbLine
 10
15.5
 20
-19.0
 30
0.0
 11
15.5
 21
-17.800003051757812
 31
0.0
  0
LINE
  5
3A4
100
AcDbEntity
  8
0
  6
CONTINUOUS
 62
               7
100
AcDbLine
 10
5.5
 20
-19.0
 30
0.0
 11
5.5
 21
-17.800003051757812
 31
0.0
  0
LINE
  5
3A5
100
AcDbEntity
  8
0
  6
CONTINUOUS
 62
               7
100
AcDbLine
 10
5.5
 20
-18.0
 30
0.0
 11
15.5
 21
-18.0
 31
0.0
  0
LINE
  5
3A6
100
AcDbEntity
  8
0
  6
CONTINUOUS
 62
               4
100
AcDbLine
 10
0.5
 20
-73.000015258789063
 30
0.0
 11
0.5
 21
-89.100004577636724
 31
0.0
  0
LINE
  5
3A7
100
AcDbEntity
  8
0
  6
CONTINUOUS
 62
               4
100
AcDbLine
 10
1.5
 20
-92.600004577636724
 30
0.0
 11
1.5
 21
-94.800003433227545
 31
0.0
  0
LINE
  5
3A8
100
AcDbEntity
  8
0
  6
CONTINUOUS
 62
               4
100
AcDbLine
 10
19.5
 20
-92.600004577636724
 30
0.0
 11
19.5
 21
-94.800003433227545
 31
0.0
  0
LINE
  5
3A9
100
AcDbEntity
  8
0
  6
CONTINUOUS
 62
               4
100
AcDbLine
 10
20.5
 20
-73.000015258789063
 30
0.0
 11
20.5
 21
-89.100004577636724
 31
0.0
  0
LINE
  5
3AA
100
AcDbEntity
  8
0
  6
CONTINUOUS
 62
               4
100
AcDbLine
 10
1.5
 20
-92.600004577636724
 30
0.0
 11
19.5
 21
-92.600004577636724
 31
0.0
  0
LINE
  5
3AB
100
AcDbEntity
  8
0
  6
CONTINUOUS
 62
               4
100
AcDbLine
 10
2.0
 20
-90.600004577636724
 30
0.0
 11
19.0
 21
-90.600004577636724
 31
0.0
  0
LINE
  5
3AC
100
AcDbEntity
  8
0
  6
CONTINUOUS
 62
               4
100
AcDbLine
 10
2.5
 20
-91.600004577636724
 30
0.0
 11
18.5
 21
-91.600004577636724
 31
0.0
  0
LINE
  5
3AD
100
AcDbEntity
  8
0
  6
CONTINUOUS
 62
               4
100
AcDbLine
 10
2.0000005062638593
 20
-90.60000454884667
 30
0.0
 11
0.4999990403202901
 21
-89.100002703581055
 31
0.0
  0
LINE
  5
3AE
100
AcDbEntity
  8
0
  6
CONTINUOUS
 62
               4
100
AcDbLine
 10
20.500022826210625
 20
-89.100017969171319
 30
0.0
 11
19.000021107385692
 21
-90.600019687996252
 31
0.0
  0
LINE
  5
3AF
100
AcDbEntity
  8
0
  6
CONTINUOUS
 62
               4
100
AcDbLine
 10
0.5
 20
-89.100004577636724
 30
0.0
 11
20.5
 21
-89.100004577636724
 31
0.0
  0
LINE
  5
3B0
100
AcDbEntity
  8
0
  6
CONTINUOUS
 62
               4
100
AcDbLine
 10
17.5
 20
-92.600004577636724
 30
0.0
 11
17.5
 21
-91.600004577636724
 31
0.0
  0
LINE
  5
3B1
100
AcDbEntity
  8
0
  6
CONTINUOUS
 62
               4
100
AcDbLine
 10
3.5
 20
-92.600004577636724
 30
0.0
 11
3.5
 21
-91.600004577636724
 31
0.0
  0
LINE
  5
3B2
100
AcDbEntity
  8
0
  6
CONTINUOUS
 62
               4
100
AcDbLine
 10
2.5
 20
-91.600004577636724
 30
0.0
 11
2.5
 21
-90.600004577636724
 31
0.0
  0
LINE
  5
3B3
100
AcDbEntity
  8
0
  6
CONTINUOUS
 62
               4
100
AcDbLine
 10
18.5
 20
-91.600004577636724
 30
0.0
 11
18.5
 21
-90.600004577636724
 31
0.0
  0
LINE
  5
3B4
100
AcDbEntity
  8
0
  6
CONTINUOUS
 62
               4
100
AcDbLine
 10
1.5
 20
-94.800003433227545
 30
0.0
 11
19.5
 21
-94.800003433227545
 31
0.0
  0
ELLIPSE
  5
3B5
100
AcDbEntity
  8
0
  6
CONTINUOUS
 62
               7
100
AcDbEllipse
 10
3.5
 20
-66.123001098632813
 30
0.0
 11
3.5
 21
0.0
 31
0.0
210
0.0
220
0.0
230
1.0
 40
0.7070999145507813
 41
4.7123892943011692
 42
5.4460959474193045
  0
ELLIPSE
  5
3B6
100
AcDbEntity
  8
0
  6
CONTINUOUS
 62
               7
100
AcDbEllipse
 10
17.5
 20
-66.123001098632813
 30
0.0
 11
-3.4999999999998148
 21
0.0000011404445106
 31
0.0
210
0.0
220
0.0
230
1.0
 40
0.7070999145507813
 41
0.8370890021323807
 42
1.5707960128783602
  0
ELLIPSE
  5
3B7
100
AcDbEntity
  8
0
  6
CONTINUOUS
 62
               7
100
AcDbEllipse
 10
3.5
 20
-69.800003051757812
 30
0.0
 11
3.5
 21
0.0
 31
0.0
210
0.0
220
0.0
230
1.0
 40
0.7070999145507813
 41
4.7123892943011692
 42
1.570796640711376
  0
ELLIPSE
  5
3B8
100
AcDbEntity
  8
0
  6
CONTINUOUS
 62
               7
100
AcDbEllipse
 10
17.5
 20
-69.800003051757812
 30
0.0
 11
-3.4999999999998148
 21
0.0000011404445106
 31
0.0
210
0.0
220
0.0
230
1.0
 40
0.7070999145507813
 41
4.7123883406267932
 42
1.5707956870370001
  0
ELLIPSE
  5
3B9
100
AcDbEntity
  8
0
  6
CONTINUOUS
 62
               7
100
AcDbEllipse
 10
17.5
 20
-66.123077392578125
 30
0.0
 11
2.75
 21
0.0
 31
0.0
210
0.0
220
0.0
230
1.0
 40
0.7071089311079546
 41
4.0383952299701145
 42
5.6163723508464196
  0
ELLIPSE
  5
3BA
100
AcDbEntity
  8
0
  6
CONTINUOUS
 62
               7
100
AcDbEllipse
 10
3.5
 20
-66.123077392578125
 30
0.0
 11
-2.7499999999998539
 21
0.0000008960637956
 31
0.0
210
0.0
220
0.0
230
1.0
 40
0.7071089311079546
 41
0.6668133139610224
 42
2.2447900772094567
  0
LINE
  5
3BB
100
AcDbEntity
  8
0
  6
CONTINUOUS
 62
             200
100
AcDbLine
 10
10.5
 20
-95.78353061676026
 30
0.0
 11
10.5
 21
-73.0
 31
0.0
  0
LINE
  5
3BC
100
AcDbEntity
  8
0
  6
CONTINUOUS
 62
               7
100
AcDbLine
 10
21.0
 20
-72.274871826171875
 30
0.0
 11
17.5
 21
-72.274871826171875
 31
0.0
  0
LINE
  5
3BD
100
AcDbEntity
  8
0
  6
CONTINUOUS
 62
               7
100
AcDbLine
 10
0.0
 20
-72.274871826171875
 30
0.0
 11
3.5
 21
-72.274871826171875
 31
0.0
  0
LINE
  5
3BE
100
AcDbEntity
  8
0
  6
CONTINUOUS
 62
               7
100
AcDbLine
 10
21.0
 20
-68.597869873046875
 30
0.0
 11
17.5
 21
-68.597869873046875
 31
0.0
  0
LINE
  5
3BF
100
AcDbEntity
  8
0
  6
CONTINUOUS
 62
               7
100
AcDbLine
 10
21.0
 20
-67.32513427734375
 30
0.0
 11
17.5
 21
-67.32513427734375
 31
0.0
  0
LINE
  5
3C0
100
AcDbEntity
  8
0
  6
CONTINUOUS
 62
               7
100
AcDbLine
 10
0.0
 20
-68.597869873046875
 30
0.0
 11
3.5
 21
-68.597869873046875
 31
0.0
  0
LINE
  5
3C1
100
AcDbEntity
  8
0
  6
CONTINUOUS
 62
               7
100
AcDbLine
 10
0.0
 20
-67.32513427734375
 30
0.0
 11
3.5
 21
-67.32513427734375
 31
0.0
  0
LINE
  5
3C2
100
AcDbEntity
  8
0
  6
CONTINUOUS
 62
               7
100
AcDbLine
 10
0.0
 20
-66.600006103515625
 30
0.0
 11
21.0
 21
-66.600006103515625
 31
0.0
  0
LINE
  5
3C3
100
AcDbEntity
  8
0
  6
CONTINUOUS
 62
               7
100
AcDbLine
 10
15.5
 20
-19.0
 30
0.0
 11
21.0
 21
-19.0
 31
0.0
  0
LINE
  5
3C4
100
AcDbEntity
  8
0
  6
CONTINUOUS
 62
               7
100
AcDbLine
 10
0.0
 20
-19.0
 30
0.0
 11
5.5
 21
-19.0
 31
0.0
  0
ELLIPSE
  5
3C5
100
AcDbEntity
  8
0
  6
CONTINUOUS
 62
               7
100
AcDbEllipse
 10
3.5
 20
-66.123001098632813
 30
0.0
 11
3.5
 21
0.0
 31
0.0
210
0.0
220
0.0
230
1.0
 40
0.7070999145507813
 41
4.7123892943011692
 42
5.4460959474193045
  0
ELLIPSE
  5
3C6
100
AcDbEntity
  8
0
  6
CONTINUOUS
 62
               7
100
AcDbEllipse
 10
17.5
 20
-66.123001098632813
 30
0.0
 11
-3.4999999999998148
 21
0.0000011404445106
 31
0.0
210
0.0
220
0.0
230
1.0
 40
0.7070999145507813
 41
0.8370890021323807
 42
1.5707960128783602
  0
ELLIPSE
  5
3C7
100
AcDbEntity
  8
0
  6
CONTINUOUS
 62
               7
100
AcDbEllipse
 10
3.5
 20
-69.800003051757812
 30
0.0
 11
3.5
 21
0.0
 31
0.0
210
0.0
220
0.0
230
1.0
 40
0.7070999145507813
 41
4.7123892943011692
 42
1.570796640711376
  0
ELLIPSE
  5
3C8
100
AcDbEntity
  8
0
  6
CONTINUOUS
 62
               7
100
AcDbEllipse
 10
17.5
 20
-69.800003051757812
 30
0.0
 11
-3.4999999999998148
 21
0.0000011404445106
 31
0.0
210
0.0
220
0.0
230
1.0
 40
0.7070999145507813
 41
4.7123883406267932
 42
1.5707956870370001
  0
ELLIPSE
  5
3C9
100
AcDbEntity
  8
0
  6
CONTINUOUS
 62
               7
100
AcDbEllipse
 10
17.5
 20
-66.123077392578125
 30
0.0
 11
2.75
 21
0.0
 31
0.0
210
0.0
220
0.0
230
1.0
 40
0.7071089311079546
 41
4.0383952299701145
 42
5.6163723508464196
  0
ELLIPSE
  5
3CA
100
AcDbEntity
  8
0
  6
CONTINUOUS
 62
               7
100
AcDbEllipse
 10
3.5
 20
-66.123077392578125
 30
0.0
 11
-2.7499999999998539
 21
0.0000008960637956
 31
0.0
210
0.0
220
0.0
230
1.0
 40
0.7071089311079546
 41
0.6668133139610224
 42
2.2447900772094567
  0
LINE
  5
3CB
100
AcDbEntity
  8
0
  6
CONTINUOUS
 62
               4
100
AcDbLine
 10
21.0
 20
-72.274871826171875
 30
0.0
 11
17.5
 21
-72.274871826171875
 31
0.0
  0
LINE
  5
3CC
100
AcDbEntity
  8
0
  6
CONTINUOUS
 62
               4
100
AcDbLine
 10
0.0
 20
-72.274871826171875
 30
0.0
 11
3.5
 21
-72.274871826171875
 31
0.0
  0
LINE
  5
3CD
100
AcDbEntity
  8
0
  6
CONTINUOUS
 62
               7
100
AcDbLine
 10
0.0
 20
-73.000015258789063
 30
0.0
 11
21.0
 21
-73.000015258789063
 31
0.0
  0
LINE
  5
3CE
100
AcDbEntity
  8
0
  6
CONTINUOUS
 62
               2
100
AcDbLine
 10
10.5
 20
-73.0
 30
0.0
 11
10.5
 21
21.629999999999995
 31
0.0
  0
LINE
  5
3CF
100
AcDbEntity
  8
0
  6
CONTINUOUS
 62
               7
100
AcDbLine
 10
0.0
 20
17.0
 30
0.0
 11
21.0
 21
17.0
 31
0.0
  0
ENDBLK
  5
3D0
100
AcDbEntity
  8
0
100
AcDbBlockEnd
  0
BLOCK
  5
3D1
100
AcDbEntity
  8
0
100
AcDbBlockBegin
  2
F18MNJ-9
 70
               0
 10
0.0
 20
0.0
 30
0.0
  3
F18MNJ-9
  1

  0
LINE
  5
3D2
100
AcDbEntity
  8
0
  6
CONTINUOUS
 62
             200
100
AcDbLine
 10
33.79998779296875
 20
-99.474105293400811
 30
0.0
 11
33.79998779296875
 21
-73.0
 31
0.0
  0
ARC
  5
3D3
100
AcDbEntity
  8
0
  6
CONTINUOUS
 62
               7
100
AcDbCircle
 10
47.537261962890625
 20
-60.466217041015625
 30
0.0
 40
1.0
100
AcDbArc
 50
225.00011736545497
 51
314.99994570010932
  0
ARC
  5
3D4
100
AcDbEntity
  8
0
  6
CONTINUOUS
 62
               7
100
AcDbCircle
 10
40.466217041015625
 20
-67.537261962890625
 30
0.0
 40
1.0
100
AcDbArc
 50
314.99996300295339
 51
44.999999658377334
  0
ARC
  5
3D5
100
AcDbEntity
  8
0
  6
CONTINUOUS
 62
               7
100
AcDbCircle
 10
40.8076171875
 20
-70.0
 30
0.0
 40
1.0
100
AcDbArc
 50
269.99999931675467
 51
45.000054299890692
  0
ARC
  5
3D6
100
AcDbEntity
  8
0
  6
CONTINUOUS
 62
               7
100
AcDbCircle
 10
50.000030517578125
 20
-60.807632446289063
 30
0.0
 40
1.0
100
AcDbArc
 50
225.00000125223909
 51
0.0000186693346746
  0
ARC
  5
3D7
100
AcDbEntity
  8
0
  6
CONTINUOUS
 62
               7
100
AcDbCircle
 10
45.592742919921875
 20
-67.3604736328125
 30
0.0
 40
1.5
100
AcDbArc
 50
224.99992270506363
 51
315.00043747372956
  0
ARC
  5
3D8
100
AcDbEntity
  8
0
  6
CONTINUOUS
 62
               7
100
AcDbCircle
 10
47.360504150390625
 20
-65.592697143554687
 30
0.0
 40
1.5
100
AcDbArc
 50
315.00034549354683
 51
44.999617167783811
  0
ARC
  5
3D9
100
AcDbEntity
  8
0
  6
CONTINUOUS
 62
               7
100
AcDbCircle
 10
48.000030517578125
 20
12.0
 30
0.0
 40
3.0
100
AcDbArc
 50
0.0000359721786855
 51
90.000017986089347
  0
ARC
  5
3DA
100
AcDbEntity
  8
0
  6
CONTINUOUS
 62
               7
100
AcDbCircle
 10
48.000030517578125
 20
12.0
 30
0.0
 40
5.0
100
AcDbArc
 50
0.0000359721786855
 51
90.000017986089347
  0
LINE
  5
3DB
100
AcDbEntity
  8
0
  6
CONTINUOUS
 62
               7
100
AcDbLine
 10
51.000030517578125
 20
-4.0
 30
0.0
 11
40.000030517578125
 21
-4.0
 31
0.0
  0
LINE
  5
3DC
100
AcDbEntity
  8
0
  6
CONTINUOUS
 62
               7
100
AcDbLine
 10
51.000030517578125
 20
8.6999969482421875
 30
0.0
 11
40.000030517578125
 21
8.6999969482421875
 31
0.0
  0
LINE
  5
3DD
100
AcDbEntity
  8
0
  6
CONTINUOUS
 62
               7
100
AcDbLine
 10
40.000030517578125
 20
-2.5
 30
0.0
 11
31.0
 21
-2.5
 31
0.0
  0
LINE
  5
3DE
100
AcDbEntity
  8
0
  6
CONTINUOUS
 62
               7
100
AcDbLine
 10
40.000030517578125
 20
6.5
 30
0.0
 11
31.0
 21
6.5
 31
0.0
  0
LINE
  5
3DF
100
AcDbEntity
  8
0
  6
CONTINUOUS
 62
               7
100
AcDbLine
 10
40.000030517578125
 20
-14.5
 30
0.0
 11
31.0
 21
-14.5
 31
0.0
  0
LINE
  5
3E0
100
AcDbEntity
  8
0
  6
CONTINUOUS
 62
               7
100
AcDbLine
 10
40.000030517578125
 20
-5.5
 30
0.0
 11
31.0
 21
-5.5
 31
0.0
  0
LINE
  5
3E1
100
AcDbEntity
  8
0
  6
CONTINUOUS
 62
               7
100
AcDbLine
 10
46.992441082327787
 20
-65.25368265263478
 30
0.0
 11
30.999975463955707
 21
-49.261218382326661
 31
0.0
  0
LINE
  5
3E2
100
AcDbEntity
  8
0
  6
CONTINUOUS
 62
               7
100
AcDbLine
 10
45.253665796098176
 20
-66.99245808543219
 30
0.0
 11
30.99998640011745
 21
-52.738779890946716
 31
0.0
  0
LINE
  5
3E3
100
AcDbEntity
  8
0
  6
CONTINUOUS
 62
               7
100
AcDbLine
 10
45.062387890789068
 20
-67.18373600686482
 30
0.0
 11
30.999986416240972
 21
-53.121335717688453
 31
0.0
  0
LINE
  5
3E4
100
AcDbEntity
  8
0
  6
CONTINUOUS
 62
               7
100
AcDbLine
 10
47.183718987636894
 20
-65.06240473120215
 30
0.0
 11
30.999997027020072
 21
-48.878684134770992
 31
0.0
  0
LINE
  5
3E5
100
AcDbEntity
  8
0
  6
CONTINUOUS
 62
               2
100
AcDbLine
 10
48.479085357134863
 20
-68.479112877949774
 30
0.0
 11
30.999986326834005
 21
-51.000015321026694
 31
0.0
  0
LINE
  5
3E6
100
AcDbEntity
  8
0
  6
CONTINUOUS
 62
               7
100
AcDbLine
 10
48.421207264776967
 20
-66.65336693016252
 30
0.0
 11
46.653441087122701
 21
-68.421134597932905
 31
0.0
  0
LINE
  5
3E7
100
AcDbEntity
  8
0
  6
CONTINUOUS
 62
               7
100
AcDbLine
 10
48.421155863337844
 20
-64.532074579882647
 30
0.0
 11
48.06758086980517
 21
-64.178499616154113
 31
0.0
  0
LINE
  5
3E8
100
AcDbEntity
  8
0
  6
CONTINUOUS
 62
               7
100
AcDbLine
 10
44.532079422963761
 20
-68.421151348081366
 30
0.0
 11
44.178526008618974
 21
-68.067597963538901
 31
0.0
  0
LINE
  5
3E9
100
AcDbEntity
  8
0
  6
CONTINUOUS
 62
               7
100
AcDbLine
 10
40.000030517578125
 20
8.6249542236328125
 30
0.0
 11
40.000030517578125
 21
-16.0
 31
0.0
  0
LINE
  5
3EA
100
AcDbEntity
  8
0
  6
CONTINUOUS
 62
               7
100
AcDbLine
 10
48.000030517578125
 20
15.0
 30
0.0
 11
31.0
 21
15.0
 31
0.0
  0
LINE
  5
3EB
100
AcDbEntity
  8
0
  6
CONTINUOUS
 62
               7
100
AcDbLine
 10
51.000030517578125
 20
12.0
 30
0.0
 11
51.000030517578125
 21
-16.0
 31
0.0
  0
LINE
  5
3EC
100
AcDbEntity
  8
0
  6
CONTINUOUS
 62
               7
100
AcDbLine
 10
51.000030517578125
 20
-16.0
 30
0.0
 11
31.0
 21
-16.0
 31
0.0
  0
LINE
  5
3ED
100
AcDbEntity
  8
0
  6
CONTINUOUS
 62
               7
100
AcDbLine
 10
33.79998779296875
 20
-59.5
 30
0.0
 11
31.0
 21
-59.5
 31
0.0
  0
LINE
  5
3EE
100
AcDbEntity
  8
0
  6
CONTINUOUS
 62
               7
100
AcDbLine
 10
40.728179931640625
 20
-24.10028076171875
 30
0.0
 11
40.728179931640625
 21
-55.071273803710937
 31
0.0
  0
LINE
  5
3EF
100
AcDbEntity
  8
0
  6
CONTINUOUS
 62
               7
100
AcDbLine
 10
46.830165424280494
 20
-61.173317352223421
 30
0.0
 11
30.999975298820573
 21
-45.34312856114866
 31
0.0
  0
LINE
  5
3F0
100
AcDbEntity
  8
0
  6
CONTINUOUS
 62
               7
100
AcDbLine
 10
41.173322061194085
 20
-66.830161192146079
 30
0.0
 11
30.999986565250765
 21
-56.656826553750761
 31
0.0
  0
LINE
  5
3F1
100
AcDbEntity
  8
0
  6
CONTINUOUS
 62
               7
100
AcDbLine
 10
43.577499658797024
 20
-65.840200503022061
 30
0.0
 11
40.819788737491763
 21
-68.59791374890483
 31
0.0
  0
LINE
  5
3F2
100
AcDbEntity
  8
0
  6
CONTINUOUS
 62
               7
100
AcDbLine
 10
49.292911731694403
 20
-61.514743144788554
 30
0.0
 11
48.597910827409578
 21
-60.81974229908792
 31
0.0
  0
LINE
  5
3F3
100
AcDbEntity
  8
0
  6
CONTINUOUS
 62
               7
100
AcDbLine
 10
41.514726482165315
 20
-69.292885891593869
 30
0.0
 11
40.819747157068377
 21
-68.597906625079304
 31
0.0
  0
LINE
  5
3F4
100
AcDbEntity
  8
0
  6
CONTINUOUS
 62
               7
100
AcDbLine
 10
40.8076171875
 20
-71.0
 30
0.0
 11
31.0
 21
-71.0
 31
0.0
  0
LINE
  5
3F5
100
AcDbEntity
  8
0
  6
CONTINUOUS
 62
               7
100
AcDbLine
 10
48.597959919170535
 20
-60.819736010715133
 30
0.0
 11
45.840259787453761
 21
-63.57743846700032
 31
0.0
  0
LINE
  5
3F6
100
AcDbEntity
  8
0
  6
CONTINUOUS
 62
               7
100
AcDbLine
 10
48.597971900851917
 20
-63.648152297457273
 30
0.0
 11
43.648226603419971
 21
-68.597901767214353
 31
0.0
  0
LINE
  5
3F7
100
AcDbEntity
  8
0
  6
CONTINUOUS
 62
               7
100
AcDbLine
 10
52.274875087477994
 20
-67.325090167179042
 30
0.0
 11
48.597910946617048
 21
-63.648126336262976
 31
0.0
  0
LINE
  5
3F8
100
AcDbEntity
  8
0
  6
CONTINUOUS
 62
               7
100
AcDbLine
 10
47.325160072666222
 20
-72.274891915972148
 30
0.0
 11
43.648195931805276
 21
-68.597928085056083
 31
0.0
  0
LINE
  5
3F9
100
AcDbEntity
  8
0
  6
CONTINUOUS
 62
               7
100
AcDbLine
 10
47.254423190787747
 20
-64.991657363715603
 30
0.0
 11
30.999964652276503
 21
-48.737200195352671
 31
0.0
  0
LINE
  5
3FA
100
AcDbEntity
  8
0
  6
CONTINUOUS
 62
               7
100
AcDbLine
 10
44.99169447722943
 20
-67.254429426383467
 30
0.0
 11
30.999986422199981
 21
-53.262722550766739
 31
0.0
  0
LINE
  5
3FB
100
AcDbEntity
  8
0
  6
CONTINUOUS
 62
               7
100
AcDbLine
 10
51.000030517578125
 20
-21.0
 30
0.0
 11
51.000030517578125
 21
-60.807632446289063
 31
0.0
  0
LINE
  5
3FC
100
AcDbEntity
  8
0
  6
CONTINUOUS
 62
               7
100
AcDbLine
 10
51.000030517578125
 20
-21.0
 30
0.0
 11
43.828460693359375
 21
-21.0
 31
0.0
  0
LINE
  5
3FD
100
AcDbEntity
  8
0
  6
CONTINUOUS
 62
               7
100
AcDbLine
 10
43.828407827448245
 20
-20.999966185900121
 30
0.0
 11
30.99994747466917
 21
-33.828425457320918
 31
0.0
  0
LINE
  5
3FE
100
AcDbEntity
  8
0
  6
CONTINUOUS
 62
               7
100
AcDbLine
 10
42.999972134071868
 20
-18.999974733104864
 30
0.0
 11
30.99994759387846
 21
-30.999998261771907
 31
0.0
  0
LINE
  5
3FF
100
AcDbEntity
  8
0
  6
CONTINUOUS
 62
               7
100
AcDbLine
 10
53.000030517578125
 20
-19.0
 30
0.0
 11
43.000030517578125
 21
-19.0
 31
0.0
  0
LINE
  5
400
100
AcDbEntity
  8
0
  6
CONTINUOUS
 62
               7
100
AcDbLine
 10
53.000040786140744
 20
-66.599988883588594
 30
0.0
 11
46.600045321039943
 21
-72.999989743484548
 31
0.0
  0
LINE
  5
401
100
AcDbEntity
  8
0
  6
CONTINUOUS
 62
               7
100
AcDbLine
 10
46.60003662109375
 20
-73.0
 30
0.0
 11
31.0
 21
-73.0
 31
0.0
  0
LINE
  5
402
100
AcDbEntity
  8
0
  6
CONTINUOUS
 62
               7
100
AcDbLine
 10
48.000030517578125
 20
17.0
 30
0.0
 11
31.0
 21
17.0
 31
0.0
  0
LINE
  5
403
100
AcDbEntity
  8
0
  6
CONTINUOUS
 62
               7
100
AcDbLine
 10
53.000030517578125
 20
12.0
 30
0.0
 11
53.000030517578125
 21
-66.600006103515625
 31
0.0
  0
LINE
  5
404
100
AcDbEntity
  8
0
  6
CONTINUOUS
 62
               4
100
AcDbLine
 10
42.79998779296875
 20
-92.599999948242214
 30
0.0
 11
42.79998779296875
 21
-94.799999757507351
 31
0.0
  0
LINE
  5
405
100
AcDbEntity
  8
0
  6
CONTINUOUS
 62
               4
100
AcDbLine
 10
24.79998779296875
 20
-94.799999757507351
 30
0.0
 11
42.79998779296875
 21
-94.799999757507351
 31
0.0
  0
LINE
  5
406
100
AcDbEntity
  8
0
  6
CONTINUOUS
 62
               4
100
AcDbLine
 10
26.79998779296875
 20
-92.599999948242214
 30
0.0
 11
26.79998779296875
 21
-91.600007577636745
 31
0.0
  0
LINE
  5
407
100
AcDbEntity
  8
0
  6
CONTINUOUS
 62
               4
100
AcDbLine
 10
40.79998779296875
 20
-92.599999948242214
 30
0.0
 11
40.79998779296875
 21
-91.600007577636745
 31
0.0
  0
LINE
  5
408
100
AcDbEntity
  8
0
  6
CONTINUOUS
 62
               4
100
AcDbLine
 10
24.79998779296875
 20
-92.599999948242214
 30
0.0
 11
42.79998779296875
 21
-92.599999948242214
 31
0.0
  0
LINE
  5
409
100
AcDbEntity
  8
0
  6
CONTINUOUS
 62
               4
100
AcDbLine
 10
25.79998779296875
 20
-91.600007577636745
 30
0.0
 11
41.79998779296875
 21
-91.600007577636745
 31
0.0
  0
LINE
  5
40A
100
AcDbEntity
  8
0
  6
CONTINUOUS
 62
               4
100
AcDbLine
 10
23.79998779296875
 20
-89.100007577636745
 30
0.0
 11
43.79998779296875
 21
-89.100007577636745
 31
0.0
  0
LINE
  5
40B
100
AcDbEntity
  8
0
  6
CONTINUOUS
 62
               4
100
AcDbLine
 10
25.29998779296875
 20
-90.600007577636745
 30
0.0
 11
42.29998779296875
 21
-90.600007577636745
 31
0.0
  0
LINE
  5
40C
100
AcDbEntity
  8
0
  6
CONTINUOUS
 62
               4
100
AcDbLine
 10
41.79998779296875
 20
-91.600007577636745
 30
0.0
 11
41.79998779296875
 21
-90.600007577636745
 31
0.0
  0
LINE
  5
40D
100
AcDbEntity
  8
0
  6
CONTINUOUS
 62
               4
100
AcDbLine
 10
24.79998779296875
 20
-92.599999948242214
 30
0.0
 11
24.79998779296875
 21
-94.799999757507351
 31
0.0
  0
LINE
  5
40E
100
AcDbEntity
  8
0
  6
CONTINUOUS
 62
               4
100
AcDbLine
 10
25.79998779296875
 20
-91.600007577636745
 30
0.0
 11
25.79998779296875
 21
-90.600007577636745
 31
0.0
  0
LINE
  5
40F
100
AcDbEntity
  8
0
  6
CONTINUOUS
 62
               4
100
AcDbLine
 10
25.299990757606793
 20
-90.6000138497987
 30
0.0
 11
23.799979260720647
 21
-89.100000456288683
 31
0.0
  0
LINE
  5
410
100
AcDbEntity
  8
0
  6
CONTINUOUS
 62
               4
100
AcDbLine
 10
23.79998779296875
 20
-73.000002999999992
 30
0.0
 11
23.79998779296875
 21
-89.100007577636745
 31
0.0
  0
LINE
  5
411
100
AcDbEntity
  8
0
  6
CONTINUOUS
 62
               4
100
AcDbLine
 10
43.800001740095468
 20
-89.100024884604238
 30
0.0
 11
42.299990116767731
 21
-90.600038151672663
 31
0.0
  0
LINE
  5
412
100
AcDbEntity
  8
0
  6
CONTINUOUS
 62
               4
100
AcDbLine
 10
43.79998779296875
 20
-73.000002999999992
 30
0.0
 11
43.79998779296875
 21
-89.100007577636745
 31
0.0
  0
LINE
  5
413
100
AcDbEntity
  8
0
  6
CONTINUOUS
 62
             200
100
AcDbLine
 10
9.800048828125
 20
-99.474105293400811
 30
0.0
 11
9.800048828125
 21
-73.219261810723708
 31
0.0
  0
LINE
  5
414
100
AcDbEntity
  8
0
  6
CONTINUOUS
 62
               4
100
AcDbLine
 10
17.800048828125
 20
-91.600004577636696
 30
0.0
 11
17.800048828125
 21
-90.600004577636696
 31
0.0
  0
LINE
  5
415
100
AcDbEntity
  8
0
  6
CONTINUOUS
 62
               4
100
AcDbLine
 10
1.800048828125
 20
-91.600004577636696
 30
0.0
 11
1.800048828125
 21
-90.600004577636696
 31
0.0
  0
LINE
  5
416
100
AcDbEntity
  8
0
  6
CONTINUOUS
 62
               4
100
AcDbLine
 10
2.800048828125
 20
-92.599996948242165
 30
0.0
 11
2.800048828125
 21
-91.600004577636696
 31
0.0
  0
LINE
  5
417
100
AcDbEntity
  8
0
  6
CONTINUOUS
 62
               4
100
AcDbLine
 10
16.800048828125
 20
-92.599996948242165
 30
0.0
 11
16.800048828125
 21
-91.600004577636696
 31
0.0
  0
LINE
  5
418
100
AcDbEntity
  8
0
  6
CONTINUOUS
 62
               4
100
AcDbLine
 10
-0.199951171875
 20
-89.100004577636696
 30
0.0
 11
19.800048828125
 21
-89.100004577636696
 31
0.0
  0
LINE
  5
419
100
AcDbEntity
  8
0
  6
CONTINUOUS
 62
               4
100
AcDbLine
 10
19.800039987971104
 20
-89.100013455212661
 30
0.0
 11
18.300049943818522
 21
-90.600005143082285
 31
0.0
  0
LINE
  5
41A
100
AcDbEntity
  8
0
  6
CONTINUOUS
 62
               4
100
AcDbLine
 10
1.2999966366933222
 20
-90.60002804571775
 30
0.0
 11
-0.2000148601928231
 21
-89.100014652207733
 31
0.0
  0
LINE
  5
41B
100
AcDbEntity
  8
0
  6
CONTINUOUS
 62
               4
100
AcDbLine
 10
1.800048828125
 20
-91.600004577636696
 30
0.0
 11
17.800048828125
 21
-91.600004577636696
 31
0.0
  0
LINE
  5
41C
100
AcDbEntity
  8
0
  6
CONTINUOUS
 62
               4
100
AcDbLine
 10
1.300048828125
 20
-90.600004577636696
 30
0.0
 11
18.300048828125
 21
-90.600004577636696
 31
0.0
  0
LINE
  5
41D
100
AcDbEntity
  8
0
  6
CONTINUOUS
 62
               4
100
AcDbLine
 10
0.800048828125
 20
-92.599996948242165
 30
0.0
 11
18.800048828125
 21
-92.599996948242165
 31
0.0
  0
LINE
  5
41E
100
AcDbEntity
  8
0
  6
CONTINUOUS
 62
               4
100
AcDbLine
 10
19.800048828125
 20
-73.0
 30
0.0
 11
19.800048828125
 21
-89.100004577636696
 31
0.0
  0
LINE
  5
41F
100
AcDbEntity
  8
0
  6
CONTINUOUS
 62
               4
100
AcDbLine
 10
18.800048828125
 20
-92.599996948242165
 30
0.0
 11
18.800048828125
 21
-94.799996757507301
 31
0.0
  0
LINE
  5
420
100
AcDbEntity
  8
0
  6
CONTINUOUS
 62
               4
100
AcDbLine
 10
0.800048828125
 20
-92.599996948242165
 30
0.0
 11
0.800048828125
 21
-94.799996757507301
 31
0.0
  0
LINE
  5
421
100
AcDbEntity
  8
0
  6
CONTINUOUS
 62
               4
100
AcDbLine
 10
-0.199951171875
 20
-73.0
 30
0.0
 11
-0.199951171875
 21
-89.100004577636696
 31
0.0
  0
LINE
  5
422
100
AcDbEntity
  8
0
  6
CONTINUOUS
 62
               4
100
AcDbLine
 10
0.800048828125
 20
-94.799996757507301
 30
0.0
 11
18.800048828125
 21
-94.799996757507301
 31
0.0
  0
ENDBLK
  5
423
100
AcDbEntity
  8
0
100
AcDbBlockEnd
  0
BLOCK
  5
424
100
AcDbEntity
  8
0
100
AcDbBlockBegin
  2
F18MNJ-10
 70
               0
 10
0.0
 20
0.0
 30
0.0
  3
F18MNJ-10
  1

  0
LINE
  5
425
100
AcDbEntity
  8
0
  6
CONTINUOUS
 62
               7
100
AcDbLine
 10
10.5
 20
55.652313232421875
 30
0.0
 11
10.5
 21
-26.372222900390625
 31
0.0
  0
LINE
  5
426
100
AcDbEntity
  8
0
  6
CONTINUOUS
 62
               2
100
AcDbLine
 10
10.5
 20
14.640045166015625
 30
0.0
 11
10.5
 21
-26.372222900390625
 31
0.0
  0
LINE
  5
427
100
AcDbEntity
  8
0
  6
CONTINUOUS
 62
               7
100
AcDbLine
 10
0.0
 20
52.274871826171875
 30
0.0
 11
3.5
 21
52.274871826171875
 31
0.0
  0
LINE
  5
428
100
AcDbEntity
  8
0
  6
CONTINUOUS
 62
               7
100
AcDbLine
 10
0.0
 20
47.32513427734375
 30
0.0
 11
3.5
 21
47.32513427734375
 31
0.0
  0
LINE
  5
429
100
AcDbEntity
  8
0
  6
CONTINUOUS
 62
               7
100
AcDbLine
 10
21.0
 20
52.274871826171875
 30
0.0
 11
17.5
 21
52.274871826171875
 31
0.0
  0
LINE
  5
42A
100
AcDbEntity
  8
0
  6
CONTINUOUS
 62
               7
100
AcDbLine
 10
21.0
 20
47.32513427734375
 30
0.0
 11
17.5
 21
47.32513427734375
 31
0.0
  0
LINE
  5
42B
100
AcDbEntity
  8
0
  6
CONTINUOUS
 62
               7
100
AcDbLine
 10
0.0
 20
53.0
 30
0.0
 11
21.0
 21
53.0
 31
0.0
  0
LINE
  5
42C
100
AcDbEntity
  8
0
  6
CONTINUOUS
 62
               7
100
AcDbLine
 10
0.0
 20
-1.0
 30
0.0
 11
5.5
 21
-1.0
 31
0.0
  0
LINE
  5
42D
100
AcDbEntity
  8
0
  6
CONTINUOUS
 62
               7
100
AcDbLine
 10
5.5
 20
-1.0
 30
0.0
 11
5.5
 21
-2.1999969482421875
 31
0.0
  0
LINE
  5
42E
100
AcDbEntity
  8
0
  6
CONTINUOUS
 62
               7
100
AcDbLine
 10
15.5
 20
-1.0
 30
0.0
 11
15.5
 21
-2.1999969482421875
 31
0.0
  0
LINE
  5
42F
100
AcDbEntity
  8
0
  6
CONTINUOUS
 62
               7
100
AcDbLine
 10
5.5
 20
-2.1999969482421875
 30
0.0
 11
15.5
 21
-2.1999969482421875
 31
0.0
  0
LINE
  5
430
100
AcDbEntity
  8
0
  6
CONTINUOUS
 62
               7
100
AcDbLine
 10
15.5
 20
-1.0
 30
0.0
 11
21.0
 21
-1.0
 31
0.0
  0
LINE
  5
431
100
AcDbEntity
  8
0
  6
CONTINUOUS
 62
               7
100
AcDbLine
 10
5.5
 20
-2.0
 30
0.0
 11
15.5
 21
-2.0
 31
0.0
  0
LINE
  5
432
100
AcDbEntity
  8
0
  6
CONTINUOUS
 62
             200
100
AcDbLine
 10
-0.5
 20
33.800003051757813
 30
0.0
 11
21.5
 21
33.800003051757813
 31
0.0
  0
LINE
  5
433
100
AcDbEntity
  8
0
  6
CONTINUOUS
 62
               7
100
AcDbLine
 10
0.0
 20
46.600006103515625
 30
0.0
 11
21.0
 21
46.600006103515625
 31
0.0
  0
LINE
  5
434
100
AcDbEntity
  8
0
  6
CONTINUOUS
 62
               7
100
AcDbLine
 10
17.5
 20
48.597930908203125
 30
0.0
 11
21.0
 21
48.597930908203125
 31
0.0
  0
LINE
  5
435
100
AcDbEntity
  8
0
  6
CONTINUOUS
 62
               7
100
AcDbLine
 10
3.5
 20
48.597930908203125
 30
0.0
 11
0.0
 21
48.597930908203125
 31
0.0
  0
LINE
  5
436
100
AcDbEntity
  8
0
  6
CONTINUOUS
 62
             200
100
AcDbLine
 10
-0.5
 20
9.8000030517578125
 30
0.0
 11
21.5
 21
9.8000030517578125
 31
0.0
  0
CIRCLE
  5
437
100
AcDbEntity
  8
0
  6
CONTINUOUS
 62
               4
100
AcDbCircle
 10
10.5
 20
33.800003051757813
 30
0.0
 40
10.0
  0
CIRCLE
  5
438
100
AcDbEntity
  8
0
  6
CONTINUOUS
 62
               4
100
AcDbCircle
 10
10.5
 20
33.800003051757813
 30
0.0
 40
6.0
  0
CIRCLE
  5
439
100
AcDbEntity
  8
0
  6
CONTINUOUS
 62
               4
100
AcDbCircle
 10
10.5
 20
33.800003051757813
 30
0.0
 40
9.0
  0
CIRCLE
  5
43A
100
AcDbEntity
  8
0
  6
CONTINUOUS
 62
               4
100
AcDbCircle
 10
10.5
 20
9.8000030517578125
 30
0.0
 40
10.0
  0
CIRCLE
  5
43B
100
AcDbEntity
  8
0
  6
CONTINUOUS
 62
               4
100
AcDbCircle
 10
10.5
 20
9.8000030517578125
 30
0.0
 40
9.0
  0
CIRCLE
  5
43C
100
AcDbEntity
  8
0
  6
CONTINUOUS
 62
               4
100
AcDbCircle
 10
10.5
 20
9.8000030517578125
 30
0.0
 40
6.0
  0
ELLIPSE
  5
43D
100
AcDbEntity
  8
0
  6
CONTINUOUS
 62
               7
100
AcDbEllipse
 10
3.5
 20
49.800003051757813
 30
0.0
 11
3.5
 21
0.0
 31
0.0
210
0.0
220
0.0
230
1.0
 40
0.7070999145507813
 41
4.7123892943011692
 42
1.570796640711376
  0
ELLIPSE
  5
43E
100
AcDbEntity
  8
0
  6
CONTINUOUS
 62
               7
100
AcDbEllipse
 10
17.5
 20
46.123077392578125
 30
0.0
 11
-3.4999999999998148
 21
0.0000011404445106
 31
0.0
210
0.0
220
0.0
230
1.0
 40
0.7070999145507813
 41
4.7123883406267932
 42
5.4457228223429741
  0
ELLIPSE
  5
43F
100
AcDbEntity
  8
0
  6
CONTINUOUS
 62
               7
100
AcDbEllipse
 10
17.5
 20
49.800003051757813
 30
0.0
 11
-3.4999999999998148
 21
0.0000011404445106
 31
0.0
210
0.0
220
0.0
230
1.0
 40
0.7070999145507813
 41
4.7123883406267932
 42
1.5707956870370001
  0
ELLIPSE
  5
440
100
AcDbEntity
  8
0
  6
CONTINUOUS
 62
               7
100
AcDbEllipse
 10
3.5
 20
46.123077392578125
 30
0.0
 11
3.5
 21
0.0
 31
0.0
210
0.0
220
0.0
230
1.0
 40
0.7070999145507813
 41
0.8374626636505049
 42
1.5707960128784175
  0
ELLIPSE
  5
441
100
AcDbEntity
  8
0
  6
CONTINUOUS
 62
               7
100
AcDbEllipse
 10
17.5
 20
46.123062133789063
 30
0.0
 11
2.75
 21
0.0
 31
0.0
210
0.0
220
0.0
230
1.0
 40
0.7071089311079546
 41
0.6668129563331648
 42
2.2447891235351554
  0
ELLIPSE
  5
442
100
AcDbEntity
  8
0
  6
CONTINUOUS
 62
               7
100
AcDbEllipse
 10
3.5
 20
46.123062133789063
 30
0.0
 11
-2.7499999999998539
 21
0.0000008960637956
 31
0.0
210
0.0
220
0.0
230
1.0
 40
0.7071089311079546
 41
4.038396183644414
 42
5.616371814404614
  0
LINE
  5
443
100
AcDbEntity
  8
0
  6
CONTINUOUS
 62
               7
100
AcDbLine
 10
0.0
 20
-22.0
 30
0.0
 11
21.0
 21
-22.0
 31
0.0
  0
LINE
  5
444
100
AcDbEntity
  8
0
  6
CONTINUOUS
 62
               2
100
AcDbLine
 10
10.5
 20
55.652313232421875
 30
0.0
 11
10.5
 21
14.640045166015625
 31
0.0
  0
LINE
  5
445
100
AcDbEntity
  8
0
  6
CONTINUOUS
 62
               7
100
AcDbLine
 10
0.0
 20
53.0
 30
0.0
 11
0.0
 21
-22.0
 31
0.0
  0
LINE
  5
446
100
AcDbEntity
  8
0
  6
CONTINUOUS
 62
               7
100
AcDbLine
 10
21.0
 20
53.0
 30
0.0
 11
21.0
 21
-22.0
 31
0.0
  0
LINE
  5
447
100
AcDbEntity
  8
0
  6
CONTINUOUS
 62
               4
100
AcDbLine
 10
-0.5
 20
33.800003051757813
 30
0.0
 11
21.5
 21
33.800003051757813
 31
0.0
  0
LINE
  5
448
100
AcDbEntity
  8
0
  6
CONTINUOUS
 62
               4
100
AcDbLine
 10
-0.5
 20
9.8000030517578125
 30
0.0
 11
21.5
 21
9.8000030517578125
 31
0.0
  0
ELLIPSE
  5
449
100
AcDbEntity
  8
0
  6
CONTINUOUS
 62
               7
100
AcDbEllipse
 10
3.5
 20
49.800003051757813
 30
0.0
 11
3.5
 21
0.0
 31
0.0
210
0.0
220
0.0
230
1.0
 40
0.7070999145507813
 41
4.7123892943011692
 42
1.570796640711376
  0
ELLIPSE
  5
44A
100
AcDbEntity
  8
0
  6
CONTINUOUS
 62
               7
100
AcDbEllipse
 10
17.5
 20
46.123077392578125
 30
0.0
 11
-3.4999999999998148
 21
0.0000011404445106
 31
0.0
210
0.0
220
0.0
230
1.0
 40
0.7070999145507813
 41
4.7123883406267932
 42
5.4457228223429741
  0
ELLIPSE
  5
44B
100
AcDbEntity
  8
0
  6
CONTINUOUS
 62
               7
100
AcDbEllipse
 10
17.5
 20
49.800003051757813
 30
0.0
 11
-3.4999999999998148
 21
0.0000011404445106
 31
0.0
210
0.0
220
0.0
230
1.0
 40
0.7070999145507813
 41
4.7123883406267932
 42
1.5707956870370001
  0
ELLIPSE
  5
44C
100
AcDbEntity
  8
0
  6
CONTINUOUS
 62
               7
100
AcDbEllipse
 10
3.5
 20
46.123077392578125
 30
0.0
 11
3.5
 21
0.0
 31
0.0
210
0.0
220
0.0
230
1.0
 40
0.7070999145507813
 41
0.8374626636505049
 42
1.5707960128784175
  0
ELLIPSE
  5
44D
100
AcDbEntity
  8
0
  6
CONTINUOUS
 62
               7
100
AcDbEllipse
 10
17.5
 20
46.123062133789063
 30
0.0
 11
2.75
 21
0.0
 31
0.0
210
0.0
220
0.0
230
1.0
 40
0.7071089311079546
 41
0.6668129563331648
 42
2.2447891235351554
  0
ELLIPSE
  5
44E
100
AcDbEntity
  8
0
  6
CONTINUOUS
 62
               7
100
AcDbEllipse
 10
3.5
 20
46.123062133789063
 30
0.0
 11
-2.7499999999998539
 21
0.0000008960637956
 31
0.0
210
0.0
220
0.0
230
1.0
 40
0.7071089311079546
 41
4.038396183644414
 42
5.616371814404614
  0
ENDBLK
  5
44F
100
AcDbEntity
  8
0
100
AcDbBlockEnd
  0
BLOCK
  5
450
100
AcDbEntity
  8
0
100
AcDbBlockBegin
  2
F18MNJ-11
 70
               0
 10
0.0
 20
0.0
 30
0.0
  3
F18MNJ-11
  1

  0
LINE
  5
451
100
AcDbEntity
  8
0
  6
CONTINUOUS
 62
             200
100
AcDbLine
 10
10.5
 20
-92.808237304687509
 30
0.0
 11
10.5
 21
-73.008237304687498
 31
0.0
  0
LINE
  5
452
100
AcDbEntity
  8
0
  6
CONTINUOUS
 62
               7
100
AcDbLine
 10
0.0
 20
-73.008237304687498
 30
0.0
 11
0.0
 21
16.991762695312502
 31
0.0
  0
LINE
  5
453
100
AcDbEntity
  8
0
  6
CONTINUOUS
 62
               7
100
AcDbLine
 10
21.0
 20
-73.008237304687498
 30
0.0
 11
21.0
 21
16.991762695312502
 31
0.0
  0
LINE
  5
454
100
AcDbEntity
  8
0
  6
CONTINUOUS
 62
               7
100
AcDbLine
 10
0.0
 20
-73.008237304687498
 30
0.0
 11
21.0
 21
-73.008237304687498
 31
0.0
  0
LINE
  5
455
100
AcDbEntity
  8
0
  6
CONTINUOUS
 62
               7
100
AcDbLine
 10
0.0
 20
-19.008237304687498
 30
0.0
 11
5.5
 21
-19.008237304687498
 31
0.0
  0
LINE
  5
456
100
AcDbEntity
  8
0
  6
CONTINUOUS
 62
               7
100
AcDbLine
 10
5.5
 20
-17.808237304687495
 30
0.0
 11
15.5
 21
-17.808237304687495
 31
0.0
  0
LINE
  5
457
100
AcDbEntity
  8
0
  6
CONTINUOUS
 62
               7
100
AcDbLine
 10
15.5
 20
-19.008237304687498
 30
0.0
 11
15.5
 21
-17.808237304687495
 31
0.0
  0
LINE
  5
458
100
AcDbEntity
  8
0
  6
CONTINUOUS
 62
               7
100
AcDbLine
 10
5.5
 20
-19.008237304687498
 30
0.0
 11
5.5
 21
-17.808237304687495
 31
0.0
  0
LINE
  5
459
100
AcDbEntity
  8
0
  6
CONTINUOUS
 62
               7
100
AcDbLine
 10
15.5
 20
-19.008237304687498
 30
0.0
 11
21.0
 21
-19.008237304687498
 31
0.0
  0
LINE
  5
45A
100
AcDbEntity
  8
0
  6
CONTINUOUS
 62
               7
100
AcDbLine
 10
5.5
 20
-18.008237304687498
 30
0.0
 11
15.5
 21
-18.008237304687498
 31
0.0
  0
LINE
  5
45B
100
AcDbEntity
  8
0
  6
CONTINUOUS
 62
               7
100
AcDbLine
 10
0.0
 20
-66.608237304687492
 30
0.0
 11
21.0
 21
-66.608237304687492
 31
0.0
  0
LINE
  5
45C
100
AcDbEntity
  8
0
  6
CONTINUOUS
 62
               7
100
AcDbLine
 10
0.0
 20
-67.328237304687491
 30
0.0
 11
3.5
 21
-67.328237304687491
 31
0.0
  0
LINE
  5
45D
100
AcDbEntity
  8
0
  6
CONTINUOUS
 62
               7
100
AcDbLine
 10
0.0
 20
-68.598237304687501
 30
0.0
 11
3.5
 21
-68.598237304687501
 31
0.0
  0
LINE
  5
45E
100
AcDbEntity
  8
0
  6
CONTINUOUS
 62
               7
100
AcDbLine
 10
21.0
 20
-67.328237304687491
 30
0.0
 11
17.5
 21
-67.328237304687491
 31
0.0
  0
LINE
  5
45F
100
AcDbEntity
  8
0
  6
CONTINUOUS
 62
               7
100
AcDbLine
 10
21.0
 20
-68.598237304687501
 30
0.0
 11
17.5
 21
-68.598237304687501
 31
0.0
  0
LINE
  5
460
100
AcDbEntity
  8
0
  6
CONTINUOUS
 62
               7
100
AcDbLine
 10
0.0
 20
-72.27823730468748
 30
0.0
 11
3.5
 21
-72.27823730468748
 31
0.0
  0
LINE
  5
461
100
AcDbEntity
  8
0
  6
CONTINUOUS
 62
               7
100
AcDbLine
 10
21.0
 20
-72.27823730468748
 30
0.0
 11
17.5
 21
-72.27823730468748
 31
0.0
  0
LINE
  5
462
100
AcDbEntity
  8
0
  6
CONTINUOUS
 62
               2
100
AcDbLine
 10
10.5
 20
-73.008237304687498
 30
0.0
 11
10.5
 21
22.671762695312502
 31
0.0
  0
LINE
  5
463
100
AcDbEntity
  8
0
  6
CONTINUOUS
 62
               7
100
AcDbLine
 10
0.0
 20
16.991762695312502
 30
0.0
 11
21.0
 21
16.991762695312502
 31
0.0
  0
LINE
  5
464
100
AcDbEntity
  8
0
  6
CONTINUOUS
 62
               4
100
AcDbLine
 10
20.5
 20
-88.008237304687498
 30
0.0
 11
20.5
 21
-73.008237304687498
 31
0.0
  0
LINE
  5
465
100
AcDbEntity
  8
0
  6
CONTINUOUS
 62
               4
100
AcDbLine
 10
0.5
 20
-88.008237304687498
 30
0.0
 11
0.5
 21
-73.008237304687498
 31
0.0
  0
LINE
  5
466
100
AcDbEntity
  8
0
  6
CONTINUOUS
 62
               4
100
AcDbLine
 10
19.5
 20
-89.008237304687498
 30
0.0
 11
1.5
 21
-89.008237304687498
 31
0.0
  0
LINE
  5
467
100
AcDbEntity
  8
0
  6
CONTINUOUS
 62
               4
100
AcDbLine
 10
20.5
 20
-88.008237304687498
 30
0.0
 11
19.5
 21
-89.008237304687498
 31
0.0
  0
LINE
  5
468
100
AcDbEntity
  8
0
  6
CONTINUOUS
 62
               4
100
AcDbLine
 10
1.5
 20
-89.008237304687498
 30
0.0
 11
0.5
 21
-88.008237304687498
 31
0.0
  0
LINE
  5
469
100
AcDbEntity
  8
0
  6
CONTINUOUS
 62
               4
100
AcDbLine
 10
20.5
 20
-88.008237304687498
 30
0.0
 11
0.5
 21
-88.008237304687498
 31
0.0
  0
ELLIPSE
  5
46A
100
AcDbEntity
  8
0
  6
CONTINUOUS
 62
               7
100
AcDbEllipse
 10
3.5
 20
-66.13123840332031
 30
0.0
 11
3.4999999999999996
 21
0.0105542466044426
 31
0.0
210
0.0
220
0.0
230
1.0
 40
0.7070971897667325
 41
4.710256878434282
 42
5.4430102745110096
  0
ELLIPSE
  5
46B
100
AcDbEntity
  8
0
  6
CONTINUOUS
 62
               7
100
AcDbEllipse
 10
17.5
 20
-66.13123840332031
 30
0.0
 11
-3.4999999999999996
 21
-0.0105541869997961
 31
0.0
210
0.0
220
0.0
230
1.0
 40
0.7070955548963005
 41
0.8339862226597501
 42
1.5686635969533489
  0
ELLIPSE
  5
46C
100
AcDbEntity
  8
0
  6
CONTINUOUS
 62
               7
100
AcDbEllipse
 10
3.5
 20
-69.808225097656248
 30
0.0
 11
3.5000000000000009
 21
0.0105503909289837
 31
0.0
210
0.0
220
0.0
230
1.0
 40
0.7070960998530108
 41
4.7102578320365778
 42
1.5686651784467847
  0
ELLIPSE
  5
46D
100
AcDbEntity
  8
0
  6
CONTINUOUS
 62
               7
100
AcDbEllipse
 10
17.5
 20
-69.808225097656248
 30
0.0
 11
-3.5000000000000004
 21
-0.0105504095554334
 31
0.0
210
0.0
220
0.0
230
1.0
 40
0.7070966448095098
 41
4.7102578319526476
 42
1.5686651783628545
  0
ELLIPSE
  5
46E
100
AcDbEntity
  8
0
  6
CONTINUOUS
 62
               7
100
AcDbEllipse
 10
17.5
 20
-66.131314697265623
 30
0.0
 11
2.7499847412109375
 21
0.0
 31
0.0
210
0.0
220
0.0
230
1.0
 40
0.7071135482152666
 41
4.0384143034564399
 42
5.6164031664477774
  0
ELLIPSE
  5
46F
100
AcDbEntity
  8
0
  6
CONTINUOUS
 62
               7
100
AcDbEllipse
 10
3.5
 20
-66.131314697265623
 30
0.0
 11
-2.7499847412109375
 21
0.0000000000000187
 31
0.0
210
0.0
220
0.0
230
1.0
 40
0.7071121610449277
 41
0.6668115854263323
 42
2.2447919845581037
  0
ENDBLK
  5
470
100
AcDbEntity
  8
0
100
AcDbBlockEnd
  0
BLOCK
  5
471
100
AcDbEntity
  8
0
100
AcDbBlockBegin
  2
F18MNJ-12
 70
               0
 10
0.0
 20
0.0
 30
0.0
  3
F18MNJ-12
  1

  0
LINE
  5
472
100
AcDbEntity
  8
0
  6
CONTINUOUS
 62
               7
100
AcDbLine
 10
54.0
 20
-84.5
 30
0.0
 11
54.0
 21
5.5
 31
0.0
  0
LINE
  5
473
100
AcDbEntity
  8
0
  6
CONTINUOUS
 62
               7
100
AcDbLine
 10
0.0
 20
5.5
 30
0.0
 11
54.0
 21
5.5
 31
0.0
  0
LINE
  5
474
100
AcDbEntity
  8
0
  6
CONTINUOUS
 62
               7
100
AcDbLine
 10
0.0
 20
-84.5
 30
0.0
 11
54.0
 21
-84.5
 31
0.0
  0
LINE
  5
475
100
AcDbEntity
  8
0
  6
CONTINUOUS
 62
               7
100
AcDbLine
 10
0.0
 20
-84.5
 30
0.0
 11
0.0
 21
-56.0
 31
0.0
  0
LINE
  5
476
100
AcDbEntity
  8
0
  6
CONTINUOUS
 62
               7
100
AcDbLine
 10
0.0
 20
-56.0
 30
0.0
 11
3.0
 21
-56.0
 31
0.0
  0
LINE
  5
477
100
AcDbEntity
  8
0
  6
CONTINUOUS
 62
               7
100
AcDbLine
 10
0.0
 20
-20.0
 30
0.0
 11
3.0
 21
-20.0
 31
0.0
  0
LINE
  5
478
100
AcDbEntity
  8
0
  6
CONTINUOUS
 62
               7
100
AcDbLine
 10
3.0
 20
-56.0
 30
0.0
 11
3.0
 21
-20.0
 31
0.0
  0
LINE
  5
479
100
AcDbEntity
  8
0
  6
CONTINUOUS
 62
               7
100
AcDbLine
 10
0.0
 20
-20.0
 30
0.0
 11
0.0
 21
5.5
 31
0.0
  0
LINE
  5
47A
100
AcDbEntity
  8
0
  6
CONTINUOUS
 62
               2
100
AcDbLine
 10
17.0
 20
-75.5
 30
0.0
 11
17.0
 21
-63.5
 31
0.0
  0
LINE
  5
47B
100
AcDbEntity
  8
0
  6
CONTINUOUS
 62
               2
100
AcDbLine
 10
23.0
 20
-17.5
 30
0.0
 11
23.0
 21
-5.5
 31
0.0
  0
LINE
  5
47C
100
AcDbEntity
  8
0
  6
CONTINUOUS
 62
               2
100
AcDbLine
 10
17.0
 20
-11.5
 30
0.0
 11
29.0
 21
-11.5
 31
0.0
  0
LINE
  5
47D
100
AcDbEntity
  8
0
  6
CONTINUOUS
 62
               2
100
AcDbLine
 10
11.0
 20
-69.5
 30
0.0
 11
23.0
 21
-69.5
 31
0.0
  0
LINE
  5
47E
100
AcDbEntity
  8
0
  6
CONTINUOUS
 62
               2
100
AcDbLine
 10
15.0
 20
-44.5
 30
0.0
 11
15.0
 21
-26.5
 31
0.0
  0
LINE
  5
47F
100
AcDbEntity
  8
0
  6
CONTINUOUS
 62
               2
100
AcDbLine
 10
28.0
 20
-65.5
 30
0.0
 11
28.0
 21
-47.5
 31
0.0
  0
LINE
  5
480
100
AcDbEntity
  8
0
  6
CONTINUOUS
 62
               2
100
AcDbLine
 10
6.0
 20
-35.5
 30
0.0
 11
24.0
 21
-35.5
 31
0.0
  0
LINE
  5
481
100
AcDbEntity
  8
0
  6
CONTINUOUS
 62
               2
100
AcDbLine
 10
19.0
 20
-56.5
 30
0.0
 11
37.0
 21
-56.5
 31
0.0
  0
LINE
  5
482
100
AcDbEntity
  8
0
  6
CONTINUOUS
 62
               7
100
AcDbLine
 10
0.0
 20
-81.400000000000006
 30
0.0
 11
3.0
 21
-81.400000000000006
 31
0.0
  0
LINE
  5
483
100
AcDbEntity
  8
0
  6
CONTINUOUS
 62
               7
100
AcDbLine
 10
0.0
 20
-76.599999999999994
 30
0.0
 11
3.0
 21
-76.599999999999994
 31
0.0
  0
LINE
  5
484
100
AcDbEntity
  8
0
  6
CONTINUOUS
 62
               7
100
AcDbLine
 10
0.0
 20
-2.4000000000000057
 30
0.0
 11
3.0
 21
-2.4000000000000057
 31
0.0
  0
LINE
  5
485
100
AcDbEntity
  8
0
  6
CONTINUOUS
 62
               7
100
AcDbLine
 10
0.0
 20
2.4000000000000057
 30
0.0
 11
3.0
 21
2.4000000000000057
 31
0.0
  0
LINE
  5
486
100
AcDbEntity
  8
0
  6
CONTINUOUS
 62
               7
100
AcDbLine
 10
3.0
 20
-81.400000000000006
 30
0.0
 11
3.0
 21
-76.599999999999994
 31
0.0
  0
LINE
  5
487
100
AcDbEntity
  8
0
  6
CONTINUOUS
 62
               7
100
AcDbLine
 10
3.0
 20
-2.4000000000000057
 30
0.0
 11
3.0
 21
2.4000000000000057
 31
0.0
  0
LINE
  5
488
100
AcDbEntity
  8
0
  6
CONTINUOUS
 62
               7
100
AcDbLine
 10
16.129999999999995
 20
-71.0
 30
0.0
 11
15.259999999999991
 21
-69.5
 31
0.0
  0
LINE
  5
489
100
AcDbEntity
  8
0
  6
CONTINUOUS
 62
               7
100
AcDbLine
 10
18.730000000000018
 20
-69.5
 30
0.0
 11
17.860000000000014
 21
-68.0
 31
0.0
  0
LINE
  5
48A
100
AcDbEntity
  8
0
  6
CONTINUOUS
 62
               7
100
AcDbLine
 10
16.129999999999995
 20
-68.0
 30
0.0
 11
17.860000000000014
 21
-68.0
 31
0.0
  0
LINE
  5
48B
100
AcDbEntity
  8
0
  6
CONTINUOUS
 62
               7
100
AcDbLine
 10
16.129999999999995
 20
-71.0
 30
0.0
 11
17.860000000000014
 21
-71.0
 31
0.0
  0
LINE
  5
48C
100
AcDbEntity
  8
0
  6
CONTINUOUS
 62
               7
100
AcDbLine
 10
15.259999999999991
 20
-69.5
 30
0.0
 11
16.129999999999995
 21
-68.0
 31
0.0
  0
LINE
  5
48D
100
AcDbEntity
  8
0
  6
CONTINUOUS
 62
               7
100
AcDbLine
 10
17.860000000000014
 20
-71.0
 30
0.0
 11
18.730000000000018
 21
-69.5
 31
0.0
  0
LINE
  5
48E
100
AcDbEntity
  8
0
  6
CONTINUOUS
 62
               7
100
AcDbLine
 10
22.129999999999995
 20
-10.0
 30
0.0
 11
23.860000000000014
 21
-10.0
 31
0.0
  0
LINE
  5
48F
100
AcDbEntity
  8
0
  6
CONTINUOUS
 62
               7
100
AcDbLine
 10
21.259999999999991
 20
-11.5
 30
0.0
 11
22.129999999999995
 21
-10.0
 31
0.0
  0
LINE
  5
490
100
AcDbEntity
  8
0
  6
CONTINUOUS
 62
               7
100
AcDbLine
 10
22.129999999999995
 20
-13.0
 30
0.0
 11
21.259999999999991
 21
-11.5
 31
0.0
  0
LINE
  5
491
100
AcDbEntity
  8
0
  6
CONTINUOUS
 62
               7
100
AcDbLine
 10
22.129999999999995
 20
-13.0
 30
0.0
 11
23.860000000000014
 21
-13.0
 31
0.0
  0
LINE
  5
492
100
AcDbEntity
  8
0
  6
CONTINUOUS
 62
               7
100
AcDbLine
 10
23.860000000000014
 20
-13.0
 30
0.0
 11
24.730000000000018
 21
-11.5
 31
0.0
  0
LINE
  5
493
100
AcDbEntity
  8
0
  6
CONTINUOUS
 62
               7
100
AcDbLine
 10
24.730000000000018
 20
-11.5
 30
0.0
 11
23.860000000000014
 21
-10.0
 31
0.0
  0
LINE
  5
494
100
AcDbEntity
  8
0
  6
CONTINUOUS
 62
               7
100
AcDbLine
 10
40.0
 20
-84.5
 30
0.0
 11
40.0
 21
-73.5
 31
0.0
  0
LINE
  5
495
100
AcDbEntity
  8
0
  6
CONTINUOUS
 62
               7
100
AcDbLine
 10
40.0
 20
-5.5
 30
0.0
 11
54.0
 21
-5.5
 31
0.0
  0
LINE
  5
496
100
AcDbEntity
  8
0
  6
CONTINUOUS
 62
               7
100
AcDbLine
 10
40.0
 20
-73.5
 30
0.0
 11
54.0
 21
-73.5
 31
0.0
  0
LINE
  5
497
100
AcDbEntity
  8
0
  6
CONTINUOUS
 62
               7
100
AcDbLine
 10
40.0
 20
-5.5
 30
0.0
 11
40.0
 21
5.5
 31
0.0
  0
LINE
  5
498
100
AcDbEntity
  8
0
  6
CONTINUOUS
 62
               2
100
AcDbLine
 10
-4.4599999999999795
 20
-79.0
 30
0.0
 11
8.410000000000025
 21
-79.0
 31
0.0
  0
LINE
  5
499
100
AcDbEntity
  8
0
  6
CONTINUOUS
 62
               2
100
AcDbLine
 10
-4.4599999999999795
 20
0.0
 30
0.0
 11
8.410000000000025
 21
0.0
 31
0.0
  0
CIRCLE
  5
49A
100
AcDbEntity
  8
0
  6
CONTINUOUS
 62
               7
100
AcDbCircle
 10
23.0
 20
-11.5
 30
0.0
 40
4.0
  0
CIRCLE
  5
49B
100
AcDbEntity
  8
0
  6
CONTINUOUS
 62
               7
100
AcDbCircle
 10
17.0
 20
-69.500030517578125
 30
0.0
 40
4.0
  0
CIRCLE
  5
49C
100
AcDbEntity
  8
0
  6
CONTINUOUS
 62
               7
100
AcDbCircle
 10
23.0
 20
-11.5
 30
0.0
 40
5.0
  0
CIRCLE
  5
49D
100
AcDbEntity
  8
0
  6
CONTINUOUS
 62
               7
100
AcDbCircle
 10
17.0
 20
-69.500030517578125
 30
0.0
 40
5.0
  0
CIRCLE
  5
49E
100
AcDbEntity
  8
0
  6
CONTINUOUS
 62
               7
100
AcDbCircle
 10
15.0
 20
-35.5
 30
0.0
 40
7.0
  0
CIRCLE
  5
49F
100
AcDbEntity
  8
0
  6
CONTINUOUS
 62
               7
100
AcDbCircle
 10
28.0
 20
-56.500030517578125
 30
0.0
 40
7.0
  0
CIRCLE
  5
4A0
100
AcDbEntity
  8
0
  6
CONTINUOUS
 62
               7
100
AcDbCircle
 10
15.0
 20
-35.5
 30
0.0
 40
8.0
  0
CIRCLE
  5
4A1
100
AcDbEntity
  8
0
  6
CONTINUOUS
 62
               7
100
AcDbCircle
 10
28.0
 20
-56.500030517578125
 30
0.0
 40
8.0
  0
CIRCLE
  5
4A2
100
AcDbEntity
  8
0
  6
CONTINUOUS
 62
               7
100
AcDbCircle
 10
17.0
 20
-69.500030517578125
 30
0.0
 40
3.5
  0
CIRCLE
  5
4A3
100
AcDbEntity
  8
0
  6
CONTINUOUS
 62
               7
100
AcDbCircle
 10
23.0
 20
-11.5
 30
0.0
 40
3.5
  0
ENDBLK
  5
4A4
100
AcDbEntity
  8
0
100
AcDbBlockEnd
  0
BLOCK
  5
4A5
100
AcDbEntity
  8
0
100
AcDbBlockBegin
  2
F18MNJ-13
 70
               0
 10
0.0
 20
0.0
 30
0.0
  3
F18MNJ-13
  1

  0
LINE
  5
4A6
100
AcDbEntity
  8
0
  6
CONTINUOUS
 62
               4
100
AcDbLine
 10
43.80747558593751
 20
-73.008237304687498
 30
0.0
 11
43.80747558593751
 21
-88.008237304687498
 31
0.0
  0
LINE
  5
4A7
100
AcDbEntity
  8
0
  6
CONTINUOUS
 62
             200
100
AcDbLine
 10
33.80747558593751
 20
-73.008237304687498
 30
0.0
 11
33.80747558593751
 21
-91.358237304687492
 31
0.0
  0
LINE
  5
4A8
100
AcDbEntity
  8
0
  6
CONTINUOUS
 62
               4
100
AcDbLine
 10
23.80747558593751
 20
-73.008237304687498
 30
0.0
 11
23.80747558593751
 21
-88.008237304687498
 31
0.0
  0
LINE
  5
4A9
100
AcDbEntity
  8
0
  6
CONTINUOUS
 62
               4
100
AcDbLine
 10
43.80747558593751
 20
-88.008237304687498
 30
0.0
 11
23.80747558593751
 21
-88.008237304687498
 31
0.0
  0
LINE
  5
4AA
100
AcDbEntity
  8
0
  6
CONTINUOUS
 62
               4
100
AcDbLine
 10
23.80747558593751
 20
-88.008237304687498
 30
0.0
 11
24.80747558593751
 21
-89.008237304687498
 31
0.0
  0
LINE
  5
4AB
100
AcDbEntity
  8
0
  6
CONTINUOUS
 62
               4
100
AcDbLine
 10
42.80747558593751
 20
-89.008237304687498
 30
0.0
 11
24.80747558593751
 21
-89.008237304687498
 31
0.0
  0
LINE
  5
4AC
100
AcDbEntity
  8
0
  6
CONTINUOUS
 62
               4
100
AcDbLine
 10
43.80747558593751
 20
-88.008237304687498
 30
0.0
 11
42.80747558593751
 21
-89.008237304687498
 31
0.0
  0
LINE
  5
4AD
100
AcDbEntity
  8
0
  6
CONTINUOUS
 62
               7
100
AcDbLine
 10
53.007475585937499
 20
11.991762695312502
 30
0.0
 11
53.007475585937499
 21
-66.608237304687492
 31
0.0
  0
LINE
  5
4AE
100
AcDbEntity
  8
0
  6
CONTINUOUS
 62
               7
100
AcDbLine
 10
48.007475585937499
 20
16.991762695312502
 30
0.0
 11
31.007475585937499
 21
16.991762695312502
 31
0.0
  0
LINE
  5
4AF
100
AcDbEntity
  8
0
  6
CONTINUOUS
 62
               7
100
AcDbLine
 10
46.607475585937522
 20
-73.008237304687498
 30
0.0
 11
31.007475585937499
 21
-73.008237304687498
 31
0.0
  0
LINE
  5
4B0
100
AcDbEntity
  8
0
  6
CONTINUOUS
 62
               7
100
AcDbLine
 10
53.007475585937499
 20
-66.608237304687492
 30
0.0
 11
46.607475585937522
 21
-73.008237304687498
 31
0.0
  0
LINE
  5
4B1
100
AcDbEntity
  8
0
  6
CONTINUOUS
 62
               7
100
AcDbLine
 10
53.007475585937499
 20
-19.008237304687498
 30
0.0
 11
43.007475585937499
 21
-19.008237304687498
 31
0.0
  0
LINE
  5
4B2
100
AcDbEntity
  8
0
  6
CONTINUOUS
 62
               7
100
AcDbLine
 10
43.007475585937499
 20
-19.008237304687498
 30
0.0
 11
31.007475585937499
 21
-31.008237304687498
 31
0.0
  0
LINE
  5
4B3
100
AcDbEntity
  8
0
  6
CONTINUOUS
 62
               7
100
AcDbLine
 10
43.827475585937492
 20
-21.008237304687498
 30
0.0
 11
31.007475585937499
 21
-33.828237304687491
 31
0.0
  0
LINE
  5
4B4
100
AcDbEntity
  8
0
  6
CONTINUOUS
 62
               7
100
AcDbLine
 10
51.007475585937499
 20
-21.008237304687498
 30
0.0
 11
43.827475585937492
 21
-21.008237304687498
 31
0.0
  0
LINE
  5
4B5
100
AcDbEntity
  8
0
  6
CONTINUOUS
 62
               7
100
AcDbLine
 10
51.007475585937499
 20
-21.008237304687498
 30
0.0
 11
51.007475585937499
 21
-60.808237304687495
 31
0.0
  0
LINE
  5
4B6
100
AcDbEntity
  8
0
  6
CONTINUOUS
 62
               7
100
AcDbLine
 10
44.997475585937508
 20
-67.258237304687498
 30
0.0
 11
31.007475585937499
 21
-53.268237304687489
 31
0.0
  0
LINE
  5
4B7
100
AcDbEntity
  8
0
  6
CONTINUOUS
 62
               7
100
AcDbLine
 10
47.257475585937499
 20
-64.998237304687507
 30
0.0
 11
31.007475585937499
 21
-48.738237304687487
 31
0.0
  0
LINE
  5
4B8
100
AcDbEntity
  8
0
  6
CONTINUOUS
 62
               7
100
AcDbLine
 10
47.327475585937492
 20
-72.27823730468748
 30
0.0
 11
43.647475585937485
 21
-68.598237304687501
 31
0.0
  0
LINE
  5
4B9
100
AcDbEntity
  8
0
  6
CONTINUOUS
 62
               7
100
AcDbLine
 10
52.277475585937481
 20
-67.328237304687491
 30
0.0
 11
48.597475585937531
 21
-63.648237304687484
 31
0.0
  0
LINE
  5
4BA
100
AcDbEntity
  8
0
  6
CONTINUOUS
 62
               7
100
AcDbLine
 10
48.597475585937531
 20
-63.648237304687484
 30
0.0
 11
43.647475585937485
 21
-68.598237304687501
 31
0.0
  0
LINE
  5
4BB
100
AcDbEntity
  8
0
  6
CONTINUOUS
 62
               7
100
AcDbLine
 10
48.597475585937531
 20
-60.828237304687491
 30
0.0
 11
45.847475585937531
 21
-63.578237304687491
 31
0.0
  0
LINE
  5
4BC
100
AcDbEntity
  8
0
  6
CONTINUOUS
 62
               7
100
AcDbLine
 10
40.80747558593751
 20
-71.008237304687498
 30
0.0
 11
31.007475585937499
 21
-71.008237304687498
 31
0.0
  0
LINE
  5
4BD
100
AcDbEntity
  8
0
  6
CONTINUOUS
 62
               7
100
AcDbLine
 10
41.51747558593749
 20
-69.298237304687518
 30
0.0
 11
40.827475585937492
 21
-68.598237304687501
 31
0.0
  0
LINE
  5
4BE
100
AcDbEntity
  8
0
  6
CONTINUOUS
 62
               7
100
AcDbLine
 10
49.297475585937519
 20
-61.518237304687489
 30
0.0
 11
48.597475585937531
 21
-60.828237304687491
 31
0.0
  0
LINE
  5
4BF
100
AcDbEntity
  8
0
  6
CONTINUOUS
 62
               7
100
AcDbLine
 10
43.577475585937492
 20
-65.848237304687501
 30
0.0
 11
40.827475585937492
 21
-68.598237304687501
 31
0.0
  0
LINE
  5
4C0
100
AcDbEntity
  8
0
  6
CONTINUOUS
 62
               7
100
AcDbLine
 10
41.177475585937515
 20
-66.838237304687482
 30
0.0
 11
31.007475585937499
 21
-56.658237304687503
 31
0.0
  0
LINE
  5
4C1
100
AcDbEntity
  8
0
  6
CONTINUOUS
 62
               7
100
AcDbLine
 10
46.837475585937483
 20
-61.178237304687499
 30
0.0
 11
31.007475585937499
 21
-45.348237304687501
 31
0.0
  0
LINE
  5
4C2
100
AcDbEntity
  8
0
  6
CONTINUOUS
 62
               7
100
AcDbLine
 10
51.007475585937499
 20
-16.008237304687498
 30
0.0
 11
31.007475585937499
 21
-16.008237304687498
 31
0.0
  0
LINE
  5
4C3
100
AcDbEntity
  8
0
  6
CONTINUOUS
 62
               7
100
AcDbLine
 10
51.007475585937499
 20
11.991762695312502
 30
0.0
 11
51.007475585937499
 21
-16.008237304687498
 31
0.0
  0
LINE
  5
4C4
100
AcDbEntity
  8
0
  6
CONTINUOUS
 62
               7
100
AcDbLine
 10
48.007475585937499
 20
14.991762695312502
 30
0.0
 11
31.007475585937499
 21
14.991762695312502
 31
0.0
  0
LINE
  5
4C5
100
AcDbEntity
  8
0
  6
CONTINUOUS
 62
               7
100
AcDbLine
 10
44.537475585937472
 20
-68.428237304687514
 30
0.0
 11
44.177475585937515
 21
-68.0682373046875
 31
0.0
  0
LINE
  5
4C6
100
AcDbEntity
  8
0
  6
CONTINUOUS
 62
               7
100
AcDbLine
 10
48.427475585937515
 20
-64.538237304687499
 30
0.0
 11
48.067475585937501
 21
-64.178237304687514
 31
0.0
  0
LINE
  5
4C7
100
AcDbEntity
  8
0
  6
CONTINUOUS
 62
               7
100
AcDbLine
 10
48.427475585937515
 20
-66.658237304687503
 30
0.0
 11
46.657475585937476
 21
-68.428237304687514
 31
0.0
  0
LINE
  5
4C8
100
AcDbEntity
  8
0
  6
CONTINUOUS
 62
               2
100
AcDbLine
 10
48.477475585937526
 20
-68.478237304687497
 30
0.0
 11
31.007475585937499
 21
-51.008237304687498
 31
0.0
  0
LINE
  5
4C9
100
AcDbEntity
  8
0
  6
CONTINUOUS
 62
               7
100
AcDbLine
 10
47.187475585937506
 20
-65.0682373046875
 30
0.0
 11
31.007475585937499
 21
-48.878237304687502
 31
0.0
  0
LINE
  5
4CA
100
AcDbEntity
  8
0
  6
CONTINUOUS
 62
               7
100
AcDbLine
 10
45.067475585937501
 20
-67.188237304687505
 30
0.0
 11
31.007475585937499
 21
-53.128237304687502
 31
0.0
  0
LINE
  5
4CB
100
AcDbEntity
  8
0
  6
CONTINUOUS
 62
               2
100
AcDbLine
 10
45.257475585937499
 20
-66.998237304687507
 30
0.0
 11
31.007475585937499
 21
-52.738237304687487
 31
0.0
  0
LINE
  5
4CC
100
AcDbEntity
  8
0
  6
CONTINUOUS
 62
               2
100
AcDbLine
 10
46.997475585937508
 20
-65.258237304687498
 30
0.0
 11
31.007475585937499
 21
-49.268237304687489
 31
0.0
  0
ARC
  5
4CD
100
AcDbEntity
  8
0
  6
CONTINUOUS
 62
               7
100
AcDbCircle
 10
48.007490844703256
 20
11.99177795407828
 30
0.0
 40
4.9999847412575038
100
AcDbArc
 50
359.99982514689043
 51
90.00017485310957
  0
ARC
  5
4CE
100
AcDbEntity
  8
0
  6
CONTINUOUS
 62
               7
100
AcDbCircle
 10
48.007490844687737
 20
11.991777954062755
 30
0.0
 40
2.9999847412885474
100
AcDbArc
 50
359.99970857785434
 51
90.000291422145764
  0
ARC
  5
4CF
100
AcDbEntity
  8
0
  6
CONTINUOUS
 62
               7
100
AcDbCircle
 10
47.367978020623326
 20
-65.598237304687501
 30
0.0
 40
1.4987111432516644
100
AcDbArc
 50
314.98641782519138
 51
45.01358217480859
  0
ARC
  5
4D0
100
AcDbEntity
  8
0
  6
CONTINUOUS
 62
               7
100
AcDbCircle
 10
45.597475585937531
 20
-67.36870916306242
 30
0.0
 40
1.4987327589985657
100
AcDbArc
 50
224.98724456994262
 51
315.01275543005715
  0
ARC
  5
4D1
100
AcDbEntity
  8
0
  6
CONTINUOUS
 62
               7
100
AcDbCircle
 10
50.00813798048236
 20
-60.815607297182879
 30
0.0
 40
0.9993647814818121
100
AcDbArc
 50
224.67436538897715
 51
0.4225416990152048
  0
ARC
  5
4D2
100
AcDbEntity
  8
0
  6
CONTINUOUS
 62
               7
100
AcDbCircle
 10
40.81482175013727
 20
-70.008889805612569
 30
0.0
 40
0.9993744993923991
100
AcDbArc
 50
269.57882856215866
 51
45.324264349849102
  0
ARC
  5
4D3
100
AcDbEntity
  8
0
  6
CONTINUOUS
 62
               7
100
AcDbCircle
 10
40.473690812600267
 20
-67.543237304687494
 30
0.0
 40
0.9961616370757109
100
AcDbArc
 50
314.95057631018199
 51
45.049423689818013
  0
ARC
  5
4D4
100
AcDbEntity
  8
0
  6
CONTINUOUS
 62
               7
100
AcDbCircle
 10
47.542475585937467
 20
-60.474452531350252
 30
0.0
 40
0.9961616370757134
100
AcDbArc
 50
224.95057631018199
 51
315.0494236898183
  0
LINE
  5
4D5
100
AcDbEntity
  8
0
  6
CONTINUOUS
 62
               4
100
AcDbLine
 10
18.80747558593751
 20
-89.008237304687498
 30
0.0
 11
0.8074755859375102
 21
-89.008237304687498
 31
0.0
  0
LINE
  5
4D6
100
AcDbEntity
  8
0
  6
CONTINUOUS
 62
             200
100
AcDbLine
 10
9.8074755859375102
 20
-73.008237304687498
 30
0.0
 11
9.8074755859375102
 21
-91.358237304687492
 31
0.0
  0
LINE
  5
4D7
100
AcDbEntity
  8
0
  6
CONTINUOUS
 62
               4
100
AcDbLine
 10
19.80747558593751
 20
-88.008237304687498
 30
0.0
 11
18.80747558593751
 21
-89.008237304687498
 31
0.0
  0
LINE
  5
4D8
100
AcDbEntity
  8
0
  6
CONTINUOUS
 62
               4
100
AcDbLine
 10
19.80747558593751
 20
-73.008237304687498
 30
0.0
 11
19.80747558593751
 21
-88.008237304687498
 31
0.0
  0
LINE
  5
4D9
100
AcDbEntity
  8
0
  6
CONTINUOUS
 62
               4
100
AcDbLine
 10
19.80747558593751
 20
-88.008237304687498
 30
0.0
 11
-0.1925244140624898
 21
-88.008237304687498
 31
0.0
  0
LINE
  5
4DA
100
AcDbEntity
  8
0
  6
CONTINUOUS
 62
               4
100
AcDbLine
 10
-0.1925244140624898
 20
-73.008237304687498
 30
0.0
 11
-0.1925244140624898
 21
-88.008237304687498
 31
0.0
  0
LINE
  5
4DB
100
AcDbEntity
  8
0
  6
CONTINUOUS
 62
               4
100
AcDbLine
 10
-0.1925244140624898
 20
-88.008237304687498
 30
0.0
 11
0.8074755859375102
 21
-89.008237304687498
 31
0.0
  0
ENDBLK
  5
4DC
100
AcDbEntity
  8
0
100
AcDbBlockEnd
  0
BLOCK
  5
4DD
100
AcDbEntity
  8
0
100
AcDbBlockBegin
  2
F18MNJ-14
 70
               0
 10
0.0
 20
0.0
 30
0.0
  3
F18MNJ-14
  1

  0
LINE
  5
4DE
100
AcDbEntity
  8
0
  6
CONTINUOUS
 62
               2
100
AcDbLine
 10
10.5
 20
55.650000000000006
 30
0.0
 11
10.5
 21
-26.370000000000005
 31
0.0
  0
LINE
  5
4DF
100
AcDbEntity
  8
0
  6
CONTINUOUS
 62
               7
100
AcDbLine
 10
0.0
 20
24.0
 30
0.0
 11
21.0
 21
24.0
 31
0.0
  0
LINE
  5
4E0
100
AcDbEntity
  8
0
  6
CONTINUOUS
 62
               7
100
AcDbLine
 10
0.0
 20
52.27000000000001
 30
0.0
 11
3.5
 21
52.27000000000001
 31
0.0
  0
LINE
  5
4E1
100
AcDbEntity
  8
0
  6
CONTINUOUS
 62
               7
100
AcDbLine
 10
0.0
 20
47.319999999999993
 30
0.0
 11
3.5
 21
47.319999999999993
 31
0.0
  0
LINE
  5
4E2
100
AcDbEntity
  8
0
  6
CONTINUOUS
 62
               7
100
AcDbLine
 10
21.0
 20
52.27000000000001
 30
0.0
 11
17.5
 21
52.27000000000001
 31
0.0
  0
LINE
  5
4E3
100
AcDbEntity
  8
0
  6
CONTINUOUS
 62
               7
100
AcDbLine
 10
21.0
 20
47.319999999999993
 30
0.0
 11
17.5
 21
47.319999999999993
 31
0.0
  0
LINE
  5
4E4
100
AcDbEntity
  8
0
  6
CONTINUOUS
 62
               7
100
AcDbLine
 10
0.0
 20
53.0
 30
0.0
 11
0.0
 21
-22.0
 31
0.0
  0
LINE
  5
4E5
100
AcDbEntity
  8
0
  6
CONTINUOUS
 62
               7
100
AcDbLine
 10
0.0
 20
53.0
 30
0.0
 11
21.0
 21
53.0
 31
0.0
  0
LINE
  5
4E6
100
AcDbEntity
  8
0
  6
CONTINUOUS
 62
               7
100
AcDbLine
 10
21.0
 20
53.0
 30
0.0
 11
21.0
 21
-22.0
 31
0.0
  0
LINE
  5
4E7
100
AcDbEntity
  8
0
  6
CONTINUOUS
 62
               7
100
AcDbLine
 10
0.0
 20
-1.0
 30
0.0
 11
5.5
 21
-1.0
 31
0.0
  0
LINE
  5
4E8
100
AcDbEntity
  8
0
  6
CONTINUOUS
 62
               7
100
AcDbLine
 10
5.5
 20
-1.0
 30
0.0
 11
5.5
 21
-2.1999999999999886
 31
0.0
  0
LINE
  5
4E9
100
AcDbEntity
  8
0
  6
CONTINUOUS
 62
               7
100
AcDbLine
 10
15.5
 20
-1.0
 30
0.0
 11
15.5
 21
-2.1999999999999886
 31
0.0
  0
LINE
  5
4EA
100
AcDbEntity
  8
0
  6
CONTINUOUS
 62
               7
100
AcDbLine
 10
5.5
 20
-2.1999999999999886
 30
0.0
 11
15.5
 21
-2.1999999999999886
 31
0.0
  0
LINE
  5
4EB
100
AcDbEntity
  8
0
  6
CONTINUOUS
 62
               7
100
AcDbLine
 10
15.5
 20
-1.0
 30
0.0
 11
21.0
 21
-1.0
 31
0.0
  0
LINE
  5
4EC
100
AcDbEntity
  8
0
  6
CONTINUOUS
 62
               7
100
AcDbLine
 10
5.5
 20
-2.0
 30
0.0
 11
15.5
 21
-2.0
 31
0.0
  0
LINE
  5
4ED
100
AcDbEntity
  8
0
  6
CONTINUOUS
 62
               7
100
AcDbLine
 10
0.0
 20
46.599999999999994
 30
0.0
 11
21.0
 21
46.599999999999994
 31
0.0
  0
LINE
  5
4EE
100
AcDbEntity
  8
0
  6
CONTINUOUS
 62
               7
100
AcDbLine
 10
17.5
 20
48.590000000000003
 30
0.0
 11
21.0
 21
48.590000000000003
 31
0.0
  0
LINE
  5
4EF
100
AcDbEntity
  8
0
  6
CONTINUOUS
 62
               7
100
AcDbLine
 10
3.5
 20
48.590000000000003
 30
0.0
 11
0.0
 21
48.590000000000003
 31
0.0
  0
LINE
  5
4F0
100
AcDbEntity
  8
0
  6
CONTINUOUS
 62
               7
100
AcDbLine
 10
0.0
 20
-22.0
 30
0.0
 11
21.0
 21
-22.0
 31
0.0
  0
LINE
  5
4F1
100
AcDbEntity
  8
0
  6
CONTINUOUS
 62
             200
100
AcDbLine
 10
-0.5
 20
9.8000000000000114
 30
0.0
 11
21.5
 21
9.8000000000000114
 31
0.0
  0
LINE
  5
4F2
100
AcDbEntity
  8
0
  6
CONTINUOUS
 62
             200
100
AcDbLine
 10
-0.5
 20
33.800000000000011
 30
0.0
 11
21.5
 21
33.800000000000011
 31
0.0
  0
LINE
  5
4F3
100
AcDbEntity
  8
0
  6
CONTINUOUS
 62
               4
100
AcDbLine
 10
20.5
 20
-0.1999999999999886
 30
0.0
 11
20.5
 21
19.800000000000011
 31
0.0
  0
LINE
  5
4F4
100
AcDbEntity
  8
0
  6
CONTINUOUS
 62
               4
100
AcDbLine
 10
0.5
 20
-0.1999999999999886
 30
0.0
 11
0.5
 21
19.800000000000011
 31
0.0
  0
LINE
  5
4F5
100
AcDbEntity
  8
0
  6
CONTINUOUS
 62
               4
100
AcDbLine
 10
0.5
 20
-0.1999999999999886
 30
0.0
 11
20.5
 21
-0.1999999999999886
 31
0.0
  0
LINE
  5
4F6
100
AcDbEntity
  8
0
  6
CONTINUOUS
 62
               4
100
AcDbLine
 10
0.5
 20
19.800000000000011
 30
0.0
 11
20.5
 21
19.800000000000011
 31
0.0
  0
LINE
  5
4F7
100
AcDbEntity
  8
0
  6
CONTINUOUS
 62
               4
100
AcDbLine
 10
1.5
 20
18.800000000000011
 30
0.0
 11
19.5
 21
18.800000000000011
 31
0.0
  0
LINE
  5
4F8
100
AcDbEntity
  8
0
  6
CONTINUOUS
 62
               4
100
AcDbLine
 10
1.5
 20
0.8000000000000114
 30
0.0
 11
1.5
 21
18.800000000000011
 31
0.0
  0
LINE
  5
4F9
100
AcDbEntity
  8
0
  6
CONTINUOUS
 62
               4
100
AcDbLine
 10
1.5
 20
0.8000000000000114
 30
0.0
 11
19.5
 21
0.8000000000000114
 31
0.0
  0
LINE
  5
4FA
100
AcDbEntity
  8
0
  6
CONTINUOUS
 62
               4
100
AcDbLine
 10
19.5
 20
0.8000000000000114
 30
0.0
 11
19.5
 21
18.800000000000011
 31
0.0
  0
LINE
  5
4FB
100
AcDbEntity
  8
0
  6
CONTINUOUS
 62
               4
100
AcDbLine
 10
0.5
 20
19.800000000000011
 30
0.0
 11
1.5
 21
18.800000000000011
 31
0.0
  0
LINE
  5
4FC
100
AcDbEntity
  8
0
  6
CONTINUOUS
 62
               4
100
AcDbLine
 10
20.5
 20
19.800000000000011
 30
0.0
 11
19.5
 21
18.800000000000011
 31
0.0
  0
LINE
  5
4FD
100
AcDbEntity
  8
0
  6
CONTINUOUS
 62
               4
100
AcDbLine
 10
0.5
 20
-0.1999999999999886
 30
0.0
 11
1.5
 21
0.8000000000000114
 31
0.0
  0
LINE
  5
4FE
100
AcDbEntity
  8
0
  6
CONTINUOUS
 62
               4
100
AcDbLine
 10
20.5
 20
-0.1999999999999886
 30
0.0
 11
19.5
 21
0.8000000000000114
 31
0.0
  0
LINE
  5
4FF
100
AcDbEntity
  8
0
  6
CONTINUOUS
 62
               4
100
AcDbLine
 10
20.5
 20
43.800000000000011
 30
0.0
 11
20.5
 21
23.800000000000011
 31
0.0
  0
LINE
  5
500
100
AcDbEntity
  8
0
  6
CONTINUOUS
 62
               4
100
AcDbLine
 10
0.5
 20
43.800000000000011
 30
0.0
 11
0.5
 21
23.800000000000011
 31
0.0
  0
LINE
  5
501
100
AcDbEntity
  8
0
  6
CONTINUOUS
 62
               4
100
AcDbLine
 10
0.5
 20
43.800000000000011
 30
0.0
 11
20.5
 21
43.800000000000011
 31
0.0
  0
LINE
  5
502
100
AcDbEntity
  8
0
  6
CONTINUOUS
 62
               4
100
AcDbLine
 10
0.5
 20
23.800000000000011
 30
0.0
 11
20.5
 21
23.800000000000011
 31
0.0
  0
LINE
  5
503
100
AcDbEntity
  8
0
  6
CONTINUOUS
 62
               4
100
AcDbLine
 10
1.5
 20
24.800000000000011
 30
0.0
 11
19.5
 21
24.800000000000011
 31
0.0
  0
LINE
  5
504
100
AcDbEntity
  8
0
  6
CONTINUOUS
 62
               4
100
AcDbLine
 10
1.5
 20
42.800000000000011
 30
0.0
 11
1.5
 21
24.800000000000011
 31
0.0
  0
LINE
  5
505
100
AcDbEntity
  8
0
  6
CONTINUOUS
 62
               4
100
AcDbLine
 10
1.5
 20
42.800000000000011
 30
0.0
 11
19.5
 21
42.800000000000011
 31
0.0
  0
LINE
  5
506
100
AcDbEntity
  8
0
  6
CONTINUOUS
 62
               4
100
AcDbLine
 10
19.5
 20
42.800000000000011
 30
0.0
 11
19.5
 21
24.800000000000011
 31
0.0
  0
LINE
  5
507
100
AcDbEntity
  8
0
  6
CONTINUOUS
 62
               4
100
AcDbLine
 10
0.5
 20
23.800000000000011
 30
0.0
 11
1.5
 21
24.800000000000011
 31
0.0
  0
LINE
  5
508
100
AcDbEntity
  8
0
  6
CONTINUOUS
 62
               4
100
AcDbLine
 10
20.5
 20
23.800000000000011
 30
0.0
 11
19.5
 21
24.800000000000011
 31
0.0
  0
LINE
  5
509
100
AcDbEntity
  8
0
  6
CONTINUOUS
 62
               4
100
AcDbLine
 10
0.5
 20
43.800000000000011
 30
0.0
 11
1.5
 21
42.800000000000011
 31
0.0
  0
LINE
  5
50A
100
AcDbEntity
  8
0
  6
CONTINUOUS
 62
               4
100
AcDbLine
 10
20.5
 20
43.800000000000011
 30
0.0
 11
19.5
 21
42.800000000000011
 31
0.0
  0
CIRCLE
  5
50B
100
AcDbEntity
  8
0
  6
CONTINUOUS
 62
             200
100
AcDbCircle
 10
10.5
 20
9.8000030517578125
 30
0.0
 40
8.3310003280639648
  0
CIRCLE
  5
50C
100
AcDbEntity
  8
0
  6
CONTINUOUS
 62
               4
100
AcDbCircle
 10
10.5
 20
9.8000030517578125
 30
0.0
 40
7.4749994277954102
  0
CIRCLE
  5
50D
100
AcDbEntity
  8
0
  6
CONTINUOUS
 62
               4
100
AcDbCircle
 10
10.5
 20
9.8000030517578125
 30
0.0
 40
4.5
  0
CIRCLE
  5
50E
100
AcDbEntity
  8
0
  6
CONTINUOUS
 62
               4
100
AcDbCircle
 10
10.5
 20
33.800003051757813
 30
0.0
 40
4.5
  0
CIRCLE
  5
50F
100
AcDbEntity
  8
0
  6
CONTINUOUS
 62
               4
100
AcDbCircle
 10
10.5
 20
33.800003051757813
 30
0.0
 40
7.4749994277954102
  0
CIRCLE
  5
510
100
AcDbEntity
  8
0
  6
CONTINUOUS
 62
             200
100
AcDbCircle
 10
10.5
 20
33.800003051757813
 30
0.0
 40
8.3310003280639648
  0
ELLIPSE
  5
511
100
AcDbEntity
  8
0
  6
CONTINUOUS
 62
               7
100
AcDbEllipse
 10
3.5
 20
49.800003051757813
 30
0.0
 11
3.4999999999999996
 21
0.0105543471872807
 31
0.0
210
0.0
220
0.0
230
1.0
 40
0.7070999145510988
 41
4.7102568786350458
 42
1.5686642250452527
  0
ELLIPSE
  5
512
100
AcDbEntity
  8
0
  6
CONTINUOUS
 62
               7
100
AcDbEllipse
 10
17.5
 20
46.123077392578125
 30
0.0
 11
-3.4999999999999991
 21
-0.0105542577803108
 31
0.0
210
0.0
220
0.0
230
1.0
 40
0.7070977347245594
 41
4.7102568787905961
 42
5.4426256459360074
  0
ELLIPSE
  5
513
100
AcDbEntity
  8
0
  6
CONTINUOUS
 62
               7
100
AcDbEllipse
 10
17.5
 20
49.800003051757813
 30
0.0
 11
-3.5000000000000004
 21
-0.0105541832745048
 31
0.0
210
0.0
220
0.0
230
1.0
 40
0.7070955548985696
 41
4.7102568791286998
 42
1.5686642255389067
  0
ELLIPSE
  5
514
100
AcDbEntity
  8
0
  6
CONTINUOUS
 62
               7
100
AcDbEllipse
 10
3.5
 20
46.123077392578125
 30
0.0
 11
3.4999999999999991
 21
0.0105542577803135
 31
0.0
210
0.0
220
0.0
230
1.0
 40
0.7070977347245594
 41
0.8343715669156777
 42
1.5686635973678476
  0
ELLIPSE
  5
515
100
AcDbEntity
  8
0
  6
CONTINUOUS
 62
               7
100
AcDbEllipse
 10
17.5
 20
46.123062133789063
 30
0.0
 11
2.7499847412109375
 21
0.0
 31
0.0
210
0.0
220
0.0
230
1.0
 40
0.7071128546300972
 41
0.6668118834495572
 42
2.2447919845581068
  0
ELLIPSE
  5
516
100
AcDbEntity
  8
0
  6
CONTINUOUS
 62
               7
100
AcDbEllipse
 10
3.5
 20
46.123062133789063
 30
0.0
 11
-2.7499847412109375
 21
0.0000000000000187
 31
0.0
210
0.0
220
0.0
230
1.0
 40
0.7071128546300972
 41
4.0384143034564417
 42
5.6164027492152577
  0
ENDBLK
  5
517
100
AcDbEntity
  8
0
100
AcDbBlockEnd
  0
BLOCK
  5
518
100
AcDbEntity
  8
0
100
AcDbBlockBegin
  2
F18MNJ-15
 70
               0
 10
0.0
 20
0.0
 30
0.0
  3
F18MNJ-15
  1

  0
LINE
  5
519
100
AcDbEntity
  8
0
  6
CONTINUOUS
 62
               2
100
AcDbLine
 10
116.0
 20
7.8599999999999994
 30
0.0
 11
116.0
 21
-7.769999999999996
 31
0.0
  0
LINE
  5
51A
100
AcDbEntity
  8
0
  6
CONTINUOUS
 62
               2
100
AcDbLine
 10
0.0
 20
7.8599999999999994
 30
0.0
 11
0.0
 21
-7.769999999999996
 31
0.0
  0
LINE
  5
51B
100
AcDbEntity
  8
0
  6
CONTINUOUS
 62
               7
100
AcDbLine
 10
-6.5
 20
54.0
 30
0.0
 11
-6.5
 21
0.0
 31
0.0
  0
LINE
  5
51C
100
AcDbEntity
  8
0
  6
CONTINUOUS
 62
               7
100
AcDbLine
 10
-6.5
 20
54.0
 30
0.0
 11
9.5
 21
54.0
 31
0.0
  0
LINE
  5
51D
100
AcDbEntity
  8
0
  6
CONTINUOUS
 62
               7
100
AcDbLine
 10
-6.5
 20
0.0
 30
0.0
 11
9.5
 21
0.0
 31
0.0
  0
LINE
  5
51E
100
AcDbEntity
  8
0
  6
CONTINUOUS
 62
               7
100
AcDbLine
 10
6.5
 20
54.0
 30
0.0
 11
6.5
 21
40.0
 31
0.0
  0
LINE
  5
51F
100
AcDbEntity
  8
0
  6
CONTINUOUS
 62
               7
100
AcDbLine
 10
-6.5
 20
40.0
 30
0.0
 11
6.5
 21
40.0
 31
0.0
  0
LINE
  5
520
100
AcDbEntity
  8
0
  6
CONTINUOUS
 62
               7
100
AcDbLine
 10
106.5
 20
54.0
 30
0.0
 11
106.5
 21
0.0
 31
0.0
  0
LINE
  5
521
100
AcDbEntity
  8
0
  6
CONTINUOUS
 62
               7
100
AcDbLine
 10
122.5
 20
54.0
 30
0.0
 11
106.5
 21
54.0
 31
0.0
  0
LINE
  5
522
100
AcDbEntity
  8
0
  6
CONTINUOUS
 62
               7
100
AcDbLine
 10
109.5
 20
54.0
 30
0.0
 11
109.5
 21
40.0
 31
0.0
  0
LINE
  5
523
100
AcDbEntity
  8
0
  6
CONTINUOUS
 62
               7
100
AcDbLine
 10
122.5
 20
40.0
 30
0.0
 11
109.5
 21
40.0
 31
0.0
  0
LINE
  5
524
100
AcDbEntity
  8
0
  6
CONTINUOUS
 62
               7
100
AcDbLine
 10
122.5
 20
0.0
 30
0.0
 11
106.5
 21
0.0
 31
0.0
  0
LINE
  5
525
100
AcDbEntity
  8
0
  6
CONTINUOUS
 62
               7
100
AcDbLine
 10
122.5
 20
54.0
 30
0.0
 11
122.5
 21
0.0
 31
0.0
  0
LINE
  5
526
100
AcDbEntity
  8
0
  6
CONTINUOUS
 62
               7
100
AcDbLine
 10
9.5
 20
54.0
 30
0.0
 11
9.5
 21
0.0
 31
0.0
  0
LINE
  5
527
100
AcDbEntity
  8
0
  6
CONTINUOUS
 62
               2
100
AcDbLine
 10
4.5
 20
23.0
 30
0.0
 11
14.5
 21
23.0
 31
0.0
  0
LINE
  5
528
100
AcDbEntity
  8
0
  6
CONTINUOUS
 62
               2
100
AcDbLine
 10
101.5
 20
23.0
 30
0.0
 11
111.5
 21
23.0
 31
0.0
  0
ENDBLK
  5
529
100
AcDbEntity
  8
0
100
AcDbBlockEnd
  0
BLOCK
  5
52A
100
AcDbEntity
  8
0
100
AcDbBlockBegin
  2
F18MNJ-16
 70
               0
 10
0.0
 20
0.0
 30
0.0
  3
F18MNJ-16
  1

  0
LINE
  5
52B
100
AcDbEntity
  8
0
  6
CONTINUOUS
 62
               2
100
AcDbLine
 10
9.5
 20
-68.999984741210937
 30
0.0
 11
9.5
 21
21.720015258789061
 31
0.0
  0
LINE
  5
52C
100
AcDbEntity
  8
0
  6
CONTINUOUS
 62
             200
100
AcDbLine
 10
9.5
 20
-71.000015258789063
 30
0.0
 11
9.5
 21
-102.33423403863475
 31
0.0
  0
LINE
  5
52D
100
AcDbEntity
  8
0
  6
CONTINUOUS
 62
               4
100
AcDbLine
 10
1.3999999999999773
 20
-99.600015258789071
 30
0.0
 11
17.600000000000023
 21
-99.600015258789071
 31
0.0
  0
LINE
  5
52E
100
AcDbEntity
  8
0
  6
CONTINUOUS
 62
               7
100
AcDbLine
 10
18.5
 20
-71.000015258789063
 30
0.0
 11
18.5
 21
-68.000015258789063
 31
0.0
  0
LINE
  5
52F
100
AcDbEntity
  8
0
  6
CONTINUOUS
 62
               7
100
AcDbLine
 10
19.0
 20
-68.000015258789063
 30
0.0
 11
19.0
 21
17.0
 31
0.0
  0
LINE
  5
530
100
AcDbEntity
  8
0
  6
CONTINUOUS
 62
               7
100
AcDbLine
 10
0.0
 20
17.0
 30
0.0
 11
19.0
 21
17.0
 31
0.0
  0
LINE
  5
531
100
AcDbEntity
  8
0
  6
CONTINUOUS
 62
               4
100
AcDbLine
 10
5.6999992728233337
 20
-71.500007629394531
 30
0.0
 11
5.6999992728233337
 21
-71.000007629394531
 31
0.0
  0
LINE
  5
532
100
AcDbEntity
  8
0
  6
CONTINUOUS
 62
               7
100
AcDbLine
 10
0.5
 20
-71.000015258789063
 30
0.0
 11
0.5
 21
-68.000015258789063
 31
0.0
  0
LINE
  5
533
100
AcDbEntity
  8
0
  6
CONTINUOUS
 62
               4
100
AcDbLine
 10
18.5
 20
-86.700015058789063
 30
0.0
 11
18.5
 21
-71.000015258789063
 31
0.0
  0
LINE
  5
534
100
AcDbEntity
  8
0
  6
CONTINUOUS
 62
               4
100
AcDbLine
 10
0.199999988079071
 20
-71.500007629394531
 30
0.0
 11
0.199999988079071
 21
-71.000007629394531
 31
0.0
  0
LINE
  5
535
100
AcDbEntity
  8
0
  6
CONTINUOUS
 62
               7
100
AcDbLine
 10
18.5
 20
-71.000015258789063
 30
0.0
 11
0.5
 21
-71.000015258789063
 31
0.0
  0
LINE
  5
536
100
AcDbEntity
  8
0
  6
CONTINUOUS
 62
               4
100
AcDbLine
 10
18.5
 20
-72.905275258789061
 30
0.0
 11
16.0
 21
-72.905275258789061
 31
0.0
  0
LINE
  5
537
100
AcDbEntity
  8
0
  6
CONTINUOUS
 62
               4
100
AcDbLine
 10
0.5
 20
-86.700015058789063
 30
0.0
 11
18.5
 21
-86.700015058789063
 31
0.0
  0
LINE
  5
538
100
AcDbEntity
  8
0
  6
CONTINUOUS
 62
               4
100
AcDbLine
 10
0.5
 20
-86.700015258789051
 30
0.0
 11
0.5
 21
-75.50330965878905
 31
0.0
  0
LINE
  5
539
100
AcDbEntity
  8
0
  6
CONTINUOUS
 62
               4
100
AcDbLine
 10
18.5
 20
-91.800015258789074
 30
0.0
 11
0.5
 21
-91.800015258789074
 31
0.0
  0
LINE
  5
53A
100
AcDbEntity
  8
0
  6
CONTINUOUS
 62
               4
100
AcDbLine
 10
18.5
 20
-93.000015258789063
 30
0.0
 11
0.5
 21
-93.000015258789063
 31
0.0
  0
LINE
  5
53B
100
AcDbEntity
  8
0
  6
CONTINUOUS
 62
               4
100
AcDbLine
 10
18.5
 20
-95.364928258789064
 30
0.0
 11
0.5
 21
-95.364928258789064
 31
0.0
  0
LINE
  5
53C
100
AcDbEntity
  8
0
  6
CONTINUOUS
 62
               4
100
AcDbLine
 10
17.746409599999993
 20
-95.800014258789076
 30
0.0
 11
1.2535904000000073
 21
-95.800014258789076
 31
0.0
  0
LINE
  5
53D
100
AcDbEntity
  8
0
  6
CONTINUOUS
 62
               4
100
AcDbLine
 10
16.600000000000023
 20
-97.400015258789068
 30
0.0
 11
2.3999999999999773
 21
-97.400015258789068
 31
0.0
  0
LINE
  5
53E
100
AcDbEntity
  8
0
  6
CONTINUOUS
 62
               4
100
AcDbLine
 10
3.5
 20
-97.900015258789068
 30
0.0
 11
3.5
 21
-97.500015258789063
 31
0.0
  0
LINE
  5
53F
100
AcDbEntity
  8
0
  6
CONTINUOUS
 62
               4
100
AcDbLine
 10
18.5
 20
-87.100014858789052
 30
0.0
 11
0.5
 21
-87.100014858789052
 31
0.0
  0
LINE
  5
540
100
AcDbEntity
  8
0
  6
CONTINUOUS
 62
               4
100
AcDbLine
 10
0.7000000000000455
 20
-86.900015258789068
 30
0.0
 11
0.5
 21
-86.700015058789063
 31
0.0
  0
LINE
  5
541
100
AcDbEntity
  8
0
  6
CONTINUOUS
 62
               4
100
AcDbLine
 10
17.799999999999955
 20
-92.800015258789074
 30
0.0
 11
17.799999999999955
 21
-91.900015258789068
 31
0.0
  0
LINE
  5
542
100
AcDbEntity
  8
0
  6
CONTINUOUS
 62
               4
100
AcDbLine
 10
1.2000000000000455
 20
-92.800015258789074
 30
0.0
 11
1.2000000000000455
 21
-91.900015258789068
 31
0.0
  0
LINE
  5
543
100
AcDbEntity
  8
0
  6
CONTINUOUS
 62
               4
100
AcDbLine
 10
18.299999999999955
 20
-86.900015258789068
 30
0.0
 11
18.5
 21
-86.700015058789063
 31
0.0
  0
LINE
  5
544
100
AcDbEntity
  8
0
  6
CONTINUOUS
 62
               4
100
AcDbLine
 10
18.5
 20
-91.800015258789074
 30
0.0
 11
18.399999999999977
 21
-91.900015258789068
 31
0.0
  0
LINE
  5
545
100
AcDbEntity
  8
0
  6
CONTINUOUS
 62
               4
100
AcDbLine
 10
0.5
 20
-91.800015258789074
 30
0.0
 11
0.6000000000000227
 21
-91.900015258789068
 31
0.0
  0
LINE
  5
546
100
AcDbEntity
  8
0
  6
CONTINUOUS
 62
               4
100
AcDbLine
 10
18.299999999999955
 20
-86.900014658789075
 30
0.0
 11
18.5
 21
-87.100014858789052
 31
0.0
  0
LINE
  5
547
100
AcDbEntity
  8
0
  6
CONTINUOUS
 62
               4
100
AcDbLine
 10
18.5
 20
-91.800015258789074
 30
0.0
 11
18.5
 21
-87.100014858789052
 31
0.0
  0
LINE
  5
548
100
AcDbEntity
  8
0
  6
CONTINUOUS
 62
               4
100
AcDbLine
 10
0.5
 20
-91.800015258789074
 30
0.0
 11
0.5
 21
-87.100014858789052
 31
0.0
  0
LINE
  5
549
100
AcDbEntity
  8
0
  6
CONTINUOUS
 62
               4
100
AcDbLine
 10
18.299999999999955
 20
-86.900014858789064
 30
0.0
 11
0.7000000000000455
 21
-86.900014858789064
 31
0.0
  0
LINE
  5
54A
100
AcDbEntity
  8
0
  6
CONTINUOUS
 62
               4
100
AcDbLine
 10
0.7000000000000455
 20
-86.900014658789075
 30
0.0
 11
0.5
 21
-87.100014858789052
 31
0.0
  0
LINE
  5
54B
100
AcDbEntity
  8
0
  6
CONTINUOUS
 62
               4
100
AcDbLine
 10
18.5
 20
-95.364929258789061
 30
0.0
 11
18.5
 21
-93.000015258789063
 31
0.0
  0
LINE
  5
54C
100
AcDbEntity
  8
0
  6
CONTINUOUS
 62
               4
100
AcDbLine
 10
0.7000000000000455
 20
-92.800015258789074
 30
0.0
 11
0.5
 21
-93.000015258789063
 31
0.0
  0
LINE
  5
54D
100
AcDbEntity
  8
0
  6
CONTINUOUS
 62
               4
100
AcDbLine
 10
0.5
 20
-95.364929258789061
 30
0.0
 11
0.5
 21
-93.000015258789063
 31
0.0
  0
LINE
  5
54E
100
AcDbEntity
  8
0
  6
CONTINUOUS
 62
               4
100
AcDbLine
 10
0.7000000000000455
 20
-92.800015258789074
 30
0.0
 11
18.299999999999955
 21
-92.800015258789074
 31
0.0
  0
LINE
  5
54F
100
AcDbEntity
  8
0
  6
CONTINUOUS
 62
               4
100
AcDbLine
 10
17.746409599999993
 20
-95.800014258789076
 30
0.0
 11
17.399999200000025
 21
-96.400014258789071
 31
0.0
  0
LINE
  5
550
100
AcDbEntity
  8
0
  6
CONTINUOUS
 62
               4
100
AcDbLine
 10
1.2535904000000073
 20
-95.800014258789076
 30
0.0
 11
1.6000007999999752
 21
-96.400014258789071
 31
0.0
  0
LINE
  5
551
100
AcDbEntity
  8
0
  6
CONTINUOUS
 62
               4
100
AcDbLine
 10
0.5
 20
-95.364928258789064
 30
0.0
 11
1.2535904000000073
 21
-95.800014258789076
 31
0.0
  0
LINE
  5
552
100
AcDbEntity
  8
0
  6
CONTINUOUS
 62
               4
100
AcDbLine
 10
18.5
 20
-95.364928258789064
 30
0.0
 11
17.746409599999993
 21
-95.800014258789076
 31
0.0
  0
LINE
  5
553
100
AcDbEntity
  8
0
  6
CONTINUOUS
 62
               4
100
AcDbLine
 10
18.299999999999955
 20
-92.800015258789074
 30
0.0
 11
18.5
 21
-93.000015258789063
 31
0.0
  0
LINE
  5
554
100
AcDbEntity
  8
0
  6
CONTINUOUS
 62
               4
100
AcDbLine
 10
17.399999999999977
 20
-96.400014258789071
 30
0.0
 11
1.6000007999999752
 21
-96.400014258789071
 31
0.0
  0
LINE
  5
555
100
AcDbEntity
  8
0
  6
CONTINUOUS
 62
               4
100
AcDbLine
 10
0.6000000000000227
 20
-91.900015258789068
 30
0.0
 11
18.399999999999977
 21
-91.900015258789068
 31
0.0
  0
LINE
  5
556
100
AcDbEntity
  8
0
  6
CONTINUOUS
 62
               4
100
AcDbLine
 10
16.600000000000023
 20
-97.400015258789068
 30
0.0
 11
16.600000000000023
 21
-96.400014258789071
 31
0.0
  0
LINE
  5
557
100
AcDbEntity
  8
0
  6
CONTINUOUS
 62
               4
100
AcDbLine
 10
16.5
 20
-97.500015258789063
 30
0.0
 11
2.5
 21
-97.500015258789063
 31
0.0
  0
LINE
  5
558
100
AcDbEntity
  8
0
  6
CONTINUOUS
 62
               4
100
AcDbLine
 10
16.5
 20
-97.500015258789063
 30
0.0
 11
16.600000000000023
 21
-97.400015258789068
 31
0.0
  0
LINE
  5
559
100
AcDbEntity
  8
0
  6
CONTINUOUS
 62
               4
100
AcDbLine
 10
2.5
 20
-97.500015258789063
 30
0.0
 11
2.3999999999999773
 21
-97.400015258789068
 31
0.0
  0
LINE
  5
55A
100
AcDbEntity
  8
0
  6
CONTINUOUS
 62
               4
100
AcDbLine
 10
2.3999999999999773
 20
-97.400015258789068
 30
0.0
 11
2.3999999999999773
 21
-96.400014258789071
 31
0.0
  0
LINE
  5
55B
100
AcDbEntity
  8
0
  6
CONTINUOUS
 62
               4
100
AcDbLine
 10
15.5
 20
-97.900015258789068
 30
0.0
 11
15.5
 21
-97.500015258789063
 31
0.0
  0
LINE
  5
55C
100
AcDbEntity
  8
0
  6
CONTINUOUS
 62
               4
100
AcDbLine
 10
17.899999999999977
 20
-99.30069625878906
 30
0.0
 11
17.899999999999977
 21
-98.400015258789068
 31
0.0
  0
LINE
  5
55D
100
AcDbEntity
  8
0
  6
CONTINUOUS
 62
               4
100
AcDbLine
 10
1.1000000000000227
 20
-98.400015258789068
 30
0.0
 11
17.899999999999977
 21
-98.400015258789068
 31
0.0
  0
LINE
  5
55E
100
AcDbEntity
  8
0
  6
CONTINUOUS
 62
               4
100
AcDbLine
 10
1.1000000000000227
 20
-99.30069625878906
 30
0.0
 11
1.1000000000000227
 21
-98.400015258789068
 31
0.0
  0
ARC
  5
55F
100
AcDbEntity
  8
0
  6
CONTINUOUS
 62
               4
100
AcDbCircle
 10
3.0
 20
-97.900015258789068
 30
0.0
 40
0.5
100
AcDbArc
 50
270.0
 51
0.0000000000002036
  0
ARC
  5
560
100
AcDbEntity
  8
0
  6
CONTINUOUS
 62
               4
100
AcDbCircle
 10
17.600000000000023
 20
-99.300015258789074
 30
0.0
 40
0.3
100
AcDbArc
 50
270.0
 51
0.0000000000002036
  0
ARC
  5
561
100
AcDbEntity
  8
0
  6
CONTINUOUS
 62
               4
100
AcDbCircle
 10
16.0
 20
-97.900015258789068
 30
0.0
 40
0.5
100
AcDbArc
 50
180.0000000000006
 51
270.0000000000008
  0
ARC
  5
562
100
AcDbEntity
  8
0
  6
CONTINUOUS
 62
               4
100
AcDbCircle
 10
1.3999999999999773
 20
-99.300015258789074
 30
0.0
 40
0.3
100
AcDbArc
 50
180.0000000000006
 51
270.0000000000008
  0
LINE
  5
563
100
AcDbEntity
  8
0
  6
CONTINUOUS
 62
               4
100
AcDbLine
 10
0.5
 20
-76.000015258789063
 30
0.0
 11
5.7788395000000037
 21
-76.000015258789063
 31
0.0
  0
ARC
  5
564
100
AcDbEntity
  8
0
  6
CONTINUOUS
 62
               4
100
AcDbCircle
 10
9.5
 20
-89.690538391293046
 30
0.0
 40
14.187228732503996
100
AcDbArc
 50
74.794046190114372
 51
105.20595380988573
  0
LINE
  5
565
100
AcDbEntity
  8
0
  6
CONTINUOUS
 62
               4
100
AcDbLine
 10
13.221160499999996
 20
-76.000015258789063
 30
0.0
 11
18.5
 21
-76.000015258789063
 31
0.0
  0
LINE
  5
566
100
AcDbEntity
  8
0
  6
CONTINUOUS
 62
               4
100
AcDbLine
 10
4.1999996304512024
 20
-73.000007629394474
 30
0.0
 11
1.6999996304512024
 21
-73.000007629394474
 31
0.0
  0
LINE
  5
567
100
AcDbEntity
  8
0
  6
CONTINUOUS
 62
               4
100
AcDbLine
 10
0.5
 20
-75.214634258789062
 30
0.0
 11
3.0
 21
-75.214634258789062
 31
0.0
  0
LINE
  5
568
100
AcDbEntity
  8
0
  6
CONTINUOUS
 62
               4
100
AcDbLine
 10
6.0
 20
-73.214634258789062
 30
0.0
 11
6.0
 21
-71.000015258789063
 31
0.0
  0
ARC
  5
569
100
AcDbEntity
  8
0
  6
CONTINUOUS
 62
               4
100
AcDbCircle
 10
1.699999988079071
 20
-71.500007629394531
 30
0.0
 40
1.5
100
AcDbArc
 50
180.00001798608935
 51
269.99998633962167
  0
ARC
  5
56A
100
AcDbEntity
  8
0
  6
CONTINUOUS
 62
               4
100
AcDbCircle
 10
4.199999988079071
 20
-71.500007629394531
 30
0.0
 40
1.5
100
AcDbArc
 50
269.99998633962167
 51
0.0
  0
LINE
  5
56B
100
AcDbEntity
  8
0
  6
CONTINUOUS
 62
               4
100
AcDbLine
 10
0.5
 20
-75.50330965878905
 30
0.0
 11
0.5
 21
-72.400007645289094
 31
0.0
  0
LINE
  5
56C
100
AcDbEntity
  8
0
  6
CONTINUOUS
 62
               4
100
AcDbLine
 10
0.5
 20
9.0000152587890625
 30
0.0
 11
18.5
 21
9.0000152587890625
 31
0.0
  0
CIRCLE
  5
56D
100
AcDbEntity
  8
0
  6
CONTINUOUS
 62
               4
100
AcDbCircle
 10
16.0
 20
-9.0
 30
0.0
 40
2.7999992370605469
  0
CIRCLE
  5
56E
100
AcDbEntity
  8
0
  6
CONTINUOUS
 62
               4
100
AcDbCircle
 10
3.0000152587890625
 20
-48.999984741210937
 30
0.0
 40
2.7999992370605469
  0
LINE
  5
56F
100
AcDbEntity
  8
0
  6
CONTINUOUS
 62
               4
100
AcDbLine
 10
18.262191772460938
 20
-10.649993896484375
 30
0.0
 11
18.5
 21
-10.649993896484375
 31
0.0
  0
LINE
  5
570
100
AcDbEntity
  8
0
  6
CONTINUOUS
 62
               4
100
AcDbLine
 10
18.262176513671875
 20
-7.3499908447265625
 30
0.0
 11
18.5
 21
-7.3499908447265625
 31
0.0
  0
LINE
  5
571
100
AcDbEntity
  8
0
  6
CONTINUOUS
 62
               4
100
AcDbLine
 10
0.5
 20
-50.649993896484375
 30
0.0
 11
0.737823486328125
 21
-50.649993896484375
 31
0.0
  0
LINE
  5
572
100
AcDbEntity
  8
0
  6
CONTINUOUS
 62
               4
100
AcDbLine
 10
0.5
 20
-47.349990844726563
 30
0.0
 11
0.737823486328125
 21
-47.349990844726563
 31
0.0
  0
LINE
  5
573
100
AcDbEntity
  8
0
  6
CONTINUOUS
 62
               4
100
AcDbLine
 10
0.5
 20
-55.999984741210937
 30
0.0
 11
18.5
 21
-55.999984741210937
 31
0.0
  0
LINE
  5
574
100
AcDbEntity
  8
0
  6
CONTINUOUS
 62
               4
100
AcDbLine
 10
18.5
 20
-55.999984741210937
 30
0.0
 11
18.5
 21
-10.649993896484375
 31
0.0
  0
LINE
  5
575
100
AcDbEntity
  8
0
  6
CONTINUOUS
 62
               4
100
AcDbLine
 10
18.5
 20
-7.3499908447265625
 30
0.0
 11
18.5
 21
9.0000152587890625
 31
0.0
  0
LINE
  5
576
100
AcDbEntity
  8
0
  6
CONTINUOUS
 62
               4
100
AcDbLine
 10
0.5
 20
-47.349990844726563
 30
0.0
 11
0.5
 21
9.0000152587890625
 31
0.0
  0
LINE
  5
577
100
AcDbEntity
  8
0
  6
CONTINUOUS
 62
               4
100
AcDbLine
 10
14.939412999502565
 20
-7.9393130621920136
 30
0.0
 11
17.060733306757356
 21
-10.060633548260739
 31
0.0
  0
LINE
  5
578
100
AcDbEntity
  8
0
  6
CONTINUOUS
 62
               4
100
AcDbLine
 10
14.939358962126789
 20
-10.060665827631965
 30
0.0
 11
17.060679448195515
 21
-7.9393455203771737
 31
0.0
  0
LINE
  5
579
100
AcDbEntity
  8
0
  6
CONTINUOUS
 62
               4
100
AcDbLine
 10
1.9393794319677227
 20
-47.939274393087089
 30
0.0
 11
4.0606997392225139
 21
-50.060594879155815
 31
0.0
  0
LINE
  5
57A
100
AcDbEntity
  8
0
  6
CONTINUOUS
 62
               4
100
AcDbLine
 10
1.9393678786145756
 20
-50.060669642553194
 30
0.0
 11
4.0606775750893576
 21
-47.939360124891436
 31
0.0
  0
LINE
  5
57B
100
AcDbEntity
  8
0
  6
CONTINUOUS
 62
               4
100
AcDbLine
 10
0.5
 20
-55.999984741210937
 30
0.0
 11
0.5
 21
-50.649993896484375
 31
0.0
  0
LINE
  5
57C
100
AcDbEntity
  8
0
  6
CONTINUOUS
 62
               7
100
AcDbLine
 10
0.0
 20
-68.000015258789063
 30
0.0
 11
0.0
 21
17.0
 31
0.0
  0
LINE
  5
57D
100
AcDbEntity
  8
0
  6
CONTINUOUS
 62
               7
100
AcDbLine
 10
0.0
 20
-68.000015258789063
 30
0.0
 11
19.0
 21
-68.000015258789063
 31
0.0
  0
SPLINE
  5
57E
100
AcDbEntity
  8
0
  6
CONTINUOUS
 62
               4
100
AcDbSpline
210
0.0
220
0.0
230
1.0
 70
               0
 71
               3
 72
               0
 73
               0
 74
              37
 44
0.000001
 12
0.9881349170157096
 22
0.1535883647102109
 32
0.0
 13
0.2801395722747448
 23
0.9599592804102282
 33
0.0
 11
3.0
 21
-75.214634258789062
 31
0.0
 11
3.130239857734439
 21
-75.192766845728443
 31
0.0
 11
3.2599173558238062
 21
-75.167734132247944
 31
0.0
 11
3.3889651660225808
 21
-75.139536847894064
 31
0.0
 11
3.5172778052326521
 21
-75.108181289159887
 31
0.0
 11
3.61394104602044
 21
-75.082330321299267
 31
0.0
 11
3.7101068666709764
 21
-75.054689904579035
 31
0.0
 11
3.8057432960188819
 21
-75.025283434832843
 31
0.0
 11
3.9008272593215452
 21
-74.994132551910354
 31
0.0
 11
4.0180533636654419
 21
-74.953052238565832
 31
0.0
 11
4.1342978208930488
 21
-74.909268317914538
 31
0.0
 11
4.2494734348505698
 21
-74.862729433667013
 31
0.0
 11
4.3634765014079449
 21
-74.813390714188699
 31
0.0
 11
4.462624520774809
 21
-74.767671447932599
 31
0.0
 11
4.560695606328208
 21
-74.719686835634405
 31
0.0
 11
4.6575823093016124
 21
-74.669377370992677
 31
0.0
 11
4.7531888443261323
 21
-74.616677688154425
 31
0.0
 11
4.8319687747774784
 21
-74.570789293091323
 31
0.0
 11
4.9096945716192062
 21
-74.52313940042248
 31
0.0
 11
4.9862842214293588
 21
-74.473672882260729
 31
0.0
 11
5.0616404188675688
 21
-74.422345064695776
 31
0.0
 11
5.1408962491644727
 21
-74.36522729096751
 31
0.0
 11
5.2184621357829242
 21
-74.305834309167523
 31
0.0
 11
5.2941619477743052
 21
-74.244089459021794
 31
0.0
 11
5.3678155252729312
 21
-74.179919295913578
 31
0.0
 11
5.4334457832073308
 21
-74.118838476440303
 31
0.0
 11
5.4970267144213807
 21
-74.055628476227938
 31
0.0
 11
5.5583954500863992
 21
-73.99025627495638
 31
0.0
 11
5.6173679769605087
 21
-73.922713059194507
 31
0.0
 11
5.6728614892498959
 21
-73.854109266726098
 31
0.0
 11
5.7255506941689198
 21
-73.783329967426525
 31
0.0
 11
5.7751192398465383
 21
-73.710325963076102
 31
0.0
 11
5.8212262817083911
 21
-73.635090101116361
 31
0.0
 11
5.8754520535667476
 21
-73.534244030466255
 31
0.0
 11
5.9233058967023595
 21
-73.430188237888459
 31
0.0
 11
5.964805589275036
 21
-73.323509487346058
 31
0.0
 11
6.0
 21
-73.214634258789062
 31
0.0
  0
SPLINE
  5
57F
100
AcDbEntity
  8
0
  6
CONTINUOUS
 62
               4
100
AcDbSpline
210
0.0
220
0.0
230
1.0
 70
               0
 71
               3
 72
               0
 73
               0
 74
              41
 44
0.000001
 12
-0.9936236052884185
 22
-0.1127480865187748
 32
0.0
 13
0.7599872673059149
 23
-0.6499379612954516
 33
0.0
 11
16.0
 21
-72.905275258789061
 31
0.0
 11
15.81640499118264
 21
-72.92813089700357
 31
0.0
 11
15.633331319357541
 21
-72.95490304709918
 31
0.0
 11
15.450808936674271
 21
-72.985486993893588
 31
0.0
 11
15.268943176445305
 21
-73.0197661653024
 31
0.0
 11
15.059337375941338
 21
-73.064006610915214
 31
0.0
 11
14.850893121055897
 21
-73.113426717858019
 31
0.0
 11
14.643840508943942
 21
-73.168395608097256
 31
0.0
 11
14.438441986908629
 21
-73.229265920588716
 31
0.0
 11
14.26469404999804
 21
-73.286255336421306
 31
0.0
 11
14.092821473806435
 21
-73.348646166047061
 31
0.0
 11
13.923328250321184
 21
-73.417266282051841
 31
0.0
 11
13.756820751981422
 21
-73.492871723623949
 31
0.0
 11
13.61534147612093
 21
-73.564954388416965
 31
0.0
 11
13.477979920824547
 21
-73.644591971226305
 31
0.0
 11
13.346029145592624
 21
-73.733532465354187
 31
0.0
 11
13.221659739295546
 21
-73.832716242150298
 31
0.0
 11
13.153125707611714
 21
-73.896290735382706
 31
0.0
 11
13.089453927867822
 21
-73.964744566605304
 31
0.0
 11
13.032863048854281
 21
-74.038183678909363
 31
0.0
 11
12.985002130548423
 21
-74.117454351597928
 31
0.0
 11
12.950082170544103
 21
-74.196220929162877
 31
0.0
 11
12.924484319855331
 21
-74.278584474212821
 31
0.0
 11
12.907801686703799
 21
-74.363679420255338
 31
0.0
 11
12.899999999999977
 21
-74.450015258789051
 31
0.0
 11
12.904367017208338
 21
-74.581514823903618
 31
0.0
 11
12.926084964073349
 21
-74.711474894897393
 31
0.0
 11
12.962795291958052
 21
-74.838593607694278
 31
0.0
 11
13.011996617826185
 21
-74.961385242259041
 31
0.0
 11
13.069847186614844
 21
-75.076395116067118
 31
0.0
 11
13.136346474074863
 21
-75.186607940435067
 31
0.0
 11
13.210313537613366
 21
-75.291465304361196
 31
0.0
 11
13.29096870466276
 21
-75.391276654761214
 31
0.0
 11
13.375474390135802
 21
-75.484145344591397
 31
0.0
 11
13.464709561685762
 21
-75.572480826750748
 31
0.0
 11
13.558016012572821
 21
-75.656630057198228
 31
0.0
 11
13.654673841562726
 21
-75.736884183935359
 31
0.0
 11
13.738732522077914
 21
-75.802461595128648
 31
0.0
 11
13.823515774004935
 21
-75.867132331589076
 31
0.0
 11
13.907682980906927
 21
-75.932440775052726
 31
0.0
 11
13.990000000000009
 21
-76.000015258789063
 31
0.0
  0
ENDBLK
  5
580
100
AcDbEntity
  8
0
100
AcDbBlockEnd
  0
BLOCK
  5
581
100
AcDbEntity
  8
0
100
AcDbBlockBegin
  2
F18MNJ-17
 70
               0
 10
0.0
 20
0.0
 30
0.0
  3
F18MNJ-17
  1

  0
LINE
  5
582
100
AcDbEntity
  8
0
  6
CONTINUOUS
 62
               4
100
AcDbLine
 10
34.704978637695312
 20
-11.798237304687518
 30
0.0
 11
34.204978637695312
 21
-11.798237304687518
 31
0.0
  0
LINE
  5
583
100
AcDbEntity
  8
0
  6
CONTINUOUS
 62
               4
100
AcDbLine
 10
34.704978637695312
 20
-6.1982373046874955
 30
0.0
 11
34.204978637695312
 21
-6.1982373046874955
 31
0.0
  0
LINE
  5
584
100
AcDbEntity
  8
0
  6
CONTINUOUS
 62
               4
100
AcDbLine
 10
36.204978637695312
 20
-7.6982373046874955
 30
0.0
 11
36.204978637695312
 21
-10.298237304687518
 31
0.0
  0
LINE
  5
585
100
AcDbEntity
  8
0
  6
CONTINUOUS
 62
               4
100
AcDbLine
 10
34.204978637695312
 20
-55.998237304687507
 30
0.0
 11
34.204978637695312
 21
10.001762695312493
 31
0.0
  0
LINE
  5
586
100
AcDbEntity
  8
0
  6
CONTINUOUS
 62
               4
100
AcDbLine
 10
34.204978637695312
 20
10.001762695312493
 30
0.0
 11
31.004978637695309
 21
10.001762695312493
 31
0.0
  0
LINE
  5
587
100
AcDbEntity
  8
0
  6
CONTINUOUS
 62
               4
100
AcDbLine
 10
34.204978637695312
 20
-55.998237304687507
 30
0.0
 11
31.004978637695309
 21
-55.998237304687507
 31
0.0
  0
LINE
  5
588
100
AcDbEntity
  8
0
  6
CONTINUOUS
 62
               4
100
AcDbLine
 10
34.704978637695312
 20
-51.798237304687518
 30
0.0
 11
34.204978637695312
 21
-51.798237304687518
 31
0.0
  0
LINE
  5
589
100
AcDbEntity
  8
0
  6
CONTINUOUS
 62
               4
100
AcDbLine
 10
34.704978637695312
 20
-46.198237304687495
 30
0.0
 11
34.204978637695312
 21
-46.198237304687495
 31
0.0
  0
LINE
  5
58A
100
AcDbEntity
  8
0
  6
CONTINUOUS
 62
               4
100
AcDbLine
 10
36.204978637695312
 20
-47.698237304687495
 30
0.0
 11
36.204978637695312
 21
-50.298237304687518
 31
0.0
  0
ARC
  5
58B
100
AcDbEntity
  8
0
  6
CONTINUOUS
 62
               4
100
AcDbCircle
 10
34.7049786376922
 20
-10.298237304684392
 30
0.0
 40
1.5000000000031064
100
AcDbArc
 50
270.00000000011858
 51
359.99999999988131
  0
ARC
  5
58C
100
AcDbEntity
  8
0
  6
CONTINUOUS
 62
               4
100
AcDbCircle
 10
34.7049786376922
 20
-7.6982373046906218
 30
0.0
 40
1.500000000003106
100
AcDbArc
 50
0.0000000001186389
 51
89.999999999881396
  0
ARC
  5
58D
100
AcDbEntity
  8
0
  6
CONTINUOUS
 62
               4
100
AcDbCircle
 10
34.704971008293803
 20
-50.298229675285995
 30
0.0
 40
1.5000076294209186
100
AcDbArc
 50
270.00029142018911
 51
359.99970857981089
  0
ARC
  5
58E
100
AcDbEntity
  8
0
  6
CONTINUOUS
 62
               4
100
AcDbCircle
 10
34.704986267051815
 20
-47.698229675330992
 30
0.0
 40
1.4999923706629004
100
AcDbArc
 50
359.99970857856579
 51
90.000291421434241
  0
LINE
  5
58F
100
AcDbEntity
  8
0
  6
CONTINUOUS
 62
               4
100
AcDbLine
 10
3.9999999999999787
 20
-91.800022888183605
 30
0.0
 11
-14.000000000000021
 21
-91.800022888183605
 31
0.0
  0
LINE
  5
590
100
AcDbEntity
  8
0
  6
CONTINUOUS
 62
               4
100
AcDbLine
 10
3.9999999999999787
 20
-93.000022888183594
 30
0.0
 11
-14.000000000000021
 21
-93.000022888183594
 31
0.0
  0
LINE
  5
591
100
AcDbEntity
  8
0
  6
CONTINUOUS
 62
               4
100
AcDbLine
 10
3.9999999999999787
 20
-95.364935888183595
 30
0.0
 11
-14.000000000000021
 21
-95.364935888183595
 31
0.0
  0
LINE
  5
592
100
AcDbEntity
  8
0
  6
CONTINUOUS
 62
               4
100
AcDbLine
 10
3.2464095999999714
 20
-95.800021888183608
 30
0.0
 11
-13.246409600000014
 21
-95.800021888183608
 31
0.0
  0
LINE
  5
593
100
AcDbEntity
  8
0
  6
CONTINUOUS
 62
               4
100
AcDbLine
 10
2.1000000000000014
 20
-97.400022888183599
 30
0.0
 11
-12.100000000000044
 21
-97.400022888183599
 31
0.0
  0
LINE
  5
594
100
AcDbEntity
  8
0
  6
CONTINUOUS
 62
               4
100
AcDbLine
 10
-11.000000000000021
 20
-97.900022888183599
 30
0.0
 11
-11.000000000000021
 21
-97.500022888183594
 31
0.0
  0
LINE
  5
595
100
AcDbEntity
  8
0
  6
CONTINUOUS
 62
               4
100
AcDbLine
 10
3.9999999999999787
 20
-87.100022488183583
 30
0.0
 11
-14.000000000000021
 21
-87.100022488183583
 31
0.0
  0
LINE
  5
596
100
AcDbEntity
  8
0
  6
CONTINUOUS
 62
               4
100
AcDbLine
 10
-13.799999999999976
 20
-86.900022888183599
 30
0.0
 11
-14.000000000000021
 21
-86.700022688183594
 31
0.0
  0
LINE
  5
597
100
AcDbEntity
  8
0
  6
CONTINUOUS
 62
               4
100
AcDbLine
 10
-14.000000000000021
 20
-86.700022688183594
 30
0.0
 11
3.9999999999999787
 21
-86.700022688183594
 31
0.0
  0
LINE
  5
598
100
AcDbEntity
  8
0
  6
CONTINUOUS
 62
               4
100
AcDbLine
 10
-13.299999999999976
 20
-92.800022888183605
 30
0.0
 11
-13.299999999999976
 21
-91.900022888183599
 31
0.0
  0
LINE
  5
599
100
AcDbEntity
  8
0
  6
CONTINUOUS
 62
               4
100
AcDbLine
 10
-14.000000000000021
 20
-86.700022888183582
 30
0.0
 11
-14.000000000000021
 21
-75.503317288183581
 31
0.0
  0
LINE
  5
59A
100
AcDbEntity
  8
0
  6
CONTINUOUS
 62
               4
100
AcDbLine
 10
-14.000000000000021
 20
-91.800022888183605
 30
0.0
 11
-13.899999999999999
 21
-91.900022888183599
 31
0.0
  0
LINE
  5
59B
100
AcDbEntity
  8
0
  6
CONTINUOUS
 62
               4
100
AcDbLine
 10
-14.000000000000021
 20
-91.800022888183605
 30
0.0
 11
-14.000000000000021
 21
-87.100022488183583
 31
0.0
  0
LINE
  5
59C
100
AcDbEntity
  8
0
  6
CONTINUOUS
 62
               4
100
AcDbLine
 10
3.7999999999999332
 20
-86.900022488183595
 30
0.0
 11
-13.799999999999976
 21
-86.900022488183595
 31
0.0
  0
LINE
  5
59D
100
AcDbEntity
  8
0
  6
CONTINUOUS
 62
               4
100
AcDbLine
 10
-13.799999999999976
 20
-86.900022288183607
 30
0.0
 11
-14.000000000000021
 21
-87.100022488183583
 31
0.0
  0
LINE
  5
59E
100
AcDbEntity
  8
0
  6
CONTINUOUS
 62
               4
100
AcDbLine
 10
-13.799999999999976
 20
-92.800022888183605
 30
0.0
 11
-14.000000000000021
 21
-93.000022888183594
 31
0.0
  0
LINE
  5
59F
100
AcDbEntity
  8
0
  6
CONTINUOUS
 62
               4
100
AcDbLine
 10
-14.000000000000021
 20
-95.364936888183593
 30
0.0
 11
-14.000000000000021
 21
-93.000022888183594
 31
0.0
  0
LINE
  5
5A0
100
AcDbEntity
  8
0
  6
CONTINUOUS
 62
               4
100
AcDbLine
 10
-13.799999999999976
 20
-92.800022888183605
 30
0.0
 11
3.7999999999999332
 21
-92.800022888183605
 31
0.0
  0
LINE
  5
5A1
100
AcDbEntity
  8
0
  6
CONTINUOUS
 62
               4
100
AcDbLine
 10
3.2464095999999714
 20
-95.800021888183608
 30
0.0
 11
2.8999992000000034
 21
-96.400021888183602
 31
0.0
  0
LINE
  5
5A2
100
AcDbEntity
  8
0
  6
CONTINUOUS
 62
               4
100
AcDbLine
 10
-13.246409600000014
 20
-95.800021888183608
 30
0.0
 11
-12.899999200000046
 21
-96.400021888183602
 31
0.0
  0
LINE
  5
5A3
100
AcDbEntity
  8
0
  6
CONTINUOUS
 62
               4
100
AcDbLine
 10
-14.000000000000021
 20
-95.364935888183595
 30
0.0
 11
-13.246409600000014
 21
-95.800021888183608
 31
0.0
  0
LINE
  5
5A4
100
AcDbEntity
  8
0
  6
CONTINUOUS
 62
               4
100
AcDbLine
 10
3.9999999999999787
 20
-95.364935888183595
 30
0.0
 11
3.2464095999999714
 21
-95.800021888183608
 31
0.0
  0
LINE
  5
5A5
100
AcDbEntity
  8
0
  6
CONTINUOUS
 62
               4
100
AcDbLine
 10
2.8999999999999559
 20
-96.400021888183602
 30
0.0
 11
-12.899999200000046
 21
-96.400021888183602
 31
0.0
  0
LINE
  5
5A6
100
AcDbEntity
  8
0
  6
CONTINUOUS
 62
               4
100
AcDbLine
 10
-13.899999999999999
 20
-91.900022888183599
 30
0.0
 11
3.8999999999999559
 21
-91.900022888183599
 31
0.0
  0
LINE
  5
5A7
100
AcDbEntity
  8
0
  6
CONTINUOUS
 62
               4
100
AcDbLine
 10
2.1000000000000014
 20
-97.400022888183599
 30
0.0
 11
2.1000000000000014
 21
-96.400021888183602
 31
0.0
  0
LINE
  5
5A8
100
AcDbEntity
  8
0
  6
CONTINUOUS
 62
               4
100
AcDbLine
 10
1.9999999999999787
 20
-97.500022888183594
 30
0.0
 11
-12.000000000000021
 21
-97.500022888183594
 31
0.0
  0
LINE
  5
5A9
100
AcDbEntity
  8
0
  6
CONTINUOUS
 62
               4
100
AcDbLine
 10
1.9999999999999787
 20
-97.500022888183594
 30
0.0
 11
2.1000000000000014
 21
-97.400022888183599
 31
0.0
  0
LINE
  5
5AA
100
AcDbEntity
  8
0
  6
CONTINUOUS
 62
               4
100
AcDbLine
 10
-12.000000000000021
 20
-97.500022888183594
 30
0.0
 11
-12.100000000000044
 21
-97.400022888183599
 31
0.0
  0
LINE
  5
5AB
100
AcDbEntity
  8
0
  6
CONTINUOUS
 62
               4
100
AcDbLine
 10
-12.100000000000044
 20
-97.400022888183599
 30
0.0
 11
-12.100000000000044
 21
-96.400021888183602
 31
0.0
  0
LINE
  5
5AC
100
AcDbEntity
  8
0
  6
CONTINUOUS
 62
               4
100
AcDbLine
 10
0.9999999999999787
 20
-97.900022888183599
 30
0.0
 11
0.9999999999999787
 21
-97.500022888183594
 31
0.0
  0
LINE
  5
5AD
100
AcDbEntity
  8
0
  6
CONTINUOUS
 62
               4
100
AcDbLine
 10
3.3999999999999559
 20
-99.300703888183591
 30
0.0
 11
3.3999999999999559
 21
-98.400022888183599
 31
0.0
  0
LINE
  5
5AE
100
AcDbEntity
  8
0
  6
CONTINUOUS
 62
               4
100
AcDbLine
 10
-13.399999999999999
 20
-98.400022888183599
 30
0.0
 11
3.3999999999999559
 21
-98.400022888183599
 31
0.0
  0
LINE
  5
5AF
100
AcDbEntity
  8
0
  6
CONTINUOUS
 62
               4
100
AcDbLine
 10
3.1000000000000014
 20
-99.600022888183588
 30
0.0
 11
-13.100000000000044
 21
-99.600022888183588
 31
0.0
  0
LINE
  5
5B0
100
AcDbEntity
  8
0
  6
CONTINUOUS
 62
               4
100
AcDbLine
 10
-13.399999999999999
 20
-99.300703888183591
 30
0.0
 11
-13.399999999999999
 21
-98.400022888183599
 31
0.0
  0
ARC
  5
5B1
100
AcDbEntity
  8
0
  6
CONTINUOUS
 62
               4
100
AcDbCircle
 10
-11.500000000000021
 20
-97.900022888183599
 30
0.0
 40
0.5
100
AcDbArc
 50
270.0
 51
0.0000000000002036
  0
ARC
  5
5B2
100
AcDbEntity
  8
0
  6
CONTINUOUS
 62
               4
100
AcDbCircle
 10
3.1000000000000014
 20
-99.300022888183605
 30
0.0
 40
0.3
100
AcDbArc
 50
270.0
 51
0.0000000000002036
  0
ARC
  5
5B3
100
AcDbEntity
  8
0
  6
CONTINUOUS
 62
               4
100
AcDbCircle
 10
1.4999999999999787
 20
-97.900022888183599
 30
0.0
 40
0.5
100
AcDbArc
 50
180.0000000000006
 51
270.0000000000008
  0
ARC
  5
5B4
100
AcDbEntity
  8
0
  6
CONTINUOUS
 62
               4
100
AcDbCircle
 10
-13.100000000000044
 20
-99.300022888183605
 30
0.0
 40
0.3
100
AcDbArc
 50
180.0000000000006
 51
270.0000000000008
  0
LINE
  5
5B5
100
AcDbEntity
  8
0
  6
CONTINUOUS
 62
               4
100
AcDbLine
 10
22.999999999999979
 20
-86.700022688183594
 30
0.0
 11
4.9999999999999787
 21
-86.700022688183594
 31
0.0
  0
LINE
  5
5B6
100
AcDbEntity
  8
0
  6
CONTINUOUS
 62
               4
100
AcDbLine
 10
22.139745962155509
 20
-76.000022888183594
 30
0.0
 11
-13.139745962155551
 21
-76.000022888183594
 31
0.0
  0
ARC
  5
5B7
100
AcDbEntity
  8
0
  6
CONTINUOUS
 62
               4
100
AcDbCircle
 10
22.100000000000001
 20
-99.300022888183605
 30
0.0
 40
0.3
100
AcDbArc
 50
269.9999999999992
 51
359.99999999999937
  0
ARC
  5
5B8
100
AcDbEntity
  8
0
  6
CONTINUOUS
 62
               4
100
AcDbCircle
 10
7.4999999999999787
 20
-97.900022888183599
 30
0.0
 40
0.5
100
AcDbArc
 50
269.9999999999992
 51
359.99999999999937
  0
ARC
  5
5B9
100
AcDbEntity
  8
0
  6
CONTINUOUS
 62
               4
100
AcDbCircle
 10
5.8999999999999559
 20
-99.300022888183605
 30
0.0
 40
0.3
100
AcDbArc
 50
179.9999999999998
 51
270.0
  0
ARC
  5
5BA
100
AcDbEntity
  8
0
  6
CONTINUOUS
 62
               4
100
AcDbCircle
 10
20.499999999999979
 20
-97.900022888183599
 30
0.0
 40
0.5
100
AcDbArc
 50
179.9999999999998
 51
270.0
  0
LINE
  5
5BB
100
AcDbEntity
  8
0
  6
CONTINUOUS
 62
               4
100
AcDbLine
 10
22.399999999999956
 20
-99.300703888183591
 30
0.0
 11
22.399999999999956
 21
-98.400022888183599
 31
0.0
  0
LINE
  5
5BC
100
AcDbEntity
  8
0
  6
CONTINUOUS
 62
               4
100
AcDbLine
 10
5.8999999999999559
 20
-99.600022888183588
 30
0.0
 11
22.100000000000001
 21
-99.600022888183588
 31
0.0
  0
LINE
  5
5BD
100
AcDbEntity
  8
0
  6
CONTINUOUS
 62
               4
100
AcDbLine
 10
22.399999999999956
 20
-98.400022888183599
 30
0.0
 11
5.6000000000000014
 21
-98.400022888183599
 31
0.0
  0
LINE
  5
5BE
100
AcDbEntity
  8
0
  6
CONTINUOUS
 62
               4
100
AcDbLine
 10
5.6000000000000014
 20
-99.300703888183591
 30
0.0
 11
5.6000000000000014
 21
-98.400022888183599
 31
0.0
  0
LINE
  5
5BF
100
AcDbEntity
  8
0
  6
CONTINUOUS
 62
               4
100
AcDbLine
 10
7.9999999999999787
 20
-97.900022888183599
 30
0.0
 11
7.9999999999999787
 21
-97.500022888183594
 31
0.0
  0
LINE
  5
5C0
100
AcDbEntity
  8
0
  6
CONTINUOUS
 62
               4
100
AcDbLine
 10
21.100000000000001
 20
-97.400022888183599
 30
0.0
 11
21.100000000000001
 21
-96.400021888183602
 31
0.0
  0
LINE
  5
5C1
100
AcDbEntity
  8
0
  6
CONTINUOUS
 62
               4
100
AcDbLine
 10
20.999999999999979
 20
-97.500022888183594
 30
0.0
 11
21.100000000000001
 21
-97.400022888183599
 31
0.0
  0
LINE
  5
5C2
100
AcDbEntity
  8
0
  6
CONTINUOUS
 62
               4
100
AcDbLine
 10
6.9999999999999787
 20
-97.500022888183594
 30
0.0
 11
6.8999999999999559
 21
-97.400022888183599
 31
0.0
  0
LINE
  5
5C3
100
AcDbEntity
  8
0
  6
CONTINUOUS
 62
               4
100
AcDbLine
 10
6.9999999999999787
 20
-97.500022888183594
 30
0.0
 11
20.999999999999979
 21
-97.500022888183594
 31
0.0
  0
LINE
  5
5C4
100
AcDbEntity
  8
0
  6
CONTINUOUS
 62
               4
100
AcDbLine
 10
6.8999999999999559
 20
-97.400022888183599
 30
0.0
 11
6.8999999999999559
 21
-96.400021888183602
 31
0.0
  0
LINE
  5
5C5
100
AcDbEntity
  8
0
  6
CONTINUOUS
 62
               4
100
AcDbLine
 10
22.899999999999956
 20
-91.900022888183599
 30
0.0
 11
5.1000000000000014
 21
-91.900022888183599
 31
0.0
  0
LINE
  5
5C6
100
AcDbEntity
  8
0
  6
CONTINUOUS
 62
               4
100
AcDbLine
 10
6.1000000000000014
 20
-96.400021888183602
 30
0.0
 11
21.899999200000003
 21
-96.400021888183602
 31
0.0
  0
LINE
  5
5C7
100
AcDbEntity
  8
0
  6
CONTINUOUS
 62
               4
100
AcDbLine
 10
4.9999999999999787
 20
-95.364935888183595
 30
0.0
 11
5.753590399999986
 21
-95.800021888183608
 31
0.0
  0
LINE
  5
5C8
100
AcDbEntity
  8
0
  6
CONTINUOUS
 62
               4
100
AcDbLine
 10
22.999999999999979
 20
-95.364935888183595
 30
0.0
 11
22.246409599999971
 21
-95.800021888183608
 31
0.0
  0
LINE
  5
5C9
100
AcDbEntity
  8
0
  6
CONTINUOUS
 62
               4
100
AcDbLine
 10
22.246409599999971
 20
-95.800021888183608
 30
0.0
 11
21.899999200000003
 21
-96.400021888183602
 31
0.0
  0
LINE
  5
5CA
100
AcDbEntity
  8
0
  6
CONTINUOUS
 62
               4
100
AcDbLine
 10
5.753590399999986
 20
-95.800021888183608
 30
0.0
 11
6.1000007999999539
 21
-96.400021888183602
 31
0.0
  0
LINE
  5
5CB
100
AcDbEntity
  8
0
  6
CONTINUOUS
 62
               4
100
AcDbLine
 10
22.799999999999933
 20
-92.800022888183605
 30
0.0
 11
5.2000000000000242
 21
-92.800022888183605
 31
0.0
  0
LINE
  5
5CC
100
AcDbEntity
  8
0
  6
CONTINUOUS
 62
               4
100
AcDbLine
 10
22.999999999999979
 20
-95.364936888183593
 30
0.0
 11
22.999999999999979
 21
-93.000022888183594
 31
0.0
  0
LINE
  5
5CD
100
AcDbEntity
  8
0
  6
CONTINUOUS
 62
               4
100
AcDbLine
 10
22.799999999999933
 20
-92.800022888183605
 30
0.0
 11
22.999999999999979
 21
-93.000022888183594
 31
0.0
  0
LINE
  5
5CE
100
AcDbEntity
  8
0
  6
CONTINUOUS
 62
               4
100
AcDbLine
 10
4.9999999999999787
 20
-95.364936888183593
 30
0.0
 11
4.9999999999999787
 21
-93.000022888183594
 31
0.0
  0
LINE
  5
5CF
100
AcDbEntity
  8
0
  6
CONTINUOUS
 62
               4
100
AcDbLine
 10
22.799999999999933
 20
-86.900022288183607
 30
0.0
 11
22.999999999999979
 21
-87.100022488183583
 31
0.0
  0
LINE
  5
5D0
100
AcDbEntity
  8
0
  6
CONTINUOUS
 62
               4
100
AcDbLine
 10
5.2000000000000242
 20
-86.900022488183595
 30
0.0
 11
22.799999999999933
 21
-86.900022488183595
 31
0.0
  0
LINE
  5
5D1
100
AcDbEntity
  8
0
  6
CONTINUOUS
 62
               4
100
AcDbLine
 10
22.999999999999979
 20
-91.800022888183605
 30
0.0
 11
22.999999999999979
 21
-87.100022488183583
 31
0.0
  0
LINE
  5
5D2
100
AcDbEntity
  8
0
  6
CONTINUOUS
 62
               4
100
AcDbLine
 10
22.999999999999979
 20
-91.800022888183605
 30
0.0
 11
22.899999999999956
 21
-91.900022888183599
 31
0.0
  0
LINE
  5
5D3
100
AcDbEntity
  8
0
  6
CONTINUOUS
 62
               4
100
AcDbLine
 10
22.999999999999979
 20
-86.700022888183582
 30
0.0
 11
22.999999999999979
 21
-75.503317288183581
 31
0.0
  0
LINE
  5
5D4
100
AcDbEntity
  8
0
  6
CONTINUOUS
 62
               4
100
AcDbLine
 10
22.299999999999933
 20
-92.800022888183605
 30
0.0
 11
22.299999999999933
 21
-91.900022888183599
 31
0.0
  0
LINE
  5
5D5
100
AcDbEntity
  8
0
  6
CONTINUOUS
 62
               4
100
AcDbLine
 10
22.799999999999933
 20
-86.900022888183599
 30
0.0
 11
22.999999999999979
 21
-86.700022688183594
 31
0.0
  0
LINE
  5
5D6
100
AcDbEntity
  8
0
  6
CONTINUOUS
 62
               4
100
AcDbLine
 10
4.9999999999999787
 20
-87.100022488183583
 30
0.0
 11
22.999999999999979
 21
-87.100022488183583
 31
0.0
  0
LINE
  5
5D7
100
AcDbEntity
  8
0
  6
CONTINUOUS
 62
               4
100
AcDbLine
 10
19.999999999999979
 20
-97.900022888183599
 30
0.0
 11
19.999999999999979
 21
-97.500022888183594
 31
0.0
  0
LINE
  5
5D8
100
AcDbEntity
  8
0
  6
CONTINUOUS
 62
               4
100
AcDbLine
 10
6.8999999999999559
 20
-97.400022888183599
 30
0.0
 11
21.100000000000001
 21
-97.400022888183599
 31
0.0
  0
LINE
  5
5D9
100
AcDbEntity
  8
0
  6
CONTINUOUS
 62
               4
100
AcDbLine
 10
5.753590399999986
 20
-95.800021888183608
 30
0.0
 11
22.246409599999971
 21
-95.800021888183608
 31
0.0
  0
LINE
  5
5DA
100
AcDbEntity
  8
0
  6
CONTINUOUS
 62
               4
100
AcDbLine
 10
4.9999999999999787
 20
-95.364935888183595
 30
0.0
 11
22.999999999999979
 21
-95.364935888183595
 31
0.0
  0
LINE
  5
5DB
100
AcDbEntity
  8
0
  6
CONTINUOUS
 62
               4
100
AcDbLine
 10
4.9999999999999787
 20
-93.000022888183594
 30
0.0
 11
22.999999999999979
 21
-93.000022888183594
 31
0.0
  0
LINE
  5
5DC
100
AcDbEntity
  8
0
  6
CONTINUOUS
 62
               4
100
AcDbLine
 10
4.9999999999999787
 20
-91.800022888183605
 30
0.0
 11
22.999999999999979
 21
-91.800022888183605
 31
0.0
  0
LINE
  5
5DD
100
AcDbEntity
  8
0
  6
CONTINUOUS
 62
             200
100
AcDbLine
 10
-5.0000000000000213
 20
-103.59316739382506
 30
0.0
 11
-5.0000000000000213
 21
-76.000022888183594
 31
0.0
  0
LINE
  5
5DE
100
AcDbEntity
  8
0
  6
CONTINUOUS
 62
             200
100
AcDbLine
 10
13.999999999999979
 20
-103.59316739382506
 30
0.0
 11
13.999999999999979
 21
-76.000022888183594
 31
0.0
  0
LINE
  5
5DF
100
AcDbEntity
  8
0
  6
CONTINUOUS
 62
               4
100
AcDbLine
 10
3.9999999999999787
 20
-86.700022888183582
 30
0.0
 11
3.9999999999999787
 21
-76.000022888183594
 31
0.0
  0
LINE
  5
5E0
100
AcDbEntity
  8
0
  6
CONTINUOUS
 62
               4
100
AcDbLine
 10
3.9999999999999787
 20
-91.800022888183605
 30
0.0
 11
3.9999999999999787
 21
-87.100022488183583
 31
0.0
  0
LINE
  5
5E1
100
AcDbEntity
  8
0
  6
CONTINUOUS
 62
               4
100
AcDbLine
 10
3.9999999999999787
 20
-95.364936888183593
 30
0.0
 11
3.9999999999999787
 21
-93.000022888183594
 31
0.0
  0
LINE
  5
5E2
100
AcDbEntity
  8
0
  6
CONTINUOUS
 62
               4
100
AcDbLine
 10
3.2999999999999332
 20
-92.800022888183605
 30
0.0
 11
3.2999999999999332
 21
-91.900022888183599
 31
0.0
  0
LINE
  5
5E3
100
AcDbEntity
  8
0
  6
CONTINUOUS
 62
               4
100
AcDbLine
 10
3.9999999999999787
 20
-91.800022888183605
 30
0.0
 11
3.8999999999999559
 21
-91.900022888183599
 31
0.0
  0
LINE
  5
5E4
100
AcDbEntity
  8
0
  6
CONTINUOUS
 62
               4
100
AcDbLine
 10
3.7999999999999332
 20
-86.900022288183607
 30
0.0
 11
3.9999999999999787
 21
-87.100022488183583
 31
0.0
  0
LINE
  5
5E5
100
AcDbEntity
  8
0
  6
CONTINUOUS
 62
               4
100
AcDbLine
 10
3.7999999999999332
 20
-86.900022888183599
 30
0.0
 11
3.9999999999999787
 21
-86.700022688183594
 31
0.0
  0
LINE
  5
5E6
100
AcDbEntity
  8
0
  6
CONTINUOUS
 62
               4
100
AcDbLine
 10
4.9999999999999787
 20
-86.700022888183582
 30
0.0
 11
4.9999999999999787
 21
-76.000022888183594
 31
0.0
  0
LINE
  5
5E7
100
AcDbEntity
  8
0
  6
CONTINUOUS
 62
               4
100
AcDbLine
 10
5.2000000000000242
 20
-86.900022888183599
 30
0.0
 11
4.9999999999999787
 21
-86.700022688183594
 31
0.0
  0
LINE
  5
5E8
100
AcDbEntity
  8
0
  6
CONTINUOUS
 62
               4
100
AcDbLine
 10
5.2000000000000242
 20
-86.900022288183607
 30
0.0
 11
4.9999999999999787
 21
-87.100022488183583
 31
0.0
  0
LINE
  5
5E9
100
AcDbEntity
  8
0
  6
CONTINUOUS
 62
               4
100
AcDbLine
 10
4.9999999999999787
 20
-91.800022888183605
 30
0.0
 11
4.9999999999999787
 21
-87.100022488183583
 31
0.0
  0
LINE
  5
5EA
100
AcDbEntity
  8
0
  6
CONTINUOUS
 62
               4
100
AcDbLine
 10
4.9999999999999787
 20
-91.800022888183605
 30
0.0
 11
5.1000000000000014
 21
-91.900022888183599
 31
0.0
  0
LINE
  5
5EB
100
AcDbEntity
  8
0
  6
CONTINUOUS
 62
               4
100
AcDbLine
 10
5.7000000000000242
 20
-92.800022888183605
 30
0.0
 11
5.7000000000000242
 21
-91.900022888183599
 31
0.0
  0
LINE
  5
5EC
100
AcDbEntity
  8
0
  6
CONTINUOUS
 62
               4
100
AcDbLine
 10
5.2000000000000242
 20
-92.800022888183605
 30
0.0
 11
4.9999999999999787
 21
-93.000022888183594
 31
0.0
  0
LINE
  5
5ED
100
AcDbEntity
  8
0
  6
CONTINUOUS
 62
               4
100
AcDbLine
 10
3.7999999999999332
 20
-92.800022888183605
 30
0.0
 11
3.9999999999999787
 21
-93.000022888183594
 31
0.0
  0
LINE
  5
5EE
100
AcDbEntity
  8
0
  6
CONTINUOUS
 62
               4
100
AcDbLine
 10
21.499992370605447
 20
-76.000022888183594
 30
0.0
 11
21.499992370605447
 21
-73.0
 31
0.0
  0
LINE
  5
5EF
100
AcDbEntity
  8
0
  6
CONTINUOUS
 62
               4
100
AcDbLine
 10
27.335938028359216
 20
-73.0
 30
0.0
 11
22.139745962155509
 21
-76.000022888183594
 31
0.0
  0
LINE
  5
5F0
100
AcDbEntity
  8
0
  6
CONTINUOUS
 62
               4
100
AcDbLine
 10
-18.335911599361246
 20
-73.000015258789006
 30
0.0
 11
-13.139745962155551
 21
-76.000022888183594
 31
0.0
  0
LINE
  5
5F1
100
AcDbEntity
  8
0
  6
CONTINUOUS
 62
               4
100
AcDbLine
 10
-14.500000000000021
 20
-75.214679853267853
 30
0.0
 11
-14.500000000000021
 21
-73.0
 31
0.0
  0
ENDBLK
  5
5F2
100
AcDbEntity
  8
0
100
AcDbBlockEnd
  0
BLOCK
  5
5F3
100
AcDbEntity
  8
0
100
AcDbBlockBegin
  2
F18MNJ-18
 70
               0
 10
0.0
 20
0.0
 30
0.0
  3
F18MNJ-18
  1

  0
LINE
  5
5F4
100
AcDbEntity
  8
0
  6
CONTINUOUS
 62
               2
100
AcDbLine
 10
9.50006103515625
 20
-23.38555908203125
 30
0.0
 11
9.50006103515625
 21
32.42935848236084
 31
0.0
  0
LINE
  5
5F5
100
AcDbEntity
  8
0
  6
CONTINUOUS
 62
               7
100
AcDbLine
 10
0.0
 20
31.0
 30
0.0
 11
19.0
 21
31.0
 31
0.0
  0
ARC
  5
5F6
100
AcDbEntity
  8
0
  6
CONTINUOUS
 62
               4
100
AcDbCircle
 10
1.7000579833984375
 20
34.699996948242188
 30
0.0
 40
1.5
100
AcDbArc
 50
89.999982013910653
 51
179.99996402782131
  0
ARC
  5
5F7
100
AcDbEntity
  8
0
  6
CONTINUOUS
 62
               4
100
AcDbCircle
 10
4.3000640869140625
 20
34.699996948242188
 30
0.0
 40
1.5
100
AcDbArc
 50
0.0
 51
89.999982013910653
  0
ARC
  5
5F8
100
AcDbEntity
  8
0
  6
CONTINUOUS
 62
               4
100
AcDbCircle
 10
14.700057983398437
 20
34.699996948242188
 30
0.0
 40
1.5
100
AcDbArc
 50
89.999982013910653
 51
179.99996402782131
  0
ARC
  5
5F9
100
AcDbEntity
  8
0
  6
CONTINUOUS
 62
               4
100
AcDbCircle
 10
17.300064086914062
 20
34.699996948242188
 30
0.0
 40
1.5
100
AcDbArc
 50
0.0
 51
89.999982013910653
  0
LINE
  5
5FA
100
AcDbEntity
  8
0
  6
CONTINUOUS
 62
               7
100
AcDbLine
 10
0.0
 20
31.0
 30
0.0
 11
0.0
 21
-22.0
 31
0.0
  0
LINE
  5
5FB
100
AcDbEntity
  8
0
  6
CONTINUOUS
 62
               4
100
AcDbLine
 10
14.700057983398437
 20
36.199996948242188
 30
0.0
 11
17.300064086914062
 21
36.199996948242188
 31
0.0
  0
LINE
  5
5FC
100
AcDbEntity
  8
0
  6
CONTINUOUS
 62
               4
100
AcDbLine
 10
1.7000579833984375
 20
36.199996948242188
 30
0.0
 11
4.3000640869140625
 21
36.199996948242188
 31
0.0
  0
LINE
  5
5FD
100
AcDbEntity
  8
0
  6
CONTINUOUS
 62
               4
100
AcDbLine
 10
13.200057983398438
 20
34.699996948242188
 30
0.0
 11
13.200057983398438
 21
34.199996948242188
 31
0.0
  0
LINE
  5
5FE
100
AcDbEntity
  8
0
  6
CONTINUOUS
 62
               4
100
AcDbLine
 10
18.800064086914063
 20
34.699996948242188
 30
0.0
 11
18.800064086914063
 21
34.199996948242188
 31
0.0
  0
LINE
  5
5FF
100
AcDbEntity
  8
0
  6
CONTINUOUS
 62
               4
100
AcDbLine
 10
0.2000579833984375
 20
34.699996948242188
 30
0.0
 11
0.2000579833984375
 21
34.199996948242188
 31
0.0
  0
LINE
  5
600
100
AcDbEntity
  8
0
  6
CONTINUOUS
 62
               4
100
AcDbLine
 10
5.8000640869140625
 20
34.699996948242188
 30
0.0
 11
5.8000640869140625
 21
34.199996948242188
 31
0.0
  0
LINE
  5
601
100
AcDbEntity
  8
0
  6
CONTINUOUS
 62
               4
100
AcDbLine
 10
18.50006103515625
 20
34.199996948242188
 30
0.0
 11
18.50006103515625
 21
31.0
 31
0.0
  0
LINE
  5
602
100
AcDbEntity
  8
0
  6
CONTINUOUS
 62
               4
100
AcDbLine
 10
0.50006103515625
 20
34.199996948242188
 30
0.0
 11
0.50006103515625
 21
31.0
 31
0.0
  0
LINE
  5
603
100
AcDbEntity
  8
0
  6
CONTINUOUS
 62
             200
100
AcDbLine
 10
9.50006103515625
 20
36.59344482421875
 30
0.0
 11
9.50006103515625
 21
28.646881103515625
 31
0.0
  0
LINE
  5
604
100
AcDbEntity
  8
0
  6
CONTINUOUS
 62
               4
100
AcDbLine
 10
0.2000579833984375
 20
34.199996948242188
 30
0.0
 11
18.800064086914063
 21
34.199996948242188
 31
0.0
  0
LINE
  5
605
100
AcDbEntity
  8
0
  6
CONTINUOUS
 62
               4
100
AcDbLine
 10
18.50006103515625
 20
-21.79998779296875
 30
0.0
 11
18.50006103515625
 21
-18.645645141601562
 31
0.0
  0
LINE
  5
606
100
AcDbEntity
  8
0
  6
CONTINUOUS
 62
               4
100
AcDbLine
 10
0.50006103515625
 20
-21.79998779296875
 30
0.0
 11
0.50006103515625
 21
-18.5
 31
0.0
  0
LINE
  5
607
100
AcDbEntity
  8
0
  6
CONTINUOUS
 62
               4
100
AcDbLine
 10
0.5000619888305664
 20
30.799999237060547
 30
0.0
 11
18.50006103515625
 21
30.799999237060547
 31
0.0
  0
LINE
  5
608
100
AcDbEntity
  8
0
  6
CONTINUOUS
 62
               4
100
AcDbLine
 10
0.5000581741333008
 20
-21.79998779296875
 30
0.0
 11
18.500057220458984
 21
-21.79998779296875
 31
0.0
  0
LINE
  5
609
100
AcDbEntity
  8
0
  6
CONTINUOUS
 62
               4
100
AcDbLine
 10
16.000058174133301
 20
-14.5
 30
0.0
 11
18.500058174133301
 21
-14.5
 31
0.0
  0
LINE
  5
60A
100
AcDbEntity
  8
0
  6
CONTINUOUS
 62
               4
100
AcDbLine
 10
13.00006103515625
 20
-21.79998779296875
 30
0.0
 11
13.00006103515625
 21
-17.5
 31
0.0
  0
LINE
  5
60B
100
AcDbEntity
  8
0
  6
CONTINUOUS
 62
               4
100
AcDbLine
 10
6.00006103515625
 20
26.499999773506318
 30
0.0
 11
6.00006103515625
 21
30.799999237060547
 31
0.0
  0
LINE
  5
60C
100
AcDbEntity
  8
0
  6
CONTINUOUS
 62
               4
100
AcDbLine
 10
0.50006103515625
 20
23.5
 30
0.0
 11
3.0000608086625675
 21
23.5
 31
0.0
  0
LINE
  5
60D
100
AcDbEntity
  8
0
  6
CONTINUOUS
 62
               4
100
AcDbLine
 10
17.060719094973138
 20
-18.560656592602754
 30
0.0
 11
14.939398966532281
 21
-16.439335927720094
 31
0.0
  0
LINE
  5
60E
100
AcDbEntity
  8
0
  6
CONTINUOUS
 62
               4
100
AcDbLine
 10
4.0607192119460365
 20
25.439337780128497
 30
0.0
 11
1.9393990835051795
 21
27.560658445011157
 31
0.0
  0
LINE
  5
60F
100
AcDbEntity
  8
0
  6
CONTINUOUS
 62
               4
100
AcDbLine
 10
1.9394009932711356
 20
25.439339645223342
 30
0.0
 11
4.0607214793398612
 21
27.560659952478133
 31
0.0
  0
LINE
  5
610
100
AcDbEntity
  8
0
  6
CONTINUOUS
 62
               4
100
AcDbLine
 10
14.939402496640469
 20
-18.560655317970486
 30
0.0
 11
17.060722982709194
 21
-16.439335010715695
 31
0.0
  0
LINE
  5
611
100
AcDbEntity
  8
0
  6
CONTINUOUS
 62
               4
100
AcDbLine
 10
18.50006103515625
 20
-16.354354858398437
 30
0.0
 11
18.50006103515625
 21
21.499999046325684
 31
0.0
  0
LINE
  5
612
100
AcDbEntity
  8
0
  6
CONTINUOUS
 62
               4
100
AcDbLine
 10
0.50006103515625
 20
27.645644187927246
 30
0.0
 11
0.50006103515625
 21
30.799999237060547
 31
0.0
  0
LINE
  5
613
100
AcDbEntity
  8
0
  6
CONTINUOUS
 62
               4
100
AcDbLine
 10
0.5000581741333008
 20
-18.5
 30
0.0
 11
3.000057637750615
 21
-18.5
 31
0.0
  0
LINE
  5
614
100
AcDbEntity
  8
0
  6
CONTINUOUS
 62
               4
100
AcDbLine
 10
0.5000581741333008
 20
-12.5
 30
0.0
 11
3.0000580907380936
 21
-12.5
 31
0.0
  0
LINE
  5
615
100
AcDbEntity
  8
0
  6
CONTINUOUS
 62
               4
100
AcDbLine
 10
16.00006103515625
 20
21.5
 30
0.0
 11
18.50006103515625
 21
21.5
 31
0.0
  0
LINE
  5
616
100
AcDbEntity
  8
0
  6
CONTINUOUS
 62
               4
100
AcDbLine
 10
16.00006103515625
 20
27.5
 30
0.0
 11
18.50006103515625
 21
27.5
 31
0.0
  0
LINE
  5
617
100
AcDbEntity
  8
0
  6
CONTINUOUS
 62
               4
100
AcDbLine
 10
0.50006103515625
 20
-12.5
 30
0.0
 11
0.50006103515625
 21
25.35435676574707
 31
0.0
  0
LINE
  5
618
100
AcDbEntity
  8
0
  6
CONTINUOUS
 62
               4
100
AcDbLine
 10
18.50006103515625
 20
27.499998807907104
 30
0.0
 11
18.50006103515625
 21
30.79999828338623
 31
0.0
  0
LINE
  5
619
100
AcDbEntity
  8
0
  6
CONTINUOUS
 62
             200
100
AcDbLine
 10
0.0000591278076172
 20
-5.0
 30
0.0
 11
19.000059127807617
 21
-5.0
 31
0.0
  0
LINE
  5
61A
100
AcDbEntity
  8
0
  6
CONTINUOUS
 62
             200
100
AcDbLine
 10
0.0000600814819336
 20
14.0
 30
0.0
 11
19.000060081481934
 21
14.0
 31
0.0
  0
ARC
  5
61B
100
AcDbEntity
  8
0
  6
CONTINUOUS
 62
               4
100
AcDbCircle
 10
16.000058174133301
 20
-17.5
 30
0.0
 40
3.0
100
AcDbArc
 50
89.999982013910653
 51
179.99996402782131
  0
ARC
  5
61C
100
AcDbEntity
  8
0
  6
CONTINUOUS
 62
               4
100
AcDbCircle
 10
3.00006103515625
 20
26.5
 30
0.0
 40
3.0
100
AcDbArc
 50
270.00001798608935
 51
0.00001366037834
  0
CIRCLE
  5
61D
100
AcDbEntity
  8
0
  6
CONTINUOUS
 62
               4
100
AcDbCircle
 10
16.000058174133301
 20
-17.5
 30
0.0
 40
2.75
  0
CIRCLE
  5
61E
100
AcDbEntity
  8
0
  6
CONTINUOUS
 62
               4
100
AcDbCircle
 10
3.00006103515625
 20
26.5
 30
0.0
 40
2.75
  0
ARC
  5
61F
100
AcDbEntity
  8
0
  6
CONTINUOUS
 62
               4
100
AcDbCircle
 10
3.000057864244809
 20
-15.5
 30
0.0
 40
3.0
100
AcDbArc
 50
270.00001798608935
 51
89.999982013910653
  0
ARC
  5
620
100
AcDbEntity
  8
0
  6
CONTINUOUS
 62
               4
100
AcDbCircle
 10
16.00006103515625
 20
24.499999046325684
 30
0.0
 40
3.0
100
AcDbArc
 50
89.999982013910653
 51
269.99994604173196
  0
CIRCLE
  5
621
100
AcDbEntity
  8
0
  6
CONTINUOUS
 62
               4
100
AcDbCircle
 10
9.50006103515625
 20
14.0
 30
0.0
 40
8.9499999999999993
  0
ARC
  5
622
100
AcDbEntity
  8
0
  6
CONTINUOUS
 62
               4
100
AcDbCircle
 10
9.50006103515625
 20
14.0
 30
0.0
 40
8.4000000000000004
100
AcDbArc
 50
187.18484031495424
 51
352.81515968504578
  0
CIRCLE
  5
623
100
AcDbEntity
  8
0
  6
CONTINUOUS
 62
               4
100
AcDbCircle
 10
9.50006103515625
 20
14.0
 30
0.0
 40
5.0499999999999998
  0
CIRCLE
  5
624
100
AcDbEntity
  8
0
  6
CONTINUOUS
 62
               4
100
AcDbCircle
 10
9.50006103515625
 20
14.0
 30
0.0
 40
4.0499999999999998
  0
ARC
  5
625
100
AcDbEntity
  8
0
  6
CONTINUOUS
 62
               4
100
AcDbCircle
 10
9.50006103515625
 20
14.0
 30
0.0
 40
8.4000000000000004
100
AcDbArc
 50
7.1848403149542639
 51
172.81515968504576
  0
CIRCLE
  5
626
100
AcDbEntity
  8
0
  6
CONTINUOUS
 62
               4
100
AcDbCircle
 10
9.50006103515625
 20
-5.0
 30
0.0
 40
8.9499999999999993
  0
ARC
  5
627
100
AcDbEntity
  8
0
  6
CONTINUOUS
 62
               4
100
AcDbCircle
 10
9.50006103515625
 20
-5.0
 30
0.0
 40
8.4000000000000004
100
AcDbArc
 50
7.1848403149542639
 51
172.81515968504576
  0
LINE
  5
628
100
AcDbEntity
  8
0
  6
CONTINUOUS
 62
               7
100
AcDbLine
 10
10.25006103515625
 20
4.1902121847104326
 30
0.0
 11
10.25006103515625
 21
4.8097878152895817
 31
0.0
  0
LINE
  5
629
100
AcDbEntity
  8
0
  6
CONTINUOUS
 62
               7
100
AcDbLine
 10
8.75006103515625
 20
4.1902121847104326
 30
0.0
 11
8.75006103515625
 21
4.8097878152895817
 31
0.0
  0
ARC
  5
62A
100
AcDbEntity
  8
0
  6
CONTINUOUS
 62
               7
100
AcDbCircle
 10
8.4500610351562386
 20
4.8097878152895817
 30
0.0
 40
0.3
100
AcDbArc
 50
0.0
 51
83.482105791022747
  0
ARC
  5
62B
100
AcDbEntity
  8
0
  6
CONTINUOUS
 62
               7
100
AcDbCircle
 10
8.4500610351562386
 20
4.1902121847104326
 30
0.0
 40
0.3
100
AcDbArc
 50
276.51789420897717
 51
0.0
  0
ARC
  5
62C
100
AcDbEntity
  8
0
  6
CONTINUOUS
 62
               7
100
AcDbCircle
 10
10.550061035156205
 20
4.8097878152895817
 30
0.0
 40
0.3
100
AcDbArc
 50
96.517894208978589
 51
180.0
  0
ARC
  5
62D
100
AcDbEntity
  8
0
  6
CONTINUOUS
 62
               7
100
AcDbCircle
 10
10.550061035156205
 20
4.1902121847104326
 30
0.0
 40
0.3
100
AcDbArc
 50
180.0
 51
263.48210579102283
  0
CIRCLE
  5
62E
100
AcDbEntity
  8
0
  6
CONTINUOUS
 62
               4
100
AcDbCircle
 10
9.50006103515625
 20
-5.0
 30
0.0
 40
5.0499999999999998
  0
CIRCLE
  5
62F
100
AcDbEntity
  8
0
  6
CONTINUOUS
 62
               4
100
AcDbCircle
 10
9.50006103515625
 20
-5.0
 30
0.0
 40
4.0499999999999998
  0
LINE
  5
630
100
AcDbEntity
  8
0
  6
CONTINUOUS
 62
               4
100
AcDbLine
 10
17.400061035156227
 20
13.200000000000003
 30
0.0
 11
17.834102790846714
 21
12.949405875512568
 31
0.0
  0
LINE
  5
631
100
AcDbEntity
  8
0
  6
CONTINUOUS
 62
               4
100
AcDbLine
 10
17.400061035156227
 20
14.799999999999997
 30
0.0
 11
17.834102790846714
 21
15.050594124487432
 31
0.0
  0
LINE
  5
632
100
AcDbEntity
  8
0
  6
CONTINUOUS
 62
               4
100
AcDbLine
 10
17.400061035156227
 20
13.200000000000003
 30
0.0
 11
17.400061035156227
 21
14.799999994039538
 31
0.0
  0
LINE
  5
633
100
AcDbEntity
  8
0
  6
CONTINUOUS
 62
               4
100
AcDbLine
 10
1.6000610351562727
 20
14.799999999999997
 30
0.0
 11
1.166019279465786
 21
15.050594124487432
 31
0.0
  0
LINE
  5
634
100
AcDbEntity
  8
0
  6
CONTINUOUS
 62
               4
100
AcDbLine
 10
1.6000610351562727
 20
13.200000000000003
 30
0.0
 11
1.166019279465786
 21
12.949405875512568
 31
0.0
  0
LINE
  5
635
100
AcDbEntity
  8
0
  6
CONTINUOUS
 62
               4
100
AcDbLine
 10
1.6000610351562727
 20
13.200000000000003
 30
0.0
 11
1.6000610351562727
 21
14.799999994039538
 31
0.0
  0
ARC
  5
636
100
AcDbEntity
  8
0
  6
CONTINUOUS
 62
               4
100
AcDbCircle
 10
9.50006103515625
 20
-5.0
 30
0.0
 40
8.4000000000000004
100
AcDbArc
 50
187.18484031495424
 51
352.81515968504578
  0
LINE
  5
637
100
AcDbEntity
  8
0
  6
CONTINUOUS
 62
               4
100
AcDbLine
 10
1.6000610351562727
 20
-5.7999999999999972
 30
0.0
 11
1.166019279465786
 21
-6.0505941244874322
 31
0.0
  0
LINE
  5
638
100
AcDbEntity
  8
0
  6
CONTINUOUS
 62
               4
100
AcDbLine
 10
1.6000610351562727
 20
-4.1999999999999957
 30
0.0
 11
1.166019279465786
 21
-3.9494058755125678
 31
0.0
  0
LINE
  5
639
100
AcDbEntity
  8
0
  6
CONTINUOUS
 62
               4
100
AcDbLine
 10
1.6000610351562727
 20
-5.7999999999999972
 30
0.0
 11
1.6000610351562727
 21
-4.2000000059604616
 31
0.0
  0
LINE
  5
63A
100
AcDbEntity
  8
0
  6
CONTINUOUS
 62
               4
100
AcDbLine
 10
17.400061035156227
 20
-5.7999999999999972
 30
0.0
 11
17.834102790846714
 21
-6.0505941244874322
 31
0.0
  0
LINE
  5
63B
100
AcDbEntity
  8
0
  6
CONTINUOUS
 62
               4
100
AcDbLine
 10
17.400061035156227
 20
-4.1999999999999957
 30
0.0
 11
17.834102790846714
 21
-3.9494058755125678
 31
0.0
  0
LINE
  5
63C
100
AcDbEntity
  8
0
  6
CONTINUOUS
 62
               4
100
AcDbLine
 10
17.400061035156227
 20
-5.7999999999999972
 30
0.0
 11
17.400061035156227
 21
-4.2000000059604616
 31
0.0
  0
LINE
  5
63D
100
AcDbEntity
  8
0
  6
CONTINUOUS
 62
               4
100
AcDbLine
 10
0.50006103515625
 20
22.139745962155587
 30
0.0
 11
5.7789005076364219
 21
22.139745962155587
 31
0.0
  0
LINE
  5
63E
100
AcDbEntity
  8
0
  6
CONTINUOUS
 62
               4
100
AcDbLine
 10
13.221221566200256
 20
-13.139745962155587
 30
0.0
 11
18.50006103515625
 21
-13.139745962155587
 31
0.0
  0
LINE
  5
63F
100
AcDbEntity
  8
0
  6
CONTINUOUS
 62
               4
100
AcDbLine
 10
13.221221562676078
 20
22.139745962155587
 30
0.0
 11
14.148275183625572
 21
22.139745962155587
 31
0.0
  0
LINE
  5
640
100
AcDbEntity
  8
0
  6
CONTINUOUS
 62
               4
100
AcDbLine
 10
4.851895507516474
 20
-13.139745962155587
 30
0.0
 11
5.7789005041122437
 21
-13.139745962155587
 31
0.0
  0
LINE
  5
641
100
AcDbEntity
  8
0
  6
CONTINUOUS
 62
               7
100
AcDbLine
 10
19.0
 20
31.0
 30
0.0
 11
19.0
 21
-22.0
 31
0.0
  0
LINE
  5
642
100
AcDbEntity
  8
0
  6
CONTINUOUS
 62
               7
100
AcDbLine
 10
0.0
 20
-22.0
 30
0.0
 11
19.0
 21
-22.0
 31
0.0
  0
ENDBLK
  5
643
100
AcDbEntity
  8
0
100
AcDbBlockEnd
  0
BLOCK
  5
644
100
AcDbEntity
  8
0
100
AcDbBlockBegin
  2
F18MNJ-19
 70
               0
 10
0.0
 20
0.0
 30
0.0
  3
F18MNJ-19
  1

  0
LINE
  5
645
100
AcDbEntity
  8
0
  6
CONTINUOUS
 62
               2
100
AcDbLine
 10
9.5
 20
-67.998237304687507
 30
0.0
 11
9.5
 21
22.981762695312483
 31
0.0
  0
ARC
  5
646
100
AcDbEntity
  8
0
  6
CONTINUOUS
 62
               4
100
AcDbCircle
 10
17.999992370547261
 20
-79.498229675234768
 30
0.0
 40
0.5000076295109466
100
AcDbArc
 50
270.00087425754356
 51
359.99912574245639
  0
ARC
  5
647
100
AcDbEntity
  8
0
  6
CONTINUOUS
 62
               4
100
AcDbCircle
 10
1.0000076294527389
 20
-79.498229675234768
 30
0.0
 40
0.5000076295109466
100
AcDbArc
 50
180.00087425754359
 51
269.99912574245639
  0
ARC
  5
648
100
AcDbEntity
  8
0
  6
CONTINUOUS
 62
               4
100
AcDbCircle
 10
1.7499771123014511
 20
-71.498260192386056
 30
0.0
 40
1.4999771124760883
100
AcDbArc
 50
179.99912574097436
 51
270.00087425902541
  0
ARC
  5
649
100
AcDbEntity
  8
0
  6
CONTINUOUS
 62
               4
100
AcDbCircle
 10
4.2499618528527208
 20
-71.498199157540228
 30
0.0
 40
1.5000381476323352
100
AcDbArc
 50
270.00145707663717
 51
359.99854292336278
  0
CIRCLE
  5
64A
100
AcDbEntity
  8
0
  6
CONTINUOUS
 62
               4
100
AcDbCircle
 10
16.0
 20
-8.9982373046875068
 30
0.0
 40
2.7999992370605469
  0
CIRCLE
  5
64B
100
AcDbEntity
  8
0
  6
CONTINUOUS
 62
               4
100
AcDbCircle
 10
3.0
 20
-48.998222045898444
 30
0.0
 40
2.7999992370605469
  0
LINE
  5
64C
100
AcDbEntity
  8
0
  6
CONTINUOUS
 62
             200
100
AcDbLine
 10
9.5
 20
-67.998237304687507
 30
0.0
 11
9.5
 21
-82.058237304687509
 31
0.0
  0
LINE
  5
64D
100
AcDbEntity
  8
0
  6
CONTINUOUS
 62
               4
100
AcDbLine
 10
0.5
 20
-72.3182373046875
 30
0.0
 11
0.5
 21
-79.498237304687507
 31
0.0
  0
LINE
  5
64E
100
AcDbEntity
  8
0
  6
CONTINUOUS
 62
               4
100
AcDbLine
 10
6.0
 20
-70.998237304687507
 30
0.0
 11
6.0
 21
-74.998237304687507
 31
0.0
  0
LINE
  5
64F
100
AcDbEntity
  8
0
  6
CONTINUOUS
 62
               4
100
AcDbLine
 10
18.5
 20
-67.998237304687507
 30
0.0
 11
18.5
 21
-79.498237304687507
 31
0.0
  0
LINE
  5
650
100
AcDbEntity
  8
0
  6
CONTINUOUS
 62
               4
100
AcDbLine
 10
0.5
 20
-67.998237304687507
 30
0.0
 11
0.5
 21
-70.998237304687507
 31
0.0
  0
LINE
  5
651
100
AcDbEntity
  8
0
  6
CONTINUOUS
 62
               4
100
AcDbLine
 10
1.0
 20
-79.998237304687507
 30
0.0
 11
18.0
 21
-79.998237304687507
 31
0.0
  0
LINE
  5
652
100
AcDbEntity
  8
0
  6
CONTINUOUS
 62
               4
100
AcDbLine
 10
0.5
 20
-74.998237304687507
 30
0.0
 11
18.5
 21
-74.998237304687507
 31
0.0
  0
LINE
  5
653
100
AcDbEntity
  8
0
  6
CONTINUOUS
 62
               4
100
AcDbLine
 10
0.25
 20
-70.998237304687507
 30
0.0
 11
18.5
 21
-70.998237304687507
 31
0.0
  0
LINE
  5
654
100
AcDbEntity
  8
0
  6
CONTINUOUS
 62
               4
100
AcDbLine
 10
5.75
 20
-71.498237304687507
 30
0.0
 11
5.75
 21
-70.998237304687507
 31
0.0
  0
LINE
  5
655
100
AcDbEntity
  8
0
  6
CONTINUOUS
 62
               4
100
AcDbLine
 10
0.25
 20
-71.498237304687507
 30
0.0
 11
0.25
 21
-70.998237304687507
 31
0.0
  0
LINE
  5
656
100
AcDbEntity
  8
0
  6
CONTINUOUS
 62
               4
100
AcDbLine
 10
1.75
 20
-72.998237304687507
 30
0.0
 11
4.25
 21
-72.998237304687507
 31
0.0
  0
LINE
  5
657
100
AcDbEntity
  8
0
  6
CONTINUOUS
 62
               7
100
AcDbLine
 10
19.0
 20
-67.998237304687507
 30
0.0
 11
19.0
 21
17.001762695312493
 31
0.0
  0
LINE
  5
658
100
AcDbEntity
  8
0
  6
CONTINUOUS
 62
               7
100
AcDbLine
 10
0.0
 20
17.001762695312493
 30
0.0
 11
0.0
 21
-67.998237304687507
 31
0.0
  0
LINE
  5
659
100
AcDbEntity
  8
0
  6
CONTINUOUS
 62
               7
100
AcDbLine
 10
0.0
 20
17.001762695312493
 30
0.0
 11
19.0
 21
17.001762695312493
 31
0.0
  0
LINE
  5
65A
100
AcDbEntity
  8
0
  6
CONTINUOUS
 62
               7
100
AcDbLine
 10
0.0
 20
-67.998237304687507
 30
0.0
 11
19.0
 21
-67.998237304687507
 31
0.0
  0
LINE
  5
65B
100
AcDbEntity
  8
0
  6
CONTINUOUS
 62
               4
100
AcDbLine
 10
18.259999999999991
 20
-10.648237304687513
 30
0.0
 11
18.5
 21
-10.648237304687513
 31
0.0
  0
LINE
  5
65C
100
AcDbEntity
  8
0
  6
CONTINUOUS
 62
               4
100
AcDbLine
 10
18.259999999999991
 20
-7.3482373046875011
 30
0.0
 11
18.5
 21
-7.3482373046875011
 31
0.0
  0
LINE
  5
65D
100
AcDbEntity
  8
0
  6
CONTINUOUS
 62
               4
100
AcDbLine
 10
0.5
 20
-50.648237304687513
 30
0.0
 11
0.7300000000000182
 21
-50.648237304687513
 31
0.0
  0
LINE
  5
65E
100
AcDbEntity
  8
0
  6
CONTINUOUS
 62
               4
100
AcDbLine
 10
0.5
 20
-47.348237304687501
 30
0.0
 11
0.7300000000000182
 21
-47.348237304687501
 31
0.0
  0
LINE
  5
65F
100
AcDbEntity
  8
0
  6
CONTINUOUS
 62
               4
100
AcDbLine
 10
0.5
 20
10.001762695312493
 30
0.0
 11
18.5
 21
10.001762695312493
 31
0.0
  0
LINE
  5
660
100
AcDbEntity
  8
0
  6
CONTINUOUS
 62
               4
100
AcDbLine
 10
0.5
 20
-55.998237304687507
 30
0.0
 11
18.5
 21
-55.998237304687507
 31
0.0
  0
LINE
  5
661
100
AcDbEntity
  8
0
  6
CONTINUOUS
 62
               4
100
AcDbLine
 10
18.5
 20
-55.998237304687507
 30
0.0
 11
18.5
 21
-10.648237304687513
 31
0.0
  0
LINE
  5
662
100
AcDbEntity
  8
0
  6
CONTINUOUS
 62
               4
100
AcDbLine
 10
18.5
 20
-7.3482373046875011
 30
0.0
 11
18.5
 21
10.001762695312493
 31
0.0
  0
LINE
  5
663
100
AcDbEntity
  8
0
  6
CONTINUOUS
 62
               4
100
AcDbLine
 10
0.5
 20
-47.348237304687501
 30
0.0
 11
0.5
 21
10.001762695312493
 31
0.0
  0
LINE
  5
664
100
AcDbEntity
  8
0
  6
CONTINUOUS
 62
               4
100
AcDbLine
 10
14.939999999999998
 20
-7.9282373046875136
 30
0.0
 11
17.060000000000002
 21
-10.058237304687509
 31
0.0
  0
LINE
  5
665
100
AcDbEntity
  8
0
  6
CONTINUOUS
 62
               4
100
AcDbLine
 10
14.930000000000007
 20
-10.058237304687509
 30
0.0
 11
17.060000000000002
 21
-7.9282373046875136
 31
0.0
  0
LINE
  5
666
100
AcDbEntity
  8
0
  6
CONTINUOUS
 62
               4
100
AcDbLine
 10
1.9399999999999977
 20
-47.928237304687514
 30
0.0
 11
4.0600000000000023
 21
-50.058237304687509
 31
0.0
  0
LINE
  5
667
100
AcDbEntity
  8
0
  6
CONTINUOUS
 62
               4
100
AcDbLine
 10
1.9300000000000068
 20
-50.058237304687509
 30
0.0
 11
4.0600000000000023
 21
-47.928237304687514
 31
0.0
  0
LINE
  5
668
100
AcDbEntity
  8
0
  6
CONTINUOUS
 62
               4
100
AcDbLine
 10
0.5
 20
-55.998237304687507
 30
0.0
 11
0.5
 21
-50.648237304687513
 31
0.0
  0
ENDBLK
  5
669
100
AcDbEntity
  8
0
100
AcDbBlockEnd
  0
BLOCK
  5
66A
100
AcDbEntity
  8
0
100
AcDbBlockBegin
  2
F18MNJ-20
 70
               0
 10
0.0
 20
0.0
 30
0.0
  3
F18MNJ-20
  1

  0
LINE
  5
66B
100
AcDbEntity
  8
0
  6
CONTINUOUS
 62
               4
100
AcDbLine
 10
34.707475585937487
 20
-11.798237304687518
 30
0.0
 11
34.207475585937487
 21
-11.798237304687518
 31
0.0
  0
LINE
  5
66C
100
AcDbEntity
  8
0
  6
CONTINUOUS
 62
               4
100
AcDbLine
 10
34.707475585937487
 20
-6.1982373046874955
 30
0.0
 11
34.207475585937487
 21
-6.1982373046874955
 31
0.0
  0
LINE
  5
66D
100
AcDbEntity
  8
0
  6
CONTINUOUS
 62
               4
100
AcDbLine
 10
36.207475585937487
 20
-7.6982373046874955
 30
0.0
 11
36.207475585937487
 21
-10.298237304687518
 31
0.0
  0
LINE
  5
66E
100
AcDbEntity
  8
0
  6
CONTINUOUS
 62
               4
100
AcDbLine
 10
34.207475585937487
 20
-55.998237304687507
 30
0.0
 11
34.207475585937487
 21
10.001762695312493
 31
0.0
  0
LINE
  5
66F
100
AcDbEntity
  8
0
  6
CONTINUOUS
 62
               4
100
AcDbLine
 10
34.207475585937487
 20
10.001762695312493
 30
0.0
 11
31.007475585937499
 21
10.001762695312493
 31
0.0
  0
LINE
  5
670
100
AcDbEntity
  8
0
  6
CONTINUOUS
 62
               4
100
AcDbLine
 10
34.207475585937487
 20
-55.998237304687507
 30
0.0
 11
31.007475585937499
 21
-55.998237304687507
 31
0.0
  0
LINE
  5
671
100
AcDbEntity
  8
0
  6
CONTINUOUS
 62
               4
100
AcDbLine
 10
34.707475585937487
 20
-51.798237304687518
 30
0.0
 11
34.207475585937487
 21
-51.798237304687518
 31
0.0
  0
LINE
  5
672
100
AcDbEntity
  8
0
  6
CONTINUOUS
 62
               4
100
AcDbLine
 10
34.707475585937487
 20
-46.198237304687495
 30
0.0
 11
34.207475585937487
 21
-46.198237304687495
 31
0.0
  0
LINE
  5
673
100
AcDbEntity
  8
0
  6
CONTINUOUS
 62
               4
100
AcDbLine
 10
36.207475585937487
 20
-47.698237304687495
 30
0.0
 11
36.207475585937487
 21
-50.298237304687518
 31
0.0
  0
ARC
  5
674
100
AcDbEntity
  8
0
  6
CONTINUOUS
 62
               4
100
AcDbCircle
 10
34.707483215325027
 20
-10.298244934075058
 30
0.0
 40
1.4999923706318581
100
AcDbArc
 50
269.99970857737992
 51
0.0002914226199492
  0
ARC
  5
675
100
AcDbEntity
  8
0
  6
CONTINUOUS
 62
               4
100
AcDbCircle
 10
34.707483215325027
 20
-7.6982296752999559
 30
0.0
 40
1.4999923706318576
100
AcDbArc
 50
359.99970857738003
 51
90.000291422620052
  0
ARC
  5
676
100
AcDbEntity
  8
0
  6
CONTINUOUS
 62
               4
100
AcDbCircle
 10
34.707475585887806
 20
-50.298237304637837
 30
0.0
 40
1.5000000000496705
100
AcDbArc
 50
270.00000000189738
 51
359.99999999810262
  0
ARC
  5
677
100
AcDbEntity
  8
0
  6
CONTINUOUS
 62
               4
100
AcDbCircle
 10
34.70749084472348
 20
-47.698222045901559
 30
0.0
 40
1.4999847412916529
100
AcDbArc
 50
359.99941715138044
 51
90.000582848619587
  0
LINE
  5
678
100
AcDbEntity
  8
0
  6
CONTINUOUS
 62
               4
100
AcDbLine
 10
-19.792508758676632
 20
-74.998227093621324
 30
0.0
 11
-21.792517793913504
 21
-72.998210303314124
 31
0.0
  0
LINE
  5
679
100
AcDbEntity
  8
0
  6
CONTINUOUS
 62
               4
100
AcDbLine
 10
-4.9925244140625011
 20
-72.998237304687507
 30
0.0
 11
-4.9925244140625011
 21
-74.998237304687507
 31
0.0
  0
LINE
  5
67A
100
AcDbEntity
  8
0
  6
CONTINUOUS
 62
               4
100
AcDbLine
 10
14.007475585937499
 20
-72.998237304687507
 30
0.0
 11
14.007475585937499
 21
-74.998237304687507
 31
0.0
  0
LINE
  5
67B
100
AcDbEntity
  8
0
  6
CONTINUOUS
 62
               4
100
AcDbLine
 10
-4.9925244140625011
 20
-72.998237304687507
 30
0.0
 11
14.007475585937499
 21
-72.998237304687507
 31
0.0
  0
LINE
  5
67C
100
AcDbEntity
  8
0
  6
CONTINUOUS
 62
               4
100
AcDbLine
 10
14.007475585937499
 20
-74.998237304687507
 30
0.0
 11
28.807467193603514
 21
-74.998237304687507
 31
0.0
  0
ARC
  5
67D
100
AcDbEntity
  8
0
  6
CONTINUOUS
 62
               4
100
AcDbCircle
 10
3.5074755859374989
 20
-79.498252563476569
 30
0.0
 40
0.5
100
AcDbArc
 50
270.0
 51
0.0
  0
ARC
  5
67E
100
AcDbEntity
  8
0
  6
CONTINUOUS
 62
               4
100
AcDbCircle
 10
5.5074755859374989
 20
-79.498252563476569
 30
0.0
 40
0.5
100
AcDbArc
 50
180.0
 51
270.0
  0
LINE
  5
67F
100
AcDbEntity
  8
0
  6
CONTINUOUS
 62
               4
100
AcDbLine
 10
5.5074755859374989
 20
-79.998252563476569
 30
0.0
 11
22.507464141845702
 21
-79.998252563476569
 31
0.0
  0
LINE
  5
680
100
AcDbEntity
  8
0
  6
CONTINUOUS
 62
               4
100
AcDbLine
 10
4.0074755859374989
 20
-72.998237304687507
 30
0.0
 11
4.0074755859374989
 21
-79.498252563476569
 31
0.0
  0
LINE
  5
681
100
AcDbEntity
  8
0
  6
CONTINUOUS
 62
               4
100
AcDbLine
 10
5.0074755859374989
 20
-72.998237304687507
 30
0.0
 11
5.0074755859374989
 21
-79.498252563476569
 31
0.0
  0
ARC
  5
682
100
AcDbEntity
  8
0
  6
CONTINUOUS
 62
               4
100
AcDbCircle
 10
-13.492520599365236
 20
-79.498252563476569
 30
0.0
 40
0.5
100
AcDbArc
 50
179.99996334457597
 51
270.0
  0
ARC
  5
683
100
AcDbEntity
  8
0
  6
CONTINUOUS
 62
               4
100
AcDbCircle
 10
22.507464141845702
 20
-79.498252563476569
 30
0.0
 40
0.5
100
AcDbArc
 50
270.0
 51
359.99998201391065
  0
LINE
  5
684
100
AcDbEntity
  8
0
  6
CONTINUOUS
 62
               4
100
AcDbLine
 10
-18.492520599365236
 20
-74.998237304687507
 30
0.0
 11
-18.492520599365236
 21
-72.998237304687507
 31
0.0
  0
LINE
  5
685
100
AcDbEntity
  8
0
  6
CONTINUOUS
 62
               4
100
AcDbLine
 10
-12.492520599365236
 20
-74.998237304687507
 30
0.0
 11
-12.492520599365236
 21
-72.998237304687507
 31
0.0
  0
LINE
  5
686
100
AcDbEntity
  8
0
  6
CONTINUOUS
 62
               4
100
AcDbLine
 10
23.507464141845702
 20
-74.998237304687507
 30
0.0
 11
23.507464141845702
 21
-72.998237304687507
 31
0.0
  0
LINE
  5
687
100
AcDbEntity
  8
0
  6
CONTINUOUS
 62
               4
100
AcDbLine
 10
28.8074934640442
 20
-74.998240859090117
 30
0.0
 11
30.807490866750157
 21
-72.998255426037474
 31
0.0
  0
LINE
  5
688
100
AcDbEntity
  8
0
  6
CONTINUOUS
 62
               7
100
AcDbLine
 10
30.807467193603514
 20
-72.998255426037474
 30
0.0
 11
30.807467193603514
 21
-72.998237304687507
 31
0.0
  0
LINE
  5
689
100
AcDbEntity
  8
0
  6
CONTINUOUS
 62
               4
100
AcDbLine
 10
-19.792508392333986
 20
-74.998237304687507
 30
0.0
 11
-4.9925244140625011
 21
-74.998237304687507
 31
0.0
  0
LINE
  5
68A
100
AcDbEntity
  8
0
  6
CONTINUOUS
 62
             200
100
AcDbLine
 10
14.007475585937499
 20
-81.783881835937507
 30
0.0
 11
14.007475585937499
 21
-71.095649414062507
 31
0.0
  0
LINE
  5
68B
100
AcDbEntity
  8
0
  6
CONTINUOUS
 62
             200
100
AcDbLine
 10
-4.9925244140625011
 20
-81.783881835937507
 30
0.0
 11
-4.9925244140625011
 21
-71.095649414062507
 31
0.0
  0
LINE
  5
68C
100
AcDbEntity
  8
0
  6
CONTINUOUS
 62
               4
100
AcDbLine
 10
-13.992520599365236
 20
-79.498252563476569
 30
0.0
 11
-13.992520599365236
 21
-74.998237304687507
 31
0.0
  0
LINE
  5
68D
100
AcDbEntity
  8
0
  6
CONTINUOUS
 62
               4
100
AcDbLine
 10
23.007464141845702
 20
-79.498252563476569
 30
0.0
 11
23.007464141845702
 21
-74.998237304687507
 31
0.0
  0
LINE
  5
68E
100
AcDbEntity
  8
0
  6
CONTINUOUS
 62
               4
100
AcDbLine
 10
-13.492520599365236
 20
-79.998252563476569
 30
0.0
 11
3.5074755859374989
 21
-79.998252563476569
 31
0.0
  0
ENDBLK
  5
68F
100
AcDbEntity
  8
0
100
AcDbBlockEnd
  0
BLOCK
  5
690
100
AcDbEntity
  8
0
100
AcDbBlockBegin
  2
F18MNJ-21
 70
               0
 10
0.0
 20
0.0
 30
0.0
  3
F18MNJ-21
  1

  0
LINE
  5
691
100
AcDbEntity
  8
0
  6
CONTINUOUS
 62
               2
100
AcDbLine
 10
9.5
 20
28.799999999999997
 30
0.0
 11
9.5
 21
-23.379999999999995
 31
0.0
  0
LINE
  5
692
100
AcDbEntity
  8
0
  6
CONTINUOUS
 62
             200
100
AcDbLine
 10
9.5
 20
37.162474529188117
 30
0.0
 11
9.5
 21
28.799999999999997
 31
0.0
  0
LINE
  5
693
100
AcDbEntity
  8
0
  6
CONTINUOUS
 62
               4
100
AcDbLine
 10
10.301933149698584
 20
34.200000000000003
 30
0.0
 11
18.800000000000011
 21
34.200000000000003
 31
0.0
  0
LINE
  5
694
100
AcDbEntity
  8
0
  6
CONTINUOUS
 62
               4
100
AcDbLine
 10
0.1999999999999886
 20
34.200000000000003
 30
0.0
 11
10.301933149698584
 21
34.200000000000003
 31
0.0
  0
LINE
  5
695
100
AcDbEntity
  8
0
  6
CONTINUOUS
 62
               4
100
AcDbLine
 10
0.5
 20
34.200000000000003
 30
0.0
 11
0.5
 21
31.0
 31
0.0
  0
LINE
  5
696
100
AcDbEntity
  8
0
  6
CONTINUOUS
 62
               4
100
AcDbLine
 10
18.5
 20
34.200000000000003
 30
0.0
 11
18.5
 21
31.0
 31
0.0
  0
LINE
  5
697
100
AcDbEntity
  8
0
  6
CONTINUOUS
 62
               4
100
AcDbLine
 10
18.800000000000011
 20
34.700000000000003
 30
0.0
 11
18.800000000000011
 21
34.200000000000003
 31
0.0
  0
LINE
  5
698
100
AcDbEntity
  8
0
  6
CONTINUOUS
 62
               4
100
AcDbLine
 10
13.199999999999989
 20
34.700000000000003
 30
0.0
 11
13.199999999999989
 21
34.200000000000003
 31
0.0
  0
LINE
  5
699
100
AcDbEntity
  8
0
  6
CONTINUOUS
 62
               4
100
AcDbLine
 10
14.699999999999989
 20
36.200000000000003
 30
0.0
 11
17.300000000000011
 21
36.200000000000003
 31
0.0
  0
LINE
  5
69A
100
AcDbEntity
  8
0
  6
CONTINUOUS
 62
               4
100
AcDbLine
 10
18.5
 20
-21.799999999999997
 30
0.0
 11
18.5
 21
-18.640000000000001
 31
0.0
  0
LINE
  5
69B
100
AcDbEntity
  8
0
  6
CONTINUOUS
 62
               4
100
AcDbLine
 10
0.5
 20
-21.799999999999997
 30
0.0
 11
0.5
 21
-18.5
 31
0.0
  0
LINE
  5
69C
100
AcDbEntity
  8
0
  6
CONTINUOUS
 62
               4
100
AcDbLine
 10
0.5
 20
30.799999999999997
 30
0.0
 11
18.5
 21
30.799999999999997
 31
0.0
  0
LINE
  5
69D
100
AcDbEntity
  8
0
  6
CONTINUOUS
 62
               4
100
AcDbLine
 10
0.5
 20
-21.799999999999997
 30
0.0
 11
18.5
 21
-21.799999999999997
 31
0.0
  0
LINE
  5
69E
100
AcDbEntity
  8
0
  6
CONTINUOUS
 62
               4
100
AcDbLine
 10
16.0
 20
-14.5
 30
0.0
 11
18.5
 21
-14.5
 31
0.0
  0
LINE
  5
69F
100
AcDbEntity
  8
0
  6
CONTINUOUS
 62
               4
100
AcDbLine
 10
13.0
 20
-21.799999999999997
 30
0.0
 11
13.0
 21
-17.5
 31
0.0
  0
LINE
  5
6A0
100
AcDbEntity
  8
0
  6
CONTINUOUS
 62
               4
100
AcDbLine
 10
6.0
 20
26.5
 30
0.0
 11
6.0
 21
30.799999999999997
 31
0.0
  0
LINE
  5
6A1
100
AcDbEntity
  8
0
  6
CONTINUOUS
 62
               4
100
AcDbLine
 10
0.5
 20
23.5
 30
0.0
 11
3.0
 21
23.5
 31
0.0
  0
LINE
  5
6A2
100
AcDbEntity
  8
0
  6
CONTINUOUS
 62
               4
100
AcDbLine
 10
17.060000000000002
 20
-18.560000000000002
 30
0.0
 11
14.930000000000007
 21
-16.43
 31
0.0
  0
LINE
  5
6A3
100
AcDbEntity
  8
0
  6
CONTINUOUS
 62
               4
100
AcDbLine
 10
4.0600000000000023
 20
25.430000000000007
 30
0.0
 11
1.9300000000000068
 21
27.560000000000002
 31
0.0
  0
LINE
  5
6A4
100
AcDbEntity
  8
0
  6
CONTINUOUS
 62
               4
100
AcDbLine
 10
1.9399999999999977
 20
25.430000000000007
 30
0.0
 11
4.0600000000000023
 21
27.560000000000002
 31
0.0
  0
LINE
  5
6A5
100
AcDbEntity
  8
0
  6
CONTINUOUS
 62
               4
100
AcDbLine
 10
14.939999999999998
 20
-18.560000000000002
 30
0.0
 11
17.060000000000002
 21
-16.439999999999998
 31
0.0
  0
LINE
  5
6A6
100
AcDbEntity
  8
0
  6
CONTINUOUS
 62
               4
100
AcDbLine
 10
18.5
 20
-16.350000000000001
 30
0.0
 11
18.5
 21
21.5
 31
0.0
  0
LINE
  5
6A7
100
AcDbEntity
  8
0
  6
CONTINUOUS
 62
               4
100
AcDbLine
 10
0.5
 20
27.640000000000001
 30
0.0
 11
0.5
 21
30.799999999999997
 31
0.0
  0
LINE
  5
6A8
100
AcDbEntity
  8
0
  6
CONTINUOUS
 62
               4
100
AcDbLine
 10
0.5
 20
-18.5
 30
0.0
 11
3.0
 21
-18.5
 31
0.0
  0
LINE
  5
6A9
100
AcDbEntity
  8
0
  6
CONTINUOUS
 62
               4
100
AcDbLine
 10
0.5
 20
-12.5
 30
0.0
 11
3.0
 21
-12.5
 31
0.0
  0
LINE
  5
6AA
100
AcDbEntity
  8
0
  6
CONTINUOUS
 62
               4
100
AcDbLine
 10
16.0
 20
21.5
 30
0.0
 11
18.5
 21
21.5
 31
0.0
  0
LINE
  5
6AB
100
AcDbEntity
  8
0
  6
CONTINUOUS
 62
               4
100
AcDbLine
 10
16.0
 20
27.5
 30
0.0
 11
18.5
 21
27.5
 31
0.0
  0
LINE
  5
6AC
100
AcDbEntity
  8
0
  6
CONTINUOUS
 62
               4
100
AcDbLine
 10
0.5
 20
-12.5
 30
0.0
 11
0.5
 21
25.349999999999994
 31
0.0
  0
LINE
  5
6AD
100
AcDbEntity
  8
0
  6
CONTINUOUS
 62
               4
100
AcDbLine
 10
18.5
 20
27.5
 30
0.0
 11
18.5
 21
30.799999999999997
 31
0.0
  0
LINE
  5
6AE
100
AcDbEntity
  8
0
  6
CONTINUOUS
 62
               4
100
AcDbLine
 10
0.5
 20
-19.799999999999997
 30
0.0
 11
13.0
 21
-19.799999999999997
 31
0.0
  0
LINE
  5
6AF
100
AcDbEntity
  8
0
  6
CONTINUOUS
 62
               4
100
AcDbLine
 10
6.0
 20
28.799999999999997
 30
0.0
 11
18.5
 21
28.799999999999997
 31
0.0
  0
LINE
  5
6B0
100
AcDbEntity
  8
0
  6
CONTINUOUS
 62
             200
100
AcDbLine
 10
0.0
 20
-5.0
 30
0.0
 11
19.0
 21
-5.0
 31
0.0
  0
LINE
  5
6B1
100
AcDbEntity
  8
0
  6
CONTINUOUS
 62
             200
100
AcDbLine
 10
0.0
 20
14.0
 30
0.0
 11
19.0
 21
14.0
 31
0.0
  0
LINE
  5
6B2
100
AcDbEntity
  8
0
  6
CONTINUOUS
 62
               7
100
AcDbLine
 10
0.0
 20
-22.0
 30
0.0
 11
19.0
 21
-22.0
 31
0.0
  0
LINE
  5
6B3
100
AcDbEntity
  8
0
  6
CONTINUOUS
 62
               7
100
AcDbLine
 10
0.0
 20
31.0
 30
0.0
 11
19.0
 21
31.0
 31
0.0
  0
LINE
  5
6B4
100
AcDbEntity
  8
0
  6
CONTINUOUS
 62
               7
100
AcDbLine
 10
0.0
 20
31.0
 30
0.0
 11
0.0
 21
-22.0
 31
0.0
  0
LINE
  5
6B5
100
AcDbEntity
  8
0
  6
CONTINUOUS
 62
               7
100
AcDbLine
 10
19.0
 20
31.0
 30
0.0
 11
19.0
 21
-22.0
 31
0.0
  0
LINE
  5
6B6
100
AcDbEntity
  8
0
  6
CONTINUOUS
 62
               4
100
AcDbLine
 10
5.8000000000000114
 20
34.700000000000003
 30
0.0
 11
5.8000000000000114
 21
34.200000000000003
 31
0.0
  0
LINE
  5
6B7
100
AcDbEntity
  8
0
  6
CONTINUOUS
 62
               4
100
AcDbLine
 10
0.1999999999999886
 20
34.700000000000003
 30
0.0
 11
0.1999999999999886
 21
34.200000000000003
 31
0.0
  0
LINE
  5
6B8
100
AcDbEntity
  8
0
  6
CONTINUOUS
 62
               4
100
AcDbLine
 10
1.6999999999999886
 20
36.200000000000003
 30
0.0
 11
4.3000000000000114
 21
36.200000000000003
 31
0.0
  0
ARC
  5
6B9
100
AcDbEntity
  8
0
  6
CONTINUOUS
 62
               4
100
AcDbCircle
 10
17.300022887959301
 20
34.700022887959307
 30
0.0
 40
1.4999771122153238
100
AcDbArc
 50
359.99912573101369
 51
90.000874268986323
  0
ARC
  5
6BA
100
AcDbEntity
  8
0
  6
CONTINUOUS
 62
               4
100
AcDbCircle
 10
14.700038147383225
 20
34.699961852616781
 30
0.0
 40
1.500038147868278
100
AcDbArc
 50
90.00145708564888
 51
179.99854291435119
  0
ARC
  5
6BB
100
AcDbEntity
  8
0
  6
CONTINUOUS
 62
               4
100
AcDbCircle
 10
16.000030517733364
 20
-17.50003051773335
 30
0.0
 40
3.0000305178885656
100
AcDbArc
 50
90.000582839844697
 51
179.9994171601553
  0
ARC
  5
6BC
100
AcDbEntity
  8
0
  6
CONTINUOUS
 62
               4
100
AcDbCircle
 10
3.0000305174228856
 20
26.4999694825771
 30
0.0
 40
2.9999694827323156
100
AcDbArc
 50
269.99941715422631
 51
0.000582845773621
  0
CIRCLE
  5
6BD
100
AcDbEntity
  8
0
  6
CONTINUOUS
 62
               4
100
AcDbCircle
 10
16.00006103515625
 20
-17.5
 30
0.0
 40
2.75
  0
CIRCLE
  5
6BE
100
AcDbEntity
  8
0
  6
CONTINUOUS
 62
               4
100
AcDbCircle
 10
3.00006103515625
 20
26.5
 30
0.0
 40
2.75
  0
ARC
  5
6BF
100
AcDbEntity
  8
0
  6
CONTINUOUS
 62
               4
100
AcDbCircle
 10
3.0
 20
-15.5
 30
0.0
 40
3.0000000006208816
100
AcDbArc
 50
270.0
 51
90.0
  0
ARC
  5
6C0
100
AcDbEntity
  8
0
  6
CONTINUOUS
 62
               4
100
AcDbCircle
 10
16.0
 20
24.5
 30
0.0
 40
3.0000000006208816
100
AcDbArc
 50
90.0
 51
270.0
  0
CIRCLE
  5
6C1
100
AcDbEntity
  8
0
  6
CONTINUOUS
 62
               4
100
AcDbCircle
 10
9.50006103515625
 20
-5.0
 30
0.0
 40
4.0
  0
CIRCLE
  5
6C2
100
AcDbEntity
  8
0
  6
CONTINUOUS
 62
               4
100
AcDbCircle
 10
9.50006103515625
 20
-5.0
 30
0.0
 40
5.0
  0
CIRCLE
  5
6C3
100
AcDbEntity
  8
0
  6
CONTINUOUS
 62
               4
100
AcDbCircle
 10
9.50006103515625
 20
-5.0
 30
0.0
 40
8.5
  0
CIRCLE
  5
6C4
100
AcDbEntity
  8
0
  6
CONTINUOUS
 62
               4
100
AcDbCircle
 10
9.50006103515625
 20
-5.0
 30
0.0
 40
8.0
  0
CIRCLE
  5
6C5
100
AcDbEntity
  8
0
  6
CONTINUOUS
 62
               4
100
AcDbCircle
 10
9.50006103515625
 20
14.0
 30
0.0
 40
8.5
  0
CIRCLE
  5
6C6
100
AcDbEntity
  8
0
  6
CONTINUOUS
 62
               4
100
AcDbCircle
 10
9.50006103515625
 20
14.0
 30
0.0
 40
8.0
  0
CIRCLE
  5
6C7
100
AcDbEntity
  8
0
  6
CONTINUOUS
 62
               4
100
AcDbCircle
 10
9.50006103515625
 20
14.0
 30
0.0
 40
5.0
  0
CIRCLE
  5
6C8
100
AcDbEntity
  8
0
  6
CONTINUOUS
 62
               4
100
AcDbCircle
 10
9.50006103515625
 20
14.0
 30
0.0
 40
4.0
  0
ARC
  5
6C9
100
AcDbEntity
  8
0
  6
CONTINUOUS
 62
               4
100
AcDbCircle
 10
4.300022887959301
 20
34.700022887959307
 30
0.0
 40
1.4999771122153234
100
AcDbArc
 50
359.99912573101369
 51
90.000874268986422
  0
ARC
  5
6CA
100
AcDbEntity
  8
0
  6
CONTINUOUS
 62
               4
100
AcDbCircle
 10
1.7000381473832249
 20
34.699961852616781
 30
0.0
 40
1.5000381478682778
100
AcDbArc
 50
90.001457085648866
 51
179.99854291435119
  0
ENDBLK
  5
6CB
100
AcDbEntity
  8
0
100
AcDbBlockEnd
  0
ENDSEC
  0
SECTION
  2
ENTITIES
  0
INSERT
  5
6CC
100
AcDbEntity
  8
0
  6
ByBlock
100
AcDbBlockReference
  2
F18MNJ-1
 10
-207.87982177734375
 20
200.66912841796875
 30
0.0
  0
INSERT
  5
6CD
100
AcDbEntity
  8
0
  6
ByBlock
100
AcDbBlockReference
  2
F18MNJ-12
 10
-332.379638671875
 20
200.66912841796875
 30
0.0
  0
INSERT
  5
6CE
100
AcDbEntity
  8
0
  6
ByBlock
100
AcDbBlockReference
  2
F18MNJ-15
 10
-207.87982177734375
 20
44.16912841796875
 30
0.0
  0
INSERT
  5
6CF
100
AcDbEntity
  8
0
  6
ByBlock
100
AcDbBlockReference
  2
F18MNJ-16
 10
136.27497863769531
 20
204.43000000000001
 30
0.0
  0
INSERT
  5
6D0
100
AcDbEntity
  8
0
  6
ByBlock
100
AcDbBlockReference
  2
F18MNJ-17
 10
42.270000000000003
 20
204.43000000000001
 30
0.0
  0
INSERT
  5
6D1
100
AcDbEntity
  8
0
  6
ByBlock
100
AcDbBlockReference
  2
F18MNJ-18
 10
136.27491760253906
 20
56.631735229492193
 30
0.0
  0
INSERT
  5
6D2
100
AcDbEntity
  8
0
  6
ByBlock
100
AcDbBlockReference
  2
F18MNJ-19
 10
330.037353515625
 20
204.43000000000001
 30
0.0
  0
INSERT
  5
6D3
100
AcDbEntity
  8
0
  6
ByBlock
100
AcDbBlockReference
  2
F18MNJ-20
 10
236.03
 20
204.43000000000001
 30
0.0
  0
INSERT
  5
6D4
100
AcDbEntity
  8
0
  6
ByBlock
100
AcDbBlockReference
  2
F18MNJ-21
 10
330.037353515625
 20
64.4317626953125
 30
0.0
  0
INSERT
  5
6D5
100
AcDbEntity
  8
0
  6
ByBlock
100
AcDbBlockReference
  2
F18MNJ-2
 10
-258.75001525878906
 20
-73.560000000000002
 30
0.0
  0
INSERT
  5
6D6
100
AcDbEntity
  8
0
  6
ByBlock
100
AcDbBlockReference
  2
F18MNJ-3
 10
-373.25
 20
-73.560000000000002
 30
0.0
  0
INSERT
  5
6D7
100
AcDbEntity
  8
0
  6
ByBlock
100
AcDbBlockReference
  2
F18MNJ-4
 10
-259.25
 20
-248.5682373046875
 30
0.0
  0
INSERT
  5
6D8
100
AcDbEntity
  8
0
  6
ByBlock
100
AcDbBlockReference
  2
F18MNJ-5
 10
-52.987503051757812
 20
-73.560000000000002
 30
0.0
  0
INSERT
  5
6D9
100
AcDbEntity
  8
0
  6
ByBlock
100
AcDbBlockReference
  2
F18MNJ-6
 10
-167.47999999999999
 20
-73.560000000000002
 30
0.0
  0
INSERT
  5
6DA
100
AcDbEntity
  8
0
  6
ByBlock
100
AcDbBlockReference
  2
F18MNJ-7
 10
-53.48748779296875
 20
-248.5682373046875
 30
0.0
  0
INSERT
  5
6DB
100
AcDbEntity
  8
0
  6
ByBlock
100
AcDbBlockReference
  2
F18MNJ-8
 10
142.27499389648437
 20
-65.568252563476563
 30
0.0
  0
INSERT
  5
6DC
100
AcDbEntity
  8
0
  6
ByBlock
100
AcDbBlockReference
  2
F18MNJ-9
 10
42.415197994077403
 20
-65.568252563476563
 30
0.0
  0
INSERT
  5
6DD
100
AcDbEntity
  8
0
  6
ByBlock
100
AcDbBlockReference
  2
F18MNJ-11
 10
334.037353515625
 20
-65.560000000000002
 30
0.0
  0
INSERT
  5
6DE
100
AcDbEntity
  8
0
  6
ByBlock
100
AcDbBlockReference
  2
F18MNJ-13
 10
232.03
 20
-65.560000000000002
 30
0.0
  0
INSERT
  5
6DF
100
AcDbEntity
  8
0
  6
ByBlock
100
AcDbBlockReference
  2
F18MNJ-14
 10
334.037353515625
 20
-220.5682373046875
 30
0.0
  0
INSERT
  5
6E0
100
AcDbEntity
  8
0
  6
ByBlock
100
AcDbBlockReference
  2
F18MNJ-10
 10
142.27499389648437
 20
-247.56825256347656
 30
0.0
  0
LINE
  5
6E1
100
AcDbEntity
  8
0
  6
CONTINUOUS
 62
               7
100
AcDbLine
 10
399.80000000000001
 20
276.25
 30
0.0
 11
399.80000000000001
 21
-276.75
 31
0.0
  0
LINE
  5
6E2
100
AcDbEntity
  8
0
  6
CONTINUOUS
 62
               7
100
AcDbLine
 10
-399.25
 20
276.25
 30
0.0
 11
-399.25
 21
-276.75
 31
0.0
  0
LINE
  5
6E3
100
AcDbEntity
  8
0
  6
CONTINUOUS
 62
               7
100
AcDbLine
 10
-399.25
 20
276.25
 30
0.0
 11
399.80000000000001
 21
276.25
 31
0.0
  0
LINE
  5
6E4
100
AcDbEntity
  8
0
  6
CONTINUOUS
 62
               7
100
AcDbLine
 10
-399.25
 20
-276.75
 30
0.0
 11
399.80000000000001
 21
-276.75
 31
0.0
  0
LINE
  5
6E5
100
AcDbEntity
  8
0
  6
CONTINUOUS
 62
               7
100
AcDbLine
 10
239.80000000000001
 20
-251.75
 30
0.0
 11
399.80000000000001
 21
-251.75
 31
0.0
  0
LINE
  5
6E6
100
AcDbEntity
  8
0
  6
CONTINUOUS
 62
               7
100
AcDbLine
 10
239.80000000000001
 20
251.25
 30
0.0
 11
399.80000000000001
 21
251.25
 31
0.0
  0
LINE
  5
6E7
100
AcDbEntity
  8
0
  6
CONTINUOUS
 62
               7
100
AcDbLine
 10
-399.25
 20
251.25
 30
0.0
 11
-239.25
 21
251.25
 31
0.0
  0
LINE
  5
6E8
100
AcDbEntity
  8
0
  6
CONTINUOUS
 62
               7
100
AcDbLine
 10
239.80000000000001
 20
-251.75
 30
0.0
 11
239.80000000000001
 21
-276.75
 31
0.0
  0
LINE
  5
6E9
100
AcDbEntity
  8
0
  6
CONTINUOUS
 62
               7
100
AcDbLine
 10
239.80000000000001
 20
251.25
 30
0.0
 11
239.80000000000001
 21
276.25
 31
0.0
  0
LINE
  5
6EA
100
AcDbEntity
  8
0
  6
CONTINUOUS
 62
               7
100
AcDbLine
 10
-239.25
 20
276.25
 30
0.0
 11
-239.25
 21
251.25
 31
0.0
  0
LINE
  5
6EB
100
AcDbEntity
  8
0
  6
CONTINUOUS
 62
               7
100
AcDbLine
 10
-193.47999999999999
 20
29.75
 30
0.0
 11
-193.47999999999999
 21
-276.75
 31
0.0
  0
LINE
  5
6EC
100
AcDbEntity
  8
0
  6
CONTINUOUS
 62
               7
100
AcDbLine
 10
-399.25
 20
29.75
 30
0.0
 11
399.80000000000001
 21
29.75
 31
0.0
  0
LINE
  5
6ED
100
AcDbEntity
  8
0
  6
CONTINUOUS
 62
               7
100
AcDbLine
 10
12.27
 20
276.25
 30
0.0
 11
12.27
 21
-276.75
 31
0.0
  0
LINE
  5
6EE
100
AcDbEntity
  8
0
  6
CONTINUOUS
 62
               7
100
AcDbLine
 10
206.03
 20
276.25
 30
0.0
 11
206.03
 21
-276.75
 31
0.0
  0
MTEXT
  5
6EF
100
AcDbEntity
  8
0
  6
CONTINUOUS
 62
               7
100
AcDbMText
 10
245.88456269755227
 20
-264.25
 30
0.0
 40
12.5
 41
0.0
 71
               4
 72
               1
  1
\W1.121;\A1;KOGANEI CORP.
  0
MTEXT
  5
6F0
100
AcDbEntity
  8
0
  6
CONTINUOUS
 62
               7
100
AcDbMText
 10
290.09979829720089
 20
263.75
 30
0.0
 40
9.0
 41
0.0
 71
               4
 72
               1
  1
\W1.200;\A1;Ver.3.0
  0
MTEXT
  5
6F1
100
AcDbEntity
  8
0
  6
CONTINUOUS
 62
               7
100
AcDbMText
 10
218.16249026710085
 20
14.75
 30
0.0
 40
9.0
 41
0.0
 71
               4
 72
               1
  1
\W1.083;\A1;MODEL:F18Z-PM
  0
MTEXT
  5
6F2
100
AcDbEntity
  8
0
  6
CONTINUOUS
 62
               7
100
AcDbMText
 10
-362.57090654372104
 20
263.75
 30
0.0
 40
9.0
 41
0.0
 71
               4
 72
               1
  1
\W1.119;\A1;F18 SERIES
  0
MTEXT
  5
6F3
100
AcDbEntity
  8
0
  6
CONTINUOUS
 62
               7
100
AcDbMText
 10
24.477695906616205
 20
236.25
 30
0.0
 40
9.0
 41
0.0
 71
               4
 72
               1
  1
\W1.135;\A1;MODEL:F18BP(J)
  0
MTEXT
  5
6F4
100
AcDbEntity
  8
0
  6
CONTINUOUS
 62
               7
100
AcDbMText
 10
-387.05188733528092
 20
14.75
 30
0.0
 40
9.0
 41
0.0
 71
               4
 72
               1
  1
\W1.132;\A1;MODEL:F18T1-A1-PS(J)
  0
MTEXT
  5
6F5
100
AcDbEntity
  8
0
  6
CONTINUOUS
 62
               7
100
AcDbMText
 10
-181.28939038703871
 20
14.75
 30
0.0
 40
9.0
 41
0.0
 71
               4
 72
               1
  1
\W1.132;\A1;MODEL:F18T1-A1-PS(M)
  0
MTEXT
  5
6F6
100
AcDbEntity
  8
0
  6
CONTINUOUS
 62
               7
100
AcDbMText
 10
24.399993318858659
 20
14.75
 30
0.0
 40
9.0
 41
0.0
 71
               4
 72
               1
  1
\W1.083;\A1;MODEL:F18Z-PJ
  0
MTEXT
  5
6F7
100
AcDbEntity
  8
0
  6
CONTINUOUS
 62
               7
100
AcDbMText
 10
-387.11363699564299
 20
236.25
 30
0.0
 40
9.0
 41
0.0
 71
               4
 72
               1
  1
\W1.091;\A1;MODEL:F18Z-E
  0
MTEXT
  5
6F8
100
AcDbEntity
  8
0
  6
CONTINUOUS
 62
               7
100
AcDbMText
 10
218.24019285485838
 20
236.25
 30
0.0
 40
9.0
 41
0.0
 71
               4
 72
               1
  1
\W1.135;\A1;MODEL:F18BP(M)
  0
LINE
  5
6FA
100
AcDbEntity
  8
0
  6
DASHED
 62
               2
100
AcDbLine
 10
263.02999999999997
 20
-138.56
 30
0.0
 11
263.02999999999997
 21
-48.560000000000002
 31
0.0
  0
LINE
  5
6FB
100
AcDbEntity
  8
0
  6
DASHED
 62
               2
100
AcDbLine
 10
209.03
 20
-48.560000000000002
 30
0.0
 11
263.02999999999997
 21
-48.560000000000002
 31
0.0
  0
LINE
  5
6FC
100
AcDbEntity
  8
0
  6
DASHED
 62
               2
100
AcDbLine
 10
209.03
 20
-138.56
 30
0.0
 11
263.02999999999997
 21
-138.56
 31
0.0
  0
LINE
  5
6FD
100
AcDbEntity
  8
0
  6
DASHED
 62
               2
100
AcDbLine
 10
209.03
 20
-138.56
 30
0.0
 11
209.03
 21
-110.06
 31
0.0
  0
LINE
  5
6FE
100
AcDbEntity
  8
0
  6
DASHED
 62
               2
100
AcDbLine
 10
209.03
 20
-110.06
 30
0.0
 11
212.03
 21
-110.06
 31
0.0
  0
LINE
  5
6FF
100
AcDbEntity
  8
0
  6
DASHED
 62
               2
100
AcDbLine
 10
209.03
 20
-74.060000000000002
 30
0.0
 11
212.03
 21
-74.060000000000002
 31
0.0
  0
LINE
  5
700
100
AcDbEntity
  8
0
  6
DASHED
 62
               2
100
AcDbLine
 10
212.03
 20
-110.06
 30
0.0
 11
212.03
 21
-74.060000000000002
 31
0.0
  0
LINE
  5
701
100
AcDbEntity
  8
0
  6
DASHED
 62
               2
100
AcDbLine
 10
209.03
 20
-74.060000000000002
 30
0.0
 11
209.03
 21
-48.560000000000002
 31
0.0
  0
LINE
  5
702
100
AcDbEntity
  8
0
  6
DASHED
 62
               2
100
AcDbLine
 10
232.03
 20
-71.560000000000002
 30
0.0
 11
232.03
 21
-59.560000000000002
 31
0.0
  0
LINE
  5
703
100
AcDbEntity
  8
0
  6
DASHED
 62
               2
100
AcDbLine
 10
226.03
 20
-65.560000000000002
 30
0.0
 11
238.03
 21
-65.560000000000002
 31
0.0
  0
LINE
  5
704
100
AcDbEntity
  8
0
  6
DASHED
 62
               2
100
AcDbLine
 10
226.03
 20
-129.56
 30
0.0
 11
226.03
 21
-117.56
 31
0.0
  0
LINE
  5
705
100
AcDbEntity
  8
0
  6
DASHED
 62
               2
100
AcDbLine
 10
220.03
 20
-123.56
 30
0.0
 11
232.03
 21
-123.56
 31
0.0
  0
LINE
  5
706
100
AcDbEntity
  8
0
  6
DASHED
 62
               2
100
AcDbLine
 10
73.415197994077403
 20
-138.56825256347656
 30
0.0
 11
73.415197994077403
 21
-48.568252563476562
 31
0.0
  0
LINE
  5
707
100
AcDbEntity
  8
0
  6
DASHED
 62
               2
100
AcDbLine
 10
19.915197994077406
 20
-48.568252563476562
 30
0.0
 11
73.415197994077403
 21
-48.568252563476562
 31
0.0
  0
LINE
  5
708
100
AcDbEntity
  8
0
  6
DASHED
 62
               2
100
AcDbLine
 10
19.915197994077406
 20
-138.56825256347656
 30
0.0
 11
73.415197994077403
 21
-138.56825256347656
 31
0.0
  0
LINE
  5
709
100
AcDbEntity
  8
0
  6
DASHED
 62
               2
100
AcDbLine
 10
19.415197994077406
 20
-138.06825256347656
 30
0.0
 11
19.415197994077406
 21
-110.06825256347656
 31
0.0
  0
LINE
  5
70A
100
AcDbEntity
  8
0
  6
DASHED
 62
               2
100
AcDbLine
 10
19.415197994077406
 20
-110.06825256347656
 30
0.0
 11
22.415197994077406
 21
-110.06825256347656
 31
0.0
  0
LINE
  5
70B
100
AcDbEntity
  8
0
  6
DASHED
 62
               2
100
AcDbLine
 10
19.415197994077406
 20
-74.068252563476563
 30
0.0
 11
22.415197994077406
 21
-74.068252563476563
 31
0.0
  0
LINE
  5
70C
100
AcDbEntity
  8
0
  6
DASHED
 62
               2
100
AcDbLine
 10
22.415197994077406
 20
-110.06825256347656
 30
0.0
 11
22.415197994077406
 21
-74.068252563476563
 31
0.0
  0
LINE
  5
70D
100
AcDbEntity
  8
0
  6
DASHED
 62
               2
100
AcDbLine
 10
19.415197994077406
 20
-74.068252563476563
 30
0.0
 11
19.415197994077406
 21
-49.068252563476563
 31
0.0
  0
LINE
  5
70E
100
AcDbEntity
  8
0
  6
DASHED
 62
               2
100
AcDbLine
 10
36.415197994077403
 20
-129.56825256347656
 30
0.0
 11
36.415197994077403
 21
-117.56825256347656
 31
0.0
  0
LINE
  5
70F
100
AcDbEntity
  8
0
  6
DASHED
 62
               2
100
AcDbLine
 10
42.415197994077403
 20
-71.568252563476562
 30
0.0
 11
42.415197994077403
 21
-59.568252563476563
 31
0.0
  0
LINE
  5
710
100
AcDbEntity
  8
0
  6
DASHED
 62
               2
100
AcDbLine
 10
36.415197994077403
 20
-65.568252563476563
 30
0.0
 11
48.415197994077403
 21
-65.568252563476563
 31
0.0
  0
LINE
  5
711
100
AcDbEntity
  8
0
  6
DASHED
 62
               2
100
AcDbLine
 10
30.415197994077403
 20
-123.56825256347656
 30
0.0
 11
42.415197994077403
 21
-123.56825256347656
 31
0.0
  0
ARC
  5
712
100
AcDbEntity
  8
0
  6
DASHED
 62
               2
100
AcDbCircle
 10
19.915197994077406
 20
-49.068252563476563
 30
0.0
 40
0.5
100
AcDbArc
 50
89.999963344575988
 51
179.99994535848663
  0
ARC
  5
713
100
AcDbEntity
  8
0
  6
DASHED
 62
               2
100
AcDbCircle
 10
19.915197994077406
 20
-138.06825256347656
 30
0.0
 40
0.5
100
AcDbArc
 50
179.99994535848663
 51
269.99998201391065
  0
LINE
  5
714
100
AcDbEntity
  8
0
  6
DASHED
 62
               2
100
AcDbLine
 10
-190.47999999999999
 20
-146.56
 30
0.0
 11
-190.47999999999999
 21
-118.06
 31
0.0
  0
LINE
  5
715
100
AcDbEntity
  8
0
  6
DASHED
 62
               2
100
AcDbLine
 10
-190.47999999999999
 20
-82.060000000000002
 30
0.0
 11
-190.47999999999999
 21
-56.560000000000002
 31
0.0
  0
LINE
  5
716
100
AcDbEntity
  8
0
  6
DASHED
 62
               2
100
AcDbLine
 10
-136.47999999999999
 20
-146.56
 30
0.0
 11
-136.47999999999999
 21
-56.560000000000002
 31
0.0
  0
LINE
  5
717
100
AcDbEntity
  8
0
  6
DASHED
 62
               2
100
AcDbLine
 10
-187.47999999999999
 20
-118.06
 30
0.0
 11
-187.47999999999999
 21
-82.060000000000002
 31
0.0
  0
LINE
  5
718
100
AcDbEntity
  8
0
  6
DASHED
 62
               2
100
AcDbLine
 10
-167.47999999999999
 20
-79.560000000000002
 30
0.0
 11
-167.47999999999999
 21
-67.560000000000002
 31
0.0
  0
LINE
  5
719
100
AcDbEntity
  8
0
  6
DASHED
 62
               2
100
AcDbLine
 10
-173.47999999999999
 20
-73.560000000000002
 30
0.0
 11
-161.47999999999999
 21
-73.560000000000002
 31
0.0
  0
LINE
  5
71A
100
AcDbEntity
  8
0
  6
DASHED
 62
               2
100
AcDbLine
 10
-173.47999999999999
 20
-137.56
 30
0.0
 11
-173.47999999999999
 21
-125.56
 31
0.0
  0
LINE
  5
71B
100
AcDbEntity
  8
0
  6
DASHED
 62
               2
100
AcDbLine
 10
-179.47999999999999
 20
-131.56
 30
0.0
 11
-167.47999999999999
 21
-131.56
 31
0.0
  0
LINE
  5
71C
100
AcDbEntity
  8
0
  6
DASHED
 62
               2
100
AcDbLine
 10
-190.47999999999999
 20
-82.060000000000002
 30
0.0
 11
-187.47999999999999
 21
-82.060000000000002
 31
0.0
  0
LINE
  5
71D
100
AcDbEntity
  8
0
  6
DASHED
 62
               2
100
AcDbLine
 10
-190.47999999999999
 20
-118.06
 30
0.0
 11
-187.47999999999999
 21
-118.06
 31
0.0
  0
LINE
  5
71E
100
AcDbEntity
  8
0
  6
DASHED
 62
               2
100
AcDbLine
 10
-190.47999999999999
 20
-146.56
 30
0.0
 11
-136.47999999999999
 21
-146.56
 31
0.0
  0
LINE
  5
71F
100
AcDbEntity
  8
0
  6
DASHED
 62
               2
100
AcDbLine
 10
-190.47999999999999
 20
-56.560000000000002
 30
0.0
 11
-136.47999999999999
 21
-56.560000000000002
 31
0.0
  0
LINE
  5
720
100
AcDbEntity
  8
0
  6
DASHED
 62
               2
100
AcDbLine
 10
-342.25
 20
-146.56
 30
0.0
 11
-342.25
 21
-56.560000000000002
 31
0.0
  0
LINE
  5
721
100
AcDbEntity
  8
0
  6
DASHED
 62
               2
100
AcDbLine
 10
-396.25
 20
-56.560000000000002
 30
0.0
 11
-342.25
 21
-56.560000000000002
 31
0.0
  0
LINE
  5
722
100
AcDbEntity
  8
0
  6
DASHED
 62
               2
100
AcDbLine
 10
-396.25
 20
-146.56
 30
0.0
 11
-342.25
 21
-146.56
 31
0.0
  0
LINE
  5
723
100
AcDbEntity
  8
0
  6
DASHED
 62
               2
100
AcDbLine
 10
-396.25
 20
-146.56
 30
0.0
 11
-396.25
 21
-118.06
 31
0.0
  0
LINE
  5
724
100
AcDbEntity
  8
0
  6
DASHED
 62
               2
100
AcDbLine
 10
-396.25
 20
-118.06
 30
0.0
 11
-393.25
 21
-118.06
 31
0.0
  0
LINE
  5
725
100
AcDbEntity
  8
0
  6
DASHED
 62
               2
100
AcDbLine
 10
-396.25
 20
-82.060000000000002
 30
0.0
 11
-393.25
 21
-82.060000000000002
 31
0.0
  0
LINE
  5
726
100
AcDbEntity
  8
0
  6
DASHED
 62
               2
100
AcDbLine
 10
-393.25
 20
-118.06
 30
0.0
 11
-393.25
 21
-82.060000000000002
 31
0.0
  0
LINE
  5
727
100
AcDbEntity
  8
0
  6
DASHED
 62
               2
100
AcDbLine
 10
-396.25
 20
-82.060000000000002
 30
0.0
 11
-396.25
 21
-56.560000000000002
 31
0.0
  0
LINE
  5
728
100
AcDbEntity
  8
0
  6
DASHED
 62
               2
100
AcDbLine
 10
-373.25
 20
-79.560000000000002
 30
0.0
 11
-373.25
 21
-67.560000000000002
 31
0.0
  0
LINE
  5
729
100
AcDbEntity
  8
0
  6
DASHED
 62
               2
100
AcDbLine
 10
-379.25
 20
-73.560000000000002
 30
0.0
 11
-367.25
 21
-73.560000000000002
 31
0.0
  0
LINE
  5
72A
100
AcDbEntity
  8
0
  6
DASHED
 62
               2
100
AcDbLine
 10
-379.25
 20
-137.56
 30
0.0
 11
-379.25
 21
-125.56
 31
0.0
  0
LINE
  5
72B
100
AcDbEntity
  8
0
  6
DASHED
 62
               2
100
AcDbLine
 10
-385.25
 20
-131.56
 30
0.0
 11
-373.25
 21
-131.56
 31
0.0
  0
LINE
  5
72C
100
AcDbEntity
  8
0
  6
DASHED
 62
               2
100
AcDbLine
 10
267.02999999999997
 20
131.43000000000001
 30
0.0
 11
267.02999999999997
 21
221.43000000000001
 31
0.0
  0
LINE
  5
72D
100
AcDbEntity
  8
0
  6
DASHED
 62
               2
100
AcDbLine
 10
213.03
 20
221.43000000000001
 30
0.0
 11
267.02999999999997
 21
221.43000000000001
 31
0.0
  0
LINE
  5
72E
100
AcDbEntity
  8
0
  6
DASHED
 62
               2
100
AcDbLine
 10
213.03
 20
131.43000000000001
 30
0.0
 11
267.02999999999997
 21
131.43000000000001
 31
0.0
  0
LINE
  5
72F
100
AcDbEntity
  8
0
  6
DASHED
 62
               2
100
AcDbLine
 10
213.03
 20
131.43000000000001
 30
0.0
 11
213.03
 21
159.93000000000001
 31
0.0
  0
LINE
  5
730
100
AcDbEntity
  8
0
  6
DASHED
 62
               2
100
AcDbLine
 10
213.03
 20
159.93000000000001
 30
0.0
 11
216.03
 21
159.93000000000001
 31
0.0
  0
LINE
  5
731
100
AcDbEntity
  8
0
  6
DASHED
 62
               2
100
AcDbLine
 10
213.03
 20
195.93000000000001
 30
0.0
 11
216.03
 21
195.93000000000001
 31
0.0
  0
LINE
  5
732
100
AcDbEntity
  8
0
  6
DASHED
 62
               2
100
AcDbLine
 10
216.03
 20
159.93000000000001
 30
0.0
 11
216.03
 21
195.93000000000001
 31
0.0
  0
LINE
  5
733
100
AcDbEntity
  8
0
  6
DASHED
 62
               2
100
AcDbLine
 10
213.03
 20
195.93000000000001
 30
0.0
 11
213.03
 21
221.43000000000001
 31
0.0
  0
LINE
  5
734
100
AcDbEntity
  8
0
  6
DASHED
 62
               2
100
AcDbLine
 10
236.03
 20
198.43000000000001
 30
0.0
 11
236.03
 21
210.43000000000001
 31
0.0
  0
LINE
  5
735
100
AcDbEntity
  8
0
  6
DASHED
 62
               2
100
AcDbLine
 10
230.03
 20
204.43000000000001
 30
0.0
 11
242.03
 21
204.43000000000001
 31
0.0
  0
LINE
  5
736
100
AcDbEntity
  8
0
  6
DASHED
 62
               2
100
AcDbLine
 10
230.03
 20
140.43000000000001
 30
0.0
 11
230.03
 21
152.43000000000001
 31
0.0
  0
LINE
  5
737
100
AcDbEntity
  8
0
  6
DASHED
 62
               2
100
AcDbLine
 10
224.03
 20
146.43000000000001
 30
0.0
 11
236.03
 21
146.43000000000001
 31
0.0
  0
LINE
  5
738
100
AcDbEntity
  8
0
  6
CONTINUOUS
 62
               7
100
AcDbLine
 10
266.83746719360352
 20
131.43174457396253
 30
0.0
 11
266.83746719360352
 21
131.4317626953125
 31
0.0
  0
LINE
  5
739
100
AcDbEntity
  8
0
  6
DASHED
 62
               2
100
AcDbLine
 10
36.270000000000003
 20
140.43000000000001
 30
0.0
 11
36.270000000000003
 21
152.43000000000001
 31
0.0
  0
LINE
  5
73A
100
AcDbEntity
  8
0
  6
DASHED
 62
               2
100
AcDbLine
 10
30.27
 20
146.43000000000001
 30
0.0
 11
42.270000000000003
 21
146.43000000000001
 31
0.0
  0
LINE
  5
73B
100
AcDbEntity
  8
0
  6
DASHED
 62
               2
100
AcDbLine
 10
73.269999999999996
 20
131.43000000000001
 30
0.0
 11
73.269999999999996
 21
221.43000000000001
 31
0.0
  0
LINE
  5
73C
100
AcDbEntity
  8
0
  6
DASHED
 62
               2
100
AcDbLine
 10
19.27
 20
221.43000000000001
 30
0.0
 11
73.269999999999996
 21
221.43000000000001
 31
0.0
  0
LINE
  5
73D
100
AcDbEntity
  8
0
  6
DASHED
 62
               2
100
AcDbLine
 10
19.27
 20
131.43000000000001
 30
0.0
 11
73.269999999999996
 21
131.43000000000001
 31
0.0
  0
LINE
  5
73E
100
AcDbEntity
  8
0
  6
DASHED
 62
               2
100
AcDbLine
 10
19.27
 20
131.43000000000001
 30
0.0
 11
19.27
 21
159.93000000000001
 31
0.0
  0
LINE
  5
73F
100
AcDbEntity
  8
0
  6
DASHED
 62
               2
100
AcDbLine
 10
19.27
 20
159.93000000000001
 30
0.0
 11
22.27
 21
159.93000000000001
 31
0.0
  0
LINE
  5
740
100
AcDbEntity
  8
0
  6
DASHED
 62
               2
100
AcDbLine
 10
19.27
 20
195.93000000000001
 30
0.0
 11
22.27
 21
195.93000000000001
 31
0.0
  0
LINE
  5
741
100
AcDbEntity
  8
0
  6
DASHED
 62
               2
100
AcDbLine
 10
22.27
 20
159.93000000000001
 30
0.0
 11
22.27
 21
195.93000000000001
 31
0.0
  0
LINE
  5
742
100
AcDbEntity
  8
0
  6
DASHED
 62
               2
100
AcDbLine
 10
19.27
 20
195.93000000000001
 30
0.0
 11
19.27
 21
221.43000000000001
 31
0.0
  0
LINE
  5
743
100
AcDbEntity
  8
0
  6
DASHED
 62
               2
100
AcDbLine
 10
42.270000000000003
 20
198.43000000000001
 30
0.0
 11
42.270000000000003
 21
210.43000000000001
 31
0.0
  0
LINE
  5
744
100
AcDbEntity
  8
0
  6
DASHED
 62
               2
100
AcDbLine
 10
36.270000000000003
 20
204.43000000000001
 30
0.0
 11
48.270000000000003
 21
204.43000000000001
 31
0.0
  0
ENDSEC
  0
SECTION
  2
OBJECTS
  0
DICTIONARY
  5
19
100
AcDbDictionary
  3
ACAD_GROUP
350
1A
  3
ACAD_MLINESTYLE
350
1B
  0
DICTIONARY
  5
1A
102
{ACAD_REACTORS
330
19
102
}
100
AcDbDictionary
  0
DICTIONARY
  5
1B
102
{ACAD_REACTORS
330
19
102
}
100
AcDbDictionary
  3
STANDARD
350
1C
  0
MLINESTYLE
  5
1C
102
{ACAD_REACTORS
330
1B
102
}
100
AcDbMlineStyle
  2
Standard
 70
               0
  3

 62
               0
 51
90.0
 52
90.0
 71
               2
 49
0.5
 62
             256
  6
ByLayer
 49
-0.5
 62
             256
  6
ByLayer
  0
ENDSEC
  0
EOF
