  0
SECTION
  2
HEADER
  9
$ACADVER
  1
AC1012
  9
$DWGCODEPAGE
  3
dos932
  9
$INSBASE
 10
0.0
 20
0.0
 30
0.0
  9
$EXTMIN
 10
-194.25
 20
-133.5
 30
0.0
  9
$EXTMAX
 10
196.2723600854633
 20
132.60000610351562
 30
0.0
  9
$LIMMIN
 10
-194.25
 20
-133.5
  9
$LIMMAX
 10
196.2723600854633
 20
132.60000610351562
  9
$ORTHOMODE
 70
               0
  9
$REGENMODE
 70
               1
  9
$FILLMODE
 70
               1
  9
$QTEXTMODE
 70
               0
  9
$MIRRTEXT
 70
               1
  9
$DRAGMODE
 70
               2
  9
$LTSCALE
 40
1.0
  9
$OSMODE
 70
               0
  9
$ATTMODE
 70
               1
  9
$TEXTSIZE
 40
3.2000000476837158
  9
$TRACEWID
 40
0.05
  9
$TEXTSTYLE
  7
MX_NOTE_STANDARD
  9
$CLAYER
  8
0
  9
$CELTYPE
  6
CONTINUOUS
  9
$CECOLOR
 62
             256
  9
$CELTSCALE
 40
1.0
  9
$DELOBJ
 70
               1
  9
$DISPSILH
 70
               0
  9
$DIMSCALE
 40
1.0
  9
$DIMASZ
 40
2.5
  9
$DIMEXO
 40
1.5
  9
$DIMDLI
 40
3.75
  9
$DIMRND
 40
0.0
  9
$DIMDLE
 40
0.0
  9
$DIMEXE
 40
1.5
  9
$DIMTP
 40
0.0
  9
$DIMTM
 40
0.0
  9
$DIMTXT
 40
3.2000000476837158
  9
$DIMCEN
 40
2.5
  9
$DIMTSZ
 40
0.0
  9
$DIMTOL
 70
               0
  9
$DIMLIM
 70
               0
  9
$DIMTIH
 70
               0
  9
$DIMTOH
 70
               0
  9
$DIMSE1
 70
               0
  9
$DIMSE2
 70
               0
  9
$DIMTAD
 70
               1
  9
$DIMZIN
 70
               8
  9
$DIMBLK
  1

  9
$DIMASO
 70
               1
  9
$DIMSHO
 70
               1
  9
$DIMPOST
  1

  9
$DIMAPOST
  1

  9
$DIMALT
 70
               0
  9
$DIMALTD
 70
               4
  9
$DIMALTF
 40
0.03937007874016
  9
$DIMLFAC
 40
1.0
  9
$DIMTOFL
 70
               1
  9
$DIMTVP
 40
0.0
  9
$DIMTIX
 70
               0
  9
$DIMSOXD
 70
               0
  9
$DIMSAH
 70
               0
  9
$DIMBLK1
  1

  9
$DIMBLK2
  1

  9
$DIMSTYLE
  2
MXDIMSTYLE
  9
$DIMCLRD
 70
               0
  9
$DIMCLRE
 70
               0
  9
$DIMCLRT
 70
               0
  9
$DIMTFAC
 40
1.0
  9
$DIMGAP
 40
1.0
  9
$DIMJUST
 70
               0
  9
$DIMSD1
 70
               0
  9
$DIMSD2
 70
               0
  9
$DIMTOLJ
 70
               1
  9
$DIMTZIN
 70
               0
  9
$DIMALTZ
 70
               0
  9
$DIMALTTZ
 70
               0
  9
$DIMFIT
 70
               3
  9
$DIMUPT
 70
               1
  9
$DIMUNIT
 70
               2
  9
$DIMDEC
 70
               4
  9
$DIMTDEC
 70
               4
  9
$DIMALTU
 70
               2
  9
$DIMALTTD
 70
               4
  9
$DIMTXSTY
  7
MX_NOTE_STANDARD
  9
$DIMAUNIT
 70
               0
  9
$LUNITS
 70
               2
  9
$LUPREC
 70
               4
  9
$SKETCHINC
 40
0.1
  9
$FILLETRAD
 40
0.0
  9
$AUNITS
 70
               0
  9
$AUPREC
 70
               0
  9
$MENU
  1
acad
  9
$ELEVATION
 40
0.0
  9
$PELEVATION
 40
0.0
  9
$THICKNESS
 40
0.0
  9
$LIMCHECK
 70
               0
  9
$BLIPMODE
 70
               1
  9
$CHAMFERA
 40
0.0
  9
$CHAMFERB
 40
0.0
  9
$CHAMFERC
 40
0.0
  9
$CHAMFERD
 40
0.0
  9
$SKPOLY
 70
               0
  9
$TDCREATE
 40
2453378.356504630
  9
$TDUPDATE
 40
2453378.356504630
  9
$TDINDWG
 40
0.0000000000
  9
$TDUSRTIMER
 40
0.0000000000
  9
$USRTIMER
 70
               1
  9
$ANGBASE
 50
0.0
  9
$ANGDIR
 70
               0
  9
$PDMODE
 70
               0
  9
$PDSIZE
 40
0.0
  9
$PLINEWID
 40
0.0
  9
$COORDS
 70
               1
  9
$SPLFRAME
 70
               0
  9
$SPLINETYPE
 70
               6
  9
$SPLINESEGS
 70
               8
  9
$ATTDIA
 70
               0
  9
$ATTREQ
 70
               1
  9
$HANDLING
 70
               1
  9
$HANDSEED
  5
17F
  9
$SURFTAB1
 70
               6
  9
$SURFTAB2
 70
               6
  9
$SURFTYPE
 70
               6
  9
$SURFU
 70
               6
  9
$SURFV
 70
               6
  9
$UCSNAME
  2

  9
$UCSORG
 10
0.0
 20
0.0
 30
0.0
  9
$UCSXDIR
 10
1.0
 20
0.0
 30
0.0
  9
$UCSYDIR
 10
0.0
 20
1.0
 30
0.0
  9
$PUCSNAME
  2

  9
$PUCSORG
 10
0.0
 20
0.0
 30
0.0
  9
$PUCSXDIR
 10
1.0
 20
0.0
 30
0.0
  9
$PUCSYDIR
 10
0.0
 20
1.0
 30
0.0
  9
$USERI1
 70
               0
  9
$USERI2
 70
               0
  9
$USERI3
 70
               0
  9
$USERI4
 70
               0
  9
$USERI5
 70
               0
  9
$USERR1
 40
0.0
  9
$USERR2
 40
0.0
  9
$USERR3
 40
0.0
  9
$USERR4
 40
0.0
  9
$USERR5
 40
0.0
  9
$WORLDVIEW
 70
               1
  9
$SHADEDGE
 70
               3
  9
$SHADEDIF
 70
              70
  9
$TILEMODE
 70
               1
  9
$MAXACTVP
 70
              16
  9
$PINSBASE
 10
0.0
 20
0.0
 30
0.0
  9
$PLIMCHECK
 70
               0
  9
$PEXTMIN
 10
1.0000000000000000E+20
 20
1.0000000000000000E+20
 30
1.0000000000000000E+20
  9
$PEXTMAX
 10
-1.0000000000000000E+20
 20
-1.0000000000000000E+20
 30
-1.0000000000000000E+20
  9
$PLIMMIN
 10
0.0
 20
0.0
  9
$PLIMMAX
 10
12.0
 20
9.0
  9
$UNITMODE
 70
               0
  9
$VISRETAIN
 70
               0
  9
$PLINEGEN
 70
               1
  9
$PSLTSCALE
 70
               0
  9
$TREEDEPTH
 70
            3020
  9
$PICKSTYLE
 70
               1
  9
$CMLSTYLE
  2
Standard
  9
$CMLJUST
 70
               0
  9
$CMLSCALE
 40
1.0
  9
$SAVEIMAGES
 70
               0
  0
ENDSEC
  0
SECTION
  2
CLASSES
  0
CLASS
  1
LWPOLYLINE
  2
AcDbPolyline
  3
"AutoCAD"
 90
        0
280
               0
281
               1
  0
CLASS
  1
IMAGE
  2
AcDbRasterImage
  3
ISM
 90
      127
280
               0
281
               1
  0
CLASS
  1
OLE2FRAME
  2
AcDbOle2Frame
  3
""
 90
        0
280
               0
281
               1
  0
CLASS
  1
HATCH
  2
AcDbHatch
  3
"ACAD_SEDONA"
 90
        0
280
               0
281
               1
  0
CLASS
  1
DICTIONARYVAR
  2
AcDbDictionaryVar
  3
"AutoCAD"
 90
        0
280
               0
281
               0
  0
CLASS
  1
RASTERVARIABLES
  2
AcDbRasterVariables
  3
ISM
 90
        0
280
               0
281
               0
  0
CLASS
  1
IMAGEDEF
  2
AcDbRasterImageDef
  3
ISM
 90
        0
280
               0
281
               0
  0
CLASS
  1
IMAGEDEF_REACTOR
  2
AcDbRasterImageDefReactor
  3
ISM
 90
        1
280
               0
281
               0
  0
CLASS
  1
IDBUFFER
  2
AcDbIdBuffer
  3
"Acad"
 90
        0
280
               0
281
               0
  0
CLASS
  1
SPATIAL_FILTER
  2
AcDbSpatialFilter
  3
"Acad"
 90
        0
280
               0
281
               0
  0
CLASS
  1
XRECORD
  2
AcDbXrecord
  3
"<Built In>"
 90
        0
280
               0
281
               0
  0
CLASS
  1
SORTENTSTABLE
  2
AcDbSortentsTable
  3
"AutoCAD"
 90
        0
280
               0
281
               0
  0
CLASS
  1
LAYER_INDEX
  2
AcDbLayerIndex
  3
"Acad"
 90
        0
280
               0
281
               0
  0
CLASS
  1
SPATIAL_INDEX
  2
AcDbSpatialIndex
  3
"Acad"
 90
        0
280
               0
281
               0
  0
CLASS
  1
OBJECT_PTR
  2
CAseDLPNTableRecord
  3
"ASE-LPNTableRecord"
 90
        1
280
               0
281
               0
  0
CLASS
  1
LAYOUT
  2
AcDbLayout
  3
"AutoCAD 2000"
 90
        1
280
               0
281
               0
  0
CLASS
  1
PLOTSETTINGS
  2
AcDbPlotSettings
  3
"AutoCAD 2000"
 90
        1
280
               0
281
               0
  0
CLASS
  1
ACDBDICTIONARYWDFLT
  2
AcDbDictionaryWithDefault
  3
"AutoCAD 2000"
 90
        1
280
               0
281
               0
  0
CLASS
  1
ACDBPLACEHOLDER
  2
AcDbPlaceHolder
  3
"AutoCAD 2000"
 90
        1
280
               0
281
               0
  0
ENDSEC
  0
SECTION
  2
TABLES
  0
TABLE
  2
VPORT
  5
7
100
AcDbSymbolTable
 70
               1
  0
VPORT
  5
15
100
AcDbSymbolTableRecord
100
AcDbViewportTableRecord
  2
*ACTIVE
 70
               0
 10
0.0
 20
0.0
 11
1.0
 21
1.0
 12
1.0111800427316666
 22
-0.4499969482421875
 13
0.0
 23
0.0
 14
1.0
 24
1.0
 15
0.0
 25
0.0
 16
0.0
 26
0.0
 36
1.0
 17
0.0
 27
0.0
 37
0.0
 40
268.76100616455079
 41
1.7320508075688772
 42
50.0
 43
0.0
 44
0.0
 50
0.0
 51
0.0
 71
               0
 72
             100
 73
               1
 74
               1
 75
               0
 76
               0
 77
               0
 78
               0
  0
ENDTAB
  0
TABLE
  2
LTYPE
  5
4
100
AcDbSymbolTable
 70
               6
  0
LTYPE
  5
11
100
AcDbSymbolTableRecord
100
AcDbLinetypeTableRecord
  2
BYBLOCK
 70
              64
  3

 72
              65
 73
               0
 40
0.0
  0
LTYPE
  5
12
100
AcDbSymbolTableRecord
100
AcDbLinetypeTableRecord
  2
BYLAYER
 70
              64
  3

 72
              65
 73
               0
 40
0.0
  0
LTYPE
  5
13
100
AcDbSymbolTableRecord
100
AcDbLinetypeTableRecord
  2
CONTINUOUS
 70
              64
  3
Solid line
 72
              65
 73
               0
 40
0.0
  0
LTYPE
  5
25
100
AcDbSymbolTableRecord
100
AcDbLinetypeTableRecord
  2
PHANTOM
 70
              64
  3
Phantom ______  __  __  ______  __  __  ______
 72
              65
 73
               6
 40
30.0
 49
20.0
 74
               0
 49
-2.0
 74
               0
 49
2.0
 74
               0
 49
-2.0
 74
               0
 49
2.0
 74
               0
 49
-2.0
 74
               0
  0
LTYPE
  5
59
100
AcDbSymbolTableRecord
100
AcDbLinetypeTableRecord
  2
DASHED
 70
              64
  3
Dashed __ __ __ __ __ __ __ __ __ __ __ __ __ _
 72
              65
 73
               2
 40
4.0
 49
2.0
 74
               0
 49
-2.0
 74
               0
  0
LTYPE
  5
68
100
AcDbSymbolTableRecord
100
AcDbLinetypeTableRecord
  2
CENTER
 70
              64
  3
Center ____ _ ____ _ ____ _ ____ _ ____ _ ____
 72
              65
 73
               4
 40
26.0
 49
20.0
 74
               0
 49
-2.0
 74
               0
 49
2.0
 74
               0
 49
-2.0
 74
               0
  0
ENDTAB
  0
TABLE
  2
LAYER
  5
2
100
AcDbSymbolTable
 70
               2
  0
LAYER
  5
14
100
AcDbSymbolTableRecord
100
AcDbLayerTableRecord
  2
0
 70
               0
 62
               7
  6
CONTINUOUS
  0
LAYER
  5
1D
100
AcDbSymbolTableRecord
100
AcDbLayerTableRecord
  2
DEFPOINTS
 70
               0
 62
               7
  6
CONTINUOUS
  0
ENDTAB
  0
TABLE
  2
STYLE
  5
3
100
AcDbSymbolTable
 70
               1
  0
STYLE
  5
17
100
AcDbSymbolTableRecord
100
AcDbTextStyleTableRecord
  2
MX_NOTE_STANDARD
 70
               0
 40
0.0
 41
1.0
 50
0.0
 71
               0
 42
3.2000000476837158
  3
txt.shx
  4
extfont.shx
  0
ENDTAB
  0
TABLE
  2
VIEW
  5
5
100
AcDbSymbolTable
 70
               0
  0
ENDTAB
  0
TABLE
  2
UCS
  5
6
100
AcDbSymbolTable
 70
               0
  0
ENDTAB
  0
TABLE
  2
APPID
  5
8
100
AcDbSymbolTable
 70
               1
  0
APPID
  5
16
100
AcDbSymbolTableRecord
100
AcDbRegAppTableRecord
  2
ACAD
 70
               0
  0
ENDTAB
  0
TABLE
  2
DIMSTYLE
  5
9
100
AcDbSymbolTable
 70
               1
  0
DIMSTYLE
105
18
100
AcDbSymbolTableRecord
100
AcDbDimStyleTableRecord
  2
MXDIMSTYLE
 70
               0
  3

  4

  5

  6

  7

 40
1.0
 41
2.5
 42
1.5
 43
3.75
 44
1.5
 45
0.0
 46
0.0
 47
0.0
 48
0.0
 71
               0
 72
               0
 73
               0
 74
               0
 75
               0
 76
               0
 77
               1
 78
               8
140
3.2000000476837158
141
2.5
142
0.0
143
0.03937007874016
144
1.0
145
0.0
146
1.0
147
1.0
170
               0
171
               4
172
               1
173
               0
174
               0
175
               0
176
               0
177
               0
178
               0
270
               2
271
               4
272
               4
273
               2
274
               4
275
               0
280
               0
281
               0
282
               0
283
               1
284
               0
285
               0
286
               0
287
               3
288
               1
340
17
  0
ENDTAB
  0
TABLE
  2
BLOCK_RECORD
  5
1
100
AcDbSymbolTable
 70
               6
  0
BLOCK_RECORD
  5
A
100
AcDbSymbolTableRecord
100
AcDbBlockTableRecord
  2
*MODEL_SPACE
  0
BLOCK_RECORD
  5
B
100
AcDbSymbolTableRecord
100
AcDbBlockTableRecord
  2
*PAPER_SPACE
  0
BLOCK_RECORD
  5
1E
100
AcDbSymbolTableRecord
100
AcDbBlockTableRecord
  2
F15Z-1
  0
BLOCK_RECORD
  5
1F
100
AcDbSymbolTableRecord
100
AcDbBlockTableRecord
  2
F15Z-2
  0
BLOCK_RECORD
  5
20
100
AcDbSymbolTableRecord
100
AcDbBlockTableRecord
  2
F15Z-3
  0
BLOCK_RECORD
  5
21
100
AcDbSymbolTableRecord
100
AcDbBlockTableRecord
  2
F15Z-4
  0
BLOCK_RECORD
  5
22
100
AcDbSymbolTableRecord
100
AcDbBlockTableRecord
  2
F15Z-5
  0
BLOCK_RECORD
  5
23
100
AcDbSymbolTableRecord
100
AcDbBlockTableRecord
  2
F15Z-6
  0
ENDTAB
  0
ENDSEC
  0
SECTION
  2
BLOCKS
  0
BLOCK
  5
D
100
AcDbEntity
  8
0
100
AcDbBlockBegin
  2
*MODEL_SPACE
 70
               0
 10
0.0
 20
0.0
 30
0.0
  3
*MODEL_SPACE
  1

  0
ENDBLK
  5
E
100
AcDbEntity
  8
0
100
AcDbBlockEnd
  0
BLOCK
  5
F
100
AcDbEntity
 67
               1
  8
0
100
AcDbBlockBegin
  2
*PAPER_SPACE
 70
               0
 10
0.0
 20
0.0
 30
0.0
  3
*PAPER_SPACE
  1

  0
ENDBLK
  5
10
100
AcDbEntity
 67
               1
  8
0
100
AcDbBlockEnd
  0
BLOCK
  5
24
100
AcDbEntity
  8
0
100
AcDbBlockBegin
  2
F15Z-1
 70
               0
 10
0.0
 20
0.0
 30
0.0
  3
F15Z-1
  1

  0
LINE
  5
26
100
AcDbEntity
  8
0
  6
PHANTOM
 62
               2
100
AcDbLine
 10
-4.9999999892712168
 20
25.900033569335932
 30
0.0
 11
5.0
 21
25.900033569335932
 31
0.0
  0
LINE
  5
27
100
AcDbEntity
  8
0
  6
PHANTOM
 62
               2
100
AcDbLine
 10
-4.9999999892712168
 20
27.900033569335932
 30
0.0
 11
5.0
 21
27.900033569335932
 31
0.0
  0
LINE
  5
28
100
AcDbEntity
  8
0
  6
PHANTOM
 62
               2
100
AcDbLine
 10
4.0
 20
20.900033569335932
 30
0.0
 11
4.0
 21
20.800033569335938
 31
0.0
  0
LINE
  5
29
100
AcDbEntity
  8
0
  6
PHANTOM
 62
               2
100
AcDbLine
 10
-4.0
 20
20.900033569335932
 30
0.0
 11
-4.0
 21
20.700033569335915
 31
0.0
  0
LINE
  5
2A
100
AcDbEntity
  8
0
  6
PHANTOM
 62
               2
100
AcDbLine
 10
-5.1000000000000369
 20
57.900033569335903
 30
0.0
 11
-5.1000000000000369
 21
48.000033569335926
 31
0.0
  0
LINE
  5
2B
100
AcDbEntity
  8
0
  6
PHANTOM
 62
               2
100
AcDbLine
 10
5.0999999999999659
 20
57.900033569335903
 30
0.0
 11
5.0999999999999659
 21
48.000033569335926
 31
0.0
  0
LINE
  5
2C
100
AcDbEntity
  8
0
  6
PHANTOM
 62
               2
100
AcDbLine
 10
-5.0000000000000142
 20
38.900033569335903
 30
0.0
 11
-6.0000000000000142
 21
39.900033569335903
 31
0.0
  0
LINE
  5
2D
100
AcDbEntity
  8
0
  6
PHANTOM
 62
               2
100
AcDbLine
 10
5.0
 20
38.900033569335903
 30
0.0
 11
6.0
 21
39.900033569335903
 31
0.0
  0
LINE
  5
2E
100
AcDbEntity
  8
0
  6
PHANTOM
 62
               2
100
AcDbLine
 10
5.0
 20
38.900033569335903
 30
0.0
 11
5.0
 21
20.900033569335932
 31
0.0
  0
LINE
  5
2F
100
AcDbEntity
  8
0
  6
PHANTOM
 62
               2
100
AcDbLine
 10
-5.0000000000000142
 20
38.900033569335903
 30
0.0
 11
-5.0000000000000142
 21
20.900033569335932
 31
0.0
  0
LINE
  5
30
100
AcDbEntity
  8
0
  6
PHANTOM
 62
               2
100
AcDbLine
 10
-6.0000000000000142
 20
48.000033569335926
 30
0.0
 11
6.0
 21
48.000033569335926
 31
0.0
  0
LINE
  5
31
100
AcDbEntity
  8
0
  6
PHANTOM
 62
               2
100
AcDbLine
 10
-5.1000000000000369
 20
57.900033569335903
 30
0.0
 11
5.0999999999999659
 21
57.900033569335903
 31
0.0
  0
LINE
  5
32
100
AcDbEntity
  8
0
  6
PHANTOM
 62
               2
100
AcDbLine
 10
5.0
 20
59.900033569335903
 30
0.0
 11
6.0
 21
58.900033569335903
 31
0.0
  0
LINE
  5
33
100
AcDbEntity
  8
0
  6
PHANTOM
 62
               2
100
AcDbLine
 10
-4.9999999892712168
 20
59.900033569335903
 30
0.0
 11
-6.0000000000000142
 21
58.900033558607106
 31
0.0
  0
LINE
  5
34
100
AcDbEntity
  8
0
  6
PHANTOM
 62
               2
100
AcDbLine
 10
6.0
 20
58.900033569335903
 30
0.0
 11
6.0
 21
39.900033569335903
 31
0.0
  0
LINE
  5
35
100
AcDbEntity
  8
0
  6
PHANTOM
 62
               2
100
AcDbLine
 10
-6.0000000000000142
 20
58.900033558607106
 30
0.0
 11
-6.0000000000000142
 21
39.900033569335903
 31
0.0
  0
LINE
  5
36
100
AcDbEntity
  8
0
  6
PHANTOM
 62
               2
100
AcDbLine
 10
-4.9999999892712168
 20
20.900033569335932
 30
0.0
 11
5.0
 21
20.900033569335932
 31
0.0
  0
LINE
  5
37
100
AcDbEntity
  8
0
  6
PHANTOM
 62
               2
100
AcDbLine
 10
-4.9999999892712168
 20
59.900033569335903
 30
0.0
 11
5.0
 21
59.900033569335903
 31
0.0
  0
LINE
  5
38
100
AcDbEntity
  8
0
  6
CONTINUOUS
 62
               7
100
AcDbLine
 10
5.7999999999999972
 20
-78.999966430664074
 30
0.0
 11
-5.8000000000000256
 21
-78.999966430664074
 31
0.0
  0
LINE
  5
39
100
AcDbEntity
  8
0
  6
CONTINUOUS
 62
               7
100
AcDbLine
 10
-7.9000000000000199
 20
-69.59996643066404
 30
0.0
 11
-7.9000000000000199
 21
-70.899966430664051
 31
0.0
  0
LINE
  5
3A
100
AcDbEntity
  8
0
  6
CONTINUOUS
 62
               7
100
AcDbLine
 10
7.8999999999999915
 20
-69.59996643066404
 30
0.0
 11
7.8999999999999915
 21
-70.899966430664051
 31
0.0
  0
LINE
  5
3B
100
AcDbEntity
  8
0
  6
CONTINUOUS
 62
               7
100
AcDbLine
 10
7.6999999999999744
 20
-71.09996643066404
 30
0.0
 11
-7.7000000000000028
 21
-71.09996643066404
 31
0.0
  0
LINE
  5
3C
100
AcDbEntity
  8
0
  6
CONTINUOUS
 62
               7
100
AcDbLine
 10
-7.7000000000000028
 20
-71.09996643066404
 30
0.0
 11
-7.9000000000000199
 21
-70.899966430664051
 31
0.0
  0
LINE
  5
3D
100
AcDbEntity
  8
0
  6
CONTINUOUS
 62
               7
100
AcDbLine
 10
7.6999999999999744
 20
-71.09996643066404
 30
0.0
 11
7.8999999999999915
 21
-70.899966430664051
 31
0.0
  0
LINE
  5
3E
100
AcDbEntity
  8
0
  6
CONTINUOUS
 62
               7
100
AcDbLine
 10
7.8999999999999915
 20
-70.899966430664051
 30
0.0
 11
-7.9000000000000199
 21
-70.899966430664051
 31
0.0
  0
LINE
  5
3F
100
AcDbEntity
  8
0
  6
CONTINUOUS
 62
               7
100
AcDbLine
 10
5.4999999999999858
 20
-73.899966430664051
 30
0.0
 11
-5.5000000000000142
 21
-73.899966430664051
 31
0.0
  0
LINE
  5
40
100
AcDbEntity
  8
0
  6
CONTINUOUS
 62
               7
100
AcDbLine
 10
-5.8000000000000256
 20
-77.199966430664063
 30
0.0
 11
-5.8000000000000256
 21
-78.999966430664074
 31
0.0
  0
LINE
  5
41
100
AcDbEntity
  8
0
  6
CONTINUOUS
 62
               7
100
AcDbLine
 10
5.7999999999999972
 20
-77.199966430664063
 30
0.0
 11
5.7999999999999972
 21
-78.999966430664074
 31
0.0
  0
LINE
  5
42
100
AcDbEntity
  8
0
  6
CONTINUOUS
 62
               7
100
AcDbLine
 10
5.7999999999999972
 20
-77.199966430664063
 30
0.0
 11
-5.8000000000000256
 21
-77.199966430664063
 31
0.0
  0
LINE
  5
43
100
AcDbEntity
  8
0
  6
CONTINUOUS
 62
               7
100
AcDbLine
 10
4.7999999999999972
 20
-76.199966430664063
 30
0.0
 11
-4.8000000000000114
 21
-76.199966430664063
 31
0.0
  0
LINE
  5
44
100
AcDbEntity
  8
0
  6
CONTINUOUS
 62
               7
100
AcDbLine
 10
-4.8000000000000114
 20
-73.899966430664051
 30
0.0
 11
-4.8000000000000114
 21
-74.899966430664051
 31
0.0
  0
LINE
  5
45
100
AcDbEntity
  8
0
  6
CONTINUOUS
 62
               7
100
AcDbLine
 10
4.7999999999999972
 20
-73.899966430664051
 30
0.0
 11
4.7999999999999972
 21
-74.899966430664051
 31
0.0
  0
LINE
  5
46
100
AcDbEntity
  8
0
  6
CONTINUOUS
 62
               7
100
AcDbLine
 10
-4.0000000000000142
 20
-76.199966430664063
 30
0.0
 11
-4.0000000000000142
 21
-77.199966430664063
 31
0.0
  0
LINE
  5
47
100
AcDbEntity
  8
0
  6
CONTINUOUS
 62
               7
100
AcDbLine
 10
3.9999999999999858
 20
-76.199966430664063
 30
0.0
 11
3.9999999999999858
 21
-77.199966430664063
 31
0.0
  0
LINE
  5
48
100
AcDbEntity
  8
0
  6
CONTINUOUS
 62
               7
100
AcDbLine
 10
-7.0000000000000142
 20
-71.09996643066404
 30
0.0
 11
-7.0000000000000142
 21
-72.59996643066404
 31
0.0
  0
LINE
  5
49
100
AcDbEntity
  8
0
  6
CONTINUOUS
 62
               7
100
AcDbLine
 10
6.9999999999999858
 20
-71.09996643066404
 30
0.0
 11
6.9999999999999858
 21
-72.59996643066404
 31
0.0
  0
LINE
  5
4A
100
AcDbEntity
  8
0
  6
CONTINUOUS
 62
               7
100
AcDbLine
 10
6.9999999999999858
 20
-72.59996643066404
 30
0.0
 11
-7.0000000000000142
 21
-72.59996643066404
 31
0.0
  0
LINE
  5
4B
100
AcDbEntity
  8
0
  6
CONTINUOUS
 62
               7
100
AcDbLine
 10
-5.4999999880790966
 20
-73.465991836786259
 30
0.0
 11
-7.0000000000000142
 21
-72.599966426119295
 31
0.0
  0
LINE
  5
4C
100
AcDbEntity
  8
0
  6
CONTINUOUS
 62
               7
100
AcDbLine
 10
7.0000000119209034
 20
-72.599966424703609
 30
0.0
 11
5.4999999999999858
 21
-73.465991835370573
 31
0.0
  0
LINE
  5
4D
100
AcDbEntity
  8
0
  6
CONTINUOUS
 62
               7
100
AcDbLine
 10
-5.5000000000000142
 20
-73.465991829903714
 30
0.0
 11
-5.5000000000000142
 21
-73.899966430664051
 31
0.0
  0
LINE
  5
4E
100
AcDbEntity
  8
0
  6
CONTINUOUS
 62
               7
100
AcDbLine
 10
5.4999999999999858
 20
-73.465991835370573
 30
0.0
 11
5.4999999999999858
 21
-73.899966430664051
 31
0.0
  0
LINE
  5
4F
100
AcDbEntity
  8
0
  6
CONTINUOUS
 62
               7
100
AcDbLine
 10
5.4999999999999858
 20
-73.465991836786259
 30
0.0
 11
-5.4999999880790966
 21
-73.465991836786259
 31
0.0
  0
LINE
  5
50
100
AcDbEntity
  8
0
  6
CONTINUOUS
 62
               7
100
AcDbLine
 10
4.6499999999999915
 20
-75.049966430664028
 30
0.0
 11
-4.6500000000000199
 21
-75.049966430664028
 31
0.0
  0
LINE
  5
51
100
AcDbEntity
  8
0
  6
CONTINUOUS
 62
               7
100
AcDbLine
 10
4.7999999999999972
 20
-75.199966430664063
 30
0.0
 11
-4.8000000000000114
 21
-75.199966430664063
 31
0.0
  0
LINE
  5
52
100
AcDbEntity
  8
0
  6
CONTINUOUS
 62
               7
100
AcDbLine
 10
4.7999999999999972
 20
-74.899966430664051
 30
0.0
 11
-4.8000000000000114
 21
-74.899966430664051
 31
0.0
  0
LINE
  5
53
100
AcDbEntity
  8
0
  6
CONTINUOUS
 62
               7
100
AcDbLine
 10
-4.8000000000000114
 20
-75.199966430664063
 30
0.0
 11
-4.6500000000000199
 21
-75.049966430664028
 31
0.0
  0
LINE
  5
54
100
AcDbEntity
  8
0
  6
CONTINUOUS
 62
               7
100
AcDbLine
 10
4.7999999999999972
 20
-74.899966430664051
 30
0.0
 11
4.6499999999999915
 21
-75.049966430664028
 31
0.0
  0
LINE
  5
55
100
AcDbEntity
  8
0
  6
CONTINUOUS
 62
               7
100
AcDbLine
 10
4.7999999999999972
 20
-75.199966430664063
 30
0.0
 11
4.6499999999999915
 21
-75.049966430664028
 31
0.0
  0
LINE
  5
56
100
AcDbEntity
  8
0
  6
CONTINUOUS
 62
               7
100
AcDbLine
 10
-4.8000000000000114
 20
-74.899966430664051
 30
0.0
 11
-4.6500000000000199
 21
-75.049966430664028
 31
0.0
  0
LINE
  5
57
100
AcDbEntity
  8
0
  6
CONTINUOUS
 62
               7
100
AcDbLine
 10
-4.8000000000000114
 20
-75.199966430664063
 30
0.0
 11
-4.8000000000000114
 21
-76.199966430664063
 31
0.0
  0
LINE
  5
58
100
AcDbEntity
  8
0
  6
CONTINUOUS
 62
               7
100
AcDbLine
 10
4.7999999999999972
 20
-75.199966430664063
 30
0.0
 11
4.7999999999999972
 21
-76.199966430664063
 31
0.0
  0
LINE
  5
5A
100
AcDbEntity
  8
0
  6
DASHED
 62
               2
100
AcDbLine
 10
2.9999999999999858
 20
-69.59996643066404
 30
0.0
 11
2.9999999999999858
 21
-78.999966430664074
 31
0.0
  0
LINE
  5
5B
100
AcDbEntity
  8
0
  6
DASHED
 62
               2
100
AcDbLine
 10
-3.0000000000000142
 20
-69.59996643066404
 30
0.0
 11
-3.0000000000000142
 21
-78.999966430664074
 31
0.0
  0
ARC
  5
5C
100
AcDbEntity
  8
0
  6
CONTINUOUS
 62
               7
100
AcDbCircle
 10
-4.2875761269276467
 20
19.398454099043676
 30
0.0
 40
0.5002825560375215
100
AcDbArc
 50
149.80962445670386
 51
279.50066058034474
  0
ARC
  5
5D
100
AcDbEntity
  8
0
  6
CONTINUOUS
 62
               7
100
AcDbCircle
 10
4.2895093297930345
 20
19.401468158055962
 30
0.0
 40
0.5014348287884292
100
AcDbArc
 50
270.05606578335625
 51
29.716467914679011
  0
CIRCLE
  5
5E
100
AcDbEntity
  8
0
  6
CONTINUOUS
 62
               7
100
AcDbCircle
 10
-5.4999954223632841
 20
-29.099967956542969
 30
0.0
 40
1.3999996185302734
  0
CIRCLE
  5
5F
100
AcDbEntity
  8
0
  6
CONTINUOUS
 62
               7
100
AcDbCircle
 10
5.4999969482421847
 20
3.9000320434570313
 30
0.0
 40
1.3999996185302734
  0
LINE
  5
60
100
AcDbEntity
  8
0
  6
CONTINUOUS
 62
               7
100
AcDbLine
 10
-6.0000000000000142
 20
20.900033569335932
 30
0.0
 11
6.0
 21
20.900033569335932
 31
0.0
  0
LINE
  5
61
100
AcDbEntity
  8
0
  6
CONTINUOUS
 62
               7
100
AcDbLine
 10
-4.7200000000000131
 20
19.650033569335932
 30
0.0
 11
-4.0
 21
20.900033569335932
 31
0.0
  0
LINE
  5
62
100
AcDbEntity
  8
0
  6
CONTINUOUS
 62
               7
100
AcDbLine
 10
0.0
 20
18.900033569335932
 30
0.0
 11
4.2900000000000063
 21
18.900033569335932
 31
0.0
  0
LINE
  5
63
100
AcDbEntity
  8
0
  6
CONTINUOUS
 62
               7
100
AcDbLine
 10
4.7249999999999943
 20
19.650033569335932
 30
0.0
 11
4.0
 21
20.900033569335932
 31
0.0
  0
LINE
  5
64
100
AcDbEntity
  8
0
  6
CONTINUOUS
 62
               7
100
AcDbLine
 10
6.5
 20
-56.899966430664051
 30
0.0
 11
6.5
 21
-68.099966430664097
 31
0.0
  0
LINE
  5
65
100
AcDbEntity
  8
0
  6
CONTINUOUS
 62
               7
100
AcDbLine
 10
-6.5000000000000142
 20
-56.899966430664051
 30
0.0
 11
-6.5000000000000142
 21
-68.099966430664097
 31
0.0
  0
LINE
  5
66
100
AcDbEntity
  8
0
  6
CONTINUOUS
 62
               7
100
AcDbLine
 10
-6.5000000000000142
 20
-56.899966430664051
 30
0.0
 11
6.5
 21
-56.899966430664051
 31
0.0
  0
LINE
  5
67
100
AcDbEntity
  8
0
  6
CONTINUOUS
 62
               7
100
AcDbLine
 10
8.0
 20
18.900033569335932
 30
0.0
 11
6.0
 21
20.900033569335932
 31
0.0
  0
LINE
  5
69
100
AcDbEntity
  8
0
  6
CENTER
 62
               2
100
AcDbLine
 10
5.5
 20
1.7000335693359148
 30
0.0
 11
5.5
 21
6.3900335693359125
 31
0.0
  0
LINE
  5
6A
100
AcDbEntity
  8
0
  6
CONTINUOUS
 62
               7
100
AcDbLine
 10
-8.0000000000000142
 20
-55.399966430664051
 30
0.0
 11
8.0
 21
-55.399966430664051
 31
0.0
  0
LINE
  5
6B
100
AcDbEntity
  8
0
  6
CONTINUOUS
 62
               7
100
AcDbLine
 10
-6.5000000000000142
 20
-68.099966430664097
 30
0.0
 11
6.5
 21
-68.099966430664097
 31
0.0
  0
LINE
  5
6C
100
AcDbEntity
  8
0
  6
CONTINUOUS
 62
               7
100
AcDbLine
 10
0.0
 20
18.900033569335932
 30
0.0
 11
-4.1149999999999949
 21
18.900033569335932
 31
0.0
  0
LINE
  5
6D
100
AcDbEntity
  8
0
  6
CONTINUOUS
 62
               7
100
AcDbLine
 10
-8.0000000000000142
 20
18.900033569335932
 30
0.0
 11
-8.0000000000000142
 21
-69.599966430664097
 31
0.0
  0
LINE
  5
6E
100
AcDbEntity
  8
0
  6
CONTINUOUS
 62
               7
100
AcDbLine
 10
8.0
 20
18.900033569335932
 30
0.0
 11
8.0
 21
-69.599966430664097
 31
0.0
  0
LINE
  5
6F
100
AcDbEntity
  8
0
  6
CONTINUOUS
 62
               7
100
AcDbLine
 10
-8.0000000000000142
 20
18.900033569335932
 30
0.0
 11
-6.0000000000000142
 21
20.900033569335932
 31
0.0
  0
LINE
  5
70
100
AcDbEntity
  8
0
  6
CONTINUOUS
 62
               7
100
AcDbLine
 10
-8.0000000000000142
 20
-69.599966430664097
 30
0.0
 11
8.0
 21
-69.599966430664097
 31
0.0
  0
LINE
  5
71
100
AcDbEntity
  8
0
  6
CENTER
 62
               2
100
AcDbLine
 10
-5.5000000000000142
 20
-31.819966430664067
 30
0.0
 11
-5.5000000000000142
 21
-26.829966430664058
 31
0.0
  0
LINE
  5
72
100
AcDbEntity
  8
0
  6
CENTER
 62
               2
100
AcDbLine
 10
8.1849999999999881
 20
3.9000335693359318
 30
0.0
 11
2.9349999999999881
 21
3.9000335693359318
 31
0.0
  0
LINE
  5
73
100
AcDbEntity
  8
0
  6
CENTER
 62
               2
100
AcDbLine
 10
-8.0050000000000097
 20
-29.099966430664068
 30
0.0
 11
-3.3400000000000034
 21
-29.099966430664068
 31
0.0
  0
LINE
  5
74
100
AcDbEntity
  8
0
  6
CONTINUOUS
 62
               2
100
AcDbLine
 10
0.0
 20
60.900033569335903
 30
0.0
 11
0.0
 21
-83.390495323107928
 31
0.0
  0
LINE
  5
75
100
AcDbEntity
  8
0
  6
CONTINUOUS
 62
               2
100
AcDbLine
 10
-13.000000027004035
 20
0.0
 30
0.0
 11
12.999999972995965
 21
0.0
 31
0.0
  0
ENDBLK
  5
76
100
AcDbEntity
  8
0
100
AcDbBlockEnd
  0
BLOCK
  5
77
100
AcDbEntity
  8
0
100
AcDbBlockBegin
  2
F15Z-2
 70
               0
 10
0.0
 20
0.0
 30
0.0
  3
F15Z-2
  1

  0
LINE
  5
78
100
AcDbEntity
  8
0
  6
PHANTOM
 62
               2
100
AcDbLine
 10
-0.4000000000000057
 20
21.345033569335897
 30
0.0
 11
-0.4000000000000341
 21
59.845033569335897
 31
0.0
  0
LINE
  5
79
100
AcDbEntity
  8
0
  6
DASHED
 62
               2
100
AcDbLine
 10
11.0
 20
-69.599966430664097
 30
0.0
 11
11.0
 21
-78.999966430664074
 31
0.0
  0
LINE
  5
7A
100
AcDbEntity
  8
0
  6
DASHED
 62
               2
100
AcDbLine
 10
5.0
 20
-69.599966430664097
 30
0.0
 11
5.0
 21
-78.999966430664074
 31
0.0
  0
LINE
  5
7B
100
AcDbEntity
  8
0
  6
CONTINUOUS
 62
               7
100
AcDbLine
 10
3.1999999999999886
 20
-75.199966430664119
 30
0.0
 11
3.1999999999999886
 21
-76.199966430664119
 31
0.0
  0
LINE
  5
7C
100
AcDbEntity
  8
0
  6
CONTINUOUS
 62
               7
100
AcDbLine
 10
12.800000000000011
 20
-75.199966430664119
 30
0.0
 11
12.800000000000011
 21
-76.199966430664119
 31
0.0
  0
LINE
  5
7D
100
AcDbEntity
  8
0
  6
CONTINUOUS
 62
               7
100
AcDbLine
 10
12.800000000000011
 20
-74.899966430664108
 30
0.0
 11
12.650000000000006
 21
-75.049966430664085
 31
0.0
  0
LINE
  5
7E
100
AcDbEntity
  8
0
  6
CONTINUOUS
 62
               7
100
AcDbLine
 10
3.1999999999999886
 20
-75.199966430664119
 30
0.0
 11
3.3499999999999943
 21
-75.049966430664085
 31
0.0
  0
LINE
  5
7F
100
AcDbEntity
  8
0
  6
CONTINUOUS
 62
               7
100
AcDbLine
 10
3.1999999999999886
 20
-74.899966430664108
 30
0.0
 11
3.3499999999999943
 21
-75.049966430664085
 31
0.0
  0
LINE
  5
80
100
AcDbEntity
  8
0
  6
CONTINUOUS
 62
               7
100
AcDbLine
 10
12.800000000000011
 20
-75.199966430664119
 30
0.0
 11
12.650000000000006
 21
-75.049966430664085
 31
0.0
  0
LINE
  5
81
100
AcDbEntity
  8
0
  6
CONTINUOUS
 62
               7
100
AcDbLine
 10
3.1999999999999886
 20
-74.899966430664108
 30
0.0
 11
12.800000000000011
 21
-74.899966430664108
 31
0.0
  0
LINE
  5
82
100
AcDbEntity
  8
0
  6
CONTINUOUS
 62
               7
100
AcDbLine
 10
3.1999999999999886
 20
-75.199966430664119
 30
0.0
 11
12.800000000000011
 21
-75.199966430664119
 31
0.0
  0
LINE
  5
83
100
AcDbEntity
  8
0
  6
CONTINUOUS
 62
               7
100
AcDbLine
 10
3.3499999999999943
 20
-75.049966430664085
 30
0.0
 11
12.650000000000006
 21
-75.049966430664085
 31
0.0
  0
LINE
  5
84
100
AcDbEntity
  8
0
  6
CONTINUOUS
 62
               7
100
AcDbLine
 10
2.5
 20
-73.465991836786316
 30
0.0
 11
13.499999988079082
 21
-73.465991836786316
 31
0.0
  0
LINE
  5
85
100
AcDbEntity
  8
0
  6
CONTINUOUS
 62
               7
100
AcDbLine
 10
2.5
 20
-73.46599183537063
 30
0.0
 11
2.5
 21
-73.899966430664108
 31
0.0
  0
LINE
  5
86
100
AcDbEntity
  8
0
  6
CONTINUOUS
 62
               7
100
AcDbLine
 10
13.5
 20
-73.465991829903771
 30
0.0
 11
13.5
 21
-73.899966430664108
 31
0.0
  0
LINE
  5
87
100
AcDbEntity
  8
0
  6
CONTINUOUS
 62
               7
100
AcDbLine
 10
0.9999999880790824
 20
-72.599966424703609
 30
0.0
 11
2.5
 21
-73.46599183537063
 31
0.0
  0
LINE
  5
88
100
AcDbEntity
  8
0
  6
CONTINUOUS
 62
               7
100
AcDbLine
 10
13.499999988079082
 20
-73.465991836786316
 30
0.0
 11
15.0
 21
-72.599966426119295
 31
0.0
  0
LINE
  5
89
100
AcDbEntity
  8
0
  6
CONTINUOUS
 62
               7
100
AcDbLine
 10
1.0
 20
-72.599966430664097
 30
0.0
 11
15.0
 21
-72.599966430664097
 31
0.0
  0
LINE
  5
8A
100
AcDbEntity
  8
0
  6
CONTINUOUS
 62
               7
100
AcDbLine
 10
1.0
 20
-71.099966430664097
 30
0.0
 11
1.0
 21
-72.599966430664097
 31
0.0
  0
LINE
  5
8B
100
AcDbEntity
  8
0
  6
CONTINUOUS
 62
               7
100
AcDbLine
 10
15.0
 20
-71.099966430664097
 30
0.0
 11
15.0
 21
-72.599966430664097
 31
0.0
  0
LINE
  5
8C
100
AcDbEntity
  8
0
  6
CONTINUOUS
 62
               7
100
AcDbLine
 10
4.0
 20
-76.199966430664119
 30
0.0
 11
4.0
 21
-77.199966430664119
 31
0.0
  0
LINE
  5
8D
100
AcDbEntity
  8
0
  6
CONTINUOUS
 62
               7
100
AcDbLine
 10
12.0
 20
-76.199966430664119
 30
0.0
 11
12.0
 21
-77.199966430664119
 31
0.0
  0
LINE
  5
8E
100
AcDbEntity
  8
0
  6
CONTINUOUS
 62
               7
100
AcDbLine
 10
3.1999999999999886
 20
-73.899966430664108
 30
0.0
 11
3.1999999999999886
 21
-74.899966430664108
 31
0.0
  0
LINE
  5
8F
100
AcDbEntity
  8
0
  6
CONTINUOUS
 62
               7
100
AcDbLine
 10
12.800000000000011
 20
-73.899966430664108
 30
0.0
 11
12.800000000000011
 21
-74.899966430664108
 31
0.0
  0
LINE
  5
90
100
AcDbEntity
  8
0
  6
CONTINUOUS
 62
               7
100
AcDbLine
 10
3.1999999999999886
 20
-76.199966430664119
 30
0.0
 11
12.800000000000011
 21
-76.199966430664119
 31
0.0
  0
LINE
  5
91
100
AcDbEntity
  8
0
  6
CONTINUOUS
 62
               7
100
AcDbLine
 10
2.1999999999999886
 20
-77.199966430664119
 30
0.0
 11
13.800000000000011
 21
-77.199966430664119
 31
0.0
  0
LINE
  5
92
100
AcDbEntity
  8
0
  6
CONTINUOUS
 62
               7
100
AcDbLine
 10
2.1999999999999886
 20
-77.199966430664119
 30
0.0
 11
2.1999999999999886
 21
-78.999966430664074
 31
0.0
  0
LINE
  5
93
100
AcDbEntity
  8
0
  6
CONTINUOUS
 62
               7
100
AcDbLine
 10
13.800000000000011
 20
-77.199966430664119
 30
0.0
 11
13.800000000000011
 21
-78.999966430664074
 31
0.0
  0
LINE
  5
94
100
AcDbEntity
  8
0
  6
CONTINUOUS
 62
               7
100
AcDbLine
 10
2.5
 20
-73.899966430664108
 30
0.0
 11
13.5
 21
-73.899966430664108
 31
0.0
  0
LINE
  5
95
100
AcDbEntity
  8
0
  6
CONTINUOUS
 62
               7
100
AcDbLine
 10
0.0999999999999943
 20
-70.899966430664108
 30
0.0
 11
15.900000000000006
 21
-70.899966430664108
 31
0.0
  0
LINE
  5
96
100
AcDbEntity
  8
0
  6
CONTINUOUS
 62
               7
100
AcDbLine
 10
0.3000000000000114
 20
-71.099966430664097
 30
0.0
 11
0.0999999999999943
 21
-70.899966430664108
 31
0.0
  0
LINE
  5
97
100
AcDbEntity
  8
0
  6
CONTINUOUS
 62
               7
100
AcDbLine
 10
15.699999999999989
 20
-71.099966430664097
 30
0.0
 11
15.900000000000006
 21
-70.899966430664108
 31
0.0
  0
LINE
  5
98
100
AcDbEntity
  8
0
  6
CONTINUOUS
 62
               7
100
AcDbLine
 10
0.3000000000000114
 20
-71.099966430664097
 30
0.0
 11
15.699999999999989
 21
-71.099966430664097
 31
0.0
  0
LINE
  5
99
100
AcDbEntity
  8
0
  6
CONTINUOUS
 62
               7
100
AcDbLine
 10
0.0999999999999943
 20
-69.599966430664097
 30
0.0
 11
0.0999999999999943
 21
-70.899966430664108
 31
0.0
  0
LINE
  5
9A
100
AcDbEntity
  8
0
  6
CONTINUOUS
 62
               7
100
AcDbLine
 10
15.900000000000006
 20
-69.599966430664097
 30
0.0
 11
15.900000000000006
 21
-70.899966430664108
 31
0.0
  0
LINE
  5
9B
100
AcDbEntity
  8
0
  6
CONTINUOUS
 62
               7
100
AcDbLine
 10
2.1999999999999886
 20
-78.999966430664074
 30
0.0
 11
13.800000000000011
 21
-78.999966430664074
 31
0.0
  0
LINE
  5
9C
100
AcDbEntity
  8
0
  6
PHANTOM
 62
               2
100
AcDbLine
 10
-3.1999999761581535
 20
57.845033569335897
 30
0.0
 11
-2.6999999761581535
 21
57.845033569335897
 31
0.0
  0
LINE
  5
9D
100
AcDbEntity
  8
0
  6
PHANTOM
 62
               2
100
AcDbLine
 10
-3.1999999999999886
 20
59.645033569335908
 30
0.0
 11
-0.4000000000000341
 21
59.645033569335908
 31
0.0
  0
LINE
  5
9E
100
AcDbEntity
  8
0
  6
PHANTOM
 62
               2
100
AcDbLine
 10
-3.1999999999999886
 20
57.845033569335897
 30
0.0
 11
-3.1999999999999886
 21
59.645033569335908
 31
0.0
  0
ARC
  5
9F
100
AcDbEntity
  8
0
  6
PHANTOM
 62
               2
100
AcDbCircle
 10
11.099999999999966
 20
49.445033569335919
 30
0.0
 40
1.5
100
AcDbArc
 50
179.99999999999963
 51
269.99999999999937
  0
LINE
  5
A0
100
AcDbEntity
  8
0
  6
PHANTOM
 62
               2
100
AcDbLine
 10
9.5999999999999659
 20
49.445033569335919
 30
0.0
 11
9.5999999999999659
 21
59.845033569335897
 31
0.0
  0
LINE
  5
A1
100
AcDbEntity
  8
0
  6
PHANTOM
 62
               2
100
AcDbLine
 10
-0.4000000000000057
 20
21.345033569335897
 30
0.0
 11
0.0999999999999943
 21
20.845033569335897
 31
0.0
  0
LINE
  5
A2
100
AcDbEntity
  8
0
  6
PHANTOM
 62
               2
100
AcDbLine
 10
12.599999999999966
 20
47.945033569335919
 30
0.0
 11
11.099999999999966
 21
47.945033569335919
 31
0.0
  0
LINE
  5
A3
100
AcDbEntity
  8
0
  6
PHANTOM
 62
               2
100
AcDbLine
 10
10.599999999999966
 20
25.845033569335897
 30
0.0
 11
12.599999999999966
 21
27.845033569335897
 31
0.0
  0
LINE
  5
A4
100
AcDbEntity
  8
0
  6
PHANTOM
 62
               2
100
AcDbLine
 10
10.599999999999966
 20
20.845033569335897
 30
0.0
 11
10.599999999999966
 21
25.845033569335897
 31
0.0
  0
LINE
  5
A5
100
AcDbEntity
  8
0
  6
PHANTOM
 62
               2
100
AcDbLine
 10
-1.1999999999999886
 20
55.845033569335897
 30
0.0
 11
-2.6999999999999886
 21
55.845033569335897
 31
0.0
  0
LINE
  5
A6
100
AcDbEntity
  8
0
  6
PHANTOM
 62
               2
100
AcDbLine
 10
-2.6999999999999886
 20
55.845033569335897
 30
0.0
 11
-2.6999999999999886
 21
57.845033569335897
 31
0.0
  0
LINE
  5
A7
100
AcDbEntity
  8
0
  6
PHANTOM
 62
               2
100
AcDbLine
 10
-1.1999999999999886
 20
49.645033569335908
 30
0.0
 11
-1.1999999999999886
 21
55.845033569335897
 31
0.0
  0
LINE
  5
A8
100
AcDbEntity
  8
0
  6
PHANTOM
 62
               2
100
AcDbLine
 10
-0.4000000000000057
 20
49.645033569335908
 30
0.0
 11
-1.1999999999999886
 21
49.645033569335908
 31
0.0
  0
LINE
  5
A9
100
AcDbEntity
  8
0
  6
PHANTOM
 62
               2
100
AcDbLine
 10
12.599999999999966
 20
27.845033569335897
 30
0.0
 11
12.599999999999966
 21
47.945033569335919
 31
0.0
  0
LINE
  5
AA
100
AcDbEntity
  8
0
  6
PHANTOM
 62
               2
100
AcDbLine
 10
10.599999999999966
 20
20.845033569335897
 30
0.0
 11
0.0999999999999943
 21
20.845033569335897
 31
0.0
  0
LINE
  5
AB
100
AcDbEntity
  8
0
  6
PHANTOM
 62
               2
100
AcDbLine
 10
9.5999999999999659
 20
59.845033569335897
 30
0.0
 11
-0.4000000000000341
 21
59.845033569335897
 31
0.0
  0
LINE
  5
AC
100
AcDbEntity
  8
0
  6
PHANTOM
 62
               2
100
AcDbLine
 10
-0.3999999880790881
 20
58.845033569335897
 30
0.0
 11
9.6000000119209119
 21
58.845033569335897
 31
0.0
  0
LINE
  5
AD
100
AcDbEntity
  8
0
  6
PHANTOM
 62
               2
100
AcDbLine
 10
12.599999999999966
 20
39.845033569335897
 30
0.0
 11
-0.4000000000000341
 21
39.845033569335897
 31
0.0
  0
LINE
  5
AE
100
AcDbEntity
  8
0
  6
PHANTOM
 62
               2
100
AcDbLine
 10
12.599999999999966
 20
38.845033569335897
 30
0.0
 11
-0.4000000000000341
 21
38.845033569335897
 31
0.0
  0
LINE
  5
AF
100
AcDbEntity
  8
0
  6
CONTINUOUS
 62
               7
100
AcDbLine
 10
13.0
 20
18.900033569335932
 30
0.0
 11
0.0
 21
18.900033569335932
 31
0.0
  0
LINE
  5
B0
100
AcDbEntity
  8
0
  6
CONTINUOUS
 62
               7
100
AcDbLine
 10
13.0
 20
20.845033569335925
 30
0.0
 11
0.0
 21
20.845033569335925
 31
0.0
  0
LINE
  5
B1
100
AcDbEntity
  8
0
  6
CONTINUOUS
 62
               7
100
AcDbLine
 10
0.0
 20
20.845033569335925
 30
0.0
 11
0.0
 21
-69.599966430664097
 31
0.0
  0
LINE
  5
B2
100
AcDbEntity
  8
0
  6
CONTINUOUS
 62
               7
100
AcDbLine
 10
16.0
 20
-55.399966430664108
 30
0.0
 11
16.0
 21
-69.599966430664097
 31
0.0
  0
LINE
  5
B3
100
AcDbEntity
  8
0
  6
CONTINUOUS
 62
               7
100
AcDbLine
 10
16.0
 20
-55.399966430664108
 30
0.0
 11
13.0
 21
-55.399966430664108
 31
0.0
  0
LINE
  5
B4
100
AcDbEntity
  8
0
  6
CONTINUOUS
 62
               2
100
AcDbLine
 10
8.0
 20
-57.66996643066409
 30
0.0
 11
8.0
 21
-83.390495323107928
 31
0.0
  0
LINE
  5
B5
100
AcDbEntity
  8
0
  6
CONTINUOUS
 62
               7
100
AcDbLine
 10
13.0
 20
20.845033569335925
 30
0.0
 11
13.0
 21
-55.399966430664108
 31
0.0
  0
LINE
  5
B6
100
AcDbEntity
  8
0
  6
CONTINUOUS
 62
               7
100
AcDbLine
 10
16.0
 20
-69.599966430664097
 30
0.0
 11
0.0
 21
-69.599966430664097
 31
0.0
  0
LINE
  5
B7
100
AcDbEntity
  8
0
  6
CONTINUOUS
 62
               2
100
AcDbLine
 10
-5.0000000270040346
 20
0.0
 30
0.0
 11
17.999999972995965
 21
0.0
 31
0.0
  0
ENDBLK
  5
B8
100
AcDbEntity
  8
0
100
AcDbBlockEnd
  0
BLOCK
  5
B9
100
AcDbEntity
  8
0
100
AcDbBlockBegin
  2
F15Z-3
 70
               0
 10
0.0
 20
0.0
 30
0.0
  3
F15Z-3
  1

  0
CIRCLE
  5
BA
100
AcDbEntity
  8
0
  6
CONTINUOUS
 62
               7
100
AcDbCircle
 10
0.0
 20
8.0
 30
0.0
 40
3.0
  0
LINE
  5
BB
100
AcDbEntity
  8
0
  6
CONTINUOUS
 62
               7
100
AcDbLine
 10
8.0
 20
0.000000023841892
 30
0.0
 11
8.0
 21
16.0
 31
0.0
  0
LINE
  5
BC
100
AcDbEntity
  8
0
  6
CONTINUOUS
 62
               7
100
AcDbLine
 10
-8.0000000000000142
 20
0.000000023841892
 30
0.0
 11
-8.0000000000000142
 21
16.000000023841892
 31
0.0
  0
CIRCLE
  5
BD
100
AcDbEntity
  8
0
  6
CONTINUOUS
 62
               7
100
AcDbCircle
 10
0.0
 20
8.0
 30
0.0
 40
7.9000000000000199
  0
CIRCLE
  5
BE
100
AcDbEntity
  8
0
  6
CONTINUOUS
 62
               7
100
AcDbCircle
 10
0.0
 20
8.0
 30
0.0
 40
7.0000000000000142
  0
CIRCLE
  5
BF
100
AcDbEntity
  8
0
  6
CONTINUOUS
 62
               7
100
AcDbCircle
 10
0.0
 20
8.0
 30
0.0
 40
5.8000000000000114
  0
LINE
  5
C0
100
AcDbEntity
  8
0
  6
CONTINUOUS
 62
               2
100
AcDbLine
 10
-9.7349999999999994
 20
8.0
 30
0.0
 11
9.7349999999999852
 21
8.0
 31
0.0
  0
LINE
  5
C1
100
AcDbEntity
  8
0
  6
CONTINUOUS
 62
               7
100
AcDbLine
 10
-8.0000000000000142
 20
16.0
 30
0.0
 11
8.0
 21
16.0
 31
0.0
  0
LINE
  5
C2
100
AcDbEntity
  8
0
  6
CONTINUOUS
 62
               2
100
AcDbLine
 10
0.0
 20
17.735000000000014
 30
0.0
 11
0.0
 21
-1.7349999999999568
 31
0.0
  0
LINE
  5
C3
100
AcDbEntity
  8
0
  6
CONTINUOUS
 62
               7
100
AcDbLine
 10
-8.0000000000000142
 20
0.0
 30
0.0
 11
8.0
 21
0.0
 31
0.0
  0
ENDBLK
  5
C4
100
AcDbEntity
  8
0
100
AcDbBlockEnd
  0
BLOCK
  5
C5
100
AcDbEntity
  8
0
100
AcDbBlockBegin
  2
F15Z-4
 70
               0
 10
0.0
 20
0.0
 30
0.0
  3
F15Z-4
  1

  0
LINE
  5
C6
100
AcDbEntity
  8
0
  6
CENTER
 62
               2
100
AcDbLine
 10
-8.0049999999999955
 20
-29.099966430664068
 30
0.0
 11
-3.3400000000000034
 21
-29.099966430664068
 31
0.0
  0
LINE
  5
C7
100
AcDbEntity
  8
0
  6
CONTINUOUS
 62
               2
100
AcDbLine
 10
0.0
 20
21.655033569335927
 30
0.0
 11
0.0
 21
-83.390495323107928
 31
0.0
  0
LINE
  5
C8
100
AcDbEntity
  8
0
  6
CENTER
 62
               2
100
AcDbLine
 10
8.1849999999999881
 20
3.9000335693359318
 30
0.0
 11
2.9350000000000023
 21
3.9000335693359318
 31
0.0
  0
LINE
  5
C9
100
AcDbEntity
  8
0
  6
CENTER
 62
               2
100
AcDbLine
 10
-5.5
 20
-31.819966430664067
 30
0.0
 11
-5.5
 21
-26.829966430664086
 31
0.0
  0
LINE
  5
CA
100
AcDbEntity
  8
0
  6
CONTINUOUS
 62
               7
100
AcDbLine
 10
-8.0
 20
-69.599966430664097
 30
0.0
 11
7.9999999999999858
 21
-69.599966430664097
 31
0.0
  0
LINE
  5
CB
100
AcDbEntity
  8
0
  6
CONTINUOUS
 62
               7
100
AcDbLine
 10
-8.0
 20
18.900033569335932
 30
0.0
 11
-6.0
 21
20.900033569335932
 31
0.0
  0
LINE
  5
CC
100
AcDbEntity
  8
0
  6
CONTINUOUS
 62
               7
100
AcDbLine
 10
7.9999999999999858
 20
18.900033569335932
 30
0.0
 11
7.9999999999999858
 21
-69.599966430664097
 31
0.0
  0
LINE
  5
CD
100
AcDbEntity
  8
0
  6
CONTINUOUS
 62
               7
100
AcDbLine
 10
-8.0
 20
18.900033569335932
 30
0.0
 11
-8.0
 21
-69.599966430664097
 31
0.0
  0
LINE
  5
CE
100
AcDbEntity
  8
0
  6
CONTINUOUS
 62
               7
100
AcDbLine
 10
-6.5
 20
-68.099966430664097
 30
0.0
 11
6.4999999999999858
 21
-68.099966430664097
 31
0.0
  0
LINE
  5
CF
100
AcDbEntity
  8
0
  6
CONTINUOUS
 62
               7
100
AcDbLine
 10
-8.0
 20
-55.399966430664108
 30
0.0
 11
7.9999999999999858
 21
-55.399966430664108
 31
0.0
  0
LINE
  5
D0
100
AcDbEntity
  8
0
  6
CENTER
 62
               2
100
AcDbLine
 10
5.4999999999999858
 20
1.7000335693359148
 30
0.0
 11
5.4999999999999858
 21
6.3900335693359125
 31
0.0
  0
LINE
  5
D1
100
AcDbEntity
  8
0
  6
CONTINUOUS
 62
               7
100
AcDbLine
 10
7.9999999999999858
 20
18.900033569335932
 30
0.0
 11
5.9999999999999858
 21
20.900033569335932
 31
0.0
  0
LINE
  5
D2
100
AcDbEntity
  8
0
  6
CONTINUOUS
 62
               7
100
AcDbLine
 10
-6.5
 20
-56.899966430664108
 30
0.0
 11
6.4999999999999858
 21
-56.899966430664108
 31
0.0
  0
LINE
  5
D3
100
AcDbEntity
  8
0
  6
CONTINUOUS
 62
               7
100
AcDbLine
 10
-6.5
 20
-56.899966430664108
 30
0.0
 11
-6.5
 21
-68.099966430664097
 31
0.0
  0
LINE
  5
D4
100
AcDbEntity
  8
0
  6
CONTINUOUS
 62
               7
100
AcDbLine
 10
6.4999999999999858
 20
-56.899966430664108
 30
0.0
 11
6.4999999999999858
 21
-68.099966430664097
 31
0.0
  0
LINE
  5
D5
100
AcDbEntity
  8
0
  6
CONTINUOUS
 62
               7
100
AcDbLine
 10
-6.0
 20
20.900033569335932
 30
0.0
 11
5.9999999999999858
 21
20.900033569335932
 31
0.0
  0
CIRCLE
  5
D6
100
AcDbEntity
  8
0
  6
CONTINUOUS
 62
               7
100
AcDbCircle
 10
5.4999969482421847
 20
3.9000320434570313
 30
0.0
 40
1.3999996185302734
  0
CIRCLE
  5
D7
100
AcDbEntity
  8
0
  6
CONTINUOUS
 62
               7
100
AcDbCircle
 10
-5.4999954223632841
 20
-29.099967956542969
 30
0.0
 40
1.3999996185302734
  0
LINE
  5
D8
100
AcDbEntity
  8
0
  6
PHANTOM
 62
               2
100
AcDbLine
 10
-4.9999999892712026
 20
59.900033569335903
 30
0.0
 11
4.9999999999999858
 21
59.900033569335903
 31
0.0
  0
LINE
  5
D9
100
AcDbEntity
  8
0
  6
PHANTOM
 62
               2
100
AcDbLine
 10
-4.9999999892712026
 20
20.900033569335903
 30
0.0
 11
4.9999999999999858
 21
20.900033569335903
 31
0.0
  0
LINE
  5
DA
100
AcDbEntity
  8
0
  6
PHANTOM
 62
               2
100
AcDbLine
 10
-6.0
 20
58.900033558607106
 30
0.0
 11
-6.0
 21
39.900033569335903
 31
0.0
  0
LINE
  5
DB
100
AcDbEntity
  8
0
  6
PHANTOM
 62
               2
100
AcDbLine
 10
5.9999999999999858
 20
58.900033569335903
 30
0.0
 11
5.9999999999999858
 21
39.900033569335903
 31
0.0
  0
LINE
  5
DC
100
AcDbEntity
  8
0
  6
PHANTOM
 62
               2
100
AcDbLine
 10
-4.9999999892712026
 20
59.900033569335903
 30
0.0
 11
-6.0
 21
58.900033558607106
 31
0.0
  0
LINE
  5
DD
100
AcDbEntity
  8
0
  6
PHANTOM
 62
               2
100
AcDbLine
 10
4.9999999999999858
 20
59.900033569335903
 30
0.0
 11
5.9999999999999858
 21
58.900033569335903
 31
0.0
  0
LINE
  5
DE
100
AcDbEntity
  8
0
  6
PHANTOM
 62
               2
100
AcDbLine
 10
-5.1000000000000227
 20
57.900033569335903
 30
0.0
 11
5.0999999999999517
 21
57.900033569335903
 31
0.0
  0
LINE
  5
DF
100
AcDbEntity
  8
0
  6
PHANTOM
 62
               2
100
AcDbLine
 10
-6.0
 20
48.000033569335926
 30
0.0
 11
5.9999999999999858
 21
48.000033569335926
 31
0.0
  0
LINE
  5
E0
100
AcDbEntity
  8
0
  6
PHANTOM
 62
               2
100
AcDbLine
 10
-5.0
 20
38.900033569335903
 30
0.0
 11
-5.0
 21
20.900033569335903
 31
0.0
  0
LINE
  5
E1
100
AcDbEntity
  8
0
  6
PHANTOM
 62
               2
100
AcDbLine
 10
4.9999999999999858
 20
38.900033569335903
 30
0.0
 11
4.9999999999999858
 21
20.900033569335903
 31
0.0
  0
LINE
  5
E2
100
AcDbEntity
  8
0
  6
PHANTOM
 62
               2
100
AcDbLine
 10
4.9999999999999858
 20
38.900033569335903
 30
0.0
 11
5.9999999999999858
 21
39.900033569335903
 31
0.0
  0
LINE
  5
E3
100
AcDbEntity
  8
0
  6
PHANTOM
 62
               2
100
AcDbLine
 10
-5.0
 20
38.900033569335903
 30
0.0
 11
-6.0
 21
39.900033569335903
 31
0.0
  0
LINE
  5
E4
100
AcDbEntity
  8
0
  6
PHANTOM
 62
               2
100
AcDbLine
 10
5.0999999999999517
 20
57.900033569335903
 30
0.0
 11
5.0999999999999517
 21
48.000033569335926
 31
0.0
  0
LINE
  5
E5
100
AcDbEntity
  8
0
  6
PHANTOM
 62
               2
100
AcDbLine
 10
-5.1000000000000227
 20
57.900033569335903
 30
0.0
 11
-5.1000000000000227
 21
48.000033569335926
 31
0.0
  0
LINE
  5
E6
100
AcDbEntity
  8
0
  6
CONTINUOUS
 62
               2
100
AcDbLine
 10
0.0
 20
60.900033569335903
 30
0.0
 11
0.0
 21
18.100033569335949
 31
0.0
  0
LINE
  5
E7
100
AcDbEntity
  8
0
  6
PHANTOM
 62
               2
100
AcDbLine
 10
-4.0
 20
20.900033569335903
 30
0.0
 11
-4.0
 21
20.700033569335915
 31
0.0
  0
LINE
  5
E8
100
AcDbEntity
  8
0
  6
PHANTOM
 62
               2
100
AcDbLine
 10
4.0
 20
20.900033569335903
 30
0.0
 11
4.0
 21
20.800033569335938
 31
0.0
  0
LINE
  5
E9
100
AcDbEntity
  8
0
  6
PHANTOM
 62
               2
100
AcDbLine
 10
-4.9999999892712026
 20
27.900033569335903
 30
0.0
 11
4.9999999999999858
 21
27.900033569335903
 31
0.0
  0
LINE
  5
EA
100
AcDbEntity
  8
0
  6
PHANTOM
 62
               2
100
AcDbLine
 10
-4.9999999892712026
 20
25.900033569335903
 30
0.0
 11
4.9999999999999858
 21
25.900033569335903
 31
0.0
  0
LINE
  5
EB
100
AcDbEntity
  8
0
  6
CONTINUOUS
 62
               7
100
AcDbLine
 10
7.8999996185302592
 20
-69.599966430664097
 30
0.0
 11
7.8999996185302592
 21
-71.099966621398949
 31
0.0
  0
LINE
  5
EC
100
AcDbEntity
  8
0
  6
CONTINUOUS
 62
               7
100
AcDbLine
 10
-7.8999996185302876
 20
-69.599966430664097
 30
0.0
 11
-7.8999996185302876
 21
-71.099966621398949
 31
0.0
  0
ARC
  5
ED
100
AcDbEntity
  8
0
  6
CONTINUOUS
 62
               7
100
AcDbCircle
 10
-6.6999998092651509
 20
-78.799965476989769
 30
0.0
 40
0.199999988079071
100
AcDbArc
 50
180.00001798608895
 51
269.99999999999937
  0
ARC
  5
EE
100
AcDbEntity
  8
0
  6
CONTINUOUS
 62
               7
100
AcDbCircle
 10
6.6999998092651225
 20
-78.799965476989769
 30
0.0
 40
0.199999988079071
100
AcDbArc
 50
269.99999999999937
 51
359.99998201390986
  0
LINE
  5
EF
100
AcDbEntity
  8
0
  6
CONTINUOUS
 62
               7
100
AcDbLine
 10
5.4000004895154206
 20
-74.799967456491913
 30
0.0
 11
5.5999997577439302
 21
-74.999966741579101
 31
0.0
  0
LINE
  5
F0
100
AcDbEntity
  8
0
  6
CONTINUOUS
 62
               7
100
AcDbLine
 10
-5.6000020336738601
 20
-74.599967210456441
 30
0.0
 11
-5.4000017539210035
 21
-74.799967507068061
 31
0.0
  0
LINE
  5
F1
100
AcDbEntity
  8
0
  6
CONTINUOUS
 62
               7
100
AcDbLine
 10
-5.4000003209281005
 20
-74.799966276380133
 30
0.0
 11
-5.6000002635061747
 21
-74.999966235816942
 31
0.0
  0
LINE
  5
F2
100
AcDbEntity
  8
0
  6
CONTINUOUS
 62
               7
100
AcDbLine
 10
5.5999999684782296
 20
-74.599967926952957
 30
0.0
 11
5.4000000259001553
 21
-74.799967886389766
 31
0.0
  0
LINE
  5
F3
100
AcDbEntity
  8
0
  6
CONTINUOUS
 62
               7
100
AcDbLine
 10
-5.6000003814697408
 20
-74.999966239929222
 30
0.0
 11
-5.6000003814697408
 21
-76.099966621398949
 31
0.0
  0
LINE
  5
F4
100
AcDbEntity
  8
0
  6
CONTINUOUS
 62
               7
100
AcDbLine
 10
5.5999994277953959
 20
-74.999966239929222
 30
0.0
 11
5.5999994277953959
 21
-76.099966621398949
 31
0.0
  0
LINE
  5
F5
100
AcDbEntity
  8
0
  6
CONTINUOUS
 62
               7
100
AcDbLine
 10
5.5999994277953959
 20
-74.599966621398949
 30
0.0
 11
-5.6000003814697408
 21
-74.599966621398949
 31
0.0
  0
LINE
  5
F6
100
AcDbEntity
  8
0
  6
CONTINUOUS
 62
               7
100
AcDbLine
 10
5.5999994277953959
 20
-74.999966239929222
 30
0.0
 11
-5.6000003814697408
 21
-74.999966239929222
 31
0.0
  0
LINE
  5
F7
100
AcDbEntity
  8
0
  6
CONTINUOUS
 62
               7
100
AcDbLine
 10
5.4000005722045756
 20
-74.799966430664085
 30
0.0
 11
-5.4000005722046041
 21
-74.799966430664085
 31
0.0
  0
LINE
  5
F8
100
AcDbEntity
  8
0
  6
CONTINUOUS
 62
               7
100
AcDbLine
 10
-5.0000000000000142
 20
-76.099966621398949
 30
0.0
 11
-5.0000000000000142
 21
-76.999966239929222
 31
0.0
  0
LINE
  5
F9
100
AcDbEntity
  8
0
  6
CONTINUOUS
 62
               7
100
AcDbLine
 10
4.9999999999999858
 20
-76.099966621398949
 30
0.0
 11
4.9999999999999858
 21
-76.999966239929222
 31
0.0
  0
LINE
  5
FA
100
AcDbEntity
  8
0
  6
CONTINUOUS
 62
               7
100
AcDbLine
 10
5.5999994277953959
 20
-76.099966621398949
 30
0.0
 11
-5.6000003814697408
 21
-76.099966621398949
 31
0.0
  0
LINE
  5
FB
100
AcDbEntity
  8
0
  6
CONTINUOUS
 62
               7
100
AcDbLine
 10
5.5999994277953959
 20
-74.099966621398949
 30
0.0
 11
5.5999994277953959
 21
-74.599966621398949
 31
0.0
  0
LINE
  5
FC
100
AcDbEntity
  8
0
  6
CONTINUOUS
 62
               7
100
AcDbLine
 10
-5.6000003814697408
 20
-74.099966621398949
 30
0.0
 11
-5.6000003814697408
 21
-74.599966621398949
 31
0.0
  0
LINE
  5
FD
100
AcDbEntity
  8
0
  6
CONTINUOUS
 62
               7
100
AcDbLine
 10
-6.4803851038113152
 20
-73.499966758236553
 30
0.0
 11
-6.1339751127448636
 21
-74.099966565065017
 31
0.0
  0
LINE
  5
FE
100
AcDbEntity
  8
0
  6
CONTINUOUS
 62
               7
100
AcDbLine
 10
6.4803848486289297
 20
-73.499967200225399
 30
0.0
 11
6.1339750829425128
 21
-74.099966616684128
 31
0.0
  0
LINE
  5
FF
100
AcDbEntity
  8
0
  6
CONTINUOUS
 62
               7
100
AcDbLine
 10
6.4803838729858256
 20
-73.499967193603538
 30
0.0
 11
-6.4803838729858541
 21
-73.499967193603538
 31
0.0
  0
LINE
  5
100
100
AcDbEntity
  8
0
  6
CONTINUOUS
 62
               7
100
AcDbLine
 10
7.0000001091696475
 20
-73.199967574395998
 30
0.0
 11
6.4803837199565208
 21
-73.499968277730886
 31
0.0
  0
LINE
  5
101
100
AcDbEntity
  8
0
  6
CONTINUOUS
 62
               7
100
AcDbLine
 10
-7.000000109169676
 20
-73.199967574395998
 30
0.0
 11
-6.4803837199565493
 21
-73.499968277730886
 31
0.0
  0
LINE
  5
102
100
AcDbEntity
  8
0
  6
CONTINUOUS
 62
               7
100
AcDbLine
 10
6.9999999999999858
 20
-73.199967002868675
 30
0.0
 11
-7.0000000000000142
 21
-73.199967002868675
 31
0.0
  0
LINE
  5
103
100
AcDbEntity
  8
0
  6
CONTINUOUS
 62
               7
100
AcDbLine
 10
-7.0000000000000142
 20
-71.299966430664085
 30
0.0
 11
-7.0000000000000142
 21
-73.199967002868675
 31
0.0
  0
LINE
  5
104
100
AcDbEntity
  8
0
  6
CONTINUOUS
 62
               7
100
AcDbLine
 10
6.9999999999999858
 20
-71.299966430664085
 30
0.0
 11
6.9999999999999858
 21
-73.199967002868675
 31
0.0
  0
LINE
  5
105
100
AcDbEntity
  8
0
  6
CONTINUOUS
 62
               7
100
AcDbLine
 10
6.1339740753173686
 20
-74.099966621398949
 30
0.0
 11
-6.133974075317397
 21
-74.099966621398949
 31
0.0
  0
LINE
  5
106
100
AcDbEntity
  8
0
  6
CONTINUOUS
 62
               7
100
AcDbLine
 10
7.8999996185302592
 20
-71.099966621398949
 30
0.0
 11
-7.8999996185302876
 21
-71.099966621398949
 31
0.0
  0
LINE
  5
107
100
AcDbEntity
  8
0
  6
CONTINUOUS
 62
               7
100
AcDbLine
 10
7.6999989272237457
 20
-71.299965822982927
 30
0.0
 11
7.8999989878129639
 21
-71.099965998415996
 31
0.0
  0
LINE
  5
108
100
AcDbEntity
  8
0
  6
CONTINUOUS
 62
               7
100
AcDbLine
 10
-7.9000010109001693
 20
-71.099968232207971
 30
0.0
 11
-7.6999999050675711
 21
-71.299968377089442
 31
0.0
  0
LINE
  5
109
100
AcDbEntity
  8
0
  6
CONTINUOUS
 62
               7
100
AcDbLine
 10
7.6999998092651225
 20
-71.299966430664085
 30
0.0
 11
-7.6999988555908345
 21
-71.299966430664085
 31
0.0
  0
LINE
  5
10A
100
AcDbEntity
  8
0
  6
CONTINUOUS
 62
               7
100
AcDbLine
 10
6.8999996185302592
 20
-76.999966239929222
 30
0.0
 11
6.8999996185302592
 21
-78.799965476989769
 31
0.0
  0
LINE
  5
10B
100
AcDbEntity
  8
0
  6
CONTINUOUS
 62
               7
100
AcDbLine
 10
-6.8999996185302876
 20
-76.999966239929222
 30
0.0
 11
-6.8999996185302876
 21
-78.799965476989769
 31
0.0
  0
LINE
  5
10C
100
AcDbEntity
  8
0
  6
CONTINUOUS
 62
               7
100
AcDbLine
 10
6.8999996185302592
 20
-76.999966239929222
 30
0.0
 11
-6.8999996185302876
 21
-76.999966239929222
 31
0.0
  0
LINE
  5
10D
100
AcDbEntity
  8
0
  6
CONTINUOUS
 62
               7
100
AcDbLine
 10
6.6999998092651225
 20
-78.999966239929222
 30
0.0
 11
-6.6999998092651509
 21
-78.999966239929222
 31
0.0
  0
LINE
  5
10E
100
AcDbEntity
  8
0
  6
CONTINUOUS
 62
               2
100
AcDbLine
 10
-13.000000027004035
 20
0.0
 30
0.0
 11
12.999999999999986
 21
0.0
 31
0.0
  0
LINE
  5
10F
100
AcDbEntity
  8
0
  6
DASHED
 62
               2
100
AcDbLine
 10
3.9999999999999716
 20
-78.999966239929222
 30
0.0
 11
3.9999999999999716
 21
-69.599966430664097
 31
0.0
  0
LINE
  5
110
100
AcDbEntity
  8
0
  6
DASHED
 62
               2
100
AcDbLine
 10
-4.0000000000000284
 20
-78.999966239929222
 30
0.0
 11
-4.0000000000000284
 21
-69.599966430664097
 31
0.0
  0
ENDBLK
  5
111
100
AcDbEntity
  8
0
100
AcDbBlockEnd
  0
BLOCK
  5
112
100
AcDbEntity
  8
0
100
AcDbBlockBegin
  2
F15Z-5
 70
               0
 10
0.0
 20
0.0
 30
0.0
  3
F15Z-5
  1

  0
LINE
  5
113
100
AcDbEntity
  8
0
  6
CONTINUOUS
 62
               7
100
AcDbLine
 10
16.0
 20
-69.599966430664097
 30
0.0
 11
0.0
 21
-69.599966430664097
 31
0.0
  0
LINE
  5
114
100
AcDbEntity
  8
0
  6
CONTINUOUS
 62
               7
100
AcDbLine
 10
13.000000000000014
 20
20.845033569335925
 30
0.0
 11
13.0
 21
-55.399966430664051
 31
0.0
  0
LINE
  5
115
100
AcDbEntity
  8
0
  6
CONTINUOUS
 62
               2
100
AcDbLine
 10
8.0
 20
-57.66996643066409
 30
0.0
 11
7.9999999999999858
 21
-83.390495323107984
 31
0.0
  0
LINE
  5
116
100
AcDbEntity
  8
0
  6
CONTINUOUS
 62
               7
100
AcDbLine
 10
16.0
 20
-55.399966430664051
 30
0.0
 11
13.0
 21
-55.399966430664051
 31
0.0
  0
LINE
  5
117
100
AcDbEntity
  8
0
  6
CONTINUOUS
 62
               7
100
AcDbLine
 10
16.0
 20
-55.399966430664051
 30
0.0
 11
16.0
 21
-69.599966430664097
 31
0.0
  0
LINE
  5
118
100
AcDbEntity
  8
0
  6
CONTINUOUS
 62
               7
100
AcDbLine
 10
0.0
 20
20.845033569335925
 30
0.0
 11
0.0
 21
-69.599966430664097
 31
0.0
  0
LINE
  5
119
100
AcDbEntity
  8
0
  6
CONTINUOUS
 62
               7
100
AcDbLine
 10
13.000000000000014
 20
20.845033569335925
 30
0.0
 11
0.0
 21
20.845033569335925
 31
0.0
  0
LINE
  5
11A
100
AcDbEntity
  8
0
  6
CONTINUOUS
 62
               7
100
AcDbLine
 10
13.000000000000014
 20
18.900033569335903
 30
0.0
 11
0.0
 21
18.900033569335903
 31
0.0
  0
LINE
  5
11B
100
AcDbEntity
  8
0
  6
PHANTOM
 62
               2
100
AcDbLine
 10
12.59999999999998
 20
38.845033569335897
 30
0.0
 11
-0.4000000000000057
 21
38.845033569335897
 31
0.0
  0
LINE
  5
11C
100
AcDbEntity
  8
0
  6
PHANTOM
 62
               2
100
AcDbLine
 10
12.59999999999998
 20
39.845033569335897
 30
0.0
 11
-0.4000000000000057
 21
39.845033569335897
 31
0.0
  0
LINE
  5
11D
100
AcDbEntity
  8
0
  6
PHANTOM
 62
               2
100
AcDbLine
 10
-0.3999999880790739
 20
58.845033569335897
 30
0.0
 11
9.6000000119209119
 21
58.845033569335897
 31
0.0
  0
LINE
  5
11E
100
AcDbEntity
  8
0
  6
PHANTOM
 62
               2
100
AcDbLine
 10
9.5999999999999943
 20
59.845033569335897
 30
0.0
 11
-0.3999999999999915
 21
59.845033569335897
 31
0.0
  0
LINE
  5
11F
100
AcDbEntity
  8
0
  6
PHANTOM
 62
               2
100
AcDbLine
 10
10.599999999999994
 20
20.845033569335897
 30
0.0
 11
0.0999999999999943
 21
20.845033569335897
 31
0.0
  0
LINE
  5
120
100
AcDbEntity
  8
0
  6
PHANTOM
 62
               2
100
AcDbLine
 10
12.599999999999994
 20
27.845033569335897
 30
0.0
 11
12.599999999999994
 21
47.945033569335919
 31
0.0
  0
LINE
  5
121
100
AcDbEntity
  8
0
  6
PHANTOM
 62
               2
100
AcDbLine
 10
-0.3999999999999915
 20
49.645033569335908
 30
0.0
 11
-1.1999999999999744
 21
49.645033569335908
 31
0.0
  0
LINE
  5
122
100
AcDbEntity
  8
0
  6
PHANTOM
 62
               2
100
AcDbLine
 10
-1.1999999999999744
 20
49.645033569335908
 30
0.0
 11
-1.1999999999999744
 21
55.845033569335897
 31
0.0
  0
LINE
  5
123
100
AcDbEntity
  8
0
  6
PHANTOM
 62
               2
100
AcDbLine
 10
-2.6999999999999744
 20
55.845033569335897
 30
0.0
 11
-2.6999999999999744
 21
57.845033569335897
 31
0.0
  0
LINE
  5
124
100
AcDbEntity
  8
0
  6
PHANTOM
 62
               2
100
AcDbLine
 10
-1.1999999999999744
 20
55.845033569335897
 30
0.0
 11
-2.6999999999999744
 21
55.845033569335897
 31
0.0
  0
LINE
  5
125
100
AcDbEntity
  8
0
  6
PHANTOM
 62
               2
100
AcDbLine
 10
10.599999999999994
 20
20.845033569335897
 30
0.0
 11
10.599999999999994
 21
25.845033569335897
 31
0.0
  0
LINE
  5
126
100
AcDbEntity
  8
0
  6
PHANTOM
 62
               2
100
AcDbLine
 10
10.599999999999994
 20
25.845033569335897
 30
0.0
 11
12.599999999999994
 21
27.845033569335897
 31
0.0
  0
LINE
  5
127
100
AcDbEntity
  8
0
  6
PHANTOM
 62
               2
100
AcDbLine
 10
12.599999999999994
 20
47.945033569335919
 30
0.0
 11
11.099999999999994
 21
47.945033569335919
 31
0.0
  0
LINE
  5
128
100
AcDbEntity
  8
0
  6
PHANTOM
 62
               2
100
AcDbLine
 10
-0.4000000000000057
 20
21.345033569335897
 30
0.0
 11
0.0999999999999943
 21
20.845033569335897
 31
0.0
  0
LINE
  5
129
100
AcDbEntity
  8
0
  6
PHANTOM
 62
               2
100
AcDbLine
 10
9.5999999999999943
 20
49.445033569335919
 30
0.0
 11
9.5999999999999943
 21
59.845033569335897
 31
0.0
  0
ARC
  5
12A
100
AcDbEntity
  8
0
  6
PHANTOM
 62
               2
100
AcDbCircle
 10
11.099999999999994
 20
49.445033569335919
 30
0.0
 40
1.5
100
AcDbArc
 50
179.99999999999963
 51
269.99999999999937
  0
LINE
  5
12B
100
AcDbEntity
  8
0
  6
PHANTOM
 62
               2
100
AcDbLine
 10
-3.1999999999999744
 20
57.845033569335897
 30
0.0
 11
-3.1999999999999744
 21
59.645033569335908
 31
0.0
  0
LINE
  5
12C
100
AcDbEntity
  8
0
  6
PHANTOM
 62
               2
100
AcDbLine
 10
-3.1999999999999744
 20
59.645033569335908
 30
0.0
 11
-0.3999999999999915
 21
59.645033569335908
 31
0.0
  0
LINE
  5
12D
100
AcDbEntity
  8
0
  6
PHANTOM
 62
               2
100
AcDbLine
 10
-3.199999976158125
 20
57.845033569335897
 30
0.0
 11
-2.699999976158125
 21
57.845033569335897
 31
0.0
  0
LINE
  5
12E
100
AcDbEntity
  8
0
  6
PHANTOM
 62
               2
100
AcDbLine
 10
-0.4000000000000057
 20
21.345033569335897
 30
0.0
 11
-0.3999999999999915
 21
59.845033569335897
 31
0.0
  0
LINE
  5
12F
100
AcDbEntity
  8
0
  6
CONTINUOUS
 62
               7
100
AcDbLine
 10
0.1000003814697266
 20
-69.599966430664097
 30
0.0
 11
0.1000003814697266
 21
-71.099966621398949
 31
0.0
  0
LINE
  5
130
100
AcDbEntity
  8
0
  6
CONTINUOUS
 62
               7
100
AcDbLine
 10
15.899999618530273
 20
-69.599966430664097
 30
0.0
 11
15.899999618530259
 21
-71.099966621398949
 31
0.0
  0
ARC
  5
131
100
AcDbEntity
  8
0
  6
CONTINUOUS
 62
               7
100
AcDbCircle
 10
14.699999809265123
 20
-78.799965476989769
 30
0.0
 40
0.199999988079071
100
AcDbArc
 50
269.99999999999937
 51
359.99998201390986
  0
ARC
  5
132
100
AcDbEntity
  8
0
  6
CONTINUOUS
 62
               7
100
AcDbCircle
 10
1.3000001907348633
 20
-78.799965476989769
 30
0.0
 40
0.199999988079071
100
AcDbArc
 50
180.00001798608895
 51
269.99999999999937
  0
LINE
  5
133
100
AcDbEntity
  8
0
  6
CONTINUOUS
 62
               7
100
AcDbLine
 10
2.5999995104845652
 20
-74.799967456491913
 30
0.0
 11
2.4000002422560556
 21
-74.999966741579101
 31
0.0
  0
LINE
  5
134
100
AcDbEntity
  8
0
  6
CONTINUOUS
 62
               7
100
AcDbLine
 10
13.600002033673846
 20
-74.599967210456441
 30
0.0
 11
13.400001753920989
 21
-74.799967507068061
 31
0.0
  0
LINE
  5
135
100
AcDbEntity
  8
0
  6
CONTINUOUS
 62
               7
100
AcDbLine
 10
13.400000320928072
 20
-74.799966276380133
 30
0.0
 11
13.600000263506146
 21
-74.999966235816942
 31
0.0
  0
LINE
  5
136
100
AcDbEntity
  8
0
  6
CONTINUOUS
 62
               7
100
AcDbLine
 10
2.4000000315217562
 20
-74.599967926953013
 30
0.0
 11
2.5999999740998305
 21
-74.799967886389823
 31
0.0
  0
LINE
  5
137
100
AcDbEntity
  8
0
  6
CONTINUOUS
 62
               7
100
AcDbLine
 10
13.600000381469712
 20
-74.999966239929222
 30
0.0
 11
13.600000381469712
 21
-76.099966621398949
 31
0.0
  0
LINE
  5
138
100
AcDbEntity
  8
0
  6
CONTINUOUS
 62
               7
100
AcDbLine
 10
2.4000005722045898
 20
-74.999966239929222
 30
0.0
 11
2.4000005722045898
 21
-76.099966621398949
 31
0.0
  0
LINE
  5
139
100
AcDbEntity
  8
0
  6
CONTINUOUS
 62
               7
100
AcDbLine
 10
2.4000005722045898
 20
-74.599966621398949
 30
0.0
 11
13.600000381469712
 21
-74.599966621398949
 31
0.0
  0
LINE
  5
13A
100
AcDbEntity
  8
0
  6
CONTINUOUS
 62
               7
100
AcDbLine
 10
2.4000005722045898
 20
-74.999966239929222
 30
0.0
 11
13.600000381469712
 21
-74.999966239929222
 31
0.0
  0
LINE
  5
13B
100
AcDbEntity
  8
0
  6
CONTINUOUS
 62
               7
100
AcDbLine
 10
2.5999994277954102
 20
-74.799966430664085
 30
0.0
 11
13.400000572204576
 21
-74.799966430664085
 31
0.0
  0
LINE
  5
13C
100
AcDbEntity
  8
0
  6
CONTINUOUS
 62
               7
100
AcDbLine
 10
12.999999999999986
 20
-76.099966621398949
 30
0.0
 11
12.999999999999986
 21
-76.999966239929222
 31
0.0
  0
LINE
  5
13D
100
AcDbEntity
  8
0
  6
CONTINUOUS
 62
               7
100
AcDbLine
 10
3.0
 20
-76.099966621398949
 30
0.0
 11
3.0
 21
-76.999966239929222
 31
0.0
  0
LINE
  5
13E
100
AcDbEntity
  8
0
  6
CONTINUOUS
 62
               7
100
AcDbLine
 10
2.4000005722045898
 20
-76.099966621398949
 30
0.0
 11
13.600000381469712
 21
-76.099966621398949
 31
0.0
  0
LINE
  5
13F
100
AcDbEntity
  8
0
  6
CONTINUOUS
 62
               7
100
AcDbLine
 10
2.4000005722045898
 20
-74.099966621398949
 30
0.0
 11
2.4000005722045898
 21
-74.599966621398949
 31
0.0
  0
LINE
  5
140
100
AcDbEntity
  8
0
  6
CONTINUOUS
 62
               7
100
AcDbLine
 10
13.600000381469712
 20
-74.099966621398949
 30
0.0
 11
13.600000381469712
 21
-74.599966621398949
 31
0.0
  0
LINE
  5
141
100
AcDbEntity
  8
0
  6
CONTINUOUS
 62
               7
100
AcDbLine
 10
14.480385103811287
 20
-73.499966758236553
 30
0.0
 11
14.133975112744835
 21
-74.099966565065017
 31
0.0
  0
LINE
  5
142
100
AcDbEntity
  8
0
  6
CONTINUOUS
 62
               7
100
AcDbLine
 10
1.5196151513710561
 20
-73.499967200225456
 30
0.0
 11
1.866024917057473
 21
-74.099966616684128
 31
0.0
  0
LINE
  5
143
100
AcDbEntity
  8
0
  6
CONTINUOUS
 62
               7
100
AcDbLine
 10
1.5196161270141602
 20
-73.499967193603538
 30
0.0
 11
14.480383872985826
 21
-73.499967193603538
 31
0.0
  0
LINE
  5
144
100
AcDbEntity
  8
0
  6
CONTINUOUS
 62
               7
100
AcDbLine
 10
0.9999998908303382
 20
-73.199967574395998
 30
0.0
 11
1.5196162800434649
 21
-73.499968277730886
 31
0.0
  0
LINE
  5
145
100
AcDbEntity
  8
0
  6
CONTINUOUS
 62
               7
100
AcDbLine
 10
15.000000109169648
 20
-73.199967574395998
 30
0.0
 11
14.480383719956521
 21
-73.499968277730886
 31
0.0
  0
LINE
  5
146
100
AcDbEntity
  8
0
  6
CONTINUOUS
 62
               7
100
AcDbLine
 10
1.0
 20
-73.199967002868675
 30
0.0
 11
14.999999999999986
 21
-73.199967002868675
 31
0.0
  0
LINE
  5
147
100
AcDbEntity
  8
0
  6
CONTINUOUS
 62
               7
100
AcDbLine
 10
14.999999999999986
 20
-71.299966430664085
 30
0.0
 11
14.999999999999986
 21
-73.199967002868675
 31
0.0
  0
LINE
  5
148
100
AcDbEntity
  8
0
  6
CONTINUOUS
 62
               7
100
AcDbLine
 10
1.0
 20
-71.299966430664085
 30
0.0
 11
1.0
 21
-73.199967002868675
 31
0.0
  0
LINE
  5
149
100
AcDbEntity
  8
0
  6
CONTINUOUS
 62
               7
100
AcDbLine
 10
1.8660259246826172
 20
-74.099966621398949
 30
0.0
 11
14.133974075317369
 21
-74.099966621398949
 31
0.0
  0
LINE
  5
14A
100
AcDbEntity
  8
0
  6
CONTINUOUS
 62
               7
100
AcDbLine
 10
0.1000003814697266
 20
-71.099966621398949
 30
0.0
 11
15.899999618530259
 21
-71.099966621398949
 31
0.0
  0
LINE
  5
14B
100
AcDbEntity
  8
0
  6
CONTINUOUS
 62
               7
100
AcDbLine
 10
0.3000010727762401
 20
-71.299965822982927
 30
0.0
 11
0.1000010121870218
 21
-71.099965998415996
 31
0.0
  0
LINE
  5
14C
100
AcDbEntity
  8
0
  6
CONTINUOUS
 62
               7
100
AcDbLine
 10
15.900001010900141
 20
-71.099968232207971
 30
0.0
 11
15.699999905067543
 21
-71.299968377089442
 31
0.0
  0
LINE
  5
14D
100
AcDbEntity
  8
0
  6
CONTINUOUS
 62
               7
100
AcDbLine
 10
0.3000001907348633
 20
-71.299966430664085
 30
0.0
 11
15.699998855590806
 21
-71.299966430664085
 31
0.0
  0
LINE
  5
14E
100
AcDbEntity
  8
0
  6
CONTINUOUS
 62
               7
100
AcDbLine
 10
1.1000003814697266
 20
-76.999966239929222
 30
0.0
 11
1.1000003814697266
 21
-78.799965476989769
 31
0.0
  0
LINE
  5
14F
100
AcDbEntity
  8
0
  6
CONTINUOUS
 62
               7
100
AcDbLine
 10
14.899999618530259
 20
-76.999966239929222
 30
0.0
 11
14.899999618530259
 21
-78.799965476989769
 31
0.0
  0
LINE
  5
150
100
AcDbEntity
  8
0
  6
CONTINUOUS
 62
               7
100
AcDbLine
 10
1.1000003814697266
 20
-76.999966239929222
 30
0.0
 11
14.899999618530259
 21
-76.999966239929222
 31
0.0
  0
LINE
  5
151
100
AcDbEntity
  8
0
  6
CONTINUOUS
 62
               7
100
AcDbLine
 10
1.3000001907348633
 20
-78.999966239929222
 30
0.0
 11
14.699999809265123
 21
-78.999966239929222
 31
0.0
  0
LINE
  5
152
100
AcDbEntity
  8
0
  6
CONTINUOUS
 62
               2
100
AcDbLine
 10
-5.0000000270040346
 20
0.0
 30
0.0
 11
17.999999972995965
 21
0.0
 31
0.0
  0
LINE
  5
153
100
AcDbEntity
  8
0
  6
DASHED
 62
               2
100
AcDbLine
 10
11.999999999999972
 20
-78.999966239929222
 30
0.0
 11
11.999999999999972
 21
-69.59996643066404
 31
0.0
  0
LINE
  5
154
100
AcDbEntity
  8
0
  6
DASHED
 62
               2
100
AcDbLine
 10
3.9999999999999716
 20
-78.999966239929222
 30
0.0
 11
3.9999999999999716
 21
-69.59996643066404
 31
0.0
  0
ENDBLK
  5
155
100
AcDbEntity
  8
0
100
AcDbBlockEnd
  0
BLOCK
  5
156
100
AcDbEntity
  8
0
100
AcDbBlockBegin
  2
F15Z-6
 70
               0
 10
0.0
 20
0.0
 30
0.0
  3
F15Z-6
  1

  0
LINE
  5
157
100
AcDbEntity
  8
0
  6
CONTINUOUS
 62
               7
100
AcDbLine
 10
7.9000000000000199
 20
16.0
 30
0.0
 11
-7.9000000000000057
 21
16.0
 31
0.0
  0
LINE
  5
158
100
AcDbEntity
  8
0
  6
CONTINUOUS
 62
               7
100
AcDbLine
 10
7.8999999999999915
 20
0.0
 30
0.0
 11
-7.9000000000000057
 21
0.0
 31
0.0
  0
CIRCLE
  5
159
100
AcDbEntity
  8
0
  6
CONTINUOUS
 62
               7
100
AcDbCircle
 10
0.0
 20
7.9999999902393597
 30
0.0
 40
7.8999996185302734
  0
CIRCLE
  5
15A
100
AcDbEntity
  8
0
  6
CONTINUOUS
 62
               7
100
AcDbCircle
 10
0.0
 20
7.9999999902393597
 30
0.0
 40
4.0
  0
CIRCLE
  5
15B
100
AcDbEntity
  8
0
  6
CONTINUOUS
 62
               7
100
AcDbCircle
 10
0.0
 20
7.9999999902393597
 30
0.0
 40
6.8999996185302734
  0
LINE
  5
15C
100
AcDbEntity
  8
0
  6
CONTINUOUS
 62
               2
100
AcDbLine
 10
-11.329154014587374
 20
7.9999999902393597
 30
0.0
 11
11.329154014587417
 21
7.9999999902393597
 31
0.0
  0
LINE
  5
15D
100
AcDbEntity
  8
0
  6
CONTINUOUS
 62
               2
100
AcDbLine
 10
0.0
 20
-3.3291540243480426
 30
0.0
 11
0.0
 21
19.329154004826762
 31
0.0
  0
LINE
  5
15E
100
AcDbEntity
  8
0
  6
CONTINUOUS
 62
               7
100
AcDbLine
 10
-7.9000000000000057
 20
-0.0000000195212237
 30
0.0
 11
-7.9000000000000057
 21
16.0
 31
0.0
  0
LINE
  5
15F
100
AcDbEntity
  8
0
  6
CONTINUOUS
 62
               7
100
AcDbLine
 10
7.8999999999999915
 20
-0.0000000195212237
 30
0.0
 11
7.9000000000000199
 21
16.0
 31
0.0
  0
ENDBLK
  5
160
100
AcDbEntity
  8
0
100
AcDbBlockEnd
  0
ENDSEC
  0
SECTION
  2
ENTITIES
  0
INSERT
  5
161
100
AcDbEntity
  8
0
  6
ByBlock
100
AcDbBlockReference
  2
F15Z-1
 10
-71.037499237060558
 20
11.868975895720013
 30
0.0
  0
INSERT
  5
162
100
AcDbEntity
  8
0
  6
ByBlock
100
AcDbBlockReference
  2
F15Z-2
 10
-131.53749923706056
 20
11.868975895720013
 30
0.0
  0
INSERT
  5
163
100
AcDbEntity
  8
0
  6
ByBlock
100
AcDbBlockReference
  2
F15Z-3
 10
-71.037499237060558
 20
-105.73099053494408
 30
0.0
 50
359.99999982924425
  0
INSERT
  5
164
100
AcDbEntity
  8
0
  6
ByBlock
100
AcDbBlockReference
  2
F15Z-4
 10
123.48750228881836
 20
11.868975895720013
 30
0.0
  0
INSERT
  5
165
100
AcDbEntity
  8
0
  6
ByBlock
100
AcDbBlockReference
  2
F15Z-5
 10
62.987502288818362
 20
11.868975895720013
 30
0.0
  0
INSERT
  5
166
100
AcDbEntity
  8
0
  6
ByBlock
100
AcDbBlockReference
  2
F15Z-6
 10
123.48750228881833
 20
-105.73099052518344
 30
0.0
  0
MTEXT
  5
167
100
AcDbEntity
  8
0
  6
CONTINUOUS
 62
               7
100
AcDbMText
 10
115.52672595002113
 20
-126.0
 30
0.0
 40
6.3000001907348633
 41
0.0
 71
               4
 72
               1
  1
\W1.121;\A1;KOGANEI CORP.
  0
MTEXT
  5
168
100
AcDbEntity
  8
0
  6
CONTINUOUS
 62
               7
100
AcDbMText
 10
135.28361320185996
 20
125.10000610351562
 30
0.0
 40
4.5
 41
0.0
 71
               4
 72
               1
  1
\W1.311;\A1;Ver. 1.0
  0
LINE
  5
169
100
AcDbEntity
  8
0
  6
CONTINUOUS
 62
               7
100
AcDbLine
 10
-109.25
 20
132.60000610351562
 30
0.0
 11
-109.25
 21
117.60000610351562
 31
0.0
  0
LINE
  5
16A
100
AcDbEntity
  8
0
  6
CONTINUOUS
 62
               7
100
AcDbLine
 10
-194.25
 20
117.60000610351562
 30
0.0
 11
-109.25
 21
117.60000610351562
 31
0.0
  0
LINE
  5
16B
100
AcDbEntity
  8
0
  6
CONTINUOUS
 62
               7
100
AcDbLine
 10
109.80000305175781
 20
117.60000610351562
 30
0.0
 11
194.80000305175781
 21
117.60000610351562
 31
0.0
  0
LINE
  5
16C
100
AcDbEntity
  8
0
  6
CONTINUOUS
 62
               7
100
AcDbLine
 10
109.80000305175781
 20
132.60000610351562
 30
0.0
 11
109.80000305175781
 21
117.60000610351562
 31
0.0
  0
LINE
  5
16D
100
AcDbEntity
  8
0
  6
CONTINUOUS
 62
               7
100
AcDbLine
 10
109.80000305175781
 20
-118.5
 30
0.0
 11
194.80000305175781
 21
-118.5
 31
0.0
  0
LINE
  5
16E
100
AcDbEntity
  8
0
  6
CONTINUOUS
 62
               7
100
AcDbLine
 10
109.80000305175781
 20
-118.5
 30
0.0
 11
109.80000305175781
 21
-133.5
 31
0.0
  0
LINE
  5
16F
100
AcDbEntity
  8
0
  6
CONTINUOUS
 62
               7
100
AcDbLine
 10
-194.25
 20
-133.5
 30
0.0
 11
194.80000305175781
 21
-133.5
 31
0.0
  0
LINE
  5
170
100
AcDbEntity
  8
0
  6
CONTINUOUS
 62
               7
100
AcDbLine
 10
-194.25
 20
132.60000610351562
 30
0.0
 11
-194.25
 21
-133.5
 31
0.0
  0
LINE
  5
171
100
AcDbEntity
  8
0
  6
CONTINUOUS
 62
               7
100
AcDbLine
 10
194.80000305175781
 20
132.60000610351562
 30
0.0
 11
194.80000305175781
 21
-133.5
 31
0.0
  0
LINE
  5
172
100
AcDbEntity
  8
0
  6
CONTINUOUS
 62
               7
100
AcDbLine
 10
-194.25
 20
132.60000610351562
 30
0.0
 11
194.80000305175781
 21
132.60000610351562
 31
0.0
  0
MTEXT
  5
173
100
AcDbEntity
  8
0
  6
CONTINUOUS
 62
               7
100
AcDbMText
 10
-185.6923077197001
 20
107.60000610351562
 30
0.0
 40
4.5
 41
0.0
 71
               4
 72
               1
  1
\W1.077;\A1;MODEL:F15Z-NP6
  0
MTEXT
  5
174
100
AcDbEntity
  8
0
  6
CONTINUOUS
 62
               1
100
AcDbMText
 10
-173.41044320134441
 20
125.10000610351562
 30
0.0
 40
4.5
 41
0.0
 71
               4
 72
               1
  1
\W1.119;\A1;F15 SERIES
  0
MTEXT
  5
175
100
AcDbEntity
  8
0
  6
CONTINUOUS
 62
               7
100
AcDbMText
 10
-158.71739134727576
 20
101.85000601410866
 30
0.0
 40
4.5
 41
0.0
 71
               1
 72
               1
  1
\W1.043;\A1;F15Z-NR6
  0
MTEXT
  5
176
100
AcDbEntity
  8
0
  6
CONTINUOUS
 62
               7
100
AcDbMText
 10
-161.16666664039462
 20
93.850006014108658
 30
0.0
 40
4.5
 41
0.0
 71
               1
 72
               1
  1
\W1.111;\A1;(F15Z-PP6)
  0
MTEXT
  5
177
100
AcDbEntity
  8
0
  6
CONTINUOUS
 62
               7
100
AcDbMText
 10
-161.16666664039462
 20
85.850006014108658
 30
0.0
 40
4.5
 41
0.0
 71
               1
 72
               1
  1
\W1.111;\A1;(F15Z-PR6)
  0
MTEXT
  5
178
100
AcDbEntity
  8
0
  6
CONTINUOUS
 62
               7
100
AcDbMText
 10
8.8326938061788081
 20
107.60000610351562
 30
0.0
 40
4.5
 41
0.0
 71
               4
 72
               1
  1
\W1.077;\A1;MODEL:F15Z-NP8
  0
MTEXT
  5
179
100
AcDbEntity
  8
0
  6
CONTINUOUS
 62
               7
100
AcDbMText
 10
35.807610178603149
 20
101.85000601410866
 30
0.0
 40
4.5
 41
0.0
 71
               1
 72
               1
  1
\W1.043;\A1;F15Z-NR8
  0
MTEXT
  5
17A
100
AcDbEntity
  8
0
  6
CONTINUOUS
 62
               7
100
AcDbMText
 10
33.358334885484311
 20
93.850006014108658
 30
0.0
 40
4.5
 41
0.0
 71
               1
 72
               1
  1
\W1.111;\A1;(F15Z-PP8)
  0
MTEXT
  5
17B
100
AcDbEntity
  8
0
  6
CONTINUOUS
 62
               7
100
AcDbMText
 10
33.358334885484311
 20
85.850006014108658
 30
0.0
 40
4.5
 41
0.0
 71
               1
 72
               1
  1
\W1.111;\A1;(F15Z-PR8)
  0
LINE
  5
17C
100
AcDbEntity
  8
0
  6
CONTINUOUS
 62
               7
100
AcDbLine
 10
0.2750015258789063
 20
132.60000610351562
 30
0.0
 11
0.2750015258789063
 21
-133.5
 31
0.0
  0
ENDSEC
  0
SECTION
  2
OBJECTS
  0
DICTIONARY
  5
19
100
AcDbDictionary
  3
ACAD_GROUP
350
1A
  3
ACAD_MLINESTYLE
350
1B
  0
DICTIONARY
  5
1A
102
{ACAD_REACTORS
330
19
102
}
100
AcDbDictionary
  0
DICTIONARY
  5
1B
102
{ACAD_REACTORS
330
19
102
}
100
AcDbDictionary
  3
STANDARD
350
1C
  0
MLINESTYLE
  5
1C
102
{ACAD_REACTORS
330
1B
102
}
100
AcDbMlineStyle
  2
Standard
 70
               0
  3

 62
               0
 51
90.0
 52
90.0
 71
               2
 49
0.5
 62
             256
  6
ByLayer
 49
-0.5
 62
             256
  6
ByLayer
  0
ENDSEC
  0
EOF
