  0
SECTION
  2
HEADER
  9
$ACADVER
  1
AC1012
  9
$DWGCODEPAGE
  3
dos932
  9
$INSBASE
 10
0.0
 20
0.0
 30
0.0
  9
$EXTMIN
 10
-399.25
 20
-276.75
 30
0.0
  9
$EXTMAX
 10
406.09414987197181
 20
276.25
 30
0.0
  9
$LIMMIN
 10
-399.25
 20
-276.75
  9
$LIMMAX
 10
406.09414987197181
 20
276.25
  9
$ORTHOMODE
 70
               0
  9
$REGENMODE
 70
               1
  9
$FILLMODE
 70
               1
  9
$QTEXTMODE
 70
               0
  9
$MIRRTEXT
 70
               1
  9
$DRAGMODE
 70
               2
  9
$LTSCALE
 40
1.0
  9
$OSMODE
 70
               0
  9
$ATTMODE
 70
               1
  9
$TEXTSIZE
 40
3.2000000476837158
  9
$TRACEWID
 40
0.05
  9
$TEXTSTYLE
  7
MX_NOTE_STANDARD
  9
$CLAYER
  8
0
  9
$CELTYPE
  6
CONTINUOUS
  9
$CECOLOR
 62
             256
  9
$CELTSCALE
 40
1.0
  9
$DELOBJ
 70
               1
  9
$DISPSILH
 70
               0
  9
$DIMSCALE
 40
1.0
  9
$DIMASZ
 40
2.5
  9
$DIMEXO
 40
1.5
  9
$DIMDLI
 40
3.75
  9
$DIMRND
 40
0.0
  9
$DIMDLE
 40
0.0
  9
$DIMEXE
 40
1.5
  9
$DIMTP
 40
0.0
  9
$DIMTM
 40
0.0
  9
$DIMTXT
 40
3.2000000476837158
  9
$DIMCEN
 40
2.5
  9
$DIMTSZ
 40
0.0
  9
$DIMTOL
 70
               0
  9
$DIMLIM
 70
               0
  9
$DIMTIH
 70
               0
  9
$DIMTOH
 70
               0
  9
$DIMSE1
 70
               0
  9
$DIMSE2
 70
               0
  9
$DIMTAD
 70
               1
  9
$DIMZIN
 70
               8
  9
$DIMBLK
  1

  9
$DIMASO
 70
               1
  9
$DIMSHO
 70
               1
  9
$DIMPOST
  1

  9
$DIMAPOST
  1

  9
$DIMALT
 70
               0
  9
$DIMALTD
 70
               4
  9
$DIMALTF
 40
0.03937007874016
  9
$DIMLFAC
 40
1.0
  9
$DIMTOFL
 70
               1
  9
$DIMTVP
 40
0.0
  9
$DIMTIX
 70
               0
  9
$DIMSOXD
 70
               0
  9
$DIMSAH
 70
               0
  9
$DIMBLK1
  1

  9
$DIMBLK2
  1

  9
$DIMSTYLE
  2
MXDIMSTYLE
  9
$DIMCLRD
 70
               0
  9
$DIMCLRE
 70
               0
  9
$DIMCLRT
 70
               0
  9
$DIMTFAC
 40
1.0
  9
$DIMGAP
 40
1.0
  9
$DIMJUST
 70
               0
  9
$DIMSD1
 70
               0
  9
$DIMSD2
 70
               0
  9
$DIMTOLJ
 70
               1
  9
$DIMTZIN
 70
               0
  9
$DIMALTZ
 70
               0
  9
$DIMALTTZ
 70
               0
  9
$DIMFIT
 70
               3
  9
$DIMUPT
 70
               1
  9
$DIMUNIT
 70
               2
  9
$DIMDEC
 70
               4
  9
$DIMTDEC
 70
               4
  9
$DIMALTU
 70
               2
  9
$DIMALTTD
 70
               4
  9
$DIMTXSTY
  7
MX_NOTE_STANDARD
  9
$DIMAUNIT
 70
               0
  9
$LUNITS
 70
               2
  9
$LUPREC
 70
               4
  9
$SKETCHINC
 40
0.1
  9
$FILLETRAD
 40
0.0
  9
$AUNITS
 70
               0
  9
$AUPREC
 70
               0
  9
$MENU
  1
acad
  9
$ELEVATION
 40
0.0
  9
$PELEVATION
 40
0.0
  9
$THICKNESS
 40
0.0
  9
$LIMCHECK
 70
               0
  9
$BLIPMODE
 70
               1
  9
$CHAMFERA
 40
0.0
  9
$CHAMFERB
 40
0.0
  9
$CHAMFERC
 40
0.0
  9
$CHAMFERD
 40
0.0
  9
$SKPOLY
 70
               0
  9
$TDCREATE
 40
2453378.356365741
  9
$TDUPDATE
 40
2453378.356365741
  9
$TDINDWG
 40
0.0000000000
  9
$TDUSRTIMER
 40
0.0000000000
  9
$USRTIMER
 70
               1
  9
$ANGBASE
 50
0.0
  9
$ANGDIR
 70
               0
  9
$PDMODE
 70
               0
  9
$PDSIZE
 40
0.0
  9
$PLINEWID
 40
0.0
  9
$COORDS
 70
               1
  9
$SPLFRAME
 70
               0
  9
$SPLINETYPE
 70
               6
  9
$SPLINESEGS
 70
               8
  9
$ATTDIA
 70
               0
  9
$ATTREQ
 70
               1
  9
$HANDLING
 70
               1
  9
$HANDSEED
  5
6AC
  9
$SURFTAB1
 70
               6
  9
$SURFTAB2
 70
               6
  9
$SURFTYPE
 70
               6
  9
$SURFU
 70
               6
  9
$SURFV
 70
               6
  9
$UCSNAME
  2

  9
$UCSORG
 10
0.0
 20
0.0
 30
0.0
  9
$UCSXDIR
 10
1.0
 20
0.0
 30
0.0
  9
$UCSYDIR
 10
0.0
 20
1.0
 30
0.0
  9
$PUCSNAME
  2

  9
$PUCSORG
 10
0.0
 20
0.0
 30
0.0
  9
$PUCSXDIR
 10
1.0
 20
0.0
 30
0.0
  9
$PUCSYDIR
 10
0.0
 20
1.0
 30
0.0
  9
$USERI1
 70
               0
  9
$USERI2
 70
               0
  9
$USERI3
 70
               0
  9
$USERI4
 70
               0
  9
$USERI5
 70
               0
  9
$USERR1
 40
0.0
  9
$USERR2
 40
0.0
  9
$USERR3
 40
0.0
  9
$USERR4
 40
0.0
  9
$USERR5
 40
0.0
  9
$WORLDVIEW
 70
               1
  9
$SHADEDGE
 70
               3
  9
$SHADEDIF
 70
              70
  9
$TILEMODE
 70
               1
  9
$MAXACTVP
 70
              16
  9
$PINSBASE
 10
0.0
 20
0.0
 30
0.0
  9
$PLIMCHECK
 70
               0
  9
$PEXTMIN
 10
1.0000000000000000E+20
 20
1.0000000000000000E+20
 30
1.0000000000000000E+20
  9
$PEXTMAX
 10
-1.0000000000000000E+20
 20
-1.0000000000000000E+20
 30
-1.0000000000000000E+20
  9
$PLIMMIN
 10
0.0
 20
0.0
  9
$PLIMMAX
 10
12.0
 20
9.0
  9
$UNITMODE
 70
               0
  9
$VISRETAIN
 70
               0
  9
$PLINEGEN
 70
               1
  9
$PSLTSCALE
 70
               0
  9
$TREEDEPTH
 70
            3020
  9
$PICKSTYLE
 70
               1
  9
$CMLSTYLE
  2
Standard
  9
$CMLJUST
 70
               0
  9
$CMLSCALE
 40
1.0
  9
$SAVEIMAGES
 70
               0
  0
ENDSEC
  0
SECTION
  2
CLASSES
  0
CLASS
  1
LWPOLYLINE
  2
AcDbPolyline
  3
"AutoCAD"
 90
        0
280
               0
281
               1
  0
CLASS
  1
IMAGE
  2
AcDbRasterImage
  3
ISM
 90
      127
280
               0
281
               1
  0
CLASS
  1
OLE2FRAME
  2
AcDbOle2Frame
  3
""
 90
        0
280
               0
281
               1
  0
CLASS
  1
HATCH
  2
AcDbHatch
  3
"ACAD_SEDONA"
 90
        0
280
               0
281
               1
  0
CLASS
  1
DICTIONARYVAR
  2
AcDbDictionaryVar
  3
"AutoCAD"
 90
        0
280
               0
281
               0
  0
CLASS
  1
RASTERVARIABLES
  2
AcDbRasterVariables
  3
ISM
 90
        0
280
               0
281
               0
  0
CLASS
  1
IMAGEDEF
  2
AcDbRasterImageDef
  3
ISM
 90
        0
280
               0
281
               0
  0
CLASS
  1
IMAGEDEF_REACTOR
  2
AcDbRasterImageDefReactor
  3
ISM
 90
        1
280
               0
281
               0
  0
CLASS
  1
IDBUFFER
  2
AcDbIdBuffer
  3
"Acad"
 90
        0
280
               0
281
               0
  0
CLASS
  1
SPATIAL_FILTER
  2
AcDbSpatialFilter
  3
"Acad"
 90
        0
280
               0
281
               0
  0
CLASS
  1
XRECORD
  2
AcDbXrecord
  3
"<Built In>"
 90
        0
280
               0
281
               0
  0
CLASS
  1
SORTENTSTABLE
  2
AcDbSortentsTable
  3
"AutoCAD"
 90
        0
280
               0
281
               0
  0
CLASS
  1
LAYER_INDEX
  2
AcDbLayerIndex
  3
"Acad"
 90
        0
280
               0
281
               0
  0
CLASS
  1
SPATIAL_INDEX
  2
AcDbSpatialIndex
  3
"Acad"
 90
        0
280
               0
281
               0
  0
CLASS
  1
OBJECT_PTR
  2
CAseDLPNTableRecord
  3
"ASE-LPNTableRecord"
 90
        1
280
               0
281
               0
  0
CLASS
  1
LAYOUT
  2
AcDbLayout
  3
"AutoCAD 2000"
 90
        1
280
               0
281
               0
  0
CLASS
  1
PLOTSETTINGS
  2
AcDbPlotSettings
  3
"AutoCAD 2000"
 90
        1
280
               0
281
               0
  0
CLASS
  1
ACDBDICTIONARYWDFLT
  2
AcDbDictionaryWithDefault
  3
"AutoCAD 2000"
 90
        1
280
               0
281
               0
  0
CLASS
  1
ACDBPLACEHOLDER
  2
AcDbPlaceHolder
  3
"AutoCAD 2000"
 90
        1
280
               0
281
               0
  0
ENDSEC
  0
SECTION
  2
TABLES
  0
TABLE
  2
VPORT
  5
7
100
AcDbSymbolTable
 70
               1
  0
VPORT
  5
15
100
AcDbSymbolTableRecord
100
AcDbViewportTableRecord
  2
*ACTIVE
 70
               0
 10
0.0
 20
0.0
 11
1.0
 21
1.0
 12
3.4220749359859042
 22
-0.25
 13
0.0
 23
0.0
 14
1.0
 24
1.0
 15
0.0
 25
0.0
 16
0.0
 26
0.0
 36
1.0
 17
0.0
 27
0.0
 37
0.0
 40
558.52999999999997
 41
1.7320508075688772
 42
50.0
 43
0.0
 44
0.0
 50
0.0
 51
0.0
 71
               0
 72
             100
 73
               1
 74
               1
 75
               0
 76
               0
 77
               0
 78
               0
  0
ENDTAB
  0
TABLE
  2
LTYPE
  5
4
100
AcDbSymbolTable
 70
               5
  0
LTYPE
  5
11
100
AcDbSymbolTableRecord
100
AcDbLinetypeTableRecord
  2
BYBLOCK
 70
              64
  3

 72
              65
 73
               0
 40
0.0
  0
LTYPE
  5
12
100
AcDbSymbolTableRecord
100
AcDbLinetypeTableRecord
  2
BYLAYER
 70
              64
  3

 72
              65
 73
               0
 40
0.0
  0
LTYPE
  5
13
100
AcDbSymbolTableRecord
100
AcDbLinetypeTableRecord
  2
CONTINUOUS
 70
              64
  3
Solid line
 72
              65
 73
               0
 40
0.0
  0
LTYPE
  5
62C
100
AcDbSymbolTableRecord
100
AcDbLinetypeTableRecord
  2
DASHED
 70
              64
  3
Dashed __ __ __ __ __ __ __ __ __ __ __ __ __ _
 72
              65
 73
               2
 40
4.0
 49
2.0
 74
               0
 49
-2.0
 74
               0
  0
LTYPE
  5
642
100
AcDbSymbolTableRecord
100
AcDbLinetypeTableRecord
  2
CENTER
 70
              64
  3
Center ____ _ ____ _ ____ _ ____ _ ____ _ ____
 72
              65
 73
               4
 40
26.0
 49
20.0
 74
               0
 49
-2.0
 74
               0
 49
2.0
 74
               0
 49
-2.0
 74
               0
  0
ENDTAB
  0
TABLE
  2
LAYER
  5
2
100
AcDbSymbolTable
 70
               2
  0
LAYER
  5
14
100
AcDbSymbolTableRecord
100
AcDbLayerTableRecord
  2
0
 70
               0
 62
               7
  6
CONTINUOUS
  0
LAYER
  5
1D
100
AcDbSymbolTableRecord
100
AcDbLayerTableRecord
  2
DEFPOINTS
 70
               0
 62
               7
  6
CONTINUOUS
  0
ENDTAB
  0
TABLE
  2
STYLE
  5
3
100
AcDbSymbolTable
 70
               1
  0
STYLE
  5
17
100
AcDbSymbolTableRecord
100
AcDbTextStyleTableRecord
  2
MX_NOTE_STANDARD
 70
               0
 40
0.0
 41
1.0
 50
0.0
 71
               0
 42
3.2000000476837158
  3
txt.shx
  4
extfont.shx
  0
ENDTAB
  0
TABLE
  2
VIEW
  5
5
100
AcDbSymbolTable
 70
               0
  0
ENDTAB
  0
TABLE
  2
UCS
  5
6
100
AcDbSymbolTable
 70
               0
  0
ENDTAB
  0
TABLE
  2
APPID
  5
8
100
AcDbSymbolTable
 70
               1
  0
APPID
  5
16
100
AcDbSymbolTableRecord
100
AcDbRegAppTableRecord
  2
ACAD
 70
               0
  0
ENDTAB
  0
TABLE
  2
DIMSTYLE
  5
9
100
AcDbSymbolTable
 70
               1
  0
DIMSTYLE
105
18
100
AcDbSymbolTableRecord
100
AcDbDimStyleTableRecord
  2
MXDIMSTYLE
 70
               0
  3

  4

  5

  6

  7

 40
1.0
 41
2.5
 42
1.5
 43
3.75
 44
1.5
 45
0.0
 46
0.0
 47
0.0
 48
0.0
 71
               0
 72
               0
 73
               0
 74
               0
 75
               0
 76
               0
 77
               1
 78
               8
140
3.2000000476837158
141
2.5
142
0.0
143
0.03937007874016
144
1.0
145
0.0
146
1.0
147
1.0
170
               0
171
               4
172
               1
173
               0
174
               0
175
               0
176
               0
177
               0
178
               0
270
               2
271
               4
272
               4
273
               2
274
               4
275
               0
280
               0
281
               0
282
               0
283
               1
284
               0
285
               0
286
               0
287
               3
288
               1
340
17
  0
ENDTAB
  0
TABLE
  2
BLOCK_RECORD
  5
1
100
AcDbSymbolTable
 70
              16
  0
BLOCK_RECORD
  5
A
100
AcDbSymbolTableRecord
100
AcDbBlockTableRecord
  2
*MODEL_SPACE
  0
BLOCK_RECORD
  5
B
100
AcDbSymbolTableRecord
100
AcDbBlockTableRecord
  2
*PAPER_SPACE
  0
BLOCK_RECORD
  5
1E
100
AcDbSymbolTableRecord
100
AcDbBlockTableRecord
  2
F10_CONNECTER-1
  0
BLOCK_RECORD
  5
1F
100
AcDbSymbolTableRecord
100
AcDbBlockTableRecord
  2
F10_CONNECTER-2
  0
BLOCK_RECORD
  5
20
100
AcDbSymbolTableRecord
100
AcDbBlockTableRecord
  2
F10_CONNECTER-3
  0
BLOCK_RECORD
  5
21
100
AcDbSymbolTableRecord
100
AcDbBlockTableRecord
  2
F10_CONNECTER-4
  0
BLOCK_RECORD
  5
22
100
AcDbSymbolTableRecord
100
AcDbBlockTableRecord
  2
F10_CONNECTER-5
  0
BLOCK_RECORD
  5
23
100
AcDbSymbolTableRecord
100
AcDbBlockTableRecord
  2
F10_CONNECTER-6
  0
BLOCK_RECORD
  5
24
100
AcDbSymbolTableRecord
100
AcDbBlockTableRecord
  2
F10_CONNECTER-7
  0
BLOCK_RECORD
  5
25
100
AcDbSymbolTableRecord
100
AcDbBlockTableRecord
  2
F10_CONNECTER-8
  0
BLOCK_RECORD
  5
26
100
AcDbSymbolTableRecord
100
AcDbBlockTableRecord
  2
F10_CONNECTER-9
  0
BLOCK_RECORD
  5
27
100
AcDbSymbolTableRecord
100
AcDbBlockTableRecord
  2
F10_CONNECTER-10
  0
BLOCK_RECORD
  5
28
100
AcDbSymbolTableRecord
100
AcDbBlockTableRecord
  2
F10_CONNECTER-11
  0
BLOCK_RECORD
  5
29
100
AcDbSymbolTableRecord
100
AcDbBlockTableRecord
  2
F10_CONNECTER-12
  0
BLOCK_RECORD
  5
2A
100
AcDbSymbolTableRecord
100
AcDbBlockTableRecord
  2
F10_CONNECTER-13
  0
BLOCK_RECORD
  5
2B
100
AcDbSymbolTableRecord
100
AcDbBlockTableRecord
  2
F10_CONNECTER-14
  0
BLOCK_RECORD
  5
2C
100
AcDbSymbolTableRecord
100
AcDbBlockTableRecord
  2
F10_CONNECTER-15
  0
BLOCK_RECORD
  5
2D
100
AcDbSymbolTableRecord
100
AcDbBlockTableRecord
  2
F10_CONNECTER-16
  0
ENDTAB
  0
ENDSEC
  0
SECTION
  2
BLOCKS
  0
BLOCK
  5
D
100
AcDbEntity
  8
0
100
AcDbBlockBegin
  2
*MODEL_SPACE
 70
               0
 10
0.0
 20
0.0
 30
0.0
  3
*MODEL_SPACE
  1

  0
ENDBLK
  5
E
100
AcDbEntity
  8
0
100
AcDbBlockEnd
  0
BLOCK
  5
F
100
AcDbEntity
 67
               1
  8
0
100
AcDbBlockBegin
  2
*PAPER_SPACE
 70
               0
 10
0.0
 20
0.0
 30
0.0
  3
*PAPER_SPACE
  1

  0
ENDBLK
  5
10
100
AcDbEntity
 67
               1
  8
0
100
AcDbBlockEnd
  0
BLOCK
  5
2E
100
AcDbEntity
  8
0
100
AcDbBlockBegin
  2
F10_CONNECTER-1
 70
               0
 10
0.0
 20
0.0
 30
0.0
  3
F10_CONNECTER-1
  1

  0
LINE
  5
2F
100
AcDbEntity
  8
0
  6
CONTINUOUS
 62
               4
100
AcDbLine
 10
21.0
 20
-30.5
 30
0.0
 11
21.0
 21
62.5
 31
0.0
  0
LINE
  5
30
100
AcDbEntity
  8
0
  6
CONTINUOUS
 62
               4
100
AcDbLine
 10
21.0
 20
62.5
 30
0.0
 11
0.0
 21
62.5
 31
0.0
  0
LINE
  5
31
100
AcDbEntity
  8
0
  6
CONTINUOUS
 62
               4
100
AcDbLine
 10
21.0
 20
-30.300000000000001
 30
0.0
 11
21.25
 21
-30.300000000000001
 31
0.0
  0
LINE
  5
32
100
AcDbEntity
  8
0
  6
CONTINUOUS
 62
               4
100
AcDbLine
 10
0.0
 20
-30.5
 30
0.0
 11
0.0
 21
62.5
 31
0.0
  0
LINE
  5
33
100
AcDbEntity
  8
0
  6
CONTINUOUS
 62
               4
100
AcDbLine
 10
1.5
 20
-30.5
 30
0.0
 11
0.0
 21
-30.5
 31
0.0
  0
LINE
  5
34
100
AcDbEntity
  8
0
  6
CONTINUOUS
 62
               4
100
AcDbLine
 10
9.4299999999999997
 20
55.93
 30
0.0
 11
11.56
 21
58.060000000000002
 31
0.0
  0
LINE
  5
35
100
AcDbEntity
  8
0
  6
CONTINUOUS
 62
               4
100
AcDbLine
 10
9.4299999999999997
 20
58.060000000000002
 30
0.0
 11
11.56
 21
55.93
 31
0.0
  0
LINE
  5
36
100
AcDbEntity
  8
0
  6
CONTINUOUS
 62
               4
100
AcDbLine
 10
1.5
 20
-28.800000000000001
 30
0.0
 11
19.5
 21
-28.800000000000001
 31
0.0
  0
LINE
  5
37
100
AcDbEntity
  8
0
  6
CONTINUOUS
 62
               4
100
AcDbLine
 10
1.5
 20
-29.0
 30
0.0
 11
19.5
 21
-29.0
 31
0.0
  0
LINE
  5
38
100
AcDbEntity
  8
0
  6
CONTINUOUS
 62
               4
100
AcDbLine
 10
1.5
 20
-9.5
 30
0.0
 11
1.5
 21
-30.5
 31
0.0
  0
LINE
  5
39
100
AcDbEntity
  8
0
  6
CONTINUOUS
 62
               4
100
AcDbLine
 10
19.5
 20
-9.5
 30
0.0
 11
19.5
 21
-30.5
 31
0.0
  0
LINE
  5
3A
100
AcDbEntity
  8
0
  6
CONTINUOUS
 62
               4
100
AcDbLine
 10
14.0
 20
-28.800000000000001
 30
0.0
 11
14.0
 21
-29.0
 31
0.0
  0
LINE
  5
3B
100
AcDbEntity
  8
0
  6
CONTINUOUS
 62
               4
100
AcDbLine
 10
7.0
 20
-28.800000000000001
 30
0.0
 11
7.0
 21
-29.0
 31
0.0
  0
LINE
  5
3C
100
AcDbEntity
  8
0
  6
CONTINUOUS
 62
               4
100
AcDbLine
 10
1.5
 20
-18.5
 30
0.0
 11
19.5
 21
-18.5
 31
0.0
  0
LINE
  5
3D
100
AcDbEntity
  8
0
  6
CONTINUOUS
 62
               4
100
AcDbLine
 10
1.5
 20
-9.5
 30
0.0
 11
19.5
 21
-9.5
 31
0.0
  0
LINE
  5
3E
100
AcDbEntity
  8
0
  6
CONTINUOUS
 62
               4
100
AcDbLine
 10
9.5
 20
-28.300000000000001
 30
0.0
 11
11.5
 21
-28.300000000000001
 31
0.0
  0
LINE
  5
3F
100
AcDbEntity
  8
0
  6
CONTINUOUS
 62
               4
100
AcDbLine
 10
11.5
 20
-18.5
 30
0.0
 11
11.5
 21
-28.300000000000001
 31
0.0
  0
LINE
  5
40
100
AcDbEntity
  8
0
  6
CONTINUOUS
 62
               4
100
AcDbLine
 10
9.5
 20
-18.5
 30
0.0
 11
9.5
 21
-28.300000000000001
 31
0.0
  0
LINE
  5
41
100
AcDbEntity
  8
0
  6
CONTINUOUS
 62
               4
100
AcDbLine
 10
3.8500000000000001
 20
-27.300000000000001
 30
0.0
 11
8.1500000000000004
 21
-27.300000000000001
 31
0.0
  0
LINE
  5
42
100
AcDbEntity
  8
0
  6
CONTINUOUS
 62
               4
100
AcDbLine
 10
3.8500000000000001
 20
-20.300000000000001
 30
0.0
 11
8.1500000000000004
 21
-20.300000000000001
 31
0.0
  0
LINE
  5
43
100
AcDbEntity
  8
0
  6
CONTINUOUS
 62
               4
100
AcDbLine
 10
12.85
 20
-20.300000000000001
 30
0.0
 11
12.85
 21
-21.100000000000001
 31
0.0
  0
LINE
  5
44
100
AcDbEntity
  8
0
  6
CONTINUOUS
 62
               4
100
AcDbLine
 10
8.1500000000000004
 20
-20.300000000000001
 30
0.0
 11
8.1500000000000004
 21
-21.100000000000001
 31
0.0
  0
LINE
  5
45
100
AcDbEntity
  8
0
  6
CONTINUOUS
 62
               4
100
AcDbLine
 10
3.8500000000000001
 20
-20.300000000000001
 30
0.0
 11
3.8500000000000001
 21
-21.100000000000001
 31
0.0
  0
LINE
  5
46
100
AcDbEntity
  8
0
  6
CONTINUOUS
 62
               4
100
AcDbLine
 10
17.149999999999999
 20
-20.300000000000001
 30
0.0
 11
17.149999999999999
 21
-21.100000000000001
 31
0.0
  0
LINE
  5
47
100
AcDbEntity
  8
0
  6
CONTINUOUS
 62
               4
100
AcDbLine
 10
2.5
 20
-18.5
 30
0.0
 11
2.5
 21
-28.800000000000001
 31
0.0
  0
LINE
  5
48
100
AcDbEntity
  8
0
  6
CONTINUOUS
 62
               4
100
AcDbLine
 10
18.5
 20
-18.5
 30
0.0
 11
18.5
 21
-28.800000000000001
 31
0.0
  0
LINE
  5
49
100
AcDbEntity
  8
0
  6
CONTINUOUS
 62
               4
100
AcDbLine
 10
12.85
 20
-20.300000000000001
 30
0.0
 11
17.149999999999999
 21
-20.300000000000001
 31
0.0
  0
LINE
  5
4A
100
AcDbEntity
  8
0
  6
CONTINUOUS
 62
               4
100
AcDbLine
 10
12.85
 20
-27.300000000000001
 30
0.0
 11
17.149999999999999
 21
-27.300000000000001
 31
0.0
  0
LINE
  5
4B
100
AcDbEntity
  8
0
  6
CONTINUOUS
 62
               4
100
AcDbLine
 10
3.8500000000000001
 20
-26.5
 30
0.0
 11
3.8500000000000001
 21
-27.300000000000001
 31
0.0
  0
LINE
  5
4C
100
AcDbEntity
  8
0
  6
CONTINUOUS
 62
               4
100
AcDbLine
 10
8.1500000000000004
 20
-26.5
 30
0.0
 11
8.1500000000000004
 21
-27.300000000000001
 31
0.0
  0
LINE
  5
4D
100
AcDbEntity
  8
0
  6
CONTINUOUS
 62
               4
100
AcDbLine
 10
12.85
 20
-26.5
 30
0.0
 11
12.85
 21
-27.300000000000001
 31
0.0
  0
LINE
  5
4E
100
AcDbEntity
  8
0
  6
CONTINUOUS
 62
               4
100
AcDbLine
 10
17.149999999999999
 20
-26.5
 30
0.0
 11
17.149999999999999
 21
-27.300000000000001
 31
0.0
  0
LINE
  5
4F
100
AcDbEntity
  8
0
  6
CONTINUOUS
 62
               4
100
AcDbLine
 10
12.050000000000001
 20
-21.100000000000001
 30
0.0
 11
12.050000000000001
 21
-26.5
 31
0.0
  0
LINE
  5
50
100
AcDbEntity
  8
0
  6
CONTINUOUS
 62
               4
100
AcDbLine
 10
17.949999999999999
 20
-21.100000000000001
 30
0.0
 11
17.949999999999999
 21
-26.5
 31
0.0
  0
LINE
  5
51
100
AcDbEntity
  8
0
  6
CONTINUOUS
 62
               4
100
AcDbLine
 10
8.9499999999999993
 20
-21.100000000000001
 30
0.0
 11
8.9499999999999993
 21
-26.5
 31
0.0
  0
LINE
  5
52
100
AcDbEntity
  8
0
  6
CONTINUOUS
 62
               4
100
AcDbLine
 10
3.0499999999999998
 20
-21.100000000000001
 30
0.0
 11
3.0499999999999998
 21
-26.5
 31
0.0
  0
LINE
  5
53
100
AcDbEntity
  8
0
  6
CONTINUOUS
 62
               4
100
AcDbLine
 10
8.1500000000000004
 20
-21.100000000000001
 30
0.0
 11
8.9499999999999993
 21
-21.100000000000001
 31
0.0
  0
LINE
  5
54
100
AcDbEntity
  8
0
  6
CONTINUOUS
 62
               4
100
AcDbLine
 10
3.0499999999999998
 20
-21.100000000000001
 30
0.0
 11
3.8500000000000001
 21
-21.100000000000001
 31
0.0
  0
LINE
  5
55
100
AcDbEntity
  8
0
  6
CONTINUOUS
 62
               4
100
AcDbLine
 10
3.0499999999999998
 20
-26.5
 30
0.0
 11
3.8500000000000001
 21
-26.5
 31
0.0
  0
LINE
  5
56
100
AcDbEntity
  8
0
  6
CONTINUOUS
 62
               4
100
AcDbLine
 10
8.1500000000000004
 20
-26.5
 30
0.0
 11
8.9499999999999993
 21
-26.5
 31
0.0
  0
LINE
  5
57
100
AcDbEntity
  8
0
  6
CONTINUOUS
 62
               4
100
AcDbLine
 10
12.050000000000001
 20
-26.5
 30
0.0
 11
12.85
 21
-26.5
 31
0.0
  0
LINE
  5
58
100
AcDbEntity
  8
0
  6
CONTINUOUS
 62
               4
100
AcDbLine
 10
17.149999999999999
 20
-26.5
 30
0.0
 11
17.949999999999999
 21
-26.5
 31
0.0
  0
LINE
  5
59
100
AcDbEntity
  8
0
  6
CONTINUOUS
 62
               4
100
AcDbLine
 10
17.149999999999999
 20
-21.100000000000001
 30
0.0
 11
17.949999999999999
 21
-21.100000000000001
 31
0.0
  0
LINE
  5
5A
100
AcDbEntity
  8
0
  6
CONTINUOUS
 62
               4
100
AcDbLine
 10
12.050000000000001
 20
-21.100000000000001
 30
0.0
 11
12.85
 21
-21.100000000000001
 31
0.0
  0
LINE
  5
5B
100
AcDbEntity
  8
0
  6
CONTINUOUS
 62
               4
100
AcDbLine
 10
1.6000000000000001
 20
-9.75
 30
0.0
 11
1.6000000000000001
 21
-30.75
 31
0.0
  0
LINE
  5
5C
100
AcDbEntity
  8
0
  6
CONTINUOUS
 62
               4
100
AcDbLine
 10
19.399999999999999
 20
-9.75
 30
0.0
 11
19.399999999999999
 21
-30.75
 31
0.0
  0
LINE
  5
5D
100
AcDbEntity
  8
0
  6
CONTINUOUS
 62
               4
100
AcDbLine
 10
1.6000000000000001
 20
-9.75
 30
0.0
 11
19.399999999999999
 21
-9.75
 31
0.0
  0
LINE
  5
5E
100
AcDbEntity
  8
0
  6
CONTINUOUS
 62
               4
100
AcDbLine
 10
1.6000000000000001
 20
-30.75
 30
0.0
 11
19.399999999999999
 21
-30.75
 31
0.0
  0
LINE
  5
5F
100
AcDbEntity
  8
0
  6
CONTINUOUS
 62
               4
100
AcDbLine
 10
19.399999999999999
 20
-30.5
 30
0.0
 11
21.0
 21
-30.5
 31
0.0
  0
LINE
  5
60
100
AcDbEntity
  8
0
  6
CONTINUOUS
 62
               4
100
AcDbLine
 10
2.0
 20
-7.5
 30
0.0
 11
19.0
 21
-7.5
 31
0.0
  0
LINE
  5
61
100
AcDbEntity
  8
0
  6
CONTINUOUS
 62
               4
100
AcDbLine
 10
2.0
 20
51.5
 30
0.0
 11
19.0
 21
51.5
 31
0.0
  0
LINE
  5
62
100
AcDbEntity
  8
0
  6
CONTINUOUS
 62
               4
100
AcDbLine
 10
19.0
 20
51.5
 30
0.0
 11
19.0
 21
-7.5
 31
0.0
  0
LINE
  5
63
100
AcDbEntity
  8
0
  6
CONTINUOUS
 62
               4
100
AcDbLine
 10
2.0
 20
51.5
 30
0.0
 11
2.0
 21
-7.5
 31
0.0
  0
LINE
  5
64
100
AcDbEntity
  8
0
  6
CONTINUOUS
 62
               4
100
AcDbLine
 10
15.0
 20
38.350000000000001
 30
0.0
 11
15.0
 21
5.6500000000000004
 31
0.0
  0
LINE
  5
65
100
AcDbEntity
  8
0
  6
CONTINUOUS
 62
               4
100
AcDbLine
 10
6.0
 20
38.350000000000001
 30
0.0
 11
6.0
 21
5.6500000000000004
 31
0.0
  0
LINE
  5
66
100
AcDbEntity
  8
0
  6
CONTINUOUS
 62
               4
100
AcDbLine
 10
6.0
 20
5.6500000000000004
 30
0.0
 11
15.0
 21
5.6500000000000004
 31
0.0
  0
LINE
  5
67
100
AcDbEntity
  8
0
  6
CONTINUOUS
 62
               4
100
AcDbLine
 10
6.0
 20
38.350000000000001
 30
0.0
 11
15.0
 21
38.350000000000001
 31
0.0
  0
LINE
  5
68
100
AcDbEntity
  8
0
  6
CONTINUOUS
 62
               4
100
AcDbLine
 10
6.5
 20
6.0
 30
0.0
 11
15.0
 21
6.0
 31
0.0
  0
LINE
  5
69
100
AcDbEntity
  8
0
  6
CONTINUOUS
 62
               4
100
AcDbLine
 10
6.5
 20
38.0
 30
0.0
 11
15.0
 21
38.0
 31
0.0
  0
LINE
  5
6A
100
AcDbEntity
  8
0
  6
CONTINUOUS
 62
               4
100
AcDbLine
 10
6.5
 20
38.0
 30
0.0
 11
6.5
 21
6.0
 31
0.0
  0
LINE
  5
6B
100
AcDbEntity
  8
0
  6
CONTINUOUS
 62
               4
100
AcDbLine
 10
8.75
 20
37.0
 30
0.0
 11
12.75
 21
37.0
 31
0.0
  0
LINE
  5
6C
100
AcDbEntity
  8
0
  6
CONTINUOUS
 62
               4
100
AcDbLine
 10
8.75
 20
7.0
 30
0.0
 11
12.75
 21
7.0
 31
0.0
  0
LINE
  5
6D
100
AcDbEntity
  8
0
  6
CONTINUOUS
 62
               4
100
AcDbLine
 10
6.5
 20
31.0
 30
0.0
 11
8.75
 21
31.0
 31
0.0
  0
LINE
  5
6E
100
AcDbEntity
  8
0
  6
CONTINUOUS
 62
               4
100
AcDbLine
 10
6.5
 20
13.0
 30
0.0
 11
8.75
 21
13.0
 31
0.0
  0
LINE
  5
6F
100
AcDbEntity
  8
0
  6
CONTINUOUS
 62
               4
100
AcDbLine
 10
8.75
 20
16.0
 30
0.0
 11
12.75
 21
16.0
 31
0.0
  0
LINE
  5
70
100
AcDbEntity
  8
0
  6
CONTINUOUS
 62
               4
100
AcDbLine
 10
8.75
 20
28.0
 30
0.0
 11
12.75
 21
28.0
 31
0.0
  0
LINE
  5
71
100
AcDbEntity
  8
0
  6
CONTINUOUS
 62
               4
100
AcDbLine
 10
12.75
 20
31.0
 30
0.0
 11
15.0
 21
31.0
 31
0.0
  0
LINE
  5
72
100
AcDbEntity
  8
0
  6
CONTINUOUS
 62
               4
100
AcDbLine
 10
12.75
 20
13.0
 30
0.0
 11
15.0
 21
13.0
 31
0.0
  0
LINE
  5
73
100
AcDbEntity
  8
0
  6
CONTINUOUS
 62
               4
100
AcDbLine
 10
7.5
 20
31.0
 30
0.0
 11
7.5
 21
13.0
 31
0.0
  0
LINE
  5
74
100
AcDbEntity
  8
0
  6
CONTINUOUS
 62
               4
100
AcDbLine
 10
14.0
 20
31.0
 30
0.0
 11
14.0
 21
24.0
 31
0.0
  0
LINE
  5
75
100
AcDbEntity
  8
0
  6
CONTINUOUS
 62
               4
100
AcDbLine
 10
6.5
 20
32.0
 30
0.0
 11
8.75
 21
32.0
 31
0.0
  0
LINE
  5
76
100
AcDbEntity
  8
0
  6
CONTINUOUS
 62
               4
100
AcDbLine
 10
12.75
 20
32.0
 30
0.0
 11
15.0
 21
32.0
 31
0.0
  0
LINE
  5
77
100
AcDbEntity
  8
0
  6
CONTINUOUS
 62
               4
100
AcDbLine
 10
12.75
 20
12.0
 30
0.0
 11
15.0
 21
12.0
 31
0.0
  0
LINE
  5
78
100
AcDbEntity
  8
0
  6
CONTINUOUS
 62
               4
100
AcDbLine
 10
6.5
 20
12.0
 30
0.0
 11
8.75
 21
12.0
 31
0.0
  0
LINE
  5
79
100
AcDbEntity
  8
0
  6
CONTINUOUS
 62
               4
100
AcDbLine
 10
12.75
 20
16.0
 30
0.0
 11
12.75
 21
6.0
 31
0.0
  0
LINE
  5
7A
100
AcDbEntity
  8
0
  6
CONTINUOUS
 62
               4
100
AcDbLine
 10
8.75
 20
16.0
 30
0.0
 11
8.75
 21
6.0
 31
0.0
  0
LINE
  5
7B
100
AcDbEntity
  8
0
  6
CONTINUOUS
 62
               4
100
AcDbLine
 10
8.75
 20
38.0
 30
0.0
 11
8.75
 21
28.0
 31
0.0
  0
LINE
  5
7C
100
AcDbEntity
  8
0
  6
CONTINUOUS
 62
               4
100
AcDbLine
 10
12.75
 20
38.0
 30
0.0
 11
12.75
 21
28.0
 31
0.0
  0
LINE
  5
7D
100
AcDbEntity
  8
0
  6
CONTINUOUS
 62
               4
100
AcDbLine
 10
6.5
 20
33.5
 30
0.0
 11
8.75
 21
33.5
 31
0.0
  0
LINE
  5
7E
100
AcDbEntity
  8
0
  6
CONTINUOUS
 62
               4
100
AcDbLine
 10
12.75
 20
33.5
 30
0.0
 11
15.0
 21
33.5
 31
0.0
  0
LINE
  5
7F
100
AcDbEntity
  8
0
  6
CONTINUOUS
 62
               4
100
AcDbLine
 10
6.5
 20
10.5
 30
0.0
 11
8.75
 21
10.5
 31
0.0
  0
LINE
  5
80
100
AcDbEntity
  8
0
  6
CONTINUOUS
 62
               4
100
AcDbLine
 10
12.75
 20
10.5
 30
0.0
 11
15.0
 21
10.5
 31
0.0
  0
LINE
  5
81
100
AcDbEntity
  8
0
  6
CONTINUOUS
 62
               4
100
AcDbLine
 10
6.5
 20
9.25
 30
0.0
 11
8.75
 21
9.25
 31
0.0
  0
LINE
  5
82
100
AcDbEntity
  8
0
  6
CONTINUOUS
 62
               4
100
AcDbLine
 10
12.75
 20
9.25
 30
0.0
 11
15.0
 21
9.25
 31
0.0
  0
LINE
  5
83
100
AcDbEntity
  8
0
  6
CONTINUOUS
 62
               4
100
AcDbLine
 10
6.5
 20
34.75
 30
0.0
 11
8.75
 21
34.75
 31
0.0
  0
LINE
  5
84
100
AcDbEntity
  8
0
  6
CONTINUOUS
 62
               4
100
AcDbLine
 10
12.75
 20
34.75
 30
0.0
 11
15.0
 21
34.75
 31
0.0
  0
LINE
  5
85
100
AcDbEntity
  8
0
  6
CONTINUOUS
 62
               4
100
AcDbLine
 10
13.0
 20
24.0
 30
0.0
 11
15.0
 21
24.0
 31
0.0
  0
LINE
  5
86
100
AcDbEntity
  8
0
  6
CONTINUOUS
 62
               4
100
AcDbLine
 10
13.0
 20
20.0
 30
0.0
 11
15.0
 21
20.0
 31
0.0
  0
LINE
  5
87
100
AcDbEntity
  8
0
  6
CONTINUOUS
 62
               4
100
AcDbLine
 10
13.0
 20
24.0
 30
0.0
 11
13.0
 21
20.0
 31
0.0
  0
LINE
  5
88
100
AcDbEntity
  8
0
  6
CONTINUOUS
 62
               4
100
AcDbLine
 10
14.0
 20
20.0
 30
0.0
 11
14.0
 21
13.0
 31
0.0
  0
LINE
  5
89
100
AcDbEntity
  8
0
  6
CONTINUOUS
 62
               4
100
AcDbLine
 10
8.75
 20
29.0
 30
0.0
 11
12.75
 21
29.0
 31
0.0
  0
LINE
  5
8A
100
AcDbEntity
  8
0
  6
CONTINUOUS
 62
               4
100
AcDbLine
 10
8.75
 20
15.0
 30
0.0
 11
12.75
 21
15.0
 31
0.0
  0
LINE
  5
8B
100
AcDbEntity
  8
0
  6
CONTINUOUS
 62
               4
100
AcDbLine
 10
8.75
 20
34.5
 30
0.0
 11
12.75
 21
34.5
 31
0.0
  0
LINE
  5
8C
100
AcDbEntity
  8
0
  6
CONTINUOUS
 62
               4
100
AcDbLine
 10
8.75
 20
9.5
 30
0.0
 11
12.75
 21
9.5
 31
0.0
  0
LINE
  5
8D
100
AcDbEntity
  8
0
  6
CONTINUOUS
 62
               4
100
AcDbLine
 10
8.75
 20
10.300000000000001
 30
0.0
 11
12.75
 21
10.300000000000001
 31
0.0
  0
LINE
  5
8E
100
AcDbEntity
  8
0
  6
CONTINUOUS
 62
               4
100
AcDbLine
 10
8.75
 20
33.700000000000003
 30
0.0
 11
12.75
 21
33.700000000000003
 31
0.0
  0
LINE
  5
8F
100
AcDbEntity
  8
0
  6
CONTINUOUS
 62
               4
100
AcDbLine
 10
8.75
 20
33.399999999999999
 30
0.0
 11
12.75
 21
33.399999999999999
 31
0.0
  0
LINE
  5
90
100
AcDbEntity
  8
0
  6
CONTINUOUS
 62
               4
100
AcDbLine
 10
8.75
 20
33.100000000000001
 30
0.0
 11
12.75
 21
33.100000000000001
 31
0.0
  0
LINE
  5
91
100
AcDbEntity
  8
0
  6
CONTINUOUS
 62
               4
100
AcDbLine
 10
8.75
 20
32.799999999999997
 30
0.0
 11
12.75
 21
32.799999999999997
 31
0.0
  0
LINE
  5
92
100
AcDbEntity
  8
0
  6
CONTINUOUS
 62
               4
100
AcDbLine
 10
8.75
 20
32.5
 30
0.0
 11
12.75
 21
32.5
 31
0.0
  0
LINE
  5
93
100
AcDbEntity
  8
0
  6
CONTINUOUS
 62
               4
100
AcDbLine
 10
8.75
 20
32.200000000000003
 30
0.0
 11
12.75
 21
32.200000000000003
 31
0.0
  0
LINE
  5
94
100
AcDbEntity
  8
0
  6
CONTINUOUS
 62
               4
100
AcDbLine
 10
8.75
 20
31.899999999999999
 30
0.0
 11
12.75
 21
31.899999999999999
 31
0.0
  0
LINE
  5
95
100
AcDbEntity
  8
0
  6
CONTINUOUS
 62
               4
100
AcDbLine
 10
8.75
 20
31.600000000000001
 30
0.0
 11
12.75
 21
31.600000000000001
 31
0.0
  0
LINE
  5
96
100
AcDbEntity
  8
0
  6
CONTINUOUS
 62
               4
100
AcDbLine
 10
8.75
 20
10.6
 30
0.0
 11
12.75
 21
10.6
 31
0.0
  0
LINE
  5
97
100
AcDbEntity
  8
0
  6
CONTINUOUS
 62
               4
100
AcDbLine
 10
8.75
 20
10.9
 30
0.0
 11
12.75
 21
10.9
 31
0.0
  0
LINE
  5
98
100
AcDbEntity
  8
0
  6
CONTINUOUS
 62
               4
100
AcDbLine
 10
8.75
 20
11.199999999999999
 30
0.0
 11
12.75
 21
11.199999999999999
 31
0.0
  0
LINE
  5
99
100
AcDbEntity
  8
0
  6
CONTINUOUS
 62
               4
100
AcDbLine
 10
8.75
 20
11.5
 30
0.0
 11
12.75
 21
11.5
 31
0.0
  0
LINE
  5
9A
100
AcDbEntity
  8
0
  6
CONTINUOUS
 62
               4
100
AcDbLine
 10
8.75
 20
11.800000000000001
 30
0.0
 11
12.75
 21
11.800000000000001
 31
0.0
  0
LINE
  5
9B
100
AcDbEntity
  8
0
  6
CONTINUOUS
 62
               4
100
AcDbLine
 10
8.75
 20
12.1
 30
0.0
 11
12.75
 21
12.1
 31
0.0
  0
LINE
  5
9C
100
AcDbEntity
  8
0
  6
CONTINUOUS
 62
               4
100
AcDbLine
 10
8.75
 20
12.4
 30
0.0
 11
12.75
 21
12.4
 31
0.0
  0
LINE
  5
9D
100
AcDbEntity
  8
0
  6
CONTINUOUS
 62
               4
100
AcDbLine
 10
4.9299999999999997
 20
-24.859999999999999
 30
0.0
 11
7.0599999999999996
 21
-22.73
 31
0.0
  0
LINE
  5
9E
100
AcDbEntity
  8
0
  6
CONTINUOUS
 62
               4
100
AcDbLine
 10
4.9299999999999997
 20
-22.73
 30
0.0
 11
7.0599999999999996
 21
-24.859999999999999
 31
0.0
  0
LINE
  5
9F
100
AcDbEntity
  8
0
  6
CONTINUOUS
 62
               4
100
AcDbLine
 10
13.93
 20
-24.859999999999999
 30
0.0
 11
16.059999999999999
 21
-22.73
 31
0.0
  0
LINE
  5
A0
100
AcDbEntity
  8
0
  6
CONTINUOUS
 62
               4
100
AcDbLine
 10
13.93
 20
-22.73
 30
0.0
 11
16.059999999999999
 21
-24.859999999999999
 31
0.0
  0
CIRCLE
  5
A1
100
AcDbEntity
  8
0
  6
CONTINUOUS
 62
               4
100
AcDbCircle
 10
10.5
 20
57.000015258789063
 30
0.0
 40
3.1999998092651367
  0
CIRCLE
  5
A2
100
AcDbEntity
  8
0
  6
CONTINUOUS
 62
               4
100
AcDbCircle
 10
16.0
 20
-13.999984741210938
 30
0.0
 40
1.5999994277954102
  0
CIRCLE
  5
A3
100
AcDbEntity
  8
0
  6
CONTINUOUS
 62
               4
100
AcDbCircle
 10
6.0
 20
-23.79998779296875
 30
0.0
 40
2.7999992370605469
  0
CIRCLE
  5
A4
100
AcDbEntity
  8
0
  6
CONTINUOUS
 62
               4
100
AcDbCircle
 10
15.0
 20
-23.79998779296875
 30
0.0
 40
2.7999992370605469
  0
CIRCLE
  5
A5
100
AcDbEntity
  8
0
  6
CONTINUOUS
 62
               4
100
AcDbCircle
 10
9.48004150390625
 20
16.920013427734375
 30
0.0
 40
0.3199996948242188
  0
CIRCLE
  5
A6
100
AcDbEntity
  8
0
  6
CONTINUOUS
 62
               4
100
AcDbCircle
 10
12.02001953125
 20
16.920013427734375
 30
0.0
 40
0.3199996948242188
  0
CIRCLE
  5
A7
100
AcDbEntity
  8
0
  6
CONTINUOUS
 62
               4
100
AcDbCircle
 10
9.48004150390625
 20
27.08001708984375
 30
0.0
 40
0.3199996948242188
  0
CIRCLE
  5
A8
100
AcDbEntity
  8
0
  6
CONTINUOUS
 62
               4
100
AcDbCircle
 10
12.02001953125
 20
27.08001708984375
 30
0.0
 40
0.3199996948242188
  0
CIRCLE
  5
A9
100
AcDbEntity
  8
0
  6
CONTINUOUS
 62
               4
100
AcDbCircle
 10
9.48004150390625
 20
24.540008544921875
 30
0.0
 40
0.3199996948242188
  0
CIRCLE
  5
AA
100
AcDbEntity
  8
0
  6
CONTINUOUS
 62
               4
100
AcDbCircle
 10
12.02001953125
 20
24.540008544921875
 30
0.0
 40
0.3199996948242188
  0
CIRCLE
  5
AB
100
AcDbEntity
  8
0
  6
CONTINUOUS
 62
               4
100
AcDbCircle
 10
9.48004150390625
 20
22.0
 30
0.0
 40
0.3199996948242188
  0
CIRCLE
  5
AC
100
AcDbEntity
  8
0
  6
CONTINUOUS
 62
               4
100
AcDbCircle
 10
12.02001953125
 20
22.0
 30
0.0
 40
0.3199996948242188
  0
CIRCLE
  5
AD
100
AcDbEntity
  8
0
  6
CONTINUOUS
 62
               4
100
AcDbCircle
 10
9.48004150390625
 20
19.460006713867188
 30
0.0
 40
0.3199996948242188
  0
CIRCLE
  5
AE
100
AcDbEntity
  8
0
  6
CONTINUOUS
 62
               4
100
AcDbCircle
 10
12.02001953125
 20
19.460006713867188
 30
0.0
 40
0.3199996948242188
  0
ENDBLK
  5
AF
100
AcDbEntity
  8
0
100
AcDbBlockEnd
  0
BLOCK
  5
B0
100
AcDbEntity
  8
0
100
AcDbBlockBegin
  2
F10_CONNECTER-2
 70
               0
 10
0.0
 20
0.0
 30
0.0
  3
F10_CONNECTER-2
  1

  0
LINE
  5
B1
100
AcDbEntity
  8
0
  6
CONTINUOUS
 62
               4
100
AcDbLine
 10
21.0
 20
-30.5
 30
0.0
 11
21.0
 21
62.5
 31
0.0
  0
LINE
  5
B2
100
AcDbEntity
  8
0
  6
CONTINUOUS
 62
               4
100
AcDbLine
 10
21.0
 20
62.5
 30
0.0
 11
0.0
 21
62.5
 31
0.0
  0
LINE
  5
B3
100
AcDbEntity
  8
0
  6
CONTINUOUS
 62
               4
100
AcDbLine
 10
0.0
 20
-30.5
 30
0.0
 11
0.0
 21
62.5
 31
0.0
  0
LINE
  5
B4
100
AcDbEntity
  8
0
  6
CONTINUOUS
 62
               4
100
AcDbLine
 10
1.5
 20
-30.5
 30
0.0
 11
0.0
 21
-30.5
 31
0.0
  0
LINE
  5
B5
100
AcDbEntity
  8
0
  6
CONTINUOUS
 62
               4
100
AcDbLine
 10
9.4299999999999997
 20
55.93
 30
0.0
 11
11.56
 21
58.060000000000002
 31
0.0
  0
LINE
  5
B6
100
AcDbEntity
  8
0
  6
CONTINUOUS
 62
               4
100
AcDbLine
 10
9.4299999999999997
 20
58.060000000000002
 30
0.0
 11
11.56
 21
55.93
 31
0.0
  0
LINE
  5
B7
100
AcDbEntity
  8
0
  6
CONTINUOUS
 62
               4
100
AcDbLine
 10
1.5
 20
-28.800000000000001
 30
0.0
 11
19.5
 21
-28.800000000000001
 31
0.0
  0
LINE
  5
B8
100
AcDbEntity
  8
0
  6
CONTINUOUS
 62
               4
100
AcDbLine
 10
1.5
 20
-29.0
 30
0.0
 11
19.5
 21
-29.0
 31
0.0
  0
LINE
  5
B9
100
AcDbEntity
  8
0
  6
CONTINUOUS
 62
               4
100
AcDbLine
 10
1.5
 20
-9.5
 30
0.0
 11
1.5
 21
-30.5
 31
0.0
  0
LINE
  5
BA
100
AcDbEntity
  8
0
  6
CONTINUOUS
 62
               4
100
AcDbLine
 10
19.5
 20
-9.5
 30
0.0
 11
19.5
 21
-30.5
 31
0.0
  0
LINE
  5
BB
100
AcDbEntity
  8
0
  6
CONTINUOUS
 62
               4
100
AcDbLine
 10
14.0
 20
-28.800000000000001
 30
0.0
 11
14.0
 21
-29.0
 31
0.0
  0
LINE
  5
BC
100
AcDbEntity
  8
0
  6
CONTINUOUS
 62
               4
100
AcDbLine
 10
7.0
 20
-28.800000000000001
 30
0.0
 11
7.0
 21
-29.0
 31
0.0
  0
LINE
  5
BD
100
AcDbEntity
  8
0
  6
CONTINUOUS
 62
               4
100
AcDbLine
 10
1.5
 20
-18.5
 30
0.0
 11
19.5
 21
-18.5
 31
0.0
  0
LINE
  5
BE
100
AcDbEntity
  8
0
  6
CONTINUOUS
 62
               4
100
AcDbLine
 10
1.5
 20
-9.5
 30
0.0
 11
19.5
 21
-9.5
 31
0.0
  0
LINE
  5
BF
100
AcDbEntity
  8
0
  6
CONTINUOUS
 62
               4
100
AcDbLine
 10
9.5
 20
-28.300000000000001
 30
0.0
 11
11.5
 21
-28.300000000000001
 31
0.0
  0
LINE
  5
C0
100
AcDbEntity
  8
0
  6
CONTINUOUS
 62
               4
100
AcDbLine
 10
11.5
 20
-18.5
 30
0.0
 11
11.5
 21
-28.300000000000001
 31
0.0
  0
LINE
  5
C1
100
AcDbEntity
  8
0
  6
CONTINUOUS
 62
               4
100
AcDbLine
 10
9.5
 20
-18.5
 30
0.0
 11
9.5
 21
-28.300000000000001
 31
0.0
  0
LINE
  5
C2
100
AcDbEntity
  8
0
  6
CONTINUOUS
 62
               4
100
AcDbLine
 10
3.8500000000000001
 20
-27.300000000000001
 30
0.0
 11
8.1500000000000004
 21
-27.300000000000001
 31
0.0
  0
LINE
  5
C3
100
AcDbEntity
  8
0
  6
CONTINUOUS
 62
               4
100
AcDbLine
 10
3.8500000000000001
 20
-20.300000000000001
 30
0.0
 11
8.1500000000000004
 21
-20.300000000000001
 31
0.0
  0
LINE
  5
C4
100
AcDbEntity
  8
0
  6
CONTINUOUS
 62
               4
100
AcDbLine
 10
12.85
 20
-20.300000000000001
 30
0.0
 11
12.85
 21
-21.100000000000001
 31
0.0
  0
LINE
  5
C5
100
AcDbEntity
  8
0
  6
CONTINUOUS
 62
               4
100
AcDbLine
 10
8.1500000000000004
 20
-20.300000000000001
 30
0.0
 11
8.1500000000000004
 21
-21.100000000000001
 31
0.0
  0
LINE
  5
C6
100
AcDbEntity
  8
0
  6
CONTINUOUS
 62
               4
100
AcDbLine
 10
3.8500000000000001
 20
-20.300000000000001
 30
0.0
 11
3.8500000000000001
 21
-21.100000000000001
 31
0.0
  0
LINE
  5
C7
100
AcDbEntity
  8
0
  6
CONTINUOUS
 62
               4
100
AcDbLine
 10
17.149999999999999
 20
-20.300000000000001
 30
0.0
 11
17.149999999999999
 21
-21.100000000000001
 31
0.0
  0
LINE
  5
C8
100
AcDbEntity
  8
0
  6
CONTINUOUS
 62
               4
100
AcDbLine
 10
2.5
 20
-18.5
 30
0.0
 11
2.5
 21
-28.800000000000001
 31
0.0
  0
LINE
  5
C9
100
AcDbEntity
  8
0
  6
CONTINUOUS
 62
               4
100
AcDbLine
 10
18.5
 20
-18.5
 30
0.0
 11
18.5
 21
-28.800000000000001
 31
0.0
  0
LINE
  5
CA
100
AcDbEntity
  8
0
  6
CONTINUOUS
 62
               4
100
AcDbLine
 10
12.85
 20
-20.300000000000001
 30
0.0
 11
17.149999999999999
 21
-20.300000000000001
 31
0.0
  0
LINE
  5
CB
100
AcDbEntity
  8
0
  6
CONTINUOUS
 62
               4
100
AcDbLine
 10
12.85
 20
-27.300000000000001
 30
0.0
 11
17.149999999999999
 21
-27.300000000000001
 31
0.0
  0
LINE
  5
CC
100
AcDbEntity
  8
0
  6
CONTINUOUS
 62
               4
100
AcDbLine
 10
3.8500000000000001
 20
-26.5
 30
0.0
 11
3.8500000000000001
 21
-27.300000000000001
 31
0.0
  0
LINE
  5
CD
100
AcDbEntity
  8
0
  6
CONTINUOUS
 62
               4
100
AcDbLine
 10
8.1500000000000004
 20
-26.5
 30
0.0
 11
8.1500000000000004
 21
-27.300000000000001
 31
0.0
  0
LINE
  5
CE
100
AcDbEntity
  8
0
  6
CONTINUOUS
 62
               4
100
AcDbLine
 10
12.85
 20
-26.5
 30
0.0
 11
12.85
 21
-27.300000000000001
 31
0.0
  0
LINE
  5
CF
100
AcDbEntity
  8
0
  6
CONTINUOUS
 62
               4
100
AcDbLine
 10
17.149999999999999
 20
-26.5
 30
0.0
 11
17.149999999999999
 21
-27.300000000000001
 31
0.0
  0
LINE
  5
D0
100
AcDbEntity
  8
0
  6
CONTINUOUS
 62
               4
100
AcDbLine
 10
12.050000000000001
 20
-21.100000000000001
 30
0.0
 11
12.050000000000001
 21
-26.5
 31
0.0
  0
LINE
  5
D1
100
AcDbEntity
  8
0
  6
CONTINUOUS
 62
               4
100
AcDbLine
 10
17.949999999999999
 20
-21.100000000000001
 30
0.0
 11
17.949999999999999
 21
-26.5
 31
0.0
  0
LINE
  5
D2
100
AcDbEntity
  8
0
  6
CONTINUOUS
 62
               4
100
AcDbLine
 10
8.9499999999999993
 20
-21.100000000000001
 30
0.0
 11
8.9499999999999993
 21
-26.5
 31
0.0
  0
LINE
  5
D3
100
AcDbEntity
  8
0
  6
CONTINUOUS
 62
               4
100
AcDbLine
 10
3.0499999999999998
 20
-21.100000000000001
 30
0.0
 11
3.0499999999999998
 21
-26.5
 31
0.0
  0
LINE
  5
D4
100
AcDbEntity
  8
0
  6
CONTINUOUS
 62
               4
100
AcDbLine
 10
8.1500000000000004
 20
-21.100000000000001
 30
0.0
 11
8.9499999999999993
 21
-21.100000000000001
 31
0.0
  0
LINE
  5
D5
100
AcDbEntity
  8
0
  6
CONTINUOUS
 62
               4
100
AcDbLine
 10
3.0499999999999998
 20
-21.100000000000001
 30
0.0
 11
3.8500000000000001
 21
-21.100000000000001
 31
0.0
  0
LINE
  5
D6
100
AcDbEntity
  8
0
  6
CONTINUOUS
 62
               4
100
AcDbLine
 10
3.0499999999999998
 20
-26.5
 30
0.0
 11
3.8500000000000001
 21
-26.5
 31
0.0
  0
LINE
  5
D7
100
AcDbEntity
  8
0
  6
CONTINUOUS
 62
               4
100
AcDbLine
 10
8.1500000000000004
 20
-26.5
 30
0.0
 11
8.9499999999999993
 21
-26.5
 31
0.0
  0
LINE
  5
D8
100
AcDbEntity
  8
0
  6
CONTINUOUS
 62
               4
100
AcDbLine
 10
12.050000000000001
 20
-26.5
 30
0.0
 11
12.85
 21
-26.5
 31
0.0
  0
LINE
  5
D9
100
AcDbEntity
  8
0
  6
CONTINUOUS
 62
               4
100
AcDbLine
 10
17.149999999999999
 20
-26.5
 30
0.0
 11
17.949999999999999
 21
-26.5
 31
0.0
  0
LINE
  5
DA
100
AcDbEntity
  8
0
  6
CONTINUOUS
 62
               4
100
AcDbLine
 10
17.149999999999999
 20
-21.100000000000001
 30
0.0
 11
17.949999999999999
 21
-21.100000000000001
 31
0.0
  0
LINE
  5
DB
100
AcDbEntity
  8
0
  6
CONTINUOUS
 62
               4
100
AcDbLine
 10
12.050000000000001
 20
-21.100000000000001
 30
0.0
 11
12.85
 21
-21.100000000000001
 31
0.0
  0
LINE
  5
DC
100
AcDbEntity
  8
0
  6
CONTINUOUS
 62
               4
100
AcDbLine
 10
1.6000000000000001
 20
-9.75
 30
0.0
 11
1.6000000000000001
 21
-30.75
 31
0.0
  0
LINE
  5
DD
100
AcDbEntity
  8
0
  6
CONTINUOUS
 62
               4
100
AcDbLine
 10
19.399999999999999
 20
-9.75
 30
0.0
 11
19.399999999999999
 21
-30.75
 31
0.0
  0
LINE
  5
DE
100
AcDbEntity
  8
0
  6
CONTINUOUS
 62
               4
100
AcDbLine
 10
1.6000000000000001
 20
-9.75
 30
0.0
 11
19.399999999999999
 21
-9.75
 31
0.0
  0
LINE
  5
DF
100
AcDbEntity
  8
0
  6
CONTINUOUS
 62
               4
100
AcDbLine
 10
1.6000000000000001
 20
-30.75
 30
0.0
 11
19.399999999999999
 21
-30.75
 31
0.0
  0
LINE
  5
E0
100
AcDbEntity
  8
0
  6
CONTINUOUS
 62
               4
100
AcDbLine
 10
19.399999999999999
 20
-30.5
 30
0.0
 11
21.0
 21
-30.5
 31
0.0
  0
LINE
  5
E1
100
AcDbEntity
  8
0
  6
CONTINUOUS
 62
               4
100
AcDbLine
 10
2.0
 20
-7.5
 30
0.0
 11
19.0
 21
-7.5
 31
0.0
  0
LINE
  5
E2
100
AcDbEntity
  8
0
  6
CONTINUOUS
 62
               4
100
AcDbLine
 10
2.0
 20
51.5
 30
0.0
 11
19.0
 21
51.5
 31
0.0
  0
LINE
  5
E3
100
AcDbEntity
  8
0
  6
CONTINUOUS
 62
               4
100
AcDbLine
 10
19.0
 20
51.5
 30
0.0
 11
19.0
 21
-7.5
 31
0.0
  0
LINE
  5
E4
100
AcDbEntity
  8
0
  6
CONTINUOUS
 62
               4
100
AcDbLine
 10
2.0
 20
51.5
 30
0.0
 11
2.0
 21
-7.5
 31
0.0
  0
LINE
  5
E5
100
AcDbEntity
  8
0
  6
CONTINUOUS
 62
               4
100
AcDbLine
 10
4.9299999999999997
 20
-24.859999999999999
 30
0.0
 11
7.0599999999999996
 21
-22.73
 31
0.0
  0
LINE
  5
E6
100
AcDbEntity
  8
0
  6
CONTINUOUS
 62
               4
100
AcDbLine
 10
4.9299999999999997
 20
-22.73
 30
0.0
 11
7.0599999999999996
 21
-24.859999999999999
 31
0.0
  0
LINE
  5
E7
100
AcDbEntity
  8
0
  6
CONTINUOUS
 62
               4
100
AcDbLine
 10
13.93
 20
-24.859999999999999
 30
0.0
 11
16.059999999999999
 21
-22.73
 31
0.0
  0
LINE
  5
E8
100
AcDbEntity
  8
0
  6
CONTINUOUS
 62
               4
100
AcDbLine
 10
13.93
 20
-22.73
 30
0.0
 11
16.059999999999999
 21
-24.859999999999999
 31
0.0
  0
LINE
  5
E9
100
AcDbEntity
  8
0
  6
CONTINUOUS
 62
               4
100
AcDbLine
 10
4.25
 20
47.600000000000001
 30
0.0
 11
4.25
 21
-3.6000000000000001
 31
0.0
  0
LINE
  5
EA
100
AcDbEntity
  8
0
  6
CONTINUOUS
 62
               4
100
AcDbLine
 10
16.75
 20
47.600000000000001
 30
0.0
 11
16.75
 21
-3.6000000000000001
 31
0.0
  0
LINE
  5
EB
100
AcDbEntity
  8
0
  6
CONTINUOUS
 62
               4
100
AcDbLine
 10
5.25
 20
48.600000000000001
 30
0.0
 11
15.75
 21
48.600000000000001
 31
0.0
  0
LINE
  5
EC
100
AcDbEntity
  8
0
  6
CONTINUOUS
 62
               4
100
AcDbLine
 10
5.25
 20
-4.5999999999999996
 30
0.0
 11
15.75
 21
-4.5999999999999996
 31
0.0
  0
LINE
  5
ED
100
AcDbEntity
  8
0
  6
CONTINUOUS
 62
               4
100
AcDbLine
 10
9.0500000000000007
 20
43.0
 30
0.0
 11
11.94
 21
43.0
 31
0.0
  0
LINE
  5
EE
100
AcDbEntity
  8
0
  6
CONTINUOUS
 62
               4
100
AcDbLine
 10
9.0500000000000007
 20
48.0
 30
0.0
 11
11.94
 21
48.0
 31
0.0
  0
LINE
  5
EF
100
AcDbEntity
  8
0
  6
CONTINUOUS
 62
               4
100
AcDbLine
 10
9.0500000000000007
 20
43.0
 30
0.0
 11
7.6100000000000003
 21
45.5
 31
0.0
  0
LINE
  5
F0
100
AcDbEntity
  8
0
  6
CONTINUOUS
 62
               4
100
AcDbLine
 10
13.380000000000001
 20
45.5
 30
0.0
 11
11.94
 21
48.0
 31
0.0
  0
LINE
  5
F1
100
AcDbEntity
  8
0
  6
CONTINUOUS
 62
               4
100
AcDbLine
 10
7.6100000000000003
 20
45.5
 30
0.0
 11
9.0500000000000007
 21
48.0
 31
0.0
  0
LINE
  5
F2
100
AcDbEntity
  8
0
  6
CONTINUOUS
 62
               4
100
AcDbLine
 10
11.94
 20
43.0
 30
0.0
 11
13.380000000000001
 21
45.5
 31
0.0
  0
LINE
  5
F3
100
AcDbEntity
  8
0
  6
CONTINUOUS
 62
               4
100
AcDbLine
 10
9.0500000000000007
 20
-4.0
 30
0.0
 11
11.94
 21
-4.0
 31
0.0
  0
LINE
  5
F4
100
AcDbEntity
  8
0
  6
CONTINUOUS
 62
               4
100
AcDbLine
 10
9.0500000000000007
 20
1.0
 30
0.0
 11
11.94
 21
1.0
 31
0.0
  0
LINE
  5
F5
100
AcDbEntity
  8
0
  6
CONTINUOUS
 62
               4
100
AcDbLine
 10
9.0500000000000007
 20
-4.0
 30
0.0
 11
7.6100000000000003
 21
-1.5
 31
0.0
  0
LINE
  5
F6
100
AcDbEntity
  8
0
  6
CONTINUOUS
 62
               4
100
AcDbLine
 10
13.380000000000001
 20
-1.5
 30
0.0
 11
11.94
 21
1.0
 31
0.0
  0
LINE
  5
F7
100
AcDbEntity
  8
0
  6
CONTINUOUS
 62
               4
100
AcDbLine
 10
7.6100000000000003
 20
-1.5
 30
0.0
 11
9.0500000000000007
 21
1.0
 31
0.0
  0
LINE
  5
F8
100
AcDbEntity
  8
0
  6
CONTINUOUS
 62
               4
100
AcDbLine
 10
11.94
 20
-4.0
 30
0.0
 11
13.380000000000001
 21
-1.5
 31
0.0
  0
LINE
  5
F9
100
AcDbEntity
  8
0
  6
CONTINUOUS
 62
               4
100
AcDbLine
 10
6.5899999999999999
 20
38.439999999999998
 30
0.0
 11
6.5899999999999999
 21
5.5499999999999998
 31
0.0
  0
LINE
  5
FA
100
AcDbEntity
  8
0
  6
CONTINUOUS
 62
               4
100
AcDbLine
 10
14.41
 20
39.149999999999999
 30
0.0
 11
14.41
 21
4.8499999999999996
 31
0.0
  0
LINE
  5
FB
100
AcDbEntity
  8
0
  6
CONTINUOUS
 62
               4
100
AcDbLine
 10
8.2400000000000002
 20
3.5800000000000001
 30
0.0
 11
12.41
 21
2.8500000000000001
 31
0.0
  0
LINE
  5
FC
100
AcDbEntity
  8
0
  6
CONTINUOUS
 62
               4
100
AcDbLine
 10
8.2400000000000002
 20
40.409999999999997
 30
0.0
 11
12.41
 21
41.149999999999999
 31
0.0
  0
LINE
  5
FD
100
AcDbEntity
  8
0
  6
CONTINUOUS
 62
               4
100
AcDbLine
 10
8.3800000000000008
 20
4.3700000000000001
 30
0.0
 11
12.470000000000001
 21
3.6499999999999999
 31
0.0
  0
LINE
  5
FE
100
AcDbEntity
  8
0
  6
CONTINUOUS
 62
               4
100
AcDbLine
 10
13.609999999999999
 20
39.149999999999999
 30
0.0
 11
13.609999999999999
 21
4.8499999999999996
 31
0.0
  0
LINE
  5
FF
100
AcDbEntity
  8
0
  6
CONTINUOUS
 62
               4
100
AcDbLine
 10
7.3899999999999997
 20
38.439999999999998
 30
0.0
 11
7.3899999999999997
 21
5.5499999999999998
 31
0.0
  0
LINE
  5
100
100
AcDbEntity
  8
0
  6
CONTINUOUS
 62
               4
100
AcDbLine
 10
8.3800000000000008
 20
39.619999999999997
 30
0.0
 11
12.470000000000001
 21
40.340000000000003
 31
0.0
  0
CIRCLE
  5
101
100
AcDbEntity
  8
0
  6
CONTINUOUS
 62
               4
100
AcDbCircle
 10
10.5
 20
57.000015258789063
 30
0.0
 40
3.1999998092651367
  0
CIRCLE
  5
102
100
AcDbEntity
  8
0
  6
CONTINUOUS
 62
               4
100
AcDbCircle
 10
16.0
 20
-13.999984741210938
 30
0.0
 40
1.5999994277954102
  0
CIRCLE
  5
103
100
AcDbEntity
  8
0
  6
CONTINUOUS
 62
               4
100
AcDbCircle
 10
6.0
 20
-23.79998779296875
 30
0.0
 40
2.7999992370605469
  0
CIRCLE
  5
104
100
AcDbEntity
  8
0
  6
CONTINUOUS
 62
               4
100
AcDbCircle
 10
15.0
 20
-23.79998779296875
 30
0.0
 40
2.7999992370605469
  0
ARC
  5
105
100
AcDbEntity
  8
0
  6
CONTINUOUS
 62
               4
100
AcDbCircle
 10
5.2499969482468449
 20
47.600003051753156
 30
0.0
 40
0.9999969482515014
100
AcDbArc
 50
89.999825146890288
 51
180.00017485310903
  0
ARC
  5
106
100
AcDbEntity
  8
0
  6
CONTINUOUS
 62
               4
100
AcDbCircle
 10
15.750003051753156
 20
47.600003051753156
 30
0.0
 40
0.9999969482515014
100
AcDbArc
 50
359.99982514688975
 51
90.000174853109371
  0
ARC
  5
107
100
AcDbEntity
  8
0
  6
CONTINUOUS
 62
               4
100
AcDbCircle
 10
15.749995422352804
 20
-3.5999954223528032
 30
0.0
 40
1.0000045776576734
100
AcDbArc
 50
270.00026227866323
 51
359.99973772133529
  0
ARC
  5
108
100
AcDbEntity
  8
0
  6
CONTINUOUS
 62
               4
100
AcDbCircle
 10
5.2500045776471964
 20
-3.5999954223528032
 30
0.0
 40
1.0000045776576734
100
AcDbArc
 50
180.00026227866346
 51
269.99973772133558
  0
CIRCLE
  5
109
100
AcDbEntity
  8
0
  6
CONTINUOUS
 62
               4
100
AcDbCircle
 10
10.5
 20
45.500015258789063
 30
0.0
 40
2.5
  0
CIRCLE
  5
10A
100
AcDbEntity
  8
0
  6
CONTINUOUS
 62
               4
100
AcDbCircle
 10
10.5
 20
45.500015258789063
 30
0.0
 40
1.2999992370605469
  0
CIRCLE
  5
10B
100
AcDbEntity
  8
0
  6
CONTINUOUS
 62
               4
100
AcDbCircle
 10
10.5
 20
45.500015258789063
 30
0.0
 40
1.0564994812011719
  0
CIRCLE
  5
10C
100
AcDbEntity
  8
0
  6
CONTINUOUS
 62
               4
100
AcDbCircle
 10
10.5
 20
-1.4999847412109375
 30
0.0
 40
2.5
  0
CIRCLE
  5
10D
100
AcDbEntity
  8
0
  6
CONTINUOUS
 62
               4
100
AcDbCircle
 10
10.5
 20
-1.4999847412109375
 30
0.0
 40
1.2999992370605469
  0
CIRCLE
  5
10E
100
AcDbEntity
  8
0
  6
CONTINUOUS
 62
               4
100
AcDbCircle
 10
10.5
 20
-1.4999847412109375
 30
0.0
 40
1.0564994812011719
  0
ARC
  5
10F
100
AcDbEntity
  8
0
  6
CONTINUOUS
 62
               4
100
AcDbCircle
 10
12.409998779290914
 20
4.8500012207090855
 30
0.0
 40
2.000001220709458
100
AcDbArc
 50
270.00003497071737
 51
359.99996502928127
  0
ARC
  5
110
100
AcDbEntity
  8
0
  6
CONTINUOUS
 62
               4
100
AcDbCircle
 10
8.5926047639732577
 20
5.5513187109420681
 30
0.0
 40
2.0026051981573736
100
AcDbArc
 50
180.03772914247276
 51
259.85889217000147
  0
ARC
  5
111
100
AcDbEntity
  8
0
  6
CONTINUOUS
 62
               4
100
AcDbCircle
 10
12.410006408689521
 20
39.150006408689521
 30
0.0
 40
1.9999935913207469
100
AcDbArc
 50
359.99981640397993
 51
90.000183596018985
  0
ARC
  5
112
100
AcDbEntity
  8
0
  6
CONTINUOUS
 62
               4
100
AcDbCircle
 10
8.5876742949661011
 20
38.442810869698441
 30
0.0
 40
1.9976762725118331
100
AcDbArc
 50
100.0227595072096
 51
180.08061918031464
  0
ARC
  5
113
100
AcDbEntity
  8
0
  6
CONTINUOUS
 62
               4
100
AcDbCircle
 10
12.409249600685083
 20
4.84921287934917
 30
0.0
 40
1.200750657303109
100
AcDbArc
 50
272.90004267815482
 51
0.0375587506163098
  0
ARC
  5
114
100
AcDbEntity
  8
0
  6
CONTINUOUS
 62
               4
100
AcDbCircle
 10
8.5914492178535458
 20
5.5526989200635697
 30
0.0
 40
1.201452249259374
100
AcDbArc
 50
180.12870828535739
 51
259.86345181016105
  0
ARC
  5
115
100
AcDbEntity
  8
0
  6
CONTINUOUS
 62
               4
100
AcDbCircle
 10
8.5865237179395706
 20
38.441433490881209
 30
0.0
 40
1.1965245766335277
100
AcDbArc
 50
99.939196937411182
 51
180.06864296706908
  0
ARC
  5
116
100
AcDbEntity
  8
0
  6
CONTINUOUS
 62
               4
100
AcDbCircle
 10
12.414258950805053
 20
39.145550591527538
 30
0.0
 40
1.1957493273949953
100
AcDbArc
 50
0.2131992962601381
 51
87.328131730783369
  0
CIRCLE
  5
117
100
AcDbEntity
  8
0
  6
CONTINUOUS
 62
               4
100
AcDbCircle
 10
11.75
 20
37.240020751953125
 30
0.0
 40
0.5
  0
CIRCLE
  5
118
100
AcDbEntity
  8
0
  6
CONTINUOUS
 62
               4
100
AcDbCircle
 10
11.75
 20
6.760009765625
 30
0.0
 40
0.5
  0
CIRCLE
  5
119
100
AcDbEntity
  8
0
  6
CONTINUOUS
 62
               4
100
AcDbCircle
 10
11.75
 20
24.540008544921875
 30
0.0
 40
0.5
  0
CIRCLE
  5
11A
100
AcDbEntity
  8
0
  6
CONTINUOUS
 62
               4
100
AcDbCircle
 10
11.75
 20
27.08001708984375
 30
0.0
 40
0.5
  0
CIRCLE
  5
11B
100
AcDbEntity
  8
0
  6
CONTINUOUS
 62
               4
100
AcDbCircle
 10
11.75
 20
29.620010375976563
 30
0.0
 40
0.5
  0
CIRCLE
  5
11C
100
AcDbEntity
  8
0
  6
CONTINUOUS
 62
               4
100
AcDbCircle
 10
11.75
 20
32.160018920898437
 30
0.0
 40
0.5
  0
CIRCLE
  5
11D
100
AcDbEntity
  8
0
  6
CONTINUOUS
 62
               4
100
AcDbCircle
 10
11.75
 20
34.70001220703125
 30
0.0
 40
0.5
  0
CIRCLE
  5
11E
100
AcDbEntity
  8
0
  6
CONTINUOUS
 62
               4
100
AcDbCircle
 10
11.75
 20
22.000015258789063
 30
0.0
 40
0.5
  0
CIRCLE
  5
11F
100
AcDbEntity
  8
0
  6
CONTINUOUS
 62
               4
100
AcDbCircle
 10
11.75
 20
19.460006713867188
 30
0.0
 40
0.5
  0
CIRCLE
  5
120
100
AcDbEntity
  8
0
  6
CONTINUOUS
 62
               4
100
AcDbCircle
 10
11.75
 20
16.920013427734375
 30
0.0
 40
0.5
  0
CIRCLE
  5
121
100
AcDbEntity
  8
0
  6
CONTINUOUS
 62
               4
100
AcDbCircle
 10
11.75
 20
14.3800048828125
 30
0.0
 40
0.5
  0
CIRCLE
  5
122
100
AcDbEntity
  8
0
  6
CONTINUOUS
 62
               4
100
AcDbCircle
 10
11.75
 20
11.840011596679687
 30
0.0
 40
0.5
  0
CIRCLE
  5
123
100
AcDbEntity
  8
0
  6
CONTINUOUS
 62
               4
100
AcDbCircle
 10
11.75
 20
9.3000030517578125
 30
0.0
 40
0.5
  0
CIRCLE
  5
124
100
AcDbEntity
  8
0
  6
CONTINUOUS
 62
               4
100
AcDbCircle
 10
9.25
 20
8.0300140380859375
 30
0.0
 40
0.5
  0
CIRCLE
  5
125
100
AcDbEntity
  8
0
  6
CONTINUOUS
 62
               4
100
AcDbCircle
 10
9.25
 20
35.970016479492188
 30
0.0
 40
0.5
  0
CIRCLE
  5
126
100
AcDbEntity
  8
0
  6
CONTINUOUS
 62
               4
100
AcDbCircle
 10
9.25
 20
20.730010986328125
 30
0.0
 40
0.5
  0
CIRCLE
  5
127
100
AcDbEntity
  8
0
  6
CONTINUOUS
 62
               4
100
AcDbCircle
 10
9.25
 20
18.190017700195313
 30
0.0
 40
0.5
  0
CIRCLE
  5
128
100
AcDbEntity
  8
0
  6
CONTINUOUS
 62
               4
100
AcDbCircle
 10
9.25
 20
15.650009155273438
 30
0.0
 40
0.5
  0
CIRCLE
  5
129
100
AcDbEntity
  8
0
  6
CONTINUOUS
 62
               4
100
AcDbCircle
 10
9.25
 20
13.110015869140625
 30
0.0
 40
0.5
  0
CIRCLE
  5
12A
100
AcDbEntity
  8
0
  6
CONTINUOUS
 62
               4
100
AcDbCircle
 10
9.25
 20
10.57000732421875
 30
0.0
 40
0.5
  0
CIRCLE
  5
12B
100
AcDbEntity
  8
0
  6
CONTINUOUS
 62
               4
100
AcDbCircle
 10
9.25
 20
23.27001953125
 30
0.0
 40
0.5
  0
CIRCLE
  5
12C
100
AcDbEntity
  8
0
  6
CONTINUOUS
 62
               4
100
AcDbCircle
 10
9.25
 20
25.810012817382812
 30
0.0
 40
0.5
  0
CIRCLE
  5
12D
100
AcDbEntity
  8
0
  6
CONTINUOUS
 62
               4
100
AcDbCircle
 10
9.25
 20
28.350021362304687
 30
0.0
 40
0.5
  0
CIRCLE
  5
12E
100
AcDbEntity
  8
0
  6
CONTINUOUS
 62
               4
100
AcDbCircle
 10
9.25
 20
30.8900146484375
 30
0.0
 40
0.5
  0
CIRCLE
  5
12F
100
AcDbEntity
  8
0
  6
CONTINUOUS
 62
               4
100
AcDbCircle
 10
9.25
 20
33.430023193359375
 30
0.0
 40
0.5
  0
ENDBLK
  5
130
100
AcDbEntity
  8
0
100
AcDbBlockEnd
  0
BLOCK
  5
131
100
AcDbEntity
  8
0
100
AcDbBlockBegin
  2
F10_CONNECTER-3
 70
               0
 10
0.0
 20
0.0
 30
0.0
  3
F10_CONNECTER-3
  1

  0
LINE
  5
132
100
AcDbEntity
  8
0
  6
CONTINUOUS
 62
               4
100
AcDbLine
 10
35.0
 20
62.5
 30
0.0
 11
45.0
 21
62.5
 31
0.0
  0
LINE
  5
133
100
AcDbEntity
  8
0
  6
CONTINUOUS
 62
               4
100
AcDbLine
 10
35.0
 20
-30.5
 30
0.0
 11
45.0
 21
-30.5
 31
0.0
  0
LINE
  5
134
100
AcDbEntity
  8
0
  6
CONTINUOUS
 62
               4
100
AcDbLine
 10
45.0
 20
62.5
 30
0.0
 11
45.0
 21
-30.5
 31
0.0
  0
LINE
  5
135
100
AcDbEntity
  8
0
  6
CONTINUOUS
 62
               4
100
AcDbLine
 10
46.0
 20
48.600000000000001
 30
0.0
 11
46.0
 21
-4.5999999999999996
 31
0.0
  0
LINE
  5
136
100
AcDbEntity
  8
0
  6
CONTINUOUS
 62
               4
100
AcDbLine
 10
45.0
 20
-4.5999999999999996
 30
0.0
 11
46.0
 21
-4.5999999999999996
 31
0.0
  0
LINE
  5
137
100
AcDbEntity
  8
0
  6
CONTINUOUS
 62
               4
100
AcDbLine
 10
45.0
 20
48.600000000000001
 30
0.0
 11
46.0
 21
48.600000000000001
 31
0.0
  0
LINE
  5
138
100
AcDbEntity
  8
0
  6
CONTINUOUS
 62
               4
100
AcDbLine
 10
52.0
 20
40.649999999999999
 30
0.0
 11
52.0
 21
3.3500000000000001
 31
0.0
  0
LINE
  5
139
100
AcDbEntity
  8
0
  6
CONTINUOUS
 62
               4
100
AcDbLine
 10
46.0
 20
41.149999999999999
 30
0.0
 11
51.5
 21
41.149999999999999
 31
0.0
  0
LINE
  5
13A
100
AcDbEntity
  8
0
  6
CONTINUOUS
 62
               4
100
AcDbLine
 10
46.0
 20
2.8500000000000001
 30
0.0
 11
51.5
 21
2.8500000000000001
 31
0.0
  0
LINE
  5
13B
100
AcDbEntity
  8
0
  6
CONTINUOUS
 62
               4
100
AcDbLine
 10
46.0
 20
1.0
 30
0.0
 11
52.0
 21
1.0
 31
0.0
  0
LINE
  5
13C
100
AcDbEntity
  8
0
  6
CONTINUOUS
 62
               4
100
AcDbLine
 10
46.0
 20
-1.5
 30
0.0
 11
51.770000000000003
 21
-1.5
 31
0.0
  0
LINE
  5
13D
100
AcDbEntity
  8
0
  6
CONTINUOUS
 62
               4
100
AcDbLine
 10
46.0
 20
-4.0
 30
0.0
 11
52.0
 21
-4.0
 31
0.0
  0
LINE
  5
13E
100
AcDbEntity
  8
0
  6
CONTINUOUS
 62
               4
100
AcDbLine
 10
52.0
 20
1.0
 30
0.0
 11
52.0
 21
-4.0
 31
0.0
  0
LINE
  5
13F
100
AcDbEntity
  8
0
  6
CONTINUOUS
 62
               4
100
AcDbLine
 10
46.0
 20
48.0
 30
0.0
 11
52.0
 21
48.0
 31
0.0
  0
LINE
  5
140
100
AcDbEntity
  8
0
  6
CONTINUOUS
 62
               4
100
AcDbLine
 10
46.0
 20
45.5
 30
0.0
 11
51.770000000000003
 21
45.5
 31
0.0
  0
LINE
  5
141
100
AcDbEntity
  8
0
  6
CONTINUOUS
 62
               4
100
AcDbLine
 10
46.0
 20
43.0
 30
0.0
 11
52.0
 21
43.0
 31
0.0
  0
LINE
  5
142
100
AcDbEntity
  8
0
  6
CONTINUOUS
 62
               4
100
AcDbLine
 10
52.0
 20
48.0
 30
0.0
 11
52.0
 21
43.0
 31
0.0
  0
ARC
  5
143
100
AcDbEntity
  8
0
  6
CONTINUOUS
 62
               4
100
AcDbCircle
 10
48.389556884735327
 20
-2.75
 30
0.0
 40
3.6041497826173003
100
AcDbArc
 50
339.70691632642098
 51
20.293083673578188
  0
ARC
  5
144
100
AcDbEntity
  8
0
  6
CONTINUOUS
 62
               4
100
AcDbCircle
 10
48.389556884735327
 20
-0.25
 30
0.0
 40
3.6041497826173003
100
AcDbArc
 50
339.70691632642098
 51
20.293083673578188
  0
ARC
  5
145
100
AcDbEntity
  8
0
  6
CONTINUOUS
 62
               4
100
AcDbCircle
 10
48.389556884735327
 20
44.25
 30
0.0
 40
3.6041497826173003
100
AcDbArc
 50
339.70691632642098
 51
20.293083673578188
  0
ARC
  5
146
100
AcDbEntity
  8
0
  6
CONTINUOUS
 62
               4
100
AcDbCircle
 10
48.389556884735327
 20
46.75
 30
0.0
 40
3.6041497826173003
100
AcDbArc
 50
339.70691632642098
 51
20.293083673578188
  0
ARC
  5
147
100
AcDbEntity
  8
0
  6
CONTINUOUS
 62
               4
100
AcDbCircle
 10
51.500004577615762
 20
40.650004577615761
 30
0.0
 40
0.49999542240519
100
AcDbArc
 50
359.9994754390699
 51
90.000524560929065
  0
ARC
  5
148
100
AcDbEntity
  8
0
  6
CONTINUOUS
 62
               4
100
AcDbCircle
 10
51.499996948232877
 20
3.3500030517671258
 30
0.0
 40
0.5000030517764389
100
AcDbArc
 50
270.00034970461741
 51
359.99965029538089
  0
ENDBLK
  5
149
100
AcDbEntity
  8
0
100
AcDbBlockEnd
  0
BLOCK
  5
14A
100
AcDbEntity
  8
0
100
AcDbBlockBegin
  2
F10_CONNECTER-4
 70
               0
 10
0.0
 20
0.0
 30
0.0
  3
F10_CONNECTER-4
  1

  0
LINE
  5
14B
100
AcDbEntity
  8
0
  6
CONTINUOUS
 62
               4
100
AcDbLine
 10
21.0
 20
35.0
 30
0.0
 11
21.0
 21
1.0
 31
0.0
  0
LINE
  5
14C
100
AcDbEntity
  8
0
  6
CONTINUOUS
 62
               4
100
AcDbLine
 10
0.0
 20
3.0
 30
0.0
 11
21.0
 21
3.0
 31
0.0
  0
LINE
  5
14D
100
AcDbEntity
  8
0
  6
CONTINUOUS
 62
               4
100
AcDbLine
 10
21.0
 20
1.0
 30
0.0
 11
0.0
 21
1.0
 31
0.0
  0
LINE
  5
14E
100
AcDbEntity
  8
0
  6
CONTINUOUS
 62
               4
100
AcDbLine
 10
21.0
 20
35.0
 30
0.0
 11
0.0
 21
35.0
 31
0.0
  0
LINE
  5
14F
100
AcDbEntity
  8
0
  6
CONTINUOUS
 62
               4
100
AcDbLine
 10
0.0
 20
0.0
 30
0.0
 11
21.0
 21
0.0
 31
0.0
  0
LINE
  5
150
100
AcDbEntity
  8
0
  6
CONTINUOUS
 62
               4
100
AcDbLine
 10
0.0
 20
45.0
 30
0.0
 11
21.0
 21
45.0
 31
0.0
  0
LINE
  5
151
100
AcDbEntity
  8
0
  6
CONTINUOUS
 62
               4
100
AcDbLine
 10
0.0
 20
45.0
 30
0.0
 11
0.0
 21
1.0
 31
0.0
  0
LINE
  5
152
100
AcDbEntity
  8
0
  6
CONTINUOUS
 62
               4
100
AcDbLine
 10
0.0
 20
35.0
 30
0.0
 11
21.0
 21
35.0
 31
0.0
  0
LINE
  5
153
100
AcDbEntity
  8
0
  6
CONTINUOUS
 62
               4
100
AcDbLine
 10
0.0
 20
5.0
 30
0.0
 11
21.0
 21
5.0
 31
0.0
  0
LINE
  5
154
100
AcDbEntity
  8
0
  6
CONTINUOUS
 62
               4
100
AcDbLine
 10
2.5
 20
36.5
 30
0.0
 11
18.5
 21
36.5
 31
0.0
  0
LINE
  5
155
100
AcDbEntity
  8
0
  6
CONTINUOUS
 62
               4
100
AcDbLine
 10
1.5
 20
45.0
 30
0.0
 11
1.5
 21
35.0
 31
0.0
  0
LINE
  5
156
100
AcDbEntity
  8
0
  6
CONTINUOUS
 62
               4
100
AcDbLine
 10
19.5
 20
45.0
 30
0.0
 11
19.5
 21
35.0
 31
0.0
  0
LINE
  5
157
100
AcDbEntity
  8
0
  6
CONTINUOUS
 62
               4
100
AcDbLine
 10
18.5
 20
43.5
 30
0.0
 11
18.5
 21
36.5
 31
0.0
  0
LINE
  5
158
100
AcDbEntity
  8
0
  6
CONTINUOUS
 62
               4
100
AcDbLine
 10
2.5
 20
43.5
 30
0.0
 11
2.5
 21
36.5
 31
0.0
  0
LINE
  5
159
100
AcDbEntity
  8
0
  6
CONTINUOUS
 62
               4
100
AcDbLine
 10
1.5
 20
43.5
 30
0.0
 11
19.5
 21
43.5
 31
0.0
  0
LINE
  5
15A
100
AcDbEntity
  8
0
  6
CONTINUOUS
 62
               4
100
AcDbLine
 10
9.5
 20
43.5
 30
0.0
 11
9.5
 21
36.5
 31
0.0
  0
LINE
  5
15B
100
AcDbEntity
  8
0
  6
CONTINUOUS
 62
               4
100
AcDbLine
 10
11.5
 20
43.5
 30
0.0
 11
11.5
 21
36.5
 31
0.0
  0
LINE
  5
15C
100
AcDbEntity
  8
0
  6
CONTINUOUS
 62
               4
100
AcDbLine
 10
2.5
 20
42.5
 30
0.0
 11
9.5
 21
42.5
 31
0.0
  0
LINE
  5
15D
100
AcDbEntity
  8
0
  6
CONTINUOUS
 62
               4
100
AcDbLine
 10
11.5
 20
42.5
 30
0.0
 11
18.5
 21
42.5
 31
0.0
  0
LINE
  5
15E
100
AcDbEntity
  8
0
  6
CONTINUOUS
 62
               4
100
AcDbLine
 10
3.0499999999999998
 20
37.299999999999997
 30
0.0
 11
8.9499999999999993
 21
37.299999999999997
 31
0.0
  0
LINE
  5
15F
100
AcDbEntity
  8
0
  6
CONTINUOUS
 62
               4
100
AcDbLine
 10
3.0499999999999998
 20
37.299999999999997
 30
0.0
 11
3.0499999999999998
 21
36.5
 31
0.0
  0
LINE
  5
160
100
AcDbEntity
  8
0
  6
CONTINUOUS
 62
               4
100
AcDbLine
 10
3.8500000000000001
 20
37.299999999999997
 30
0.0
 11
3.8500000000000001
 21
36.5
 31
0.0
  0
LINE
  5
161
100
AcDbEntity
  8
0
  6
CONTINUOUS
 62
               4
100
AcDbLine
 10
8.1500000000000004
 20
37.299999999999997
 30
0.0
 11
8.1500000000000004
 21
36.5
 31
0.0
  0
LINE
  5
162
100
AcDbEntity
  8
0
  6
CONTINUOUS
 62
               4
100
AcDbLine
 10
8.9499999999999993
 20
37.299999999999997
 30
0.0
 11
8.9499999999999993
 21
36.5
 31
0.0
  0
LINE
  5
163
100
AcDbEntity
  8
0
  6
CONTINUOUS
 62
               4
100
AcDbLine
 10
12.050000000000001
 20
37.299999999999997
 30
0.0
 11
12.050000000000001
 21
36.5
 31
0.0
  0
LINE
  5
164
100
AcDbEntity
  8
0
  6
CONTINUOUS
 62
               4
100
AcDbLine
 10
12.85
 20
37.299999999999997
 30
0.0
 11
12.85
 21
36.5
 31
0.0
  0
LINE
  5
165
100
AcDbEntity
  8
0
  6
CONTINUOUS
 62
               4
100
AcDbLine
 10
17.149999999999999
 20
37.299999999999997
 30
0.0
 11
17.149999999999999
 21
36.5
 31
0.0
  0
LINE
  5
166
100
AcDbEntity
  8
0
  6
CONTINUOUS
 62
               4
100
AcDbLine
 10
17.949999999999999
 20
37.299999999999997
 30
0.0
 11
17.949999999999999
 21
36.5
 31
0.0
  0
LINE
  5
167
100
AcDbEntity
  8
0
  6
CONTINUOUS
 62
               4
100
AcDbLine
 10
12.050000000000001
 20
37.299999999999997
 30
0.0
 11
17.949999999999999
 21
37.299999999999997
 31
0.0
  0
LINE
  5
168
100
AcDbEntity
  8
0
  6
CONTINUOUS
 62
               4
100
AcDbLine
 10
8.9499999999999993
 20
38.0
 30
0.0
 11
3.0499999999999998
 21
38.0
 31
0.0
  0
LINE
  5
169
100
AcDbEntity
  8
0
  6
CONTINUOUS
 62
               4
100
AcDbLine
 10
8.9499999999999993
 20
38.0
 30
0.0
 11
8.9499999999999993
 21
37.299999999999997
 31
0.0
  0
LINE
  5
16A
100
AcDbEntity
  8
0
  6
CONTINUOUS
 62
               4
100
AcDbLine
 10
3.0499999999999998
 20
38.0
 30
0.0
 11
3.0499999999999998
 21
37.299999999999997
 31
0.0
  0
LINE
  5
16B
100
AcDbEntity
  8
0
  6
CONTINUOUS
 62
               4
100
AcDbLine
 10
17.949999999999999
 20
38.0
 30
0.0
 11
12.050000000000001
 21
38.0
 31
0.0
  0
LINE
  5
16C
100
AcDbEntity
  8
0
  6
CONTINUOUS
 62
               4
100
AcDbLine
 10
17.949999999999999
 20
38.0
 30
0.0
 11
17.949999999999999
 21
37.299999999999997
 31
0.0
  0
LINE
  5
16D
100
AcDbEntity
  8
0
  6
CONTINUOUS
 62
               4
100
AcDbLine
 10
12.050000000000001
 20
38.0
 30
0.0
 11
12.050000000000001
 21
37.299999999999997
 31
0.0
  0
LINE
  5
16E
100
AcDbEntity
  8
0
  6
CONTINUOUS
 62
               4
100
AcDbLine
 10
8.8000000000000007
 20
39.170000000000002
 30
0.0
 11
8.8000000000000007
 21
38.0
 31
0.0
  0
LINE
  5
16F
100
AcDbEntity
  8
0
  6
CONTINUOUS
 62
               4
100
AcDbLine
 10
3.2000000000000002
 20
39.170000000000002
 30
0.0
 11
3.2000000000000002
 21
38.0
 31
0.0
  0
LINE
  5
170
100
AcDbEntity
  8
0
  6
CONTINUOUS
 62
               4
100
AcDbLine
 10
17.800000000000001
 20
39.170000000000002
 30
0.0
 11
17.800000000000001
 21
38.0
 31
0.0
  0
LINE
  5
171
100
AcDbEntity
  8
0
  6
CONTINUOUS
 62
               4
100
AcDbLine
 10
12.199999999999999
 20
39.170000000000002
 30
0.0
 11
12.199999999999999
 21
38.0
 31
0.0
  0
LINE
  5
172
100
AcDbEntity
  8
0
  6
CONTINUOUS
 62
               4
100
AcDbLine
 10
4.25
 20
46.0
 30
0.0
 11
16.75
 21
46.0
 31
0.0
  0
LINE
  5
173
100
AcDbEntity
  8
0
  6
CONTINUOUS
 62
               4
100
AcDbLine
 10
4.25
 20
46.0
 30
0.0
 11
4.25
 21
45.0
 31
0.0
  0
LINE
  5
174
100
AcDbEntity
  8
0
  6
CONTINUOUS
 62
               4
100
AcDbLine
 10
16.75
 20
46.0
 30
0.0
 11
16.75
 21
45.0
 31
0.0
  0
LINE
  5
175
100
AcDbEntity
  8
0
  6
CONTINUOUS
 62
               4
100
AcDbLine
 10
7.6100000000000003
 20
46.0
 30
0.0
 11
7.6100000000000003
 21
51.770000000000003
 31
0.0
  0
LINE
  5
176
100
AcDbEntity
  8
0
  6
CONTINUOUS
 62
               4
100
AcDbLine
 10
9.0500000000000007
 20
46.0
 30
0.0
 11
9.0500000000000007
 21
51.770000000000003
 31
0.0
  0
LINE
  5
177
100
AcDbEntity
  8
0
  6
CONTINUOUS
 62
               4
100
AcDbLine
 10
11.94
 20
46.0
 30
0.0
 11
11.94
 21
51.770000000000003
 31
0.0
  0
LINE
  5
178
100
AcDbEntity
  8
0
  6
CONTINUOUS
 62
               4
100
AcDbLine
 10
13.380000000000001
 20
46.0
 30
0.0
 11
13.380000000000001
 21
51.770000000000003
 31
0.0
  0
LINE
  5
179
100
AcDbEntity
  8
0
  6
CONTINUOUS
 62
               4
100
AcDbLine
 10
13.0
 20
52.0
 30
0.0
 11
13.380000000000001
 21
51.770000000000003
 31
0.0
  0
LINE
  5
17A
100
AcDbEntity
  8
0
  6
CONTINUOUS
 62
               4
100
AcDbLine
 10
7.0899999999999999
 20
52.0
 30
0.0
 11
13.91
 21
52.0
 31
0.0
  0
LINE
  5
17B
100
AcDbEntity
  8
0
  6
CONTINUOUS
 62
               4
100
AcDbLine
 10
8.0
 20
52.0
 30
0.0
 11
7.6100000000000003
 21
51.770000000000003
 31
0.0
  0
LINE
  5
17C
100
AcDbEntity
  8
0
  6
CONTINUOUS
 62
               4
100
AcDbLine
 10
6.5899999999999999
 20
51.5
 30
0.0
 11
6.5899999999999999
 21
46.0
 31
0.0
  0
LINE
  5
17D
100
AcDbEntity
  8
0
  6
CONTINUOUS
 62
               4
100
AcDbLine
 10
14.41
 20
51.5
 30
0.0
 11
14.41
 21
46.0
 31
0.0
  0
LINE
  5
17E
100
AcDbEntity
  8
0
  6
CONTINUOUS
 62
               4
100
AcDbLine
 10
21.0
 20
45.0
 30
0.0
 11
21.0
 21
35.0
 31
0.0
  0
ARC
  5
17F
100
AcDbEntity
  8
0
  6
CONTINUOUS
 62
               4
100
AcDbCircle
 10
5.9950000000000001
 20
35.400006980160171
 30
0.0
 40
4.9998664254813097
100
AcDbArc
 50
60.461178304918043
 51
119.53882169508157
  0
ARC
  5
180
100
AcDbEntity
  8
0
  6
CONTINUOUS
 62
               4
100
AcDbCircle
 10
8.134627656357754
 20
39.169609315795924
 30
0.0
 40
0.6653724583405332
100
AcDbArc
 50
0.0336421458714143
 51
60.724609876865323
  0
ARC
  5
181
100
AcDbEntity
  8
0
  6
CONTINUOUS
 62
               4
100
AcDbCircle
 10
3.8678490002748012
 20
39.173896258464339
 30
0.0
 40
0.667860365643951
100
AcDbArc
 50
120.38897048789522
 51
180.33426213580151
  0
ARC
  5
182
100
AcDbEntity
  8
0
  6
CONTINUOUS
 62
               4
100
AcDbCircle
 10
14.995000000000001
 20
35.400006980160171
 30
0.0
 40
4.9998664254813097
100
AcDbArc
 50
60.46117830491805
 51
119.53882169508159
  0
ARC
  5
183
100
AcDbEntity
  8
0
  6
CONTINUOUS
 62
               4
100
AcDbCircle
 10
17.134627656357754
 20
39.169609315795924
 30
0.0
 40
0.6653724583405332
100
AcDbArc
 50
0.0336421458714143
 51
60.724609876865323
  0
ARC
  5
184
100
AcDbEntity
  8
0
  6
CONTINUOUS
 62
               4
100
AcDbCircle
 10
12.8678490002748
 20
39.173896258464339
 30
0.0
 40
0.6678603656439516
100
AcDbArc
 50
120.38897048789516
 51
180.33426213580151
  0
ARC
  5
185
100
AcDbEntity
  8
0
  6
CONTINUOUS
 62
               4
100
AcDbCircle
 10
12.661472031649842
 20
50.72180519804693
 30
0.0
 40
1.2724913497915793
100
AcDbArc
 50
64.464759195497138
 51
124.53961978858376
  0
ARC
  5
186
100
AcDbEntity
  8
0
  6
CONTINUOUS
 62
               4
100
AcDbCircle
 10
10.495000000000001
 20
47.223294622108661
 30
0.0
 40
4.7708023217637141
100
AcDbArc
 50
72.369090622170972
 51
107.63090937782867
  0
ARC
  5
187
100
AcDbEntity
  8
0
  6
CONTINUOUS
 62
               4
100
AcDbCircle
 10
8.328588756744205
 20
50.722577210651338
 30
0.0
 40
1.2718210100257097
100
AcDbArc
 50
55.442916994847117
 51
115.55270402107107
  0
ARC
  5
188
100
AcDbEntity
  8
0
  6
CONTINUOUS
 62
               4
100
AcDbCircle
 10
7.0899981689486653
 20
51.500001831051335
 30
0.0
 40
0.4999981689520181
100
AcDbArc
 50
89.999790176204314
 51
180.00020982379519
  0
ARC
  5
189
100
AcDbEntity
  8
0
  6
CONTINUOUS
 62
               4
100
AcDbCircle
 10
13.910001831051336
 20
51.500001831051335
 30
0.0
 40
0.4999981689520181
100
AcDbArc
 50
359.99979017620365
 51
90.000209823795402
  0
ENDBLK
  5
18A
100
AcDbEntity
  8
0
100
AcDbBlockEnd
  0
BLOCK
  5
18B
100
AcDbEntity
  8
0
100
AcDbBlockBegin
  2
F10_CONNECTER-5
 70
               0
 10
0.0
 20
0.0
 30
0.0
  3
F10_CONNECTER-5
  1

  0
INSERT
  5
18C
100
AcDbEntity
  8
0
  6
ByBlock
100
AcDbBlockReference
  2
F10_CONNECTER-8
 10
21.0
 20
42.930007934570313
 30
0.0
  0
INSERT
  5
18D
100
AcDbEntity
  8
0
  6
ByBlock
100
AcDbBlockReference
  2
F10_CONNECTER-8
 10
21.0
 20
35.310012817382813
 30
0.0
  0
INSERT
  5
18E
100
AcDbEntity
  8
0
  6
ByBlock
100
AcDbBlockReference
  2
F10_CONNECTER-8
 10
21.0
 20
27.69000244140625
 30
0.0
  0
INSERT
  5
18F
100
AcDbEntity
  8
0
  6
ByBlock
100
AcDbBlockReference
  2
F10_CONNECTER-8
 10
21.0
 20
20.069992065429688
 30
0.0
  0
INSERT
  5
190
100
AcDbEntity
  8
0
  6
ByBlock
100
AcDbBlockReference
  2
F10_CONNECTER-8
 10
21.0
 20
12.449996948242188
 30
0.0
  0
INSERT
  5
191
100
AcDbEntity
  8
0
  6
ByBlock
100
AcDbBlockReference
  2
F10_CONNECTER-8
 10
21.0
 20
4.8300018310546875
 30
0.0
  0
INSERT
  5
192
100
AcDbEntity
  8
0
  6
ByBlock
100
AcDbBlockReference
  2
F10_CONNECTER-8
 10
21.0
 20
-2.7899932861328125
 30
0.0
  0
INSERT
  5
193
100
AcDbEntity
  8
0
  6
ByBlock
100
AcDbBlockReference
  2
F10_CONNECTER-8
 10
21.0
 20
-10.410003662109375
 30
0.0
  0
INSERT
  5
194
100
AcDbEntity
  8
0
  6
ByBlock
100
AcDbBlockReference
  2
F10_CONNECTER-8
 10
21.0
 20
-18.029998779296875
 30
0.0
  0
INSERT
  5
195
100
AcDbEntity
  8
0
  6
ByBlock
100
AcDbBlockReference
  2
F10_CONNECTER-8
 10
30.0
 20
-21.840011596679688
 30
0.0
  0
INSERT
  5
196
100
AcDbEntity
  8
0
  6
ByBlock
100
AcDbBlockReference
  2
F10_CONNECTER-8
 10
30.0
 20
46.740005493164063
 30
0.0
  0
INSERT
  5
197
100
AcDbEntity
  8
0
  6
ByBlock
100
AcDbBlockReference
  2
F10_CONNECTER-8
 10
30.0
 20
39.120010375976562
 30
0.0
  0
INSERT
  5
198
100
AcDbEntity
  8
0
  6
ByBlock
100
AcDbBlockReference
  2
F10_CONNECTER-8
 10
30.0
 20
31.5
 30
0.0
  0
INSERT
  5
199
100
AcDbEntity
  8
0
  6
ByBlock
100
AcDbBlockReference
  2
F10_CONNECTER-8
 10
30.0
 20
23.8800048828125
 30
0.0
  0
INSERT
  5
19A
100
AcDbEntity
  8
0
  6
ByBlock
100
AcDbBlockReference
  2
F10_CONNECTER-8
 10
30.0
 20
16.259994506835938
 30
0.0
  0
INSERT
  5
19B
100
AcDbEntity
  8
0
  6
ByBlock
100
AcDbBlockReference
  2
F10_CONNECTER-8
 10
30.0
 20
8.6399993896484375
 30
0.0
  0
INSERT
  5
19C
100
AcDbEntity
  8
0
  6
ByBlock
100
AcDbBlockReference
  2
F10_CONNECTER-8
 10
30.0
 20
1.0200042724609375
 30
0.0
  0
INSERT
  5
19D
100
AcDbEntity
  8
0
  6
ByBlock
100
AcDbBlockReference
  2
F10_CONNECTER-8
 10
30.0
 20
-6.600006103515625
 30
0.0
  0
INSERT
  5
19E
100
AcDbEntity
  8
0
  6
ByBlock
100
AcDbBlockReference
  2
F10_CONNECTER-8
 10
30.0
 20
-14.220001220703125
 30
0.0
  0
LINE
  5
19F
100
AcDbEntity
  8
0
  6
CONTINUOUS
 62
               4
100
AcDbLine
 10
42.0
 20
-30.5
 30
0.0
 11
42.0
 21
62.5
 31
0.0
  0
LINE
  5
1A0
100
AcDbEntity
  8
0
  6
CONTINUOUS
 62
               4
100
AcDbLine
 10
42.0
 20
-30.5
 30
0.0
 11
23.0
 21
-30.5
 31
0.0
  0
LINE
  5
1A1
100
AcDbEntity
  8
0
  6
CONTINUOUS
 62
               4
100
AcDbLine
 10
0.0
 20
-30.5
 30
0.0
 11
0.0
 21
62.5
 31
0.0
  0
LINE
  5
1A2
100
AcDbEntity
  8
0
  6
CONTINUOUS
 62
               4
100
AcDbLine
 10
7.0
 20
-28.800000000000001
 30
0.0
 11
14.0
 21
-28.800000000000001
 31
0.0
  0
LINE
  5
1A3
100
AcDbEntity
  8
0
  6
CONTINUOUS
 62
               4
100
AcDbLine
 10
14.0
 20
-28.800000000000001
 30
0.0
 11
14.0
 21
-30.5
 31
0.0
  0
LINE
  5
1A4
100
AcDbEntity
  8
0
  6
CONTINUOUS
 62
               4
100
AcDbLine
 10
7.0
 20
-28.800000000000001
 30
0.0
 11
7.0
 21
-30.5
 31
0.0
  0
LINE
  5
1A5
100
AcDbEntity
  8
0
  6
CONTINUOUS
 62
               4
100
AcDbLine
 10
28.0
 20
-28.800000000000001
 30
0.0
 11
28.0
 21
-30.5
 31
0.0
  0
LINE
  5
1A6
100
AcDbEntity
  8
0
  6
CONTINUOUS
 62
               4
100
AcDbLine
 10
35.0
 20
-28.800000000000001
 30
0.0
 11
35.0
 21
-30.5
 31
0.0
  0
LINE
  5
1A7
100
AcDbEntity
  8
0
  6
CONTINUOUS
 62
               4
100
AcDbLine
 10
28.0
 20
-28.800000000000001
 30
0.0
 11
35.0
 21
-28.800000000000001
 31
0.0
  0
LINE
  5
1A8
100
AcDbEntity
  8
0
  6
CONTINUOUS
 62
               4
100
AcDbLine
 10
35.0
 20
53.609999999999999
 30
0.0
 11
35.0
 21
-28.710000000000001
 31
0.0
  0
LINE
  5
1A9
100
AcDbEntity
  8
0
  6
CONTINUOUS
 62
               4
100
AcDbLine
 10
16.0
 20
54.549999999999997
 30
0.0
 11
16.0
 21
-29.649999999999999
 31
0.0
  0
LINE
  5
1AA
100
AcDbEntity
  8
0
  6
CONTINUOUS
 62
               4
100
AcDbLine
 10
25.0
 20
53.609999999999999
 30
0.0
 11
25.0
 21
-28.710000000000001
 31
0.0
  0
LINE
  5
1AB
100
AcDbEntity
  8
0
  6
CONTINUOUS
 62
               4
100
AcDbLine
 10
16.0
 20
53.609999999999999
 30
0.0
 11
35.0
 21
53.609999999999999
 31
0.0
  0
LINE
  5
1AC
100
AcDbEntity
  8
0
  6
CONTINUOUS
 62
               4
100
AcDbLine
 10
16.0
 20
-28.710000000000001
 30
0.0
 11
35.0
 21
-28.710000000000001
 31
0.0
  0
LINE
  5
1AD
100
AcDbEntity
  8
0
  6
CONTINUOUS
 62
               4
100
AcDbLine
 10
26.0
 20
54.549999999999997
 30
0.0
 11
26.0
 21
53.609999999999999
 31
0.0
  0
LINE
  5
1AE
100
AcDbEntity
  8
0
  6
CONTINUOUS
 62
               4
100
AcDbLine
 10
16.0
 20
-29.649999999999999
 30
0.0
 11
26.0
 21
-29.649999999999999
 31
0.0
  0
LINE
  5
1AF
100
AcDbEntity
  8
0
  6
CONTINUOUS
 62
               4
100
AcDbLine
 10
16.0
 20
54.549999999999997
 30
0.0
 11
26.0
 21
54.549999999999997
 31
0.0
  0
LINE
  5
1B0
100
AcDbEntity
  8
0
  6
CONTINUOUS
 62
               4
100
AcDbLine
 10
26.0
 20
-28.710000000000001
 30
0.0
 11
26.0
 21
-29.649999999999999
 31
0.0
  0
LINE
  5
1B1
100
AcDbEntity
  8
0
  6
CONTINUOUS
 62
               4
100
AcDbLine
 10
34.0
 20
53.609999999999999
 30
0.0
 11
34.0
 21
51.200000000000003
 31
0.0
  0
LINE
  5
1B2
100
AcDbEntity
  8
0
  6
CONTINUOUS
 62
               4
100
AcDbLine
 10
26.5
 20
51.200000000000003
 30
0.0
 11
34.0
 21
51.200000000000003
 31
0.0
  0
LINE
  5
1B3
100
AcDbEntity
  8
0
  6
CONTINUOUS
 62
               4
100
AcDbLine
 10
25.0
 20
49.899999999999999
 30
0.0
 11
34.0
 21
49.899999999999999
 31
0.0
  0
LINE
  5
1B4
100
AcDbEntity
  8
0
  6
CONTINUOUS
 62
               4
100
AcDbLine
 10
25.0
 20
43.579999999999998
 30
0.0
 11
34.0
 21
43.579999999999998
 31
0.0
  0
LINE
  5
1B5
100
AcDbEntity
  8
0
  6
CONTINUOUS
 62
               4
100
AcDbLine
 10
25.0
 20
42.280000000000001
 30
0.0
 11
34.0
 21
42.280000000000001
 31
0.0
  0
LINE
  5
1B6
100
AcDbEntity
  8
0
  6
CONTINUOUS
 62
               4
100
AcDbLine
 10
25.0
 20
35.960000000000001
 30
0.0
 11
34.0
 21
35.960000000000001
 31
0.0
  0
LINE
  5
1B7
100
AcDbEntity
  8
0
  6
CONTINUOUS
 62
               4
100
AcDbLine
 10
25.0
 20
34.659999999999997
 30
0.0
 11
34.0
 21
34.659999999999997
 31
0.0
  0
LINE
  5
1B8
100
AcDbEntity
  8
0
  6
CONTINUOUS
 62
               4
100
AcDbLine
 10
25.0
 20
28.34
 30
0.0
 11
34.0
 21
28.34
 31
0.0
  0
LINE
  5
1B9
100
AcDbEntity
  8
0
  6
CONTINUOUS
 62
               4
100
AcDbLine
 10
25.0
 20
27.039999999999999
 30
0.0
 11
34.0
 21
27.039999999999999
 31
0.0
  0
LINE
  5
1BA
100
AcDbEntity
  8
0
  6
CONTINUOUS
 62
               4
100
AcDbLine
 10
25.0
 20
20.719999999999999
 30
0.0
 11
34.0
 21
20.719999999999999
 31
0.0
  0
LINE
  5
1BB
100
AcDbEntity
  8
0
  6
CONTINUOUS
 62
               4
100
AcDbLine
 10
25.0
 20
19.420000000000002
 30
0.0
 11
34.0
 21
19.420000000000002
 31
0.0
  0
LINE
  5
1BC
100
AcDbEntity
  8
0
  6
CONTINUOUS
 62
               4
100
AcDbLine
 10
25.0
 20
13.1
 30
0.0
 11
34.0
 21
13.1
 31
0.0
  0
LINE
  5
1BD
100
AcDbEntity
  8
0
  6
CONTINUOUS
 62
               4
100
AcDbLine
 10
25.0
 20
11.800000000000001
 30
0.0
 11
34.0
 21
11.800000000000001
 31
0.0
  0
LINE
  5
1BE
100
AcDbEntity
  8
0
  6
CONTINUOUS
 62
               4
100
AcDbLine
 10
25.0
 20
5.4800000000000004
 30
0.0
 11
34.0
 21
5.4800000000000004
 31
0.0
  0
LINE
  5
1BF
100
AcDbEntity
  8
0
  6
CONTINUOUS
 62
               4
100
AcDbLine
 10
25.0
 20
4.1799999999999997
 30
0.0
 11
34.0
 21
4.1799999999999997
 31
0.0
  0
LINE
  5
1C0
100
AcDbEntity
  8
0
  6
CONTINUOUS
 62
               4
100
AcDbLine
 10
25.0
 20
-2.1400000000000001
 30
0.0
 11
34.0
 21
-2.1400000000000001
 31
0.0
  0
LINE
  5
1C1
100
AcDbEntity
  8
0
  6
CONTINUOUS
 62
               4
100
AcDbLine
 10
25.0
 20
-3.4399999999999999
 30
0.0
 11
34.0
 21
-3.4399999999999999
 31
0.0
  0
LINE
  5
1C2
100
AcDbEntity
  8
0
  6
CONTINUOUS
 62
               4
100
AcDbLine
 10
25.0
 20
-9.7599999999999998
 30
0.0
 11
34.0
 21
-9.7599999999999998
 31
0.0
  0
LINE
  5
1C3
100
AcDbEntity
  8
0
  6
CONTINUOUS
 62
               4
100
AcDbLine
 10
25.0
 20
-11.06
 30
0.0
 11
34.0
 21
-11.06
 31
0.0
  0
LINE
  5
1C4
100
AcDbEntity
  8
0
  6
CONTINUOUS
 62
               4
100
AcDbLine
 10
25.0
 20
-17.379999999999999
 30
0.0
 11
34.0
 21
-17.379999999999999
 31
0.0
  0
LINE
  5
1C5
100
AcDbEntity
  8
0
  6
CONTINUOUS
 62
               4
100
AcDbLine
 10
25.0
 20
-18.68
 30
0.0
 11
34.0
 21
-18.68
 31
0.0
  0
LINE
  5
1C6
100
AcDbEntity
  8
0
  6
CONTINUOUS
 62
               4
100
AcDbLine
 10
25.0
 20
-25.0
 30
0.0
 11
34.0
 21
-25.0
 31
0.0
  0
LINE
  5
1C7
100
AcDbEntity
  8
0
  6
CONTINUOUS
 62
               4
100
AcDbLine
 10
26.5
 20
-26.300000000000001
 30
0.0
 11
34.0
 21
-26.300000000000001
 31
0.0
  0
LINE
  5
1C8
100
AcDbEntity
  8
0
  6
CONTINUOUS
 62
               4
100
AcDbLine
 10
34.0
 20
49.899999999999999
 30
0.0
 11
34.0
 21
43.579999999999998
 31
0.0
  0
LINE
  5
1C9
100
AcDbEntity
  8
0
  6
CONTINUOUS
 62
               4
100
AcDbLine
 10
34.0
 20
42.280000000000001
 30
0.0
 11
34.0
 21
35.960000000000001
 31
0.0
  0
LINE
  5
1CA
100
AcDbEntity
  8
0
  6
CONTINUOUS
 62
               4
100
AcDbLine
 10
34.0
 20
34.659999999999997
 30
0.0
 11
34.0
 21
28.34
 31
0.0
  0
LINE
  5
1CB
100
AcDbEntity
  8
0
  6
CONTINUOUS
 62
               4
100
AcDbLine
 10
34.0
 20
27.039999999999999
 30
0.0
 11
34.0
 21
20.719999999999999
 31
0.0
  0
LINE
  5
1CC
100
AcDbEntity
  8
0
  6
CONTINUOUS
 62
               4
100
AcDbLine
 10
34.0
 20
19.420000000000002
 30
0.0
 11
34.0
 21
13.1
 31
0.0
  0
LINE
  5
1CD
100
AcDbEntity
  8
0
  6
CONTINUOUS
 62
               4
100
AcDbLine
 10
34.0
 20
11.800000000000001
 30
0.0
 11
34.0
 21
5.4800000000000004
 31
0.0
  0
LINE
  5
1CE
100
AcDbEntity
  8
0
  6
CONTINUOUS
 62
               4
100
AcDbLine
 10
34.0
 20
4.1799999999999997
 30
0.0
 11
34.0
 21
-2.1400000000000001
 31
0.0
  0
LINE
  5
1CF
100
AcDbEntity
  8
0
  6
CONTINUOUS
 62
               4
100
AcDbLine
 10
34.0
 20
-3.4399999999999999
 30
0.0
 11
34.0
 21
-9.7599999999999998
 31
0.0
  0
LINE
  5
1D0
100
AcDbEntity
  8
0
  6
CONTINUOUS
 62
               4
100
AcDbLine
 10
34.0
 20
-11.06
 30
0.0
 11
34.0
 21
-17.379999999999999
 31
0.0
  0
LINE
  5
1D1
100
AcDbEntity
  8
0
  6
CONTINUOUS
 62
               4
100
AcDbLine
 10
34.0
 20
-18.68
 30
0.0
 11
34.0
 21
-25.0
 31
0.0
  0
LINE
  5
1D2
100
AcDbEntity
  8
0
  6
CONTINUOUS
 62
               4
100
AcDbLine
 10
34.0
 20
-26.300000000000001
 30
0.0
 11
34.0
 21
-28.710000000000001
 31
0.0
  0
LINE
  5
1D3
100
AcDbEntity
  8
0
  6
CONTINUOUS
 62
               4
100
AcDbLine
 10
16.0
 20
47.390000000000001
 30
0.0
 11
25.0
 21
47.390000000000001
 31
0.0
  0
LINE
  5
1D4
100
AcDbEntity
  8
0
  6
CONTINUOUS
 62
               4
100
AcDbLine
 10
16.0
 20
46.090000000000003
 30
0.0
 11
25.0
 21
46.090000000000003
 31
0.0
  0
LINE
  5
1D5
100
AcDbEntity
  8
0
  6
CONTINUOUS
 62
               4
100
AcDbLine
 10
16.0
 20
39.770000000000003
 30
0.0
 11
25.0
 21
39.770000000000003
 31
0.0
  0
LINE
  5
1D6
100
AcDbEntity
  8
0
  6
CONTINUOUS
 62
               4
100
AcDbLine
 10
16.0
 20
38.469999999999999
 30
0.0
 11
25.0
 21
38.469999999999999
 31
0.0
  0
LINE
  5
1D7
100
AcDbEntity
  8
0
  6
CONTINUOUS
 62
               4
100
AcDbLine
 10
16.0
 20
32.149999999999999
 30
0.0
 11
25.0
 21
32.149999999999999
 31
0.0
  0
LINE
  5
1D8
100
AcDbEntity
  8
0
  6
CONTINUOUS
 62
               4
100
AcDbLine
 10
16.0
 20
30.850000000000001
 30
0.0
 11
25.0
 21
30.850000000000001
 31
0.0
  0
LINE
  5
1D9
100
AcDbEntity
  8
0
  6
CONTINUOUS
 62
               4
100
AcDbLine
 10
16.0
 20
24.530000000000001
 30
0.0
 11
25.0
 21
24.530000000000001
 31
0.0
  0
LINE
  5
1DA
100
AcDbEntity
  8
0
  6
CONTINUOUS
 62
               4
100
AcDbLine
 10
16.0
 20
23.23
 30
0.0
 11
25.0
 21
23.23
 31
0.0
  0
LINE
  5
1DB
100
AcDbEntity
  8
0
  6
CONTINUOUS
 62
               4
100
AcDbLine
 10
16.0
 20
16.91
 30
0.0
 11
25.0
 21
16.91
 31
0.0
  0
LINE
  5
1DC
100
AcDbEntity
  8
0
  6
CONTINUOUS
 62
               4
100
AcDbLine
 10
16.0
 20
15.609999999999999
 30
0.0
 11
25.0
 21
15.609999999999999
 31
0.0
  0
LINE
  5
1DD
100
AcDbEntity
  8
0
  6
CONTINUOUS
 62
               4
100
AcDbLine
 10
16.0
 20
9.2899999999999991
 30
0.0
 11
25.0
 21
9.2899999999999991
 31
0.0
  0
LINE
  5
1DE
100
AcDbEntity
  8
0
  6
CONTINUOUS
 62
               4
100
AcDbLine
 10
16.0
 20
7.9900000000000002
 30
0.0
 11
25.0
 21
7.9900000000000002
 31
0.0
  0
LINE
  5
1DF
100
AcDbEntity
  8
0
  6
CONTINUOUS
 62
               4
100
AcDbLine
 10
16.0
 20
1.6699999999999999
 30
0.0
 11
25.0
 21
1.6699999999999999
 31
0.0
  0
LINE
  5
1E0
100
AcDbEntity
  8
0
  6
CONTINUOUS
 62
               4
100
AcDbLine
 10
16.0
 20
0.37
 30
0.0
 11
25.0
 21
0.37
 31
0.0
  0
LINE
  5
1E1
100
AcDbEntity
  8
0
  6
CONTINUOUS
 62
               4
100
AcDbLine
 10
16.0
 20
-5.9500000000000002
 30
0.0
 11
25.0
 21
-5.9500000000000002
 31
0.0
  0
LINE
  5
1E2
100
AcDbEntity
  8
0
  6
CONTINUOUS
 62
               4
100
AcDbLine
 10
16.0
 20
-7.25
 30
0.0
 11
25.0
 21
-7.25
 31
0.0
  0
LINE
  5
1E3
100
AcDbEntity
  8
0
  6
CONTINUOUS
 62
               4
100
AcDbLine
 10
16.0
 20
-13.57
 30
0.0
 11
25.0
 21
-13.57
 31
0.0
  0
LINE
  5
1E4
100
AcDbEntity
  8
0
  6
CONTINUOUS
 62
               4
100
AcDbLine
 10
16.0
 20
-14.869999999999999
 30
0.0
 11
25.0
 21
-14.869999999999999
 31
0.0
  0
LINE
  5
1E5
100
AcDbEntity
  8
0
  6
CONTINUOUS
 62
               4
100
AcDbLine
 10
16.0
 20
-21.190000000000001
 30
0.0
 11
25.0
 21
-21.190000000000001
 31
0.0
  0
LINE
  5
1E6
100
AcDbEntity
  8
0
  6
CONTINUOUS
 62
               4
100
AcDbLine
 10
16.0
 20
-22.489999999999998
 30
0.0
 11
25.0
 21
-22.489999999999998
 31
0.0
  0
LINE
  5
1E7
100
AcDbEntity
  8
0
  6
CONTINUOUS
 62
               4
100
AcDbLine
 10
23.0
 20
55.490000000000002
 30
0.0
 11
23.0
 21
54.549999999999997
 31
0.0
  0
LINE
  5
1E8
100
AcDbEntity
  8
0
  6
CONTINUOUS
 62
               4
100
AcDbLine
 10
19.0
 20
55.490000000000002
 30
0.0
 11
19.0
 21
54.549999999999997
 31
0.0
  0
LINE
  5
1E9
100
AcDbEntity
  8
0
  6
CONTINUOUS
 62
               4
100
AcDbLine
 10
19.0
 20
55.490000000000002
 30
0.0
 11
23.0
 21
55.490000000000002
 31
0.0
  0
LINE
  5
1EA
100
AcDbEntity
  8
0
  6
CONTINUOUS
 62
               4
100
AcDbLine
 10
19.0
 20
-30.59
 30
0.0
 11
23.0
 21
-30.59
 31
0.0
  0
LINE
  5
1EB
100
AcDbEntity
  8
0
  6
CONTINUOUS
 62
               4
100
AcDbLine
 10
19.0
 20
-29.649999999999999
 30
0.0
 11
19.0
 21
-30.59
 31
0.0
  0
LINE
  5
1EC
100
AcDbEntity
  8
0
  6
CONTINUOUS
 62
               4
100
AcDbLine
 10
23.0
 20
-29.649999999999999
 30
0.0
 11
23.0
 21
-30.59
 31
0.0
  0
LINE
  5
1ED
100
AcDbEntity
  8
0
  6
CONTINUOUS
 62
               4
100
AcDbLine
 10
19.93
 20
49.479999999999997
 30
0.0
 11
22.059999999999999
 21
51.609999999999999
 31
0.0
  0
LINE
  5
1EE
100
AcDbEntity
  8
0
  6
CONTINUOUS
 62
               4
100
AcDbLine
 10
19.93
 20
51.609999999999999
 30
0.0
 11
22.059999999999999
 21
49.479999999999997
 31
0.0
  0
LINE
  5
1EF
100
AcDbEntity
  8
0
  6
CONTINUOUS
 62
               4
100
AcDbLine
 10
18.100000000000001
 20
53.450000000000003
 30
0.0
 11
23.899999999999999
 21
53.450000000000003
 31
0.0
  0
LINE
  5
1F0
100
AcDbEntity
  8
0
  6
CONTINUOUS
 62
               4
100
AcDbLine
 10
18.100000000000001
 20
47.649999999999999
 30
0.0
 11
23.899999999999999
 21
47.649999999999999
 31
0.0
  0
LINE
  5
1F1
100
AcDbEntity
  8
0
  6
CONTINUOUS
 62
               4
100
AcDbLine
 10
18.100000000000001
 20
53.450000000000003
 30
0.0
 11
18.100000000000001
 21
53.049999999999997
 31
0.0
  0
LINE
  5
1F2
100
AcDbEntity
  8
0
  6
CONTINUOUS
 62
               4
100
AcDbLine
 10
23.899999999999999
 20
53.450000000000003
 30
0.0
 11
23.899999999999999
 21
53.049999999999997
 31
0.0
  0
LINE
  5
1F3
100
AcDbEntity
  8
0
  6
CONTINUOUS
 62
               4
100
AcDbLine
 10
24.399999999999999
 20
53.049999999999997
 30
0.0
 11
24.399999999999999
 21
48.049999999999997
 31
0.0
  0
LINE
  5
1F4
100
AcDbEntity
  8
0
  6
CONTINUOUS
 62
               4
100
AcDbLine
 10
17.600000000000001
 20
53.049999999999997
 30
0.0
 11
17.600000000000001
 21
48.049999999999997
 31
0.0
  0
LINE
  5
1F5
100
AcDbEntity
  8
0
  6
CONTINUOUS
 62
               4
100
AcDbLine
 10
17.600000000000001
 20
48.049999999999997
 30
0.0
 11
18.100000000000001
 21
48.049999999999997
 31
0.0
  0
LINE
  5
1F6
100
AcDbEntity
  8
0
  6
CONTINUOUS
 62
               4
100
AcDbLine
 10
17.600000000000001
 20
53.049999999999997
 30
0.0
 11
18.100000000000001
 21
53.049999999999997
 31
0.0
  0
LINE
  5
1F7
100
AcDbEntity
  8
0
  6
CONTINUOUS
 62
               4
100
AcDbLine
 10
23.899999999999999
 20
53.049999999999997
 30
0.0
 11
24.399999999999999
 21
53.049999999999997
 31
0.0
  0
LINE
  5
1F8
100
AcDbEntity
  8
0
  6
CONTINUOUS
 62
               4
100
AcDbLine
 10
23.899999999999999
 20
48.049999999999997
 30
0.0
 11
24.399999999999999
 21
48.049999999999997
 31
0.0
  0
LINE
  5
1F9
100
AcDbEntity
  8
0
  6
CONTINUOUS
 62
               4
100
AcDbLine
 10
19.93
 20
-26.710000000000001
 30
0.0
 11
22.059999999999999
 21
-24.579999999999998
 31
0.0
  0
LINE
  5
1FA
100
AcDbEntity
  8
0
  6
CONTINUOUS
 62
               4
100
AcDbLine
 10
19.93
 20
-24.579999999999998
 30
0.0
 11
22.059999999999999
 21
-26.710000000000001
 31
0.0
  0
LINE
  5
1FB
100
AcDbEntity
  8
0
  6
CONTINUOUS
 62
               4
100
AcDbLine
 10
18.100000000000001
 20
-22.75
 30
0.0
 11
23.899999999999999
 21
-22.75
 31
0.0
  0
LINE
  5
1FC
100
AcDbEntity
  8
0
  6
CONTINUOUS
 62
               4
100
AcDbLine
 10
18.100000000000001
 20
-28.550000000000001
 30
0.0
 11
23.899999999999999
 21
-28.550000000000001
 31
0.0
  0
LINE
  5
1FD
100
AcDbEntity
  8
0
  6
CONTINUOUS
 62
               4
100
AcDbLine
 10
18.100000000000001
 20
-22.75
 30
0.0
 11
18.100000000000001
 21
-23.149999999999999
 31
0.0
  0
LINE
  5
1FE
100
AcDbEntity
  8
0
  6
CONTINUOUS
 62
               4
100
AcDbLine
 10
23.899999999999999
 20
-22.75
 30
0.0
 11
23.899999999999999
 21
-23.149999999999999
 31
0.0
  0
LINE
  5
1FF
100
AcDbEntity
  8
0
  6
CONTINUOUS
 62
               4
100
AcDbLine
 10
24.399999999999999
 20
-23.149999999999999
 30
0.0
 11
24.399999999999999
 21
-28.149999999999999
 31
0.0
  0
LINE
  5
200
100
AcDbEntity
  8
0
  6
CONTINUOUS
 62
               4
100
AcDbLine
 10
17.600000000000001
 20
-23.149999999999999
 30
0.0
 11
17.600000000000001
 21
-28.149999999999999
 31
0.0
  0
LINE
  5
201
100
AcDbEntity
  8
0
  6
CONTINUOUS
 62
               4
100
AcDbLine
 10
17.600000000000001
 20
-28.149999999999999
 30
0.0
 11
18.100000000000001
 21
-28.149999999999999
 31
0.0
  0
LINE
  5
202
100
AcDbEntity
  8
0
  6
CONTINUOUS
 62
               4
100
AcDbLine
 10
17.600000000000001
 20
-23.149999999999999
 30
0.0
 11
18.100000000000001
 21
-23.149999999999999
 31
0.0
  0
LINE
  5
203
100
AcDbEntity
  8
0
  6
CONTINUOUS
 62
               4
100
AcDbLine
 10
23.899999999999999
 20
-23.149999999999999
 30
0.0
 11
24.399999999999999
 21
-23.149999999999999
 31
0.0
  0
LINE
  5
204
100
AcDbEntity
  8
0
  6
CONTINUOUS
 62
               4
100
AcDbLine
 10
23.899999999999999
 20
-28.149999999999999
 30
0.0
 11
24.399999999999999
 21
-28.149999999999999
 31
0.0
  0
LINE
  5
205
100
AcDbEntity
  8
0
  6
CONTINUOUS
 62
               4
100
AcDbLine
 10
18.100000000000001
 20
-28.149999999999999
 30
0.0
 11
18.100000000000001
 21
-28.550000000000001
 31
0.0
  0
LINE
  5
206
100
AcDbEntity
  8
0
  6
CONTINUOUS
 62
               4
100
AcDbLine
 10
23.899999999999999
 20
-28.149999999999999
 30
0.0
 11
23.899999999999999
 21
-28.550000000000001
 31
0.0
  0
LINE
  5
207
100
AcDbEntity
  8
0
  6
CONTINUOUS
 62
               4
100
AcDbLine
 10
18.100000000000001
 20
48.049999999999997
 30
0.0
 11
18.100000000000001
 21
47.649999999999999
 31
0.0
  0
LINE
  5
208
100
AcDbEntity
  8
0
  6
CONTINUOUS
 62
               4
100
AcDbLine
 10
23.899999999999999
 20
48.049999999999997
 30
0.0
 11
23.899999999999999
 21
47.649999999999999
 31
0.0
  0
LINE
  5
209
100
AcDbEntity
  8
0
  6
CONTINUOUS
 62
               4
100
AcDbLine
 10
9.4299999999999997
 20
55.93
 30
0.0
 11
11.56
 21
58.060000000000002
 31
0.0
  0
LINE
  5
20A
100
AcDbEntity
  8
0
  6
CONTINUOUS
 62
               4
100
AcDbLine
 10
9.4299999999999997
 20
58.060000000000002
 30
0.0
 11
11.56
 21
55.93
 31
0.0
  0
LINE
  5
20B
100
AcDbEntity
  8
0
  6
CONTINUOUS
 62
               4
100
AcDbLine
 10
30.43
 20
55.93
 30
0.0
 11
32.560000000000002
 21
58.060000000000002
 31
0.0
  0
LINE
  5
20C
100
AcDbEntity
  8
0
  6
CONTINUOUS
 62
               4
100
AcDbLine
 10
30.43
 20
58.060000000000002
 30
0.0
 11
32.560000000000002
 21
55.93
 31
0.0
  0
LINE
  5
20D
100
AcDbEntity
  8
0
  6
CONTINUOUS
 62
               4
100
AcDbLine
 10
1.5
 20
51.399999999999999
 30
0.0
 11
1.5
 21
-26.5
 31
0.0
  0
LINE
  5
20E
100
AcDbEntity
  8
0
  6
CONTINUOUS
 62
               4
100
AcDbLine
 10
13.5
 20
51.399999999999999
 30
0.0
 11
13.5
 21
-26.5
 31
0.0
  0
LINE
  5
20F
100
AcDbEntity
  8
0
  6
CONTINUOUS
 62
               4
100
AcDbLine
 10
1.5
 20
-26.5
 30
0.0
 11
13.5
 21
-26.5
 31
0.0
  0
LINE
  5
210
100
AcDbEntity
  8
0
  6
CONTINUOUS
 62
               4
100
AcDbLine
 10
1.5
 20
51.399999999999999
 30
0.0
 11
13.5
 21
51.399999999999999
 31
0.0
  0
LINE
  5
211
100
AcDbEntity
  8
0
  6
CONTINUOUS
 62
               4
100
AcDbLine
 10
26.5
 20
53.609999999999999
 30
0.0
 11
26.5
 21
51.200000000000003
 31
0.0
  0
LINE
  5
212
100
AcDbEntity
  8
0
  6
CONTINUOUS
 62
               4
100
AcDbLine
 10
26.5
 20
-26.300000000000001
 30
0.0
 11
26.5
 21
-28.710000000000001
 31
0.0
  0
LINE
  5
213
100
AcDbEntity
  8
0
  6
CONTINUOUS
 62
               4
100
AcDbLine
 10
13.0
 20
50.450000000000003
 30
0.0
 11
13.0
 21
-25.550000000000001
 31
0.0
  0
LINE
  5
214
100
AcDbEntity
  8
0
  6
CONTINUOUS
 62
               4
100
AcDbLine
 10
2.0
 20
50.450000000000003
 30
0.0
 11
2.0
 21
-25.550000000000001
 31
0.0
  0
LINE
  5
215
100
AcDbEntity
  8
0
  6
CONTINUOUS
 62
               4
100
AcDbLine
 10
2.0
 20
50.450000000000003
 30
0.0
 11
13.0
 21
50.450000000000003
 31
0.0
  0
LINE
  5
216
100
AcDbEntity
  8
0
  6
CONTINUOUS
 62
               4
100
AcDbLine
 10
2.0
 20
-25.550000000000001
 30
0.0
 11
13.0
 21
-25.550000000000001
 31
0.0
  0
LINE
  5
217
100
AcDbEntity
  8
0
  6
CONTINUOUS
 62
               4
100
AcDbLine
 10
7.5
 20
12.449999999999999
 30
0.0
 11
13.0
 21
12.449999999999999
 31
0.0
  0
LINE
  5
218
100
AcDbEntity
  8
0
  6
CONTINUOUS
 62
               4
100
AcDbLine
 10
7.5
 20
50.450000000000003
 30
0.0
 11
7.5
 21
-25.550000000000001
 31
0.0
  0
LINE
  5
219
100
AcDbEntity
  8
0
  6
CONTINUOUS
 62
               4
100
AcDbLine
 10
2.0
 20
8.6400000000000006
 30
0.0
 11
7.5
 21
8.6400000000000006
 31
0.0
  0
LINE
  5
21A
100
AcDbEntity
  8
0
  6
CONTINUOUS
 62
               4
100
AcDbLine
 10
2.0
 20
16.260000000000002
 30
0.0
 11
7.5
 21
16.260000000000002
 31
0.0
  0
LINE
  5
21B
100
AcDbEntity
  8
0
  6
CONTINUOUS
 62
               4
100
AcDbLine
 10
2.0
 20
23.879999999999999
 30
0.0
 11
7.5
 21
23.879999999999999
 31
0.0
  0
LINE
  5
21C
100
AcDbEntity
  8
0
  6
CONTINUOUS
 62
               4
100
AcDbLine
 10
2.0
 20
31.5
 30
0.0
 11
7.5
 21
31.5
 31
0.0
  0
LINE
  5
21D
100
AcDbEntity
  8
0
  6
CONTINUOUS
 62
               4
100
AcDbLine
 10
2.0
 20
39.119999999999997
 30
0.0
 11
7.5
 21
39.119999999999997
 31
0.0
  0
LINE
  5
21E
100
AcDbEntity
  8
0
  6
CONTINUOUS
 62
               4
100
AcDbLine
 10
2.0
 20
46.740000000000002
 30
0.0
 11
7.5
 21
46.740000000000002
 31
0.0
  0
LINE
  5
21F
100
AcDbEntity
  8
0
  6
CONTINUOUS
 62
               4
100
AcDbLine
 10
2.0
 20
1.02
 30
0.0
 11
7.5
 21
1.02
 31
0.0
  0
LINE
  5
220
100
AcDbEntity
  8
0
  6
CONTINUOUS
 62
               4
100
AcDbLine
 10
2.0
 20
-6.5999999999999996
 30
0.0
 11
7.5
 21
-6.5999999999999996
 31
0.0
  0
LINE
  5
221
100
AcDbEntity
  8
0
  6
CONTINUOUS
 62
               4
100
AcDbLine
 10
2.0
 20
-14.220000000000001
 30
0.0
 11
7.5
 21
-14.220000000000001
 31
0.0
  0
LINE
  5
222
100
AcDbEntity
  8
0
  6
CONTINUOUS
 62
               4
100
AcDbLine
 10
2.0
 20
-21.84
 30
0.0
 11
7.5
 21
-21.84
 31
0.0
  0
LINE
  5
223
100
AcDbEntity
  8
0
  6
CONTINUOUS
 62
               4
100
AcDbLine
 10
7.5
 20
20.07
 30
0.0
 11
13.0
 21
20.07
 31
0.0
  0
LINE
  5
224
100
AcDbEntity
  8
0
  6
CONTINUOUS
 62
               4
100
AcDbLine
 10
7.5
 20
27.690000000000001
 30
0.0
 11
13.0
 21
27.690000000000001
 31
0.0
  0
LINE
  5
225
100
AcDbEntity
  8
0
  6
CONTINUOUS
 62
               4
100
AcDbLine
 10
7.5
 20
35.310000000000002
 30
0.0
 11
13.0
 21
35.310000000000002
 31
0.0
  0
LINE
  5
226
100
AcDbEntity
  8
0
  6
CONTINUOUS
 62
               4
100
AcDbLine
 10
7.5
 20
42.93
 30
0.0
 11
13.0
 21
42.93
 31
0.0
  0
LINE
  5
227
100
AcDbEntity
  8
0
  6
CONTINUOUS
 62
               4
100
AcDbLine
 10
7.5
 20
4.8300000000000001
 30
0.0
 11
13.0
 21
4.8300000000000001
 31
0.0
  0
LINE
  5
228
100
AcDbEntity
  8
0
  6
CONTINUOUS
 62
               4
100
AcDbLine
 10
7.5
 20
-2.79
 30
0.0
 11
13.0
 21
-2.79
 31
0.0
  0
LINE
  5
229
100
AcDbEntity
  8
0
  6
CONTINUOUS
 62
               4
100
AcDbLine
 10
7.5
 20
-10.41
 30
0.0
 11
13.0
 21
-10.41
 31
0.0
  0
LINE
  5
22A
100
AcDbEntity
  8
0
  6
CONTINUOUS
 62
               4
100
AcDbLine
 10
7.5
 20
-18.030000000000001
 30
0.0
 11
13.0
 21
-18.030000000000001
 31
0.0
  0
LINE
  5
22B
100
AcDbEntity
  8
0
  6
CONTINUOUS
 62
               4
100
AcDbLine
 10
19.0
 20
-30.5
 30
0.0
 11
0.0
 21
-30.5
 31
0.0
  0
LINE
  5
22C
100
AcDbEntity
  8
0
  6
CONTINUOUS
 62
               4
100
AcDbLine
 10
42.0
 20
62.5
 30
0.0
 11
0.0
 21
62.5
 31
0.0
  0
CIRCLE
  5
22D
100
AcDbEntity
  8
0
  6
CONTINUOUS
 62
               4
100
AcDbCircle
 10
10.5
 20
57.000015258789063
 30
0.0
 40
3.1999998092651367
  0
CIRCLE
  5
22E
100
AcDbEntity
  8
0
  6
CONTINUOUS
 62
               4
100
AcDbCircle
 10
31.5
 20
57.000015258789063
 30
0.0
 40
3.1999998092651367
  0
CIRCLE
  5
22F
100
AcDbEntity
  8
0
  6
CONTINUOUS
 62
               4
100
AcDbCircle
 10
21.0
 20
50.550003051757812
 30
0.0
 40
2.7999992370605469
  0
CIRCLE
  5
230
100
AcDbEntity
  8
0
  6
CONTINUOUS
 62
               4
100
AcDbCircle
 10
21.0
 20
-25.649993896484375
 30
0.0
 40
2.7999992370605469
  0
ENDBLK
  5
231
100
AcDbEntity
  8
0
100
AcDbBlockEnd
  0
BLOCK
  5
232
100
AcDbEntity
  8
0
100
AcDbBlockBegin
  2
F10_CONNECTER-6
 70
               0
 10
0.0
 20
0.0
 30
0.0
  3
F10_CONNECTER-6
  1

  0
LINE
  5
233
100
AcDbEntity
  8
0
  6
CONTINUOUS
 62
               4
100
AcDbLine
 10
57.100000000000001
 20
54.899999999999999
 30
0.0
 11
57.100000000000001
 21
54.549999999999997
 31
0.0
  0
LINE
  5
234
100
AcDbEntity
  8
0
  6
CONTINUOUS
 62
               4
100
AcDbLine
 10
54.799999999999997
 20
54.899999999999999
 30
0.0
 11
54.799999999999997
 21
54.549999999999997
 31
0.0
  0
LINE
  5
235
100
AcDbEntity
  8
0
  6
CONTINUOUS
 62
               4
100
AcDbLine
 10
54.799999999999997
 20
54.899999999999999
 30
0.0
 11
57.100000000000001
 21
54.899999999999999
 31
0.0
  0
LINE
  5
236
100
AcDbEntity
  8
0
  6
CONTINUOUS
 62
               4
100
AcDbLine
 10
69.0
 20
53.609999999999999
 30
0.0
 11
52.600000000000001
 21
53.609999999999999
 31
0.0
  0
LINE
  5
237
100
AcDbEntity
  8
0
  6
CONTINUOUS
 62
               4
100
AcDbLine
 10
69.0
 20
-28.710000000000001
 30
0.0
 11
52.600000000000001
 21
-28.710000000000001
 31
0.0
  0
LINE
  5
238
100
AcDbEntity
  8
0
  6
CONTINUOUS
 62
               4
100
AcDbLine
 10
66.0
 20
-28.710000000000001
 30
0.0
 11
66.0
 21
53.609999999999999
 31
0.0
  0
LINE
  5
239
100
AcDbEntity
  8
0
  6
CONTINUOUS
 62
               4
100
AcDbLine
 10
58.0
 20
-28.710000000000001
 30
0.0
 11
58.0
 21
53.609999999999999
 31
0.0
  0
LINE
  5
23A
100
AcDbEntity
  8
0
  6
CONTINUOUS
 62
               4
100
AcDbLine
 10
52.0
 20
-28.850000000000001
 30
0.0
 11
52.0
 21
53.75
 31
0.0
  0
LINE
  5
23B
100
AcDbEntity
  8
0
  6
CONTINUOUS
 62
               4
100
AcDbLine
 10
60.0
 20
-28.710000000000001
 30
0.0
 11
60.0
 21
53.609999999999999
 31
0.0
  0
LINE
  5
23C
100
AcDbEntity
  8
0
  6
CONTINUOUS
 62
               4
100
AcDbLine
 10
52.600000000000001
 20
-28.710000000000001
 30
0.0
 11
52.600000000000001
 21
-22.489999999999998
 31
0.0
  0
LINE
  5
23D
100
AcDbEntity
  8
0
  6
CONTINUOUS
 62
               4
100
AcDbLine
 10
58.0
 20
46.090000000000003
 30
0.0
 11
52.0
 21
46.090000000000003
 31
0.0
  0
LINE
  5
23E
100
AcDbEntity
  8
0
  6
CONTINUOUS
 62
               4
100
AcDbLine
 10
58.0
 20
47.390000000000001
 30
0.0
 11
52.0
 21
47.390000000000001
 31
0.0
  0
LINE
  5
23F
100
AcDbEntity
  8
0
  6
CONTINUOUS
 62
               4
100
AcDbLine
 10
58.0
 20
38.469999999999999
 30
0.0
 11
52.0
 21
38.469999999999999
 31
0.0
  0
LINE
  5
240
100
AcDbEntity
  8
0
  6
CONTINUOUS
 62
               4
100
AcDbLine
 10
58.0
 20
39.770000000000003
 30
0.0
 11
52.0
 21
39.770000000000003
 31
0.0
  0
LINE
  5
241
100
AcDbEntity
  8
0
  6
CONTINUOUS
 62
               4
100
AcDbLine
 10
58.0
 20
32.149999999999999
 30
0.0
 11
52.0
 21
32.149999999999999
 31
0.0
  0
LINE
  5
242
100
AcDbEntity
  8
0
  6
CONTINUOUS
 62
               4
100
AcDbLine
 10
58.0
 20
30.850000000000001
 30
0.0
 11
52.0
 21
30.850000000000001
 31
0.0
  0
LINE
  5
243
100
AcDbEntity
  8
0
  6
CONTINUOUS
 62
               4
100
AcDbLine
 10
58.0
 20
24.530000000000001
 30
0.0
 11
52.0
 21
24.530000000000001
 31
0.0
  0
LINE
  5
244
100
AcDbEntity
  8
0
  6
CONTINUOUS
 62
               4
100
AcDbLine
 10
58.0
 20
23.23
 30
0.0
 11
52.0
 21
23.23
 31
0.0
  0
LINE
  5
245
100
AcDbEntity
  8
0
  6
CONTINUOUS
 62
               4
100
AcDbLine
 10
58.0
 20
15.609999999999999
 30
0.0
 11
52.0
 21
15.609999999999999
 31
0.0
  0
LINE
  5
246
100
AcDbEntity
  8
0
  6
CONTINUOUS
 62
               4
100
AcDbLine
 10
58.0
 20
16.91
 30
0.0
 11
52.0
 21
16.91
 31
0.0
  0
LINE
  5
247
100
AcDbEntity
  8
0
  6
CONTINUOUS
 62
               4
100
AcDbLine
 10
58.0
 20
9.2899999999999991
 30
0.0
 11
52.0
 21
9.2899999999999991
 31
0.0
  0
LINE
  5
248
100
AcDbEntity
  8
0
  6
CONTINUOUS
 62
               4
100
AcDbLine
 10
58.0
 20
7.9900000000000002
 30
0.0
 11
52.0
 21
7.9900000000000002
 31
0.0
  0
LINE
  5
249
100
AcDbEntity
  8
0
  6
CONTINUOUS
 62
               4
100
AcDbLine
 10
58.0
 20
1.6699999999999999
 30
0.0
 11
52.0
 21
1.6699999999999999
 31
0.0
  0
LINE
  5
24A
100
AcDbEntity
  8
0
  6
CONTINUOUS
 62
               4
100
AcDbLine
 10
58.0
 20
0.37
 30
0.0
 11
52.0
 21
0.37
 31
0.0
  0
LINE
  5
24B
100
AcDbEntity
  8
0
  6
CONTINUOUS
 62
               4
100
AcDbLine
 10
58.0
 20
-5.9500000000000002
 30
0.0
 11
52.0
 21
-5.9500000000000002
 31
0.0
  0
LINE
  5
24C
100
AcDbEntity
  8
0
  6
CONTINUOUS
 62
               4
100
AcDbLine
 10
58.0
 20
-7.25
 30
0.0
 11
52.0
 21
-7.25
 31
0.0
  0
LINE
  5
24D
100
AcDbEntity
  8
0
  6
CONTINUOUS
 62
               4
100
AcDbLine
 10
58.0
 20
-13.57
 30
0.0
 11
52.0
 21
-13.57
 31
0.0
  0
LINE
  5
24E
100
AcDbEntity
  8
0
  6
CONTINUOUS
 62
               4
100
AcDbLine
 10
58.0
 20
-14.869999999999999
 30
0.0
 11
52.0
 21
-14.869999999999999
 31
0.0
  0
LINE
  5
24F
100
AcDbEntity
  8
0
  6
CONTINUOUS
 62
               4
100
AcDbLine
 10
58.0
 20
-22.489999999999998
 30
0.0
 11
52.0
 21
-22.489999999999998
 31
0.0
  0
LINE
  5
250
100
AcDbEntity
  8
0
  6
CONTINUOUS
 62
               4
100
AcDbLine
 10
58.0
 20
-21.190000000000001
 30
0.0
 11
52.0
 21
-21.190000000000001
 31
0.0
  0
LINE
  5
251
100
AcDbEntity
  8
0
  6
CONTINUOUS
 62
               4
100
AcDbLine
 10
66.0
 20
-26.300000000000001
 30
0.0
 11
60.0
 21
-26.300000000000001
 31
0.0
  0
LINE
  5
252
100
AcDbEntity
  8
0
  6
CONTINUOUS
 62
               4
100
AcDbLine
 10
53.600000000000001
 20
39.770000000000003
 30
0.0
 11
53.600000000000001
 21
46.090000000000003
 31
0.0
  0
LINE
  5
253
100
AcDbEntity
  8
0
  6
CONTINUOUS
 62
               4
100
AcDbLine
 10
52.600000000000001
 20
39.770000000000003
 30
0.0
 11
52.600000000000001
 21
46.090000000000003
 31
0.0
  0
LINE
  5
254
100
AcDbEntity
  8
0
  6
CONTINUOUS
 62
               4
100
AcDbLine
 10
53.600000000000001
 20
32.149999999999999
 30
0.0
 11
53.600000000000001
 21
38.469999999999999
 31
0.0
  0
LINE
  5
255
100
AcDbEntity
  8
0
  6
CONTINUOUS
 62
               4
100
AcDbLine
 10
52.600000000000001
 20
32.149999999999999
 30
0.0
 11
52.600000000000001
 21
38.469999999999999
 31
0.0
  0
LINE
  5
256
100
AcDbEntity
  8
0
  6
CONTINUOUS
 62
               4
100
AcDbLine
 10
53.600000000000001
 20
24.530000000000001
 30
0.0
 11
53.600000000000001
 21
30.850000000000001
 31
0.0
  0
LINE
  5
257
100
AcDbEntity
  8
0
  6
CONTINUOUS
 62
               4
100
AcDbLine
 10
52.600000000000001
 20
24.530000000000001
 30
0.0
 11
52.600000000000001
 21
30.850000000000001
 31
0.0
  0
LINE
  5
258
100
AcDbEntity
  8
0
  6
CONTINUOUS
 62
               4
100
AcDbLine
 10
53.600000000000001
 20
16.91
 30
0.0
 11
53.600000000000001
 21
23.23
 31
0.0
  0
LINE
  5
259
100
AcDbEntity
  8
0
  6
CONTINUOUS
 62
               4
100
AcDbLine
 10
52.600000000000001
 20
16.91
 30
0.0
 11
52.600000000000001
 21
23.23
 31
0.0
  0
LINE
  5
25A
100
AcDbEntity
  8
0
  6
CONTINUOUS
 62
               4
100
AcDbLine
 10
53.600000000000001
 20
9.2899999999999991
 30
0.0
 11
53.600000000000001
 21
15.609999999999999
 31
0.0
  0
LINE
  5
25B
100
AcDbEntity
  8
0
  6
CONTINUOUS
 62
               4
100
AcDbLine
 10
52.600000000000001
 20
9.2899999999999991
 30
0.0
 11
52.600000000000001
 21
15.609999999999999
 31
0.0
  0
LINE
  5
25C
100
AcDbEntity
  8
0
  6
CONTINUOUS
 62
               4
100
AcDbLine
 10
53.600000000000001
 20
1.6699999999999999
 30
0.0
 11
53.600000000000001
 21
7.9900000000000002
 31
0.0
  0
LINE
  5
25D
100
AcDbEntity
  8
0
  6
CONTINUOUS
 62
               4
100
AcDbLine
 10
52.600000000000001
 20
1.6699999999999999
 30
0.0
 11
52.600000000000001
 21
7.9900000000000002
 31
0.0
  0
LINE
  5
25E
100
AcDbEntity
  8
0
  6
CONTINUOUS
 62
               4
100
AcDbLine
 10
53.600000000000001
 20
-5.9500000000000002
 30
0.0
 11
53.600000000000001
 21
0.37
 31
0.0
  0
LINE
  5
25F
100
AcDbEntity
  8
0
  6
CONTINUOUS
 62
               4
100
AcDbLine
 10
52.600000000000001
 20
-5.9500000000000002
 30
0.0
 11
52.600000000000001
 21
0.37
 31
0.0
  0
LINE
  5
260
100
AcDbEntity
  8
0
  6
CONTINUOUS
 62
               4
100
AcDbLine
 10
53.600000000000001
 20
-13.57
 30
0.0
 11
53.600000000000001
 21
-7.25
 31
0.0
  0
LINE
  5
261
100
AcDbEntity
  8
0
  6
CONTINUOUS
 62
               4
100
AcDbLine
 10
52.600000000000001
 20
-13.57
 30
0.0
 11
52.600000000000001
 21
-7.25
 31
0.0
  0
LINE
  5
262
100
AcDbEntity
  8
0
  6
CONTINUOUS
 62
               4
100
AcDbLine
 10
53.600000000000001
 20
-21.190000000000001
 30
0.0
 11
53.600000000000001
 21
-14.869999999999999
 31
0.0
  0
LINE
  5
263
100
AcDbEntity
  8
0
  6
CONTINUOUS
 62
               4
100
AcDbLine
 10
52.600000000000001
 20
-21.190000000000001
 30
0.0
 11
52.600000000000001
 21
-14.869999999999999
 31
0.0
  0
LINE
  5
264
100
AcDbEntity
  8
0
  6
CONTINUOUS
 62
               4
100
AcDbLine
 10
61.600000000000001
 20
-25.0
 30
0.0
 11
61.600000000000001
 21
-18.68
 31
0.0
  0
LINE
  5
265
100
AcDbEntity
  8
0
  6
CONTINUOUS
 62
               4
100
AcDbLine
 10
60.600000000000001
 20
-25.0
 30
0.0
 11
60.600000000000001
 21
-18.68
 31
0.0
  0
LINE
  5
266
100
AcDbEntity
  8
0
  6
CONTINUOUS
 62
               4
100
AcDbLine
 10
60.600000000000001
 20
-17.379999999999999
 30
0.0
 11
60.600000000000001
 21
-11.06
 31
0.0
  0
LINE
  5
267
100
AcDbEntity
  8
0
  6
CONTINUOUS
 62
               4
100
AcDbLine
 10
66.0
 20
49.899999999999999
 30
0.0
 11
60.0
 21
49.899999999999999
 31
0.0
  0
LINE
  5
268
100
AcDbEntity
  8
0
  6
CONTINUOUS
 62
               4
100
AcDbLine
 10
66.0
 20
51.200000000000003
 30
0.0
 11
60.0
 21
51.200000000000003
 31
0.0
  0
LINE
  5
269
100
AcDbEntity
  8
0
  6
CONTINUOUS
 62
               4
100
AcDbLine
 10
66.0
 20
42.280000000000001
 30
0.0
 11
60.0
 21
42.280000000000001
 31
0.0
  0
LINE
  5
26A
100
AcDbEntity
  8
0
  6
CONTINUOUS
 62
               4
100
AcDbLine
 10
66.0
 20
43.579999999999998
 30
0.0
 11
60.0
 21
43.579999999999998
 31
0.0
  0
LINE
  5
26B
100
AcDbEntity
  8
0
  6
CONTINUOUS
 62
               4
100
AcDbLine
 10
66.0
 20
35.960000000000001
 30
0.0
 11
60.0
 21
35.960000000000001
 31
0.0
  0
LINE
  5
26C
100
AcDbEntity
  8
0
  6
CONTINUOUS
 62
               4
100
AcDbLine
 10
66.0
 20
34.659999999999997
 30
0.0
 11
60.0
 21
34.659999999999997
 31
0.0
  0
LINE
  5
26D
100
AcDbEntity
  8
0
  6
CONTINUOUS
 62
               4
100
AcDbLine
 10
66.0
 20
28.34
 30
0.0
 11
60.0
 21
28.34
 31
0.0
  0
LINE
  5
26E
100
AcDbEntity
  8
0
  6
CONTINUOUS
 62
               4
100
AcDbLine
 10
66.0
 20
27.039999999999999
 30
0.0
 11
60.0
 21
27.039999999999999
 31
0.0
  0
LINE
  5
26F
100
AcDbEntity
  8
0
  6
CONTINUOUS
 62
               4
100
AcDbLine
 10
66.0
 20
19.420000000000002
 30
0.0
 11
60.0
 21
19.420000000000002
 31
0.0
  0
LINE
  5
270
100
AcDbEntity
  8
0
  6
CONTINUOUS
 62
               4
100
AcDbLine
 10
66.0
 20
20.719999999999999
 30
0.0
 11
60.0
 21
20.719999999999999
 31
0.0
  0
LINE
  5
271
100
AcDbEntity
  8
0
  6
CONTINUOUS
 62
               4
100
AcDbLine
 10
66.0
 20
13.1
 30
0.0
 11
60.0
 21
13.1
 31
0.0
  0
LINE
  5
272
100
AcDbEntity
  8
0
  6
CONTINUOUS
 62
               4
100
AcDbLine
 10
66.0
 20
11.800000000000001
 30
0.0
 11
60.0
 21
11.800000000000001
 31
0.0
  0
LINE
  5
273
100
AcDbEntity
  8
0
  6
CONTINUOUS
 62
               4
100
AcDbLine
 10
66.0
 20
5.4800000000000004
 30
0.0
 11
60.0
 21
5.4800000000000004
 31
0.0
  0
LINE
  5
274
100
AcDbEntity
  8
0
  6
CONTINUOUS
 62
               4
100
AcDbLine
 10
66.0
 20
4.1799999999999997
 30
0.0
 11
60.0
 21
4.1799999999999997
 31
0.0
  0
LINE
  5
275
100
AcDbEntity
  8
0
  6
CONTINUOUS
 62
               4
100
AcDbLine
 10
66.0
 20
-2.1400000000000001
 30
0.0
 11
60.0
 21
-2.1400000000000001
 31
0.0
  0
LINE
  5
276
100
AcDbEntity
  8
0
  6
CONTINUOUS
 62
               4
100
AcDbLine
 10
66.0
 20
-3.4399999999999999
 30
0.0
 11
60.0
 21
-3.4399999999999999
 31
0.0
  0
LINE
  5
277
100
AcDbEntity
  8
0
  6
CONTINUOUS
 62
               4
100
AcDbLine
 10
66.0
 20
-9.7599999999999998
 30
0.0
 11
60.0
 21
-9.7599999999999998
 31
0.0
  0
LINE
  5
278
100
AcDbEntity
  8
0
  6
CONTINUOUS
 62
               4
100
AcDbLine
 10
66.0
 20
-11.06
 30
0.0
 11
60.0
 21
-11.06
 31
0.0
  0
LINE
  5
279
100
AcDbEntity
  8
0
  6
CONTINUOUS
 62
               4
100
AcDbLine
 10
66.0
 20
-18.68
 30
0.0
 11
60.0
 21
-18.68
 31
0.0
  0
LINE
  5
27A
100
AcDbEntity
  8
0
  6
CONTINUOUS
 62
               4
100
AcDbLine
 10
66.0
 20
-17.379999999999999
 30
0.0
 11
60.0
 21
-17.379999999999999
 31
0.0
  0
LINE
  5
27B
100
AcDbEntity
  8
0
  6
CONTINUOUS
 62
               4
100
AcDbLine
 10
66.0
 20
-25.0
 30
0.0
 11
60.0
 21
-25.0
 31
0.0
  0
LINE
  5
27C
100
AcDbEntity
  8
0
  6
CONTINUOUS
 62
               4
100
AcDbLine
 10
61.600000000000001
 20
-17.379999999999999
 30
0.0
 11
61.600000000000001
 21
-11.06
 31
0.0
  0
LINE
  5
27D
100
AcDbEntity
  8
0
  6
CONTINUOUS
 62
               4
100
AcDbLine
 10
52.600000000000001
 20
47.390000000000001
 30
0.0
 11
52.600000000000001
 21
53.609999999999999
 31
0.0
  0
LINE
  5
27E
100
AcDbEntity
  8
0
  6
CONTINUOUS
 62
               4
100
AcDbLine
 10
61.600000000000001
 20
35.960000000000001
 30
0.0
 11
61.600000000000001
 21
42.280000000000001
 31
0.0
  0
LINE
  5
27F
100
AcDbEntity
  8
0
  6
CONTINUOUS
 62
               4
100
AcDbLine
 10
60.600000000000001
 20
35.960000000000001
 30
0.0
 11
60.600000000000001
 21
42.280000000000001
 31
0.0
  0
LINE
  5
280
100
AcDbEntity
  8
0
  6
CONTINUOUS
 62
               4
100
AcDbLine
 10
61.600000000000001
 20
28.34
 30
0.0
 11
61.600000000000001
 21
34.659999999999997
 31
0.0
  0
LINE
  5
281
100
AcDbEntity
  8
0
  6
CONTINUOUS
 62
               4
100
AcDbLine
 10
60.600000000000001
 20
28.34
 30
0.0
 11
60.600000000000001
 21
34.659999999999997
 31
0.0
  0
LINE
  5
282
100
AcDbEntity
  8
0
  6
CONTINUOUS
 62
               4
100
AcDbLine
 10
61.600000000000001
 20
20.719999999999999
 30
0.0
 11
61.600000000000001
 21
27.039999999999999
 31
0.0
  0
LINE
  5
283
100
AcDbEntity
  8
0
  6
CONTINUOUS
 62
               4
100
AcDbLine
 10
60.600000000000001
 20
20.719999999999999
 30
0.0
 11
60.600000000000001
 21
27.039999999999999
 31
0.0
  0
LINE
  5
284
100
AcDbEntity
  8
0
  6
CONTINUOUS
 62
               4
100
AcDbLine
 10
61.600000000000001
 20
13.1
 30
0.0
 11
61.600000000000001
 21
19.420000000000002
 31
0.0
  0
LINE
  5
285
100
AcDbEntity
  8
0
  6
CONTINUOUS
 62
               4
100
AcDbLine
 10
60.600000000000001
 20
13.1
 30
0.0
 11
60.600000000000001
 21
19.420000000000002
 31
0.0
  0
LINE
  5
286
100
AcDbEntity
  8
0
  6
CONTINUOUS
 62
               4
100
AcDbLine
 10
61.600000000000001
 20
5.4800000000000004
 30
0.0
 11
61.600000000000001
 21
11.800000000000001
 31
0.0
  0
LINE
  5
287
100
AcDbEntity
  8
0
  6
CONTINUOUS
 62
               4
100
AcDbLine
 10
60.600000000000001
 20
5.4800000000000004
 30
0.0
 11
60.600000000000001
 21
11.800000000000001
 31
0.0
  0
LINE
  5
288
100
AcDbEntity
  8
0
  6
CONTINUOUS
 62
               4
100
AcDbLine
 10
61.600000000000001
 20
-2.1400000000000001
 30
0.0
 11
61.600000000000001
 21
4.1799999999999997
 31
0.0
  0
LINE
  5
289
100
AcDbEntity
  8
0
  6
CONTINUOUS
 62
               4
100
AcDbLine
 10
60.600000000000001
 20
-2.1400000000000001
 30
0.0
 11
60.600000000000001
 21
4.1799999999999997
 31
0.0
  0
LINE
  5
28A
100
AcDbEntity
  8
0
  6
CONTINUOUS
 62
               4
100
AcDbLine
 10
61.600000000000001
 20
-9.7599999999999998
 30
0.0
 11
61.600000000000001
 21
-3.4399999999999999
 31
0.0
  0
LINE
  5
28B
100
AcDbEntity
  8
0
  6
CONTINUOUS
 62
               4
100
AcDbLine
 10
60.600000000000001
 20
-9.7599999999999998
 30
0.0
 11
60.600000000000001
 21
-3.4399999999999999
 31
0.0
  0
LINE
  5
28C
100
AcDbEntity
  8
0
  6
CONTINUOUS
 62
               4
100
AcDbLine
 10
61.600000000000001
 20
43.579999999999998
 30
0.0
 11
61.600000000000001
 21
49.899999999999999
 31
0.0
  0
LINE
  5
28D
100
AcDbEntity
  8
0
  6
CONTINUOUS
 62
               4
100
AcDbLine
 10
60.600000000000001
 20
43.579999999999998
 30
0.0
 11
60.600000000000001
 21
49.899999999999999
 31
0.0
  0
LINE
  5
28E
100
AcDbEntity
  8
0
  6
CONTINUOUS
 62
               4
100
AcDbLine
 10
62.770000000000003
 20
43.939999999999998
 30
0.0
 11
61.600000000000001
 21
43.939999999999998
 31
0.0
  0
LINE
  5
28F
100
AcDbEntity
  8
0
  6
CONTINUOUS
 62
               4
100
AcDbLine
 10
62.770000000000003
 20
49.539999999999999
 30
0.0
 11
61.600000000000001
 21
49.539999999999999
 31
0.0
  0
LINE
  5
290
100
AcDbEntity
  8
0
  6
CONTINUOUS
 62
               4
100
AcDbLine
 10
54.469999999999999
 20
47.75
 30
0.0
 11
53.299999999999997
 21
47.75
 31
0.0
  0
LINE
  5
291
100
AcDbEntity
  8
0
  6
CONTINUOUS
 62
               4
100
AcDbLine
 10
54.469999999999999
 20
53.350000000000001
 30
0.0
 11
53.299999999999997
 21
53.350000000000001
 31
0.0
  0
LINE
  5
292
100
AcDbEntity
  8
0
  6
CONTINUOUS
 62
               4
100
AcDbLine
 10
62.770000000000003
 20
36.32
 30
0.0
 11
61.600000000000001
 21
36.32
 31
0.0
  0
LINE
  5
293
100
AcDbEntity
  8
0
  6
CONTINUOUS
 62
               4
100
AcDbLine
 10
62.770000000000003
 20
41.920000000000002
 30
0.0
 11
61.600000000000001
 21
41.920000000000002
 31
0.0
  0
LINE
  5
294
100
AcDbEntity
  8
0
  6
CONTINUOUS
 62
               4
100
AcDbLine
 10
54.770000000000003
 20
40.130000000000003
 30
0.0
 11
53.600000000000001
 21
40.130000000000003
 31
0.0
  0
LINE
  5
295
100
AcDbEntity
  8
0
  6
CONTINUOUS
 62
               4
100
AcDbLine
 10
54.770000000000003
 20
45.729999999999997
 30
0.0
 11
53.600000000000001
 21
45.729999999999997
 31
0.0
  0
LINE
  5
296
100
AcDbEntity
  8
0
  6
CONTINUOUS
 62
               4
100
AcDbLine
 10
62.770000000000003
 20
28.699999999999999
 30
0.0
 11
61.600000000000001
 21
28.699999999999999
 31
0.0
  0
LINE
  5
297
100
AcDbEntity
  8
0
  6
CONTINUOUS
 62
               4
100
AcDbLine
 10
62.770000000000003
 20
34.299999999999997
 30
0.0
 11
61.600000000000001
 21
34.299999999999997
 31
0.0
  0
LINE
  5
298
100
AcDbEntity
  8
0
  6
CONTINUOUS
 62
               4
100
AcDbLine
 10
54.770000000000003
 20
32.509999999999998
 30
0.0
 11
53.600000000000001
 21
32.509999999999998
 31
0.0
  0
LINE
  5
299
100
AcDbEntity
  8
0
  6
CONTINUOUS
 62
               4
100
AcDbLine
 10
54.770000000000003
 20
38.109999999999999
 30
0.0
 11
53.600000000000001
 21
38.109999999999999
 31
0.0
  0
LINE
  5
29A
100
AcDbEntity
  8
0
  6
CONTINUOUS
 62
               4
100
AcDbLine
 10
54.770000000000003
 20
24.890000000000001
 30
0.0
 11
53.600000000000001
 21
24.890000000000001
 31
0.0
  0
LINE
  5
29B
100
AcDbEntity
  8
0
  6
CONTINUOUS
 62
               4
100
AcDbLine
 10
54.770000000000003
 20
30.489999999999998
 30
0.0
 11
53.600000000000001
 21
30.489999999999998
 31
0.0
  0
LINE
  5
29C
100
AcDbEntity
  8
0
  6
CONTINUOUS
 62
               4
100
AcDbLine
 10
62.770000000000003
 20
21.079999999999998
 30
0.0
 11
61.600000000000001
 21
21.079999999999998
 31
0.0
  0
LINE
  5
29D
100
AcDbEntity
  8
0
  6
CONTINUOUS
 62
               4
100
AcDbLine
 10
62.770000000000003
 20
26.68
 30
0.0
 11
61.600000000000001
 21
26.68
 31
0.0
  0
LINE
  5
29E
100
AcDbEntity
  8
0
  6
CONTINUOUS
 62
               4
100
AcDbLine
 10
62.770000000000003
 20
13.460000000000001
 30
0.0
 11
61.600000000000001
 21
13.460000000000001
 31
0.0
  0
LINE
  5
29F
100
AcDbEntity
  8
0
  6
CONTINUOUS
 62
               4
100
AcDbLine
 10
62.770000000000003
 20
19.059999999999999
 30
0.0
 11
61.600000000000001
 21
19.059999999999999
 31
0.0
  0
LINE
  5
2A0
100
AcDbEntity
  8
0
  6
CONTINUOUS
 62
               4
100
AcDbLine
 10
54.770000000000003
 20
17.27
 30
0.0
 11
53.600000000000001
 21
17.27
 31
0.0
  0
LINE
  5
2A1
100
AcDbEntity
  8
0
  6
CONTINUOUS
 62
               4
100
AcDbLine
 10
54.770000000000003
 20
22.870000000000001
 30
0.0
 11
53.600000000000001
 21
22.870000000000001
 31
0.0
  0
LINE
  5
2A2
100
AcDbEntity
  8
0
  6
CONTINUOUS
 62
               4
100
AcDbLine
 10
54.770000000000003
 20
9.6500000000000004
 30
0.0
 11
53.600000000000001
 21
9.6500000000000004
 31
0.0
  0
LINE
  5
2A3
100
AcDbEntity
  8
0
  6
CONTINUOUS
 62
               4
100
AcDbLine
 10
54.770000000000003
 20
15.25
 30
0.0
 11
53.600000000000001
 21
15.25
 31
0.0
  0
LINE
  5
2A4
100
AcDbEntity
  8
0
  6
CONTINUOUS
 62
               4
100
AcDbLine
 10
62.770000000000003
 20
5.8399999999999999
 30
0.0
 11
61.600000000000001
 21
5.8399999999999999
 31
0.0
  0
LINE
  5
2A5
100
AcDbEntity
  8
0
  6
CONTINUOUS
 62
               4
100
AcDbLine
 10
62.770000000000003
 20
11.44
 30
0.0
 11
61.600000000000001
 21
11.44
 31
0.0
  0
LINE
  5
2A6
100
AcDbEntity
  8
0
  6
CONTINUOUS
 62
               4
100
AcDbLine
 10
62.770000000000003
 20
-1.78
 30
0.0
 11
61.600000000000001
 21
-1.78
 31
0.0
  0
LINE
  5
2A7
100
AcDbEntity
  8
0
  6
CONTINUOUS
 62
               4
100
AcDbLine
 10
62.770000000000003
 20
3.8199999999999998
 30
0.0
 11
61.600000000000001
 21
3.8199999999999998
 31
0.0
  0
LINE
  5
2A8
100
AcDbEntity
  8
0
  6
CONTINUOUS
 62
               4
100
AcDbLine
 10
54.770000000000003
 20
2.0299999999999998
 30
0.0
 11
53.600000000000001
 21
2.0299999999999998
 31
0.0
  0
LINE
  5
2A9
100
AcDbEntity
  8
0
  6
CONTINUOUS
 62
               4
100
AcDbLine
 10
54.770000000000003
 20
7.6299999999999999
 30
0.0
 11
53.600000000000001
 21
7.6299999999999999
 31
0.0
  0
LINE
  5
2AA
100
AcDbEntity
  8
0
  6
CONTINUOUS
 62
               4
100
AcDbLine
 10
54.770000000000003
 20
-5.5899999999999999
 30
0.0
 11
53.600000000000001
 21
-5.5899999999999999
 31
0.0
  0
LINE
  5
2AB
100
AcDbEntity
  8
0
  6
CONTINUOUS
 62
               4
100
AcDbLine
 10
54.770000000000003
 20
0.01
 30
0.0
 11
53.600000000000001
 21
0.01
 31
0.0
  0
LINE
  5
2AC
100
AcDbEntity
  8
0
  6
CONTINUOUS
 62
               4
100
AcDbLine
 10
62.770000000000003
 20
-9.4000000000000004
 30
0.0
 11
61.600000000000001
 21
-9.4000000000000004
 31
0.0
  0
LINE
  5
2AD
100
AcDbEntity
  8
0
  6
CONTINUOUS
 62
               4
100
AcDbLine
 10
62.770000000000003
 20
-3.7999999999999998
 30
0.0
 11
61.600000000000001
 21
-3.7999999999999998
 31
0.0
  0
LINE
  5
2AE
100
AcDbEntity
  8
0
  6
CONTINUOUS
 62
               4
100
AcDbLine
 10
54.770000000000003
 20
-13.210000000000001
 30
0.0
 11
53.600000000000001
 21
-13.210000000000001
 31
0.0
  0
LINE
  5
2AF
100
AcDbEntity
  8
0
  6
CONTINUOUS
 62
               4
100
AcDbLine
 10
54.770000000000003
 20
-7.6100000000000003
 30
0.0
 11
53.600000000000001
 21
-7.6100000000000003
 31
0.0
  0
LINE
  5
2B0
100
AcDbEntity
  8
0
  6
CONTINUOUS
 62
               4
100
AcDbLine
 10
62.770000000000003
 20
-17.02
 30
0.0
 11
61.600000000000001
 21
-17.02
 31
0.0
  0
LINE
  5
2B1
100
AcDbEntity
  8
0
  6
CONTINUOUS
 62
               4
100
AcDbLine
 10
62.770000000000003
 20
-11.42
 30
0.0
 11
61.600000000000001
 21
-11.42
 31
0.0
  0
LINE
  5
2B2
100
AcDbEntity
  8
0
  6
CONTINUOUS
 62
               4
100
AcDbLine
 10
54.770000000000003
 20
-20.829999999999998
 30
0.0
 11
53.600000000000001
 21
-20.829999999999998
 31
0.0
  0
LINE
  5
2B3
100
AcDbEntity
  8
0
  6
CONTINUOUS
 62
               4
100
AcDbLine
 10
54.770000000000003
 20
-15.23
 30
0.0
 11
53.600000000000001
 21
-15.23
 31
0.0
  0
LINE
  5
2B4
100
AcDbEntity
  8
0
  6
CONTINUOUS
 62
               4
100
AcDbLine
 10
62.770000000000003
 20
-24.640000000000001
 30
0.0
 11
61.600000000000001
 21
-24.640000000000001
 31
0.0
  0
LINE
  5
2B5
100
AcDbEntity
  8
0
  6
CONTINUOUS
 62
               4
100
AcDbLine
 10
62.770000000000003
 20
-19.039999999999999
 30
0.0
 11
61.600000000000001
 21
-19.039999999999999
 31
0.0
  0
LINE
  5
2B6
100
AcDbEntity
  8
0
  6
CONTINUOUS
 62
               4
100
AcDbLine
 10
54.469999999999999
 20
-28.449999999999999
 30
0.0
 11
53.299999999999997
 21
-28.449999999999999
 31
0.0
  0
LINE
  5
2B7
100
AcDbEntity
  8
0
  6
CONTINUOUS
 62
               4
100
AcDbLine
 10
54.469999999999999
 20
-22.850000000000001
 30
0.0
 11
53.299999999999997
 21
-22.850000000000001
 31
0.0
  0
LINE
  5
2B8
100
AcDbEntity
  8
0
  6
CONTINUOUS
 62
               4
100
AcDbLine
 10
53.299999999999997
 20
-28.600000000000001
 30
0.0
 11
52.600000000000001
 21
-28.600000000000001
 31
0.0
  0
LINE
  5
2B9
100
AcDbEntity
  8
0
  6
CONTINUOUS
 62
               4
100
AcDbLine
 10
53.299999999999997
 20
-28.600000000000001
 30
0.0
 11
53.299999999999997
 21
-22.699999999999999
 31
0.0
  0
LINE
  5
2BA
100
AcDbEntity
  8
0
  6
CONTINUOUS
 62
               4
100
AcDbLine
 10
53.299999999999997
 20
-22.699999999999999
 30
0.0
 11
52.600000000000001
 21
-22.699999999999999
 31
0.0
  0
LINE
  5
2BB
100
AcDbEntity
  8
0
  6
CONTINUOUS
 62
               4
100
AcDbLine
 10
53.299999999999997
 20
47.600000000000001
 30
0.0
 11
52.600000000000001
 21
47.600000000000001
 31
0.0
  0
LINE
  5
2BC
100
AcDbEntity
  8
0
  6
CONTINUOUS
 62
               4
100
AcDbLine
 10
53.299999999999997
 20
47.600000000000001
 30
0.0
 11
53.299999999999997
 21
53.5
 31
0.0
  0
LINE
  5
2BD
100
AcDbEntity
  8
0
  6
CONTINUOUS
 62
               4
100
AcDbLine
 10
53.299999999999997
 20
53.5
 30
0.0
 11
52.600000000000001
 21
53.5
 31
0.0
  0
LINE
  5
2BE
100
AcDbEntity
  8
0
  6
CONTINUOUS
 62
               4
100
AcDbLine
 10
69.0
 20
53.609999999999999
 30
0.0
 11
69.0
 21
54.549999999999997
 31
0.0
  0
LINE
  5
2BF
100
AcDbEntity
  8
0
  6
CONTINUOUS
 62
               4
100
AcDbLine
 10
67.299999999999997
 20
-28.710000000000001
 30
0.0
 11
67.299999999999997
 21
53.609999999999999
 31
0.0
  0
LINE
  5
2C0
100
AcDbEntity
  8
0
  6
CONTINUOUS
 62
               4
100
AcDbLine
 10
69.0
 20
54.549999999999997
 30
0.0
 11
52.799999999999997
 21
54.549999999999997
 31
0.0
  0
LINE
  5
2C1
100
AcDbEntity
  8
0
  6
CONTINUOUS
 62
               4
100
AcDbLine
 10
67.299999999999997
 20
55.049999999999997
 30
0.0
 11
67.299999999999997
 21
54.549999999999997
 31
0.0
  0
LINE
  5
2C2
100
AcDbEntity
  8
0
  6
CONTINUOUS
 62
               4
100
AcDbLine
 10
67.299999999999997
 20
55.049999999999997
 30
0.0
 11
66.0
 21
55.049999999999997
 31
0.0
  0
LINE
  5
2C3
100
AcDbEntity
  8
0
  6
CONTINUOUS
 62
               4
100
AcDbLine
 10
66.0
 20
55.049999999999997
 30
0.0
 11
66.0
 21
54.549999999999997
 31
0.0
  0
LINE
  5
2C4
100
AcDbEntity
  8
0
  6
CONTINUOUS
 62
               4
100
AcDbLine
 10
69.0
 20
-28.710000000000001
 30
0.0
 11
69.0
 21
-29.649999999999999
 31
0.0
  0
LINE
  5
2C5
100
AcDbEntity
  8
0
  6
CONTINUOUS
 62
               4
100
AcDbLine
 10
69.0
 20
-29.649999999999999
 30
0.0
 11
52.799999999999997
 21
-29.649999999999999
 31
0.0
  0
LINE
  5
2C6
100
AcDbEntity
  8
0
  6
CONTINUOUS
 62
               4
100
AcDbLine
 10
67.299999999999997
 20
-30.149999999999999
 30
0.0
 11
67.299999999999997
 21
-29.649999999999999
 31
0.0
  0
LINE
  5
2C7
100
AcDbEntity
  8
0
  6
CONTINUOUS
 62
               4
100
AcDbLine
 10
67.299999999999997
 20
-30.149999999999999
 30
0.0
 11
66.0
 21
-30.149999999999999
 31
0.0
  0
LINE
  5
2C8
100
AcDbEntity
  8
0
  6
CONTINUOUS
 62
               4
100
AcDbLine
 10
66.0
 20
-30.149999999999999
 30
0.0
 11
66.0
 21
-29.649999999999999
 31
0.0
  0
LINE
  5
2C9
100
AcDbEntity
  8
0
  6
CONTINUOUS
 62
               4
100
AcDbLine
 10
52.0
 20
53.609999999999999
 30
0.0
 11
45.0
 21
53.609999999999999
 31
0.0
  0
LINE
  5
2CA
100
AcDbEntity
  8
0
  6
CONTINUOUS
 62
               4
100
AcDbLine
 10
52.0
 20
-28.710000000000001
 30
0.0
 11
45.0
 21
-28.710000000000001
 31
0.0
  0
LINE
  5
2CB
100
AcDbEntity
  8
0
  6
CONTINUOUS
 62
               4
100
AcDbLine
 10
35.0
 20
-30.5
 30
0.0
 11
45.0
 21
-30.5
 31
0.0
  0
LINE
  5
2CC
100
AcDbEntity
  8
0
  6
CONTINUOUS
 62
               4
100
AcDbLine
 10
45.0
 20
62.5
 30
0.0
 11
45.0
 21
-30.5
 31
0.0
  0
LINE
  5
2CD
100
AcDbEntity
  8
0
  6
CONTINUOUS
 62
               4
100
AcDbLine
 10
45.0
 20
62.5
 30
0.0
 11
35.0
 21
62.5
 31
0.0
  0
ARC
  5
2CE
100
AcDbEntity
  8
0
  6
CONTINUOUS
 62
               4
100
AcDbCircle
 10
58.999997828074115
 20
-21.835000000000001
 30
0.0
 40
4.9998743879981555
100
AcDbArc
 50
330.4612300110619
 51
29.538769988937283
  0
ARC
  5
2CF
100
AcDbEntity
  8
0
  6
CONTINUOUS
 62
               4
100
AcDbCircle
 10
52.7999984741924
 20
-28.850001525807603
 30
0.0
 40
0.7999984741938525
100
AcDbArc
 50
179.99989072187131
 51
270.00010927812747
  0
ARC
  5
2D0
100
AcDbEntity
  8
0
  6
CONTINUOUS
 62
               4
100
AcDbCircle
 10
52.799978637747699
 20
53.750021362252298
 30
0.0
 40
0.7999786380329217
100
AcDbArc
 50
89.998470000522929
 51
180.00152999947645
  0
ARC
  5
2D1
100
AcDbEntity
  8
0
  6
CONTINUOUS
 62
               4
100
AcDbCircle
 10
62.773909629329175
 20
-19.707825499966901
 30
0.0
 40
0.667836943877423
100
AcDbArc
 50
30.387811617736197
 51
90.335421005960242
  0
ARC
  5
2D2
100
AcDbEntity
  8
0
  6
CONTINUOUS
 62
               4
100
AcDbCircle
 10
62.769613147188622
 20
-23.97463419226294
 30
0.0
 40
0.6653659201978165
100
AcDbArc
 50
270.03331254872018
 51
330.72493947401523
  0
ARC
  5
2D3
100
AcDbEntity
  8
0
  6
CONTINUOUS
 62
               4
100
AcDbCircle
 10
54.773908581796725
 20
-15.89782734108455
 30
0.0
 40
0.6678387788319298
100
AcDbArc
 50
30.387902411664662
 51
90.335330212032503
  0
ARC
  5
2D4
100
AcDbEntity
  8
0
  6
CONTINUOUS
 62
               4
100
AcDbCircle
 10
50.700010037224295
 20
-25.645
 30
0.0
 40
4.9998637657689597
100
AcDbArc
 50
330.4611610335179
 51
29.53883896648134
  0
ARC
  5
2D5
100
AcDbEntity
  8
0
  6
CONTINUOUS
 62
               4
100
AcDbCircle
 10
54.473899627644172
 20
-23.517843078685996
 30
0.0
 40
0.6678544638201874
100
AcDbArc
 50
30.388678484379152
 51
90.334554139317802
  0
ARC
  5
2D6
100
AcDbEntity
  8
0
  6
CONTINUOUS
 62
               4
100
AcDbCircle
 10
54.469607423780651
 20
-27.784624428802299
 30
0.0
 40
0.6653756870090439
100
AcDbArc
 50
270.0338049048824
 51
330.72444711785369
  0
ARC
  5
2D7
100
AcDbEntity
  8
0
  6
CONTINUOUS
 62
               4
100
AcDbCircle
 10
58.999997820107161
 20
46.734999999999999
 30
0.0
 40
4.9998743949295816
100
AcDbArc
 50
330.46123005607245
 51
29.538769943926837
  0
ARC
  5
2D8
100
AcDbEntity
  8
0
  6
CONTINUOUS
 62
               4
100
AcDbCircle
 10
62.773899153962248
 20
44.60784391121787
 30
0.0
 40
0.6678552935721944
100
AcDbArc
 50
269.66548691454199
 51
329.6112804617598
  0
ARC
  5
2D9
100
AcDbEntity
  8
0
  6
CONTINUOUS
 62
               4
100
AcDbCircle
 10
62.769617149327388
 20
48.874641019440837
 30
0.0
 40
0.6653590907061882
100
AcDbArc
 50
29.274716233414612
 51
89.967031743848423
  0
ARC
  5
2DA
100
AcDbEntity
  8
0
  6
CONTINUOUS
 62
               4
100
AcDbCircle
 10
50.700010002612295
 20
50.545000000000002
 30
0.0
 40
4.9998637958821472
100
AcDbArc
 50
330.46116122906426
 51
29.538838770934884
  0
ARC
  5
2DB
100
AcDbEntity
  8
0
  6
CONTINUOUS
 62
               4
100
AcDbCircle
 10
54.473882605245521
 20
48.417872996841204
 30
0.0
 40
0.6678842822923328
100
AcDbArc
 50
269.66692112246773
 51
329.60984625383338
  0
ARC
  5
2DC
100
AcDbEntity
  8
0
  6
CONTINUOUS
 62
               4
100
AcDbCircle
 10
54.46963143613911
 20
52.68466539106084
 30
0.0
 40
0.6653347110226124
100
AcDbArc
 50
29.273487122147703
 51
89.968260855115091
  0
ARC
  5
2DD
100
AcDbEntity
  8
0
  6
CONTINUOUS
 62
               4
100
AcDbCircle
 10
58.999997815852154
 20
39.114999999999995
 30
0.0
 40
4.9998743986315306
100
AcDbArc
 50
330.4612300801117
 51
29.538769919887542
  0
ARC
  5
2DE
100
AcDbEntity
  8
0
  6
CONTINUOUS
 62
               4
100
AcDbCircle
 10
62.773897058877566
 20
36.987847593487921
 30
0.0
 40
0.6678589635510673
100
AcDbArc
 50
269.66566849363466
 51
329.61109888266645
  0
ARC
  5
2DF
100
AcDbEntity
  8
0
  6
CONTINUOUS
 62
               4
100
AcDbCircle
 10
62.769619283795691
 20
41.254644660592646
 30
0.0
 40
0.6653554483302144
100
AcDbArc
 50
29.27453260831161
 51
89.967215368951273
  0
ARC
  5
2E0
100
AcDbEntity
  8
0
  6
CONTINUOUS
 62
               4
100
AcDbCircle
 10
50.99999781798018
 20
42.924999999999997
 30
0.0
 40
4.9998743967801049
100
AcDbArc
 50
330.46123006808915
 51
29.538769931910142
  0
ARC
  5
2E1
100
AcDbEntity
  8
0
  6
CONTINUOUS
 62
               4
100
AcDbCircle
 10
54.773898106420376
 20
40.797845752352067
 30
0.0
 40
0.6678571285599658
100
AcDbArc
 50
269.66557770429711
 51
329.61118967200457
  0
ARC
  5
2E2
100
AcDbEntity
  8
0
  6
CONTINUOUS
 62
               4
100
AcDbCircle
 10
54.769618216562037
 20
45.064642840017591
 30
0.0
 40
0.6653572695164987
100
AcDbArc
 50
29.274624421071579
 51
89.967123556191325
  0
ARC
  5
2E3
100
AcDbEntity
  8
0
  6
CONTINUOUS
 62
               4
100
AcDbCircle
 10
58.999997798256409
 20
31.495000000000001
 30
0.0
 40
4.9998744139402245
100
AcDbArc
 50
330.46123017952146
 51
29.538769820477754
  0
ARC
  5
2E4
100
AcDbEntity
  8
0
  6
CONTINUOUS
 62
               4
100
AcDbCircle
 10
62.773888416613417
 20
29.367862782921879
 30
0.0
 40
0.6678741023545651
100
AcDbArc
 50
269.6664174897507
 51
329.61034988655058
  0
ARC
  5
2E5
100
AcDbEntity
  8
0
  6
CONTINUOUS
 62
               4
100
AcDbCircle
 10
62.76962141826003
 20
33.634648301737684
 30
0.0
 40
0.6653518059678469
100
AcDbArc
 50
29.274348981540374
 51
89.967398995723485
  0
ARC
  5
2E6
100
AcDbEntity
  8
0
  6
CONTINUOUS
 62
               4
100
AcDbCircle
 10
50.999997813723098
 20
35.305000000000007
 30
0.0
 40
4.9998744004838596
100
AcDbArc
 50
330.46123009214017
 51
29.538769907859042
  0
ARC
  5
2E7
100
AcDbEntity
  8
0
  6
CONTINUOUS
 62
               4
100
AcDbCircle
 10
54.773896011333804
 20
33.177849434625429
 30
0.0
 40
0.6678607985454935
100
AcDbArc
 50
269.66575928255583
 51
329.61100809374659
  0
ARC
  5
2E8
100
AcDbEntity
  8
0
  6
CONTINUOUS
 62
               4
100
AcDbCircle
 10
54.769620351028358
 20
37.444646481166011
 30
0.0
 40
0.6653536271473306
100
AcDbArc
 50
29.274440795134996
 51
89.967307182128849
  0
ARC
  5
2E9
100
AcDbEntity
  8
0
  6
CONTINUOUS
 62
               4
100
AcDbCircle
 10
50.999997809461874
 20
27.684999999999999
 30
0.0
 40
4.9998744041912229
100
AcDbArc
 50
330.46123011621455
 51
29.538769883784685
  0
ARC
  5
2EA
100
AcDbEntity
  8
0
  6
CONTINUOUS
 62
               4
100
AcDbCircle
 10
54.773893916243473
 20
25.55785311690542
 30
0.0
 40
0.6678644685443254
100
AcDbArc
 50
269.66594085914471
 51
329.61082651715623
  0
ARC
  5
2EB
100
AcDbEntity
  8
0
  6
CONTINUOUS
 62
               4
100
AcDbCircle
 10
54.769622485490707
 20
29.82465012230767
 30
0.0
 40
0.6653499847917672
100
AcDbArc
 50
29.274257167528006
 51
89.967490809735153
  0
ARC
  5
2EC
100
AcDbEntity
  8
0
  6
CONTINUOUS
 62
               4
100
AcDbCircle
 10
58.999997807329699
 20
23.875
 30
0.0
 40
4.9998744060462581
100
AcDbArc
 50
330.46123012826058
 51
29.538769871738626
  0
ARC
  5
2ED
100
AcDbEntity
  8
0
  6
CONTINUOUS
 62
               4
100
AcDbCircle
 10
62.77389286869689
 20
21.747854958047892
 30
0.0
 40
0.6678663035487318
100
AcDbArc
 50
269.66603164681368
 51
329.61073572948783
  0
ARC
  5
2EE
100
AcDbEntity
  8
0
  6
CONTINUOUS
 62
               4
100
AcDbCircle
 10
62.769630222883443
 20
26.014663321389392
 30
0.0
 40
0.665336781366932
100
AcDbArc
 50
29.27359150346496
 51
89.968156473798501
  0
ARC
  5
2EF
100
AcDbEntity
  8
0
  6
CONTINUOUS
 62
               4
100
AcDbCircle
 10
58.99999780306225
 20
16.254999999999999
 30
0.0
 40
4.9998744097590357
100
AcDbArc
 50
330.46123015237021
 51
29.538769847629055
  0
ARC
  5
2F0
100
AcDbEntity
  8
0
  6
CONTINUOUS
 62
               4
100
AcDbCircle
 10
62.773897320763353
 20
14.127847133203804
 30
0.0
 40
0.6678585048029802
100
AcDbArc
 50
269.66564579633967
 51
329.61112157996183
  0
ARC
  5
2F1
100
AcDbEntity
  8
0
  6
CONTINUOUS
 62
               4
100
AcDbCircle
 10
62.769625687176784
 20
18.394655584007452
 30
0.0
 40
0.66534452128394
100
AcDbArc
 50
29.273981722989266
 51
89.967766254273613
  0
ARC
  5
2F2
100
AcDbEntity
  8
0
  6
CONTINUOUS
 62
               4
100
AcDbCircle
 10
50.999997818512021
 20
20.065000000000001
 30
0.0
 40
4.9998743963173897
100
AcDbArc
 50
330.46123006508441
 51
29.538769934914825
  0
ARC
  5
2F3
100
AcDbEntity
  8
0
  6
CONTINUOUS
 62
               4
100
AcDbCircle
 10
54.773898368305929
 20
17.937845292068364
 30
0.0
 40
0.667856669812712
100
AcDbArc
 50
269.6655550068977
 51
329.61121236940437
  0
ARC
  5
2F4
100
AcDbEntity
  8
0
  6
CONTINUOUS
 62
               4
100
AcDbCircle
 10
54.769624619949084
 20
22.20465376344255
 30
0.0
 40
0.6653463424498154
100
AcDbArc
 50
29.274073538252988
 51
89.96767443901021
  0
ARC
  5
2F5
100
AcDbEntity
  8
0
  6
CONTINUOUS
 62
               4
100
AcDbCircle
 10
50.999997814255458
 20
12.445
 30
0.0
 40
4.9998744000206923
100
AcDbArc
 50
330.46123008913247
 51
29.538769910866726
  0
ARC
  5
2F6
100
AcDbEntity
  8
0
  6
CONTINUOUS
 62
               4
100
AcDbCircle
 10
54.773888769735713
 20
10.317862162282688
 30
0.0
 40
0.6678734837818935
100
AcDbArc
 50
269.66638688648828
 51
329.61038048981328
  0
ARC
  5
2F7
100
AcDbEntity
  8
0
  6
CONTINUOUS
 62
               4
100
AcDbCircle
 10
54.76962675440349
 20
14.58465740457066
 30
0.0
 40
0.6653427001214691
100
AcDbArc
 50
29.273889907308586
 51
89.967858069954076
  0
ARC
  5
2F8
100
AcDbEntity
  8
0
  6
CONTINUOUS
 62
               4
100
AcDbCircle
 10
58.999997812125628
 20
8.6349999999999998
 30
0.0
 40
4.9998744018736971
100
AcDbArc
 50
330.46123010116526
 51
29.538769898833952
  0
ARC
  5
2F9
100
AcDbEntity
  8
0
  6
CONTINUOUS
 62
               4
100
AcDbCircle
 10
62.773887722211846
 20
6.5078640033852473
 30
0.0
 40
0.6678753187547555
100
AcDbArc
 50
269.66647766973762
 51
329.61028970656355
  0
ARC
  5
2FA
100
AcDbEntity
  8
0
  6
CONTINUOUS
 62
               4
100
AcDbCircle
 10
62.769621151452199
 20
10.774647846594927
 30
0.0
 40
0.6653522612623994
100
AcDbArc
 50
29.274371934977545
 51
89.967376042285181
  0
ARC
  5
2FB
100
AcDbEntity
  8
0
  6
CONTINUOUS
 62
               4
100
AcDbCircle
 10
58.999999999966775
 20
1.02
 30
0.0
 40
4.9974093288712149
100
AcDbArc
 50
330.51109218791419
 51
29.488907812084999
  0
ARC
  5
2FC
100
AcDbEntity
  8
0
  6
CONTINUOUS
 62
               4
100
AcDbCircle
 10
62.769606210115036
 20
-1.1146223584315273
 30
0.0
 40
0.6653777580966291
100
AcDbArc
 50
270.03390930860814
 51
330.7243427141272
  0
ARC
  5
2FD
100
AcDbEntity
  8
0
  6
CONTINUOUS
 62
               4
100
AcDbCircle
 10
62.769615525317569
 20
3.1546382490711391
 30
0.0
 40
0.6653618620118685
100
AcDbArc
 50
29.27485594319413
 51
89.96689203406919
  0
ARC
  5
2FE
100
AcDbEntity
  8
0
  6
CONTINUOUS
 62
               4
100
AcDbCircle
 10
50.999997809994753
 20
4.8250000000000002
 30
0.0
 40
4.9998744037276044
100
AcDbArc
 50
330.46123011320395
 51
29.538769886795272
  0
ARC
  5
2FF
100
AcDbEntity
  8
0
  6
CONTINUOUS
 62
               4
100
AcDbCircle
 10
54.773894178129964
 20
2.6978526566200585
 30
0.0
 40
0.6678640097937438
100
AcDbArc
 50
269.66591816216294
 51
329.61084921413908
  0
ARC
  5
300
100
AcDbEntity
  8
0
  6
CONTINUOUS
 62
               4
100
AcDbCircle
 10
54.769614458108904
 20
6.9646364285387117
 30
0.0
 40
0.6653636831615253
100
AcDbArc
 50
29.274947752034233
 51
89.966800225229065
  0
ARC
  5
301
100
AcDbEntity
  8
0
  6
CONTINUOUS
 62
               4
100
AcDbCircle
 10
50.999997843964266
 20
-2.7850000000000001
 30
0.0
 40
4.9998743741733715
100
AcDbArc
 50
330.46122992128818
 51
29.538770078711011
  0
ARC
  5
302
100
AcDbEntity
  8
0
  6
CONTINUOUS
 62
               4
100
AcDbCircle
 10
54.769605142869224
 20
-4.9246205378357306
 30
0.0
 40
0.6653795793245879
100
AcDbArc
 50
270.03400111625712
 51
330.72425090647818
  0
ARC
  5
303
100
AcDbEntity
  8
0
  6
CONTINUOUS
 62
               4
100
AcDbCircle
 10
54.77391093874342
 20
-0.6578231985721708
 30
0.0
 40
0.6678346501889669
100
AcDbArc
 50
30.387698124739387
 51
90.335534498957301
  0
ARC
  5
304
100
AcDbEntity
  8
0
  6
CONTINUOUS
 62
               4
100
AcDbCircle
 10
58.999997832847285
 20
-6.5950000000000006
 30
0.0
 40
4.9998743838453912
100
AcDbArc
 50
330.46122998409521
 51
29.53877001590401
  0
ARC
  5
305
100
AcDbEntity
  8
0
  6
CONTINUOUS
 62
               4
100
AcDbCircle
 10
62.76961074589866
 20
-8.7346300959447767
 30
0.0
 40
0.6653700179157559
100
AcDbArc
 50
270.03351912144575
 51
330.72473290129017
  0
ARC
  5
306
100
AcDbEntity
  8
0
  6
CONTINUOUS
 62
               4
100
AcDbCircle
 10
62.773905439193705
 20
-4.467832864447427
 30
0.0
 40
0.6678442837154119
100
AcDbArc
 50
30.388174790945204
 51
90.33505783275146
  0
ARC
  5
307
100
AcDbEntity
  8
0
  6
CONTINUOUS
 62
               4
100
AcDbCircle
 10
50.999997834967012
 20
-10.404999999999999
 30
0.0
 40
4.9998743820011837
100
AcDbArc
 50
330.4612299721195
 51
29.538770027879689
  0
ARC
  5
308
100
AcDbEntity
  8
0
  6
CONTINUOUS
 62
               4
100
AcDbCircle
 10
54.769609678657069
 20
-12.544628275356175
 30
0.0
 40
0.665371839129257
100
AcDbArc
 50
270.03361093086761
 51
330.72464109186791
  0
ARC
  5
309
100
AcDbEntity
  8
0
  6
CONTINUOUS
 62
               4
100
AcDbCircle
 10
54.77390648672899
 20
-8.2778310233248131
 30
0.0
 40
0.6678424487509242
100
AcDbArc
 50
30.388083998269135
 51
90.33514862542809
  0
ARC
  5
30A
100
AcDbEntity
  8
0
  6
CONTINUOUS
 62
               4
100
AcDbCircle
 10
58.999997837085694
 20
-14.215
 30
0.0
 40
4.9998743801578787
100
AcDbArc
 50
330.46122996014969
 51
29.538770039849517
  0
ARC
  5
30B
100
AcDbEntity
  8
0
  6
CONTINUOUS
 62
               4
100
AcDbCircle
 10
62.769608611414483
 20
-16.354626454765882
 30
0.0
 40
0.6653736603461595
100
AcDbArc
 50
270.03370273987252
 51
330.72454928286299
  0
ARC
  5
30C
100
AcDbEntity
  8
0
  6
CONTINUOUS
 62
               4
100
AcDbCircle
 10
62.773907534263323
 20
-12.087829182203855
 30
0.0
 40
0.667840613789764
100
AcDbArc
 50
30.387993205175391
 51
90.335239418521184
  0
ARC
  5
30D
100
AcDbEntity
  8
0
  6
CONTINUOUS
 62
               4
100
AcDbCircle
 10
50.999997839203346
 20
-18.024999999999999
 30
0.0
 40
4.9998743783154769
100
AcDbArc
 50
330.46122994818575
 51
29.53877005181349
  0
ARC
  5
30E
100
AcDbEntity
  8
0
  6
CONTINUOUS
 62
               4
100
AcDbCircle
 10
54.769607544170903
 20
-20.16462463417389
 30
0.0
 40
0.6653754815664632
100
AcDbArc
 50
270.03379454846038
 51
330.7244574742752
  0
ENDBLK
  5
30F
100
AcDbEntity
  8
0
100
AcDbBlockEnd
  0
BLOCK
  5
310
100
AcDbEntity
  8
0
100
AcDbBlockBegin
  2
F10_CONNECTER-7
 70
               0
 10
0.0
 20
0.0
 30
0.0
  3
F10_CONNECTER-7
  1

  0
LINE
  5
311
100
AcDbEntity
  8
0
  6
CONTINUOUS
 62
               4
100
AcDbLine
 10
42.0
 20
45.0
 30
0.0
 11
42.0
 21
1.0
 31
0.0
  0
LINE
  5
312
100
AcDbEntity
  8
0
  6
CONTINUOUS
 62
               4
100
AcDbLine
 10
0.0
 20
0.0
 30
0.0
 11
42.0
 21
0.0
 31
0.0
  0
LINE
  5
313
100
AcDbEntity
  8
0
  6
CONTINUOUS
 62
               4
100
AcDbLine
 10
0.0
 20
45.0
 30
0.0
 11
42.0
 21
45.0
 31
0.0
  0
LINE
  5
314
100
AcDbEntity
  8
0
  6
CONTINUOUS
 62
               4
100
AcDbLine
 10
0.0
 20
45.0
 30
0.0
 11
0.0
 21
1.0
 31
0.0
  0
LINE
  5
315
100
AcDbEntity
  8
0
  6
CONTINUOUS
 62
               4
100
AcDbLine
 10
16.0
 20
68.0
 30
0.0
 11
16.0
 21
45.0
 31
0.0
  0
LINE
  5
316
100
AcDbEntity
  8
0
  6
CONTINUOUS
 62
               4
100
AcDbLine
 10
26.0
 20
66.0
 30
0.0
 11
35.0
 21
66.0
 31
0.0
  0
LINE
  5
317
100
AcDbEntity
  8
0
  6
CONTINUOUS
 62
               4
100
AcDbLine
 10
35.0
 20
67.299999999999997
 30
0.0
 11
35.0
 21
45.0
 31
0.0
  0
LINE
  5
318
100
AcDbEntity
  8
0
  6
CONTINUOUS
 62
               4
100
AcDbLine
 10
17.0
 20
69.0
 30
0.0
 11
25.0
 21
69.0
 31
0.0
  0
LINE
  5
319
100
AcDbEntity
  8
0
  6
CONTINUOUS
 62
               4
100
AcDbLine
 10
23.5
 20
67.299999999999997
 30
0.0
 11
18.5
 21
67.299999999999997
 31
0.0
  0
LINE
  5
31A
100
AcDbEntity
  8
0
  6
CONTINUOUS
 62
               4
100
AcDbLine
 10
18.5
 20
67.299999999999997
 30
0.0
 11
18.5
 21
66.0
 31
0.0
  0
LINE
  5
31B
100
AcDbEntity
  8
0
  6
CONTINUOUS
 62
               4
100
AcDbLine
 10
23.5
 20
66.0
 30
0.0
 11
18.5
 21
66.0
 31
0.0
  0
LINE
  5
31C
100
AcDbEntity
  8
0
  6
CONTINUOUS
 62
               4
100
AcDbLine
 10
23.5
 20
67.299999999999997
 30
0.0
 11
23.5
 21
66.0
 31
0.0
  0
LINE
  5
31D
100
AcDbEntity
  8
0
  6
CONTINUOUS
 62
               4
100
AcDbLine
 10
26.0
 20
67.299999999999997
 30
0.0
 11
35.0
 21
67.299999999999997
 31
0.0
  0
LINE
  5
31E
100
AcDbEntity
  8
0
  6
CONTINUOUS
 62
               4
100
AcDbLine
 10
16.0
 20
52.0
 30
0.0
 11
26.0
 21
52.0
 31
0.0
  0
LINE
  5
31F
100
AcDbEntity
  8
0
  6
CONTINUOUS
 62
               4
100
AcDbLine
 10
26.0
 20
68.0
 30
0.0
 11
26.0
 21
52.0
 31
0.0
  0
LINE
  5
320
100
AcDbEntity
  8
0
  6
CONTINUOUS
 62
               4
100
AcDbLine
 10
7.0
 20
45.0
 30
0.0
 11
7.0
 21
35.0
 31
0.0
  0
LINE
  5
321
100
AcDbEntity
  8
0
  6
CONTINUOUS
 62
               4
100
AcDbLine
 10
14.0
 20
45.0
 30
0.0
 11
14.0
 21
35.0
 31
0.0
  0
LINE
  5
322
100
AcDbEntity
  8
0
  6
CONTINUOUS
 62
               4
100
AcDbLine
 10
28.0
 20
45.0
 30
0.0
 11
28.0
 21
35.0
 31
0.0
  0
LINE
  5
323
100
AcDbEntity
  8
0
  6
CONTINUOUS
 62
               4
100
AcDbLine
 10
35.0
 20
45.0
 30
0.0
 11
35.0
 21
35.0
 31
0.0
  0
LINE
  5
324
100
AcDbEntity
  8
0
  6
CONTINUOUS
 62
               4
100
AcDbLine
 10
21.0
 20
35.0
 30
0.0
 11
21.0
 21
1.0
 31
0.0
  0
LINE
  5
325
100
AcDbEntity
  8
0
  6
CONTINUOUS
 62
               4
100
AcDbLine
 10
0.0
 20
3.0
 30
0.0
 11
42.0
 21
3.0
 31
0.0
  0
LINE
  5
326
100
AcDbEntity
  8
0
  6
CONTINUOUS
 62
               4
100
AcDbLine
 10
0.0
 20
5.0
 30
0.0
 11
42.0
 21
5.0
 31
0.0
  0
LINE
  5
327
100
AcDbEntity
  8
0
  6
CONTINUOUS
 62
               4
100
AcDbLine
 10
42.0
 20
1.0
 30
0.0
 11
0.0
 21
1.0
 31
0.0
  0
LINE
  5
328
100
AcDbEntity
  8
0
  6
CONTINUOUS
 62
               4
100
AcDbLine
 10
42.0
 20
35.0
 30
0.0
 11
0.0
 21
35.0
 31
0.0
  0
ARC
  5
329
100
AcDbEntity
  8
0
  6
CONTINUOUS
 62
               4
100
AcDbCircle
 10
25.0
 20
68.0
 30
0.0
 40
1.0
100
AcDbArc
 50
0.0
 51
89.999999999999815
  0
ARC
  5
32A
100
AcDbEntity
  8
0
  6
CONTINUOUS
 62
               4
100
AcDbCircle
 10
17.0
 20
68.0
 30
0.0
 40
1.0
100
AcDbArc
 50
89.999999999999815
 51
179.99999999999963
  0
ENDBLK
  5
32B
100
AcDbEntity
  8
0
100
AcDbBlockEnd
  0
BLOCK
  5
32C
100
AcDbEntity
  8
0
100
AcDbBlockBegin
  2
F10_CONNECTER-8
 70
               0
 10
0.0
 20
0.0
 30
0.0
  3
F10_CONNECTER-8
  1

  0
LINE
  5
32D
100
AcDbEntity
  8
0
  6
CONTINUOUS
 62
               4
100
AcDbLine
 10
-0.35
 20
-0.35
 30
0.0
 11
-0.35
 21
-2.77
 31
0.0
  0
LINE
  5
32E
100
AcDbEntity
  8
0
  6
CONTINUOUS
 62
               4
100
AcDbLine
 10
0.35
 20
-0.35
 30
0.0
 11
0.35
 21
-2.77
 31
0.0
  0
LINE
  5
32F
100
AcDbEntity
  8
0
  6
CONTINUOUS
 62
               4
100
AcDbLine
 10
-2.8999999999999999
 20
2.8999999999999999
 30
0.0
 11
2.8999999999999999
 21
2.8999999999999999
 31
0.0
  0
LINE
  5
330
100
AcDbEntity
  8
0
  6
CONTINUOUS
 62
               4
100
AcDbLine
 10
-2.8999999999999999
 20
-2.8999999999999999
 30
0.0
 11
2.8999999999999999
 21
-2.8999999999999999
 31
0.0
  0
LINE
  5
331
100
AcDbEntity
  8
0
  6
CONTINUOUS
 62
               4
100
AcDbLine
 10
-2.8999999999999999
 20
2.8999999999999999
 30
0.0
 11
-2.8999999999999999
 21
-2.8999999999999999
 31
0.0
  0
LINE
  5
332
100
AcDbEntity
  8
0
  6
CONTINUOUS
 62
               4
100
AcDbLine
 10
2.8999999999999999
 20
2.8999999999999999
 30
0.0
 11
2.8999999999999999
 21
-2.8999999999999999
 31
0.0
  0
LINE
  5
333
100
AcDbEntity
  8
0
  6
CONTINUOUS
 62
               4
100
AcDbLine
 10
3.3999999999999999
 20
2.5
 30
0.0
 11
3.3999999999999999
 21
-2.5
 31
0.0
  0
LINE
  5
334
100
AcDbEntity
  8
0
  6
CONTINUOUS
 62
               4
100
AcDbLine
 10
-3.3999999999999999
 20
2.5
 30
0.0
 11
-3.3999999999999999
 21
-2.5
 31
0.0
  0
LINE
  5
335
100
AcDbEntity
  8
0
  6
CONTINUOUS
 62
               4
100
AcDbLine
 10
-3.3999999999999999
 20
-2.5
 30
0.0
 11
-2.8999999999999999
 21
-2.5
 31
0.0
  0
LINE
  5
336
100
AcDbEntity
  8
0
  6
CONTINUOUS
 62
               4
100
AcDbLine
 10
-3.3999999999999999
 20
2.5
 30
0.0
 11
-2.8999999999999999
 21
2.5
 31
0.0
  0
LINE
  5
337
100
AcDbEntity
  8
0
  6
CONTINUOUS
 62
               4
100
AcDbLine
 10
2.8999999999999999
 20
2.5
 30
0.0
 11
3.3999999999999999
 21
2.5
 31
0.0
  0
LINE
  5
338
100
AcDbEntity
  8
0
  6
CONTINUOUS
 62
               4
100
AcDbLine
 10
2.8999999999999999
 20
-2.5
 30
0.0
 11
3.3999999999999999
 21
-2.5
 31
0.0
  0
LINE
  5
339
100
AcDbEntity
  8
0
  6
CONTINUOUS
 62
               4
100
AcDbLine
 10
0.35
 20
2.77
 30
0.0
 11
0.35
 21
0.35
 31
0.0
  0
LINE
  5
33A
100
AcDbEntity
  8
0
  6
CONTINUOUS
 62
               4
100
AcDbLine
 10
-0.35
 20
2.77
 30
0.0
 11
-0.35
 21
0.35
 31
0.0
  0
LINE
  5
33B
100
AcDbEntity
  8
0
  6
CONTINUOUS
 62
               4
100
AcDbLine
 10
-1.5
 20
-0.35
 30
0.0
 11
-0.35
 21
-0.35
 31
0.0
  0
LINE
  5
33C
100
AcDbEntity
  8
0
  6
CONTINUOUS
 62
               4
100
AcDbLine
 10
-1.5
 20
0.35
 30
0.0
 11
-0.35
 21
0.35
 31
0.0
  0
LINE
  5
33D
100
AcDbEntity
  8
0
  6
CONTINUOUS
 62
               4
100
AcDbLine
 10
-1.5
 20
0.35
 30
0.0
 11
-1.5
 21
-0.35
 31
0.0
  0
LINE
  5
33E
100
AcDbEntity
  8
0
  6
CONTINUOUS
 62
               4
100
AcDbLine
 10
1.5
 20
0.35
 30
0.0
 11
1.5
 21
-0.35
 31
0.0
  0
LINE
  5
33F
100
AcDbEntity
  8
0
  6
CONTINUOUS
 62
               4
100
AcDbLine
 10
0.35
 20
0.35
 30
0.0
 11
1.5
 21
0.35
 31
0.0
  0
LINE
  5
340
100
AcDbEntity
  8
0
  6
CONTINUOUS
 62
               4
100
AcDbLine
 10
0.35
 20
-0.35
 30
0.0
 11
1.5
 21
-0.35
 31
0.0
  0
CIRCLE
  5
341
100
AcDbEntity
  8
0
  6
CONTINUOUS
 62
               4
100
AcDbCircle
 10
0.0
 20
0.0
 30
0.0
 40
2.7999992370605469
  0
ENDBLK
  5
342
100
AcDbEntity
  8
0
100
AcDbBlockEnd
  0
BLOCK
  5
343
100
AcDbEntity
  8
0
100
AcDbBlockBegin
  2
F10_CONNECTER-9
 70
               0
 10
0.0
 20
0.0
 30
0.0
  3
F10_CONNECTER-9
  1

  0
LINE
  5
344
100
AcDbEntity
  8
0
  6
CONTINUOUS
 62
               4
100
AcDbLine
 10
35.0
 20
62.5
 30
0.0
 11
45.0
 21
62.5
 31
0.0
  0
LINE
  5
345
100
AcDbEntity
  8
0
  6
CONTINUOUS
 62
               4
100
AcDbLine
 10
35.0
 20
-30.5
 30
0.0
 11
45.0
 21
-30.5
 31
0.0
  0
LINE
  5
346
100
AcDbEntity
  8
0
  6
CONTINUOUS
 62
               4
100
AcDbLine
 10
45.0
 20
62.5
 30
0.0
 11
45.0
 21
-30.5
 31
0.0
  0
LINE
  5
347
100
AcDbEntity
  8
0
  6
CONTINUOUS
 62
               4
100
AcDbLine
 10
53.5
 20
32.0
 30
0.0
 11
53.5
 21
31.370000000000001
 31
0.0
  0
LINE
  5
348
100
AcDbEntity
  8
0
  6
CONTINUOUS
 62
               4
100
AcDbLine
 10
45.0
 20
6.0
 30
0.0
 11
56.759999999999998
 21
10.5
 31
0.0
  0
LINE
  5
349
100
AcDbEntity
  8
0
  6
CONTINUOUS
 62
               4
100
AcDbLine
 10
50.0
 20
28.859999999999999
 30
0.0
 11
50.0
 21
15.130000000000001
 31
0.0
  0
LINE
  5
34A
100
AcDbEntity
  8
0
  6
CONTINUOUS
 62
               4
100
AcDbLine
 10
56.759999999999998
 20
33.5
 30
0.0
 11
45.0
 21
38.0
 31
0.0
  0
LINE
  5
34B
100
AcDbEntity
  8
0
  6
CONTINUOUS
 62
               4
100
AcDbLine
 10
51.079999999999998
 20
30.309999999999999
 30
0.0
 11
53.130000000000003
 21
30.890000000000001
 31
0.0
  0
LINE
  5
34C
100
AcDbEntity
  8
0
  6
CONTINUOUS
 62
               4
100
AcDbLine
 10
51.079999999999998
 20
13.68
 30
0.0
 11
53.130000000000003
 21
13.1
 31
0.0
  0
LINE
  5
34D
100
AcDbEntity
  8
0
  6
CONTINUOUS
 62
               4
100
AcDbLine
 10
53.5
 20
12.619999999999999
 30
0.0
 11
53.5
 21
12.0
 31
0.0
  0
LINE
  5
34E
100
AcDbEntity
  8
0
  6
CONTINUOUS
 62
               4
100
AcDbLine
 10
53.0
 20
10.1
 30
0.0
 11
53.0
 21
9.7400000000000002
 31
0.0
  0
LINE
  5
34F
100
AcDbEntity
  8
0
  6
CONTINUOUS
 62
               4
100
AcDbLine
 10
53.0
 20
34.25
 30
0.0
 11
53.0
 21
33.890000000000001
 31
0.0
  0
LINE
  5
350
100
AcDbEntity
  8
0
  6
CONTINUOUS
 62
               4
100
AcDbLine
 10
53.0
 20
12.0
 30
0.0
 11
53.5
 21
12.0
 31
0.0
  0
LINE
  5
351
100
AcDbEntity
  8
0
  6
CONTINUOUS
 62
               4
100
AcDbLine
 10
53.0
 20
32.0
 30
0.0
 11
53.5
 21
32.0
 31
0.0
  0
LINE
  5
352
100
AcDbEntity
  8
0
  6
CONTINUOUS
 62
               4
100
AcDbLine
 10
53.32
 20
13.0
 30
0.0
 11
59.5
 21
13.0
 31
0.0
  0
LINE
  5
353
100
AcDbEntity
  8
0
  6
CONTINUOUS
 62
               4
100
AcDbLine
 10
53.32
 20
31.0
 30
0.0
 11
59.5
 21
31.0
 31
0.0
  0
LINE
  5
354
100
AcDbEntity
  8
0
  6
CONTINUOUS
 62
               4
100
AcDbLine
 10
56.759999999999998
 20
10.5
 30
0.0
 11
60.32
 21
10.5
 31
0.0
  0
LINE
  5
355
100
AcDbEntity
  8
0
  6
CONTINUOUS
 62
               4
100
AcDbLine
 10
56.759999999999998
 20
33.5
 30
0.0
 11
60.32
 21
33.5
 31
0.0
  0
LINE
  5
356
100
AcDbEntity
  8
0
  6
CONTINUOUS
 62
               4
100
AcDbLine
 10
54.0
 20
13.0
 30
0.0
 11
54.0
 21
9.4399999999999995
 31
0.0
  0
LINE
  5
357
100
AcDbEntity
  8
0
  6
CONTINUOUS
 62
               4
100
AcDbLine
 10
54.0
 20
34.549999999999997
 30
0.0
 11
54.0
 21
31.0
 31
0.0
  0
LINE
  5
358
100
AcDbEntity
  8
0
  6
CONTINUOUS
 62
               4
100
AcDbLine
 10
59.5
 20
31.0
 30
0.0
 11
59.5
 21
30.0
 31
0.0
  0
LINE
  5
359
100
AcDbEntity
  8
0
  6
CONTINUOUS
 62
               4
100
AcDbLine
 10
59.5
 20
14.0
 30
0.0
 11
59.5
 21
13.0
 31
0.0
  0
LINE
  5
35A
100
AcDbEntity
  8
0
  6
CONTINUOUS
 62
               4
100
AcDbLine
 10
59.5
 20
29.0
 30
0.0
 11
59.689999999999998
 21
29.0
 31
0.0
  0
LINE
  5
35B
100
AcDbEntity
  8
0
  6
CONTINUOUS
 62
               4
100
AcDbLine
 10
59.5
 20
15.0
 30
0.0
 11
59.689999999999998
 21
15.0
 31
0.0
  0
LINE
  5
35C
100
AcDbEntity
  8
0
  6
CONTINUOUS
 62
               4
100
AcDbLine
 10
60.130000000000003
 20
14.720000000000001
 30
0.0
 11
61.0
 21
13.0
 31
0.0
  0
LINE
  5
35D
100
AcDbEntity
  8
0
  6
CONTINUOUS
 62
               4
100
AcDbLine
 10
60.130000000000003
 20
29.27
 30
0.0
 11
61.0
 21
31.0
 31
0.0
  0
LINE
  5
35E
100
AcDbEntity
  8
0
  6
CONTINUOUS
 62
               4
100
AcDbLine
 10
61.0
 20
31.0
 30
0.0
 11
61.5
 21
31.600000000000001
 31
0.0
  0
LINE
  5
35F
100
AcDbEntity
  8
0
  6
CONTINUOUS
 62
               4
100
AcDbLine
 10
61.0
 20
13.0
 30
0.0
 11
61.5
 21
12.4
 31
0.0
  0
LINE
  5
360
100
AcDbEntity
  8
0
  6
CONTINUOUS
 62
               4
100
AcDbLine
 10
60.32
 20
10.5
 30
0.0
 11
63.0
 21
9.5199999999999996
 31
0.0
  0
LINE
  5
361
100
AcDbEntity
  8
0
  6
CONTINUOUS
 62
               4
100
AcDbLine
 10
60.32
 20
33.5
 30
0.0
 11
63.0
 21
34.469999999999999
 31
0.0
  0
LINE
  5
362
100
AcDbEntity
  8
0
  6
CONTINUOUS
 62
               4
100
AcDbLine
 10
61.5
 20
31.600000000000001
 30
0.0
 11
61.75
 21
31.600000000000001
 31
0.0
  0
LINE
  5
363
100
AcDbEntity
  8
0
  6
CONTINUOUS
 62
               4
100
AcDbLine
 10
61.75
 20
31.899999999999999
 30
0.0
 11
62.0
 21
31.899999999999999
 31
0.0
  0
LINE
  5
364
100
AcDbEntity
  8
0
  6
CONTINUOUS
 62
               4
100
AcDbLine
 10
62.0
 20
32.200000000000003
 30
0.0
 11
62.25
 21
32.200000000000003
 31
0.0
  0
LINE
  5
365
100
AcDbEntity
  8
0
  6
CONTINUOUS
 62
               4
100
AcDbLine
 10
62.25
 20
32.5
 30
0.0
 11
62.5
 21
32.5
 31
0.0
  0
LINE
  5
366
100
AcDbEntity
  8
0
  6
CONTINUOUS
 62
               4
100
AcDbLine
 10
62.5
 20
32.799999999999997
 30
0.0
 11
62.75
 21
32.799999999999997
 31
0.0
  0
LINE
  5
367
100
AcDbEntity
  8
0
  6
CONTINUOUS
 62
               4
100
AcDbLine
 10
62.75
 20
33.100000000000001
 30
0.0
 11
63.0
 21
33.100000000000001
 31
0.0
  0
LINE
  5
368
100
AcDbEntity
  8
0
  6
CONTINUOUS
 62
               4
100
AcDbLine
 10
63.0
 20
33.399999999999999
 30
0.0
 11
63.25
 21
33.399999999999999
 31
0.0
  0
LINE
  5
369
100
AcDbEntity
  8
0
  6
CONTINUOUS
 62
               4
100
AcDbLine
 10
61.75
 20
31.899999999999999
 30
0.0
 11
61.75
 21
31.600000000000001
 31
0.0
  0
LINE
  5
36A
100
AcDbEntity
  8
0
  6
CONTINUOUS
 62
               4
100
AcDbLine
 10
62.0
 20
32.200000000000003
 30
0.0
 11
62.0
 21
31.899999999999999
 31
0.0
  0
LINE
  5
36B
100
AcDbEntity
  8
0
  6
CONTINUOUS
 62
               4
100
AcDbLine
 10
62.25
 20
32.5
 30
0.0
 11
62.25
 21
32.200000000000003
 31
0.0
  0
LINE
  5
36C
100
AcDbEntity
  8
0
  6
CONTINUOUS
 62
               4
100
AcDbLine
 10
62.5
 20
32.799999999999997
 30
0.0
 11
62.5
 21
32.5
 31
0.0
  0
LINE
  5
36D
100
AcDbEntity
  8
0
  6
CONTINUOUS
 62
               4
100
AcDbLine
 10
62.75
 20
33.100000000000001
 30
0.0
 11
62.75
 21
32.799999999999997
 31
0.0
  0
LINE
  5
36E
100
AcDbEntity
  8
0
  6
CONTINUOUS
 62
               4
100
AcDbLine
 10
63.0
 20
33.399999999999999
 30
0.0
 11
63.0
 21
33.100000000000001
 31
0.0
  0
LINE
  5
36F
100
AcDbEntity
  8
0
  6
CONTINUOUS
 62
               4
100
AcDbLine
 10
63.25
 20
33.700000000000003
 30
0.0
 11
63.409999999999997
 21
33.890000000000001
 31
0.0
  0
LINE
  5
370
100
AcDbEntity
  8
0
  6
CONTINUOUS
 62
               4
100
AcDbLine
 10
63.25
 20
33.700000000000003
 30
0.0
 11
63.25
 21
33.399999999999999
 31
0.0
  0
LINE
  5
371
100
AcDbEntity
  8
0
  6
CONTINUOUS
 62
               4
100
AcDbLine
 10
61.5
 20
12.4
 30
0.0
 11
61.75
 21
12.4
 31
0.0
  0
LINE
  5
372
100
AcDbEntity
  8
0
  6
CONTINUOUS
 62
               4
100
AcDbLine
 10
61.75
 20
12.1
 30
0.0
 11
62.0
 21
12.1
 31
0.0
  0
LINE
  5
373
100
AcDbEntity
  8
0
  6
CONTINUOUS
 62
               4
100
AcDbLine
 10
62.0
 20
11.800000000000001
 30
0.0
 11
62.25
 21
11.800000000000001
 31
0.0
  0
LINE
  5
374
100
AcDbEntity
  8
0
  6
CONTINUOUS
 62
               4
100
AcDbLine
 10
62.25
 20
11.5
 30
0.0
 11
62.5
 21
11.5
 31
0.0
  0
LINE
  5
375
100
AcDbEntity
  8
0
  6
CONTINUOUS
 62
               4
100
AcDbLine
 10
62.5
 20
11.199999999999999
 30
0.0
 11
62.75
 21
11.199999999999999
 31
0.0
  0
LINE
  5
376
100
AcDbEntity
  8
0
  6
CONTINUOUS
 62
               4
100
AcDbLine
 10
62.75
 20
10.9
 30
0.0
 11
63.0
 21
10.9
 31
0.0
  0
LINE
  5
377
100
AcDbEntity
  8
0
  6
CONTINUOUS
 62
               4
100
AcDbLine
 10
63.0
 20
10.6
 30
0.0
 11
63.25
 21
10.6
 31
0.0
  0
LINE
  5
378
100
AcDbEntity
  8
0
  6
CONTINUOUS
 62
               4
100
AcDbLine
 10
63.25
 20
10.6
 30
0.0
 11
63.25
 21
10.300000000000001
 31
0.0
  0
LINE
  5
379
100
AcDbEntity
  8
0
  6
CONTINUOUS
 62
               4
100
AcDbLine
 10
63.0
 20
10.9
 30
0.0
 11
63.0
 21
10.6
 31
0.0
  0
LINE
  5
37A
100
AcDbEntity
  8
0
  6
CONTINUOUS
 62
               4
100
AcDbLine
 10
62.75
 20
11.199999999999999
 30
0.0
 11
62.75
 21
10.9
 31
0.0
  0
LINE
  5
37B
100
AcDbEntity
  8
0
  6
CONTINUOUS
 62
               4
100
AcDbLine
 10
62.5
 20
11.5
 30
0.0
 11
62.5
 21
11.199999999999999
 31
0.0
  0
LINE
  5
37C
100
AcDbEntity
  8
0
  6
CONTINUOUS
 62
               4
100
AcDbLine
 10
62.25
 20
11.800000000000001
 30
0.0
 11
62.25
 21
11.5
 31
0.0
  0
LINE
  5
37D
100
AcDbEntity
  8
0
  6
CONTINUOUS
 62
               4
100
AcDbLine
 10
62.0
 20
12.1
 30
0.0
 11
62.0
 21
11.800000000000001
 31
0.0
  0
LINE
  5
37E
100
AcDbEntity
  8
0
  6
CONTINUOUS
 62
               4
100
AcDbLine
 10
61.75
 20
12.4
 30
0.0
 11
61.75
 21
12.1
 31
0.0
  0
LINE
  5
37F
100
AcDbEntity
  8
0
  6
CONTINUOUS
 62
               4
100
AcDbLine
 10
63.25
 20
10.300000000000001
 30
0.0
 11
63.409999999999997
 21
10.1
 31
0.0
  0
ARC
  5
380
100
AcDbEntity
  8
0
  6
CONTINUOUS
 62
               4
100
AcDbCircle
 10
51.500673219165968
 20
28.869464085035002
 30
0.0
 40
1.5007030617772137
100
AcDbArc
 50
106.27915057913425
 51
180.36133445560407
  0
ARC
  5
381
100
AcDbEntity
  8
0
  6
CONTINUOUS
 62
               4
100
AcDbCircle
 10
51.505496084219061
 20
15.124128117901092
 30
0.0
 40
1.5055075352180407
100
AcDbArc
 50
179.77653056714794
 51
253.58298439811202
  0
ARC
  5
382
100
AcDbEntity
  8
0
  6
CONTINUOUS
 62
               4
100
AcDbCircle
 10
52.997887118244883
 20
31.374441179686233
 30
0.0
 40
0.5021325224494297
100
AcDbArc
 50
285.25429967852182
 51
359.49323304413798
  0
ARC
  5
383
100
AcDbEntity
  8
0
  6
CONTINUOUS
 62
               4
100
AcDbCircle
 10
53.002731876011772
 20
12.61929332109241
 30
0.0
 40
0.4972686261266097
100
AcDbArc
 50
0.0814242652304413
 51
75.171043012108214
  0
ARC
  5
384
100
AcDbEntity
  8
0
  6
CONTINUOUS
 62
               4
100
AcDbCircle
 10
52.004542163485169
 20
34.246400436844475
 30
0.0
 40
0.9954643444813562
100
AcDbArc
 50
0.2071799231041649
 51
69.694122900645723
  0
ARC
  5
385
100
AcDbEntity
  8
0
  6
CONTINUOUS
 62
               4
100
AcDbCircle
 10
51.999853770279159
 20
9.7468763971167132
 30
0.0
 40
1.0001698684034173
100
AcDbArc
 50
290.49262189788823
 51
359.60607527836049
  0
ARC
  5
386
100
AcDbEntity
  8
0
  6
CONTINUOUS
 62
               4
100
AcDbCircle
 10
53.000714330150267
 20
32.746618390940618
 30
0.0
 40
0.7466187326596596
100
AcDbArc
 50
113.75135042773572
 51
269.94518204909218
  0
ARC
  5
387
100
AcDbEntity
  8
0
  6
CONTINUOUS
 62
               4
100
AcDbCircle
 10
52.999747572870319
 20
11.248802588985351
 30
0.0
 40
0.7511974534265726
100
AcDbArc
 50
89.980746727279666
 51
246.48267540867849
  0
ARC
  5
388
100
AcDbEntity
  8
0
  6
CONTINUOUS
 62
               4
100
AcDbCircle
 10
52.49658748673501
 20
33.890486421694554
 30
0.0
 40
0.5034127482671043
100
AcDbArc
 50
293.83267803541304
 51
359.94463804384264
  0
ARC
  5
389
100
AcDbEntity
  8
0
  6
CONTINUOUS
 62
               4
100
AcDbCircle
 10
52.501200429328513
 20
10.102522019127294
 30
0.0
 40
0.4988059465188198
100
AcDbArc
 50
359.71030484191562
 51
66.512379078826669
  0
ARC
  5
38A
100
AcDbEntity
  8
0
  6
CONTINUOUS
 62
               4
100
AcDbCircle
 10
59.499992370663676
 20
29.500007629336324
 30
0.0
 40
0.4999923707218841
100
AcDbArc
 50
89.999125729116003
 51
180.0008742708834
  0
ARC
  5
38B
100
AcDbEntity
  8
0
  6
CONTINUOUS
 62
               4
100
AcDbCircle
 10
59.500007629452739
 20
14.500007629452739
 30
0.0
 40
0.5000076295109466
100
AcDbArc
 50
180.00087425754319
 51
269.99912574245582
  0
ARC
  5
38C
100
AcDbEntity
  8
0
  6
CONTINUOUS
 62
               4
100
AcDbCircle
 10
59.500007629452739
 20
29.500007629452739
 30
0.0
 40
0.5000076295109466
100
AcDbArc
 50
180.00087425754319
 51
269.99912574245582
  0
ARC
  5
38D
100
AcDbEntity
  8
0
  6
CONTINUOUS
 62
               4
100
AcDbCircle
 10
59.499992370663676
 20
14.500007629336324
 30
0.0
 40
0.4999923707218841
100
AcDbArc
 50
89.999125729116003
 51
180.0008742708834
  0
ARC
  5
38E
100
AcDbEntity
  8
0
  6
CONTINUOUS
 62
               4
100
AcDbCircle
 10
59.687363648624114
 20
29.497814794834774
 30
0.0
 40
0.4978217756436217
100
AcDbArc
 50
270.30342689009888
 51
332.76615692027656
  0
ARC
  5
38F
100
AcDbEntity
  8
0
  6
CONTINUOUS
 62
               4
100
AcDbCircle
 10
59.683785320828356
 20
14.504519789873127
 30
0.0
 40
0.4955191831448871
100
AcDbArc
 50
25.776223769240342
 51
89.281391649063067
  0
ARC
  5
390
100
AcDbEntity
  8
0
  6
CONTINUOUS
 62
               4
100
AcDbCircle
 10
63.13475239207466
 20
34.130342208190704
 30
0.0
 40
0.3654115798748123
100
AcDbArc
 50
318.87301102925466
 51
111.63970639667001
  0
ARC
  5
391
100
AcDbEntity
  8
0
  6
CONTINUOUS
 62
               4
100
AcDbCircle
 10
63.130019976663796
 20
9.8630031199445547
 30
0.0
 40
0.366819212451248
100
AcDbArc
 50
249.24010860177202
 51
40.247173972302164
  0
ENDBLK
  5
392
100
AcDbEntity
  8
0
100
AcDbBlockEnd
  0
BLOCK
  5
393
100
AcDbEntity
  8
0
100
AcDbBlockBegin
  2
F10_CONNECTER-10
 70
               0
 10
0.0
 20
0.0
 30
0.0
  3
F10_CONNECTER-10
  1

  0
LINE
  5
394
100
AcDbEntity
  8
0
  6
CONTINUOUS
 62
               4
100
AcDbLine
 10
21.0
 20
35.0
 30
0.0
 11
21.0
 21
1.0
 31
0.0
  0
LINE
  5
395
100
AcDbEntity
  8
0
  6
CONTINUOUS
 62
               4
100
AcDbLine
 10
0.0
 20
3.0
 30
0.0
 11
21.0
 21
3.0
 31
0.0
  0
LINE
  5
396
100
AcDbEntity
  8
0
  6
CONTINUOUS
 62
               4
100
AcDbLine
 10
21.0
 20
1.0
 30
0.0
 11
0.0
 21
1.0
 31
0.0
  0
LINE
  5
397
100
AcDbEntity
  8
0
  6
CONTINUOUS
 62
               4
100
AcDbLine
 10
0.0
 20
0.0
 30
0.0
 11
21.0
 21
0.0
 31
0.0
  0
LINE
  5
398
100
AcDbEntity
  8
0
  6
CONTINUOUS
 62
               4
100
AcDbLine
 10
0.0
 20
45.0
 30
0.0
 11
21.0
 21
45.0
 31
0.0
  0
LINE
  5
399
100
AcDbEntity
  8
0
  6
CONTINUOUS
 62
               4
100
AcDbLine
 10
0.0
 20
45.0
 30
0.0
 11
0.0
 21
1.0
 31
0.0
  0
LINE
  5
39A
100
AcDbEntity
  8
0
  6
CONTINUOUS
 62
               4
100
AcDbLine
 10
0.0
 20
35.0
 30
0.0
 11
21.0
 21
35.0
 31
0.0
  0
LINE
  5
39B
100
AcDbEntity
  8
0
  6
CONTINUOUS
 62
               4
100
AcDbLine
 10
0.0
 20
5.0
 30
0.0
 11
21.0
 21
5.0
 31
0.0
  0
LINE
  5
39C
100
AcDbEntity
  8
0
  6
CONTINUOUS
 62
               4
100
AcDbLine
 10
2.5
 20
36.5
 30
0.0
 11
18.5
 21
36.5
 31
0.0
  0
LINE
  5
39D
100
AcDbEntity
  8
0
  6
CONTINUOUS
 62
               4
100
AcDbLine
 10
1.5
 20
45.0
 30
0.0
 11
1.5
 21
35.0
 31
0.0
  0
LINE
  5
39E
100
AcDbEntity
  8
0
  6
CONTINUOUS
 62
               4
100
AcDbLine
 10
19.5
 20
45.0
 30
0.0
 11
19.5
 21
35.0
 31
0.0
  0
LINE
  5
39F
100
AcDbEntity
  8
0
  6
CONTINUOUS
 62
               4
100
AcDbLine
 10
18.5
 20
43.5
 30
0.0
 11
18.5
 21
36.5
 31
0.0
  0
LINE
  5
3A0
100
AcDbEntity
  8
0
  6
CONTINUOUS
 62
               4
100
AcDbLine
 10
2.5
 20
43.5
 30
0.0
 11
2.5
 21
36.5
 31
0.0
  0
LINE
  5
3A1
100
AcDbEntity
  8
0
  6
CONTINUOUS
 62
               4
100
AcDbLine
 10
1.5
 20
43.5
 30
0.0
 11
19.5
 21
43.5
 31
0.0
  0
LINE
  5
3A2
100
AcDbEntity
  8
0
  6
CONTINUOUS
 62
               4
100
AcDbLine
 10
9.5
 20
43.5
 30
0.0
 11
9.5
 21
36.5
 31
0.0
  0
LINE
  5
3A3
100
AcDbEntity
  8
0
  6
CONTINUOUS
 62
               4
100
AcDbLine
 10
11.5
 20
43.5
 30
0.0
 11
11.5
 21
36.5
 31
0.0
  0
LINE
  5
3A4
100
AcDbEntity
  8
0
  6
CONTINUOUS
 62
               4
100
AcDbLine
 10
2.5
 20
42.5
 30
0.0
 11
9.5
 21
42.5
 31
0.0
  0
LINE
  5
3A5
100
AcDbEntity
  8
0
  6
CONTINUOUS
 62
               4
100
AcDbLine
 10
11.5
 20
42.5
 30
0.0
 11
18.5
 21
42.5
 31
0.0
  0
LINE
  5
3A6
100
AcDbEntity
  8
0
  6
CONTINUOUS
 62
               4
100
AcDbLine
 10
3.0499999999999998
 20
37.299999999999997
 30
0.0
 11
8.9499999999999993
 21
37.299999999999997
 31
0.0
  0
LINE
  5
3A7
100
AcDbEntity
  8
0
  6
CONTINUOUS
 62
               4
100
AcDbLine
 10
3.0499999999999998
 20
37.299999999999997
 30
0.0
 11
3.0499999999999998
 21
36.5
 31
0.0
  0
LINE
  5
3A8
100
AcDbEntity
  8
0
  6
CONTINUOUS
 62
               4
100
AcDbLine
 10
3.8500000000000001
 20
37.299999999999997
 30
0.0
 11
3.8500000000000001
 21
36.5
 31
0.0
  0
LINE
  5
3A9
100
AcDbEntity
  8
0
  6
CONTINUOUS
 62
               4
100
AcDbLine
 10
8.1500000000000004
 20
37.299999999999997
 30
0.0
 11
8.1500000000000004
 21
36.5
 31
0.0
  0
LINE
  5
3AA
100
AcDbEntity
  8
0
  6
CONTINUOUS
 62
               4
100
AcDbLine
 10
8.9499999999999993
 20
37.299999999999997
 30
0.0
 11
8.9499999999999993
 21
36.5
 31
0.0
  0
LINE
  5
3AB
100
AcDbEntity
  8
0
  6
CONTINUOUS
 62
               4
100
AcDbLine
 10
12.050000000000001
 20
37.299999999999997
 30
0.0
 11
12.050000000000001
 21
36.5
 31
0.0
  0
LINE
  5
3AC
100
AcDbEntity
  8
0
  6
CONTINUOUS
 62
               4
100
AcDbLine
 10
12.85
 20
37.299999999999997
 30
0.0
 11
12.85
 21
36.5
 31
0.0
  0
LINE
  5
3AD
100
AcDbEntity
  8
0
  6
CONTINUOUS
 62
               4
100
AcDbLine
 10
17.149999999999999
 20
37.299999999999997
 30
0.0
 11
17.149999999999999
 21
36.5
 31
0.0
  0
LINE
  5
3AE
100
AcDbEntity
  8
0
  6
CONTINUOUS
 62
               4
100
AcDbLine
 10
17.949999999999999
 20
37.299999999999997
 30
0.0
 11
17.949999999999999
 21
36.5
 31
0.0
  0
LINE
  5
3AF
100
AcDbEntity
  8
0
  6
CONTINUOUS
 62
               4
100
AcDbLine
 10
12.050000000000001
 20
37.299999999999997
 30
0.0
 11
17.949999999999999
 21
37.299999999999997
 31
0.0
  0
LINE
  5
3B0
100
AcDbEntity
  8
0
  6
CONTINUOUS
 62
               4
100
AcDbLine
 10
8.9499999999999993
 20
38.0
 30
0.0
 11
3.0499999999999998
 21
38.0
 31
0.0
  0
LINE
  5
3B1
100
AcDbEntity
  8
0
  6
CONTINUOUS
 62
               4
100
AcDbLine
 10
8.9499999999999993
 20
38.0
 30
0.0
 11
8.9499999999999993
 21
37.299999999999997
 31
0.0
  0
LINE
  5
3B2
100
AcDbEntity
  8
0
  6
CONTINUOUS
 62
               4
100
AcDbLine
 10
3.0499999999999998
 20
38.0
 30
0.0
 11
3.0499999999999998
 21
37.299999999999997
 31
0.0
  0
LINE
  5
3B3
100
AcDbEntity
  8
0
  6
CONTINUOUS
 62
               4
100
AcDbLine
 10
17.949999999999999
 20
38.0
 30
0.0
 11
12.050000000000001
 21
38.0
 31
0.0
  0
LINE
  5
3B4
100
AcDbEntity
  8
0
  6
CONTINUOUS
 62
               4
100
AcDbLine
 10
17.949999999999999
 20
38.0
 30
0.0
 11
17.949999999999999
 21
37.299999999999997
 31
0.0
  0
LINE
  5
3B5
100
AcDbEntity
  8
0
  6
CONTINUOUS
 62
               4
100
AcDbLine
 10
12.050000000000001
 20
38.0
 30
0.0
 11
12.050000000000001
 21
37.299999999999997
 31
0.0
  0
LINE
  5
3B6
100
AcDbEntity
  8
0
  6
CONTINUOUS
 62
               4
100
AcDbLine
 10
8.8000000000000007
 20
39.170000000000002
 30
0.0
 11
8.8000000000000007
 21
38.0
 31
0.0
  0
LINE
  5
3B7
100
AcDbEntity
  8
0
  6
CONTINUOUS
 62
               4
100
AcDbLine
 10
3.2000000000000002
 20
39.170000000000002
 30
0.0
 11
3.2000000000000002
 21
38.0
 31
0.0
  0
LINE
  5
3B8
100
AcDbEntity
  8
0
  6
CONTINUOUS
 62
               4
100
AcDbLine
 10
17.800000000000001
 20
39.170000000000002
 30
0.0
 11
17.800000000000001
 21
38.0
 31
0.0
  0
LINE
  5
3B9
100
AcDbEntity
  8
0
  6
CONTINUOUS
 62
               4
100
AcDbLine
 10
12.199999999999999
 20
39.170000000000002
 30
0.0
 11
12.199999999999999
 21
38.0
 31
0.0
  0
LINE
  5
3BA
100
AcDbEntity
  8
0
  6
CONTINUOUS
 62
               4
100
AcDbLine
 10
6.5
 20
54.0
 30
0.0
 11
6.5
 21
45.0
 31
0.0
  0
LINE
  5
3BB
100
AcDbEntity
  8
0
  6
CONTINUOUS
 62
               4
100
AcDbLine
 10
15.0
 20
54.0
 30
0.0
 11
15.0
 21
45.0
 31
0.0
  0
LINE
  5
3BC
100
AcDbEntity
  8
0
  6
CONTINUOUS
 62
               4
100
AcDbLine
 10
8.75
 20
63.5
 30
0.0
 11
8.75
 21
54.200000000000003
 31
0.0
  0
LINE
  5
3BD
100
AcDbEntity
  8
0
  6
CONTINUOUS
 62
               4
100
AcDbLine
 10
12.75
 20
63.5
 30
0.0
 11
12.75
 21
54.200000000000003
 31
0.0
  0
LINE
  5
3BE
100
AcDbEntity
  8
0
  6
CONTINUOUS
 62
               4
100
AcDbLine
 10
6.5
 20
54.0
 30
0.0
 11
9.25
 21
54.0
 31
0.0
  0
LINE
  5
3BF
100
AcDbEntity
  8
0
  6
CONTINUOUS
 62
               4
100
AcDbLine
 10
9.25
 20
54.200000000000003
 30
0.0
 11
9.25
 21
45.0
 31
0.0
  0
LINE
  5
3C0
100
AcDbEntity
  8
0
  6
CONTINUOUS
 62
               4
100
AcDbLine
 10
12.25
 20
54.200000000000003
 30
0.0
 11
12.25
 21
45.0
 31
0.0
  0
LINE
  5
3C1
100
AcDbEntity
  8
0
  6
CONTINUOUS
 62
               4
100
AcDbLine
 10
12.25
 20
54.0
 30
0.0
 11
15.0
 21
54.0
 31
0.0
  0
LINE
  5
3C2
100
AcDbEntity
  8
0
  6
CONTINUOUS
 62
               4
100
AcDbLine
 10
12.25
 20
54.200000000000003
 30
0.0
 11
12.75
 21
54.200000000000003
 31
0.0
  0
LINE
  5
3C3
100
AcDbEntity
  8
0
  6
CONTINUOUS
 62
               4
100
AcDbLine
 10
8.75
 20
54.200000000000003
 30
0.0
 11
9.25
 21
54.200000000000003
 31
0.0
  0
LINE
  5
3C4
100
AcDbEntity
  8
0
  6
CONTINUOUS
 62
               4
100
AcDbLine
 10
8.75
 20
60.5
 30
0.0
 11
12.75
 21
60.5
 31
0.0
  0
LINE
  5
3C5
100
AcDbEntity
  8
0
  6
CONTINUOUS
 62
               4
100
AcDbLine
 10
8.75
 20
63.5
 30
0.0
 11
12.75
 21
63.5
 31
0.0
  0
LINE
  5
3C6
100
AcDbEntity
  8
0
  6
CONTINUOUS
 62
               4
100
AcDbLine
 10
9.25
 20
45.5
 30
0.0
 11
12.25
 21
45.5
 31
0.0
  0
LINE
  5
3C7
100
AcDbEntity
  8
0
  6
CONTINUOUS
 62
               4
100
AcDbLine
 10
6.5
 20
53.5
 30
0.0
 11
9.25
 21
53.5
 31
0.0
  0
LINE
  5
3C8
100
AcDbEntity
  8
0
  6
CONTINUOUS
 62
               4
100
AcDbLine
 10
12.25
 20
53.5
 30
0.0
 11
15.0
 21
53.5
 31
0.0
  0
LINE
  5
3C9
100
AcDbEntity
  8
0
  6
CONTINUOUS
 62
               4
100
AcDbLine
 10
8.75
 20
56.799999999999997
 30
0.0
 11
12.75
 21
56.799999999999997
 31
0.0
  0
LINE
  5
3CA
100
AcDbEntity
  8
0
  6
CONTINUOUS
 62
               4
100
AcDbLine
 10
21.0
 20
45.0
 30
0.0
 11
21.0
 21
35.0
 31
0.0
  0
ARC
  5
3CB
100
AcDbEntity
  8
0
  6
CONTINUOUS
 62
               4
100
AcDbCircle
 10
5.9950000000000001
 20
35.400006980160171
 30
0.0
 40
4.9998664254813097
100
AcDbArc
 50
60.461178304918043
 51
119.53882169508157
  0
ARC
  5
3CC
100
AcDbEntity
  8
0
  6
CONTINUOUS
 62
               4
100
AcDbCircle
 10
8.1346048992753737
 20
39.169595975437289
 30
0.0
 40
0.6653952233854585
100
AcDbArc
 50
0.0347897052336859
 51
60.723462317502779
  0
ARC
  5
3CD
100
AcDbEntity
  8
0
  6
CONTINUOUS
 62
               4
100
AcDbCircle
 10
3.8678720142080398
 20
39.173883164329908
 30
0.0
 40
0.66788330292613
100
AcDbArc
 50
120.39010529469667
 51
180.33312732899978
  0
ARC
  5
3CE
100
AcDbEntity
  8
0
  6
CONTINUOUS
 62
               4
100
AcDbCircle
 10
14.995000000000001
 20
35.400006980160171
 30
0.0
 40
4.9998664254813097
100
AcDbArc
 50
60.46117830491805
 51
119.53882169508159
  0
ARC
  5
3CF
100
AcDbEntity
  8
0
  6
CONTINUOUS
 62
               4
100
AcDbCircle
 10
17.134604899275374
 20
39.169595975437289
 30
0.0
 40
0.6653952233854585
100
AcDbArc
 50
0.0347897052336859
 51
60.723462317502779
  0
ARC
  5
3D0
100
AcDbEntity
  8
0
  6
CONTINUOUS
 62
               4
100
AcDbCircle
 10
12.867872014208038
 20
39.173883164329908
 30
0.0
 40
0.6678833029261305
100
AcDbArc
 50
120.39010529469654
 51
180.33312732899978
  0
ENDBLK
  5
3D1
100
AcDbEntity
  8
0
100
AcDbBlockEnd
  0
BLOCK
  5
3D2
100
AcDbEntity
  8
0
100
AcDbBlockBegin
  2
F10_CONNECTER-11
 70
               0
 10
0.0
 20
0.0
 30
0.0
  3
F10_CONNECTER-11
  1

  0
LINE
  5
3D3
100
AcDbEntity
  8
0
  6
CONTINUOUS
 62
               4
100
AcDbLine
 10
21.0
 20
-30.5
 30
0.0
 11
21.0
 21
62.5
 31
0.0
  0
LINE
  5
3D4
100
AcDbEntity
  8
0
  6
CONTINUOUS
 62
               4
100
AcDbLine
 10
21.0
 20
62.5
 30
0.0
 11
21.25
 21
62.5
 31
0.0
  0
LINE
  5
3D5
100
AcDbEntity
  8
0
  6
CONTINUOUS
 62
               4
100
AcDbLine
 10
21.0
 20
62.5
 30
0.0
 11
0.0
 21
62.5
 31
0.0
  0
LINE
  5
3D6
100
AcDbEntity
  8
0
  6
CONTINUOUS
 62
               4
100
AcDbLine
 10
0.0
 20
-30.5
 30
0.0
 11
0.0
 21
62.5
 31
0.0
  0
LINE
  5
3D7
100
AcDbEntity
  8
0
  6
CONTINUOUS
 62
               4
100
AcDbLine
 10
1.5
 20
-30.5
 30
0.0
 11
0.0
 21
-30.5
 31
0.0
  0
LINE
  5
3D8
100
AcDbEntity
  8
0
  6
CONTINUOUS
 62
               4
100
AcDbLine
 10
9.4299999999999997
 20
55.93
 30
0.0
 11
11.56
 21
58.060000000000002
 31
0.0
  0
LINE
  5
3D9
100
AcDbEntity
  8
0
  6
CONTINUOUS
 62
               4
100
AcDbLine
 10
9.4299999999999997
 20
58.060000000000002
 30
0.0
 11
11.56
 21
55.93
 31
0.0
  0
LINE
  5
3DA
100
AcDbEntity
  8
0
  6
CONTINUOUS
 62
               4
100
AcDbLine
 10
1.5
 20
-28.800000000000001
 30
0.0
 11
19.5
 21
-28.800000000000001
 31
0.0
  0
LINE
  5
3DB
100
AcDbEntity
  8
0
  6
CONTINUOUS
 62
               4
100
AcDbLine
 10
1.5
 20
-29.0
 30
0.0
 11
19.5
 21
-29.0
 31
0.0
  0
LINE
  5
3DC
100
AcDbEntity
  8
0
  6
CONTINUOUS
 62
               4
100
AcDbLine
 10
1.5
 20
-9.5
 30
0.0
 11
1.5
 21
-30.5
 31
0.0
  0
LINE
  5
3DD
100
AcDbEntity
  8
0
  6
CONTINUOUS
 62
               4
100
AcDbLine
 10
19.5
 20
-9.5
 30
0.0
 11
19.5
 21
-30.5
 31
0.0
  0
LINE
  5
3DE
100
AcDbEntity
  8
0
  6
CONTINUOUS
 62
               4
100
AcDbLine
 10
14.0
 20
-28.800000000000001
 30
0.0
 11
14.0
 21
-29.0
 31
0.0
  0
LINE
  5
3DF
100
AcDbEntity
  8
0
  6
CONTINUOUS
 62
               4
100
AcDbLine
 10
7.0
 20
-28.800000000000001
 30
0.0
 11
7.0
 21
-29.0
 31
0.0
  0
LINE
  5
3E0
100
AcDbEntity
  8
0
  6
CONTINUOUS
 62
               4
100
AcDbLine
 10
1.5
 20
-18.5
 30
0.0
 11
19.5
 21
-18.5
 31
0.0
  0
LINE
  5
3E1
100
AcDbEntity
  8
0
  6
CONTINUOUS
 62
               4
100
AcDbLine
 10
1.5
 20
-9.5
 30
0.0
 11
19.5
 21
-9.5
 31
0.0
  0
LINE
  5
3E2
100
AcDbEntity
  8
0
  6
CONTINUOUS
 62
               4
100
AcDbLine
 10
9.5
 20
-28.300000000000001
 30
0.0
 11
11.5
 21
-28.300000000000001
 31
0.0
  0
LINE
  5
3E3
100
AcDbEntity
  8
0
  6
CONTINUOUS
 62
               4
100
AcDbLine
 10
11.5
 20
-18.5
 30
0.0
 11
11.5
 21
-28.300000000000001
 31
0.0
  0
LINE
  5
3E4
100
AcDbEntity
  8
0
  6
CONTINUOUS
 62
               4
100
AcDbLine
 10
9.5
 20
-18.5
 30
0.0
 11
9.5
 21
-28.300000000000001
 31
0.0
  0
LINE
  5
3E5
100
AcDbEntity
  8
0
  6
CONTINUOUS
 62
               4
100
AcDbLine
 10
3.8500000000000001
 20
-27.300000000000001
 30
0.0
 11
8.1500000000000004
 21
-27.300000000000001
 31
0.0
  0
LINE
  5
3E6
100
AcDbEntity
  8
0
  6
CONTINUOUS
 62
               4
100
AcDbLine
 10
3.8500000000000001
 20
-20.300000000000001
 30
0.0
 11
8.1500000000000004
 21
-20.300000000000001
 31
0.0
  0
LINE
  5
3E7
100
AcDbEntity
  8
0
  6
CONTINUOUS
 62
               4
100
AcDbLine
 10
12.85
 20
-20.300000000000001
 30
0.0
 11
12.85
 21
-21.100000000000001
 31
0.0
  0
LINE
  5
3E8
100
AcDbEntity
  8
0
  6
CONTINUOUS
 62
               4
100
AcDbLine
 10
8.1500000000000004
 20
-20.300000000000001
 30
0.0
 11
8.1500000000000004
 21
-21.100000000000001
 31
0.0
  0
LINE
  5
3E9
100
AcDbEntity
  8
0
  6
CONTINUOUS
 62
               4
100
AcDbLine
 10
3.8500000000000001
 20
-20.300000000000001
 30
0.0
 11
3.8500000000000001
 21
-21.100000000000001
 31
0.0
  0
LINE
  5
3EA
100
AcDbEntity
  8
0
  6
CONTINUOUS
 62
               4
100
AcDbLine
 10
17.149999999999999
 20
-20.300000000000001
 30
0.0
 11
17.149999999999999
 21
-21.100000000000001
 31
0.0
  0
LINE
  5
3EB
100
AcDbEntity
  8
0
  6
CONTINUOUS
 62
               4
100
AcDbLine
 10
2.5
 20
-18.5
 30
0.0
 11
2.5
 21
-28.800000000000001
 31
0.0
  0
LINE
  5
3EC
100
AcDbEntity
  8
0
  6
CONTINUOUS
 62
               4
100
AcDbLine
 10
18.5
 20
-18.5
 30
0.0
 11
18.5
 21
-28.800000000000001
 31
0.0
  0
LINE
  5
3ED
100
AcDbEntity
  8
0
  6
CONTINUOUS
 62
               4
100
AcDbLine
 10
12.85
 20
-20.300000000000001
 30
0.0
 11
17.149999999999999
 21
-20.300000000000001
 31
0.0
  0
LINE
  5
3EE
100
AcDbEntity
  8
0
  6
CONTINUOUS
 62
               4
100
AcDbLine
 10
12.85
 20
-27.300000000000001
 30
0.0
 11
17.149999999999999
 21
-27.300000000000001
 31
0.0
  0
LINE
  5
3EF
100
AcDbEntity
  8
0
  6
CONTINUOUS
 62
               4
100
AcDbLine
 10
3.8500000000000001
 20
-26.5
 30
0.0
 11
3.8500000000000001
 21
-27.300000000000001
 31
0.0
  0
LINE
  5
3F0
100
AcDbEntity
  8
0
  6
CONTINUOUS
 62
               4
100
AcDbLine
 10
8.1500000000000004
 20
-26.5
 30
0.0
 11
8.1500000000000004
 21
-27.300000000000001
 31
0.0
  0
LINE
  5
3F1
100
AcDbEntity
  8
0
  6
CONTINUOUS
 62
               4
100
AcDbLine
 10
12.85
 20
-26.5
 30
0.0
 11
12.85
 21
-27.300000000000001
 31
0.0
  0
LINE
  5
3F2
100
AcDbEntity
  8
0
  6
CONTINUOUS
 62
               4
100
AcDbLine
 10
17.149999999999999
 20
-26.5
 30
0.0
 11
17.149999999999999
 21
-27.300000000000001
 31
0.0
  0
LINE
  5
3F3
100
AcDbEntity
  8
0
  6
CONTINUOUS
 62
               4
100
AcDbLine
 10
12.050000000000001
 20
-21.100000000000001
 30
0.0
 11
12.050000000000001
 21
-26.5
 31
0.0
  0
LINE
  5
3F4
100
AcDbEntity
  8
0
  6
CONTINUOUS
 62
               4
100
AcDbLine
 10
17.949999999999999
 20
-21.100000000000001
 30
0.0
 11
17.949999999999999
 21
-26.5
 31
0.0
  0
LINE
  5
3F5
100
AcDbEntity
  8
0
  6
CONTINUOUS
 62
               4
100
AcDbLine
 10
8.9499999999999993
 20
-21.100000000000001
 30
0.0
 11
8.9499999999999993
 21
-26.5
 31
0.0
  0
LINE
  5
3F6
100
AcDbEntity
  8
0
  6
CONTINUOUS
 62
               4
100
AcDbLine
 10
3.0499999999999998
 20
-21.100000000000001
 30
0.0
 11
3.0499999999999998
 21
-26.5
 31
0.0
  0
LINE
  5
3F7
100
AcDbEntity
  8
0
  6
CONTINUOUS
 62
               4
100
AcDbLine
 10
8.1500000000000004
 20
-21.100000000000001
 30
0.0
 11
8.9499999999999993
 21
-21.100000000000001
 31
0.0
  0
LINE
  5
3F8
100
AcDbEntity
  8
0
  6
CONTINUOUS
 62
               4
100
AcDbLine
 10
3.0499999999999998
 20
-21.100000000000001
 30
0.0
 11
3.8500000000000001
 21
-21.100000000000001
 31
0.0
  0
LINE
  5
3F9
100
AcDbEntity
  8
0
  6
CONTINUOUS
 62
               4
100
AcDbLine
 10
3.0499999999999998
 20
-26.5
 30
0.0
 11
3.8500000000000001
 21
-26.5
 31
0.0
  0
LINE
  5
3FA
100
AcDbEntity
  8
0
  6
CONTINUOUS
 62
               4
100
AcDbLine
 10
8.1500000000000004
 20
-26.5
 30
0.0
 11
8.9499999999999993
 21
-26.5
 31
0.0
  0
LINE
  5
3FB
100
AcDbEntity
  8
0
  6
CONTINUOUS
 62
               4
100
AcDbLine
 10
12.050000000000001
 20
-26.5
 30
0.0
 11
12.85
 21
-26.5
 31
0.0
  0
LINE
  5
3FC
100
AcDbEntity
  8
0
  6
CONTINUOUS
 62
               4
100
AcDbLine
 10
17.149999999999999
 20
-26.5
 30
0.0
 11
17.949999999999999
 21
-26.5
 31
0.0
  0
LINE
  5
3FD
100
AcDbEntity
  8
0
  6
CONTINUOUS
 62
               4
100
AcDbLine
 10
17.149999999999999
 20
-21.100000000000001
 30
0.0
 11
17.949999999999999
 21
-21.100000000000001
 31
0.0
  0
LINE
  5
3FE
100
AcDbEntity
  8
0
  6
CONTINUOUS
 62
               4
100
AcDbLine
 10
12.050000000000001
 20
-21.100000000000001
 30
0.0
 11
12.85
 21
-21.100000000000001
 31
0.0
  0
LINE
  5
3FF
100
AcDbEntity
  8
0
  6
CONTINUOUS
 62
               4
100
AcDbLine
 10
1.6000000000000001
 20
-9.75
 30
0.0
 11
1.6000000000000001
 21
-30.75
 31
0.0
  0
LINE
  5
400
100
AcDbEntity
  8
0
  6
CONTINUOUS
 62
               4
100
AcDbLine
 10
19.399999999999999
 20
-9.75
 30
0.0
 11
19.399999999999999
 21
-30.75
 31
0.0
  0
LINE
  5
401
100
AcDbEntity
  8
0
  6
CONTINUOUS
 62
               4
100
AcDbLine
 10
1.6000000000000001
 20
-9.75
 30
0.0
 11
19.399999999999999
 21
-9.75
 31
0.0
  0
LINE
  5
402
100
AcDbEntity
  8
0
  6
CONTINUOUS
 62
               4
100
AcDbLine
 10
1.6000000000000001
 20
-30.75
 30
0.0
 11
19.399999999999999
 21
-30.75
 31
0.0
  0
LINE
  5
403
100
AcDbEntity
  8
0
  6
CONTINUOUS
 62
               4
100
AcDbLine
 10
19.399999999999999
 20
-30.5
 30
0.0
 11
21.0
 21
-30.5
 31
0.0
  0
LINE
  5
404
100
AcDbEntity
  8
0
  6
CONTINUOUS
 62
               4
100
AcDbLine
 10
2.0
 20
-7.5
 30
0.0
 11
19.0
 21
-7.5
 31
0.0
  0
LINE
  5
405
100
AcDbEntity
  8
0
  6
CONTINUOUS
 62
               4
100
AcDbLine
 10
2.0
 20
51.5
 30
0.0
 11
19.0
 21
51.5
 31
0.0
  0
LINE
  5
406
100
AcDbEntity
  8
0
  6
CONTINUOUS
 62
               4
100
AcDbLine
 10
19.0
 20
51.5
 30
0.0
 11
19.0
 21
-7.5
 31
0.0
  0
LINE
  5
407
100
AcDbEntity
  8
0
  6
CONTINUOUS
 62
               4
100
AcDbLine
 10
2.0
 20
51.5
 30
0.0
 11
2.0
 21
-7.5
 31
0.0
  0
LINE
  5
408
100
AcDbEntity
  8
0
  6
CONTINUOUS
 62
               4
100
AcDbLine
 10
4.9299999999999997
 20
-24.859999999999999
 30
0.0
 11
7.0599999999999996
 21
-22.73
 31
0.0
  0
LINE
  5
409
100
AcDbEntity
  8
0
  6
CONTINUOUS
 62
               4
100
AcDbLine
 10
4.9299999999999997
 20
-22.73
 30
0.0
 11
7.0599999999999996
 21
-24.859999999999999
 31
0.0
  0
LINE
  5
40A
100
AcDbEntity
  8
0
  6
CONTINUOUS
 62
               4
100
AcDbLine
 10
13.93
 20
-24.859999999999999
 30
0.0
 11
16.059999999999999
 21
-22.73
 31
0.0
  0
LINE
  5
40B
100
AcDbEntity
  8
0
  6
CONTINUOUS
 62
               4
100
AcDbLine
 10
13.93
 20
-22.73
 30
0.0
 11
16.059999999999999
 21
-24.859999999999999
 31
0.0
  0
LINE
  5
40C
100
AcDbEntity
  8
0
  6
CONTINUOUS
 62
               4
100
AcDbLine
 10
15.0
 20
44.700000000000003
 30
0.0
 11
15.0
 21
-0.7
 31
0.0
  0
LINE
  5
40D
100
AcDbEntity
  8
0
  6
CONTINUOUS
 62
               4
100
AcDbLine
 10
6.0
 20
44.700000000000003
 30
0.0
 11
6.0
 21
-0.7
 31
0.0
  0
LINE
  5
40E
100
AcDbEntity
  8
0
  6
CONTINUOUS
 62
               4
100
AcDbLine
 10
6.5
 20
-0.45
 30
0.0
 11
15.0
 21
-0.45
 31
0.0
  0
LINE
  5
40F
100
AcDbEntity
  8
0
  6
CONTINUOUS
 62
               4
100
AcDbLine
 10
6.5
 20
44.450000000000003
 30
0.0
 11
15.0
 21
44.450000000000003
 31
0.0
  0
LINE
  5
410
100
AcDbEntity
  8
0
  6
CONTINUOUS
 62
               4
100
AcDbLine
 10
6.5
 20
44.450000000000003
 30
0.0
 11
6.5
 21
-0.45
 31
0.0
  0
LINE
  5
411
100
AcDbEntity
  8
0
  6
CONTINUOUS
 62
               4
100
AcDbLine
 10
8.75
 20
43.450000000000003
 30
0.0
 11
12.75
 21
43.450000000000003
 31
0.0
  0
LINE
  5
412
100
AcDbEntity
  8
0
  6
CONTINUOUS
 62
               4
100
AcDbLine
 10
8.75
 20
0.55
 30
0.0
 11
12.75
 21
0.55
 31
0.0
  0
LINE
  5
413
100
AcDbEntity
  8
0
  6
CONTINUOUS
 62
               4
100
AcDbLine
 10
6.5
 20
37.450000000000003
 30
0.0
 11
8.75
 21
37.450000000000003
 31
0.0
  0
LINE
  5
414
100
AcDbEntity
  8
0
  6
CONTINUOUS
 62
               4
100
AcDbLine
 10
6.5
 20
6.5499999999999998
 30
0.0
 11
8.75
 21
6.5499999999999998
 31
0.0
  0
LINE
  5
415
100
AcDbEntity
  8
0
  6
CONTINUOUS
 62
               4
100
AcDbLine
 10
8.75
 20
9.5500000000000007
 30
0.0
 11
12.75
 21
9.5500000000000007
 31
0.0
  0
LINE
  5
416
100
AcDbEntity
  8
0
  6
CONTINUOUS
 62
               4
100
AcDbLine
 10
8.75
 20
34.450000000000003
 30
0.0
 11
12.75
 21
34.450000000000003
 31
0.0
  0
LINE
  5
417
100
AcDbEntity
  8
0
  6
CONTINUOUS
 62
               4
100
AcDbLine
 10
12.75
 20
37.450000000000003
 30
0.0
 11
15.0
 21
37.450000000000003
 31
0.0
  0
LINE
  5
418
100
AcDbEntity
  8
0
  6
CONTINUOUS
 62
               4
100
AcDbLine
 10
12.75
 20
6.5499999999999998
 30
0.0
 11
15.0
 21
6.5499999999999998
 31
0.0
  0
LINE
  5
419
100
AcDbEntity
  8
0
  6
CONTINUOUS
 62
               4
100
AcDbLine
 10
7.5
 20
37.450000000000003
 30
0.0
 11
7.5
 21
6.5499999999999998
 31
0.0
  0
LINE
  5
41A
100
AcDbEntity
  8
0
  6
CONTINUOUS
 62
               4
100
AcDbLine
 10
14.0
 20
37.450000000000003
 30
0.0
 11
14.0
 21
24.0
 31
0.0
  0
LINE
  5
41B
100
AcDbEntity
  8
0
  6
CONTINUOUS
 62
               4
100
AcDbLine
 10
6.5
 20
38.450000000000003
 30
0.0
 11
8.75
 21
38.450000000000003
 31
0.0
  0
LINE
  5
41C
100
AcDbEntity
  8
0
  6
CONTINUOUS
 62
               4
100
AcDbLine
 10
12.75
 20
38.450000000000003
 30
0.0
 11
15.0
 21
38.450000000000003
 31
0.0
  0
LINE
  5
41D
100
AcDbEntity
  8
0
  6
CONTINUOUS
 62
               4
100
AcDbLine
 10
12.75
 20
5.5499999999999998
 30
0.0
 11
15.0
 21
5.5499999999999998
 31
0.0
  0
LINE
  5
41E
100
AcDbEntity
  8
0
  6
CONTINUOUS
 62
               4
100
AcDbLine
 10
6.5
 20
5.5499999999999998
 30
0.0
 11
8.75
 21
5.5499999999999998
 31
0.0
  0
LINE
  5
41F
100
AcDbEntity
  8
0
  6
CONTINUOUS
 62
               4
100
AcDbLine
 10
12.75
 20
9.5500000000000007
 30
0.0
 11
12.75
 21
-0.45
 31
0.0
  0
LINE
  5
420
100
AcDbEntity
  8
0
  6
CONTINUOUS
 62
               4
100
AcDbLine
 10
8.75
 20
9.5500000000000007
 30
0.0
 11
8.75
 21
-0.45
 31
0.0
  0
LINE
  5
421
100
AcDbEntity
  8
0
  6
CONTINUOUS
 62
               4
100
AcDbLine
 10
8.75
 20
44.450000000000003
 30
0.0
 11
8.75
 21
34.450000000000003
 31
0.0
  0
LINE
  5
422
100
AcDbEntity
  8
0
  6
CONTINUOUS
 62
               4
100
AcDbLine
 10
12.75
 20
44.450000000000003
 30
0.0
 11
12.75
 21
34.450000000000003
 31
0.0
  0
LINE
  5
423
100
AcDbEntity
  8
0
  6
CONTINUOUS
 62
               4
100
AcDbLine
 10
6.5
 20
39.950000000000003
 30
0.0
 11
8.75
 21
39.950000000000003
 31
0.0
  0
LINE
  5
424
100
AcDbEntity
  8
0
  6
CONTINUOUS
 62
               4
100
AcDbLine
 10
12.75
 20
39.950000000000003
 30
0.0
 11
15.0
 21
39.950000000000003
 31
0.0
  0
LINE
  5
425
100
AcDbEntity
  8
0
  6
CONTINUOUS
 62
               4
100
AcDbLine
 10
6.5
 20
4.0499999999999998
 30
0.0
 11
8.75
 21
4.0499999999999998
 31
0.0
  0
LINE
  5
426
100
AcDbEntity
  8
0
  6
CONTINUOUS
 62
               4
100
AcDbLine
 10
12.75
 20
4.0499999999999998
 30
0.0
 11
15.0
 21
4.0499999999999998
 31
0.0
  0
LINE
  5
427
100
AcDbEntity
  8
0
  6
CONTINUOUS
 62
               4
100
AcDbLine
 10
6.5
 20
2.7999999999999998
 30
0.0
 11
8.75
 21
2.7999999999999998
 31
0.0
  0
LINE
  5
428
100
AcDbEntity
  8
0
  6
CONTINUOUS
 62
               4
100
AcDbLine
 10
12.75
 20
2.7999999999999998
 30
0.0
 11
15.0
 21
2.7999999999999998
 31
0.0
  0
LINE
  5
429
100
AcDbEntity
  8
0
  6
CONTINUOUS
 62
               4
100
AcDbLine
 10
6.5
 20
41.200000000000003
 30
0.0
 11
8.75
 21
41.200000000000003
 31
0.0
  0
LINE
  5
42A
100
AcDbEntity
  8
0
  6
CONTINUOUS
 62
               4
100
AcDbLine
 10
12.75
 20
41.200000000000003
 30
0.0
 11
15.0
 21
41.200000000000003
 31
0.0
  0
LINE
  5
42B
100
AcDbEntity
  8
0
  6
CONTINUOUS
 62
               4
100
AcDbLine
 10
13.0
 20
24.0
 30
0.0
 11
15.0
 21
24.0
 31
0.0
  0
LINE
  5
42C
100
AcDbEntity
  8
0
  6
CONTINUOUS
 62
               4
100
AcDbLine
 10
13.0
 20
20.0
 30
0.0
 11
15.0
 21
20.0
 31
0.0
  0
LINE
  5
42D
100
AcDbEntity
  8
0
  6
CONTINUOUS
 62
               4
100
AcDbLine
 10
13.0
 20
24.0
 30
0.0
 11
13.0
 21
20.0
 31
0.0
  0
LINE
  5
42E
100
AcDbEntity
  8
0
  6
CONTINUOUS
 62
               4
100
AcDbLine
 10
14.0
 20
20.0
 30
0.0
 11
14.0
 21
6.5499999999999998
 31
0.0
  0
LINE
  5
42F
100
AcDbEntity
  8
0
  6
CONTINUOUS
 62
               4
100
AcDbLine
 10
8.75
 20
35.450000000000003
 30
0.0
 11
12.75
 21
35.450000000000003
 31
0.0
  0
LINE
  5
430
100
AcDbEntity
  8
0
  6
CONTINUOUS
 62
               4
100
AcDbLine
 10
8.75
 20
8.5500000000000007
 30
0.0
 11
12.75
 21
8.5500000000000007
 31
0.0
  0
LINE
  5
431
100
AcDbEntity
  8
0
  6
CONTINUOUS
 62
               4
100
AcDbLine
 10
8.75
 20
40.950000000000003
 30
0.0
 11
12.75
 21
40.950000000000003
 31
0.0
  0
LINE
  5
432
100
AcDbEntity
  8
0
  6
CONTINUOUS
 62
               4
100
AcDbLine
 10
8.75
 20
3.0499999999999998
 30
0.0
 11
12.75
 21
3.0499999999999998
 31
0.0
  0
LINE
  5
433
100
AcDbEntity
  8
0
  6
CONTINUOUS
 62
               4
100
AcDbLine
 10
8.75
 20
3.8500000000000001
 30
0.0
 11
12.75
 21
3.8500000000000001
 31
0.0
  0
LINE
  5
434
100
AcDbEntity
  8
0
  6
CONTINUOUS
 62
               4
100
AcDbLine
 10
8.75
 20
40.149999999999999
 30
0.0
 11
12.75
 21
40.149999999999999
 31
0.0
  0
LINE
  5
435
100
AcDbEntity
  8
0
  6
CONTINUOUS
 62
               4
100
AcDbLine
 10
8.75
 20
39.850000000000001
 30
0.0
 11
12.75
 21
39.850000000000001
 31
0.0
  0
LINE
  5
436
100
AcDbEntity
  8
0
  6
CONTINUOUS
 62
               4
100
AcDbLine
 10
8.75
 20
39.549999999999997
 30
0.0
 11
12.75
 21
39.549999999999997
 31
0.0
  0
LINE
  5
437
100
AcDbEntity
  8
0
  6
CONTINUOUS
 62
               4
100
AcDbLine
 10
8.75
 20
39.25
 30
0.0
 11
12.75
 21
39.25
 31
0.0
  0
LINE
  5
438
100
AcDbEntity
  8
0
  6
CONTINUOUS
 62
               4
100
AcDbLine
 10
8.75
 20
38.950000000000003
 30
0.0
 11
12.75
 21
38.950000000000003
 31
0.0
  0
LINE
  5
439
100
AcDbEntity
  8
0
  6
CONTINUOUS
 62
               4
100
AcDbLine
 10
8.75
 20
38.649999999999999
 30
0.0
 11
12.75
 21
38.649999999999999
 31
0.0
  0
LINE
  5
43A
100
AcDbEntity
  8
0
  6
CONTINUOUS
 62
               4
100
AcDbLine
 10
8.75
 20
38.350000000000001
 30
0.0
 11
12.75
 21
38.350000000000001
 31
0.0
  0
LINE
  5
43B
100
AcDbEntity
  8
0
  6
CONTINUOUS
 62
               4
100
AcDbLine
 10
8.75
 20
38.049999999999997
 30
0.0
 11
12.75
 21
38.049999999999997
 31
0.0
  0
LINE
  5
43C
100
AcDbEntity
  8
0
  6
CONTINUOUS
 62
               4
100
AcDbLine
 10
8.75
 20
4.1500000000000004
 30
0.0
 11
12.75
 21
4.1500000000000004
 31
0.0
  0
LINE
  5
43D
100
AcDbEntity
  8
0
  6
CONTINUOUS
 62
               4
100
AcDbLine
 10
8.75
 20
4.4500000000000002
 30
0.0
 11
12.75
 21
4.4500000000000002
 31
0.0
  0
LINE
  5
43E
100
AcDbEntity
  8
0
  6
CONTINUOUS
 62
               4
100
AcDbLine
 10
8.75
 20
4.75
 30
0.0
 11
12.75
 21
4.75
 31
0.0
  0
LINE
  5
43F
100
AcDbEntity
  8
0
  6
CONTINUOUS
 62
               4
100
AcDbLine
 10
8.75
 20
5.0499999999999998
 30
0.0
 11
12.75
 21
5.0499999999999998
 31
0.0
  0
LINE
  5
440
100
AcDbEntity
  8
0
  6
CONTINUOUS
 62
               4
100
AcDbLine
 10
8.75
 20
5.3499999999999996
 30
0.0
 11
12.75
 21
5.3499999999999996
 31
0.0
  0
LINE
  5
441
100
AcDbEntity
  8
0
  6
CONTINUOUS
 62
               4
100
AcDbLine
 10
8.75
 20
5.6500000000000004
 30
0.0
 11
12.75
 21
5.6500000000000004
 31
0.0
  0
LINE
  5
442
100
AcDbEntity
  8
0
  6
CONTINUOUS
 62
               4
100
AcDbLine
 10
8.75
 20
5.9500000000000002
 30
0.0
 11
12.75
 21
5.9500000000000002
 31
0.0
  0
LINE
  5
443
100
AcDbEntity
  8
0
  6
CONTINUOUS
 62
               4
100
AcDbLine
 10
6.0
 20
44.700000000000003
 30
0.0
 11
15.0
 21
44.700000000000003
 31
0.0
  0
LINE
  5
444
100
AcDbEntity
  8
0
  6
CONTINUOUS
 62
               4
100
AcDbLine
 10
6.0
 20
-0.7
 30
0.0
 11
15.0
 21
-0.7
 31
0.0
  0
CIRCLE
  5
445
100
AcDbEntity
  8
0
  6
CONTINUOUS
 62
               4
100
AcDbCircle
 10
10.5
 20
57.000015258789063
 30
0.0
 40
3.1999998092651367
  0
CIRCLE
  5
446
100
AcDbEntity
  8
0
  6
CONTINUOUS
 62
               4
100
AcDbCircle
 10
16.0
 20
-13.999984741210938
 30
0.0
 40
1.5999994277954102
  0
CIRCLE
  5
447
100
AcDbEntity
  8
0
  6
CONTINUOUS
 62
               4
100
AcDbCircle
 10
6.0
 20
-23.79998779296875
 30
0.0
 40
2.7999992370605469
  0
CIRCLE
  5
448
100
AcDbEntity
  8
0
  6
CONTINUOUS
 62
               4
100
AcDbCircle
 10
15.0
 20
-23.79998779296875
 30
0.0
 40
2.7999992370605469
  0
CIRCLE
  5
449
100
AcDbEntity
  8
0
  6
CONTINUOUS
 62
               4
100
AcDbCircle
 10
9.699981689453125
 20
10.57000732421875
 30
0.0
 40
0.3199996948242188
  0
CIRCLE
  5
44A
100
AcDbEntity
  8
0
  6
CONTINUOUS
 62
               4
100
AcDbCircle
 10
12.239990234375
 20
10.57000732421875
 30
0.0
 40
0.3199996948242188
  0
CIRCLE
  5
44B
100
AcDbEntity
  8
0
  6
CONTINUOUS
 62
               4
100
AcDbCircle
 10
9.699981689453125
 20
33.430007934570312
 30
0.0
 40
0.3199996948242188
  0
CIRCLE
  5
44C
100
AcDbEntity
  8
0
  6
CONTINUOUS
 62
               4
100
AcDbCircle
 10
12.239990234375
 20
33.430007934570312
 30
0.0
 40
0.3199996948242188
  0
CIRCLE
  5
44D
100
AcDbEntity
  8
0
  6
CONTINUOUS
 62
               4
100
AcDbCircle
 10
9.699981689453125
 20
30.8900146484375
 30
0.0
 40
0.3199996948242188
  0
CIRCLE
  5
44E
100
AcDbEntity
  8
0
  6
CONTINUOUS
 62
               4
100
AcDbCircle
 10
12.239990234375
 20
30.8900146484375
 30
0.0
 40
0.3199996948242188
  0
CIRCLE
  5
44F
100
AcDbEntity
  8
0
  6
CONTINUOUS
 62
               4
100
AcDbCircle
 10
9.699981689453125
 20
28.350021362304687
 30
0.0
 40
0.3199996948242188
  0
CIRCLE
  5
450
100
AcDbEntity
  8
0
  6
CONTINUOUS
 62
               4
100
AcDbCircle
 10
12.239990234375
 20
28.350021362304687
 30
0.0
 40
0.3199996948242188
  0
CIRCLE
  5
451
100
AcDbEntity
  8
0
  6
CONTINUOUS
 62
               4
100
AcDbCircle
 10
9.699981689453125
 20
25.810012817382812
 30
0.0
 40
0.3199996948242188
  0
CIRCLE
  5
452
100
AcDbEntity
  8
0
  6
CONTINUOUS
 62
               4
100
AcDbCircle
 10
12.239990234375
 20
25.810012817382812
 30
0.0
 40
0.3199996948242188
  0
CIRCLE
  5
453
100
AcDbEntity
  8
0
  6
CONTINUOUS
 62
               4
100
AcDbCircle
 10
9.699981689453125
 20
23.270004272460938
 30
0.0
 40
0.3199996948242188
  0
CIRCLE
  5
454
100
AcDbEntity
  8
0
  6
CONTINUOUS
 62
               4
100
AcDbCircle
 10
12.239990234375
 20
23.270004272460938
 30
0.0
 40
0.3199996948242188
  0
CIRCLE
  5
455
100
AcDbEntity
  8
0
  6
CONTINUOUS
 62
               4
100
AcDbCircle
 10
9.699981689453125
 20
20.730010986328125
 30
0.0
 40
0.3199996948242188
  0
CIRCLE
  5
456
100
AcDbEntity
  8
0
  6
CONTINUOUS
 62
               4
100
AcDbCircle
 10
12.239990234375
 20
20.730010986328125
 30
0.0
 40
0.3199996948242188
  0
CIRCLE
  5
457
100
AcDbEntity
  8
0
  6
CONTINUOUS
 62
               4
100
AcDbCircle
 10
9.699981689453125
 20
18.190017700195313
 30
0.0
 40
0.3199996948242188
  0
CIRCLE
  5
458
100
AcDbEntity
  8
0
  6
CONTINUOUS
 62
               4
100
AcDbCircle
 10
12.239990234375
 20
18.190017700195313
 30
0.0
 40
0.3199996948242188
  0
CIRCLE
  5
459
100
AcDbEntity
  8
0
  6
CONTINUOUS
 62
               4
100
AcDbCircle
 10
9.699981689453125
 20
15.650009155273438
 30
0.0
 40
0.3199996948242188
  0
CIRCLE
  5
45A
100
AcDbEntity
  8
0
  6
CONTINUOUS
 62
               4
100
AcDbCircle
 10
12.239990234375
 20
15.650009155273438
 30
0.0
 40
0.3199996948242188
  0
CIRCLE
  5
45B
100
AcDbEntity
  8
0
  6
CONTINUOUS
 62
               4
100
AcDbCircle
 10
9.699981689453125
 20
13.110000610351562
 30
0.0
 40
0.3199996948242188
  0
CIRCLE
  5
45C
100
AcDbEntity
  8
0
  6
CONTINUOUS
 62
               4
100
AcDbCircle
 10
12.239990234375
 20
13.110000610351562
 30
0.0
 40
0.3199996948242188
  0
ENDBLK
  5
45D
100
AcDbEntity
  8
0
100
AcDbBlockEnd
  0
BLOCK
  5
45E
100
AcDbEntity
  8
0
100
AcDbBlockBegin
  2
F10_CONNECTER-12
 70
               0
 10
0.0
 20
0.0
 30
0.0
  3
F10_CONNECTER-12
  1

  0
LINE
  5
45F
100
AcDbEntity
  8
0
  6
CONTINUOUS
 62
               4
100
AcDbLine
 10
35.0
 20
62.5
 30
0.0
 11
45.0
 21
62.5
 31
0.0
  0
LINE
  5
460
100
AcDbEntity
  8
0
  6
CONTINUOUS
 62
               4
100
AcDbLine
 10
35.0
 20
-30.5
 30
0.0
 11
45.0
 21
-30.5
 31
0.0
  0
LINE
  5
461
100
AcDbEntity
  8
0
  6
CONTINUOUS
 62
               4
100
AcDbLine
 10
45.0
 20
62.5
 30
0.0
 11
45.0
 21
-30.5
 31
0.0
  0
LINE
  5
462
100
AcDbEntity
  8
0
  6
CONTINUOUS
 62
               4
100
AcDbLine
 10
53.5
 20
38.450000000000003
 30
0.0
 11
53.5
 21
37.82
 31
0.0
  0
LINE
  5
463
100
AcDbEntity
  8
0
  6
CONTINUOUS
 62
               4
100
AcDbLine
 10
45.0
 20
-0.45
 30
0.0
 11
56.759999999999998
 21
4.0499999999999998
 31
0.0
  0
LINE
  5
464
100
AcDbEntity
  8
0
  6
CONTINUOUS
 62
               4
100
AcDbLine
 10
50.0
 20
35.310000000000002
 30
0.0
 11
50.0
 21
8.6799999999999997
 31
0.0
  0
LINE
  5
465
100
AcDbEntity
  8
0
  6
CONTINUOUS
 62
               4
100
AcDbLine
 10
56.759999999999998
 20
39.950000000000003
 30
0.0
 11
45.0
 21
44.450000000000003
 31
0.0
  0
LINE
  5
466
100
AcDbEntity
  8
0
  6
CONTINUOUS
 62
               4
100
AcDbLine
 10
51.079999999999998
 20
36.759999999999998
 30
0.0
 11
53.130000000000003
 21
37.340000000000003
 31
0.0
  0
LINE
  5
467
100
AcDbEntity
  8
0
  6
CONTINUOUS
 62
               4
100
AcDbLine
 10
51.079999999999998
 20
7.2300000000000004
 30
0.0
 11
53.130000000000003
 21
6.6500000000000004
 31
0.0
  0
LINE
  5
468
100
AcDbEntity
  8
0
  6
CONTINUOUS
 62
               4
100
AcDbLine
 10
53.5
 20
6.1699999999999999
 30
0.0
 11
53.5
 21
5.5499999999999998
 31
0.0
  0
LINE
  5
469
100
AcDbEntity
  8
0
  6
CONTINUOUS
 62
               4
100
AcDbLine
 10
53.0
 20
3.6499999999999999
 30
0.0
 11
53.0
 21
3.29
 31
0.0
  0
LINE
  5
46A
100
AcDbEntity
  8
0
  6
CONTINUOUS
 62
               4
100
AcDbLine
 10
53.0
 20
40.700000000000003
 30
0.0
 11
53.0
 21
40.340000000000003
 31
0.0
  0
LINE
  5
46B
100
AcDbEntity
  8
0
  6
CONTINUOUS
 62
               4
100
AcDbLine
 10
53.0
 20
5.5499999999999998
 30
0.0
 11
53.5
 21
5.5499999999999998
 31
0.0
  0
LINE
  5
46C
100
AcDbEntity
  8
0
  6
CONTINUOUS
 62
               4
100
AcDbLine
 10
53.0
 20
38.450000000000003
 30
0.0
 11
53.5
 21
38.450000000000003
 31
0.0
  0
LINE
  5
46D
100
AcDbEntity
  8
0
  6
CONTINUOUS
 62
               4
100
AcDbLine
 10
53.32
 20
6.5499999999999998
 30
0.0
 11
59.5
 21
6.5499999999999998
 31
0.0
  0
LINE
  5
46E
100
AcDbEntity
  8
0
  6
CONTINUOUS
 62
               4
100
AcDbLine
 10
53.32
 20
37.450000000000003
 30
0.0
 11
59.5
 21
37.450000000000003
 31
0.0
  0
LINE
  5
46F
100
AcDbEntity
  8
0
  6
CONTINUOUS
 62
               4
100
AcDbLine
 10
56.759999999999998
 20
4.0499999999999998
 30
0.0
 11
60.32
 21
4.0499999999999998
 31
0.0
  0
LINE
  5
470
100
AcDbEntity
  8
0
  6
CONTINUOUS
 62
               4
100
AcDbLine
 10
56.759999999999998
 20
39.950000000000003
 30
0.0
 11
60.32
 21
39.950000000000003
 31
0.0
  0
LINE
  5
471
100
AcDbEntity
  8
0
  6
CONTINUOUS
 62
               4
100
AcDbLine
 10
54.0
 20
6.5499999999999998
 30
0.0
 11
54.0
 21
2.9900000000000002
 31
0.0
  0
LINE
  5
472
100
AcDbEntity
  8
0
  6
CONTINUOUS
 62
               4
100
AcDbLine
 10
54.0
 20
41.0
 30
0.0
 11
54.0
 21
37.450000000000003
 31
0.0
  0
LINE
  5
473
100
AcDbEntity
  8
0
  6
CONTINUOUS
 62
               4
100
AcDbLine
 10
59.5
 20
37.450000000000003
 30
0.0
 11
59.5
 21
36.450000000000003
 31
0.0
  0
LINE
  5
474
100
AcDbEntity
  8
0
  6
CONTINUOUS
 62
               4
100
AcDbLine
 10
59.5
 20
7.5499999999999998
 30
0.0
 11
59.5
 21
6.5499999999999998
 31
0.0
  0
LINE
  5
475
100
AcDbEntity
  8
0
  6
CONTINUOUS
 62
               4
100
AcDbLine
 10
59.5
 20
35.450000000000003
 30
0.0
 11
59.689999999999998
 21
35.450000000000003
 31
0.0
  0
LINE
  5
476
100
AcDbEntity
  8
0
  6
CONTINUOUS
 62
               4
100
AcDbLine
 10
59.5
 20
8.5500000000000007
 30
0.0
 11
59.689999999999998
 21
8.5500000000000007
 31
0.0
  0
LINE
  5
477
100
AcDbEntity
  8
0
  6
CONTINUOUS
 62
               4
100
AcDbLine
 10
60.130000000000003
 20
8.2699999999999996
 30
0.0
 11
61.0
 21
6.5499999999999998
 31
0.0
  0
LINE
  5
478
100
AcDbEntity
  8
0
  6
CONTINUOUS
 62
               4
100
AcDbLine
 10
60.130000000000003
 20
35.719999999999999
 30
0.0
 11
61.0
 21
37.450000000000003
 31
0.0
  0
LINE
  5
479
100
AcDbEntity
  8
0
  6
CONTINUOUS
 62
               4
100
AcDbLine
 10
61.0
 20
37.450000000000003
 30
0.0
 11
61.5
 21
38.049999999999997
 31
0.0
  0
LINE
  5
47A
100
AcDbEntity
  8
0
  6
CONTINUOUS
 62
               4
100
AcDbLine
 10
61.0
 20
6.5499999999999998
 30
0.0
 11
61.5
 21
5.9500000000000002
 31
0.0
  0
LINE
  5
47B
100
AcDbEntity
  8
0
  6
CONTINUOUS
 62
               4
100
AcDbLine
 10
60.32
 20
4.0499999999999998
 30
0.0
 11
63.0
 21
3.0699999999999998
 31
0.0
  0
LINE
  5
47C
100
AcDbEntity
  8
0
  6
CONTINUOUS
 62
               4
100
AcDbLine
 10
60.32
 20
39.950000000000003
 30
0.0
 11
63.0
 21
40.920000000000002
 31
0.0
  0
LINE
  5
47D
100
AcDbEntity
  8
0
  6
CONTINUOUS
 62
               4
100
AcDbLine
 10
61.5
 20
38.049999999999997
 30
0.0
 11
61.75
 21
38.049999999999997
 31
0.0
  0
LINE
  5
47E
100
AcDbEntity
  8
0
  6
CONTINUOUS
 62
               4
100
AcDbLine
 10
61.75
 20
38.350000000000001
 30
0.0
 11
62.0
 21
38.350000000000001
 31
0.0
  0
LINE
  5
47F
100
AcDbEntity
  8
0
  6
CONTINUOUS
 62
               4
100
AcDbLine
 10
62.0
 20
38.649999999999999
 30
0.0
 11
62.25
 21
38.649999999999999
 31
0.0
  0
LINE
  5
480
100
AcDbEntity
  8
0
  6
CONTINUOUS
 62
               4
100
AcDbLine
 10
62.25
 20
38.950000000000003
 30
0.0
 11
62.5
 21
38.950000000000003
 31
0.0
  0
LINE
  5
481
100
AcDbEntity
  8
0
  6
CONTINUOUS
 62
               4
100
AcDbLine
 10
62.5
 20
39.25
 30
0.0
 11
62.75
 21
39.25
 31
0.0
  0
LINE
  5
482
100
AcDbEntity
  8
0
  6
CONTINUOUS
 62
               4
100
AcDbLine
 10
62.75
 20
39.549999999999997
 30
0.0
 11
63.0
 21
39.549999999999997
 31
0.0
  0
LINE
  5
483
100
AcDbEntity
  8
0
  6
CONTINUOUS
 62
               4
100
AcDbLine
 10
63.0
 20
39.850000000000001
 30
0.0
 11
63.25
 21
39.850000000000001
 31
0.0
  0
LINE
  5
484
100
AcDbEntity
  8
0
  6
CONTINUOUS
 62
               4
100
AcDbLine
 10
61.75
 20
38.350000000000001
 30
0.0
 11
61.75
 21
38.049999999999997
 31
0.0
  0
LINE
  5
485
100
AcDbEntity
  8
0
  6
CONTINUOUS
 62
               4
100
AcDbLine
 10
62.0
 20
38.649999999999999
 30
0.0
 11
62.0
 21
38.350000000000001
 31
0.0
  0
LINE
  5
486
100
AcDbEntity
  8
0
  6
CONTINUOUS
 62
               4
100
AcDbLine
 10
62.25
 20
38.950000000000003
 30
0.0
 11
62.25
 21
38.649999999999999
 31
0.0
  0
LINE
  5
487
100
AcDbEntity
  8
0
  6
CONTINUOUS
 62
               4
100
AcDbLine
 10
62.5
 20
39.25
 30
0.0
 11
62.5
 21
38.950000000000003
 31
0.0
  0
LINE
  5
488
100
AcDbEntity
  8
0
  6
CONTINUOUS
 62
               4
100
AcDbLine
 10
62.75
 20
39.549999999999997
 30
0.0
 11
62.75
 21
39.25
 31
0.0
  0
LINE
  5
489
100
AcDbEntity
  8
0
  6
CONTINUOUS
 62
               4
100
AcDbLine
 10
63.0
 20
39.850000000000001
 30
0.0
 11
63.0
 21
39.549999999999997
 31
0.0
  0
LINE
  5
48A
100
AcDbEntity
  8
0
  6
CONTINUOUS
 62
               4
100
AcDbLine
 10
63.25
 20
40.149999999999999
 30
0.0
 11
63.409999999999997
 21
40.340000000000003
 31
0.0
  0
LINE
  5
48B
100
AcDbEntity
  8
0
  6
CONTINUOUS
 62
               4
100
AcDbLine
 10
63.25
 20
40.149999999999999
 30
0.0
 11
63.25
 21
39.850000000000001
 31
0.0
  0
LINE
  5
48C
100
AcDbEntity
  8
0
  6
CONTINUOUS
 62
               4
100
AcDbLine
 10
61.5
 20
5.9500000000000002
 30
0.0
 11
61.75
 21
5.9500000000000002
 31
0.0
  0
LINE
  5
48D
100
AcDbEntity
  8
0
  6
CONTINUOUS
 62
               4
100
AcDbLine
 10
61.75
 20
5.6500000000000004
 30
0.0
 11
62.0
 21
5.6500000000000004
 31
0.0
  0
LINE
  5
48E
100
AcDbEntity
  8
0
  6
CONTINUOUS
 62
               4
100
AcDbLine
 10
62.0
 20
5.3499999999999996
 30
0.0
 11
62.25
 21
5.3499999999999996
 31
0.0
  0
LINE
  5
48F
100
AcDbEntity
  8
0
  6
CONTINUOUS
 62
               4
100
AcDbLine
 10
62.25
 20
5.0499999999999998
 30
0.0
 11
62.5
 21
5.0499999999999998
 31
0.0
  0
LINE
  5
490
100
AcDbEntity
  8
0
  6
CONTINUOUS
 62
               4
100
AcDbLine
 10
62.5
 20
4.75
 30
0.0
 11
62.75
 21
4.75
 31
0.0
  0
LINE
  5
491
100
AcDbEntity
  8
0
  6
CONTINUOUS
 62
               4
100
AcDbLine
 10
62.75
 20
4.4500000000000002
 30
0.0
 11
63.0
 21
4.4500000000000002
 31
0.0
  0
LINE
  5
492
100
AcDbEntity
  8
0
  6
CONTINUOUS
 62
               4
100
AcDbLine
 10
63.0
 20
4.1500000000000004
 30
0.0
 11
63.25
 21
4.1500000000000004
 31
0.0
  0
LINE
  5
493
100
AcDbEntity
  8
0
  6
CONTINUOUS
 62
               4
100
AcDbLine
 10
63.25
 20
4.1500000000000004
 30
0.0
 11
63.25
 21
3.8500000000000001
 31
0.0
  0
LINE
  5
494
100
AcDbEntity
  8
0
  6
CONTINUOUS
 62
               4
100
AcDbLine
 10
63.0
 20
4.4500000000000002
 30
0.0
 11
63.0
 21
4.1500000000000004
 31
0.0
  0
LINE
  5
495
100
AcDbEntity
  8
0
  6
CONTINUOUS
 62
               4
100
AcDbLine
 10
62.75
 20
4.75
 30
0.0
 11
62.75
 21
4.4500000000000002
 31
0.0
  0
LINE
  5
496
100
AcDbEntity
  8
0
  6
CONTINUOUS
 62
               4
100
AcDbLine
 10
62.5
 20
5.0499999999999998
 30
0.0
 11
62.5
 21
4.75
 31
0.0
  0
LINE
  5
497
100
AcDbEntity
  8
0
  6
CONTINUOUS
 62
               4
100
AcDbLine
 10
62.25
 20
5.3499999999999996
 30
0.0
 11
62.25
 21
5.0499999999999998
 31
0.0
  0
LINE
  5
498
100
AcDbEntity
  8
0
  6
CONTINUOUS
 62
               4
100
AcDbLine
 10
62.0
 20
5.6500000000000004
 30
0.0
 11
62.0
 21
5.3499999999999996
 31
0.0
  0
LINE
  5
499
100
AcDbEntity
  8
0
  6
CONTINUOUS
 62
               4
100
AcDbLine
 10
61.75
 20
5.9500000000000002
 30
0.0
 11
61.75
 21
5.6500000000000004
 31
0.0
  0
LINE
  5
49A
100
AcDbEntity
  8
0
  6
CONTINUOUS
 62
               4
100
AcDbLine
 10
63.25
 20
3.8500000000000001
 30
0.0
 11
63.409999999999997
 21
3.6499999999999999
 31
0.0
  0
ARC
  5
49B
100
AcDbEntity
  8
0
  6
CONTINUOUS
 62
               4
100
AcDbCircle
 10
51.500674682319094
 20
35.319462995238183
 30
0.0
 40
1.5007045180289142
100
AcDbArc
 50
106.27919253822705
 51
180.36129249651077
  0
ARC
  5
49C
100
AcDbEntity
  8
0
  6
CONTINUOUS
 62
               4
100
AcDbCircle
 10
51.505490198120917
 20
8.6741237337728219
 30
0.0
 40
1.5055016662703944
100
AcDbArc
 50
179.77636284531718
 51
253.58315211994298
  0
ARC
  5
49D
100
AcDbEntity
  8
0
  6
CONTINUOUS
 62
               4
100
AcDbCircle
 10
52.997888604327073
 20
37.824440034164539
 30
0.0
 40
0.5021310262949208
100
AcDbArc
 50
285.25417047339448
 51
359.49336224926617
  0
ARC
  5
49E
100
AcDbEntity
  8
0
  6
CONTINUOUS
 62
               4
100
AcDbCircle
 10
53.002733337881772
 20
6.1692944479505369
 30
0.0
 40
0.4972671626579562
100
AcDbArc
 50
0.0812946666510098
 51
75.171172610687435
  0
ARC
  5
49F
100
AcDbEntity
  8
0
  6
CONTINUOUS
 62
               4
100
AcDbCircle
 10
52.004540744025242
 20
40.696399444748835
 30
0.0
 40
0.9954657675198729
100
AcDbArc
 50
0.2072367291144625
 51
69.694066094635019
  0
ARC
  5
4A0
100
AcDbEntity
  8
0
  6
CONTINUOUS
 62
               4
100
AcDbCircle
 10
51.999852336890172
 20
3.2968773989477285
 30
0.0
 40
1.0001713086468418
100
AcDbArc
 50
290.49267872284287
 51
359.60601845340562
  0
ARC
  5
4A1
100
AcDbEntity
  8
0
  6
CONTINUOUS
 62
               4
100
AcDbCircle
 10
53.000713714103249
 20
39.196618261699989
 30
0.0
 40
0.746618602829934
100
AcDbArc
 50
113.75130316157721
 51
269.94522931525074
  0
ARC
  5
4A2
100
AcDbEntity
  8
0
  6
CONTINUOUS
 62
               4
100
AcDbCircle
 10
52.999746964516781
 20
4.798802715725671
 30
0.0
 40
0.7511973268909323
100
AcDbArc
 50
89.98070032332275
 51
246.48272181263542
  0
ARC
  5
4A3
100
AcDbEntity
  8
0
  6
CONTINUOUS
 62
               4
100
AcDbCircle
 10
52.496588905143845
 20
40.340485496645321
 30
0.0
 40
0.5034113289659543
100
AcDbArc
 50
293.83257290693501
 51
359.94474317231976
  0
ARC
  5
4A4
100
AcDbEntity
  8
0
  6
CONTINUOUS
 62
               4
100
AcDbCircle
 10
52.501201817782778
 20
3.6525229246409419
 30
0.0
 40
0.498804562661521
100
AcDbArc
 50
359.71020002396125
 51
66.512483896781617
  0
ARC
  5
4A5
100
AcDbEntity
  8
0
  6
CONTINUOUS
 62
               4
100
AcDbCircle
 10
59.49999389652163
 20
35.950006103478373
 30
0.0
 40
0.4999938965588822
100
AcDbArc
 50
89.999300584360213
 51
180.00069941563919
  0
ARC
  5
4A6
100
AcDbEntity
  8
0
  6
CONTINUOUS
 62
               4
100
AcDbCircle
 10
59.500009155357255
 20
8.050009155357257
 30
0.0
 40
0.5000091554410757
100
AcDbArc
 50
180.001049107451
 51
269.99895089254818
  0
ARC
  5
4A7
100
AcDbEntity
  8
0
  6
CONTINUOUS
 62
               4
100
AcDbCircle
 10
59.500006103552877
 20
35.95000610355288
 30
0.0
 40
0.5000061035901293
100
AcDbArc
 50
180.00069940710162
 51
269.99930059289738
  0
ARC
  5
4A8
100
AcDbEntity
  8
0
  6
CONTINUOUS
 62
               4
100
AcDbCircle
 10
59.499990844810384
 20
8.0500091551896187
 30
0.0
 40
0.4999908448942009
100
AcDbArc
 50
89.998950873338728
 51
180.00104912666089
  0
ARC
  5
4A9
100
AcDbEntity
  8
0
  6
CONTINUOUS
 62
               4
100
AcDbCircle
 10
59.687369139480701
 20
35.947805846772191
 30
0.0
 40
0.497812798657937
100
AcDbArc
 50
270.30280038264971
 51
332.76678342772539
  0
ARC
  5
4AA
100
AcDbEntity
  8
0
  6
CONTINUOUS
 62
               4
100
AcDbCircle
 10
59.68379101292205
 20
8.0545287345917949
 30
0.0
 40
0.4955101677723104
100
AcDbArc
 50
25.775578616557802
 51
89.282036801744908
  0
ARC
  5
4AB
100
AcDbEntity
  8
0
  6
CONTINUOUS
 62
               4
100
AcDbCircle
 10
63.134730578636741
 20
40.580326788346667
 30
0.0
 40
0.3654178697528124
100
AcDbArc
 50
318.87708181124725
 51
111.6356356146771
  0
ARC
  5
4AC
100
AcDbEntity
  8
0
  6
CONTINUOUS
 62
               4
100
AcDbCircle
 10
63.130005457491478
 20
3.4130133834974004
 30
0.0
 40
0.3668236636803898
100
AcDbArc
 50
249.2427974002604
 51
40.244485173813743
  0
ENDBLK
  5
4AD
100
AcDbEntity
  8
0
100
AcDbBlockEnd
  0
BLOCK
  5
4AE
100
AcDbEntity
  8
0
100
AcDbBlockBegin
  2
F10_CONNECTER-13
 70
               0
 10
0.0
 20
0.0
 30
0.0
  3
F10_CONNECTER-13
  1

  0
LINE
  5
4AF
100
AcDbEntity
  8
0
  6
CONTINUOUS
 62
               4
100
AcDbLine
 10
21.0
 20
35.0
 30
0.0
 11
21.0
 21
1.0
 31
0.0
  0
LINE
  5
4B0
100
AcDbEntity
  8
0
  6
CONTINUOUS
 62
               4
100
AcDbLine
 10
0.0
 20
3.0
 30
0.0
 11
21.0
 21
3.0
 31
0.0
  0
LINE
  5
4B1
100
AcDbEntity
  8
0
  6
CONTINUOUS
 62
               4
100
AcDbLine
 10
21.0
 20
1.0
 30
0.0
 11
0.0
 21
1.0
 31
0.0
  0
LINE
  5
4B2
100
AcDbEntity
  8
0
  6
CONTINUOUS
 62
               4
100
AcDbLine
 10
0.0
 20
0.0
 30
0.0
 11
21.0
 21
0.0
 31
0.0
  0
LINE
  5
4B3
100
AcDbEntity
  8
0
  6
CONTINUOUS
 62
               4
100
AcDbLine
 10
0.0
 20
45.0
 30
0.0
 11
21.0
 21
45.0
 31
0.0
  0
LINE
  5
4B4
100
AcDbEntity
  8
0
  6
CONTINUOUS
 62
               4
100
AcDbLine
 10
0.0
 20
45.0
 30
0.0
 11
0.0
 21
1.0
 31
0.0
  0
LINE
  5
4B5
100
AcDbEntity
  8
0
  6
CONTINUOUS
 62
               4
100
AcDbLine
 10
0.0
 20
35.0
 30
0.0
 11
21.0
 21
35.0
 31
0.0
  0
LINE
  5
4B6
100
AcDbEntity
  8
0
  6
CONTINUOUS
 62
               4
100
AcDbLine
 10
0.0
 20
5.0
 30
0.0
 11
21.0
 21
5.0
 31
0.0
  0
LINE
  5
4B7
100
AcDbEntity
  8
0
  6
CONTINUOUS
 62
               4
100
AcDbLine
 10
2.5
 20
36.5
 30
0.0
 11
18.5
 21
36.5
 31
0.0
  0
LINE
  5
4B8
100
AcDbEntity
  8
0
  6
CONTINUOUS
 62
               4
100
AcDbLine
 10
1.5
 20
45.0
 30
0.0
 11
1.5
 21
35.0
 31
0.0
  0
LINE
  5
4B9
100
AcDbEntity
  8
0
  6
CONTINUOUS
 62
               4
100
AcDbLine
 10
19.5
 20
45.0
 30
0.0
 11
19.5
 21
35.0
 31
0.0
  0
LINE
  5
4BA
100
AcDbEntity
  8
0
  6
CONTINUOUS
 62
               4
100
AcDbLine
 10
18.5
 20
43.5
 30
0.0
 11
18.5
 21
36.5
 31
0.0
  0
LINE
  5
4BB
100
AcDbEntity
  8
0
  6
CONTINUOUS
 62
               4
100
AcDbLine
 10
2.5
 20
43.5
 30
0.0
 11
2.5
 21
36.5
 31
0.0
  0
LINE
  5
4BC
100
AcDbEntity
  8
0
  6
CONTINUOUS
 62
               4
100
AcDbLine
 10
1.5
 20
43.5
 30
0.0
 11
19.5
 21
43.5
 31
0.0
  0
LINE
  5
4BD
100
AcDbEntity
  8
0
  6
CONTINUOUS
 62
               4
100
AcDbLine
 10
9.5
 20
43.5
 30
0.0
 11
9.5
 21
36.5
 31
0.0
  0
LINE
  5
4BE
100
AcDbEntity
  8
0
  6
CONTINUOUS
 62
               4
100
AcDbLine
 10
11.5
 20
43.5
 30
0.0
 11
11.5
 21
36.5
 31
0.0
  0
LINE
  5
4BF
100
AcDbEntity
  8
0
  6
CONTINUOUS
 62
               4
100
AcDbLine
 10
2.5
 20
42.5
 30
0.0
 11
9.5
 21
42.5
 31
0.0
  0
LINE
  5
4C0
100
AcDbEntity
  8
0
  6
CONTINUOUS
 62
               4
100
AcDbLine
 10
11.5
 20
42.5
 30
0.0
 11
18.5
 21
42.5
 31
0.0
  0
LINE
  5
4C1
100
AcDbEntity
  8
0
  6
CONTINUOUS
 62
               4
100
AcDbLine
 10
3.0499999999999998
 20
37.299999999999997
 30
0.0
 11
8.9499999999999993
 21
37.299999999999997
 31
0.0
  0
LINE
  5
4C2
100
AcDbEntity
  8
0
  6
CONTINUOUS
 62
               4
100
AcDbLine
 10
3.0499999999999998
 20
37.299999999999997
 30
0.0
 11
3.0499999999999998
 21
36.5
 31
0.0
  0
LINE
  5
4C3
100
AcDbEntity
  8
0
  6
CONTINUOUS
 62
               4
100
AcDbLine
 10
3.8500000000000001
 20
37.299999999999997
 30
0.0
 11
3.8500000000000001
 21
36.5
 31
0.0
  0
LINE
  5
4C4
100
AcDbEntity
  8
0
  6
CONTINUOUS
 62
               4
100
AcDbLine
 10
8.1500000000000004
 20
37.299999999999997
 30
0.0
 11
8.1500000000000004
 21
36.5
 31
0.0
  0
LINE
  5
4C5
100
AcDbEntity
  8
0
  6
CONTINUOUS
 62
               4
100
AcDbLine
 10
8.9499999999999993
 20
37.299999999999997
 30
0.0
 11
8.9499999999999993
 21
36.5
 31
0.0
  0
LINE
  5
4C6
100
AcDbEntity
  8
0
  6
CONTINUOUS
 62
               4
100
AcDbLine
 10
12.050000000000001
 20
37.299999999999997
 30
0.0
 11
12.050000000000001
 21
36.5
 31
0.0
  0
LINE
  5
4C7
100
AcDbEntity
  8
0
  6
CONTINUOUS
 62
               4
100
AcDbLine
 10
12.85
 20
37.299999999999997
 30
0.0
 11
12.85
 21
36.5
 31
0.0
  0
LINE
  5
4C8
100
AcDbEntity
  8
0
  6
CONTINUOUS
 62
               4
100
AcDbLine
 10
17.149999999999999
 20
37.299999999999997
 30
0.0
 11
17.149999999999999
 21
36.5
 31
0.0
  0
LINE
  5
4C9
100
AcDbEntity
  8
0
  6
CONTINUOUS
 62
               4
100
AcDbLine
 10
17.949999999999999
 20
37.299999999999997
 30
0.0
 11
17.949999999999999
 21
36.5
 31
0.0
  0
LINE
  5
4CA
100
AcDbEntity
  8
0
  6
CONTINUOUS
 62
               4
100
AcDbLine
 10
12.050000000000001
 20
37.299999999999997
 30
0.0
 11
17.949999999999999
 21
37.299999999999997
 31
0.0
  0
LINE
  5
4CB
100
AcDbEntity
  8
0
  6
CONTINUOUS
 62
               4
100
AcDbLine
 10
8.9499999999999993
 20
38.0
 30
0.0
 11
3.0499999999999998
 21
38.0
 31
0.0
  0
LINE
  5
4CC
100
AcDbEntity
  8
0
  6
CONTINUOUS
 62
               4
100
AcDbLine
 10
8.9499999999999993
 20
38.0
 30
0.0
 11
8.9499999999999993
 21
37.299999999999997
 31
0.0
  0
LINE
  5
4CD
100
AcDbEntity
  8
0
  6
CONTINUOUS
 62
               4
100
AcDbLine
 10
3.0499999999999998
 20
38.0
 30
0.0
 11
3.0499999999999998
 21
37.299999999999997
 31
0.0
  0
LINE
  5
4CE
100
AcDbEntity
  8
0
  6
CONTINUOUS
 62
               4
100
AcDbLine
 10
17.949999999999999
 20
38.0
 30
0.0
 11
12.050000000000001
 21
38.0
 31
0.0
  0
LINE
  5
4CF
100
AcDbEntity
  8
0
  6
CONTINUOUS
 62
               4
100
AcDbLine
 10
17.949999999999999
 20
38.0
 30
0.0
 11
17.949999999999999
 21
37.299999999999997
 31
0.0
  0
LINE
  5
4D0
100
AcDbEntity
  8
0
  6
CONTINUOUS
 62
               4
100
AcDbLine
 10
12.050000000000001
 20
38.0
 30
0.0
 11
12.050000000000001
 21
37.299999999999997
 31
0.0
  0
LINE
  5
4D1
100
AcDbEntity
  8
0
  6
CONTINUOUS
 62
               4
100
AcDbLine
 10
8.8000000000000007
 20
39.170000000000002
 30
0.0
 11
8.8000000000000007
 21
38.0
 31
0.0
  0
LINE
  5
4D2
100
AcDbEntity
  8
0
  6
CONTINUOUS
 62
               4
100
AcDbLine
 10
3.2000000000000002
 20
39.170000000000002
 30
0.0
 11
3.2000000000000002
 21
38.0
 31
0.0
  0
LINE
  5
4D3
100
AcDbEntity
  8
0
  6
CONTINUOUS
 62
               4
100
AcDbLine
 10
17.800000000000001
 20
39.170000000000002
 30
0.0
 11
17.800000000000001
 21
38.0
 31
0.0
  0
LINE
  5
4D4
100
AcDbEntity
  8
0
  6
CONTINUOUS
 62
               4
100
AcDbLine
 10
12.199999999999999
 20
39.170000000000002
 30
0.0
 11
12.199999999999999
 21
38.0
 31
0.0
  0
LINE
  5
4D5
100
AcDbEntity
  8
0
  6
CONTINUOUS
 62
               4
100
AcDbLine
 10
6.5
 20
54.0
 30
0.0
 11
6.5
 21
45.0
 31
0.0
  0
LINE
  5
4D6
100
AcDbEntity
  8
0
  6
CONTINUOUS
 62
               4
100
AcDbLine
 10
15.0
 20
54.0
 30
0.0
 11
15.0
 21
45.0
 31
0.0
  0
LINE
  5
4D7
100
AcDbEntity
  8
0
  6
CONTINUOUS
 62
               4
100
AcDbLine
 10
8.75
 20
63.5
 30
0.0
 11
8.75
 21
54.200000000000003
 31
0.0
  0
LINE
  5
4D8
100
AcDbEntity
  8
0
  6
CONTINUOUS
 62
               4
100
AcDbLine
 10
12.75
 20
63.5
 30
0.0
 11
12.75
 21
54.200000000000003
 31
0.0
  0
LINE
  5
4D9
100
AcDbEntity
  8
0
  6
CONTINUOUS
 62
               4
100
AcDbLine
 10
6.5
 20
54.0
 30
0.0
 11
9.25
 21
54.0
 31
0.0
  0
LINE
  5
4DA
100
AcDbEntity
  8
0
  6
CONTINUOUS
 62
               4
100
AcDbLine
 10
9.25
 20
54.200000000000003
 30
0.0
 11
9.25
 21
45.0
 31
0.0
  0
LINE
  5
4DB
100
AcDbEntity
  8
0
  6
CONTINUOUS
 62
               4
100
AcDbLine
 10
12.25
 20
54.200000000000003
 30
0.0
 11
12.25
 21
45.0
 31
0.0
  0
LINE
  5
4DC
100
AcDbEntity
  8
0
  6
CONTINUOUS
 62
               4
100
AcDbLine
 10
12.25
 20
54.0
 30
0.0
 11
15.0
 21
54.0
 31
0.0
  0
LINE
  5
4DD
100
AcDbEntity
  8
0
  6
CONTINUOUS
 62
               4
100
AcDbLine
 10
12.25
 20
54.200000000000003
 30
0.0
 11
12.75
 21
54.200000000000003
 31
0.0
  0
LINE
  5
4DE
100
AcDbEntity
  8
0
  6
CONTINUOUS
 62
               4
100
AcDbLine
 10
8.75
 20
54.200000000000003
 30
0.0
 11
9.25
 21
54.200000000000003
 31
0.0
  0
LINE
  5
4DF
100
AcDbEntity
  8
0
  6
CONTINUOUS
 62
               4
100
AcDbLine
 10
8.75
 20
60.5
 30
0.0
 11
12.75
 21
60.5
 31
0.0
  0
LINE
  5
4E0
100
AcDbEntity
  8
0
  6
CONTINUOUS
 62
               4
100
AcDbLine
 10
8.75
 20
63.5
 30
0.0
 11
12.75
 21
63.5
 31
0.0
  0
LINE
  5
4E1
100
AcDbEntity
  8
0
  6
CONTINUOUS
 62
               4
100
AcDbLine
 10
9.25
 20
45.5
 30
0.0
 11
12.25
 21
45.5
 31
0.0
  0
LINE
  5
4E2
100
AcDbEntity
  8
0
  6
CONTINUOUS
 62
               4
100
AcDbLine
 10
6.5
 20
53.5
 30
0.0
 11
9.25
 21
53.5
 31
0.0
  0
LINE
  5
4E3
100
AcDbEntity
  8
0
  6
CONTINUOUS
 62
               4
100
AcDbLine
 10
12.25
 20
53.5
 30
0.0
 11
15.0
 21
53.5
 31
0.0
  0
LINE
  5
4E4
100
AcDbEntity
  8
0
  6
CONTINUOUS
 62
               4
100
AcDbLine
 10
8.75
 20
56.799999999999997
 30
0.0
 11
12.75
 21
56.799999999999997
 31
0.0
  0
LINE
  5
4E5
100
AcDbEntity
  8
0
  6
CONTINUOUS
 62
               4
100
AcDbLine
 10
21.0
 20
45.0
 30
0.0
 11
21.0
 21
35.0
 31
0.0
  0
ARC
  5
4E6
100
AcDbEntity
  8
0
  6
CONTINUOUS
 62
               4
100
AcDbCircle
 10
5.9950000000000001
 20
35.400006980160171
 30
0.0
 40
4.9998664254813097
100
AcDbArc
 50
60.461178304918043
 51
119.53882169508157
  0
ARC
  5
4E7
100
AcDbEntity
  8
0
  6
CONTINUOUS
 62
               4
100
AcDbCircle
 10
8.134627656357754
 20
39.169609315795924
 30
0.0
 40
0.6653724583405332
100
AcDbArc
 50
0.0336421458714143
 51
60.724609876865323
  0
ARC
  5
4E8
100
AcDbEntity
  8
0
  6
CONTINUOUS
 62
               4
100
AcDbCircle
 10
3.8678490002748012
 20
39.173896258464339
 30
0.0
 40
0.667860365643951
100
AcDbArc
 50
120.38897048789522
 51
180.33426213580151
  0
ARC
  5
4E9
100
AcDbEntity
  8
0
  6
CONTINUOUS
 62
               4
100
AcDbCircle
 10
14.995000000000001
 20
35.400006980160171
 30
0.0
 40
4.9998664254813097
100
AcDbArc
 50
60.46117830491805
 51
119.53882169508159
  0
ARC
  5
4EA
100
AcDbEntity
  8
0
  6
CONTINUOUS
 62
               4
100
AcDbCircle
 10
17.134627656357754
 20
39.169609315795924
 30
0.0
 40
0.6653724583405332
100
AcDbArc
 50
0.0336421458714143
 51
60.724609876865323
  0
ARC
  5
4EB
100
AcDbEntity
  8
0
  6
CONTINUOUS
 62
               4
100
AcDbCircle
 10
12.8678490002748
 20
39.173896258464339
 30
0.0
 40
0.6678603656439516
100
AcDbArc
 50
120.38897048789516
 51
180.33426213580151
  0
ENDBLK
  5
4EC
100
AcDbEntity
  8
0
100
AcDbBlockEnd
  0
BLOCK
  5
4ED
100
AcDbEntity
  8
0
100
AcDbBlockBegin
  2
F10_CONNECTER-14
 70
               0
 10
0.0
 20
0.0
 30
0.0
  3
F10_CONNECTER-14
  1

  0
LINE
  5
4EE
100
AcDbEntity
  8
0
  6
CONTINUOUS
 62
               4
100
AcDbLine
 10
21.0
 20
-30.5
 30
0.0
 11
21.0
 21
62.5
 31
0.0
  0
LINE
  5
4EF
100
AcDbEntity
  8
0
  6
CONTINUOUS
 62
               4
100
AcDbLine
 10
21.0
 20
62.5
 30
0.0
 11
0.0
 21
62.5
 31
0.0
  0
LINE
  5
4F0
100
AcDbEntity
  8
0
  6
CONTINUOUS
 62
               4
100
AcDbLine
 10
21.0
 20
-30.300000000000001
 30
0.0
 11
21.25
 21
-30.300000000000001
 31
0.0
  0
LINE
  5
4F1
100
AcDbEntity
  8
0
  6
CONTINUOUS
 62
               4
100
AcDbLine
 10
0.0
 20
-30.5
 30
0.0
 11
0.0
 21
62.5
 31
0.0
  0
LINE
  5
4F2
100
AcDbEntity
  8
0
  6
CONTINUOUS
 62
               4
100
AcDbLine
 10
1.5
 20
-30.5
 30
0.0
 11
0.0
 21
-30.5
 31
0.0
  0
LINE
  5
4F3
100
AcDbEntity
  8
0
  6
CONTINUOUS
 62
               4
100
AcDbLine
 10
9.4299999999999997
 20
55.93
 30
0.0
 11
11.56
 21
58.060000000000002
 31
0.0
  0
LINE
  5
4F4
100
AcDbEntity
  8
0
  6
CONTINUOUS
 62
               4
100
AcDbLine
 10
9.4299999999999997
 20
58.060000000000002
 30
0.0
 11
11.56
 21
55.93
 31
0.0
  0
LINE
  5
4F5
100
AcDbEntity
  8
0
  6
CONTINUOUS
 62
               4
100
AcDbLine
 10
1.5
 20
-28.800000000000001
 30
0.0
 11
19.5
 21
-28.800000000000001
 31
0.0
  0
LINE
  5
4F6
100
AcDbEntity
  8
0
  6
CONTINUOUS
 62
               4
100
AcDbLine
 10
1.5
 20
-29.0
 30
0.0
 11
19.5
 21
-29.0
 31
0.0
  0
LINE
  5
4F7
100
AcDbEntity
  8
0
  6
CONTINUOUS
 62
               4
100
AcDbLine
 10
1.5
 20
-9.5
 30
0.0
 11
1.5
 21
-30.5
 31
0.0
  0
LINE
  5
4F8
100
AcDbEntity
  8
0
  6
CONTINUOUS
 62
               4
100
AcDbLine
 10
19.5
 20
-9.5
 30
0.0
 11
19.5
 21
-30.5
 31
0.0
  0
LINE
  5
4F9
100
AcDbEntity
  8
0
  6
CONTINUOUS
 62
               4
100
AcDbLine
 10
14.0
 20
-28.800000000000001
 30
0.0
 11
14.0
 21
-29.0
 31
0.0
  0
LINE
  5
4FA
100
AcDbEntity
  8
0
  6
CONTINUOUS
 62
               4
100
AcDbLine
 10
7.0
 20
-28.800000000000001
 30
0.0
 11
7.0
 21
-29.0
 31
0.0
  0
LINE
  5
4FB
100
AcDbEntity
  8
0
  6
CONTINUOUS
 62
               4
100
AcDbLine
 10
1.5
 20
-18.5
 30
0.0
 11
19.5
 21
-18.5
 31
0.0
  0
LINE
  5
4FC
100
AcDbEntity
  8
0
  6
CONTINUOUS
 62
               4
100
AcDbLine
 10
1.5
 20
-9.5
 30
0.0
 11
19.5
 21
-9.5
 31
0.0
  0
LINE
  5
4FD
100
AcDbEntity
  8
0
  6
CONTINUOUS
 62
               4
100
AcDbLine
 10
9.5
 20
-28.300000000000001
 30
0.0
 11
11.5
 21
-28.300000000000001
 31
0.0
  0
LINE
  5
4FE
100
AcDbEntity
  8
0
  6
CONTINUOUS
 62
               4
100
AcDbLine
 10
11.5
 20
-18.5
 30
0.0
 11
11.5
 21
-28.300000000000001
 31
0.0
  0
LINE
  5
4FF
100
AcDbEntity
  8
0
  6
CONTINUOUS
 62
               4
100
AcDbLine
 10
9.5
 20
-18.5
 30
0.0
 11
9.5
 21
-28.300000000000001
 31
0.0
  0
LINE
  5
500
100
AcDbEntity
  8
0
  6
CONTINUOUS
 62
               4
100
AcDbLine
 10
3.8500000000000001
 20
-27.300000000000001
 30
0.0
 11
8.1500000000000004
 21
-27.300000000000001
 31
0.0
  0
LINE
  5
501
100
AcDbEntity
  8
0
  6
CONTINUOUS
 62
               4
100
AcDbLine
 10
3.8500000000000001
 20
-20.300000000000001
 30
0.0
 11
8.1500000000000004
 21
-20.300000000000001
 31
0.0
  0
LINE
  5
502
100
AcDbEntity
  8
0
  6
CONTINUOUS
 62
               4
100
AcDbLine
 10
12.85
 20
-20.300000000000001
 30
0.0
 11
12.85
 21
-21.100000000000001
 31
0.0
  0
LINE
  5
503
100
AcDbEntity
  8
0
  6
CONTINUOUS
 62
               4
100
AcDbLine
 10
8.1500000000000004
 20
-20.300000000000001
 30
0.0
 11
8.1500000000000004
 21
-21.100000000000001
 31
0.0
  0
LINE
  5
504
100
AcDbEntity
  8
0
  6
CONTINUOUS
 62
               4
100
AcDbLine
 10
3.8500000000000001
 20
-20.300000000000001
 30
0.0
 11
3.8500000000000001
 21
-21.100000000000001
 31
0.0
  0
LINE
  5
505
100
AcDbEntity
  8
0
  6
CONTINUOUS
 62
               4
100
AcDbLine
 10
17.149999999999999
 20
-20.300000000000001
 30
0.0
 11
17.149999999999999
 21
-21.100000000000001
 31
0.0
  0
LINE
  5
506
100
AcDbEntity
  8
0
  6
CONTINUOUS
 62
               4
100
AcDbLine
 10
2.5
 20
-18.5
 30
0.0
 11
2.5
 21
-28.800000000000001
 31
0.0
  0
LINE
  5
507
100
AcDbEntity
  8
0
  6
CONTINUOUS
 62
               4
100
AcDbLine
 10
18.5
 20
-18.5
 30
0.0
 11
18.5
 21
-28.800000000000001
 31
0.0
  0
LINE
  5
508
100
AcDbEntity
  8
0
  6
CONTINUOUS
 62
               4
100
AcDbLine
 10
12.85
 20
-20.300000000000001
 30
0.0
 11
17.149999999999999
 21
-20.300000000000001
 31
0.0
  0
LINE
  5
509
100
AcDbEntity
  8
0
  6
CONTINUOUS
 62
               4
100
AcDbLine
 10
12.85
 20
-27.300000000000001
 30
0.0
 11
17.149999999999999
 21
-27.300000000000001
 31
0.0
  0
LINE
  5
50A
100
AcDbEntity
  8
0
  6
CONTINUOUS
 62
               4
100
AcDbLine
 10
3.8500000000000001
 20
-26.5
 30
0.0
 11
3.8500000000000001
 21
-27.300000000000001
 31
0.0
  0
LINE
  5
50B
100
AcDbEntity
  8
0
  6
CONTINUOUS
 62
               4
100
AcDbLine
 10
8.1500000000000004
 20
-26.5
 30
0.0
 11
8.1500000000000004
 21
-27.300000000000001
 31
0.0
  0
LINE
  5
50C
100
AcDbEntity
  8
0
  6
CONTINUOUS
 62
               4
100
AcDbLine
 10
12.85
 20
-26.5
 30
0.0
 11
12.85
 21
-27.300000000000001
 31
0.0
  0
LINE
  5
50D
100
AcDbEntity
  8
0
  6
CONTINUOUS
 62
               4
100
AcDbLine
 10
17.149999999999999
 20
-26.5
 30
0.0
 11
17.149999999999999
 21
-27.300000000000001
 31
0.0
  0
LINE
  5
50E
100
AcDbEntity
  8
0
  6
CONTINUOUS
 62
               4
100
AcDbLine
 10
12.050000000000001
 20
-21.100000000000001
 30
0.0
 11
12.050000000000001
 21
-26.5
 31
0.0
  0
LINE
  5
50F
100
AcDbEntity
  8
0
  6
CONTINUOUS
 62
               4
100
AcDbLine
 10
17.949999999999999
 20
-21.100000000000001
 30
0.0
 11
17.949999999999999
 21
-26.5
 31
0.0
  0
LINE
  5
510
100
AcDbEntity
  8
0
  6
CONTINUOUS
 62
               4
100
AcDbLine
 10
8.9499999999999993
 20
-21.100000000000001
 30
0.0
 11
8.9499999999999993
 21
-26.5
 31
0.0
  0
LINE
  5
511
100
AcDbEntity
  8
0
  6
CONTINUOUS
 62
               4
100
AcDbLine
 10
3.0499999999999998
 20
-21.100000000000001
 30
0.0
 11
3.0499999999999998
 21
-26.5
 31
0.0
  0
LINE
  5
512
100
AcDbEntity
  8
0
  6
CONTINUOUS
 62
               4
100
AcDbLine
 10
8.1500000000000004
 20
-21.100000000000001
 30
0.0
 11
8.9499999999999993
 21
-21.100000000000001
 31
0.0
  0
LINE
  5
513
100
AcDbEntity
  8
0
  6
CONTINUOUS
 62
               4
100
AcDbLine
 10
3.0499999999999998
 20
-21.100000000000001
 30
0.0
 11
3.8500000000000001
 21
-21.100000000000001
 31
0.0
  0
LINE
  5
514
100
AcDbEntity
  8
0
  6
CONTINUOUS
 62
               4
100
AcDbLine
 10
3.0499999999999998
 20
-26.5
 30
0.0
 11
3.8500000000000001
 21
-26.5
 31
0.0
  0
LINE
  5
515
100
AcDbEntity
  8
0
  6
CONTINUOUS
 62
               4
100
AcDbLine
 10
8.1500000000000004
 20
-26.5
 30
0.0
 11
8.9499999999999993
 21
-26.5
 31
0.0
  0
LINE
  5
516
100
AcDbEntity
  8
0
  6
CONTINUOUS
 62
               4
100
AcDbLine
 10
12.050000000000001
 20
-26.5
 30
0.0
 11
12.85
 21
-26.5
 31
0.0
  0
LINE
  5
517
100
AcDbEntity
  8
0
  6
CONTINUOUS
 62
               4
100
AcDbLine
 10
17.149999999999999
 20
-26.5
 30
0.0
 11
17.949999999999999
 21
-26.5
 31
0.0
  0
LINE
  5
518
100
AcDbEntity
  8
0
  6
CONTINUOUS
 62
               4
100
AcDbLine
 10
17.149999999999999
 20
-21.100000000000001
 30
0.0
 11
17.949999999999999
 21
-21.100000000000001
 31
0.0
  0
LINE
  5
519
100
AcDbEntity
  8
0
  6
CONTINUOUS
 62
               4
100
AcDbLine
 10
12.050000000000001
 20
-21.100000000000001
 30
0.0
 11
12.85
 21
-21.100000000000001
 31
0.0
  0
LINE
  5
51A
100
AcDbEntity
  8
0
  6
CONTINUOUS
 62
               4
100
AcDbLine
 10
1.6000000000000001
 20
-9.75
 30
0.0
 11
1.6000000000000001
 21
-30.75
 31
0.0
  0
LINE
  5
51B
100
AcDbEntity
  8
0
  6
CONTINUOUS
 62
               4
100
AcDbLine
 10
19.399999999999999
 20
-9.75
 30
0.0
 11
19.399999999999999
 21
-30.75
 31
0.0
  0
LINE
  5
51C
100
AcDbEntity
  8
0
  6
CONTINUOUS
 62
               4
100
AcDbLine
 10
1.6000000000000001
 20
-9.75
 30
0.0
 11
19.399999999999999
 21
-9.75
 31
0.0
  0
LINE
  5
51D
100
AcDbEntity
  8
0
  6
CONTINUOUS
 62
               4
100
AcDbLine
 10
1.6000000000000001
 20
-30.75
 30
0.0
 11
19.399999999999999
 21
-30.75
 31
0.0
  0
LINE
  5
51E
100
AcDbEntity
  8
0
  6
CONTINUOUS
 62
               4
100
AcDbLine
 10
19.399999999999999
 20
-30.5
 30
0.0
 11
21.0
 21
-30.5
 31
0.0
  0
LINE
  5
51F
100
AcDbEntity
  8
0
  6
CONTINUOUS
 62
               4
100
AcDbLine
 10
2.0
 20
-7.5
 30
0.0
 11
19.0
 21
-7.5
 31
0.0
  0
LINE
  5
520
100
AcDbEntity
  8
0
  6
CONTINUOUS
 62
               4
100
AcDbLine
 10
2.0
 20
51.5
 30
0.0
 11
19.0
 21
51.5
 31
0.0
  0
LINE
  5
521
100
AcDbEntity
  8
0
  6
CONTINUOUS
 62
               4
100
AcDbLine
 10
19.0
 20
51.5
 30
0.0
 11
19.0
 21
-7.5
 31
0.0
  0
LINE
  5
522
100
AcDbEntity
  8
0
  6
CONTINUOUS
 62
               4
100
AcDbLine
 10
2.0
 20
51.5
 30
0.0
 11
2.0
 21
-7.5
 31
0.0
  0
LINE
  5
523
100
AcDbEntity
  8
0
  6
CONTINUOUS
 62
               4
100
AcDbLine
 10
4.9299999999999997
 20
-24.859999999999999
 30
0.0
 11
7.0599999999999996
 21
-22.73
 31
0.0
  0
LINE
  5
524
100
AcDbEntity
  8
0
  6
CONTINUOUS
 62
               4
100
AcDbLine
 10
4.9299999999999997
 20
-22.73
 30
0.0
 11
7.0599999999999996
 21
-24.859999999999999
 31
0.0
  0
LINE
  5
525
100
AcDbEntity
  8
0
  6
CONTINUOUS
 62
               4
100
AcDbLine
 10
13.93
 20
-24.859999999999999
 30
0.0
 11
16.059999999999999
 21
-22.73
 31
0.0
  0
LINE
  5
526
100
AcDbEntity
  8
0
  6
CONTINUOUS
 62
               4
100
AcDbLine
 10
13.93
 20
-22.73
 30
0.0
 11
16.059999999999999
 21
-24.859999999999999
 31
0.0
  0
LINE
  5
527
100
AcDbEntity
  8
0
  6
CONTINUOUS
 62
               4
100
AcDbLine
 10
15.0
 20
48.5
 30
0.0
 11
15.0
 21
-4.5
 31
0.0
  0
LINE
  5
528
100
AcDbEntity
  8
0
  6
CONTINUOUS
 62
               4
100
AcDbLine
 10
6.0
 20
48.5
 30
0.0
 11
6.0
 21
-4.5
 31
0.0
  0
LINE
  5
529
100
AcDbEntity
  8
0
  6
CONTINUOUS
 62
               4
100
AcDbLine
 10
6.5
 20
-4.25
 30
0.0
 11
15.0
 21
-4.25
 31
0.0
  0
LINE
  5
52A
100
AcDbEntity
  8
0
  6
CONTINUOUS
 62
               4
100
AcDbLine
 10
6.5
 20
48.25
 30
0.0
 11
15.0
 21
48.25
 31
0.0
  0
LINE
  5
52B
100
AcDbEntity
  8
0
  6
CONTINUOUS
 62
               4
100
AcDbLine
 10
6.5
 20
48.25
 30
0.0
 11
6.5
 21
-4.25
 31
0.0
  0
LINE
  5
52C
100
AcDbEntity
  8
0
  6
CONTINUOUS
 62
               4
100
AcDbLine
 10
8.75
 20
47.25
 30
0.0
 11
12.75
 21
47.25
 31
0.0
  0
LINE
  5
52D
100
AcDbEntity
  8
0
  6
CONTINUOUS
 62
               4
100
AcDbLine
 10
8.75
 20
-3.25
 30
0.0
 11
12.75
 21
-3.25
 31
0.0
  0
LINE
  5
52E
100
AcDbEntity
  8
0
  6
CONTINUOUS
 62
               4
100
AcDbLine
 10
6.5
 20
41.25
 30
0.0
 11
8.75
 21
41.25
 31
0.0
  0
LINE
  5
52F
100
AcDbEntity
  8
0
  6
CONTINUOUS
 62
               4
100
AcDbLine
 10
6.5
 20
2.75
 30
0.0
 11
8.75
 21
2.75
 31
0.0
  0
LINE
  5
530
100
AcDbEntity
  8
0
  6
CONTINUOUS
 62
               4
100
AcDbLine
 10
8.75
 20
5.75
 30
0.0
 11
12.75
 21
5.75
 31
0.0
  0
LINE
  5
531
100
AcDbEntity
  8
0
  6
CONTINUOUS
 62
               4
100
AcDbLine
 10
8.75
 20
38.25
 30
0.0
 11
12.75
 21
38.25
 31
0.0
  0
LINE
  5
532
100
AcDbEntity
  8
0
  6
CONTINUOUS
 62
               4
100
AcDbLine
 10
12.75
 20
41.25
 30
0.0
 11
15.0
 21
41.25
 31
0.0
  0
LINE
  5
533
100
AcDbEntity
  8
0
  6
CONTINUOUS
 62
               4
100
AcDbLine
 10
12.75
 20
2.75
 30
0.0
 11
15.0
 21
2.75
 31
0.0
  0
LINE
  5
534
100
AcDbEntity
  8
0
  6
CONTINUOUS
 62
               4
100
AcDbLine
 10
7.5
 20
41.25
 30
0.0
 11
7.5
 21
2.75
 31
0.0
  0
LINE
  5
535
100
AcDbEntity
  8
0
  6
CONTINUOUS
 62
               4
100
AcDbLine
 10
14.0
 20
41.25
 30
0.0
 11
14.0
 21
24.0
 31
0.0
  0
LINE
  5
536
100
AcDbEntity
  8
0
  6
CONTINUOUS
 62
               4
100
AcDbLine
 10
6.5
 20
42.25
 30
0.0
 11
8.75
 21
42.25
 31
0.0
  0
LINE
  5
537
100
AcDbEntity
  8
0
  6
CONTINUOUS
 62
               4
100
AcDbLine
 10
12.75
 20
42.25
 30
0.0
 11
15.0
 21
42.25
 31
0.0
  0
LINE
  5
538
100
AcDbEntity
  8
0
  6
CONTINUOUS
 62
               4
100
AcDbLine
 10
12.75
 20
1.75
 30
0.0
 11
15.0
 21
1.75
 31
0.0
  0
LINE
  5
539
100
AcDbEntity
  8
0
  6
CONTINUOUS
 62
               4
100
AcDbLine
 10
6.5
 20
1.75
 30
0.0
 11
8.75
 21
1.75
 31
0.0
  0
LINE
  5
53A
100
AcDbEntity
  8
0
  6
CONTINUOUS
 62
               4
100
AcDbLine
 10
12.75
 20
5.75
 30
0.0
 11
12.75
 21
-4.25
 31
0.0
  0
LINE
  5
53B
100
AcDbEntity
  8
0
  6
CONTINUOUS
 62
               4
100
AcDbLine
 10
8.75
 20
5.75
 30
0.0
 11
8.75
 21
-4.25
 31
0.0
  0
LINE
  5
53C
100
AcDbEntity
  8
0
  6
CONTINUOUS
 62
               4
100
AcDbLine
 10
8.75
 20
48.25
 30
0.0
 11
8.75
 21
38.25
 31
0.0
  0
LINE
  5
53D
100
AcDbEntity
  8
0
  6
CONTINUOUS
 62
               4
100
AcDbLine
 10
12.75
 20
48.25
 30
0.0
 11
12.75
 21
38.25
 31
0.0
  0
LINE
  5
53E
100
AcDbEntity
  8
0
  6
CONTINUOUS
 62
               4
100
AcDbLine
 10
6.5
 20
43.75
 30
0.0
 11
8.75
 21
43.75
 31
0.0
  0
LINE
  5
53F
100
AcDbEntity
  8
0
  6
CONTINUOUS
 62
               4
100
AcDbLine
 10
12.75
 20
43.75
 30
0.0
 11
15.0
 21
43.75
 31
0.0
  0
LINE
  5
540
100
AcDbEntity
  8
0
  6
CONTINUOUS
 62
               4
100
AcDbLine
 10
6.5
 20
0.25
 30
0.0
 11
8.75
 21
0.25
 31
0.0
  0
LINE
  5
541
100
AcDbEntity
  8
0
  6
CONTINUOUS
 62
               4
100
AcDbLine
 10
12.75
 20
0.25
 30
0.0
 11
15.0
 21
0.25
 31
0.0
  0
LINE
  5
542
100
AcDbEntity
  8
0
  6
CONTINUOUS
 62
               4
100
AcDbLine
 10
6.5
 20
-1.0
 30
0.0
 11
8.75
 21
-1.0
 31
0.0
  0
LINE
  5
543
100
AcDbEntity
  8
0
  6
CONTINUOUS
 62
               4
100
AcDbLine
 10
12.75
 20
-1.0
 30
0.0
 11
15.0
 21
-1.0
 31
0.0
  0
LINE
  5
544
100
AcDbEntity
  8
0
  6
CONTINUOUS
 62
               4
100
AcDbLine
 10
6.5
 20
45.0
 30
0.0
 11
8.75
 21
45.0
 31
0.0
  0
LINE
  5
545
100
AcDbEntity
  8
0
  6
CONTINUOUS
 62
               4
100
AcDbLine
 10
12.75
 20
45.0
 30
0.0
 11
15.0
 21
45.0
 31
0.0
  0
LINE
  5
546
100
AcDbEntity
  8
0
  6
CONTINUOUS
 62
               4
100
AcDbLine
 10
13.0
 20
24.0
 30
0.0
 11
15.0
 21
24.0
 31
0.0
  0
LINE
  5
547
100
AcDbEntity
  8
0
  6
CONTINUOUS
 62
               4
100
AcDbLine
 10
13.0
 20
20.0
 30
0.0
 11
15.0
 21
20.0
 31
0.0
  0
LINE
  5
548
100
AcDbEntity
  8
0
  6
CONTINUOUS
 62
               4
100
AcDbLine
 10
13.0
 20
24.0
 30
0.0
 11
13.0
 21
20.0
 31
0.0
  0
LINE
  5
549
100
AcDbEntity
  8
0
  6
CONTINUOUS
 62
               4
100
AcDbLine
 10
14.0
 20
20.0
 30
0.0
 11
14.0
 21
2.75
 31
0.0
  0
LINE
  5
54A
100
AcDbEntity
  8
0
  6
CONTINUOUS
 62
               4
100
AcDbLine
 10
8.75
 20
39.25
 30
0.0
 11
12.75
 21
39.25
 31
0.0
  0
LINE
  5
54B
100
AcDbEntity
  8
0
  6
CONTINUOUS
 62
               4
100
AcDbLine
 10
8.75
 20
4.75
 30
0.0
 11
12.75
 21
4.75
 31
0.0
  0
LINE
  5
54C
100
AcDbEntity
  8
0
  6
CONTINUOUS
 62
               4
100
AcDbLine
 10
8.75
 20
44.75
 30
0.0
 11
12.75
 21
44.75
 31
0.0
  0
LINE
  5
54D
100
AcDbEntity
  8
0
  6
CONTINUOUS
 62
               4
100
AcDbLine
 10
8.75
 20
-0.75
 30
0.0
 11
12.75
 21
-0.75
 31
0.0
  0
LINE
  5
54E
100
AcDbEntity
  8
0
  6
CONTINUOUS
 62
               4
100
AcDbLine
 10
8.75
 20
0.05
 30
0.0
 11
12.75
 21
0.05
 31
0.0
  0
LINE
  5
54F
100
AcDbEntity
  8
0
  6
CONTINUOUS
 62
               4
100
AcDbLine
 10
8.75
 20
43.950000000000003
 30
0.0
 11
12.75
 21
43.950000000000003
 31
0.0
  0
LINE
  5
550
100
AcDbEntity
  8
0
  6
CONTINUOUS
 62
               4
100
AcDbLine
 10
8.75
 20
43.649999999999999
 30
0.0
 11
12.75
 21
43.649999999999999
 31
0.0
  0
LINE
  5
551
100
AcDbEntity
  8
0
  6
CONTINUOUS
 62
               4
100
AcDbLine
 10
8.75
 20
43.350000000000001
 30
0.0
 11
12.75
 21
43.350000000000001
 31
0.0
  0
LINE
  5
552
100
AcDbEntity
  8
0
  6
CONTINUOUS
 62
               4
100
AcDbLine
 10
8.75
 20
43.049999999999997
 30
0.0
 11
12.75
 21
43.049999999999997
 31
0.0
  0
LINE
  5
553
100
AcDbEntity
  8
0
  6
CONTINUOUS
 62
               4
100
AcDbLine
 10
8.75
 20
42.75
 30
0.0
 11
12.75
 21
42.75
 31
0.0
  0
LINE
  5
554
100
AcDbEntity
  8
0
  6
CONTINUOUS
 62
               4
100
AcDbLine
 10
8.75
 20
42.450000000000003
 30
0.0
 11
12.75
 21
42.450000000000003
 31
0.0
  0
LINE
  5
555
100
AcDbEntity
  8
0
  6
CONTINUOUS
 62
               4
100
AcDbLine
 10
8.75
 20
42.149999999999999
 30
0.0
 11
12.75
 21
42.149999999999999
 31
0.0
  0
LINE
  5
556
100
AcDbEntity
  8
0
  6
CONTINUOUS
 62
               4
100
AcDbLine
 10
8.75
 20
41.850000000000001
 30
0.0
 11
12.75
 21
41.850000000000001
 31
0.0
  0
LINE
  5
557
100
AcDbEntity
  8
0
  6
CONTINUOUS
 62
               4
100
AcDbLine
 10
8.75
 20
0.35
 30
0.0
 11
12.75
 21
0.35
 31
0.0
  0
LINE
  5
558
100
AcDbEntity
  8
0
  6
CONTINUOUS
 62
               4
100
AcDbLine
 10
8.75
 20
0.65
 30
0.0
 11
12.75
 21
0.65
 31
0.0
  0
LINE
  5
559
100
AcDbEntity
  8
0
  6
CONTINUOUS
 62
               4
100
AcDbLine
 10
8.75
 20
0.95
 30
0.0
 11
12.75
 21
0.95
 31
0.0
  0
LINE
  5
55A
100
AcDbEntity
  8
0
  6
CONTINUOUS
 62
               4
100
AcDbLine
 10
8.75
 20
1.25
 30
0.0
 11
12.75
 21
1.25
 31
0.0
  0
LINE
  5
55B
100
AcDbEntity
  8
0
  6
CONTINUOUS
 62
               4
100
AcDbLine
 10
8.75
 20
1.55
 30
0.0
 11
12.75
 21
1.55
 31
0.0
  0
LINE
  5
55C
100
AcDbEntity
  8
0
  6
CONTINUOUS
 62
               4
100
AcDbLine
 10
8.75
 20
1.8500000000000001
 30
0.0
 11
12.75
 21
1.8500000000000001
 31
0.0
  0
LINE
  5
55D
100
AcDbEntity
  8
0
  6
CONTINUOUS
 62
               4
100
AcDbLine
 10
8.75
 20
2.1499999999999999
 30
0.0
 11
12.75
 21
2.1499999999999999
 31
0.0
  0
LINE
  5
55E
100
AcDbEntity
  8
0
  6
CONTINUOUS
 62
               4
100
AcDbLine
 10
6.0
 20
48.5
 30
0.0
 11
15.0
 21
48.5
 31
0.0
  0
LINE
  5
55F
100
AcDbEntity
  8
0
  6
CONTINUOUS
 62
               4
100
AcDbLine
 10
6.0
 20
-4.5
 30
0.0
 11
15.0
 21
-4.5
 31
0.0
  0
CIRCLE
  5
560
100
AcDbEntity
  8
0
  6
CONTINUOUS
 62
               4
100
AcDbCircle
 10
10.5
 20
57.000015258789063
 30
0.0
 40
3.1999998092651367
  0
CIRCLE
  5
561
100
AcDbEntity
  8
0
  6
CONTINUOUS
 62
               4
100
AcDbCircle
 10
16.0
 20
-13.999984741210938
 30
0.0
 40
1.5999994277954102
  0
CIRCLE
  5
562
100
AcDbEntity
  8
0
  6
CONTINUOUS
 62
               4
100
AcDbCircle
 10
6.0
 20
-23.79998779296875
 30
0.0
 40
2.7999992370605469
  0
CIRCLE
  5
563
100
AcDbEntity
  8
0
  6
CONTINUOUS
 62
               4
100
AcDbCircle
 10
15.0
 20
-23.79998779296875
 30
0.0
 40
2.7999992370605469
  0
CIRCLE
  5
564
100
AcDbEntity
  8
0
  6
CONTINUOUS
 62
               4
100
AcDbCircle
 10
9.699951171875
 20
6.7600250244140625
 30
0.0
 40
0.3199996948242188
  0
CIRCLE
  5
565
100
AcDbEntity
  8
0
  6
CONTINUOUS
 62
               4
100
AcDbCircle
 10
12.239990234375
 20
6.7600250244140625
 30
0.0
 40
0.3199996948242188
  0
CIRCLE
  5
566
100
AcDbEntity
  8
0
  6
CONTINUOUS
 62
               4
100
AcDbCircle
 10
9.699951171875
 20
37.240005493164063
 30
0.0
 40
0.3199996948242188
  0
CIRCLE
  5
567
100
AcDbEntity
  8
0
  6
CONTINUOUS
 62
               4
100
AcDbCircle
 10
12.239990234375
 20
37.240005493164063
 30
0.0
 40
0.3199996948242188
  0
CIRCLE
  5
568
100
AcDbEntity
  8
0
  6
CONTINUOUS
 62
               4
100
AcDbCircle
 10
9.699951171875
 20
34.70001220703125
 30
0.0
 40
0.3199996948242188
  0
CIRCLE
  5
569
100
AcDbEntity
  8
0
  6
CONTINUOUS
 62
               4
100
AcDbCircle
 10
12.239990234375
 20
34.70001220703125
 30
0.0
 40
0.3199996948242188
  0
CIRCLE
  5
56A
100
AcDbEntity
  8
0
  6
CONTINUOUS
 62
               4
100
AcDbCircle
 10
9.699951171875
 20
32.160018920898437
 30
0.0
 40
0.3199996948242188
  0
CIRCLE
  5
56B
100
AcDbEntity
  8
0
  6
CONTINUOUS
 62
               4
100
AcDbCircle
 10
12.239990234375
 20
32.160018920898437
 30
0.0
 40
0.3199996948242188
  0
CIRCLE
  5
56C
100
AcDbEntity
  8
0
  6
CONTINUOUS
 62
               4
100
AcDbCircle
 10
9.699951171875
 20
29.620010375976563
 30
0.0
 40
0.3199996948242188
  0
CIRCLE
  5
56D
100
AcDbEntity
  8
0
  6
CONTINUOUS
 62
               4
100
AcDbCircle
 10
12.239990234375
 20
29.620010375976563
 30
0.0
 40
0.3199996948242188
  0
CIRCLE
  5
56E
100
AcDbEntity
  8
0
  6
CONTINUOUS
 62
               4
100
AcDbCircle
 10
9.699951171875
 20
27.08001708984375
 30
0.0
 40
0.3199996948242188
  0
CIRCLE
  5
56F
100
AcDbEntity
  8
0
  6
CONTINUOUS
 62
               4
100
AcDbCircle
 10
12.239990234375
 20
27.08001708984375
 30
0.0
 40
0.3199996948242188
  0
CIRCLE
  5
570
100
AcDbEntity
  8
0
  6
CONTINUOUS
 62
               4
100
AcDbCircle
 10
9.699951171875
 20
24.540023803710937
 30
0.0
 40
0.3199996948242188
  0
CIRCLE
  5
571
100
AcDbEntity
  8
0
  6
CONTINUOUS
 62
               4
100
AcDbCircle
 10
12.239990234375
 20
24.540023803710937
 30
0.0
 40
0.3199996948242188
  0
CIRCLE
  5
572
100
AcDbEntity
  8
0
  6
CONTINUOUS
 62
               4
100
AcDbCircle
 10
9.699951171875
 20
22.000015258789063
 30
0.0
 40
0.3199996948242188
  0
CIRCLE
  5
573
100
AcDbEntity
  8
0
  6
CONTINUOUS
 62
               4
100
AcDbCircle
 10
12.239990234375
 20
22.000015258789063
 30
0.0
 40
0.3199996948242188
  0
CIRCLE
  5
574
100
AcDbEntity
  8
0
  6
CONTINUOUS
 62
               4
100
AcDbCircle
 10
9.699951171875
 20
19.46002197265625
 30
0.0
 40
0.3199996948242188
  0
CIRCLE
  5
575
100
AcDbEntity
  8
0
  6
CONTINUOUS
 62
               4
100
AcDbCircle
 10
12.239990234375
 20
19.46002197265625
 30
0.0
 40
0.3199996948242188
  0
CIRCLE
  5
576
100
AcDbEntity
  8
0
  6
CONTINUOUS
 62
               4
100
AcDbCircle
 10
9.699951171875
 20
16.920028686523438
 30
0.0
 40
0.3199996948242188
  0
CIRCLE
  5
577
100
AcDbEntity
  8
0
  6
CONTINUOUS
 62
               4
100
AcDbCircle
 10
12.239990234375
 20
16.920028686523438
 30
0.0
 40
0.3199996948242188
  0
CIRCLE
  5
578
100
AcDbEntity
  8
0
  6
CONTINUOUS
 62
               4
100
AcDbCircle
 10
9.699951171875
 20
14.380020141601563
 30
0.0
 40
0.3199996948242188
  0
CIRCLE
  5
579
100
AcDbEntity
  8
0
  6
CONTINUOUS
 62
               4
100
AcDbCircle
 10
12.239990234375
 20
14.380020141601563
 30
0.0
 40
0.3199996948242188
  0
CIRCLE
  5
57A
100
AcDbEntity
  8
0
  6
CONTINUOUS
 62
               4
100
AcDbCircle
 10
9.699951171875
 20
11.840011596679687
 30
0.0
 40
0.3199996948242188
  0
CIRCLE
  5
57B
100
AcDbEntity
  8
0
  6
CONTINUOUS
 62
               4
100
AcDbCircle
 10
12.239990234375
 20
11.840011596679687
 30
0.0
 40
0.3199996948242188
  0
CIRCLE
  5
57C
100
AcDbEntity
  8
0
  6
CONTINUOUS
 62
               4
100
AcDbCircle
 10
9.699951171875
 20
9.300018310546875
 30
0.0
 40
0.3199996948242188
  0
CIRCLE
  5
57D
100
AcDbEntity
  8
0
  6
CONTINUOUS
 62
               4
100
AcDbCircle
 10
12.239990234375
 20
9.300018310546875
 30
0.0
 40
0.3199996948242188
  0
ENDBLK
  5
57E
100
AcDbEntity
  8
0
100
AcDbBlockEnd
  0
BLOCK
  5
57F
100
AcDbEntity
  8
0
100
AcDbBlockBegin
  2
F10_CONNECTER-15
 70
               0
 10
0.0
 20
0.0
 30
0.0
  3
F10_CONNECTER-15
  1

  0
LINE
  5
580
100
AcDbEntity
  8
0
  6
CONTINUOUS
 62
               4
100
AcDbLine
 10
35.0
 20
62.5
 30
0.0
 11
45.0
 21
62.5
 31
0.0
  0
LINE
  5
581
100
AcDbEntity
  8
0
  6
CONTINUOUS
 62
               4
100
AcDbLine
 10
35.0
 20
-30.5
 30
0.0
 11
45.0
 21
-30.5
 31
0.0
  0
LINE
  5
582
100
AcDbEntity
  8
0
  6
CONTINUOUS
 62
               4
100
AcDbLine
 10
45.0
 20
62.5
 30
0.0
 11
45.0
 21
-30.5
 31
0.0
  0
LINE
  5
583
100
AcDbEntity
  8
0
  6
CONTINUOUS
 62
               4
100
AcDbLine
 10
53.5
 20
42.25
 30
0.0
 11
53.5
 21
41.619999999999997
 31
0.0
  0
LINE
  5
584
100
AcDbEntity
  8
0
  6
CONTINUOUS
 62
               4
100
AcDbLine
 10
45.0
 20
-4.25
 30
0.0
 11
56.759999999999998
 21
0.25
 31
0.0
  0
LINE
  5
585
100
AcDbEntity
  8
0
  6
CONTINUOUS
 62
               4
100
AcDbLine
 10
50.0
 20
39.109999999999999
 30
0.0
 11
50.0
 21
4.8799999999999999
 31
0.0
  0
LINE
  5
586
100
AcDbEntity
  8
0
  6
CONTINUOUS
 62
               4
100
AcDbLine
 10
56.759999999999998
 20
43.75
 30
0.0
 11
45.0
 21
48.25
 31
0.0
  0
LINE
  5
587
100
AcDbEntity
  8
0
  6
CONTINUOUS
 62
               4
100
AcDbLine
 10
51.079999999999998
 20
40.560000000000002
 30
0.0
 11
53.130000000000003
 21
41.140000000000001
 31
0.0
  0
LINE
  5
588
100
AcDbEntity
  8
0
  6
CONTINUOUS
 62
               4
100
AcDbLine
 10
51.079999999999998
 20
3.4300000000000002
 30
0.0
 11
53.130000000000003
 21
2.8500000000000001
 31
0.0
  0
LINE
  5
589
100
AcDbEntity
  8
0
  6
CONTINUOUS
 62
               4
100
AcDbLine
 10
53.5
 20
2.3700000000000001
 30
0.0
 11
53.5
 21
1.75
 31
0.0
  0
LINE
  5
58A
100
AcDbEntity
  8
0
  6
CONTINUOUS
 62
               4
100
AcDbLine
 10
53.0
 20
-0.14
 30
0.0
 11
53.0
 21
-0.5
 31
0.0
  0
LINE
  5
58B
100
AcDbEntity
  8
0
  6
CONTINUOUS
 62
               4
100
AcDbLine
 10
53.0
 20
44.5
 30
0.0
 11
53.0
 21
44.140000000000001
 31
0.0
  0
LINE
  5
58C
100
AcDbEntity
  8
0
  6
CONTINUOUS
 62
               4
100
AcDbLine
 10
53.0
 20
1.75
 30
0.0
 11
53.5
 21
1.75
 31
0.0
  0
LINE
  5
58D
100
AcDbEntity
  8
0
  6
CONTINUOUS
 62
               4
100
AcDbLine
 10
53.0
 20
42.25
 30
0.0
 11
53.5
 21
42.25
 31
0.0
  0
LINE
  5
58E
100
AcDbEntity
  8
0
  6
CONTINUOUS
 62
               4
100
AcDbLine
 10
53.32
 20
2.75
 30
0.0
 11
59.5
 21
2.75
 31
0.0
  0
LINE
  5
58F
100
AcDbEntity
  8
0
  6
CONTINUOUS
 62
               4
100
AcDbLine
 10
53.32
 20
41.25
 30
0.0
 11
59.5
 21
41.25
 31
0.0
  0
LINE
  5
590
100
AcDbEntity
  8
0
  6
CONTINUOUS
 62
               4
100
AcDbLine
 10
56.759999999999998
 20
0.25
 30
0.0
 11
60.32
 21
0.25
 31
0.0
  0
LINE
  5
591
100
AcDbEntity
  8
0
  6
CONTINUOUS
 62
               4
100
AcDbLine
 10
56.759999999999998
 20
43.75
 30
0.0
 11
60.32
 21
43.75
 31
0.0
  0
LINE
  5
592
100
AcDbEntity
  8
0
  6
CONTINUOUS
 62
               4
100
AcDbLine
 10
54.0
 20
2.75
 30
0.0
 11
54.0
 21
-0.8
 31
0.0
  0
LINE
  5
593
100
AcDbEntity
  8
0
  6
CONTINUOUS
 62
               4
100
AcDbLine
 10
54.0
 20
44.799999999999997
 30
0.0
 11
54.0
 21
41.25
 31
0.0
  0
LINE
  5
594
100
AcDbEntity
  8
0
  6
CONTINUOUS
 62
               4
100
AcDbLine
 10
59.5
 20
41.25
 30
0.0
 11
59.5
 21
40.25
 31
0.0
  0
LINE
  5
595
100
AcDbEntity
  8
0
  6
CONTINUOUS
 62
               4
100
AcDbLine
 10
59.5
 20
3.75
 30
0.0
 11
59.5
 21
2.75
 31
0.0
  0
LINE
  5
596
100
AcDbEntity
  8
0
  6
CONTINUOUS
 62
               4
100
AcDbLine
 10
59.5
 20
39.25
 30
0.0
 11
59.689999999999998
 21
39.25
 31
0.0
  0
LINE
  5
597
100
AcDbEntity
  8
0
  6
CONTINUOUS
 62
               4
100
AcDbLine
 10
59.5
 20
4.75
 30
0.0
 11
59.689999999999998
 21
4.75
 31
0.0
  0
LINE
  5
598
100
AcDbEntity
  8
0
  6
CONTINUOUS
 62
               4
100
AcDbLine
 10
60.130000000000003
 20
4.4699999999999998
 30
0.0
 11
61.0
 21
2.75
 31
0.0
  0
LINE
  5
599
100
AcDbEntity
  8
0
  6
CONTINUOUS
 62
               4
100
AcDbLine
 10
60.130000000000003
 20
39.520000000000003
 30
0.0
 11
61.0
 21
41.25
 31
0.0
  0
LINE
  5
59A
100
AcDbEntity
  8
0
  6
CONTINUOUS
 62
               4
100
AcDbLine
 10
61.0
 20
41.25
 30
0.0
 11
61.5
 21
41.850000000000001
 31
0.0
  0
LINE
  5
59B
100
AcDbEntity
  8
0
  6
CONTINUOUS
 62
               4
100
AcDbLine
 10
61.0
 20
2.75
 30
0.0
 11
61.5
 21
2.1499999999999999
 31
0.0
  0
LINE
  5
59C
100
AcDbEntity
  8
0
  6
CONTINUOUS
 62
               4
100
AcDbLine
 10
60.32
 20
0.25
 30
0.0
 11
63.0
 21
-0.72
 31
0.0
  0
LINE
  5
59D
100
AcDbEntity
  8
0
  6
CONTINUOUS
 62
               4
100
AcDbLine
 10
60.32
 20
43.75
 30
0.0
 11
63.0
 21
44.719999999999999
 31
0.0
  0
LINE
  5
59E
100
AcDbEntity
  8
0
  6
CONTINUOUS
 62
               4
100
AcDbLine
 10
61.5
 20
41.850000000000001
 30
0.0
 11
61.75
 21
41.850000000000001
 31
0.0
  0
LINE
  5
59F
100
AcDbEntity
  8
0
  6
CONTINUOUS
 62
               4
100
AcDbLine
 10
61.75
 20
42.149999999999999
 30
0.0
 11
62.0
 21
42.149999999999999
 31
0.0
  0
LINE
  5
5A0
100
AcDbEntity
  8
0
  6
CONTINUOUS
 62
               4
100
AcDbLine
 10
62.0
 20
42.450000000000003
 30
0.0
 11
62.25
 21
42.450000000000003
 31
0.0
  0
LINE
  5
5A1
100
AcDbEntity
  8
0
  6
CONTINUOUS
 62
               4
100
AcDbLine
 10
62.25
 20
42.75
 30
0.0
 11
62.5
 21
42.75
 31
0.0
  0
LINE
  5
5A2
100
AcDbEntity
  8
0
  6
CONTINUOUS
 62
               4
100
AcDbLine
 10
62.5
 20
43.049999999999997
 30
0.0
 11
62.75
 21
43.049999999999997
 31
0.0
  0
LINE
  5
5A3
100
AcDbEntity
  8
0
  6
CONTINUOUS
 62
               4
100
AcDbLine
 10
62.75
 20
43.350000000000001
 30
0.0
 11
63.0
 21
43.350000000000001
 31
0.0
  0
LINE
  5
5A4
100
AcDbEntity
  8
0
  6
CONTINUOUS
 62
               4
100
AcDbLine
 10
63.0
 20
43.649999999999999
 30
0.0
 11
63.25
 21
43.649999999999999
 31
0.0
  0
LINE
  5
5A5
100
AcDbEntity
  8
0
  6
CONTINUOUS
 62
               4
100
AcDbLine
 10
61.75
 20
42.149999999999999
 30
0.0
 11
61.75
 21
41.850000000000001
 31
0.0
  0
LINE
  5
5A6
100
AcDbEntity
  8
0
  6
CONTINUOUS
 62
               4
100
AcDbLine
 10
62.0
 20
42.450000000000003
 30
0.0
 11
62.0
 21
42.149999999999999
 31
0.0
  0
LINE
  5
5A7
100
AcDbEntity
  8
0
  6
CONTINUOUS
 62
               4
100
AcDbLine
 10
62.25
 20
42.75
 30
0.0
 11
62.25
 21
42.450000000000003
 31
0.0
  0
LINE
  5
5A8
100
AcDbEntity
  8
0
  6
CONTINUOUS
 62
               4
100
AcDbLine
 10
62.5
 20
43.049999999999997
 30
0.0
 11
62.5
 21
42.75
 31
0.0
  0
LINE
  5
5A9
100
AcDbEntity
  8
0
  6
CONTINUOUS
 62
               4
100
AcDbLine
 10
62.75
 20
43.350000000000001
 30
0.0
 11
62.75
 21
43.049999999999997
 31
0.0
  0
LINE
  5
5AA
100
AcDbEntity
  8
0
  6
CONTINUOUS
 62
               4
100
AcDbLine
 10
63.0
 20
43.649999999999999
 30
0.0
 11
63.0
 21
43.350000000000001
 31
0.0
  0
LINE
  5
5AB
100
AcDbEntity
  8
0
  6
CONTINUOUS
 62
               4
100
AcDbLine
 10
63.25
 20
43.950000000000003
 30
0.0
 11
63.409999999999997
 21
44.140000000000001
 31
0.0
  0
LINE
  5
5AC
100
AcDbEntity
  8
0
  6
CONTINUOUS
 62
               4
100
AcDbLine
 10
63.25
 20
43.950000000000003
 30
0.0
 11
63.25
 21
43.649999999999999
 31
0.0
  0
LINE
  5
5AD
100
AcDbEntity
  8
0
  6
CONTINUOUS
 62
               4
100
AcDbLine
 10
61.5
 20
2.1499999999999999
 30
0.0
 11
61.75
 21
2.1499999999999999
 31
0.0
  0
LINE
  5
5AE
100
AcDbEntity
  8
0
  6
CONTINUOUS
 62
               4
100
AcDbLine
 10
61.75
 20
1.8500000000000001
 30
0.0
 11
62.0
 21
1.8500000000000001
 31
0.0
  0
LINE
  5
5AF
100
AcDbEntity
  8
0
  6
CONTINUOUS
 62
               4
100
AcDbLine
 10
62.0
 20
1.55
 30
0.0
 11
62.25
 21
1.55
 31
0.0
  0
LINE
  5
5B0
100
AcDbEntity
  8
0
  6
CONTINUOUS
 62
               4
100
AcDbLine
 10
62.25
 20
1.25
 30
0.0
 11
62.5
 21
1.25
 31
0.0
  0
LINE
  5
5B1
100
AcDbEntity
  8
0
  6
CONTINUOUS
 62
               4
100
AcDbLine
 10
62.5
 20
0.95
 30
0.0
 11
62.75
 21
0.95
 31
0.0
  0
LINE
  5
5B2
100
AcDbEntity
  8
0
  6
CONTINUOUS
 62
               4
100
AcDbLine
 10
62.75
 20
0.65
 30
0.0
 11
63.0
 21
0.65
 31
0.0
  0
LINE
  5
5B3
100
AcDbEntity
  8
0
  6
CONTINUOUS
 62
               4
100
AcDbLine
 10
63.0
 20
0.35
 30
0.0
 11
63.25
 21
0.35
 31
0.0
  0
LINE
  5
5B4
100
AcDbEntity
  8
0
  6
CONTINUOUS
 62
               4
100
AcDbLine
 10
63.25
 20
0.35
 30
0.0
 11
63.25
 21
0.05
 31
0.0
  0
LINE
  5
5B5
100
AcDbEntity
  8
0
  6
CONTINUOUS
 62
               4
100
AcDbLine
 10
63.0
 20
0.65
 30
0.0
 11
63.0
 21
0.35
 31
0.0
  0
LINE
  5
5B6
100
AcDbEntity
  8
0
  6
CONTINUOUS
 62
               4
100
AcDbLine
 10
62.75
 20
0.95
 30
0.0
 11
62.75
 21
0.65
 31
0.0
  0
LINE
  5
5B7
100
AcDbEntity
  8
0
  6
CONTINUOUS
 62
               4
100
AcDbLine
 10
62.5
 20
1.25
 30
0.0
 11
62.5
 21
0.95
 31
0.0
  0
LINE
  5
5B8
100
AcDbEntity
  8
0
  6
CONTINUOUS
 62
               4
100
AcDbLine
 10
62.25
 20
1.55
 30
0.0
 11
62.25
 21
1.25
 31
0.0
  0
LINE
  5
5B9
100
AcDbEntity
  8
0
  6
CONTINUOUS
 62
               4
100
AcDbLine
 10
62.0
 20
1.8500000000000001
 30
0.0
 11
62.0
 21
1.55
 31
0.0
  0
LINE
  5
5BA
100
AcDbEntity
  8
0
  6
CONTINUOUS
 62
               4
100
AcDbLine
 10
61.75
 20
2.1499999999999999
 30
0.0
 11
61.75
 21
1.8500000000000001
 31
0.0
  0
LINE
  5
5BB
100
AcDbEntity
  8
0
  6
CONTINUOUS
 62
               4
100
AcDbLine
 10
63.25
 20
0.05
 30
0.0
 11
63.409999999999997
 21
-0.14
 31
0.0
  0
ARC
  5
5BC
100
AcDbEntity
  8
0
  6
CONTINUOUS
 62
               4
100
AcDbCircle
 10
34.500007629336324
 20
62.000007629336324
 30
0.0
 40
0.4999923707218841
100
AcDbArc
 50
359.99912572911541
 51
90.000874270883614
  0
ARC
  5
5BD
100
AcDbEntity
  8
0
  6
CONTINUOUS
 62
               4
100
AcDbCircle
 10
51.500673219165968
 20
39.119464085035005
 30
0.0
 40
1.5007030617772155
100
AcDbArc
 50
106.27915057913425
 51
180.36133445560418
  0
ARC
  5
5BE
100
AcDbEntity
  8
0
  6
CONTINUOUS
 62
               4
100
AcDbCircle
 10
51.505488726602742
 20
4.8741226377454909
 30
0.0
 40
1.5055001990418393
100
AcDbArc
 50
179.7763209148363
 51
253.58319405042377
  0
ARC
  5
5BF
100
AcDbEntity
  8
0
  6
CONTINUOUS
 62
               4
100
AcDbCircle
 10
52.997887118244883
 20
41.624441179686229
 30
0.0
 40
0.5021325224494297
100
AcDbArc
 50
285.25429967852193
 51
359.49323304413798
  0
ARC
  5
5C0
100
AcDbEntity
  8
0
  6
CONTINUOUS
 62
               4
100
AcDbCircle
 10
53.002731876011772
 20
2.3692933210924116
 30
0.0
 40
0.4972686261266099
100
AcDbArc
 50
0.0814242652303901
 51
75.171043012108186
  0
ARC
  5
5C1
100
AcDbEntity
  8
0
  6
CONTINUOUS
 62
               4
100
AcDbCircle
 10
52.004542163485169
 20
44.496400436844475
 30
0.0
 40
0.9954643444813562
100
AcDbArc
 50
0.2071799231041649
 51
69.694122900645723
  0
ARC
  5
5C2
100
AcDbEntity
  8
0
  6
CONTINUOUS
 62
               4
100
AcDbCircle
 10
52.004527968694518
 20
-0.4963905157542369
 30
0.0
 40
0.9954785751024344
100
AcDbArc
 50
290.3064451598097
 51
359.79225201643897
  0
ARC
  5
5C3
100
AcDbEntity
  8
0
  6
CONTINUOUS
 62
               4
100
AcDbCircle
 10
53.000714330150267
 20
42.996618390940618
 30
0.0
 40
0.7466187326596596
100
AcDbArc
 50
113.75135042773572
 51
269.94518204909218
  0
ARC
  5
5C4
100
AcDbEntity
  8
0
  6
CONTINUOUS
 62
               4
100
AcDbCircle
 10
52.999747572870319
 20
0.9988025889853505
 30
0.0
 40
0.7511974534265729
100
AcDbArc
 50
89.980746727279666
 51
246.48267540867849
  0
ARC
  5
5C5
100
AcDbEntity
  8
0
  6
CONTINUOUS
 62
               4
100
AcDbCircle
 10
52.49658748673501
 20
44.140486421694554
 30
0.0
 40
0.5034127482671043
100
AcDbArc
 50
293.83267803541304
 51
359.94463804384264
  0
ARC
  5
5C6
100
AcDbEntity
  8
0
  6
CONTINUOUS
 62
               4
100
AcDbCircle
 10
52.501244200257752
 20
-0.1475038664948334
 30
0.0
 40
0.4988122450270299
100
AcDbArc
 50
0.8619597903774602
 51
66.518175261581831
  0
ARC
  5
5C7
100
AcDbEntity
  8
0
  6
CONTINUOUS
 62
               4
100
AcDbCircle
 10
59.499992370663676
 20
39.750007629336324
 30
0.0
 40
0.4999923707218841
100
AcDbArc
 50
89.999125729116003
 51
180.0008742708834
  0
ARC
  5
5C8
100
AcDbEntity
  8
0
  6
CONTINUOUS
 62
               4
100
AcDbCircle
 10
59.500007629452739
 20
4.2500076294527389
 30
0.0
 40
0.5000076295109466
100
AcDbArc
 50
180.00087425754319
 51
269.99912574245582
  0
ARC
  5
5C9
100
AcDbEntity
  8
0
  6
CONTINUOUS
 62
               4
100
AcDbCircle
 10
59.500007629452739
 20
39.750007629452739
 30
0.0
 40
0.5000076295109466
100
AcDbArc
 50
180.00087425754319
 51
269.99912574245582
  0
ARC
  5
5CA
100
AcDbEntity
  8
0
  6
CONTINUOUS
 62
               4
100
AcDbCircle
 10
59.499992370663676
 20
4.2500076293363236
 30
0.0
 40
0.4999923707218841
100
AcDbArc
 50
89.999125729116003
 51
180.0008742708834
  0
ARC
  5
5CB
100
AcDbEntity
  8
0
  6
CONTINUOUS
 62
               4
100
AcDbCircle
 10
59.687347149557077
 20
39.747841682203287
 30
0.0
 40
0.4978487502791029
100
AcDbArc
 50
270.30530929984332
 51
332.76427451053161
  0
ARC
  5
5CC
100
AcDbEntity
  8
0
  6
CONTINUOUS
 62
               4
100
AcDbCircle
 10
59.683768130936642
 20
4.2544927771861545
 30
0.0
 40
0.4955464095851286
100
AcDbArc
 50
25.778171961638044
 51
89.279443456664481
  0
ARC
  5
5CD
100
AcDbEntity
  8
0
  6
CONTINUOUS
 62
               4
100
AcDbCircle
 10
63.13475239207466
 20
44.380342208190704
 30
0.0
 40
0.3654115798748123
100
AcDbArc
 50
318.87301102925466
 51
111.63970639667001
  0
ARC
  5
5CE
100
AcDbEntity
  8
0
  6
CONTINUOUS
 62
               4
100
AcDbCircle
 10
63.134745220123186
 20
-0.3803371383629451
 30
0.0
 40
0.3654136476946635
100
AcDbArc
 50
248.36163203463585
 51
41.125650539438347
  0
ENDBLK
  5
5CF
100
AcDbEntity
  8
0
100
AcDbBlockEnd
  0
BLOCK
  5
5D0
100
AcDbEntity
  8
0
100
AcDbBlockBegin
  2
F10_CONNECTER-16
 70
               0
 10
0.0
 20
0.0
 30
0.0
  3
F10_CONNECTER-16
  1

  0
LINE
  5
5D1
100
AcDbEntity
  8
0
  6
CONTINUOUS
 62
               4
100
AcDbLine
 10
21.0
 20
35.0
 30
0.0
 11
21.0
 21
1.0
 31
0.0
  0
LINE
  5
5D2
100
AcDbEntity
  8
0
  6
CONTINUOUS
 62
               4
100
AcDbLine
 10
0.0
 20
3.0
 30
0.0
 11
21.0
 21
3.0
 31
0.0
  0
LINE
  5
5D3
100
AcDbEntity
  8
0
  6
CONTINUOUS
 62
               4
100
AcDbLine
 10
21.0
 20
1.0
 30
0.0
 11
0.0
 21
1.0
 31
0.0
  0
LINE
  5
5D4
100
AcDbEntity
  8
0
  6
CONTINUOUS
 62
               4
100
AcDbLine
 10
0.0
 20
0.0
 30
0.0
 11
21.0
 21
0.0
 31
0.0
  0
LINE
  5
5D5
100
AcDbEntity
  8
0
  6
CONTINUOUS
 62
               4
100
AcDbLine
 10
0.0
 20
45.0
 30
0.0
 11
21.0
 21
45.0
 31
0.0
  0
LINE
  5
5D6
100
AcDbEntity
  8
0
  6
CONTINUOUS
 62
               4
100
AcDbLine
 10
0.0
 20
45.0
 30
0.0
 11
0.0
 21
1.0
 31
0.0
  0
LINE
  5
5D7
100
AcDbEntity
  8
0
  6
CONTINUOUS
 62
               4
100
AcDbLine
 10
0.0
 20
35.0
 30
0.0
 11
21.0
 21
35.0
 31
0.0
  0
LINE
  5
5D8
100
AcDbEntity
  8
0
  6
CONTINUOUS
 62
               4
100
AcDbLine
 10
0.0
 20
5.0
 30
0.0
 11
21.0
 21
5.0
 31
0.0
  0
LINE
  5
5D9
100
AcDbEntity
  8
0
  6
CONTINUOUS
 62
               4
100
AcDbLine
 10
2.5
 20
36.5
 30
0.0
 11
18.5
 21
36.5
 31
0.0
  0
LINE
  5
5DA
100
AcDbEntity
  8
0
  6
CONTINUOUS
 62
               4
100
AcDbLine
 10
1.5
 20
45.0
 30
0.0
 11
1.5
 21
35.0
 31
0.0
  0
LINE
  5
5DB
100
AcDbEntity
  8
0
  6
CONTINUOUS
 62
               4
100
AcDbLine
 10
19.5
 20
45.0
 30
0.0
 11
19.5
 21
35.0
 31
0.0
  0
LINE
  5
5DC
100
AcDbEntity
  8
0
  6
CONTINUOUS
 62
               4
100
AcDbLine
 10
18.5
 20
43.5
 30
0.0
 11
18.5
 21
36.5
 31
0.0
  0
LINE
  5
5DD
100
AcDbEntity
  8
0
  6
CONTINUOUS
 62
               4
100
AcDbLine
 10
2.5
 20
43.5
 30
0.0
 11
2.5
 21
36.5
 31
0.0
  0
LINE
  5
5DE
100
AcDbEntity
  8
0
  6
CONTINUOUS
 62
               4
100
AcDbLine
 10
1.5
 20
43.5
 30
0.0
 11
19.5
 21
43.5
 31
0.0
  0
LINE
  5
5DF
100
AcDbEntity
  8
0
  6
CONTINUOUS
 62
               4
100
AcDbLine
 10
9.5
 20
43.5
 30
0.0
 11
9.5
 21
36.5
 31
0.0
  0
LINE
  5
5E0
100
AcDbEntity
  8
0
  6
CONTINUOUS
 62
               4
100
AcDbLine
 10
11.5
 20
43.5
 30
0.0
 11
11.5
 21
36.5
 31
0.0
  0
LINE
  5
5E1
100
AcDbEntity
  8
0
  6
CONTINUOUS
 62
               4
100
AcDbLine
 10
2.5
 20
42.5
 30
0.0
 11
9.5
 21
42.5
 31
0.0
  0
LINE
  5
5E2
100
AcDbEntity
  8
0
  6
CONTINUOUS
 62
               4
100
AcDbLine
 10
11.5
 20
42.5
 30
0.0
 11
18.5
 21
42.5
 31
0.0
  0
LINE
  5
5E3
100
AcDbEntity
  8
0
  6
CONTINUOUS
 62
               4
100
AcDbLine
 10
3.0499999999999998
 20
37.299999999999997
 30
0.0
 11
8.9499999999999993
 21
37.299999999999997
 31
0.0
  0
LINE
  5
5E4
100
AcDbEntity
  8
0
  6
CONTINUOUS
 62
               4
100
AcDbLine
 10
3.0499999999999998
 20
37.299999999999997
 30
0.0
 11
3.0499999999999998
 21
36.5
 31
0.0
  0
LINE
  5
5E5
100
AcDbEntity
  8
0
  6
CONTINUOUS
 62
               4
100
AcDbLine
 10
3.8500000000000001
 20
37.299999999999997
 30
0.0
 11
3.8500000000000001
 21
36.5
 31
0.0
  0
LINE
  5
5E6
100
AcDbEntity
  8
0
  6
CONTINUOUS
 62
               4
100
AcDbLine
 10
8.1500000000000004
 20
37.299999999999997
 30
0.0
 11
8.1500000000000004
 21
36.5
 31
0.0
  0
LINE
  5
5E7
100
AcDbEntity
  8
0
  6
CONTINUOUS
 62
               4
100
AcDbLine
 10
8.9499999999999993
 20
37.299999999999997
 30
0.0
 11
8.9499999999999993
 21
36.5
 31
0.0
  0
LINE
  5
5E8
100
AcDbEntity
  8
0
  6
CONTINUOUS
 62
               4
100
AcDbLine
 10
12.050000000000001
 20
37.299999999999997
 30
0.0
 11
12.050000000000001
 21
36.5
 31
0.0
  0
LINE
  5
5E9
100
AcDbEntity
  8
0
  6
CONTINUOUS
 62
               4
100
AcDbLine
 10
12.85
 20
37.299999999999997
 30
0.0
 11
12.85
 21
36.5
 31
0.0
  0
LINE
  5
5EA
100
AcDbEntity
  8
0
  6
CONTINUOUS
 62
               4
100
AcDbLine
 10
17.149999999999999
 20
37.299999999999997
 30
0.0
 11
17.149999999999999
 21
36.5
 31
0.0
  0
LINE
  5
5EB
100
AcDbEntity
  8
0
  6
CONTINUOUS
 62
               4
100
AcDbLine
 10
17.949999999999999
 20
37.299999999999997
 30
0.0
 11
17.949999999999999
 21
36.5
 31
0.0
  0
LINE
  5
5EC
100
AcDbEntity
  8
0
  6
CONTINUOUS
 62
               4
100
AcDbLine
 10
12.050000000000001
 20
37.299999999999997
 30
0.0
 11
17.949999999999999
 21
37.299999999999997
 31
0.0
  0
LINE
  5
5ED
100
AcDbEntity
  8
0
  6
CONTINUOUS
 62
               4
100
AcDbLine
 10
8.9499999999999993
 20
38.0
 30
0.0
 11
3.0499999999999998
 21
38.0
 31
0.0
  0
LINE
  5
5EE
100
AcDbEntity
  8
0
  6
CONTINUOUS
 62
               4
100
AcDbLine
 10
8.9499999999999993
 20
38.0
 30
0.0
 11
8.9499999999999993
 21
37.299999999999997
 31
0.0
  0
LINE
  5
5EF
100
AcDbEntity
  8
0
  6
CONTINUOUS
 62
               4
100
AcDbLine
 10
3.0499999999999998
 20
38.0
 30
0.0
 11
3.0499999999999998
 21
37.299999999999997
 31
0.0
  0
LINE
  5
5F0
100
AcDbEntity
  8
0
  6
CONTINUOUS
 62
               4
100
AcDbLine
 10
17.949999999999999
 20
38.0
 30
0.0
 11
12.050000000000001
 21
38.0
 31
0.0
  0
LINE
  5
5F1
100
AcDbEntity
  8
0
  6
CONTINUOUS
 62
               4
100
AcDbLine
 10
17.949999999999999
 20
38.0
 30
0.0
 11
17.949999999999999
 21
37.299999999999997
 31
0.0
  0
LINE
  5
5F2
100
AcDbEntity
  8
0
  6
CONTINUOUS
 62
               4
100
AcDbLine
 10
12.050000000000001
 20
38.0
 30
0.0
 11
12.050000000000001
 21
37.299999999999997
 31
0.0
  0
LINE
  5
5F3
100
AcDbEntity
  8
0
  6
CONTINUOUS
 62
               4
100
AcDbLine
 10
8.8000000000000007
 20
39.170000000000002
 30
0.0
 11
8.8000000000000007
 21
38.0
 31
0.0
  0
LINE
  5
5F4
100
AcDbEntity
  8
0
  6
CONTINUOUS
 62
               4
100
AcDbLine
 10
3.2000000000000002
 20
39.170000000000002
 30
0.0
 11
3.2000000000000002
 21
38.0
 31
0.0
  0
LINE
  5
5F5
100
AcDbEntity
  8
0
  6
CONTINUOUS
 62
               4
100
AcDbLine
 10
17.800000000000001
 20
39.170000000000002
 30
0.0
 11
17.800000000000001
 21
38.0
 31
0.0
  0
LINE
  5
5F6
100
AcDbEntity
  8
0
  6
CONTINUOUS
 62
               4
100
AcDbLine
 10
12.199999999999999
 20
39.170000000000002
 30
0.0
 11
12.199999999999999
 21
38.0
 31
0.0
  0
LINE
  5
5F7
100
AcDbEntity
  8
0
  6
CONTINUOUS
 62
               4
100
AcDbLine
 10
6.5
 20
54.0
 30
0.0
 11
6.5
 21
45.0
 31
0.0
  0
LINE
  5
5F8
100
AcDbEntity
  8
0
  6
CONTINUOUS
 62
               4
100
AcDbLine
 10
15.0
 20
54.0
 30
0.0
 11
15.0
 21
45.0
 31
0.0
  0
LINE
  5
5F9
100
AcDbEntity
  8
0
  6
CONTINUOUS
 62
               4
100
AcDbLine
 10
8.75
 20
63.5
 30
0.0
 11
8.75
 21
54.200000000000003
 31
0.0
  0
LINE
  5
5FA
100
AcDbEntity
  8
0
  6
CONTINUOUS
 62
               4
100
AcDbLine
 10
12.75
 20
63.5
 30
0.0
 11
12.75
 21
54.200000000000003
 31
0.0
  0
LINE
  5
5FB
100
AcDbEntity
  8
0
  6
CONTINUOUS
 62
               4
100
AcDbLine
 10
6.5
 20
54.0
 30
0.0
 11
9.25
 21
54.0
 31
0.0
  0
LINE
  5
5FC
100
AcDbEntity
  8
0
  6
CONTINUOUS
 62
               4
100
AcDbLine
 10
9.25
 20
54.200000000000003
 30
0.0
 11
9.25
 21
45.0
 31
0.0
  0
LINE
  5
5FD
100
AcDbEntity
  8
0
  6
CONTINUOUS
 62
               4
100
AcDbLine
 10
12.25
 20
54.200000000000003
 30
0.0
 11
12.25
 21
45.0
 31
0.0
  0
LINE
  5
5FE
100
AcDbEntity
  8
0
  6
CONTINUOUS
 62
               4
100
AcDbLine
 10
12.25
 20
54.0
 30
0.0
 11
15.0
 21
54.0
 31
0.0
  0
LINE
  5
5FF
100
AcDbEntity
  8
0
  6
CONTINUOUS
 62
               4
100
AcDbLine
 10
12.25
 20
54.200000000000003
 30
0.0
 11
12.75
 21
54.200000000000003
 31
0.0
  0
LINE
  5
600
100
AcDbEntity
  8
0
  6
CONTINUOUS
 62
               4
100
AcDbLine
 10
8.75
 20
54.200000000000003
 30
0.0
 11
9.25
 21
54.200000000000003
 31
0.0
  0
LINE
  5
601
100
AcDbEntity
  8
0
  6
CONTINUOUS
 62
               4
100
AcDbLine
 10
8.75
 20
60.5
 30
0.0
 11
12.75
 21
60.5
 31
0.0
  0
LINE
  5
602
100
AcDbEntity
  8
0
  6
CONTINUOUS
 62
               4
100
AcDbLine
 10
8.75
 20
63.5
 30
0.0
 11
12.75
 21
63.5
 31
0.0
  0
LINE
  5
603
100
AcDbEntity
  8
0
  6
CONTINUOUS
 62
               4
100
AcDbLine
 10
9.25
 20
45.5
 30
0.0
 11
12.25
 21
45.5
 31
0.0
  0
LINE
  5
604
100
AcDbEntity
  8
0
  6
CONTINUOUS
 62
               4
100
AcDbLine
 10
6.5
 20
53.5
 30
0.0
 11
9.25
 21
53.5
 31
0.0
  0
LINE
  5
605
100
AcDbEntity
  8
0
  6
CONTINUOUS
 62
               4
100
AcDbLine
 10
12.25
 20
53.5
 30
0.0
 11
15.0
 21
53.5
 31
0.0
  0
LINE
  5
606
100
AcDbEntity
  8
0
  6
CONTINUOUS
 62
               4
100
AcDbLine
 10
8.75
 20
56.799999999999997
 30
0.0
 11
12.75
 21
56.799999999999997
 31
0.0
  0
LINE
  5
607
100
AcDbEntity
  8
0
  6
CONTINUOUS
 62
               4
100
AcDbLine
 10
21.0
 20
45.0
 30
0.0
 11
21.0
 21
35.0
 31
0.0
  0
ARC
  5
608
100
AcDbEntity
  8
0
  6
CONTINUOUS
 62
               4
100
AcDbCircle
 10
5.9950000000000001
 20
35.400006980160171
 30
0.0
 40
4.9998664254813097
100
AcDbArc
 50
60.461178304918043
 51
119.53882169508157
  0
ARC
  5
609
100
AcDbEntity
  8
0
  6
CONTINUOUS
 62
               4
100
AcDbCircle
 10
8.1346048992753737
 20
39.169595975437289
 30
0.0
 40
0.6653952233854585
100
AcDbArc
 50
0.0347897052336859
 51
60.723462317502779
  0
ARC
  5
60A
100
AcDbEntity
  8
0
  6
CONTINUOUS
 62
               4
100
AcDbCircle
 10
3.8678720142080398
 20
39.173883164329908
 30
0.0
 40
0.66788330292613
100
AcDbArc
 50
120.39010529469667
 51
180.33312732899978
  0
ARC
  5
60B
100
AcDbEntity
  8
0
  6
CONTINUOUS
 62
               4
100
AcDbCircle
 10
14.995000000000001
 20
35.400006980160171
 30
0.0
 40
4.9998664254813097
100
AcDbArc
 50
60.46117830491805
 51
119.53882169508159
  0
ARC
  5
60C
100
AcDbEntity
  8
0
  6
CONTINUOUS
 62
               4
100
AcDbCircle
 10
17.134604899275374
 20
39.169595975437289
 30
0.0
 40
0.6653952233854585
100
AcDbArc
 50
0.0347897052336859
 51
60.723462317502779
  0
ARC
  5
60D
100
AcDbEntity
  8
0
  6
CONTINUOUS
 62
               4
100
AcDbCircle
 10
12.867872014208038
 20
39.173883164329908
 30
0.0
 40
0.6678833029261305
100
AcDbArc
 50
120.39010529469654
 51
180.33312732899978
  0
ENDBLK
  5
60E
100
AcDbEntity
  8
0
100
AcDbBlockEnd
  0
ENDSEC
  0
SECTION
  2
ENTITIES
  0
INSERT
  5
60F
100
AcDbEntity
  8
0
  6
ByBlock
100
AcDbBlockReference
  2
F10_CONNECTER-1
 10
-231.25
 20
153.93173217773437
 30
0.0
  0
INSERT
  5
610
100
AcDbEntity
  8
0
  6
ByBlock
100
AcDbBlockReference
  2
F10_CONNECTER-9
 10
-350.25
 20
153.93173217773437
 30
0.0
  0
INSERT
  5
611
100
AcDbEntity
  8
0
  6
ByBlock
100
AcDbBlockReference
  2
F10_CONNECTER-10
 10
-231.25
 20
30.4317626953125
 30
0.0
  0
INSERT
  5
612
100
AcDbEntity
  8
0
  6
ByBlock
100
AcDbBlockReference
  2
F10_CONNECTER-11
 10
35.100006103515625
 20
153.93174743652344
 30
0.0
  0
INSERT
  5
613
100
AcDbEntity
  8
0
  6
ByBlock
100
AcDbBlockReference
  2
F10_CONNECTER-12
 10
-83.899993896484375
 20
153.93174743652344
 30
0.0
  0
INSERT
  5
614
100
AcDbEntity
  8
0
  6
ByBlock
100
AcDbBlockReference
  2
F10_CONNECTER-13
 10
35.100006103515625
 20
30.4317626953125
 30
0.0
  0
INSERT
  5
615
100
AcDbEntity
  8
0
  6
ByBlock
100
AcDbBlockReference
  2
F10_CONNECTER-14
 10
301.449951171875
 20
153.93174743652344
 30
0.0
  0
INSERT
  5
616
100
AcDbEntity
  8
0
  6
ByBlock
100
AcDbBlockReference
  2
F10_CONNECTER-15
 10
182.45001220703125
 20
153.93174743652344
 30
0.0
  0
INSERT
  5
617
100
AcDbEntity
  8
0
  6
ByBlock
100
AcDbBlockReference
  2
F10_CONNECTER-16
 10
301.449951171875
 20
30.4317626953125
 30
0.0
  0
INSERT
  5
618
100
AcDbEntity
  8
0
  6
ByBlock
100
AcDbBlockReference
  2
F10_CONNECTER-2
 10
-168.8382568359375
 20
-107.56825256347656
 30
0.0
  0
INSERT
  5
619
100
AcDbEntity
  8
0
  6
ByBlock
100
AcDbBlockReference
  2
F10_CONNECTER-3
 10
-287.838134765625
 20
-107.56825256347656
 30
0.0
  0
INSERT
  5
61A
100
AcDbEntity
  8
0
  6
ByBlock
100
AcDbBlockReference
  2
F10_CONNECTER-4
 10
-168.8382568359375
 20
-228.0682373046875
 30
0.0
  0
INSERT
  5
61B
100
AcDbEntity
  8
0
  6
ByBlock
100
AcDbBlockReference
  2
F10_CONNECTER-5
 10
230.68673706054687
 20
-107.56825256347656
 30
0.0
  0
INSERT
  5
61C
100
AcDbEntity
  8
0
  6
ByBlock
100
AcDbBlockReference
  2
F10_CONNECTER-6
 10
111.68673706054687
 20
-107.56825256347656
 30
0.0
  0
INSERT
  5
61D
100
AcDbEntity
  8
0
  6
ByBlock
100
AcDbBlockReference
  2
F10_CONNECTER-7
 10
230.68673706054687
 20
-228.0682373046875
 30
0.0
  0
LINE
  5
61E
100
AcDbEntity
  8
0
  6
CONTINUOUS
 62
               7
100
AcDbLine
 10
399.80000000000001
 20
276.25
 30
0.0
 11
399.80000000000001
 21
-276.75
 31
0.0
  0
LINE
  5
61F
100
AcDbEntity
  8
0
  6
CONTINUOUS
 62
               7
100
AcDbLine
 10
-399.25
 20
276.25
 30
0.0
 11
-399.25
 21
-276.75
 31
0.0
  0
LINE
  5
620
100
AcDbEntity
  8
0
  6
CONTINUOUS
 62
               7
100
AcDbLine
 10
-399.25
 20
276.25
 30
0.0
 11
399.80000000000001
 21
276.25
 31
0.0
  0
LINE
  5
621
100
AcDbEntity
  8
0
  6
CONTINUOUS
 62
               7
100
AcDbLine
 10
-399.25
 20
-276.75
 30
0.0
 11
399.80000000000001
 21
-276.75
 31
0.0
  0
LINE
  5
622
100
AcDbEntity
  8
0
  6
CONTINUOUS
 62
               7
100
AcDbLine
 10
239.80000000000001
 20
-251.75
 30
0.0
 11
399.80000000000001
 21
-251.75
 31
0.0
  0
LINE
  5
623
100
AcDbEntity
  8
0
  6
CONTINUOUS
 62
               7
100
AcDbLine
 10
239.80000000000001
 20
251.25
 30
0.0
 11
399.80000000000001
 21
251.25
 31
0.0
  0
LINE
  5
624
100
AcDbEntity
  8
0
  6
CONTINUOUS
 62
               7
100
AcDbLine
 10
-399.25
 20
251.25
 30
0.0
 11
-239.25
 21
251.25
 31
0.0
  0
LINE
  5
625
100
AcDbEntity
  8
0
  6
CONTINUOUS
 62
               7
100
AcDbLine
 10
239.80000000000001
 20
-251.75
 30
0.0
 11
239.80000000000001
 21
-276.75
 31
0.0
  0
LINE
  5
626
100
AcDbEntity
  8
0
  6
CONTINUOUS
 62
               7
100
AcDbLine
 10
239.80000000000001
 20
251.25
 30
0.0
 11
239.80000000000001
 21
276.25
 31
0.0
  0
LINE
  5
627
100
AcDbEntity
  8
0
  6
CONTINUOUS
 62
               7
100
AcDbLine
 10
-239.25
 20
276.25
 30
0.0
 11
-239.25
 21
251.25
 31
0.0
  0
LINE
  5
628
100
AcDbEntity
  8
0
  6
CONTINUOUS
 62
               7
100
AcDbLine
 10
-399.25
 20
-0.25
 30
0.0
 11
399.80000000000001
 21
-0.25
 31
0.0
  0
LINE
  5
629
100
AcDbEntity
  8
0
  6
CONTINUOUS
 62
               7
100
AcDbLine
 10
-132.90000000000001
 20
-0.25
 30
0.0
 11
-132.90000000000001
 21
276.25
 31
0.0
  0
LINE
  5
62A
100
AcDbEntity
  8
0
  6
CONTINUOUS
 62
               7
100
AcDbLine
 10
133.44999999999999
 20
-0.25
 30
0.0
 11
133.44999999999999
 21
276.25
 31
0.0
  0
LINE
  5
62B
100
AcDbEntity
  8
0
  6
CONTINUOUS
 62
               7
100
AcDbLine
 10
0.27
 20
-0.25
 30
0.0
 11
0.27
 21
-276.75
 31
0.0
  0
LINE
  5
62D
100
AcDbEntity
  8
0
  6
DASHED
 62
               2
100
AcDbLine
 10
-315.25
 20
123.43000000000001
 30
0.0
 11
-315.25
 21
216.43000000000001
 31
0.0
  0
LINE
  5
62E
100
AcDbEntity
  8
0
  6
DASHED
 62
               2
100
AcDbLine
 10
-346.25
 20
216.43000000000001
 30
0.0
 11
-315.25
 21
216.43000000000001
 31
0.0
  0
LINE
  5
62F
100
AcDbEntity
  8
0
  6
DASHED
 62
               2
100
AcDbLine
 10
-349.25
 20
174.49000000000001
 30
0.0
 11
-349.25
 21
213.43000000000001
 31
0.0
  0
LINE
  5
630
100
AcDbEntity
  8
0
  6
DASHED
 62
               2
100
AcDbLine
 10
-349.25
 20
174.49000000000001
 30
0.0
 11
-348.25
 21
174.03
 31
0.0
  0
LINE
  5
631
100
AcDbEntity
  8
0
  6
DASHED
 62
               2
100
AcDbLine
 10
-348.25
 20
171.43000000000001
 30
0.0
 11
-348.25
 21
174.03
 31
0.0
  0
LINE
  5
632
100
AcDbEntity
  8
0
  6
DASHED
 62
               2
100
AcDbLine
 10
-348.25
 20
171.43000000000001
 30
0.0
 11
-346.25
 21
169.43000000000001
 31
0.0
  0
LINE
  5
633
100
AcDbEntity
  8
0
  6
DASHED
 62
               2
100
AcDbLine
 10
-346.25
 20
169.43000000000001
 30
0.0
 11
-343.75
 21
169.43000000000001
 31
0.0
  0
LINE
  5
634
100
AcDbEntity
  8
0
  6
DASHED
 62
               2
100
AcDbLine
 10
-343.75
 20
168.43000000000001
 30
0.0
 11
-343.75
 21
169.43000000000001
 31
0.0
  0
LINE
  5
635
100
AcDbEntity
  8
0
  6
DASHED
 62
               2
100
AcDbLine
 10
-350.25
 20
168.43000000000001
 30
0.0
 11
-343.75
 21
168.43000000000001
 31
0.0
  0
LINE
  5
636
100
AcDbEntity
  8
0
  6
DASHED
 62
               2
100
AcDbLine
 10
-350.25
 20
139.43000000000001
 30
0.0
 11
-350.25
 21
168.43000000000001
 31
0.0
  0
LINE
  5
637
100
AcDbEntity
  8
0
  6
DASHED
 62
               2
100
AcDbLine
 10
-350.25
 20
139.43000000000001
 30
0.0
 11
-343.75
 21
139.43000000000001
 31
0.0
  0
LINE
  5
638
100
AcDbEntity
  8
0
  6
DASHED
 62
               2
100
AcDbLine
 10
-343.75
 20
138.43000000000001
 30
0.0
 11
-343.75
 21
139.43000000000001
 31
0.0
  0
LINE
  5
639
100
AcDbEntity
  8
0
  6
DASHED
 62
               2
100
AcDbLine
 10
-348.75
 20
138.43000000000001
 30
0.0
 11
-346.25
 21
138.43000000000001
 31
0.0
  0
LINE
  5
63A
100
AcDbEntity
  8
0
  6
DASHED
 62
               2
100
AcDbLine
 10
-348.75
 20
138.43000000000001
 30
0.0
 11
-349.25
 21
137.93000000000001
 31
0.0
  0
LINE
  5
63B
100
AcDbEntity
  8
0
  6
DASHED
 62
               2
100
AcDbLine
 10
-349.25
 20
130.43000000000001
 30
0.0
 11
-349.25
 21
137.93000000000001
 31
0.0
  0
LINE
  5
63C
100
AcDbEntity
  8
0
  6
DASHED
 62
               2
100
AcDbLine
 10
-349.25
 20
130.43000000000001
 30
0.0
 11
-347.25
 21
128.43000000000001
 31
0.0
  0
LINE
  5
63D
100
AcDbEntity
  8
0
  6
DASHED
 62
               2
100
AcDbLine
 10
-347.25
 20
125.43000000000001
 30
0.0
 11
-347.25
 21
128.43000000000001
 31
0.0
  0
LINE
  5
63E
100
AcDbEntity
  8
0
  6
DASHED
 62
               2
100
AcDbLine
 10
-347.05000000000001
 20
125.23
 30
0.0
 11
-347.05000000000001
 21
123.43000000000001
 31
0.0
  0
LINE
  5
63F
100
AcDbEntity
  8
0
  6
DASHED
 62
               2
100
AcDbLine
 10
-347.25
 20
125.43000000000001
 30
0.0
 11
-347.05000000000001
 21
125.23
 31
0.0
  0
LINE
  5
640
100
AcDbEntity
  8
0
  6
DASHED
 62
               2
100
AcDbLine
 10
-347.05000000000001
 20
123.43000000000001
 30
0.0
 11
-315.25
 21
123.43000000000001
 31
0.0
  0
LINE
  5
641
100
AcDbEntity
  8
0
  6
DASHED
 62
               2
100
AcDbLine
 10
-346.25
 20
138.43000000000001
 30
0.0
 11
-343.75
 21
138.43000000000001
 31
0.0
  0
LINE
  5
643
100
AcDbEntity
  8
0
  6
CENTER
 62
               2
100
AcDbLine
 10
-357.75
 20
153.93000000000001
 30
0.0
 11
-342.75
 21
153.93000000000001
 31
0.0
  0
LINE
  5
644
100
AcDbEntity
  8
0
  6
DASHED
 62
               2
100
AcDbLine
 10
-48.899999999999999
 20
123.43000000000001
 30
0.0
 11
-48.899999999999999
 21
216.43000000000001
 31
0.0
  0
LINE
  5
645
100
AcDbEntity
  8
0
  6
DASHED
 62
               2
100
AcDbLine
 10
-79.900000000000006
 20
216.43000000000001
 30
0.0
 11
-48.899999999999999
 21
216.43000000000001
 31
0.0
  0
LINE
  5
646
100
AcDbEntity
  8
0
  6
DASHED
 62
               2
100
AcDbLine
 10
-82.900000000000006
 20
174.49000000000001
 30
0.0
 11
-82.900000000000006
 21
213.43000000000001
 31
0.0
  0
LINE
  5
647
100
AcDbEntity
  8
0
  6
DASHED
 62
               2
100
AcDbLine
 10
-82.900000000000006
 20
174.49000000000001
 30
0.0
 11
-81.900000000000006
 21
174.03
 31
0.0
  0
LINE
  5
648
100
AcDbEntity
  8
0
  6
DASHED
 62
               2
100
AcDbLine
 10
-81.900000000000006
 20
171.43000000000001
 30
0.0
 11
-81.900000000000006
 21
174.03
 31
0.0
  0
LINE
  5
649
100
AcDbEntity
  8
0
  6
DASHED
 62
               2
100
AcDbLine
 10
-81.900000000000006
 20
171.43000000000001
 30
0.0
 11
-79.900000000000006
 21
169.43000000000001
 31
0.0
  0
LINE
  5
64A
100
AcDbEntity
  8
0
  6
DASHED
 62
               2
100
AcDbLine
 10
-79.900000000000006
 20
169.43000000000001
 30
0.0
 11
-77.400000000000006
 21
169.43000000000001
 31
0.0
  0
LINE
  5
64B
100
AcDbEntity
  8
0
  6
DASHED
 62
               2
100
AcDbLine
 10
-77.400000000000006
 20
168.43000000000001
 30
0.0
 11
-77.400000000000006
 21
169.43000000000001
 31
0.0
  0
LINE
  5
64C
100
AcDbEntity
  8
0
  6
DASHED
 62
               2
100
AcDbLine
 10
-83.900000000000006
 20
168.43000000000001
 30
0.0
 11
-77.400000000000006
 21
168.43000000000001
 31
0.0
  0
LINE
  5
64D
100
AcDbEntity
  8
0
  6
DASHED
 62
               2
100
AcDbLine
 10
-83.900000000000006
 20
139.43000000000001
 30
0.0
 11
-83.900000000000006
 21
168.43000000000001
 31
0.0
  0
LINE
  5
64E
100
AcDbEntity
  8
0
  6
DASHED
 62
               2
100
AcDbLine
 10
-83.900000000000006
 20
139.43000000000001
 30
0.0
 11
-77.400000000000006
 21
139.43000000000001
 31
0.0
  0
LINE
  5
64F
100
AcDbEntity
  8
0
  6
DASHED
 62
               2
100
AcDbLine
 10
-77.400000000000006
 20
138.43000000000001
 30
0.0
 11
-77.400000000000006
 21
139.43000000000001
 31
0.0
  0
LINE
  5
650
100
AcDbEntity
  8
0
  6
DASHED
 62
               2
100
AcDbLine
 10
-82.400000000000006
 20
138.43000000000001
 30
0.0
 11
-79.900000000000006
 21
138.43000000000001
 31
0.0
  0
LINE
  5
651
100
AcDbEntity
  8
0
  6
DASHED
 62
               2
100
AcDbLine
 10
-82.400000000000006
 20
138.43000000000001
 30
0.0
 11
-82.900000000000006
 21
137.93000000000001
 31
0.0
  0
LINE
  5
652
100
AcDbEntity
  8
0
  6
DASHED
 62
               2
100
AcDbLine
 10
-82.900000000000006
 20
130.43000000000001
 30
0.0
 11
-82.900000000000006
 21
137.93000000000001
 31
0.0
  0
LINE
  5
653
100
AcDbEntity
  8
0
  6
DASHED
 62
               2
100
AcDbLine
 10
-82.900000000000006
 20
130.43000000000001
 30
0.0
 11
-80.900000000000006
 21
128.43000000000001
 31
0.0
  0
LINE
  5
654
100
AcDbEntity
  8
0
  6
DASHED
 62
               2
100
AcDbLine
 10
-80.900000000000006
 20
125.43000000000001
 30
0.0
 11
-80.900000000000006
 21
128.43000000000001
 31
0.0
  0
LINE
  5
655
100
AcDbEntity
  8
0
  6
DASHED
 62
               2
100
AcDbLine
 10
-80.700000000000003
 20
125.23
 30
0.0
 11
-80.700000000000003
 21
123.43000000000001
 31
0.0
  0
LINE
  5
656
100
AcDbEntity
  8
0
  6
DASHED
 62
               2
100
AcDbLine
 10
-80.900000000000006
 20
125.43000000000001
 30
0.0
 11
-80.700000000000003
 21
125.23
 31
0.0
  0
LINE
  5
657
100
AcDbEntity
  8
0
  6
DASHED
 62
               2
100
AcDbLine
 10
-80.700000000000003
 20
123.43000000000001
 30
0.0
 11
-48.899999999999999
 21
123.43000000000001
 31
0.0
  0
LINE
  5
658
100
AcDbEntity
  8
0
  6
DASHED
 62
               2
100
AcDbLine
 10
-79.900000000000006
 20
138.43000000000001
 30
0.0
 11
-77.400000000000006
 21
138.43000000000001
 31
0.0
  0
LINE
  5
659
100
AcDbEntity
  8
0
  6
CENTER
 62
               2
100
AcDbLine
 10
-91.400000000000006
 20
153.93000000000001
 30
0.0
 11
-76.400000000000006
 21
153.93000000000001
 31
0.0
  0
LINE
  5
65A
100
AcDbEntity
  8
0
  6
DASHED
 62
               2
100
AcDbLine
 10
217.44999999999999
 20
123.43000000000001
 30
0.0
 11
217.44999999999999
 21
216.43000000000001
 31
0.0
  0
LINE
  5
65B
100
AcDbEntity
  8
0
  6
DASHED
 62
               2
100
AcDbLine
 10
186.44999999999999
 20
216.43000000000001
 30
0.0
 11
217.44999999999999
 21
216.43000000000001
 31
0.0
  0
LINE
  5
65C
100
AcDbEntity
  8
0
  6
DASHED
 62
               2
100
AcDbLine
 10
183.44999999999999
 20
174.49000000000001
 30
0.0
 11
183.44999999999999
 21
213.43000000000001
 31
0.0
  0
LINE
  5
65D
100
AcDbEntity
  8
0
  6
DASHED
 62
               2
100
AcDbLine
 10
183.44999999999999
 20
174.49000000000001
 30
0.0
 11
184.44999999999999
 21
174.03
 31
0.0
  0
LINE
  5
65E
100
AcDbEntity
  8
0
  6
DASHED
 62
               2
100
AcDbLine
 10
184.44999999999999
 20
171.43000000000001
 30
0.0
 11
184.44999999999999
 21
174.03
 31
0.0
  0
LINE
  5
65F
100
AcDbEntity
  8
0
  6
DASHED
 62
               2
100
AcDbLine
 10
184.44999999999999
 20
171.43000000000001
 30
0.0
 11
186.44999999999999
 21
169.43000000000001
 31
0.0
  0
LINE
  5
660
100
AcDbEntity
  8
0
  6
DASHED
 62
               2
100
AcDbLine
 10
186.44999999999999
 20
169.43000000000001
 30
0.0
 11
188.94999999999999
 21
169.43000000000001
 31
0.0
  0
LINE
  5
661
100
AcDbEntity
  8
0
  6
DASHED
 62
               2
100
AcDbLine
 10
188.94999999999999
 20
168.43000000000001
 30
0.0
 11
188.94999999999999
 21
169.43000000000001
 31
0.0
  0
LINE
  5
662
100
AcDbEntity
  8
0
  6
DASHED
 62
               2
100
AcDbLine
 10
182.44999999999999
 20
168.43000000000001
 30
0.0
 11
188.94999999999999
 21
168.43000000000001
 31
0.0
  0
LINE
  5
663
100
AcDbEntity
  8
0
  6
DASHED
 62
               2
100
AcDbLine
 10
182.44999999999999
 20
139.43000000000001
 30
0.0
 11
182.44999999999999
 21
168.43000000000001
 31
0.0
  0
LINE
  5
664
100
AcDbEntity
  8
0
  6
DASHED
 62
               2
100
AcDbLine
 10
182.44999999999999
 20
139.43000000000001
 30
0.0
 11
188.94999999999999
 21
139.43000000000001
 31
0.0
  0
LINE
  5
665
100
AcDbEntity
  8
0
  6
DASHED
 62
               2
100
AcDbLine
 10
188.94999999999999
 20
138.43000000000001
 30
0.0
 11
188.94999999999999
 21
139.43000000000001
 31
0.0
  0
LINE
  5
666
100
AcDbEntity
  8
0
  6
DASHED
 62
               2
100
AcDbLine
 10
183.94999999999999
 20
138.43000000000001
 30
0.0
 11
186.44999999999999
 21
138.43000000000001
 31
0.0
  0
LINE
  5
667
100
AcDbEntity
  8
0
  6
DASHED
 62
               2
100
AcDbLine
 10
183.94999999999999
 20
138.43000000000001
 30
0.0
 11
183.44999999999999
 21
137.93000000000001
 31
0.0
  0
LINE
  5
668
100
AcDbEntity
  8
0
  6
DASHED
 62
               2
100
AcDbLine
 10
183.44999999999999
 20
130.43000000000001
 30
0.0
 11
183.44999999999999
 21
137.93000000000001
 31
0.0
  0
LINE
  5
669
100
AcDbEntity
  8
0
  6
DASHED
 62
               2
100
AcDbLine
 10
183.44999999999999
 20
130.43000000000001
 30
0.0
 11
185.44999999999999
 21
128.43000000000001
 31
0.0
  0
LINE
  5
66A
100
AcDbEntity
  8
0
  6
DASHED
 62
               2
100
AcDbLine
 10
185.44999999999999
 20
125.43000000000001
 30
0.0
 11
185.44999999999999
 21
128.43000000000001
 31
0.0
  0
LINE
  5
66B
100
AcDbEntity
  8
0
  6
DASHED
 62
               2
100
AcDbLine
 10
185.65000000000001
 20
125.23
 30
0.0
 11
185.65000000000001
 21
123.43000000000001
 31
0.0
  0
LINE
  5
66C
100
AcDbEntity
  8
0
  6
DASHED
 62
               2
100
AcDbLine
 10
185.44999999999999
 20
125.43000000000001
 30
0.0
 11
185.65000000000001
 21
125.23
 31
0.0
  0
LINE
  5
66D
100
AcDbEntity
  8
0
  6
DASHED
 62
               2
100
AcDbLine
 10
185.65000000000001
 20
123.43000000000001
 30
0.0
 11
217.44999999999999
 21
123.43000000000001
 31
0.0
  0
LINE
  5
66E
100
AcDbEntity
  8
0
  6
DASHED
 62
               2
100
AcDbLine
 10
186.44999999999999
 20
138.43000000000001
 30
0.0
 11
188.94999999999999
 21
138.43000000000001
 31
0.0
  0
LINE
  5
66F
100
AcDbEntity
  8
0
  6
CENTER
 62
               2
100
AcDbLine
 10
174.94999999999999
 20
153.93000000000001
 30
0.0
 11
189.94999999999999
 21
153.93000000000001
 31
0.0
  0
LINE
  5
670
100
AcDbEntity
  8
0
  6
DASHED
 62
               2
100
AcDbLine
 10
146.68000000000001
 20
-138.06
 30
0.0
 11
146.68000000000001
 21
-45.060000000000002
 31
0.0
  0
LINE
  5
671
100
AcDbEntity
  8
0
  6
DASHED
 62
               2
100
AcDbLine
 10
115.68000000000001
 20
-45.060000000000002
 30
0.0
 11
146.68000000000001
 21
-45.060000000000002
 31
0.0
  0
LINE
  5
672
100
AcDbEntity
  8
0
  6
DASHED
 62
               2
100
AcDbLine
 10
112.68000000000001
 20
-87.0
 30
0.0
 11
112.68000000000001
 21
-48.060000000000002
 31
0.0
  0
LINE
  5
673
100
AcDbEntity
  8
0
  6
DASHED
 62
               2
100
AcDbLine
 10
112.68000000000001
 20
-87.0
 30
0.0
 11
113.68000000000001
 21
-87.469999999999999
 31
0.0
  0
LINE
  5
674
100
AcDbEntity
  8
0
  6
DASHED
 62
               2
100
AcDbLine
 10
113.68000000000001
 20
-90.060000000000002
 30
0.0
 11
113.68000000000001
 21
-87.469999999999999
 31
0.0
  0
LINE
  5
675
100
AcDbEntity
  8
0
  6
DASHED
 62
               2
100
AcDbLine
 10
113.68000000000001
 20
-90.060000000000002
 30
0.0
 11
115.68000000000001
 21
-92.060000000000002
 31
0.0
  0
LINE
  5
676
100
AcDbEntity
  8
0
  6
DASHED
 62
               2
100
AcDbLine
 10
115.68000000000001
 20
-92.060000000000002
 30
0.0
 11
118.18000000000001
 21
-92.060000000000002
 31
0.0
  0
LINE
  5
677
100
AcDbEntity
  8
0
  6
DASHED
 62
               2
100
AcDbLine
 10
118.18000000000001
 20
-93.060000000000002
 30
0.0
 11
118.18000000000001
 21
-92.060000000000002
 31
0.0
  0
LINE
  5
678
100
AcDbEntity
  8
0
  6
DASHED
 62
               2
100
AcDbLine
 10
111.68000000000001
 20
-93.060000000000002
 30
0.0
 11
118.18000000000001
 21
-93.060000000000002
 31
0.0
  0
LINE
  5
679
100
AcDbEntity
  8
0
  6
DASHED
 62
               2
100
AcDbLine
 10
111.68000000000001
 20
-122.06
 30
0.0
 11
111.68000000000001
 21
-93.060000000000002
 31
0.0
  0
LINE
  5
67A
100
AcDbEntity
  8
0
  6
DASHED
 62
               2
100
AcDbLine
 10
111.68000000000001
 20
-122.06
 30
0.0
 11
118.18000000000001
 21
-122.06
 31
0.0
  0
LINE
  5
67B
100
AcDbEntity
  8
0
  6
DASHED
 62
               2
100
AcDbLine
 10
118.18000000000001
 20
-123.06
 30
0.0
 11
118.18000000000001
 21
-122.06
 31
0.0
  0
LINE
  5
67C
100
AcDbEntity
  8
0
  6
DASHED
 62
               2
100
AcDbLine
 10
113.18000000000001
 20
-123.06
 30
0.0
 11
115.68000000000001
 21
-123.06
 31
0.0
  0
LINE
  5
67D
100
AcDbEntity
  8
0
  6
DASHED
 62
               2
100
AcDbLine
 10
113.18000000000001
 20
-123.06
 30
0.0
 11
112.68000000000001
 21
-123.56
 31
0.0
  0
LINE
  5
67E
100
AcDbEntity
  8
0
  6
DASHED
 62
               2
100
AcDbLine
 10
112.68000000000001
 20
-131.06
 30
0.0
 11
112.68000000000001
 21
-123.56
 31
0.0
  0
LINE
  5
67F
100
AcDbEntity
  8
0
  6
DASHED
 62
               2
100
AcDbLine
 10
112.68000000000001
 20
-131.06
 30
0.0
 11
114.68000000000001
 21
-133.06
 31
0.0
  0
LINE
  5
680
100
AcDbEntity
  8
0
  6
DASHED
 62
               2
100
AcDbLine
 10
114.68000000000001
 20
-136.06
 30
0.0
 11
114.68000000000001
 21
-133.06
 31
0.0
  0
LINE
  5
681
100
AcDbEntity
  8
0
  6
DASHED
 62
               2
100
AcDbLine
 10
114.88
 20
-136.25999999999999
 30
0.0
 11
114.88
 21
-138.06
 31
0.0
  0
LINE
  5
682
100
AcDbEntity
  8
0
  6
DASHED
 62
               2
100
AcDbLine
 10
114.68000000000001
 20
-136.06
 30
0.0
 11
114.88
 21
-136.25999999999999
 31
0.0
  0
LINE
  5
683
100
AcDbEntity
  8
0
  6
DASHED
 62
               2
100
AcDbLine
 10
114.88
 20
-138.06
 30
0.0
 11
146.68000000000001
 21
-138.06
 31
0.0
  0
LINE
  5
684
100
AcDbEntity
  8
0
  6
DASHED
 62
               2
100
AcDbLine
 10
115.68000000000001
 20
-123.06
 30
0.0
 11
118.18000000000001
 21
-123.06
 31
0.0
  0
LINE
  5
685
100
AcDbEntity
  8
0
  6
CENTER
 62
               2
100
AcDbLine
 10
104.18000000000001
 20
-107.56
 30
0.0
 11
119.18000000000001
 21
-107.56
 31
0.0
  0
LINE
  5
686
100
AcDbEntity
  8
0
  6
DASHED
 62
               2
100
AcDbLine
 10
-252.83000000000001
 20
-138.06
 30
0.0
 11
-252.83000000000001
 21
-45.060000000000002
 31
0.0
  0
LINE
  5
687
100
AcDbEntity
  8
0
  6
DASHED
 62
               2
100
AcDbLine
 10
-283.82999999999998
 20
-45.060000000000002
 30
0.0
 11
-252.83000000000001
 21
-45.060000000000002
 31
0.0
  0
LINE
  5
688
100
AcDbEntity
  8
0
  6
DASHED
 62
               2
100
AcDbLine
 10
-286.82999999999998
 20
-87.0
 30
0.0
 11
-286.82999999999998
 21
-48.060000000000002
 31
0.0
  0
LINE
  5
689
100
AcDbEntity
  8
0
  6
DASHED
 62
               2
100
AcDbLine
 10
-286.82999999999998
 20
-87.0
 30
0.0
 11
-285.82999999999998
 21
-87.469999999999999
 31
0.0
  0
LINE
  5
68A
100
AcDbEntity
  8
0
  6
DASHED
 62
               2
100
AcDbLine
 10
-285.82999999999998
 20
-90.060000000000002
 30
0.0
 11
-285.82999999999998
 21
-87.469999999999999
 31
0.0
  0
LINE
  5
68B
100
AcDbEntity
  8
0
  6
DASHED
 62
               2
100
AcDbLine
 10
-285.82999999999998
 20
-90.060000000000002
 30
0.0
 11
-283.82999999999998
 21
-92.060000000000002
 31
0.0
  0
LINE
  5
68C
100
AcDbEntity
  8
0
  6
DASHED
 62
               2
100
AcDbLine
 10
-283.82999999999998
 20
-92.060000000000002
 30
0.0
 11
-281.32999999999998
 21
-92.060000000000002
 31
0.0
  0
LINE
  5
68D
100
AcDbEntity
  8
0
  6
DASHED
 62
               2
100
AcDbLine
 10
-281.32999999999998
 20
-93.060000000000002
 30
0.0
 11
-281.32999999999998
 21
-92.060000000000002
 31
0.0
  0
LINE
  5
68E
100
AcDbEntity
  8
0
  6
DASHED
 62
               2
100
AcDbLine
 10
-287.82999999999998
 20
-93.060000000000002
 30
0.0
 11
-281.32999999999998
 21
-93.060000000000002
 31
0.0
  0
LINE
  5
68F
100
AcDbEntity
  8
0
  6
DASHED
 62
               2
100
AcDbLine
 10
-287.82999999999998
 20
-122.06
 30
0.0
 11
-287.82999999999998
 21
-93.060000000000002
 31
0.0
  0
LINE
  5
690
100
AcDbEntity
  8
0
  6
DASHED
 62
               2
100
AcDbLine
 10
-287.82999999999998
 20
-122.06
 30
0.0
 11
-281.32999999999998
 21
-122.06
 31
0.0
  0
LINE
  5
691
100
AcDbEntity
  8
0
  6
DASHED
 62
               2
100
AcDbLine
 10
-281.32999999999998
 20
-123.06
 30
0.0
 11
-281.32999999999998
 21
-122.06
 31
0.0
  0
LINE
  5
692
100
AcDbEntity
  8
0
  6
DASHED
 62
               2
100
AcDbLine
 10
-286.32999999999998
 20
-123.06
 30
0.0
 11
-283.82999999999998
 21
-123.06
 31
0.0
  0
LINE
  5
693
100
AcDbEntity
  8
0
  6
DASHED
 62
               2
100
AcDbLine
 10
-286.32999999999998
 20
-123.06
 30
0.0
 11
-286.82999999999998
 21
-123.56
 31
0.0
  0
LINE
  5
694
100
AcDbEntity
  8
0
  6
DASHED
 62
               2
100
AcDbLine
 10
-286.82999999999998
 20
-131.06
 30
0.0
 11
-286.82999999999998
 21
-123.56
 31
0.0
  0
LINE
  5
695
100
AcDbEntity
  8
0
  6
DASHED
 62
               2
100
AcDbLine
 10
-286.82999999999998
 20
-131.06
 30
0.0
 11
-284.82999999999998
 21
-133.06
 31
0.0
  0
LINE
  5
696
100
AcDbEntity
  8
0
  6
DASHED
 62
               2
100
AcDbLine
 10
-284.82999999999998
 20
-136.06
 30
0.0
 11
-284.82999999999998
 21
-133.06
 31
0.0
  0
LINE
  5
697
100
AcDbEntity
  8
0
  6
DASHED
 62
               2
100
AcDbLine
 10
-284.63
 20
-136.25999999999999
 30
0.0
 11
-284.63
 21
-138.06
 31
0.0
  0
LINE
  5
698
100
AcDbEntity
  8
0
  6
DASHED
 62
               2
100
AcDbLine
 10
-284.82999999999998
 20
-136.06
 30
0.0
 11
-284.63
 21
-136.25999999999999
 31
0.0
  0
LINE
  5
699
100
AcDbEntity
  8
0
  6
DASHED
 62
               2
100
AcDbLine
 10
-284.63
 20
-138.06
 30
0.0
 11
-252.83000000000001
 21
-138.06
 31
0.0
  0
LINE
  5
69A
100
AcDbEntity
  8
0
  6
DASHED
 62
               2
100
AcDbLine
 10
-283.82999999999998
 20
-123.06
 30
0.0
 11
-281.32999999999998
 21
-123.06
 31
0.0
  0
LINE
  5
69B
100
AcDbEntity
  8
0
  6
CENTER
 62
               2
100
AcDbLine
 10
-295.32999999999998
 20
-107.56
 30
0.0
 11
-280.32999999999998
 21
-107.56
 31
0.0
  0
ARC
  5
69C
100
AcDbEntity
  8
0
  6
DASHED
 62
               2
100
AcDbCircle
 10
-346.25087359103111
 20
213.43087359103114
 30
0.0
 40
2.999126536199463
100
AcDbArc
 50
89.983310780919965
 51
180.01668921907998
  0
ARC
  5
69D
100
AcDbEntity
  8
0
  6
DASHED
 62
               2
100
AcDbCircle
 10
-79.90087816553806
 20
213.43087816553808
 30
0.0
 40
2.9991219630286898
100
AcDbArc
 50
89.983223363242914
 51
180.01677663675673
  0
ARC
  5
69E
100
AcDbEntity
  8
0
  6
DASHED
 62
               2
100
AcDbCircle
 10
186.44912488712095
 20
213.43087511287905
 30
0.0
 40
2.9991250147952968
100
AcDbArc
 50
89.983281698818331
 51
180.01671830118107
  0
ARC
  5
69F
100
AcDbEntity
  8
0
  6
DASHED
 62
               2
100
AcDbCircle
 10
115.68748727639655
 20
-48.067487276396548
 30
0.0
 40
3.0074965963397098
100
AcDbArc
 50
90.142640155012757
 51
179.85735984498666
  0
ARC
  5
6A0
100
AcDbEntity
  8
0
  6
DASHED
 62
               2
100
AcDbCircle
 10
-283.82993756189859
 20
-48.060062438101404
 30
0.0
 40
3.0000624387511445
100
AcDbArc
 50
90.001192455078339
 51
179.99880754492094
  0
MTEXT
  5
6A1
100
AcDbEntity
  8
0
  6
CONTINUOUS
 62
               7
100
AcDbMText
 10
245.88456269755227
 20
-264.25
 30
0.0
 40
12.5
 41
0.0
 71
               4
 72
               1
  1
\W1.121;\A1;KOGANEI CORP.
  0
MTEXT
  5
6A2
100
AcDbEntity
  8
0
  6
CONTINUOUS
 62
               7
100
AcDbMText
 10
290.09979829720089
 20
263.75
 30
0.0
 40
9.0
 41
0.0
 71
               4
 72
               1
  1
\W1.200;\A1;Ver.2.0
  0
MTEXT
  5
6A3
100
AcDbEntity
  8
0
  6
CONTINUOUS
 62
               7
100
AcDbMText
 10
-362.5389820623364
 20
268.75
 30
0.0
 40
9.0
 41
0.0
 71
               4
 72
               1
  1
\W1.141;\A1;F10 SERIES
  0
MTEXT
  5
6A4
100
AcDbEntity
  8
0
  6
CONTINUOUS
 62
               7
100
AcDbMText
 10
-382.04310404492458
 20
231.25
 30
0.0
 40
9.0
 41
0.0
 71
               4
 72
               1
  1
\W1.138;\A1;MODEL:-F100
  0
MTEXT
  5
6A5
100
AcDbEntity
  8
0
  6
CONTINUOUS
 62
               7
100
AcDbMText
 10
-115.74999452640613
 20
231.25
 30
0.0
 40
9.0
 41
0.0
 71
               4
 72
               1
  1
\W1.100;\A1;MODEL:-F200
  0
MTEXT
  5
6A6
100
AcDbEntity
  8
0
  6
CONTINUOUS
 62
               7
100
AcDbMText
 10
150.57296239865212
 20
231.25
 30
0.0
 40
9.0
 41
0.0
 71
               4
 72
               1
  1
\W1.082;\A1;MODEL:-F260
  0
MTEXT
  5
6A7
100
AcDbEntity
  8
0
  6
CONTINUOUS
 62
               7
100
AcDbMText
 10
17.424993266562623
 20
-20.25
 30
0.0
 40
9.0
 41
0.0
 71
               4
 72
               1
  1
\W1.100;\A1;MODEL:-T200
  0
MTEXT
  5
6A8
100
AcDbEntity
  8
0
  6
CONTINUOUS
 62
               7
100
AcDbMText
 10
-382.12704980837913
 20
-20.25
 30
0.0
 40
9.0
 41
0.0
 71
               4
 72
               1
  1
\W1.082;\A1;MODEL:-D250
  0
MTEXT
  5
6A9
100
AcDbEntity
  8
0
  6
CONTINUOUS
 62
               7
100
AcDbMText
 10
-358.25000858306885
 20
258.75
 30
0.0
 40
9.0
 41
0.0
 71
               4
 72
               1
  1
\A1;CONNECTER
  0
ENDSEC
  0
SECTION
  2
OBJECTS
  0
DICTIONARY
  5
19
100
AcDbDictionary
  3
ACAD_GROUP
350
1A
  3
ACAD_MLINESTYLE
350
1B
  0
DICTIONARY
  5
1A
102
{ACAD_REACTORS
330
19
102
}
100
AcDbDictionary
  0
DICTIONARY
  5
1B
102
{ACAD_REACTORS
330
19
102
}
100
AcDbDictionary
  3
STANDARD
350
1C
  0
MLINESTYLE
  5
1C
102
{ACAD_REACTORS
330
1B
102
}
100
AcDbMlineStyle
  2
Standard
 70
               0
  3

 62
               0
 51
90.0
 52
90.0
 71
               2
 49
0.5
 62
             256
  6
ByLayer
 49
-0.5
 62
             256
  6
ByLayer
  0
ENDSEC
  0
EOF
