  0
SECTION
  2
HEADER
  9
$ACADVER
  1
AC1012
  9
$DWGCODEPAGE
  3
dos932
  9
$INSBASE
 10
0.0
 20
0.0
 30
0.0
  9
$EXTMIN
 10
-399.25
 20
-276.75
 30
0.0
  9
$EXTMAX
 10
406.09414987197181
 20
276.25
 30
0.0
  9
$LIMMIN
 10
-399.25
 20
-276.75
  9
$LIMMAX
 10
406.09414987197181
 20
276.25
  9
$ORTHOMODE
 70
               0
  9
$REGENMODE
 70
               1
  9
$FILLMODE
 70
               1
  9
$QTEXTMODE
 70
               0
  9
$MIRRTEXT
 70
               1
  9
$DRAGMODE
 70
               2
  9
$LTSCALE
 40
1.0
  9
$OSMODE
 70
               0
  9
$ATTMODE
 70
               1
  9
$TEXTSIZE
 40
3.2000000476837158
  9
$TRACEWID
 40
0.05
  9
$TEXTSTYLE
  7
MX_NOTE_STANDARD
  9
$CLAYER
  8
0
  9
$CELTYPE
  6
CONTINUOUS
  9
$CECOLOR
 62
             256
  9
$CELTSCALE
 40
1.0
  9
$DELOBJ
 70
               1
  9
$DISPSILH
 70
               0
  9
$DIMSCALE
 40
1.0
  9
$DIMASZ
 40
2.5
  9
$DIMEXO
 40
1.5
  9
$DIMDLI
 40
3.75
  9
$DIMRND
 40
0.0
  9
$DIMDLE
 40
0.0
  9
$DIMEXE
 40
1.5
  9
$DIMTP
 40
0.0
  9
$DIMTM
 40
0.0
  9
$DIMTXT
 40
3.2000000476837158
  9
$DIMCEN
 40
2.5
  9
$DIMTSZ
 40
0.0
  9
$DIMTOL
 70
               0
  9
$DIMLIM
 70
               0
  9
$DIMTIH
 70
               0
  9
$DIMTOH
 70
               0
  9
$DIMSE1
 70
               0
  9
$DIMSE2
 70
               0
  9
$DIMTAD
 70
               1
  9
$DIMZIN
 70
               8
  9
$DIMBLK
  1

  9
$DIMASO
 70
               1
  9
$DIMSHO
 70
               1
  9
$DIMPOST
  1

  9
$DIMAPOST
  1

  9
$DIMALT
 70
               0
  9
$DIMALTD
 70
               4
  9
$DIMALTF
 40
0.03937007874016
  9
$DIMLFAC
 40
1.0
  9
$DIMTOFL
 70
               1
  9
$DIMTVP
 40
0.0
  9
$DIMTIX
 70
               0
  9
$DIMSOXD
 70
               0
  9
$DIMSAH
 70
               0
  9
$DIMBLK1
  1

  9
$DIMBLK2
  1

  9
$DIMSTYLE
  2
MXDIMSTYLE
  9
$DIMCLRD
 70
               0
  9
$DIMCLRE
 70
               0
  9
$DIMCLRT
 70
               0
  9
$DIMTFAC
 40
1.0
  9
$DIMGAP
 40
1.0
  9
$DIMJUST
 70
               0
  9
$DIMSD1
 70
               0
  9
$DIMSD2
 70
               0
  9
$DIMTOLJ
 70
               1
  9
$DIMTZIN
 70
               0
  9
$DIMALTZ
 70
               0
  9
$DIMALTTZ
 70
               0
  9
$DIMFIT
 70
               3
  9
$DIMUPT
 70
               1
  9
$DIMUNIT
 70
               2
  9
$DIMDEC
 70
               4
  9
$DIMTDEC
 70
               4
  9
$DIMALTU
 70
               2
  9
$DIMALTTD
 70
               4
  9
$DIMTXSTY
  7
MX_NOTE_STANDARD
  9
$DIMAUNIT
 70
               0
  9
$LUNITS
 70
               2
  9
$LUPREC
 70
               4
  9
$SKETCHINC
 40
0.1
  9
$FILLETRAD
 40
0.0
  9
$AUNITS
 70
               0
  9
$AUPREC
 70
               0
  9
$MENU
  1
acad
  9
$ELEVATION
 40
0.0
  9
$PELEVATION
 40
0.0
  9
$THICKNESS
 40
0.0
  9
$LIMCHECK
 70
               0
  9
$BLIPMODE
 70
               1
  9
$CHAMFERA
 40
0.0
  9
$CHAMFERB
 40
0.0
  9
$CHAMFERC
 40
0.0
  9
$CHAMFERD
 40
0.0
  9
$SKPOLY
 70
               0
  9
$TDCREATE
 40
2453378.356423611
  9
$TDUPDATE
 40
2453378.356423611
  9
$TDINDWG
 40
0.0000000000
  9
$TDUSRTIMER
 40
0.0000000000
  9
$USRTIMER
 70
               1
  9
$ANGBASE
 50
0.0
  9
$ANGDIR
 70
               0
  9
$PDMODE
 70
               0
  9
$PDSIZE
 40
0.0
  9
$PLINEWID
 40
0.0
  9
$COORDS
 70
               1
  9
$SPLFRAME
 70
               0
  9
$SPLINETYPE
 70
               6
  9
$SPLINESEGS
 70
               8
  9
$ATTDIA
 70
               0
  9
$ATTREQ
 70
               1
  9
$HANDLING
 70
               1
  9
$HANDSEED
  5
6D9
  9
$SURFTAB1
 70
               6
  9
$SURFTAB2
 70
               6
  9
$SURFTYPE
 70
               6
  9
$SURFU
 70
               6
  9
$SURFV
 70
               6
  9
$UCSNAME
  2

  9
$UCSORG
 10
0.0
 20
0.0
 30
0.0
  9
$UCSXDIR
 10
1.0
 20
0.0
 30
0.0
  9
$UCSYDIR
 10
0.0
 20
1.0
 30
0.0
  9
$PUCSNAME
  2

  9
$PUCSORG
 10
0.0
 20
0.0
 30
0.0
  9
$PUCSXDIR
 10
1.0
 20
0.0
 30
0.0
  9
$PUCSYDIR
 10
0.0
 20
1.0
 30
0.0
  9
$USERI1
 70
               0
  9
$USERI2
 70
               0
  9
$USERI3
 70
               0
  9
$USERI4
 70
               0
  9
$USERI5
 70
               0
  9
$USERR1
 40
0.0
  9
$USERR2
 40
0.0
  9
$USERR3
 40
0.0
  9
$USERR4
 40
0.0
  9
$USERR5
 40
0.0
  9
$WORLDVIEW
 70
               1
  9
$SHADEDGE
 70
               3
  9
$SHADEDIF
 70
              70
  9
$TILEMODE
 70
               1
  9
$MAXACTVP
 70
              16
  9
$PINSBASE
 10
0.0
 20
0.0
 30
0.0
  9
$PLIMCHECK
 70
               0
  9
$PEXTMIN
 10
1.0000000000000000E+20
 20
1.0000000000000000E+20
 30
1.0000000000000000E+20
  9
$PEXTMAX
 10
-1.0000000000000000E+20
 20
-1.0000000000000000E+20
 30
-1.0000000000000000E+20
  9
$PLIMMIN
 10
0.0
 20
0.0
  9
$PLIMMAX
 10
12.0
 20
9.0
  9
$UNITMODE
 70
               0
  9
$VISRETAIN
 70
               0
  9
$PLINEGEN
 70
               1
  9
$PSLTSCALE
 70
               0
  9
$TREEDEPTH
 70
            3020
  9
$PICKSTYLE
 70
               1
  9
$CMLSTYLE
  2
Standard
  9
$CMLJUST
 70
               0
  9
$CMLSCALE
 40
1.0
  9
$SAVEIMAGES
 70
               0
  0
ENDSEC
  0
SECTION
  2
CLASSES
  0
CLASS
  1
LWPOLYLINE
  2
AcDbPolyline
  3
"AutoCAD"
 90
        0
280
               0
281
               1
  0
CLASS
  1
IMAGE
  2
AcDbRasterImage
  3
ISM
 90
      127
280
               0
281
               1
  0
CLASS
  1
OLE2FRAME
  2
AcDbOle2Frame
  3
""
 90
        0
280
               0
281
               1
  0
CLASS
  1
HATCH
  2
AcDbHatch
  3
"ACAD_SEDONA"
 90
        0
280
               0
281
               1
  0
CLASS
  1
DICTIONARYVAR
  2
AcDbDictionaryVar
  3
"AutoCAD"
 90
        0
280
               0
281
               0
  0
CLASS
  1
RASTERVARIABLES
  2
AcDbRasterVariables
  3
ISM
 90
        0
280
               0
281
               0
  0
CLASS
  1
IMAGEDEF
  2
AcDbRasterImageDef
  3
ISM
 90
        0
280
               0
281
               0
  0
CLASS
  1
IMAGEDEF_REACTOR
  2
AcDbRasterImageDefReactor
  3
ISM
 90
        1
280
               0
281
               0
  0
CLASS
  1
IDBUFFER
  2
AcDbIdBuffer
  3
"Acad"
 90
        0
280
               0
281
               0
  0
CLASS
  1
SPATIAL_FILTER
  2
AcDbSpatialFilter
  3
"Acad"
 90
        0
280
               0
281
               0
  0
CLASS
  1
XRECORD
  2
AcDbXrecord
  3
"<Built In>"
 90
        0
280
               0
281
               0
  0
CLASS
  1
SORTENTSTABLE
  2
AcDbSortentsTable
  3
"AutoCAD"
 90
        0
280
               0
281
               0
  0
CLASS
  1
LAYER_INDEX
  2
AcDbLayerIndex
  3
"Acad"
 90
        0
280
               0
281
               0
  0
CLASS
  1
SPATIAL_INDEX
  2
AcDbSpatialIndex
  3
"Acad"
 90
        0
280
               0
281
               0
  0
CLASS
  1
OBJECT_PTR
  2
CAseDLPNTableRecord
  3
"ASE-LPNTableRecord"
 90
        1
280
               0
281
               0
  0
CLASS
  1
LAYOUT
  2
AcDbLayout
  3
"AutoCAD 2000"
 90
        1
280
               0
281
               0
  0
CLASS
  1
PLOTSETTINGS
  2
AcDbPlotSettings
  3
"AutoCAD 2000"
 90
        1
280
               0
281
               0
  0
CLASS
  1
ACDBDICTIONARYWDFLT
  2
AcDbDictionaryWithDefault
  3
"AutoCAD 2000"
 90
        1
280
               0
281
               0
  0
CLASS
  1
ACDBPLACEHOLDER
  2
AcDbPlaceHolder
  3
"AutoCAD 2000"
 90
        1
280
               0
281
               0
  0
ENDSEC
  0
SECTION
  2
TABLES
  0
TABLE
  2
VPORT
  5
7
100
AcDbSymbolTable
 70
               1
  0
VPORT
  5
15
100
AcDbSymbolTableRecord
100
AcDbViewportTableRecord
  2
*ACTIVE
 70
               0
 10
0.0
 20
0.0
 11
1.0
 21
1.0
 12
3.4220749359859042
 22
-0.25
 13
0.0
 23
0.0
 14
1.0
 24
1.0
 15
0.0
 25
0.0
 16
0.0
 26
0.0
 36
1.0
 17
0.0
 27
0.0
 37
0.0
 40
558.52999999999997
 41
1.7320508075688772
 42
50.0
 43
0.0
 44
0.0
 50
0.0
 51
0.0
 71
               0
 72
             100
 73
               1
 74
               1
 75
               0
 76
               0
 77
               0
 78
               0
  0
ENDTAB
  0
TABLE
  2
LTYPE
  5
4
100
AcDbSymbolTable
 70
               5
  0
LTYPE
  5
11
100
AcDbSymbolTableRecord
100
AcDbLinetypeTableRecord
  2
BYBLOCK
 70
              64
  3

 72
              65
 73
               0
 40
0.0
  0
LTYPE
  5
12
100
AcDbSymbolTableRecord
100
AcDbLinetypeTableRecord
  2
BYLAYER
 70
              64
  3

 72
              65
 73
               0
 40
0.0
  0
LTYPE
  5
13
100
AcDbSymbolTableRecord
100
AcDbLinetypeTableRecord
  2
CONTINUOUS
 70
              64
  3
Solid line
 72
              65
 73
               0
 40
0.0
  0
LTYPE
  5
7F
100
AcDbSymbolTableRecord
100
AcDbLinetypeTableRecord
  2
CENTER
 70
              64
  3
Center ____ _ ____ _ ____ _ ____ _ ____ _ ____
 72
              65
 73
               4
 40
26.0
 49
20.0
 74
               0
 49
-2.0
 74
               0
 49
2.0
 74
               0
 49
-2.0
 74
               0
  0
LTYPE
  5
CB
100
AcDbSymbolTableRecord
100
AcDbLinetypeTableRecord
  2
DASHED
 70
              64
  3
Dashed __ __ __ __ __ __ __ __ __ __ __ __ __ _
 72
              65
 73
               2
 40
4.0
 49
2.0
 74
               0
 49
-2.0
 74
               0
  0
ENDTAB
  0
TABLE
  2
LAYER
  5
2
100
AcDbSymbolTable
 70
               2
  0
LAYER
  5
14
100
AcDbSymbolTableRecord
100
AcDbLayerTableRecord
  2
0
 70
               0
 62
               7
  6
CONTINUOUS
  0
LAYER
  5
1D
100
AcDbSymbolTableRecord
100
AcDbLayerTableRecord
  2
DEFPOINTS
 70
               0
 62
               7
  6
CONTINUOUS
  0
ENDTAB
  0
TABLE
  2
STYLE
  5
3
100
AcDbSymbolTable
 70
               1
  0
STYLE
  5
17
100
AcDbSymbolTableRecord
100
AcDbTextStyleTableRecord
  2
MX_NOTE_STANDARD
 70
               0
 40
0.0
 41
1.0
 50
0.0
 71
               0
 42
3.2000000476837158
  3
txt.shx
  4
extfont.shx
  0
ENDTAB
  0
TABLE
  2
VIEW
  5
5
100
AcDbSymbolTable
 70
               0
  0
ENDTAB
  0
TABLE
  2
UCS
  5
6
100
AcDbSymbolTable
 70
               0
  0
ENDTAB
  0
TABLE
  2
APPID
  5
8
100
AcDbSymbolTable
 70
               1
  0
APPID
  5
16
100
AcDbSymbolTableRecord
100
AcDbRegAppTableRecord
  2
ACAD
 70
               0
  0
ENDTAB
  0
TABLE
  2
DIMSTYLE
  5
9
100
AcDbSymbolTable
 70
               1
  0
DIMSTYLE
105
18
100
AcDbSymbolTableRecord
100
AcDbDimStyleTableRecord
  2
MXDIMSTYLE
 70
               0
  3

  4

  5

  6

  7

 40
1.0
 41
2.5
 42
1.5
 43
3.75
 44
1.5
 45
0.0
 46
0.0
 47
0.0
 48
0.0
 71
               0
 72
               0
 73
               0
 74
               0
 75
               0
 76
               0
 77
               1
 78
               8
140
3.2000000476837158
141
2.5
142
0.0
143
0.03937007874016
144
1.0
145
0.0
146
1.0
147
1.0
170
               0
171
               4
172
               1
173
               0
174
               0
175
               0
176
               0
177
               0
178
               0
270
               2
271
               4
272
               4
273
               2
274
               4
275
               0
280
               0
281
               0
282
               0
283
               1
284
               0
285
               0
286
               0
287
               3
288
               1
340
17
  0
ENDTAB
  0
TABLE
  2
BLOCK_RECORD
  5
1
100
AcDbSymbolTable
 70
              15
  0
BLOCK_RECORD
  5
A
100
AcDbSymbolTableRecord
100
AcDbBlockTableRecord
  2
*MODEL_SPACE
  0
BLOCK_RECORD
  5
B
100
AcDbSymbolTableRecord
100
AcDbBlockTableRecord
  2
*PAPER_SPACE
  0
BLOCK_RECORD
  5
1E
100
AcDbSymbolTableRecord
100
AcDbBlockTableRecord
  2
F10T-1
  0
BLOCK_RECORD
  5
1F
100
AcDbSymbolTableRecord
100
AcDbBlockTableRecord
  2
F10T-2
  0
BLOCK_RECORD
  5
20
100
AcDbSymbolTableRecord
100
AcDbBlockTableRecord
  2
F10T-3
  0
BLOCK_RECORD
  5
21
100
AcDbSymbolTableRecord
100
AcDbBlockTableRecord
  2
F10T-4
  0
BLOCK_RECORD
  5
22
100
AcDbSymbolTableRecord
100
AcDbBlockTableRecord
  2
F10T-5
  0
BLOCK_RECORD
  5
23
100
AcDbSymbolTableRecord
100
AcDbBlockTableRecord
  2
F10T-6
  0
BLOCK_RECORD
  5
24
100
AcDbSymbolTableRecord
100
AcDbBlockTableRecord
  2
F10T-7
  0
BLOCK_RECORD
  5
25
100
AcDbSymbolTableRecord
100
AcDbBlockTableRecord
  2
F10T-8
  0
BLOCK_RECORD
  5
26
100
AcDbSymbolTableRecord
100
AcDbBlockTableRecord
  2
F10T-9
  0
BLOCK_RECORD
  5
27
100
AcDbSymbolTableRecord
100
AcDbBlockTableRecord
  2
F10T-10
  0
BLOCK_RECORD
  5
28
100
AcDbSymbolTableRecord
100
AcDbBlockTableRecord
  2
F10T-11
  0
BLOCK_RECORD
  5
29
100
AcDbSymbolTableRecord
100
AcDbBlockTableRecord
  2
F10T-12
  0
BLOCK_RECORD
  5
2A
100
AcDbSymbolTableRecord
100
AcDbBlockTableRecord
  2
F10T-13
  0
BLOCK_RECORD
  5
2B
100
AcDbSymbolTableRecord
100
AcDbBlockTableRecord
  2
F10T-14
  0
BLOCK_RECORD
  5
2C
100
AcDbSymbolTableRecord
100
AcDbBlockTableRecord
  2
F10T-15
  0
ENDTAB
  0
ENDSEC
  0
SECTION
  2
BLOCKS
  0
BLOCK
  5
D
100
AcDbEntity
  8
0
100
AcDbBlockBegin
  2
*MODEL_SPACE
 70
               0
 10
0.0
 20
0.0
 30
0.0
  3
*MODEL_SPACE
  1

  0
ENDBLK
  5
E
100
AcDbEntity
  8
0
100
AcDbBlockEnd
  0
BLOCK
  5
F
100
AcDbEntity
 67
               1
  8
0
100
AcDbBlockBegin
  2
*PAPER_SPACE
 70
               0
 10
0.0
 20
0.0
 30
0.0
  3
*PAPER_SPACE
  1

  0
ENDBLK
  5
10
100
AcDbEntity
 67
               1
  8
0
100
AcDbBlockEnd
  0
BLOCK
  5
2D
100
AcDbEntity
  8
0
100
AcDbBlockBegin
  2
F10T-1
 70
               0
 10
0.0
 20
0.0
 30
0.0
  3
F10T-1
  1

  0
LINE
  5
2E
100
AcDbEntity
  8
0
  6
CONTINUOUS
 62
               7
100
AcDbLine
 10
5.0
 20
1.5
 30
0.0
 11
15.0
 21
1.5
 31
0.0
  0
LINE
  5
2F
100
AcDbEntity
  8
0
  6
CONTINUOUS
 62
               7
100
AcDbLine
 10
4.9999847412109375
 20
3.5
 30
0.0
 11
14.999984741210938
 21
3.5
 31
0.0
  0
LINE
  5
30
100
AcDbEntity
  8
0
  6
CONTINUOUS
 62
               2
100
AcDbLine
 10
7.4999847412109375
 20
9.6999969482421875
 30
0.0
 11
12.499984741210938
 21
9.6999969482421875
 31
0.0
  0
LINE
  5
31
100
AcDbEntity
  8
0
  6
CONTINUOUS
 62
               2
100
AcDbLine
 10
10.0
 20
-55.606674194335937
 30
0.0
 11
10.0
 21
58.755081176757813
 31
0.0
  0
LINE
  5
32
100
AcDbEntity
  8
0
  6
CONTINUOUS
 62
               4
100
AcDbLine
 10
4.9999847412109375
 20
37.0
 30
0.0
 11
14.999984741210938
 21
37.0
 31
0.0
  0
LINE
  5
33
100
AcDbEntity
  8
0
  6
CONTINUOUS
 62
               7
100
AcDbLine
 10
4.9999847412109375
 20
13.0
 30
0.0
 11
14.999984741210938
 21
13.0
 31
0.0
  0
LINE
  5
34
100
AcDbEntity
  8
0
  6
CONTINUOUS
 62
               7
100
AcDbLine
 10
8.0731964111328125
 20
9.399993896484375
 30
0.0
 11
11.926773071289063
 21
9.399993896484375
 31
0.0
  0
LINE
  5
35
100
AcDbEntity
  8
0
  6
CONTINUOUS
 62
               7
100
AcDbLine
 10
8.0731964111328125
 20
10.0
 30
0.0
 11
11.926773071289063
 21
10.0
 31
0.0
  0
LINE
  5
36
100
AcDbEntity
  8
0
  6
CONTINUOUS
 62
               4
100
AcDbLine
 10
5.04998779296875
 20
37.000015258789063
 30
0.0
 11
5.04998779296875
 21
50.500015258789062
 31
0.0
  0
LINE
  5
37
100
AcDbEntity
  8
0
  6
CONTINUOUS
 62
               4
100
AcDbLine
 10
14.5
 20
46.0
 30
0.0
 11
5.5
 21
46.0
 31
0.0
  0
LINE
  5
38
100
AcDbEntity
  8
0
  6
CONTINUOUS
 62
               2
100
AcDbLine
 10
14.949981689453125
 20
41.5
 30
0.0
 11
5.04998779296875
 21
41.5
 31
0.0
  0
LINE
  5
39
100
AcDbEntity
  8
0
  6
CONTINUOUS
 62
               4
100
AcDbLine
 10
14.949981689453125
 20
37.0
 30
0.0
 11
14.949981689453125
 21
50.500015258789062
 31
0.0
  0
LINE
  5
3A
100
AcDbEntity
  8
0
  6
CONTINUOUS
 62
               4
100
AcDbLine
 10
5.04998779296875
 20
50.5
 30
0.0
 11
6.5
 21
50.5
 31
0.0
  0
LINE
  5
3B
100
AcDbEntity
  8
0
  6
CONTINUOUS
 62
               4
100
AcDbLine
 10
5.9499969482421875
 20
46.000015258789063
 30
0.0
 11
5.9499969482421875
 21
48.500015258789063
 31
0.0
  0
LINE
  5
3C
100
AcDbEntity
  8
0
  6
CONTINUOUS
 62
               4
100
AcDbLine
 10
14.04998779296875
 20
46.0
 30
0.0
 11
14.04998779296875
 21
48.500015258789063
 31
0.0
  0
LINE
  5
3D
100
AcDbEntity
  8
0
  6
CONTINUOUS
 62
               4
100
AcDbLine
 10
13.5
 20
46.498458862304688
 30
0.0
 11
13.5
 21
57.0
 31
0.0
  0
LINE
  5
3E
100
AcDbEntity
  8
0
  6
CONTINUOUS
 62
               4
100
AcDbLine
 10
6.5
 20
46.498458862304688
 30
0.0
 11
6.5
 21
57.0
 31
0.0
  0
LINE
  5
3F
100
AcDbEntity
  8
0
  6
CONTINUOUS
 62
               4
100
AcDbLine
 10
6.5
 20
46.498458862304688
 30
0.0
 11
13.5
 21
46.498458862304688
 31
0.0
  0
LINE
  5
40
100
AcDbEntity
  8
0
  6
CONTINUOUS
 62
               4
100
AcDbLine
 10
6.5
 20
50.05615234375
 30
0.0
 11
13.5
 21
50.05615234375
 31
0.0
  0
LINE
  5
41
100
AcDbEntity
  8
0
  6
CONTINUOUS
 62
               4
100
AcDbLine
 10
6.5
 20
55.5
 30
0.0
 11
13.5
 21
55.5
 31
0.0
  0
LINE
  5
42
100
AcDbEntity
  8
0
  6
CONTINUOUS
 62
               4
100
AcDbLine
 10
5.0999908447265625
 20
57.0
 30
0.0
 11
14.899993896484375
 21
57.0
 31
0.0
  0
LINE
  5
43
100
AcDbEntity
  8
0
  6
CONTINUOUS
 62
               4
100
AcDbLine
 10
13.5
 20
50.5
 30
0.0
 11
14.949996948242188
 21
50.5
 31
0.0
  0
LINE
  5
44
100
AcDbEntity
  8
0
  6
CONTINUOUS
 62
               4
100
AcDbLine
 10
13.5
 20
49.5
 30
0.0
 11
14.050003051757813
 21
49.5
 31
0.0
  0
LINE
  5
45
100
AcDbEntity
  8
0
  6
CONTINUOUS
 62
               4
100
AcDbLine
 10
13.5
 20
48.5
 30
0.0
 11
14.050003051757813
 21
48.5
 31
0.0
  0
LINE
  5
46
100
AcDbEntity
  8
0
  6
CONTINUOUS
 62
               4
100
AcDbLine
 10
5.9499969482421875
 20
49.5
 30
0.0
 11
6.5
 21
49.5
 31
0.0
  0
LINE
  5
47
100
AcDbEntity
  8
0
  6
CONTINUOUS
 62
               4
100
AcDbLine
 10
5.9499969482421875
 20
48.5
 30
0.0
 11
6.5
 21
48.5
 31
0.0
  0
LINE
  5
48
100
AcDbEntity
  8
0
  6
CONTINUOUS
 62
               4
100
AcDbLine
 10
5.9499969482421875
 20
49.500015258789063
 30
0.0
 11
5.9499969482421875
 21
50.500015258789062
 31
0.0
  0
LINE
  5
49
100
AcDbEntity
  8
0
  6
CONTINUOUS
 62
               4
100
AcDbLine
 10
14.04998779296875
 20
49.500015258789063
 30
0.0
 11
14.04998779296875
 21
50.500015258789062
 31
0.0
  0
LINE
  5
4A
100
AcDbEntity
  8
0
  6
CONTINUOUS
 62
               4
100
AcDbLine
 10
8.714996337890625
 20
61.173324584960938
 30
0.0
 11
8.714996337890625
 21
65.0
 31
0.0
  0
LINE
  5
4B
100
AcDbEntity
  8
0
  6
CONTINUOUS
 62
               4
100
AcDbLine
 10
7.2849884033203125
 20
60.7901611328125
 30
0.0
 11
7.2849884033203125
 21
65.0
 31
0.0
  0
LINE
  5
4C
100
AcDbEntity
  8
0
  6
CONTINUOUS
 62
               4
100
AcDbLine
 10
7.2849884033203125
 20
65.0
 30
0.0
 11
8.714996337890625
 21
65.0
 31
0.0
  0
LINE
  5
4D
100
AcDbEntity
  8
0
  6
CONTINUOUS
 62
               4
100
AcDbLine
 10
8.399993896484375
 20
65.0
 30
0.0
 11
8.399993896484375
 21
70.0
 31
0.0
  0
LINE
  5
4E
100
AcDbEntity
  8
0
  6
CONTINUOUS
 62
               4
100
AcDbLine
 10
7.5999908447265625
 20
65.0
 30
0.0
 11
7.5999908447265625
 21
70.0
 31
0.0
  0
LINE
  5
4F
100
AcDbEntity
  8
0
  6
CONTINUOUS
 62
               4
100
AcDbLine
 10
7.600006103515625
 20
70.0
 30
0.0
 11
8.4000091552734375
 21
70.0
 31
0.0
  0
LINE
  5
50
100
AcDbEntity
  8
0
  6
CONTINUOUS
 62
               4
100
AcDbLine
 10
8.714996337890625
 20
57.0
 30
0.0
 11
8.714996337890625
 21
60.138046264648437
 31
0.0
  0
LINE
  5
51
100
AcDbEntity
  8
0
  6
CONTINUOUS
 62
               4
100
AcDbLine
 10
7.2849884033203125
 20
57.0
 30
0.0
 11
7.2849884033203125
 21
59.7548828125
 31
0.0
  0
LINE
  5
52
100
AcDbEntity
  8
0
  6
CONTINUOUS
 62
               7
100
AcDbLine
 10
15.0
 20
-52.599990844726563
 30
0.0
 11
15.0
 21
-9.54998779296875
 31
0.0
  0
LINE
  5
53
100
AcDbEntity
  8
0
  6
CONTINUOUS
 62
               7
100
AcDbLine
 10
5.0
 20
-52.599990844726563
 30
0.0
 11
5.0
 21
-35.150005340576172
 31
0.0
  0
LINE
  5
54
100
AcDbEntity
  8
0
  6
CONTINUOUS
 62
               4
100
AcDbLine
 10
14.899993896484375
 20
50.500015258789062
 30
0.0
 11
14.899993896484375
 21
57.0
 31
0.0
  0
LINE
  5
55
100
AcDbEntity
  8
0
  6
CONTINUOUS
 62
               4
100
AcDbLine
 10
5.0999908447265625
 20
50.500015258789062
 30
0.0
 11
5.0999908447265625
 21
57.0
 31
0.0
  0
LINE
  5
56
100
AcDbEntity
  8
0
  6
CONTINUOUS
 62
               4
100
AcDbLine
 10
6.0
 20
50.500015258789062
 30
0.0
 11
6.0
 21
57.0
 31
0.0
  0
LINE
  5
57
100
AcDbEntity
  8
0
  6
CONTINUOUS
 62
               4
100
AcDbLine
 10
14.0
 20
50.500015258789062
 30
0.0
 11
14.0
 21
57.0
 31
0.0
  0
LINE
  5
58
100
AcDbEntity
  8
0
  6
CONTINUOUS
 62
               7
100
AcDbLine
 10
5.7000003796238161
 20
-38.399972518567665
 30
0.0
 11
5.3000086203792307
 21
-37.999980691889505
 31
0.0
  0
LINE
  5
59
100
AcDbEntity
  8
0
  6
CONTINUOUS
 62
               7
100
AcDbLine
 10
5.6999835883179912
 20
-45.599992030563044
 30
0.0
 11
5.2999863668428588
 21
-45.999989184603692
 31
0.0
  0
LINE
  5
5A
100
AcDbEntity
  8
0
  6
CONTINUOUS
 62
               7
100
AcDbLine
 10
14.299995954866972
 20
-45.599976571100342
 30
0.0
 11
14.699998503703682
 21
-45.999979187372446
 31
0.0
  0
LINE
  5
5B
100
AcDbEntity
  8
0
  6
CONTINUOUS
 62
               7
100
AcDbLine
 10
14.299974982593994
 20
-38.399994822677399
 30
0.0
 11
14.699977598866099
 21
-37.999992273840689
 31
0.0
  0
LINE
  5
5C
100
AcDbEntity
  8
0
  6
CONTINUOUS
 62
               7
100
AcDbLine
 10
14.29998779296875
 20
-45.599990844726562
 30
0.0
 11
14.29998779296875
 21
-38.399993896484375
 31
0.0
  0
LINE
  5
5D
100
AcDbEntity
  8
0
  6
CONTINUOUS
 62
               7
100
AcDbLine
 10
5.699981689453125
 20
-38.399993896484375
 30
0.0
 11
14.29998779296875
 21
-38.399993896484375
 31
0.0
  0
LINE
  5
5E
100
AcDbEntity
  8
0
  6
CONTINUOUS
 62
               7
100
AcDbLine
 10
5.6999969482421875
 20
-45.599990844726562
 30
0.0
 11
5.6999969482421875
 21
-38.399993896484375
 31
0.0
  0
LINE
  5
5F
100
AcDbEntity
  8
0
  6
CONTINUOUS
 62
               7
100
AcDbLine
 10
5.699981689453125
 20
-45.599990844726562
 30
0.0
 11
14.29998779296875
 21
-45.599990844726562
 31
0.0
  0
LINE
  5
60
100
AcDbEntity
  8
0
  6
CONTINUOUS
 62
               7
100
AcDbLine
 10
14.699996948242188
 20
-46.0
 30
0.0
 11
14.699996948242188
 21
-38.0
 31
0.0
  0
LINE
  5
61
100
AcDbEntity
  8
0
  6
CONTINUOUS
 62
               7
100
AcDbLine
 10
5.29998779296875
 20
-46.0
 30
0.0
 11
5.29998779296875
 21
-38.0
 31
0.0
  0
LINE
  5
62
100
AcDbEntity
  8
0
  6
CONTINUOUS
 62
               7
100
AcDbLine
 10
4.9999847412109375
 20
-6.0
 30
0.0
 11
14.999984741210938
 21
-6.0
 31
0.0
  0
LINE
  5
63
100
AcDbEntity
  8
0
  6
CONTINUOUS
 62
               7
100
AcDbLine
 10
4.9999847412109375
 20
-37.999992370605469
 30
0.0
 11
14.999984741210938
 21
-37.999992370605469
 31
0.0
  0
LINE
  5
64
100
AcDbEntity
  8
0
  6
CONTINUOUS
 62
               7
100
AcDbLine
 10
8.1999969482421875
 20
-37.799995422363281
 30
0.0
 11
14.599990844726563
 21
-37.799995422363281
 31
0.0
  0
LINE
  5
65
100
AcDbEntity
  8
0
  6
CONTINUOUS
 62
               7
100
AcDbLine
 10
5.399993896484375
 20
-6.1999969482421875
 30
0.0
 11
11.79998779296875
 21
-6.1999969482421875
 31
0.0
  0
LINE
  5
66
100
AcDbEntity
  8
0
  6
CONTINUOUS
 62
               7
100
AcDbLine
 10
12.199996948242188
 20
-9.20001220703125
 30
0.0
 11
12.199996948242188
 21
-6.600006103515625
 31
0.0
  0
LINE
  5
67
100
AcDbEntity
  8
0
  6
CONTINUOUS
 62
               7
100
AcDbLine
 10
7.8000030517578125
 20
-34.800003051757813
 30
0.0
 11
7.8000030517578125
 21
-37.400001525878906
 31
0.0
  0
LINE
  5
68
100
AcDbEntity
  8
0
  6
CONTINUOUS
 62
               7
100
AcDbLine
 10
6.1999969482421875
 20
-33.199996948242187
 30
0.0
 11
5.399993896484375
 21
-33.199996948242187
 31
0.0
  0
LINE
  5
69
100
AcDbEntity
  8
0
  6
CONTINUOUS
 62
               7
100
AcDbLine
 10
13.79998779296875
 20
-10.800003051757813
 30
0.0
 11
14.599990844726563
 21
-10.800003051757813
 31
0.0
  0
LINE
  5
6A
100
AcDbEntity
  8
0
  6
CONTINUOUS
 62
               7
100
AcDbLine
 10
13.54411182167587
 20
-35.544153458859
 30
0.0
 11
12.444490540293373
 21
-34.444531899403046
 31
0.0
  0
LINE
  5
6B
100
AcDbEntity
  8
0
  6
CONTINUOUS
 62
               7
100
AcDbLine
 10
7.54413680939183
 20
-9.544173904942113
 30
0.0
 11
6.4445101332132708
 21
-8.4445469506887321
 31
0.0
  0
LINE
  5
6C
100
AcDbEntity
  8
0
  6
CONTINUOUS
 62
               7
100
AcDbLine
 10
6.4445164880377206
 20
-9.5554700956440684
 30
0.0
 11
7.5441379548025225
 21
-8.455848721570419
 31
0.0
  0
LINE
  5
6D
100
AcDbEntity
  8
0
  6
CONTINUOUS
 62
               7
100
AcDbLine
 10
12.444512573742941
 20
-35.555489604776994
 30
0.0
 11
13.544134040507743
 21
-34.455868230703345
 31
0.0
  0
LINE
  5
6E
100
AcDbEntity
  8
0
  6
CONTINUOUS
 62
               7
100
AcDbLine
 10
4.9999847412109375
 20
-46.0
 30
0.0
 11
14.999984741210938
 21
-46.0
 31
0.0
  0
LINE
  5
6F
100
AcDbEntity
  8
0
  6
CONTINUOUS
 62
               7
100
AcDbLine
 10
4.9999847412109375
 20
-44.0
 30
0.0
 11
5.29998779296875
 21
-44.0
 31
0.0
  0
LINE
  5
70
100
AcDbEntity
  8
0
  6
CONTINUOUS
 62
               7
100
AcDbLine
 10
14.999984741210938
 20
-39.999992370605469
 30
0.0
 11
14.699981689453125
 21
-39.999992370605469
 31
0.0
  0
LINE
  5
71
100
AcDbEntity
  8
0
  6
CONTINUOUS
 62
               7
100
AcDbLine
 10
14.699981689453125
 20
-44.0
 30
0.0
 11
14.999984741210938
 21
-44.0
 31
0.0
  0
LINE
  5
72
100
AcDbEntity
  8
0
  6
CONTINUOUS
 62
               7
100
AcDbLine
 10
5.29998779296875
 20
-39.999992370605469
 30
0.0
 11
4.9999847412109375
 21
-39.999992370605469
 31
0.0
  0
LINE
  5
73
100
AcDbEntity
  8
0
  6
CONTINUOUS
 62
               7
100
AcDbLine
 10
5.399993896484375
 20
-53.0
 30
0.0
 11
14.599990844726563
 21
-53.0
 31
0.0
  0
LINE
  5
74
100
AcDbEntity
  8
0
  6
CONTINUOUS
 62
               7
100
AcDbLine
 10
5.598957884891206
 20
-35.401036285465125
 30
0.0
 11
6.8010373357446952
 21
-34.19895693593935
 31
0.0
  0
LINE
  5
75
100
AcDbEntity
  8
0
  6
CONTINUOUS
 62
               7
100
AcDbLine
 10
13.198943615141616
 20
-9.8010320872344892
 30
0.0
 11
14.401023065995105
 21
-8.5989527377087143
 31
0.0
  0
LINE
  5
76
100
AcDbEntity
  8
0
  6
CONTINUOUS
 62
               7
100
AcDbLine
 10
13.198952777865998
 20
-8.5989490456458952
 30
0.0
 11
14.401032228719487
 21
-9.8010283951716701
 31
0.0
  0
LINE
  5
77
100
AcDbEntity
  8
0
  6
CONTINUOUS
 62
               7
100
AcDbLine
 10
5.5989476263475808
 20
-34.198953884508228
 30
0.0
 11
6.8010270772010699
 21
-35.401033234034003
 31
0.0
  0
LINE
  5
78
100
AcDbEntity
  8
0
  6
CONTINUOUS
 62
               7
100
AcDbLine
 10
5.0
 20
-34.449984550476074
 30
0.0
 11
5.0
 21
13.0
 31
0.0
  0
LINE
  5
79
100
AcDbEntity
  8
0
  6
CONTINUOUS
 62
               7
100
AcDbLine
 10
15.0
 20
-8.8500213623046875
 30
0.0
 11
15.0
 21
13.0
 31
0.0
  0
LINE
  5
7A
100
AcDbEntity
  8
0
  6
CONTINUOUS
 62
               7
100
AcDbLine
 10
-3.0
 20
-46.999984741210937
 30
0.0
 11
-3.0
 21
3.0
 31
0.0
  0
LINE
  5
7B
100
AcDbEntity
  8
0
  6
CONTINUOUS
 62
               7
100
AcDbLine
 10
-3.0
 20
3.0
 30
0.0
 11
5.0
 21
3.0
 31
0.0
  0
LINE
  5
7C
100
AcDbEntity
  8
0
  6
CONTINUOUS
 62
               7
100
AcDbLine
 10
-3.0
 20
-46.999984741210937
 30
0.0
 11
5.0
 21
-46.999984741210937
 31
0.0
  0
LINE
  5
7D
100
AcDbEntity
  8
0
  6
CONTINUOUS
 62
               7
100
AcDbLine
 10
15.0
 20
-46.999984741210937
 30
0.0
 11
22.0
 21
-46.999984741210937
 31
0.0
  0
LINE
  5
7E
100
AcDbEntity
  8
0
  6
CONTINUOUS
 62
               7
100
AcDbLine
 10
15.0
 20
3.0
 30
0.0
 11
22.0
 21
3.0
 31
0.0
  0
LINE
  5
80
100
AcDbEntity
  8
0
  6
CENTER
 62
               2
100
AcDbLine
 10
0.0
 20
-46.599990844726563
 30
0.0
 11
0.0
 21
-41.399993896484375
 31
0.0
  0
LINE
  5
81
100
AcDbEntity
  8
0
  6
CENTER
 62
               2
100
AcDbLine
 10
-2.5999908447265625
 20
-43.999994277954102
 30
0.0
 11
2.600006103515625
 21
-43.999994277954102
 31
0.0
  0
LINE
  5
82
100
AcDbEntity
  8
0
  6
CENTER
 62
               2
100
AcDbLine
 10
-2.5999908447265625
 20
0.0
 30
0.0
 11
2.600006103515625
 21
0.0
 31
0.0
  0
LINE
  5
83
100
AcDbEntity
  8
0
  6
CENTER
 62
               2
100
AcDbLine
 10
0.0
 20
-2.600006103515625
 30
0.0
 11
0.0
 21
2.600006103515625
 31
0.0
  0
CIRCLE
  5
84
100
AcDbEntity
  8
0
  6
CONTINUOUS
 62
               7
100
AcDbCircle
 10
10.0
 20
9.6999969482421875
 30
0.0
 40
2.0
  0
CIRCLE
  5
85
100
AcDbEntity
  8
0
  6
CONTINUOUS
 62
               7
100
AcDbCircle
 10
10.0
 20
9.6999969482421875
 30
0.0
 40
1.9499998092651367
  0
ARC
  5
86
100
AcDbEntity
  8
0
  6
CONTINUOUS
 62
               4
100
AcDbCircle
 10
14.449996948242188
 20
45.5
 30
0.0
 40
0.5
100
AcDbArc
 50
359.99995901886416
 51
89.999982013910454
  0
ARC
  5
87
100
AcDbEntity
  8
0
  6
CONTINUOUS
 62
               4
100
AcDbCircle
 10
5.54998779296875
 20
45.500015258789063
 30
0.0
 40
0.5
100
AcDbArc
 50
89.999982013910454
 51
179.99996402782091
  0
ARC
  5
88
100
AcDbEntity
  8
0
  6
CONTINUOUS
 62
               7
100
AcDbCircle
 10
14.599990844726563
 20
-52.599990844726563
 30
0.0
 40
0.4000000357627869
100
AcDbArc
 50
270.00001798608872
 51
0.00001366037834
  0
ARC
  5
89
100
AcDbEntity
  8
0
  6
CONTINUOUS
 62
               7
100
AcDbCircle
 10
5.399993896484375
 20
-52.599990844726563
 30
0.0
 40
0.4000000357627869
100
AcDbArc
 50
179.99996402782091
 51
269.99994604173139
  0
ARC
  5
8A
100
AcDbEntity
  8
0
  6
CONTINUOUS
 62
               7
100
AcDbCircle
 10
14.599990844726563
 20
-5.600006103515625
 30
0.0
 40
0.4000000357627869
100
AcDbArc
 50
270.00001798608872
 51
0.0
  0
ARC
  5
8B
100
AcDbEntity
  8
0
  6
CONTINUOUS
 62
               7
100
AcDbCircle
 10
5.399993896484375
 20
-5.600006103515625
 30
0.0
 40
0.4000000357627869
100
AcDbArc
 50
179.99996402782091
 51
270.00000068324471
  0
ARC
  5
8C
100
AcDbEntity
  8
0
  6
CONTINUOUS
 62
               7
100
AcDbCircle
 10
5.399993896484375
 20
-32.799995422363281
 30
0.0
 40
0.4000000357627869
100
AcDbArc
 50
179.99996402782091
 51
270.00000068324471
  0
ARC
  5
8D
100
AcDbEntity
  8
0
  6
CONTINUOUS
 62
               7
100
AcDbCircle
 10
5.399993896484375
 20
-6.600006103515625
 30
0.0
 40
0.4000000357627869
100
AcDbArc
 50
89.999982013910454
 51
179.99996402782091
  0
ARC
  5
8E
100
AcDbEntity
  8
0
  6
CONTINUOUS
 62
               7
100
AcDbCircle
 10
11.79998779296875
 20
-6.600006103515625
 30
0.0
 40
0.4000000357627869
100
AcDbArc
 50
0.0
 51
89.999982013910454
  0
ARC
  5
8F
100
AcDbEntity
  8
0
  6
CONTINUOUS
 62
               7
100
AcDbCircle
 10
14.599990844726563
 20
-11.20001220703125
 30
0.0
 40
0.4000000357627869
100
AcDbArc
 50
0.0
 51
89.999982013910454
  0
ARC
  5
90
100
AcDbEntity
  8
0
  6
CONTINUOUS
 62
               7
100
AcDbCircle
 10
14.599990844726563
 20
-37.400001525878906
 30
0.0
 40
0.4000000357627869
100
AcDbArc
 50
270.00001798608872
 51
0.0
  0
ARC
  5
91
100
AcDbEntity
  8
0
  6
CONTINUOUS
 62
               7
100
AcDbCircle
 10
8.1999969482421875
 20
-37.400001525878906
 30
0.0
 40
0.4000000357627869
100
AcDbArc
 50
179.99996402782091
 51
270.00000068324471
  0
ARC
  5
92
100
AcDbEntity
  8
0
  6
CONTINUOUS
 62
               7
100
AcDbCircle
 10
13.79998779296875
 20
-9.20001220703125
 30
0.0
 40
1.5999994277954102
100
AcDbArc
 50
179.99996402782091
 51
270.00000068324471
  0
ARC
  5
93
100
AcDbEntity
  8
0
  6
CONTINUOUS
 62
               7
100
AcDbCircle
 10
6.1999969482421875
 20
-34.799995422363281
 30
0.0
 40
1.5999994277954102
100
AcDbArc
 50
0.0
 51
89.999982013910454
  0
CIRCLE
  5
94
100
AcDbEntity
  8
0
  6
CONTINUOUS
 62
               7
100
AcDbCircle
 10
12.999984741210938
 20
-35.0
 30
0.0
 40
1.3999996185302734
  0
CIRCLE
  5
95
100
AcDbEntity
  8
0
  6
CONTINUOUS
 62
               7
100
AcDbCircle
 10
7.0
 20
-9.0
 30
0.0
 40
1.3999996185302734
  0
CIRCLE
  5
96
100
AcDbEntity
  8
0
  6
CONTINUOUS
 62
               7
100
AcDbCircle
 10
12.999984741210938
 20
-35.0
 30
0.0
 40
1.25
  0
CIRCLE
  5
97
100
AcDbEntity
  8
0
  6
CONTINUOUS
 62
               7
100
AcDbCircle
 10
7.0
 20
-9.0
 30
0.0
 40
1.25
  0
CIRCLE
  5
98
100
AcDbEntity
  8
0
  6
CONTINUOUS
 62
               7
100
AcDbCircle
 10
13.79998779296875
 20
-9.1999969482421875
 30
0.0
 40
1.25
  0
CIRCLE
  5
99
100
AcDbEntity
  8
0
  6
CONTINUOUS
 62
               7
100
AcDbCircle
 10
6.1999969482421875
 20
-34.799995422363281
 30
0.0
 40
1.25
  0
CIRCLE
  5
9A
100
AcDbEntity
  8
0
  6
CONTINUOUS
 62
               7
100
AcDbCircle
 10
0.0
 20
0.0
 30
0.0
 40
1.5999994277954102
  0
CIRCLE
  5
9B
100
AcDbEntity
  8
0
  6
CONTINUOUS
 62
               7
100
AcDbCircle
 10
0.0
 20
-43.999994277954102
 30
0.0
 40
1.5999994277954102
  0
LINE
  5
9C
100
AcDbEntity
  8
0
  6
CONTINUOUS
 62
               7
100
AcDbLine
 10
22.0
 20
-46.999984741210937
 30
0.0
 11
22.0
 21
3.0
 31
0.0
  0
LINE
  5
9D
100
AcDbEntity
  8
0
  6
CONTINUOUS
 62
             200
100
AcDbLine
 10
5.9999976686376613
 20
59.410568138552662
 30
0.0
 11
10.277709428390239
 21
60.556777559638419
 31
0.0
  0
LINE
  5
9E
100
AcDbEntity
  8
0
  6
CONTINUOUS
 62
             200
100
AcDbLine
 10
5.9999929754558252
 20
60.445843048049028
 30
0.0
 11
10.26564653809163
 21
61.588821484928076
 31
0.0
  0
LINE
  5
9F
100
AcDbEntity
  8
0
  6
CONTINUOUS
 62
               4
100
AcDbLine
 10
15.0
 20
13.0
 30
0.0
 11
15.0
 21
37.0
 31
0.0
  0
LINE
  5
A0
100
AcDbEntity
  8
0
  6
CONTINUOUS
 62
               4
100
AcDbLine
 10
5.0
 20
13.0
 30
0.0
 11
5.0
 21
37.000015258789063
 31
0.0
  0
ENDBLK
  5
A1
100
AcDbEntity
  8
0
100
AcDbBlockEnd
  0
BLOCK
  5
A2
100
AcDbEntity
  8
0
100
AcDbBlockBegin
  2
F10T-2
 70
               0
 10
0.0
 20
0.0
 30
0.0
  3
F10T-2
  1

  0
LINE
  5
A3
100
AcDbEntity
  8
0
  6
CONTINUOUS
 62
               7
100
AcDbLine
 10
1.0
 20
18.499999999999979
 30
0.0
 11
11.0
 21
18.499999999999979
 31
0.0
  0
LINE
  5
A4
100
AcDbEntity
  8
0
  6
CONTINUOUS
 62
               2
100
AcDbLine
 10
6.0
 20
-39.450632365235002
 30
0.0
 11
6.0
 21
75.755081176757784
 31
0.0
  0
LINE
  5
A5
100
AcDbEntity
  8
0
  6
CONTINUOUS
 62
               7
100
AcDbLine
 10
1.0
 20
-29.000000000000021
 30
0.0
 11
11.0
 21
-29.000000000000021
 31
0.0
  0
LINE
  5
A6
100
AcDbEntity
  8
0
  6
CONTINUOUS
 62
               7
100
AcDbLine
 10
1.399993896484375
 20
-36.000000000000021
 30
0.0
 11
10.599990844726563
 21
-36.000000000000021
 31
0.0
  0
LINE
  5
A7
100
AcDbEntity
  8
0
  6
CONTINUOUS
 62
               7
100
AcDbLine
 10
3.5500030517578125
 20
-35.500000000000021
 30
0.0
 11
2.0500030517578125
 21
-35.500000000000021
 31
0.0
  0
LINE
  5
A8
100
AcDbEntity
  8
0
  6
CONTINUOUS
 62
               2
100
AcDbLine
 10
-0.5
 20
-4.9999923706054901
 30
0.0
 11
12.5
 21
-4.9999923706054901
 31
0.0
  0
LINE
  5
A9
100
AcDbEntity
  8
0
  6
CONTINUOUS
 62
               2
100
AcDbLine
 10
0.899993896484375
 20
-14.99999237060549
 30
0.0
 11
7.899993896484375
 21
-14.99999237060549
 31
0.0
  0
LINE
  5
AA
100
AcDbEntity
  8
0
  6
CONTINUOUS
 62
               2
100
AcDbLine
 10
4.399993896484375
 20
-11.49999237060549
 30
0.0
 11
4.399993896484375
 21
-18.49999237060549
 31
0.0
  0
LINE
  5
AB
100
AcDbEntity
  8
0
  6
CONTINUOUS
 62
               2
100
AcDbLine
 10
7.600006103515625
 20
8.4999999999999787
 30
0.0
 11
7.600006103515625
 21
1.5000076293945099
 31
0.0
  0
LINE
  5
AC
100
AcDbEntity
  8
0
  6
CONTINUOUS
 62
               2
100
AcDbLine
 10
4.100006103515625
 20
4.9999999999999787
 30
0.0
 11
11.100006103515625
 21
4.9999999999999787
 31
0.0
  0
LINE
  5
AD
100
AcDbEntity
  8
0
  6
CONTINUOUS
 62
               7
100
AcDbLine
 10
1.0
 20
20.499999999999979
 30
0.0
 11
11.0
 21
20.499999999999979
 31
0.0
  0
LINE
  5
AE
100
AcDbEntity
  8
0
  6
CONTINUOUS
 62
               4
100
AcDbLine
 10
1.0000152587890625
 20
54.000015258789041
 30
0.0
 11
11.000015258789063
 21
54.000015258789041
 31
0.0
  0
LINE
  5
AF
100
AcDbEntity
  8
0
  6
CONTINUOUS
 62
               7
100
AcDbLine
 10
1.0
 20
29.999999999999979
 30
0.0
 11
11.0
 21
29.999999999999979
 31
0.0
  0
LINE
  5
B0
100
AcDbEntity
  8
0
  6
CONTINUOUS
 62
               4
100
AcDbLine
 10
1.0500030517578125
 20
54.000015258789041
 30
0.0
 11
1.0500030517578125
 21
73.999999999999972
 31
0.0
  0
LINE
  5
B1
100
AcDbEntity
  8
0
  6
CONTINUOUS
 62
               4
100
AcDbLine
 10
10.949996948242188
 20
54.000015258789041
 30
0.0
 11
10.949996948242188
 21
73.999999999999972
 31
0.0
  0
LINE
  5
B2
100
AcDbEntity
  8
0
  6
CONTINUOUS
 62
               4
100
AcDbLine
 10
7.2849884033203125
 20
73.999999999999972
 30
0.0
 11
7.2849884033203125
 21
77.826675415039034
 31
0.0
  0
LINE
  5
B3
100
AcDbEntity
  8
0
  6
CONTINUOUS
 62
               4
100
AcDbLine
 10
8.7150115966796875
 20
73.999999999999972
 30
0.0
 11
8.7150115966796875
 21
78.209854125976534
 31
0.0
  0
LINE
  5
B4
100
AcDbEntity
  8
0
  6
CONTINUOUS
 62
               4
100
AcDbLine
 10
7.5999908447265625
 20
81.999999999999972
 30
0.0
 11
7.5999908447265625
 21
86.999999999999972
 31
0.0
  0
LINE
  5
B5
100
AcDbEntity
  8
0
  6
CONTINUOUS
 62
               4
100
AcDbLine
 10
8.4000091552734375
 20
81.999999999999972
 30
0.0
 11
8.4000091552734375
 21
86.999999999999972
 31
0.0
  0
LINE
  5
B6
100
AcDbEntity
  8
0
  6
CONTINUOUS
 62
               4
100
AcDbLine
 10
7.5999908447265625
 20
86.999999999999972
 30
0.0
 11
8.399993896484375
 21
86.999999999999972
 31
0.0
  0
LINE
  5
B7
100
AcDbEntity
  8
0
  6
CONTINUOUS
 62
               4
100
AcDbLine
 10
7.2849884033203125
 20
81.999999999999972
 30
0.0
 11
8.714996337890625
 21
81.999999999999972
 31
0.0
  0
LINE
  5
B8
100
AcDbEntity
  8
0
  6
CONTINUOUS
 62
               4
100
AcDbLine
 10
7.2849884033203125
 20
78.861953735351534
 30
0.0
 11
7.2849884033203125
 21
81.999999999999972
 31
0.0
  0
LINE
  5
B9
100
AcDbEntity
  8
0
  6
CONTINUOUS
 62
               4
100
AcDbLine
 10
8.7150115966796875
 20
79.245117187499972
 30
0.0
 11
8.7150115966796875
 21
81.999999999999972
 31
0.0
  0
LINE
  5
BA
100
AcDbEntity
  8
0
  6
CONTINUOUS
 62
               4
100
AcDbLine
 10
1.0500030517578125
 20
73.999999999999972
 30
0.0
 11
10.949996948242188
 21
73.999999999999972
 31
0.0
  0
LINE
  5
BB
100
AcDbEntity
  8
0
  6
CONTINUOUS
 62
               7
100
AcDbLine
 10
11.0
 20
-35.599990844726584
 30
0.0
 11
11.0
 21
-21.49999237060549
 31
0.0
  0
LINE
  5
BC
100
AcDbEntity
  8
0
  6
CONTINUOUS
 62
               7
100
AcDbLine
 10
1.0
 20
-35.599990844726584
 30
0.0
 11
1.0
 21
-21.49999237060549
 31
0.0
  0
LINE
  5
BD
100
AcDbEntity
  8
0
  6
CONTINUOUS
 62
               4
100
AcDbLine
 10
5.4000091552734375
 20
64.499999999999972
 30
0.0
 11
6.600006103515625
 21
64.499999999999972
 31
0.0
  0
LINE
  5
BE
100
AcDbEntity
  8
0
  6
CONTINUOUS
 62
               4
100
AcDbLine
 10
6.600006103515625
 20
67.499999999999972
 30
0.0
 11
6.600006103515625
 21
64.499999999999972
 31
0.0
  0
LINE
  5
BF
100
AcDbEntity
  8
0
  6
CONTINUOUS
 62
               4
100
AcDbLine
 10
5.4000091552734375
 20
67.499999999999972
 30
0.0
 11
5.4000091552734375
 21
64.499999999999972
 31
0.0
  0
LINE
  5
C0
100
AcDbEntity
  8
0
  6
CONTINUOUS
 62
               4
100
AcDbLine
 10
7.1000268250584213
 20
67.500007414502051
 30
0.0
 11
6.6000246083879119
 21
67.000008569583059
 31
0.0
  0
LINE
  5
C1
100
AcDbEntity
  8
0
  6
CONTINUOUS
 62
               4
100
AcDbLine
 10
4.9000124530953144
 20
67.499989079882624
 30
0.0
 11
5.4000131946245347
 21
66.999988759822344
 31
0.0
  0
LINE
  5
C2
100
AcDbEntity
  8
0
  6
CONTINUOUS
 62
               4
100
AcDbLine
 10
1.0500030517578125
 20
72.999999999999972
 30
0.0
 11
10.949996948242188
 21
72.999999999999972
 31
0.0
  0
LINE
  5
C3
100
AcDbEntity
  8
0
  6
CONTINUOUS
 62
               4
100
AcDbLine
 10
1.0500030517578125
 20
67.499999999999972
 30
0.0
 11
5.4000091552734375
 21
67.499999999999972
 31
0.0
  0
LINE
  5
C4
100
AcDbEntity
  8
0
  6
CONTINUOUS
 62
               4
100
AcDbLine
 10
6.600006103515625
 20
67.499999999999972
 30
0.0
 11
10.949996948242188
 21
67.499999999999972
 31
0.0
  0
LINE
  5
C5
100
AcDbEntity
  8
0
  6
CONTINUOUS
 62
               7
100
AcDbLine
 10
1.0
 20
11.499999999999979
 30
0.0
 11
1.0
 21
29.999999999999979
 31
0.0
  0
LINE
  5
C6
100
AcDbEntity
  8
0
  6
CONTINUOUS
 62
               7
100
AcDbLine
 10
11.0
 20
11.499999999999979
 30
0.0
 11
11.0
 21
29.999999999999979
 31
0.0
  0
LINE
  5
C7
100
AcDbEntity
  8
0
  6
CONTINUOUS
 62
               7
100
AcDbLine
 10
0.0
 20
11.499999999999979
 30
0.0
 11
0.0
 21
-21.49999237060549
 31
0.0
  0
LINE
  5
C8
100
AcDbEntity
  8
0
  6
CONTINUOUS
 62
               7
100
AcDbLine
 10
0.0
 20
11.499999999999979
 30
0.0
 11
12.0
 21
11.499999999999979
 31
0.0
  0
LINE
  5
C9
100
AcDbEntity
  8
0
  6
CONTINUOUS
 62
               7
100
AcDbLine
 10
12.0
 20
11.499999999999979
 30
0.0
 11
12.0
 21
-21.49999237060549
 31
0.0
  0
LINE
  5
CA
100
AcDbEntity
  8
0
  6
CONTINUOUS
 62
               7
100
AcDbLine
 10
0.0
 20
-21.49999237060549
 30
0.0
 11
12.0
 21
-21.49999237060549
 31
0.0
  0
LINE
  5
CC
100
AcDbEntity
  8
0
  6
DASHED
 62
               4
100
AcDbLine
 10
13.199996948242188
 20
9.4999999999999787
 30
0.0
 11
13.199996948242188
 21
-37.000000000000021
 31
0.0
  0
LINE
  5
CD
100
AcDbEntity
  8
0
  6
DASHED
 62
               4
100
AcDbLine
 10
12.0
 20
9.4999999999999787
 30
0.0
 11
13.199996948242188
 21
9.4999999999999787
 31
0.0
  0
LINE
  5
CE
100
AcDbEntity
  8
0
  6
DASHED
 62
               4
100
AcDbLine
 10
0.0
 20
-36.799987792968771
 30
0.0
 11
12.0
 21
-36.799987792968771
 31
0.0
  0
LINE
  5
CF
100
AcDbEntity
  8
0
  6
DASHED
 62
               4
100
AcDbLine
 10
0.0
 20
-38.000000000000021
 30
0.0
 11
12.199996948242188
 21
-38.000000000000021
 31
0.0
  0
LINE
  5
D0
100
AcDbEntity
  8
0
  6
DASHED
 62
               4
100
AcDbLine
 10
12.0
 20
-21.49999237060549
 30
0.0
 11
12.0
 21
-36.799987792968771
 31
0.0
  0
LINE
  5
D1
100
AcDbEntity
  8
0
  6
DASHED
 62
               4
100
AcDbLine
 10
0.0
 20
-36.799987792968771
 30
0.0
 11
0.0
 21
-38.000000000000021
 31
0.0
  0
LINE
  5
D2
100
AcDbEntity
  8
0
  6
DASHED
 62
               4
100
AcDbLine
 10
-1.871826171875
 20
-7.199999809265158
 30
0.0
 11
-0.6999969482421875
 21
-7.199999809265158
 31
0.0
  0
LINE
  5
D3
100
AcDbEntity
  8
0
  6
DASHED
 62
               4
100
AcDbLine
 10
-1.871826171875
 20
-12.800000190734885
 30
0.0
 11
-0.6999969482421875
 21
-12.800000190734885
 31
0.0
  0
LINE
  5
D4
100
AcDbEntity
  8
0
  6
DASHED
 62
               4
100
AcDbLine
 10
-1.871826171875
 20
2.7999992370605256
 30
0.0
 11
-0.6999969482421875
 21
2.7999992370605256
 31
0.0
  0
LINE
  5
D5
100
AcDbEntity
  8
0
  6
DASHED
 62
               4
100
AcDbLine
 10
-1.871826171875
 20
-2.7999992370605682
 30
0.0
 11
-0.6999969482421875
 21
-2.7999992370605682
 31
0.0
  0
LINE
  5
D6
100
AcDbEntity
  8
0
  6
CENTER
 62
               2
100
AcDbLine
 10
5.0
 20
14.499999999999979
 30
0.0
 11
7.0
 21
14.499999999999979
 31
0.0
  0
LINE
  5
D7
100
AcDbEntity
  8
0
  6
CONTINUOUS
 62
               7
100
AcDbLine
 10
1.0
 20
-35.000000000000021
 30
0.0
 11
4.4000091552734375
 21
-35.000000000000021
 31
0.0
  0
LINE
  5
D8
100
AcDbEntity
  8
0
  6
CONTINUOUS
 62
               7
100
AcDbLine
 10
4.4000091552734375
 20
-36.000000000000021
 30
0.0
 11
4.4000091552734375
 21
-35.000000000000021
 31
0.0
  0
ARC
  5
D9
100
AcDbEntity
  8
0
  6
CONTINUOUS
 62
               7
100
AcDbCircle
 10
10.599990844726563
 20
-35.599990844726584
 30
0.0
 40
0.4000000357627869
100
AcDbArc
 50
270.00001798608872
 51
0.00001366037834
  0
ARC
  5
DA
100
AcDbEntity
  8
0
  6
CONTINUOUS
 62
               7
100
AcDbCircle
 10
1.399993896484375
 20
-35.599990844726584
 30
0.0
 40
0.4000000357627869
100
AcDbArc
 50
179.99996402782091
 51
269.99994604173139
  0
ARC
  5
DB
100
AcDbEntity
  8
0
  6
CONTINUOUS
 62
               7
100
AcDbCircle
 10
2.0500030517578125
 20
-35.000000000000021
 30
0.0
 40
0.5
100
AcDbArc
 50
180.0000359721783
 51
270.00001798608872
  0
ARC
  5
DC
100
AcDbEntity
  8
0
  6
CONTINUOUS
 62
               7
100
AcDbCircle
 10
3.5500030517578125
 20
-35.000000000000021
 30
0.0
 40
0.5
100
AcDbArc
 50
270.00001798608872
 51
0.0000546415133601
  0
CIRCLE
  5
DD
100
AcDbEntity
  8
0
  6
CONTINUOUS
 62
               2
100
AcDbCircle
 10
7.600006103515625
 20
4.9999999999999787
 30
0.0
 40
2.5
  0
CIRCLE
  5
DE
100
AcDbEntity
  8
0
  6
CONTINUOUS
 62
               2
100
AcDbCircle
 10
4.399993896484375
 20
-14.99999237060549
 30
0.0
 40
2.5
  0
CIRCLE
  5
DF
100
AcDbEntity
  8
0
  6
CONTINUOUS
 62
               2
100
AcDbCircle
 10
6.0
 20
-4.9999923706054901
 30
0.0
 40
2.5
  0
CIRCLE
  5
E0
100
AcDbEntity
  8
0
  6
CONTINUOUS
 62
               7
100
AcDbCircle
 10
4.399993896484375
 20
-14.99999237060549
 30
0.0
 40
2.0999994277954102
  0
CIRCLE
  5
E1
100
AcDbEntity
  8
0
  6
CONTINUOUS
 62
               7
100
AcDbCircle
 10
7.600006103515625
 20
4.9999999999999787
 30
0.0
 40
2.0999994277954102
  0
CIRCLE
  5
E2
100
AcDbEntity
  8
0
  6
CONTINUOUS
 62
               7
100
AcDbCircle
 10
6.0
 20
-4.9999923706054901
 30
0.0
 40
2.0999994277954102
  0
ARC
  5
E3
100
AcDbEntity
  8
0
  6
DASHED
 62
               4
100
AcDbCircle
 10
12.199996948242188
 20
-37.000000000000021
 30
0.0
 40
1.0
100
AcDbArc
 50
270.00001798608872
 51
0.0
  0
ARC
  5
E4
100
AcDbEntity
  8
0
  6
DASHED
 62
               4
100
AcDbCircle
 10
1.9000091552734375
 20
-10.000000000000021
 30
0.0
 40
5.0
100
AcDbArc
 50
150.5076443238128
 51
209.49233837334239
  0
ARC
  5
E5
100
AcDbEntity
  8
0
  6
DASHED
 62
               4
100
AcDbCircle
 10
-1.871826171875
 20
-7.8666667938232635
 30
0.0
 40
0.6666666865348816
100
AcDbArc
 50
89.999982013910454
 51
150.5076443238128
  0
ARC
  5
E6
100
AcDbEntity
  8
0
  6
DASHED
 62
               4
100
AcDbCircle
 10
-1.871826171875
 20
-12.133333206176779
 30
0.0
 40
0.6666666865348816
100
AcDbArc
 50
209.49235567618641
 51
270.00001798608872
  0
ARC
  5
E7
100
AcDbEntity
  8
0
  6
DASHED
 62
               4
100
AcDbCircle
 10
1.9000091552734375
 20
-0.0000000000000213
 30
0.0
 40
5.0
100
AcDbArc
 50
150.5076443238128
 51
209.49233837334239
  0
ARC
  5
E8
100
AcDbEntity
  8
0
  6
DASHED
 62
               4
100
AcDbCircle
 10
-1.871826171875
 20
2.1333332061767365
 30
0.0
 40
0.6666666865348816
100
AcDbArc
 50
89.999982013910454
 51
150.5076443238128
  0
ARC
  5
E9
100
AcDbEntity
  8
0
  6
DASHED
 62
               4
100
AcDbCircle
 10
-1.871826171875
 20
-2.1333332061767791
 30
0.0
 40
0.6666666865348816
100
AcDbArc
 50
209.49235567618641
 51
270.00001798608872
  0
CIRCLE
  5
EA
100
AcDbEntity
  8
0
  6
CONTINUOUS
 62
               7
100
AcDbCircle
 10
6.0
 20
14.499999999999979
 30
0.0
 40
0.6000000238418579
  0
LINE
  5
EB
100
AcDbEntity
  8
0
  6
DASHED
 62
               4
100
AcDbLine
 10
-0.6999969482421875
 20
2.9499998092651296
 30
0.0
 11
-0.6999969482421875
 21
-2.9499998092651296
 31
0.0
  0
LINE
  5
EC
100
AcDbEntity
  8
0
  6
DASHED
 62
               4
100
AcDbLine
 10
0.0000031353347367
 20
-0.3500004539528376
 30
0.0
 11
-0.7000041972669351
 21
-0.5375668549914039
 31
0.0
  0
LINE
  5
ED
100
AcDbEntity
  8
0
  6
DASHED
 62
               4
100
AcDbLine
 10
-0.7000022662205083
 20
0.3499977424980685
 30
0.0
 11
-0.000009629282431
 21
0.5375601510768107
 31
0.0
  0
LINE
  5
EE
100
AcDbEntity
  8
0
  6
DASHED
 62
               4
100
AcDbLine
 10
-0.6999969482421875
 20
2.9499998092651296
 30
0.0
 11
0.0
 21
2.9499998092651296
 31
0.0
  0
LINE
  5
EF
100
AcDbEntity
  8
0
  6
DASHED
 62
               4
100
AcDbLine
 10
-0.6999969482421875
 20
-2.9499998092651296
 30
0.0
 11
0.0
 21
-2.9499998092651296
 31
0.0
  0
LINE
  5
F0
100
AcDbEntity
  8
0
  6
DASHED
 62
               4
100
AcDbLine
 10
-0.6999969482421875
 20
-7.0500001907348562
 30
0.0
 11
-0.6999969482421875
 21
-12.94999980926513
 31
0.0
  0
LINE
  5
F1
100
AcDbEntity
  8
0
  6
DASHED
 62
               4
100
AcDbLine
 10
-0.0000026016605261
 20
-10.349999500014768
 30
0.0
 11
-0.7000099342621979
 21
-10.537565901053334
 31
0.0
  0
LINE
  5
F2
100
AcDbEntity
  8
0
  6
DASHED
 62
               4
100
AcDbLine
 10
-0.7000087332207841
 20
-9.6500017250318919
 30
0.0
 11
-0.0000013574235709
 21
-9.462435367188867
 31
0.0
  0
LINE
  5
F3
100
AcDbEntity
  8
0
  6
DASHED
 62
               4
100
AcDbLine
 10
-0.6999969482421875
 20
-7.0500001907348562
 30
0.0
 11
0.0
 21
-7.0500001907348562
 31
0.0
  0
LINE
  5
F4
100
AcDbEntity
  8
0
  6
DASHED
 62
               4
100
AcDbLine
 10
-0.6999969482421875
 20
-12.94999980926513
 30
0.0
 11
0.0
 21
-12.94999980926513
 31
0.0
  0
LINE
  5
F5
100
AcDbEntity
  8
0
  6
DASHED
 62
               4
100
AcDbLine
 10
14.399993896484375
 20
-2.0000000000000213
 30
0.0
 11
14.399993896484375
 21
1.9999999999999787
 31
0.0
  0
LINE
  5
F6
100
AcDbEntity
  8
0
  6
DASHED
 62
               4
100
AcDbLine
 10
13.699996948242188
 20
1.9999999999999787
 30
0.0
 11
14.399993896484375
 21
1.9999999999999787
 31
0.0
  0
LINE
  5
F7
100
AcDbEntity
  8
0
  6
DASHED
 62
               4
100
AcDbLine
 10
13.699996948242188
 20
-2.0000000000000213
 30
0.0
 11
14.399993896484375
 21
-2.0000000000000213
 31
0.0
  0
ARC
  5
F8
100
AcDbEntity
  8
0
  6
DASHED
 62
               4
100
AcDbCircle
 10
13.699996948242188
 20
2.4999999999999787
 30
0.0
 40
0.5
100
AcDbArc
 50
179.99996402782091
 51
270.00000068324471
  0
ARC
  5
F9
100
AcDbEntity
  8
0
  6
DASHED
 62
               4
100
AcDbCircle
 10
13.699996948242188
 20
-2.5000000000000213
 30
0.0
 40
0.5
100
AcDbArc
 50
89.999982013910454
 51
179.99996402782091
  0
LINE
  5
FA
100
AcDbEntity
  8
0
  6
DASHED
 62
               4
100
AcDbLine
 10
14.399993896484375
 20
-12.000000000000021
 30
0.0
 11
14.399993896484375
 21
-8.0000000000000213
 31
0.0
  0
LINE
  5
FB
100
AcDbEntity
  8
0
  6
DASHED
 62
               4
100
AcDbLine
 10
13.699996948242188
 20
-8.0000000000000213
 30
0.0
 11
14.399993896484375
 21
-8.0000000000000213
 31
0.0
  0
LINE
  5
FC
100
AcDbEntity
  8
0
  6
DASHED
 62
               4
100
AcDbLine
 10
13.699996948242188
 20
-12.000000000000021
 30
0.0
 11
14.399993896484375
 21
-12.000000000000021
 31
0.0
  0
ARC
  5
FD
100
AcDbEntity
  8
0
  6
DASHED
 62
               4
100
AcDbCircle
 10
13.699996948242188
 20
-7.5000000000000213
 30
0.0
 40
0.5
100
AcDbArc
 50
179.99996402782091
 51
270.00000068324471
  0
ARC
  5
FE
100
AcDbEntity
  8
0
  6
DASHED
 62
               4
100
AcDbCircle
 10
13.699996948242188
 20
-12.500000000000021
 30
0.0
 40
0.5
100
AcDbArc
 50
89.999982013910454
 51
179.99996402782091
  0
LINE
  5
FF
100
AcDbEntity
  8
0
  6
CONTINUOUS
 62
             200
100
AcDbLine
 10
5.8601075895056738
 20
77.444875301409638
 30
0.0
 11
10.049969166306255
 21
78.567545336721167
 31
0.0
  0
LINE
  5
100
100
AcDbEntity
  8
0
  6
CONTINUOUS
 62
             200
100
AcDbLine
 10
5.8840587161909355
 20
78.486569153547208
 30
0.0
 11
10.049979211982645
 21
79.602824195482725
 31
0.0
  0
LINE
  5
101
100
AcDbEntity
  8
0
  6
CONTINUOUS
 62
               4
100
AcDbLine
 10
10.949996948242188
 20
62.999984741210916
 30
0.0
 11
1.0500030517578125
 21
62.999984741210916
 31
0.0
  0
LINE
  5
102
100
AcDbEntity
  8
0
  6
CONTINUOUS
 62
               4
100
AcDbLine
 10
7.1700000000000017
 20
48.700015258789058
 30
0.0
 11
8.8299999999999983
 21
48.700015258789058
 31
0.0
  0
LINE
  5
103
100
AcDbEntity
  8
0
  6
CONTINUOUS
 62
               4
100
AcDbLine
 10
3.1700000000000017
 20
48.700015258789058
 30
0.0
 11
4.8299999999999983
 21
48.700015258789058
 31
0.0
  0
LINE
  5
104
100
AcDbEntity
  8
0
  6
CONTINUOUS
 62
               4
100
AcDbLine
 10
8.8299999999999983
 20
48.700015258789058
 30
0.0
 11
8.8299999999999983
 21
54.000015258789041
 31
0.0
  0
LINE
  5
105
100
AcDbEntity
  8
0
  6
CONTINUOUS
 62
               4
100
AcDbLine
 10
7.1700000000000017
 20
48.700015258789058
 30
0.0
 11
7.1700000000000017
 21
54.000015258789041
 31
0.0
  0
LINE
  5
106
100
AcDbEntity
  8
0
  6
CONTINUOUS
 62
               4
100
AcDbLine
 10
4.8299999999999983
 20
48.700015258789058
 30
0.0
 11
4.8299999999999983
 21
54.000015258789041
 31
0.0
  0
LINE
  5
107
100
AcDbEntity
  8
0
  6
CONTINUOUS
 62
               4
100
AcDbLine
 10
3.1700000000000017
 20
48.700015258789058
 30
0.0
 11
3.1700000000000017
 21
54.000015258789041
 31
0.0
  0
LINE
  5
108
100
AcDbEntity
  8
0
  6
CONTINUOUS
 62
               4
100
AcDbLine
 10
8.6000000000000085
 20
48.700015258789058
 30
0.0
 11
8.6000000000000085
 21
54.000015258789041
 31
0.0
  0
LINE
  5
109
100
AcDbEntity
  8
0
  6
CONTINUOUS
 62
               4
100
AcDbLine
 10
7.3999999999999915
 20
48.700015258789058
 30
0.0
 11
7.3999999999999915
 21
54.000015258789041
 31
0.0
  0
LINE
  5
10A
100
AcDbEntity
  8
0
  6
CONTINUOUS
 62
               4
100
AcDbLine
 10
4.5999999999999943
 20
48.700015258789058
 30
0.0
 11
4.5999999999999943
 21
54.000015258789041
 31
0.0
  0
LINE
  5
10B
100
AcDbEntity
  8
0
  6
CONTINUOUS
 62
               4
100
AcDbLine
 10
3.4000000000000057
 20
48.700015258789058
 30
0.0
 11
3.4000000000000057
 21
54.000015258789041
 31
0.0
  0
LINE
  5
10C
100
AcDbEntity
  8
0
  6
CONTINUOUS
 62
               4
100
AcDbLine
 10
10.299999999999997
 20
46.999984741210916
 30
0.0
 11
11.0
 21
46.999984741210916
 31
0.0
  0
LINE
  5
10D
100
AcDbEntity
  8
0
  6
CONTINUOUS
 62
               4
100
AcDbLine
 10
1.6165515765444525
 20
46.999984741210916
 30
0.0
 11
1.6165515765444525
 21
54.000015258789041
 31
0.0
  0
LINE
  5
10E
100
AcDbEntity
  8
0
  6
CONTINUOUS
 62
               4
100
AcDbLine
 10
10.299999999999997
 20
46.999984741210916
 30
0.0
 11
10.299999999999997
 21
54.000015258789041
 31
0.0
  0
LINE
  5
10F
100
AcDbEntity
  8
0
  6
CONTINUOUS
 62
               4
100
AcDbLine
 10
1.0
 20
46.999984741210916
 30
0.0
 11
1.6165515780448914
 21
46.999984741210916
 31
0.0
  0
LINE
  5
110
100
AcDbEntity
  8
0
  6
CONTINUOUS
 62
               4
100
AcDbLine
 10
11.0
 20
29.999999999999979
 30
0.0
 11
11.0
 21
54.000015258789041
 31
0.0
  0
LINE
  5
111
100
AcDbEntity
  8
0
  6
CONTINUOUS
 62
               4
100
AcDbLine
 10
1.0
 20
29.999999999999979
 30
0.0
 11
1.0
 21
54.000015258789041
 31
0.0
  0
ENDBLK
  5
112
100
AcDbEntity
  8
0
100
AcDbBlockEnd
  0
BLOCK
  5
113
100
AcDbEntity
  8
0
100
AcDbBlockBegin
  2
F10T-3
 70
               0
 10
0.0
 20
0.0
 30
0.0
  3
F10T-3
  1

  0
LINE
  5
114
100
AcDbEntity
  8
0
  6
CONTINUOUS
 62
               7
100
AcDbLine
 10
-12.0
 20
11.5
 30
0.0
 11
-12.0
 21
-21.499994277954102
 31
0.0
  0
LINE
  5
115
100
AcDbEntity
  8
0
  6
CONTINUOUS
 62
               7
100
AcDbLine
 10
0.0
 20
11.5
 30
0.0
 11
0.0
 21
-21.499994277954102
 31
0.0
  0
LINE
  5
116
100
AcDbEntity
  8
0
  6
CONTINUOUS
 62
               7
100
AcDbLine
 10
-12.0
 20
11.5
 30
0.0
 11
-11.0
 21
11.5
 31
0.0
  0
LINE
  5
117
100
AcDbEntity
  8
0
  6
CONTINUOUS
 62
               7
100
AcDbLine
 10
-12.0
 20
-21.499994277954102
 30
0.0
 11
-11.0
 21
-21.499994277954102
 31
0.0
  0
LINE
  5
118
100
AcDbEntity
  8
0
  6
CONTINUOUS
 62
               7
100
AcDbLine
 10
-11.0
 20
18.5
 30
0.0
 11
-1.0
 21
18.5
 31
0.0
  0
LINE
  5
119
100
AcDbEntity
  8
0
  6
CONTINUOUS
 62
               7
100
AcDbLine
 10
-11.0
 20
20.5
 30
0.0
 11
-1.0
 21
20.5
 31
0.0
  0
LINE
  5
11A
100
AcDbEntity
  8
0
  6
CENTER
 62
               2
100
AcDbLine
 10
-8.5
 20
26.699996948242188
 30
0.0
 11
-3.5
 21
26.699996948242188
 31
0.0
  0
LINE
  5
11B
100
AcDbEntity
  8
0
  6
CONTINUOUS
 62
               2
100
AcDbLine
 10
-6.0
 20
-38.606674194335938
 30
0.0
 11
-6.0
 21
75.755081176757813
 31
0.0
  0
LINE
  5
11C
100
AcDbEntity
  8
0
  6
CONTINUOUS
 62
               4
100
AcDbLine
 10
-11.0
 20
54.0
 30
0.0
 11
-1.0
 21
54.0
 31
0.0
  0
LINE
  5
11D
100
AcDbEntity
  8
0
  6
CONTINUOUS
 62
               7
100
AcDbLine
 10
-11.0
 20
30.0
 30
0.0
 11
-1.0
 21
30.0
 31
0.0
  0
LINE
  5
11E
100
AcDbEntity
  8
0
  6
CONTINUOUS
 62
               7
100
AcDbLine
 10
-7.926788330078125
 20
26.399993896484375
 30
0.0
 11
-4.073211669921875
 21
26.399993896484375
 31
0.0
  0
LINE
  5
11F
100
AcDbEntity
  8
0
  6
CONTINUOUS
 62
               7
100
AcDbLine
 10
-7.926788330078125
 20
27.0
 30
0.0
 11
-4.073211669921875
 21
27.0
 31
0.0
  0
LINE
  5
120
100
AcDbEntity
  8
0
  6
CONTINUOUS
 62
               4
100
AcDbLine
 10
-10.95001220703125
 20
54.000015258789063
 30
0.0
 11
-10.95001220703125
 21
67.500015258789063
 31
0.0
  0
LINE
  5
121
100
AcDbEntity
  8
0
  6
CONTINUOUS
 62
               4
100
AcDbLine
 10
-1.5
 20
63.0
 30
0.0
 11
-10.5
 21
63.0
 31
0.0
  0
LINE
  5
122
100
AcDbEntity
  8
0
  6
CONTINUOUS
 62
               2
100
AcDbLine
 10
-1.0500030517578125
 20
58.5
 30
0.0
 11
-10.95001220703125
 21
58.5
 31
0.0
  0
LINE
  5
123
100
AcDbEntity
  8
0
  6
CONTINUOUS
 62
               4
100
AcDbLine
 10
-1.0500030517578125
 20
54.0
 30
0.0
 11
-1.0500030517578125
 21
67.500015258789063
 31
0.0
  0
LINE
  5
124
100
AcDbEntity
  8
0
  6
CONTINUOUS
 62
               4
100
AcDbLine
 10
-10.949996948242188
 20
67.5
 30
0.0
 11
-9.5
 21
67.5
 31
0.0
  0
LINE
  5
125
100
AcDbEntity
  8
0
  6
CONTINUOUS
 62
               4
100
AcDbLine
 10
-10.050003051757812
 20
63.000015258789062
 30
0.0
 11
-10.050003051757812
 21
65.500015258789063
 31
0.0
  0
LINE
  5
126
100
AcDbEntity
  8
0
  6
CONTINUOUS
 62
               4
100
AcDbLine
 10
-1.9499969482421875
 20
63.0
 30
0.0
 11
-1.9499969482421875
 21
65.500015258789063
 31
0.0
  0
LINE
  5
127
100
AcDbEntity
  8
0
  6
CONTINUOUS
 62
               4
100
AcDbLine
 10
-2.5
 20
63.498458862304688
 30
0.0
 11
-2.5
 21
74.0
 31
0.0
  0
LINE
  5
128
100
AcDbEntity
  8
0
  6
CONTINUOUS
 62
               4
100
AcDbLine
 10
-9.5
 20
63.498458862304688
 30
0.0
 11
-9.5
 21
74.0
 31
0.0
  0
LINE
  5
129
100
AcDbEntity
  8
0
  6
CONTINUOUS
 62
               4
100
AcDbLine
 10
-9.5
 20
63.498458862304688
 30
0.0
 11
-2.5
 21
63.498458862304688
 31
0.0
  0
LINE
  5
12A
100
AcDbEntity
  8
0
  6
CONTINUOUS
 62
               4
100
AcDbLine
 10
-9.5
 20
67.05615234375
 30
0.0
 11
-2.5
 21
67.05615234375
 31
0.0
  0
LINE
  5
12B
100
AcDbEntity
  8
0
  6
CONTINUOUS
 62
               4
100
AcDbLine
 10
-9.5
 20
72.5
 30
0.0
 11
-2.5
 21
72.5
 31
0.0
  0
LINE
  5
12C
100
AcDbEntity
  8
0
  6
CONTINUOUS
 62
               4
100
AcDbLine
 10
-10.899993896484375
 20
74.0
 30
0.0
 11
-1.100006103515625
 21
74.0
 31
0.0
  0
LINE
  5
12D
100
AcDbEntity
  8
0
  6
CONTINUOUS
 62
               4
100
AcDbLine
 10
-2.5
 20
67.5
 30
0.0
 11
-1.0500030517578125
 21
67.5
 31
0.0
  0
LINE
  5
12E
100
AcDbEntity
  8
0
  6
CONTINUOUS
 62
               4
100
AcDbLine
 10
-2.5
 20
66.5
 30
0.0
 11
-1.9499969482421875
 21
66.5
 31
0.0
  0
LINE
  5
12F
100
AcDbEntity
  8
0
  6
CONTINUOUS
 62
               4
100
AcDbLine
 10
-2.5
 20
65.5
 30
0.0
 11
-1.9499969482421875
 21
65.5
 31
0.0
  0
LINE
  5
130
100
AcDbEntity
  8
0
  6
CONTINUOUS
 62
               4
100
AcDbLine
 10
-10.050003051757812
 20
66.5
 30
0.0
 11
-9.5
 21
66.5
 31
0.0
  0
LINE
  5
131
100
AcDbEntity
  8
0
  6
CONTINUOUS
 62
               4
100
AcDbLine
 10
-10.050003051757812
 20
65.5
 30
0.0
 11
-9.5
 21
65.5
 31
0.0
  0
LINE
  5
132
100
AcDbEntity
  8
0
  6
CONTINUOUS
 62
               4
100
AcDbLine
 10
-10.050003051757812
 20
66.500015258789063
 30
0.0
 11
-10.050003051757812
 21
67.500015258789063
 31
0.0
  0
LINE
  5
133
100
AcDbEntity
  8
0
  6
CONTINUOUS
 62
               4
100
AcDbLine
 10
-1.9499969482421875
 20
66.500015258789063
 30
0.0
 11
-1.9499969482421875
 21
67.500015258789063
 31
0.0
  0
LINE
  5
134
100
AcDbEntity
  8
0
  6
CONTINUOUS
 62
               7
100
AcDbLine
 10
-1.0
 20
-35.599990844726563
 30
0.0
 11
-1.0
 21
7.45001220703125
 31
0.0
  0
LINE
  5
135
100
AcDbEntity
  8
0
  6
CONTINUOUS
 62
               7
100
AcDbLine
 10
-11.0
 20
-35.599990844726563
 30
0.0
 11
-11.0
 21
-18.150005340576172
 31
0.0
  0
LINE
  5
136
100
AcDbEntity
  8
0
  6
CONTINUOUS
 62
               4
100
AcDbLine
 10
-1.100006103515625
 20
67.500015258789063
 30
0.0
 11
-1.100006103515625
 21
74.0
 31
0.0
  0
LINE
  5
137
100
AcDbEntity
  8
0
  6
CONTINUOUS
 62
               4
100
AcDbLine
 10
-10.900009155273437
 20
67.500015258789063
 30
0.0
 11
-10.900009155273437
 21
74.0
 31
0.0
  0
LINE
  5
138
100
AcDbEntity
  8
0
  6
CONTINUOUS
 62
               4
100
AcDbLine
 10
-10.0
 20
67.500015258789063
 30
0.0
 11
-10.0
 21
74.0
 31
0.0
  0
LINE
  5
139
100
AcDbEntity
  8
0
  6
CONTINUOUS
 62
               4
100
AcDbLine
 10
-2.0
 20
67.500015258789063
 30
0.0
 11
-2.0
 21
74.0
 31
0.0
  0
LINE
  5
13A
100
AcDbEntity
  8
0
  6
CONTINUOUS
 62
               7
100
AcDbLine
 10
-10.299990394065389
 20
-21.399980105001305
 30
0.0
 11
-10.699992942902099
 21
-20.999977488729201
 31
0.0
  0
LINE
  5
13B
100
AcDbEntity
  8
0
  6
CONTINUOUS
 62
               7
100
AcDbLine
 10
-10.300023369760311
 20
-28.599994222198802
 30
0.0
 11
-10.700025986032415
 21
-28.999996771035512
 31
0.0
  0
LINE
  5
13C
100
AcDbEntity
  8
0
  6
CONTINUOUS
 62
               7
100
AcDbLine
 10
-1.700005608416177
 20
-28.599994947126106
 30
0.0
 11
-1.3000030595794669
 21
-28.99999756339821
 31
0.0
  0
LINE
  5
13D
100
AcDbEntity
  8
0
  6
CONTINUOUS
 62
               7
100
AcDbLine
 10
-1.7000373702794604
 20
-21.399980829923152
 30
0.0
 11
-1.3000455436012999
 21
-20.999989070678566
 31
0.0
  0
LINE
  5
13E
100
AcDbEntity
  8
0
  6
CONTINUOUS
 62
               7
100
AcDbLine
 10
-1.6999969482421875
 20
-28.599990844726562
 30
0.0
 11
-1.6999969482421875
 21
-21.399993896484375
 31
0.0
  0
LINE
  5
13F
100
AcDbEntity
  8
0
  6
CONTINUOUS
 62
               7
100
AcDbLine
 10
-10.300003051757812
 20
-21.399993896484375
 30
0.0
 11
-1.70001220703125
 21
-21.399993896484375
 31
0.0
  0
LINE
  5
140
100
AcDbEntity
  8
0
  6
CONTINUOUS
 62
               7
100
AcDbLine
 10
-10.300003051757812
 20
-28.599990844726562
 30
0.0
 11
-10.300003051757812
 21
-21.399993896484375
 31
0.0
  0
LINE
  5
141
100
AcDbEntity
  8
0
  6
CONTINUOUS
 62
               7
100
AcDbLine
 10
-10.300003051757812
 20
-28.599990844726562
 30
0.0
 11
-1.70001220703125
 21
-28.599990844726562
 31
0.0
  0
LINE
  5
142
100
AcDbEntity
  8
0
  6
CONTINUOUS
 62
               7
100
AcDbLine
 10
-1.3000030517578125
 20
-29.0
 30
0.0
 11
-1.3000030517578125
 21
-21.0
 31
0.0
  0
LINE
  5
143
100
AcDbEntity
  8
0
  6
CONTINUOUS
 62
               7
100
AcDbLine
 10
-10.699996948242188
 20
-29.0
 30
0.0
 11
-10.699996948242188
 21
-21.0
 31
0.0
  0
LINE
  5
144
100
AcDbEntity
  8
0
  6
CONTINUOUS
 62
               7
100
AcDbLine
 10
-11.0
 20
11.0
 30
0.0
 11
-1.0
 21
11.0
 31
0.0
  0
LINE
  5
145
100
AcDbEntity
  8
0
  6
CONTINUOUS
 62
               7
100
AcDbLine
 10
-11.000015258789063
 20
-20.999992370605469
 30
0.0
 11
-1.0
 21
-20.999992370605469
 31
0.0
  0
LINE
  5
146
100
AcDbEntity
  8
0
  6
CONTINUOUS
 62
               7
100
AcDbLine
 10
-7.8000030517578125
 20
-20.799995422363281
 30
0.0
 11
-1.4000091552734375
 21
-20.799995422363281
 31
0.0
  0
LINE
  5
147
100
AcDbEntity
  8
0
  6
CONTINUOUS
 62
               7
100
AcDbLine
 10
-10.600006103515625
 20
10.800003051757813
 30
0.0
 11
-4.20001220703125
 21
10.800003051757813
 31
0.0
  0
LINE
  5
148
100
AcDbEntity
  8
0
  6
CONTINUOUS
 62
               7
100
AcDbLine
 10
-3.8000030517578125
 20
7.79998779296875
 30
0.0
 11
-3.8000030517578125
 21
10.399993896484375
 31
0.0
  0
LINE
  5
149
100
AcDbEntity
  8
0
  6
CONTINUOUS
 62
               7
100
AcDbLine
 10
-8.1999969482421875
 20
-17.800003051757812
 30
0.0
 11
-8.1999969482421875
 21
-20.400001525878906
 31
0.0
  0
LINE
  5
14A
100
AcDbEntity
  8
0
  6
CONTINUOUS
 62
               7
100
AcDbLine
 10
-9.8000030517578125
 20
-16.199996948242187
 30
0.0
 11
-10.600006103515625
 21
-16.199996948242187
 31
0.0
  0
LINE
  5
14B
100
AcDbEntity
  8
0
  6
CONTINUOUS
 62
               7
100
AcDbLine
 10
-2.20001220703125
 20
6.1999969482421875
 30
0.0
 11
-1.4000091552734375
 21
6.1999969482421875
 31
0.0
  0
LINE
  5
14C
100
AcDbEntity
  8
0
  6
CONTINUOUS
 62
               7
100
AcDbLine
 10
-2.1161001131913508
 20
-18.883875232468199
 30
0.0
 11
-3.8838668868920649
 21
-17.116108011732649
 31
0.0
  0
LINE
  5
14D
100
AcDbEntity
  8
0
  6
CONTINUOUS
 62
               7
100
AcDbLine
 10
-8.1161034481547176
 20
7.1161326441351775
 30
0.0
 11
-9.8838702218554317
 21
8.8838998648707275
 31
0.0
  0
LINE
  5
14E
100
AcDbEntity
  8
0
  6
CONTINUOUS
 62
               7
100
AcDbLine
 10
-9.8838828041916713
 20
7.1161111296669333
 30
0.0
 11
-8.1161157324677333
 21
8.8838780523792593
 31
0.0
  0
LINE
  5
14F
100
AcDbEntity
  8
0
  6
CONTINUOUS
 62
               7
100
AcDbLine
 10
-3.8838880671855804
 20
-18.88390703076675
 30
0.0
 11
-2.1161102058676988
 21
-17.11612931846139
 31
0.0
  0
LINE
  5
150
100
AcDbEntity
  8
0
  6
CONTINUOUS
 62
               7
100
AcDbLine
 10
-11.000015258789063
 20
-29.0
 30
0.0
 11
-1.0
 21
-29.0
 31
0.0
  0
LINE
  5
151
100
AcDbEntity
  8
0
  6
CONTINUOUS
 62
               7
100
AcDbLine
 10
-11.000015258789063
 20
-27.0
 30
0.0
 11
-10.70001220703125
 21
-27.0
 31
0.0
  0
LINE
  5
152
100
AcDbEntity
  8
0
  6
CONTINUOUS
 62
               7
100
AcDbLine
 10
-1.0
 20
-22.999992370605469
 30
0.0
 11
-1.3000030517578125
 21
-22.999992370605469
 31
0.0
  0
LINE
  5
153
100
AcDbEntity
  8
0
  6
CONTINUOUS
 62
               7
100
AcDbLine
 10
-1.3000030517578125
 20
-27.0
 30
0.0
 11
-1.0
 21
-27.0
 31
0.0
  0
LINE
  5
154
100
AcDbEntity
  8
0
  6
CONTINUOUS
 62
               7
100
AcDbLine
 10
-10.70001220703125
 20
-22.999992370605469
 30
0.0
 11
-11.000015258789063
 21
-22.999992370605469
 31
0.0
  0
LINE
  5
155
100
AcDbEntity
  8
0
  6
CONTINUOUS
 62
               7
100
AcDbLine
 10
-10.600006103515625
 20
-36.0
 30
0.0
 11
-1.4000091552734375
 21
-36.0
 31
0.0
  0
LINE
  5
156
100
AcDbEntity
  8
0
  6
CONTINUOUS
 62
               7
100
AcDbLine
 10
-10.40102909558118
 20
-18.401040078681945
 30
0.0
 11
-9.1989496447276906
 21
-17.19896072915617
 31
0.0
  0
LINE
  5
157
100
AcDbEntity
  8
0
  6
CONTINUOUS
 62
               7
100
AcDbLine
 10
-2.8010325757377359
 20
7.1989533299547475
 30
0.0
 11
-1.5989531248842468
 21
8.4010326794805223
 31
0.0
  0
LINE
  5
158
100
AcDbEntity
  8
0
  6
CONTINUOUS
 62
               7
100
AcDbLine
 10
-2.801023413013354
 20
8.4010655371648681
 30
0.0
 11
-1.5989331725659213
 21
7.1989753980460591
 31
0.0
  0
LINE
  5
159
100
AcDbEntity
  8
0
  6
CONTINUOUS
 62
               7
100
AcDbLine
 10
-10.401028564531771
 20
-17.198939301697465
 30
0.0
 11
-9.1989491136782817
 21
-18.401018651223239
 31
0.0
  0
LINE
  5
15A
100
AcDbEntity
  8
0
  6
CONTINUOUS
 62
               7
100
AcDbLine
 10
-11.0
 20
-17.449984550476074
 30
0.0
 11
-11.0
 21
30.0
 31
0.0
  0
LINE
  5
15B
100
AcDbEntity
  8
0
  6
CONTINUOUS
 62
               7
100
AcDbLine
 10
-1.0
 20
8.1499786376953125
 30
0.0
 11
-1.0
 21
30.0
 31
0.0
  0
LINE
  5
15C
100
AcDbEntity
  8
0
  6
CONTINUOUS
 62
               7
100
AcDbLine
 10
-1.0
 20
11.5
 30
0.0
 11
0.0
 21
11.5
 31
0.0
  0
LINE
  5
15D
100
AcDbEntity
  8
0
  6
CONTINUOUS
 62
               7
100
AcDbLine
 10
-1.0
 20
-21.499994277954102
 30
0.0
 11
0.0
 21
-21.499994277954102
 31
0.0
  0
LINE
  5
15E
100
AcDbEntity
  8
0
  6
CONTINUOUS
 62
               2
100
AcDbLine
 10
-9.0
 20
-10.899993896484375
 30
0.0
 11
-3.0
 21
-10.899993896484375
 31
0.0
  0
LINE
  5
15F
100
AcDbEntity
  8
0
  6
CONTINUOUS
 62
               2
100
AcDbLine
 10
-9.0
 20
0.9000053405761719
 30
0.0
 11
-3.0
 21
0.9000053405761719
 31
0.0
  0
LINE
  5
160
100
AcDbEntity
  8
0
  6
DASHED
 62
               4
100
AcDbLine
 10
-13.199996948242188
 20
9.5
 30
0.0
 11
-13.199996948242188
 21
-37.0
 31
0.0
  0
LINE
  5
161
100
AcDbEntity
  8
0
  6
DASHED
 62
               4
100
AcDbLine
 10
-13.199996948242188
 20
9.5
 30
0.0
 11
-12.0
 21
9.5
 31
0.0
  0
LINE
  5
162
100
AcDbEntity
  8
0
  6
DASHED
 62
               4
100
AcDbLine
 10
-12.0
 20
-36.79998779296875
 30
0.0
 11
0.0
 21
-36.79998779296875
 31
0.0
  0
LINE
  5
163
100
AcDbEntity
  8
0
  6
DASHED
 62
               4
100
AcDbLine
 10
-12.199996948242188
 20
-38.0
 30
0.0
 11
0.0
 21
-38.0
 31
0.0
  0
LINE
  5
164
100
AcDbEntity
  8
0
  6
DASHED
 62
               4
100
AcDbLine
 10
-12.0
 20
-21.499994277954102
 30
0.0
 11
-12.0
 21
-36.79998779296875
 31
0.0
  0
LINE
  5
165
100
AcDbEntity
  8
0
  6
DASHED
 62
               4
100
AcDbLine
 10
0.0
 20
-36.79998779296875
 30
0.0
 11
0.0
 21
-38.0
 31
0.0
  0
LINE
  5
166
100
AcDbEntity
  8
0
  6
DASHED
 62
               4
100
AcDbLine
 10
1.871826171875
 20
-12.800000190734863
 30
0.0
 11
0.6999969482421875
 21
-12.800000190734863
 31
0.0
  0
LINE
  5
167
100
AcDbEntity
  8
0
  6
DASHED
 62
               4
100
AcDbLine
 10
1.871826171875
 20
-7.1999998092651367
 30
0.0
 11
0.6999969482421875
 21
-7.1999998092651367
 31
0.0
  0
LINE
  5
168
100
AcDbEntity
  8
0
  6
DASHED
 62
               4
100
AcDbLine
 10
1.871826171875
 20
-2.7999992370605469
 30
0.0
 11
0.6999969482421875
 21
-2.7999992370605469
 31
0.0
  0
LINE
  5
169
100
AcDbEntity
  8
0
  6
DASHED
 62
               4
100
AcDbLine
 10
1.871826171875
 20
2.7999992370605469
 30
0.0
 11
0.6999969482421875
 21
2.7999992370605469
 31
0.0
  0
CIRCLE
  5
16A
100
AcDbEntity
  8
0
  6
CONTINUOUS
 62
               7
100
AcDbCircle
 10
-6.0
 20
26.699996948242188
 30
0.0
 40
2.0
  0
CIRCLE
  5
16B
100
AcDbEntity
  8
0
  6
CONTINUOUS
 62
               7
100
AcDbCircle
 10
-6.0
 20
26.699996948242188
 30
0.0
 40
1.9499998092651367
  0
ARC
  5
16C
100
AcDbEntity
  8
0
  6
CONTINUOUS
 62
               4
100
AcDbCircle
 10
-1.5500030517578125
 20
62.5
 30
0.0
 40
0.5
100
AcDbArc
 50
359.99995901886416
 51
89.999982013910454
  0
ARC
  5
16D
100
AcDbEntity
  8
0
  6
CONTINUOUS
 62
               4
100
AcDbCircle
 10
-10.449996948242187
 20
62.500015258789063
 30
0.0
 40
0.5
100
AcDbArc
 50
89.999982013910454
 51
179.99996402782091
  0
ARC
  5
16E
100
AcDbEntity
  8
0
  6
CONTINUOUS
 62
               7
100
AcDbCircle
 10
-1.4000091552734375
 20
-35.599990844726563
 30
0.0
 40
0.4000000357627869
100
AcDbArc
 50
270.00001798608872
 51
0.00001366037834
  0
ARC
  5
16F
100
AcDbEntity
  8
0
  6
CONTINUOUS
 62
               7
100
AcDbCircle
 10
-10.600006103515625
 20
-35.599990844726563
 30
0.0
 40
0.4000000357627869
100
AcDbArc
 50
179.99996402782091
 51
269.99994604173139
  0
ARC
  5
170
100
AcDbEntity
  8
0
  6
CONTINUOUS
 62
               7
100
AcDbCircle
 10
-1.399993896484375
 20
11.399993896484375
 30
0.0
 40
0.4000000357627869
100
AcDbArc
 50
270.00001798608872
 51
0.0
  0
ARC
  5
171
100
AcDbEntity
  8
0
  6
CONTINUOUS
 62
               7
100
AcDbCircle
 10
-10.600006103515625
 20
11.399993896484375
 30
0.0
 40
0.4000000357627869
100
AcDbArc
 50
179.99996402782091
 51
270.00000068324471
  0
ARC
  5
172
100
AcDbEntity
  8
0
  6
CONTINUOUS
 62
               7
100
AcDbCircle
 10
-10.600006103515625
 20
-15.799995422363281
 30
0.0
 40
0.4000000357627869
100
AcDbArc
 50
179.99996402782091
 51
270.00000068324471
  0
ARC
  5
173
100
AcDbEntity
  8
0
  6
CONTINUOUS
 62
               7
100
AcDbCircle
 10
-10.600006103515625
 20
10.399993896484375
 30
0.0
 40
0.4000000357627869
100
AcDbArc
 50
89.999982013910454
 51
179.99996402782091
  0
ARC
  5
174
100
AcDbEntity
  8
0
  6
CONTINUOUS
 62
               7
100
AcDbCircle
 10
-4.20001220703125
 20
10.399993896484375
 30
0.0
 40
0.4000000357627869
100
AcDbArc
 50
0.0
 51
89.999982013910454
  0
ARC
  5
175
100
AcDbEntity
  8
0
  6
CONTINUOUS
 62
               7
100
AcDbCircle
 10
-1.4000091552734375
 20
5.79998779296875
 30
0.0
 40
0.4000000357627869
100
AcDbArc
 50
0.0
 51
89.999982013910454
  0
ARC
  5
176
100
AcDbEntity
  8
0
  6
CONTINUOUS
 62
               7
100
AcDbCircle
 10
-1.4000091552734375
 20
-20.400001525878906
 30
0.0
 40
0.4000000357627869
100
AcDbArc
 50
270.00001798608872
 51
0.0
  0
ARC
  5
177
100
AcDbEntity
  8
0
  6
CONTINUOUS
 62
               7
100
AcDbCircle
 10
-7.8000030517578125
 20
-20.400001525878906
 30
0.0
 40
0.4000000357627869
100
AcDbArc
 50
179.99996402782091
 51
270.00000068324471
  0
ARC
  5
178
100
AcDbEntity
  8
0
  6
CONTINUOUS
 62
               7
100
AcDbCircle
 10
-2.20001220703125
 20
7.79998779296875
 30
0.0
 40
1.5999994277954102
100
AcDbArc
 50
179.99996402782091
 51
270.00000068324471
  0
ARC
  5
179
100
AcDbEntity
  8
0
  6
CONTINUOUS
 62
               7
100
AcDbCircle
 10
-9.8000030517578125
 20
-17.799995422363281
 30
0.0
 40
1.5999994277954102
100
AcDbArc
 50
0.0
 51
89.999982013910454
  0
CIRCLE
  5
17A
100
AcDbEntity
  8
0
  6
CONTINUOUS
 62
               7
100
AcDbCircle
 10
-3.0
 20
-18.0
 30
0.0
 40
1.3999996185302734
  0
CIRCLE
  5
17B
100
AcDbEntity
  8
0
  6
CONTINUOUS
 62
               7
100
AcDbCircle
 10
-9.0
 20
8.0
 30
0.0
 40
1.3999996185302734
  0
CIRCLE
  5
17C
100
AcDbEntity
  8
0
  6
CONTINUOUS
 62
               7
100
AcDbCircle
 10
-3.0
 20
-18.0
 30
0.0
 40
1.25
  0
CIRCLE
  5
17D
100
AcDbEntity
  8
0
  6
CONTINUOUS
 62
               7
100
AcDbCircle
 10
-9.0
 20
8.0
 30
0.0
 40
1.25
  0
CIRCLE
  5
17E
100
AcDbEntity
  8
0
  6
CONTINUOUS
 62
               7
100
AcDbCircle
 10
-2.20001220703125
 20
7.8000030517578125
 30
0.0
 40
1.25
  0
CIRCLE
  5
17F
100
AcDbEntity
  8
0
  6
CONTINUOUS
 62
               7
100
AcDbCircle
 10
-9.8000030517578125
 20
-17.799995422363281
 30
0.0
 40
1.25
  0
CIRCLE
  5
180
100
AcDbEntity
  8
0
  6
CONTINUOUS
 62
               2
100
AcDbCircle
 10
-6.0
 20
0.9000053405761719
 30
0.0
 40
2.5
  0
CIRCLE
  5
181
100
AcDbEntity
  8
0
  6
CONTINUOUS
 62
               2
100
AcDbCircle
 10
-6.0
 20
-10.899993896484375
 30
0.0
 40
2.5
  0
CIRCLE
  5
182
100
AcDbEntity
  8
0
  6
CONTINUOUS
 62
               7
100
AcDbCircle
 10
-6.0
 20
-10.899993896484375
 30
0.0
 40
2.0999994277954102
  0
CIRCLE
  5
183
100
AcDbEntity
  8
0
  6
CONTINUOUS
 62
               7
100
AcDbCircle
 10
-6.0
 20
0.9000053405761719
 30
0.0
 40
2.0999994277954102
  0
ARC
  5
184
100
AcDbEntity
  8
0
  6
DASHED
 62
               4
100
AcDbCircle
 10
-12.199996948242188
 20
-37.0
 30
0.0
 40
1.0
100
AcDbArc
 50
179.99998133066492
 51
270.00001798608872
  0
ARC
  5
185
100
AcDbEntity
  8
0
  6
DASHED
 62
               4
100
AcDbCircle
 10
-1.9000091552734375
 20
-10.000000953674316
 30
0.0
 40
5.0
100
AcDbArc
 50
330.50763931485608
 51
29.492333364386468
  0
ARC
  5
186
100
AcDbEntity
  8
0
  6
DASHED
 62
               4
100
AcDbCircle
 10
1.871826171875
 20
-12.133333206176758
 30
0.0
 40
0.6666666865348816
100
AcDbArc
 50
270.00001798608872
 51
330.50763931485608
  0
ARC
  5
187
100
AcDbEntity
  8
0
  6
DASHED
 62
               4
100
AcDbCircle
 10
1.8718109130859375
 20
-7.8666667938232422
 30
0.0
 40
0.6666666865348816
100
AcDbArc
 50
29.492319704008114
 51
89.999982013910454
  0
ARC
  5
188
100
AcDbEntity
  8
0
  6
DASHED
 62
               4
100
AcDbCircle
 10
-1.9000091552734375
 20
0.0
 30
0.0
 40
5.0
100
AcDbArc
 50
330.50763931485608
 51
29.492333364386468
  0
ARC
  5
189
100
AcDbEntity
  8
0
  6
DASHED
 62
               4
100
AcDbCircle
 10
1.871826171875
 20
-2.1333332061767578
 30
0.0
 40
0.6666666865348816
100
AcDbArc
 50
270.00001798608872
 51
330.50763931485608
  0
ARC
  5
18A
100
AcDbEntity
  8
0
  6
DASHED
 62
               4
100
AcDbCircle
 10
1.8718109130859375
 20
2.1333332061767578
 30
0.0
 40
0.6666666865348816
100
AcDbArc
 50
29.492319704008114
 51
89.999982013910454
  0
LINE
  5
18B
100
AcDbEntity
  8
0
  6
DASHED
 62
               4
100
AcDbLine
 10
0.6999969482421875
 20
-2.9499998092651367
 30
0.0
 11
0.6999969482421875
 21
2.9499998092651367
 31
0.0
  0
LINE
  5
18C
100
AcDbEntity
  8
0
  6
DASHED
 62
               4
100
AcDbLine
 10
0.0000035237681004
 20
0.3499966646595567
 30
0.0
 11
0.7000108563697722
 21
0.537563065698123
 31
0.0
  0
LINE
  5
18D
100
AcDbEntity
  8
0
  6
DASHED
 62
               4
100
AcDbLine
 10
0.7000133860265123
 20
-0.3500053804464187
 30
0.0
 11
0.0000060102292991
 21
-0.5375717382894436
 31
0.0
  0
LINE
  5
18E
100
AcDbEntity
  8
0
  6
DASHED
 62
               4
100
AcDbLine
 10
0.6999969482421875
 20
-2.9499998092651367
 30
0.0
 11
0.0
 21
-2.9499998092651367
 31
0.0
  0
LINE
  5
18F
100
AcDbEntity
  8
0
  6
DASHED
 62
               4
100
AcDbLine
 10
0.6999969482421875
 20
2.9499998092651367
 30
0.0
 11
0.0
 21
2.9499998092651367
 31
0.0
  0
LINE
  5
190
100
AcDbEntity
  8
0
  6
DASHED
 62
               4
100
AcDbLine
 10
0.6999969482421875
 20
-12.949999809265137
 30
0.0
 11
0.6999969482421875
 21
-7.0500001907348633
 31
0.0
  0
LINE
  5
191
100
AcDbEntity
  8
0
  6
DASHED
 62
               4
100
AcDbLine
 10
-0.0000022132271624
 20
-9.6500023814023734
 30
0.0
 11
0.7000051193745094
 21
-9.4624359803638072
 31
0.0
  0
LINE
  5
192
100
AcDbEntity
  8
0
  6
DASHED
 62
               4
100
AcDbLine
 10
0.7000069190262366
 20
-10.350004847976379
 30
0.0
 11
0.0000142820881592
 21
-10.537567256555121
 31
0.0
  0
LINE
  5
193
100
AcDbEntity
  8
0
  6
DASHED
 62
               4
100
AcDbLine
 10
0.6999969482421875
 20
-12.949999809265137
 30
0.0
 11
0.0
 21
-12.949999809265137
 31
0.0
  0
LINE
  5
194
100
AcDbEntity
  8
0
  6
DASHED
 62
               4
100
AcDbLine
 10
0.6999969482421875
 20
-7.0500001907348633
 30
0.0
 11
0.0
 21
-7.0500001907348633
 31
0.0
  0
LINE
  5
195
100
AcDbEntity
  8
0
  6
DASHED
 62
               4
100
AcDbLine
 10
-14.399993896484375
 20
1.9999999999999716
 30
0.0
 11
-14.399993896484375
 21
-2.0000000000000284
 31
0.0
  0
LINE
  5
196
100
AcDbEntity
  8
0
  6
DASHED
 62
               4
100
AcDbLine
 10
-13.699996948242188
 20
-2.0000000000000284
 30
0.0
 11
-14.399993896484375
 21
-2.0000000000000284
 31
0.0
  0
LINE
  5
197
100
AcDbEntity
  8
0
  6
DASHED
 62
               4
100
AcDbLine
 10
-13.699996948242188
 20
1.9999999999999716
 30
0.0
 11
-14.399993896484375
 21
1.9999999999999716
 31
0.0
  0
ARC
  5
198
100
AcDbEntity
  8
0
  6
DASHED
 62
               4
100
AcDbCircle
 10
-13.699996948242188
 20
-2.5
 30
0.0
 40
0.5
100
AcDbArc
 50
359.99996402782114
 51
89.999982013910454
  0
ARC
  5
199
100
AcDbEntity
  8
0
  6
DASHED
 62
               4
100
AcDbCircle
 10
-13.699996948242188
 20
2.5
 30
0.0
 40
0.5
100
AcDbArc
 50
269.99996334457541
 51
359.99996402782114
  0
LINE
  5
19A
100
AcDbEntity
  8
0
  6
DASHED
 62
               4
100
AcDbLine
 10
-14.399993896484375
 20
-8.0000000000000284
 30
0.0
 11
-14.399993896484375
 21
-12.000000000000028
 31
0.0
  0
LINE
  5
19B
100
AcDbEntity
  8
0
  6
DASHED
 62
               4
100
AcDbLine
 10
-13.699996948242188
 20
-12.000000000000028
 30
0.0
 11
-14.399993896484375
 21
-12.000000000000028
 31
0.0
  0
LINE
  5
19C
100
AcDbEntity
  8
0
  6
DASHED
 62
               4
100
AcDbLine
 10
-13.699996948242188
 20
-8.0000000000000284
 30
0.0
 11
-14.399993896484375
 21
-8.0000000000000284
 31
0.0
  0
ARC
  5
19D
100
AcDbEntity
  8
0
  6
DASHED
 62
               4
100
AcDbCircle
 10
-13.699996948242188
 20
-12.5
 30
0.0
 40
0.5
100
AcDbArc
 50
359.99996402782114
 51
89.999982013910454
  0
ARC
  5
19E
100
AcDbEntity
  8
0
  6
DASHED
 62
               4
100
AcDbCircle
 10
-13.699996948242188
 20
-7.5
 30
0.0
 40
0.5
100
AcDbArc
 50
269.99996334457541
 51
359.99996402782114
  0
LINE
  5
19F
100
AcDbEntity
  8
0
  6
CONTINUOUS
 62
               4
100
AcDbLine
 10
-7.2849884033203125
 20
78.173324584960938
 30
0.0
 11
-7.2849884033203125
 21
82.0
 31
0.0
  0
LINE
  5
1A0
100
AcDbEntity
  8
0
  6
CONTINUOUS
 62
               4
100
AcDbLine
 10
-8.7150115966796875
 20
77.790145874023438
 30
0.0
 11
-8.7150115966796875
 21
82.0
 31
0.0
  0
LINE
  5
1A1
100
AcDbEntity
  8
0
  6
CONTINUOUS
 62
               4
100
AcDbLine
 10
-8.7150115966796875
 20
82.0
 30
0.0
 11
-7.285003662109375
 21
82.0
 31
0.0
  0
LINE
  5
1A2
100
AcDbEntity
  8
0
  6
CONTINUOUS
 62
               4
100
AcDbLine
 10
-7.5999908447265625
 20
82.0
 30
0.0
 11
-7.5999908447265625
 21
87.0
 31
0.0
  0
LINE
  5
1A3
100
AcDbEntity
  8
0
  6
CONTINUOUS
 62
               4
100
AcDbLine
 10
-8.4000091552734375
 20
82.0
 30
0.0
 11
-8.4000091552734375
 21
87.0
 31
0.0
  0
LINE
  5
1A4
100
AcDbEntity
  8
0
  6
CONTINUOUS
 62
               4
100
AcDbLine
 10
-8.4000091552734375
 20
87.0
 30
0.0
 11
-7.600006103515625
 21
87.0
 31
0.0
  0
LINE
  5
1A5
100
AcDbEntity
  8
0
  6
CONTINUOUS
 62
               4
100
AcDbLine
 10
-7.2849884033203125
 20
74.0
 30
0.0
 11
-7.2849884033203125
 21
77.138046264648437
 31
0.0
  0
LINE
  5
1A6
100
AcDbEntity
  8
0
  6
CONTINUOUS
 62
               4
100
AcDbLine
 10
-8.7150115966796875
 20
74.0
 30
0.0
 11
-8.7150115966796875
 21
76.7548828125
 31
0.0
  0
LINE
  5
1A7
100
AcDbEntity
  8
0
  6
CONTINUOUS
 62
             200
100
AcDbLine
 10
-10.050031710562507
 20
76.397160865372825
 30
0.0
 11
-5.9009168365273581
 21
77.508912854492621
 31
0.0
  0
LINE
  5
1A8
100
AcDbEntity
  8
0
  6
CONTINUOUS
 62
             200
100
AcDbLine
 10
-10.050021664886117
 20
77.432439724134383
 30
0.0
 11
-5.781686234671497
 21
78.5761367652714
 31
0.0
  0
LINE
  5
1A9
100
AcDbEntity
  8
0
  6
CONTINUOUS
 62
               4
100
AcDbLine
 10
-1.0
 20
30.0
 30
0.0
 11
-1.0
 21
54.0
 31
0.0
  0
LINE
  5
1AA
100
AcDbEntity
  8
0
  6
CONTINUOUS
 62
               4
100
AcDbLine
 10
-11.0
 20
30.0
 30
0.0
 11
-11.0
 21
54.000015258789063
 31
0.0
  0
ENDBLK
  5
1AB
100
AcDbEntity
  8
0
100
AcDbBlockEnd
  0
BLOCK
  5
1AC
100
AcDbEntity
  8
0
100
AcDbBlockBegin
  2
F10T-4
 70
               0
 10
0.0
 20
0.0
 30
0.0
  3
F10T-4
  1

  0
LINE
  5
1AD
100
AcDbEntity
  8
0
  6
CONTINUOUS
 62
               2
100
AcDbLine
 10
-26.0
 20
-6.0
 30
0.0
 11
32.5
 21
-6.0
 31
0.0
  0
LINE
  5
1AE
100
AcDbEntity
  8
0
  6
CONTINUOUS
 62
               7
100
AcDbLine
 10
30.099990844726563
 20
-1.0
 30
0.0
 11
3.4999847412109375
 21
-1.0
 31
0.0
  0
LINE
  5
1AF
100
AcDbEntity
  8
0
  6
CONTINUOUS
 62
               7
100
AcDbLine
 10
30.099990844726563
 20
-11.0
 30
0.0
 11
3.4999847412109375
 21
-11.0
 31
0.0
  0
LINE
  5
1B0
100
AcDbEntity
  8
0
  6
CONTINUOUS
 62
               7
100
AcDbLine
 10
27.5
 20
-1.399993896484375
 30
0.0
 11
27.5
 21
-10.599990844726563
 31
0.0
  0
LINE
  5
1B1
100
AcDbEntity
  8
0
  6
CONTINUOUS
 62
               7
100
AcDbLine
 10
22.300003051757813
 20
-1.0
 30
0.0
 11
22.300003051757813
 21
-2.8000030517578125
 31
0.0
  0
LINE
  5
1B2
100
AcDbEntity
  8
0
  6
CONTINUOUS
 62
               7
100
AcDbLine
 10
19.099990844726563
 20
-1.0
 30
0.0
 11
19.099990844726563
 21
-2.8000030517578125
 31
0.0
  0
LINE
  5
1B3
100
AcDbEntity
  8
0
  6
CONTINUOUS
 62
               7
100
AcDbLine
 10
5.29998779296875
 20
-7.5999908447265625
 30
0.0
 11
3.4999847412109375
 21
-7.5999908447265625
 31
0.0
  0
LINE
  5
1B4
100
AcDbEntity
  8
0
  6
CONTINUOUS
 62
               7
100
AcDbLine
 10
6.899993896484375
 20
-9.1999969482421875
 30
0.0
 11
6.899993896484375
 21
-11.0
 31
0.0
  0
LINE
  5
1B5
100
AcDbEntity
  8
0
  6
CONTINUOUS
 62
               7
100
AcDbLine
 10
4.6989515530531207
 20
-8.5989792664513516
 30
0.0
 11
5.9010310039066098
 21
-9.8010586159771265
 31
0.0
  0
LINE
  5
1B6
100
AcDbEntity
  8
0
  6
CONTINUOUS
 62
               7
100
AcDbLine
 10
20.098951556983366
 20
-2.198966698159893
 30
0.0
 11
21.301041797430798
 21
-3.401056837278702
 31
0.0
  0
LINE
  5
1B7
100
AcDbEntity
  8
0
  6
CONTINUOUS
 62
               7
100
AcDbLine
 10
21.301053691098446
 20
-2.1989766952164587
 30
0.0
 11
20.098974442900385
 21
-3.401056247397662
 31
0.0
  0
LINE
  5
1B8
100
AcDbEntity
  8
0
  6
CONTINUOUS
 62
               7
100
AcDbLine
 10
5.9010373679057011
 20
-8.5989642619988444
 30
0.0
 11
4.6989581197076404
 21
-9.8010438141800478
 31
0.0
  0
LINE
  5
1B9
100
AcDbEntity
  8
0
  6
CONTINUOUS
 62
               7
100
AcDbLine
 10
28.5
 20
-1.399993896484375
 30
0.0
 11
28.5
 21
-10.599990844726563
 31
0.0
  0
LINE
  5
1BA
100
AcDbEntity
  8
0
  6
CONTINUOUS
 62
               7
100
AcDbLine
 10
28.099990844726563
 20
-1.0
 30
0.0
 11
28.099990844726563
 21
-11.0
 31
0.0
  0
LINE
  5
1BB
100
AcDbEntity
  8
0
  6
CONTINUOUS
 62
               7
100
AcDbLine
 10
28.099985638637463
 20
-10.99998605999167
 30
0.0
 11
28.499987715426414
 21
-10.599982971671807
 31
0.0
  0
LINE
  5
1BC
100
AcDbEntity
  8
0
  6
CONTINUOUS
 62
               7
100
AcDbLine
 10
28.49999987915254
 20
-1.3999950540696204
 30
0.0
 11
28.099996554808797
 21
-0.999993213304549
 31
0.0
  0
LINE
  5
1BD
100
AcDbEntity
  8
0
  6
CONTINUOUS
 62
               7
100
AcDbLine
 10
30.5
 20
-1.399993896484375
 30
0.0
 11
30.5
 21
-10.599990844726563
 31
0.0
  0
LINE
  5
1BE
100
AcDbEntity
  8
0
  6
CONTINUOUS
 62
               7
100
AcDbLine
 10
31.5
 20
-4.04998779296875
 30
0.0
 11
31.5
 21
-7.9499969482421875
 31
0.0
  0
LINE
  5
1BF
100
AcDbEntity
  8
0
  6
CONTINUOUS
 62
               7
100
AcDbLine
 10
31.5
 20
-4.0500030517578125
 30
0.0
 11
30.5
 21
-4.0500030517578125
 31
0.0
  0
LINE
  5
1C0
100
AcDbEntity
  8
0
  6
CONTINUOUS
 62
               7
100
AcDbLine
 10
31.5
 20
-7.9499969482421875
 30
0.0
 11
30.5
 21
-7.9499969482421875
 31
0.0
  0
LINE
  5
1C1
100
AcDbEntity
  8
0
  6
DASHED
 62
               4
100
AcDbLine
 10
-25.0
 20
-12.0
 30
0.0
 11
-5.0
 21
-12.0
 31
0.0
  0
LINE
  5
1C2
100
AcDbEntity
  8
0
  6
DASHED
 62
               4
100
AcDbLine
 10
-25.0
 20
0.0
 30
0.0
 11
-5.0
 21
0.0
 31
0.0
  0
LINE
  5
1C3
100
AcDbEntity
  8
0
  6
CONTINUOUS
 62
               7
100
AcDbLine
 10
-5.0
 20
0.0
 30
0.0
 11
-5.0
 21
-12.0
 31
0.0
  0
LINE
  5
1C4
100
AcDbEntity
  8
0
  6
CONTINUOUS
 62
               7
100
AcDbLine
 10
3.0
 20
0.0
 30
0.0
 11
3.0
 21
-12.0
 31
0.0
  0
LINE
  5
1C5
100
AcDbEntity
  8
0
  6
DASHED
 62
               4
100
AcDbLine
 10
-4.0
 20
1.1999969482421875
 30
0.0
 11
10.0
 21
1.1999969482421875
 31
0.0
  0
LINE
  5
1C6
100
AcDbEntity
  8
0
  6
DASHED
 62
               4
100
AcDbLine
 10
10.0
 20
1.1999969482421875
 30
0.0
 11
10.0
 21
-12.0
 31
0.0
  0
LINE
  5
1C7
100
AcDbEntity
  8
0
  6
DASHED
 62
               4
100
AcDbLine
 10
-25.0
 20
0.0
 30
0.0
 11
-25.0
 21
-12.0
 31
0.0
  0
LINE
  5
1C8
100
AcDbEntity
  8
0
  6
CONTINUOUS
 62
               7
100
AcDbLine
 10
-5.0
 20
0.0
 30
0.0
 11
3.0
 21
0.0
 31
0.0
  0
LINE
  5
1C9
100
AcDbEntity
  8
0
  6
CONTINUOUS
 62
               7
100
AcDbLine
 10
-5.0
 20
-12.0
 30
0.0
 11
3.0
 21
-12.0
 31
0.0
  0
LINE
  5
1CA
100
AcDbEntity
  8
0
  6
DASHED
 62
               4
100
AcDbLine
 10
-4.0
 20
1.1999969482421875
 30
0.0
 11
-4.0
 21
0.0
 31
0.0
  0
LINE
  5
1CB
100
AcDbEntity
  8
0
  6
DASHED
 62
               4
100
AcDbLine
 10
3.0
 20
-12.0
 30
0.0
 11
10.0
 21
-12.0
 31
0.0
  0
LINE
  5
1CC
100
AcDbEntity
  8
0
  6
DASHED
 62
               4
100
AcDbLine
 10
3.0
 20
0.0
 30
0.0
 11
10.0
 21
0.0
 31
0.0
  0
LINE
  5
1CD
100
AcDbEntity
  8
0
  6
CENTER
 62
             200
100
AcDbLine
 10
-20.0
 20
-3.5
 30
0.0
 11
-20.0
 21
-8.5
 31
0.0
  0
LINE
  5
1CE
100
AcDbEntity
  8
0
  6
CENTER
 62
             200
100
AcDbLine
 10
-10.0
 20
-3.5
 30
0.0
 11
-10.0
 21
-8.5
 31
0.0
  0
LINE
  5
1CF
100
AcDbEntity
  8
0
  6
DASHED
 62
               4
100
AcDbLine
 10
-2.8000030517578125
 20
-13.871826171875
 30
0.0
 11
-2.8000030517578125
 21
-12.699996948242188
 31
0.0
  0
LINE
  5
1D0
100
AcDbEntity
  8
0
  6
DASHED
 62
               4
100
AcDbLine
 10
2.79998779296875
 20
-13.871826171875
 30
0.0
 11
2.79998779296875
 21
-12.699996948242188
 31
0.0
  0
ARC
  5
1D1
100
AcDbEntity
  8
0
  6
CONTINUOUS
 62
               7
100
AcDbCircle
 10
3.899993896484375
 20
-1.399993896484375
 30
0.0
 40
0.3999999761581421
100
AcDbArc
 50
89.999982013910454
 51
179.99996402782091
  0
ARC
  5
1D2
100
AcDbEntity
  8
0
  6
CONTINUOUS
 62
               7
100
AcDbCircle
 10
27.099990844726563
 20
-1.399993896484375
 30
0.0
 40
0.3999999761581421
100
AcDbArc
 50
359.99998633962088
 51
89.999927372397096
  0
ARC
  5
1D3
100
AcDbEntity
  8
0
  6
CONTINUOUS
 62
               7
100
AcDbCircle
 10
27.099990844726563
 20
-10.599990844726563
 30
0.0
 40
0.3999999761581421
100
AcDbArc
 50
270.00001798608872
 51
359.99998633962088
  0
ARC
  5
1D4
100
AcDbEntity
  8
0
  6
CONTINUOUS
 62
               7
100
AcDbCircle
 10
3.899993896484375
 20
-10.599990844726563
 30
0.0
 40
0.3999999761581421
100
AcDbArc
 50
180.0000359721783
 51
270.00001798608872
  0
CIRCLE
  5
1D5
100
AcDbEntity
  8
0
  6
CONTINUOUS
 62
               7
100
AcDbCircle
 10
5.29998779296875
 20
-9.1999969482421875
 30
0.0
 40
1.25
  0
CIRCLE
  5
1D6
100
AcDbEntity
  8
0
  6
CONTINUOUS
 62
               7
100
AcDbCircle
 10
20.699996948242188
 20
-2.8000030517578125
 30
0.0
 40
1.25
  0
ARC
  5
1D7
100
AcDbEntity
  8
0
  6
CONTINUOUS
 62
               7
100
AcDbCircle
 10
5.29998779296875
 20
-9.1999969482421875
 30
0.0
 40
1.5999994277954102
100
AcDbArc
 50
359.99998633962088
 51
89.999927372397096
  0
ARC
  5
1D8
100
AcDbEntity
  8
0
  6
CONTINUOUS
 62
               7
100
AcDbCircle
 10
20.699996948242188
 20
-2.8000030517578125
 30
0.0
 40
1.5999984741210938
100
AcDbArc
 50
180.0000359721783
 51
359.99998633962088
  0
ARC
  5
1D9
100
AcDbEntity
  8
0
  6
CONTINUOUS
 62
               7
100
AcDbCircle
 10
30.099990844726563
 20
-1.399993896484375
 30
0.0
 40
0.3999999761581421
100
AcDbArc
 50
359.99998633962088
 51
89.999927372397096
  0
ARC
  5
1DA
100
AcDbEntity
  8
0
  6
CONTINUOUS
 62
               7
100
AcDbCircle
 10
30.099990844726563
 20
-10.599990844726563
 30
0.0
 40
0.3999999761581421
100
AcDbArc
 50
270.00001798608872
 51
359.99998633962088
  0
CIRCLE
  5
1DB
100
AcDbEntity
  8
0
  6
DASHED
 62
               4
100
AcDbCircle
 10
-10.0
 20
-6.0
 30
0.0
 40
1.5999994277954102
  0
CIRCLE
  5
1DC
100
AcDbEntity
  8
0
  6
DASHED
 62
               4
100
AcDbCircle
 10
-20.0
 20
-6.0
 30
0.0
 40
1.5999994277954102
  0
ARC
  5
1DD
100
AcDbEntity
  8
0
  6
DASHED
 62
               4
100
AcDbCircle
 10
0.0
 20
-10.099990844726562
 30
0.0
 40
5.0
100
AcDbArc
 50
240.5076436405673
 51
299.49233769009686
  0
ARC
  5
1DE
100
AcDbEntity
  8
0
  6
DASHED
 62
               4
100
AcDbCircle
 10
-2.133331298828125
 20
-13.871826171875
 30
0.0
 40
0.6666666865348816
100
AcDbArc
 50
179.99990938630756
 51
240.50757169620994
  0
ARC
  5
1DF
100
AcDbEntity
  8
0
  6
DASHED
 62
               4
100
AcDbCircle
 10
2.133331298828125
 20
-13.871810913085938
 30
0.0
 40
0.6666666865348816
100
AcDbArc
 50
299.49228304858349
 51
359.99994535848583
  0
LINE
  5
1E0
100
AcDbEntity
  8
0
  6
DASHED
 62
               4
100
AcDbLine
 10
-2.9499969482421875
 20
-12.699996948242188
 30
0.0
 11
2.9499969482421875
 21
-12.699996948242188
 31
0.0
  0
LINE
  5
1E1
100
AcDbEntity
  8
0
  6
DASHED
 62
               4
100
AcDbLine
 10
0.3500057440742239
 20
-11.999998742770003
 30
0.0
 11
0.5375721451127902
 21
-12.700006075371675
 31
0.0
  0
LINE
  5
1E2
100
AcDbEntity
  8
0
  6
DASHED
 62
               4
100
AcDbLine
 10
-0.3499908278045041
 20
-12.700008559747403
 30
0.0
 11
-0.537557185647529
 21
-12.000001183950189
 31
0.0
  0
LINE
  5
1E3
100
AcDbEntity
  8
0
  6
DASHED
 62
               4
100
AcDbLine
 10
-2.9499969482421875
 20
-12.699996948242188
 30
0.0
 11
-2.9499969482421875
 21
-12.0
 31
0.0
  0
LINE
  5
1E4
100
AcDbEntity
  8
0
  6
DASHED
 62
               4
100
AcDbLine
 10
2.9499969482421875
 20
-12.699996948242188
 30
0.0
 11
2.9499969482421875
 21
-12.0
 31
0.0
  0
LINE
  5
1E5
100
AcDbEntity
  8
0
  6
DASHED
 62
               4
100
AcDbLine
 10
2.0
 20
2.399993896484375
 30
0.0
 11
-2.0
 21
2.399993896484375
 31
0.0
  0
LINE
  5
1E6
100
AcDbEntity
  8
0
  6
DASHED
 62
               4
100
AcDbLine
 10
-2.0
 20
1.6999969482421875
 30
0.0
 11
-2.0
 21
2.399993896484375
 31
0.0
  0
LINE
  5
1E7
100
AcDbEntity
  8
0
  6
DASHED
 62
               4
100
AcDbLine
 10
2.0
 20
1.6999969482421875
 30
0.0
 11
2.0
 21
2.399993896484375
 31
0.0
  0
ARC
  5
1E8
100
AcDbEntity
  8
0
  6
DASHED
 62
               4
100
AcDbCircle
 10
-2.5
 20
1.6999969482421875
 30
0.0
 40
0.5
100
AcDbArc
 50
269.99996334457541
 51
0.00000068324523
  0
ARC
  5
1E9
100
AcDbEntity
  8
0
  6
DASHED
 62
               4
100
AcDbCircle
 10
2.5
 20
1.6999969482421875
 30
0.0
 40
0.5
100
AcDbArc
 50
179.99996402782091
 51
269.99994604173139
  0
LINE
  5
1EA
100
AcDbEntity
  8
0
  6
CONTINUOUS
 62
               7
100
AcDbLine
 10
3.4999843637214663
 20
-0.9999999622510671
 30
0.0
 11
3.4999851187004061
 21
-10.999999962251039
 31
0.0
  0
LINE
  5
1EB
100
AcDbEntity
  8
0
  6
CONTINUOUS
 62
               7
100
AcDbLine
 10
3.4999843637214663
 20
-0.9999999622510671
 30
0.0
 11
2.9999843637214676
 21
-1.0000000000000142
 31
0.0
  0
LINE
  5
1EC
100
AcDbEntity
  8
0
  6
CONTINUOUS
 62
               7
100
AcDbLine
 10
3.4999851187004061
 20
-10.999999962251039
 30
0.0
 11
2.9999851187004074
 21
-10.999999999999986
 31
0.0
  0
ENDBLK
  5
1ED
100
AcDbEntity
  8
0
100
AcDbBlockEnd
  0
BLOCK
  5
1EE
100
AcDbEntity
  8
0
100
AcDbBlockBegin
  2
F10T-5
 70
               0
 10
0.0
 20
0.0
 30
0.0
  3
F10T-5
  1

  0
LINE
  5
1EF
100
AcDbEntity
  8
0
  6
CONTINUOUS
 62
               4
100
AcDbLine
 10
0.0
 20
24.0
 30
0.0
 11
10.0
 21
24.0
 31
0.0
  0
LINE
  5
1F0
100
AcDbEntity
  8
0
  6
CONTINUOUS
 62
               4
100
AcDbLine
 10
0.05
 20
24.0
 30
0.0
 11
0.05
 21
32.5
 31
0.0
  0
LINE
  5
1F1
100
AcDbEntity
  8
0
  6
CONTINUOUS
 62
               4
100
AcDbLine
 10
9.5
 20
33.0
 30
0.0
 11
0.5
 21
33.0
 31
0.0
  0
LINE
  5
1F2
100
AcDbEntity
  8
0
  6
CONTINUOUS
 62
               4
100
AcDbLine
 10
9.9499999999999993
 20
28.5
 30
0.0
 11
0.05
 21
28.5
 31
0.0
  0
LINE
  5
1F3
100
AcDbEntity
  8
0
  6
CONTINUOUS
 62
               4
100
AcDbLine
 10
9.9499999999999993
 20
24.0
 30
0.0
 11
9.9499999999999993
 21
32.5
 31
0.0
  0
LINE
  5
1F4
100
AcDbEntity
  8
0
  6
CONTINUOUS
 62
               4
100
AcDbLine
 10
0.0
 20
0.0
 30
0.0
 11
0.0
 21
24.0
 31
0.0
  0
LINE
  5
1F5
100
AcDbEntity
  8
0
  6
CONTINUOUS
 62
               4
100
AcDbLine
 10
10.0
 20
0.0
 30
0.0
 11
10.0
 21
24.0
 31
0.0
  0
ARC
  5
1F6
100
AcDbEntity
  8
0
  6
CONTINUOUS
 62
               4
100
AcDbCircle
 10
9.4500137329078271
 20
32.500013732907831
 30
0.0
 40
0.4999862672807696
100
AcDbArc
 50
359.99842628145819
 51
90.001573718540826
  0
ARC
  5
1F7
100
AcDbEntity
  8
0
  6
CONTINUOUS
 62
               4
100
AcDbCircle
 10
0.5499786377791315
 20
32.500021362220863
 30
0.0
 40
0.4999786382354955
100
AcDbArc
 50
89.997551965216786
 51
180.00244803478242
  0
ENDBLK
  5
1F8
100
AcDbEntity
  8
0
100
AcDbBlockEnd
  0
BLOCK
  5
1F9
100
AcDbEntity
  8
0
100
AcDbBlockBegin
  2
F10T-6
 70
               0
 10
0.0
 20
0.0
 30
0.0
  3
F10T-6
  1

  0
LINE
  5
1FA
100
AcDbEntity
  8
0
  6
CONTINUOUS
 62
               4
100
AcDbLine
 10
27.0
 20
23.999999913736957
 30
0.0
 11
27.0
 21
-0.0000000862630429
 31
0.0
  0
LINE
  5
1FB
100
AcDbEntity
  8
0
  6
CONTINUOUS
 62
               4
100
AcDbLine
 10
-0.0000000000000036
 20
16.999999913736957
 30
0.0
 11
0.0000000000000071
 21
0.0000049999999874
 31
0.0
  0
LINE
  5
1FC
100
AcDbEntity
  8
0
  6
CONTINUOUS
 62
               4
100
AcDbLine
 10
1.3999999999999915
 20
16.999999913736957
 30
0.0
 11
1.3999999999999915
 21
25.499999909445421
 31
0.0
  0
LINE
  5
1FD
100
AcDbEntity
  8
0
  6
CONTINUOUS
 62
               4
100
AcDbLine
 10
-10.000000000000014
 20
25.499999913736957
 30
0.0
 11
-10.000000000000014
 21
16.999999913736957
 31
0.0
  0
LINE
  5
1FE
100
AcDbEntity
  8
0
  6
CONTINUOUS
 62
               4
100
AcDbLine
 10
-10.000000000000014
 20
25.499999913736957
 30
0.0
 11
1.3999999999999915
 21
25.499999913736957
 31
0.0
  0
LINE
  5
1FF
100
AcDbEntity
  8
0
  6
CONTINUOUS
 62
               4
100
AcDbLine
 10
-10.000000000000014
 20
16.999999913736957
 30
0.0
 11
1.3999999999999915
 21
16.999999913736957
 31
0.0
  0
LINE
  5
200
100
AcDbEntity
  8
0
  6
CONTINUOUS
 62
               4
100
AcDbLine
 10
27.0
 20
23.999999913736957
 30
0.0
 11
1.3999999999999915
 21
23.999999913736957
 31
0.0
  0
LINE
  5
201
100
AcDbEntity
  8
0
  6
CONTINUOUS
 62
               4
100
AcDbLine
 10
14.295000000000009
 20
23.999999913736957
 30
0.0
 11
12.795000000000009
 21
23.999999913736957
 31
0.0
  0
LINE
  5
202
100
AcDbEntity
  8
0
  6
CONTINUOUS
 62
               4
100
AcDbLine
 10
1.4999999999999964
 20
25.599999913736951
 30
0.0
 11
-3.0000000000000142
 21
25.599999913736951
 31
0.0
  0
ARC
  5
203
100
AcDbEntity
  8
0
  6
CONTINUOUS
 62
               4
100
AcDbCircle
 10
-2.5015404500182825
 20
32.501540363755225
 30
0.0
 40
0.4984619302958243
100
AcDbArc
 50
89.822932465397898
 51
180.17706753460195
  0
LINE
  5
204
100
AcDbEntity
  8
0
  6
CONTINUOUS
 62
               4
100
AcDbLine
 10
-3.0000000000000142
 20
32.499999913736957
 30
0.0
 11
-3.0000000000000142
 21
25.599999913736951
 31
0.0
  0
LINE
  5
205
100
AcDbEntity
  8
0
  6
CONTINUOUS
 62
               4
100
AcDbLine
 10
1.4999999999999964
 20
25.599999913736951
 30
0.0
 11
1.4999999999999964
 21
23.999999913736957
 31
0.0
  0
ARC
  5
206
100
AcDbEntity
  8
0
  6
CONTINUOUS
 62
               4
100
AcDbCircle
 10
25.501123948313893
 20
28.179394315853983
 30
0.0
 40
1.4988865337462252
100
AcDbArc
 50
0.2142776266259142
 51
24.039904443234629
  0
ARC
  5
207
100
AcDbEntity
  8
0
  6
CONTINUOUS
 62
               4
100
AcDbCircle
 10
24.675687863874504
 20
32.50267102581455
 30
0.0
 40
0.4973293636201366
100
AcDbArc
 50
24.005903588636794
 51
90.079246697133684
  0
LINE
  5
208
100
AcDbEntity
  8
0
  6
CONTINUOUS
 62
               4
100
AcDbLine
 10
25.129999999999999
 20
32.704999913736941
 30
0.0
 11
26.870000000000008
 21
28.789999913736949
 31
0.0
  0
LINE
  5
209
100
AcDbEntity
  8
0
  6
CONTINUOUS
 62
               4
100
AcDbLine
 10
24.674999999999994
 20
32.999999913736957
 30
0.0
 11
-2.503080900033293
 21
32.999999913736957
 31
0.0
  0
LINE
  5
20A
100
AcDbEntity
  8
0
  6
CONTINUOUS
 62
               4
100
AcDbLine
 10
27.000000000000004
 20
28.184999913736931
 30
0.0
 11
27.000000000000004
 21
23.999999913736957
 31
0.0
  0
LINE
  5
20B
100
AcDbEntity
  8
0
  6
CONTINUOUS
 62
             200
100
AcDbLine
 10
-20.089214565994553
 20
24.164996126888383
 30
0.0
 11
-21.946103769656474
 21
17.234991332879673
 31
0.0
  0
LINE
  5
20C
100
AcDbEntity
  8
0
  6
CONTINUOUS
 62
             200
100
AcDbLine
 10
-19.053935707232995
 20
24.165006172564773
 30
0.0
 11
-20.910828860160109
 21
17.234986639697837
 31
0.0
  0
LINE
  5
20D
100
AcDbEntity
  8
0
  6
CONTINUOUS
 62
               4
100
AcDbLine
 10
-20.491119384765625
 20
22.665023717447895
 30
0.0
 11
-24.500015258789063
 21
22.665023717447895
 31
0.0
  0
LINE
  5
20E
100
AcDbEntity
  8
0
  6
CONTINUOUS
 62
               4
100
AcDbLine
 10
-20.874298095703125
 20
21.235015782877582
 30
0.0
 11
-24.500015258789063
 21
21.235015782877582
 31
0.0
  0
LINE
  5
20F
100
AcDbEntity
  8
0
  6
CONTINUOUS
 62
               4
100
AcDbLine
 10
-21.160995483398438
 20
20.165023717447895
 30
0.0
 11
-24.500015258789063
 21
20.165023717447895
 31
0.0
  0
LINE
  5
210
100
AcDbEntity
  8
0
  6
CONTINUOUS
 62
               4
100
AcDbLine
 10
-21.544174194335937
 20
18.735015782877582
 30
0.0
 11
-24.500015258789063
 21
18.735015782877582
 31
0.0
  0
LINE
  5
211
100
AcDbEntity
  8
0
  6
CONTINUOUS
 62
               4
100
AcDbLine
 10
-24.5
 20
22.665008458658832
 30
0.0
 11
-24.5
 21
21.23500052408852
 31
0.0
  0
LINE
  5
212
100
AcDbEntity
  8
0
  6
CONTINUOUS
 62
               4
100
AcDbLine
 10
-24.5
 20
18.73500052408852
 30
0.0
 11
-24.5
 21
20.165008458658832
 31
0.0
  0
LINE
  5
213
100
AcDbEntity
  8
0
  6
CONTINUOUS
 62
               4
100
AcDbLine
 10
-29.5
 20
22.350006017252582
 30
0.0
 11
-29.5
 21
21.55000296549477
 31
0.0
  0
LINE
  5
214
100
AcDbEntity
  8
0
  6
CONTINUOUS
 62
               4
100
AcDbLine
 10
-24.500015258789063
 20
21.55000296549477
 30
0.0
 11
-29.5
 21
21.55000296549477
 31
0.0
  0
LINE
  5
215
100
AcDbEntity
  8
0
  6
CONTINUOUS
 62
               4
100
AcDbLine
 10
-24.500015258789063
 20
22.350006017252582
 30
0.0
 11
-29.5
 21
22.350006017252582
 31
0.0
  0
LINE
  5
216
100
AcDbEntity
  8
0
  6
CONTINUOUS
 62
               4
100
AcDbLine
 10
-16.5
 20
20.165023717447895
 30
0.0
 11
-20.125717163085938
 21
20.165023717447895
 31
0.0
  0
LINE
  5
217
100
AcDbEntity
  8
0
  6
CONTINUOUS
 62
               4
100
AcDbLine
 10
-16.5
 20
18.735015782877582
 30
0.0
 11
-20.508895874023438
 21
18.735015782877582
 31
0.0
  0
LINE
  5
218
100
AcDbEntity
  8
0
  6
CONTINUOUS
 62
               4
100
AcDbLine
 10
-16.5
 20
21.235015782877582
 30
0.0
 11
-19.839019775390625
 21
21.235015782877582
 31
0.0
  0
LINE
  5
219
100
AcDbEntity
  8
0
  6
CONTINUOUS
 62
               4
100
AcDbLine
 10
-16.5
 20
22.665023717447895
 30
0.0
 11
-19.455841064453125
 21
22.665023717447895
 31
0.0
  0
LINE
  5
21A
100
AcDbEntity
  8
0
  6
CONTINUOUS
 62
               4
100
AcDbLine
 10
-24.500015258789063
 20
19.05000296549477
 30
0.0
 11
-29.5
 21
19.05000296549477
 31
0.0
  0
LINE
  5
21B
100
AcDbEntity
  8
0
  6
CONTINUOUS
 62
               4
100
AcDbLine
 10
-24.500015258789063
 20
19.850006017252582
 30
0.0
 11
-29.5
 21
19.850006017252582
 31
0.0
  0
LINE
  5
21C
100
AcDbEntity
  8
0
  6
CONTINUOUS
 62
               4
100
AcDbLine
 10
-29.5
 20
19.05000296549477
 30
0.0
 11
-29.5
 21
19.850006017252582
 31
0.0
  0
LINE
  5
21D
100
AcDbEntity
  8
0
  6
CONTINUOUS
 62
               4
100
AcDbLine
 10
-15.0
 20
27.499999913736957
 30
0.0
 11
-16.5
 21
27.499999913736957
 31
0.0
  0
LINE
  5
21E
100
AcDbEntity
  8
0
  6
CONTINUOUS
 62
               4
100
AcDbLine
 10
-15.499999958178705
 20
25.499978352823547
 30
0.0
 11
-16.499994209762917
 21
26.077324672805645
 31
0.0
  0
LINE
  5
21F
100
AcDbEntity
  8
0
  6
CONTINUOUS
 62
               4
100
AcDbLine
 10
-10.0
 20
25.499999913736957
 30
0.0
 11
-16.5
 21
25.499999913736957
 31
0.0
  0
LINE
  5
220
100
AcDbEntity
  8
0
  6
CONTINUOUS
 62
               4
100
AcDbLine
 10
-5.998454579468671
 20
26.500071061293767
 30
0.0
 11
-9.5561426631575159
 21
27.000070384309566
 31
0.0
  0
LINE
  5
221
100
AcDbEntity
  8
0
  6
CONTINUOUS
 62
               4
100
AcDbLine
 10
-9.55615234375
 20
26.999999913736957
 30
0.0
 11
-15.0
 21
26.999999913736957
 31
0.0
  0
LINE
  5
222
100
AcDbEntity
  8
0
  6
CONTINUOUS
 62
               4
100
AcDbLine
 10
-15.5
 20
16.499999913736957
 30
0.0
 11
-15.5
 21
16.999999913736957
 31
0.0
  0
LINE
  5
223
100
AcDbEntity
  8
0
  6
CONTINUOUS
 62
               4
100
AcDbLine
 10
-15.5
 20
16.499999913736957
 30
0.0
 11
-16.5
 21
16.499999913736957
 31
0.0
  0
LINE
  5
224
100
AcDbEntity
  8
0
  6
CONTINUOUS
 62
               4
100
AcDbLine
 10
-10.0
 20
16.999999913736957
 30
0.0
 11
-15.5
 21
16.999999913736957
 31
0.0
  0
LINE
  5
225
100
AcDbEntity
  8
0
  6
CONTINUOUS
 62
               4
100
AcDbLine
 10
-15.0
 20
26.999999913736957
 30
0.0
 11
-15.0
 21
27.499999913736957
 31
0.0
  0
LINE
  5
226
100
AcDbEntity
  8
0
  6
CONTINUOUS
 62
               4
100
AcDbLine
 10
-5.9984588623046875
 20
25.499999913736957
 30
0.0
 11
-5.9984588623046875
 21
26.499999913736957
 31
0.0
  0
LINE
  5
227
100
AcDbEntity
  8
0
  6
CONTINUOUS
 62
               4
100
AcDbLine
 10
-16.5
 20
26.07734671549477
 30
0.0
 11
-16.5
 21
27.499999913736957
 31
0.0
  0
LINE
  5
228
100
AcDbEntity
  8
0
  6
CONTINUOUS
 62
               4
100
AcDbLine
 10
-10.0
 20
25.449996861979145
 30
0.0
 11
-10.0
 21
25.499999913736957
 31
0.0
  0
LINE
  5
229
100
AcDbEntity
  8
0
  6
CONTINUOUS
 62
               4
100
AcDbLine
 10
-16.5
 20
16.499999913736957
 30
0.0
 11
-16.5
 21
25.499999913736957
 31
0.0
  0
ENDBLK
  5
22A
100
AcDbEntity
  8
0
100
AcDbBlockEnd
  0
BLOCK
  5
22B
100
AcDbEntity
  8
0
100
AcDbBlockBegin
  2
F10T-7
 70
               0
 10
0.0
 20
0.0
 30
0.0
  3
F10T-7
  1

  0
LINE
  5
22C
100
AcDbEntity
  8
0
  6
CONTINUOUS
 62
               4
100
AcDbLine
 10
-26.999999999999993
 20
23.99999491373697
 30
0.0
 11
-26.999999999999993
 21
-0.0000050862630303
 31
0.0
  0
LINE
  5
22D
100
AcDbEntity
  8
0
  6
CONTINUOUS
 62
               4
100
AcDbLine
 10
0.0000000000000107
 20
16.99999491373697
 30
0.0
 11
0.0
 21
0.0
 31
0.0
  0
LINE
  5
22E
100
AcDbEntity
  8
0
  6
CONTINUOUS
 62
               4
100
AcDbLine
 10
-1.3999999999999844
 20
16.99999491373697
 30
0.0
 11
-1.3999999999999844
 21
25.499994909445434
 31
0.0
  0
LINE
  5
22F
100
AcDbEntity
  8
0
  6
CONTINUOUS
 62
               4
100
AcDbLine
 10
10.000000000000021
 20
25.49999491373697
 30
0.0
 11
10.000000000000021
 21
16.99999491373697
 31
0.0
  0
LINE
  5
230
100
AcDbEntity
  8
0
  6
CONTINUOUS
 62
               4
100
AcDbLine
 10
10.000000000000021
 20
25.49999491373697
 30
0.0
 11
-1.3999999999999844
 21
25.49999491373697
 31
0.0
  0
LINE
  5
231
100
AcDbEntity
  8
0
  6
CONTINUOUS
 62
               4
100
AcDbLine
 10
10.000000000000021
 20
16.99999491373697
 30
0.0
 11
-1.3999999999999844
 21
16.99999491373697
 31
0.0
  0
LINE
  5
232
100
AcDbEntity
  8
0
  6
CONTINUOUS
 62
               4
100
AcDbLine
 10
-26.999999999999993
 20
23.99999491373697
 30
0.0
 11
-1.3999999999999844
 21
23.99999491373697
 31
0.0
  0
LINE
  5
233
100
AcDbEntity
  8
0
  6
CONTINUOUS
 62
               4
100
AcDbLine
 10
-14.295000000000002
 20
23.99999491373697
 30
0.0
 11
-12.795000000000002
 21
23.99999491373697
 31
0.0
  0
LINE
  5
234
100
AcDbEntity
  8
0
  6
CONTINUOUS
 62
               4
100
AcDbLine
 10
-1.4999999999999893
 20
25.599994913736964
 30
0.0
 11
3.0000000000000213
 21
25.599994913736964
 31
0.0
  0
ARC
  5
235
100
AcDbEntity
  8
0
  6
CONTINUOUS
 62
               4
100
AcDbCircle
 10
2.5015404500182896
 20
32.501535363755238
 30
0.0
 40
0.4984619302958243
100
AcDbArc
 50
359.82293246539683
 51
90.17706753460169
  0
LINE
  5
236
100
AcDbEntity
  8
0
  6
CONTINUOUS
 62
               4
100
AcDbLine
 10
3.0000000000000213
 20
32.49999491373697
 30
0.0
 11
3.0000000000000213
 21
25.599994913736964
 31
0.0
  0
LINE
  5
237
100
AcDbEntity
  8
0
  6
CONTINUOUS
 62
               4
100
AcDbLine
 10
-1.4999999999999893
 20
25.599994913736964
 30
0.0
 11
-1.4999999999999893
 21
23.99999491373697
 31
0.0
  0
ARC
  5
238
100
AcDbEntity
  8
0
  6
CONTINUOUS
 62
               4
100
AcDbCircle
 10
-25.501123948313886
 20
28.179389315853996
 30
0.0
 40
1.4988865337462252
100
AcDbArc
 50
155.96009555676497
 51
179.78572237337372
  0
ARC
  5
239
100
AcDbEntity
  8
0
  6
CONTINUOUS
 62
               4
100
AcDbCircle
 10
-24.675687863874497
 20
32.502666025814563
 30
0.0
 40
0.4973293636201366
100
AcDbArc
 50
89.920753302865904
 51
155.99409641136279
  0
LINE
  5
23A
100
AcDbEntity
  8
0
  6
CONTINUOUS
 62
               4
100
AcDbLine
 10
-25.129999999999992
 20
32.704994913736954
 30
0.0
 11
-26.870000000000001
 21
28.789994913736962
 31
0.0
  0
LINE
  5
23B
100
AcDbEntity
  8
0
  6
CONTINUOUS
 62
               4
100
AcDbLine
 10
-24.674999999999986
 20
32.99999491373697
 30
0.0
 11
2.5030809000333001
 21
32.99999491373697
 31
0.0
  0
LINE
  5
23C
100
AcDbEntity
  8
0
  6
CONTINUOUS
 62
               4
100
AcDbLine
 10
-26.999999999999996
 20
28.184994913736944
 30
0.0
 11
-26.999999999999996
 21
23.99999491373697
 31
0.0
  0
LINE
  5
23D
100
AcDbEntity
  8
0
  6
CONTINUOUS
 62
             200
100
AcDbLine
 10
20.08921456599456
 20
24.164991126888395
 30
0.0
 11
21.946103769656482
 21
17.234986332879686
 31
0.0
  0
LINE
  5
23E
100
AcDbEntity
  8
0
  6
CONTINUOUS
 62
             200
100
AcDbLine
 10
19.053935707233002
 20
24.165001172564786
 30
0.0
 11
20.910828860160116
 21
17.23498163969785
 31
0.0
  0
LINE
  5
23F
100
AcDbEntity
  8
0
  6
CONTINUOUS
 62
               4
100
AcDbLine
 10
20.491119384765632
 20
22.665018717447907
 30
0.0
 11
24.50001525878907
 21
22.665018717447907
 31
0.0
  0
LINE
  5
240
100
AcDbEntity
  8
0
  6
CONTINUOUS
 62
               4
100
AcDbLine
 10
20.874298095703132
 20
21.235010782877595
 30
0.0
 11
24.50001525878907
 21
21.235010782877595
 31
0.0
  0
LINE
  5
241
100
AcDbEntity
  8
0
  6
CONTINUOUS
 62
               4
100
AcDbLine
 10
21.160995483398445
 20
20.165018717447907
 30
0.0
 11
24.50001525878907
 21
20.165018717447907
 31
0.0
  0
LINE
  5
242
100
AcDbEntity
  8
0
  6
CONTINUOUS
 62
               4
100
AcDbLine
 10
21.544174194335945
 20
18.735010782877595
 30
0.0
 11
24.50001525878907
 21
18.735010782877595
 31
0.0
  0
LINE
  5
243
100
AcDbEntity
  8
0
  6
CONTINUOUS
 62
               4
100
AcDbLine
 10
24.500000000000007
 20
22.665003458658845
 30
0.0
 11
24.500000000000007
 21
21.234995524088532
 31
0.0
  0
LINE
  5
244
100
AcDbEntity
  8
0
  6
CONTINUOUS
 62
               4
100
AcDbLine
 10
24.500000000000007
 20
18.734995524088532
 30
0.0
 11
24.500000000000007
 21
20.165003458658845
 31
0.0
  0
LINE
  5
245
100
AcDbEntity
  8
0
  6
CONTINUOUS
 62
               4
100
AcDbLine
 10
29.500000000000007
 20
22.350001017252595
 30
0.0
 11
29.500000000000007
 21
21.549997965494782
 31
0.0
  0
LINE
  5
246
100
AcDbEntity
  8
0
  6
CONTINUOUS
 62
               4
100
AcDbLine
 10
24.50001525878907
 20
21.549997965494782
 30
0.0
 11
29.500000000000007
 21
21.549997965494782
 31
0.0
  0
LINE
  5
247
100
AcDbEntity
  8
0
  6
CONTINUOUS
 62
               4
100
AcDbLine
 10
24.50001525878907
 20
22.350001017252595
 30
0.0
 11
29.500000000000007
 21
22.350001017252595
 31
0.0
  0
LINE
  5
248
100
AcDbEntity
  8
0
  6
CONTINUOUS
 62
               4
100
AcDbLine
 10
16.500000000000007
 20
20.165018717447907
 30
0.0
 11
20.125717163085945
 21
20.165018717447907
 31
0.0
  0
LINE
  5
249
100
AcDbEntity
  8
0
  6
CONTINUOUS
 62
               4
100
AcDbLine
 10
16.500000000000007
 20
18.735010782877595
 30
0.0
 11
20.508895874023445
 21
18.735010782877595
 31
0.0
  0
LINE
  5
24A
100
AcDbEntity
  8
0
  6
CONTINUOUS
 62
               4
100
AcDbLine
 10
16.500000000000007
 20
21.235010782877595
 30
0.0
 11
19.839019775390632
 21
21.235010782877595
 31
0.0
  0
LINE
  5
24B
100
AcDbEntity
  8
0
  6
CONTINUOUS
 62
               4
100
AcDbLine
 10
16.500000000000007
 20
22.665018717447907
 30
0.0
 11
19.455841064453132
 21
22.665018717447907
 31
0.0
  0
LINE
  5
24C
100
AcDbEntity
  8
0
  6
CONTINUOUS
 62
               4
100
AcDbLine
 10
24.50001525878907
 20
19.049997965494782
 30
0.0
 11
29.500000000000007
 21
19.049997965494782
 31
0.0
  0
LINE
  5
24D
100
AcDbEntity
  8
0
  6
CONTINUOUS
 62
               4
100
AcDbLine
 10
24.50001525878907
 20
19.850001017252595
 30
0.0
 11
29.500000000000007
 21
19.850001017252595
 31
0.0
  0
LINE
  5
24E
100
AcDbEntity
  8
0
  6
CONTINUOUS
 62
               4
100
AcDbLine
 10
29.500000000000007
 20
19.049997965494782
 30
0.0
 11
29.500000000000007
 21
19.850001017252595
 31
0.0
  0
LINE
  5
24F
100
AcDbEntity
  8
0
  6
CONTINUOUS
 62
               4
100
AcDbLine
 10
15.000000000000007
 20
27.49999491373697
 30
0.0
 11
16.500000000000007
 21
27.49999491373697
 31
0.0
  0
LINE
  5
250
100
AcDbEntity
  8
0
  6
CONTINUOUS
 62
               4
100
AcDbLine
 10
15.499999958178712
 20
25.499973352823559
 30
0.0
 11
16.499994209762924
 21
26.077319672805658
 31
0.0
  0
LINE
  5
251
100
AcDbEntity
  8
0
  6
CONTINUOUS
 62
               4
100
AcDbLine
 10
10.000000000000007
 20
25.49999491373697
 30
0.0
 11
16.500000000000007
 21
25.49999491373697
 31
0.0
  0
LINE
  5
252
100
AcDbEntity
  8
0
  6
CONTINUOUS
 62
               4
100
AcDbLine
 10
5.9984545794686781
 20
26.500066061293779
 30
0.0
 11
9.556142663157523
 21
27.000065384309579
 31
0.0
  0
LINE
  5
253
100
AcDbEntity
  8
0
  6
CONTINUOUS
 62
               4
100
AcDbLine
 10
9.5561523437500071
 20
26.99999491373697
 30
0.0
 11
15.000000000000007
 21
26.99999491373697
 31
0.0
  0
LINE
  5
254
100
AcDbEntity
  8
0
  6
CONTINUOUS
 62
               4
100
AcDbLine
 10
15.500000000000007
 20
16.49999491373697
 30
0.0
 11
15.500000000000007
 21
16.99999491373697
 31
0.0
  0
LINE
  5
255
100
AcDbEntity
  8
0
  6
CONTINUOUS
 62
               4
100
AcDbLine
 10
15.500000000000007
 20
16.49999491373697
 30
0.0
 11
16.500000000000007
 21
16.49999491373697
 31
0.0
  0
LINE
  5
256
100
AcDbEntity
  8
0
  6
CONTINUOUS
 62
               4
100
AcDbLine
 10
10.000000000000007
 20
16.99999491373697
 30
0.0
 11
15.500000000000007
 21
16.99999491373697
 31
0.0
  0
LINE
  5
257
100
AcDbEntity
  8
0
  6
CONTINUOUS
 62
               4
100
AcDbLine
 10
15.000000000000007
 20
26.99999491373697
 30
0.0
 11
15.000000000000007
 21
27.49999491373697
 31
0.0
  0
LINE
  5
258
100
AcDbEntity
  8
0
  6
CONTINUOUS
 62
               4
100
AcDbLine
 10
5.9984588623046946
 20
25.49999491373697
 30
0.0
 11
5.9984588623046946
 21
26.49999491373697
 31
0.0
  0
LINE
  5
259
100
AcDbEntity
  8
0
  6
CONTINUOUS
 62
               4
100
AcDbLine
 10
16.500000000000007
 20
26.077341715494782
 30
0.0
 11
16.500000000000007
 21
27.49999491373697
 31
0.0
  0
LINE
  5
25A
100
AcDbEntity
  8
0
  6
CONTINUOUS
 62
               4
100
AcDbLine
 10
10.000000000000007
 20
25.449991861979157
 30
0.0
 11
10.000000000000007
 21
25.49999491373697
 31
0.0
  0
LINE
  5
25B
100
AcDbEntity
  8
0
  6
CONTINUOUS
 62
               4
100
AcDbLine
 10
16.500000000000007
 20
16.49999491373697
 30
0.0
 11
16.500000000000007
 21
25.49999491373697
 31
0.0
  0
ENDBLK
  5
25C
100
AcDbEntity
  8
0
100
AcDbBlockEnd
  0
BLOCK
  5
25D
100
AcDbEntity
  8
0
100
AcDbBlockBegin
  2
F10T-8
 70
               0
 10
0.0
 20
0.0
 30
0.0
  3
F10T-8
  1

  0
LINE
  5
25E
100
AcDbEntity
  8
0
  6
CENTER
 62
               2
100
AcDbLine
 10
-4.0
 20
-44.0
 30
0.0
 11
4.0
 21
-44.0
 31
0.0
  0
LINE
  5
25F
100
AcDbEntity
  8
0
  6
CENTER
 62
               2
100
AcDbLine
 10
-4.0
 20
0.0
 30
0.0
 11
4.0
 21
0.0
 31
0.0
  0
LINE
  5
260
100
AcDbEntity
  8
0
  6
CONTINUOUS
 62
               7
100
AcDbLine
 10
51.5
 20
3.499983978271473
 30
0.0
 11
50.199996948242187
 21
3.499983978271473
 31
0.0
  0
LINE
  5
261
100
AcDbEntity
  8
0
  6
CENTER
 62
               2
100
AcDbLine
 10
53.5
 20
9.699996185302723
 30
0.0
 11
50.800003051757813
 21
9.699996185302723
 31
0.0
  0
LINE
  5
262
100
AcDbEntity
  8
0
  6
CONTINUOUS
 62
               7
100
AcDbLine
 10
52.5
 20
7.749983978271473
 30
0.0
 11
52.5
 21
9.3999931335449105
 31
0.0
  0
LINE
  5
263
100
AcDbEntity
  8
0
  6
CONTINUOUS
 62
               7
100
AcDbLine
 10
52.5
 20
7.7499992370605355
 30
0.0
 11
51.5
 21
7.7499992370605355
 31
0.0
  0
LINE
  5
264
100
AcDbEntity
  8
0
  6
CONTINUOUS
 62
               7
100
AcDbLine
 10
52.5
 20
11.649993133544911
 30
0.0
 11
51.5
 21
11.649993133544911
 31
0.0
  0
LINE
  5
265
100
AcDbEntity
  8
0
  6
CONTINUOUS
 62
               7
100
AcDbLine
 10
51.899993896484375
 20
9.3999931335449105
 30
0.0
 11
51.899993896484375
 21
9.999983978271473
 31
0.0
  0
LINE
  5
266
100
AcDbEntity
  8
0
  6
CONTINUOUS
 62
               7
100
AcDbLine
 10
52.5
 20
9.3999931335449105
 30
0.0
 11
51.899993896484375
 21
9.3999931335449105
 31
0.0
  0
LINE
  5
267
100
AcDbEntity
  8
0
  6
CONTINUOUS
 62
               7
100
AcDbLine
 10
52.5
 20
9.9999992370605355
 30
0.0
 11
51.899993896484375
 21
9.9999992370605355
 31
0.0
  0
LINE
  5
268
100
AcDbEntity
  8
0
  6
CONTINUOUS
 62
               7
100
AcDbLine
 10
52.5
 20
9.999983978271473
 30
0.0
 11
52.5
 21
11.649993133544911
 31
0.0
  0
LINE
  5
269
100
AcDbEntity
  8
0
  6
CONTINUOUS
 62
               7
100
AcDbLine
 10
51.5
 20
-5.6000068664550895
 30
0.0
 11
51.5
 21
12.999983978271473
 31
0.0
  0
LINE
  5
26A
100
AcDbEntity
  8
0
  6
CONTINUOUS
 62
               7
100
AcDbLine
 10
24.5
 20
-52.599991607666013
 30
0.0
 11
24.5
 21
12.999983978271473
 31
0.0
  0
LINE
  5
26B
100
AcDbEntity
  8
0
  6
CONTINUOUS
 62
               7
100
AcDbLine
 10
49.5000037319993
 20
-38.399995430533679
 30
0.0
 11
49.099997305627426
 21
-37.999996658079041
 31
0.0
  0
LINE
  5
26C
100
AcDbEntity
  8
0
  6
CONTINUOUS
 62
               7
100
AcDbLine
 10
49.500006743494851
 20
-45.600006057196353
 30
0.0
 11
49.100005105035962
 21
-46.000009617563975
 31
0.0
  0
LINE
  5
26D
100
AcDbEntity
  8
0
  6
CONTINUOUS
 62
               7
100
AcDbLine
 10
49.5
 20
-45.599991607666013
 30
0.0
 11
49.5
 21
-38.399998474121091
 31
0.0
  0
LINE
  5
26E
100
AcDbEntity
  8
0
  6
CONTINUOUS
 62
               7
100
AcDbLine
 10
43.5
 20
-6.0000007629394645
 30
0.0
 11
43.5
 21
-38.00000076293945
 31
0.0
  0
LINE
  5
26F
100
AcDbEntity
  8
0
  6
CONTINUOUS
 62
               7
100
AcDbLine
 10
49.100006103515625
 20
-38.00000076293945
 30
0.0
 11
24.5
 21
-38.00000076293945
 31
0.0
  0
LINE
  5
270
100
AcDbEntity
  8
0
  6
CONTINUOUS
 62
               7
100
AcDbLine
 10
51.100006103515625
 20
-6.0000007629394645
 30
0.0
 11
24.5
 21
-6.0000007629394645
 31
0.0
  0
LINE
  5
271
100
AcDbEntity
  8
0
  6
CONTINUOUS
 62
               7
100
AcDbLine
 10
48.5
 20
-6.6000068664550895
 30
0.0
 11
48.5
 21
-37.399998474121091
 31
0.0
  0
LINE
  5
272
100
AcDbEntity
  8
0
  6
CONTINUOUS
 62
               7
100
AcDbLine
 10
48.100006103515625
 20
-6.199997711181652
 30
0.0
 11
43.5
 21
-6.199997711181652
 31
0.0
  0
LINE
  5
273
100
AcDbEntity
  8
0
  6
CONTINUOUS
 62
               7
100
AcDbLine
 10
48.100006103515625
 20
-37.799996185302732
 30
0.0
 11
43.5
 21
-37.799996185302732
 31
0.0
  0
LINE
  5
274
100
AcDbEntity
  8
0
  6
CONTINUOUS
 62
               7
100
AcDbLine
 10
49.100006103515625
 20
-46.00000076293945
 30
0.0
 11
24.5
 21
-46.00000076293945
 31
0.0
  0
LINE
  5
275
100
AcDbEntity
  8
0
  6
CONTINUOUS
 62
               7
100
AcDbLine
 10
48.5
 20
-52.599991607666013
 30
0.0
 11
48.5
 21
-46.00000076293945
 31
0.0
  0
LINE
  5
276
100
AcDbEntity
  8
0
  6
CONTINUOUS
 62
               7
100
AcDbLine
 10
48.100006103515625
 20
-53.00000076293945
 30
0.0
 11
24.900009155273438
 21
-53.00000076293945
 31
0.0
  0
LINE
  5
277
100
AcDbEntity
  8
0
  6
CONTINUOUS
 62
               7
100
AcDbLine
 10
51.5
 20
1.4999992370605355
 30
0.0
 11
24.5
 21
1.4999992370605355
 31
0.0
  0
LINE
  5
278
100
AcDbEntity
  8
0
  6
CONTINUOUS
 62
               7
100
AcDbLine
 10
43.300003051757813
 20
-53.00000076293945
 30
0.0
 11
43.300003051757813
 21
-52.00000076293945
 31
0.0
  0
LINE
  5
279
100
AcDbEntity
  8
0
  6
CONTINUOUS
 62
               7
100
AcDbLine
 10
43.300003051757813
 20
-52.00000076293945
 30
0.0
 11
40.100006103515625
 21
-52.00000076293945
 31
0.0
  0
LINE
  5
27A
100
AcDbEntity
  8
0
  6
CONTINUOUS
 62
               7
100
AcDbLine
 10
42.45001220703125
 20
-52.50000076293945
 30
0.0
 11
40.95001220703125
 21
-52.50000076293945
 31
0.0
  0
LINE
  5
27B
100
AcDbEntity
  8
0
  6
CONTINUOUS
 62
               7
100
AcDbLine
 10
48.5
 20
-44.00000076293945
 30
0.0
 11
46.5
 21
-44.00000076293945
 31
0.0
  0
LINE
  5
27C
100
AcDbEntity
  8
0
  6
CONTINUOUS
 62
               7
100
AcDbLine
 10
48.5
 20
-40.00000076293945
 30
0.0
 11
46.5
 21
-40.00000076293945
 31
0.0
  0
LINE
  5
27D
100
AcDbEntity
  8
0
  6
CONTINUOUS
 62
               7
100
AcDbLine
 10
47.5
 20
-44.100001144409177
 30
0.0
 11
47.5
 21
-44.00000076293945
 31
0.0
  0
LINE
  5
27E
100
AcDbEntity
  8
0
  6
CONTINUOUS
 62
               7
100
AcDbLine
 10
46.5
 20
-46.00000076293945
 30
0.0
 11
46.5
 21
-44.00000076293945
 31
0.0
  0
LINE
  5
27F
100
AcDbEntity
  8
0
  6
CONTINUOUS
 62
               7
100
AcDbLine
 10
47.5
 20
-40.00000076293945
 30
0.0
 11
47.5
 21
-39.900000381469724
 31
0.0
  0
LINE
  5
280
100
AcDbEntity
  8
0
  6
CONTINUOUS
 62
               7
100
AcDbLine
 10
46.5
 20
-40.00000076293945
 30
0.0
 11
46.5
 21
-37.999996948242185
 31
0.0
  0
LINE
  5
281
100
AcDbEntity
  8
0
  6
CONTINUOUS
 62
               7
100
AcDbLine
 10
46.600006103515625
 20
-46.00000076293945
 30
0.0
 11
46.600006103515625
 21
-44.100001144409177
 31
0.0
  0
LINE
  5
282
100
AcDbEntity
  8
0
  6
CONTINUOUS
 62
               7
100
AcDbLine
 10
49.100006103515625
 20
-46.000016021728513
 30
0.0
 11
49.100006103515625
 21
-37.999996948242185
 31
0.0
  0
LINE
  5
283
100
AcDbEntity
  8
0
  6
CONTINUOUS
 62
               7
100
AcDbLine
 10
49.100006103515625
 20
-44.100001144409177
 30
0.0
 11
46.600006103515625
 21
-44.100001144409177
 31
0.0
  0
LINE
  5
284
100
AcDbEntity
  8
0
  6
CONTINUOUS
 62
               7
100
AcDbLine
 10
49.100006103515625
 20
-39.900000381469724
 30
0.0
 11
46.600006103515625
 21
-39.900000381469724
 31
0.0
  0
LINE
  5
285
100
AcDbEntity
  8
0
  6
CONTINUOUS
 62
               7
100
AcDbLine
 10
46.600006103515625
 20
-39.900000381469724
 30
0.0
 11
46.600006103515625
 21
-38.00000076293945
 31
0.0
  0
LINE
  5
286
100
AcDbEntity
  8
0
  6
CONTINUOUS
 62
               7
100
AcDbLine
 10
48.5
 20
-44.100001144409177
 30
0.0
 11
48.5
 21
-39.900000381469724
 31
0.0
  0
LINE
  5
287
100
AcDbEntity
  8
0
  6
CONTINUOUS
 62
               7
100
AcDbLine
 10
48.5
 20
-33.199999618530271
 30
0.0
 11
43.5
 21
-33.199999618530271
 31
0.0
  0
LINE
  5
288
100
AcDbEntity
  8
0
  6
CONTINUOUS
 62
               7
100
AcDbLine
 10
44.0
 20
-34.049996185302732
 30
0.0
 11
44.0
 21
-35.549996185302732
 31
0.0
  0
LINE
  5
289
100
AcDbEntity
  8
0
  6
CONTINUOUS
 62
               7
100
AcDbLine
 10
24.0
 20
-47.00000076293945
 30
0.0
 11
24.0
 21
2.9999992370605355
 31
0.0
  0
LINE
  5
28A
100
AcDbEntity
  8
0
  6
CONTINUOUS
 62
               7
100
AcDbLine
 10
0.0
 20
-47.00000076293945
 30
0.0
 11
0.0
 21
2.9999992370605355
 31
0.0
  0
LINE
  5
28B
100
AcDbEntity
  8
0
  6
CONTINUOUS
 62
               7
100
AcDbLine
 10
24.0
 20
-47.00000076293945
 30
0.0
 11
0.0
 21
-47.00000076293945
 31
0.0
  0
LINE
  5
28C
100
AcDbEntity
  8
0
  6
CONTINUOUS
 62
               7
100
AcDbLine
 10
24.0
 20
2.9999992370605355
 30
0.0
 11
0.0
 21
2.9999992370605355
 31
0.0
  0
LINE
  5
28D
100
AcDbEntity
  8
0
  6
CENTER
 62
               2
100
AcDbLine
 10
7.5
 20
-34.064000892639157
 30
0.0
 11
7.5
 21
-22.336001205444333
 31
0.0
  0
LINE
  5
28E
100
AcDbEntity
  8
0
  6
CONTINUOUS
 62
               7
100
AcDbLine
 10
40.100006103515625
 20
-53.00000076293945
 30
0.0
 11
40.100006103515625
 21
-52.00000076293945
 31
0.0
  0
LINE
  5
28F
100
AcDbEntity
  8
0
  6
CENTER
 62
               2
100
AcDbLine
 10
20.363998413085938
 20
-15.799999999999997
 30
0.0
 11
8.6360015869140625
 21
-15.799999999999997
 31
0.0
  0
LINE
  5
290
100
AcDbEntity
  8
0
  6
CENTER
 62
               2
100
AcDbLine
 10
14.5
 20
-21.664001274108884
 30
0.0
 11
14.5
 21
-9.9360054016113395
 31
0.0
  0
LINE
  5
291
100
AcDbEntity
  8
0
  6
CENTER
 62
               2
100
AcDbLine
 10
13.363998413085938
 20
-28.200001525878903
 30
0.0
 11
1.6360015869140625
 21
-28.200001525878903
 31
0.0
  0
LINE
  5
292
100
AcDbEntity
  8
0
  6
CONTINUOUS
 62
               7
100
AcDbLine
 10
25.5
 20
1.4999992370605355
 30
0.0
 11
25.5
 21
3.499983978271473
 31
0.0
  0
LINE
  5
293
100
AcDbEntity
  8
0
  6
CONTINUOUS
 62
               7
100
AcDbLine
 10
28.0
 20
1.4999992370605355
 30
0.0
 11
28.0
 21
3.499983978271473
 31
0.0
  0
LINE
  5
294
100
AcDbEntity
  8
0
  6
CONTINUOUS
 62
               7
100
AcDbLine
 10
47.199996948242188
 20
1.4999992370605355
 30
0.0
 11
47.199996948242188
 21
3.499983978271473
 31
0.0
  0
LINE
  5
295
100
AcDbEntity
  8
0
  6
CONTINUOUS
 62
               7
100
AcDbLine
 10
50.199996948242187
 20
1.4999992370605355
 30
0.0
 11
50.199996948242187
 21
3.499983978271473
 31
0.0
  0
LINE
  5
296
100
AcDbEntity
  8
0
  6
CONTINUOUS
 62
               7
100
AcDbLine
 10
25.5
 20
3.499983978271473
 30
0.0
 11
24.5
 21
3.499983978271473
 31
0.0
  0
LINE
  5
297
100
AcDbEntity
  8
0
  6
CONTINUOUS
 62
               7
100
AcDbLine
 10
47.199996948242188
 20
3.499983978271473
 30
0.0
 11
28.0
 21
3.499983978271473
 31
0.0
  0
ARC
  5
298
100
AcDbEntity
  8
0
  6
CONTINUOUS
 62
               7
100
AcDbCircle
 10
24.900009155273438
 20
-52.599991607666013
 30
0.0
 40
0.4000000357627869
100
AcDbArc
 50
180.0000359721783
 51
270.00007262760209
  0
ARC
  5
299
100
AcDbEntity
  8
0
  6
CONTINUOUS
 62
               7
100
AcDbCircle
 10
48.100006103515625
 20
-52.599991607666013
 30
0.0
 40
0.4000000357627869
100
AcDbArc
 50
270.00007262760209
 51
0.0000409811350201
  0
ARC
  5
29A
100
AcDbEntity
  8
0
  6
CONTINUOUS
 62
               7
100
AcDbCircle
 10
48.100006103515625
 20
-37.400002288818357
 30
0.0
 40
0.4000000357627869
100
AcDbArc
 50
270.00001798608872
 51
0.0000409811350201
  0
ARC
  5
29B
100
AcDbEntity
  8
0
  6
CONTINUOUS
 62
               7
100
AcDbCircle
 10
48.100006103515625
 20
-6.6000068664550895
 30
0.0
 40
0.4000000357627869
100
AcDbArc
 50
0.0000546415133601
 51
90.000036655423813
  0
ARC
  5
29C
100
AcDbEntity
  8
0
  6
CONTINUOUS
 62
               7
100
AcDbCircle
 10
51.100006103515625
 20
-5.6000068664550895
 30
0.0
 40
0.4000000357627869
100
AcDbArc
 50
270.00007262760209
 51
0.0000409811350201
  0
ARC
  5
29D
100
AcDbEntity
  8
0
  6
CONTINUOUS
 62
               7
100
AcDbCircle
 10
40.95001220703125
 20
-52.00000076293945
 30
0.0
 40
0.5
100
AcDbArc
 50
180.0000359721783
 51
270.00001798608872
  0
ARC
  5
29E
100
AcDbEntity
  8
0
  6
CONTINUOUS
 62
               7
100
AcDbCircle
 10
42.45001220703125
 20
-52.00000076293945
 30
0.0
 40
0.5
100
AcDbArc
 50
270.00001798608872
 51
0.0000546415133601
  0
ARC
  5
29F
100
AcDbEntity
  8
0
  6
CONTINUOUS
 62
               7
100
AcDbCircle
 10
43.5
 20
-35.549996185302732
 30
0.0
 40
0.5
100
AcDbArc
 50
269.99996334457541
 51
359.99994535848583
  0
ARC
  5
2A0
100
AcDbEntity
  8
0
  6
CONTINUOUS
 62
               7
100
AcDbCircle
 10
43.5
 20
-34.049996185302732
 30
0.0
 40
0.5
100
AcDbArc
 50
359.99994535848583
 51
89.999982013910454
  0
CIRCLE
  5
2A1
100
AcDbEntity
  8
0
  6
CONTINUOUS
 62
               2
100
AcDbCircle
 10
7.5
 20
-28.200001525878903
 30
0.0
 40
4.8639993667602539
  0
CIRCLE
  5
2A2
100
AcDbEntity
  8
0
  6
CONTINUOUS
 62
               7
100
AcDbCircle
 10
7.5
 20
-28.200001525878903
 30
0.0
 40
4.2829999923706055
  0
CIRCLE
  5
2A3
100
AcDbEntity
  8
0
  6
CONTINUOUS
 62
               2
100
AcDbCircle
 10
14.5
 20
-15.799999999999997
 30
0.0
 40
4.8639993667602539
  0
CIRCLE
  5
2A4
100
AcDbEntity
  8
0
  6
CONTINUOUS
 62
               7
100
AcDbCircle
 10
14.5
 20
-15.799999999999997
 30
0.0
 40
4.2829999923706055
  0
LINE
  5
2A5
100
AcDbEntity
  8
0
  6
CONTINUOUS
 62
               4
100
AcDbLine
 10
51.5
 20
12.999983978271473
 30
0.0
 11
51.5
 21
36.999983978271473
 31
0.0
  0
LINE
  5
2A6
100
AcDbEntity
  8
0
  6
CONTINUOUS
 62
               4
100
AcDbLine
 10
24.5
 20
12.999983978271473
 30
0.0
 11
24.5
 21
36.999983978271473
 31
0.0
  0
LINE
  5
2A7
100
AcDbEntity
  8
0
  6
CONTINUOUS
 62
               4
100
AcDbLine
 10
24.499986267089866
 20
45.499983978271473
 30
0.0
 11
24.499986267089866
 21
36.999983978271473
 31
0.0
  0
LINE
  5
2A8
100
AcDbEntity
  8
0
  6
CONTINUOUS
 62
               4
100
AcDbLine
 10
36.749986267089866
 20
37.499983978271473
 30
0.0
 11
36.749986267089866
 21
36.999983978271473
 31
0.0
  0
LINE
  5
2A9
100
AcDbEntity
  8
0
  6
CONTINUOUS
 62
               4
100
AcDbLine
 10
39.249986267089866
 20
37.499983978271473
 30
0.0
 11
39.249986267089866
 21
36.999983978271473
 31
0.0
  0
LINE
  5
2AA
100
AcDbEntity
  8
0
  6
CONTINUOUS
 62
               4
100
AcDbLine
 10
44.499986267089866
 20
39.399983978271507
 30
0.0
 11
44.499986267089866
 21
38.449983978271518
 31
0.0
  0
LINE
  5
2AB
100
AcDbEntity
  8
0
  6
CONTINUOUS
 62
               4
100
AcDbLine
 10
31.599986267089832
 20
39.399983978271507
 30
0.0
 11
31.599986267089832
 21
38.449983978271518
 31
0.0
  0
LINE
  5
2AC
100
AcDbEntity
  8
0
  6
CONTINUOUS
 62
               4
100
AcDbLine
 10
39.249986267089866
 20
37.499983978271473
 30
0.0
 11
36.749986267089866
 21
37.499983978271473
 31
0.0
  0
LINE
  5
2AD
100
AcDbEntity
  8
0
  6
CONTINUOUS
 62
               4
100
AcDbLine
 10
46.599986267089832
 20
39.399983978271507
 30
0.0
 11
44.499986267089866
 21
39.399983978271507
 31
0.0
  0
LINE
  5
2AE
100
AcDbEntity
  8
0
  6
CONTINUOUS
 62
               4
100
AcDbLine
 10
31.599986267089832
 20
39.399983978271507
 30
0.0
 11
29.499986267089866
 21
39.399983978271507
 31
0.0
  0
LINE
  5
2AF
100
AcDbEntity
  8
0
  6
CONTINUOUS
 62
               4
100
AcDbLine
 10
51.499986267089866
 20
41.17998397827148
 30
0.0
 11
51.499986267089866
 21
36.999983978271473
 31
0.0
  0
LINE
  5
2B0
100
AcDbEntity
  8
0
  6
CONTINUOUS
 62
               4
100
AcDbLine
 10
49.174007105653914
 20
45.999983978271473
 30
0.0
 11
35.599986267089832
 21
45.999983978271473
 31
0.0
  0
LINE
  5
2B1
100
AcDbEntity
  8
0
  6
CONTINUOUS
 62
               4
100
AcDbLine
 10
49.629986267089862
 20
45.704983978271514
 30
0.0
 11
51.369986267089871
 21
41.789983978271493
 31
0.0
  0
ARC
  5
2B2
100
AcDbEntity
  8
0
  6
CONTINUOUS
 62
               4
100
AcDbCircle
 10
49.174007105653914
 20
45.500083915717767
 30
0.0
 40
0.4999010215015999
100
AcDbArc
 50
24.19737620890476
 51
89.999999999999815
  0
ARC
  5
2B3
100
AcDbEntity
  8
0
  6
CONTINUOUS
 62
               4
100
AcDbCircle
 10
50.002006662450412
 20
41.179594882200774
 30
0.0
 40
1.4979796551727449
100
AcDbArc
 50
0.0148824203654679
 51
24.046309772710686
  0
LINE
  5
2B4
100
AcDbEntity
  8
0
  6
CONTINUOUS
 62
               4
100
AcDbLine
 10
46.599986267089832
 20
39.399983978271507
 30
0.0
 11
46.599986267089832
 21
38.449983978271518
 31
0.0
  0
LINE
  5
2B5
100
AcDbEntity
  8
0
  6
CONTINUOUS
 62
               4
100
AcDbLine
 10
29.499986267089866
 20
39.399983978271507
 30
0.0
 11
29.499986267089866
 21
38.449983978271518
 31
0.0
  0
LINE
  5
2B6
100
AcDbEntity
  8
0
  6
CONTINUOUS
 62
               4
100
AcDbLine
 10
31.599986267089832
 20
38.449983978271518
 30
0.0
 11
29.499986267089866
 21
38.449983978271518
 31
0.0
  0
LINE
  5
2B7
100
AcDbEntity
  8
0
  6
CONTINUOUS
 62
               4
100
AcDbLine
 10
46.599986267089832
 20
38.449983978271518
 30
0.0
 11
44.499986267089866
 21
38.449983978271518
 31
0.0
  0
LINE
  5
2B8
100
AcDbEntity
  8
0
  6
CONTINUOUS
 62
               4
100
AcDbLine
 10
35.599986267089832
 20
50.499983978271473
 30
0.0
 11
35.599986267089832
 21
45.999983978271473
 31
0.0
  0
LINE
  5
2B9
100
AcDbEntity
  8
0
  6
CONTINUOUS
 62
               4
100
AcDbLine
 10
26.999986267089866
 20
50.499983978271473
 30
0.0
 11
26.999986267089866
 21
45.999983978271473
 31
0.0
  0
LINE
  5
2BA
100
AcDbEntity
  8
0
  6
CONTINUOUS
 62
               4
100
AcDbLine
 10
26.999986267089866
 20
45.999983978271473
 30
0.0
 11
24.999986267089866
 21
45.999983978271473
 31
0.0
  0
ARC
  5
2BB
100
AcDbEntity
  8
0
  6
CONTINUOUS
 62
               4
100
AcDbCircle
 10
24.999986267089866
 20
45.499983978271473
 30
0.0
 40
0.5
100
AcDbArc
 50
89.999999999999815
 51
179.99999999999963
  0
LINE
  5
2BC
100
AcDbEntity
  8
0
  6
CONTINUOUS
 62
               4
100
AcDbLine
 10
39.249986267089866
 20
37.499983978271473
 30
0.0
 11
39.249986267089866
 21
36.999983978271473
 31
0.0
  0
LINE
  5
2BD
100
AcDbEntity
  8
0
  6
CONTINUOUS
 62
               4
100
AcDbLine
 10
36.749986267089866
 20
37.499983978271473
 30
0.0
 11
36.749986267089866
 21
36.999983978271473
 31
0.0
  0
LINE
  5
2BE
100
AcDbEntity
  8
0
  6
CONTINUOUS
 62
               4
100
AcDbLine
 10
36.749986267089866
 20
37.499983978271473
 30
0.0
 11
39.249986267089866
 21
37.499983978271473
 31
0.0
  0
LINE
  5
2BF
100
AcDbEntity
  8
0
  6
CONTINUOUS
 62
             200
100
AcDbLine
 10
34.314980610187547
 20
62.4644487933503
 30
0.0
 11
27.384970456668441
 21
58.463396888834893
 31
0.0
  0
LINE
  5
2C0
100
AcDbEntity
  8
0
  6
CONTINUOUS
 62
             200
100
AcDbLine
 10
34.31500515856186
 20
63.619089788206281
 30
0.0
 11
27.384976066998377
 21
59.618041224424985
 31
0.0
  0
LINE
  5
2C1
100
AcDbEntity
  8
0
  6
CONTINUOUS
 62
               4
100
AcDbLine
 10
28.884989929199207
 20
56.999983978271473
 30
0.0
 11
28.884989929199207
 21
59.329405975341786
 31
0.0
  0
LINE
  5
2C2
100
AcDbEntity
  8
0
  6
CONTINUOUS
 62
               4
100
AcDbLine
 10
30.31499786376952
 20
56.999983978271473
 30
0.0
 11
30.31499786376952
 21
60.155013275146473
 31
0.0
  0
LINE
  5
2C3
100
AcDbEntity
  8
0
  6
CONTINUOUS
 62
               4
100
AcDbLine
 10
29.199992370605457
 20
69.999983978271473
 30
0.0
 11
29.99999542236327
 21
69.999983978271473
 31
0.0
  0
LINE
  5
2C4
100
AcDbEntity
  8
0
  6
CONTINUOUS
 62
               4
100
AcDbLine
 10
29.199992370605457
 20
64.999983978271473
 30
0.0
 11
29.199992370605457
 21
69.999968719482411
 31
0.0
  0
LINE
  5
2C5
100
AcDbEntity
  8
0
  6
CONTINUOUS
 62
               4
100
AcDbLine
 10
29.99999542236327
 20
64.999983978271473
 30
0.0
 11
29.99999542236327
 21
69.999983978271473
 31
0.0
  0
LINE
  5
2C6
100
AcDbEntity
  8
0
  6
CONTINUOUS
 62
               4
100
AcDbLine
 10
28.884989929199207
 20
64.999983978271473
 30
0.0
 11
30.31499786376952
 21
64.999983978271473
 31
0.0
  0
LINE
  5
2C7
100
AcDbEntity
  8
0
  6
CONTINUOUS
 62
               4
100
AcDbLine
 10
28.884989929199207
 20
60.484099578857411
 30
0.0
 11
28.884989929199207
 21
64.999983978271473
 31
0.0
  0
LINE
  5
2C8
100
AcDbEntity
  8
0
  6
CONTINUOUS
 62
               4
100
AcDbLine
 10
30.31499786376952
 20
61.309722137451161
 30
0.0
 11
30.31499786376952
 21
64.999983978271473
 31
0.0
  0
LINE
  5
2C9
100
AcDbEntity
  8
0
  6
CONTINUOUS
 62
               7
100
AcDbLine
 10
24.5
 20
12.999983978271473
 30
0.0
 11
51.5
 21
12.999983978271473
 31
0.0
  0
LINE
  5
2CA
100
AcDbEntity
  8
0
  6
CONTINUOUS
 62
               4
100
AcDbLine
 10
32.81499786376952
 20
62.753096771240223
 30
0.0
 11
32.81499786376952
 21
64.999983978271473
 31
0.0
  0
LINE
  5
2CB
100
AcDbEntity
  8
0
  6
CONTINUOUS
 62
               4
100
AcDbLine
 10
31.384989929199207
 20
61.927474212646473
 30
0.0
 11
31.384989929199207
 21
64.999983978271473
 31
0.0
  0
LINE
  5
2CC
100
AcDbEntity
  8
0
  6
CONTINUOUS
 62
               4
100
AcDbLine
 10
32.81499786376952
 20
64.999983978271473
 30
0.0
 11
31.384989929199207
 21
64.999983978271473
 31
0.0
  0
LINE
  5
2CD
100
AcDbEntity
  8
0
  6
CONTINUOUS
 62
               4
100
AcDbLine
 10
31.384989929199207
 20
56.999983978271473
 30
0.0
 11
31.384989929199207
 21
60.772780609130848
 31
0.0
  0
LINE
  5
2CE
100
AcDbEntity
  8
0
  6
CONTINUOUS
 62
               4
100
AcDbLine
 10
32.81499786376952
 20
56.999983978271473
 30
0.0
 11
32.81499786376952
 21
61.598387908935536
 31
0.0
  0
LINE
  5
2CF
100
AcDbEntity
  8
0
  6
CONTINUOUS
 62
               4
100
AcDbLine
 10
32.49999542236327
 20
64.999983978271473
 30
0.0
 11
32.49999542236327
 21
69.999983978271473
 31
0.0
  0
LINE
  5
2D0
100
AcDbEntity
  8
0
  6
CONTINUOUS
 62
               4
100
AcDbLine
 10
31.699992370605457
 20
64.999983978271473
 30
0.0
 11
31.699992370605457
 21
69.999983978271473
 31
0.0
  0
LINE
  5
2D1
100
AcDbEntity
  8
0
  6
CONTINUOUS
 62
               4
100
AcDbLine
 10
32.49999542236327
 20
69.999983978271473
 30
0.0
 11
31.699992370605457
 21
69.999983978271473
 31
0.0
  0
LINE
  5
2D2
100
AcDbEntity
  8
0
  6
CONTINUOUS
 62
               4
100
AcDbLine
 10
37.649989318847645
 20
55.499983978271473
 30
0.0
 11
37.649989318847645
 21
56.999983978271473
 31
0.0
  0
LINE
  5
2D3
100
AcDbEntity
  8
0
  6
CONTINUOUS
 62
               4
100
AcDbLine
 10
35.650030778693861
 20
55.999942921173158
 30
0.0
 11
36.227382594457765
 21
56.999951626127938
 31
0.0
  0
LINE
  5
2D4
100
AcDbEntity
  8
0
  6
CONTINUOUS
 62
               4
100
AcDbLine
 10
35.649989318847645
 20
50.499983978271473
 30
0.0
 11
35.649989318847645
 21
56.999983978271473
 31
0.0
  0
LINE
  5
2D5
100
AcDbEntity
  8
0
  6
CONTINUOUS
 62
               4
100
AcDbLine
 10
36.649987569326356
 20
46.498434720030843
 30
0.0
 11
37.149986678203447
 21
50.056122803719688
 31
0.0
  0
LINE
  5
2D6
100
AcDbEntity
  8
0
  6
CONTINUOUS
 62
               4
100
AcDbLine
 10
37.149989318847645
 20
50.056136322021473
 30
0.0
 11
37.149989318847645
 21
55.499983978271473
 31
0.0
  0
LINE
  5
2D7
100
AcDbEntity
  8
0
  6
CONTINUOUS
 62
               4
100
AcDbLine
 10
26.649974060058582
 20
55.999983978271473
 30
0.0
 11
27.149974060058582
 21
55.999983978271473
 31
0.0
  0
LINE
  5
2D8
100
AcDbEntity
  8
0
  6
CONTINUOUS
 62
               4
100
AcDbLine
 10
26.649989318847645
 20
55.999983978271473
 30
0.0
 11
26.649989318847645
 21
56.999983978271473
 31
0.0
  0
LINE
  5
2D9
100
AcDbEntity
  8
0
  6
CONTINUOUS
 62
               4
100
AcDbLine
 10
27.149989318847645
 20
50.499983978271473
 30
0.0
 11
27.149989318847645
 21
55.999983978271473
 31
0.0
  0
LINE
  5
2DA
100
AcDbEntity
  8
0
  6
CONTINUOUS
 62
               4
100
AcDbLine
 10
35.649986476497531
 20
46.498458130141614
 30
0.0
 11
35.599965923191291
 21
46.548478683447854
 31
0.0
  0
LINE
  5
2DB
100
AcDbEntity
  8
0
  6
CONTINUOUS
 62
               4
100
AcDbLine
 10
37.149981689453114
 20
55.499983978271473
 30
0.0
 11
37.649981689453114
 21
55.499983978271473
 31
0.0
  0
LINE
  5
2DC
100
AcDbEntity
  8
0
  6
CONTINUOUS
 62
               4
100
AcDbLine
 10
35.649989318847645
 20
47.998442840576161
 30
0.0
 11
35.649989318847645
 21
50.499983978271473
 31
0.0
  0
LINE
  5
2DD
100
AcDbEntity
  8
0
  6
CONTINUOUS
 62
               4
100
AcDbLine
 10
35.649989318847645
 20
46.498442840576161
 30
0.0
 11
36.649981689453114
 21
46.498442840576161
 31
0.0
  0
LINE
  5
2DE
100
AcDbEntity
  8
0
  6
CONTINUOUS
 62
               4
100
AcDbLine
 10
35.599986267089832
 20
47.998442840576161
 30
0.0
 11
35.649989318847645
 21
47.998442840576161
 31
0.0
  0
LINE
  5
2DF
100
AcDbEntity
  8
0
  6
CONTINUOUS
 62
               4
100
AcDbLine
 10
36.227336120605457
 20
56.999983978271473
 30
0.0
 11
37.649981689453114
 21
56.999983978271473
 31
0.0
  0
LINE
  5
2E0
100
AcDbEntity
  8
0
  6
CONTINUOUS
 62
               4
100
AcDbLine
 10
26.999986267089866
 20
50.499983978271473
 30
0.0
 11
35.649989318847645
 21
50.499983978271473
 31
0.0
  0
LINE
  5
2E1
100
AcDbEntity
  8
0
  6
CONTINUOUS
 62
               4
100
AcDbLine
 10
26.649974060058582
 20
56.999983978271473
 30
0.0
 11
35.649974060058582
 21
56.999983978271473
 31
0.0
  0
LINE
  5
2E2
100
AcDbEntity
  8
0
  6
CONTINUOUS
 62
               4
100
AcDbLine
 10
35.599986267089832
 20
50.499983978271473
 30
0.0
 11
35.599986267089832
 21
45.999983978271473
 31
0.0
  0
LINE
  5
2E3
100
AcDbEntity
  8
0
  6
CONTINUOUS
 62
               4
100
AcDbLine
 10
24.499986267089866
 20
36.999983978271473
 30
0.0
 11
51.499992370605469
 21
36.999983978271473
 31
0.0
  0
LINE
  5
2E4
100
AcDbEntity
  8
0
  6
CONTINUOUS
 62
               4
100
AcDbLine
 10
25.199999999999989
 20
29.999983978271473
 30
0.0
 11
25.199999999999989
 21
36.999983978271473
 31
0.0
  0
LINE
  5
2E5
100
AcDbEntity
  8
0
  6
CONTINUOUS
 62
               4
100
AcDbLine
 10
26.100000000000023
 20
29.999983978271473
 30
0.0
 11
26.100000000000023
 21
36.999983978271473
 31
0.0
  0
LINE
  5
2E6
100
AcDbEntity
  8
0
  6
CONTINUOUS
 62
               4
100
AcDbLine
 10
24.499986267089866
 20
29.999983978271473
 30
0.0
 11
26.100000000000023
 21
29.999983978271473
 31
0.0
  0
LINE
  5
2E7
100
AcDbEntity
  8
0
  6
CONTINUOUS
 62
               7
100
AcDbLine
 10
24.5
 20
-38.00000076293945
 30
0.0
 11
24.5
 21
0.9999992370605497
 31
0.0
  0
LINE
  5
2E8
100
AcDbEntity
  8
0
  6
CONTINUOUS
 62
               7
100
AcDbLine
 10
24.0
 20
-38.00000076293945
 30
0.0
 11
24.0
 21
0.9999992370605497
 31
0.0
  0
LINE
  5
2E9
100
AcDbEntity
  8
0
  6
CONTINUOUS
 62
               7
100
AcDbLine
 10
24.5
 20
-38.00000076293945
 30
0.0
 11
24.0
 21
-38.00000076293945
 31
0.0
  0
LINE
  5
2EA
100
AcDbEntity
  8
0
  6
CONTINUOUS
 62
               7
100
AcDbLine
 10
24.5
 20
0.9999992370605497
 30
0.0
 11
24.0
 21
0.9999992370605497
 31
0.0
  0
ENDBLK
  5
2EB
100
AcDbEntity
  8
0
100
AcDbBlockEnd
  0
BLOCK
  5
2EC
100
AcDbEntity
  8
0
100
AcDbBlockBegin
  2
F10T-9
 70
               0
 10
0.0
 20
0.0
 30
0.0
  3
F10T-9
  1

  0
LINE
  5
2ED
100
AcDbEntity
  8
0
  6
CENTER
 62
               2
100
AcDbLine
 10
-4.0
 20
-44.0
 30
0.0
 11
4.0
 21
-44.0
 31
0.0
  0
LINE
  5
2EE
100
AcDbEntity
  8
0
  6
CENTER
 62
               2
100
AcDbLine
 10
-4.0
 20
0.0
 30
0.0
 11
4.0
 21
0.0
 31
0.0
  0
LINE
  5
2EF
100
AcDbEntity
  8
0
  6
CONTINUOUS
 62
               7
100
AcDbLine
 10
-51.5
 20
3.4999847412109375
 30
0.0
 11
-50.5
 21
3.4999847412109375
 31
0.0
  0
LINE
  5
2F0
100
AcDbEntity
  8
0
  6
CENTER
 62
               2
100
AcDbLine
 10
-53.5
 20
9.6999969482421875
 30
0.0
 11
-50.800003051757813
 21
9.6999969482421875
 31
0.0
  0
LINE
  5
2F1
100
AcDbEntity
  8
0
  6
CONTINUOUS
 62
               7
100
AcDbLine
 10
-52.5
 20
7.7499847412109375
 30
0.0
 11
-52.5
 21
9.399993896484375
 31
0.0
  0
LINE
  5
2F2
100
AcDbEntity
  8
0
  6
CONTINUOUS
 62
               7
100
AcDbLine
 10
-52.5
 20
7.75
 30
0.0
 11
-51.5
 21
7.75
 31
0.0
  0
LINE
  5
2F3
100
AcDbEntity
  8
0
  6
CONTINUOUS
 62
               7
100
AcDbLine
 10
-52.5
 20
11.649993896484375
 30
0.0
 11
-51.5
 21
11.649993896484375
 31
0.0
  0
LINE
  5
2F4
100
AcDbEntity
  8
0
  6
CONTINUOUS
 62
               7
100
AcDbLine
 10
-51.899993896484375
 20
9.399993896484375
 30
0.0
 11
-51.899993896484375
 21
9.9999847412109375
 31
0.0
  0
LINE
  5
2F5
100
AcDbEntity
  8
0
  6
CONTINUOUS
 62
               7
100
AcDbLine
 10
-52.5
 20
9.399993896484375
 30
0.0
 11
-51.899993896484375
 21
9.399993896484375
 31
0.0
  0
LINE
  5
2F6
100
AcDbEntity
  8
0
  6
CONTINUOUS
 62
               7
100
AcDbLine
 10
-52.5
 20
10.0
 30
0.0
 11
-51.899993896484375
 21
10.0
 31
0.0
  0
LINE
  5
2F7
100
AcDbEntity
  8
0
  6
CONTINUOUS
 62
               7
100
AcDbLine
 10
-52.5
 20
9.9999847412109375
 30
0.0
 11
-52.5
 21
11.649993896484375
 31
0.0
  0
LINE
  5
2F8
100
AcDbEntity
  8
0
  6
CONTINUOUS
 62
               7
100
AcDbLine
 10
-24.5
 20
12.999984741210938
 30
0.0
 11
-51.5
 21
12.999984741210938
 31
0.0
  0
LINE
  5
2F9
100
AcDbEntity
  8
0
  6
CONTINUOUS
 62
               7
100
AcDbLine
 10
-51.5
 20
-5.600006103515625
 30
0.0
 11
-51.5
 21
12.999984741210938
 31
0.0
  0
LINE
  5
2FA
100
AcDbEntity
  8
0
  6
CONTINUOUS
 62
               7
100
AcDbLine
 10
-24.5
 20
-52.599990844726563
 30
0.0
 11
-24.5
 21
12.999984741210938
 31
0.0
  0
LINE
  5
2FB
100
AcDbEntity
  8
0
  6
CONTINUOUS
 62
               7
100
AcDbLine
 10
-49.500012801488992
 20
-38.399993280103445
 30
0.0
 11
-49.10000924112137
 21
-37.999991675362253
 31
0.0
  0
LINE
  5
2FC
100
AcDbEntity
  8
0
  6
CONTINUOUS
 62
               7
100
AcDbLine
 10
-49.500010395453501
 20
-45.600027927021983
 30
0.0
 11
-49.100008150076064
 21
-46.000030880471058
 31
0.0
  0
LINE
  5
2FD
100
AcDbEntity
  8
0
  6
CONTINUOUS
 62
               7
100
AcDbLine
 10
-49.5
 20
-45.599990844726562
 30
0.0
 11
-49.5
 21
-38.399997711181641
 31
0.0
  0
LINE
  5
2FE
100
AcDbEntity
  8
0
  6
CONTINUOUS
 62
               7
100
AcDbLine
 10
-43.5
 20
-38.000003814697266
 30
0.0
 11
-43.5
 21
-6.0
 31
0.0
  0
LINE
  5
2FF
100
AcDbEntity
  8
0
  6
CONTINUOUS
 62
               7
100
AcDbLine
 10
-49.100006103515625
 20
-38.0
 30
0.0
 11
-24.5
 21
-38.0
 31
0.0
  0
LINE
  5
300
100
AcDbEntity
  8
0
  6
CONTINUOUS
 62
               7
100
AcDbLine
 10
-51.100006103515625
 20
-6.0
 30
0.0
 11
-24.5
 21
-6.0
 31
0.0
  0
LINE
  5
301
100
AcDbEntity
  8
0
  6
CONTINUOUS
 62
               7
100
AcDbLine
 10
-48.5
 20
-6.600006103515625
 30
0.0
 11
-48.5
 21
-37.399997711181641
 31
0.0
  0
LINE
  5
302
100
AcDbEntity
  8
0
  6
CONTINUOUS
 62
               7
100
AcDbLine
 10
-48.100006103515625
 20
-6.1999969482421875
 30
0.0
 11
-43.5
 21
-6.1999969482421875
 31
0.0
  0
LINE
  5
303
100
AcDbEntity
  8
0
  6
CONTINUOUS
 62
               7
100
AcDbLine
 10
-48.100006103515625
 20
-37.799995422363281
 30
0.0
 11
-43.5
 21
-37.799995422363281
 31
0.0
  0
LINE
  5
304
100
AcDbEntity
  8
0
  6
CONTINUOUS
 62
               7
100
AcDbLine
 10
-49.100006103515625
 20
-46.0
 30
0.0
 11
-24.5
 21
-46.0
 31
0.0
  0
LINE
  5
305
100
AcDbEntity
  8
0
  6
CONTINUOUS
 62
               7
100
AcDbLine
 10
-48.5
 20
-52.599990844726563
 30
0.0
 11
-48.5
 21
-46.0
 31
0.0
  0
LINE
  5
306
100
AcDbEntity
  8
0
  6
CONTINUOUS
 62
               7
100
AcDbLine
 10
-48.100006103515625
 20
-53.0
 30
0.0
 11
-24.900009155273438
 21
-53.0
 31
0.0
  0
LINE
  5
307
100
AcDbEntity
  8
0
  6
CONTINUOUS
 62
               7
100
AcDbLine
 10
-51.5
 20
1.5
 30
0.0
 11
-24.5
 21
1.5
 31
0.0
  0
LINE
  5
308
100
AcDbEntity
  8
0
  6
CONTINUOUS
 62
               7
100
AcDbLine
 10
-27.900009155273438
 20
-53.0
 30
0.0
 11
-27.900009155273438
 21
-52.0
 31
0.0
  0
LINE
  5
309
100
AcDbEntity
  8
0
  6
CONTINUOUS
 62
               7
100
AcDbLine
 10
-27.900009155273438
 20
-52.0
 30
0.0
 11
-24.5
 21
-52.0
 31
0.0
  0
LINE
  5
30A
100
AcDbEntity
  8
0
  6
CONTINUOUS
 62
               7
100
AcDbLine
 10
-27.050003051757813
 20
-52.5
 30
0.0
 11
-25.550003051757813
 21
-52.5
 31
0.0
  0
LINE
  5
30B
100
AcDbEntity
  8
0
  6
CONTINUOUS
 62
               7
100
AcDbLine
 10
-48.5
 20
-44.0
 30
0.0
 11
-46.5
 21
-44.0
 31
0.0
  0
LINE
  5
30C
100
AcDbEntity
  8
0
  6
CONTINUOUS
 62
               7
100
AcDbLine
 10
-48.5
 20
-40.0
 30
0.0
 11
-46.5
 21
-40.0
 31
0.0
  0
LINE
  5
30D
100
AcDbEntity
  8
0
  6
CONTINUOUS
 62
               7
100
AcDbLine
 10
-47.5
 20
-44.100000381469727
 30
0.0
 11
-47.5
 21
-44.0
 31
0.0
  0
LINE
  5
30E
100
AcDbEntity
  8
0
  6
CONTINUOUS
 62
               7
100
AcDbLine
 10
-46.5
 20
-46.0
 30
0.0
 11
-46.5
 21
-44.0
 31
0.0
  0
LINE
  5
30F
100
AcDbEntity
  8
0
  6
CONTINUOUS
 62
               7
100
AcDbLine
 10
-47.5
 20
-40.0
 30
0.0
 11
-47.5
 21
-39.899999618530273
 31
0.0
  0
LINE
  5
310
100
AcDbEntity
  8
0
  6
CONTINUOUS
 62
               7
100
AcDbLine
 10
-46.5
 20
-40.0
 30
0.0
 11
-46.5
 21
-37.999996185302734
 31
0.0
  0
LINE
  5
311
100
AcDbEntity
  8
0
  6
CONTINUOUS
 62
               7
100
AcDbLine
 10
-46.600006103515625
 20
-46.0
 30
0.0
 11
-46.600006103515625
 21
-44.100000381469727
 31
0.0
  0
LINE
  5
312
100
AcDbEntity
  8
0
  6
CONTINUOUS
 62
               7
100
AcDbLine
 10
-49.100006103515625
 20
-46.000015258789063
 30
0.0
 11
-49.100006103515625
 21
-37.999996185302734
 31
0.0
  0
LINE
  5
313
100
AcDbEntity
  8
0
  6
CONTINUOUS
 62
               7
100
AcDbLine
 10
-49.100006103515625
 20
-44.100000381469727
 30
0.0
 11
-46.600006103515625
 21
-44.100000381469727
 31
0.0
  0
LINE
  5
314
100
AcDbEntity
  8
0
  6
CONTINUOUS
 62
               7
100
AcDbLine
 10
-49.100006103515625
 20
-39.899999618530273
 30
0.0
 11
-46.600006103515625
 21
-39.899999618530273
 31
0.0
  0
LINE
  5
315
100
AcDbEntity
  8
0
  6
CONTINUOUS
 62
               7
100
AcDbLine
 10
-46.600006103515625
 20
-39.899999618530273
 30
0.0
 11
-46.600006103515625
 21
-38.0
 31
0.0
  0
LINE
  5
316
100
AcDbEntity
  8
0
  6
CONTINUOUS
 62
               7
100
AcDbLine
 10
-48.5
 20
-44.100000381469727
 30
0.0
 11
-48.5
 21
-39.899999618530273
 31
0.0
  0
LINE
  5
317
100
AcDbEntity
  8
0
  6
CONTINUOUS
 62
               7
100
AcDbLine
 10
-48.5
 20
-10.800003051757813
 30
0.0
 11
-43.5
 21
-10.800003051757813
 31
0.0
  0
LINE
  5
318
100
AcDbEntity
  8
0
  6
CONTINUOUS
 62
               7
100
AcDbLine
 10
-44.0
 20
-9.95001220703125
 30
0.0
 11
-44.0
 21
-8.45001220703125
 31
0.0
  0
LINE
  5
319
100
AcDbEntity
  8
0
  6
CENTER
 62
               2
100
AcDbLine
 10
-22.363998413085937
 20
-22.0
 30
0.0
 11
-10.636001586914063
 21
-22.0
 31
0.0
  0
LINE
  5
31A
100
AcDbEntity
  8
0
  6
CONTINUOUS
 62
               7
100
AcDbLine
 10
-24.0
 20
-47.0
 30
0.0
 11
-24.0
 21
3.0
 31
0.0
  0
LINE
  5
31B
100
AcDbEntity
  8
0
  6
CONTINUOUS
 62
               7
100
AcDbLine
 10
0.0
 20
-47.0
 30
0.0
 11
0.0
 21
3.0
 31
0.0
  0
LINE
  5
31C
100
AcDbEntity
  8
0
  6
CONTINUOUS
 62
               7
100
AcDbLine
 10
-24.0
 20
-47.0
 30
0.0
 11
0.0
 21
-47.0
 31
0.0
  0
LINE
  5
31D
100
AcDbEntity
  8
0
  6
CONTINUOUS
 62
               7
100
AcDbLine
 10
-24.0
 20
3.0
 30
0.0
 11
0.0
 21
3.0
 31
0.0
  0
LINE
  5
31E
100
AcDbEntity
  8
0
  6
CENTER
 62
               2
100
AcDbLine
 10
-13.363998413085938
 20
-33.0
 30
0.0
 11
-1.6360015869140625
 21
-33.0
 31
0.0
  0
LINE
  5
31F
100
AcDbEntity
  8
0
  6
CENTER
 62
               2
100
AcDbLine
 10
-13.363998413085938
 20
-11.0
 30
0.0
 11
-1.6360015869140625
 21
-11.0
 31
0.0
  0
LINE
  5
320
100
AcDbEntity
  8
0
  6
CENTER
 62
               2
100
AcDbLine
 10
-22.5
 20
-2.5
 30
0.0
 11
-15.5
 21
-2.5
 31
0.0
  0
LINE
  5
321
100
AcDbEntity
  8
0
  6
CENTER
 62
               2
100
AcDbLine
 10
-19.0
 20
-6.0
 30
0.0
 11
-19.0
 21
1.0
 31
0.0
  0
LINE
  5
322
100
AcDbEntity
  8
0
  6
CENTER
 62
               2
100
AcDbLine
 10
-16.5
 20
-27.863999843597412
 30
0.0
 11
-16.5
 21
-16.13599967956543
 31
0.0
  0
LINE
  5
323
100
AcDbEntity
  8
0
  6
CENTER
 62
               2
100
AcDbLine
 10
-7.5
 20
-38.86400032043457
 30
0.0
 11
-7.5
 21
-5.1360015869140625
 31
0.0
  0
LINE
  5
324
100
AcDbEntity
  8
0
  6
CONTINUOUS
 62
               7
100
AcDbLine
 10
-25.800003051757812
 20
1.5
 30
0.0
 11
-25.800003051757812
 21
3.4999847412109375
 31
0.0
  0
LINE
  5
325
100
AcDbEntity
  8
0
  6
CONTINUOUS
 62
               7
100
AcDbLine
 10
-28.800003051757813
 20
1.5
 30
0.0
 11
-28.800003051757813
 21
3.4999847412109375
 31
0.0
  0
LINE
  5
326
100
AcDbEntity
  8
0
  6
CONTINUOUS
 62
               7
100
AcDbLine
 10
-48.5
 20
3.4999847412109375
 30
0.0
 11
-28.800003051757813
 21
3.4999847412109375
 31
0.0
  0
LINE
  5
327
100
AcDbEntity
  8
0
  6
CONTINUOUS
 62
               7
100
AcDbLine
 10
-25.800003051757812
 20
3.4999847412109375
 30
0.0
 11
-24.5
 21
3.4999847412109375
 31
0.0
  0
LINE
  5
328
100
AcDbEntity
  8
0
  6
CONTINUOUS
 62
               7
100
AcDbLine
 10
-48.5
 20
1.5
 30
0.0
 11
-48.5
 21
3.4999847412109375
 31
0.0
  0
LINE
  5
329
100
AcDbEntity
  8
0
  6
CONTINUOUS
 62
               7
100
AcDbLine
 10
-50.5
 20
1.5
 30
0.0
 11
-50.5
 21
3.4999847412109375
 31
0.0
  0
ARC
  5
32A
100
AcDbEntity
  8
0
  6
CONTINUOUS
 62
               7
100
AcDbCircle
 10
-24.900009155273438
 20
-52.599990844726563
 30
0.0
 40
0.4000000357627869
100
AcDbArc
 50
270.00001798608872
 51
0.00001366037834
  0
ARC
  5
32B
100
AcDbEntity
  8
0
  6
CONTINUOUS
 62
               7
100
AcDbCircle
 10
-48.100006103515625
 20
-52.599990844726563
 30
0.0
 40
0.4000000357627869
100
AcDbArc
 50
179.99996402782091
 51
269.99994604173139
  0
ARC
  5
32C
100
AcDbEntity
  8
0
  6
CONTINUOUS
 62
               7
100
AcDbCircle
 10
-48.100006103515625
 20
-37.400001525878906
 30
0.0
 40
0.4000000357627869
100
AcDbArc
 50
179.99996402782091
 51
270.00000068324471
  0
ARC
  5
32D
100
AcDbEntity
  8
0
  6
CONTINUOUS
 62
               7
100
AcDbCircle
 10
-48.100006103515625
 20
-6.600006103515625
 30
0.0
 40
0.4000000357627869
100
AcDbArc
 50
89.999982013910454
 51
179.99996402782091
  0
ARC
  5
32E
100
AcDbEntity
  8
0
  6
CONTINUOUS
 62
               7
100
AcDbCircle
 10
-51.100006103515625
 20
-5.600006103515625
 30
0.0
 40
0.4000000357627869
100
AcDbArc
 50
179.99996402782091
 51
269.99994604173139
  0
ARC
  5
32F
100
AcDbEntity
  8
0
  6
CONTINUOUS
 62
               7
100
AcDbCircle
 10
-25.550003051757813
 20
-52.0
 30
0.0
 40
0.5
100
AcDbArc
 50
270.00001798608872
 51
0.0
  0
ARC
  5
330
100
AcDbEntity
  8
0
  6
CONTINUOUS
 62
               7
100
AcDbCircle
 10
-27.050003051757813
 20
-52.0
 30
0.0
 40
0.5
100
AcDbArc
 50
179.99998133066492
 51
270.00001798608872
  0
ARC
  5
331
100
AcDbEntity
  8
0
  6
CONTINUOUS
 62
               7
100
AcDbCircle
 10
-43.5
 20
-8.45001220703125
 30
0.0
 40
0.5
100
AcDbArc
 50
89.999982013910454
 51
179.99996402782091
  0
ARC
  5
332
100
AcDbEntity
  8
0
  6
CONTINUOUS
 62
               7
100
AcDbCircle
 10
-43.5
 20
-9.95001220703125
 30
0.0
 40
0.5
100
AcDbArc
 50
179.99998133066492
 51
270.00001798608872
  0
CIRCLE
  5
333
100
AcDbEntity
  8
0
  6
CONTINUOUS
 62
               2
100
AcDbCircle
 10
-7.5
 20
-33.0
 30
0.0
 40
4.8639993667602539
  0
CIRCLE
  5
334
100
AcDbEntity
  8
0
  6
CONTINUOUS
 62
               2
100
AcDbCircle
 10
-16.5
 20
-22.0
 30
0.0
 40
4.8639993667602539
  0
CIRCLE
  5
335
100
AcDbEntity
  8
0
  6
CONTINUOUS
 62
               2
100
AcDbCircle
 10
-7.5
 20
-11.0
 30
0.0
 40
4.8639993667602539
  0
CIRCLE
  5
336
100
AcDbEntity
  8
0
  6
CONTINUOUS
 62
               2
100
AcDbCircle
 10
-19.0
 20
-2.5
 30
0.0
 40
2.5
  0
CIRCLE
  5
337
100
AcDbEntity
  8
0
  6
CONTINUOUS
 62
               7
100
AcDbCircle
 10
-19.0
 20
-2.5
 30
0.0
 40
2.0669994354248047
  0
CIRCLE
  5
338
100
AcDbEntity
  8
0
  6
CONTINUOUS
 62
               7
100
AcDbCircle
 10
-7.5
 20
-11.0
 30
0.0
 40
4.2829999923706055
  0
CIRCLE
  5
339
100
AcDbEntity
  8
0
  6
CONTINUOUS
 62
               7
100
AcDbCircle
 10
-16.5
 20
-22.0
 30
0.0
 40
4.2829999923706055
  0
CIRCLE
  5
33A
100
AcDbEntity
  8
0
  6
CONTINUOUS
 62
               7
100
AcDbCircle
 10
-7.5
 20
-33.0
 30
0.0
 40
4.2829999923706055
  0
LINE
  5
33B
100
AcDbEntity
  8
0
  6
CONTINUOUS
 62
               4
100
AcDbLine
 10
-24.499986267089838
 20
45.499984741210938
 30
0.0
 11
-24.499986267089838
 21
36.999984741210938
 31
0.0
  0
LINE
  5
33C
100
AcDbEntity
  8
0
  6
CONTINUOUS
 62
               4
100
AcDbLine
 10
-44.499986267089838
 20
39.399984741210943
 30
0.0
 11
-44.499986267089838
 21
38.449984741210955
 31
0.0
  0
LINE
  5
33D
100
AcDbEntity
  8
0
  6
CONTINUOUS
 62
               4
100
AcDbLine
 10
-31.599986267089832
 20
39.399984741210943
 30
0.0
 11
-31.599986267089832
 21
38.449984741210955
 31
0.0
  0
LINE
  5
33E
100
AcDbEntity
  8
0
  6
CONTINUOUS
 62
               4
100
AcDbLine
 10
-51.499986267089838
 20
41.179984741210944
 30
0.0
 11
-51.499986267089838
 21
36.999984741210938
 31
0.0
  0
LINE
  5
33F
100
AcDbEntity
  8
0
  6
CONTINUOUS
 62
               4
100
AcDbLine
 10
-46.599986267089832
 20
39.399984741210943
 30
0.0
 11
-46.599986267089832
 21
38.449984741210955
 31
0.0
  0
LINE
  5
340
100
AcDbEntity
  8
0
  6
CONTINUOUS
 62
               4
100
AcDbLine
 10
-29.499986267089838
 20
39.399984741210943
 30
0.0
 11
-29.499986267089838
 21
38.449984741210955
 31
0.0
  0
LINE
  5
341
100
AcDbEntity
  8
0
  6
CONTINUOUS
 62
               4
100
AcDbLine
 10
-35.599986267089832
 20
50.499984741210938
 30
0.0
 11
-35.599986267089832
 21
45.999984741210938
 31
0.0
  0
LINE
  5
342
100
AcDbEntity
  8
0
  6
CONTINUOUS
 62
               4
100
AcDbLine
 10
-26.649974060058582
 20
56.999984741210937
 30
0.0
 11
-35.649974060058582
 21
56.999984741210937
 31
0.0
  0
LINE
  5
343
100
AcDbEntity
  8
0
  6
CONTINUOUS
 62
               4
100
AcDbLine
 10
-26.999986267089838
 20
50.499984741210938
 30
0.0
 11
-35.649989318847645
 21
50.499984741210938
 31
0.0
  0
LINE
  5
344
100
AcDbEntity
  8
0
  6
CONTINUOUS
 62
               4
100
AcDbLine
 10
-36.227336120605457
 20
56.999984741210937
 30
0.0
 11
-37.649981689453114
 21
56.999984741210937
 31
0.0
  0
LINE
  5
345
100
AcDbEntity
  8
0
  6
CONTINUOUS
 62
               4
100
AcDbLine
 10
-35.599986267089832
 20
47.998443603515625
 30
0.0
 11
-35.649989318847645
 21
47.998443603515625
 31
0.0
  0
LINE
  5
346
100
AcDbEntity
  8
0
  6
CONTINUOUS
 62
               4
100
AcDbLine
 10
-35.649989318847645
 20
46.498443603515625
 30
0.0
 11
-36.649981689453114
 21
46.498443603515625
 31
0.0
  0
LINE
  5
347
100
AcDbEntity
  8
0
  6
CONTINUOUS
 62
               4
100
AcDbLine
 10
-35.649989318847645
 20
47.998443603515625
 30
0.0
 11
-35.649989318847645
 21
50.499984741210938
 31
0.0
  0
LINE
  5
348
100
AcDbEntity
  8
0
  6
CONTINUOUS
 62
               4
100
AcDbLine
 10
-37.149981689453114
 20
55.499984741210938
 30
0.0
 11
-37.649981689453114
 21
55.499984741210938
 31
0.0
  0
LINE
  5
349
100
AcDbEntity
  8
0
  6
CONTINUOUS
 62
               4
100
AcDbLine
 10
-35.649986476497531
 20
46.498458893081079
 30
0.0
 11
-35.599965923191291
 21
46.548479446387319
 31
0.0
  0
LINE
  5
34A
100
AcDbEntity
  8
0
  6
CONTINUOUS
 62
               4
100
AcDbLine
 10
-27.149989318847645
 20
50.499984741210938
 30
0.0
 11
-27.149989318847645
 21
55.999984741210937
 31
0.0
  0
LINE
  5
34B
100
AcDbEntity
  8
0
  6
CONTINUOUS
 62
               4
100
AcDbLine
 10
-26.649989318847645
 20
55.999984741210937
 30
0.0
 11
-26.649989318847645
 21
56.999984741210937
 31
0.0
  0
LINE
  5
34C
100
AcDbEntity
  8
0
  6
CONTINUOUS
 62
               4
100
AcDbLine
 10
-26.649974060058582
 20
55.999984741210937
 30
0.0
 11
-27.149974060058582
 21
55.999984741210937
 31
0.0
  0
LINE
  5
34D
100
AcDbEntity
  8
0
  6
CONTINUOUS
 62
               4
100
AcDbLine
 10
-37.149989318847645
 20
50.056137084960938
 30
0.0
 11
-37.149989318847645
 21
55.499984741210938
 31
0.0
  0
LINE
  5
34E
100
AcDbEntity
  8
0
  6
CONTINUOUS
 62
               4
100
AcDbLine
 10
-36.649987569326356
 20
46.498435482970308
 30
0.0
 11
-37.149986678203447
 21
50.056123566659153
 31
0.0
  0
LINE
  5
34F
100
AcDbEntity
  8
0
  6
CONTINUOUS
 62
               4
100
AcDbLine
 10
-35.649989318847645
 20
50.499984741210938
 30
0.0
 11
-35.649989318847645
 21
56.999984741210937
 31
0.0
  0
LINE
  5
350
100
AcDbEntity
  8
0
  6
CONTINUOUS
 62
               4
100
AcDbLine
 10
-35.650030778693861
 20
55.999943684112623
 30
0.0
 11
-36.227382594457765
 21
56.999952389067403
 31
0.0
  0
LINE
  5
351
100
AcDbEntity
  8
0
  6
CONTINUOUS
 62
               4
100
AcDbLine
 10
-37.649989318847645
 20
55.499984741210938
 30
0.0
 11
-37.649989318847645
 21
56.999984741210937
 31
0.0
  0
LINE
  5
352
100
AcDbEntity
  8
0
  6
CONTINUOUS
 62
               4
100
AcDbLine
 10
-32.49999542236327
 20
69.999984741210937
 30
0.0
 11
-31.699992370605457
 21
69.999984741210937
 31
0.0
  0
LINE
  5
353
100
AcDbEntity
  8
0
  6
CONTINUOUS
 62
               4
100
AcDbLine
 10
-31.699992370605457
 20
64.999984741210937
 30
0.0
 11
-31.699992370605457
 21
69.999984741210937
 31
0.0
  0
LINE
  5
354
100
AcDbEntity
  8
0
  6
CONTINUOUS
 62
               4
100
AcDbLine
 10
-32.49999542236327
 20
64.999984741210937
 30
0.0
 11
-32.49999542236327
 21
69.999984741210937
 31
0.0
  0
LINE
  5
355
100
AcDbEntity
  8
0
  6
CONTINUOUS
 62
               4
100
AcDbLine
 10
-32.81499786376952
 20
56.999984741210937
 30
0.0
 11
-32.81499786376952
 21
61.598388671875
 31
0.0
  0
LINE
  5
356
100
AcDbEntity
  8
0
  6
CONTINUOUS
 62
               4
100
AcDbLine
 10
-31.384989929199207
 20
56.999984741210937
 30
0.0
 11
-31.384989929199207
 21
60.772781372070313
 31
0.0
  0
LINE
  5
357
100
AcDbEntity
  8
0
  6
CONTINUOUS
 62
               4
100
AcDbLine
 10
-32.81499786376952
 20
64.999984741210937
 30
0.0
 11
-31.384989929199207
 21
64.999984741210937
 31
0.0
  0
LINE
  5
358
100
AcDbEntity
  8
0
  6
CONTINUOUS
 62
               4
100
AcDbLine
 10
-31.384989929199207
 20
61.927474975585938
 30
0.0
 11
-31.384989929199207
 21
64.999984741210937
 31
0.0
  0
LINE
  5
359
100
AcDbEntity
  8
0
  6
CONTINUOUS
 62
               4
100
AcDbLine
 10
-32.81499786376952
 20
62.753097534179688
 30
0.0
 11
-32.81499786376952
 21
64.999984741210937
 31
0.0
  0
LINE
  5
35A
100
AcDbEntity
  8
0
  6
CONTINUOUS
 62
               4
100
AcDbLine
 10
-30.31499786376952
 20
61.309722900390625
 30
0.0
 11
-30.31499786376952
 21
64.999984741210937
 31
0.0
  0
LINE
  5
35B
100
AcDbEntity
  8
0
  6
CONTINUOUS
 62
               4
100
AcDbLine
 10
-28.884989929199207
 20
60.484100341796875
 30
0.0
 11
-28.884989929199207
 21
64.999984741210937
 31
0.0
  0
LINE
  5
35C
100
AcDbEntity
  8
0
  6
CONTINUOUS
 62
               4
100
AcDbLine
 10
-28.884989929199207
 20
64.999984741210937
 30
0.0
 11
-30.31499786376952
 21
64.999984741210937
 31
0.0
  0
LINE
  5
35D
100
AcDbEntity
  8
0
  6
CONTINUOUS
 62
               4
100
AcDbLine
 10
-29.99999542236327
 20
64.999984741210937
 30
0.0
 11
-29.99999542236327
 21
69.999984741210937
 31
0.0
  0
LINE
  5
35E
100
AcDbEntity
  8
0
  6
CONTINUOUS
 62
               4
100
AcDbLine
 10
-29.199992370605457
 20
64.999984741210937
 30
0.0
 11
-29.199992370605457
 21
69.999969482421875
 31
0.0
  0
LINE
  5
35F
100
AcDbEntity
  8
0
  6
CONTINUOUS
 62
               4
100
AcDbLine
 10
-29.199992370605457
 20
69.999984741210937
 30
0.0
 11
-29.99999542236327
 21
69.999984741210937
 31
0.0
  0
LINE
  5
360
100
AcDbEntity
  8
0
  6
CONTINUOUS
 62
               4
100
AcDbLine
 10
-30.31499786376952
 20
56.999984741210937
 30
0.0
 11
-30.31499786376952
 21
60.155014038085937
 31
0.0
  0
LINE
  5
361
100
AcDbEntity
  8
0
  6
CONTINUOUS
 62
               4
100
AcDbLine
 10
-28.884989929199207
 20
56.999984741210937
 30
0.0
 11
-28.884989929199207
 21
59.32940673828125
 31
0.0
  0
LINE
  5
362
100
AcDbEntity
  8
0
  6
CONTINUOUS
 62
             200
100
AcDbLine
 10
-34.31500515856186
 20
63.619090551145746
 30
0.0
 11
-27.384976066998377
 21
59.61804198736445
 31
0.0
  0
LINE
  5
363
100
AcDbEntity
  8
0
  6
CONTINUOUS
 62
             200
100
AcDbLine
 10
-34.314980610187547
 20
62.464449556289765
 30
0.0
 11
-27.384970456668441
 21
58.463397651774358
 31
0.0
  0
ARC
  5
364
100
AcDbEntity
  8
0
  6
CONTINUOUS
 62
               4
100
AcDbCircle
 10
-24.999986267089838
 20
45.499984741210938
 30
0.0
 40
0.5
100
AcDbArc
 50
0.0
 51
89.999999999999815
  0
LINE
  5
365
100
AcDbEntity
  8
0
  6
CONTINUOUS
 62
               4
100
AcDbLine
 10
-26.999986267089838
 20
45.999984741210938
 30
0.0
 11
-24.999986267089838
 21
45.999984741210938
 31
0.0
  0
LINE
  5
366
100
AcDbEntity
  8
0
  6
CONTINUOUS
 62
               4
100
AcDbLine
 10
-26.999986267089838
 20
50.499984741210938
 30
0.0
 11
-26.999986267089838
 21
45.999984741210938
 31
0.0
  0
LINE
  5
367
100
AcDbEntity
  8
0
  6
CONTINUOUS
 62
               4
100
AcDbLine
 10
-35.599986267089832
 20
50.499984741210938
 30
0.0
 11
-35.599986267089832
 21
45.999984741210938
 31
0.0
  0
ARC
  5
368
100
AcDbEntity
  8
0
  6
CONTINUOUS
 62
               4
100
AcDbCircle
 10
-50.002006662450412
 20
41.179595645140239
 30
0.0
 40
1.4979796551727449
100
AcDbArc
 50
155.95369022728892
 51
179.98511757963411
  0
ARC
  5
369
100
AcDbEntity
  8
0
  6
CONTINUOUS
 62
               4
100
AcDbCircle
 10
-49.174007105653885
 20
45.500084678657203
 30
0.0
 40
0.4999010215015999
100
AcDbArc
 50
90.112225923134773
 51
155.80262379109485
  0
LINE
  5
36A
100
AcDbEntity
  8
0
  6
CONTINUOUS
 62
               4
100
AcDbLine
 10
-49.629986267089834
 20
45.70498474121095
 30
0.0
 11
-51.369986267089843
 21
41.78998474121093
 31
0.0
  0
LINE
  5
36B
100
AcDbEntity
  8
0
  6
CONTINUOUS
 62
               4
100
AcDbLine
 10
-49.174007105653885
 20
45.999984741210938
 30
0.0
 11
-35.599986267089832
 21
45.999984741210938
 31
0.0
  0
LINE
  5
36C
100
AcDbEntity
  8
0
  6
CONTINUOUS
 62
               4
100
AcDbLine
 10
-31.599986267089832
 20
39.399984741210943
 30
0.0
 11
-29.499986267089838
 21
39.399984741210943
 31
0.0
  0
LINE
  5
36D
100
AcDbEntity
  8
0
  6
CONTINUOUS
 62
               4
100
AcDbLine
 10
-46.599986267089832
 20
39.399984741210943
 30
0.0
 11
-44.499986267089838
 21
39.399984741210943
 31
0.0
  0
LINE
  5
36E
100
AcDbEntity
  8
0
  6
CONTINUOUS
 62
               4
100
AcDbLine
 10
-24.499986267089838
 20
36.999984741210938
 30
0.0
 11
-51.499992370605469
 21
36.999984741210938
 31
0.0
  0
LINE
  5
36F
100
AcDbEntity
  8
0
  6
CONTINUOUS
 62
               4
100
AcDbLine
 10
-36.649986267089844
 20
37.499984741210938
 30
0.0
 11
-39.149986267089844
 21
37.499984741210938
 31
0.0
  0
LINE
  5
370
100
AcDbEntity
  8
0
  6
CONTINUOUS
 62
               4
100
AcDbLine
 10
-36.649986267089844
 20
37.499984741210938
 30
0.0
 11
-36.649986267089844
 21
36.999984741210938
 31
0.0
  0
LINE
  5
371
100
AcDbEntity
  8
0
  6
CONTINUOUS
 62
               4
100
AcDbLine
 10
-39.149986267089844
 20
37.499984741210938
 30
0.0
 11
-39.149986267089844
 21
36.999984741210938
 31
0.0
  0
LINE
  5
372
100
AcDbEntity
  8
0
  6
CONTINUOUS
 62
               4
100
AcDbLine
 10
-46.599986267089832
 20
38.449984741210955
 30
0.0
 11
-44.499986267089838
 21
38.449984741210955
 31
0.0
  0
LINE
  5
373
100
AcDbEntity
  8
0
  6
CONTINUOUS
 62
               4
100
AcDbLine
 10
-31.599986267089832
 20
38.449984741210955
 30
0.0
 11
-29.499986267089838
 21
38.449984741210955
 31
0.0
  0
LINE
  5
374
100
AcDbEntity
  8
0
  6
CONTINUOUS
 62
               4
100
AcDbLine
 10
-39.149986267089844
 20
37.499984741210938
 30
0.0
 11
-36.649986267089844
 21
37.499984741210938
 31
0.0
  0
LINE
  5
375
100
AcDbEntity
  8
0
  6
CONTINUOUS
 62
               4
100
AcDbLine
 10
-39.149986267089844
 20
37.499984741210938
 30
0.0
 11
-39.149986267089844
 21
36.999984741210938
 31
0.0
  0
LINE
  5
376
100
AcDbEntity
  8
0
  6
CONTINUOUS
 62
               4
100
AcDbLine
 10
-36.649986267089844
 20
37.499984741210938
 30
0.0
 11
-36.649986267089844
 21
36.999984741210938
 31
0.0
  0
LINE
  5
377
100
AcDbEntity
  8
0
  6
CONTINUOUS
 62
               4
100
AcDbLine
 10
-24.499986267089838
 20
29.999984741210937
 30
0.0
 11
-26.099999999999994
 21
29.999984741210937
 31
0.0
  0
LINE
  5
378
100
AcDbEntity
  8
0
  6
CONTINUOUS
 62
               4
100
AcDbLine
 10
-25.200000000000003
 20
29.999984741210937
 30
0.0
 11
-25.200000000000003
 21
36.999984741210938
 31
0.0
  0
LINE
  5
379
100
AcDbEntity
  8
0
  6
CONTINUOUS
 62
               4
100
AcDbLine
 10
-26.099999999999994
 20
29.999984741210937
 30
0.0
 11
-26.099999999999994
 21
36.999984741210938
 31
0.0
  0
LINE
  5
37A
100
AcDbEntity
  8
0
  6
CONTINUOUS
 62
               4
100
AcDbLine
 10
-24.5
 20
12.999984741210938
 30
0.0
 11
-24.5
 21
36.999984741210938
 31
0.0
  0
LINE
  5
37B
100
AcDbEntity
  8
0
  6
CONTINUOUS
 62
               4
100
AcDbLine
 10
-51.5
 20
12.999984741210938
 30
0.0
 11
-51.5
 21
36.999984741210938
 31
0.0
  0
LINE
  5
37C
100
AcDbEntity
  8
0
  6
CONTINUOUS
 62
               7
100
AcDbLine
 10
-24.5
 20
-38.0
 30
0.0
 11
-24.5
 21
1.0
 31
0.0
  0
LINE
  5
37D
100
AcDbEntity
  8
0
  6
CONTINUOUS
 62
               7
100
AcDbLine
 10
-24.0
 20
-38.0
 30
0.0
 11
-24.0
 21
1.0
 31
0.0
  0
LINE
  5
37E
100
AcDbEntity
  8
0
  6
CONTINUOUS
 62
               7
100
AcDbLine
 10
-24.5
 20
-38.0
 30
0.0
 11
-24.0
 21
-38.0
 31
0.0
  0
LINE
  5
37F
100
AcDbEntity
  8
0
  6
CONTINUOUS
 62
               7
100
AcDbLine
 10
-24.5
 20
1.0
 30
0.0
 11
-24.0
 21
1.0
 31
0.0
  0
ENDBLK
  5
380
100
AcDbEntity
  8
0
100
AcDbBlockEnd
  0
BLOCK
  5
381
100
AcDbEntity
  8
0
100
AcDbBlockBegin
  2
F10T-10
 70
               0
 10
0.0
 20
0.0
 30
0.0
  3
F10T-10
  1

  0
LINE
  5
382
100
AcDbEntity
  8
0
  6
CONTINUOUS
 62
               7
100
AcDbLine
 10
-3.0
 20
24.0
 30
0.0
 11
-3.0
 21
0.0
 31
0.0
  0
LINE
  5
383
100
AcDbEntity
  8
0
  6
CONTINUOUS
 62
               7
100
AcDbLine
 10
22.0
 20
24.0
 30
0.0
 11
22.0
 21
0.0
 31
0.0
  0
LINE
  5
384
100
AcDbEntity
  8
0
  6
CONTINUOUS
 62
               7
100
AcDbLine
 10
-3.0
 20
0.0
 30
0.0
 11
22.0
 21
0.0
 31
0.0
  0
LINE
  5
385
100
AcDbEntity
  8
0
  6
CONTINUOUS
 62
               7
100
AcDbLine
 10
-3.0
 20
24.0
 30
0.0
 11
22.0
 21
24.0
 31
0.0
  0
LINE
  5
386
100
AcDbEntity
  8
0
  6
CONTINUOUS
 62
               2
100
AcDbLine
 10
10.0
 20
-5.0
 30
0.0
 11
10.0
 21
57.280000000000001
 31
0.0
  0
LINE
  5
387
100
AcDbEntity
  8
0
  6
CONTINUOUS
 62
               7
100
AcDbLine
 10
5.0
 20
24.5
 30
0.0
 11
15.0
 21
24.5
 31
0.0
  0
LINE
  5
388
100
AcDbEntity
  8
0
  6
CONTINUOUS
 62
               7
100
AcDbLine
 10
5.0
 20
51.5
 30
0.0
 11
5.0
 21
24.5
 31
0.0
  0
LINE
  5
389
100
AcDbEntity
  8
0
  6
CONTINUOUS
 62
               7
100
AcDbLine
 10
15.0
 20
51.5
 30
0.0
 11
15.0
 21
24.5
 31
0.0
  0
LINE
  5
38A
100
AcDbEntity
  8
0
  6
CONTINUOUS
 62
               7
100
AcDbLine
 10
5.4000000000000004
 20
48.5
 30
0.0
 11
14.6
 21
48.5
 31
0.0
  0
LINE
  5
38B
100
AcDbEntity
  8
0
  6
CONTINUOUS
 62
               7
100
AcDbLine
 10
5.0
 20
43.299999999999997
 30
0.0
 11
6.7999999999999998
 21
43.299999999999997
 31
0.0
  0
LINE
  5
38C
100
AcDbEntity
  8
0
  6
CONTINUOUS
 62
               7
100
AcDbLine
 10
5.0
 20
40.100000000000001
 30
0.0
 11
6.7999999999999998
 21
40.100000000000001
 31
0.0
  0
LINE
  5
38D
100
AcDbEntity
  8
0
  6
CONTINUOUS
 62
               7
100
AcDbLine
 10
11.6
 20
26.300000000000001
 30
0.0
 11
11.6
 21
24.5
 31
0.0
  0
LINE
  5
38E
100
AcDbEntity
  8
0
  6
CONTINUOUS
 62
               7
100
AcDbLine
 10
13.199999999999999
 20
27.899999999999999
 30
0.0
 11
15.0
 21
27.899999999999999
 31
0.0
  0
LINE
  5
38F
100
AcDbEntity
  8
0
  6
CONTINUOUS
 62
               7
100
AcDbLine
 10
12.59
 20
25.690000000000001
 30
0.0
 11
13.800000000000001
 21
26.899999999999999
 31
0.0
  0
LINE
  5
390
100
AcDbEntity
  8
0
  6
CONTINUOUS
 62
               7
100
AcDbLine
 10
6.1900000000000004
 20
41.090000000000003
 30
0.0
 11
7.4000000000000004
 21
42.299999999999997
 31
0.0
  0
LINE
  5
391
100
AcDbEntity
  8
0
  6
CONTINUOUS
 62
               7
100
AcDbLine
 10
6.1900000000000004
 20
42.299999999999997
 30
0.0
 11
7.4000000000000004
 21
41.090000000000003
 31
0.0
  0
LINE
  5
392
100
AcDbEntity
  8
0
  6
CONTINUOUS
 62
               7
100
AcDbLine
 10
12.59
 20
26.899999999999999
 30
0.0
 11
13.800000000000001
 21
25.690000000000001
 31
0.0
  0
LINE
  5
393
100
AcDbEntity
  8
0
  6
CONTINUOUS
 62
               7
100
AcDbLine
 10
5.4000000000000004
 20
49.5
 30
0.0
 11
14.6
 21
49.5
 31
0.0
  0
LINE
  5
394
100
AcDbEntity
  8
0
  6
CONTINUOUS
 62
               7
100
AcDbLine
 10
5.0
 20
49.100000000000001
 30
0.0
 11
15.0
 21
49.100000000000001
 31
0.0
  0
LINE
  5
395
100
AcDbEntity
  8
0
  6
CONTINUOUS
 62
               7
100
AcDbLine
 10
15.0
 20
49.100000000000001
 30
0.0
 11
14.6
 21
49.5
 31
0.0
  0
LINE
  5
396
100
AcDbEntity
  8
0
  6
CONTINUOUS
 62
               7
100
AcDbLine
 10
5.4000000000000004
 20
49.5
 30
0.0
 11
5.0
 21
49.100000000000001
 31
0.0
  0
LINE
  5
397
100
AcDbEntity
  8
0
  6
CONTINUOUS
 62
               7
100
AcDbLine
 10
4.0
 20
24.0
 30
0.0
 11
16.0
 21
24.0
 31
0.0
  0
LINE
  5
398
100
AcDbEntity
  8
0
  6
CONTINUOUS
 62
               7
100
AcDbLine
 10
15.0
 20
49.100000000000001
 30
0.0
 11
5.0
 21
49.100000000000001
 31
0.0
  0
LINE
  5
399
100
AcDbEntity
  8
0
  6
CONTINUOUS
 62
               7
100
AcDbLine
 10
5.0
 20
24.5
 30
0.0
 11
5.0
 21
24.0
 31
0.0
  0
LINE
  5
39A
100
AcDbEntity
  8
0
  6
CONTINUOUS
 62
               7
100
AcDbLine
 10
15.0
 20
24.5
 30
0.0
 11
15.0
 21
24.0
 31
0.0
  0
LINE
  5
39B
100
AcDbEntity
  8
0
  6
CONTINUOUS
 62
               7
100
AcDbLine
 10
5.0
 20
51.5
 30
0.0
 11
15.0
 21
51.5
 31
0.0
  0
LINE
  5
39C
100
AcDbEntity
  8
0
  6
CONTINUOUS
 62
               7
100
AcDbLine
 10
8.0500000000000007
 20
52.5
 30
0.0
 11
11.949999999999999
 21
52.5
 31
0.0
  0
LINE
  5
39D
100
AcDbEntity
  8
0
  6
CONTINUOUS
 62
               7
100
AcDbLine
 10
11.949999999999999
 20
51.5
 30
0.0
 11
11.949999999999999
 21
52.5
 31
0.0
  0
LINE
  5
39E
100
AcDbEntity
  8
0
  6
CONTINUOUS
 62
               7
100
AcDbLine
 10
8.0500000000000007
 20
51.5
 30
0.0
 11
8.0500000000000007
 21
52.5
 31
0.0
  0
LINE
  5
39F
100
AcDbEntity
  8
0
  6
CONTINUOUS
 62
               2
100
AcDbLine
 10
0.0
 20
3.0
 30
0.0
 11
0.0
 21
-3.0
 31
0.0
  0
ARC
  5
3A0
100
AcDbEntity
  8
0
  6
CONTINUOUS
 62
               7
100
AcDbCircle
 10
5.4000091555644758
 20
24.900009155564476
 30
0.0
 40
0.4000091556692538
100
AcDbArc
 50
180.00131140799169
 51
269.99868859200757
  0
ARC
  5
3A1
100
AcDbEntity
  8
0
  6
CONTINUOUS
 62
               7
100
AcDbCircle
 10
5.4000091555644758
 20
48.099990844435524
 30
0.0
 40
0.4000091556692538
100
AcDbArc
 50
90.001311407991636
 51
179.99868859200751
  0
ARC
  5
3A2
100
AcDbEntity
  8
0
  6
CONTINUOUS
 62
               7
100
AcDbCircle
 10
14.599990844435526
 20
48.099990844435524
 30
0.0
 40
0.4000091556692538
100
AcDbArc
 50
0.0013114079920823
 51
89.998688592008222
  0
ARC
  5
3A3
100
AcDbEntity
  8
0
  6
CONTINUOUS
 62
               7
100
AcDbCircle
 10
14.599975585937502
 20
24.9000244140625
 30
0.0
 40
0.4000244148075126
100
AcDbArc
 50
270.00349684341938
 51
359.99650315657863
  0
CIRCLE
  5
3A4
100
AcDbEntity
  8
0
  6
CONTINUOUS
 62
               7
100
AcDbCircle
 10
13.20001220703125
 20
26.29998779296875
 30
0.0
 40
1.25
  0
CIRCLE
  5
3A5
100
AcDbEntity
  8
0
  6
CONTINUOUS
 62
               7
100
AcDbCircle
 10
6.800018310546875
 20
41.70001220703125
 30
0.0
 40
1.25
  0
ARC
  5
3A6
100
AcDbEntity
  8
0
  6
CONTINUOUS
 62
               7
100
AcDbCircle
 10
13.200012207031248
 20
26.29998779296875
 30
0.0
 40
1.6000122070778151
100
AcDbArc
 50
90.000437128771608
 51
179.99956287122774
  0
ARC
  5
3A7
100
AcDbEntity
  8
0
  6
CONTINUOUS
 62
               7
100
AcDbCircle
 10
6.7999999999999998
 20
41.700000000000003
 30
0.0
 40
1.6000000001047718
100
AcDbArc
 50
269.99999999999937
 51
89.999999999999801
  0
ENDBLK
  5
3A8
100
AcDbEntity
  8
0
100
AcDbBlockEnd
  0
BLOCK
  5
3A9
100
AcDbEntity
  8
0
100
AcDbBlockBegin
  2
F10T-11
 70
               0
 10
0.0
 20
0.0
 30
0.0
  3
F10T-11
  1

  0
LINE
  5
3AA
100
AcDbEntity
  8
0
  6
CONTINUOUS
 62
               7
100
AcDbLine
 10
30.5
 20
20.499984741210938
 30
0.0
 11
29.199996948242188
 21
20.499984741210938
 31
0.0
  0
LINE
  5
3AB
100
AcDbEntity
  8
0
  6
CENTER
 62
               2
100
AcDbLine
 10
32.5
 20
26.699996948242188
 30
0.0
 11
29.79998779296875
 21
26.699996948242188
 31
0.0
  0
LINE
  5
3AC
100
AcDbEntity
  8
0
  6
CONTINUOUS
 62
               7
100
AcDbLine
 10
31.5
 20
24.749984741210938
 30
0.0
 11
31.5
 21
26.399993896484375
 31
0.0
  0
LINE
  5
3AD
100
AcDbEntity
  8
0
  6
CONTINUOUS
 62
               7
100
AcDbLine
 10
31.5
 20
24.75
 30
0.0
 11
30.5
 21
24.75
 31
0.0
  0
LINE
  5
3AE
100
AcDbEntity
  8
0
  6
CONTINUOUS
 62
               7
100
AcDbLine
 10
31.499984741210938
 20
28.649993896484375
 30
0.0
 11
30.5
 21
28.649993896484375
 31
0.0
  0
LINE
  5
3AF
100
AcDbEntity
  8
0
  6
CONTINUOUS
 62
               7
100
AcDbLine
 10
30.899993896484375
 20
26.399993896484375
 30
0.0
 11
30.899993896484375
 21
26.999984741210938
 31
0.0
  0
LINE
  5
3B0
100
AcDbEntity
  8
0
  6
CONTINUOUS
 62
               7
100
AcDbLine
 10
31.5
 20
26.399993896484375
 30
0.0
 11
30.899993896484375
 21
26.399993896484375
 31
0.0
  0
LINE
  5
3B1
100
AcDbEntity
  8
0
  6
CONTINUOUS
 62
               7
100
AcDbLine
 10
31.5
 20
27.0
 30
0.0
 11
30.899993896484375
 21
27.0
 31
0.0
  0
LINE
  5
3B2
100
AcDbEntity
  8
0
  6
CONTINUOUS
 62
               7
100
AcDbLine
 10
31.5
 20
26.999984741210938
 30
0.0
 11
31.5
 21
28.649993896484375
 31
0.0
  0
LINE
  5
3B3
100
AcDbEntity
  8
0
  6
CONTINUOUS
 62
               7
100
AcDbLine
 10
30.5
 20
11.399993896484375
 30
0.0
 11
30.5
 21
29.999984741210937
 31
0.0
  0
LINE
  5
3B4
100
AcDbEntity
  8
0
  6
CONTINUOUS
 62
               7
100
AcDbLine
 10
3.4999847412109375
 20
-35.599990844726563
 30
0.0
 11
3.4999847412109375
 21
29.999984741210937
 31
0.0
  0
LINE
  5
3B5
100
AcDbEntity
  8
0
  6
CONTINUOUS
 62
               7
100
AcDbLine
 10
28.500001558660188
 20
-21.399993192521833
 30
0.0
 11
28.099995132288313
 21
-20.999994420067196
 31
0.0
  0
LINE
  5
3B6
100
AcDbEntity
  8
0
  6
CONTINUOUS
 62
               7
100
AcDbLine
 10
28.500001864453225
 20
-28.600005589308239
 30
0.0
 11
28.100000225994336
 21
-29.000009149675861
 31
0.0
  0
LINE
  5
3B7
100
AcDbEntity
  8
0
  6
CONTINUOUS
 62
               7
100
AcDbLine
 10
28.5
 20
-28.599990844726562
 30
0.0
 11
28.5
 21
-21.399997711181641
 31
0.0
  0
LINE
  5
3B8
100
AcDbEntity
  8
0
  6
CONTINUOUS
 62
               7
100
AcDbLine
 10
22.5
 20
11.0
 30
0.0
 11
22.5
 21
-21.0
 31
0.0
  0
LINE
  5
3B9
100
AcDbEntity
  8
0
  6
CONTINUOUS
 62
               7
100
AcDbLine
 10
28.100006103515625
 20
-21.0
 30
0.0
 11
3.4999847412109375
 21
-21.0
 31
0.0
  0
LINE
  5
3BA
100
AcDbEntity
  8
0
  6
CONTINUOUS
 62
               7
100
AcDbLine
 10
30.100006103515625
 20
11.0
 30
0.0
 11
3.4999847412109375
 21
11.0
 31
0.0
  0
LINE
  5
3BB
100
AcDbEntity
  8
0
  6
CONTINUOUS
 62
               7
100
AcDbLine
 10
28.100006103515625
 20
-29.0
 30
0.0
 11
3.4999847412109375
 21
-29.0
 31
0.0
  0
LINE
  5
3BC
100
AcDbEntity
  8
0
  6
CONTINUOUS
 62
               7
100
AcDbLine
 10
27.5
 20
-35.599990844726563
 30
0.0
 11
27.5
 21
-29.0
 31
0.0
  0
LINE
  5
3BD
100
AcDbEntity
  8
0
  6
CONTINUOUS
 62
               7
100
AcDbLine
 10
27.100006103515625
 20
-36.0
 30
0.0
 11
3.899993896484375
 21
-36.0
 31
0.0
  0
LINE
  5
3BE
100
AcDbEntity
  8
0
  6
CONTINUOUS
 62
               7
100
AcDbLine
 10
30.5
 20
18.5
 30
0.0
 11
3.4999847412109375
 21
18.5
 31
0.0
  0
LINE
  5
3BF
100
AcDbEntity
  8
0
  6
CONTINUOUS
 62
               7
100
AcDbLine
 10
22.300003051757813
 20
-36.0
 30
0.0
 11
22.300003051757813
 21
-35.0
 31
0.0
  0
LINE
  5
3C0
100
AcDbEntity
  8
0
  6
CONTINUOUS
 62
               7
100
AcDbLine
 10
22.300003051757813
 20
-35.0
 30
0.0
 11
19.099990844726563
 21
-35.0
 31
0.0
  0
LINE
  5
3C1
100
AcDbEntity
  8
0
  6
CONTINUOUS
 62
               7
100
AcDbLine
 10
27.5
 20
-27.0
 30
0.0
 11
25.5
 21
-27.0
 31
0.0
  0
LINE
  5
3C2
100
AcDbEntity
  8
0
  6
CONTINUOUS
 62
               7
100
AcDbLine
 10
27.5
 20
-23.0
 30
0.0
 11
25.5
 21
-23.0
 31
0.0
  0
LINE
  5
3C3
100
AcDbEntity
  8
0
  6
CONTINUOUS
 62
               7
100
AcDbLine
 10
26.5
 20
-27.100000381469727
 30
0.0
 11
26.5
 21
-27.0
 31
0.0
  0
LINE
  5
3C4
100
AcDbEntity
  8
0
  6
CONTINUOUS
 62
               7
100
AcDbLine
 10
25.5
 20
-29.0
 30
0.0
 11
25.5
 21
-27.0
 31
0.0
  0
LINE
  5
3C5
100
AcDbEntity
  8
0
  6
CONTINUOUS
 62
               7
100
AcDbLine
 10
26.5
 20
-23.0
 30
0.0
 11
26.5
 21
-22.899999618530273
 31
0.0
  0
LINE
  5
3C6
100
AcDbEntity
  8
0
  6
CONTINUOUS
 62
               7
100
AcDbLine
 10
25.5
 20
-23.0
 30
0.0
 11
25.5
 21
-20.999996185302734
 31
0.0
  0
LINE
  5
3C7
100
AcDbEntity
  8
0
  6
CONTINUOUS
 62
               7
100
AcDbLine
 10
25.599990844726563
 20
-29.0
 30
0.0
 11
25.599990844726563
 21
-27.100000381469727
 31
0.0
  0
LINE
  5
3C8
100
AcDbEntity
  8
0
  6
CONTINUOUS
 62
               7
100
AcDbLine
 10
28.099990844726563
 20
-29.000015258789063
 30
0.0
 11
28.099990844726563
 21
-20.999996185302734
 31
0.0
  0
LINE
  5
3C9
100
AcDbEntity
  8
0
  6
CONTINUOUS
 62
               7
100
AcDbLine
 10
28.099990844726563
 20
-27.100000381469727
 30
0.0
 11
25.599990844726563
 21
-27.100000381469727
 31
0.0
  0
LINE
  5
3CA
100
AcDbEntity
  8
0
  6
CONTINUOUS
 62
               7
100
AcDbLine
 10
28.099990844726563
 20
-22.899999618530273
 30
0.0
 11
25.599990844726563
 21
-22.899999618530273
 31
0.0
  0
LINE
  5
3CB
100
AcDbEntity
  8
0
  6
CONTINUOUS
 62
               7
100
AcDbLine
 10
25.599990844726563
 20
-22.899999618530273
 30
0.0
 11
25.599990844726563
 21
-21.0
 31
0.0
  0
LINE
  5
3CC
100
AcDbEntity
  8
0
  6
CONTINUOUS
 62
               7
100
AcDbLine
 10
27.5
 20
-27.100000381469727
 30
0.0
 11
27.5
 21
-22.899999618530273
 31
0.0
  0
LINE
  5
3CD
100
AcDbEntity
  8
0
  6
CONTINUOUS
 62
               7
100
AcDbLine
 10
23.0
 20
-17.049995422363281
 30
0.0
 11
23.0
 21
-18.549995422363281
 31
0.0
  0
LINE
  5
3CE
100
AcDbEntity
  8
0
  6
CONTINUOUS
 62
               7
100
AcDbLine
 10
19.099990844726563
 20
-36.0
 30
0.0
 11
19.099990844726563
 21
-35.0
 31
0.0
  0
LINE
  5
3CF
100
AcDbEntity
  8
0
  6
CONTINUOUS
 62
               7
100
AcDbLine
 10
4.4999847412109375
 20
18.5
 30
0.0
 11
4.4999847412109375
 21
20.499984741210938
 31
0.0
  0
LINE
  5
3D0
100
AcDbEntity
  8
0
  6
CONTINUOUS
 62
               7
100
AcDbLine
 10
6.9999847412109375
 20
18.5
 30
0.0
 11
6.9999847412109375
 21
20.499984741210938
 31
0.0
  0
LINE
  5
3D1
100
AcDbEntity
  8
0
  6
CONTINUOUS
 62
               7
100
AcDbLine
 10
26.199996948242188
 20
18.5
 30
0.0
 11
26.199996948242188
 21
20.499984741210938
 31
0.0
  0
LINE
  5
3D2
100
AcDbEntity
  8
0
  6
CONTINUOUS
 62
               7
100
AcDbLine
 10
29.199996948242188
 20
18.5
 30
0.0
 11
29.199996948242188
 21
20.499984741210938
 31
0.0
  0
LINE
  5
3D3
100
AcDbEntity
  8
0
  6
CONTINUOUS
 62
               7
100
AcDbLine
 10
4.4999847412109375
 20
20.499984741210938
 30
0.0
 11
3.4999847412109375
 21
20.499984741210938
 31
0.0
  0
LINE
  5
3D4
100
AcDbEntity
  8
0
  6
CONTINUOUS
 62
               7
100
AcDbLine
 10
26.199996948242188
 20
20.499984741210938
 30
0.0
 11
6.9999847412109375
 21
20.499984741210938
 31
0.0
  0
LINE
  5
3D5
100
AcDbEntity
  8
0
  6
CONTINUOUS
 62
               7
100
AcDbLine
 10
-5.0
 20
11.5
 30
0.0
 11
-5.0
 21
-21.5
 31
0.0
  0
LINE
  5
3D6
100
AcDbEntity
  8
0
  6
CONTINUOUS
 62
               7
100
AcDbLine
 10
3.0
 20
11.5
 30
0.0
 11
3.0
 21
-21.5
 31
0.0
  0
LINE
  5
3D7
100
AcDbEntity
  8
0
  6
CONTINUOUS
 62
               7
100
AcDbLine
 10
-5.0
 20
-21.5
 30
0.0
 11
3.0
 21
-21.5
 31
0.0
  0
LINE
  5
3D8
100
AcDbEntity
  8
0
  6
CONTINUOUS
 62
               7
100
AcDbLine
 10
-5.0
 20
11.5
 30
0.0
 11
3.0
 21
11.5
 31
0.0
  0
LINE
  5
3D9
100
AcDbEntity
  8
0
  6
CENTER
 62
               2
100
AcDbLine
 10
-2.5
 20
0.0
 30
0.0
 11
2.5
 21
0.0
 31
0.0
  0
LINE
  5
3DA
100
AcDbEntity
  8
0
  6
CENTER
 62
               2
100
AcDbLine
 10
-2.5
 20
-10.0
 30
0.0
 11
2.5
 21
-10.0
 31
0.0
  0
LINE
  5
3DB
100
AcDbEntity
  8
0
  6
CENTER
 62
               2
100
AcDbLine
 10
0.0
 20
2.5
 30
0.0
 11
0.0
 21
-2.5
 31
0.0
  0
LINE
  5
3DC
100
AcDbEntity
  8
0
  6
CENTER
 62
               2
100
AcDbLine
 10
0.0
 20
-7.5
 30
0.0
 11
0.0
 21
-12.5
 31
0.0
  0
LINE
  5
3DD
100
AcDbEntity
  8
0
  6
DASHED
 62
               4
100
AcDbLine
 10
-4.0
 20
9.5
 30
0.0
 11
-4.0
 21
-38.0
 31
0.0
  0
LINE
  5
3DE
100
AcDbEntity
  8
0
  6
DASHED
 62
               4
100
AcDbLine
 10
-4.0
 20
9.5
 30
0.0
 11
10.0
 21
9.5
 31
0.0
  0
LINE
  5
3DF
100
AcDbEntity
  8
0
  6
DASHED
 62
               4
100
AcDbLine
 10
-25.0
 20
-38.0
 30
0.0
 11
10.0
 21
-38.0
 31
0.0
  0
LINE
  5
3E0
100
AcDbEntity
  8
0
  6
DASHED
 62
               4
100
AcDbLine
 10
-25.0
 20
-36.79998779296875
 30
0.0
 11
10.0
 21
-36.79998779296875
 31
0.0
  0
LINE
  5
3E1
100
AcDbEntity
  8
0
  6
DASHED
 62
               4
100
AcDbLine
 10
10.0
 20
9.5
 30
0.0
 11
10.0
 21
-38.0
 31
0.0
  0
LINE
  5
3E2
100
AcDbEntity
  8
0
  6
DASHED
 62
               4
100
AcDbLine
 10
-25.0
 20
-36.79998779296875
 30
0.0
 11
-25.0
 21
-38.0
 31
0.0
  0
LINE
  5
3E3
100
AcDbEntity
  8
0
  6
CONTINUOUS
 62
               7
100
AcDbLine
 10
21.449996948242187
 20
-35.5
 30
0.0
 11
19.949996948242188
 21
-35.5
 31
0.0
  0
LINE
  5
3E4
100
AcDbEntity
  8
0
  6
CONTINUOUS
 62
               7
100
AcDbLine
 10
22.5
 20
-16.199994087219238
 30
0.0
 11
27.5
 21
-16.199994087219238
 31
0.0
  0
ARC
  5
3E5
100
AcDbEntity
  8
0
  6
CONTINUOUS
 62
               7
100
AcDbCircle
 10
3.899993896484375
 20
-35.599990844726563
 30
0.0
 40
0.4000000357627869
100
AcDbArc
 50
180.0000359721783
 51
270.00007262760209
  0
ARC
  5
3E6
100
AcDbEntity
  8
0
  6
CONTINUOUS
 62
               7
100
AcDbCircle
 10
27.100006103515625
 20
-35.599990844726563
 30
0.0
 40
0.4000000357627869
100
AcDbArc
 50
270.00007262760209
 51
0.0000409811350201
  0
ARC
  5
3E7
100
AcDbEntity
  8
0
  6
CONTINUOUS
 62
               7
100
AcDbCircle
 10
30.100006103515625
 20
11.399993896484375
 30
0.0
 40
0.4000000357627869
100
AcDbArc
 50
270.00007262760209
 51
0.0000409811350201
  0
ARC
  5
3E8
100
AcDbEntity
  8
0
  6
CONTINUOUS
 62
               7
100
AcDbCircle
 10
22.5
 20
-18.549995422363281
 30
0.0
 40
0.5
100
AcDbArc
 50
269.99996334457541
 51
359.99994535848583
  0
ARC
  5
3E9
100
AcDbEntity
  8
0
  6
CONTINUOUS
 62
               7
100
AcDbCircle
 10
22.5
 20
-17.049995422363281
 30
0.0
 40
0.5
100
AcDbArc
 50
359.99994535848583
 51
89.999982013910454
  0
CIRCLE
  5
3EA
100
AcDbEntity
  8
0
  6
CONTINUOUS
 62
               7
100
AcDbCircle
 10
0.0
 20
0.0
 30
0.0
 40
1.5999994277954102
  0
CIRCLE
  5
3EB
100
AcDbEntity
  8
0
  6
CONTINUOUS
 62
               7
100
AcDbCircle
 10
0.0
 20
-10.0
 30
0.0
 40
1.5999994277954102
  0
ARC
  5
3EC
100
AcDbEntity
  8
0
  6
CONTINUOUS
 62
               7
100
AcDbCircle
 10
19.949996948242188
 20
-35.0
 30
0.0
 40
0.5
100
AcDbArc
 50
180.0000359721783
 51
270.00001798608872
  0
ARC
  5
3ED
100
AcDbEntity
  8
0
  6
CONTINUOUS
 62
               7
100
AcDbCircle
 10
21.449996948242187
 20
-35.0
 30
0.0
 40
0.5
100
AcDbArc
 50
270.00001798608872
 51
0.0000546415133601
  0
LINE
  5
3EE
100
AcDbEntity
  8
0
  6
CONTINUOUS
 62
               4
100
AcDbLine
 10
30.5
 20
29.999984741210937
 30
0.0
 11
30.5
 21
53.999984741210938
 31
0.0
  0
LINE
  5
3EF
100
AcDbEntity
  8
0
  6
CONTINUOUS
 62
               4
100
AcDbLine
 10
3.5
 20
29.999984741210937
 30
0.0
 11
3.5
 21
53.999984741210938
 31
0.0
  0
LINE
  5
3F0
100
AcDbEntity
  8
0
  6
CONTINUOUS
 62
               4
100
AcDbLine
 10
3.4999862670898381
 20
62.499984741210938
 30
0.0
 11
3.4999862670898381
 21
53.999984741210938
 31
0.0
  0
LINE
  5
3F1
100
AcDbEntity
  8
0
  6
CONTINUOUS
 62
               4
100
AcDbLine
 10
15.749986267089838
 20
54.499984741210938
 30
0.0
 11
15.749986267089838
 21
53.999984741210938
 31
0.0
  0
LINE
  5
3F2
100
AcDbEntity
  8
0
  6
CONTINUOUS
 62
               4
100
AcDbLine
 10
18.249986267089866
 20
54.499984741210938
 30
0.0
 11
18.249986267089866
 21
53.999984741210938
 31
0.0
  0
LINE
  5
3F3
100
AcDbEntity
  8
0
  6
CONTINUOUS
 62
               4
100
AcDbLine
 10
23.499986267089838
 20
56.399984741210943
 30
0.0
 11
23.499986267089838
 21
55.449984741210955
 31
0.0
  0
LINE
  5
3F4
100
AcDbEntity
  8
0
  6
CONTINUOUS
 62
               4
100
AcDbLine
 10
10.599986267089832
 20
56.399984741210943
 30
0.0
 11
10.599986267089832
 21
55.449984741210955
 31
0.0
  0
LINE
  5
3F5
100
AcDbEntity
  8
0
  6
CONTINUOUS
 62
               4
100
AcDbLine
 10
18.249986267089866
 20
54.499984741210938
 30
0.0
 11
15.749986267089838
 21
54.499984741210938
 31
0.0
  0
LINE
  5
3F6
100
AcDbEntity
  8
0
  6
CONTINUOUS
 62
               4
100
AcDbLine
 10
25.599986267089832
 20
56.399984741210943
 30
0.0
 11
23.499986267089838
 21
56.399984741210943
 31
0.0
  0
LINE
  5
3F7
100
AcDbEntity
  8
0
  6
CONTINUOUS
 62
               4
100
AcDbLine
 10
10.599986267089832
 20
56.399984741210943
 30
0.0
 11
8.4999862670898381
 21
56.399984741210943
 31
0.0
  0
LINE
  5
3F8
100
AcDbEntity
  8
0
  6
CONTINUOUS
 62
               4
100
AcDbLine
 10
30.499986267089838
 20
58.179984741210944
 30
0.0
 11
30.499986267089838
 21
53.999984741210938
 31
0.0
  0
LINE
  5
3F9
100
AcDbEntity
  8
0
  6
CONTINUOUS
 62
               4
100
AcDbLine
 10
28.174007105653885
 20
62.999984741210938
 30
0.0
 11
14.599986267089832
 21
62.999984741210938
 31
0.0
  0
LINE
  5
3FA
100
AcDbEntity
  8
0
  6
CONTINUOUS
 62
               4
100
AcDbLine
 10
28.629986267089834
 20
62.70498474121095
 30
0.0
 11
30.369986267089843
 21
58.78998474121093
 31
0.0
  0
ARC
  5
3FB
100
AcDbEntity
  8
0
  6
CONTINUOUS
 62
               4
100
AcDbCircle
 10
28.174007105653885
 20
62.500084678657203
 30
0.0
 40
0.4999010215015999
100
AcDbArc
 50
24.197376208904771
 51
89.887774076864815
  0
ARC
  5
3FC
100
AcDbEntity
  8
0
  6
CONTINUOUS
 62
               4
100
AcDbCircle
 10
29.002006662450412
 20
58.179595645140239
 30
0.0
 40
1.4979796551727449
100
AcDbArc
 50
0.0148824203654679
 51
24.046309772710686
  0
LINE
  5
3FD
100
AcDbEntity
  8
0
  6
CONTINUOUS
 62
               4
100
AcDbLine
 10
25.599986267089832
 20
56.399984741210943
 30
0.0
 11
25.599986267089832
 21
55.449984741210955
 31
0.0
  0
LINE
  5
3FE
100
AcDbEntity
  8
0
  6
CONTINUOUS
 62
               4
100
AcDbLine
 10
8.4999862670898381
 20
56.399984741210943
 30
0.0
 11
8.4999862670898381
 21
55.449984741210955
 31
0.0
  0
LINE
  5
3FF
100
AcDbEntity
  8
0
  6
CONTINUOUS
 62
               4
100
AcDbLine
 10
10.599986267089832
 20
55.449984741210955
 30
0.0
 11
8.4999862670898381
 21
55.449984741210955
 31
0.0
  0
LINE
  5
400
100
AcDbEntity
  8
0
  6
CONTINUOUS
 62
               4
100
AcDbLine
 10
25.599986267089832
 20
55.449984741210955
 30
0.0
 11
23.499986267089838
 21
55.449984741210955
 31
0.0
  0
LINE
  5
401
100
AcDbEntity
  8
0
  6
CONTINUOUS
 62
               4
100
AcDbLine
 10
14.599986267089832
 20
67.499984741210938
 30
0.0
 11
14.599986267089832
 21
62.999984741210938
 31
0.0
  0
LINE
  5
402
100
AcDbEntity
  8
0
  6
CONTINUOUS
 62
               4
100
AcDbLine
 10
5.9999862670898381
 20
67.499984741210938
 30
0.0
 11
5.9999862670898381
 21
62.999984741210938
 31
0.0
  0
LINE
  5
403
100
AcDbEntity
  8
0
  6
CONTINUOUS
 62
               4
100
AcDbLine
 10
5.9999862670898381
 20
62.999984741210938
 30
0.0
 11
3.9999862670898381
 21
62.999984741210938
 31
0.0
  0
ARC
  5
404
100
AcDbEntity
  8
0
  6
CONTINUOUS
 62
               4
100
AcDbCircle
 10
3.9999862670898381
 20
62.499984741210938
 30
0.0
 40
0.5
100
AcDbArc
 50
89.999999999999815
 51
179.99999999999963
  0
LINE
  5
405
100
AcDbEntity
  8
0
  6
CONTINUOUS
 62
               4
100
AcDbLine
 10
18.249986267089838
 20
54.499984741210938
 30
0.0
 11
18.249986267089838
 21
53.999984741210938
 31
0.0
  0
LINE
  5
406
100
AcDbEntity
  8
0
  6
CONTINUOUS
 62
               4
100
AcDbLine
 10
15.749986267089838
 20
54.499984741210938
 30
0.0
 11
15.749986267089838
 21
53.999984741210938
 31
0.0
  0
LINE
  5
407
100
AcDbEntity
  8
0
  6
CONTINUOUS
 62
               4
100
AcDbLine
 10
15.749986267089838
 20
54.499984741210938
 30
0.0
 11
18.249986267089838
 21
54.499984741210938
 31
0.0
  0
LINE
  5
408
100
AcDbEntity
  8
0
  6
CONTINUOUS
 62
             200
100
AcDbLine
 10
13.314980610187547
 20
79.464449556289765
 30
0.0
 11
6.3849704566684409
 21
75.463397651774358
 31
0.0
  0
LINE
  5
409
100
AcDbEntity
  8
0
  6
CONTINUOUS
 62
             200
100
AcDbLine
 10
13.31500515856186
 20
80.619090551145746
 30
0.0
 11
6.3849760669983766
 21
76.61804198736445
 31
0.0
  0
LINE
  5
40A
100
AcDbEntity
  8
0
  6
CONTINUOUS
 62
               4
100
AcDbLine
 10
7.8849899291992074
 20
73.999984741210937
 30
0.0
 11
7.8849899291992074
 21
76.32940673828125
 31
0.0
  0
LINE
  5
40B
100
AcDbEntity
  8
0
  6
CONTINUOUS
 62
               4
100
AcDbLine
 10
9.3149978637695199
 20
73.999984741210937
 30
0.0
 11
9.3149978637695199
 21
77.155014038085938
 31
0.0
  0
LINE
  5
40C
100
AcDbEntity
  8
0
  6
CONTINUOUS
 62
               4
100
AcDbLine
 10
8.1999923706054574
 20
86.999984741210938
 30
0.0
 11
8.9999954223632699
 21
86.999984741210938
 31
0.0
  0
LINE
  5
40D
100
AcDbEntity
  8
0
  6
CONTINUOUS
 62
               4
100
AcDbLine
 10
8.1999923706054574
 20
81.999984741210937
 30
0.0
 11
8.1999923706054574
 21
86.999969482421875
 31
0.0
  0
LINE
  5
40E
100
AcDbEntity
  8
0
  6
CONTINUOUS
 62
               4
100
AcDbLine
 10
8.9999954223632699
 20
81.999984741210937
 30
0.0
 11
8.9999954223632699
 21
86.999984741210938
 31
0.0
  0
LINE
  5
40F
100
AcDbEntity
  8
0
  6
CONTINUOUS
 62
               4
100
AcDbLine
 10
7.8849899291992074
 20
81.999984741210937
 30
0.0
 11
9.3149978637695199
 21
81.999984741210937
 31
0.0
  0
LINE
  5
410
100
AcDbEntity
  8
0
  6
CONTINUOUS
 62
               4
100
AcDbLine
 10
7.8849899291992074
 20
77.484100341796875
 30
0.0
 11
7.8849899291992074
 21
81.999984741210937
 31
0.0
  0
LINE
  5
411
100
AcDbEntity
  8
0
  6
CONTINUOUS
 62
               4
100
AcDbLine
 10
9.3149978637695199
 20
78.309722900390625
 30
0.0
 11
9.3149978637695199
 21
81.999984741210937
 31
0.0
  0
LINE
  5
412
100
AcDbEntity
  8
0
  6
CONTINUOUS
 62
               7
100
AcDbLine
 10
3.5
 20
29.999984741210937
 30
0.0
 11
30.5
 21
29.999984741210937
 31
0.0
  0
LINE
  5
413
100
AcDbEntity
  8
0
  6
CONTINUOUS
 62
               4
100
AcDbLine
 10
11.81499786376952
 20
79.753097534179688
 30
0.0
 11
11.81499786376952
 21
81.999984741210937
 31
0.0
  0
LINE
  5
414
100
AcDbEntity
  8
0
  6
CONTINUOUS
 62
               4
100
AcDbLine
 10
10.384989929199207
 20
78.927474975585938
 30
0.0
 11
10.384989929199207
 21
81.999984741210937
 31
0.0
  0
LINE
  5
415
100
AcDbEntity
  8
0
  6
CONTINUOUS
 62
               4
100
AcDbLine
 10
11.81499786376952
 20
81.999984741210937
 30
0.0
 11
10.384989929199207
 21
81.999984741210937
 31
0.0
  0
LINE
  5
416
100
AcDbEntity
  8
0
  6
CONTINUOUS
 62
               4
100
AcDbLine
 10
10.384989929199207
 20
73.999984741210937
 30
0.0
 11
10.384989929199207
 21
77.772781372070313
 31
0.0
  0
LINE
  5
417
100
AcDbEntity
  8
0
  6
CONTINUOUS
 62
               4
100
AcDbLine
 10
11.81499786376952
 20
73.999984741210937
 30
0.0
 11
11.81499786376952
 21
78.598388671875
 31
0.0
  0
LINE
  5
418
100
AcDbEntity
  8
0
  6
CONTINUOUS
 62
               4
100
AcDbLine
 10
11.49999542236327
 20
81.999984741210937
 30
0.0
 11
11.49999542236327
 21
86.999984741210938
 31
0.0
  0
LINE
  5
419
100
AcDbEntity
  8
0
  6
CONTINUOUS
 62
               4
100
AcDbLine
 10
10.699992370605457
 20
81.999984741210937
 30
0.0
 11
10.699992370605457
 21
86.999984741210938
 31
0.0
  0
LINE
  5
41A
100
AcDbEntity
  8
0
  6
CONTINUOUS
 62
               4
100
AcDbLine
 10
11.49999542236327
 20
86.999984741210938
 30
0.0
 11
10.699992370605457
 21
86.999984741210938
 31
0.0
  0
LINE
  5
41B
100
AcDbEntity
  8
0
  6
CONTINUOUS
 62
               4
100
AcDbLine
 10
16.649989318847645
 20
72.499984741210937
 30
0.0
 11
16.649989318847645
 21
73.999984741210937
 31
0.0
  0
LINE
  5
41C
100
AcDbEntity
  8
0
  6
CONTINUOUS
 62
               4
100
AcDbLine
 10
14.650030778693861
 20
72.999943684112623
 30
0.0
 11
15.227382594457765
 21
73.999952389067403
 31
0.0
  0
LINE
  5
41D
100
AcDbEntity
  8
0
  6
CONTINUOUS
 62
               4
100
AcDbLine
 10
14.649989318847645
 20
67.499984741210938
 30
0.0
 11
14.649989318847645
 21
73.999984741210937
 31
0.0
  0
LINE
  5
41E
100
AcDbEntity
  8
0
  6
CONTINUOUS
 62
               4
100
AcDbLine
 10
15.649987569326356
 20
63.498435482970308
 30
0.0
 11
16.149986678203447
 21
67.056123566659153
 31
0.0
  0
LINE
  5
41F
100
AcDbEntity
  8
0
  6
CONTINUOUS
 62
               4
100
AcDbLine
 10
16.149989318847645
 20
67.056137084960938
 30
0.0
 11
16.149989318847645
 21
72.499984741210937
 31
0.0
  0
LINE
  5
420
100
AcDbEntity
  8
0
  6
CONTINUOUS
 62
               4
100
AcDbLine
 10
5.6499740600585824
 20
72.999984741210937
 30
0.0
 11
6.1499740600585824
 21
72.999984741210937
 31
0.0
  0
LINE
  5
421
100
AcDbEntity
  8
0
  6
CONTINUOUS
 62
               4
100
AcDbLine
 10
5.6499893188476449
 20
72.999984741210937
 30
0.0
 11
5.6499893188476449
 21
73.999984741210937
 31
0.0
  0
LINE
  5
422
100
AcDbEntity
  8
0
  6
CONTINUOUS
 62
               4
100
AcDbLine
 10
6.1499893188476449
 20
67.499984741210938
 30
0.0
 11
6.1499893188476449
 21
72.999984741210937
 31
0.0
  0
LINE
  5
423
100
AcDbEntity
  8
0
  6
CONTINUOUS
 62
               4
100
AcDbLine
 10
14.649986476497531
 20
63.498458893081079
 30
0.0
 11
14.599965923191291
 21
63.548479446387319
 31
0.0
  0
LINE
  5
424
100
AcDbEntity
  8
0
  6
CONTINUOUS
 62
               4
100
AcDbLine
 10
16.149981689453114
 20
72.499984741210937
 30
0.0
 11
16.649981689453114
 21
72.499984741210937
 31
0.0
  0
LINE
  5
425
100
AcDbEntity
  8
0
  6
CONTINUOUS
 62
               4
100
AcDbLine
 10
14.649989318847645
 20
64.998443603515625
 30
0.0
 11
14.649989318847645
 21
67.499984741210938
 31
0.0
  0
LINE
  5
426
100
AcDbEntity
  8
0
  6
CONTINUOUS
 62
               4
100
AcDbLine
 10
14.649989318847645
 20
63.498443603515625
 30
0.0
 11
15.649981689453114
 21
63.498443603515625
 31
0.0
  0
LINE
  5
427
100
AcDbEntity
  8
0
  6
CONTINUOUS
 62
               4
100
AcDbLine
 10
14.599986267089832
 20
64.998443603515625
 30
0.0
 11
14.649989318847645
 21
64.998443603515625
 31
0.0
  0
LINE
  5
428
100
AcDbEntity
  8
0
  6
CONTINUOUS
 62
               4
100
AcDbLine
 10
15.227336120605457
 20
73.999984741210937
 30
0.0
 11
16.649981689453114
 21
73.999984741210937
 31
0.0
  0
LINE
  5
429
100
AcDbEntity
  8
0
  6
CONTINUOUS
 62
               4
100
AcDbLine
 10
5.9999862670898381
 20
67.499984741210938
 30
0.0
 11
14.649989318847645
 21
67.499984741210938
 31
0.0
  0
LINE
  5
42A
100
AcDbEntity
  8
0
  6
CONTINUOUS
 62
               4
100
AcDbLine
 10
5.6499740600585824
 20
73.999984741210937
 30
0.0
 11
14.649974060058582
 21
73.999984741210937
 31
0.0
  0
LINE
  5
42B
100
AcDbEntity
  8
0
  6
CONTINUOUS
 62
               4
100
AcDbLine
 10
14.599986267089832
 20
67.499984741210938
 30
0.0
 11
14.599986267089832
 21
62.999984741210938
 31
0.0
  0
LINE
  5
42C
100
AcDbEntity
  8
0
  6
CONTINUOUS
 62
               4
100
AcDbLine
 10
3.4999862670898381
 20
53.999984741210938
 30
0.0
 11
30.499992370605469
 21
53.999984741210938
 31
0.0
  0
LINE
  5
42D
100
AcDbEntity
  8
0
  6
CONTINUOUS
 62
               4
100
AcDbLine
 10
5.0999999999999943
 20
46.999984741210937
 30
0.0
 11
5.0999999999999943
 21
53.999984741210938
 31
0.0
  0
LINE
  5
42E
100
AcDbEntity
  8
0
  6
CONTINUOUS
 62
               4
100
AcDbLine
 10
4.1999999999999886
 20
46.999984741210937
 30
0.0
 11
4.1999999999999886
 21
53.999984741210938
 31
0.0
  0
LINE
  5
42F
100
AcDbEntity
  8
0
  6
CONTINUOUS
 62
               4
100
AcDbLine
 10
3.4999862670898381
 20
46.999984741210937
 30
0.0
 11
5.0999999999999943
 21
46.999984741210937
 31
0.0
  0
LINE
  5
430
100
AcDbEntity
  8
0
  6
CENTER
 62
               2
100
AcDbLine
 10
44.400000000000006
 20
0.5
 30
0.0
 11
22.099999999999994
 21
0.5
 31
0.0
  0
LINE
  5
431
100
AcDbEntity
  8
0
  6
CONTINUOUS
 62
               7
100
AcDbLine
 10
27.5
 20
10.400000000000006
 30
0.0
 11
27.5
 21
-5.0
 31
0.0
  0
LINE
  5
432
100
AcDbEntity
  8
0
  6
CONTINUOUS
 62
               7
100
AcDbLine
 10
27.5
 20
-20.400000000000006
 30
0.0
 11
27.5
 21
-5.0
 31
0.0
  0
LINE
  5
433
100
AcDbEntity
  8
0
  6
CENTER
 62
               2
100
AcDbLine
 10
44.400000000000006
 20
-10.5
 30
0.0
 11
22.099999999999994
 21
-10.5
 31
0.0
  0
LINE
  5
434
100
AcDbEntity
  8
0
  6
CONTINUOUS
 62
               7
100
AcDbLine
 10
32.5
 20
-15.5
 30
0.0
 11
32.400000000000006
 21
-15.399999999999977
 31
0.0
  0
LINE
  5
435
100
AcDbEntity
  8
0
  6
CONTINUOUS
 62
               7
100
AcDbLine
 10
32.400000000000006
 20
-15.400000000000006
 30
0.0
 11
32.299999999999983
 21
-15.5
 31
0.0
  0
LINE
  5
436
100
AcDbEntity
  8
0
  6
CONTINUOUS
 62
               7
100
AcDbLine
 10
32.299999999999983
 20
-15.5
 30
0.0
 11
27.5
 21
-15.5
 31
0.0
  0
LINE
  5
437
100
AcDbEntity
  8
0
  6
CONTINUOUS
 62
               7
100
AcDbLine
 10
32.400000000000006
 20
-5.5999999999999943
 30
0.0
 11
32.300000000000011
 21
-5.5
 31
0.0
  0
LINE
  5
438
100
AcDbEntity
  8
0
  6
CONTINUOUS
 62
               7
100
AcDbLine
 10
32.5
 20
-5.5
 30
0.0
 11
32.400000000000006
 21
-5.5999999999999943
 31
0.0
  0
LINE
  5
439
100
AcDbEntity
  8
0
  6
CONTINUOUS
 62
               7
100
AcDbLine
 10
32.300000000000011
 20
-5.5
 30
0.0
 11
27.5
 21
-5.5
 31
0.0
  0
LINE
  5
43A
100
AcDbEntity
  8
0
  6
CONTINUOUS
 62
               7
100
AcDbLine
 10
32.5
 20
-15.5
 30
0.0
 11
32.5
 21
-5.5
 31
0.0
  0
LINE
  5
43B
100
AcDbEntity
  8
0
  6
CONTINUOUS
 62
               7
100
AcDbLine
 10
32.400000000000006
 20
-15.400000000000006
 30
0.0
 11
32.400000000000006
 21
-5.5999999999999943
 31
0.0
  0
LINE
  5
43C
100
AcDbEntity
  8
0
  6
CONTINUOUS
 62
               7
100
AcDbLine
 10
41.200000204906019
 20
-15.43397444486618
 30
0.0
 11
41.200000204906019
 21
-5.5660255551338196
 31
0.0
  0
LINE
  5
43D
100
AcDbEntity
  8
0
  6
CONTINUOUS
 62
               7
100
AcDbLine
 10
41.161879999999996
 20
-15.5
 30
0.0
 11
41.161879999999996
 21
-5.5
 31
0.0
  0
LINE
  5
43E
100
AcDbEntity
  8
0
  6
CONTINUOUS
 62
               7
100
AcDbLine
 10
42.0
 20
-14.550000000000011
 30
0.0
 11
42.0
 21
-6.4500000000000171
 31
0.0
  0
LINE
  5
43F
100
AcDbEntity
  8
0
  6
CONTINUOUS
 62
               7
100
AcDbLine
 10
41.161879999999996
 20
-15.5
 30
0.0
 11
41.199999999999989
 21
-15.433974800000016
 31
0.0
  0
LINE
  5
440
100
AcDbEntity
  8
0
  6
CONTINUOUS
 62
               7
100
AcDbLine
 10
41.199999999999989
 20
-15.433974500000005
 30
0.0
 11
41.699999999999989
 21
-15.299999600000007
 31
0.0
  0
LINE
  5
441
100
AcDbEntity
  8
0
  6
CONTINUOUS
 62
               7
100
AcDbLine
 10
41.699999999999989
 20
-14.550000000000011
 30
0.0
 11
42.0
 21
-14.550000000000011
 31
0.0
  0
LINE
  5
442
100
AcDbEntity
  8
0
  6
CONTINUOUS
 62
               7
100
AcDbLine
 10
42.0
 20
-14.550000000000011
 30
0.0
 11
42.099999999999994
 21
-14.450000000000017
 31
0.0
  0
LINE
  5
443
100
AcDbEntity
  8
0
  6
CONTINUOUS
 62
               7
100
AcDbLine
 10
41.161879999999996
 20
-15.5
 30
0.0
 11
37.199999999999989
 21
-15.5
 31
0.0
  0
LINE
  5
444
100
AcDbEntity
  8
0
  6
CONTINUOUS
 62
               7
100
AcDbLine
 10
43.0
 20
-14.0
 30
0.0
 11
42.099999999999994
 21
-14.0
 31
0.0
  0
LINE
  5
445
100
AcDbEntity
  8
0
  6
CONTINUOUS
 62
               7
100
AcDbLine
 10
41.699999999999989
 20
-15.299999600000007
 30
0.0
 11
41.699999999999989
 21
-5.7000004053115845
 31
0.0
  0
LINE
  5
446
100
AcDbEntity
  8
0
  6
CONTINUOUS
 62
               7
100
AcDbLine
 10
42.099999999999994
 20
-14.450000000000017
 30
0.0
 11
42.099999999999994
 21
-6.5500000000000114
 31
0.0
  0
LINE
  5
447
100
AcDbEntity
  8
0
  6
CONTINUOUS
 62
               7
100
AcDbLine
 10
42.0
 20
-6.4500000000000171
 30
0.0
 11
42.099999999999994
 21
-6.5500000000000114
 31
0.0
  0
LINE
  5
448
100
AcDbEntity
  8
0
  6
CONTINUOUS
 62
               7
100
AcDbLine
 10
41.699999999999989
 20
-6.4500000000000171
 30
0.0
 11
42.0
 21
-6.4500000000000171
 31
0.0
  0
LINE
  5
449
100
AcDbEntity
  8
0
  6
CONTINUOUS
 62
               7
100
AcDbLine
 10
41.199999999999989
 20
-5.5660255000000234
 30
0.0
 11
41.699999999999989
 21
-5.7000004000000217
 31
0.0
  0
LINE
  5
44A
100
AcDbEntity
  8
0
  6
CONTINUOUS
 62
               7
100
AcDbLine
 10
41.161879999999996
 20
-5.5
 30
0.0
 11
41.199999999999989
 21
-5.5660252000000128
 31
0.0
  0
LINE
  5
44B
100
AcDbEntity
  8
0
  6
CONTINUOUS
 62
               7
100
AcDbLine
 10
37.199999999999989
 20
-15.5
 30
0.0
 11
37.0
 21
-15.300000000000011
 31
0.0
  0
LINE
  5
44C
100
AcDbEntity
  8
0
  6
CONTINUOUS
 62
               7
100
AcDbLine
 10
37.199999999999989
 20
-5.5
 30
0.0
 11
37.0
 21
-5.7000000000000171
 31
0.0
  0
LINE
  5
44D
100
AcDbEntity
  8
0
  6
CONTINUOUS
 62
               7
100
AcDbLine
 10
36.300000000000011
 20
-14.75
 30
0.0
 11
37.0
 21
-14.75
 31
0.0
  0
LINE
  5
44E
100
AcDbEntity
  8
0
  6
CONTINUOUS
 62
               7
100
AcDbLine
 10
37.0
 20
-6.25
 30
0.0
 11
36.300000000000011
 21
-6.25
 31
0.0
  0
LINE
  5
44F
100
AcDbEntity
  8
0
  6
CONTINUOUS
 62
               7
100
AcDbLine
 10
37.199999999999989
 20
-15.5
 30
0.0
 11
37.199999999999989
 21
-5.5
 31
0.0
  0
LINE
  5
450
100
AcDbEntity
  8
0
  6
CONTINUOUS
 62
               7
100
AcDbLine
 10
37.0
 20
-15.300000000000011
 30
0.0
 11
37.0
 21
-5.7000000000000171
 31
0.0
  0
LINE
  5
451
100
AcDbEntity
  8
0
  6
CONTINUOUS
 62
               7
100
AcDbLine
 10
36.300000000000011
 20
-15.300000000000011
 30
0.0
 11
36.099999999999994
 21
-15.5
 31
0.0
  0
LINE
  5
452
100
AcDbEntity
  8
0
  6
CONTINUOUS
 62
               7
100
AcDbLine
 10
36.300000000000011
 20
-5.7000000000000171
 30
0.0
 11
36.099999999999994
 21
-5.5
 31
0.0
  0
LINE
  5
453
100
AcDbEntity
  8
0
  6
CONTINUOUS
 62
               7
100
AcDbLine
 10
36.300000000000011
 20
-15.300000000000011
 30
0.0
 11
36.300000000000011
 21
-5.7000000000000171
 31
0.0
  0
LINE
  5
454
100
AcDbEntity
  8
0
  6
CONTINUOUS
 62
               7
100
AcDbLine
 10
36.099999999999994
 20
-15.5
 30
0.0
 11
36.099999999999994
 21
-5.5
 31
0.0
  0
LINE
  5
455
100
AcDbEntity
  8
0
  6
CONTINUOUS
 62
               7
100
AcDbLine
 10
36.099999999999994
 20
-5.5
 30
0.0
 11
32.5
 21
-5.5
 31
0.0
  0
LINE
  5
456
100
AcDbEntity
  8
0
  6
CONTINUOUS
 62
               7
100
AcDbLine
 10
36.099999999999994
 20
-15.5
 30
0.0
 11
32.5
 21
-15.5
 31
0.0
  0
LINE
  5
457
100
AcDbEntity
  8
0
  6
CONTINUOUS
 62
               7
100
AcDbLine
 10
43.800000000000011
 20
-15.400000000000006
 30
0.0
 11
43.0
 21
-15.400000000000006
 31
0.0
  0
ARC
  5
458
100
AcDbEntity
  8
0
  6
CONTINUOUS
 62
               7
100
AcDbCircle
 10
43.800000000000011
 20
-15.200000000000017
 30
0.0
 40
0.2
100
AcDbArc
 50
270.00000000000023
 51
0.0
  0
LINE
  5
459
100
AcDbEntity
  8
0
  6
CONTINUOUS
 62
               7
100
AcDbLine
 10
41.161879999999996
 20
-5.5
 30
0.0
 11
37.199999999999989
 21
-5.5
 31
0.0
  0
LINE
  5
45A
100
AcDbEntity
  8
0
  6
CONTINUOUS
 62
               7
100
AcDbLine
 10
43.0
 20
-15.400000000000006
 30
0.0
 11
43.0
 21
-5.5999999940395355
 31
0.0
  0
LINE
  5
45B
100
AcDbEntity
  8
0
  6
CONTINUOUS
 62
               7
100
AcDbLine
 10
43.0
 20
-7.0
 30
0.0
 11
42.099999999999994
 21
-7.0
 31
0.0
  0
ARC
  5
45C
100
AcDbEntity
  8
0
  6
CONTINUOUS
 62
               7
100
AcDbCircle
 10
43.800000000000011
 20
-5.8000000000000114
 30
0.0
 40
0.2
100
AcDbArc
 50
0.0
 51
89.999999999999815
  0
LINE
  5
45D
100
AcDbEntity
  8
0
  6
CONTINUOUS
 62
               7
100
AcDbLine
 10
43.800000000000011
 20
-5.6000000000000227
 30
0.0
 11
43.0
 21
-5.6000000000000227
 31
0.0
  0
LINE
  5
45E
100
AcDbEntity
  8
0
  6
CONTINUOUS
 62
               7
100
AcDbLine
 10
44.0
 20
-15.200000000000017
 30
0.0
 11
44.0
 21
-5.800000011920929
 31
0.0
  0
LINE
  5
45F
100
AcDbEntity
  8
0
  6
CONTINUOUS
 62
               7
100
AcDbLine
 10
44.0
 20
5.1999999999999886
 30
0.0
 11
44.0
 21
-4.199999988079071
 31
0.0
  0
LINE
  5
460
100
AcDbEntity
  8
0
  6
CONTINUOUS
 62
               7
100
AcDbLine
 10
43.800000000000011
 20
-4.4000000000000057
 30
0.0
 11
43.0
 21
-4.4000000000000057
 31
0.0
  0
ARC
  5
461
100
AcDbEntity
  8
0
  6
CONTINUOUS
 62
               7
100
AcDbCircle
 10
43.800000000000011
 20
-4.1999999999999886
 30
0.0
 40
0.2
100
AcDbArc
 50
269.99999999999937
 51
0.0
  0
LINE
  5
462
100
AcDbEntity
  8
0
  6
CONTINUOUS
 62
               7
100
AcDbLine
 10
43.0
 20
-3.0
 30
0.0
 11
42.099999999999994
 21
-3.0
 31
0.0
  0
LINE
  5
463
100
AcDbEntity
  8
0
  6
CONTINUOUS
 62
               7
100
AcDbLine
 10
43.0
 20
5.3999999999999773
 30
0.0
 11
43.0
 21
-4.4000000059604645
 31
0.0
  0
LINE
  5
464
100
AcDbEntity
  8
0
  6
CONTINUOUS
 62
               7
100
AcDbLine
 10
41.161879999999996
 20
-4.5
 30
0.0
 11
37.199999999999989
 21
-4.5
 31
0.0
  0
ARC
  5
465
100
AcDbEntity
  8
0
  6
CONTINUOUS
 62
               7
100
AcDbCircle
 10
43.800000000000011
 20
5.1999999999999886
 30
0.0
 40
0.2
100
AcDbArc
 50
0.0
 51
89.999999999999815
  0
LINE
  5
466
100
AcDbEntity
  8
0
  6
CONTINUOUS
 62
               7
100
AcDbLine
 10
43.800000000000011
 20
5.3999999999999773
 30
0.0
 11
43.0
 21
5.3999999999999773
 31
0.0
  0
LINE
  5
467
100
AcDbEntity
  8
0
  6
CONTINUOUS
 62
               7
100
AcDbLine
 10
36.099999999999994
 20
5.5
 30
0.0
 11
32.5
 21
5.5
 31
0.0
  0
LINE
  5
468
100
AcDbEntity
  8
0
  6
CONTINUOUS
 62
               7
100
AcDbLine
 10
36.099999999999994
 20
-4.5
 30
0.0
 11
32.5
 21
-4.5
 31
0.0
  0
LINE
  5
469
100
AcDbEntity
  8
0
  6
CONTINUOUS
 62
               7
100
AcDbLine
 10
36.099999999999994
 20
5.5
 30
0.0
 11
36.099999999999994
 21
-4.5
 31
0.0
  0
LINE
  5
46A
100
AcDbEntity
  8
0
  6
CONTINUOUS
 62
               7
100
AcDbLine
 10
36.300000000000011
 20
5.3000000000000114
 30
0.0
 11
36.300000000000011
 21
-4.3000000000000114
 31
0.0
  0
LINE
  5
46B
100
AcDbEntity
  8
0
  6
CONTINUOUS
 62
               7
100
AcDbLine
 10
36.300000000000011
 20
-4.3000000000000114
 30
0.0
 11
36.099999999999994
 21
-4.5
 31
0.0
  0
LINE
  5
46C
100
AcDbEntity
  8
0
  6
CONTINUOUS
 62
               7
100
AcDbLine
 10
36.300000000000011
 20
5.3000000000000114
 30
0.0
 11
36.099999999999994
 21
5.5
 31
0.0
  0
LINE
  5
46D
100
AcDbEntity
  8
0
  6
CONTINUOUS
 62
               7
100
AcDbLine
 10
37.0
 20
5.3000000000000114
 30
0.0
 11
37.0
 21
-4.3000000000000114
 31
0.0
  0
LINE
  5
46E
100
AcDbEntity
  8
0
  6
CONTINUOUS
 62
               7
100
AcDbLine
 10
37.199999999999989
 20
5.5
 30
0.0
 11
37.199999999999989
 21
-4.5
 31
0.0
  0
LINE
  5
46F
100
AcDbEntity
  8
0
  6
CONTINUOUS
 62
               7
100
AcDbLine
 10
37.0
 20
-3.75
 30
0.0
 11
36.300000000000011
 21
-3.75
 31
0.0
  0
LINE
  5
470
100
AcDbEntity
  8
0
  6
CONTINUOUS
 62
               7
100
AcDbLine
 10
36.300000000000011
 20
4.75
 30
0.0
 11
37.0
 21
4.75
 31
0.0
  0
LINE
  5
471
100
AcDbEntity
  8
0
  6
CONTINUOUS
 62
               7
100
AcDbLine
 10
37.199999999999989
 20
-4.5
 30
0.0
 11
37.0
 21
-4.3000000000000114
 31
0.0
  0
LINE
  5
472
100
AcDbEntity
  8
0
  6
CONTINUOUS
 62
               7
100
AcDbLine
 10
37.199999999999989
 20
5.5
 30
0.0
 11
37.0
 21
5.3000000000000114
 31
0.0
  0
LINE
  5
473
100
AcDbEntity
  8
0
  6
CONTINUOUS
 62
               7
100
AcDbLine
 10
41.161879999999996
 20
-4.5
 30
0.0
 11
41.199999999999989
 21
-4.4339748000000156
 31
0.0
  0
LINE
  5
474
100
AcDbEntity
  8
0
  6
CONTINUOUS
 62
               7
100
AcDbLine
 10
41.199999999999989
 20
-4.433974500000005
 30
0.0
 11
41.699999999999989
 21
-4.2999996000000067
 31
0.0
  0
LINE
  5
475
100
AcDbEntity
  8
0
  6
CONTINUOUS
 62
               7
100
AcDbLine
 10
41.699999999999989
 20
-3.5500000000000114
 30
0.0
 11
42.0
 21
-3.5500000000000114
 31
0.0
  0
LINE
  5
476
100
AcDbEntity
  8
0
  6
CONTINUOUS
 62
               7
100
AcDbLine
 10
42.0
 20
-3.5500000000000114
 30
0.0
 11
42.099999999999994
 21
-3.4500000000000171
 31
0.0
  0
LINE
  5
477
100
AcDbEntity
  8
0
  6
CONTINUOUS
 62
               7
100
AcDbLine
 10
42.099999999999994
 20
4.4499999999999886
 30
0.0
 11
42.099999999999994
 21
-3.4500000000000171
 31
0.0
  0
LINE
  5
478
100
AcDbEntity
  8
0
  6
CONTINUOUS
 62
               7
100
AcDbLine
 10
41.699999999999989
 20
5.2999995999999783
 30
0.0
 11
41.699999999999989
 21
-4.2999995946884155
 31
0.0
  0
LINE
  5
479
100
AcDbEntity
  8
0
  6
CONTINUOUS
 62
               7
100
AcDbLine
 10
43.0
 20
4.0
 30
0.0
 11
42.099999999999994
 21
4.0
 31
0.0
  0
LINE
  5
47A
100
AcDbEntity
  8
0
  6
CONTINUOUS
 62
               7
100
AcDbLine
 10
41.161879999999996
 20
5.5
 30
0.0
 11
37.199999999999989
 21
5.5
 31
0.0
  0
LINE
  5
47B
100
AcDbEntity
  8
0
  6
CONTINUOUS
 62
               7
100
AcDbLine
 10
42.0
 20
4.5500000000000114
 30
0.0
 11
42.099999999999994
 21
4.4499999999999886
 31
0.0
  0
LINE
  5
47C
100
AcDbEntity
  8
0
  6
CONTINUOUS
 62
               7
100
AcDbLine
 10
41.699999999999989
 20
4.5500000000000114
 30
0.0
 11
42.0
 21
4.5500000000000114
 31
0.0
  0
LINE
  5
47D
100
AcDbEntity
  8
0
  6
CONTINUOUS
 62
               7
100
AcDbLine
 10
41.199999999999989
 20
5.4339744999999766
 30
0.0
 11
41.699999999999989
 21
5.2999995999999783
 31
0.0
  0
LINE
  5
47E
100
AcDbEntity
  8
0
  6
CONTINUOUS
 62
               7
100
AcDbLine
 10
41.161879999999996
 20
5.5
 30
0.0
 11
41.199999999999989
 21
5.4339747999999872
 31
0.0
  0
LINE
  5
47F
100
AcDbEntity
  8
0
  6
CONTINUOUS
 62
               7
100
AcDbLine
 10
42.0
 20
4.5500000000000114
 30
0.0
 11
42.0
 21
-3.5500000000000114
 31
0.0
  0
LINE
  5
480
100
AcDbEntity
  8
0
  6
CONTINUOUS
 62
               7
100
AcDbLine
 10
41.161879999999996
 20
5.5
 30
0.0
 11
41.161879999999996
 21
-4.5
 31
0.0
  0
LINE
  5
481
100
AcDbEntity
  8
0
  6
CONTINUOUS
 62
               7
100
AcDbLine
 10
41.200000204906019
 20
5.4339744448661804
 30
0.0
 11
41.200000204906019
 21
-4.4339744448661804
 31
0.0
  0
LINE
  5
482
100
AcDbEntity
  8
0
  6
CONTINUOUS
 62
               7
100
AcDbLine
 10
32.400000000000006
 20
5.4000000000000057
 30
0.0
 11
32.400000000000006
 21
-4.4000000000000057
 31
0.0
  0
LINE
  5
483
100
AcDbEntity
  8
0
  6
CONTINUOUS
 62
               7
100
AcDbLine
 10
32.5
 20
5.5
 30
0.0
 11
32.5
 21
-4.5
 31
0.0
  0
LINE
  5
484
100
AcDbEntity
  8
0
  6
CONTINUOUS
 62
               7
100
AcDbLine
 10
32.300000000000011
 20
-15.5
 30
0.0
 11
32.300000000000011
 21
5.5
 31
0.0
  0
LINE
  5
485
100
AcDbEntity
  8
0
  6
CONTINUOUS
 62
               7
100
AcDbLine
 10
32.300000000000011
 20
-4.5
 30
0.0
 11
27.5
 21
-4.5
 31
0.0
  0
LINE
  5
486
100
AcDbEntity
  8
0
  6
CONTINUOUS
 62
               7
100
AcDbLine
 10
32.5
 20
-4.5
 30
0.0
 11
32.400000000000006
 21
-4.4000000000000057
 31
0.0
  0
LINE
  5
487
100
AcDbEntity
  8
0
  6
CONTINUOUS
 62
               7
100
AcDbLine
 10
32.400000000000006
 20
-4.4000000000000057
 30
0.0
 11
32.300000000000011
 21
-4.5
 31
0.0
  0
LINE
  5
488
100
AcDbEntity
  8
0
  6
CONTINUOUS
 62
               7
100
AcDbLine
 10
32.300000000000011
 20
5.5
 30
0.0
 11
27.5
 21
5.5
 31
0.0
  0
LINE
  5
489
100
AcDbEntity
  8
0
  6
CONTINUOUS
 62
               7
100
AcDbLine
 10
32.400000000000006
 20
5.4000000000000057
 30
0.0
 11
32.300000000000011
 21
5.5
 31
0.0
  0
LINE
  5
48A
100
AcDbEntity
  8
0
  6
CONTINUOUS
 62
               7
100
AcDbLine
 10
32.5
 20
5.5
 30
0.0
 11
32.400000000000006
 21
5.3999999999999773
 31
0.0
  0
LINE
  5
48B
100
AcDbEntity
  8
0
  6
CONTINUOUS
 62
               7
100
AcDbLine
 10
27.099999999999994
 20
-20.799999999999997
 30
0.0
 11
22.5
 21
-20.799999999999997
 31
0.0
  0
ARC
  5
48C
100
AcDbEntity
  8
0
  6
CONTINUOUS
 62
               7
100
AcDbCircle
 10
27.099999999999994
 20
-20.400000000000006
 30
0.0
 40
0.4
100
AcDbArc
 50
269.99999999999937
 51
0.0
  0
LINE
  5
48D
100
AcDbEntity
  8
0
  6
CONTINUOUS
 62
               7
100
AcDbLine
 10
27.099999999999994
 20
10.800000000000011
 30
0.0
 11
22.5
 21
10.800000000000011
 31
0.0
  0
ARC
  5
48E
100
AcDbEntity
  8
0
  6
CONTINUOUS
 62
               7
100
AcDbCircle
 10
27.099999999999994
 20
10.400000000000006
 30
0.0
 40
0.4
100
AcDbArc
 50
0.0
 51
89.999999999999815
  0
LINE
  5
48F
100
AcDbEntity
  8
0
  6
CONTINUOUS
 62
               7
100
AcDbLine
 10
3.4998695396726536
 20
11.000121724634965
 30
0.0
 11
2.9998733543699192
 21
11.000121724634965
 31
0.0
  0
LINE
  5
490
100
AcDbEntity
  8
0
  6
CONTINUOUS
 62
               7
100
AcDbLine
 10
3.4998695396726536
 20
-20.999878275365035
 30
0.0
 11
2.9998733543699192
 21
-20.999878275365035
 31
0.0
  0
LINE
  5
491
100
AcDbEntity
  8
0
  6
CONTINUOUS
 62
               7
100
AcDbLine
 10
3.4998695396726536
 20
11.000121724634965
 30
0.0
 11
3.4998695396726536
 21
-20.999878275365035
 31
0.0
  0
LINE
  5
492
100
AcDbEntity
  8
0
  6
CONTINUOUS
 62
               7
100
AcDbLine
 10
2.9998733543699192
 20
-20.999878275365035
 30
0.0
 11
2.9998733543699192
 21
11.000121724634965
 31
0.0
  0
LINE
  5
493
100
AcDbEntity
  8
0
  6
CENTER
 62
             200
100
AcDbLine
 10
-20.0
 20
-31.79998779296875
 30
0.0
 11
-20.0
 21
-41.79998779296875
 31
0.0
  0
LINE
  5
494
100
AcDbEntity
  8
0
  6
CENTER
 62
             200
100
AcDbLine
 10
-9.9999999999999982
 20
-31.79998779296875
 30
0.0
 11
-9.9999999999999982
 21
-41.79998779296875
 31
0.0
  0
ENDBLK
  5
495
100
AcDbEntity
  8
0
100
AcDbBlockEnd
  0
BLOCK
  5
496
100
AcDbEntity
  8
0
100
AcDbBlockBegin
  2
F10T-12
 70
               0
 10
0.0
 20
0.0
 30
0.0
  3
F10T-12
  1

  0
LINE
  5
497
100
AcDbEntity
  8
0
  6
CONTINUOUS
 62
               7
100
AcDbLine
 10
1.0
 20
18.49995182933597
 30
0.0
 11
11.0
 21
18.49995182933597
 31
0.0
  0
LINE
  5
498
100
AcDbEntity
  8
0
  6
CONTINUOUS
 62
               2
100
AcDbLine
 10
6.0
 20
-38.606722364999968
 30
0.0
 11
6.0
 21
75.755033006093782
 31
0.0
  0
LINE
  5
499
100
AcDbEntity
  8
0
  6
CONTINUOUS
 62
               7
100
AcDbLine
 10
1.0
 20
-29.00004817066403
 30
0.0
 11
11.0
 21
-29.00004817066403
 31
0.0
  0
LINE
  5
49A
100
AcDbEntity
  8
0
  6
CONTINUOUS
 62
               7
100
AcDbLine
 10
1.399993896484375
 20
-36.00004817066403
 30
0.0
 11
10.599990844726563
 21
-36.00004817066403
 31
0.0
  0
LINE
  5
49B
100
AcDbEntity
  8
0
  6
CONTINUOUS
 62
               7
100
AcDbLine
 10
3.5500030517578125
 20
-35.50004817066403
 30
0.0
 11
2.0500030517578125
 21
-35.50004817066403
 31
0.0
  0
LINE
  5
49C
100
AcDbEntity
  8
0
  6
CONTINUOUS
 62
               2
100
AcDbLine
 10
-0.5
 20
-5.0000405412694988
 30
0.0
 11
12.5
 21
-5.0000405412694988
 31
0.0
  0
LINE
  5
49D
100
AcDbEntity
  8
0
  6
CONTINUOUS
 62
               2
100
AcDbLine
 10
0.899993896484375
 20
-15.000040541269499
 30
0.0
 11
7.899993896484375
 21
-15.000040541269499
 31
0.0
  0
LINE
  5
49E
100
AcDbEntity
  8
0
  6
CONTINUOUS
 62
               2
100
AcDbLine
 10
4.399993896484375
 20
-11.500040541269499
 30
0.0
 11
4.399993896484375
 21
-18.500040541269499
 31
0.0
  0
LINE
  5
49F
100
AcDbEntity
  8
0
  6
CONTINUOUS
 62
               2
100
AcDbLine
 10
7.600006103515625
 20
8.4999518293359699
 30
0.0
 11
7.600006103515625
 21
1.4999594587305012
 31
0.0
  0
LINE
  5
4A0
100
AcDbEntity
  8
0
  6
CONTINUOUS
 62
               2
100
AcDbLine
 10
4.100006103515625
 20
4.9999518293359699
 30
0.0
 11
11.100006103515625
 21
4.9999518293359699
 31
0.0
  0
LINE
  5
4A1
100
AcDbEntity
  8
0
  6
CONTINUOUS
 62
               7
100
AcDbLine
 10
1.0
 20
20.49995182933597
 30
0.0
 11
11.0
 21
20.49995182933597
 31
0.0
  0
LINE
  5
4A2
100
AcDbEntity
  8
0
  6
CONTINUOUS
 62
               4
100
AcDbLine
 10
1.0000152587890625
 20
53.999967088125032
 30
0.0
 11
11.000015258789063
 21
53.999967088125032
 31
0.0
  0
LINE
  5
4A3
100
AcDbEntity
  8
0
  6
CONTINUOUS
 62
               7
100
AcDbLine
 10
1.0
 20
29.99995182933597
 30
0.0
 11
11.0
 21
29.99995182933597
 31
0.0
  0
LINE
  5
4A4
100
AcDbEntity
  8
0
  6
CONTINUOUS
 62
               4
100
AcDbLine
 10
1.0500030517578125
 20
53.999967088125032
 30
0.0
 11
1.0500030517578125
 21
73.99995182933597
 31
0.0
  0
LINE
  5
4A5
100
AcDbEntity
  8
0
  6
CONTINUOUS
 62
               4
100
AcDbLine
 10
10.949996948242188
 20
53.999967088125032
 30
0.0
 11
10.949996948242188
 21
73.99995182933597
 31
0.0
  0
LINE
  5
4A6
100
AcDbEntity
  8
0
  6
CONTINUOUS
 62
               4
100
AcDbLine
 10
1.0500030517578125
 20
73.99995182933597
 30
0.0
 11
10.949996948242188
 21
73.99995182933597
 31
0.0
  0
LINE
  5
4A7
100
AcDbEntity
  8
0
  6
CONTINUOUS
 62
               7
100
AcDbLine
 10
11.0
 20
-35.600039015390593
 30
0.0
 11
11.0
 21
-21.500040541269499
 31
0.0
  0
LINE
  5
4A8
100
AcDbEntity
  8
0
  6
CONTINUOUS
 62
               7
100
AcDbLine
 10
1.0
 20
-35.600039015390593
 30
0.0
 11
1.0
 21
-21.500040541269499
 31
0.0
  0
LINE
  5
4A9
100
AcDbEntity
  8
0
  6
CONTINUOUS
 62
               4
100
AcDbLine
 10
5.4000091552734375
 20
64.49995182933597
 30
0.0
 11
6.600006103515625
 21
64.49995182933597
 31
0.0
  0
LINE
  5
4AA
100
AcDbEntity
  8
0
  6
CONTINUOUS
 62
               4
100
AcDbLine
 10
6.600006103515625
 20
67.49995182933597
 30
0.0
 11
6.600006103515625
 21
64.49995182933597
 31
0.0
  0
LINE
  5
4AB
100
AcDbEntity
  8
0
  6
CONTINUOUS
 62
               4
100
AcDbLine
 10
5.4000091552734375
 20
67.49995182933597
 30
0.0
 11
5.4000091552734375
 21
64.49995182933597
 31
0.0
  0
LINE
  5
4AC
100
AcDbEntity
  8
0
  6
CONTINUOUS
 62
               4
100
AcDbLine
 10
7.1000268250584213
 20
67.499959243838049
 30
0.0
 11
6.6000246083879119
 21
66.999960398919058
 31
0.0
  0
LINE
  5
4AD
100
AcDbEntity
  8
0
  6
CONTINUOUS
 62
               4
100
AcDbLine
 10
4.9000124530953144
 20
67.499940909218623
 30
0.0
 11
5.4000131946245347
 21
66.999940589158342
 31
0.0
  0
LINE
  5
4AE
100
AcDbEntity
  8
0
  6
CONTINUOUS
 62
               4
100
AcDbLine
 10
1.0500030517578125
 20
72.99995182933597
 30
0.0
 11
10.949996948242188
 21
72.99995182933597
 31
0.0
  0
LINE
  5
4AF
100
AcDbEntity
  8
0
  6
CONTINUOUS
 62
               4
100
AcDbLine
 10
1.0500030517578125
 20
67.49995182933597
 30
0.0
 11
5.4000091552734375
 21
67.49995182933597
 31
0.0
  0
LINE
  5
4B0
100
AcDbEntity
  8
0
  6
CONTINUOUS
 62
               4
100
AcDbLine
 10
6.600006103515625
 20
67.49995182933597
 30
0.0
 11
10.949996948242188
 21
67.49995182933597
 31
0.0
  0
LINE
  5
4B1
100
AcDbEntity
  8
0
  6
CONTINUOUS
 62
               7
100
AcDbLine
 10
1.0
 20
11.49995182933597
 30
0.0
 11
1.0
 21
29.99995182933597
 31
0.0
  0
LINE
  5
4B2
100
AcDbEntity
  8
0
  6
CONTINUOUS
 62
               7
100
AcDbLine
 10
11.0
 20
11.49995182933597
 30
0.0
 11
11.0
 21
29.99995182933597
 31
0.0
  0
LINE
  5
4B3
100
AcDbEntity
  8
0
  6
CONTINUOUS
 62
               7
100
AcDbLine
 10
0.0
 20
11.49995182933597
 30
0.0
 11
0.0
 21
-21.500040541269499
 31
0.0
  0
LINE
  5
4B4
100
AcDbEntity
  8
0
  6
CONTINUOUS
 62
               7
100
AcDbLine
 10
0.0
 20
11.49995182933597
 30
0.0
 11
12.0
 21
11.49995182933597
 31
0.0
  0
LINE
  5
4B5
100
AcDbEntity
  8
0
  6
CONTINUOUS
 62
               7
100
AcDbLine
 10
12.0
 20
11.49995182933597
 30
0.0
 11
12.0
 21
-21.500040541269499
 31
0.0
  0
LINE
  5
4B6
100
AcDbEntity
  8
0
  6
CONTINUOUS
 62
               7
100
AcDbLine
 10
0.0
 20
-21.500040541269499
 30
0.0
 11
12.0
 21
-21.500040541269499
 31
0.0
  0
LINE
  5
4B7
100
AcDbEntity
  8
0
  6
DASHED
 62
               4
100
AcDbLine
 10
13.199996948242188
 20
9.4999518293359699
 30
0.0
 11
13.199996948242188
 21
-37.00004817066403
 31
0.0
  0
LINE
  5
4B8
100
AcDbEntity
  8
0
  6
DASHED
 62
               4
100
AcDbLine
 10
12.0
 20
9.4999518293359699
 30
0.0
 11
13.199996948242188
 21
9.4999518293359699
 31
0.0
  0
LINE
  5
4B9
100
AcDbEntity
  8
0
  6
DASHED
 62
               4
100
AcDbLine
 10
0.0
 20
-36.80003596363278
 30
0.0
 11
12.0
 21
-36.80003596363278
 31
0.0
  0
LINE
  5
4BA
100
AcDbEntity
  8
0
  6
DASHED
 62
               4
100
AcDbLine
 10
0.0
 20
-38.00004817066403
 30
0.0
 11
12.199996948242188
 21
-38.00004817066403
 31
0.0
  0
LINE
  5
4BB
100
AcDbEntity
  8
0
  6
DASHED
 62
               4
100
AcDbLine
 10
12.0
 20
-21.500040541269499
 30
0.0
 11
12.0
 21
-36.80003596363278
 31
0.0
  0
LINE
  5
4BC
100
AcDbEntity
  8
0
  6
DASHED
 62
               4
100
AcDbLine
 10
0.0
 20
-36.80003596363278
 30
0.0
 11
0.0
 21
-38.00004817066403
 31
0.0
  0
LINE
  5
4BD
100
AcDbEntity
  8
0
  6
DASHED
 62
               4
100
AcDbLine
 10
-1.871826171875
 20
-7.2000479799291668
 30
0.0
 11
-0.6999969482421875
 21
-7.2000479799291668
 31
0.0
  0
LINE
  5
4BE
100
AcDbEntity
  8
0
  6
DASHED
 62
               4
100
AcDbLine
 10
-1.871826171875
 20
-12.800048361398893
 30
0.0
 11
-0.6999969482421875
 21
-12.800048361398893
 31
0.0
  0
LINE
  5
4BF
100
AcDbEntity
  8
0
  6
DASHED
 62
               4
100
AcDbLine
 10
-1.871826171875
 20
2.7999510663965168
 30
0.0
 11
-0.6999969482421875
 21
2.7999510663965168
 31
0.0
  0
LINE
  5
4C0
100
AcDbEntity
  8
0
  6
DASHED
 62
               4
100
AcDbLine
 10
-1.871826171875
 20
-2.8000474077245769
 30
0.0
 11
-0.6999969482421875
 21
-2.8000474077245769
 31
0.0
  0
LINE
  5
4C1
100
AcDbEntity
  8
0
  6
CENTER
 62
               2
100
AcDbLine
 10
5.0
 20
14.49995182933597
 30
0.0
 11
7.0
 21
14.49995182933597
 31
0.0
  0
LINE
  5
4C2
100
AcDbEntity
  8
0
  6
CONTINUOUS
 62
               7
100
AcDbLine
 10
1.0
 20
-35.00004817066403
 30
0.0
 11
4.4000091552734375
 21
-35.00004817066403
 31
0.0
  0
LINE
  5
4C3
100
AcDbEntity
  8
0
  6
CONTINUOUS
 62
               7
100
AcDbLine
 10
4.4000091552734375
 20
-36.00004817066403
 30
0.0
 11
4.4000091552734375
 21
-35.00004817066403
 31
0.0
  0
ARC
  5
4C4
100
AcDbEntity
  8
0
  6
CONTINUOUS
 62
               7
100
AcDbCircle
 10
10.599990844726563
 20
-35.600039015390593
 30
0.0
 40
0.4000000357627869
100
AcDbArc
 50
270.00001798608872
 51
0.00001366037834
  0
ARC
  5
4C5
100
AcDbEntity
  8
0
  6
CONTINUOUS
 62
               7
100
AcDbCircle
 10
1.399993896484375
 20
-35.600039015390593
 30
0.0
 40
0.4000000357627869
100
AcDbArc
 50
179.99996402782091
 51
269.99994604173139
  0
ARC
  5
4C6
100
AcDbEntity
  8
0
  6
CONTINUOUS
 62
               7
100
AcDbCircle
 10
2.0500030517578125
 20
-35.00004817066403
 30
0.0
 40
0.5
100
AcDbArc
 50
180.0000359721783
 51
270.00001798608872
  0
ARC
  5
4C7
100
AcDbEntity
  8
0
  6
CONTINUOUS
 62
               7
100
AcDbCircle
 10
3.5500030517578125
 20
-35.00004817066403
 30
0.0
 40
0.5
100
AcDbArc
 50
270.00001798608872
 51
0.0000546415133601
  0
CIRCLE
  5
4C8
100
AcDbEntity
  8
0
  6
CONTINUOUS
 62
               2
100
AcDbCircle
 10
7.600006103515625
 20
4.9999518293359699
 30
0.0
 40
2.5
  0
CIRCLE
  5
4C9
100
AcDbEntity
  8
0
  6
CONTINUOUS
 62
               2
100
AcDbCircle
 10
4.399993896484375
 20
-15.000040541269499
 30
0.0
 40
2.5
  0
CIRCLE
  5
4CA
100
AcDbEntity
  8
0
  6
CONTINUOUS
 62
               2
100
AcDbCircle
 10
6.0
 20
-5.0000405412694988
 30
0.0
 40
2.5
  0
CIRCLE
  5
4CB
100
AcDbEntity
  8
0
  6
CONTINUOUS
 62
               7
100
AcDbCircle
 10
4.399993896484375
 20
-15.000040541269499
 30
0.0
 40
2.0999994277954102
  0
CIRCLE
  5
4CC
100
AcDbEntity
  8
0
  6
CONTINUOUS
 62
               7
100
AcDbCircle
 10
7.600006103515625
 20
4.9999518293359699
 30
0.0
 40
2.0999994277954102
  0
CIRCLE
  5
4CD
100
AcDbEntity
  8
0
  6
CONTINUOUS
 62
               7
100
AcDbCircle
 10
6.0
 20
-5.0000405412694988
 30
0.0
 40
2.0999994277954102
  0
ARC
  5
4CE
100
AcDbEntity
  8
0
  6
DASHED
 62
               4
100
AcDbCircle
 10
12.199996948242188
 20
-37.00004817066403
 30
0.0
 40
1.0
100
AcDbArc
 50
270.00001798608872
 51
0.0
  0
ARC
  5
4CF
100
AcDbEntity
  8
0
  6
DASHED
 62
               4
100
AcDbCircle
 10
1.9000091552734375
 20
-10.00004817066403
 30
0.0
 40
5.0
100
AcDbArc
 50
150.5076443238128
 51
209.49233837334239
  0
ARC
  5
4D0
100
AcDbEntity
  8
0
  6
DASHED
 62
               4
100
AcDbCircle
 10
-1.871826171875
 20
-7.8667149644872723
 30
0.0
 40
0.6666666865348816
100
AcDbArc
 50
89.999982013910454
 51
150.5076443238128
  0
ARC
  5
4D1
100
AcDbEntity
  8
0
  6
DASHED
 62
               4
100
AcDbCircle
 10
-1.871826171875
 20
-12.133381376840788
 30
0.0
 40
0.6666666865348816
100
AcDbArc
 50
209.49235567618641
 51
270.00001798608872
  0
ARC
  5
4D2
100
AcDbEntity
  8
0
  6
DASHED
 62
               4
100
AcDbCircle
 10
1.9000091552734375
 20
-0.0000481706640301
 30
0.0
 40
5.0
100
AcDbArc
 50
150.5076443238128
 51
209.49233837334239
  0
ARC
  5
4D3
100
AcDbEntity
  8
0
  6
DASHED
 62
               4
100
AcDbCircle
 10
-1.871826171875
 20
2.1332850355127277
 30
0.0
 40
0.6666666865348816
100
AcDbArc
 50
89.999982013910454
 51
150.5076443238128
  0
ARC
  5
4D4
100
AcDbEntity
  8
0
  6
DASHED
 62
               4
100
AcDbCircle
 10
-1.871826171875
 20
-2.1333813768407879
 30
0.0
 40
0.6666666865348816
100
AcDbArc
 50
209.49235567618641
 51
270.00001798608872
  0
CIRCLE
  5
4D5
100
AcDbEntity
  8
0
  6
CONTINUOUS
 62
               7
100
AcDbCircle
 10
6.0
 20
14.49995182933597
 30
0.0
 40
0.6000000238418579
  0
LINE
  5
4D6
100
AcDbEntity
  8
0
  6
DASHED
 62
               4
100
AcDbLine
 10
-0.6999969482421875
 20
-7.0500483613988649
 30
0.0
 11
-0.6999969482421875
 21
-12.950047979929138
 31
0.0
  0
LINE
  5
4D7
100
AcDbEntity
  8
0
  6
DASHED
 62
               4
100
AcDbLine
 10
-0.0000026016605261
 20
-10.350047670678777
 30
0.0
 11
-0.7000099342621979
 21
-10.537614071717343
 31
0.0
  0
LINE
  5
4D8
100
AcDbEntity
  8
0
  6
DASHED
 62
               4
100
AcDbLine
 10
-0.7000087332207841
 20
-9.6500498956959007
 30
0.0
 11
-0.0000013574235709
 21
-9.4624835378528758
 31
0.0
  0
LINE
  5
4D9
100
AcDbEntity
  8
0
  6
DASHED
 62
               4
100
AcDbLine
 10
-0.6999969482421875
 20
-7.0500483613988649
 30
0.0
 11
0.0
 21
-7.0500483613988649
 31
0.0
  0
LINE
  5
4DA
100
AcDbEntity
  8
0
  6
DASHED
 62
               4
100
AcDbLine
 10
-0.6999969482421875
 20
-12.950047979929138
 30
0.0
 11
0.0
 21
-12.950047979929138
 31
0.0
  0
LINE
  5
4DB
100
AcDbEntity
  8
0
  6
DASHED
 62
               4
100
AcDbLine
 10
-0.6999969482421875
 20
2.9499516386011067
 30
0.0
 11
-0.6999969482421875
 21
-2.9500479799291384
 31
0.0
  0
LINE
  5
4DC
100
AcDbEntity
  8
0
  6
DASHED
 62
               4
100
AcDbLine
 10
0.0000031353347367
 20
-0.3500486246168464
 30
0.0
 11
-0.7000041972669351
 21
-0.5376150256554126
 31
0.0
  0
LINE
  5
4DD
100
AcDbEntity
  8
0
  6
DASHED
 62
               4
100
AcDbLine
 10
-0.7000022662205083
 20
0.3499495718340597
 30
0.0
 11
-0.000009629282431
 21
0.5375119804128019
 31
0.0
  0
LINE
  5
4DE
100
AcDbEntity
  8
0
  6
DASHED
 62
               4
100
AcDbLine
 10
-0.6999969482421875
 20
2.9499516386011067
 30
0.0
 11
0.0
 21
2.9499516386011067
 31
0.0
  0
LINE
  5
4DF
100
AcDbEntity
  8
0
  6
DASHED
 62
               4
100
AcDbLine
 10
-0.6999969482421875
 20
-2.9500479799291384
 30
0.0
 11
0.0
 21
-2.9500479799291384
 31
0.0
  0
LINE
  5
4E0
100
AcDbEntity
  8
0
  6
DASHED
 62
               4
100
AcDbLine
 10
14.399993896484375
 20
-2.0000481706640301
 30
0.0
 11
14.399993896484375
 21
1.9999518293359699
 31
0.0
  0
LINE
  5
4E1
100
AcDbEntity
  8
0
  6
DASHED
 62
               4
100
AcDbLine
 10
13.699996948242188
 20
1.9999518293359699
 30
0.0
 11
14.399993896484375
 21
1.9999518293359699
 31
0.0
  0
LINE
  5
4E2
100
AcDbEntity
  8
0
  6
DASHED
 62
               4
100
AcDbLine
 10
13.699996948242188
 20
-2.0000481706640301
 30
0.0
 11
14.399993896484375
 21
-2.0000481706640301
 31
0.0
  0
ARC
  5
4E3
100
AcDbEntity
  8
0
  6
DASHED
 62
               4
100
AcDbCircle
 10
13.699996948242188
 20
2.4999518293359699
 30
0.0
 40
0.5
100
AcDbArc
 50
179.99996402782091
 51
270.00000068324471
  0
ARC
  5
4E4
100
AcDbEntity
  8
0
  6
DASHED
 62
               4
100
AcDbCircle
 10
13.699996948242188
 20
-2.5000481706640301
 30
0.0
 40
0.5
100
AcDbArc
 50
89.999982013910454
 51
179.99996402782091
  0
LINE
  5
4E5
100
AcDbEntity
  8
0
  6
DASHED
 62
               4
100
AcDbLine
 10
14.399993896484375
 20
-12.00004817066403
 30
0.0
 11
14.399993896484375
 21
-8.0000481706640301
 31
0.0
  0
LINE
  5
4E6
100
AcDbEntity
  8
0
  6
DASHED
 62
               4
100
AcDbLine
 10
13.699996948242188
 20
-8.0000481706640301
 30
0.0
 11
14.399993896484375
 21
-8.0000481706640301
 31
0.0
  0
LINE
  5
4E7
100
AcDbEntity
  8
0
  6
DASHED
 62
               4
100
AcDbLine
 10
13.699996948242188
 20
-12.00004817066403
 30
0.0
 11
14.399993896484375
 21
-12.00004817066403
 31
0.0
  0
ARC
  5
4E8
100
AcDbEntity
  8
0
  6
DASHED
 62
               4
100
AcDbCircle
 10
13.699996948242188
 20
-7.5000481706640301
 30
0.0
 40
0.5
100
AcDbArc
 50
179.99996402782091
 51
270.00000068324471
  0
ARC
  5
4E9
100
AcDbEntity
  8
0
  6
DASHED
 62
               4
100
AcDbCircle
 10
13.699996948242188
 20
-12.50004817066403
 30
0.0
 40
0.5
100
AcDbArc
 50
89.999982013910454
 51
179.99996402782091
  0
LINE
  5
4EA
100
AcDbEntity
  8
0
  6
CONTINUOUS
 62
               4
100
AcDbLine
 10
7.285003662109375
 20
78.861905564687532
 30
0.0
 11
7.285003662109375
 21
81.99995182933597
 31
0.0
  0
LINE
  5
4EB
100
AcDbEntity
  8
0
  6
CONTINUOUS
 62
               4
100
AcDbLine
 10
8.7150115966796875
 20
79.24506901683597
 30
0.0
 11
8.7150115966796875
 21
81.99995182933597
 31
0.0
  0
LINE
  5
4EC
100
AcDbEntity
  8
0
  6
CONTINUOUS
 62
               4
100
AcDbLine
 10
8.7150115966796875
 20
81.99995182933597
 30
0.0
 11
7.285003662109375
 21
81.99995182933597
 31
0.0
  0
LINE
  5
4ED
100
AcDbEntity
  8
0
  6
CONTINUOUS
 62
               4
100
AcDbLine
 10
7.600006103515625
 20
81.99995182933597
 30
0.0
 11
7.600006103515625
 21
86.99995182933597
 31
0.0
  0
LINE
  5
4EE
100
AcDbEntity
  8
0
  6
CONTINUOUS
 62
               4
100
AcDbLine
 10
8.4000091552734375
 20
81.99995182933597
 30
0.0
 11
8.4000091552734375
 21
86.99995182933597
 31
0.0
  0
LINE
  5
4EF
100
AcDbEntity
  8
0
  6
CONTINUOUS
 62
               4
100
AcDbLine
 10
8.4000091552734375
 20
86.99995182933597
 30
0.0
 11
7.600006103515625
 21
86.99995182933597
 31
0.0
  0
LINE
  5
4F0
100
AcDbEntity
  8
0
  6
CONTINUOUS
 62
               4
100
AcDbLine
 10
7.285003662109375
 20
73.99995182933597
 30
0.0
 11
7.285003662109375
 21
77.826627244375032
 31
0.0
  0
LINE
  5
4F1
100
AcDbEntity
  8
0
  6
CONTINUOUS
 62
               4
100
AcDbLine
 10
8.7150115966796875
 20
73.99995182933597
 30
0.0
 11
8.7150115966796875
 21
78.209805955312532
 31
0.0
  0
LINE
  5
4F2
100
AcDbEntity
  8
0
  6
CONTINUOUS
 62
             200
100
AcDbLine
 10
6.0173478061794086
 20
77.486959520174167
 30
0.0
 11
10.000004436918971
 21
78.554109157055592
 31
0.0
  0
LINE
  5
4F3
100
AcDbEntity
  8
0
  6
CONTINUOUS
 62
             200
100
AcDbLine
 10
6.0549289845676881
 20
78.532305533688969
 30
0.0
 11
9.9999997437371348
 21
79.589384066551958
 31
0.0
  0
LINE
  5
4F4
100
AcDbEntity
  8
0
  6
CONTINUOUS
 62
               4
100
AcDbLine
 10
10.949996948242188
 20
62.999936570546907
 30
0.0
 11
1.0500030517578125
 21
62.999936570546907
 31
0.0
  0
LINE
  5
4F5
100
AcDbEntity
  8
0
  6
CONTINUOUS
 62
               4
100
AcDbLine
 10
1.0
 20
46.999936570546907
 30
0.0
 11
1.6165515780448914
 21
46.999936570546907
 31
0.0
  0
LINE
  5
4F6
100
AcDbEntity
  8
0
  6
CONTINUOUS
 62
               4
100
AcDbLine
 10
10.299999999999997
 20
46.999936570546907
 30
0.0
 11
10.299999999999997
 21
53.999967088125032
 31
0.0
  0
LINE
  5
4F7
100
AcDbEntity
  8
0
  6
CONTINUOUS
 62
               4
100
AcDbLine
 10
1.6165515765444525
 20
46.999936570546907
 30
0.0
 11
1.6165515765444525
 21
53.999967088125032
 31
0.0
  0
LINE
  5
4F8
100
AcDbEntity
  8
0
  6
CONTINUOUS
 62
               4
100
AcDbLine
 10
10.299999999999997
 20
46.999936570546907
 30
0.0
 11
11.0
 21
46.999936570546907
 31
0.0
  0
LINE
  5
4F9
100
AcDbEntity
  8
0
  6
CONTINUOUS
 62
               4
100
AcDbLine
 10
3.4000000000000057
 20
48.699967088125021
 30
0.0
 11
3.4000000000000057
 21
53.999967088125032
 31
0.0
  0
LINE
  5
4FA
100
AcDbEntity
  8
0
  6
CONTINUOUS
 62
               4
100
AcDbLine
 10
4.5999999999999943
 20
48.699967088125021
 30
0.0
 11
4.5999999999999943
 21
53.999967088125032
 31
0.0
  0
LINE
  5
4FB
100
AcDbEntity
  8
0
  6
CONTINUOUS
 62
               4
100
AcDbLine
 10
7.3999999999999986
 20
48.699967088125021
 30
0.0
 11
7.3999999999999986
 21
53.999967088125032
 31
0.0
  0
LINE
  5
4FC
100
AcDbEntity
  8
0
  6
CONTINUOUS
 62
               4
100
AcDbLine
 10
8.5999999999999943
 20
48.699967088125021
 30
0.0
 11
8.5999999999999943
 21
53.999967088125032
 31
0.0
  0
LINE
  5
4FD
100
AcDbEntity
  8
0
  6
CONTINUOUS
 62
               4
100
AcDbLine
 10
3.1700000000000017
 20
48.699967088125021
 30
0.0
 11
3.1700000000000017
 21
53.999967088125032
 31
0.0
  0
LINE
  5
4FE
100
AcDbEntity
  8
0
  6
CONTINUOUS
 62
               4
100
AcDbLine
 10
4.8299999999999983
 20
48.699967088125021
 30
0.0
 11
4.8299999999999983
 21
53.999967088125032
 31
0.0
  0
LINE
  5
4FF
100
AcDbEntity
  8
0
  6
CONTINUOUS
 62
               4
100
AcDbLine
 10
7.1700000000000017
 20
48.699967088125021
 30
0.0
 11
7.1700000000000017
 21
53.999967088125032
 31
0.0
  0
LINE
  5
500
100
AcDbEntity
  8
0
  6
CONTINUOUS
 62
               4
100
AcDbLine
 10
8.8299999999999983
 20
48.699967088125021
 30
0.0
 11
8.8299999999999983
 21
53.999967088125032
 31
0.0
  0
LINE
  5
501
100
AcDbEntity
  8
0
  6
CONTINUOUS
 62
               4
100
AcDbLine
 10
3.1700000000000017
 20
48.699967088125021
 30
0.0
 11
4.8299999999999983
 21
48.699967088125021
 31
0.0
  0
LINE
  5
502
100
AcDbEntity
  8
0
  6
CONTINUOUS
 62
               4
100
AcDbLine
 10
7.1700000000000017
 20
48.699967088125021
 30
0.0
 11
8.8299999999999983
 21
48.699967088125021
 31
0.0
  0
LINE
  5
503
100
AcDbEntity
  8
0
  6
CONTINUOUS
 62
               4
100
AcDbLine
 10
11.0
 20
29.99995182933597
 30
0.0
 11
11.0
 21
53.999967088125032
 31
0.0
  0
LINE
  5
504
100
AcDbEntity
  8
0
  6
CONTINUOUS
 62
               4
100
AcDbLine
 10
1.0
 20
29.99995182933597
 30
0.0
 11
1.0
 21
53.999967088125032
 31
0.0
  0
ENDBLK
  5
505
100
AcDbEntity
  8
0
100
AcDbBlockEnd
  0
BLOCK
  5
506
100
AcDbEntity
  8
0
100
AcDbBlockBegin
  2
F10T-13
 70
               0
 10
0.0
 20
0.0
 30
0.0
  3
F10T-13
  1

  0
LINE
  5
507
100
AcDbEntity
  8
0
  6
CONTINUOUS
 62
               7
100
AcDbLine
 10
-12.0
 20
11.500009536743164
 30
0.0
 11
-12.0
 21
-21.499984741210938
 31
0.0
  0
LINE
  5
508
100
AcDbEntity
  8
0
  6
CONTINUOUS
 62
               7
100
AcDbLine
 10
0.0
 20
11.500009536743164
 30
0.0
 11
0.0
 21
-21.499984741210938
 31
0.0
  0
LINE
  5
509
100
AcDbEntity
  8
0
  6
CONTINUOUS
 62
               7
100
AcDbLine
 10
-12.0
 20
11.500009536743164
 30
0.0
 11
-11.0
 21
11.500009536743164
 31
0.0
  0
LINE
  5
50A
100
AcDbEntity
  8
0
  6
CONTINUOUS
 62
               7
100
AcDbLine
 10
-12.0
 20
-21.499984741210938
 30
0.0
 11
-11.0
 21
-21.499984741210938
 31
0.0
  0
LINE
  5
50B
100
AcDbEntity
  8
0
  6
CONTINUOUS
 62
               7
100
AcDbLine
 10
-11.0
 20
18.500009536743164
 30
0.0
 11
-1.0
 21
18.500009536743164
 31
0.0
  0
LINE
  5
50C
100
AcDbEntity
  8
0
  6
CONTINUOUS
 62
               7
100
AcDbLine
 10
-11.0
 20
20.500009536743164
 30
0.0
 11
-1.0
 21
20.500009536743164
 31
0.0
  0
LINE
  5
50D
100
AcDbEntity
  8
0
  6
CENTER
 62
               2
100
AcDbLine
 10
-8.5
 20
26.700006484985352
 30
0.0
 11
-3.5
 21
26.700006484985352
 31
0.0
  0
LINE
  5
50E
100
AcDbEntity
  8
0
  6
CONTINUOUS
 62
               2
100
AcDbLine
 10
-6.0
 20
-38.606664657592773
 30
0.0
 11
-6.0
 21
75.755090713500977
 31
0.0
  0
LINE
  5
50F
100
AcDbEntity
  8
0
  6
CONTINUOUS
 62
               4
100
AcDbLine
 10
-11.0
 20
54.000009536743164
 30
0.0
 11
-1.0
 21
54.000009536743164
 31
0.0
  0
LINE
  5
510
100
AcDbEntity
  8
0
  6
CONTINUOUS
 62
               7
100
AcDbLine
 10
-11.0
 20
30.000009536743164
 30
0.0
 11
-1.0
 21
30.000009536743164
 31
0.0
  0
LINE
  5
511
100
AcDbEntity
  8
0
  6
CONTINUOUS
 62
               7
100
AcDbLine
 10
-7.926788330078125
 20
26.400003433227539
 30
0.0
 11
-4.073211669921875
 21
26.400003433227539
 31
0.0
  0
LINE
  5
512
100
AcDbEntity
  8
0
  6
CONTINUOUS
 62
               7
100
AcDbLine
 10
-7.926788330078125
 20
27.000009536743164
 30
0.0
 11
-4.073211669921875
 21
27.000009536743164
 31
0.0
  0
LINE
  5
513
100
AcDbEntity
  8
0
  6
CONTINUOUS
 62
               4
100
AcDbLine
 10
-10.95001220703125
 20
54.000024795532227
 30
0.0
 11
-10.95001220703125
 21
67.500024795532227
 31
0.0
  0
LINE
  5
514
100
AcDbEntity
  8
0
  6
CONTINUOUS
 62
               4
100
AcDbLine
 10
-1.5
 20
63.000009536743164
 30
0.0
 11
-10.5
 21
63.000009536743164
 31
0.0
  0
LINE
  5
515
100
AcDbEntity
  8
0
  6
CONTINUOUS
 62
               2
100
AcDbLine
 10
-1.0500030517578125
 20
58.500009536743164
 30
0.0
 11
-10.95001220703125
 21
58.500009536743164
 31
0.0
  0
LINE
  5
516
100
AcDbEntity
  8
0
  6
CONTINUOUS
 62
               4
100
AcDbLine
 10
-1.0500030517578125
 20
54.000009536743164
 30
0.0
 11
-1.0500030517578125
 21
67.500024795532227
 31
0.0
  0
LINE
  5
517
100
AcDbEntity
  8
0
  6
CONTINUOUS
 62
               4
100
AcDbLine
 10
-10.949996948242188
 20
67.500009536743164
 30
0.0
 11
-9.5
 21
67.500009536743164
 31
0.0
  0
LINE
  5
518
100
AcDbEntity
  8
0
  6
CONTINUOUS
 62
               4
100
AcDbLine
 10
-10.050003051757812
 20
63.000024795532227
 30
0.0
 11
-10.050003051757812
 21
65.500024795532227
 31
0.0
  0
LINE
  5
519
100
AcDbEntity
  8
0
  6
CONTINUOUS
 62
               4
100
AcDbLine
 10
-1.9499969482421875
 20
63.000009536743164
 30
0.0
 11
-1.9499969482421875
 21
65.500024795532227
 31
0.0
  0
LINE
  5
51A
100
AcDbEntity
  8
0
  6
CONTINUOUS
 62
               4
100
AcDbLine
 10
-2.5
 20
63.498468399047852
 30
0.0
 11
-2.5
 21
74.000009536743164
 31
0.0
  0
LINE
  5
51B
100
AcDbEntity
  8
0
  6
CONTINUOUS
 62
               4
100
AcDbLine
 10
-9.5
 20
63.498468399047852
 30
0.0
 11
-9.5
 21
74.000009536743164
 31
0.0
  0
LINE
  5
51C
100
AcDbEntity
  8
0
  6
CONTINUOUS
 62
               4
100
AcDbLine
 10
-9.5
 20
63.498468399047852
 30
0.0
 11
-2.5
 21
63.498468399047852
 31
0.0
  0
LINE
  5
51D
100
AcDbEntity
  8
0
  6
CONTINUOUS
 62
               4
100
AcDbLine
 10
-9.5
 20
67.056161880493164
 30
0.0
 11
-2.5
 21
67.056161880493164
 31
0.0
  0
LINE
  5
51E
100
AcDbEntity
  8
0
  6
CONTINUOUS
 62
               4
100
AcDbLine
 10
-9.5
 20
72.500009536743164
 30
0.0
 11
-2.5
 21
72.500009536743164
 31
0.0
  0
LINE
  5
51F
100
AcDbEntity
  8
0
  6
CONTINUOUS
 62
               4
100
AcDbLine
 10
-10.899993896484375
 20
74.000009536743164
 30
0.0
 11
-1.100006103515625
 21
74.000009536743164
 31
0.0
  0
LINE
  5
520
100
AcDbEntity
  8
0
  6
CONTINUOUS
 62
               4
100
AcDbLine
 10
-2.5
 20
67.500009536743164
 30
0.0
 11
-1.0500030517578125
 21
67.500009536743164
 31
0.0
  0
LINE
  5
521
100
AcDbEntity
  8
0
  6
CONTINUOUS
 62
               4
100
AcDbLine
 10
-2.5
 20
66.500009536743164
 30
0.0
 11
-1.9499969482421875
 21
66.500009536743164
 31
0.0
  0
LINE
  5
522
100
AcDbEntity
  8
0
  6
CONTINUOUS
 62
               4
100
AcDbLine
 10
-2.5
 20
65.500009536743164
 30
0.0
 11
-1.9499969482421875
 21
65.500009536743164
 31
0.0
  0
LINE
  5
523
100
AcDbEntity
  8
0
  6
CONTINUOUS
 62
               4
100
AcDbLine
 10
-10.050003051757812
 20
66.500009536743164
 30
0.0
 11
-9.5
 21
66.500009536743164
 31
0.0
  0
LINE
  5
524
100
AcDbEntity
  8
0
  6
CONTINUOUS
 62
               4
100
AcDbLine
 10
-10.050003051757812
 20
65.500009536743164
 30
0.0
 11
-9.5
 21
65.500009536743164
 31
0.0
  0
LINE
  5
525
100
AcDbEntity
  8
0
  6
CONTINUOUS
 62
               4
100
AcDbLine
 10
-10.050003051757812
 20
66.500024795532227
 30
0.0
 11
-10.050003051757812
 21
67.500024795532227
 31
0.0
  0
LINE
  5
526
100
AcDbEntity
  8
0
  6
CONTINUOUS
 62
               4
100
AcDbLine
 10
-1.9499969482421875
 20
66.500024795532227
 30
0.0
 11
-1.9499969482421875
 21
67.500024795532227
 31
0.0
  0
LINE
  5
527
100
AcDbEntity
  8
0
  6
CONTINUOUS
 62
               7
100
AcDbLine
 10
-1.0
 20
-35.599981307983398
 30
0.0
 11
-1.0
 21
7.4500217437744141
 31
0.0
  0
LINE
  5
528
100
AcDbEntity
  8
0
  6
CONTINUOUS
 62
               7
100
AcDbLine
 10
-11.0
 20
-35.599981307983398
 30
0.0
 11
-11.0
 21
-18.149995803833008
 31
0.0
  0
LINE
  5
529
100
AcDbEntity
  8
0
  6
CONTINUOUS
 62
               4
100
AcDbLine
 10
-1.100006103515625
 20
67.500024795532227
 30
0.0
 11
-1.100006103515625
 21
74.000009536743164
 31
0.0
  0
LINE
  5
52A
100
AcDbEntity
  8
0
  6
CONTINUOUS
 62
               4
100
AcDbLine
 10
-10.900009155273437
 20
67.500024795532227
 30
0.0
 11
-10.900009155273437
 21
74.000009536743164
 31
0.0
  0
LINE
  5
52B
100
AcDbEntity
  8
0
  6
CONTINUOUS
 62
               4
100
AcDbLine
 10
-10.0
 20
67.500024795532227
 30
0.0
 11
-10.0
 21
74.000009536743164
 31
0.0
  0
LINE
  5
52C
100
AcDbEntity
  8
0
  6
CONTINUOUS
 62
               4
100
AcDbLine
 10
-2.0
 20
67.500024795532227
 30
0.0
 11
-2.0
 21
74.000009536743164
 31
0.0
  0
LINE
  5
52D
100
AcDbEntity
  8
0
  6
CONTINUOUS
 62
               7
100
AcDbLine
 10
-10.299990394065389
 20
-21.399970568258141
 30
0.0
 11
-10.699992942902099
 21
-20.999967951986036
 31
0.0
  0
LINE
  5
52E
100
AcDbEntity
  8
0
  6
CONTINUOUS
 62
               7
100
AcDbLine
 10
-10.300023369760311
 20
-28.599984685455638
 30
0.0
 11
-10.700025986032415
 21
-28.999987234292348
 31
0.0
  0
LINE
  5
52F
100
AcDbEntity
  8
0
  6
CONTINUOUS
 62
               7
100
AcDbLine
 10
-1.700005608416177
 20
-28.599985410382942
 30
0.0
 11
-1.3000030595794669
 21
-28.999988026655046
 31
0.0
  0
LINE
  5
530
100
AcDbEntity
  8
0
  6
CONTINUOUS
 62
               7
100
AcDbLine
 10
-1.7000373702794604
 20
-21.399971293179988
 30
0.0
 11
-1.3000455436012999
 21
-20.999979533935402
 31
0.0
  0
LINE
  5
531
100
AcDbEntity
  8
0
  6
CONTINUOUS
 62
               7
100
AcDbLine
 10
-1.6999969482421875
 20
-28.599981307983398
 30
0.0
 11
-1.6999969482421875
 21
-21.399984359741211
 31
0.0
  0
LINE
  5
532
100
AcDbEntity
  8
0
  6
CONTINUOUS
 62
               7
100
AcDbLine
 10
-10.300003051757812
 20
-21.399984359741211
 30
0.0
 11
-1.70001220703125
 21
-21.399984359741211
 31
0.0
  0
LINE
  5
533
100
AcDbEntity
  8
0
  6
CONTINUOUS
 62
               7
100
AcDbLine
 10
-10.300003051757812
 20
-28.599981307983398
 30
0.0
 11
-10.300003051757812
 21
-21.399984359741211
 31
0.0
  0
LINE
  5
534
100
AcDbEntity
  8
0
  6
CONTINUOUS
 62
               7
100
AcDbLine
 10
-10.300003051757812
 20
-28.599981307983398
 30
0.0
 11
-1.70001220703125
 21
-28.599981307983398
 31
0.0
  0
LINE
  5
535
100
AcDbEntity
  8
0
  6
CONTINUOUS
 62
               7
100
AcDbLine
 10
-1.3000030517578125
 20
-28.999990463256836
 30
0.0
 11
-1.3000030517578125
 21
-20.999990463256836
 31
0.0
  0
LINE
  5
536
100
AcDbEntity
  8
0
  6
CONTINUOUS
 62
               7
100
AcDbLine
 10
-10.699996948242188
 20
-28.999990463256836
 30
0.0
 11
-10.699996948242188
 21
-20.999990463256836
 31
0.0
  0
LINE
  5
537
100
AcDbEntity
  8
0
  6
CONTINUOUS
 62
               7
100
AcDbLine
 10
-11.0
 20
11.000009536743164
 30
0.0
 11
-1.0
 21
11.000009536743164
 31
0.0
  0
LINE
  5
538
100
AcDbEntity
  8
0
  6
CONTINUOUS
 62
               7
100
AcDbLine
 10
-11.000015258789063
 20
-20.999982833862305
 30
0.0
 11
-1.0
 21
-20.999982833862305
 31
0.0
  0
LINE
  5
539
100
AcDbEntity
  8
0
  6
CONTINUOUS
 62
               7
100
AcDbLine
 10
-7.8000030517578125
 20
-20.799985885620117
 30
0.0
 11
-1.4000091552734375
 21
-20.799985885620117
 31
0.0
  0
LINE
  5
53A
100
AcDbEntity
  8
0
  6
CONTINUOUS
 62
               7
100
AcDbLine
 10
-10.600006103515625
 20
10.800012588500977
 30
0.0
 11
-4.20001220703125
 21
10.800012588500977
 31
0.0
  0
LINE
  5
53B
100
AcDbEntity
  8
0
  6
CONTINUOUS
 62
               7
100
AcDbLine
 10
-3.8000030517578125
 20
7.7999973297119141
 30
0.0
 11
-3.8000030517578125
 21
10.400003433227539
 31
0.0
  0
LINE
  5
53C
100
AcDbEntity
  8
0
  6
CONTINUOUS
 62
               7
100
AcDbLine
 10
-8.1999969482421875
 20
-17.799993515014648
 30
0.0
 11
-8.1999969482421875
 21
-20.399991989135742
 31
0.0
  0
LINE
  5
53D
100
AcDbEntity
  8
0
  6
CONTINUOUS
 62
               7
100
AcDbLine
 10
-9.8000030517578125
 20
-16.199987411499023
 30
0.0
 11
-10.600006103515625
 21
-16.199987411499023
 31
0.0
  0
LINE
  5
53E
100
AcDbEntity
  8
0
  6
CONTINUOUS
 62
               7
100
AcDbLine
 10
-2.20001220703125
 20
6.2000064849853516
 30
0.0
 11
-1.4000091552734375
 21
6.2000064849853516
 31
0.0
  0
LINE
  5
53F
100
AcDbEntity
  8
0
  6
CONTINUOUS
 62
               7
100
AcDbLine
 10
-11.000015258789063
 20
-28.999990463256836
 30
0.0
 11
-1.0
 21
-28.999990463256836
 31
0.0
  0
LINE
  5
540
100
AcDbEntity
  8
0
  6
CONTINUOUS
 62
               7
100
AcDbLine
 10
-11.000015258789063
 20
-26.999990463256836
 30
0.0
 11
-10.70001220703125
 21
-26.999990463256836
 31
0.0
  0
LINE
  5
541
100
AcDbEntity
  8
0
  6
CONTINUOUS
 62
               7
100
AcDbLine
 10
-1.0
 20
-22.999982833862305
 30
0.0
 11
-1.3000030517578125
 21
-22.999982833862305
 31
0.0
  0
LINE
  5
542
100
AcDbEntity
  8
0
  6
CONTINUOUS
 62
               7
100
AcDbLine
 10
-1.3000030517578125
 20
-26.999990463256836
 30
0.0
 11
-1.0
 21
-26.999990463256836
 31
0.0
  0
LINE
  5
543
100
AcDbEntity
  8
0
  6
CONTINUOUS
 62
               7
100
AcDbLine
 10
-10.70001220703125
 20
-22.999982833862305
 30
0.0
 11
-11.000015258789063
 21
-22.999982833862305
 31
0.0
  0
LINE
  5
544
100
AcDbEntity
  8
0
  6
CONTINUOUS
 62
               7
100
AcDbLine
 10
-10.600006103515625
 20
-35.999990463256836
 30
0.0
 11
-1.4000091552734375
 21
-35.999990463256836
 31
0.0
  0
LINE
  5
545
100
AcDbEntity
  8
0
  6
CONTINUOUS
 62
               7
100
AcDbLine
 10
-10.40102909558118
 20
-18.401030541938781
 30
0.0
 11
-9.1989496447276906
 21
-17.198951192413006
 31
0.0
  0
LINE
  5
546
100
AcDbEntity
  8
0
  6
CONTINUOUS
 62
               7
100
AcDbLine
 10
-2.8010325757377359
 20
7.1989628666979115
 30
0.0
 11
-1.5989531248842468
 21
8.4010422162236864
 31
0.0
  0
LINE
  5
547
100
AcDbEntity
  8
0
  6
CONTINUOUS
 62
               7
100
AcDbLine
 10
-2.801023413013354
 20
8.4010750739080322
 30
0.0
 11
-1.5989331725659213
 21
7.1989849347892232
 31
0.0
  0
LINE
  5
548
100
AcDbEntity
  8
0
  6
CONTINUOUS
 62
               7
100
AcDbLine
 10
-10.401028564531771
 20
-17.1989297649543
 30
0.0
 11
-9.1989491136782817
 21
-18.401009114480075
 31
0.0
  0
LINE
  5
549
100
AcDbEntity
  8
0
  6
CONTINUOUS
 62
               7
100
AcDbLine
 10
-11.0
 20
-17.44997501373291
 30
0.0
 11
-11.0
 21
30.000009536743164
 31
0.0
  0
LINE
  5
54A
100
AcDbEntity
  8
0
  6
CONTINUOUS
 62
               7
100
AcDbLine
 10
-1.0
 20
8.1499881744384766
 30
0.0
 11
-1.0
 21
30.000009536743164
 31
0.0
  0
LINE
  5
54B
100
AcDbEntity
  8
0
  6
CONTINUOUS
 62
               7
100
AcDbLine
 10
-1.0
 20
11.500009536743164
 30
0.0
 11
0.0
 21
11.500009536743164
 31
0.0
  0
LINE
  5
54C
100
AcDbEntity
  8
0
  6
CONTINUOUS
 62
               7
100
AcDbLine
 10
-1.0
 20
-21.499984741210938
 30
0.0
 11
0.0
 21
-21.499984741210938
 31
0.0
  0
LINE
  5
54D
100
AcDbEntity
  8
0
  6
DASHED
 62
               4
100
AcDbLine
 10
-13.199996948242188
 20
9.5000095367431641
 30
0.0
 11
-13.199996948242188
 21
-36.999990463256836
 31
0.0
  0
LINE
  5
54E
100
AcDbEntity
  8
0
  6
DASHED
 62
               4
100
AcDbLine
 10
-13.199996948242188
 20
9.5000095367431641
 30
0.0
 11
-12.0
 21
9.5000095367431641
 31
0.0
  0
LINE
  5
54F
100
AcDbEntity
  8
0
  6
DASHED
 62
               4
100
AcDbLine
 10
-12.0
 20
-36.799978256225586
 30
0.0
 11
0.0
 21
-36.799978256225586
 31
0.0
  0
LINE
  5
550
100
AcDbEntity
  8
0
  6
DASHED
 62
               4
100
AcDbLine
 10
-12.199996948242188
 20
-37.999990463256836
 30
0.0
 11
0.0
 21
-37.999990463256836
 31
0.0
  0
LINE
  5
551
100
AcDbEntity
  8
0
  6
DASHED
 62
               4
100
AcDbLine
 10
-12.0
 20
-21.499984741210938
 30
0.0
 11
-12.0
 21
-36.799978256225586
 31
0.0
  0
LINE
  5
552
100
AcDbEntity
  8
0
  6
DASHED
 62
               4
100
AcDbLine
 10
0.0
 20
-36.799978256225586
 30
0.0
 11
0.0
 21
-37.999990463256836
 31
0.0
  0
LINE
  5
553
100
AcDbEntity
  8
0
  6
DASHED
 62
               4
100
AcDbLine
 10
1.871826171875
 20
-12.799990653991699
 30
0.0
 11
0.6999969482421875
 21
-12.799990653991699
 31
0.0
  0
LINE
  5
554
100
AcDbEntity
  8
0
  6
DASHED
 62
               4
100
AcDbLine
 10
1.871826171875
 20
-7.1999902725219727
 30
0.0
 11
0.6999969482421875
 21
-7.1999902725219727
 31
0.0
  0
LINE
  5
555
100
AcDbEntity
  8
0
  6
DASHED
 62
               4
100
AcDbLine
 10
1.871826171875
 20
-2.7999897003173828
 30
0.0
 11
0.6999969482421875
 21
-2.7999897003173828
 31
0.0
  0
LINE
  5
556
100
AcDbEntity
  8
0
  6
DASHED
 62
               4
100
AcDbLine
 10
1.871826171875
 20
2.8000087738037109
 30
0.0
 11
0.6999969482421875
 21
2.8000087738037109
 31
0.0
  0
LINE
  5
557
100
AcDbEntity
  8
0
  6
CONTINUOUS
 62
               2
100
AcDbLine
 10
-12.0
 20
0.5000152587890625
 30
0.0
 11
0.0
 21
0.5000152587890625
 31
0.0
  0
LINE
  5
558
100
AcDbEntity
  8
0
  6
CONTINUOUS
 62
               2
100
AcDbLine
 10
-12.0
 20
-10.499984741210937
 30
0.0
 11
0.0
 21
-10.499984741210937
 31
0.0
  0
CIRCLE
  5
559
100
AcDbEntity
  8
0
  6
CONTINUOUS
 62
               7
100
AcDbCircle
 10
-6.0
 20
26.700006484985352
 30
0.0
 40
2.0
  0
CIRCLE
  5
55A
100
AcDbEntity
  8
0
  6
CONTINUOUS
 62
               7
100
AcDbCircle
 10
-6.0
 20
26.700006484985352
 30
0.0
 40
1.9499998092651367
  0
ARC
  5
55B
100
AcDbEntity
  8
0
  6
CONTINUOUS
 62
               4
100
AcDbCircle
 10
-1.5500030517578125
 20
62.500009536743164
 30
0.0
 40
0.5
100
AcDbArc
 50
359.99995901886416
 51
89.999982013910454
  0
ARC
  5
55C
100
AcDbEntity
  8
0
  6
CONTINUOUS
 62
               4
100
AcDbCircle
 10
-10.449996948242187
 20
62.500024795532227
 30
0.0
 40
0.5
100
AcDbArc
 50
89.999982013910454
 51
179.99996402782091
  0
ARC
  5
55D
100
AcDbEntity
  8
0
  6
CONTINUOUS
 62
               7
100
AcDbCircle
 10
-1.4000091552734375
 20
-35.599981307983398
 30
0.0
 40
0.4000000357627869
100
AcDbArc
 50
270.00001798608872
 51
0.00001366037834
  0
ARC
  5
55E
100
AcDbEntity
  8
0
  6
CONTINUOUS
 62
               7
100
AcDbCircle
 10
-10.600006103515625
 20
-35.599981307983398
 30
0.0
 40
0.4000000357627869
100
AcDbArc
 50
179.99996402782091
 51
269.99994604173139
  0
ARC
  5
55F
100
AcDbEntity
  8
0
  6
CONTINUOUS
 62
               7
100
AcDbCircle
 10
-1.399993896484375
 20
11.400003433227539
 30
0.0
 40
0.4000000357627869
100
AcDbArc
 50
270.00001798608872
 51
0.0
  0
ARC
  5
560
100
AcDbEntity
  8
0
  6
CONTINUOUS
 62
               7
100
AcDbCircle
 10
-10.600006103515625
 20
11.400003433227539
 30
0.0
 40
0.4000000357627869
100
AcDbArc
 50
179.99996402782091
 51
270.00000068324471
  0
ARC
  5
561
100
AcDbEntity
  8
0
  6
CONTINUOUS
 62
               7
100
AcDbCircle
 10
-10.600006103515625
 20
-15.799985885620117
 30
0.0
 40
0.4000000357627869
100
AcDbArc
 50
179.99996402782091
 51
270.00000068324471
  0
ARC
  5
562
100
AcDbEntity
  8
0
  6
CONTINUOUS
 62
               7
100
AcDbCircle
 10
-10.600006103515625
 20
10.400003433227539
 30
0.0
 40
0.4000000357627869
100
AcDbArc
 50
89.999982013910454
 51
179.99996402782091
  0
ARC
  5
563
100
AcDbEntity
  8
0
  6
CONTINUOUS
 62
               7
100
AcDbCircle
 10
-4.20001220703125
 20
10.400003433227539
 30
0.0
 40
0.4000000357627869
100
AcDbArc
 50
0.0
 51
89.999982013910454
  0
ARC
  5
564
100
AcDbEntity
  8
0
  6
CONTINUOUS
 62
               7
100
AcDbCircle
 10
-1.4000091552734375
 20
5.7999973297119141
 30
0.0
 40
0.4000000357627869
100
AcDbArc
 50
0.0
 51
89.999982013910454
  0
ARC
  5
565
100
AcDbEntity
  8
0
  6
CONTINUOUS
 62
               7
100
AcDbCircle
 10
-1.4000091552734375
 20
-20.399991989135742
 30
0.0
 40
0.4000000357627869
100
AcDbArc
 50
270.00001798608872
 51
0.0
  0
ARC
  5
566
100
AcDbEntity
  8
0
  6
CONTINUOUS
 62
               7
100
AcDbCircle
 10
-7.8000030517578125
 20
-20.399991989135742
 30
0.0
 40
0.4000000357627869
100
AcDbArc
 50
179.99996402782091
 51
270.00000068324471
  0
ARC
  5
567
100
AcDbEntity
  8
0
  6
CONTINUOUS
 62
               7
100
AcDbCircle
 10
-2.20001220703125
 20
7.7999973297119141
 30
0.0
 40
1.5999994277954102
100
AcDbArc
 50
179.99996402782091
 51
270.00000068324471
  0
ARC
  5
568
100
AcDbEntity
  8
0
  6
CONTINUOUS
 62
               7
100
AcDbCircle
 10
-9.8000030517578125
 20
-17.799985885620117
 30
0.0
 40
1.5999994277954102
100
AcDbArc
 50
0.0
 51
89.999982013910454
  0
CIRCLE
  5
569
100
AcDbEntity
  8
0
  6
CONTINUOUS
 62
               7
100
AcDbCircle
 10
-2.20001220703125
 20
7.8000125885009766
 30
0.0
 40
1.25
  0
CIRCLE
  5
56A
100
AcDbEntity
  8
0
  6
CONTINUOUS
 62
               7
100
AcDbCircle
 10
-9.8000030517578125
 20
-17.799985885620117
 30
0.0
 40
1.25
  0
ARC
  5
56B
100
AcDbEntity
  8
0
  6
DASHED
 62
               4
100
AcDbCircle
 10
-12.199996948242188
 20
-36.999990463256836
 30
0.0
 40
1.0
100
AcDbArc
 50
179.99998133066492
 51
270.00001798608872
  0
ARC
  5
56C
100
AcDbEntity
  8
0
  6
DASHED
 62
               4
100
AcDbCircle
 10
-1.9000091552734375
 20
-9.9999914169311523
 30
0.0
 40
5.0
100
AcDbArc
 50
330.50763931485608
 51
29.492333364386468
  0
ARC
  5
56D
100
AcDbEntity
  8
0
  6
DASHED
 62
               4
100
AcDbCircle
 10
1.871826171875
 20
-12.133323669433594
 30
0.0
 40
0.6666666865348816
100
AcDbArc
 50
270.00001798608872
 51
330.50763931485608
  0
ARC
  5
56E
100
AcDbEntity
  8
0
  6
DASHED
 62
               4
100
AcDbCircle
 10
1.8718109130859375
 20
-7.8666572570800781
 30
0.0
 40
0.6666666865348816
100
AcDbArc
 50
29.492319704008114
 51
89.999982013910454
  0
ARC
  5
56F
100
AcDbEntity
  8
0
  6
DASHED
 62
               4
100
AcDbCircle
 10
-1.9000091552734375
 20
0.0000095367431641
 30
0.0
 40
5.0
100
AcDbArc
 50
330.50763931485608
 51
29.492333364386468
  0
ARC
  5
570
100
AcDbEntity
  8
0
  6
DASHED
 62
               4
100
AcDbCircle
 10
1.871826171875
 20
-2.1333236694335937
 30
0.0
 40
0.6666666865348816
100
AcDbArc
 50
270.00001798608872
 51
330.50763931485608
  0
ARC
  5
571
100
AcDbEntity
  8
0
  6
DASHED
 62
               4
100
AcDbCircle
 10
1.8718109130859375
 20
2.1333427429199219
 30
0.0
 40
0.6666666865348816
100
AcDbArc
 50
29.492319704008114
 51
89.999982013910454
  0
LINE
  5
572
100
AcDbEntity
  8
0
  6
DASHED
 62
               4
100
AcDbLine
 10
0.6999969482421875
 20
-2.9499902725219727
 30
0.0
 11
0.6999969482421875
 21
2.9500093460083008
 31
0.0
  0
LINE
  5
573
100
AcDbEntity
  8
0
  6
DASHED
 62
               4
100
AcDbLine
 10
0.0000035237681004
 20
0.3500062014027208
 30
0.0
 11
0.7000108563697722
 21
0.537572602441287
 31
0.0
  0
LINE
  5
574
100
AcDbEntity
  8
0
  6
DASHED
 62
               4
100
AcDbLine
 10
0.7000133860265123
 20
-0.3499958437032547
 30
0.0
 11
0.0000060102292991
 21
-0.5375622015462795
 31
0.0
  0
LINE
  5
575
100
AcDbEntity
  8
0
  6
DASHED
 62
               4
100
AcDbLine
 10
0.6999969482421875
 20
-2.9499902725219727
 30
0.0
 11
0.0
 21
-2.9499902725219727
 31
0.0
  0
LINE
  5
576
100
AcDbEntity
  8
0
  6
DASHED
 62
               4
100
AcDbLine
 10
0.6999969482421875
 20
2.9500093460083008
 30
0.0
 11
0.0
 21
2.9500093460083008
 31
0.0
  0
LINE
  5
577
100
AcDbEntity
  8
0
  6
DASHED
 62
               4
100
AcDbLine
 10
0.6999969482421875
 20
-12.949990272521973
 30
0.0
 11
0.6999969482421875
 21
-7.0499906539916992
 31
0.0
  0
LINE
  5
578
100
AcDbEntity
  8
0
  6
DASHED
 62
               4
100
AcDbLine
 10
-0.0000022132271624
 20
-9.6499928446592094
 30
0.0
 11
0.7000051193745094
 21
-9.4624264436206431
 31
0.0
  0
LINE
  5
579
100
AcDbEntity
  8
0
  6
DASHED
 62
               4
100
AcDbLine
 10
0.7000069190262366
 20
-10.349995311233215
 30
0.0
 11
0.0000142820881592
 21
-10.537557719811957
 31
0.0
  0
LINE
  5
57A
100
AcDbEntity
  8
0
  6
DASHED
 62
               4
100
AcDbLine
 10
0.6999969482421875
 20
-12.949990272521973
 30
0.0
 11
0.0
 21
-12.949990272521973
 31
0.0
  0
LINE
  5
57B
100
AcDbEntity
  8
0
  6
DASHED
 62
               4
100
AcDbLine
 10
0.6999969482421875
 20
-7.0499906539916992
 30
0.0
 11
0.0
 21
-7.0499906539916992
 31
0.0
  0
LINE
  5
57C
100
AcDbEntity
  8
0
  6
DASHED
 62
               4
100
AcDbLine
 10
-14.399993896484375
 20
2.0000095367431356
 30
0.0
 11
-14.399993896484375
 21
-1.9999904632568644
 31
0.0
  0
LINE
  5
57D
100
AcDbEntity
  8
0
  6
DASHED
 62
               4
100
AcDbLine
 10
-13.699996948242188
 20
-1.9999904632568644
 30
0.0
 11
-14.399993896484375
 21
-1.9999904632568644
 31
0.0
  0
LINE
  5
57E
100
AcDbEntity
  8
0
  6
DASHED
 62
               4
100
AcDbLine
 10
-13.699996948242188
 20
2.0000095367431356
 30
0.0
 11
-14.399993896484375
 21
2.0000095367431356
 31
0.0
  0
ARC
  5
57F
100
AcDbEntity
  8
0
  6
DASHED
 62
               4
100
AcDbCircle
 10
-13.699996948242188
 20
-2.4999904632568359
 30
0.0
 40
0.5
100
AcDbArc
 50
359.99996402782114
 51
89.999982013910454
  0
ARC
  5
580
100
AcDbEntity
  8
0
  6
DASHED
 62
               4
100
AcDbCircle
 10
-13.699996948242188
 20
2.5000095367431641
 30
0.0
 40
0.5
100
AcDbArc
 50
269.99996334457541
 51
359.99996402782114
  0
LINE
  5
581
100
AcDbEntity
  8
0
  6
DASHED
 62
               4
100
AcDbLine
 10
-14.399993896484375
 20
-7.9999904632568644
 30
0.0
 11
-14.399993896484375
 21
-11.999990463256864
 31
0.0
  0
LINE
  5
582
100
AcDbEntity
  8
0
  6
DASHED
 62
               4
100
AcDbLine
 10
-13.699996948242188
 20
-11.999990463256864
 30
0.0
 11
-14.399993896484375
 21
-11.999990463256864
 31
0.0
  0
LINE
  5
583
100
AcDbEntity
  8
0
  6
DASHED
 62
               4
100
AcDbLine
 10
-13.699996948242188
 20
-7.9999904632568644
 30
0.0
 11
-14.399993896484375
 21
-7.9999904632568644
 31
0.0
  0
ARC
  5
584
100
AcDbEntity
  8
0
  6
DASHED
 62
               4
100
AcDbCircle
 10
-13.699996948242188
 20
-12.499990463256836
 30
0.0
 40
0.5
100
AcDbArc
 50
359.99996402782114
 51
89.999982013910454
  0
ARC
  5
585
100
AcDbEntity
  8
0
  6
DASHED
 62
               4
100
AcDbCircle
 10
-13.699996948242188
 20
-7.4999904632568359
 30
0.0
 40
0.5
100
AcDbArc
 50
269.99996334457541
 51
359.99996402782114
  0
LINE
  5
586
100
AcDbEntity
  8
0
  6
CONTINUOUS
 62
               4
100
AcDbLine
 10
-7.285003662109375
 20
78.173334121704102
 30
0.0
 11
-7.285003662109375
 21
82.000009536743164
 31
0.0
  0
LINE
  5
587
100
AcDbEntity
  8
0
  6
CONTINUOUS
 62
               4
100
AcDbLine
 10
-8.7150115966796875
 20
77.790170669555664
 30
0.0
 11
-8.7150115966796875
 21
82.000009536743164
 31
0.0
  0
LINE
  5
588
100
AcDbEntity
  8
0
  6
CONTINUOUS
 62
               4
100
AcDbLine
 10
-8.7150115966796875
 20
82.000009536743164
 30
0.0
 11
-7.285003662109375
 21
82.000009536743164
 31
0.0
  0
LINE
  5
589
100
AcDbEntity
  8
0
  6
CONTINUOUS
 62
               4
100
AcDbLine
 10
-7.600006103515625
 20
82.000009536743164
 30
0.0
 11
-7.600006103515625
 21
87.000009536743164
 31
0.0
  0
LINE
  5
58A
100
AcDbEntity
  8
0
  6
CONTINUOUS
 62
               4
100
AcDbLine
 10
-8.4000091552734375
 20
82.000009536743164
 30
0.0
 11
-8.4000091552734375
 21
87.000009536743164
 31
0.0
  0
LINE
  5
58B
100
AcDbEntity
  8
0
  6
CONTINUOUS
 62
               4
100
AcDbLine
 10
-8.4000091552734375
 20
87.000009536743164
 30
0.0
 11
-7.600006103515625
 21
87.000009536743164
 31
0.0
  0
LINE
  5
58C
100
AcDbEntity
  8
0
  6
CONTINUOUS
 62
               4
100
AcDbLine
 10
-7.285003662109375
 20
74.000009536743164
 30
0.0
 11
-7.285003662109375
 21
77.138055801391602
 31
0.0
  0
LINE
  5
58D
100
AcDbEntity
  8
0
  6
CONTINUOUS
 62
               4
100
AcDbLine
 10
-8.7150115966796875
 20
74.000009536743164
 30
0.0
 11
-8.7150115966796875
 21
76.754892349243164
 31
0.0
  0
LINE
  5
58E
100
AcDbEntity
  8
0
  6
CONTINUOUS
 62
             200
100
AcDbLine
 10
-10.000008025742318
 20
76.410574208178332
 30
0.0
 11
-6.1142595055178504
 21
77.451757394889569
 31
0.0
  0
LINE
  5
58F
100
AcDbEntity
  8
0
  6
CONTINUOUS
 62
             200
100
AcDbLine
 10
-10.000012718924154
 20
77.445849117674697
 30
0.0
 11
-6.1599355813935972
 21
78.474794694173312
 31
0.0
  0
LINE
  5
590
100
AcDbEntity
  8
0
  6
CONTINUOUS
 62
               7
100
AcDbLine
 10
-8.4046615074780107
 20
7.3989803361627082
 30
0.0
 11
-9.6067428835032729
 21
8.6010620161716815
 31
0.0
  0
LINE
  5
591
100
AcDbEntity
  8
0
  6
CONTINUOUS
 62
               7
100
AcDbLine
 10
-9.6067429848311576
 20
7.398980437490593
 30
0.0
 11
-8.4046614061501259
 21
8.6010619148437968
 31
0.0
  0
CIRCLE
  5
592
100
AcDbEntity
  8
0
  6
CONTINUOUS
 62
               7
100
AcDbCircle
 10
-9.0057199755633519
 20
8.0000095367431641
 30
0.0
 40
1.3999996185302734
  0
CIRCLE
  5
593
100
AcDbEntity
  8
0
  6
CONTINUOUS
 62
               7
100
AcDbCircle
 10
-9.0057199755633519
 20
8.0000095367431641
 30
0.0
 40
1.25
  0
LINE
  5
594
100
AcDbEntity
  8
0
  6
CONTINUOUS
 62
               7
100
AcDbLine
 10
-2.4046573295778444
 20
-18.601028383377695
 30
0.0
 11
-3.6067387056031066
 21
-17.398946703368722
 31
0.0
  0
LINE
  5
595
100
AcDbEntity
  8
0
  6
CONTINUOUS
 62
               7
100
AcDbLine
 10
-3.6067388069310482
 20
-18.601028282049782
 30
0.0
 11
-2.4046572282499028
 21
-17.398946804696607
 31
0.0
  0
CIRCLE
  5
596
100
AcDbEntity
  8
0
  6
CONTINUOUS
 62
               7
100
AcDbCircle
 10
-3.0057199755633519
 20
-17.999990463256836
 30
0.0
 40
1.3999996185302734
  0
CIRCLE
  5
597
100
AcDbEntity
  8
0
  6
CONTINUOUS
 62
               7
100
AcDbCircle
 10
-3.0057199755633519
 20
-17.999990463256836
 30
0.0
 40
1.25
  0
CIRCLE
  5
598
100
AcDbEntity
  8
0
  6
CONTINUOUS
 62
               7
100
AcDbCircle
 10
-6.0
 20
-10.499984741210937
 30
0.0
 40
5.0
  0
ARC
  5
599
100
AcDbEntity
  8
0
  6
CONTINUOUS
 62
               7
100
AcDbCircle
 10
-6.0
 20
-10.499984741210937
 30
0.0
 40
4.9000000000000004
100
AcDbArc
 50
10.399137031557631
 51
169.60086296844196
  0
LINE
  5
59A
100
AcDbEntity
  8
0
  6
CONTINUOUS
 62
               7
100
AcDbLine
 10
-6.75
 20
-5.223859268859087
 30
0.0
 11
-6.75
 21
-4.776110213562788
 31
0.0
  0
CIRCLE
  5
59B
100
AcDbEntity
  8
0
  6
CONTINUOUS
 62
               7
100
AcDbCircle
 10
-6.0
 20
-10.499984741210937
 30
0.0
 40
3.0500000000000003
  0
CIRCLE
  5
59C
100
AcDbEntity
  8
0
  6
CONTINUOUS
 62
               7
100
AcDbCircle
 10
-6.0
 20
-10.499984741210937
 30
0.0
 40
2.0500000000000003
  0
ARC
  5
59D
100
AcDbEntity
  8
0
  6
CONTINUOUS
 62
               7
100
AcDbCircle
 10
-7.1499999999999773
 20
-5.223859268859087
 30
0.0
 40
0.4
100
AcDbArc
 50
282.2960462006464
 51
0.0
  0
ARC
  5
59E
100
AcDbEntity
  8
0
  6
CONTINUOUS
 62
               7
100
AcDbCircle
 10
-6.0
 20
-10.499984741210937
 30
0.0
 40
4.9000000000000004
100
AcDbArc
 50
190.39913703155722
 51
349.60086296844156
  0
CIRCLE
  5
59F
100
AcDbEntity
  8
0
  6
CONTINUOUS
 62
               7
100
AcDbCircle
 10
-6.0
 20
0.5000152587890625
 30
0.0
 40
5.0
  0
ARC
  5
5A0
100
AcDbEntity
  8
0
  6
CONTINUOUS
 62
               7
100
AcDbCircle
 10
-6.0
 20
0.5000152587890625
 30
0.0
 40
4.9000000000000004
100
AcDbArc
 50
10.399137031557631
 51
169.60086296844196
  0
CIRCLE
  5
5A1
100
AcDbEntity
  8
0
  6
CONTINUOUS
 62
               7
100
AcDbCircle
 10
-6.0
 20
0.5000152587890625
 30
0.0
 40
3.0500000000000003
  0
CIRCLE
  5
5A2
100
AcDbEntity
  8
0
  6
CONTINUOUS
 62
               7
100
AcDbCircle
 10
-6.0
 20
0.5000152587890625
 30
0.0
 40
2.0500000000000003
  0
ARC
  5
5A3
100
AcDbEntity
  8
0
  6
CONTINUOUS
 62
               7
100
AcDbCircle
 10
-6.0
 20
0.5000152587890625
 30
0.0
 40
4.9000000000000004
100
AcDbArc
 50
190.39913703155722
 51
349.60086296844156
  0
ARC
  5
5A4
100
AcDbEntity
  8
0
  6
CONTINUOUS
 62
               7
100
AcDbCircle
 10
-4.8500000000000227
 20
-4.776110213562788
 30
0.0
 40
0.4
100
AcDbArc
 50
102.29604620064599
 51
179.99999999999963
  0
ARC
  5
5A5
100
AcDbEntity
  8
0
  6
CONTINUOUS
 62
               7
100
AcDbCircle
 10
-7.1499999999999773
 20
-4.776110213562788
 30
0.0
 40
0.4
100
AcDbArc
 50
0.0
 51
77.703953799353613
  0
LINE
  5
5A6
100
AcDbEntity
  8
0
  6
CONTINUOUS
 62
               7
100
AcDbLine
 10
-5.25
 20
-5.223859268859087
 30
0.0
 11
-5.25
 21
-4.776110213562788
 31
0.0
  0
ARC
  5
5A7
100
AcDbEntity
  8
0
  6
CONTINUOUS
 62
               7
100
AcDbCircle
 10
-4.8500000000000227
 20
-5.223859268859087
 30
0.0
 40
0.4
100
AcDbArc
 50
179.99999999999963
 51
257.7039537993532
  0
LINE
  5
5A8
100
AcDbEntity
  8
0
  6
CONTINUOUS
 62
               7
100
AcDbLine
 10
-1.5
 20
-0.1999847412109261
 30
0.0
 11
-1.5
 21
1.2000152587890511
 31
0.0
  0
LINE
  5
5A9
100
AcDbEntity
  8
0
  6
CONTINUOUS
 62
               7
100
AcDbLine
 10
-1.5
 20
-0.1999847412109261
 30
0.0
 11
-1.1804864708800551
 21
-0.3844559632580626
 31
0.0
  0
LINE
  5
5AA
100
AcDbEntity
  8
0
  6
CONTINUOUS
 62
               7
100
AcDbLine
 10
-1.5
 20
1.2000152587890511
 30
0.0
 11
-1.1804864708800551
 21
1.3844864808361876
 31
0.0
  0
LINE
  5
5AB
100
AcDbEntity
  8
0
  6
CONTINUOUS
 62
               7
100
AcDbLine
 10
-10.5
 20
-0.1999847412109261
 30
0.0
 11
-10.5
 21
1.2000152587890511
 31
0.0
  0
LINE
  5
5AC
100
AcDbEntity
  8
0
  6
CONTINUOUS
 62
               7
100
AcDbLine
 10
-10.5
 20
-0.1999847412109261
 30
0.0
 11
-10.819513529119945
 21
-0.3844559632580626
 31
0.0
  0
LINE
  5
5AD
100
AcDbEntity
  8
0
  6
CONTINUOUS
 62
               7
100
AcDbLine
 10
-10.5
 20
1.2000152587890511
 30
0.0
 11
-10.819513529119945
 21
1.3844864808361876
 31
0.0
  0
LINE
  5
5AE
100
AcDbEntity
  8
0
  6
CONTINUOUS
 62
               7
100
AcDbLine
 10
-1.5
 20
-11.199984741210926
 30
0.0
 11
-1.5
 21
-9.7999847412109489
 31
0.0
  0
LINE
  5
5AF
100
AcDbEntity
  8
0
  6
CONTINUOUS
 62
               7
100
AcDbLine
 10
-1.5
 20
-11.199984741210926
 30
0.0
 11
-1.1804864708800551
 21
-11.384455963258063
 31
0.0
  0
LINE
  5
5B0
100
AcDbEntity
  8
0
  6
CONTINUOUS
 62
               7
100
AcDbLine
 10
-1.5
 20
-9.7999847412109489
 30
0.0
 11
-1.1804864708800551
 21
-9.6155135191638124
 31
0.0
  0
LINE
  5
5B1
100
AcDbEntity
  8
0
  6
CONTINUOUS
 62
               7
100
AcDbLine
 10
-10.5
 20
-11.199984741210926
 30
0.0
 11
-10.5
 21
-9.7999847412109489
 31
0.0
  0
LINE
  5
5B2
100
AcDbEntity
  8
0
  6
CONTINUOUS
 62
               7
100
AcDbLine
 10
-10.5
 20
-11.199984741210926
 30
0.0
 11
-10.819513529119945
 21
-11.384455963258063
 31
0.0
  0
LINE
  5
5B3
100
AcDbEntity
  8
0
  6
CONTINUOUS
 62
               7
100
AcDbLine
 10
-10.5
 20
-9.7999847412109489
 30
0.0
 11
-10.819513529119945
 21
-9.6155135191638124
 31
0.0
  0
LINE
  5
5B4
100
AcDbEntity
  8
0
  6
CONTINUOUS
 62
               4
100
AcDbLine
 10
-1.0
 20
30.000009536743164
 30
0.0
 11
-1.0
 21
54.000009536743164
 31
0.0
  0
LINE
  5
5B5
100
AcDbEntity
  8
0
  6
CONTINUOUS
 62
               4
100
AcDbLine
 10
-11.0
 20
30.000009536743164
 30
0.0
 11
-11.0
 21
54.000024795532227
 31
0.0
  0
ENDBLK
  5
5B6
100
AcDbEntity
  8
0
100
AcDbBlockEnd
  0
BLOCK
  5
5B7
100
AcDbEntity
  8
0
100
AcDbBlockBegin
  2
F10T-14
 70
               0
 10
0.0
 20
0.0
 30
0.0
  3
F10T-14
  1

  0
LINE
  5
5B8
100
AcDbEntity
  8
0
  6
CONTINUOUS
 62
               2
100
AcDbLine
 10
-26.000015258789063
 20
-6.0
 30
0.0
 11
44.999984741210937
 21
-6.0
 31
0.0
  0
LINE
  5
5B9
100
AcDbEntity
  8
0
  6
CONTINUOUS
 62
               7
100
AcDbLine
 10
28.099988082740367
 20
-1.0
 30
0.0
 11
3.499969482421875
 21
-1.0
 31
0.0
  0
LINE
  5
5BA
100
AcDbEntity
  8
0
  6
CONTINUOUS
 62
               7
100
AcDbLine
 10
28.099956439875314
 20
-11.0
 30
0.0
 11
3.499969482421875
 21
-11.0
 31
0.0
  0
LINE
  5
5BB
100
AcDbEntity
  8
0
  6
CONTINUOUS
 62
               7
100
AcDbLine
 10
27.499984741210938
 20
-1.399993896484375
 30
0.0
 11
27.499984741210938
 21
-10.599990844726563
 31
0.0
  0
LINE
  5
5BC
100
AcDbEntity
  8
0
  6
CONTINUOUS
 62
               7
100
AcDbLine
 10
22.29998779296875
 20
-1.0
 30
0.0
 11
22.29998779296875
 21
-2.8000030517578125
 31
0.0
  0
LINE
  5
5BD
100
AcDbEntity
  8
0
  6
CONTINUOUS
 62
               7
100
AcDbLine
 10
19.0999755859375
 20
-1.0
 30
0.0
 11
19.0999755859375
 21
-2.8000030517578125
 31
0.0
  0
LINE
  5
5BE
100
AcDbEntity
  8
0
  6
CONTINUOUS
 62
               7
100
AcDbLine
 10
5.2999725341796875
 20
-7.5999908447265625
 30
0.0
 11
3.499969482421875
 21
-7.5999908447265625
 31
0.0
  0
LINE
  5
5BF
100
AcDbEntity
  8
0
  6
CONTINUOUS
 62
               7
100
AcDbLine
 10
6.8999786376953125
 20
-9.1999969482421875
 30
0.0
 11
6.8999786376953125
 21
-11.0
 31
0.0
  0
LINE
  5
5C0
100
AcDbEntity
  8
0
  6
CONTINUOUS
 62
               7
100
AcDbLine
 10
4.6989362942640582
 20
-8.5989792664513516
 30
0.0
 11
5.9010157451175473
 21
-9.8010586159771265
 31
0.0
  0
LINE
  5
5C1
100
AcDbEntity
  8
0
  6
CONTINUOUS
 62
               7
100
AcDbLine
 10
20.098936298194303
 20
-2.198966698159893
 30
0.0
 11
21.301026538641736
 21
-3.401056837278702
 31
0.0
  0
LINE
  5
5C2
100
AcDbEntity
  8
0
  6
CONTINUOUS
 62
               7
100
AcDbLine
 10
21.301038432309383
 20
-2.1989766952164587
 30
0.0
 11
20.098959184111322
 21
-3.401056247397662
 31
0.0
  0
LINE
  5
5C3
100
AcDbEntity
  8
0
  6
CONTINUOUS
 62
               7
100
AcDbLine
 10
5.9010221091166386
 20
-8.5989642619988444
 30
0.0
 11
4.6989428609185779
 21
-9.8010438141800478
 31
0.0
  0
LINE
  5
5C4
100
AcDbEntity
  8
0
  6
CONTINUOUS
 62
               7
100
AcDbLine
 10
28.499984741210938
 20
-1.399993896484375
 30
0.0
 11
28.499984741210938
 21
-10.599990844726563
 31
0.0
  0
LINE
  5
5C5
100
AcDbEntity
  8
0
  6
CONTINUOUS
 62
               7
100
AcDbLine
 10
28.099970379848401
 20
-10.99998605999167
 30
0.0
 11
28.499972456637352
 21
-10.599982971671807
 31
0.0
  0
LINE
  5
5C6
100
AcDbEntity
  8
0
  6
CONTINUOUS
 62
               7
100
AcDbLine
 10
28.499984620363477
 20
-1.3999950540696204
 30
0.0
 11
28.099981296019735
 21
-0.999993213304549
 31
0.0
  0
LINE
  5
5C7
100
AcDbEntity
  8
0
  6
DASHED
 62
               4
100
AcDbLine
 10
-25.000015258789063
 20
-12.0
 30
0.0
 11
-5.0000152587890625
 21
-12.0
 31
0.0
  0
LINE
  5
5C8
100
AcDbEntity
  8
0
  6
DASHED
 62
               4
100
AcDbLine
 10
-25.000015258789063
 20
0.0
 30
0.0
 11
-5.0000152587890625
 21
0.0
 31
0.0
  0
LINE
  5
5C9
100
AcDbEntity
  8
0
  6
CONTINUOUS
 62
               7
100
AcDbLine
 10
-5.0000152587890625
 20
0.0
 30
0.0
 11
-5.0000152587890625
 21
-12.0
 31
0.0
  0
LINE
  5
5CA
100
AcDbEntity
  8
0
  6
CONTINUOUS
 62
               7
100
AcDbLine
 10
2.9999847412109375
 20
0.0
 30
0.0
 11
2.9999847412109375
 21
-12.0
 31
0.0
  0
LINE
  5
5CB
100
AcDbEntity
  8
0
  6
DASHED
 62
               4
100
AcDbLine
 10
-4.0000152587890625
 20
1.1999969482421875
 30
0.0
 11
9.9999847412109375
 21
1.1999969482421875
 31
0.0
  0
LINE
  5
5CC
100
AcDbEntity
  8
0
  6
DASHED
 62
               4
100
AcDbLine
 10
9.9999847412109375
 20
1.1999969482421875
 30
0.0
 11
9.9999847412109375
 21
-12.0
 31
0.0
  0
LINE
  5
5CD
100
AcDbEntity
  8
0
  6
DASHED
 62
               4
100
AcDbLine
 10
-25.000015258789063
 20
0.0
 30
0.0
 11
-25.000015258789063
 21
-12.0
 31
0.0
  0
LINE
  5
5CE
100
AcDbEntity
  8
0
  6
CONTINUOUS
 62
               7
100
AcDbLine
 10
-5.0000152587890625
 20
0.0
 30
0.0
 11
2.9999847412109375
 21
0.0
 31
0.0
  0
LINE
  5
5CF
100
AcDbEntity
  8
0
  6
CONTINUOUS
 62
               7
100
AcDbLine
 10
-5.0000152587890625
 20
-12.0
 30
0.0
 11
2.9999847412109375
 21
-12.0
 31
0.0
  0
LINE
  5
5D0
100
AcDbEntity
  8
0
  6
DASHED
 62
               4
100
AcDbLine
 10
-4.0000152587890625
 20
1.1999969482421875
 30
0.0
 11
-4.0000152587890625
 21
0.0
 31
0.0
  0
LINE
  5
5D1
100
AcDbEntity
  8
0
  6
DASHED
 62
               4
100
AcDbLine
 10
2.9999847412109375
 20
-12.0
 30
0.0
 11
9.9999847412109375
 21
-12.0
 31
0.0
  0
LINE
  5
5D2
100
AcDbEntity
  8
0
  6
DASHED
 62
               4
100
AcDbLine
 10
2.9999847412109375
 20
0.0
 30
0.0
 11
9.9999847412109375
 21
0.0
 31
0.0
  0
LINE
  5
5D3
100
AcDbEntity
  8
0
  6
CENTER
 62
             200
100
AcDbLine
 10
-20.000015258789063
 20
-3.5
 30
0.0
 11
-20.000015258789063
 21
-8.5
 31
0.0
  0
LINE
  5
5D4
100
AcDbEntity
  8
0
  6
CENTER
 62
             200
100
AcDbLine
 10
-10.000015258789062
 20
-3.5
 30
0.0
 11
-10.000015258789062
 21
-8.5
 31
0.0
  0
LINE
  5
5D5
100
AcDbEntity
  8
0
  6
DASHED
 62
               4
100
AcDbLine
 10
-2.800018310546875
 20
-13.871826171875
 30
0.0
 11
-2.800018310546875
 21
-12.699996948242188
 31
0.0
  0
LINE
  5
5D6
100
AcDbEntity
  8
0
  6
DASHED
 62
               4
100
AcDbLine
 10
2.7999725341796875
 20
-13.871826171875
 30
0.0
 11
2.7999725341796875
 21
-12.699996948242188
 31
0.0
  0
LINE
  5
5D7
100
AcDbEntity
  8
0
  6
CONTINUOUS
 62
               7
100
AcDbLine
 10
28.0999755859375
 20
-11.0
 30
0.0
 11
28.0999755859375
 21
-1.0
 31
0.0
  0
ARC
  5
5D8
100
AcDbEntity
  8
0
  6
CONTINUOUS
 62
               7
100
AcDbCircle
 10
3.8999786376953125
 20
-1.399993896484375
 30
0.0
 40
0.3999999761581421
100
AcDbArc
 50
89.999982013910454
 51
179.99996402782091
  0
ARC
  5
5D9
100
AcDbEntity
  8
0
  6
CONTINUOUS
 62
               7
100
AcDbCircle
 10
27.0999755859375
 20
-1.399993896484375
 30
0.0
 40
0.3999999761581421
100
AcDbArc
 50
359.99998633962088
 51
89.999927372397096
  0
ARC
  5
5DA
100
AcDbEntity
  8
0
  6
CONTINUOUS
 62
               7
100
AcDbCircle
 10
27.0999755859375
 20
-10.599990844726563
 30
0.0
 40
0.3999999761581421
100
AcDbArc
 50
270.00001798608872
 51
359.99998633962088
  0
ARC
  5
5DB
100
AcDbEntity
  8
0
  6
CONTINUOUS
 62
               7
100
AcDbCircle
 10
3.8999786376953125
 20
-10.599990844726563
 30
0.0
 40
0.3999999761581421
100
AcDbArc
 50
180.0000359721783
 51
270.00001798608872
  0
CIRCLE
  5
5DC
100
AcDbEntity
  8
0
  6
CONTINUOUS
 62
               7
100
AcDbCircle
 10
5.2999725341796875
 20
-9.1999969482421875
 30
0.0
 40
1.25
  0
CIRCLE
  5
5DD
100
AcDbEntity
  8
0
  6
CONTINUOUS
 62
               7
100
AcDbCircle
 10
20.699981689453125
 20
-2.8000030517578125
 30
0.0
 40
1.25
  0
ARC
  5
5DE
100
AcDbEntity
  8
0
  6
CONTINUOUS
 62
               7
100
AcDbCircle
 10
5.2999725341796875
 20
-9.1999969482421875
 30
0.0
 40
1.5999994277954102
100
AcDbArc
 50
359.99998633962088
 51
89.999927372397096
  0
ARC
  5
5DF
100
AcDbEntity
  8
0
  6
CONTINUOUS
 62
               7
100
AcDbCircle
 10
20.699981689453125
 20
-2.8000030517578125
 30
0.0
 40
1.5999984741210938
100
AcDbArc
 50
180.0000359721783
 51
359.99998633962088
  0
CIRCLE
  5
5E0
100
AcDbEntity
  8
0
  6
DASHED
 62
               4
100
AcDbCircle
 10
-10.000015258789062
 20
-6.0
 30
0.0
 40
1.5999994277954102
  0
CIRCLE
  5
5E1
100
AcDbEntity
  8
0
  6
DASHED
 62
               4
100
AcDbCircle
 10
-20.000015258789063
 20
-6.0
 30
0.0
 40
1.5999994277954102
  0
ARC
  5
5E2
100
AcDbEntity
  8
0
  6
DASHED
 62
               4
100
AcDbCircle
 10
-0.0000152587890625
 20
-10.099990844726562
 30
0.0
 40
5.0
100
AcDbArc
 50
240.5076436405673
 51
299.49233769009686
  0
ARC
  5
5E3
100
AcDbEntity
  8
0
  6
DASHED
 62
               4
100
AcDbCircle
 10
-2.1333465576171875
 20
-13.871826171875
 30
0.0
 40
0.6666666865348816
100
AcDbArc
 50
179.99990938630756
 51
240.50757169620994
  0
ARC
  5
5E4
100
AcDbEntity
  8
0
  6
DASHED
 62
               4
100
AcDbCircle
 10
2.1333160400390625
 20
-13.871810913085938
 30
0.0
 40
0.6666666865348816
100
AcDbArc
 50
299.49228304858349
 51
359.99994535848583
  0
LINE
  5
5E5
100
AcDbEntity
  8
0
  6
DASHED
 62
               4
100
AcDbLine
 10
-2.95001220703125
 20
-12.699996948242188
 30
0.0
 11
2.949981689453125
 21
-12.699996948242188
 31
0.0
  0
LINE
  5
5E6
100
AcDbEntity
  8
0
  6
DASHED
 62
               4
100
AcDbLine
 10
0.3499904852851614
 20
-11.999998742770003
 30
0.0
 11
0.5375568863237277
 21
-12.700006075371675
 31
0.0
  0
LINE
  5
5E7
100
AcDbEntity
  8
0
  6
DASHED
 62
               4
100
AcDbLine
 10
-0.3500060865935666
 20
-12.700008559747403
 30
0.0
 11
-0.5375724444365915
 21
-12.000001183950189
 31
0.0
  0
LINE
  5
5E8
100
AcDbEntity
  8
0
  6
DASHED
 62
               4
100
AcDbLine
 10
-2.95001220703125
 20
-12.699996948242188
 30
0.0
 11
-2.95001220703125
 21
-12.0
 31
0.0
  0
LINE
  5
5E9
100
AcDbEntity
  8
0
  6
DASHED
 62
               4
100
AcDbLine
 10
2.949981689453125
 20
-12.699996948242188
 30
0.0
 11
2.949981689453125
 21
-12.0
 31
0.0
  0
LINE
  5
5EA
100
AcDbEntity
  8
0
  6
DASHED
 62
               4
100
AcDbLine
 10
1.9999847412109375
 20
2.3999938964843608
 30
0.0
 11
-2.0000152587890625
 21
2.3999938964843608
 31
0.0
  0
LINE
  5
5EB
100
AcDbEntity
  8
0
  6
DASHED
 62
               4
100
AcDbLine
 10
-2.0000152587890625
 20
1.6999969482421733
 30
0.0
 11
-2.0000152587890625
 21
2.3999938964843608
 31
0.0
  0
LINE
  5
5EC
100
AcDbEntity
  8
0
  6
DASHED
 62
               4
100
AcDbLine
 10
1.9999847412109375
 20
1.6999969482421733
 30
0.0
 11
1.9999847412109375
 21
2.3999938964843608
 31
0.0
  0
ARC
  5
5ED
100
AcDbEntity
  8
0
  6
DASHED
 62
               4
100
AcDbCircle
 10
-2.5000152587890625
 20
1.6999969482421875
 30
0.0
 40
0.5
100
AcDbArc
 50
269.99996334457541
 51
0.00000068324523
  0
ARC
  5
5EE
100
AcDbEntity
  8
0
  6
DASHED
 62
               4
100
AcDbCircle
 10
2.4999847412109375
 20
1.6999969482421875
 30
0.0
 40
0.5
100
AcDbArc
 50
179.99996402782091
 51
269.99994604173139
  0
LINE
  5
5EF
100
AcDbEntity
  8
0
  6
CONTINUOUS
 62
               7
100
AcDbLine
 10
32.29998474121092
 20
-11.0
 30
0.0
 11
28.0999755859375
 21
-11.0
 31
0.0
  0
LINE
  5
5F0
100
AcDbEntity
  8
0
  6
CONTINUOUS
 62
               7
100
AcDbLine
 10
32.299984741210949
 20
-1.0
 30
0.0
 11
28.0999755859375
 21
-1.0
 31
0.0
  0
LINE
  5
5F1
100
AcDbEntity
  8
0
  6
CONTINUOUS
 62
               7
100
AcDbLine
 10
32.299984741210949
 20
-11.0
 30
0.0
 11
32.299984741210949
 21
-1.0
 31
0.0
  0
LINE
  5
5F2
100
AcDbEntity
  8
0
  6
CONTINUOUS
 62
               7
100
AcDbLine
 10
43.999984741210938
 20
-10.700000000000017
 30
0.0
 11
43.999984741210938
 21
-1.300000011920929
 31
0.0
  0
LINE
  5
5F3
100
AcDbEntity
  8
0
  6
CONTINUOUS
 62
               7
100
AcDbLine
 10
43.799984741210949
 20
-1.1000000000000085
 30
0.0
 11
42.999984741210937
 21
-1.1000000000000085
 31
0.0
  0
ARC
  5
5F4
100
AcDbEntity
  8
0
  6
CONTINUOUS
 62
               7
100
AcDbCircle
 10
43.799984741210949
 20
-1.3000000000000114
 30
0.0
 40
0.2
100
AcDbArc
 50
0.0
 51
89.999999999999815
  0
LINE
  5
5F5
100
AcDbEntity
  8
0
  6
CONTINUOUS
 62
               7
100
AcDbLine
 10
42.999984741210937
 20
-2.5
 30
0.0
 11
42.099984741210932
 21
-2.5
 31
0.0
  0
LINE
  5
5F6
100
AcDbEntity
  8
0
  6
CONTINUOUS
 62
               7
100
AcDbLine
 10
42.999984741210937
 20
-10.900000000000006
 30
0.0
 11
42.999984741210937
 21
-1.0999999940395355
 31
0.0
  0
LINE
  5
5F7
100
AcDbEntity
  8
0
  6
CONTINUOUS
 62
               7
100
AcDbLine
 10
41.161864741210934
 20
-1.0
 30
0.0
 11
37.199984741210926
 21
-1.0
 31
0.0
  0
ARC
  5
5F8
100
AcDbEntity
  8
0
  6
CONTINUOUS
 62
               7
100
AcDbCircle
 10
43.799984741210949
 20
-10.700000000000017
 30
0.0
 40
0.2
100
AcDbArc
 50
270.00000000000023
 51
0.0
  0
LINE
  5
5F9
100
AcDbEntity
  8
0
  6
CONTINUOUS
 62
               7
100
AcDbLine
 10
43.799984741210949
 20
-10.900000000000006
 30
0.0
 11
42.999984741210937
 21
-10.900000000000006
 31
0.0
  0
LINE
  5
5FA
100
AcDbEntity
  8
0
  6
CONTINUOUS
 62
               7
100
AcDbLine
 10
36.099984741210932
 20
-11.0
 30
0.0
 11
32.499984741210937
 21
-11.0
 31
0.0
  0
LINE
  5
5FB
100
AcDbEntity
  8
0
  6
CONTINUOUS
 62
               7
100
AcDbLine
 10
36.099984741210932
 20
-1.0
 30
0.0
 11
32.499984741210937
 21
-1.0
 31
0.0
  0
LINE
  5
5FC
100
AcDbEntity
  8
0
  6
CONTINUOUS
 62
               7
100
AcDbLine
 10
36.099984741210932
 20
-11.0
 30
0.0
 11
36.099984741210932
 21
-1.0
 31
0.0
  0
LINE
  5
5FD
100
AcDbEntity
  8
0
  6
CONTINUOUS
 62
               7
100
AcDbLine
 10
36.299984741210949
 20
-10.800000000000011
 30
0.0
 11
36.299984741210949
 21
-1.2000000000000171
 31
0.0
  0
LINE
  5
5FE
100
AcDbEntity
  8
0
  6
CONTINUOUS
 62
               7
100
AcDbLine
 10
36.299984741210949
 20
-1.2000000000000171
 30
0.0
 11
36.099984741210932
 21
-1.0
 31
0.0
  0
LINE
  5
5FF
100
AcDbEntity
  8
0
  6
CONTINUOUS
 62
               7
100
AcDbLine
 10
36.299984741210949
 20
-10.800000000000011
 30
0.0
 11
36.099984741210932
 21
-11.0
 31
0.0
  0
LINE
  5
600
100
AcDbEntity
  8
0
  6
CONTINUOUS
 62
               7
100
AcDbLine
 10
36.999984741210938
 20
-10.800000000000011
 30
0.0
 11
36.999984741210938
 21
-1.2000000000000171
 31
0.0
  0
LINE
  5
601
100
AcDbEntity
  8
0
  6
CONTINUOUS
 62
               7
100
AcDbLine
 10
37.199984741210926
 20
-11.0
 30
0.0
 11
37.199984741210926
 21
-1.0
 31
0.0
  0
LINE
  5
602
100
AcDbEntity
  8
0
  6
CONTINUOUS
 62
               7
100
AcDbLine
 10
36.999984741210938
 20
-1.75
 30
0.0
 11
36.299984741210949
 21
-1.75
 31
0.0
  0
LINE
  5
603
100
AcDbEntity
  8
0
  6
CONTINUOUS
 62
               7
100
AcDbLine
 10
36.299984741210949
 20
-10.25
 30
0.0
 11
36.999984741210938
 21
-10.25
 31
0.0
  0
LINE
  5
604
100
AcDbEntity
  8
0
  6
CONTINUOUS
 62
               7
100
AcDbLine
 10
37.199984741210926
 20
-1.0
 30
0.0
 11
36.999984741210938
 21
-1.2000000000000171
 31
0.0
  0
LINE
  5
605
100
AcDbEntity
  8
0
  6
CONTINUOUS
 62
               7
100
AcDbLine
 10
37.199984741210926
 20
-11.0
 30
0.0
 11
36.999984741210938
 21
-10.800000000000011
 31
0.0
  0
LINE
  5
606
100
AcDbEntity
  8
0
  6
CONTINUOUS
 62
               7
100
AcDbLine
 10
41.161864741210934
 20
-1.0
 30
0.0
 11
41.199984741210926
 21
-1.0660251999999986
 31
0.0
  0
LINE
  5
607
100
AcDbEntity
  8
0
  6
CONTINUOUS
 62
               7
100
AcDbLine
 10
41.199984741210926
 20
-1.0660255000000092
 30
0.0
 11
41.699984741210926
 21
-1.2000004000000075
 31
0.0
  0
LINE
  5
608
100
AcDbEntity
  8
0
  6
CONTINUOUS
 62
               7
100
AcDbLine
 10
41.699984741210926
 20
-1.9500000000000171
 30
0.0
 11
41.999984741210938
 21
-1.9500000000000171
 31
0.0
  0
LINE
  5
609
100
AcDbEntity
  8
0
  6
CONTINUOUS
 62
               7
100
AcDbLine
 10
41.999984741210938
 20
-1.9500000000000171
 30
0.0
 11
42.099984741210932
 21
-2.0499999999999972
 31
0.0
  0
LINE
  5
60A
100
AcDbEntity
  8
0
  6
CONTINUOUS
 62
               7
100
AcDbLine
 10
42.099984741210932
 20
-9.9500000000000171
 30
0.0
 11
42.099984741210932
 21
-2.0499999999999972
 31
0.0
  0
LINE
  5
60B
100
AcDbEntity
  8
0
  6
CONTINUOUS
 62
               7
100
AcDbLine
 10
41.699984741210926
 20
-10.799999600000007
 30
0.0
 11
41.699984741210926
 21
-1.2000004053115845
 31
0.0
  0
LINE
  5
60C
100
AcDbEntity
  8
0
  6
CONTINUOUS
 62
               7
100
AcDbLine
 10
42.999984741210937
 20
-9.5
 30
0.0
 11
42.099984741210932
 21
-9.5
 31
0.0
  0
LINE
  5
60D
100
AcDbEntity
  8
0
  6
CONTINUOUS
 62
               7
100
AcDbLine
 10
41.161864741210934
 20
-11.0
 30
0.0
 11
37.199984741210926
 21
-11.0
 31
0.0
  0
LINE
  5
60E
100
AcDbEntity
  8
0
  6
CONTINUOUS
 62
               7
100
AcDbLine
 10
41.999984741210938
 20
-10.050000000000011
 30
0.0
 11
42.099984741210932
 21
-9.9500000000000171
 31
0.0
  0
LINE
  5
60F
100
AcDbEntity
  8
0
  6
CONTINUOUS
 62
               7
100
AcDbLine
 10
41.699984741210926
 20
-10.050000000000011
 30
0.0
 11
41.999984741210938
 21
-10.050000000000011
 31
0.0
  0
LINE
  5
610
100
AcDbEntity
  8
0
  6
CONTINUOUS
 62
               7
100
AcDbLine
 10
41.199984741210926
 20
-10.933974500000005
 30
0.0
 11
41.699984741210926
 21
-10.799999600000007
 31
0.0
  0
LINE
  5
611
100
AcDbEntity
  8
0
  6
CONTINUOUS
 62
               7
100
AcDbLine
 10
41.161864741210934
 20
-11.0
 30
0.0
 11
41.199984741210926
 21
-10.933974800000016
 31
0.0
  0
LINE
  5
612
100
AcDbEntity
  8
0
  6
CONTINUOUS
 62
               7
100
AcDbLine
 10
41.999984741210938
 20
-10.050000000000011
 30
0.0
 11
41.999984741210938
 21
-1.9500000000000171
 31
0.0
  0
LINE
  5
613
100
AcDbEntity
  8
0
  6
CONTINUOUS
 62
               7
100
AcDbLine
 10
41.161864741210934
 20
-11.0
 30
0.0
 11
41.161864741210934
 21
-1.0
 31
0.0
  0
LINE
  5
614
100
AcDbEntity
  8
0
  6
CONTINUOUS
 62
               7
100
AcDbLine
 10
41.199984946116956
 20
-10.93397444486618
 30
0.0
 11
41.199984946116956
 21
-1.0660255551338196
 31
0.0
  0
LINE
  5
615
100
AcDbEntity
  8
0
  6
CONTINUOUS
 62
               7
100
AcDbLine
 10
32.399984741210943
 20
-10.900000000000006
 30
0.0
 11
32.399984741210943
 21
-1.0999999999999943
 31
0.0
  0
LINE
  5
616
100
AcDbEntity
  8
0
  6
CONTINUOUS
 62
               7
100
AcDbLine
 10
32.499984741210937
 20
-11.0
 30
0.0
 11
32.499984741210937
 21
-1.0
 31
0.0
  0
LINE
  5
617
100
AcDbEntity
  8
0
  6
CONTINUOUS
 62
               7
100
AcDbLine
 10
32.499984741210937
 20
-1.0
 30
0.0
 11
32.399984741210943
 21
-1.0999999999999943
 31
0.0
  0
LINE
  5
618
100
AcDbEntity
  8
0
  6
CONTINUOUS
 62
               7
100
AcDbLine
 10
32.399984741210943
 20
-1.0999999999999943
 30
0.0
 11
32.299984741210949
 21
-1.0
 31
0.0
  0
LINE
  5
619
100
AcDbEntity
  8
0
  6
CONTINUOUS
 62
               7
100
AcDbLine
 10
32.399984741210943
 20
-10.900000000000006
 30
0.0
 11
32.29998474121092
 21
-11.0
 31
0.0
  0
LINE
  5
61A
100
AcDbEntity
  8
0
  6
CONTINUOUS
 62
               7
100
AcDbLine
 10
32.499984741210937
 20
-11.0
 30
0.0
 11
32.399984741210943
 21
-10.899999999999991
 31
0.0
  0
LINE
  5
61B
100
AcDbEntity
  8
0
  6
CONTINUOUS
 62
               7
100
AcDbLine
 10
3.4999691049324038
 20
-0.9999999622510671
 30
0.0
 11
3.4999698599113436
 21
-10.999999962251039
 31
0.0
  0
LINE
  5
61C
100
AcDbEntity
  8
0
  6
CONTINUOUS
 62
               7
100
AcDbLine
 10
3.4999691049324038
 20
-0.9999999622510671
 30
0.0
 11
2.9999691049324051
 21
-1.0000000000000142
 31
0.0
  0
LINE
  5
61D
100
AcDbEntity
  8
0
  6
CONTINUOUS
 62
               7
100
AcDbLine
 10
3.4999698599113436
 20
-10.999999962251039
 30
0.0
 11
2.9999698599113449
 21
-10.999999999999986
 31
0.0
  0
ENDBLK
  5
61E
100
AcDbEntity
  8
0
100
AcDbBlockEnd
  0
BLOCK
  5
61F
100
AcDbEntity
  8
0
100
AcDbBlockBegin
  2
F10T-15
 70
               0
 10
0.0
 20
0.0
 30
0.0
  3
F10T-15
  1

  0
LINE
  5
620
100
AcDbEntity
  8
0
  6
CENTER
 62
             200
100
AcDbLine
 10
-20.0
 20
-32.490000000000009
 30
0.0
 11
-20.0
 21
-41.800000000000011
 31
0.0
  0
LINE
  5
621
100
AcDbEntity
  8
0
  6
CENTER
 62
             200
100
AcDbLine
 10
-10.0
 20
-32.170000000000016
 30
0.0
 11
-10.0
 21
-41.800000000000011
 31
0.0
  0
LINE
  5
622
100
AcDbEntity
  8
0
  6
CONTINUOUS
 62
               7
100
AcDbLine
 10
30.5
 20
20.499984741210938
 30
0.0
 11
29.199996948242188
 21
20.499984741210938
 31
0.0
  0
LINE
  5
623
100
AcDbEntity
  8
0
  6
CENTER
 62
               2
100
AcDbLine
 10
32.5
 20
26.699996948242188
 30
0.0
 11
29.79998779296875
 21
26.699996948242188
 31
0.0
  0
LINE
  5
624
100
AcDbEntity
  8
0
  6
CONTINUOUS
 62
               7
100
AcDbLine
 10
31.5
 20
24.749984741210938
 30
0.0
 11
31.5
 21
26.399993896484375
 31
0.0
  0
LINE
  5
625
100
AcDbEntity
  8
0
  6
CONTINUOUS
 62
               7
100
AcDbLine
 10
31.5
 20
24.75
 30
0.0
 11
30.5
 21
24.75
 31
0.0
  0
LINE
  5
626
100
AcDbEntity
  8
0
  6
CONTINUOUS
 62
               7
100
AcDbLine
 10
31.499984741210938
 20
28.649993896484375
 30
0.0
 11
30.5
 21
28.649993896484375
 31
0.0
  0
LINE
  5
627
100
AcDbEntity
  8
0
  6
CONTINUOUS
 62
               7
100
AcDbLine
 10
30.899993896484375
 20
26.399993896484375
 30
0.0
 11
30.899993896484375
 21
26.999984741210938
 31
0.0
  0
LINE
  5
628
100
AcDbEntity
  8
0
  6
CONTINUOUS
 62
               7
100
AcDbLine
 10
31.5
 20
26.399993896484375
 30
0.0
 11
30.899993896484375
 21
26.399993896484375
 31
0.0
  0
LINE
  5
629
100
AcDbEntity
  8
0
  6
CONTINUOUS
 62
               7
100
AcDbLine
 10
31.5
 20
27.0
 30
0.0
 11
30.899993896484375
 21
27.0
 31
0.0
  0
LINE
  5
62A
100
AcDbEntity
  8
0
  6
CONTINUOUS
 62
               7
100
AcDbLine
 10
31.5
 20
26.999984741210938
 30
0.0
 11
31.5
 21
28.649993896484375
 31
0.0
  0
LINE
  5
62B
100
AcDbEntity
  8
0
  6
CONTINUOUS
 62
               7
100
AcDbLine
 10
30.5
 20
11.399993896484375
 30
0.0
 11
30.5
 21
29.999984741210937
 31
0.0
  0
LINE
  5
62C
100
AcDbEntity
  8
0
  6
CONTINUOUS
 62
               7
100
AcDbLine
 10
3.4999847412109375
 20
-35.599990844726563
 30
0.0
 11
3.4999847412109375
 21
29.999984741210937
 31
0.0
  0
LINE
  5
62D
100
AcDbEntity
  8
0
  6
CONTINUOUS
 62
               7
100
AcDbLine
 10
28.500001558660188
 20
-21.399993192521833
 30
0.0
 11
28.099995132288313
 21
-20.999994420067196
 31
0.0
  0
LINE
  5
62E
100
AcDbEntity
  8
0
  6
CONTINUOUS
 62
               7
100
AcDbLine
 10
28.500001864453225
 20
-28.600005589308239
 30
0.0
 11
28.100000225994336
 21
-29.000009149675861
 31
0.0
  0
LINE
  5
62F
100
AcDbEntity
  8
0
  6
CONTINUOUS
 62
               7
100
AcDbLine
 10
28.5
 20
-28.599990844726562
 30
0.0
 11
28.5
 21
-21.399997711181641
 31
0.0
  0
LINE
  5
630
100
AcDbEntity
  8
0
  6
CONTINUOUS
 62
               7
100
AcDbLine
 10
22.5
 20
11.0
 30
0.0
 11
22.5
 21
-21.0
 31
0.0
  0
LINE
  5
631
100
AcDbEntity
  8
0
  6
CONTINUOUS
 62
               7
100
AcDbLine
 10
28.100006103515625
 20
-21.0
 30
0.0
 11
3.4999847412109375
 21
-21.0
 31
0.0
  0
LINE
  5
632
100
AcDbEntity
  8
0
  6
CONTINUOUS
 62
               7
100
AcDbLine
 10
30.100006103515625
 20
11.0
 30
0.0
 11
3.4999847412109375
 21
11.0
 31
0.0
  0
LINE
  5
633
100
AcDbEntity
  8
0
  6
CONTINUOUS
 62
               7
100
AcDbLine
 10
27.5
 20
10.399993896484375
 30
0.0
 11
27.5
 21
-20.399997711181641
 31
0.0
  0
LINE
  5
634
100
AcDbEntity
  8
0
  6
CONTINUOUS
 62
               7
100
AcDbLine
 10
27.100006103515625
 20
10.800003051757813
 30
0.0
 11
22.5
 21
10.800003051757813
 31
0.0
  0
LINE
  5
635
100
AcDbEntity
  8
0
  6
CONTINUOUS
 62
               7
100
AcDbLine
 10
27.100006103515625
 20
-20.799995422363281
 30
0.0
 11
22.5
 21
-20.799995422363281
 31
0.0
  0
LINE
  5
636
100
AcDbEntity
  8
0
  6
CONTINUOUS
 62
               7
100
AcDbLine
 10
28.100006103515625
 20
-29.0
 30
0.0
 11
3.4999847412109375
 21
-29.0
 31
0.0
  0
LINE
  5
637
100
AcDbEntity
  8
0
  6
CONTINUOUS
 62
               7
100
AcDbLine
 10
27.5
 20
-35.599990844726563
 30
0.0
 11
27.5
 21
-29.0
 31
0.0
  0
LINE
  5
638
100
AcDbEntity
  8
0
  6
CONTINUOUS
 62
               7
100
AcDbLine
 10
27.100006103515625
 20
-36.0
 30
0.0
 11
3.899993896484375
 21
-36.0
 31
0.0
  0
LINE
  5
639
100
AcDbEntity
  8
0
  6
CONTINUOUS
 62
               7
100
AcDbLine
 10
30.5
 20
18.5
 30
0.0
 11
3.4999847412109375
 21
18.5
 31
0.0
  0
LINE
  5
63A
100
AcDbEntity
  8
0
  6
CONTINUOUS
 62
               7
100
AcDbLine
 10
22.300003051757813
 20
-36.0
 30
0.0
 11
22.300003051757813
 21
-35.0
 31
0.0
  0
LINE
  5
63B
100
AcDbEntity
  8
0
  6
CONTINUOUS
 62
               7
100
AcDbLine
 10
22.300003051757813
 20
-35.0
 30
0.0
 11
19.099990844726563
 21
-35.0
 31
0.0
  0
LINE
  5
63C
100
AcDbEntity
  8
0
  6
CONTINUOUS
 62
               7
100
AcDbLine
 10
27.5
 20
-27.0
 30
0.0
 11
25.5
 21
-27.0
 31
0.0
  0
LINE
  5
63D
100
AcDbEntity
  8
0
  6
CONTINUOUS
 62
               7
100
AcDbLine
 10
27.5
 20
-23.0
 30
0.0
 11
25.5
 21
-23.0
 31
0.0
  0
LINE
  5
63E
100
AcDbEntity
  8
0
  6
CONTINUOUS
 62
               7
100
AcDbLine
 10
26.5
 20
-27.100000381469727
 30
0.0
 11
26.5
 21
-27.0
 31
0.0
  0
LINE
  5
63F
100
AcDbEntity
  8
0
  6
CONTINUOUS
 62
               7
100
AcDbLine
 10
25.5
 20
-29.0
 30
0.0
 11
25.5
 21
-27.0
 31
0.0
  0
LINE
  5
640
100
AcDbEntity
  8
0
  6
CONTINUOUS
 62
               7
100
AcDbLine
 10
26.5
 20
-23.0
 30
0.0
 11
26.5
 21
-22.899999618530273
 31
0.0
  0
LINE
  5
641
100
AcDbEntity
  8
0
  6
CONTINUOUS
 62
               7
100
AcDbLine
 10
25.5
 20
-23.0
 30
0.0
 11
25.5
 21
-20.999996185302734
 31
0.0
  0
LINE
  5
642
100
AcDbEntity
  8
0
  6
CONTINUOUS
 62
               7
100
AcDbLine
 10
25.599990844726563
 20
-29.0
 30
0.0
 11
25.599990844726563
 21
-27.100000381469727
 31
0.0
  0
LINE
  5
643
100
AcDbEntity
  8
0
  6
CONTINUOUS
 62
               7
100
AcDbLine
 10
28.099990844726563
 20
-29.000015258789063
 30
0.0
 11
28.099990844726563
 21
-20.999996185302734
 31
0.0
  0
LINE
  5
644
100
AcDbEntity
  8
0
  6
CONTINUOUS
 62
               7
100
AcDbLine
 10
28.099990844726563
 20
-27.100000381469727
 30
0.0
 11
25.599990844726563
 21
-27.100000381469727
 31
0.0
  0
LINE
  5
645
100
AcDbEntity
  8
0
  6
CONTINUOUS
 62
               7
100
AcDbLine
 10
28.099990844726563
 20
-22.899999618530273
 30
0.0
 11
25.599990844726563
 21
-22.899999618530273
 31
0.0
  0
LINE
  5
646
100
AcDbEntity
  8
0
  6
CONTINUOUS
 62
               7
100
AcDbLine
 10
25.599990844726563
 20
-22.899999618530273
 30
0.0
 11
25.599990844726563
 21
-21.0
 31
0.0
  0
LINE
  5
647
100
AcDbEntity
  8
0
  6
CONTINUOUS
 62
               7
100
AcDbLine
 10
27.5
 20
-27.100000381469727
 30
0.0
 11
27.5
 21
-22.899999618530273
 31
0.0
  0
LINE
  5
648
100
AcDbEntity
  8
0
  6
CONTINUOUS
 62
               7
100
AcDbLine
 10
27.5
 20
-16.19999885559082
 30
0.0
 11
22.5
 21
-16.19999885559082
 31
0.0
  0
LINE
  5
649
100
AcDbEntity
  8
0
  6
CONTINUOUS
 62
               7
100
AcDbLine
 10
23.0
 20
-17.049995422363281
 30
0.0
 11
23.0
 21
-18.549995422363281
 31
0.0
  0
LINE
  5
64A
100
AcDbEntity
  8
0
  6
CONTINUOUS
 62
               7
100
AcDbLine
 10
19.099990844726563
 20
-36.0
 30
0.0
 11
19.099990844726563
 21
-35.0
 31
0.0
  0
LINE
  5
64B
100
AcDbEntity
  8
0
  6
CONTINUOUS
 62
               7
100
AcDbLine
 10
4.4999847412109375
 20
18.5
 30
0.0
 11
4.4999847412109375
 21
20.499984741210938
 31
0.0
  0
LINE
  5
64C
100
AcDbEntity
  8
0
  6
CONTINUOUS
 62
               7
100
AcDbLine
 10
6.9999847412109375
 20
18.5
 30
0.0
 11
6.9999847412109375
 21
20.499984741210938
 31
0.0
  0
LINE
  5
64D
100
AcDbEntity
  8
0
  6
CONTINUOUS
 62
               7
100
AcDbLine
 10
26.199996948242188
 20
18.5
 30
0.0
 11
26.199996948242188
 21
20.499984741210938
 31
0.0
  0
LINE
  5
64E
100
AcDbEntity
  8
0
  6
CONTINUOUS
 62
               7
100
AcDbLine
 10
29.199996948242188
 20
18.5
 30
0.0
 11
29.199996948242188
 21
20.499984741210938
 31
0.0
  0
LINE
  5
64F
100
AcDbEntity
  8
0
  6
CONTINUOUS
 62
               7
100
AcDbLine
 10
4.4999847412109375
 20
20.499984741210938
 30
0.0
 11
3.4999847412109375
 21
20.499984741210938
 31
0.0
  0
LINE
  5
650
100
AcDbEntity
  8
0
  6
CONTINUOUS
 62
               7
100
AcDbLine
 10
26.199996948242188
 20
20.499984741210938
 30
0.0
 11
6.9999847412109375
 21
20.499984741210938
 31
0.0
  0
LINE
  5
651
100
AcDbEntity
  8
0
  6
CONTINUOUS
 62
               7
100
AcDbLine
 10
-5.0
 20
11.5
 30
0.0
 11
-5.0
 21
-21.5
 31
0.0
  0
LINE
  5
652
100
AcDbEntity
  8
0
  6
CONTINUOUS
 62
               7
100
AcDbLine
 10
3.0
 20
11.5
 30
0.0
 11
3.0
 21
-21.5
 31
0.0
  0
LINE
  5
653
100
AcDbEntity
  8
0
  6
CONTINUOUS
 62
               7
100
AcDbLine
 10
-5.0
 20
-21.5
 30
0.0
 11
3.0
 21
-21.5
 31
0.0
  0
LINE
  5
654
100
AcDbEntity
  8
0
  6
CONTINUOUS
 62
               7
100
AcDbLine
 10
-5.0
 20
11.5
 30
0.0
 11
3.0
 21
11.5
 31
0.0
  0
LINE
  5
655
100
AcDbEntity
  8
0
  6
CENTER
 62
               2
100
AcDbLine
 10
-2.5
 20
0.0
 30
0.0
 11
2.5
 21
0.0
 31
0.0
  0
LINE
  5
656
100
AcDbEntity
  8
0
  6
CENTER
 62
               2
100
AcDbLine
 10
-2.5
 20
-10.0
 30
0.0
 11
2.5
 21
-10.0
 31
0.0
  0
LINE
  5
657
100
AcDbEntity
  8
0
  6
CENTER
 62
               2
100
AcDbLine
 10
0.0
 20
2.5
 30
0.0
 11
0.0
 21
-2.5
 31
0.0
  0
LINE
  5
658
100
AcDbEntity
  8
0
  6
CENTER
 62
               2
100
AcDbLine
 10
0.0
 20
-7.5
 30
0.0
 11
0.0
 21
-12.5
 31
0.0
  0
LINE
  5
659
100
AcDbEntity
  8
0
  6
DASHED
 62
               4
100
AcDbLine
 10
-4.0
 20
9.5
 30
0.0
 11
-4.0
 21
-38.0
 31
0.0
  0
LINE
  5
65A
100
AcDbEntity
  8
0
  6
DASHED
 62
               4
100
AcDbLine
 10
-4.0
 20
9.5
 30
0.0
 11
10.0
 21
9.5
 31
0.0
  0
LINE
  5
65B
100
AcDbEntity
  8
0
  6
DASHED
 62
               4
100
AcDbLine
 10
-25.0
 20
-38.0
 30
0.0
 11
10.0
 21
-38.0
 31
0.0
  0
LINE
  5
65C
100
AcDbEntity
  8
0
  6
DASHED
 62
               4
100
AcDbLine
 10
-25.0
 20
-36.79998779296875
 30
0.0
 11
10.0
 21
-36.79998779296875
 31
0.0
  0
LINE
  5
65D
100
AcDbEntity
  8
0
  6
DASHED
 62
               4
100
AcDbLine
 10
10.0
 20
9.5
 30
0.0
 11
10.0
 21
-38.0
 31
0.0
  0
LINE
  5
65E
100
AcDbEntity
  8
0
  6
DASHED
 62
               4
100
AcDbLine
 10
-25.0
 20
-36.79998779296875
 30
0.0
 11
-25.0
 21
-38.0
 31
0.0
  0
LINE
  5
65F
100
AcDbEntity
  8
0
  6
CONTINUOUS
 62
               7
100
AcDbLine
 10
21.449996948242187
 20
-35.5
 30
0.0
 11
19.949996948242188
 21
-35.5
 31
0.0
  0
ARC
  5
660
100
AcDbEntity
  8
0
  6
CONTINUOUS
 62
               7
100
AcDbCircle
 10
3.899993896484375
 20
-35.599990844726563
 30
0.0
 40
0.4000000357627869
100
AcDbArc
 50
180.0000359721783
 51
270.00007262760209
  0
ARC
  5
661
100
AcDbEntity
  8
0
  6
CONTINUOUS
 62
               7
100
AcDbCircle
 10
27.100006103515625
 20
-35.599990844726563
 30
0.0
 40
0.4000000357627869
100
AcDbArc
 50
270.00007262760209
 51
0.0000409811350201
  0
ARC
  5
662
100
AcDbEntity
  8
0
  6
CONTINUOUS
 62
               7
100
AcDbCircle
 10
27.100006103515625
 20
-20.400001525878906
 30
0.0
 40
0.4000000357627869
100
AcDbArc
 50
270.00001798608872
 51
0.0000409811350201
  0
ARC
  5
663
100
AcDbEntity
  8
0
  6
CONTINUOUS
 62
               7
100
AcDbCircle
 10
27.100006103515625
 20
10.399993896484375
 30
0.0
 40
0.4000000357627869
100
AcDbArc
 50
0.0000546415133601
 51
90.000036655423813
  0
ARC
  5
664
100
AcDbEntity
  8
0
  6
CONTINUOUS
 62
               7
100
AcDbCircle
 10
30.100006103515625
 20
11.399993896484375
 30
0.0
 40
0.4000000357627869
100
AcDbArc
 50
270.00007262760209
 51
0.0000409811350201
  0
ARC
  5
665
100
AcDbEntity
  8
0
  6
CONTINUOUS
 62
               7
100
AcDbCircle
 10
22.5
 20
-18.549995422363281
 30
0.0
 40
0.5
100
AcDbArc
 50
269.99996334457541
 51
359.99994535848583
  0
ARC
  5
666
100
AcDbEntity
  8
0
  6
CONTINUOUS
 62
               7
100
AcDbCircle
 10
22.5
 20
-17.049995422363281
 30
0.0
 40
0.5
100
AcDbArc
 50
359.99994535848583
 51
89.999982013910454
  0
CIRCLE
  5
667
100
AcDbEntity
  8
0
  6
CONTINUOUS
 62
               7
100
AcDbCircle
 10
0.0
 20
0.0
 30
0.0
 40
1.5999994277954102
  0
CIRCLE
  5
668
100
AcDbEntity
  8
0
  6
CONTINUOUS
 62
               7
100
AcDbCircle
 10
0.0
 20
-10.0
 30
0.0
 40
1.5999994277954102
  0
ARC
  5
669
100
AcDbEntity
  8
0
  6
CONTINUOUS
 62
               7
100
AcDbCircle
 10
19.949996948242188
 20
-35.0
 30
0.0
 40
0.5
100
AcDbArc
 50
180.0000359721783
 51
270.00001798608872
  0
ARC
  5
66A
100
AcDbEntity
  8
0
  6
CONTINUOUS
 62
               7
100
AcDbCircle
 10
21.449996948242187
 20
-35.0
 30
0.0
 40
0.5
100
AcDbArc
 50
270.00001798608872
 51
0.0000546415133601
  0
LINE
  5
66B
100
AcDbEntity
  8
0
  6
CONTINUOUS
 62
               4
100
AcDbLine
 10
30.5
 20
29.999984741210937
 30
0.0
 11
30.5
 21
53.999984741210938
 31
0.0
  0
LINE
  5
66C
100
AcDbEntity
  8
0
  6
CONTINUOUS
 62
               4
100
AcDbLine
 10
3.5
 20
29.999984741210937
 30
0.0
 11
3.5
 21
53.999984741210938
 31
0.0
  0
LINE
  5
66D
100
AcDbEntity
  8
0
  6
CONTINUOUS
 62
               4
100
AcDbLine
 10
3.4999862670898381
 20
62.499984741210938
 30
0.0
 11
3.4999862670898381
 21
53.999984741210938
 31
0.0
  0
LINE
  5
66E
100
AcDbEntity
  8
0
  6
CONTINUOUS
 62
               4
100
AcDbLine
 10
15.649986267089844
 20
54.499984741210938
 30
0.0
 11
15.649986267089844
 21
53.999984741210938
 31
0.0
  0
LINE
  5
66F
100
AcDbEntity
  8
0
  6
CONTINUOUS
 62
               4
100
AcDbLine
 10
18.249986267089866
 20
54.499984741210938
 30
0.0
 11
18.249986267089866
 21
53.999984741210938
 31
0.0
  0
LINE
  5
670
100
AcDbEntity
  8
0
  6
CONTINUOUS
 62
               4
100
AcDbLine
 10
23.499986267089838
 20
56.399984741210943
 30
0.0
 11
23.499986267089838
 21
55.449984741210955
 31
0.0
  0
LINE
  5
671
100
AcDbEntity
  8
0
  6
CONTINUOUS
 62
               4
100
AcDbLine
 10
10.599986267089832
 20
56.399984741210943
 30
0.0
 11
10.599986267089832
 21
55.449984741210955
 31
0.0
  0
LINE
  5
672
100
AcDbEntity
  8
0
  6
CONTINUOUS
 62
               4
100
AcDbLine
 10
25.599986267089832
 20
56.399984741210943
 30
0.0
 11
23.499986267089838
 21
56.399984741210943
 31
0.0
  0
LINE
  5
673
100
AcDbEntity
  8
0
  6
CONTINUOUS
 62
               4
100
AcDbLine
 10
10.599986267089832
 20
56.399984741210943
 30
0.0
 11
8.4999862670898381
 21
56.399984741210943
 31
0.0
  0
LINE
  5
674
100
AcDbEntity
  8
0
  6
CONTINUOUS
 62
               4
100
AcDbLine
 10
30.499986267089838
 20
58.179984741210944
 30
0.0
 11
30.499986267089838
 21
53.999984741210938
 31
0.0
  0
LINE
  5
675
100
AcDbEntity
  8
0
  6
CONTINUOUS
 62
               4
100
AcDbLine
 10
28.174007105653885
 20
62.999984741210938
 30
0.0
 11
14.599986267089832
 21
62.999984741210938
 31
0.0
  0
LINE
  5
676
100
AcDbEntity
  8
0
  6
CONTINUOUS
 62
               4
100
AcDbLine
 10
28.629986267089834
 20
62.70498474121095
 30
0.0
 11
30.369986267089843
 21
58.78998474121093
 31
0.0
  0
ARC
  5
677
100
AcDbEntity
  8
0
  6
CONTINUOUS
 62
               4
100
AcDbCircle
 10
28.174007105653885
 20
62.500084678657203
 30
0.0
 40
0.4999010215015999
100
AcDbArc
 50
24.197376208904771
 51
89.887774076864815
  0
ARC
  5
678
100
AcDbEntity
  8
0
  6
CONTINUOUS
 62
               4
100
AcDbCircle
 10
29.002006662450412
 20
58.179595645140239
 30
0.0
 40
1.4979796551727449
100
AcDbArc
 50
0.0148824203654679
 51
24.046309772710686
  0
LINE
  5
679
100
AcDbEntity
  8
0
  6
CONTINUOUS
 62
               4
100
AcDbLine
 10
25.599986267089832
 20
56.399984741210943
 30
0.0
 11
25.599986267089832
 21
55.449984741210955
 31
0.0
  0
LINE
  5
67A
100
AcDbEntity
  8
0
  6
CONTINUOUS
 62
               4
100
AcDbLine
 10
8.4999862670898381
 20
56.399984741210943
 30
0.0
 11
8.4999862670898381
 21
55.449984741210955
 31
0.0
  0
LINE
  5
67B
100
AcDbEntity
  8
0
  6
CONTINUOUS
 62
               4
100
AcDbLine
 10
10.599986267089832
 20
55.449984741210955
 30
0.0
 11
8.4999862670898381
 21
55.449984741210955
 31
0.0
  0
LINE
  5
67C
100
AcDbEntity
  8
0
  6
CONTINUOUS
 62
               4
100
AcDbLine
 10
25.599986267089832
 20
55.449984741210955
 30
0.0
 11
23.499986267089838
 21
55.449984741210955
 31
0.0
  0
LINE
  5
67D
100
AcDbEntity
  8
0
  6
CONTINUOUS
 62
               4
100
AcDbLine
 10
5.9999862670898381
 20
67.499984741210938
 30
0.0
 11
5.9999862670898381
 21
62.999984741210938
 31
0.0
  0
LINE
  5
67E
100
AcDbEntity
  8
0
  6
CONTINUOUS
 62
               4
100
AcDbLine
 10
5.9999862670898381
 20
62.999984741210938
 30
0.0
 11
3.9999862670898381
 21
62.999984741210938
 31
0.0
  0
ARC
  5
67F
100
AcDbEntity
  8
0
  6
CONTINUOUS
 62
               4
100
AcDbCircle
 10
3.9999862670898381
 20
62.499984741210938
 30
0.0
 40
0.5
100
AcDbArc
 50
89.999999999999815
 51
179.99999999999963
  0
LINE
  5
680
100
AcDbEntity
  8
0
  6
CONTINUOUS
 62
               4
100
AcDbLine
 10
18.149986267089844
 20
54.499984741210938
 30
0.0
 11
18.149986267089844
 21
53.999984741210938
 31
0.0
  0
LINE
  5
681
100
AcDbEntity
  8
0
  6
CONTINUOUS
 62
               4
100
AcDbLine
 10
15.749986267089838
 20
54.499984741210938
 30
0.0
 11
15.749986267089838
 21
53.999984741210938
 31
0.0
  0
LINE
  5
682
100
AcDbEntity
  8
0
  6
CONTINUOUS
 62
             200
100
AcDbLine
 10
13.314980610187547
 20
79.464449556289765
 30
0.0
 11
6.3849704566684409
 21
75.463397651774358
 31
0.0
  0
LINE
  5
683
100
AcDbEntity
  8
0
  6
CONTINUOUS
 62
             200
100
AcDbLine
 10
13.31500515856186
 20
80.619090551145746
 30
0.0
 11
6.3849760669983766
 21
76.61804198736445
 31
0.0
  0
LINE
  5
684
100
AcDbEntity
  8
0
  6
CONTINUOUS
 62
               4
100
AcDbLine
 10
7.8849899291992074
 20
73.999984741210937
 30
0.0
 11
7.8849899291992074
 21
76.32940673828125
 31
0.0
  0
LINE
  5
685
100
AcDbEntity
  8
0
  6
CONTINUOUS
 62
               4
100
AcDbLine
 10
9.3149978637695199
 20
73.999984741210937
 30
0.0
 11
9.3149978637695199
 21
77.155014038085938
 31
0.0
  0
LINE
  5
686
100
AcDbEntity
  8
0
  6
CONTINUOUS
 62
               4
100
AcDbLine
 10
8.1999923706054574
 20
86.999984741210938
 30
0.0
 11
8.9999954223632699
 21
86.999984741210938
 31
0.0
  0
LINE
  5
687
100
AcDbEntity
  8
0
  6
CONTINUOUS
 62
               4
100
AcDbLine
 10
8.1999923706054574
 20
81.999984741210937
 30
0.0
 11
8.1999923706054574
 21
86.999969482421875
 31
0.0
  0
LINE
  5
688
100
AcDbEntity
  8
0
  6
CONTINUOUS
 62
               4
100
AcDbLine
 10
8.9999954223632699
 20
81.999984741210937
 30
0.0
 11
8.9999954223632699
 21
86.999984741210938
 31
0.0
  0
LINE
  5
689
100
AcDbEntity
  8
0
  6
CONTINUOUS
 62
               4
100
AcDbLine
 10
7.8849899291992074
 20
81.999984741210937
 30
0.0
 11
9.3149978637695199
 21
81.999984741210937
 31
0.0
  0
LINE
  5
68A
100
AcDbEntity
  8
0
  6
CONTINUOUS
 62
               4
100
AcDbLine
 10
7.8849899291992074
 20
77.484100341796875
 30
0.0
 11
7.8849899291992074
 21
81.999984741210937
 31
0.0
  0
LINE
  5
68B
100
AcDbEntity
  8
0
  6
CONTINUOUS
 62
               4
100
AcDbLine
 10
9.3149978637695199
 20
78.309722900390625
 30
0.0
 11
9.3149978637695199
 21
81.999984741210937
 31
0.0
  0
LINE
  5
68C
100
AcDbEntity
  8
0
  6
CONTINUOUS
 62
               7
100
AcDbLine
 10
3.5
 20
29.999984741210937
 30
0.0
 11
30.5
 21
29.999984741210937
 31
0.0
  0
LINE
  5
68D
100
AcDbEntity
  8
0
  6
CONTINUOUS
 62
               4
100
AcDbLine
 10
11.81499786376952
 20
79.753097534179688
 30
0.0
 11
11.81499786376952
 21
81.999984741210937
 31
0.0
  0
LINE
  5
68E
100
AcDbEntity
  8
0
  6
CONTINUOUS
 62
               4
100
AcDbLine
 10
10.384989929199207
 20
78.927474975585938
 30
0.0
 11
10.384989929199207
 21
81.999984741210937
 31
0.0
  0
LINE
  5
68F
100
AcDbEntity
  8
0
  6
CONTINUOUS
 62
               4
100
AcDbLine
 10
11.81499786376952
 20
81.999984741210937
 30
0.0
 11
10.384989929199207
 21
81.999984741210937
 31
0.0
  0
LINE
  5
690
100
AcDbEntity
  8
0
  6
CONTINUOUS
 62
               4
100
AcDbLine
 10
10.384989929199207
 20
73.999984741210937
 30
0.0
 11
10.384989929199207
 21
77.772781372070313
 31
0.0
  0
LINE
  5
691
100
AcDbEntity
  8
0
  6
CONTINUOUS
 62
               4
100
AcDbLine
 10
11.81499786376952
 20
73.999984741210937
 30
0.0
 11
11.81499786376952
 21
78.598388671875
 31
0.0
  0
LINE
  5
692
100
AcDbEntity
  8
0
  6
CONTINUOUS
 62
               4
100
AcDbLine
 10
11.49999542236327
 20
81.999984741210937
 30
0.0
 11
11.49999542236327
 21
86.999984741210938
 31
0.0
  0
LINE
  5
693
100
AcDbEntity
  8
0
  6
CONTINUOUS
 62
               4
100
AcDbLine
 10
10.699992370605457
 20
81.999984741210937
 30
0.0
 11
10.699992370605457
 21
86.999984741210938
 31
0.0
  0
LINE
  5
694
100
AcDbEntity
  8
0
  6
CONTINUOUS
 62
               4
100
AcDbLine
 10
11.49999542236327
 20
86.999984741210938
 30
0.0
 11
10.699992370605457
 21
86.999984741210938
 31
0.0
  0
LINE
  5
695
100
AcDbEntity
  8
0
  6
CONTINUOUS
 62
               4
100
AcDbLine
 10
16.649989318847645
 20
72.499984741210937
 30
0.0
 11
16.649989318847645
 21
73.999984741210937
 31
0.0
  0
LINE
  5
696
100
AcDbEntity
  8
0
  6
CONTINUOUS
 62
               4
100
AcDbLine
 10
14.650030778693861
 20
72.999943684112623
 30
0.0
 11
15.227382594457765
 21
73.999952389067403
 31
0.0
  0
LINE
  5
697
100
AcDbEntity
  8
0
  6
CONTINUOUS
 62
               4
100
AcDbLine
 10
14.649989318847645
 20
67.499984741210938
 30
0.0
 11
14.649989318847645
 21
73.999984741210937
 31
0.0
  0
LINE
  5
698
100
AcDbEntity
  8
0
  6
CONTINUOUS
 62
               4
100
AcDbLine
 10
15.649987569326356
 20
63.498435482970308
 30
0.0
 11
16.149986678203447
 21
67.056123566659153
 31
0.0
  0
LINE
  5
699
100
AcDbEntity
  8
0
  6
CONTINUOUS
 62
               4
100
AcDbLine
 10
16.149989318847645
 20
67.056137084960938
 30
0.0
 11
16.149989318847645
 21
72.499984741210937
 31
0.0
  0
LINE
  5
69A
100
AcDbEntity
  8
0
  6
CONTINUOUS
 62
               4
100
AcDbLine
 10
5.6499740600585824
 20
72.999984741210937
 30
0.0
 11
6.1499740600585824
 21
72.999984741210937
 31
0.0
  0
LINE
  5
69B
100
AcDbEntity
  8
0
  6
CONTINUOUS
 62
               4
100
AcDbLine
 10
5.6499893188476449
 20
72.999984741210937
 30
0.0
 11
5.6499893188476449
 21
73.999984741210937
 31
0.0
  0
LINE
  5
69C
100
AcDbEntity
  8
0
  6
CONTINUOUS
 62
               4
100
AcDbLine
 10
6.1499893188476449
 20
67.499984741210938
 30
0.0
 11
6.1499893188476449
 21
72.999984741210937
 31
0.0
  0
LINE
  5
69D
100
AcDbEntity
  8
0
  6
CONTINUOUS
 62
               4
100
AcDbLine
 10
14.649986476497531
 20
63.498458893081079
 30
0.0
 11
14.599965923191291
 21
63.548479446387319
 31
0.0
  0
LINE
  5
69E
100
AcDbEntity
  8
0
  6
CONTINUOUS
 62
               4
100
AcDbLine
 10
16.149981689453114
 20
72.499984741210937
 30
0.0
 11
16.649981689453114
 21
72.499984741210937
 31
0.0
  0
LINE
  5
69F
100
AcDbEntity
  8
0
  6
CONTINUOUS
 62
               4
100
AcDbLine
 10
14.649989318847645
 20
64.998443603515625
 30
0.0
 11
14.649989318847645
 21
67.499984741210938
 31
0.0
  0
LINE
  5
6A0
100
AcDbEntity
  8
0
  6
CONTINUOUS
 62
               4
100
AcDbLine
 10
14.649989318847645
 20
63.498443603515625
 30
0.0
 11
15.649981689453114
 21
63.498443603515625
 31
0.0
  0
LINE
  5
6A1
100
AcDbEntity
  8
0
  6
CONTINUOUS
 62
               4
100
AcDbLine
 10
14.599986267089832
 20
64.998443603515625
 30
0.0
 11
14.649989318847645
 21
64.998443603515625
 31
0.0
  0
LINE
  5
6A2
100
AcDbEntity
  8
0
  6
CONTINUOUS
 62
               4
100
AcDbLine
 10
15.227336120605457
 20
73.999984741210937
 30
0.0
 11
16.649981689453114
 21
73.999984741210937
 31
0.0
  0
LINE
  5
6A3
100
AcDbEntity
  8
0
  6
CONTINUOUS
 62
               4
100
AcDbLine
 10
5.9999862670898381
 20
67.499984741210938
 30
0.0
 11
14.649989318847645
 21
67.499984741210938
 31
0.0
  0
LINE
  5
6A4
100
AcDbEntity
  8
0
  6
CONTINUOUS
 62
               4
100
AcDbLine
 10
5.6499740600585824
 20
73.999984741210937
 30
0.0
 11
14.649974060058582
 21
73.999984741210937
 31
0.0
  0
LINE
  5
6A5
100
AcDbEntity
  8
0
  6
CONTINUOUS
 62
               4
100
AcDbLine
 10
14.599986267089832
 20
67.499984741210938
 30
0.0
 11
14.599986267089832
 21
62.999984741210938
 31
0.0
  0
LINE
  5
6A6
100
AcDbEntity
  8
0
  6
CONTINUOUS
 62
               4
100
AcDbLine
 10
3.4999862670898381
 20
53.999984741210938
 30
0.0
 11
30.499992370605469
 21
53.999984741210938
 31
0.0
  0
LINE
  5
6A7
100
AcDbEntity
  8
0
  6
CONTINUOUS
 62
               4
100
AcDbLine
 10
3.5
 20
46.999984741210937
 30
0.0
 11
5.1000137329101562
 21
46.999984741210937
 31
0.0
  0
LINE
  5
6A8
100
AcDbEntity
  8
0
  6
CONTINUOUS
 62
               4
100
AcDbLine
 10
4.200013732910179
 20
46.999984741210937
 30
0.0
 11
4.200013732910179
 21
53.999984741210938
 31
0.0
  0
LINE
  5
6A9
100
AcDbEntity
  8
0
  6
CONTINUOUS
 62
               4
100
AcDbLine
 10
5.1000137329101562
 20
46.999984741210937
 30
0.0
 11
5.1000137329101562
 21
53.999984741210938
 31
0.0
  0
LINE
  5
6AA
100
AcDbEntity
  8
0
  6
CONTINUOUS
 62
               7
100
AcDbLine
 10
3.4999847412109375
 20
11.0
 30
0.0
 11
2.9999885559082031
 21
11.0
 31
0.0
  0
LINE
  5
6AB
100
AcDbEntity
  8
0
  6
CONTINUOUS
 62
               7
100
AcDbLine
 10
3.4999847412109375
 20
-21.0
 30
0.0
 11
2.9999885559082031
 21
-21.0
 31
0.0
  0
LINE
  5
6AC
100
AcDbEntity
  8
0
  6
CONTINUOUS
 62
               4
100
AcDbLine
 10
15.649986267089844
 20
54.499984741210938
 30
0.0
 11
18.249986267089838
 21
54.499984741210938
 31
0.0
  0
ENDBLK
  5
6AD
100
AcDbEntity
  8
0
100
AcDbBlockEnd
  0
ENDSEC
  0
SECTION
  2
ENTITIES
  0
INSERT
  5
6AE
100
AcDbEntity
  8
0
  6
ByBlock
100
AcDbBlockReference
  2
F10T-10
 10
-203.23736572265625
 20
-24.4920654296875
 30
0.0
  0
INSERT
  5
6AF
100
AcDbEntity
  8
0
  6
ByBlock
100
AcDbBlockReference
  2
F10T-5
 10
-207.08000000000001
 20
-189.75
 30
0.0
  0
INSERT
  5
6B0
100
AcDbEntity
  8
0
  6
ByBlock
100
AcDbBlockReference
  2
F10T-6
 10
-305.57999999999998
 20
-189.75
 30
0.0
  0
INSERT
  5
6B1
100
AcDbEntity
  8
0
  6
ByBlock
100
AcDbBlockReference
  2
F10T-7
 10
-98.579999999999998
 20
-189.74999491373697
 30
0.0
  0
INSERT
  5
6B2
100
AcDbEntity
  8
0
  6
ByBlock
100
AcDbBlockReference
  2
F10T-1
 10
-203.23736572265625
 20
138.68838500976562
 30
0.0
  0
INSERT
  5
6B3
100
AcDbEntity
  8
0
  6
ByBlock
100
AcDbBlockReference
  2
F10T-8
 10
-344.8974609375
 20
138.68840103149415
 30
0.0
  0
INSERT
  5
6B4
100
AcDbEntity
  8
0
  6
ByBlock
100
AcDbBlockReference
  2
F10T-9
 10
-61.237548828125
 20
138.68840026855469
 30
0.0
  0
INSERT
  5
6B5
100
AcDbEntity
  8
0
  6
ByBlock
100
AcDbBlockReference
  2
F10T-11
 10
176.43896484375
 20
148.68827819824219
 30
0.0
  0
INSERT
  5
6B6
100
AcDbEntity
  8
0
  6
ByBlock
100
AcDbBlockReference
  2
F10T-12
 10
56.339159905910492
 20
148.68827819824219
 30
0.0
  0
INSERT
  5
6B7
100
AcDbEntity
  8
0
  6
ByBlock
100
AcDbBlockReference
  2
F10T-13
 10
321.0390625
 20
148.68827819824219
 30
0.0
  0
INSERT
  5
6B8
100
AcDbEntity
  8
0
  6
ByBlock
100
AcDbBlockReference
  2
F10T-14
 10
176.43896484375
 20
55.229095458984375
 30
0.0
  0
INSERT
  5
6B9
100
AcDbEntity
  8
0
  6
ByBlock
100
AcDbBlockReference
  2
F10T-15
 10
186.43910217285156
 20
-128.69357299804687
 30
0.0
  0
INSERT
  5
6BA
100
AcDbEntity
  8
0
  6
ByBlock
100
AcDbBlockReference
  2
F10T-2
 10
60.939178466796875
 20
-128.69357299804687
 30
0.0
  0
INSERT
  5
6BB
100
AcDbEntity
  8
0
  6
ByBlock
100
AcDbBlockReference
  2
F10T-3
 10
321.0390625
 20
-128.69357299804687
 30
0.0
  0
INSERT
  5
6BC
100
AcDbEntity
  8
0
  6
ByBlock
100
AcDbBlockReference
  2
F10T-4
 10
186.43910217285156
 20
-224.55523681640625
 30
0.0
  0
LINE
  5
6BD
100
AcDbEntity
  8
0
  6
CONTINUOUS
 62
               7
100
AcDbLine
 10
399.80000000000001
 20
276.25
 30
0.0
 11
399.80000000000001
 21
-276.75
 31
0.0
  0
LINE
  5
6BE
100
AcDbEntity
  8
0
  6
CONTINUOUS
 62
               7
100
AcDbLine
 10
-399.25
 20
276.25
 30
0.0
 11
-399.25
 21
-276.75
 31
0.0
  0
LINE
  5
6BF
100
AcDbEntity
  8
0
  6
CONTINUOUS
 62
               7
100
AcDbLine
 10
-399.25
 20
276.25
 30
0.0
 11
399.80000000000001
 21
276.25
 31
0.0
  0
LINE
  5
6C0
100
AcDbEntity
  8
0
  6
CONTINUOUS
 62
               7
100
AcDbLine
 10
-399.25
 20
-276.75
 30
0.0
 11
399.80000000000001
 21
-276.75
 31
0.0
  0
LINE
  5
6C1
100
AcDbEntity
  8
0
  6
CONTINUOUS
 62
               7
100
AcDbLine
 10
239.80000000000001
 20
-251.75
 30
0.0
 11
399.80000000000001
 21
-251.75
 31
0.0
  0
LINE
  5
6C2
100
AcDbEntity
  8
0
  6
CONTINUOUS
 62
               7
100
AcDbLine
 10
239.80000000000001
 20
251.25
 30
0.0
 11
399.80000000000001
 21
251.25
 31
0.0
  0
LINE
  5
6C3
100
AcDbEntity
  8
0
  6
CONTINUOUS
 62
               7
100
AcDbLine
 10
-399.25
 20
251.25
 30
0.0
 11
-239.25
 21
251.25
 31
0.0
  0
LINE
  5
6C4
100
AcDbEntity
  8
0
  6
CONTINUOUS
 62
               7
100
AcDbLine
 10
239.80000000000001
 20
-251.75
 30
0.0
 11
239.80000000000001
 21
-276.75
 31
0.0
  0
LINE
  5
6C5
100
AcDbEntity
  8
0
  6
CONTINUOUS
 62
               7
100
AcDbLine
 10
239.80000000000001
 20
251.25
 30
0.0
 11
239.80000000000001
 21
276.25
 31
0.0
  0
LINE
  5
6C6
100
AcDbEntity
  8
0
  6
CONTINUOUS
 62
               7
100
AcDbLine
 10
-239.25
 20
276.25
 30
0.0
 11
-239.25
 21
251.25
 31
0.0
  0
LINE
  5
6C7
100
AcDbEntity
  8
0
  6
CONTINUOUS
 62
               7
100
AcDbLine
 10
0.27
 20
276.25
 30
0.0
 11
0.27
 21
-276.75
 31
0.0
  0
LINE
  5
6C8
100
AcDbEntity
  8
0
  6
CONTINUOUS
 62
               7
100
AcDbLine
 10
0.27
 20
-0.25
 30
0.0
 11
399.80000000000001
 21
-0.25
 31
0.0
  0
LINE
  5
6C9
100
AcDbEntity
  8
0
  6
CONTINUOUS
 62
               7
100
AcDbLine
 10
-399.25
 20
-92.409999999999997
 30
0.0
 11
0.27
 21
-92.409999999999997
 31
0.0
  0
LINE
  5
6CA
100
AcDbEntity
  8
0
  6
CENTER
 62
               2
100
AcDbLine
 10
-202.08000000000001
 20
-196.59
 30
0.0
 11
-202.08000000000001
 21
-152.17336320973814
 31
0.0
  0
LINE
  5
6CB
100
AcDbEntity
  8
0
  6
CONTINUOUS
 62
               7
100
AcDbLine
 10
-305.57999999999998
 20
-189.75
 30
0.0
 11
-278.57999999999998
 21
-189.75
 31
0.0
  0
LINE
  5
6CC
100
AcDbEntity
  8
0
  6
CONTINUOUS
 62
               7
100
AcDbLine
 10
-207.08000000000001
 20
-189.75
 30
0.0
 11
-197.08000000000001
 21
-189.75
 31
0.0
  0
LINE
  5
6CD
100
AcDbEntity
  8
0
  6
CONTINUOUS
 62
               7
100
AcDbLine
 10
-125.58
 20
-189.75
 30
0.0
 11
-98.579999999999998
 21
-189.75
 31
0.0
  0
MTEXT
  5
6CE
100
AcDbEntity
  8
0
  6
CONTINUOUS
 62
               7
100
AcDbMText
 10
245.88456269755227
 20
-264.25
 30
0.0
 40
12.5
 41
0.0
 71
               4
 72
               1
  1
\W1.121;\A1;KOGANEI CORP.
  0
MTEXT
  5
6CF
100
AcDbEntity
  8
0
  6
CONTINUOUS
 62
               7
100
AcDbMText
 10
290.09979829720089
 20
263.75
 30
0.0
 40
9.0
 41
0.0
 71
               4
 72
               1
  1
\W1.200;\A1;Ver.3.0
  0
MTEXT
  5
6D0
100
AcDbEntity
  8
0
  6
CONTINUOUS
 62
               7
100
AcDbMText
 10
-382.10483931653727
 20
231.25
 30
0.0
 40
9.0
 41
0.0
 71
               4
 72
               1
  1
\W1.097;\A1;MODEL:F10T1-A2-PS
  0
MTEXT
  5
6D1
100
AcDbEntity
  8
0
  6
CONTINUOUS
 62
               7
100
AcDbMText
 10
-362.5389820623364
 20
263.75
 30
0.0
 40
9.0
 41
0.0
 71
               4
 72
               1
  1
\W1.141;\A1;F10 SERIES
  0
MTEXT
  5
6D2
100
AcDbEntity
  8
0
  6
CONTINUOUS
 62
               7
100
AcDbMText
 10
17.420154579947081
 20
256.25
 30
0.0
 40
9.0
 41
0.0
 71
               4
 72
               1
  1
\W1.097;\A1;MODEL:F10T1-F3-PS
  0
MTEXT
  5
6D3
100
AcDbEntity
  8
0
  6
CONTINUOUS
 62
               7
100
AcDbMText
 10
17.420154579947081
 20
-20.25
 30
0.0
 40
9.0
 41
0.0
 71
               4
 72
               1
  1
\W1.097;\A1;MODEL:F10T1-F4-PS
  0
MTEXT
  5
6D4
100
AcDbEntity
  8
0
  6
CONTINUOUS
 62
               7
100
AcDbMText
 10
-382.13000067858695
 20
-112.41665649414062
 30
0.0
 40
9.0
 41
0.0
 71
               4
 72
               1
  1
\W1.080;\A1;MODEL:-PL
  0
LINE
  5
6D5
100
AcDbEntity
  8
0
  6
CENTER
 62
             200
100
AcDbLine
 10
166.43916320800781
 20
116.88841552734375
 30
0.0
 11
166.43916320800781
 21
106.88841552734375
 31
0.0
  0
LINE
  5
6D6
100
AcDbEntity
  8
0
  6
CENTER
 62
             200
100
AcDbLine
 10
156.43916320800781
 20
116.88841552734375
 30
0.0
 11
156.43916320800781
 21
106.88841552734375
 31
0.0
  0
ENDSEC
  0
SECTION
  2
OBJECTS
  0
DICTIONARY
  5
19
100
AcDbDictionary
  3
ACAD_GROUP
350
1A
  3
ACAD_MLINESTYLE
350
1B
  0
DICTIONARY
  5
1A
102
{ACAD_REACTORS
330
19
102
}
100
AcDbDictionary
  0
DICTIONARY
  5
1B
102
{ACAD_REACTORS
330
19
102
}
100
AcDbDictionary
  3
STANDARD
350
1C
  0
MLINESTYLE
  5
1C
102
{ACAD_REACTORS
330
1B
102
}
100
AcDbMlineStyle
  2
Standard
 70
               0
  3

 62
               0
 51
90.0
 52
90.0
 71
               2
 49
0.5
 62
             256
  6
ByLayer
 49
-0.5
 62
             256
  6
ByLayer
  0
ENDSEC
  0
EOF
