  0
SECTION
  2
HEADER
  0
ENDSEC
  0
SECTION
  2
TABLES
  0
TABLE
  2
LTYPE
 70
     4
  0
LTYPE
  2
CONTINUOUS
 70
    64
  3
Solid line
 72
    65
 73
     0
 40
0.000000
  0
LTYPE
  2
DASHED
 70
    64
  3
__ __ __ __ __ __ __ __ __ __ __ __ __ __ __
 72
    65
 73
     2
 40
3.500000
 49
2.000000
 49
-1.500000
  0
LTYPE
  2
CENTER
 70
    64
  3
____ _ ____ _ ____ _ ____ _ ____ _ ____ _ ____
 72
    65
 73
     4
 40
17.500000
 49
13.000000
 49
-1.500000
 49
1.500000
 49
-1.500000
  0
LTYPE
  2
PHANTOM
 70
    64
  3
_____ _ _ _____ _ _ _____ _ _ _____ _ _ ____  
 72
    65
 73
     6
 40
15.500000
 49
8.000000
 49
-1.500000
 49
1.500000
 49
-1.500000
 49
1.500000
 49
-1.500000
  0
LTYPE
  2
DASHED1
 70
    64
  3
__ __ __ __ __ __ __ __ __ __ __ __ __ __ __
 72
    65
 73
     2
 40
1.500000
 49
1.000000
 49
-0.500000
  0
LTYPE
  2
DASHED2
 70
    64
  3
__ __ __ __ __ __ __ __ __ __ __ __ __ __ __
 72
    65
 73
     2
 40
3.500000
 49
2.500000
 49
-1.000000
  0
LTYPE
  2
DASHED3
 70
    64
  3
__ __ __ __ __ __ __ __ __ __ __ __ __ __ __
 72
    65
 73
     2
 40
6.000000
 49
4.000000
 49
-2.000000
  0
LTYPE
  2
DASHED4
 70
    64
  3
__ __ __ __ __ __ __ __ __ __ __ __ __ __ __
 72
    65
 73
     2
 40
12.000000
 49
10.000000
 49
-2.000000
  0
LTYPE
  2
DASHED5
 70
    64
  3
__ __ __ __ __ __ __ __ __ __ __ __ __ __ __
 72
    65
 73
     2
 40
17.000000
 49
15.000000
 49
-2.000000
  0
LTYPE
  2
DASHED6
 70
    64
  3
__ __ __ __ __ __ __ __ __ __ __ __ __ __ __
 72
    65
 73
     2
 40
29.000000
 49
27.000000
 49
-2.000000
  0
LTYPE
  2
PHANTOM1
 70
    64
  3
_____ _ _ _____ _ _ _____ _ _ _____ _ _ ____  
 72
    65
 73
     6
 40
31.000000
 49
25.000000
 49
-1.500000
 49
1.000000
 49
-1.000000
 49
1.000000
 49
-1.500000
  0
LTYPE
  2
PHANTOM2
 70
    64
  3
_____ _ _ _____ _ _ _____ _ _ _____ _ _ ____  
 72
    65
 73
     6
 40
36.000000
 49
27.000000
 49
-1.500000
 49
2.500000
 49
-1.000000
 49
2.500000
 49
-1.500000
  0
LTYPE
  2
PHANTOM3
 70
    64
  3
_____ _ _ _____ _ _ _____ _ _ _____ _ _ ____  
 72
    65
 73
     6
 40
78.000000
 49
64.000000
 49
-2.000000
 49
4.000000
 49
-2.000000
 49
4.000000
 49
-2.000000
  0
LTYPE
  2
CENTER1
 70
    64
  3
____ _ ____ _ ____ _ ____ _ ____ _ ____ _ ____
 72
    65
 73
     4
 40
19.000000
 49
14.000000
 49
-1.000000
 49
3.000000
 49
-1.000000
  0
LTYPE
  2
CENTER2
 70
    64
  3
____ _ ____ _ ____ _ ____ _ ____ _ ____ _ ____
 72
    65
 73
     4
 40
28.500000
 49
25.000000
 49
-1.000000
 49
1.500000
 49
-1.000000
  0
LTYPE
  2
CENTER3
 70
    64
  3
____ _ ____ _ ____ _ ____ _ ____ _ ____ _ ____
 72
    65
 73
     4
 40
31.500000
 49
27.000000
 49
-1.000000
 49
2.500000
 49
-1.000000
  0
LTYPE
  2
CENTER4
 70
    64
  3
____ _ ____ _ ____ _ ____ _ ____ _ ____ _ ____
 72
    65
 73
     4
 40
50.000000
 49
45.000000
 49
-1.000000
 49
3.000000
 49
-1.000000
  0
LTYPE
  2
CENTER5
 70
    64
  3
____ _ ____ _ ____ _ ____ _ ____ _ ____ _ ____
 72
    65
 73
     4
 40
100.000000
 49
92.000000
 49
-2.000000
 49
4.000000
 49
-2.000000
  0
LTYPE
  2
SBK1
 70
    64
  3
______ _ _ _ ______ _ _ _ ______ _ _ _ _____  
 72
    65
 73
     8
 40
60.500000
 49
45.000000
 49
-2.000000
 49
2.500000
 49
-2.000000
 49
2.500000
 49
-2.000000
 49
2.500000
 49
-2.000000
  0
LTYPE
  2
SBK2
 70
    64
  3
______ _ _ _ ______ _ _ _ ______ _ _ _ _____  
 72
    65
 73
     8
 40
84.000000
 49
64.000000
 49
-2.000000
 49
4.000000
 49
-2.000000
 49
4.000000
 49
-2.000000
 49
4.000000
 49
-2.000000
  0
LTYPE
  2
STCH
 70
    64
  3
__ __ __ __ __ __ __ __ __ __ __ __ __ __ __
 72
    65
 73
     2
 40
3.000000
 49
1.000000
 49
-2.000000
  0
LTYPE
  2
MTCH
 70
    64
  3
_____ _ _ _____ _ _ _____ _ _ _____ _ _ ____  
 72
    65
 73
     6
 40
80.000000
 49
66.000000
 49
-2.000000
 49
4.000000
 49
-2.000000
 49
4.000000
 49
-2.000000
  0
ENDTAB
  0
TABLE
  2
LAYER
 70
     1
  0
LAYER
  2
0
 70
     0
 62
     7
  6
CONTINUOUS
  0
ENDTAB
  0
TABLE
  2
STYLE
 70
     1
  0
STYLE
  2
STANDARD
 70
     0
 40
0.000000
 41
1.000000
 50
0.000000
 71
     0
 42
0.200000
  3
txt
  4
BIGFONT
  0
ENDTAB
  0
TABLE
  2
VIEW
 70
     0
  0
ENDTAB
  0
ENDSEC
  0
SECTION
  2
BLOCKS
  0
ENDSEC
  0
SECTION
  2
ENTITIES
  0
LINE
  8
0
 10
-194.250000
 20
132.600006
 11
194.800003
 21
132.600006
  0
LINE
  8
0
 10
194.800003
 20
132.600006
 11
194.800003
 21
-133.500000
  0
LINE
  8
0
 10
-194.250000
 20
132.600006
 11
-194.250000
 21
-133.500000
  0
LINE
  8
0
 10
-194.250000
 20
-133.500000
 11
194.800003
 21
-133.500000
  0
LINE
  8
0
 10
210.000000
 20
148.500000
 11
210.000000
 21
-148.500000
  0
LINE
  8
0
 10
-210.000000
 20
148.500000
 11
-210.000000
 21
-148.500000
  0
LINE
  8
0
 10
-210.000000
 20
148.500000
 11
210.000000
 21
148.500000
  0
LINE
  8
0
 10
-210.000000
 20
-148.500000
 11
210.000000
 21
-148.500000
  0
LINE
  8
0
 10
109.800003
 20
-118.500000
 11
109.800003
 21
-133.500000
  0
LINE
  8
0
 10
109.800003
 20
-118.500000
 11
194.800003
 21
-118.500000
  0
LINE
  8
0
 10
109.800003
 20
132.600006
 11
109.800003
 21
117.600006
  0
LINE
  8
0
 10
109.800003
 20
117.600006
 11
194.800003
 21
117.600006
  0
LINE
  8
0
 10
-194.250000
 20
117.600006
 11
-109.250000
 21
117.600006
  0
LINE
  8
0
 10
-109.250000
 20
132.600006
 11
-109.250000
 21
117.600006
  0
LINE
  8
0
 10
-1.724998
 20
-133.500000
 11
-1.724998
 21
132.600006
  0
TEXT
  8
0
 10
115.907150
 20
122.050003
 40
4.500000
  1
DATE : SEP ,1992
 50
0.000000
 41
1.052631
 51
0.000000
  7
STANDARD
  0
TEXT
  8
0
 10
113.700279
 20
-130.669998
 40
6.300000
  1
KOGANEI CORP.
 50
0.000000
 41
1.052632
 51
0.000000
  7
STANDARD
  0
TEXT
  8
0
 10
-170.142654
 20
122.050003
 40
4.500000
  1
EX-VALVE
 50
0.000000
 41
1.052632
 51
0.000000
  7
STANDARD
  0
TEXT
  8
0
 10
-179.000000
 20
105.900009
 40
4.500000
  1
MODEL : 300V-02
 50
0.000000
 41
1.052632
 51
0.000000
  7
STANDARD
  0
TEXT
  8
0
 10
15.525002
 20
105.900009
 40
4.500000
  1
MODEL : 600V-04
 50
0.000000
 41
1.052632
 51
0.000000
  7
STANDARD
  0
POINT
  8
0
 10
-167.314529
 20
-51.097919
  0
POINT
  8
0
 10
-107.314529
 20
-51.097919
  0
LINE
  8
0
 10
-152.314529
 20
-2.597919
 11
-134.314529
 21
-2.597919
  0
LINE
  8
0
 10
-156.314529
 20
-3.097904
 11
-118.314560
 21
-3.097904
  0
LINE
  8
0
 10
-156.814529
 20
-34.097919
 11
-153.349228
 21
-34.097919
  0
LINE
  8
0
 10
-117.314529
 20
-4.097919
 11
-117.314529
 21
-6.278614
  0
LINE
  8
0
 10
-157.314529
 20
-4.097919
 11
-157.314529
 21
-6.278614
  0
LINE
  8
0
 10
-162.814529
 20
-22.097904
 11
-162.814529
 21
-28.097904
  0
LINE
  8
0
 10
-111.814529
 20
-22.097904
 11
-111.814529
 21
-28.097904
  0
LINE
  8
0
 10
-160.814560
 20
-30.097904
 11
-158.093887
 21
-30.097904
  0
LINE
  8
0
 10
-116.535233
 20
-30.097904
 11
-113.814529
 21
-30.097904
  0
LINE
  8
0
 10
-134.314529
 20
-2.597919
 11
-134.314529
 21
-3.097904
  0
LINE
  8
0
 10
-132.314529
 20
-2.597919
 11
-132.314529
 21
-3.097904
  0
LINE
  8
0
 10
-132.314529
 20
-2.597919
 11
-127.314529
 21
-2.597919
  0
LINE
  8
0
 10
-127.314529
 20
-2.597919
 11
-127.314529
 21
-3.097904
  0
LINE
  8
0
 10
-147.314529
 20
-2.597919
 11
-147.314529
 21
-3.097904
  0
LINE
  8
0
 10
-152.314529
 20
-2.597919
 11
-152.314529
 21
-3.097904
  0
LINE
  8
0
 10
-156.093857
 20
-8.946674
 11
-156.093857
 21
-28.097904
  0
LINE
  8
0
 10
-154.360062
 20
-6.386585
 11
-154.360062
 21
-28.097904
  0
LINE
  8
0
 10
-148.703201
 20
-6.386585
 11
-148.703201
 21
-28.097904
  0
LINE
  8
0
 10
-148.218887
 20
-6.097904
 11
-148.218887
 21
-28.097904
  0
LINE
  8
0
 10
-141.459274
 20
-6.097904
 11
-141.459274
 21
-28.097904
  0
LINE
  8
0
 10
-141.314560
 20
-6.386585
 11
-141.314560
 21
-28.097904
  0
LINE
  8
0
 10
-133.314560
 20
-6.386585
 11
-133.314560
 21
-28.097904
  0
LINE
  8
0
 10
-133.169815
 20
-6.097904
 11
-133.169815
 21
-28.097904
  0
LINE
  8
0
 10
-126.410233
 20
-6.097904
 11
-126.410233
 21
-28.097904
  0
LINE
  8
0
 10
-125.925919
 20
-6.386585
 11
-125.925919
 21
-28.097904
  0
LINE
  8
0
 10
-120.269058
 20
-6.386585
 11
-120.269058
 21
-28.097904
  0
LINE
  8
0
 10
-118.535202
 20
-8.946674
 11
-118.535202
 21
-28.097904
  0
LINE
  8
0
 10
-154.080429
 20
-6.097919
 11
-148.218887
 21
-6.097919
  0
LINE
  8
0
 10
-141.459274
 20
-6.097919
 11
-133.169815
 21
-6.097919
  0
LINE
  8
0
 10
-126.410233
 20
-6.097919
 11
-120.548660
 21
-6.097919
  0
LINE
  8
0
 10
-154.360062
 20
-6.386585
 11
-148.703201
 21
-6.386585
  0
LINE
  8
0
 10
-141.314529
 20
-6.386585
 11
-133.314560
 21
-6.386585
  0
LINE
  8
0
 10
-125.925919
 20
-6.386585
 11
-120.269058
 21
-6.386585
  0
LINE
  8
0
 10
-154.360062
 20
-28.097904
 11
-148.218887
 21
-28.097904
  0
LINE
  8
0
 10
-141.459274
 20
-28.097904
 11
-133.169815
 21
-28.097904
  0
LINE
  8
0
 10
-126.410233
 20
-28.097904
 11
-120.269058
 21
-28.097904
  0
LINE
  8
0
 10
-154.080429
 20
-6.097893
 11
-154.360031
 21
-6.386570
  0
LINE
  8
0
 10
-148.218933
 20
-6.097927
 11
-148.703201
 21
-6.386597
  0
LINE
  8
0
 10
-141.459244
 20
-6.097900
 11
-141.314514
 21
-6.386578
  0
LINE
  8
0
 10
-133.169754
 20
-6.097919
 11
-133.314499
 21
-6.386604
  0
LINE
  8
0
 10
-126.410194
 20
-6.097946
 11
-125.925903
 21
-6.386623
  0
LINE
  8
0
 10
-120.548592
 20
-6.097878
 11
-120.268990
 21
-6.386555
  0
LINE
  8
0
 10
-157.314529
 20
-29.939823
 11
-157.314529
 21
-33.597904
  0
LINE
  8
0
 10
-117.314529
 20
-29.939823
 11
-117.314529
 21
-33.597904
  0
LINE
  8
0
 10
-157.314514
 20
-33.597885
 11
-156.814514
 21
-34.097885
  0
LINE
  8
0
 10
-117.814590
 20
-34.097885
 11
-117.314575
 21
-33.597878
  0
LINE
  8
0
 10
-157.314529
 20
-33.597919
 11
-154.411362
 21
-33.597919
  0
LINE
  8
0
 10
-147.692368
 20
-28.147907
 11
-147.692368
 21
-34.097919
  0
LINE
  8
0
 10
-154.411362
 20
-28.147907
 11
-154.411362
 21
-33.597904
  0
LINE
  8
0
 10
-153.349228
 20
-29.097919
 11
-153.349228
 21
-34.097919
  0
LINE
  8
0
 10
-153.349228
 20
-29.097919
 11
-147.692368
 21
-29.097919
  0
LINE
  8
0
 10
-147.692368
 20
-33.597919
 11
-117.314529
 21
-33.597919
  0
LINE
  8
0
 10
-147.692368
 20
-34.097919
 11
-117.814529
 21
-34.097919
  0
LINE
  8
0
 10
-154.411362
 20
-28.147907
 11
-147.692368
 21
-28.147907
  0
LINE
  8
0
 10
-154.411331
 20
-28.147898
 11
-153.349213
 21
-29.097887
  0
LINE
  8
0
 10
-154.411377
 20
-33.597931
 11
-153.349243
 21
-34.097939
  0
LINE
  8
0
 10
-172.241562
 20
-51.097919
 11
-101.908188
 21
-51.097919
  0
LINE
  8
0
 10
-107.314529
 20
-40.097904
 11
-107.314529
 21
-62.097912
  0
LINE
  8
0
 10
-167.314529
 20
-40.097904
 11
-167.314529
 21
-62.097912
  0
LINE
  8
0
 10
-166.314529
 20
-63.097912
 11
-148.314560
 21
-63.097912
  0
LINE
  8
0
 10
-166.314529
 20
-39.097919
 11
-149.142776
 21
-39.097919
  0
LINE
  8
0
 10
-167.314575
 20
-40.097931
 11
-166.314545
 21
-39.097908
  0
LINE
  8
0
 10
-167.314529
 20
-62.097935
 11
-166.314529
 21
-63.097931
  0
LINE
  8
0
 10
-108.314568
 20
-63.097904
 11
-107.314560
 21
-62.097908
  0
LINE
  8
0
 10
-108.314514
 20
-39.097908
 11
-107.314522
 21
-40.097900
  0
LINE
  8
0
 10
-164.314529
 20
-68.097916
 11
-110.314529
 21
-68.097916
  0
LINE
  8
0
 10
-109.314529
 20
-63.097904
 11
-109.314529
 21
-67.097916
  0
LINE
  8
0
 10
-165.314529
 20
-63.097904
 11
-165.314529
 21
-67.097916
  0
LINE
  8
0
 10
-148.142746
 20
-40.097904
 11
-148.142746
 21
-42.097919
  0
LINE
  8
0
 10
-126.486313
 20
-40.097904
 11
-126.486313
 21
-42.097919
  0
LINE
  8
0
 10
-145.814560
 20
-83.097916
 11
-128.814529
 21
-83.097916
  0
LINE
  8
0
 10
-147.129471
 20
-68.097900
 11
-147.129471
 21
-82.338730
  0
LINE
  8
0
 10
-142.222031
 20
-68.097900
 11
-142.222031
 21
-82.338730
  0
LINE
  8
0
 10
-132.407089
 20
-68.097900
 11
-132.407089
 21
-82.338730
  0
LINE
  8
0
 10
-127.499588
 20
-68.097900
 11
-127.499588
 21
-82.338730
  0
LINE
  8
0
 10
-147.129501
 20
-82.338707
 11
-145.814560
 21
-83.097893
  0
LINE
  8
0
 10
-128.814560
 20
-83.097931
 11
-127.499611
 21
-82.338745
  0
LINE
  8
0
 10
-166.314560
 20
-39.097919
 11
-166.314560
 21
-63.097904
  0
LINE
  8
0
 10
-108.314560
 20
-39.097919
 11
-108.314560
 21
-63.097904
  0
LINE
  8
0
 10
-107.314529
 20
-40.097904
 11
-126.486313
 21
-40.097904
  0
LINE
  8
0
 10
-118.814560
 20
-34.097919
 11
-118.814560
 21
-39.097919
  0
LINE
  8
0
 10
-155.814560
 20
-34.097919
 11
-155.814560
 21
-39.097919
  0
LINE
  8
0
 10
-165.314529
 20
-44.097919
 11
-164.728745
 21
-44.097919
  0
LINE
  8
0
 10
-165.314529
 20
-58.097912
 11
-164.728745
 21
-58.097912
  0
LINE
  8
0
 10
-109.900314
 20
-58.097912
 11
-109.314529
 21
-58.097912
  0
LINE
  8
0
 10
-109.900314
 20
-44.097919
 11
-109.314529
 21
-44.097919
  0
LINE
  8
0
 10
-148.142746
 20
-40.097904
 11
-167.314529
 21
-40.097904
  0
LINE
  8
0
 10
-125.486343
 20
-39.097919
 11
-108.314560
 21
-39.097919
  0
LINE
  8
0
 10
-148.142761
 20
-40.097935
 11
-149.142761
 21
-39.097931
  0
LINE
  8
0
 10
-126.486374
 20
-40.097862
 11
-125.486404
 21
-39.097881
  0
LINE
  8
0
 10
-161.900345
 20
-60.097904
 11
-149.814529
 21
-60.097904
  0
LINE
  8
0
 10
-161.900345
 20
-42.097919
 11
-148.142746
 21
-42.097919
  0
LINE
  8
0
 10
-124.814529
 20
-60.097904
 11
-112.728775
 21
-60.097904
  0
LINE
  8
0
 10
-126.486313
 20
-42.097919
 11
-112.728775
 21
-42.097919
  0
LINE
  8
0
 10
-165.314529
 20
-44.097919
 11
-165.314529
 21
-58.097904
  0
LINE
  8
0
 10
-109.314529
 20
-44.097919
 11
-109.314529
 21
-58.097904
  0
LINE
  8
0
 10
-164.021652
 20
-43.805042
 11
-162.607407
 21
-42.390808
  0
LINE
  8
0
 10
-112.021637
 20
-59.805012
 11
-110.607430
 21
-58.390800
  0
LINE
  8
0
 10
-112.021606
 20
-42.390770
 11
-110.607384
 21
-43.804993
  0
LINE
  8
0
 10
-164.021652
 20
-58.390774
 11
-162.607437
 21
-59.804989
  0
LINE
  8
0
 10
-147.314529
 20
-54.597919
 11
-147.314529
 21
-62.097912
  0
LINE
  8
0
 10
-127.314529
 20
-54.597919
 11
-127.314529
 21
-62.097912
  0
LINE
  8
0
 10
-167.314529
 20
-62.097912
 11
-107.314529
 21
-62.097912
  0
LINE
  8
0
 10
-126.314529
 20
-63.097912
 11
-108.314560
 21
-63.097912
  0
LINE
  8
0
 10
-148.314529
 20
-63.097889
 11
-147.314545
 21
-62.097908
  0
LINE
  8
0
 10
-127.314552
 20
-62.097916
 11
-126.314552
 21
-63.097916
  0
LINE
  8
0
 10
-148.814560
 20
-54.597919
 11
-148.814560
 21
-59.097912
  0
LINE
  8
0
 10
-125.814560
 20
-54.597919
 11
-125.814560
 21
-59.097912
  0
LINE
  8
0
 10
-149.671555
 20
-54.597919
 11
-124.957504
 21
-54.597919
  0
LINE
  8
0
 10
-150.671555
 20
-43.097904
 11
-150.671555
 21
-53.597904
  0
LINE
  8
0
 10
-123.957535
 20
-43.097904
 11
-123.957535
 21
-53.597904
  0
LINE
  8
0
 10
-148.314560
 20
-63.097904
 11
-148.314560
 21
-68.097900
  0
LINE
  8
0
 10
-126.314560
 20
-63.097904
 11
-126.314560
 21
-68.097900
  0
LINE
  8
0
 10
-156.314560
 20
-64.097916
 11
-156.314560
 21
-68.097900
  0
LINE
  8
0
 10
-118.314560
 20
-64.097916
 11
-118.314560
 21
-68.097900
  0
LINE
  8
0
 10
-164.926620
 20
-44.097919
 11
-164.926620
 21
-58.097904
  0
LINE
  8
0
 10
-109.702469
 20
-44.097919
 11
-109.702469
 21
-58.097904
  0
LINE
  8
0
 10
-165.314529
 20
-38.597904
 11
-165.314529
 21
-39.097919
  0
LINE
  8
0
 10
-165.314529
 20
-38.597919
 11
-158.445847
 21
-38.597919
  0
LINE
  8
0
 10
-158.445847
 20
-38.597904
 11
-158.445847
 21
-39.097919
  0
LINE
  8
0
 10
-137.314529
 20
1.173046
 11
-137.314529
 21
-86.054108
  0
ARC
  8
0
 10
-156.314560
 20
-4.097919
 40
1.000000
 50
90.000000
 51
180.000000
  0
ARC
  8
0
 10
-118.314560
 20
-4.097919
 40
1.000000
 50
0.000000
 51
90.000000
  0
ARC
  8
0
 10
-160.814560
 20
-28.097904
 40
2.000000
 50
180.000000
 51
270.000000
  0
ARC
  8
0
 10
-113.814560
 20
-28.097904
 40
2.000000
 50
270.000000
 51
0.000000
  0
ARC
  8
0
 10
-137.314529
 20
-22.097904
 40
25.500000
 50
0.000000
 51
38.342747
  0
ARC
  8
0
 10
-137.314529
 20
-22.097904
 40
25.499994
 50
141.657272
 51
179.999969
  0
ARC
  8
0
 10
-113.578262
 20
-9.601307
 40
5.000000
 50
138.353409
 51
172.477173
  0
ARC
  8
0
 10
-161.050827
 20
-9.601307
 40
4.999993
 50
7.522970
 51
41.646645
  0
ARC
  8
0
 10
-158.093887
 20
-28.097904
 40
2.000000
 50
270.000000
 51
0.000000
  0
ARC
  8
0
 10
-116.535233
 20
-28.097904
 40
2.000000
 50
180.000000
 51
270.000000
  0
ARC
  8
0
 10
-164.314529
 20
-67.097916
 40
1.000000
 50
180.000000
 51
270.000000
  0
ARC
  8
0
 10
-110.314529
 20
-67.097916
 40
1.000000
 50
270.000000
 51
0.000000
  0
ARC
  8
0
 10
-144.675766
 20
-78.753006
 40
4.344920
 50
244.384567
 51
304.384033
  0
ARC
  8
0
 10
-129.953323
 20
-78.753006
 40
4.344924
 50
235.615784
 51
295.614349
  0
ARC
  8
0
 10
-137.314529
 20
-66.857040
 40
16.240879
 50
252.412094
 51
287.587891
  0
ARC
  8
0
 10
-161.900345
 20
-59.097912
 40
1.000001
 50
225.000000
 51
270.000000
  0
ARC
  8
0
 10
-164.728745
 20
-59.097912
 40
1.000001
 50
45.000000
 51
90.000000
  0
ARC
  8
0
 10
-161.900345
 20
-43.097904
 40
1.000000
 50
90.000000
 51
135.000000
  0
ARC
  8
0
 10
-164.728745
 20
-43.097904
 40
1.000000
 50
270.000000
 51
315.000000
  0
ARC
  8
0
 10
-112.728775
 20
-43.097904
 40
1.000001
 50
45.000000
 51
90.000000
  0
ARC
  8
0
 10
-109.900314
 20
-43.097904
 40
1.000001
 50
225.000000
 51
270.000000
  0
ARC
  8
0
 10
-109.900314
 20
-59.097912
 40
1.000000
 50
90.000000
 51
135.000000
  0
ARC
  8
0
 10
-112.728775
 20
-59.097912
 40
1.000000
 50
270.000000
 51
315.000000
  0
ARC
  8
0
 10
-149.814529
 20
-59.097912
 40
1.000000
 50
270.000000
 51
0.000000
  0
ARC
  8
0
 10
-124.814529
 20
-59.097912
 40
1.000000
 50
180.000000
 51
270.000000
  0
ARC
  8
0
 10
-151.671555
 20
-43.097904
 40
1.000000
 50
0.000000
 51
90.000000
  0
ARC
  8
0
 10
-122.957535
 20
-43.097904
 40
1.000000
 50
90.000000
 51
180.000000
  0
ARC
  8
0
 10
-149.671555
 20
-53.597919
 40
1.000000
 50
180.000000
 51
270.000000
  0
ARC
  8
0
 10
-124.957504
 20
-53.597919
 40
1.000000
 50
270.000000
 51
0.000000
  0
ARC
  8
0
 10
-157.314529
 20
-64.097916
 40
1.000000
 50
0.000000
 51
90.000000
  0
ARC
  8
0
 10
-117.314529
 20
-64.097916
 40
1.000004
 50
90.000000
 51
179.999557
  0
POINT
  8
0
 10
-56.569733
 20
-51.097919
  0
POINT
  8
0
 10
-41.569733
 20
-51.097919
  0
LINE
  8
0
 10
-56.569733
 20
0.506374
 11
-56.569733
 21
-68.097900
  0
LINE
  8
0
 10
-36.069733
 20
-6.386585
 11
-36.069733
 21
-28.097904
  0
LINE
  8
0
 10
-77.069733
 20
-6.386585
 11
-77.069733
 21
-28.097904
  0
LINE
  8
0
 10
-36.569733
 20
-4.097919
 11
-36.569733
 21
-6.097904
  0
LINE
  8
0
 10
-76.569733
 20
-4.097919
 11
-76.569733
 21
-6.097904
  0
LINE
  8
0
 10
-75.569733
 20
-3.097904
 11
-37.569763
 21
-3.097904
  0
LINE
  8
0
 10
-73.335632
 20
-6.097919
 11
-67.474091
 21
-6.097919
  0
LINE
  8
0
 10
-77.069756
 20
-6.386604
 11
-76.569748
 21
-6.097923
  0
LINE
  8
0
 10
-36.569729
 20
-6.097881
 11
-36.069717
 21
-6.386562
  0
LINE
  8
0
 10
-76.069733
 20
-34.097919
 11
-46.191925
 21
-34.097919
  0
LINE
  8
0
 10
-76.569771
 20
-33.597908
 11
-76.069763
 21
-34.097923
  0
LINE
  8
0
 10
-37.069817
 20
-34.097878
 11
-36.569809
 21
-33.597862
  0
LINE
  8
0
 10
-77.069733
 20
-28.097904
 11
-76.135529
 21
-28.097904
  0
LINE
  8
0
 10
-76.675720
 20
-6.386585
 11
-76.675720
 21
-28.097904
  0
LINE
  8
0
 10
-76.135559
 20
-6.097904
 11
-76.135559
 21
-28.097904
  0
LINE
  8
0
 10
-73.615265
 20
-6.386585
 11
-73.615265
 21
-28.097904
  0
LINE
  8
0
 10
-67.958405
 20
-6.386585
 11
-67.958405
 21
-28.097904
  0
LINE
  8
0
 10
-67.474091
 20
-6.097904
 11
-67.474091
 21
-28.097904
  0
LINE
  8
0
 10
-63.449921
 20
-8.097904
 11
-63.449921
 21
-29.097919
  0
LINE
  8
0
 10
-49.689545
 20
-8.097904
 11
-49.689545
 21
-29.097919
  0
LINE
  8
0
 10
-45.665375
 20
-6.097904
 11
-45.665375
 21
-28.097904
  0
LINE
  8
0
 10
-45.181122
 20
-6.386585
 11
-45.181122
 21
-28.097904
  0
LINE
  8
0
 10
-39.524261
 20
-6.386585
 11
-39.524261
 21
-28.097904
  0
LINE
  8
0
 10
-37.003937
 20
-6.097904
 11
-37.003937
 21
-28.097904
  0
LINE
  8
0
 10
-36.463776
 20
-6.386585
 11
-36.463776
 21
-28.097904
  0
LINE
  8
0
 10
-61.449921
 20
-6.097919
 11
-51.689545
 21
-6.097919
  0
LINE
  8
0
 10
-45.665375
 20
-6.097919
 11
-39.803864
 21
-6.097919
  0
LINE
  8
0
 10
-77.069733
 20
-6.386585
 11
-76.675690
 21
-6.386585
  0
LINE
  8
0
 10
-73.615265
 20
-6.386585
 11
-67.958405
 21
-6.386585
  0
LINE
  8
0
 10
-45.181122
 20
-6.386585
 11
-39.524261
 21
-6.386585
  0
LINE
  8
0
 10
-36.463776
 20
-6.386585
 11
-36.069733
 21
-6.386585
  0
LINE
  8
0
 10
-76.569733
 20
-6.097919
 11
-76.135529
 21
-6.097919
  0
LINE
  8
0
 10
-76.675705
 20
-6.386589
 11
-76.135551
 21
-6.097908
  0
LINE
  8
0
 10
-76.569733
 20
-28.097904
 11
-76.569733
 21
-33.597904
  0
LINE
  8
0
 10
-73.335617
 20
-6.097912
 11
-73.615204
 21
-6.386562
  0
LINE
  8
0
 10
-67.474083
 20
-6.097897
 11
-67.958351
 21
-6.386562
  0
LINE
  8
0
 10
-45.665367
 20
-6.097923
 11
-45.181118
 21
-6.386574
  0
LINE
  8
0
 10
-39.803825
 20
-6.097916
 11
-39.524216
 21
-6.386589
  0
LINE
  8
0
 10
-37.003937
 20
-6.097919
 11
-36.569733
 21
-6.097919
  0
LINE
  8
0
 10
-36.569733
 20
-28.097904
 11
-36.569733
 21
-33.597904
  0
LINE
  8
0
 10
-37.003922
 20
-6.097904
 11
-36.463737
 21
-6.386593
  0
LINE
  8
0
 10
-73.615265
 20
-28.097904
 11
-67.474091
 21
-28.097904
  0
LINE
  8
0
 10
-45.665375
 20
-28.097904
 11
-39.524261
 21
-28.097904
  0
LINE
  8
0
 10
-37.003937
 20
-28.097904
 11
-36.069733
 21
-28.097904
  0
LINE
  8
0
 10
-61.449921
 20
-31.097919
 11
-51.689545
 21
-31.097919
  0
LINE
  8
0
 10
-53.569733
 20
-22.097904
 11
-53.569733
 21
-31.097904
  0
LINE
  8
0
 10
-59.569733
 20
-22.097904
 11
-59.569733
 21
-31.097904
  0
LINE
  8
0
 10
-76.569733
 20
-33.597919
 11
-46.191925
 21
-33.597919
  0
LINE
  8
0
 10
-39.472961
 20
-28.147907
 11
-39.472961
 21
-33.597904
  0
LINE
  8
0
 10
-40.535065
 20
-29.097919
 11
-40.535065
 21
-34.097919
  0
LINE
  8
0
 10
-39.472900
 20
-28.147919
 11
-40.535049
 21
-29.097929
  0
LINE
  8
0
 10
-40.535065
 20
-29.097919
 11
-46.191925
 21
-29.097919
  0
LINE
  8
0
 10
-39.472931
 20
-28.147907
 11
-46.191925
 21
-28.147907
  0
LINE
  8
0
 10
-46.191925
 20
-28.147907
 11
-46.191925
 21
-34.097919
  0
LINE
  8
0
 10
-39.472931
 20
-33.597919
 11
-36.569733
 21
-33.597919
  0
LINE
  8
0
 10
-40.535065
 20
-34.097919
 11
-37.069733
 21
-34.097919
  0
LINE
  8
0
 10
-40.535099
 20
-34.097885
 11
-39.472980
 21
-33.597893
  0
LINE
  8
0
 10
-79.000519
 20
-51.097919
 11
-34.199677
 21
-51.097919
  0
LINE
  8
0
 10
-71.569733
 20
-40.097904
 11
-71.569733
 21
-62.097912
  0
LINE
  8
0
 10
-41.569733
 20
-40.097904
 11
-41.569733
 21
-62.097912
  0
LINE
  8
0
 10
-70.569733
 20
-63.097912
 11
-42.569763
 21
-63.097912
  0
LINE
  8
0
 10
-70.569733
 20
-39.097919
 11
-42.569763
 21
-39.097919
  0
LINE
  8
0
 10
-71.569740
 20
-40.097870
 11
-70.569763
 21
-39.097893
  0
LINE
  8
0
 10
-42.569801
 20
-39.097946
 11
-41.569801
 21
-40.097946
  0
LINE
  8
0
 10
-42.569725
 20
-63.097893
 11
-41.569721
 21
-62.097893
  0
LINE
  8
0
 10
-70.569740
 20
-63.097881
 11
-71.569733
 21
-62.097893
  0
LINE
  8
0
 10
-70.569763
 20
-39.097919
 11
-70.569763
 21
-68.097900
  0
LINE
  8
0
 10
-42.569733
 20
-39.097919
 11
-42.569733
 21
-68.097900
  0
LINE
  8
0
 10
-71.569733
 20
-40.097904
 11
-41.569733
 21
-40.097904
  0
LINE
  8
0
 10
-71.569733
 20
-62.097912
 11
-41.569733
 21
-62.097912
  0
LINE
  8
0
 10
-38.069763
 20
-34.097919
 11
-38.069763
 21
-53.597904
  0
LINE
  8
0
 10
-75.069763
 20
-34.097919
 11
-75.069763
 21
-53.597904
  0
LINE
  8
0
 10
-74.069733
 20
-54.597919
 11
-71.569733
 21
-54.597919
  0
LINE
  8
0
 10
-41.569733
 20
-54.597919
 11
-39.069733
 21
-54.597919
  0
LINE
  8
0
 10
-70.569733
 20
-68.097916
 11
-42.569763
 21
-68.097916
  0
LINE
  8
0
 10
-54.569733
 20
-64.097916
 11
-54.569733
 21
-68.097900
  0
LINE
  8
0
 10
-58.569733
 20
-64.097916
 11
-58.569733
 21
-68.097900
  0
LINE
  8
0
 10
-65.069763
 20
-83.097916
 11
-48.069733
 21
-83.097916
  0
LINE
  8
0
 10
-48.069763
 20
-68.097900
 11
-48.069763
 21
-83.097916
  0
LINE
  8
0
 10
-65.069733
 20
-68.097900
 11
-65.069733
 21
-83.097916
  0
LINE
  8
0
 10
-56.569733
 20
-82.338730
 11
-56.569733
 21
-86.329910
  0
LINE
  8
0
 10
-56.569733
 20
-68.097900
 11
-56.569733
 21
-82.338730
  0
LINE
  8
0
 10
-60.288635
 20
-25.597904
 11
-52.847168
 21
-25.597904
  0
LINE
  8
0
 10
-58.554047
 20
-25.347919
 11
-54.585449
 21
-25.347919
  0
LINE
  8
0
 10
-58.554047
 20
-25.847904
 11
-54.585449
 21
-25.847904
  0
ARC
  8
0
 10
-75.569763
 20
-4.097919
 40
1.000000
 50
90.000000
 51
180.000000
  0
ARC
  8
0
 10
-37.569733
 20
-4.097919
 40
1.000000
 50
0.000000
 51
90.000000
  0
ARC
  8
0
 10
-61.449921
 20
-29.097919
 40
2.000000
 50
180.000000
 51
270.000000
  0
ARC
  8
0
 10
-51.689545
 20
-29.097919
 40
2.000000
 50
270.000000
 51
0.000000
  0
ARC
  8
0
 10
-61.449921
 20
-8.097904
 40
2.000000
 50
90.000000
 51
180.000000
  0
ARC
  8
0
 10
-51.689545
 20
-8.097904
 40
2.000000
 50
0.000000
 51
90.000000
  0
CIRCLE
  8
0
 10
-56.569733
 20
-51.097919
 40
10.250000
  0
ARC
  8
0
 10
-74.069733
 20
-53.597919
 40
1.000000
 50
180.000000
 51
270.000000
  0
ARC
  8
0
 10
-39.069733
 20
-53.597919
 40
1.000000
 50
270.000000
 51
0.000000
  0
ARC
  8
0
 10
-59.569733
 20
-64.097916
 40
1.000000
 50
0.000000
 51
90.000000
  0
ARC
  8
0
 10
-53.569733
 20
-64.097916
 40
1.000004
 50
90.000000
 51
179.999557
  0
ARC
  8
0
 10
-60.819733
 20
-70.822357
 40
12.275561
 50
249.743896
 51
290.256073
  0
ARC
  8
0
 10
-52.319733
 20
-70.822357
 40
12.275560
 50
249.743912
 51
290.256073
  0
CIRCLE
  8
0
 10
-56.569733
 20
-25.597904
 40
2.000000
  0
ARC
  8
0
 10
-56.569733
 20
-25.597904
 40
1.650000
 50
8.714741
 51
171.285263
  0
ARC
  8
0
 10
-56.569733
 20
-25.597904
 40
1.650000
 50
188.714737
 51
351.285248
  0
CIRCLE
  8
0
 10
-56.569733
 20
-51.097919
 40
5.722500
  0
CIRCLE
  8
0
 10
-56.569733
 20
-51.097919
 40
6.578500
  0
POINT
  8
0
 10
-167.314529
 20
58.415428
  0
POINT
  8
0
 10
-107.314529
 20
58.415428
  0
LINE
  8
0
 10
-137.314529
 20
69.016518
 11
-137.314529
 21
33.348137
  0
LINE
  8
0
 10
-137.314529
 20
81.429192
 11
-137.314529
 21
71.814354
  0
LINE
  8
0
 10
-170.057785
 20
58.415428
 11
-150.713455
 21
58.415428
  0
LINE
  8
0
 10
-126.410156
 20
75.181366
 11
-125.925903
 21
75.460953
  0
LINE
  8
0
 10
-120.268929
 20
69.804024
 11
-120.548546
 21
69.319717
  0
LINE
  8
0
 10
-141.459274
 20
77.981255
 11
-141.314545
 21
78.521408
  0
LINE
  8
0
 10
-133.314590
 20
78.521408
 11
-133.169861
 21
77.981239
  0
LINE
  8
0
 10
-154.080414
 20
69.319809
 11
-154.360031
 21
69.804100
  0
LINE
  8
0
 10
-148.703232
 20
75.460922
 11
-148.218933
 21
75.181320
  0
LINE
  8
0
 10
-148.218887
 20
41.649574
 11
-148.703201
 21
41.369957
  0
LINE
  8
0
 10
-154.360001
 20
47.026817
 11
-154.080414
 21
47.511078
  0
LINE
  8
0
 10
-133.169739
 20
38.849609
 11
-133.314484
 21
38.309433
  0
LINE
  8
0
 10
-141.314453
 20
38.309483
 11
-141.459198
 21
38.849648
  0
LINE
  8
0
 10
-120.548538
 20
47.511127
 11
-120.268936
 21
47.026840
  0
LINE
  8
0
 10
-125.925812
 20
41.370071
 11
-126.410103
 21
41.649673
  0
LINE
  8
0
 10
-111.814529
 20
60.260735
 11
-111.814529
 21
56.570152
  0
LINE
  8
0
 10
-162.814529
 20
60.260735
 11
-162.814529
 21
56.570152
  0
LINE
  8
0
 10
-161.814545
 20
61.992802
 11
-156.093842
 21
65.295647
  0
LINE
  8
0
 10
-161.814560
 20
54.838085
 11
-156.093887
 21
51.535252
  0
LINE
  8
0
 10
-118.535202
 20
65.295692
 11
-112.814514
 21
61.992851
  0
LINE
  8
0
 10
-118.535233
 20
51.535244
 11
-112.814545
 21
54.838085
  0
LINE
  8
0
 10
-147.915604
 20
58.415428
 11
-104.528275
 21
58.415428
  0
LINE
  8
0
 10
-150.713455
 20
58.415428
 11
-147.915604
 21
58.415428
  0
LINE
  8
0
 10
-137.314529
 20
71.814354
 11
-137.314529
 21
69.016518
  0
LINE
  8
0
 10
-107.314529
 20
72.415428
 11
-107.314529
 21
44.415443
  0
LINE
  8
0
 10
-167.314529
 20
72.415459
 11
-167.314529
 21
44.415443
  0
LINE
  8
0
 10
-166.314529
 20
43.415428
 11
-151.287735
 21
43.415428
  0
LINE
  8
0
 10
-166.314529
 20
73.415428
 11
-151.287735
 21
73.415428
  0
LINE
  8
0
 10
-166.314606
 20
43.415398
 11
-167.314606
 21
44.415398
  0
LINE
  8
0
 10
-167.314545
 20
72.415413
 11
-166.314545
 21
73.415413
  0
LINE
  8
0
 10
-108.314621
 20
73.415382
 11
-107.314629
 21
72.415390
  0
LINE
  8
0
 10
-108.314575
 20
43.415440
 11
-107.314575
 21
44.415440
  0
LINE
  8
0
 10
-123.341324
 20
43.415428
 11
-108.314560
 21
43.415428
  0
LINE
  8
0
 10
-123.341324
 20
73.415428
 11
-108.314560
 21
73.415428
  0
LINE
  8
0
 10
-167.314529
 20
72.415459
 11
-152.289505
 21
72.415459
  0
LINE
  8
0
 10
-167.314529
 20
44.415443
 11
-152.289505
 21
44.415443
  0
LINE
  8
0
 10
-107.314529
 20
44.415443
 11
-122.339554
 21
44.415443
  0
LINE
  8
0
 10
-107.314529
 20
72.415428
 11
-122.339554
 21
72.415428
  0
LINE
  8
0
 10
-108.314560
 20
73.415428
 11
-108.314560
 21
43.415428
  0
LINE
  8
0
 10
-166.314560
 20
43.415428
 11
-166.314560
 21
73.415428
  0
LINE
  8
0
 10
-165.314529
 20
60.915428
 11
-165.314529
 21
55.915428
  0
LINE
  8
0
 10
-165.314529
 20
60.915417
 11
-162.814529
 21
60.005493
  0
LINE
  8
0
 10
-165.314560
 20
55.915459
 11
-162.814560
 21
56.825378
  0
CIRCLE
  8
0
 10
-137.314529
 20
58.415428
 40
20.000000
  0
ARC
  8
0
 10
-137.314529
 20
58.415428
 40
20.500000
 50
33.748158
 51
56.251842
  0
ARC
  8
0
 10
-137.314529
 20
58.415428
 40
20.499996
 50
78.748146
 51
101.251854
  0
ARC
  8
0
 10
-137.314529
 20
58.415428
 40
20.500000
 50
123.748154
 51
146.251877
  0
ARC
  8
0
 10
-137.314529
 20
58.415428
 40
20.499996
 50
213.748169
 51
236.251846
  0
ARC
  8
0
 10
-137.314529
 20
58.415428
 40
20.500004
 50
258.748169
 51
281.251862
  0
ARC
  8
0
 10
-137.314529
 20
58.415428
 40
20.500000
 50
303.748169
 51
326.251862
  0
ARC
  8
0
 10
-113.814560
 20
56.570152
 40
2.000001
 50
300.000000
 51
0.000000
  0
ARC
  8
0
 10
-113.814560
 20
60.260735
 40
2.000000
 50
0.000000
 51
60.000015
  0
ARC
  8
0
 10
-160.814560
 20
60.260735
 40
2.000001
 50
119.999985
 51
180.000000
  0
ARC
  8
0
 10
-160.814560
 20
56.570152
 40
2.000000
 50
180.000000
 51
240.000015
  0
CIRCLE
  8
0
 10
-137.314529
 20
58.415428
 40
19.049999
  0
POINT
  8
0
 10
23.044510
 20
-51.097919
  0
POINT
  8
0
 10
86.044510
 20
-51.097919
  0
LINE
  8
0
 10
39.544510
 20
-2.597919
 11
57.544571
 21
-2.597919
  0
LINE
  8
0
 10
35.544510
 20
-3.097919
 11
73.544510
 21
-3.097919
  0
LINE
  8
0
 10
35.044449
 20
-34.097919
 11
38.509781
 21
-34.097919
  0
LINE
  8
0
 10
74.544510
 20
-4.097919
 11
74.544510
 21
-6.278614
  0
LINE
  8
0
 10
34.544510
 20
-4.097919
 11
34.544510
 21
-6.278614
  0
LINE
  8
0
 10
29.044510
 20
-22.097919
 11
29.044510
 21
-28.097950
  0
LINE
  8
0
 10
80.044510
 20
-22.097919
 11
80.044510
 21
-28.097950
  0
LINE
  8
0
 10
31.044510
 20
-30.097889
 11
33.765152
 21
-30.097889
  0
LINE
  8
0
 10
75.323868
 20
-30.097889
 11
78.044510
 21
-30.097889
  0
LINE
  8
0
 10
57.544571
 20
-2.597919
 11
57.544571
 21
-3.097919
  0
LINE
  8
0
 10
59.544510
 20
-2.597919
 11
59.544510
 21
-3.097919
  0
LINE
  8
0
 10
59.544510
 20
-2.597919
 11
64.544510
 21
-2.597919
  0
LINE
  8
0
 10
64.544510
 20
-2.597919
 11
64.544510
 21
-3.097919
  0
LINE
  8
0
 10
44.544510
 20
-2.597919
 11
44.544510
 21
-3.097919
  0
LINE
  8
0
 10
39.544510
 20
-2.597919
 11
39.544510
 21
-3.097919
  0
LINE
  8
0
 10
35.765213
 20
-8.946674
 11
35.765213
 21
-28.097950
  0
LINE
  8
0
 10
37.498978
 20
-6.386585
 11
37.498978
 21
-28.097950
  0
LINE
  8
0
 10
43.155899
 20
-6.386585
 11
43.155899
 21
-28.097950
  0
LINE
  8
0
 10
43.640152
 20
-6.097919
 11
43.640152
 21
-28.097950
  0
LINE
  8
0
 10
50.399796
 20
-6.097919
 11
50.399796
 21
-28.097950
  0
LINE
  8
0
 10
50.544510
 20
-6.386585
 11
50.544510
 21
-28.097950
  0
LINE
  8
0
 10
58.544510
 20
-6.386585
 11
58.544510
 21
-28.097950
  0
LINE
  8
0
 10
58.689285
 20
-6.097919
 11
58.689285
 21
-28.097950
  0
LINE
  8
0
 10
65.448807
 20
-6.097919
 11
65.448807
 21
-28.097950
  0
LINE
  8
0
 10
65.933121
 20
-6.386585
 11
65.933121
 21
-28.097950
  0
LINE
  8
0
 10
71.589981
 20
-6.386585
 11
71.589981
 21
-28.097950
  0
LINE
  8
0
 10
73.323807
 20
-8.946705
 11
73.323807
 21
-28.097950
  0
LINE
  8
0
 10
37.778580
 20
-6.097919
 11
43.640152
 21
-6.097919
  0
LINE
  8
0
 10
50.399796
 20
-6.097919
 11
58.689224
 21
-6.097919
  0
LINE
  8
0
 10
65.448807
 20
-6.097919
 11
71.310440
 21
-6.097919
  0
LINE
  8
0
 10
37.498978
 20
-6.386585
 11
43.155899
 21
-6.386585
  0
LINE
  8
0
 10
50.544510
 20
-6.386585
 11
58.544510
 21
-6.386585
  0
LINE
  8
0
 10
65.933121
 20
-6.386585
 11
71.589981
 21
-6.386585
  0
LINE
  8
0
 10
37.498978
 20
-28.097919
 11
43.640152
 21
-28.097919
  0
LINE
  8
0
 10
50.399796
 20
-28.097919
 11
58.689224
 21
-28.097919
  0
LINE
  8
0
 10
65.448807
 20
-28.097919
 11
71.589981
 21
-28.097919
  0
LINE
  8
0
 10
37.778580
 20
-6.097916
 11
37.498997
 21
-6.386570
  0
LINE
  8
0
 10
43.640129
 20
-6.097916
 11
43.155853
 21
-6.386585
  0
LINE
  8
0
 10
50.399727
 20
-6.097946
 11
50.544464
 21
-6.386623
  0
LINE
  8
0
 10
58.689228
 20
-6.097813
 11
58.544460
 21
-6.386555
  0
LINE
  8
0
 10
65.448868
 20
-6.097885
 11
65.933167
 21
-6.386570
  0
LINE
  8
0
 10
71.310265
 20
-6.098011
 11
71.589859
 21
-6.386677
  0
LINE
  8
0
 10
34.544510
 20
-29.939808
 11
34.544510
 21
-33.597919
  0
LINE
  8
0
 10
74.544510
 20
-29.939808
 11
74.544510
 21
-33.597919
  0
LINE
  8
0
 10
34.544563
 20
-33.597839
 11
35.044556
 21
-34.097832
  0
LINE
  8
0
 10
74.044502
 20
-34.097923
 11
74.544495
 21
-33.597939
  0
LINE
  8
0
 10
34.544510
 20
-33.597919
 11
37.447708
 21
-33.597919
  0
LINE
  8
0
 10
44.166702
 20
-28.147907
 11
44.166702
 21
-34.097919
  0
LINE
  8
0
 10
37.447708
 20
-28.147907
 11
37.447708
 21
-33.597919
  0
LINE
  8
0
 10
38.509842
 20
-29.097919
 11
38.509842
 21
-34.097919
  0
LINE
  8
0
 10
38.509781
 20
-29.097919
 11
44.166702
 21
-29.097919
  0
LINE
  8
0
 10
44.166702
 20
-33.597919
 11
74.544510
 21
-33.597919
  0
LINE
  8
0
 10
44.166702
 20
-34.097919
 11
74.044449
 21
-34.097919
  0
LINE
  8
0
 10
37.447708
 20
-28.147907
 11
44.166702
 21
-28.147907
  0
LINE
  8
0
 10
37.447624
 20
-28.147978
 11
38.509750
 21
-29.097967
  0
LINE
  8
0
 10
37.447754
 20
-33.597813
 11
38.509869
 21
-34.097805
  0
LINE
  8
0
 10
19.617508
 20
-51.097919
 11
89.950821
 21
-51.097919
  0
LINE
  8
0
 10
46.044510
 20
-83.097916
 11
63.044510
 21
-83.097916
  0
LINE
  8
0
 10
44.729507
 20
-71.097916
 11
44.729507
 21
-82.338730
  0
LINE
  8
0
 10
49.637039
 20
-71.097916
 11
49.637039
 21
-82.338730
  0
LINE
  8
0
 10
59.451981
 20
-71.097916
 11
59.451981
 21
-82.338730
  0
LINE
  8
0
 10
64.359451
 20
-71.097916
 11
64.359451
 21
-82.338730
  0
LINE
  8
0
 10
44.729572
 20
-82.338768
 11
46.044521
 21
-83.097954
  0
LINE
  8
0
 10
63.044510
 20
-83.097977
 11
64.359459
 21
-82.338791
  0
LINE
  8
0
 10
73.044510
 20
-34.097919
 11
73.044510
 21
-35.097889
  0
LINE
  8
0
 10
36.044510
 20
-34.097919
 11
36.044510
 21
-35.097889
  0
LINE
  8
0
 10
54.544510
 20
1.173046
 11
54.544510
 21
-86.054123
  0
LINE
  8
0
 10
23.044510
 20
-36.097919
 11
23.044510
 21
-66.097916
  0
LINE
  8
0
 10
86.044510
 20
-36.097919
 11
86.044510
 21
-66.097916
  0
LINE
  8
0
 10
24.044449
 20
-35.097889
 11
85.044510
 21
-35.097889
  0
LINE
  8
0
 10
24.044449
 20
-67.097916
 11
85.044510
 21
-67.097916
  0
LINE
  8
0
 10
24.044538
 20
-35.097954
 11
23.044516
 21
-36.097977
  0
LINE
  8
0
 10
23.044737
 20
-66.097763
 11
24.044746
 21
-67.097778
  0
LINE
  8
0
 10
85.044510
 20
-67.097916
 11
86.044495
 21
-66.097939
  0
LINE
  8
0
 10
85.044601
 20
-35.097858
 11
86.044601
 21
-36.097862
  0
LINE
  8
0
 10
27.544449
 20
-71.097916
 11
81.544510
 21
-71.097916
  0
LINE
  8
0
 10
82.544510
 20
-68.097946
 11
82.544510
 21
-70.097885
  0
LINE
  8
0
 10
26.544510
 20
-68.097946
 11
26.544510
 21
-70.097885
  0
LINE
  8
0
 10
23.044510
 20
-36.097919
 11
86.044510
 21
-36.097919
  0
LINE
  8
0
 10
86.044510
 20
-66.097916
 11
23.044510
 21
-66.097916
  0
LINE
  8
0
 10
24.044510
 20
-35.097889
 11
24.044510
 21
-67.097916
  0
LINE
  8
0
 10
85.044510
 20
-35.097889
 11
85.044510
 21
-67.097916
  0
LINE
  8
0
 10
65.544510
 20
-68.097946
 11
65.544510
 21
-71.097916
  0
LINE
  8
0
 10
43.544510
 20
-68.097946
 11
43.544510
 21
-71.097916
  0
LINE
  8
0
 10
73.544510
 20
-68.097946
 11
73.544510
 21
-71.097916
  0
LINE
  8
0
 10
35.544510
 20
-68.097946
 11
35.544510
 21
-71.097916
  0
LINE
  8
0
 10
25.544510
 20
-34.597919
 11
25.544510
 21
-35.097889
  0
LINE
  8
0
 10
25.544510
 20
-34.597919
 11
33.786880
 21
-34.597919
  0
LINE
  8
0
 10
33.786942
 20
-34.597919
 11
33.786942
 21
-35.097889
  0
LINE
  8
0
 10
33.044510
 20
-40.097889
 11
33.044510
 21
-62.097919
  0
LINE
  8
0
 10
76.044510
 20
-40.097889
 11
76.044510
 21
-62.097919
  0
LINE
  8
0
 10
74.044449
 20
-64.097916
 11
35.044449
 21
-64.097916
  0
LINE
  8
0
 10
35.044449
 20
-38.097919
 11
74.044449
 21
-38.097919
  0
LINE
  8
0
 10
28.044510
 20
-41.097919
 11
28.044510
 21
-61.097919
  0
LINE
  8
0
 10
81.044510
 20
-41.097919
 11
81.044510
 21
-61.097919
  0
LINE
  8
0
 10
28.044510
 20
-61.097919
 11
33.044510
 21
-61.097919
  0
LINE
  8
0
 10
28.044510
 20
-41.097919
 11
33.044510
 21
-41.097919
  0
LINE
  8
0
 10
76.044510
 20
-61.097919
 11
81.044510
 21
-61.097919
  0
LINE
  8
0
 10
76.044510
 20
-41.097919
 11
81.044510
 21
-41.097919
  0
LINE
  8
0
 10
28.749832
 20
-60.606770
 11
33.044510
 21
-60.606770
  0
LINE
  8
0
 10
28.749832
 20
-41.589069
 11
33.044510
 21
-41.589069
  0
LINE
  8
0
 10
80.339188
 20
-41.589069
 11
80.339188
 21
-60.606800
  0
LINE
  8
0
 10
28.749832
 20
-41.589069
 11
28.749832
 21
-60.606800
  0
LINE
  8
0
 10
76.044510
 20
-60.606770
 11
80.339188
 21
-60.606770
  0
LINE
  8
0
 10
76.044510
 20
-41.589069
 11
80.339188
 21
-41.589069
  0
LINE
  8
0
 10
28.044506
 20
-61.097939
 11
28.749790
 21
-60.606812
  0
LINE
  8
0
 10
28.044487
 20
-41.097961
 11
28.749792
 21
-41.589111
  0
LINE
  8
0
 10
81.044510
 20
-41.097939
 11
80.339172
 21
-41.589100
  0
LINE
  8
0
 10
80.339142
 20
-60.606842
 11
81.044434
 21
-61.097961
  0
ARC
  8
0
 10
35.544510
 20
-4.097919
 40
1.000000
 50
90.000000
 51
180.000000
  0
ARC
  8
0
 10
73.544510
 20
-4.097919
 40
1.000000
 50
0.000000
 51
90.000000
  0
ARC
  8
0
 10
31.044510
 20
-28.097919
 40
2.000000
 50
180.000000
 51
270.000000
  0
ARC
  8
0
 10
78.044510
 20
-28.097919
 40
2.000000
 50
270.000000
 51
0.000000
  0
ARC
  8
0
 10
54.544510
 20
-22.097919
 40
25.500000
 50
0.000000
 51
38.342747
  0
ARC
  8
0
 10
54.544510
 20
-22.097919
 40
25.500000
 50
141.657272
 51
179.999969
  0
ARC
  8
0
 10
78.280777
 20
-9.601307
 40
5.000000
 50
138.353409
 51
172.477173
  0
ARC
  8
0
 10
30.808243
 20
-9.601307
 40
5.000000
 50
7.522959
 51
41.646587
  0
ARC
  8
0
 10
33.765152
 20
-28.097919
 40
2.000000
 50
270.000000
 51
0.000000
  0
ARC
  8
0
 10
75.323868
 20
-28.097919
 40
2.000000
 50
180.000000
 51
270.000000
  0
ARC
  8
0
 10
47.183304
 20
-78.752975
 40
4.344917
 50
244.384659
 51
304.384094
  0
ARC
  8
0
 10
61.905716
 20
-78.752975
 40
4.344920
 50
235.615875
 51
295.614380
  0
ARC
  8
0
 10
54.544510
 20
-66.857040
 40
16.240892
 50
252.412109
 51
287.587860
  0
ARC
  8
0
 10
27.544571
 20
-70.097885
 40
1.000000
 50
180.000000
 51
270.000000
  0
ARC
  8
0
 10
81.544510
 20
-70.097885
 40
1.000000
 50
270.000000
 51
0.000000
  0
ARC
  8
0
 10
25.544510
 20
-68.097916
 40
1.000000
 50
0.000000
 51
90.000000
  0
ARC
  8
0
 10
83.544510
 20
-68.097916
 40
1.000000
 50
90.000000
 51
180.000000
  0
ARC
  8
0
 10
34.544510
 20
-68.097916
 40
1.000000
 50
0.000000
 51
90.000000
  0
ARC
  8
0
 10
44.544510
 20
-68.097916
 40
1.000000
 50
90.000000
 51
180.000000
  0
ARC
  8
0
 10
64.544510
 20
-68.097916
 40
1.000000
 50
0.000000
 51
90.000000
  0
ARC
  8
0
 10
74.544510
 20
-68.097916
 40
1.000000
 50
90.000000
 51
180.000000
  0
ARC
  8
0
 10
35.044571
 20
-40.097889
 40
2.000000
 50
90.000000
 51
180.000000
  0
ARC
  8
0
 10
35.044571
 20
-62.097919
 40
2.000000
 50
180.000000
 51
270.000000
  0
ARC
  8
0
 10
74.044510
 20
-62.097919
 40
1.999996
 50
270.000000
 51
0.000000
  0
ARC
  8
0
 10
74.044510
 20
-40.097889
 40
2.000000
 50
0.000000
 51
90.000000
  0
POINT
  8
0
 10
135.311569
 20
-51.097919
  0
POINT
  8
0
 10
155.311569
 20
-51.097919
  0
LINE
  8
0
 10
135.311569
 20
0.506359
 11
135.311569
 21
-88.678802
  0
LINE
  8
0
 10
155.811569
 20
-6.386585
 11
155.811569
 21
-28.097950
  0
LINE
  8
0
 10
114.811569
 20
-6.386585
 11
114.811569
 21
-28.097950
  0
LINE
  8
0
 10
155.311569
 20
-4.097919
 11
155.311569
 21
-6.097919
  0
LINE
  8
0
 10
115.311569
 20
-4.097919
 11
115.311569
 21
-6.097919
  0
LINE
  8
0
 10
116.311569
 20
-3.097919
 11
154.311569
 21
-3.097919
  0
LINE
  8
0
 10
118.545639
 20
-6.097919
 11
124.407211
 21
-6.097919
  0
LINE
  8
0
 10
114.811493
 20
-6.386631
 11
115.311523
 21
-6.097935
  0
LINE
  8
0
 10
155.311539
 20
-6.097954
 11
155.811539
 21
-6.386635
  0
LINE
  8
0
 10
115.811569
 20
-34.097919
 11
145.689377
 21
-34.097919
  0
LINE
  8
0
 10
115.311584
 20
-33.597900
 11
115.811584
 21
-34.097900
  0
LINE
  8
0
 10
154.811569
 20
-34.097912
 11
155.311554
 21
-33.597919
  0
LINE
  8
0
 10
114.811569
 20
-28.097919
 11
115.745773
 21
-28.097919
  0
LINE
  8
0
 10
115.205612
 20
-6.386585
 11
115.205612
 21
-28.097950
  0
LINE
  8
0
 10
115.745773
 20
-6.097919
 11
115.745773
 21
-28.097950
  0
LINE
  8
0
 10
118.266037
 20
-6.386585
 11
118.266037
 21
-28.097950
  0
LINE
  8
0
 10
123.922897
 20
-6.386585
 11
123.922897
 21
-28.097950
  0
LINE
  8
0
 10
124.407211
 20
-6.097919
 11
124.407211
 21
-28.097950
  0
LINE
  8
0
 10
128.431381
 20
-8.097950
 11
128.431381
 21
-29.097919
  0
LINE
  8
0
 10
142.191757
 20
-8.097950
 11
142.191757
 21
-29.097919
  0
LINE
  8
0
 10
146.215927
 20
-6.097919
 11
146.215927
 21
-28.097950
  0
LINE
  8
0
 10
146.700180
 20
-6.386585
 11
146.700180
 21
-28.097950
  0
LINE
  8
0
 10
152.357040
 20
-6.386585
 11
152.357040
 21
-28.097950
  0
LINE
  8
0
 10
154.877365
 20
-6.097919
 11
154.877365
 21
-28.097950
  0
LINE
  8
0
 10
155.417526
 20
-6.386585
 11
155.417526
 21
-28.097950
  0
LINE
  8
0
 10
130.431381
 20
-6.097919
 11
140.191757
 21
-6.097919
  0
LINE
  8
0
 10
146.215927
 20
-6.097919
 11
152.077438
 21
-6.097919
  0
LINE
  8
0
 10
114.811569
 20
-6.386585
 11
115.205612
 21
-6.386585
  0
LINE
  8
0
 10
118.266037
 20
-6.386585
 11
123.922897
 21
-6.386585
  0
LINE
  8
0
 10
146.700180
 20
-6.386585
 11
152.357040
 21
-6.386585
  0
LINE
  8
0
 10
155.417526
 20
-6.386585
 11
155.811569
 21
-6.386585
  0
LINE
  8
0
 10
115.311569
 20
-6.097919
 11
115.745773
 21
-6.097919
  0
LINE
  8
0
 10
115.205566
 20
-6.386608
 11
115.745697
 21
-6.097946
  0
LINE
  8
0
 10
115.311569
 20
-28.097950
 11
115.311569
 21
-33.597919
  0
LINE
  8
0
 10
118.545700
 20
-6.097889
 11
118.266113
 21
-6.386539
  0
LINE
  8
0
 10
124.407211
 20
-6.097881
 11
123.922935
 21
-6.386547
  0
LINE
  8
0
 10
146.215942
 20
-6.097919
 11
146.700241
 21
-6.386600
  0
LINE
  8
0
 10
152.077454
 20
-6.097912
 11
152.357056
 21
-6.386585
  0
LINE
  8
0
 10
154.877365
 20
-6.097919
 11
155.311569
 21
-6.097919
  0
LINE
  8
0
 10
155.311569
 20
-28.097950
 11
155.311569
 21
-33.597919
  0
LINE
  8
0
 10
154.877396
 20
-6.097942
 11
155.417542
 21
-6.386620
  0
LINE
  8
0
 10
118.266037
 20
-28.097919
 11
124.407211
 21
-28.097919
  0
LINE
  8
0
 10
146.215927
 20
-28.097919
 11
152.357040
 21
-28.097919
  0
LINE
  8
0
 10
154.877365
 20
-28.097919
 11
155.811569
 21
-28.097919
  0
LINE
  8
0
 10
130.431381
 20
-31.097919
 11
140.191757
 21
-31.097919
  0
LINE
  8
0
 10
138.311569
 20
-22.097919
 11
138.311569
 21
-31.097919
  0
LINE
  8
0
 10
132.311569
 20
-22.097919
 11
132.311569
 21
-31.097919
  0
LINE
  8
0
 10
115.311569
 20
-33.597919
 11
145.689377
 21
-33.597919
  0
LINE
  8
0
 10
152.408371
 20
-28.147907
 11
152.408371
 21
-33.597919
  0
LINE
  8
0
 10
151.346237
 20
-29.097919
 11
151.346237
 21
-34.097919
  0
LINE
  8
0
 10
152.408340
 20
-28.147947
 11
151.346222
 21
-29.097937
  0
LINE
  8
0
 10
151.346237
 20
-29.097919
 11
145.689377
 21
-29.097919
  0
LINE
  8
0
 10
152.408371
 20
-28.147907
 11
145.689377
 21
-28.147907
  0
LINE
  8
0
 10
145.689377
 20
-28.147907
 11
145.689377
 21
-34.097919
  0
LINE
  8
0
 10
152.408371
 20
-33.597919
 11
155.311569
 21
-33.597919
  0
LINE
  8
0
 10
151.346237
 20
-34.097919
 11
154.811569
 21
-34.097919
  0
LINE
  8
0
 10
151.346191
 20
-34.097919
 11
152.408325
 21
-33.597916
  0
LINE
  8
0
 10
112.880783
 20
-51.097919
 11
157.681625
 21
-51.097919
  0
LINE
  8
0
 10
153.811569
 20
-34.097919
 11
153.811569
 21
-35.097889
  0
LINE
  8
0
 10
116.811569
 20
-34.097919
 11
116.811569
 21
-35.097889
  0
LINE
  8
0
 10
126.811569
 20
-83.097916
 11
143.811569
 21
-83.097916
  0
LINE
  8
0
 10
143.811569
 20
-71.097916
 11
143.811569
 21
-83.097946
  0
LINE
  8
0
 10
126.811569
 20
-71.097916
 11
126.811569
 21
-83.097946
  0
LINE
  8
0
 10
135.311569
 20
-71.097916
 11
135.311569
 21
-82.338730
  0
LINE
  8
0
 10
131.592636
 20
-25.597919
 11
139.034164
 21
-25.597919
  0
LINE
  8
0
 10
133.327255
 20
-25.347919
 11
137.295883
 21
-25.347919
  0
LINE
  8
0
 10
133.327255
 20
-25.847919
 11
137.295883
 21
-25.847919
  0
LINE
  8
0
 10
115.311569
 20
-36.097919
 11
115.311569
 21
-66.097916
  0
LINE
  8
0
 10
155.311569
 20
-36.097919
 11
155.311569
 21
-66.097916
  0
LINE
  8
0
 10
116.311569
 20
-67.097916
 11
154.311569
 21
-67.097916
  0
LINE
  8
0
 10
116.311569
 20
-35.097889
 11
154.311569
 21
-35.097889
  0
LINE
  8
0
 10
115.311523
 20
-36.097939
 11
116.311539
 21
-35.097916
  0
LINE
  8
0
 10
115.311600
 20
-66.097862
 11
116.311600
 21
-67.097862
  0
LINE
  8
0
 10
154.311569
 20
-67.097931
 11
155.311539
 21
-66.097946
  0
LINE
  8
0
 10
154.311584
 20
-35.097900
 11
155.311584
 21
-36.097900
  0
LINE
  8
0
 10
116.311569
 20
-35.097889
 11
116.311569
 21
-67.097916
  0
LINE
  8
0
 10
154.311569
 20
-35.097889
 11
154.311569
 21
-67.097916
  0
LINE
  8
0
 10
115.311569
 20
-66.097916
 11
155.311569
 21
-66.097916
  0
LINE
  8
0
 10
115.311569
 20
-36.097919
 11
155.311569
 21
-36.097919
  0
LINE
  8
0
 10
121.811569
 20
-71.097916
 11
148.811569
 21
-71.097916
  0
LINE
  8
0
 10
121.311569
 20
-68.097946
 11
121.311569
 21
-70.597946
  0
LINE
  8
0
 10
149.311569
 20
-68.097946
 11
149.311569
 21
-70.597946
  0
LINE
  8
0
 10
133.311569
 20
-68.097946
 11
133.311569
 21
-71.097916
  0
LINE
  8
0
 10
137.311569
 20
-68.097946
 11
137.311569
 21
-71.097916
  0
ARC
  8
0
 10
116.311569
 20
-4.097919
 40
1.000000
 50
90.000000
 51
180.000000
  0
ARC
  8
0
 10
154.311569
 20
-4.097919
 40
1.000000
 50
0.000000
 51
90.000000
  0
ARC
  8
0
 10
130.431381
 20
-29.097919
 40
2.000000
 50
180.000000
 51
270.000000
  0
ARC
  8
0
 10
140.191757
 20
-29.097919
 40
2.000000
 50
270.000000
 51
0.000000
  0
ARC
  8
0
 10
130.431381
 20
-8.097919
 40
2.000000
 50
90.000000
 51
180.000000
  0
ARC
  8
0
 10
140.191757
 20
-8.097919
 40
2.000000
 50
0.000000
 51
90.000000
  0
ARC
  8
0
 10
131.061569
 20
-70.822342
 40
12.275561
 50
249.743896
 51
290.256042
  0
ARC
  8
0
 10
139.561569
 20
-70.822342
 40
12.275558
 50
249.743927
 51
290.256042
  0
CIRCLE
  8
0
 10
135.311569
 20
-25.597919
 40
2.000000
  0
ARC
  8
0
 10
135.311569
 20
-25.597919
 40
1.650000
 50
8.714741
 51
171.285263
  0
ARC
  8
0
 10
135.311569
 20
-25.597919
 40
1.650000
 50
188.714737
 51
351.285248
  0
CIRCLE
  8
0
 10
135.311569
 20
-51.097919
 40
13.500000
  0
CIRCLE
  8
0
 10
135.311569
 20
-51.097919
 40
9.315500
  0
CIRCLE
  8
0
 10
135.311569
 20
-51.097919
 40
10.477500
  0
ARC
  8
0
 10
121.811569
 20
-70.597916
 40
0.500000
 50
180.000000
 51
270.000000
  0
ARC
  8
0
 10
148.811569
 20
-70.597916
 40
0.500000
 50
270.000000
 51
0.000000
  0
ARC
  8
0
 10
150.311569
 20
-68.097916
 40
1.000000
 50
90.000000
 51
180.000000
  0
ARC
  8
0
 10
120.311569
 20
-68.097916
 40
1.000000
 50
0.000000
 51
90.000000
  0
ARC
  8
0
 10
132.311569
 20
-68.097916
 40
1.000000
 50
0.000000
 51
90.000000
  0
ARC
  8
0
 10
138.311569
 20
-68.097916
 40
1.000000
 50
90.000000
 51
180.000000
  0
POINT
  8
0
 10
23.044510
 20
58.415428
  0
POINT
  8
0
 10
86.044510
 20
58.415428
  0
LINE
  8
0
 10
54.544510
 20
69.016502
 11
54.544510
 21
33.348137
  0
LINE
  8
0
 10
54.544510
 20
81.429192
 11
54.544510
 21
71.814354
  0
LINE
  8
0
 10
20.855850
 20
58.415428
 11
41.145645
 21
58.415428
  0
LINE
  8
0
 10
65.448853
 20
75.181366
 11
65.933075
 21
75.460937
  0
LINE
  8
0
 10
71.589783
 20
69.804214
 11
71.310181
 21
69.319931
  0
LINE
  8
0
 10
50.399788
 20
77.981232
 11
50.544525
 21
78.521385
  0
LINE
  8
0
 10
58.544479
 20
78.521400
 11
58.689213
 21
77.981247
  0
LINE
  8
0
 10
37.778629
 20
69.319786
 11
37.499023
 21
69.804077
  0
LINE
  8
0
 10
43.155853
 20
75.460968
 11
43.640137
 21
75.181366
  0
LINE
  8
0
 10
43.640167
 20
41.649551
 11
43.155884
 21
41.369949
  0
LINE
  8
0
 10
37.498951
 20
47.026871
 11
37.778553
 21
47.511154
  0
LINE
  8
0
 10
58.689178
 20
38.849693
 11
58.544437
 21
38.309513
  0
LINE
  8
0
 10
50.544250
 20
38.309395
 11
50.399513
 21
38.849556
  0
LINE
  8
0
 10
71.310287
 20
47.511017
 11
71.589897
 21
47.026726
  0
LINE
  8
0
 10
65.933044
 20
41.369717
 11
65.448730
 21
41.649334
  0
LINE
  8
0
 10
80.044510
 20
60.260735
 11
80.044510
 21
56.570152
  0
LINE
  8
0
 10
29.044510
 20
60.260735
 11
29.044510
 21
56.570152
  0
LINE
  8
0
 10
30.044537
 20
61.992809
 11
35.765198
 21
65.295631
  0
LINE
  8
0
 10
30.044510
 20
54.838062
 11
35.765144
 21
51.535252
  0
LINE
  8
0
 10
73.323792
 20
65.295578
 11
79.044449
 21
61.992756
  0
LINE
  8
0
 10
73.323837
 20
51.535252
 11
79.044502
 21
54.838078
  0
LINE
  8
0
 10
43.943375
 20
58.415428
 11
88.666275
 21
58.415428
  0
LINE
  8
0
 10
41.145645
 20
58.415428
 11
43.943375
 21
58.415428
  0
LINE
  8
0
 10
54.544510
 20
71.814354
 11
54.544510
 21
69.016502
  0
LINE
  8
0
 10
24.044449
 20
78.415428
 11
50.516129
 21
78.415428
  0
LINE
  8
0
 10
24.044449
 20
38.415428
 11
50.516129
 21
38.415428
  0
LINE
  8
0
 10
86.044510
 20
77.415443
 11
86.044510
 21
39.415428
  0
LINE
  8
0
 10
23.044510
 20
77.415443
 11
23.044510
 21
39.415428
  0
LINE
  8
0
 10
23.044580
 20
39.415462
 11
24.044582
 21
38.415466
  0
LINE
  8
0
 10
85.044563
 20
38.415421
 11
86.044540
 21
39.415401
  0
LINE
  8
0
 10
86.044624
 20
77.415527
 11
85.044601
 21
78.415550
  0
LINE
  8
0
 10
24.044510
 20
78.415428
 11
23.044487
 21
77.415405
  0
LINE
  8
0
 10
58.572891
 20
38.415428
 11
85.044510
 21
38.415428
  0
LINE
  8
0
 10
58.572891
 20
78.415428
 11
85.044510
 21
78.415428
  0
LINE
  8
0
 10
23.044510
 20
77.415443
 11
48.299454
 21
77.415443
  0
LINE
  8
0
 10
86.044510
 20
77.415443
 11
60.789444
 21
77.415443
  0
LINE
  8
0
 10
86.044510
 20
39.415428
 11
60.789444
 21
39.415428
  0
LINE
  8
0
 10
23.044510
 20
39.415428
 11
48.299454
 21
39.415428
  0
LINE
  8
0
 10
24.044510
 20
78.415428
 11
24.044510
 21
38.415428
  0
LINE
  8
0
 10
85.044510
 20
38.415428
 11
85.044510
 21
78.415428
  0
LINE
  8
0
 10
25.544510
 20
61.415443
 11
25.544510
 21
55.415428
  0
LINE
  8
0
 10
25.544518
 20
61.415417
 11
29.044561
 21
60.141502
  0
LINE
  8
0
 10
25.544458
 20
55.415421
 11
29.044447
 21
56.689312
  0
CIRCLE
  8
0
 10
54.544510
 20
58.415428
 40
20.000000
  0
ARC
  8
0
 10
54.544510
 20
58.415428
 40
20.500000
 50
33.748158
 51
56.251842
  0
ARC
  8
0
 10
54.544510
 20
58.415428
 40
20.499996
 50
78.748146
 51
101.251869
  0
ARC
  8
0
 10
54.544510
 20
58.415428
 40
20.500000
 50
123.748154
 51
146.251862
  0
ARC
  8
0
 10
54.544510
 20
58.415428
 40
20.500002
 50
213.748169
 51
236.251862
  0
ARC
  8
0
 10
54.544510
 20
58.415428
 40
20.500002
 50
258.748169
 51
281.251862
  0
ARC
  8
0
 10
54.544510
 20
58.415428
 40
20.500000
 50
303.748169
 51
326.251862
  0
ARC
  8
0
 10
78.044510
 20
56.570152
 40
2.000001
 50
300.000000
 51
0.000000
  0
ARC
  8
0
 10
78.044510
 20
60.260735
 40
2.000000
 50
0.000000
 51
60.000015
  0
ARC
  8
0
 10
31.044510
 20
60.260735
 40
2.000001
 50
119.999985
 51
180.000000
  0
ARC
  8
0
 10
31.044510
 20
56.570152
 40
2.000000
 50
180.000000
 51
240.000015
  0
CIRCLE
  8
0
 10
54.544510
 20
58.415428
 40
19.049999
  0
ENDSEC
  0
EOF
