  0
SECTION
  2
HEADER
  9
$ACADVER
  1
AC1015
  9
$ACADMAINTVER
 70
    20
  9
$DWGCODEPAGE
  3
ANSI_932
  9
$INSBASE
 10
0.0
 20
0.0
 30
0.0
  9
$EXTMIN
 10
-281.25
 20
-195.0
 30
0.0
  9
$EXTMAX
 10
282.09985352
 20
195.5
 30
0.0
  9
$LIMMIN
 10
-297.0
 20
-210.0
  9
$LIMMAX
 10
297.0
 20
210.0
  9
$ORTHOMODE
 70
     0
  9
$REGENMODE
 70
     1
  9
$FILLMODE
 70
     1
  9
$QTEXTMODE
 70
     0
  9
$MIRRTEXT
 70
     1
  9
$LTSCALE
 40
1.0
  9
$ATTMODE
 70
     1
  9
$TEXTSIZE
 40
3.200000049999999
  9
$TRACEWID
 40
0.05
  9
$TEXTSTYLE
  7
MX_NOTE_STANDARD
  9
$CLAYER
  8
0
  9
$CELTYPE
  6
CONTINUOUS
  9
$CECOLOR
 62
   256
  9
$CELTSCALE
 40
1.0
  9
$DISPSILH
 70
     0
  9
$DIMSCALE
 40
1.0
  9
$DIMASZ
 40
2.5
  9
$DIMEXO
 40
1.5
  9
$DIMDLI
 40
3.75
  9
$DIMRND
 40
0.0
  9
$DIMDLE
 40
0.0
  9
$DIMEXE
 40
1.5
  9
$DIMTP
 40
0.0
  9
$DIMTM
 40
0.0
  9
$DIMTXT
 40
3.200000049999999
  9
$DIMCEN
 40
2.5
  9
$DIMTSZ
 40
0.0
  9
$DIMTOL
 70
     0
  9
$DIMLIM
 70
     0
  9
$DIMTIH
 70
     0
  9
$DIMTOH
 70
     0
  9
$DIMSE1
 70
     0
  9
$DIMSE2
 70
     0
  9
$DIMTAD
 70
     1
  9
$DIMZIN
 70
     8
  9
$DIMBLK
  1

  9
$DIMASO
 70
     1
  9
$DIMSHO
 70
     1
  9
$DIMPOST
  1

  9
$DIMAPOST
  1

  9
$DIMALT
 70
     0
  9
$DIMALTD
 70
     4
  9
$DIMALTF
 40
0.03937008
  9
$DIMLFAC
 40
1.0
  9
$DIMTOFL
 70
     1
  9
$DIMTVP
 40
0.0
  9
$DIMTIX
 70
     0
  9
$DIMSOXD
 70
     0
  9
$DIMSAH
 70
     1
  9
$DIMBLK1
  1
OPEN30
  9
$DIMBLK2
  1
OPEN30
  9
$DIMSTYLE
  2
MXDIMSTYLE
  9
$DIMCLRD
 70
     0
  9
$DIMCLRE
 70
     0
  9
$DIMCLRT
 70
     0
  9
$DIMTFAC
 40
1.0
  9
$DIMGAP
 40
1.0
  9
$DIMJUST
 70
     0
  9
$DIMSD1
 70
     0
  9
$DIMSD2
 70
     0
  9
$DIMTOLJ
 70
     0
  9
$DIMTZIN
 70
     0
  9
$DIMALTZ
 70
     0
  9
$DIMALTTZ
 70
     0
  9
$DIMUPT
 70
     1
  9
$DIMDEC
 70
     2
  9
$DIMTDEC
 70
     2
  9
$DIMALTU
 70
     2
  9
$DIMALTTD
 70
     4
  9
$DIMTXSTY
  7
MX_NOTE_STANDARD
  9
$DIMAUNIT
 70
     0
  9
$DIMADEC
 70
     0
  9
$DIMALTRND
 40
0.0
  9
$DIMAZIN
 70
     0
  9
$DIMDSEP
 70
    46
  9
$DIMATFIT
 70
     3
  9
$DIMFRAC
 70
     0
  9
$DIMLDRBLK
  1
OPEN30
  9
$DIMLUNIT
 70
     2
  9
$DIMLWD
 70
    -2
  9
$DIMLWE
 70
    -2
  9
$DIMTMOVE
 70
     0
  9
$LUNITS
 70
     2
  9
$LUPREC
 70
     4
  9
$SKETCHINC
 40
0.1
  9
$FILLETRAD
 40
0.0
  9
$AUNITS
 70
     0
  9
$AUPREC
 70
     0
  9
$MENU
  1
acad
  9
$ELEVATION
 40
0.0
  9
$PELEVATION
 40
0.0
  9
$THICKNESS
 40
0.0
  9
$LIMCHECK
 70
     0
  9
$CHAMFERA
 40
0.0
  9
$CHAMFERB
 40
0.0
  9
$CHAMFERC
 40
0.0
  9
$CHAMFERD
 40
0.0
  9
$SKPOLY
 70
     0
  9
$TDCREATE
 40
2454481.537175926
  9
$TDUCREATE
 40
2454481.162175926
  9
$TDUPDATE
 40
2454495.733438796
  9
$TDUUPDATE
 40
2454495.358438796
  9
$TDINDWG
 40
0.0018001620
  9
$TDUSRTIMER
 40
0.0018001620
  9
$USRTIMER
 70
     1
  9
$ANGBASE
 50
0.0
  9
$ANGDIR
 70
     0
  9
$PDMODE
 70
     0
  9
$PDSIZE
 40
0.0
  9
$PLINEWID
 40
0.0
  9
$SPLFRAME
 70
     0
  9
$SPLINETYPE
 70
     6
  9
$SPLINESEGS
 70
     8
  9
$HANDSEED
  5
28A
  9
$SURFTAB1
 70
     6
  9
$SURFTAB2
 70
     6
  9
$SURFTYPE
 70
     6
  9
$SURFU
 70
     6
  9
$SURFV
 70
     6
  9
$UCSBASE
  2

  9
$UCSNAME
  2

  9
$UCSORG
 10
0.0
 20
0.0
 30
0.0
  9
$UCSXDIR
 10
1.0
 20
0.0
 30
0.0
  9
$UCSYDIR
 10
0.0
 20
1.0
 30
0.0
  9
$UCSORTHOREF
  2

  9
$UCSORTHOVIEW
 70
     0
  9
$UCSORGTOP
 10
0.0
 20
0.0
 30
0.0
  9
$UCSORGBOTTOM
 10
0.0
 20
0.0
 30
0.0
  9
$UCSORGLEFT
 10
0.0
 20
0.0
 30
0.0
  9
$UCSORGRIGHT
 10
0.0
 20
0.0
 30
0.0
  9
$UCSORGFRONT
 10
0.0
 20
0.0
 30
0.0
  9
$UCSORGBACK
 10
0.0
 20
0.0
 30
0.0
  9
$PUCSBASE
  2

  9
$PUCSNAME
  2

  9
$PUCSORG
 10
0.0
 20
0.0
 30
0.0
  9
$PUCSXDIR
 10
1.0
 20
0.0
 30
0.0
  9
$PUCSYDIR
 10
0.0
 20
1.0
 30
0.0
  9
$PUCSORTHOREF
  2

  9
$PUCSORTHOVIEW
 70
     0
  9
$PUCSORGTOP
 10
0.0
 20
0.0
 30
0.0
  9
$PUCSORGBOTTOM
 10
0.0
 20
0.0
 30
0.0
  9
$PUCSORGLEFT
 10
0.0
 20
0.0
 30
0.0
  9
$PUCSORGRIGHT
 10
0.0
 20
0.0
 30
0.0
  9
$PUCSORGFRONT
 10
0.0
 20
0.0
 30
0.0
  9
$PUCSORGBACK
 10
0.0
 20
0.0
 30
0.0
  9
$USERI1
 70
     0
  9
$USERI2
 70
     0
  9
$USERI3
 70
     0
  9
$USERI4
 70
     0
  9
$USERI5
 70
     0
  9
$USERR1
 40
0.0
  9
$USERR2
 40
0.0
  9
$USERR3
 40
0.0
  9
$USERR4
 40
0.0
  9
$USERR5
 40
0.0
  9
$WORLDVIEW
 70
     1
  9
$SHADEDGE
 70
     3
  9
$SHADEDIF
 70
    70
  9
$TILEMODE
 70
     1
  9
$MAXACTVP
 70
    16
  9
$PINSBASE
 10
0.0
 20
0.0
 30
0.0
  9
$PLIMCHECK
 70
     0
  9
$PEXTMIN
 10
1.000000000000000E+20
 20
1.000000000000000E+20
 30
1.000000000000000E+20
  9
$PEXTMAX
 10
-1.000000000000000E+20
 20
-1.000000000000000E+20
 30
-1.000000000000000E+20
  9
$PLIMMIN
 10
0.0
 20
0.0
  9
$PLIMMAX
 10
12.0
 20
9.0
  9
$UNITMODE
 70
     0
  9
$VISRETAIN
 70
     0
  9
$PLINEGEN
 70
     1
  9
$PSLTSCALE
 70
     0
  9
$TREEDEPTH
 70
  3020
  9
$CMLSTYLE
  2
STANDARD
  9
$CMLJUST
 70
     0
  9
$CMLSCALE
 40
1.0
  9
$PROXYGRAPHICS
 70
     1
  9
$MEASUREMENT
 70
     0
  9
$CELWEIGHT
370
    -1
  9
$ENDCAPS
280
     0
  9
$JOINSTYLE
280
     0
  9
$LWDISPLAY
290
     0
  9
$INSUNITS
 70
     0
  9
$HYPERLINKBASE
  1

  9
$STYLESHEET
  1

  9
$XEDIT
290
     1
  9
$CEPSNTYPE
380
     0
  9
$PSTYLEMODE
290
     1
  9
$FINGERPRINTGUID
  2
{43B8BC12-DFB9-49D6-96B5-B1A731E3FCD6}
  9
$VERSIONGUID
  2
{A45CDCB6-C599-4934-AD84-F0A306946B35}
  9
$EXTNAMES
290
     1
  9
$PSVPSCALE
 40
0.0
  9
$OLESTARTUP
290
     0
  0
ENDSEC
  0
SECTION
  2
CLASSES
  0
CLASS
  1
IMAGE
  2
AcDbRasterImage
  3
ISM
 90
    32895
280
     0
281
     1
  0
CLASS
  1
DICTIONARYVAR
  2
AcDbDictionaryVar
  3
ObjectDBX Classes
 90
        0
280
     0
281
     0
  0
CLASS
  1
RASTERVARIABLES
  2
AcDbRasterVariables
  3
ISM
 90
    32768
280
     0
281
     0
  0
CLASS
  1
IMAGEDEF
  2
AcDbRasterImageDef
  3
ISM
 90
    32768
280
     0
281
     0
  0
CLASS
  1
IMAGEDEF_REACTOR
  2
AcDbRasterImageDefReactor
  3
ISM
 90
    32769
280
     0
281
     0
  0
CLASS
  1
IDBUFFER
  2
AcDbIdBuffer
  3
ObjectDBX Classes
 90
    32768
280
     0
281
     0
  0
CLASS
  1
SPATIAL_FILTER
  2
AcDbSpatialFilter
  3
ObjectDBX Classes
 90
    32768
280
     0
281
     0
  0
CLASS
  1
SORTENTSTABLE
  2
AcDbSortentsTable
  3
ObjectDBX Classes
 90
    32768
280
     0
281
     0
  0
CLASS
  1
LAYER_INDEX
  2
AcDbLayerIndex
  3
ObjectDBX Classes
 90
    32768
280
     0
281
     0
  0
CLASS
  1
SPATIAL_INDEX
  2
AcDbSpatialIndex
  3
ObjectDBX Classes
 90
    32768
280
     0
281
     0
  0
CLASS
  1
OBJECT_PTR
  2
CAseDLPNTableRecord
  3
"ASE-LPNTableRecord"
 90
    32769
280
     0
281
     0
  0
CLASS
  1
LAYOUT
  2
AcDbLayout
  3
ObjectDBX Classes
 90
        0
280
     0
281
     0
  0
CLASS
  1
PLOTSETTINGS
  2
AcDbPlotSettings
  3
ObjectDBX Classes
 90
    32768
280
     0
281
     0
  0
CLASS
  1
ACDBDICTIONARYWDFLT
  2
AcDbDictionaryWithDefault
  3
ObjectDBX Classes
 90
        0
280
     0
281
     0
  0
CLASS
  1
ACDBPLACEHOLDER
  2
AcDbPlaceHolder
  3
ObjectDBX Classes
 90
        0
280
     0
281
     0
  0
CLASS
  1
TABLESTYLE
  2
AcDbTableStyle
  3
ObjectDBX Classes
 90
     2047
280
     0
281
     0
  0
ENDSEC
  0
SECTION
  2
TABLES
  0
TABLE
  2
VPORT
  5
7
330
0
100
AcDbSymbolTable
 70
     2
  0
VPORT
  5
283
330
7
100
AcDbSymbolTableRecord
100
AcDbViewportTableRecord
  2
*Active
 70
     0
 10
0.0
 20
0.0
 11
1.0
 21
1.0
 12
61.00083936479018
 22
-64.59478145250864
 13
0.0
 23
0.0
 14
1.0
 24
1.0
 15
0.0
 25
0.0
 16
0.0
 26
0.0
 36
1.0
 17
0.0
 27
0.0
 37
0.0
 40
658.6229190902506
 41
1.540229885057471
 42
50.0
 43
0.0
 44
0.0
 50
0.0
 51
0.0
 71
     0
 72
   100
 73
     1
 74
     1
 75
     0
 76
     0
 77
     0
 78
     0
281
     0
 65
     1
110
0.0
120
0.0
130
0.0
111
1.0
121
0.0
131
0.0
112
0.0
122
1.0
132
0.0
 79
     0
146
0.0
  0
ENDTAB
  0
TABLE
  2
LTYPE
  5
4
330
0
100
AcDbSymbolTable
 70
     3
  0
LTYPE
  5
11
330
4
100
AcDbSymbolTableRecord
100
AcDbLinetypeTableRecord
  2
BYBLOCK
 70
     0
  3

 72
    65
 73
     0
 40
0.0
  0
LTYPE
  5
12
330
4
100
AcDbSymbolTableRecord
100
AcDbLinetypeTableRecord
  2
BYLAYER
 70
     0
  3

 72
    65
 73
     0
 40
0.0
  0
LTYPE
  5
13
330
4
100
AcDbSymbolTableRecord
100
AcDbLinetypeTableRecord
  2
CONTINUOUS
 70
     0
  3
Solid line
 72
    65
 73
     0
 40
0.0
  0
LTYPE
  5
55
330
4
100
AcDbSymbolTableRecord
100
AcDbLinetypeTableRecord
  2
DASHED
 70
     0
  3
Dashed __ __ __ __ __ __ __ __ __ __ __ __ __ _
 72
    65
 73
     2
 40
19.05
 49
12.7
 74
     0
 49
-6.349999999999999
 74
     0
  0
LTYPE
  5
D0
330
4
100
AcDbSymbolTableRecord
100
AcDbLinetypeTableRecord
  2
CENTER
 70
     0
  3
Center ____ _ ____ _ ____ _ ____ _ ____ _ ____
 72
    65
 73
     4
 40
50.8
 49
31.75
 74
     0
 49
-6.349999999999999
 74
     0
 49
6.349999999999999
 74
     0
 49
-6.349999999999999
 74
     0
  0
ENDTAB
  0
TABLE
  2
LAYER
  5
2
330
0
100
AcDbSymbolTable
 70
     2
  0
LAYER
  5
14
330
2
100
AcDbSymbolTableRecord
100
AcDbLayerTableRecord
  2
0
 70
     0
 62
     7
  6
CONTINUOUS
370
    -3
390
14A
  0
LAYER
  5
1D
330
2
100
AcDbSymbolTableRecord
100
AcDbLayerTableRecord
  2
DEFPOINTS
 70
     0
 62
     7
  6
CONTINUOUS
290
     0
370
    -3
390
14A
  0
ENDTAB
  0
TABLE
  2
STYLE
  5
3
330
0
100
AcDbSymbolTable
 70
     2
  0
STYLE
  5
17
330
3
100
AcDbSymbolTableRecord
100
AcDbTextStyleTableRecord
  2
MX_NOTE_STANDARD
 70
     0
 40
0.0
 41
1.0
 50
0.0
 71
     0
 42
3.200000049999999
  3
txt.shx
  4
extfont.shx
  0
STYLE
  5
148
330
3
100
AcDbSymbolTableRecord
100
AcDbTextStyleTableRecord
  2
Standard
 70
     0
 40
0.0
 41
1.0
 50
0.0
 71
     0
 42
0.2
  3

  4

  0
ENDTAB
  0
TABLE
  2
VIEW
  5
5
330
0
100
AcDbSymbolTable
 70
     0
  0
ENDTAB
  0
TABLE
  2
UCS
  5
6
330
0
100
AcDbSymbolTable
 70
     0
  0
ENDTAB
  0
TABLE
  2
APPID
  5
8
330
0
100
AcDbSymbolTable
 70
     1
  0
APPID
  5
16
330
8
100
AcDbSymbolTableRecord
100
AcDbRegAppTableRecord
  2
ACAD
 70
     0
  0
ENDTAB
  0
TABLE
  2
DIMSTYLE
  5
9
330
0
100
AcDbSymbolTable
 70
     1
100
AcDbDimStyleTable
 71
     0
  0
DIMSTYLE
105
18
330
9
100
AcDbSymbolTableRecord
100
AcDbDimStyleTableRecord
  2
MXDIMSTYLE
 70
     0
 41
2.5
 42
1.5
 43
3.75
 44
1.5
 73
     0
 74
     0
 77
     1
 78
     8
140
3.200000049999999
141
2.5
143
0.03937008
147
1.0
171
     4
172
     1
173
     1
271
     2
272
     2
274
     4
283
     0
288
     1
340
17
341
1E
343
1E
344
1E
  0
ENDTAB
  0
TABLE
  2
BLOCK_RECORD
  5
1
330
0
100
AcDbSymbolTable
 70
     5
  0
BLOCK_RECORD
  5
A
330
1
100
AcDbSymbolTableRecord
100
AcDbBlockTableRecord
  2
*MODEL_SPACE
340
151
  0
BLOCK_RECORD
  5
B
330
1
100
AcDbSymbolTableRecord
100
AcDbBlockTableRecord
  2
*PAPER_SPACE
340
152
  0
BLOCK_RECORD
  5
1E
330
1
100
AcDbSymbolTableRecord
100
AcDbBlockTableRecord
  2
_OPEN30
340
0
  0
BLOCK_RECORD
  5
156
330
1
100
AcDbSymbolTableRecord
100
AcDbBlockTableRecord
  2
EWHRT40A-1
340
0
310
2800000020000000200000000100080000000000000400000000000000000000000000000000000000000000000080000080000000808000800000008000800080800000C0C0C000C0DCC000F0CAA6000020400000206000002080000020A0000020C0000020E00000400000004020000040400000406000004080000040A0
310
000040C0000040E00000600000006020000060400000606000006080000060A0000060C0000060E00000800000008020000080400000806000008080000080A0000080C0000080E00000A0000000A0200000A0400000A0600000A0800000A0A00000A0C00000A0E00000C0000000C0200000C0400000C0600000C0800000C0
310
A00000C0C00000C0E00000E0000000E0200000E0400000E0600000E0800000E0A00000E0C00000E0E00040000000400020004000400040006000400080004000A0004000C0004000E00040200000402020004020400040206000402080004020A0004020C0004020E000404000004040200040404000404060004040800040
310
40A0004040C0004040E00040600000406020004060400040606000406080004060A0004060C0004060E00040800000408020004080400040806000408080004080A0004080C0004080E00040A0000040A0200040A0400040A0600040A0800040A0A00040A0C00040A0E00040C0000040C0200040C0400040C0600040C08000
310
40C0A00040C0C00040C0E00040E0000040E0200040E0400040E0600040E0800040E0A00040E0C00040E0E00080000000800020008000400080006000800080008000A0008000C0008000E00080200000802020008020400080206000802080008020A0008020C0008020E00080400000804020008040400080406000804080
310
008040A0008040C0008040E00080600000806020008060400080606000806080008060A0008060C0008060E00080800000808020008080400080806000808080008080A0008080C0008080E00080A0000080A0200080A0400080A0600080A0800080A0A00080A0C00080A0E00080C0000080C0200080C0400080C0600080C0
310
800080C0A00080C0C00080C0E00080E0000080E0200080E0400080E0600080E0800080E0A00080E0C00080E0E000C0000000C0002000C0004000C0006000C0008000C000A000C000C000C000E000C0200000C0202000C0204000C0206000C0208000C020A000C020C000C020E000C0400000C0402000C0404000C0406000C0
310
408000C040A000C040C000C040E000C0600000C0602000C0604000C0606000C0608000C060A000C060C000C060E000C0800000C0802000C0804000C0806000C0808000C080A000C080C000C080E000C0A00000C0A02000C0A04000C0A06000C0A08000C0A0A000C0A0C000C0A0E000C0C00000C0C02000C0C04000C0C06000
310
C0C08000C0C0A000F0FBFF00A4A0A000808080000000FF0000FF000000FFFF00FF000000FF00FF00FFFF0000FFFFFF00FFFFFFFFFFFFFFFFFFFFFFFFFFFFFFFFFFFFFFFFFFFFFFFFFFFFFFFFFFFFFFFFFFFFFFFFFFFFFFFFFFFFFFFFFBFFFFFFFFFFFFFFFFFFFFFFFFFFFFFFFFFFFFFFFFFFFFFFFFFFFFFFFFFFFF000000FF
310
FFFBFFFFFFFFFFFFFFFFFFFFFFFFFFFFFFFFFFFFFFFFFFFFFFFF0000000000000000000000000000FFFFFFFFFFFFFFFFFFFFFFFFFFFFFFFFFF00FBFFFFFBFFFFFFFBFFFFFFFFFFFB00FFFFFFFFFFFFFFFFFFFFFFFFFFFFFFFF0000FFFFFFFFFFFFFBFFFFFFFFFF0000FFFFFFFFFFFFFFFFFFFFFFFFFFFFFFFF0000FBFFFFFF
310
FFFFFBFFFFFFFFFB0000FFFFFFFFFFFFFFFFFFFFFFFFFFFFFFFF0000FFFFFFFFFFFFFBFFFFFFFFFF0000FFFFFFFFFFFFFFFFFFFFFFFFFFFFFFFF00FFFFFFFFFFFFFFFBFFFFFFFFFFFF00FFFFFFFFFFFFFFFFFFFFFFFFFFFFFFFF00FFFFFFFF000000000000FFFFFFFF00FFFFFFFFFFFFFFFFFFFFFFFFFFFFFFFF00FFFF0000
310
FFFFFBFBFFFF0000FFFF00FFFFFFFFFFFFFFFFFFFFFFFFFFFFFFFF00FF00FFFFFBFB00FBFBFBFFFB00FF00FFFFFFFFFFFFFFFFFFFFFFFFFFFFFFFF00FF00FBFBFFFFFFFBFFFFFBFB00FF00FFFFFFFFFFFFFFFFFFFFFFFFFFFFFFFF0000FBFFFFFFFFFFFBFFFBFFFFFB0000FFFFFFFFFFFFFFFFFFFFFFFFFFFFFFFF0000FBFF
310
FFFF00000000FFFFFFFB0000FFFFFFFFFFFFFFFFFFFFFFFFFFFFFFFF00FFFBFFFFFF000000FF00FFFFFBFF00FFFFFFFFFFFFFFFFFFFFFFFFFFFFFFFF0000FBFBFB0000FBFB0000FBFBFB0000FFFFFFFFFFFFFFFFFFFFFFFFFFFFFFFF00FFFBFFFFFF000000FF00FFFFFBFF00FFFFFFFFFFFFFFFFFFFFFFFFFFFFFFFF0000FB
310
FFFFFF00FFFB00FFFFFFFB0000FFFFFFFFFFFFFFFFFFFFFFFFFFFFFFFF0000FBFFFFFFFF0000FFFFFFFFFB0000FFFFFFFFFFFFFFFFFFFFFFFFFFFFFFFF00FF00FBFBFFFFFFFBFFFFFBFB00FF00FFFFFFFFFFFFFFFFFFFFFFFFFFFFFFFF00FF00FFFFFBFBFBFBFFFBFFFF00FF00FFFFFFFFFFFFFFFFFFFFFFFFFFFFFFFF00FF
310
FF0000FFFFFBFBFBFF0000FFFF00FFFFFFFFFFFFFFFFFFFFFFFFFFFFFFFF00FFFFFFFF000000000000FFFFFFFF00FFFFFFFFFFFFFFFFFFFFFFFFFFFFFFFF00FFFFFFFFFFFFFFFBFFFFFFFFFFFF00FFFFFFFFFFFFFFFFFFFFFFFFFFFFFFFF0000FFFFFFFFFFFFFBFFFFFFFFFF0000FFFFFFFFFFFFFFFFFFFFFFFFFFFFFFFF00
310
00FBFFFFFFFFFFFBFFFFFFFFFB0000FFFFFFFFFFFFFFFFFFFFFFFFFFFFFFFF0000FFFFFFFFFFFFFBFFFFFFFFFFFB00FFFFFFFFFFFFFFFFFFFFFFFFFFFFFFFFFB00FFFFFFFFFFFFFBFFFFFFFFFFFB00FFFFFFFFFFFFFFFFFFFFFFFFFFFFFFFFFFFB000000000000000000000000FBFFFFFFFFFFFFFFFFFFFFFFFFFFFFFFFFFF
310
FFFFFFFFFFFFFFFFFBFFFFFFFFFFFFFFFFFFFFFFFFFFFFFFFFFFFFFFFFFFFFFFFFFFFFFFFFFFFFFFFFFFFFFFFFFFFFFFFFFFFFFFFFFFFFFF
102
{BLKREFS
331
1C6
102
}
  0
BLOCK_RECORD
  5
1C7
330
1
100
AcDbSymbolTableRecord
100
AcDbBlockTableRecord
  2
EWHRT40A-2
340
0
310
2800000020000000200000000100080000000000000400000000000000000000000000000000000000000000000080000080000000808000800000008000800080800000C0C0C000C0DCC000F0CAA6000020400000206000002080000020A0000020C0000020E00000400000004020000040400000406000004080000040A0
310
000040C0000040E00000600000006020000060400000606000006080000060A0000060C0000060E00000800000008020000080400000806000008080000080A0000080C0000080E00000A0000000A0200000A0400000A0600000A0800000A0A00000A0C00000A0E00000C0000000C0200000C0400000C0600000C0800000C0
310
A00000C0C00000C0E00000E0000000E0200000E0400000E0600000E0800000E0A00000E0C00000E0E00040000000400020004000400040006000400080004000A0004000C0004000E00040200000402020004020400040206000402080004020A0004020C0004020E000404000004040200040404000404060004040800040
310
40A0004040C0004040E00040600000406020004060400040606000406080004060A0004060C0004060E00040800000408020004080400040806000408080004080A0004080C0004080E00040A0000040A0200040A0400040A0600040A0800040A0A00040A0C00040A0E00040C0000040C0200040C0400040C0600040C08000
310
40C0A00040C0C00040C0E00040E0000040E0200040E0400040E0600040E0800040E0A00040E0C00040E0E00080000000800020008000400080006000800080008000A0008000C0008000E00080200000802020008020400080206000802080008020A0008020C0008020E00080400000804020008040400080406000804080
310
008040A0008040C0008040E00080600000806020008060400080606000806080008060A0008060C0008060E00080800000808020008080400080806000808080008080A0008080C0008080E00080A0000080A0200080A0400080A0600080A0800080A0A00080A0C00080A0E00080C0000080C0200080C0400080C0600080C0
310
800080C0A00080C0C00080C0E00080E0000080E0200080E0400080E0600080E0800080E0A00080E0C00080E0E000C0000000C0002000C0004000C0006000C0008000C000A000C000C000C000E000C0200000C0202000C0204000C0206000C0208000C020A000C020C000C020E000C0400000C0402000C0404000C0406000C0
310
408000C040A000C040C000C040E000C0600000C0602000C0604000C0606000C0608000C060A000C060C000C060E000C0800000C0802000C0804000C0806000C0808000C080A000C080C000C080E000C0A00000C0A02000C0A04000C0A06000C0A08000C0A0A000C0A0C000C0A0E000C0C00000C0C02000C0C04000C0C06000
310
C0C08000C0C0A000F0FBFF00A4A0A000808080000000FF0000FF000000FFFF00FF000000FF00FF00FFFF0000FFFFFF00FFFFFFFFFFFFFFFFFFFFFFFFFFFFFFFFFFFFFFFFFFFFFFFFFFFFFFFFFFFFFFFFFFFFFFFFFFFFFFFFFFFFFFFFFFFFFFFF00000000FFFFFFFFFFFFFFFFFFFFFFFFFFFFFFFFFFFFFFFFFFFFFFFFFFFFFF
310
FF0000000000FFFFFFFFFFFFFFFFFFFFFFFFFFFFFFFFFFFFFFFFFF00000000000000000000000000FFFFFFFFFFFFFFFFFFFFFFFFFFFFFFFFFFFFFF0000FFFFFFFFFFFFFFFFFF0000FFFFFFFFFFFFFFFFFFFFFFFFFFFFFFFFFFFFFF00000000000000000000000000FFFFFFFFFFFFFFFFFFFFFFFFFFFFFFFFFFFFFF0000FFFF
310
FFFFFFFFFFFFFF0000FFFFFFFFFFFFFFFFFFFFFFFFFFFFFFFFFFFFFF0000FFFFFFFFFFFFFFFFFF0000FFFFFFFFFFFFFFFFFFFFFFFFFFFFFFFFFFFFFF0000FFFFFFFFFFFFFFFFFF0000FFFFFFFFFFFFFFFFFFFFFFFFFFFFFFFFFFFF000000FFFFFFFFFFFFFFFFFF0000FFFFFFFFFFFFFFFFFFFFFFFFFFFFFFFFFFFF000000FF
310
FFFFFFFFFFFFFFFF0000FFFFFFFFFFFFFFFFFFFFFFFFFFFFFFFFFFFF000000FFFFFFFFFFFFFFFFFF0000FFFFFFFFFFFFFFFFFFFFFFFFFFFFFFFFFFFF000000FFFFFFFFFFFFFFFFFF0000FFFFFFFFFFFFFFFFFFFFFFFFFFFFFFFFFFFF000000FFFFFFFFFFFFFFFFFF0000FFFFFFFFFFFFFFFFFFFFFFFFFFFFFFFFFFFF000000
310
FFFFFFFFFFFFFFFFFF0000FFFFFFFFFFFFFFFFFFFFFFFFFFFFFFFFFFFF000000FBFBFBFBFBFBFBFBFB0000FFFFFFFFFFFFFFFFFFFFFFFFFFFFFFFFFFFBFBFBFBFBFBFBFBFBFBFBFBFBFBFBFBFFFFFFFFFFFFFFFFFFFFFFFFFFFFFFFFFF000000FFFFFFFFFFFFFFFFFF0000FFFFFFFFFFFFFFFFFFFFFFFFFFFFFFFFFFFF0000
310
00FBFBFBFBFBFBFBFBFB0000FFFFFFFFFFFFFFFFFFFFFFFFFFFFFFFFFFFF000000FFFFFFFFFFFFFFFFFF0000FFFFFFFFFFFFFFFFFFFFFFFFFFFFFFFFFFFF000000FFFFFFFFFFFFFFFFFF0000FFFFFFFFFFFFFFFFFFFFFFFFFFFFFFFFFFFF000000FFFFFFFFFFFFFFFFFF0000FFFFFFFFFFFFFFFFFFFFFFFFFFFFFFFFFFFF00
310
0000FFFFFFFFFFFFFFFFFF0000FFFFFFFFFFFFFFFFFFFFFFFFFFFFFFFFFFFF000000FFFFFFFFFFFFFFFFFF0000FFFFFFFFFFFFFFFFFFFFFFFFFFFFFFFFFFFF000000FFFFFFFFFFFFFFFFFF0000FFFFFFFFFFFFFFFFFFFFFFFFFFFFFFFFFFFFFF0000FFFFFFFFFFFFFFFFFF0000FFFFFFFFFFFFFFFFFFFFFFFFFFFFFFFFFFFF
310
FF0000FFFFFFFFFFFFFFFFFF0000FFFFFFFFFFFFFFFFFFFFFFFFFFFFFFFFFFFFFF0000FFFFFFFFFFFFFFFFFF0000FFFFFFFFFFFFFFFFFFFFFFFFFFFFFFFFFFFFFF00000000000000000000000000FFFFFFFFFFFFFFFFFFFFFFFFFFFFFFFFFFFFFF0000FFFFFFFFFFFFFFFFFF0000FFFFFFFFFFFFFFFFFFFFFFFFFFFFFFFFFF
310
FFFF00000000000000000000000000FFFFFFFFFFFFFFFFFFFFFFFFFFFFFFFFFFFFFFFFFFFFFFFFFFFFFFFFFFFFFFFFFFFFFFFFFFFFFFFFFF
102
{BLKREFS
331
1EA
102
}
  0
BLOCK_RECORD
  5
1EB
330
1
100
AcDbSymbolTableRecord
100
AcDbBlockTableRecord
  2
EWHRT40A-3
340
0
310
2800000020000000200000000100080000000000000400000000000000000000000000000000000000000000000080000080000000808000800000008000800080800000C0C0C000C0DCC000F0CAA6000020400000206000002080000020A0000020C0000020E00000400000004020000040400000406000004080000040A0
310
000040C0000040E00000600000006020000060400000606000006080000060A0000060C0000060E00000800000008020000080400000806000008080000080A0000080C0000080E00000A0000000A0200000A0400000A0600000A0800000A0A00000A0C00000A0E00000C0000000C0200000C0400000C0600000C0800000C0
310
A00000C0C00000C0E00000E0000000E0200000E0400000E0600000E0800000E0A00000E0C00000E0E00040000000400020004000400040006000400080004000A0004000C0004000E00040200000402020004020400040206000402080004020A0004020C0004020E000404000004040200040404000404060004040800040
310
40A0004040C0004040E00040600000406020004060400040606000406080004060A0004060C0004060E00040800000408020004080400040806000408080004080A0004080C0004080E00040A0000040A0200040A0400040A0600040A0800040A0A00040A0C00040A0E00040C0000040C0200040C0400040C0600040C08000
310
40C0A00040C0C00040C0E00040E0000040E0200040E0400040E0600040E0800040E0A00040E0C00040E0E00080000000800020008000400080006000800080008000A0008000C0008000E00080200000802020008020400080206000802080008020A0008020C0008020E00080400000804020008040400080406000804080
310
008040A0008040C0008040E00080600000806020008060400080606000806080008060A0008060C0008060E00080800000808020008080400080806000808080008080A0008080C0008080E00080A0000080A0200080A0400080A0600080A0800080A0A00080A0C00080A0E00080C0000080C0200080C0400080C0600080C0
310
800080C0A00080C0C00080C0E00080E0000080E0200080E0400080E0600080E0800080E0A00080E0C00080E0E000C0000000C0002000C0004000C0006000C0008000C000A000C000C000C000E000C0200000C0202000C0204000C0206000C0208000C020A000C020C000C020E000C0400000C0402000C0404000C0406000C0
310
408000C040A000C040C000C040E000C0600000C0602000C0604000C0606000C0608000C060A000C060C000C060E000C0800000C0802000C0804000C0806000C0808000C080A000C080C000C080E000C0A00000C0A02000C0A04000C0A06000C0A08000C0A0A000C0A0C000C0A0E000C0C00000C0C02000C0C04000C0C06000
310
C0C08000C0C0A000F0FBFF00A4A0A000808080000000FF0000FF000000FFFF00FF000000FF00FF00FFFF0000FFFFFF00FFFFFFFFFFFFFFFFFFFFFFFFFFFFFFFFFFFFFFFFFFFFFFFFFFFFFFFFFFFFFFFFFFFFFFFFFFFFFFFFFFFFFFFFFFFFFFFFFFFFFFFBFFFFFFFFFFFFFFFFFFFFFFFFFFFFFFFFFFFFFFFFFFFFFFFFFFFFFF
310
FFFBFF00FB00FFFFFFFFFFFFFFFFFFFFFFFFFFFFFFFFFFFFFFFF00000000000000FB000000000000FFFFFFFFFFFFFFFFFFFFFFFFFFFFFFFFFF0000FBFFFFFFFFFFFBFFFFFBFFFF0000FFFFFFFFFFFFFFFFFFFFFFFFFFFFFFFF0000FFFFFFFFFFFFFBFFFFFFFFFF0000FFFFFFFFFFFFFFFFFFFFFFFFFFFFFFFF000000FFFFFF
310
FFFFFBFFFFFFFFFB0000FFFFFFFFFFFFFFFFFFFFFFFFFFFFFFFF0000FFFFFFFFFFFFFBFFFFFFFFFF0000FFFFFFFFFFFFFFFFFFFFFFFFFFFFFFFF00FFFFFFFFFFFFFFFBFFFFFFFFFFFF00FFFFFFFFFFFFFFFFFFFFFFFFFFFFFFFF00FFFFFFFFFFFFFFFBFFFFFFFFFFFF00FFFFFFFFFFFFFFFFFFFFFFFFFFFFFFFF00FFFFFFFF
310
FFFFFFFBFFFFFFFFFFFF00FFFFFFFFFFFFFFFFFFFFFFFFFFFFFFFF00FFFFFFFFFFFFFFFBFFFFFFFFFFFF00FFFFFFFFFFFFFFFFFFFFFFFFFFFFFFFF00FFFFFFFFFFFFFFFBFFFFFFFFFFFF00FFFFFFFFFFFFFFFFFFFFFFFFFFFFFFFF00FFFFFFFFFFFFFFFBFFFFFFFFFFFF00FFFFFFFFFFFFFFFFFFFFFFFFFFFFFFFF00FFFFFF
310
FFFFFFFFFBFFFFFFFFFFFF00FFFFFFFFFFFFFFFFFFFFFFFFFFFFFFFF00FFFFFFFFFFFF00FBFFFFFFFBFBFF00FFFFFFFFFFFFFFFFFFFFFFFFFFFFFFFFFBFB0000FBFBFBFBFBFBFBFB00FBFBFBFFFFFFFFFFFFFFFFFFFFFFFFFFFFFFFF00FFFFFFFFFFFF00FBFFFFFFFBFBFF00FFFFFFFFFFFFFFFFFFFFFFFFFFFFFFFF00FFFF
310
FFFFFFFFFFFBFFFFFFFFFFFF00FFFFFFFFFFFFFFFFFFFFFFFFFFFFFFFF00FFFFFFFFFFFFFFFBFFFFFFFFFFFF00FFFFFFFFFFFFFFFFFFFFFFFFFFFFFFFF00FFFFFFFFFFFFFFFBFFFFFFFFFFFF00FFFFFFFFFFFFFFFFFFFFFFFFFFFFFFFF00FFFFFFFFFFFFFFFBFFFFFFFFFFFF00FFFFFFFFFFFFFFFFFFFFFFFFFFFFFFFF00FF
310
FFFFFFFFFFFFFBFFFFFFFFFFFF00FFFFFFFFFFFFFFFFFFFFFFFFFFFFFFFF00FFFFFFFFFFFFFFFBFFFFFFFFFFFF00FFFFFFFFFFFFFFFFFFFFFFFFFFFFFFFF00FFFFFFFFFFFFFFFBFFFFFFFFFFFF00FFFFFFFFFFFFFFFFFFFFFFFFFFFFFFFF0000FFFFFFFFFFFFFBFFFFFFFFFF0000FFFFFFFFFFFFFFFFFFFFFFFFFFFFFFFF00
310
0000FFFFFFFFFFFBFFFFFFFFFB0000FFFFFFFFFFFFFFFFFFFFFFFFFFFFFFFF0000FFFFFFFFFFFFFBFFFFFFFFFF0000FFFFFFFFFFFFFFFFFFFFFFFFFFFFFFFF00FBFBFFFFFFFFFFFBFFFFFFFFFF0000FFFFFFFFFFFFFFFFFFFFFFFFFFFFFFFFFF00000000000000FB000000000000FFFFFFFFFFFFFFFFFFFFFFFFFFFFFFFFFF
310
FFFFFFFFFFFFFFFFFBFFFFFFFFFFFFFFFFFFFFFFFFFFFFFFFFFFFFFFFFFFFFFFFFFFFFFFFFFFFFFFFFFFFFFFFFFFFFFFFFFFFFFFFFFFFFFF
102
{BLKREFS
331
23E
102
}
  0
BLOCK_RECORD
  5
23F
330
1
100
AcDbSymbolTableRecord
100
AcDbBlockTableRecord
  2
EWHRT40A-4
340
0
310
2800000020000000200000000100080000000000000400000000000000000000000000000000000000000000000080000080000000808000800000008000800080800000C0C0C000C0DCC000F0CAA6000020400000206000002080000020A0000020C0000020E00000400000004020000040400000406000004080000040A0
310
000040C0000040E00000600000006020000060400000606000006080000060A0000060C0000060E00000800000008020000080400000806000008080000080A0000080C0000080E00000A0000000A0200000A0400000A0600000A0800000A0A00000A0C00000A0E00000C0000000C0200000C0400000C0600000C0800000C0
310
A00000C0C00000C0E00000E0000000E0200000E0400000E0600000E0800000E0A00000E0C00000E0E00040000000400020004000400040006000400080004000A0004000C0004000E00040200000402020004020400040206000402080004020A0004020C0004020E000404000004040200040404000404060004040800040
310
40A0004040C0004040E00040600000406020004060400040606000406080004060A0004060C0004060E00040800000408020004080400040806000408080004080A0004080C0004080E00040A0000040A0200040A0400040A0600040A0800040A0A00040A0C00040A0E00040C0000040C0200040C0400040C0600040C08000
310
40C0A00040C0C00040C0E00040E0000040E0200040E0400040E0600040E0800040E0A00040E0C00040E0E00080000000800020008000400080006000800080008000A0008000C0008000E00080200000802020008020400080206000802080008020A0008020C0008020E00080400000804020008040400080406000804080
310
008040A0008040C0008040E00080600000806020008060400080606000806080008060A0008060C0008060E00080800000808020008080400080806000808080008080A0008080C0008080E00080A0000080A0200080A0400080A0600080A0800080A0A00080A0C00080A0E00080C0000080C0200080C0400080C0600080C0
310
800080C0A00080C0C00080C0E00080E0000080E0200080E0400080E0600080E0800080E0A00080E0C00080E0E000C0000000C0002000C0004000C0006000C0008000C000A000C000C000C000E000C0200000C0202000C0204000C0206000C0208000C020A000C020C000C020E000C0400000C0402000C0404000C0406000C0
310
408000C040A000C040C000C040E000C0600000C0602000C0604000C0606000C0608000C060A000C060C000C060E000C0800000C0802000C0804000C0806000C0808000C080A000C080C000C080E000C0A00000C0A02000C0A04000C0A06000C0A08000C0A0A000C0A0C000C0A0E000C0C00000C0C02000C0C04000C0C06000
310
C0C08000C0C0A000F0FBFF00A4A0A000808080000000FF0000FF000000FFFF00FF000000FF00FF00FFFF0000FFFFFF00FFFFFFFFFFFFFFFFFFFFFFFFFFFFFFFFFFFFFFFFFFFFFFFFFFFFFFFFFFFFFFFFFFFFFFFFFFFFFFFFFFFFFFFFFFFFFFFFFFFFFFFFFFFFFFFFFFFFFFFFFFFFFFFFFFFFFFFFFFFFFFFFFFFFFFFFFFFFFF
310
FFFBFFFFFFFFFFFFFFFFFFFFFFFFFFFFFFFFFFFFFFFFFFFFFFFFFFFFFFFFFFFFFFFBFFFFFFFFFFFFFFFFFFFFFFFFFFFFFFFF000000000000000000000000000000FB0000000000000000000000000000FFFF000000000000000000000000000000FB0000000000000000000000000000FFFF00FFFF00FF0000FFFFFFFF00FB
310
FFFFFBFFFBFFFFFFFFFFFFFFFF00FFFF00FFFF00FFFF00FF0000FFFFFFFF00FBFFFFFBFFFBFFFFFFFFFFFFFFFF00FFFF00FFFF00FFFF00FF0000000000FF00FBFFFFFBFFFBFFFFFFFFFFFFFFFF00FFFF00FFFF00FFFF00FF00000000000000FBFFFFFBFFFBFFFFFFFFFFFFFFFF00FFFF00FFFF00FFFF00FF000000FF000000
310
FBFFFFFBFFFBFFFFFFFFFFFFFFFF00FFFF00FFFF00FFFF00FF000000FF000000FBFFFFFBFFFBFFFFFFFFFFFFFFFF00FFFF00FFFF00FFFF00FF000000FF000000FBFFFFFBFFFBFFFFFFFFFFFFFFFF00FFFF00FFFF00FFFF00FF000000FF000000FBFFFFFBFFFBFFFFFFFFFFFFFFFF00FFFF00FFFF00FFFF00FF000000000000
310
00FBFFFFFBFFFBFFFFFFFFFFFFFFFF00FFFF00FFFF00FFFF00FF0000000000FF00FBFFFFFBFFFBFFFFFFFFFFFFFFFF00FFFF00FFFF00FFFF00FF00000000000000FBFFFFFBFFFBFFFFFFFFFFFFFFFF00FFFF00FFFF00FFFF00FFFFFFFFFFFFFFFFFBFFFFFBFFFBFFFFFFFFFFFFFFFF00FFFF00FFFF00FFFF00FFFFFFFFFFFF
310
FFFFFBFFFFFBFFFBFFFFFFFFFFFFFFFF00FFFF00FFFF00FFFF00FFFFFFFFFFFFFFFFFBFFFFFBFFFBFFFFFFFFFFFFFFFF00FFFF00FFFF00FFFF00FFFFFFFFFFFFFFFFFBFFFFFBFFFBFFFFFFFFFFFFFFFF00FFFF00FFFF00FFFF00FFFFFFFFFFFFFFFFFBFFFFFBFFFBFFFFFFFFFFFFFFFF00FFFF00FFFF00FFFF00FFFFFFFFFF
310
FFFFFFFBFFFFFBFFFBFFFFFFFFFFFFFFFF00FFFF00FFFF000000000000000000000000000000FB0000000000000000000000000000FFFF00FFFF00FFFFFFFFFFFFFFFFFBFFFFFBFFFBFFFFFFFFFFFFFFFF00FFFF00FFFF000000000000000000000000000000FB0000000000000000000000000000FFFFFF00FFFFFFFFFFFF
310
FFFFFFFFFBFFFFFBFFFBFFFFFFFFFFFFFFFFFFFF00FFFFFFFF0000000000000000000000000000FB00000000000000000000000000FFFFFFFFFFFFFFFFFFFFFFFFFFFFFFFFFFFFFBFFFFFFFFFFFFFFFFFFFFFFFFFFFFFFFFFFFFFFFFFFFFFFFFFFFFFFFFFFFFFFFBFFFFFFFFFFFFFFFFFFFFFFFFFFFFFFFFFFFFFFFFFFFFFF
310
FFFFFFFFFFFFFFFFFFFFFFFFFFFFFFFFFFFFFFFFFFFFFFFFFFFFFFFFFFFFFFFFFFFFFFFFFFFFFFFFFFFFFFFFFFFFFFFFFFFFFFFFFFFFFFFF
102
{BLKREFS
331
27E
102
}
  0
ENDTAB
  0
ENDSEC
  0
SECTION
  2
BLOCKS
  0
BLOCK
  5
D
330
A
100
AcDbEntity
  8
0
100
AcDbBlockBegin
  2
*MODEL_SPACE
 70
     0
 10
0.0
 20
0.0
 30
0.0
  3
*MODEL_SPACE
  1

  0
ENDBLK
  5
E
330
A
100
AcDbEntity
  8
0
100
AcDbBlockEnd
  0
BLOCK
  5
F
330
B
100
AcDbEntity
 67
     1
  8
0
100
AcDbBlockBegin
  2
*PAPER_SPACE
 70
     0
 10
0.0
 20
0.0
 30
0.0
  3
*PAPER_SPACE
  1

  0
ENDBLK
  5
10
330
B
100
AcDbEntity
 67
     1
  8
0
100
AcDbBlockEnd
  0
BLOCK
  5
1F
330
1E
100
AcDbEntity
  8
0
 62
     0
100
AcDbBlockBegin
  2
_OPEN30
 70
     2
 10
0.0
 20
0.0
 30
0.0
  3
_OPEN30
  1

  0
LINE
  5
20
330
1E
100
AcDbEntity
  8
0
  6
ByBlock
 62
     0
100
AcDbLine
 10
-1.0
 20
0.267949
 30
0.0
 11
0.0
 21
0.0
 31
0.0
  0
LINE
  5
21
330
1E
100
AcDbEntity
  8
0
  6
ByBlock
 62
     0
100
AcDbLine
 10
0.0
 20
0.0
 30
0.0
 11
-1.0
 21
-0.267949
 31
0.0
  0
LINE
  5
22
330
1E
100
AcDbEntity
  8
0
  6
ByBlock
 62
     0
100
AcDbLine
 10
0.0
 20
0.0
 30
0.0
 11
-1.0
 21
0.0
 31
0.0
  0
ENDBLK
  5
23
330
1E
100
AcDbEntity
  8
0
 62
     0
100
AcDbBlockEnd
  0
BLOCK
  5
157
330
156
100
AcDbEntity
  8
0
100
AcDbBlockBegin
  2
EWHRT40A-1
 70
     0
 10
0.0
 20
0.0
 30
0.0
  3
EWHRT40A-1
  1

  0
CIRCLE
  5
159
330
156
100
AcDbEntity
  8
0
  6
Continuous
 62
     7
100
AcDbCircle
 10
0.0000000000000284
 20
0.0
 30
0.0
 40
43.0
  0
CIRCLE
  5
15A
330
156
100
AcDbEntity
  8
0
  6
Continuous
 62
     7
100
AcDbCircle
 10
0.0000000000000284
 20
0.0
 30
0.0
 40
44.0
  0
CIRCLE
  5
15B
330
156
100
AcDbEntity
  8
0
  6
CENTER
 62
     2
100
AcDbCircle
 10
0.0000000000000284
 20
0.0
 30
0.0
 40
35.0
  0
LINE
  5
15C
330
156
100
AcDbEntity
  8
0
  6
Continuous
 62
     7
100
AcDbLine
 10
-15.34999999999996
 20
-86.0
 30
0.0
 11
-26.64999999999998
 21
-86.0
 31
0.0
  0
LINE
  5
15D
330
156
100
AcDbEntity
  8
0
  6
Continuous
 62
     7
100
AcDbLine
 10
-23.49999999999997
 20
-86.0
 30
0.0
 11
-23.49999999999997
 21
-77.0
 31
0.0
  0
LINE
  5
15E
330
156
100
AcDbEntity
  8
0
  6
Continuous
 62
     7
100
AcDbLine
 10
-18.49999999999997
 20
-86.0
 30
0.0
 11
-18.49999999999997
 21
-77.0
 31
0.0
  0
LINE
  5
15F
330
156
100
AcDbEntity
  8
0
  6
Continuous
 62
     2
100
AcDbLine
 10
-20.99999999999997
 20
-87.86995064
 30
0.0
 11
-20.99999999999997
 21
-73.51942305
 31
0.0
  0
LINE
  5
160
330
156
100
AcDbEntity
  8
0
  6
Continuous
 62
     7
100
AcDbLine
 10
-15.34999999999996
 20
-86.0
 30
0.0
 11
-15.34999999999996
 21
-77.0
 31
0.0
  0
LINE
  5
161
330
156
100
AcDbEntity
  8
0
  6
Continuous
 62
     7
100
AcDbLine
 10
-26.64999999999998
 20
-86.0
 30
0.0
 11
-26.64999999999998
 21
-77.0
 31
0.0
  0
ARC
  5
162
330
156
100
AcDbEntity
  8
0
  6
Continuous
 62
     7
100
AcDbCircle
 10
-41.99999999999997
 20
62.99999999999999
 30
0.0
 40
4.0
100
AcDbArc
 50
90.0
 51
180.0
  0
LINE
  5
163
330
156
100
AcDbEntity
  8
0
  6
Continuous
 62
     7
100
AcDbLine
 10
-40.99999999999996
 20
67.0
 30
0.0
 11
-41.99999999999997
 21
67.0
 31
0.0
  0
LINE
  5
164
330
156
100
AcDbEntity
  8
0
  6
Continuous
 62
     7
100
AcDbLine
 10
-36.24999999999997
 20
71.75
 30
0.0
 11
-36.24999999999997
 21
73.0
 31
0.0
  0
ARC
  5
165
330
156
100
AcDbEntity
  8
0
  6
Continuous
 62
     7
100
AcDbCircle
 10
-40.99999999999996
 20
71.75
 30
0.0
 40
4.75
100
AcDbArc
 50
270.0
 51
0.0
  0
ARC
  5
166
330
156
100
AcDbEntity
  8
0
  6
Continuous
 62
     7
100
AcDbCircle
 10
-32.24999999999997
 20
73.0
 30
0.0
 40
4.0
100
AcDbArc
 50
90.0
 51
180.0
  0
LINE
  5
167
330
156
100
AcDbEntity
  8
0
  6
Continuous
 62
     2
100
AcDbLine
 10
-40.99999999999996
 20
76.75
 30
0.0
 11
-40.99999999999996
 21
67.25
 31
0.0
  0
LINE
  5
168
330
156
100
AcDbEntity
  8
0
  6
Continuous
 62
     2
100
AcDbLine
 10
-36.24999999999997
 20
72.0
 30
0.0
 11
-45.74999999999997
 21
72.0
 31
0.0
  0
CIRCLE
  5
169
330
156
100
AcDbEntity
  8
0
  6
Continuous
 62
     7
100
AcDbCircle
 10
-40.99999999999996
 20
72.0
 30
0.0
 40
2.75
  0
LINE
  5
16A
330
156
100
AcDbEntity
  8
0
  6
Continuous
 62
     2
100
AcDbLine
 10
41.00000000000001
 20
76.75
 30
0.0
 11
41.00000000000001
 21
67.25
 31
0.0
  0
CIRCLE
  5
16B
330
156
100
AcDbEntity
  8
0
  6
Continuous
 62
     7
100
AcDbCircle
 10
41.00000000000001
 20
72.0
 30
0.0
 40
2.75
  0
LINE
  5
16C
330
156
100
AcDbEntity
  8
0
  6
Continuous
 62
     7
100
AcDbLine
 10
41.00000000000001
 20
67.0
 30
0.0
 11
42.00000000000001
 21
67.0
 31
0.0
  0
ARC
  5
16D
330
156
100
AcDbEntity
  8
0
  6
Continuous
 62
     7
100
AcDbCircle
 10
42.00000000000001
 20
62.99999999999999
 30
0.0
 40
4.0
100
AcDbArc
 50
0.0
 51
90.0
  0
LINE
  5
16E
330
156
100
AcDbEntity
  8
0
  6
Continuous
 62
     2
100
AcDbLine
 10
36.25000000000002
 20
72.0
 30
0.0
 11
45.75000000000001
 21
72.0
 31
0.0
  0
ARC
  5
16F
330
156
100
AcDbEntity
  8
0
  6
Continuous
 62
     7
100
AcDbCircle
 10
41.00000000000001
 20
71.75
 30
0.0
 40
4.75
100
AcDbArc
 50
180.0
 51
270.0
  0
LINE
  5
170
330
156
100
AcDbEntity
  8
0
  6
Continuous
 62
     7
100
AcDbLine
 10
36.25000000000002
 20
71.75
 30
0.0
 11
36.25000000000002
 21
73.0
 31
0.0
  0
ARC
  5
171
330
156
100
AcDbEntity
  8
0
  6
Continuous
 62
     7
100
AcDbCircle
 10
32.25000000000001
 20
73.0
 30
0.0
 40
4.0
100
AcDbArc
 50
0.0
 51
90.0
  0
ARC
  5
172
330
156
100
AcDbEntity
  8
0
  6
Continuous
 62
     7
100
AcDbCircle
 10
41.25000000000001
 20
72.25
 30
0.0
 40
4.75
100
AcDbArc
 50
0.0
 51
90.0
  0
LINE
  5
173
330
156
100
AcDbEntity
  8
0
  6
Continuous
 62
     7
100
AcDbLine
 10
41.25000000000001
 20
77.0
 30
0.0
 11
-41.24999999999997
 21
77.0
 31
0.0
  0
ARC
  5
174
330
156
100
AcDbEntity
  8
0
  6
Continuous
 62
     7
100
AcDbCircle
 10
-41.24999999999997
 20
72.25
 30
0.0
 40
4.75
100
AcDbArc
 50
90.0
 51
180.0
  0
CIRCLE
  5
175
330
156
100
AcDbEntity
  8
0
  6
Continuous
 62
     7
100
AcDbCircle
 10
0.0000000000000284
 20
0.0
 30
0.0
 40
8.5
  0
CIRCLE
  5
176
330
156
100
AcDbEntity
  8
0
  6
Continuous
 62
     7
100
AcDbCircle
 10
0.0000000000000284
 20
0.0
 30
0.0
 40
15.0
  0
CIRCLE
  5
177
330
156
100
AcDbEntity
  8
0
  6
Continuous
 62
     7
100
AcDbCircle
 10
35.00000000000002
 20
0.0
 30
0.0
 40
2.2
  0
CIRCLE
  5
178
330
156
100
AcDbEntity
  8
0
  6
Continuous
 62
     2
100
AcDbCircle
 10
35.00000000000002
 20
0.0
 30
0.0
 40
2.5
  0
CIRCLE
  5
179
330
156
100
AcDbEntity
  8
0
  6
Continuous
 62
     7
100
AcDbCircle
 10
0.0000000000000284
 20
-35.0
 30
0.0
 40
2.2
  0
CIRCLE
  5
17A
330
156
100
AcDbEntity
  8
0
  6
Continuous
 62
     2
100
AcDbCircle
 10
0.0000000000000284
 20
-35.0
 30
0.0
 40
2.5
  0
CIRCLE
  5
17B
330
156
100
AcDbEntity
  8
0
  6
Continuous
 62
     7
100
AcDbCircle
 10
-34.99999999999997
 20
0.0
 30
0.0
 40
2.2
  0
CIRCLE
  5
17C
330
156
100
AcDbEntity
  8
0
  6
Continuous
 62
     2
100
AcDbCircle
 10
-34.99999999999997
 20
0.0
 30
0.0
 40
2.5
  0
CIRCLE
  5
17D
330
156
100
AcDbEntity
  8
0
  6
Continuous
 62
     7
100
AcDbCircle
 10
0.0000000000000284
 20
35.0
 30
0.0
 40
2.2
  0
CIRCLE
  5
17E
330
156
100
AcDbEntity
  8
0
  6
Continuous
 62
     2
100
AcDbCircle
 10
0.0000000000000284
 20
35.0
 30
0.0
 40
2.5
  0
LINE
  5
17F
330
156
100
AcDbEntity
  8
0
  6
Continuous
 62
     7
100
AcDbLine
 10
25.45584412000002
 20
-22.627417
 30
0.0
 11
26.87005769000002
 21
-24.04163056
 31
0.0
  0
LINE
  5
180
330
156
100
AcDbEntity
  8
0
  6
Continuous
 62
     2
100
AcDbLine
 10
27.20316286000002
 20
-23.70852539
 30
0.0
 11
23.72134900000002
 21
-27.19033924
 31
0.0
  0
LINE
  5
181
330
156
100
AcDbEntity
  8
0
  6
Continuous
 62
     2
100
AcDbLine
 10
25.78894930000003
 20
-22.29431183
 30
0.0
 11
22.30713544000002
 21
-25.77612568000001
 31
0.0
  0
ARC
  5
182
330
156
100
AcDbEntity
  8
0
  6
Continuous
 62
     7
100
AcDbCircle
 10
24.04163056000002
 20
-24.04163056
 30
0.0
 40
2.0
100
AcDbArc
 50
44.99999999999971
 51
224.9999999999997
  0
LINE
  5
183
330
156
100
AcDbEntity
  8
0
  6
Continuous
 62
     2
100
AcDbLine
 10
27.93071786000002
 20
-27.93071786
 30
0.0
 11
-2.689512979999989
 21
2.689512979999996
 31
0.0
  0
LINE
  5
184
330
156
100
AcDbEntity
  8
0
  6
Continuous
 62
     7
100
AcDbLine
 10
22.62741700000002
 20
-25.45584412
 30
0.0
 11
24.04163056000002
 21
-26.87005769000001
 31
0.0
  0
ARC
  5
185
330
156
100
AcDbEntity
  8
0
  6
Continuous
 62
     7
100
AcDbCircle
 10
25.45584412000002
 20
-25.45584412
 30
0.0
 40
2.0
100
AcDbArc
 50
224.9999999999997
 51
44.99999999999971
  0
LINE
  5
186
330
156
100
AcDbEntity
  8
0
  6
Continuous
 62
     2
100
AcDbLine
 10
48.00000000000001
 20
0.0
 30
0.0
 11
-47.99999999999997
 21
0.0
 31
0.0
  0
LINE
  5
187
330
156
100
AcDbEntity
  8
0
  6
Continuous
 62
     7
100
AcDbLine
 10
39.72631122000001
 20
-62.09233663
 30
0.0
 11
38.86028582000001
 21
-60.59233663
 31
0.0
  0
LINE
  5
188
330
156
100
AcDbEntity
  8
0
  6
Continuous
 62
     7
100
AcDbLine
 10
39.72631122000001
 20
-59.09233663000001
 30
0.0
 11
38.86028582000001
 21
-60.59233663
 31
0.0
  0
LINE
  5
189
330
156
100
AcDbEntity
  8
0
  6
Continuous
 62
     7
100
AcDbLine
 10
41.45836203000003
 20
-62.09233663
 30
0.0
 11
42.32438743000002
 21
-60.59233663
 31
0.0
  0
LINE
  5
18A
330
156
100
AcDbEntity
  8
0
  6
Continuous
 62
     7
100
AcDbLine
 10
41.45836203000003
 20
-59.09233663000001
 30
0.0
 11
42.32438743000002
 21
-60.59233663
 31
0.0
  0
LINE
  5
18B
330
156
100
AcDbEntity
  8
0
  6
Continuous
 62
     7
100
AcDbLine
 10
39.72631122000001
 20
-62.09233663
 30
0.0
 11
41.45836203000003
 21
-62.09233663
 31
0.0
  0
LINE
  5
18C
330
156
100
AcDbEntity
  8
0
  6
Continuous
 62
     7
100
AcDbLine
 10
39.72631122000001
 20
-59.09233663000001
 30
0.0
 11
41.45836203000003
 21
-59.09233663000001
 31
0.0
  0
CIRCLE
  5
18D
330
156
100
AcDbEntity
  8
0
  6
Continuous
 62
     7
100
AcDbCircle
 10
40.59233662000003
 20
-60.59233663
 30
0.0
 40
4.0
  0
LINE
  5
18E
330
156
100
AcDbEntity
  8
0
  6
Continuous
 62
     2
100
AcDbLine
 10
46.59233662000002
 20
-60.59233663
 30
0.0
 11
34.59233662000003
 21
-60.59233663
 31
0.0
  0
CIRCLE
  5
18F
330
156
100
AcDbEntity
  8
0
  6
Continuous
 62
     7
100
AcDbCircle
 10
40.59233662000003
 20
-60.59233663
 30
0.0
 40
3.5
  0
LINE
  5
190
330
156
100
AcDbEntity
  8
0
  6
Continuous
 62
     2
100
AcDbLine
 10
40.59233662000003
 20
-66.59233663000001
 30
0.0
 11
40.59233662000003
 21
-54.59233663
 31
0.0
  0
LINE
  5
191
330
156
100
AcDbEntity
  8
0
  6
Continuous
 62
     7
100
AcDbLine
 10
-41.45836202999999
 20
-62.09233663
 30
0.0
 11
-42.32438742999997
 21
-60.59233663
 31
0.0
  0
LINE
  5
192
330
156
100
AcDbEntity
  8
0
  6
Continuous
 62
     7
100
AcDbLine
 10
-41.45836202999999
 20
-59.09233663000001
 30
0.0
 11
-42.32438742999997
 21
-60.59233663
 31
0.0
  0
LINE
  5
193
330
156
100
AcDbEntity
  8
0
  6
Continuous
 62
     7
100
AcDbLine
 10
-39.72631121999999
 20
-62.09233663
 30
0.0
 11
-38.86028581999998
 21
-60.59233663
 31
0.0
  0
LINE
  5
194
330
156
100
AcDbEntity
  8
0
  6
Continuous
 62
     7
100
AcDbLine
 10
-39.72631121999999
 20
-59.09233663000001
 30
0.0
 11
-38.86028581999998
 21
-60.59233663
 31
0.0
  0
LINE
  5
195
330
156
100
AcDbEntity
  8
0
  6
Continuous
 62
     7
100
AcDbLine
 10
-41.45836202999999
 20
-62.09233663
 30
0.0
 11
-39.72631121999999
 21
-62.09233663
 31
0.0
  0
LINE
  5
196
330
156
100
AcDbEntity
  8
0
  6
Continuous
 62
     7
100
AcDbLine
 10
-41.45836202999999
 20
-59.09233663000001
 30
0.0
 11
-39.72631121999999
 21
-59.09233663000001
 31
0.0
  0
CIRCLE
  5
197
330
156
100
AcDbEntity
  8
0
  6
Continuous
 62
     7
100
AcDbCircle
 10
-40.59233661999996
 20
-60.59233663
 30
0.0
 40
4.0
  0
LINE
  5
198
330
156
100
AcDbEntity
  8
0
  6
Continuous
 62
     2
100
AcDbLine
 10
-34.59233661999997
 20
-60.59233663
 30
0.0
 11
-46.59233661999997
 21
-60.59233663
 31
0.0
  0
CIRCLE
  5
199
330
156
100
AcDbEntity
  8
0
  6
Continuous
 62
     7
100
AcDbCircle
 10
-40.59233661999996
 20
-60.59233663
 30
0.0
 40
3.5
  0
LINE
  5
19A
330
156
100
AcDbEntity
  8
0
  6
Continuous
 62
     2
100
AcDbLine
 10
-40.59233661999996
 20
-66.59233663000001
 30
0.0
 11
-40.59233661999996
 21
-54.59233663
 31
0.0
  0
LINE
  5
19B
330
156
100
AcDbEntity
  8
0
  6
Continuous
 62
     7
100
AcDbLine
 10
-41.45836202999999
 20
59.09233661999999
 30
0.0
 11
-42.32438742999997
 21
60.59233661999999
 31
0.0
  0
LINE
  5
19C
330
156
100
AcDbEntity
  8
0
  6
Continuous
 62
     7
100
AcDbLine
 10
-41.45836202999999
 20
62.09233661999999
 30
0.0
 11
-42.32438742999997
 21
60.59233661999999
 31
0.0
  0
LINE
  5
19D
330
156
100
AcDbEntity
  8
0
  6
Continuous
 62
     7
100
AcDbLine
 10
-39.72631121999999
 20
59.09233661999999
 30
0.0
 11
-38.86028581999998
 21
60.59233661999999
 31
0.0
  0
LINE
  5
19E
330
156
100
AcDbEntity
  8
0
  6
Continuous
 62
     7
100
AcDbLine
 10
-39.72631121999999
 20
62.09233661999999
 30
0.0
 11
-38.86028581999998
 21
60.59233661999999
 31
0.0
  0
LINE
  5
19F
330
156
100
AcDbEntity
  8
0
  6
Continuous
 62
     7
100
AcDbLine
 10
-41.45836202999999
 20
59.09233661999999
 30
0.0
 11
-39.72631121999999
 21
59.09233661999999
 31
0.0
  0
LINE
  5
1A0
330
156
100
AcDbEntity
  8
0
  6
Continuous
 62
     7
100
AcDbLine
 10
-41.45836202999999
 20
62.09233661999999
 30
0.0
 11
-39.72631121999999
 21
62.09233661999999
 31
0.0
  0
CIRCLE
  5
1A1
330
156
100
AcDbEntity
  8
0
  6
Continuous
 62
     7
100
AcDbCircle
 10
-40.59233661999996
 20
60.59233661999999
 30
0.0
 40
4.0
  0
LINE
  5
1A2
330
156
100
AcDbEntity
  8
0
  6
Continuous
 62
     2
100
AcDbLine
 10
-34.59233661999997
 20
60.59233661999999
 30
0.0
 11
-46.59233661999997
 21
60.59233661999999
 31
0.0
  0
CIRCLE
  5
1A3
330
156
100
AcDbEntity
  8
0
  6
Continuous
 62
     7
100
AcDbCircle
 10
-40.59233661999996
 20
60.59233661999999
 30
0.0
 40
3.5
  0
LINE
  5
1A4
330
156
100
AcDbEntity
  8
0
  6
Continuous
 62
     2
100
AcDbLine
 10
-40.59233661999996
 20
54.59233661999999
 30
0.0
 11
-40.59233661999996
 21
66.59233662
 31
0.0
  0
LINE
  5
1A5
330
156
100
AcDbEntity
  8
0
  6
Continuous
 62
     7
100
AcDbLine
 10
39.72631122000001
 20
59.09233661999999
 30
0.0
 11
38.86028582000001
 21
60.59233661999999
 31
0.0
  0
LINE
  5
1A6
330
156
100
AcDbEntity
  8
0
  6
Continuous
 62
     7
100
AcDbLine
 10
39.72631122000001
 20
62.09233661999999
 30
0.0
 11
38.86028582000001
 21
60.59233661999999
 31
0.0
  0
LINE
  5
1A7
330
156
100
AcDbEntity
  8
0
  6
Continuous
 62
     7
100
AcDbLine
 10
41.45836203000003
 20
59.09233661999999
 30
0.0
 11
42.32438743000002
 21
60.59233661999999
 31
0.0
  0
LINE
  5
1A8
330
156
100
AcDbEntity
  8
0
  6
Continuous
 62
     7
100
AcDbLine
 10
41.45836203000003
 20
62.09233661999999
 30
0.0
 11
42.32438743000002
 21
60.59233661999999
 31
0.0
  0
LINE
  5
1A9
330
156
100
AcDbEntity
  8
0
  6
Continuous
 62
     7
100
AcDbLine
 10
39.72631122000001
 20
59.09233661999999
 30
0.0
 11
41.45836203000003
 21
59.09233661999999
 31
0.0
  0
LINE
  5
1AA
330
156
100
AcDbEntity
  8
0
  6
Continuous
 62
     7
100
AcDbLine
 10
39.72631122000001
 20
62.09233661999999
 30
0.0
 11
41.45836203000003
 21
62.09233661999999
 31
0.0
  0
CIRCLE
  5
1AB
330
156
100
AcDbEntity
  8
0
  6
Continuous
 62
     7
100
AcDbCircle
 10
40.59233662000003
 20
60.59233661999999
 30
0.0
 40
4.0
  0
LINE
  5
1AC
330
156
100
AcDbEntity
  8
0
  6
Continuous
 62
     2
100
AcDbLine
 10
46.59233662000002
 20
60.59233661999999
 30
0.0
 11
34.59233662000003
 21
60.59233661999999
 31
0.0
  0
CIRCLE
  5
1AD
330
156
100
AcDbEntity
  8
0
  6
Continuous
 62
     7
100
AcDbCircle
 10
40.59233662000003
 20
60.59233661999999
 30
0.0
 40
3.5
  0
LINE
  5
1AE
330
156
100
AcDbEntity
  8
0
  6
Continuous
 62
     2
100
AcDbLine
 10
40.59233662000003
 20
54.59233661999999
 30
0.0
 11
40.59233662000003
 21
66.59233662
 31
0.0
  0
LINE
  5
1AF
330
156
100
AcDbEntity
  8
0
  6
Continuous
 62
     7
100
AcDbLine
 10
41.25000000000001
 20
-77.0
 30
0.0
 11
-41.24999999999997
 21
-77.0
 31
0.0
  0
LINE
  5
1B0
330
156
100
AcDbEntity
  8
0
  6
Continuous
 62
     2
100
AcDbLine
 10
0.0000000000000284
 20
-84.56910603
 30
0.0
 11
0.0000000000000284
 21
81.53831776999998
 31
0.0
  0
LINE
  5
1B1
330
156
100
AcDbEntity
  8
0
  6
Continuous
 62
     7
100
AcDbLine
 10
-45.99999999999996
 20
-62.0
 30
0.0
 11
-45.99999999999996
 21
72.25
 31
0.0
  0
LINE
  5
1B2
330
156
100
AcDbEntity
  8
0
  6
Continuous
 62
     7
100
AcDbLine
 10
46.00000000000001
 20
-72.25
 30
0.0
 11
46.00000000000001
 21
72.25
 31
0.0
  0
LINE
  5
1B3
330
156
100
AcDbEntity
  8
0
  6
Continuous
 62
     7
100
AcDbLine
 10
-45.99999999999996
 20
-72.25
 30
0.0
 11
-45.99999999999996
 21
-62.0
 31
0.0
  0
LINE
  5
1B4
330
156
100
AcDbEntity
  8
0
  6
Continuous
 62
     2
100
AcDbLine
 10
-40.99999999999996
 20
-76.75
 30
0.0
 11
-40.99999999999996
 21
-67.25
 31
0.0
  0
LINE
  5
1B5
330
156
100
AcDbEntity
  8
0
  6
Continuous
 62
     2
100
AcDbLine
 10
-36.24999999999997
 20
-72.0
 30
0.0
 11
-45.74999999999997
 21
-72.0
 31
0.0
  0
ARC
  5
1B6
330
156
100
AcDbEntity
  8
0
  6
Continuous
 62
     7
100
AcDbCircle
 10
-41.24999999999997
 20
-72.25
 30
0.0
 40
4.75
100
AcDbArc
 50
180.0
 51
270.0
  0
ARC
  5
1B7
330
156
100
AcDbEntity
  8
0
  6
Continuous
 62
     7
100
AcDbCircle
 10
-41.99999999999997
 20
-63.0
 30
0.0
 40
4.0
100
AcDbArc
 50
180.0
 51
270.0
  0
ARC
  5
1B8
330
156
100
AcDbEntity
  8
0
  6
Continuous
 62
     7
100
AcDbCircle
 10
-32.24999999999997
 20
-73.0
 30
0.0
 40
4.0
100
AcDbArc
 50
180.0
 51
270.0
  0
LINE
  5
1B9
330
156
100
AcDbEntity
  8
0
  6
Continuous
 62
     7
100
AcDbLine
 10
-40.99999999999996
 20
-67.0
 30
0.0
 11
-41.99999999999997
 21
-67.0
 31
0.0
  0
LINE
  5
1BA
330
156
100
AcDbEntity
  8
0
  6
Continuous
 62
     7
100
AcDbLine
 10
-36.24999999999997
 20
-71.75
 30
0.0
 11
-36.24999999999997
 21
-73.0
 31
0.0
  0
CIRCLE
  5
1BB
330
156
100
AcDbEntity
  8
0
  6
Continuous
 62
     7
100
AcDbCircle
 10
-40.99999999999996
 20
-72.0
 30
0.0
 40
2.75
  0
ARC
  5
1BC
330
156
100
AcDbEntity
  8
0
  6
Continuous
 62
     7
100
AcDbCircle
 10
-40.99999999999996
 20
-71.75
 30
0.0
 40
4.75
100
AcDbArc
 50
0.0
 51
90.0
  0
LINE
  5
1BD
330
156
100
AcDbEntity
  8
0
  6
Continuous
 62
     2
100
AcDbLine
 10
41.00000000000001
 20
-76.75
 30
0.0
 11
41.00000000000001
 21
-67.25
 31
0.0
  0
LINE
  5
1BE
330
156
100
AcDbEntity
  8
0
  6
Continuous
 62
     2
100
AcDbLine
 10
36.25000000000002
 20
-72.0
 30
0.0
 11
45.75000000000001
 21
-72.0
 31
0.0
  0
ARC
  5
1BF
330
156
100
AcDbEntity
  8
0
  6
Continuous
 62
     7
100
AcDbCircle
 10
41.25000000000001
 20
-72.25
 30
0.0
 40
4.75
100
AcDbArc
 50
270.0
 51
0.0
  0
ARC
  5
1C0
330
156
100
AcDbEntity
  8
0
  6
Continuous
 62
     7
100
AcDbCircle
 10
42.00000000000001
 20
-63.0
 30
0.0
 40
4.0
100
AcDbArc
 50
270.0
 51
0.0
  0
ARC
  5
1C1
330
156
100
AcDbEntity
  8
0
  6
Continuous
 62
     7
100
AcDbCircle
 10
32.25000000000001
 20
-73.0
 30
0.0
 40
4.0
100
AcDbArc
 50
270.0
 51
0.0
  0
ARC
  5
1C2
330
156
100
AcDbEntity
  8
0
  6
Continuous
 62
     7
100
AcDbCircle
 10
41.00000000000001
 20
-71.75
 30
0.0
 40
4.75
100
AcDbArc
 50
90.0
 51
180.0
  0
CIRCLE
  5
1C3
330
156
100
AcDbEntity
  8
0
  6
Continuous
 62
     7
100
AcDbCircle
 10
41.00000000000001
 20
-72.0
 30
0.0
 40
2.75
  0
LINE
  5
1C4
330
156
100
AcDbEntity
  8
0
  6
Continuous
 62
     7
100
AcDbLine
 10
36.25000000000002
 20
-71.75
 30
0.0
 11
36.25000000000002
 21
-73.0
 31
0.0
  0
LINE
  5
1C5
330
156
100
AcDbEntity
  8
0
  6
Continuous
 62
     7
100
AcDbLine
 10
41.00000000000001
 20
-67.0
 30
0.0
 11
42.00000000000001
 21
-67.0
 31
0.0
  0
ENDBLK
  5
158
330
156
100
AcDbEntity
  8
0
100
AcDbBlockEnd
  0
BLOCK
  5
1C8
330
1C7
100
AcDbEntity
  8
0
100
AcDbBlockBegin
  2
EWHRT40A-2
 70
     0
 10
0.0
 20
0.0
 30
0.0
  3
EWHRT40A-2
  1

  0
LINE
  5
1CA
330
1C7
100
AcDbEntity
  8
0
  6
Continuous
 62
     2
100
AcDbLine
 10
5.146798750000002
 20
0.0000000000000071
 30
0.0
 11
-82.94642028
 21
0.0000000000000071
 31
0.0
  0
LINE
  5
1CB
330
1C7
100
AcDbEntity
  8
0
  6
Continuous
 62
     7
100
AcDbLine
 10
-69.0
 20
-77.0
 30
0.0
 11
0.0
 21
-77.0
 31
0.0
  0
LINE
  5
1CC
330
1C7
100
AcDbEntity
  8
0
  6
Continuous
 62
     7
100
AcDbLine
 10
-69.0
 20
77.0
 30
0.0
 11
0.0
 21
77.0
 31
0.0
  0
LINE
  5
1CD
330
1C7
100
AcDbEntity
  8
0
  6
Continuous
 62
     7
100
AcDbLine
 10
-77.0
 20
43.0
 30
0.0
 11
-77.0
 21
-42.99999999999999
 31
0.0
  0
LINE
  5
1CE
330
1C7
100
AcDbEntity
  8
0
  6
Continuous
 62
     7
100
AcDbLine
 10
-70.0
 20
-43.99999999999999
 30
0.0
 11
-76.0
 21
-43.99999999999999
 31
0.0
  0
LINE
  5
1CF
330
1C7
100
AcDbEntity
  8
0
  6
Continuous
 62
     7
100
AcDbLine
 10
-70.0
 20
44.0
 30
0.0
 11
-76.0
 21
44.0
 31
0.0
  0
LINE
  5
1D0
330
1C7
100
AcDbEntity
  8
0
  6
Continuous
 62
     7
100
AcDbLine
 10
-69.0
 20
-77.0
 30
0.0
 11
-69.0
 21
77.0
 31
0.0
  0
LINE
  5
1D1
330
1C7
100
AcDbEntity
  8
0
  6
Continuous
 62
     7
100
AcDbLine
 10
-63.0
 20
-77.0
 30
0.0
 11
-63.0
 21
77.0
 31
0.0
  0
LINE
  5
1D2
330
1C7
100
AcDbEntity
  8
0
  6
Continuous
 62
     7
100
AcDbLine
 10
-6.0
 20
-77.0
 30
0.0
 11
-6.0
 21
77.0
 31
0.0
  0
LINE
  5
1D3
330
1C7
100
AcDbEntity
  8
0
  6
Continuous
 62
     7
100
AcDbLine
 10
0.0
 20
-77.0
 30
0.0
 11
0.0
 21
77.0
 31
0.0
  0
LINE
  5
1D4
330
1C7
100
AcDbEntity
  8
0
  6
DASHED
 62
     2
100
AcDbLine
 10
-77.0
 20
15.00000000000001
 30
0.0
 11
-75.0
 21
15.00000000000001
 31
0.0
  0
LINE
  5
1D5
330
1C7
100
AcDbEntity
  8
0
  6
DASHED
 62
     2
100
AcDbLine
 10
-77.0
 20
-14.99999999999999
 30
0.0
 11
-75.0
 21
-14.99999999999999
 31
0.0
  0
LINE
  5
1D6
330
1C7
100
AcDbEntity
  8
0
  6
DASHED
 62
     2
100
AcDbLine
 10
-75.0
 20
15.00000000000001
 30
0.0
 11
-75.0
 21
-14.99999999999999
 31
0.0
  0
LINE
  5
1D7
330
1C7
100
AcDbEntity
  8
0
  6
Continuous
 62
     7
100
AcDbLine
 10
-69.0
 20
67.5
 30
0.0
 11
-6.0
 21
67.5
 31
0.0
  0
LINE
  5
1D8
330
1C7
100
AcDbEntity
  8
0
  6
Continuous
 62
     7
100
AcDbLine
 10
-69.0
 20
-67.5
 30
0.0
 11
-6.0
 21
-67.5
 31
0.0
  0
LINE
  5
1D9
330
1C7
100
AcDbEntity
  8
0
  6
DASHED
 62
     2
100
AcDbLine
 10
-75.0
 20
8.500000000000007
 30
0.0
 11
0.0
 21
8.500000000000007
 31
0.0
  0
LINE
  5
1DA
330
1C7
100
AcDbEntity
  8
0
  6
DASHED
 62
     2
100
AcDbLine
 10
-75.0
 20
-8.499999999999992
 30
0.0
 11
0.0
 21
-8.499999999999992
 31
0.0
  0
LINE
  5
1DB
330
1C7
100
AcDbEntity
  8
0
  6
Continuous
 62
     7
100
AcDbLine
 10
-76.0
 20
44.0
 30
0.0
 11
-77.0
 21
43.0
 31
0.0
  0
LINE
  5
1DC
330
1C7
100
AcDbEntity
  8
0
  6
Continuous
 62
     7
100
AcDbLine
 10
-76.0
 20
-43.99999999999999
 30
0.0
 11
-77.0
 21
-42.99999999999999
 31
0.0
  0
SPLINE
  5
1DD
330
1C7
100
AcDbEntity
  8
0
  6
Continuous
 62
     7
100
AcDbSpline
210
0.0
220
0.0
230
1.0
 70
     8
 71
     3
 72
    10
 73
     6
 74
     4
 42
0.0000000001
 43
0.0000000001
 44
0.000001
 12
-0.5438108039556981
 22
0.8392078464248635
 32
0.0
 13
0.3065723032774058
 23
0.9518473737229021
 33
0.0
 40
0.0
 40
0.0
 40
0.0
 40
0.0
 40
1.802776146228347
 40
8.031109531637167
 40
10.56755759090744
 40
10.56755759090744
 40
10.56755759090744
 40
10.56755759090744
 10
-34.35000000285325
 20
-86.00000000214382
 30
0.0
 10
-34.67678971799745
 20
-85.49569870638968
 30
0.0
 10
-36.02723573513516
 20
-83.21305409082288
 30
0.0
 10
-39.55199764364257
 20
-80.96914610802386
 30
0.0
 10
-39.14173678291738
 20
-77.80477047674414
 30
0.0
 10
-38.88253520835938
 20
-77.00000000214382
 30
0.0
 11
-34.35000000285325
 21
-86.00000000214382
 31
0.0
 11
-35.35000000285325
 21
-84.50000000214382
 31
0.0
 11
-39.10000000285325
 21
-79.5271094206054
 31
0.0
 11
-38.88253520835938
 21
-77.00000000214382
 31
0.0
  0
LINE
  5
1DE
330
1C7
100
AcDbEntity
  8
0
  6
Continuous
 62
     7
100
AcDbLine
 10
-34.35
 20
-86.0
 30
0.0
 11
-16.75
 21
-86.0
 31
0.0
  0
LINE
  5
1DF
330
1C7
100
AcDbEntity
  8
0
  6
Continuous
 62
     7
100
AcDbLine
 10
-34.35
 20
-84.50000000000001
 30
0.0
 11
-16.75
 21
-84.50000000000001
 31
0.0
  0
SPLINE
  5
1E0
330
1C7
100
AcDbEntity
  8
0
  6
Continuous
 62
     7
100
AcDbSpline
210
0.0
220
0.0
230
1.0
 70
     8
 71
     3
 72
     9
 73
     5
 74
     3
 42
0.0000000001
 43
0.0000000001
 44
0.000001
 12
-0.7551907116965701
 22
0.6555051403057247
 32
0.0
 13
-0.3090023160412483
 23
0.9510612854496521
 33
0.0
 40
0.0
 40
0.0
 40
0.0
 40
0.0
 40
1.414213855359732
 40
5.420770437511316
 40
5.420770437511316
 40
5.420770437511316
 40
5.420770437511316
 10
-34.35000000285325
 20
-84.50000000214382
 30
0.0
 10
-34.70600039216001
 20
-84.19099185158385
 30
0.0
 10
-35.99092648326207
 20
-82.91472479059828
 30
0.0
 10
-36.88732158177486
 20
-81.27016028655978
 30
0.0
 10
-37.30000000285324
 20
-80.00000000214383
 30
0.0
 11
-34.35000000285325
 21
-84.50000000214382
 31
0.0
 11
-35.35000000285325
 21
-83.50000000214382
 31
0.0
 11
-37.30000000285324
 21
-80.00000000214383
 31
0.0
  0
LINE
  5
1E1
330
1C7
100
AcDbEntity
  8
0
  6
Continuous
 62
     7
100
AcDbLine
 10
-34.35
 20
-86.0
 30
0.0
 11
-34.35
 21
-77.0
 31
0.0
  0
LINE
  5
1E2
330
1C7
100
AcDbEntity
  8
0
  6
Continuous
 62
     7
100
AcDbLine
 10
-37.3
 20
-77.0
 30
0.0
 11
-37.3
 21
-80.0
 31
0.0
  0
LINE
  5
1E3
330
1C7
100
AcDbEntity
  8
0
  6
Continuous
 62
     7
100
AcDbLine
 10
-13.8
 20
-77.0
 30
0.0
 11
-13.8
 21
-80.0
 31
0.0
  0
SPLINE
  5
1E4
330
1C7
100
AcDbEntity
  8
0
  6
Continuous
 62
     7
100
AcDbSpline
210
0.0
220
0.0
230
1.0
 70
     8
 71
     3
 72
    10
 73
     6
 74
     4
 42
0.0000000001
 43
0.0000000001
 44
0.000001
 12
0.5438108039556982
 22
0.8392078464248633
 32
0.0
 13
-0.3065723032774059
 23
0.9518473737229021
 33
0.0
 40
0.0
 40
0.0
 40
0.0
 40
0.0
 40
1.802776146228347
 40
8.031109531637163
 40
10.56755759090744
 40
10.56755759090744
 40
10.56755759090744
 40
10.56755759090744
 10
-16.75000000285322
 20
-86.00000000214382
 30
0.0
 10
-16.42321028770902
 20
-85.49569870638968
 30
0.0
 10
-15.07276427057132
 20
-83.2130540908229
 30
0.0
 10
-11.5480023620639
 20
-80.96914610802386
 30
0.0
 10
-11.9582632227891
 20
-77.80477047674414
 30
0.0
 10
-12.2174647973471
 20
-77.00000000214382
 30
0.0
 11
-16.75000000285322
 21
-86.00000000214382
 31
0.0
 11
-15.75000000285322
 21
-84.50000000214382
 31
0.0
 11
-12.00000000285322
 21
-79.5271094206054
 31
0.0
 11
-12.2174647973471
 21
-77.00000000214382
 31
0.0
  0
LINE
  5
1E5
330
1C7
100
AcDbEntity
  8
0
  6
Continuous
 62
     7
100
AcDbLine
 10
-16.75
 20
-86.0
 30
0.0
 11
-16.75
 21
-77.0
 31
0.0
  0
SPLINE
  5
1E6
330
1C7
100
AcDbEntity
  8
0
  6
Continuous
 62
     7
100
AcDbSpline
210
0.0
220
0.0
230
1.0
 70
     8
 71
     3
 72
     9
 73
     5
 74
     3
 42
0.0000000001
 43
0.0000000001
 44
0.000001
 12
0.7551907116965701
 22
0.655505140305725
 32
0.0
 13
0.3090023160412483
 23
0.9510612854496521
 33
0.0
 40
0.0
 40
0.0
 40
0.0
 40
0.0
 40
1.41421385535973
 40
5.420770437511313
 40
5.420770437511313
 40
5.420770437511313
 40
5.420770437511313
 10
-16.75000000285322
 20
-84.50000000214382
 30
0.0
 10
-16.39399961354646
 20
-84.19099185158385
 30
0.0
 10
-15.1090735224444
 20
-82.91472479059828
 30
0.0
 10
-14.21267842393162
 20
-81.27016028655978
 30
0.0
 10
-13.80000000285324
 20
-80.00000000214383
 30
0.0
 11
-16.75000000285322
 21
-84.50000000214382
 31
0.0
 11
-15.75000000285322
 21
-83.50000000214382
 31
0.0
 11
-13.80000000285324
 21
-80.00000000214383
 31
0.0
  0
LINE
  5
1E7
330
1C7
100
AcDbEntity
  8
0
  6
Continuous
 62
     7
100
AcDbLine
 10
-69.0
 20
40.0
 30
0.0
 11
-70.0
 21
40.0
 31
0.0
  0
LINE
  5
1E8
330
1C7
100
AcDbEntity
  8
0
  6
Continuous
 62
     7
100
AcDbLine
 10
-69.0
 20
-40.0
 30
0.0
 11
-70.0
 21
-40.0
 31
0.0
  0
LINE
  5
1E9
330
1C7
100
AcDbEntity
  8
0
  6
Continuous
 62
     7
100
AcDbLine
 10
-70.0
 20
-43.99999999999999
 30
0.0
 11
-70.0
 21
44.0
 31
0.0
  0
ENDBLK
  5
1C9
330
1C7
100
AcDbEntity
  8
0
100
AcDbBlockEnd
  0
BLOCK
  5
1EC
330
1EB
100
AcDbEntity
  8
0
100
AcDbBlockBegin
  2
EWHRT40A-3
 70
     0
 10
0.0
 20
0.0
 30
0.0
  3
EWHRT40A-3
  1

  0
LINE
  5
1EE
330
1EB
100
AcDbEntity
  8
0
  6
Continuous
 62
     2
100
AcDbLine
 10
31.0
 20
-2.000000000000014
 30
0.0
 11
31.0
 21
4.249390979999979
 31
0.0
  0
ARC
  5
1EF
330
1EB
100
AcDbEntity
  8
0
  6
Continuous
 62
     7
100
AcDbCircle
 10
29.0
 20
-0.0000000000000142
 30
0.0
 40
2.0
100
AcDbArc
 50
90.0
 51
270.0
  0
ARC
  5
1F0
330
1EB
100
AcDbEntity
  8
0
  6
Continuous
 62
     7
100
AcDbCircle
 10
31.0
 20
-0.0000000000000142
 30
0.0
 40
2.0
100
AcDbArc
 50
270.0
 51
90.0
  0
LINE
  5
1F1
330
1EB
100
AcDbEntity
  8
0
  6
Continuous
 62
     7
100
AcDbLine
 10
29.0
 20
1.999999999999985
 30
0.0
 11
31.0
 21
1.999999999999985
 31
0.0
  0
LINE
  5
1F2
330
1EB
100
AcDbEntity
  8
0
  6
Continuous
 62
     7
100
AcDbLine
 10
29.0
 20
-2.000000000000014
 30
0.0
 11
31.0
 21
-2.000000000000014
 31
0.0
  0
CIRCLE
  5
1F3
330
1EB
100
AcDbEntity
  8
0
  6
Continuous
 62
     7
100
AcDbCircle
 10
-30.0
 20
-0.0000000000000142
 30
0.0
 40
2.0
  0
LINE
  5
1F4
330
1EB
100
AcDbEntity
  8
0
  6
Continuous
 62
     2
100
AcDbLine
 10
-30.0
 20
-2.604081610000015
 30
0.0
 11
-30.0
 21
2.726729259999984
 31
0.0
  0
LINE
  5
1F5
330
1EB
100
AcDbEntity
  8
0
  6
Continuous
 62
     2
100
AcDbLine
 10
30.0
 20
-3.877292790000019
 30
0.0
 11
30.0
 21
2.726729259999984
 31
0.0
  0
LINE
  5
1F6
330
1EB
100
AcDbEntity
  8
0
  6
Continuous
 62
     2
100
AcDbLine
 10
29.0
 20
-3.877292790000019
 30
0.0
 11
29.0
 21
4.249390979999979
 31
0.0
  0
LINE
  5
1F7
330
1EB
100
AcDbEntity
  8
0
  6
Continuous
 62
     7
100
AcDbLine
 10
-39.72631122
 20
-62.09233663000002
 30
0.0
 11
-38.86028581000001
 21
-60.59233663000002
 31
0.0
  0
LINE
  5
1F8
330
1EB
100
AcDbEntity
  8
0
  6
Continuous
 62
     7
100
AcDbLine
 10
-39.72631122
 20
-59.09233663000001
 30
0.0
 11
-38.86028581000001
 21
-60.59233663000002
 31
0.0
  0
LINE
  5
1F9
330
1EB
100
AcDbEntity
  8
0
  6
Continuous
 62
     7
100
AcDbLine
 10
-41.45836202
 20
-62.09233663000002
 30
0.0
 11
-42.32438743
 21
-60.59233663000002
 31
0.0
  0
LINE
  5
1FA
330
1EB
100
AcDbEntity
  8
0
  6
Continuous
 62
     7
100
AcDbLine
 10
-41.45836202
 20
-59.09233663000001
 30
0.0
 11
-42.32438743
 21
-60.59233663000002
 31
0.0
  0
LINE
  5
1FB
330
1EB
100
AcDbEntity
  8
0
  6
Continuous
 62
     7
100
AcDbLine
 10
-39.72631122
 20
-62.09233663000002
 30
0.0
 11
-41.45836202
 21
-62.09233663000002
 31
0.0
  0
LINE
  5
1FC
330
1EB
100
AcDbEntity
  8
0
  6
Continuous
 62
     7
100
AcDbLine
 10
-39.72631122
 20
-59.09233663000001
 30
0.0
 11
-41.45836202
 21
-59.09233663000001
 31
0.0
  0
CIRCLE
  5
1FD
330
1EB
100
AcDbEntity
  8
0
  6
Continuous
 62
     7
100
AcDbCircle
 10
-40.59233662000001
 20
-60.59233663000002
 30
0.0
 40
4.0
  0
LINE
  5
1FE
330
1EB
100
AcDbEntity
  8
0
  6
Continuous
 62
     2
100
AcDbLine
 10
-46.59233662
 20
-60.59233663000002
 30
0.0
 11
-34.59233662
 21
-60.59233663000002
 31
0.0
  0
CIRCLE
  5
1FF
330
1EB
100
AcDbEntity
  8
0
  6
Continuous
 62
     7
100
AcDbCircle
 10
-40.59233662000001
 20
-60.59233663000002
 30
0.0
 40
3.5
  0
LINE
  5
200
330
1EB
100
AcDbEntity
  8
0
  6
Continuous
 62
     2
100
AcDbLine
 10
-40.59233662000001
 20
-66.59233663000001
 30
0.0
 11
-40.59233662000001
 21
-54.59233663000002
 31
0.0
  0
LINE
  5
201
330
1EB
100
AcDbEntity
  8
0
  6
Continuous
 62
     7
100
AcDbLine
 10
41.45836202999999
 20
-62.09233663000002
 30
0.0
 11
42.32438743
 21
-60.59233663000002
 31
0.0
  0
LINE
  5
202
330
1EB
100
AcDbEntity
  8
0
  6
Continuous
 62
     7
100
AcDbLine
 10
41.45836202999999
 20
-59.09233663000001
 30
0.0
 11
42.32438743
 21
-60.59233663000002
 31
0.0
  0
LINE
  5
203
330
1EB
100
AcDbEntity
  8
0
  6
Continuous
 62
     7
100
AcDbLine
 10
39.72631121999999
 20
-62.09233663000002
 30
0.0
 11
38.86028582
 21
-60.59233663000002
 31
0.0
  0
LINE
  5
204
330
1EB
100
AcDbEntity
  8
0
  6
Continuous
 62
     7
100
AcDbLine
 10
39.72631121999999
 20
-59.09233663000001
 30
0.0
 11
38.86028582
 21
-60.59233663000002
 31
0.0
  0
LINE
  5
205
330
1EB
100
AcDbEntity
  8
0
  6
Continuous
 62
     7
100
AcDbLine
 10
41.45836202999999
 20
-62.09233663000002
 30
0.0
 11
39.72631121999999
 21
-62.09233663000002
 31
0.0
  0
LINE
  5
206
330
1EB
100
AcDbEntity
  8
0
  6
Continuous
 62
     7
100
AcDbLine
 10
41.45836202999999
 20
-59.09233663000001
 30
0.0
 11
39.72631121999999
 21
-59.09233663000001
 31
0.0
  0
CIRCLE
  5
207
330
1EB
100
AcDbEntity
  8
0
  6
Continuous
 62
     7
100
AcDbCircle
 10
40.59233663
 20
-60.59233663000002
 30
0.0
 40
4.0
  0
LINE
  5
208
330
1EB
100
AcDbEntity
  8
0
  6
Continuous
 62
     2
100
AcDbLine
 10
34.59233663000001
 20
-60.59233663000002
 30
0.0
 11
46.59233663000001
 21
-60.59233663000002
 31
0.0
  0
CIRCLE
  5
209
330
1EB
100
AcDbEntity
  8
0
  6
Continuous
 62
     7
100
AcDbCircle
 10
40.59233663
 20
-60.59233663000002
 30
0.0
 40
3.5
  0
LINE
  5
20A
330
1EB
100
AcDbEntity
  8
0
  6
Continuous
 62
     2
100
AcDbLine
 10
40.59233663
 20
-66.59233663000001
 30
0.0
 11
40.59233663
 21
-54.59233663000002
 31
0.0
  0
LINE
  5
20B
330
1EB
100
AcDbEntity
  8
0
  6
Continuous
 62
     7
100
AcDbLine
 10
41.45836202999999
 20
59.09233661999998
 30
0.0
 11
42.32438743
 21
60.59233661999997
 31
0.0
  0
LINE
  5
20C
330
1EB
100
AcDbEntity
  8
0
  6
Continuous
 62
     7
100
AcDbLine
 10
41.45836202999999
 20
62.09233661999998
 30
0.0
 11
42.32438743
 21
60.59233661999997
 31
0.0
  0
LINE
  5
20D
330
1EB
100
AcDbEntity
  8
0
  6
Continuous
 62
     7
100
AcDbLine
 10
39.72631121999999
 20
59.09233661999998
 30
0.0
 11
38.86028582
 21
60.59233661999997
 31
0.0
  0
LINE
  5
20E
330
1EB
100
AcDbEntity
  8
0
  6
Continuous
 62
     7
100
AcDbLine
 10
39.72631121999999
 20
62.09233661999998
 30
0.0
 11
38.86028582
 21
60.59233661999997
 31
0.0
  0
LINE
  5
20F
330
1EB
100
AcDbEntity
  8
0
  6
Continuous
 62
     7
100
AcDbLine
 10
41.45836202999999
 20
59.09233661999998
 30
0.0
 11
39.72631121999999
 21
59.09233661999998
 31
0.0
  0
LINE
  5
210
330
1EB
100
AcDbEntity
  8
0
  6
Continuous
 62
     7
100
AcDbLine
 10
41.45836202999999
 20
62.09233661999998
 30
0.0
 11
39.72631121999999
 21
62.09233661999998
 31
0.0
  0
CIRCLE
  5
211
330
1EB
100
AcDbEntity
  8
0
  6
Continuous
 62
     7
100
AcDbCircle
 10
40.59233663
 20
60.59233661999997
 30
0.0
 40
4.0
  0
LINE
  5
212
330
1EB
100
AcDbEntity
  8
0
  6
Continuous
 62
     2
100
AcDbLine
 10
34.59233663000001
 20
60.59233661999997
 30
0.0
 11
46.59233663000001
 21
60.59233661999997
 31
0.0
  0
CIRCLE
  5
213
330
1EB
100
AcDbEntity
  8
0
  6
Continuous
 62
     7
100
AcDbCircle
 10
40.59233663
 20
60.59233661999997
 30
0.0
 40
3.5
  0
LINE
  5
214
330
1EB
100
AcDbEntity
  8
0
  6
Continuous
 62
     2
100
AcDbLine
 10
40.59233663
 20
54.59233661999998
 30
0.0
 11
40.59233663
 21
66.59233661999997
 31
0.0
  0
LINE
  5
215
330
1EB
100
AcDbEntity
  8
0
  6
Continuous
 62
     7
100
AcDbLine
 10
-39.72631122
 20
59.09233661999998
 30
0.0
 11
-38.86028581000001
 21
60.59233661999997
 31
0.0
  0
LINE
  5
216
330
1EB
100
AcDbEntity
  8
0
  6
Continuous
 62
     7
100
AcDbLine
 10
-39.72631122
 20
62.09233661999998
 30
0.0
 11
-38.86028581000001
 21
60.59233661999997
 31
0.0
  0
LINE
  5
217
330
1EB
100
AcDbEntity
  8
0
  6
Continuous
 62
     7
100
AcDbLine
 10
-41.45836202
 20
59.09233661999998
 30
0.0
 11
-42.32438743
 21
60.59233661999997
 31
0.0
  0
LINE
  5
218
330
1EB
100
AcDbEntity
  8
0
  6
Continuous
 62
     7
100
AcDbLine
 10
-41.45836202
 20
62.09233661999998
 30
0.0
 11
-42.32438743
 21
60.59233661999997
 31
0.0
  0
LINE
  5
219
330
1EB
100
AcDbEntity
  8
0
  6
Continuous
 62
     7
100
AcDbLine
 10
-39.72631122
 20
59.09233661999998
 30
0.0
 11
-41.45836202
 21
59.09233661999998
 31
0.0
  0
LINE
  5
21A
330
1EB
100
AcDbEntity
  8
0
  6
Continuous
 62
     7
100
AcDbLine
 10
-39.72631122
 20
62.09233661999998
 30
0.0
 11
-41.45836202
 21
62.09233661999998
 31
0.0
  0
CIRCLE
  5
21B
330
1EB
100
AcDbEntity
  8
0
  6
Continuous
 62
     7
100
AcDbCircle
 10
-40.59233662000001
 20
60.59233661999997
 30
0.0
 40
4.0
  0
LINE
  5
21C
330
1EB
100
AcDbEntity
  8
0
  6
Continuous
 62
     2
100
AcDbLine
 10
-46.59233662
 20
60.59233661999997
 30
0.0
 11
-34.59233662
 21
60.59233661999997
 31
0.0
  0
CIRCLE
  5
21D
330
1EB
100
AcDbEntity
  8
0
  6
Continuous
 62
     7
100
AcDbCircle
 10
-40.59233662000001
 20
60.59233661999997
 30
0.0
 40
3.5
  0
LINE
  5
21E
330
1EB
100
AcDbEntity
  8
0
  6
Continuous
 62
     2
100
AcDbLine
 10
-40.59233662000001
 20
54.59233661999998
 30
0.0
 11
-40.59233662000001
 21
66.59233661999997
 31
0.0
  0
LINE
  5
21F
330
1EB
100
AcDbEntity
  8
0
  6
Continuous
 62
     2
100
AcDbLine
 10
-48.67238644
 20
-0.0000000000000142
 30
0.0
 11
47.58534466999998
 21
-0.0000000000000142
 31
0.0
  0
LINE
  5
220
330
1EB
100
AcDbEntity
  8
0
  6
Continuous
 62
     2
100
AcDbLine
 10
0.0
 20
-83.25165558000001
 30
0.0
 11
0.0
 21
82.53831776999996
 31
0.0
  0
LINE
  5
221
330
1EB
100
AcDbEntity
  8
0
  6
Continuous
 62
     7
100
AcDbLine
 10
46.0
 20
-63.00000000000001
 30
0.0
 11
46.0
 21
72.24999999999997
 31
0.0
  0
LINE
  5
222
330
1EB
100
AcDbEntity
  8
0
  6
Continuous
 62
     7
100
AcDbLine
 10
-46.0
 20
-72.25000000000001
 30
0.0
 11
-46.0
 21
72.24999999999997
 31
0.0
  0
LINE
  5
223
330
1EB
100
AcDbEntity
  8
0
  6
Continuous
 62
     7
100
AcDbLine
 10
46.0
 20
-72.25000000000001
 30
0.0
 11
46.0
 21
-63.00000000000001
 31
0.0
  0
CIRCLE
  5
224
330
1EB
100
AcDbEntity
  8
0
  6
Continuous
 62
     7
100
AcDbCircle
 10
0.0
 20
-0.0000000000000142
 30
0.0
 40
8.0
  0
CIRCLE
  5
225
330
1EB
100
AcDbEntity
  8
0
  6
Continuous
 62
     7
100
AcDbCircle
 10
0.0
 20
-0.0000000000000142
 30
0.0
 40
7.0
  0
ARC
  5
226
330
1EB
100
AcDbEntity
  8
0
  6
Continuous
 62
     7
100
AcDbCircle
 10
41.25
 20
72.24999999999997
 30
0.0
 40
4.75
100
AcDbArc
 50
0.0
 51
90.0
  0
LINE
  5
227
330
1EB
100
AcDbEntity
  8
0
  6
Continuous
 62
     7
100
AcDbLine
 10
-41.25
 20
76.99999999999997
 30
0.0
 11
41.25
 21
76.99999999999997
 31
0.0
  0
CIRCLE
  5
228
330
1EB
100
AcDbEntity
  8
0
  6
Continuous
 62
     7
100
AcDbCircle
 10
41.0
 20
71.99999999999997
 30
0.0
 40
2.75
  0
LINE
  5
229
330
1EB
100
AcDbEntity
  8
0
  6
Continuous
 62
     2
100
AcDbLine
 10
36.25
 20
71.99999999999997
 30
0.0
 11
45.75
 21
71.99999999999997
 31
0.0
  0
LINE
  5
22A
330
1EB
100
AcDbEntity
  8
0
  6
Continuous
 62
     2
100
AcDbLine
 10
41.0
 20
76.74999999999997
 30
0.0
 11
41.0
 21
67.24999999999997
 31
0.0
  0
ARC
  5
22B
330
1EB
100
AcDbEntity
  8
0
  6
Continuous
 62
     7
100
AcDbCircle
 10
-41.25
 20
72.24999999999997
 30
0.0
 40
4.75
100
AcDbArc
 50
90.0
 51
180.0
  0
LINE
  5
22C
330
1EB
100
AcDbEntity
  8
0
  6
Continuous
 62
     2
100
AcDbLine
 10
-36.25
 20
71.99999999999997
 30
0.0
 11
-45.75
 21
71.99999999999997
 31
0.0
  0
CIRCLE
  5
22D
330
1EB
100
AcDbEntity
  8
0
  6
Continuous
 62
     7
100
AcDbCircle
 10
-41.0
 20
71.99999999999997
 30
0.0
 40
2.75
  0
LINE
  5
22E
330
1EB
100
AcDbEntity
  8
0
  6
Continuous
 62
     2
100
AcDbLine
 10
-41.0
 20
76.74999999999997
 30
0.0
 11
-41.0
 21
67.24999999999997
 31
0.0
  0
CIRCLE
  5
22F
330
1EB
100
AcDbEntity
  8
0
  6
Continuous
 62
     7
100
AcDbCircle
 10
41.0
 20
-72.00000000000001
 30
0.0
 40
2.75
  0
ARC
  5
230
330
1EB
100
AcDbEntity
  8
0
  6
Continuous
 62
     7
100
AcDbCircle
 10
41.25
 20
-72.25000000000001
 30
0.0
 40
4.75
100
AcDbArc
 50
270.0
 51
0.0
  0
LINE
  5
231
330
1EB
100
AcDbEntity
  8
0
  6
Continuous
 62
     2
100
AcDbLine
 10
36.25
 20
-72.00000000000001
 30
0.0
 11
45.75
 21
-72.00000000000001
 31
0.0
  0
LINE
  5
232
330
1EB
100
AcDbEntity
  8
0
  6
Continuous
 62
     2
100
AcDbLine
 10
41.0
 20
-76.75000000000001
 30
0.0
 11
41.0
 21
-67.25000000000001
 31
0.0
  0
LINE
  5
233
330
1EB
100
AcDbEntity
  8
0
  6
Continuous
 62
     7
100
AcDbLine
 10
-41.25
 20
-77.00000000000001
 30
0.0
 11
41.25
 21
-77.00000000000001
 31
0.0
  0
CIRCLE
  5
234
330
1EB
100
AcDbEntity
  8
0
  6
Continuous
 62
     7
100
AcDbCircle
 10
-41.0
 20
-72.00000000000001
 30
0.0
 40
2.75
  0
ARC
  5
235
330
1EB
100
AcDbEntity
  8
0
  6
Continuous
 62
     7
100
AcDbCircle
 10
-41.25
 20
-72.25000000000001
 30
0.0
 40
4.75
100
AcDbArc
 50
180.0
 51
270.0
  0
LINE
  5
236
330
1EB
100
AcDbEntity
  8
0
  6
Continuous
 62
     2
100
AcDbLine
 10
-36.25
 20
-72.00000000000001
 30
0.0
 11
-45.75
 21
-72.00000000000001
 31
0.0
  0
LINE
  5
237
330
1EB
100
AcDbEntity
  8
0
  6
Continuous
 62
     2
100
AcDbLine
 10
-41.0
 20
-76.75000000000001
 30
0.0
 11
-41.0
 21
-67.25000000000001
 31
0.0
  0
LINE
  5
238
330
1EB
100
AcDbEntity
  8
0
  6
Continuous
 62
     7
100
AcDbLine
 10
26.65000000000001
 20
-86.00000000000001
 30
0.0
 11
26.65000000000001
 21
-77.00000000000001
 31
0.0
  0
LINE
  5
239
330
1EB
100
AcDbEntity
  8
0
  6
Continuous
 62
     7
100
AcDbLine
 10
15.34999999999999
 20
-86.00000000000001
 30
0.0
 11
15.34999999999999
 21
-77.00000000000001
 31
0.0
  0
LINE
  5
23A
330
1EB
100
AcDbEntity
  8
0
  6
Continuous
 62
     2
100
AcDbLine
 10
21.0
 20
-87.86995064
 30
0.0
 11
21.0
 21
-73.51942305000001
 31
0.0
  0
LINE
  5
23B
330
1EB
100
AcDbEntity
  8
0
  6
Continuous
 62
     7
100
AcDbLine
 10
18.5
 20
-86.00000000000001
 30
0.0
 11
18.5
 21
-77.00000000000001
 31
0.0
  0
LINE
  5
23C
330
1EB
100
AcDbEntity
  8
0
  6
Continuous
 62
     7
100
AcDbLine
 10
23.5
 20
-86.00000000000001
 30
0.0
 11
23.5
 21
-77.00000000000001
 31
0.0
  0
LINE
  5
23D
330
1EB
100
AcDbEntity
  8
0
  6
Continuous
 62
     7
100
AcDbLine
 10
15.34999999999999
 20
-86.00000000000001
 30
0.0
 11
26.65000000000001
 21
-86.00000000000001
 31
0.0
  0
ENDBLK
  5
1ED
330
1EB
100
AcDbEntity
  8
0
100
AcDbBlockEnd
  0
BLOCK
  5
240
330
23F
100
AcDbEntity
  8
0
100
AcDbBlockBegin
  2
EWHRT40A-4
 70
     0
 10
0.0
 20
0.0
 30
0.0
  3
EWHRT40A-4
  1

  0
LINE
  5
242
330
23F
100
AcDbEntity
  8
0
  6
Continuous
 62
     7
100
AcDbLine
 10
-17.245
 20
37.5
 30
0.0
 11
-24.755
 21
37.5
 31
0.0
  0
LINE
  5
243
330
23F
100
AcDbEntity
  8
0
  6
Continuous
 62
     7
100
AcDbLine
 10
-24.755
 20
37.5
 30
0.0
 11
-24.755
 21
34.5
 31
0.0
  0
LINE
  5
244
330
23F
100
AcDbEntity
  8
0
  6
Continuous
 62
     7
100
AcDbLine
 10
-17.245
 20
37.5
 30
0.0
 11
-17.245
 21
34.5
 31
0.0
  0
LINE
  5
245
330
23F
100
AcDbEntity
  8
0
  6
Continuous
 62
     7
100
AcDbLine
 10
-15.20000000000002
 20
34.5
 30
0.0
 11
-15.20000000000002
 21
16.59999999999999
 31
0.0
  0
LINE
  5
246
330
23F
100
AcDbEntity
  8
0
  6
Continuous
 62
     7
100
AcDbLine
 10
-26.80000000000001
 20
34.5
 30
0.0
 11
-26.80000000000001
 21
16.59999999999999
 31
0.0
  0
LINE
  5
247
330
23F
100
AcDbEntity
  8
0
  6
Continuous
 62
     7
100
AcDbLine
 10
-17.245
 20
13.59999999999999
 30
0.0
 11
-24.755
 21
13.59999999999999
 31
0.0
  0
LINE
  5
248
330
23F
100
AcDbEntity
  8
0
  6
Continuous
 62
     7
100
AcDbLine
 10
-15.20000000000002
 20
34.5
 30
0.0
 11
-17.245
 21
34.5
 31
0.0
  0
LINE
  5
249
330
23F
100
AcDbEntity
  8
0
  6
Continuous
 62
     7
100
AcDbLine
 10
-15.20000000000002
 20
16.59999999999999
 30
0.0
 11
-17.245
 21
16.59999999999999
 31
0.0
  0
LINE
  5
24A
330
23F
100
AcDbEntity
  8
0
  6
Continuous
 62
     7
100
AcDbLine
 10
-17.245
 20
16.59999999999999
 30
0.0
 11
-17.245
 21
13.59999999999999
 31
0.0
  0
LINE
  5
24B
330
23F
100
AcDbEntity
  8
0
  6
Continuous
 62
     7
100
AcDbLine
 10
-24.755
 20
13.59999999999999
 30
0.0
 11
-24.755
 21
16.59999999999999
 31
0.0
  0
LINE
  5
24C
330
23F
100
AcDbEntity
  8
0
  6
Continuous
 62
     7
100
AcDbLine
 10
-26.80000000000001
 20
16.59999999999999
 30
0.0
 11
-24.755
 21
16.59999999999999
 31
0.0
  0
LINE
  5
24D
330
23F
100
AcDbEntity
  8
0
  6
Continuous
 62
     7
100
AcDbLine
 10
-26.80000000000001
 20
34.5
 30
0.0
 11
-24.755
 21
34.5
 31
0.0
  0
LINE
  5
24E
330
23F
100
AcDbEntity
  8
0
  6
Continuous
 62
     7
100
AcDbLine
 10
-13.0
 20
41.0
 30
0.0
 11
-29.0
 21
41.0
 31
0.0
  0
LINE
  5
24F
330
23F
100
AcDbEntity
  8
0
  6
Continuous
 62
     7
100
AcDbLine
 10
-12.5
 20
41.5
 30
0.0
 11
-29.5
 21
41.5
 31
0.0
  0
LINE
  5
250
330
23F
100
AcDbEntity
  8
0
  6
Continuous
 62
     7
100
AcDbLine
 10
-26.65000000000001
 20
34.35
 30
0.0
 11
-26.65000000000001
 21
16.75
 31
0.0
  0
LINE
  5
251
330
23F
100
AcDbEntity
  8
0
  6
Continuous
 62
     7
100
AcDbLine
 10
-15.34999999999999
 20
34.35
 30
0.0
 11
-15.34999999999999
 21
16.75
 31
0.0
  0
LINE
  5
252
330
23F
100
AcDbEntity
  8
0
  6
Continuous
 62
     7
100
AcDbLine
 10
-15.34999999999999
 20
34.35
 30
0.0
 11
-26.65000000000001
 21
34.35
 31
0.0
  0
LINE
  5
253
330
23F
100
AcDbEntity
  8
0
  6
Continuous
 62
     7
100
AcDbLine
 10
-15.34999999999999
 20
16.75
 30
0.0
 11
-26.65000000000001
 21
16.75
 31
0.0
  0
LINE
  5
254
330
23F
100
AcDbEntity
  8
0
  6
Continuous
 62
     7
100
AcDbLine
 10
-15.84999999999999
 20
33.85
 30
0.0
 11
-26.15000000000001
 21
33.85
 31
0.0
  0
LINE
  5
255
330
23F
100
AcDbEntity
  8
0
  6
Continuous
 62
     7
100
AcDbLine
 10
-15.84999999999999
 20
33.85
 30
0.0
 11
-15.84999999999999
 21
17.25
 31
0.0
  0
LINE
  5
256
330
23F
100
AcDbEntity
  8
0
  6
Continuous
 62
     7
100
AcDbLine
 10
-15.84999999999999
 20
17.25
 30
0.0
 11
-26.15000000000001
 21
17.25
 31
0.0
  0
LINE
  5
257
330
23F
100
AcDbEntity
  8
0
  6
Continuous
 62
     7
100
AcDbLine
 10
-26.15000000000001
 20
33.85
 30
0.0
 11
-26.15000000000001
 21
17.25
 31
0.0
  0
CIRCLE
  5
258
330
23F
100
AcDbEntity
  8
0
  6
Continuous
 62
     7
100
AcDbCircle
 10
-23.65000000000001
 20
32.85
 30
0.0
 40
0.5
  0
CIRCLE
  5
259
330
23F
100
AcDbEntity
  8
0
  6
Continuous
 62
     7
100
AcDbCircle
 10
-23.65000000000001
 20
29.92999999999999
 30
0.0
 40
0.5
  0
CIRCLE
  5
25A
330
23F
100
AcDbEntity
  8
0
  6
Continuous
 62
     7
100
AcDbCircle
 10
-23.65000000000001
 20
27.00999999999999
 30
0.0
 40
0.5
  0
CIRCLE
  5
25B
330
23F
100
AcDbEntity
  8
0
  6
Continuous
 62
     7
100
AcDbCircle
 10
-23.65000000000001
 20
24.09000000000001
 30
0.0
 40
0.5
  0
CIRCLE
  5
25C
330
23F
100
AcDbEntity
  8
0
  6
Continuous
 62
     7
100
AcDbCircle
 10
-23.65000000000001
 20
21.16999999999999
 30
0.0
 40
0.5
  0
CIRCLE
  5
25D
330
23F
100
AcDbEntity
  8
0
  6
Continuous
 62
     7
100
AcDbCircle
 10
-23.65000000000001
 20
18.25
 30
0.0
 40
0.5
  0
CIRCLE
  5
25E
330
23F
100
AcDbEntity
  8
0
  6
Continuous
 62
     7
100
AcDbCircle
 10
-18.34999999999999
 20
32.85
 30
0.0
 40
0.5
  0
CIRCLE
  5
25F
330
23F
100
AcDbEntity
  8
0
  6
Continuous
 62
     7
100
AcDbCircle
 10
-18.34999999999999
 20
29.92999999999999
 30
0.0
 40
0.5
  0
CIRCLE
  5
260
330
23F
100
AcDbEntity
  8
0
  6
Continuous
 62
     7
100
AcDbCircle
 10
-18.34999999999999
 20
27.00999999999999
 30
0.0
 40
0.5
  0
CIRCLE
  5
261
330
23F
100
AcDbEntity
  8
0
  6
Continuous
 62
     7
100
AcDbCircle
 10
-18.34999999999999
 20
24.09000000000001
 30
0.0
 40
0.5
  0
CIRCLE
  5
262
330
23F
100
AcDbEntity
  8
0
  6
Continuous
 62
     7
100
AcDbCircle
 10
-18.34999999999999
 20
21.16999999999999
 30
0.0
 40
0.5
  0
CIRCLE
  5
263
330
23F
100
AcDbEntity
  8
0
  6
Continuous
 62
     7
100
AcDbCircle
 10
-18.34999999999999
 20
18.25
 30
0.0
 40
0.5
  0
LINE
  5
264
330
23F
100
AcDbEntity
  8
0
  6
Continuous
 62
     7
100
AcDbLine
 10
-29.5
 20
41.5
 30
0.0
 11
-29.5
 21
6.0
 31
0.0
  0
LINE
  5
265
330
23F
100
AcDbEntity
  8
0
  6
Continuous
 62
     7
100
AcDbLine
 10
-12.5
 20
41.5
 30
0.0
 11
-12.5
 21
6.0
 31
0.0
  0
LINE
  5
266
330
23F
100
AcDbEntity
  8
0
  6
Continuous
 62
     7
100
AcDbLine
 10
-13.0
 20
41.0
 30
0.0
 11
-13.0
 21
6.0
 31
0.0
  0
LINE
  5
267
330
23F
100
AcDbEntity
  8
0
  6
Continuous
 62
     7
100
AcDbLine
 10
-29.0
 20
41.0
 30
0.0
 11
-29.0
 21
6.0
 31
0.0
  0
LINE
  5
268
330
23F
100
AcDbEntity
  8
0
  6
Continuous
 62
     7
100
AcDbLine
 10
-46.0
 20
69.0
 30
0.0
 11
-46.0
 21
0.0
 31
0.0
  0
LINE
  5
269
330
23F
100
AcDbEntity
  8
0
  6
Continuous
 62
     7
100
AcDbLine
 10
-36.5
 20
69.0
 30
0.0
 11
-36.5
 21
6.0
 31
0.0
  0
LINE
  5
26A
330
23F
100
AcDbEntity
  8
0
  6
Continuous
 62
     2
100
AcDbLine
 10
0.0
 20
-5.146798750000016
 30
0.0
 11
0.0
 21
82.94642028
 31
0.0
  0
LINE
  5
26B
330
23F
100
AcDbEntity
  8
0
  6
Continuous
 62
     7
100
AcDbLine
 10
45.99999999999998
 20
69.0
 30
0.0
 11
45.99999999999998
 21
0.0
 31
0.0
  0
LINE
  5
26C
330
23F
100
AcDbEntity
  8
0
  6
Continuous
 62
     7
100
AcDbLine
 10
42.99999999999998
 20
77.0
 30
0.0
 11
-43.0
 21
77.0
 31
0.0
  0
LINE
  5
26D
330
23F
100
AcDbEntity
  8
0
  6
Continuous
 62
     7
100
AcDbLine
 10
-44.0
 20
70.0
 30
0.0
 11
-44.0
 21
76.0
 31
0.0
  0
LINE
  5
26E
330
23F
100
AcDbEntity
  8
0
  6
Continuous
 62
     7
100
AcDbLine
 10
43.99999999999998
 20
70.0
 30
0.0
 11
43.99999999999998
 21
76.0
 31
0.0
  0
LINE
  5
26F
330
23F
100
AcDbEntity
  8
0
  6
Continuous
 62
     7
100
AcDbLine
 10
-46.0
 20
69.0
 30
0.0
 11
45.99999999999998
 21
69.0
 31
0.0
  0
LINE
  5
270
330
23F
100
AcDbEntity
  8
0
  6
Continuous
 62
     7
100
AcDbLine
 10
-46.0
 20
63.0
 30
0.0
 11
45.99999999999998
 21
63.0
 31
0.0
  0
LINE
  5
271
330
23F
100
AcDbEntity
  8
0
  6
Continuous
 62
     7
100
AcDbLine
 10
-46.0
 20
6.0
 30
0.0
 11
45.99999999999998
 21
6.0
 31
0.0
  0
LINE
  5
272
330
23F
100
AcDbEntity
  8
0
  6
Continuous
 62
     7
100
AcDbLine
 10
-46.0
 20
0.0
 30
0.0
 11
45.99999999999998
 21
0.0
 31
0.0
  0
LINE
  5
273
330
23F
100
AcDbEntity
  8
0
  6
DASHED
 62
     2
100
AcDbLine
 10
14.99999999999998
 20
77.0
 30
0.0
 11
14.99999999999998
 21
75.0
 31
0.0
  0
LINE
  5
274
330
23F
100
AcDbEntity
  8
0
  6
DASHED
 62
     2
100
AcDbLine
 10
-15.0
 20
77.0
 30
0.0
 11
-15.0
 21
75.0
 31
0.0
  0
LINE
  5
275
330
23F
100
AcDbEntity
  8
0
  6
DASHED
 62
     2
100
AcDbLine
 10
14.99999999999998
 20
75.0
 30
0.0
 11
-15.0
 21
75.0
 31
0.0
  0
LINE
  5
276
330
23F
100
AcDbEntity
  8
0
  6
Continuous
 62
     7
100
AcDbLine
 10
36.49999999999999
 20
69.0
 30
0.0
 11
36.49999999999999
 21
6.0
 31
0.0
  0
LINE
  5
277
330
23F
100
AcDbEntity
  8
0
  6
DASHED
 62
     2
100
AcDbLine
 10
8.5
 20
75.0
 30
0.0
 11
8.5
 21
0.0
 31
0.0
  0
LINE
  5
278
330
23F
100
AcDbEntity
  8
0
  6
DASHED
 62
     2
100
AcDbLine
 10
-8.5
 20
75.0
 30
0.0
 11
-8.5
 21
0.0
 31
0.0
  0
LINE
  5
279
330
23F
100
AcDbEntity
  8
0
  6
Continuous
 62
     7
100
AcDbLine
 10
43.99999999999998
 20
76.0
 30
0.0
 11
42.99999999999998
 21
77.0
 31
0.0
  0
LINE
  5
27A
330
23F
100
AcDbEntity
  8
0
  6
Continuous
 62
     7
100
AcDbLine
 10
-44.0
 20
76.0
 30
0.0
 11
-43.0
 21
77.0
 31
0.0
  0
LINE
  5
27B
330
23F
100
AcDbEntity
  8
0
  6
Continuous
 62
     7
100
AcDbLine
 10
-44.0
 20
70.0
 30
0.0
 11
43.99999999999998
 21
70.0
 31
0.0
  0
LINE
  5
27C
330
23F
100
AcDbEntity
  8
0
  6
Continuous
 62
     7
100
AcDbLine
 10
39.99999999999999
 20
69.0
 30
0.0
 11
39.99999999999999
 21
70.0
 31
0.0
  0
LINE
  5
27D
330
23F
100
AcDbEntity
  8
0
  6
Continuous
 62
     7
100
AcDbLine
 10
-40.0
 20
69.0
 30
0.0
 11
-40.0
 21
70.0
 31
0.0
  0
ENDBLK
  5
241
330
23F
100
AcDbEntity
  8
0
100
AcDbBlockEnd
  0
ENDSEC
  0
SECTION
  2
ENTITIES
  0
MTEXT
  5
13F
330
A
100
AcDbEntity
  8
0
  6
Continuous
 62
     7
100
AcDbMText
 10
-268.31111118
 20
183.6500001
 30
0.0
 40
6.30000019
 41
0.0
 71
     1
 72
     5
  1
\W1.037;\A1;MODEL:EWHRT40A
 73
     1
 44
1.0
1001
ACAD
1000
MTEXTBEGIN
1070
    73
1070
     1
1070
    44
1040
1.0
1070
    74
1070
     0
1000
MTEXTEND
  0
LINE
  5
140
330
A
100
AcDbEntity
  8
0
  6
Continuous
 62
     7
100
AcDbLine
 10
282.09985352
 20
195.5
 30
0.0
 11
282.09985352
 21
-195.0
 31
0.0
  0
LINE
  5
141
330
A
100
AcDbEntity
  8
0
  6
Continuous
 62
     7
100
AcDbLine
 10
-281.25
 20
195.5
 30
0.0
 11
282.09985352
 21
195.5
 31
0.0
  0
LINE
  5
142
330
A
100
AcDbEntity
  8
0
  6
Continuous
 62
     7
100
AcDbLine
 10
-281.25
 20
195.5
 30
0.0
 11
-281.25
 21
-195.0
 31
0.0
  0
LINE
  5
143
330
A
100
AcDbEntity
  8
0
  6
Continuous
 62
     7
100
AcDbLine
 10
-281.25
 20
-195.0
 30
0.0
 11
282.09985352
 21
-195.0
 31
0.0
  0
INSERT
  5
1C6
330
A
100
AcDbEntity
  8
0
  6
Continuous
100
AcDbBlockReference
  2
EWHRT40A-1
 10
-141.05447263
 20
47.71316911
 30
0.0
  0
INSERT
  5
1EA
330
A
100
AcDbEntity
  8
0
  6
Continuous
100
AcDbBlockReference
  2
EWHRT40A-2
 10
62.28330226
 20
47.71316910999999
 30
0.0
  0
INSERT
  5
23E
330
A
100
AcDbEntity
  8
0
  6
Continuous
100
AcDbBlockReference
  2
EWHRT40A-3
 10
163.22107714
 20
47.71316911000002
 30
0.0
  0
INSERT
  5
27E
330
A
100
AcDbEntity
  8
0
  6
Continuous
100
AcDbBlockReference
  2
EWHRT40A-4
 10
-141.05447263
 20
-155.62460578
 30
0.0
  0
ENDSEC
  0
SECTION
  2
OBJECTS
  0
DICTIONARY
  5
19
330
0
100
AcDbDictionary
281
     1
  3
ACAD_COLOR
350
14C
  3
ACAD_GROUP
350
1A
  3
ACAD_LAYOUT
350
14F
  3
ACAD_MATERIAL
350
14B
  3
ACAD_MLINESTYLE
350
1B
  3
ACAD_PLOTSETTINGS
350
150
  3
ACAD_PLOTSTYLENAME
350
149
  3
ACAD_TABLESTYLE
350
14D
  3
ACDBHEADERROUNDTRIPXREC
350
285
  3
AcDbVariableDictionary
350
27F
  3
DWGPROPS
350
284
  0
DICTIONARY
  5
14C
102
{ACAD_REACTORS
330
19
102
}
330
19
100
AcDbDictionary
281
     1
  0
DICTIONARY
  5
1A
102
{ACAD_REACTORS
330
19
102
}
330
19
100
AcDbDictionary
281
     1
  0
DICTIONARY
  5
14F
102
{ACAD_REACTORS
330
19
102
}
330
19
100
AcDbDictionary
281
     1
  3
Model
350
151
  3
レイアウト1
350
152
  0
DICTIONARY
  5
14B
102
{ACAD_REACTORS
330
19
102
}
330
19
100
AcDbDictionary
281
     1
  0
DICTIONARY
  5
1B
102
{ACAD_REACTORS
330
19
102
}
330
19
100
AcDbDictionary
281
     1
  3
STANDARD
350
1C
  0
DICTIONARY
  5
150
102
{ACAD_REACTORS
330
19
102
}
330
19
100
AcDbDictionary
281
     1
  0
ACDBDICTIONARYWDFLT
  5
149
102
{ACAD_REACTORS
330
19
102
}
330
19
100
AcDbDictionary
281
     1
  3
Normal
350
14A
100
AcDbDictionaryWithDefault
340
14A
  0
DICTIONARY
  5
14D
102
{ACAD_REACTORS
330
19
102
}
330
19
100
AcDbDictionary
281
     1
  3
Standard
350
14E
  0
DICTIONARY
  5
285
102
{ACAD_REACTORS
330
19
102
}
330
19
100
AcDbDictionary
281
     1
  0
DICTIONARY
  5
27F
102
{ACAD_REACTORS
330
19
102
}
330
19
100
AcDbDictionary
281
     1
  3
CTABLESTYLE
350
280
  3
DIMASSOC
350
281
  3
PROJECTNAME
350
282
  0
XRECORD
  5
284
102
{ACAD_REACTORS
330
19
102
}
330
19
100
AcDbXrecord
280
     1
  1
DWGPROPS COOKIE
  2

  3

  4

  6

  7

  8

  9

300
=
301
=
302
=
303
=
304
=
305
=
306
=
307
=
308
=
309
=
 40
0.001800162037037
 41
2454481.537175926
 42
2454495.733438796
  1

 90
        0
  0
LAYOUT
  5
151
102
{ACAD_XDICTIONARY
360
286
102
}
102
{ACAD_REACTORS
330
14F
102
}
330
14F
100
AcDbPlotSettings
  1

  2
Microsoft Office Document Image Writer
  4

  6

 40
0.0
 41
0.0
 42
0.0
 43
0.0
 44
0.0
 45
0.0
 46
0.0
 47
0.0
 48
0.0
 49
0.0
140
0.0
141
0.0
142
1.0
143
1.0
 70
  1712
 72
     0
 73
     0
 74
     0
  7

 75
     0
147
1.0
148
0.0
149
0.0
100
AcDbLayout
  1
Model
 70
     1
 71
     0
 10
0.0
 20
0.0
 11
12.0
 21
9.0
 12
0.0
 22
0.0
 32
0.0
 14
0.0
 24
0.0
 34
0.0
 15
0.0
 25
0.0
 35
0.0
146
0.0
 13
0.0
 23
0.0
 33
0.0
 16
1.0
 26
0.0
 36
0.0
 17
0.0
 27
1.0
 37
0.0
 76
     0
330
A
  0
LAYOUT
  5
152
102
{ACAD_XDICTIONARY
360
288
102
}
102
{ACAD_REACTORS
330
14F
102
}
330
14F
100
AcDbPlotSettings
  1

  2
Microsoft Office Document Image Writer
  4

  6

 40
0.0
 41
0.0
 42
0.0
 43
0.0
 44
0.0
 45
0.0
 46
0.0
 47
0.0
 48
0.0
 49
0.0
140
0.0
141
0.0
142
1.0
143
1.0
 70
   688
 72
     0
 73
     0
 74
     5
  7

 75
    16
147
1.0
148
0.0
149
0.0
100
AcDbLayout
  1
レイアウト1
 70
     0
 71
     1
 10
0.0
 20
0.0
 11
12.0
 21
9.0
 12
0.0
 22
0.0
 32
0.0
 14
1.000000000000000E+20
 24
1.000000000000000E+20
 34
1.000000000000000E+20
 15
-1.000000000000000E+20
 25
-1.000000000000000E+20
 35
-1.000000000000000E+20
146
0.0
 13
0.0
 23
0.0
 33
0.0
 16
1.0
 26
0.0
 36
0.0
 17
0.0
 27
1.0
 37
0.0
 76
     0
330
B
  0
MLINESTYLE
  5
1C
102
{ACAD_REACTORS
330
1B
102
}
330
1B
100
AcDbMlineStyle
  2
STANDARD
 70
     0
  3

 62
     0
 51
90.0
 52
90.0
 71
     2
 49
0.5
 62
   256
  6
BYLAYER
 49
-0.5
 62
   256
  6
BYLAYER
  0
ACDBPLACEHOLDER
  5
14A
102
{ACAD_REACTORS
330
149
102
}
330
149
  0
TABLESTYLE
  5
14E
102
{ACAD_REACTORS
330
14D
102
}
330
14D
100
AcDbTableStyle
  3
Standard
 70
     0
 71
     0
 40
0.06
 41
0.06
280
     0
281
     0
  7
MX_NOTE_STANDARD
140
0.18
170
     2
 62
     0
 63
     7
283
     0
274
    -2
284
     1
 64
     0
275
    -2
285
     1
 65
     0
276
    -2
286
     1
 66
     0
277
    -2
287
     1
 67
     0
278
    -2
288
     1
 68
     0
279
    -2
289
     1
 69
     0
  7
MX_NOTE_STANDARD
140
0.25
170
     5
 62
     0
 63
     7
283
     0
274
    -2
284
     1
 64
     0
275
    -2
285
     1
 65
     0
276
    -2
286
     1
 66
     0
277
    -2
287
     1
 67
     0
278
    -2
288
     1
 68
     0
279
    -2
289
     1
 69
     0
  7
MX_NOTE_STANDARD
140
0.18
170
     5
 62
     0
 63
     7
283
     0
274
    -2
284
     1
 64
     0
275
    -2
285
     1
 65
     0
276
    -2
286
     1
 66
     0
277
    -2
287
     1
 67
     0
278
    -2
288
     1
 68
     0
279
    -2
289
     1
 69
     0
  0
DICTIONARYVAR
  5
280
102
{ACAD_REACTORS
330
27F
102
}
330
27F
100
DictionaryVariables
280
     0
  1
STANDARD
  0
DICTIONARYVAR
  5
281
102
{ACAD_REACTORS
330
27F
102
}
330
27F
100
DictionaryVariables
280
     0
  1
1
  0
DICTIONARYVAR
  5
282
102
{ACAD_REACTORS
330
27F
102
}
330
27F
100
DictionaryVariables
280
     0
  1

  0
DICTIONARY
  5
286
330
151
100
AcDbDictionary
280
     1
281
     1
  3
ACAD_XREC_ROUNDTRIP
360
287
  0
DICTIONARY
  5
288
330
152
100
AcDbDictionary
280
     1
281
     1
  3
ACAD_XREC_ROUNDTRIP
360
289
  0
XRECORD
  5
287
102
{ACAD_REACTORS
330
286
102
}
330
286
100
AcDbXrecord
280
     1
102
SHADEPLOT
 70
     0
102
SHADEPLOTRESLEVEL
 70
     2
102
SHADEPLOTCUSTOMDPI
 70
   300
  0
XRECORD
  5
289
102
{ACAD_REACTORS
330
288
102
}
330
288
100
AcDbXrecord
280
     1
102
SHADEPLOT
 70
     0
102
SHADEPLOTRESLEVEL
 70
     2
102
SHADEPLOTCUSTOMDPI
 70
   300
  0
ENDSEC
  0
EOF
