  0
SECTION
  2
HEADER
  9
$ACADVER
  1
AC1015
  9
$ACADMAINTVER
 70
    20
  9
$DWGCODEPAGE
  3
ANSI_932
  9
$INSBASE
 10
0.0
 20
0.0
 30
0.0
  9
$EXTMIN
 10
-194.25
 20
-133.5
 30
0.0
  9
$EXTMAX
 10
194.80000305
 20
132.6000061
 30
0.0
  9
$LIMMIN
 10
-210.0
 20
-148.5
  9
$LIMMAX
 10
210.0
 20
148.5
  9
$ORTHOMODE
 70
     0
  9
$REGENMODE
 70
     1
  9
$FILLMODE
 70
     1
  9
$QTEXTMODE
 70
     0
  9
$MIRRTEXT
 70
     1
  9
$LTSCALE
 40
1.0
  9
$ATTMODE
 70
     1
  9
$TEXTSIZE
 40
3.200000049999999
  9
$TRACEWID
 40
0.05
  9
$TEXTSTYLE
  7
MX_NOTE_STANDARD
  9
$CLAYER
  8
0
  9
$CELTYPE
  6
CONTINUOUS
  9
$CECOLOR
 62
   256
  9
$CELTSCALE
 40
1.0
  9
$DISPSILH
 70
     0
  9
$DIMSCALE
 40
1.0
  9
$DIMASZ
 40
2.5
  9
$DIMEXO
 40
1.5
  9
$DIMDLI
 40
3.75
  9
$DIMRND
 40
0.0
  9
$DIMDLE
 40
0.0
  9
$DIMEXE
 40
1.5
  9
$DIMTP
 40
0.0
  9
$DIMTM
 40
0.0
  9
$DIMTXT
 40
3.200000049999999
  9
$DIMCEN
 40
2.5
  9
$DIMTSZ
 40
0.0
  9
$DIMTOL
 70
     0
  9
$DIMLIM
 70
     0
  9
$DIMTIH
 70
     0
  9
$DIMTOH
 70
     0
  9
$DIMSE1
 70
     0
  9
$DIMSE2
 70
     0
  9
$DIMTAD
 70
     1
  9
$DIMZIN
 70
     8
  9
$DIMBLK
  1

  9
$DIMASO
 70
     1
  9
$DIMSHO
 70
     1
  9
$DIMPOST
  1

  9
$DIMAPOST
  1

  9
$DIMALT
 70
     0
  9
$DIMALTD
 70
     4
  9
$DIMALTF
 40
0.03937008
  9
$DIMLFAC
 40
1.0
  9
$DIMTOFL
 70
     1
  9
$DIMTVP
 40
0.0
  9
$DIMTIX
 70
     0
  9
$DIMSOXD
 70
     0
  9
$DIMSAH
 70
     1
  9
$DIMBLK1
  1
OPEN30
  9
$DIMBLK2
  1
OPEN30
  9
$DIMSTYLE
  2
MXDIMSTYLE
  9
$DIMCLRD
 70
     0
  9
$DIMCLRE
 70
     0
  9
$DIMCLRT
 70
     0
  9
$DIMTFAC
 40
1.0
  9
$DIMGAP
 40
1.0
  9
$DIMJUST
 70
     0
  9
$DIMSD1
 70
     0
  9
$DIMSD2
 70
     0
  9
$DIMTOLJ
 70
     0
  9
$DIMTZIN
 70
     0
  9
$DIMALTZ
 70
     0
  9
$DIMALTTZ
 70
     0
  9
$DIMUPT
 70
     1
  9
$DIMDEC
 70
     2
  9
$DIMTDEC
 70
     2
  9
$DIMALTU
 70
     2
  9
$DIMALTTD
 70
     4
  9
$DIMTXSTY
  7
MX_NOTE_STANDARD
  9
$DIMAUNIT
 70
     0
  9
$DIMADEC
 70
     0
  9
$DIMALTRND
 40
0.0
  9
$DIMAZIN
 70
     0
  9
$DIMDSEP
 70
    46
  9
$DIMATFIT
 70
     3
  9
$DIMFRAC
 70
     0
  9
$DIMLDRBLK
  1
OPEN30
  9
$DIMLUNIT
 70
     2
  9
$DIMLWD
 70
    -2
  9
$DIMLWE
 70
    -2
  9
$DIMTMOVE
 70
     0
  9
$LUNITS
 70
     2
  9
$LUPREC
 70
     4
  9
$SKETCHINC
 40
0.1
  9
$FILLETRAD
 40
0.0
  9
$AUNITS
 70
     0
  9
$AUPREC
 70
     0
  9
$MENU
  1
acad
  9
$ELEVATION
 40
0.0
  9
$PELEVATION
 40
0.0
  9
$THICKNESS
 40
0.0
  9
$LIMCHECK
 70
     0
  9
$CHAMFERA
 40
0.0
  9
$CHAMFERB
 40
0.0
  9
$CHAMFERC
 40
0.0
  9
$CHAMFERD
 40
0.0
  9
$SKPOLY
 70
     0
  9
$TDCREATE
 40
2454481.537442130
  9
$TDUCREATE
 40
2454481.162442130
  9
$TDUPDATE
 40
2454495.714946100
  9
$TDUUPDATE
 40
2454495.339946100
  9
$TDINDWG
 40
0.0015027546
  9
$TDUSRTIMER
 40
0.0015025810
  9
$USRTIMER
 70
     1
  9
$ANGBASE
 50
0.0
  9
$ANGDIR
 70
     0
  9
$PDMODE
 70
     0
  9
$PDSIZE
 40
0.0
  9
$PLINEWID
 40
0.0
  9
$SPLFRAME
 70
     0
  9
$SPLINETYPE
 70
     6
  9
$SPLINESEGS
 70
     8
  9
$HANDSEED
  5
2D5
  9
$SURFTAB1
 70
     6
  9
$SURFTAB2
 70
     6
  9
$SURFTYPE
 70
     6
  9
$SURFU
 70
     6
  9
$SURFV
 70
     6
  9
$UCSBASE
  2

  9
$UCSNAME
  2

  9
$UCSORG
 10
0.0
 20
0.0
 30
0.0
  9
$UCSXDIR
 10
1.0
 20
0.0
 30
0.0
  9
$UCSYDIR
 10
0.0
 20
1.0
 30
0.0
  9
$UCSORTHOREF
  2

  9
$UCSORTHOVIEW
 70
     0
  9
$UCSORGTOP
 10
0.0
 20
0.0
 30
0.0
  9
$UCSORGBOTTOM
 10
0.0
 20
0.0
 30
0.0
  9
$UCSORGLEFT
 10
0.0
 20
0.0
 30
0.0
  9
$UCSORGRIGHT
 10
0.0
 20
0.0
 30
0.0
  9
$UCSORGFRONT
 10
0.0
 20
0.0
 30
0.0
  9
$UCSORGBACK
 10
0.0
 20
0.0
 30
0.0
  9
$PUCSBASE
  2

  9
$PUCSNAME
  2

  9
$PUCSORG
 10
0.0
 20
0.0
 30
0.0
  9
$PUCSXDIR
 10
1.0
 20
0.0
 30
0.0
  9
$PUCSYDIR
 10
0.0
 20
1.0
 30
0.0
  9
$PUCSORTHOREF
  2

  9
$PUCSORTHOVIEW
 70
     0
  9
$PUCSORGTOP
 10
0.0
 20
0.0
 30
0.0
  9
$PUCSORGBOTTOM
 10
0.0
 20
0.0
 30
0.0
  9
$PUCSORGLEFT
 10
0.0
 20
0.0
 30
0.0
  9
$PUCSORGRIGHT
 10
0.0
 20
0.0
 30
0.0
  9
$PUCSORGFRONT
 10
0.0
 20
0.0
 30
0.0
  9
$PUCSORGBACK
 10
0.0
 20
0.0
 30
0.0
  9
$USERI1
 70
     0
  9
$USERI2
 70
     0
  9
$USERI3
 70
     0
  9
$USERI4
 70
     0
  9
$USERI5
 70
     0
  9
$USERR1
 40
0.0
  9
$USERR2
 40
0.0
  9
$USERR3
 40
0.0
  9
$USERR4
 40
0.0
  9
$USERR5
 40
0.0
  9
$WORLDVIEW
 70
     1
  9
$SHADEDGE
 70
     3
  9
$SHADEDIF
 70
    70
  9
$TILEMODE
 70
     1
  9
$MAXACTVP
 70
    16
  9
$PINSBASE
 10
0.0
 20
0.0
 30
0.0
  9
$PLIMCHECK
 70
     0
  9
$PEXTMIN
 10
1.000000000000000E+20
 20
1.000000000000000E+20
 30
1.000000000000000E+20
  9
$PEXTMAX
 10
-1.000000000000000E+20
 20
-1.000000000000000E+20
 30
-1.000000000000000E+20
  9
$PLIMMIN
 10
0.0
 20
0.0
  9
$PLIMMAX
 10
12.0
 20
9.0
  9
$UNITMODE
 70
     0
  9
$VISRETAIN
 70
     0
  9
$PLINEGEN
 70
     1
  9
$PSLTSCALE
 70
     0
  9
$TREEDEPTH
 70
  3020
  9
$CMLSTYLE
  2
STANDARD
  9
$CMLJUST
 70
     0
  9
$CMLSCALE
 40
1.0
  9
$PROXYGRAPHICS
 70
     1
  9
$MEASUREMENT
 70
     0
  9
$CELWEIGHT
370
    -1
  9
$ENDCAPS
280
     0
  9
$JOINSTYLE
280
     0
  9
$LWDISPLAY
290
     0
  9
$INSUNITS
 70
     0
  9
$HYPERLINKBASE
  1

  9
$STYLESHEET
  1

  9
$XEDIT
290
     1
  9
$CEPSNTYPE
380
     0
  9
$PSTYLEMODE
290
     1
  9
$FINGERPRINTGUID
  2
{052DA24B-F91A-4405-9440-829BD6649CA6}
  9
$VERSIONGUID
  2
{180B6C7A-0B01-42ED-9ABD-E197848DEBCA}
  9
$EXTNAMES
290
     1
  9
$PSVPSCALE
 40
0.0
  9
$OLESTARTUP
290
     0
  0
ENDSEC
  0
SECTION
  2
CLASSES
  0
CLASS
  1
IMAGE
  2
AcDbRasterImage
  3
ISM
 90
    32895
280
     0
281
     1
  0
CLASS
  1
DICTIONARYVAR
  2
AcDbDictionaryVar
  3
ObjectDBX Classes
 90
        0
280
     0
281
     0
  0
CLASS
  1
RASTERVARIABLES
  2
AcDbRasterVariables
  3
ISM
 90
    32768
280
     0
281
     0
  0
CLASS
  1
IMAGEDEF
  2
AcDbRasterImageDef
  3
ISM
 90
    32768
280
     0
281
     0
  0
CLASS
  1
IMAGEDEF_REACTOR
  2
AcDbRasterImageDefReactor
  3
ISM
 90
    32769
280
     0
281
     0
  0
CLASS
  1
IDBUFFER
  2
AcDbIdBuffer
  3
ObjectDBX Classes
 90
    32768
280
     0
281
     0
  0
CLASS
  1
SPATIAL_FILTER
  2
AcDbSpatialFilter
  3
ObjectDBX Classes
 90
    32768
280
     0
281
     0
  0
CLASS
  1
SORTENTSTABLE
  2
AcDbSortentsTable
  3
ObjectDBX Classes
 90
    32768
280
     0
281
     0
  0
CLASS
  1
LAYER_INDEX
  2
AcDbLayerIndex
  3
ObjectDBX Classes
 90
    32768
280
     0
281
     0
  0
CLASS
  1
SPATIAL_INDEX
  2
AcDbSpatialIndex
  3
ObjectDBX Classes
 90
    32768
280
     0
281
     0
  0
CLASS
  1
OBJECT_PTR
  2
CAseDLPNTableRecord
  3
"ASE-LPNTableRecord"
 90
    32769
280
     0
281
     0
  0
CLASS
  1
LAYOUT
  2
AcDbLayout
  3
ObjectDBX Classes
 90
        0
280
     0
281
     0
  0
CLASS
  1
PLOTSETTINGS
  2
AcDbPlotSettings
  3
ObjectDBX Classes
 90
    32768
280
     0
281
     0
  0
CLASS
  1
ACDBDICTIONARYWDFLT
  2
AcDbDictionaryWithDefault
  3
ObjectDBX Classes
 90
        0
280
     0
281
     0
  0
CLASS
  1
ACDBPLACEHOLDER
  2
AcDbPlaceHolder
  3
ObjectDBX Classes
 90
        0
280
     0
281
     0
  0
CLASS
  1
TABLESTYLE
  2
AcDbTableStyle
  3
ObjectDBX Classes
 90
     2047
280
     0
281
     0
  0
ENDSEC
  0
SECTION
  2
TABLES
  0
TABLE
  2
VPORT
  5
7
330
0
100
AcDbSymbolTable
 70
     2
  0
VPORT
  5
2CE
330
7
100
AcDbSymbolTableRecord
100
AcDbViewportTableRecord
  2
*Active
 70
     0
 10
0.0
 20
0.0
 11
1.0
 21
1.0
 12
51.21337068296162
 22
-58.58671665718259
 13
0.0
 23
0.0
 14
1.0
 24
1.0
 15
0.0
 25
0.0
 16
0.0
 26
0.0
 36
1.0
 17
0.0
 27
0.0
 37
0.0
 40
465.7405100641342
 41
1.540229885057471
 42
50.0
 43
0.0
 44
0.0
 50
0.0
 51
0.0
 71
     0
 72
   100
 73
     1
 74
     1
 75
     0
 76
     0
 77
     0
 78
     0
281
     0
 65
     1
110
0.0
120
0.0
130
0.0
111
1.0
121
0.0
131
0.0
112
0.0
122
1.0
132
0.0
 79
     0
146
0.0
  0
ENDTAB
  0
TABLE
  2
LTYPE
  5
4
330
0
100
AcDbSymbolTable
 70
     4
  0
LTYPE
  5
11
330
4
100
AcDbSymbolTableRecord
100
AcDbLinetypeTableRecord
  2
BYBLOCK
 70
     0
  3

 72
    65
 73
     0
 40
0.0
  0
LTYPE
  5
12
330
4
100
AcDbSymbolTableRecord
100
AcDbLinetypeTableRecord
  2
BYLAYER
 70
     0
  3

 72
    65
 73
     0
 40
0.0
  0
LTYPE
  5
13
330
4
100
AcDbSymbolTableRecord
100
AcDbLinetypeTableRecord
  2
CONTINUOUS
 70
     0
  3
Solid line
 72
    65
 73
     0
 40
0.0
  0
LTYPE
  5
91
330
4
100
AcDbSymbolTableRecord
100
AcDbLinetypeTableRecord
  2
CENTER
 70
     0
  3
Center ____ _ ____ _ ____ _ ____ _ ____ _ ____
 72
    65
 73
     4
 40
50.8
 49
31.75
 74
     0
 49
-6.349999999999999
 74
     0
 49
6.349999999999999
 74
     0
 49
-6.349999999999999
 74
     0
  0
LTYPE
  5
A5
330
4
100
AcDbSymbolTableRecord
100
AcDbLinetypeTableRecord
  2
DASHED
 70
     0
  3
Dashed __ __ __ __ __ __ __ __ __ __ __ __ __ _
 72
    65
 73
     2
 40
19.05
 49
12.7
 74
     0
 49
-6.349999999999999
 74
     0
  0
LTYPE
  5
134
330
4
100
AcDbSymbolTableRecord
100
AcDbLinetypeTableRecord
  2
PHANTOM
 70
     0
  3
Phantom ______  __  __  ______  __  __  ______
 72
    65
 73
     6
 40
63.5
 49
31.75
 74
     0
 49
-6.349999999999999
 74
     0
 49
6.349999999999999
 74
     0
 49
-6.349999999999999
 74
     0
 49
6.349999999999999
 74
     0
 49
-6.349999999999999
 74
     0
  0
ENDTAB
  0
TABLE
  2
LAYER
  5
2
330
0
100
AcDbSymbolTable
 70
     2
  0
LAYER
  5
14
330
2
100
AcDbSymbolTableRecord
100
AcDbLayerTableRecord
  2
0
 70
     0
 62
     7
  6
CONTINUOUS
370
    -3
390
172
  0
LAYER
  5
1D
330
2
100
AcDbSymbolTableRecord
100
AcDbLayerTableRecord
  2
DEFPOINTS
 70
     0
 62
     7
  6
CONTINUOUS
290
     0
370
    -3
390
172
  0
ENDTAB
  0
TABLE
  2
STYLE
  5
3
330
0
100
AcDbSymbolTable
 70
     2
  0
STYLE
  5
17
330
3
100
AcDbSymbolTableRecord
100
AcDbTextStyleTableRecord
  2
MX_NOTE_STANDARD
 70
     0
 40
0.0
 41
1.0
 50
0.0
 71
     0
 42
3.200000049999999
  3
txt.shx
  4
extfont.shx
  0
STYLE
  5
170
330
3
100
AcDbSymbolTableRecord
100
AcDbTextStyleTableRecord
  2
Standard
 70
     0
 40
0.0
 41
1.0
 50
0.0
 71
     0
 42
0.2
  3

  4

  0
ENDTAB
  0
TABLE
  2
VIEW
  5
5
330
0
100
AcDbSymbolTable
 70
     0
  0
ENDTAB
  0
TABLE
  2
UCS
  5
6
330
0
100
AcDbSymbolTable
 70
     0
  0
ENDTAB
  0
TABLE
  2
APPID
  5
8
330
0
100
AcDbSymbolTable
 70
     1
  0
APPID
  5
16
330
8
100
AcDbSymbolTableRecord
100
AcDbRegAppTableRecord
  2
ACAD
 70
     0
  0
ENDTAB
  0
TABLE
  2
DIMSTYLE
  5
9
330
0
100
AcDbSymbolTable
 70
     1
100
AcDbDimStyleTable
 71
     0
  0
DIMSTYLE
105
18
330
9
100
AcDbSymbolTableRecord
100
AcDbDimStyleTableRecord
  2
MXDIMSTYLE
 70
     0
 41
2.5
 42
1.5
 43
3.75
 44
1.5
 73
     0
 74
     0
 77
     1
 78
     8
140
3.200000049999999
141
2.5
143
0.03937008
147
1.0
171
     4
172
     1
173
     1
271
     2
272
     2
274
     4
283
     0
288
     1
340
17
341
1E
343
1E
344
1E
  0
ENDTAB
  0
TABLE
  2
BLOCK_RECORD
  5
1
330
0
100
AcDbSymbolTable
 70
     4
  0
BLOCK_RECORD
  5
A
330
1
100
AcDbSymbolTableRecord
100
AcDbBlockTableRecord
  2
*MODEL_SPACE
340
179
  0
BLOCK_RECORD
  5
B
330
1
100
AcDbSymbolTableRecord
100
AcDbBlockTableRecord
  2
*PAPER_SPACE
340
17A
  0
BLOCK_RECORD
  5
1E
330
1
100
AcDbSymbolTableRecord
100
AcDbBlockTableRecord
  2
_OPEN30
340
0
  0
BLOCK_RECORD
  5
17E
330
1
100
AcDbSymbolTableRecord
100
AcDbBlockTableRecord
  2
EWHRT1A_1
340
0
310
2800000020000000200000000100080000000000000400000000000000000000000000000000000000000000000080000080000000808000800000008000800080800000C0C0C000C0DCC000F0CAA6000020400000206000002080000020A0000020C0000020E00000400000004020000040400000406000004080000040A0
310
000040C0000040E00000600000006020000060400000606000006080000060A0000060C0000060E00000800000008020000080400000806000008080000080A0000080C0000080E00000A0000000A0200000A0400000A0600000A0800000A0A00000A0C00000A0E00000C0000000C0200000C0400000C0600000C0800000C0
310
A00000C0C00000C0E00000E0000000E0200000E0400000E0600000E0800000E0A00000E0C00000E0E00040000000400020004000400040006000400080004000A0004000C0004000E00040200000402020004020400040206000402080004020A0004020C0004020E000404000004040200040404000404060004040800040
310
40A0004040C0004040E00040600000406020004060400040606000406080004060A0004060C0004060E00040800000408020004080400040806000408080004080A0004080C0004080E00040A0000040A0200040A0400040A0600040A0800040A0A00040A0C00040A0E00040C0000040C0200040C0400040C0600040C08000
310
40C0A00040C0C00040C0E00040E0000040E0200040E0400040E0600040E0800040E0A00040E0C00040E0E00080000000800020008000400080006000800080008000A0008000C0008000E00080200000802020008020400080206000802080008020A0008020C0008020E00080400000804020008040400080406000804080
310
008040A0008040C0008040E00080600000806020008060400080606000806080008060A0008060C0008060E00080800000808020008080400080806000808080008080A0008080C0008080E00080A0000080A0200080A0400080A0600080A0800080A0A00080A0C00080A0E00080C0000080C0200080C0400080C0600080C0
310
800080C0A00080C0C00080C0E00080E0000080E0200080E0400080E0600080E0800080E0A00080E0C00080E0E000C0000000C0002000C0004000C0006000C0008000C000A000C000C000C000E000C0200000C0202000C0204000C0206000C0208000C020A000C020C000C020E000C0400000C0402000C0404000C0406000C0
310
408000C040A000C040C000C040E000C0600000C0602000C0604000C0606000C0608000C060A000C060C000C060E000C0800000C0802000C0804000C0806000C0808000C080A000C080C000C080E000C0A00000C0A02000C0A04000C0A06000C0A08000C0A0A000C0A0C000C0A0E000C0C00000C0C02000C0C04000C0C06000
310
C0C08000C0C0A000F0FBFF00A4A0A000808080000000FF0000FF000000FFFF00FF000000FF00FF00FFFF0000FFFFFF00FFFFFFFFFFFFFFFFFFFFFFFFFFFFFFFFFFFFFFFFFFFFFFFFFFFFFFFFFFFFFFFFFFFFFFFFFFFFFFFFFFFFFFFFFFFFFFFFFFFFFBFFFFFFFFFFFFFFFFFFFFFFFFFFFFFFFFFFFFFFFFFFFFFFFFFFFFFFFF
310
FF00000000FFFFFFFFFFFFFFFFFFFFFFFFFFFFFFFFFFFFFFFFFFFFFFFFFFFFFFFF00FFFB00FFFFFFFFFFFFFFFFFFFFFFFFFFFFFFFFFFFFFFFFFFFFFFFFFFFFFFFF00000000FFFFFFFFFFFFFFFFFFFFFFFFFFFFFFFFFFFFFFFFFFFFFFFFFFFFFFFFFF00FB00FFFFFFFFFFFFFFFFFFFFFFFFFFFFFFFFFFFFFFFFFFFFFFFFFFFF
310
FFFFFF00FB00FFFFFFFFFFFFFFFFFFFFFFFFFFFFFFFFFFFFFFFFFFFFFFFFFFFFFFFFFF000000FFFFFFFFFFFFFFFFFFFFFFFFFFFFFFFFFFFFFFFFFFFFFFFFFFFFFFFFFFFBFBFBFFFFFFFFFFFFFFFFFFFFFFFFFFFFFFFFFFFFFFFFFFFFFFFFFFFFFFFFFFFBFBFBFFFFFFFFFFFFFFFFFFFFFFFFFFFFFFFFFFFFFFFFFFFFFFFFFF
310
FFFFFFFF0000FBFFFFFFFFFFFFFFFFFFFFFFFFFFFFFFFFFFFFFFFFFFFFFFFFFFFFFFFFFF0000FFFFFFFFFFFFFFFFFFFFFFFFFFFFFFFFFFFFFFFFFFFFFFFFFFFFFFFFFFFF0000FFFFFFFFFFFFFFFFFFFFFFFFFFFFFFFFFFFFFFFFFFFFFFFFFFFFFFFFFFFF0000FFFFFFFFFFFFFFFFFFFFFFFFFFFFFFFFFFFFFFFFFFFFFFFFFF
310
000000000000000000FFFFFFFFFFFFFFFFFFFFFFFFFFFFFFFFFFFFFFFFFFFFFF0000FFFFFFFF00FF00FFFFFFFFFFFFFFFFFFFFFFFFFFFFFFFFFFFFFFFFFFFFFF000000000000000000FFFFFFFFFFFFFFFFFFFFFFFFFFFFFFFFFFFFFFFFFFFF000000FFFFFFFF00FF00FFFFFFFFFFFFFFFFFFFFFFFFFFFFFFFFFFFFFFFFFFFF
310
000000FFFFFFFF00FF00FFFFFFFFFFFFFFFFFFFFFFFFFFFFFFFFFFFFFFFFFFFF000000FFFFFFFF00FF00FFFFFFFFFFFFFFFFFFFFFFFFFFFFFFFFFFFFFFFFFFFFFB0000FFFFFFFF00FF00FFFFFFFFFFFFFFFFFFFFFFFFFFFFFFFFFFFFFFFFFFFFFBFBFBFBFBFBFBFBFBFBFFFFFFFFFFFFFFFFFFFFFFFFFFFFFFFFFFFFFFFFFF
310
FBFBFBFBFBFBFBFBFBFBFBFBFFFFFFFFFFFFFFFFFFFFFFFFFFFFFFFFFFFFFFFFFFFB0000FFFFFFFF00FF00FFFFFFFFFFFFFFFFFFFFFFFFFFFFFFFFFFFFFFFFFFFFFB0000FFFFFFFF00FF00FFFFFFFFFFFFFFFFFFFFFFFFFFFFFFFFFFFFFFFFFFFF000000FFFFFFFF00FF00FFFFFFFFFFFFFFFFFFFFFFFFFFFFFFFFFFFFFFFF
310
FFFF000000FFFFFFFF00FF00FFFFFFFFFFFFFFFFFFFFFFFFFFFFFFFFFFFFFFFFFFFFFF0000FFFFFFFF00FF00FFFFFFFFFFFFFFFFFFFFFFFFFFFFFFFFFFFFFFFFFFFFFF000000000000000000FFFFFFFFFFFFFFFFFFFFFFFFFFFFFFFFFFFFFFFFFFFFFF0000FFFFFFFF00FF00FFFFFFFFFFFFFFFFFFFFFFFFFFFFFFFFFFFFFF
310
FFFFFFFF000000000000000000FFFFFFFFFFFFFFFFFFFFFFFFFFFFFFFFFFFFFFFFFFFFFFFFFFFFFFFFFFFFFFFFFFFFFFFFFFFFFFFFFFFFFF
102
{BLKREFS
331
1C2
102
}
  0
BLOCK_RECORD
  5
1C3
330
1
100
AcDbSymbolTableRecord
100
AcDbBlockTableRecord
  2
EWHRT1A_2
340
0
310
2800000020000000200000000100080000000000000400000000000000000000000000000000000000000000000080000080000000808000800000008000800080800000C0C0C000C0DCC000F0CAA6000020400000206000002080000020A0000020C0000020E00000400000004020000040400000406000004080000040A0
310
000040C0000040E00000600000006020000060400000606000006080000060A0000060C0000060E00000800000008020000080400000806000008080000080A0000080C0000080E00000A0000000A0200000A0400000A0600000A0800000A0A00000A0C00000A0E00000C0000000C0200000C0400000C0600000C0800000C0
310
A00000C0C00000C0E00000E0000000E0200000E0400000E0600000E0800000E0A00000E0C00000E0E00040000000400020004000400040006000400080004000A0004000C0004000E00040200000402020004020400040206000402080004020A0004020C0004020E000404000004040200040404000404060004040800040
310
40A0004040C0004040E00040600000406020004060400040606000406080004060A0004060C0004060E00040800000408020004080400040806000408080004080A0004080C0004080E00040A0000040A0200040A0400040A0600040A0800040A0A00040A0C00040A0E00040C0000040C0200040C0400040C0600040C08000
310
40C0A00040C0C00040C0E00040E0000040E0200040E0400040E0600040E0800040E0A00040E0C00040E0E00080000000800020008000400080006000800080008000A0008000C0008000E00080200000802020008020400080206000802080008020A0008020C0008020E00080400000804020008040400080406000804080
310
008040A0008040C0008040E00080600000806020008060400080606000806080008060A0008060C0008060E00080800000808020008080400080806000808080008080A0008080C0008080E00080A0000080A0200080A0400080A0600080A0800080A0A00080A0C00080A0E00080C0000080C0200080C0400080C0600080C0
310
800080C0A00080C0C00080C0E00080E0000080E0200080E0400080E0600080E0800080E0A00080E0C00080E0E000C0000000C0002000C0004000C0006000C0008000C000A000C000C000C000E000C0200000C0202000C0204000C0206000C0208000C020A000C020C000C020E000C0400000C0402000C0404000C0406000C0
310
408000C040A000C040C000C040E000C0600000C0602000C0604000C0606000C0608000C060A000C060C000C060E000C0800000C0802000C0804000C0806000C0808000C080A000C080C000C080E000C0A00000C0A02000C0A04000C0A06000C0A08000C0A0A000C0A0C000C0A0E000C0C00000C0C02000C0C04000C0C06000
310
C0C08000C0C0A000F0FBFF00A4A0A000808080000000FF0000FF000000FFFF00FF000000FF00FF00FFFF0000FFFFFF00FFFFFFFFFFFFFFFFFFFFFFFFFFFFFFFFFFFFFFFFFFFFFFFFFFFFFFFFFFFFFFFFFFFFFFFFFFFFFFFFFFFFFFFFFFFFFFFBFFFFFFFFFFFFFFFFFFFFFFFFFFFFFFFFFFFFFFFFFFFFFFFFFFFFFFFFFFFF00
310
FB0000FFFFFFFFFFFFFFFFFFFFFFFFFFFFFFFFFFFFFFFFFFFFFFFFFFFFFFFF00FBFF00FFFFFFFFFFFFFFFFFFFFFFFFFFFFFFFFFFFFFFFFFFFFFFFFFFFFFFFF00FB0000FFFFFFFFFFFFFFFFFFFFFFFFFFFFFFFFFFFFFFFFFFFFFFFFFFFFFFFF00FBFF00FFFFFFFFFFFFFFFFFFFFFFFFFFFFFFFFFFFFFFFFFFFFFFFFFFFFFFFF
310
00FB0000FFFFFFFFFFFFFFFFFFFFFFFFFFFFFFFFFFFFFFFFFFFFFFFFFFFFFFFFFFFB00FFFFFFFFFFFFFFFFFFFFFFFFFFFFFFFFFFFFFFFFFFFFFFFFFFFFFFFFFFFFFB00FFFFFFFFFFFFFFFFFFFFFFFFFFFFFFFFFFFFFFFFFFFFFFFFFFFFFFFFFFFFFB00FFFFFFFFFFFFFFFFFFFFFFFFFFFFFFFFFFFFFFFFFFFFFFFFFFFFFFFF
310
FFFFFBFBFFFFFFFFFFFFFFFFFFFFFFFFFFFFFFFFFFFFFFFFFFFFFFFFFFFFFFFFFFFF0000FFFFFFFFFFFFFFFFFFFFFFFFFFFFFFFFFFFFFFFFFFFFFFFFFFFFFFFFFFFFFB00FFFFFFFFFFFFFFFFFFFFFFFFFFFFFFFFFFFFFFFFFFFFFFFFFFFFFFFFFFFFFB00FFFFFFFFFFFFFFFFFFFFFFFFFFFFFFFFFFFFFFFFFFFFFFFFFFFF00
310
0000000000000000FFFFFFFFFFFFFFFFFFFFFFFFFFFFFFFFFFFFFFFFFFFFFF00FB0000FBFF0000FB00FFFFFFFFFFFFFFFFFFFFFFFFFFFFFFFFFFFFFFFFFFFF00FFFBFFFBFFFFFBFF00FFFFFFFFFFFFFFFFFFFFFFFFFFFFFFFFFFFFFFFFFFFF00FFFFFFFB00FFFFFF00FFFFFFFFFFFFFFFFFFFFFFFFFFFFFFFFFFFFFFFFFFFF
310
00FF0000FBFB00FBFF00FFFFFFFFFFFFFFFFFFFFFFFFFFFFFFFFFFFFFFFFFFFF0000FBFBFBFFFBFB0000FFFFFFFFFFFFFFFFFFFFFFFFFFFFFFFFFFFFFFFFFFFF0000FBFFFBFBFFFBFB00FFFFFFFFFFFFFFFFFFFFFFFFFFFFFFFFFFFFFFFFFFFB00FBFBFBFBFBFBFBFB00FBFFFFFFFFFFFFFFFFFFFFFFFFFFFFFFFFFFFFFFFF
310
FF00FBFFFFFBFF00FFFB00FFFFFFFFFFFFFFFFFFFFFFFFFFFFFFFFFFFFFFFFFFFF0000FBFFFB00FFFB0000FFFFFFFFFFFFFFFFFFFFFFFFFFFFFFFFFFFFFFFFFFFF0000FBFFFBFFFBFB0000FFFFFFFFFFFFFFFFFFFFFFFFFFFFFFFFFFFFFFFFFFFF00FB00FBFBFB0000FB00FFFFFFFFFFFFFFFFFFFFFFFFFFFFFFFFFFFFFFFF
310
FFFF0000FBFFFB00FFFB0000FFFFFFFFFFFFFFFFFFFFFFFFFFFFFFFFFFFFFFFFFFFF00000000FBFF00FF0000FFFFFFFFFFFFFFFFFFFFFFFFFFFFFFFFFFFFFFFFFFFF00FB0000FBFB00000000FFFFFFFFFFFFFFFFFFFFFFFFFFFFFFFFFFFFFFFFFFFFFF0000000000000000FFFFFFFFFFFFFFFFFFFFFFFFFFFFFFFFFFFFFFFF
310
FFFFFFFFFFFFFFFBFFFFFFFFFFFFFFFFFFFFFFFFFFFFFFFFFFFFFFFFFFFFFFFFFFFFFFFFFFFFFFFFFFFFFFFFFFFFFFFFFFFFFFFFFFFFFFFF
102
{BLKREFS
331
271
102
}
  0
BLOCK_RECORD
  5
272
330
1
100
AcDbSymbolTableRecord
100
AcDbBlockTableRecord
  2
EWHRT1A_3
340
0
310
2800000020000000200000000100080000000000000400000000000000000000000000000000000000000000000080000080000000808000800000008000800080800000C0C0C000C0DCC000F0CAA6000020400000206000002080000020A0000020C0000020E00000400000004020000040400000406000004080000040A0
310
000040C0000040E00000600000006020000060400000606000006080000060A0000060C0000060E00000800000008020000080400000806000008080000080A0000080C0000080E00000A0000000A0200000A0400000A0600000A0800000A0A00000A0C00000A0E00000C0000000C0200000C0400000C0600000C0800000C0
310
A00000C0C00000C0E00000E0000000E0200000E0400000E0600000E0800000E0A00000E0C00000E0E00040000000400020004000400040006000400080004000A0004000C0004000E00040200000402020004020400040206000402080004020A0004020C0004020E000404000004040200040404000404060004040800040
310
40A0004040C0004040E00040600000406020004060400040606000406080004060A0004060C0004060E00040800000408020004080400040806000408080004080A0004080C0004080E00040A0000040A0200040A0400040A0600040A0800040A0A00040A0C00040A0E00040C0000040C0200040C0400040C0600040C08000
310
40C0A00040C0C00040C0E00040E0000040E0200040E0400040E0600040E0800040E0A00040E0C00040E0E00080000000800020008000400080006000800080008000A0008000C0008000E00080200000802020008020400080206000802080008020A0008020C0008020E00080400000804020008040400080406000804080
310
008040A0008040C0008040E00080600000806020008060400080606000806080008060A0008060C0008060E00080800000808020008080400080806000808080008080A0008080C0008080E00080A0000080A0200080A0400080A0600080A0800080A0A00080A0C00080A0E00080C0000080C0200080C0400080C0600080C0
310
800080C0A00080C0C00080C0E00080E0000080E0200080E0400080E0600080E0800080E0A00080E0C00080E0E000C0000000C0002000C0004000C0006000C0008000C000A000C000C000C000E000C0200000C0202000C0204000C0206000C0208000C020A000C020C000C020E000C0400000C0402000C0404000C0406000C0
310
408000C040A000C040C000C040E000C0600000C0602000C0604000C0606000C0608000C060A000C060C000C060E000C0800000C0802000C0804000C0806000C0808000C080A000C080C000C080E000C0A00000C0A02000C0A04000C0A06000C0A08000C0A0A000C0A0C000C0A0E000C0C00000C0C02000C0C04000C0C06000
310
C0C08000C0C0A000F0FBFF00A4A0A000808080000000FF0000FF000000FFFF00FF000000FF00FF00FFFF0000FFFFFF00FFFFFFFFFFFFFFFFFFFFFFFFFFFFFFFFFFFFFFFFFFFFFFFFFFFFFFFFFFFFFFFFFFFFFFFFFFFFFFFFFFFFFFFFFFFFFFFFFBFFFFFFFFFFFFFFFFFFFFFFFFFFFFFFFFFFFFFFFFFFFFFFFFFFFFFFFFFFFB
310
FBFBFFFFFFFFFFFFFFFFFFFFFFFFFFFFFFFFFFFFFFFFFFFFFFFFFFFFFFFFFFFBFBFBFBFFFFFFFFFFFFFFFFFFFFFFFFFFFFFFFFFFFFFFFFFFFFFFFFFFFFFFFFFF00FBFFFFFFFFFFFFFFFFFFFFFFFFFFFFFFFFFFFFFFFFFFFFFFFFFFFFFFFFFFFF00FBFFFFFFFFFFFFFFFFFFFFFFFFFFFFFFFFFFFFFFFFFFFFFFFFFFFFFFFFFF
310
FF00FBFFFFFFFFFFFFFFFFFFFFFFFFFFFFFFFFFFFFFFFFFFFFFFFFFFFFFFFFFFFF00FBFFFFFFFFFFFFFFFFFFFFFFFFFFFFFFFFFFFFFFFFFFFFFFFFFF000000000000FB0000000000FFFFFFFFFFFFFFFFFFFFFFFFFFFFFFFFFFFFFFFF00FF00FBFFFFFBFFFB0000FB00FFFFFFFFFFFFFFFFFFFFFFFFFFFFFFFFFFFF00FBFBFB
310
FBFBFFFBFBFBFBFBFB00FFFFFFFFFFFFFFFFFFFFFFFFFFFFFFFFFFFF00FFFFFFFBFFFFFBFFFBFFFFFF00FFFFFFFFFFFFFFFFFFFFFFFFFFFFFFFFFFFF00FFFFFFFFFFFFFBFF000000FF00FFFFFFFFFFFFFFFFFFFFFFFFFFFFFFFFFFFF00FFFFFFFFFFFFFB00FFFFFF0000FFFFFFFFFFFFFFFFFFFFFFFFFFFFFFFFFFFF00FFFF
310
FFFFFFFFFBFFFFFFFF0000FFFFFFFFFFFFFFFFFFFFFFFFFFFFFFFFFFFF00FFFFFFFFFFFFFBFFFFFFFF0000FFFFFFFFFFFFFFFFFFFFFFFFFFFFFFFFFFFF00FFFFFFFFFFFFFB00FFFF00FF00FFFFFFFFFFFFFFFFFFFFFFFFFFFFFFFFFFFF00FFFFFFFFFFFFFB00000000FF00FFFFFFFFFFFFFFFFFFFFFFFFFFFFFFFFFFFF00FB
310
FFFFFFFF00FB00FFFFFFFB00FFFFFFFFFFFFFFFFFFFFFFFFFFFFFFFFFFFBFBFBFBFBFBFB00FBFBFBFBFBFBFBFBFFFFFFFFFFFFFFFFFFFFFFFFFFFFFFFFFF00FFFFFFFFFF00FBFFFFFFFFFF00FFFFFFFFFFFFFFFFFFFFFFFFFFFFFFFFFFFF00FFFFFFFFFFFFFBFFFFFFFFFF00FFFFFFFFFFFFFFFFFFFFFFFFFFFFFFFFFFFF00
310
FFFFFFFFFFFFFBFFFFFFFFFF00FFFFFFFFFFFFFFFFFFFFFFFFFFFFFFFFFFFF00FFFFFFFFFFFFFBFFFFFFFFFF00FFFFFFFFFFFFFFFFFFFFFFFFFFFFFFFFFFFF00FBFFFFFFFFFFFBFFFFFF00FB00FFFFFFFFFFFFFFFFFFFFFFFFFFFFFFFFFFFF00FBFBFBFFFFFFFBFFFFFBFBFB00FFFFFFFFFFFFFFFFFFFFFFFFFFFFFFFFFFFF
310
00FBFFFFFFFFFFFBFFFFFF00FB00FFFFFFFFFFFFFFFFFFFFFFFFFFFFFFFFFFFF00FBFBFFFFFFFFFBFFFFFFFBFB00FFFFFFFFFFFFFFFFFFFFFFFFFFFFFFFFFFFFFF00FFFFFFFFFFFBFFFFFF00FB00FFFFFFFFFFFFFFFFFFFFFFFFFFFFFFFFFFFFFF000000000000FB0000000000FFFFFFFFFFFFFFFFFFFFFFFFFFFFFFFFFFFF
310
FFFFFFFFFFFFFFFFFBFFFFFFFFFFFFFFFFFFFFFFFFFFFFFFFFFFFFFFFFFFFFFFFFFFFFFFFFFFFFFFFFFFFFFFFFFFFFFFFFFFFFFFFFFFFFFF
102
{BLKREFS
331
2C9
102
}
  0
ENDTAB
  0
ENDSEC
  0
SECTION
  2
BLOCKS
  0
BLOCK
  5
D
330
A
100
AcDbEntity
  8
0
100
AcDbBlockBegin
  2
*MODEL_SPACE
 70
     0
 10
0.0
 20
0.0
 30
0.0
  3
*MODEL_SPACE
  1

  0
ENDBLK
  5
E
330
A
100
AcDbEntity
  8
0
100
AcDbBlockEnd
  0
BLOCK
  5
F
330
B
100
AcDbEntity
 67
     1
  8
0
100
AcDbBlockBegin
  2
*PAPER_SPACE
 70
     0
 10
0.0
 20
0.0
 30
0.0
  3
*PAPER_SPACE
  1

  0
ENDBLK
  5
10
330
B
100
AcDbEntity
 67
     1
  8
0
100
AcDbBlockEnd
  0
BLOCK
  5
1F
330
1E
100
AcDbEntity
  8
0
 62
     0
100
AcDbBlockBegin
  2
_OPEN30
 70
     2
 10
0.0
 20
0.0
 30
0.0
  3
_OPEN30
  1

  0
LINE
  5
20
330
1E
100
AcDbEntity
  8
0
  6
ByBlock
 62
     0
100
AcDbLine
 10
-1.0
 20
0.267949
 30
0.0
 11
0.0
 21
0.0
 31
0.0
  0
LINE
  5
21
330
1E
100
AcDbEntity
  8
0
  6
ByBlock
 62
     0
100
AcDbLine
 10
0.0
 20
0.0
 30
0.0
 11
-1.0
 21
-0.267949
 31
0.0
  0
LINE
  5
22
330
1E
100
AcDbEntity
  8
0
  6
ByBlock
 62
     0
100
AcDbLine
 10
0.0
 20
0.0
 30
0.0
 11
-1.0
 21
0.0
 31
0.0
  0
ENDBLK
  5
23
330
1E
100
AcDbEntity
  8
0
 62
     0
100
AcDbBlockEnd
  0
BLOCK
  5
17F
330
17E
100
AcDbEntity
  8
0
100
AcDbBlockBegin
  2
EWHRT1A_1
 70
     0
 10
0.0
 20
0.0
 30
0.0
  3
EWHRT1A_1
  1

  0
LINE
  5
181
330
17E
100
AcDbEntity
  8
0
  6
Continuous
 62
     2
100
AcDbLine
 10
4.786982689999998
 20
-0.0000000000000036
 30
0.0
 11
-41.06612826
 21
-0.0000000000000036
 31
0.0
  0
LINE
  5
182
330
17E
100
AcDbEntity
  8
0
  6
DASHED
 62
     2
100
AcDbLine
 10
-38.0
 20
-8.000000000000003
 30
0.0
 11
-38.0
 21
8.0
 31
0.0
  0
LINE
  5
183
330
17E
100
AcDbEntity
  8
0
  6
DASHED
 62
     2
100
AcDbLine
 10
-40.0
 20
-8.000000000000003
 30
0.0
 11
-38.0
 21
-8.000000000000003
 31
0.0
  0
LINE
  5
184
330
17E
100
AcDbEntity
  8
0
  6
DASHED
 62
     2
100
AcDbLine
 10
-40.0
 20
8.0
 30
0.0
 11
-38.0
 21
8.0
 31
0.0
  0
LINE
  5
185
330
17E
100
AcDbEntity
  8
0
  6
DASHED
 62
     2
100
AcDbLine
 10
-38.0
 20
-3.000000000000003
 30
0.0
 11
0.0
 21
-3.000000000000003
 31
0.0
  0
LINE
  5
186
330
17E
100
AcDbEntity
  8
0
  6
DASHED
 62
     2
100
AcDbLine
 10
-38.0
 20
2.999999999999996
 30
0.0
 11
0.0
 21
2.999999999999996
 31
0.0
  0
LINE
  5
187
330
17E
100
AcDbEntity
  8
0
  6
Continuous
 62
     7
100
AcDbLine
 10
-31.0
 20
35.0
 30
0.0
 11
-31.0
 21
-35.0
 31
0.0
  0
LINE
  5
188
330
17E
100
AcDbEntity
  8
0
  6
Continuous
 62
     7
100
AcDbLine
 10
-35.5
 20
-19.0
 30
0.0
 11
-35.0
 21
-19.0
 31
0.0
  0
LINE
  5
189
330
17E
100
AcDbEntity
  8
0
  6
Continuous
 62
     7
100
AcDbLine
 10
-35.5
 20
19.0
 30
0.0
 11
-35.0
 21
19.0
 31
0.0
  0
LINE
  5
18A
330
17E
100
AcDbEntity
  8
0
  6
Continuous
 62
     7
100
AcDbLine
 10
-5.0
 20
35.0
 30
0.0
 11
-5.0
 21
-35.0
 31
0.0
  0
LINE
  5
18B
330
17E
100
AcDbEntity
  8
0
  6
Continuous
 62
     7
100
AcDbLine
 10
-40.0
 20
-19.5
 30
0.0
 11
-40.0
 21
19.5
 31
0.0
  0
LINE
  5
18C
330
17E
100
AcDbEntity
  8
0
  6
Continuous
 62
     7
100
AcDbLine
 10
0.0
 20
35.0
 30
0.0
 11
0.0
 21
-35.0
 31
0.0
  0
LINE
  5
18D
330
17E
100
AcDbEntity
  8
0
  6
Continuous
 62
     7
100
AcDbLine
 10
-35.0
 20
-35.0
 30
0.0
 11
-35.0
 21
35.0
 31
0.0
  0
LINE
  5
18E
330
17E
100
AcDbEntity
  8
0
  6
Continuous
 62
     7
100
AcDbLine
 10
-35.5
 20
20.0
 30
0.0
 11
-35.5
 21
-20.0
 31
0.0
  0
LINE
  5
18F
330
17E
100
AcDbEntity
  8
0
  6
Continuous
 62
     7
100
AcDbLine
 10
-4.0
 20
35.0
 30
0.0
 11
0.0
 21
35.0
 31
0.0
  0
LINE
  5
190
330
17E
100
AcDbEntity
  8
0
  6
Continuous
 62
     7
100
AcDbLine
 10
-4.0
 20
-35.0
 30
0.0
 11
0.0
 21
-35.0
 31
0.0
  0
LINE
  5
191
330
17E
100
AcDbEntity
  8
0
  6
Continuous
 62
     7
100
AcDbLine
 10
-31.0
 20
35.0
 30
0.0
 11
-35.0
 21
35.0
 31
0.0
  0
LINE
  5
192
330
17E
100
AcDbEntity
  8
0
  6
Continuous
 62
     7
100
AcDbLine
 10
-31.0
 20
-35.0
 30
0.0
 11
-35.0
 21
-35.0
 31
0.0
  0
LINE
  5
193
330
17E
100
AcDbEntity
  8
0
  6
Continuous
 62
     7
100
AcDbLine
 10
-31.0
 20
-35.0
 30
0.0
 11
-4.0
 21
-35.0
 31
0.0
  0
LINE
  5
194
330
17E
100
AcDbEntity
  8
0
  6
Continuous
 62
     7
100
AcDbLine
 10
-4.0
 20
-27.00000000000001
 30
0.0
 11
0.0
 21
-27.00000000000001
 31
0.0
  0
LINE
  5
195
330
17E
100
AcDbEntity
  8
0
  6
Continuous
 62
     7
100
AcDbLine
 10
-31.0
 20
-27.00000000000001
 30
0.0
 11
-35.0
 21
-27.00000000000001
 31
0.0
  0
LINE
  5
196
330
17E
100
AcDbEntity
  8
0
  6
Continuous
 62
     7
100
AcDbLine
 10
-31.0
 20
-27.00000000000001
 30
0.0
 11
-4.0
 21
-27.00000000000001
 31
0.0
  0
LINE
  5
197
330
17E
100
AcDbEntity
  8
0
  6
Continuous
 62
     7
100
AcDbLine
 10
-31.0
 20
35.0
 30
0.0
 11
-4.0
 21
35.0
 31
0.0
  0
LINE
  5
198
330
17E
100
AcDbEntity
  8
0
  6
Continuous
 62
     7
100
AcDbLine
 10
-31.0
 20
27.0
 30
0.0
 11
-4.0
 21
27.0
 31
0.0
  0
LINE
  5
199
330
17E
100
AcDbEntity
  8
0
  6
Continuous
 62
     7
100
AcDbLine
 10
-31.0
 20
27.0
 30
0.0
 11
-35.0
 21
27.0
 31
0.0
  0
LINE
  5
19A
330
17E
100
AcDbEntity
  8
0
  6
Continuous
 62
     7
100
AcDbLine
 10
-4.0
 20
27.0
 30
0.0
 11
0.0
 21
27.0
 31
0.0
  0
LINE
  5
19B
330
17E
100
AcDbEntity
  8
0
  6
Continuous
 62
     7
100
AcDbLine
 10
-39.5
 20
20.0
 30
0.0
 11
-39.5
 21
-20.0
 31
0.0
  0
LINE
  5
19C
330
17E
100
AcDbEntity
  8
0
  6
Continuous
 62
     7
100
AcDbLine
 10
-14.225
 20
-90.0
 30
0.0
 11
-2.925
 21
-90.0
 31
0.0
  0
LINE
  5
19D
330
17E
100
AcDbEntity
  8
0
  6
Continuous
 62
     7
100
AcDbLine
 10
-2.925
 20
-90.0
 30
0.0
 11
-2.925
 21
-80.0
 31
0.0
  0
LINE
  5
19E
330
17E
100
AcDbEntity
  8
0
  6
Continuous
 62
     7
100
AcDbLine
 10
-14.225
 20
-90.0
 30
0.0
 11
-14.225
 21
-80.0
 31
0.0
  0
LINE
  5
19F
330
17E
100
AcDbEntity
  8
0
  6
Continuous
 62
     7
100
AcDbLine
 10
-11.625
 20
-78.75
 30
0.0
 11
-11.625
 21
-69.0
 31
0.0
  0
LINE
  5
1A0
330
17E
100
AcDbEntity
  8
0
  6
Continuous
 62
     7
100
AcDbLine
 10
-4.175
 20
-78.75
 30
0.0
 11
-4.175
 21
-69.0
 31
0.0
  0
LINE
  5
1A1
330
17E
100
AcDbEntity
  8
0
  6
Continuous
 62
     7
100
AcDbLine
 10
-13.725
 20
-80.0
 30
0.0
 11
-2.925
 21
-80.0
 31
0.0
  0
LINE
  5
1A2
330
17E
100
AcDbEntity
  8
0
  6
Continuous
 62
     7
100
AcDbLine
 10
-11.625
 20
-69.0
 30
0.0
 11
-4.175
 21
-69.0
 31
0.0
  0
LINE
  5
1A3
330
17E
100
AcDbEntity
  8
0
  6
Continuous
 62
     7
100
AcDbLine
 10
-2.925
 20
-80.0
 30
0.0
 11
-4.175
 21
-78.75
 31
0.0
  0
LINE
  5
1A4
330
17E
100
AcDbEntity
  8
0
  6
Continuous
 62
     7
100
AcDbLine
 10
-4.175
 20
-78.75
 30
0.0
 11
-11.125
 21
-78.75
 31
0.0
  0
LINE
  5
1A5
330
17E
100
AcDbEntity
  8
0
  6
Continuous
 62
     7
100
AcDbLine
 10
-14.225
 20
-80.0
 30
0.0
 11
-11.28733766
 21
-78.58766234
 31
0.0
  0
LINE
  5
1A6
330
17E
100
AcDbEntity
  8
0
  6
Continuous
 62
     7
100
AcDbLine
 10
-13.725
 20
-90.0
 30
0.0
 11
-13.725
 21
-80.0
 31
0.0
  0
LINE
  5
1A7
330
17E
100
AcDbEntity
  8
0
  6
Continuous
 62
     7
100
AcDbLine
 10
-11.125
 20
-78.75
 30
0.0
 11
-11.125
 21
-69.0
 31
0.0
  0
LINE
  5
1A8
330
17E
100
AcDbEntity
  8
0
  6
Continuous
 62
     7
100
AcDbLine
 10
-13.725
 20
-80.0
 30
0.0
 11
-13.88733766
 21
-79.83766234
 31
0.0
  0
LINE
  5
1A9
330
17E
100
AcDbEntity
  8
0
  6
Continuous
 62
     7
100
AcDbLine
 10
-11.125
 20
-78.75
 30
0.0
 11
-11.28733766
 21
-78.58766234
 31
0.0
  0
LINE
  5
1AA
330
17E
100
AcDbEntity
  8
0
  6
Continuous
 62
     7
100
AcDbLine
 10
-10.8
 20
-65.0
 30
0.0
 11
-5.0
 21
-65.0
 31
0.0
  0
LINE
  5
1AB
330
17E
100
AcDbEntity
  8
0
  6
Continuous
 62
     7
100
AcDbLine
 10
-5.0
 20
-35.0
 30
0.0
 11
-5.0
 21
-53.81227849
 31
0.0
  0
LINE
  5
1AC
330
17E
100
AcDbEntity
  8
0
  6
Continuous
 62
     7
100
AcDbLine
 10
-10.8
 20
-35.0
 30
0.0
 11
-10.8
 21
-55.36638381
 31
0.0
  0
LINE
  5
1AD
330
17E
100
AcDbEntity
  8
0
  6
Continuous
 62
     2
100
AcDbLine
 10
-7.9
 20
-33.0
 30
0.0
 11
-7.9
 21
-92.0
 31
0.0
  0
LINE
  5
1AE
330
17E
100
AcDbEntity
  8
0
  6
Continuous
 62
     7
100
AcDbLine
 10
-9.5
 20
-65.0
 30
0.0
 11
-9.5
 21
-69.0
 31
0.0
  0
LINE
  5
1AF
330
17E
100
AcDbEntity
  8
0
  6
Continuous
 62
     7
100
AcDbLine
 10
-8.699999999999999
 20
-65.0
 30
0.0
 11
-8.699999999999999
 21
-69.0
 31
0.0
  0
LINE
  5
1B0
330
17E
100
AcDbEntity
  8
0
  6
Continuous
 62
     7
100
AcDbLine
 10
-6.3
 20
-65.0
 30
0.0
 11
-6.3
 21
-69.0
 31
0.0
  0
LINE
  5
1B1
330
17E
100
AcDbEntity
  8
0
  6
Continuous
 62
     7
100
AcDbLine
 10
-7.099999999999999
 20
-65.0
 30
0.0
 11
-7.099999999999999
 21
-69.0
 31
0.0
  0
LINE
  5
1B2
330
17E
100
AcDbEntity
  8
0
  6
PHANTOM
 62
     2
100
AcDbLine
 10
-11.8
 20
-60.0
 30
0.0
 11
-4.0
 21
-60.0
 31
0.0
  0
LINE
  5
1B3
330
17E
100
AcDbEntity
  8
0
  6
PHANTOM
 62
     2
100
AcDbLine
 10
-12.625
 20
-78.0
 30
0.0
 11
-3.175
 21
-78.0
 31
0.0
  0
LINE
  5
1B4
330
17E
100
AcDbEntity
  8
0
  6
PHANTOM
 62
     2
100
AcDbLine
 10
-4.0
 20
-60.0
 30
0.0
 11
-4.0
 21
-65.0
 31
0.0
  0
LINE
  5
1B5
330
17E
100
AcDbEntity
  8
0
  6
PHANTOM
 62
     2
100
AcDbLine
 10
-11.8
 20
-60.0
 30
0.0
 11
-11.8
 21
-65.0
 31
0.0
  0
LINE
  5
1B6
330
17E
100
AcDbEntity
  8
0
  6
PHANTOM
 62
     2
100
AcDbLine
 10
-12.625
 20
-78.0
 30
0.0
 11
-12.625
 21
-69.0
 31
0.0
  0
LINE
  5
1B7
330
17E
100
AcDbEntity
  8
0
  6
PHANTOM
 62
     2
100
AcDbLine
 10
-3.175
 20
-78.0
 30
0.0
 11
-3.175
 21
-69.0
 31
0.0
  0
LINE
  5
1B8
330
17E
100
AcDbEntity
  8
0
  6
PHANTOM
 62
     2
100
AcDbLine
 10
-11.8
 20
-65.0
 30
0.0
 11
-12.625
 21
-69.0
 31
0.0
  0
LINE
  5
1B9
330
17E
100
AcDbEntity
  8
0
  6
PHANTOM
 62
     2
100
AcDbLine
 10
-4.0
 20
-65.0
 30
0.0
 11
-3.175
 21
-69.0
 31
0.0
  0
LINE
  5
1BA
330
17E
100
AcDbEntity
  8
0
  6
Continuous
 62
     2
100
AcDbLine
 10
-3.981599370000001
 20
-54.53939887
 30
0.0
 11
-11.57735653
 21
-56.57467587000001
 31
0.0
  0
LINE
  5
1BB
330
17E
100
AcDbEntity
  8
0
  6
Continuous
 62
     2
100
AcDbLine
 10
-11.55436644
 20
-55.56851568999999
 30
0.0
 11
-4.044647279999999
 21
-53.5562925
 31
0.0
  0
LINE
  5
1BC
330
17E
100
AcDbEntity
  8
0
  6
Continuous
 62
     7
100
AcDbLine
 10
-10.8
 20
-56.36638381
 30
0.0
 11
-10.8
 21
-65.0
 31
0.0
  0
LINE
  5
1BD
330
17E
100
AcDbEntity
  8
0
  6
Continuous
 62
     7
100
AcDbLine
 10
-5.0
 20
-54.81227849
 30
0.0
 11
-5.0
 21
-65.0
 31
0.0
  0
LINE
  5
1BE
330
17E
100
AcDbEntity
  8
0
  6
Continuous
 62
     7
100
AcDbLine
 10
-39.5
 20
20.0
 30
0.0
 11
-35.5
 21
20.0
 31
0.0
  0
LINE
  5
1BF
330
17E
100
AcDbEntity
  8
0
  6
Continuous
 62
     7
100
AcDbLine
 10
-39.5
 20
-20.0
 30
0.0
 11
-35.5
 21
-20.0
 31
0.0
  0
LINE
  5
1C0
330
17E
100
AcDbEntity
  8
0
  6
Continuous
 62
     7
100
AcDbLine
 10
-39.5
 20
20.0
 30
0.0
 11
-40.0
 21
19.5
 31
0.0
  0
LINE
  5
1C1
330
17E
100
AcDbEntity
  8
0
  6
Continuous
 62
     7
100
AcDbLine
 10
-39.5
 20
-20.0
 30
0.0
 11
-40.0
 21
-19.5
 31
0.0
  0
ENDBLK
  5
180
330
17E
100
AcDbEntity
  8
0
100
AcDbBlockEnd
  0
BLOCK
  5
1C4
330
1C3
100
AcDbEntity
  8
0
100
AcDbBlockBegin
  2
EWHRT1A_2
 70
     0
 10
0.0
 20
0.0
 30
0.0
  3
EWHRT1A_2
  1

  0
LINE
  5
1C6
330
1C3
100
AcDbEntity
  8
0
  6
Continuous
 62
     7
100
AcDbLine
 10
-19.04274646
 20
23.5175
 30
0.0
 11
-19.04274646
 21
22.0825
 31
0.0
  0
LINE
  5
1C7
330
1C3
100
AcDbEntity
  8
0
  6
Continuous
 62
     7
100
AcDbLine
 10
-16.55725355
 20
23.5175
 30
0.0
 11
-16.55725355
 21
22.0825
 31
0.0
  0
LINE
  5
1C8
330
1C3
100
AcDbEntity
  8
0
  6
Continuous
 62
     7
100
AcDbLine
 10
-17.80000000000001
 20
24.23500000000001
 30
0.0
 11
-16.55725355
 21
23.5175
 31
0.0
  0
LINE
  5
1C9
330
1C3
100
AcDbEntity
  8
0
  6
Continuous
 62
     7
100
AcDbLine
 10
-17.80000000000001
 20
24.23500000000001
 30
0.0
 11
-19.04274646
 21
23.5175
 31
0.0
  0
LINE
  5
1CA
330
1C3
100
AcDbEntity
  8
0
  6
Continuous
 62
     7
100
AcDbLine
 10
-17.80000000000001
 20
21.365
 30
0.0
 11
-16.55725355
 21
22.0825
 31
0.0
  0
LINE
  5
1CB
330
1C3
100
AcDbEntity
  8
0
  6
Continuous
 62
     7
100
AcDbLine
 10
-17.80000000000001
 20
21.365
 30
0.0
 11
-19.04274646
 21
22.0825
 31
0.0
  0
CIRCLE
  5
1CC
330
1C3
100
AcDbEntity
  8
0
  6
Continuous
 62
     7
100
AcDbCircle
 10
-17.80000000000001
 20
22.8
 30
0.0
 40
1.5
  0
CIRCLE
  5
1CD
330
1C3
100
AcDbEntity
  8
0
  6
Continuous
 62
     7
100
AcDbCircle
 10
-17.80000000000001
 20
22.8
 30
0.0
 40
2.75
  0
CIRCLE
  5
1CE
330
1C3
100
AcDbEntity
  8
0
  6
Continuous
 62
     7
100
AcDbCircle
 10
-17.80000000000001
 20
22.8
 30
0.0
 40
3.25
  0
LINE
  5
1CF
330
1C3
100
AcDbEntity
  8
0
  6
Continuous
 62
     2
100
AcDbLine
 10
-17.80000000000001
 20
18.3
 30
0.0
 11
-17.80000000000001
 21
27.3
 31
0.0
  0
LINE
  5
1D0
330
1C3
100
AcDbEntity
  8
0
  6
Continuous
 62
     2
100
AcDbLine
 10
-13.30000000000001
 20
22.8
 30
0.0
 11
-22.30000000000001
 21
22.8
 31
0.0
  0
CIRCLE
  5
1D1
330
1C3
100
AcDbEntity
  8
0
  6
Continuous
 62
     7
100
AcDbCircle
 10
-9.800000000000011
 20
-30.8
 30
0.0
 40
1.5
  0
LINE
  5
1D2
330
1C3
100
AcDbEntity
  8
0
  6
Continuous
 62
     7
100
AcDbLine
 10
-9.800000000000011
 20
-29.365
 30
0.0
 11
-11.04274646
 21
-30.0825
 31
0.0
  0
LINE
  5
1D3
330
1C3
100
AcDbEntity
  8
0
  6
Continuous
 62
     7
100
AcDbLine
 10
-9.800000000000011
 20
-29.365
 30
0.0
 11
-8.557253549999998
 21
-30.0825
 31
0.0
  0
LINE
  5
1D4
330
1C3
100
AcDbEntity
  8
0
  6
Continuous
 62
     7
100
AcDbLine
 10
-9.800000000000011
 20
-32.235
 30
0.0
 11
-11.04274646
 21
-31.5175
 31
0.0
  0
LINE
  5
1D5
330
1C3
100
AcDbEntity
  8
0
  6
Continuous
 62
     7
100
AcDbLine
 10
-9.800000000000011
 20
-32.235
 30
0.0
 11
-8.557253549999998
 21
-31.5175
 31
0.0
  0
LINE
  5
1D6
330
1C3
100
AcDbEntity
  8
0
  6
Continuous
 62
     7
100
AcDbLine
 10
-8.557253549999998
 20
-31.5175
 30
0.0
 11
-8.557253549999998
 21
-30.0825
 31
0.0
  0
LINE
  5
1D7
330
1C3
100
AcDbEntity
  8
0
  6
Continuous
 62
     7
100
AcDbLine
 10
-11.04274646
 20
-31.5175
 30
0.0
 11
-11.04274646
 21
-30.0825
 31
0.0
  0
CIRCLE
  5
1D8
330
1C3
100
AcDbEntity
  8
0
  6
Continuous
 62
     7
100
AcDbCircle
 10
-9.800000000000011
 20
-30.8
 30
0.0
 40
3.25
  0
CIRCLE
  5
1D9
330
1C3
100
AcDbEntity
  8
0
  6
Continuous
 62
     7
100
AcDbCircle
 10
-9.800000000000011
 20
-30.8
 30
0.0
 40
2.75
  0
LINE
  5
1DA
330
1C3
100
AcDbEntity
  8
0
  6
Continuous
 62
     2
100
AcDbLine
 10
-9.800000000000011
 20
-26.3
 30
0.0
 11
-9.800000000000011
 21
-35.3
 31
0.0
  0
LINE
  5
1DB
330
1C3
100
AcDbEntity
  8
0
  6
Continuous
 62
     2
100
AcDbLine
 10
-5.300000000000011
 20
-30.8
 30
0.0
 11
-14.30000000000001
 21
-30.8
 31
0.0
  0
CIRCLE
  5
1DC
330
1C3
100
AcDbEntity
  8
0
  6
Continuous
 62
     7
100
AcDbCircle
 10
17.8
 20
22.8
 30
0.0
 40
1.5
  0
LINE
  5
1DD
330
1C3
100
AcDbEntity
  8
0
  6
Continuous
 62
     7
100
AcDbLine
 10
17.8
 20
21.365
 30
0.0
 11
19.04274644999999
 21
22.0825
 31
0.0
  0
LINE
  5
1DE
330
1C3
100
AcDbEntity
  8
0
  6
Continuous
 62
     7
100
AcDbLine
 10
17.8
 20
21.365
 30
0.0
 11
16.55725353999999
 21
22.0825
 31
0.0
  0
LINE
  5
1DF
330
1C3
100
AcDbEntity
  8
0
  6
Continuous
 62
     7
100
AcDbLine
 10
17.8
 20
24.23500000000001
 30
0.0
 11
19.04274644999999
 21
23.5175
 31
0.0
  0
LINE
  5
1E0
330
1C3
100
AcDbEntity
  8
0
  6
Continuous
 62
     7
100
AcDbLine
 10
17.8
 20
24.23500000000001
 30
0.0
 11
16.55725353999999
 21
23.5175
 31
0.0
  0
LINE
  5
1E1
330
1C3
100
AcDbEntity
  8
0
  6
Continuous
 62
     7
100
AcDbLine
 10
16.55725353999999
 20
23.5175
 30
0.0
 11
16.55725353999999
 21
22.0825
 31
0.0
  0
LINE
  5
1E2
330
1C3
100
AcDbEntity
  8
0
  6
Continuous
 62
     7
100
AcDbLine
 10
19.04274644999999
 20
23.5175
 30
0.0
 11
19.04274644999999
 21
22.0825
 31
0.0
  0
CIRCLE
  5
1E3
330
1C3
100
AcDbEntity
  8
0
  6
Continuous
 62
     7
100
AcDbCircle
 10
17.8
 20
22.8
 30
0.0
 40
2.75
  0
CIRCLE
  5
1E4
330
1C3
100
AcDbEntity
  8
0
  6
Continuous
 62
     7
100
AcDbCircle
 10
17.8
 20
22.8
 30
0.0
 40
3.25
  0
LINE
  5
1E5
330
1C3
100
AcDbEntity
  8
0
  6
Continuous
 62
     2
100
AcDbLine
 10
17.8
 20
18.3
 30
0.0
 11
17.8
 21
27.3
 31
0.0
  0
LINE
  5
1E6
330
1C3
100
AcDbEntity
  8
0
  6
Continuous
 62
     2
100
AcDbLine
 10
13.3
 20
22.8
 30
0.0
 11
22.3
 21
22.8
 31
0.0
  0
CIRCLE
  5
1E7
330
1C3
100
AcDbEntity
  8
0
  6
Continuous
 62
     7
100
AcDbCircle
 10
9.799999999999997
 20
-30.8
 30
0.0
 40
3.25
  0
CIRCLE
  5
1E8
330
1C3
100
AcDbEntity
  8
0
  6
Continuous
 62
     7
100
AcDbCircle
 10
9.799999999999997
 20
-30.8
 30
0.0
 40
2.75
  0
LINE
  5
1E9
330
1C3
100
AcDbEntity
  8
0
  6
Continuous
 62
     7
100
AcDbLine
 10
11.04274644999999
 20
-31.5175
 30
0.0
 11
11.04274644999999
 21
-30.0825
 31
0.0
  0
LINE
  5
1EA
330
1C3
100
AcDbEntity
  8
0
  6
Continuous
 62
     7
100
AcDbLine
 10
8.55725353999999
 20
-31.5175
 30
0.0
 11
8.55725353999999
 21
-30.0825
 31
0.0
  0
LINE
  5
1EB
330
1C3
100
AcDbEntity
  8
0
  6
Continuous
 62
     7
100
AcDbLine
 10
9.799999999999997
 20
-32.235
 30
0.0
 11
8.55725353999999
 21
-31.5175
 31
0.0
  0
LINE
  5
1EC
330
1C3
100
AcDbEntity
  8
0
  6
Continuous
 62
     7
100
AcDbLine
 10
9.799999999999997
 20
-32.235
 30
0.0
 11
11.04274644999999
 21
-31.5175
 31
0.0
  0
LINE
  5
1ED
330
1C3
100
AcDbEntity
  8
0
  6
Continuous
 62
     7
100
AcDbLine
 10
9.799999999999997
 20
-29.365
 30
0.0
 11
8.55725353999999
 21
-30.0825
 31
0.0
  0
LINE
  5
1EE
330
1C3
100
AcDbEntity
  8
0
  6
Continuous
 62
     7
100
AcDbLine
 10
9.799999999999997
 20
-29.365
 30
0.0
 11
11.04274644999999
 21
-30.0825
 31
0.0
  0
CIRCLE
  5
1EF
330
1C3
100
AcDbEntity
  8
0
  6
Continuous
 62
     7
100
AcDbCircle
 10
9.799999999999997
 20
-30.8
 30
0.0
 40
1.5
  0
LINE
  5
1F0
330
1C3
100
AcDbEntity
  8
0
  6
Continuous
 62
     2
100
AcDbLine
 10
9.799999999999997
 20
-26.3
 30
0.0
 11
9.799999999999997
 21
-35.3
 31
0.0
  0
LINE
  5
1F1
330
1C3
100
AcDbEntity
  8
0
  6
Continuous
 62
     2
100
AcDbLine
 10
5.299999999999997
 20
-30.8
 30
0.0
 11
14.29999999999999
 21
-30.8
 31
0.0
  0
LINE
  5
1F2
330
1C3
100
AcDbEntity
  8
0
  6
Continuous
 62
     7
100
AcDbLine
 10
-18.0
 20
35.0
 30
0.0
 11
18.0
 21
35.0
 31
0.0
  0
LINE
  5
1F3
330
1C3
100
AcDbEntity
  8
0
  6
Continuous
 62
     7
100
AcDbLine
 10
10.24274645
 20
29.2825
 30
0.0
 11
10.24274645
 21
30.7175
 31
0.0
  0
LINE
  5
1F4
330
1C3
100
AcDbEntity
  8
0
  6
Continuous
 62
     7
100
AcDbLine
 10
-10.24274646
 20
29.2825
 30
0.0
 11
-10.24274646
 21
30.7175
 31
0.0
  0
LINE
  5
1F5
330
1C3
100
AcDbEntity
  8
0
  6
Continuous
 62
     7
100
AcDbLine
 10
-7.757253550000001
 20
29.2825
 30
0.0
 11
-7.757253550000001
 21
30.7175
 31
0.0
  0
LINE
  5
1F6
330
1C3
100
AcDbEntity
  8
0
  6
Continuous
 62
     7
100
AcDbLine
 10
-9.0
 20
31.435
 30
0.0
 11
-7.757253550000001
 21
30.7175
 31
0.0
  0
LINE
  5
1F7
330
1C3
100
AcDbEntity
  8
0
  6
Continuous
 62
     7
100
AcDbLine
 10
-9.0
 20
28.565
 30
0.0
 11
-7.757253550000001
 21
29.2825
 31
0.0
  0
CIRCLE
  5
1F8
330
1C3
100
AcDbEntity
  8
0
  6
Continuous
 62
     7
100
AcDbCircle
 10
-9.0
 20
30.0
 30
0.0
 40
3.25
  0
LINE
  5
1F9
330
1C3
100
AcDbEntity
  8
0
  6
Continuous
 62
     2
100
AcDbLine
 10
-9.0
 20
34.5
 30
0.0
 11
-9.0
 21
25.50000000000001
 31
0.0
  0
CIRCLE
  5
1FA
330
1C3
100
AcDbEntity
  8
0
  6
Continuous
 62
     7
100
AcDbCircle
 10
-9.0
 20
30.0
 30
0.0
 40
1.5
  0
LINE
  5
1FB
330
1C3
100
AcDbEntity
  8
0
  6
Continuous
 62
     7
100
AcDbLine
 10
-9.0
 20
31.435
 30
0.0
 11
-10.24274646
 21
30.7175
 31
0.0
  0
LINE
  5
1FC
330
1C3
100
AcDbEntity
  8
0
  6
Continuous
 62
     7
100
AcDbLine
 10
-9.0
 20
28.565
 30
0.0
 11
-10.24274646
 21
29.2825
 31
0.0
  0
CIRCLE
  5
1FD
330
1C3
100
AcDbEntity
  8
0
  6
Continuous
 62
     7
100
AcDbCircle
 10
-9.0
 20
30.0
 30
0.0
 40
2.75
  0
LINE
  5
1FE
330
1C3
100
AcDbEntity
  8
0
  6
Continuous
 62
     2
100
AcDbLine
 10
-4.5
 20
30.0
 30
0.0
 11
-13.5
 21
30.0
 31
0.0
  0
LINE
  5
1FF
330
1C3
100
AcDbEntity
  8
0
  6
Continuous
 62
     7
100
AcDbLine
 10
9.0
 20
28.565
 30
0.0
 11
7.757253539999993
 21
29.2825
 31
0.0
  0
LINE
  5
200
330
1C3
100
AcDbEntity
  8
0
  6
Continuous
 62
     7
100
AcDbLine
 10
7.757253539999993
 20
29.2825
 30
0.0
 11
7.757253539999993
 21
30.7175
 31
0.0
  0
LINE
  5
201
330
1C3
100
AcDbEntity
  8
0
  6
Continuous
 62
     7
100
AcDbLine
 10
9.0
 20
31.435
 30
0.0
 11
7.757253539999993
 21
30.7175
 31
0.0
  0
CIRCLE
  5
202
330
1C3
100
AcDbEntity
  8
0
  6
Continuous
 62
     7
100
AcDbCircle
 10
9.0
 20
30.0
 30
0.0
 40
3.25
  0
LINE
  5
203
330
1C3
100
AcDbEntity
  8
0
  6
Continuous
 62
     2
100
AcDbLine
 10
9.0
 20
34.5
 30
0.0
 11
9.0
 21
25.50000000000001
 31
0.0
  0
CIRCLE
  5
204
330
1C3
100
AcDbEntity
  8
0
  6
Continuous
 62
     7
100
AcDbCircle
 10
9.0
 20
30.0
 30
0.0
 40
1.5
  0
LINE
  5
205
330
1C3
100
AcDbEntity
  8
0
  6
Continuous
 62
     7
100
AcDbLine
 10
9.0
 20
31.435
 30
0.0
 11
10.24274645
 21
30.7175
 31
0.0
  0
LINE
  5
206
330
1C3
100
AcDbEntity
  8
0
  6
Continuous
 62
     7
100
AcDbLine
 10
9.0
 20
28.565
 30
0.0
 11
10.24274645
 21
29.2825
 31
0.0
  0
CIRCLE
  5
207
330
1C3
100
AcDbEntity
  8
0
  6
Continuous
 62
     7
100
AcDbCircle
 10
9.0
 20
30.0
 30
0.0
 40
2.75
  0
LINE
  5
208
330
1C3
100
AcDbEntity
  8
0
  6
Continuous
 62
     2
100
AcDbLine
 10
4.5
 20
30.0
 30
0.0
 11
13.5
 21
30.0
 31
0.0
  0
LINE
  5
209
330
1C3
100
AcDbEntity
  8
0
  6
Continuous
 62
     2
100
AcDbLine
 10
-18.0
 20
33.98969613
 30
0.0
 11
-18.0
 21
27.98061684
 31
0.0
  0
LINE
  5
20A
330
1C3
100
AcDbEntity
  8
0
  6
Continuous
 62
     7
100
AcDbLine
 10
-14.0
 20
-32.0
 30
0.0
 11
-14.0
 21
-31.0
 31
0.0
  0
ARC
  5
20B
330
1C3
100
AcDbEntity
  8
0
  6
Continuous
 62
     7
100
AcDbCircle
 10
-11.0
 20
-32.0
 30
0.0
 40
3.0
100
AcDbArc
 50
180.0
 51
270.0
  0
LINE
  5
20C
330
1C3
100
AcDbEntity
  8
0
  6
Continuous
 62
     2
100
AcDbLine
 10
-18.0
 20
-33.98969614
 30
0.0
 11
-18.0
 21
-27.98061685
 31
0.0
  0
ARC
  5
20D
330
1C3
100
AcDbEntity
  8
0
  6
Continuous
 62
     7
100
AcDbCircle
 10
-18.0
 20
-31.0
 30
0.0
 40
4.0
100
AcDbArc
 50
0.0
 51
90.0
  0
LINE
  5
20E
330
1C3
100
AcDbEntity
  8
0
  6
Continuous
 62
     7
100
AcDbLine
 10
-18.0
 20
-27.0
 30
0.0
 11
-19.0
 21
-27.0
 31
0.0
  0
ARC
  5
20F
330
1C3
100
AcDbEntity
  8
0
  6
Continuous
 62
     7
100
AcDbCircle
 10
-19.0
 20
-24.0
 30
0.0
 40
3.0
100
AcDbArc
 50
180.0
 51
270.0
  0
CIRCLE
  5
210
330
1C3
100
AcDbEntity
  8
0
  6
Continuous
 62
     7
100
AcDbCircle
 10
-18.0
 20
-31.0
 30
0.0
 40
2.25
  0
LINE
  5
211
330
1C3
100
AcDbEntity
  8
0
  6
Continuous
 62
     2
100
AcDbLine
 10
-15.01731643000001
 20
-31.0
 30
0.0
 11
-21.09242956
 21
-31.0
 31
0.0
  0
ARC
  5
212
330
1C3
100
AcDbEntity
  8
0
  6
Continuous
 62
     7
100
AcDbCircle
 10
-18.0
 20
-31.0
 30
0.0
 40
4.0
100
AcDbArc
 50
180.0
 51
270.0
  0
LINE
  5
213
330
1C3
100
AcDbEntity
  8
0
  6
Continuous
 62
     7
100
AcDbLine
 10
-14.0
 20
32.0
 30
0.0
 11
-14.0
 21
31.0
 31
0.0
  0
ARC
  5
214
330
1C3
100
AcDbEntity
  8
0
  6
Continuous
 62
     7
100
AcDbCircle
 10
-11.0
 20
32.0
 30
0.0
 40
3.0
100
AcDbArc
 50
90.0
 51
180.0
  0
ARC
  5
215
330
1C3
100
AcDbEntity
  8
0
  6
Continuous
 62
     7
100
AcDbCircle
 10
-18.0
 20
31.0
 30
0.0
 40
4.0
100
AcDbArc
 50
270.0
 51
0.0
  0
LINE
  5
216
330
1C3
100
AcDbEntity
  8
0
  6
Continuous
 62
     7
100
AcDbLine
 10
-18.0
 20
27.00000000000001
 30
0.0
 11
-19.0
 21
27.00000000000001
 31
0.0
  0
ARC
  5
217
330
1C3
100
AcDbEntity
  8
0
  6
Continuous
 62
     7
100
AcDbCircle
 10
-19.0
 20
24.0
 30
0.0
 40
3.0
100
AcDbArc
 50
90.0
 51
180.0
  0
CIRCLE
  5
218
330
1C3
100
AcDbEntity
  8
0
  6
Continuous
 62
     7
100
AcDbCircle
 10
-18.0
 20
31.0
 30
0.0
 40
2.25
  0
LINE
  5
219
330
1C3
100
AcDbEntity
  8
0
  6
Continuous
 62
     2
100
AcDbLine
 10
-15.01731643000001
 20
31.0
 30
0.0
 11
-21.09242956
 21
31.0
 31
0.0
  0
ARC
  5
21A
330
1C3
100
AcDbEntity
  8
0
  6
Continuous
 62
     7
100
AcDbCircle
 10
-18.0
 20
31.0
 30
0.0
 40
4.0
100
AcDbArc
 50
90.0
 51
180.0
  0
LINE
  5
21B
330
1C3
100
AcDbEntity
  8
0
  6
Continuous
 62
     7
100
AcDbLine
 10
14.0
 20
-32.0
 30
0.0
 11
14.0
 21
-31.0
 31
0.0
  0
ARC
  5
21C
330
1C3
100
AcDbEntity
  8
0
  6
Continuous
 62
     7
100
AcDbCircle
 10
11.0
 20
-32.0
 30
0.0
 40
3.0
100
AcDbArc
 50
270.0
 51
0.0
  0
LINE
  5
21D
330
1C3
100
AcDbEntity
  8
0
  6
Continuous
 62
     2
100
AcDbLine
 10
18.0
 20
-33.98969614
 30
0.0
 11
18.0
 21
-27.98061685
 31
0.0
  0
LINE
  5
21E
330
1C3
100
AcDbEntity
  8
0
  6
Continuous
 62
     7
100
AcDbLine
 10
18.0
 20
-27.0
 30
0.0
 11
19.0
 21
-27.0
 31
0.0
  0
ARC
  5
21F
330
1C3
100
AcDbEntity
  8
0
  6
Continuous
 62
     7
100
AcDbCircle
 10
19.0
 20
-24.0
 30
0.0
 40
3.0
100
AcDbArc
 50
270.0
 51
0.0
  0
CIRCLE
  5
220
330
1C3
100
AcDbEntity
  8
0
  6
Continuous
 62
     7
100
AcDbCircle
 10
18.0
 20
-31.0
 30
0.0
 40
2.25
  0
ARC
  5
221
330
1C3
100
AcDbEntity
  8
0
  6
Continuous
 62
     7
100
AcDbCircle
 10
18.0
 20
-31.0
 30
0.0
 40
4.0
100
AcDbArc
 50
90.0
 51
180.0
  0
LINE
  5
222
330
1C3
100
AcDbEntity
  8
0
  6
Continuous
 62
     2
100
AcDbLine
 10
15.01731642999999
 20
-31.0
 30
0.0
 11
21.09242954999999
 21
-31.0
 31
0.0
  0
ARC
  5
223
330
1C3
100
AcDbEntity
  8
0
  6
Continuous
 62
     7
100
AcDbCircle
 10
18.0
 20
-31.0
 30
0.0
 40
4.0
100
AcDbArc
 50
270.0
 51
0.0
  0
LINE
  5
224
330
1C3
100
AcDbEntity
  8
0
  6
Continuous
 62
     7
100
AcDbLine
 10
14.0
 20
32.0
 30
0.0
 11
14.0
 21
31.0
 31
0.0
  0
ARC
  5
225
330
1C3
100
AcDbEntity
  8
0
  6
Continuous
 62
     7
100
AcDbCircle
 10
11.0
 20
32.0
 30
0.0
 40
3.0
100
AcDbArc
 50
0.0
 51
90.0
  0
LINE
  5
226
330
1C3
100
AcDbEntity
  8
0
  6
Continuous
 62
     7
100
AcDbLine
 10
18.0
 20
27.00000000000001
 30
0.0
 11
19.0
 21
27.00000000000001
 31
0.0
  0
ARC
  5
227
330
1C3
100
AcDbEntity
  8
0
  6
Continuous
 62
     7
100
AcDbCircle
 10
19.0
 20
24.0
 30
0.0
 40
3.0
100
AcDbArc
 50
0.0
 51
90.0
  0
CIRCLE
  5
228
330
1C3
100
AcDbEntity
  8
0
  6
Continuous
 62
     7
100
AcDbCircle
 10
18.0
 20
31.0
 30
0.0
 40
2.25
  0
LINE
  5
229
330
1C3
100
AcDbEntity
  8
0
  6
Continuous
 62
     2
100
AcDbLine
 10
18.0
 20
33.98969613
 30
0.0
 11
18.0
 21
27.98061684
 31
0.0
  0
ARC
  5
22A
330
1C3
100
AcDbEntity
  8
0
  6
Continuous
 62
     7
100
AcDbCircle
 10
18.0
 20
31.0
 30
0.0
 40
4.0
100
AcDbArc
 50
180.0
 51
270.0
  0
LINE
  5
22B
330
1C3
100
AcDbEntity
  8
0
  6
Continuous
 62
     2
100
AcDbLine
 10
15.01731642999999
 20
31.0
 30
0.0
 11
21.09242954999999
 21
31.0
 31
0.0
  0
ARC
  5
22C
330
1C3
100
AcDbEntity
  8
0
  6
Continuous
 62
     7
100
AcDbCircle
 10
18.0
 20
31.0
 30
0.0
 40
4.0
100
AcDbArc
 50
0.0
 51
90.0
  0
LINE
  5
22D
330
1C3
100
AcDbEntity
  8
0
  6
Continuous
 62
     7
100
AcDbLine
 10
-18.5
 20
-35.0
 30
0.0
 11
18.0
 21
-35.0
 31
0.0
  0
LINE
  5
22E
330
1C3
100
AcDbEntity
  8
0
  6
Continuous
 62
     7
100
AcDbLine
 10
22.0
 20
-31.0
 30
0.0
 11
22.0
 21
31.0
 31
0.0
  0
LINE
  5
22F
330
1C3
100
AcDbEntity
  8
0
  6
Continuous
 62
     7
100
AcDbLine
 10
-22.0
 20
31.0
 30
0.0
 11
-22.0
 21
-31.0
 31
0.0
  0
LINE
  5
230
330
1C3
100
AcDbEntity
  8
0
  6
Continuous
 62
     2
100
AcDbLine
 10
25.22938633
 20
0.0
 30
0.0
 11
-24.97432506
 21
0.0
 31
0.0
  0
LINE
  5
231
330
1C3
100
AcDbEntity
  8
0
  6
Continuous
 62
     2
100
AcDbLine
 10
0.0
 20
-43.51744519
 30
0.0
 11
0.0
 21
38.29281154
 31
0.0
  0
CIRCLE
  5
232
330
1C3
100
AcDbEntity
  8
0
  6
CENTER
 62
     2
100
AcDbCircle
 10
0.0
 20
0.0
 30
0.0
 40
15.0
  0
LINE
  5
233
330
1C3
100
AcDbEntity
  8
0
  6
Continuous
 62
     2
100
AcDbLine
 10
0.0
 20
0.0
 30
0.0
 11
13.78858222999999
 21
-13.78858224
 31
0.0
  0
LINE
  5
234
330
1C3
100
AcDbEntity
  8
0
  6
Continuous
 62
     7
100
AcDbLine
 10
8.485281369999995
 20
-11.3137085
 30
0.0
 11
9.899494939999996
 21
-12.72792206
 31
0.0
  0
LINE
  5
235
330
1C3
100
AcDbEntity
  8
0
  6
Continuous
 62
     2
100
AcDbLine
 10
11.64681367
 20
-8.152176199999999
 30
0.0
 11
8.164999819999991
 21
-11.63399006
 31
0.0
  0
ARC
  5
236
330
1C3
100
AcDbEntity
  8
0
  6
Continuous
 62
     7
100
AcDbCircle
 10
9.899494939999996
 20
-9.89949494
 30
0.0
 40
2.0
100
AcDbArc
 50
44.99999999999971
 51
224.9999999999997
  0
CIRCLE
  5
237
330
1C3
100
AcDbEntity
  8
0
  6
Continuous
 62
     7
100
AcDbCircle
 10
0.0
 20
0.0
 30
0.0
 40
8.0
  0
CIRCLE
  5
238
330
1C3
100
AcDbEntity
  8
0
  6
Continuous
 62
     7
100
AcDbCircle
 10
0.0
 20
0.0
 30
0.0
 40
3.0
  0
CIRCLE
  5
239
330
1C3
100
AcDbEntity
  8
0
  6
Continuous
 62
     7
100
AcDbCircle
 10
0.0
 20
-15.0
 30
0.0
 40
1.199999999999999
  0
CIRCLE
  5
23A
330
1C3
100
AcDbEntity
  8
0
  6
Continuous
 62
     2
100
AcDbCircle
 10
0.0
 20
-15.0
 30
0.0
 40
1.5
  0
CIRCLE
  5
23B
330
1C3
100
AcDbEntity
  8
0
  6
Continuous
 62
     7
100
AcDbCircle
 10
0.0
 20
15.0
 30
0.0
 40
1.199999999999999
  0
CIRCLE
  5
23C
330
1C3
100
AcDbEntity
  8
0
  6
Continuous
 62
     2
100
AcDbCircle
 10
0.0
 20
15.0
 30
0.0
 40
1.5
  0
CIRCLE
  5
23D
330
1C3
100
AcDbEntity
  8
0
  6
Continuous
 62
     2
100
AcDbCircle
 10
-15.0
 20
0.0
 30
0.0
 40
1.5
  0
CIRCLE
  5
23E
330
1C3
100
AcDbEntity
  8
0
  6
Continuous
 62
     7
100
AcDbCircle
 10
-15.0
 20
0.0
 30
0.0
 40
1.199999999999999
  0
ARC
  5
23F
330
1C3
100
AcDbEntity
  8
0
  6
Continuous
 62
     7
100
AcDbCircle
 10
11.31370849999999
 20
-11.3137085
 30
0.0
 40
2.0
100
AcDbArc
 50
224.9999999999997
 51
44.99999999999971
  0
LINE
  5
240
330
1C3
100
AcDbEntity
  8
0
  6
Continuous
 62
     2
100
AcDbLine
 10
13.06102722999999
 20
-9.56638977
 30
0.0
 11
9.579213379999998
 21
-13.04820362
 31
0.0
  0
LINE
  5
241
330
1C3
100
AcDbEntity
  8
0
  6
Continuous
 62
     7
100
AcDbLine
 10
11.31370849999999
 20
-8.485281379999999
 30
0.0
 11
12.72792206
 21
-9.89949494
 31
0.0
  0
CIRCLE
  5
242
330
1C3
100
AcDbEntity
  8
0
  6
Continuous
 62
     7
100
AcDbCircle
 10
15.0
 20
0.0
 30
0.0
 40
1.199999999999999
  0
CIRCLE
  5
243
330
1C3
100
AcDbEntity
  8
0
  6
Continuous
 62
     2
100
AcDbCircle
 10
15.0
 20
0.0
 30
0.0
 40
1.5
  0
LINE
  5
244
330
1C3
100
AcDbEntity
  8
0
  6
Continuous
 62
     7
100
AcDbLine
 10
-8.100000000000008
 20
-69.0
 30
0.0
 11
-8.100000000000008
 21
-79.29999999999999
 31
0.0
  0
LINE
  5
245
330
1C3
100
AcDbEntity
  8
0
  6
Continuous
 62
     7
100
AcDbLine
 10
8.099999999999994
 20
-69.0
 30
0.0
 11
8.099999999999994
 21
-79.29999999999999
 31
0.0
  0
LINE
  5
246
330
1C3
100
AcDbEntity
  8
0
  6
Continuous
 62
     2
100
AcDbLine
 10
0.0
 20
-53.10101233000001
 30
0.0
 11
0.0
 21
-92.0
 31
0.0
  0
LINE
  5
247
330
1C3
100
AcDbEntity
  8
0
  6
Continuous
 62
     7
100
AcDbLine
 10
-8.800000000000011
 20
-80.0
 30
0.0
 11
-8.800000000000011
 21
-90.0
 31
0.0
  0
LINE
  5
248
330
1C3
100
AcDbEntity
  8
0
  6
Continuous
 62
     7
100
AcDbLine
 10
8.799999999999997
 20
-80.0
 30
0.0
 11
8.799999999999997
 21
-90.0
 31
0.0
  0
LINE
  5
249
330
1C3
100
AcDbEntity
  8
0
  6
Continuous
 62
     7
100
AcDbLine
 10
-8.100000000000008
 20
-69.0
 30
0.0
 11
8.099999999999994
 21
-69.0
 31
0.0
  0
LINE
  5
24A
330
1C3
100
AcDbEntity
  8
0
  6
Continuous
 62
     7
100
AcDbLine
 10
-8.800000000000011
 20
-90.0
 30
0.0
 11
8.799999999999997
 21
-90.0
 31
0.0
  0
LINE
  5
24B
330
1C3
100
AcDbEntity
  8
0
  6
Continuous
 62
     7
100
AcDbLine
 10
-8.300000000000011
 20
-80.0
 30
0.0
 11
8.299999999999997
 21
-80.0
 31
0.0
  0
LINE
  5
24C
330
1C3
100
AcDbEntity
  8
0
  6
Continuous
 62
     7
100
AcDbLine
 10
8.799999999999997
 20
-80.0
 30
0.0
 11
8.099999999999994
 21
-79.29999999999999
 31
0.0
  0
LINE
  5
24D
330
1C3
100
AcDbEntity
  8
0
  6
Continuous
 62
     7
100
AcDbLine
 10
-8.800000000000011
 20
-80.0
 30
0.0
 11
-8.100000000000008
 21
-79.29999999999999
 31
0.0
  0
LINE
  5
24E
330
1C3
100
AcDbEntity
  8
0
  6
Continuous
 62
     7
100
AcDbLine
 10
-8.100000000000008
 20
-79.29999999999999
 30
0.0
 11
-7.600000000000008
 21
-79.8
 31
0.0
  0
LINE
  5
24F
330
1C3
100
AcDbEntity
  8
0
  6
Continuous
 62
     7
100
AcDbLine
 10
8.099999999999994
 20
-79.29999999999999
 30
0.0
 11
7.599999999999994
 21
-79.8
 31
0.0
  0
LINE
  5
250
330
1C3
100
AcDbEntity
  8
0
  6
Continuous
 62
     7
100
AcDbLine
 10
-8.300000000000011
 20
-80.0
 30
0.0
 11
-8.300000000000011
 21
-90.0
 31
0.0
  0
LINE
  5
251
330
1C3
100
AcDbEntity
  8
0
  6
Continuous
 62
     7
100
AcDbLine
 10
8.299999999999997
 20
-80.0
 30
0.0
 11
8.299999999999997
 21
-90.0
 31
0.0
  0
LINE
  5
252
330
1C3
100
AcDbEntity
  8
0
  6
Continuous
 62
     7
100
AcDbLine
 10
-8.300000000000011
 20
-80.0
 30
0.0
 11
-8.550000000000011
 21
-79.75
 31
0.0
  0
LINE
  5
253
330
1C3
100
AcDbEntity
  8
0
  6
Continuous
 62
     7
100
AcDbLine
 10
8.299999999999997
 20
-80.0
 30
0.0
 11
8.549999999999997
 21
-79.75
 31
0.0
  0
LINE
  5
254
330
1C3
100
AcDbEntity
  8
0
  6
Continuous
 62
     7
100
AcDbLine
 10
-7.600000000000008
 20
-69.0
 30
0.0
 11
-7.600000000000008
 21
-80.0
 31
0.0
  0
LINE
  5
255
330
1C3
100
AcDbEntity
  8
0
  6
Continuous
 62
     7
100
AcDbLine
 10
7.599999999999994
 20
-69.0
 30
0.0
 11
7.599999999999994
 21
-80.0
 31
0.0
  0
LINE
  5
256
330
1C3
100
AcDbEntity
  8
0
  6
Continuous
 62
     7
100
AcDbLine
 10
3.0
 20
-65.0
 30
0.0
 11
3.0
 21
-54.78548357
 31
0.0
  0
LINE
  5
257
330
1C3
100
AcDbEntity
  8
0
  6
Continuous
 62
     7
100
AcDbLine
 10
-3.0
 20
-65.0
 30
0.0
 11
-3.0
 21
-56.39317873
 31
0.0
  0
LINE
  5
258
330
1C3
100
AcDbEntity
  8
0
  6
Continuous
 62
     7
100
AcDbLine
 10
6.594642749999991
 20
-69.0
 30
0.0
 11
2.194642749999999
 21
-65.0
 31
0.0
  0
LINE
  5
259
330
1C3
100
AcDbEntity
  8
0
  6
Continuous
 62
     7
100
AcDbLine
 10
-6.594642750000005
 20
-69.0
 30
0.0
 11
-2.194642749999999
 21
-65.0
 31
0.0
  0
LINE
  5
25A
330
1C3
100
AcDbEntity
  8
0
  6
Continuous
 62
     7
100
AcDbLine
 10
-5.405357250000008
 20
-69.0
 30
0.0
 11
-1.50765973
 21
-65.45663862000001
 31
0.0
  0
LINE
  5
25B
330
1C3
100
AcDbEntity
  8
0
  6
Continuous
 62
     7
100
AcDbLine
 10
-2.543491509999995
 20
-69.0
 30
0.0
 11
-0.3434915099999927
 21
-65.0
 31
0.0
  0
LINE
  5
25C
330
1C3
100
AcDbEntity
  8
0
  6
Continuous
 62
     7
100
AcDbLine
 10
-3.456508490000004
 20
-69.0
 30
0.0
 11
-1.256508490000001
 21
-65.0
 31
0.0
  0
LINE
  5
25D
330
1C3
100
AcDbEntity
  8
0
  6
Continuous
 62
     7
100
AcDbLine
 10
-0.4000000000000057
 20
-69.0
 30
0.0
 11
-0.4000000000000057
 21
-65.10274271
 31
0.0
  0
LINE
  5
25E
330
1C3
100
AcDbEntity
  8
0
  6
Continuous
 62
     7
100
AcDbLine
 10
2.543491509999995
 20
-69.0
 30
0.0
 11
0.3434915099999927
 21
-65.0
 31
0.0
  0
LINE
  5
25F
330
1C3
100
AcDbEntity
  8
0
  6
Continuous
 62
     7
100
AcDbLine
 10
3.456508490000004
 20
-69.0
 30
0.0
 11
1.256508490000001
 21
-65.0
 31
0.0
  0
LINE
  5
260
330
1C3
100
AcDbEntity
  8
0
  6
Continuous
 62
     7
100
AcDbLine
 10
5.405357249999994
 20
-69.0
 30
0.0
 11
1.50765973
 21
-65.45663862000001
 31
0.0
  0
LINE
  5
261
330
1C3
100
AcDbEntity
  8
0
  6
Continuous
 62
     7
100
AcDbLine
 10
0.3999999999999915
 20
-69.0
 30
0.0
 11
0.3999999999999915
 21
-65.10274271
 31
0.0
  0
LINE
  5
262
330
1C3
100
AcDbEntity
  8
0
  6
Continuous
 62
     2
100
AcDbLine
 10
3.918400619999999
 20
-54.53939887
 30
0.0
 11
-3.677356530000011
 21
-56.57467587
 31
0.0
  0
LINE
  5
263
330
1C3
100
AcDbEntity
  8
0
  6
Continuous
 62
     2
100
AcDbLine
 10
-3.654366440000003
 20
-55.56851568999999
 30
0.0
 11
3.855352719999999
 21
-53.55629249999999
 31
0.0
  0
LINE
  5
264
330
1C3
100
AcDbEntity
  8
0
  6
Continuous
 62
     7
100
AcDbLine
 10
-2.900000000000005
 20
-65.0
 30
0.0
 11
2.899999999999991
 21
-65.0
 31
0.0
  0
LINE
  5
265
330
1C3
100
AcDbEntity
  8
0
  6
PHANTOM
 62
     2
100
AcDbLine
 10
-9.100000000000008
 20
-78.0
 30
0.0
 11
9.099999999999994
 21
-78.0
 31
0.0
  0
LINE
  5
266
330
1C3
100
AcDbEntity
  8
0
  6
PHANTOM
 62
     2
100
AcDbLine
 10
9.099999999999994
 20
-69.0
 30
0.0
 11
9.099999999999994
 21
-78.0
 31
0.0
  0
LINE
  5
267
330
1C3
100
AcDbEntity
  8
0
  6
PHANTOM
 62
     2
100
AcDbLine
 10
-9.100000000000008
 20
-69.0
 30
0.0
 11
-9.100000000000008
 21
-78.0
 31
0.0
  0
LINE
  5
268
330
1C3
100
AcDbEntity
  8
0
  6
PHANTOM
 62
     2
100
AcDbLine
 10
-3.900000000000005
 20
-60.0
 30
0.0
 11
3.899999999999991
 21
-60.0
 31
0.0
  0
LINE
  5
269
330
1C3
100
AcDbEntity
  8
0
  6
PHANTOM
 62
     2
100
AcDbLine
 10
-3.900000000000005
 20
-65.0
 30
0.0
 11
-3.900000000000005
 21
-60.0
 31
0.0
  0
LINE
  5
26A
330
1C3
100
AcDbEntity
  8
0
  6
PHANTOM
 62
     2
100
AcDbLine
 10
3.899999999999991
 20
-65.0
 30
0.0
 11
3.899999999999991
 21
-60.0
 31
0.0
  0
LINE
  5
26B
330
1C3
100
AcDbEntity
  8
0
  6
PHANTOM
 62
     2
100
AcDbLine
 10
3.899999999999991
 20
-65.0
 30
0.0
 11
9.099999999999994
 21
-69.0
 31
0.0
  0
LINE
  5
26C
330
1C3
100
AcDbEntity
  8
0
  6
PHANTOM
 62
     2
100
AcDbLine
 10
-3.900000000000005
 20
-65.0
 30
0.0
 11
-9.100000000000008
 21
-69.0
 31
0.0
  0
LINE
  5
26D
330
1C3
100
AcDbEntity
  8
0
  6
Continuous
 62
     7
100
AcDbLine
 10
-3.0
 20
-55.39317873
 30
0.0
 11
-3.0
 21
-35.0
 31
0.0
  0
LINE
  5
26E
330
1C3
100
AcDbEntity
  8
0
  6
Continuous
 62
     7
100
AcDbLine
 10
3.0
 20
-53.78548356999999
 30
0.0
 11
3.0
 21
-35.0
 31
0.0
  0
CIRCLE
  5
26F
330
1C3
100
AcDbEntity
  8
0
  6
Continuous
 62
     7
100
AcDbCircle
 10
0.0
 20
0.0
 30
0.0
 40
19.5
  0
CIRCLE
  5
270
330
1C3
100
AcDbEntity
  8
0
  6
Continuous
 62
     7
100
AcDbCircle
 10
0.0
 20
0.0
 30
0.0
 40
20.0
  0
ENDBLK
  5
1C5
330
1C3
100
AcDbEntity
  8
0
100
AcDbBlockEnd
  0
BLOCK
  5
273
330
272
100
AcDbEntity
  8
0
100
AcDbBlockBegin
  2
EWHRT1A_3
 70
     0
 10
0.0
 20
0.0
 30
0.0
  3
EWHRT1A_3
  1

  0
LINE
  5
275
330
272
100
AcDbEntity
  8
0
  6
Continuous
 62
     2
100
AcDbLine
 10
19.12753064
 20
-3.026111499999998
 30
0.0
 11
19.12753064
 21
3.026111499999998
 31
0.0
  0
LINE
  5
276
330
272
100
AcDbEntity
  8
0
  6
Continuous
 62
     2
100
AcDbLine
 10
0.1275306400000034
 20
-43.51744519
 30
0.0
 11
0.1275306400000034
 21
38.29281154
 31
0.0
  0
CIRCLE
  5
277
330
272
100
AcDbEntity
  8
0
  6
Continuous
 62
     7
100
AcDbCircle
 10
0.1275306400000034
 20
0.0
 30
0.0
 40
3.0
  0
LINE
  5
278
330
272
100
AcDbEntity
  8
0
  6
Continuous
 62
     2
100
AcDbLine
 10
-25.1018557
 20
0.0
 30
0.0
 11
25.1018557
 21
0.0
 31
0.0
  0
LINE
  5
279
330
272
100
AcDbEntity
  8
0
  6
Continuous
 62
     7
100
AcDbLine
 10
22.12753063999999
 20
31.0
 30
0.0
 11
22.12753063999999
 21
-31.0
 31
0.0
  0
LINE
  5
27A
330
272
100
AcDbEntity
  8
0
  6
Continuous
 62
     7
100
AcDbLine
 10
-21.87246936
 20
-31.0
 30
0.0
 11
-21.87246936
 21
31.0
 31
0.0
  0
LINE
  5
27B
330
272
100
AcDbEntity
  8
0
  6
Continuous
 62
     7
100
AcDbLine
 10
18.62753064
 20
-35.0
 30
0.0
 11
-17.87246936
 21
-35.0
 31
0.0
  0
ARC
  5
27C
330
272
100
AcDbEntity
  8
0
  6
Continuous
 62
     7
100
AcDbCircle
 10
-17.87246936
 20
31.0
 30
0.0
 40
4.0
100
AcDbArc
 50
90.0
 51
180.0
  0
LINE
  5
27D
330
272
100
AcDbEntity
  8
0
  6
Continuous
 62
     2
100
AcDbLine
 10
-14.87246936
 20
31.0
 30
0.0
 11
-20.87246936
 21
31.0
 31
0.0
  0
LINE
  5
27E
330
272
100
AcDbEntity
  8
0
  6
Continuous
 62
     2
100
AcDbLine
 10
-17.87246936
 20
34.0
 30
0.0
 11
-17.87246936
 21
28.00000000000001
 31
0.0
  0
CIRCLE
  5
27F
330
272
100
AcDbEntity
  8
0
  6
Continuous
 62
     7
100
AcDbCircle
 10
-17.87246936
 20
31.0
 30
0.0
 40
2.25
  0
ARC
  5
280
330
272
100
AcDbEntity
  8
0
  6
Continuous
 62
     7
100
AcDbCircle
 10
-17.87246936
 20
-31.0
 30
0.0
 40
4.0
100
AcDbArc
 50
180.0
 51
270.0
  0
LINE
  5
281
330
272
100
AcDbEntity
  8
0
  6
Continuous
 62
     2
100
AcDbLine
 10
-14.87246936
 20
-31.0
 30
0.0
 11
-20.87246936
 21
-31.0
 31
0.0
  0
CIRCLE
  5
282
330
272
100
AcDbEntity
  8
0
  6
Continuous
 62
     7
100
AcDbCircle
 10
-17.87246936
 20
-31.0
 30
0.0
 40
2.25
  0
LINE
  5
283
330
272
100
AcDbEntity
  8
0
  6
Continuous
 62
     2
100
AcDbLine
 10
-17.87246936
 20
-34.0
 30
0.0
 11
-17.87246936
 21
-28.0
 31
0.0
  0
ARC
  5
284
330
272
100
AcDbEntity
  8
0
  6
Continuous
 62
     7
100
AcDbCircle
 10
18.12753064
 20
31.0
 30
0.0
 40
4.0
100
AcDbArc
 50
0.0
 51
90.0
  0
LINE
  5
285
330
272
100
AcDbEntity
  8
0
  6
Continuous
 62
     2
100
AcDbLine
 10
15.12753064
 20
31.0
 30
0.0
 11
21.12753064
 21
31.0
 31
0.0
  0
CIRCLE
  5
286
330
272
100
AcDbEntity
  8
0
  6
Continuous
 62
     7
100
AcDbCircle
 10
18.12753064
 20
31.0
 30
0.0
 40
2.25
  0
ARC
  5
287
330
272
100
AcDbEntity
  8
0
  6
Continuous
 62
     7
100
AcDbCircle
 10
18.12753064
 20
-31.0
 30
0.0
 40
4.0
100
AcDbArc
 50
270.0
 51
0.0
  0
LINE
  5
288
330
272
100
AcDbEntity
  8
0
  6
Continuous
 62
     2
100
AcDbLine
 10
15.12753064
 20
-31.0
 30
0.0
 11
21.12753064
 21
-31.0
 31
0.0
  0
CIRCLE
  5
289
330
272
100
AcDbEntity
  8
0
  6
Continuous
 62
     7
100
AcDbCircle
 10
18.12753064
 20
-31.0
 30
0.0
 40
2.25
  0
LINE
  5
28A
330
272
100
AcDbEntity
  8
0
  6
Continuous
 62
     2
100
AcDbLine
 10
18.12753064
 20
-34.0
 30
0.0
 11
18.12753064
 21
-28.0
 31
0.0
  0
LINE
  5
28B
330
272
100
AcDbEntity
  8
0
  6
Continuous
 62
     2
100
AcDbLine
 10
18.12753064
 20
34.0
 30
0.0
 11
18.12753064
 21
28.00000000000001
 31
0.0
  0
LINE
  5
28C
330
272
100
AcDbEntity
  8
0
  6
Continuous
 62
     7
100
AcDbLine
 10
18.12753064
 20
35.0
 30
0.0
 11
-17.87246936
 21
35.0
 31
0.0
  0
LINE
  5
28D
330
272
100
AcDbEntity
  8
0
  6
Continuous
 62
     2
100
AcDbLine
 10
-5.172469359999993
 20
-30.8
 30
0.0
 11
-14.17246935999999
 21
-30.8
 31
0.0
  0
LINE
  5
28E
330
272
100
AcDbEntity
  8
0
  6
Continuous
 62
     2
100
AcDbLine
 10
-9.672469359999993
 20
-26.3
 30
0.0
 11
-9.672469359999993
 21
-35.3
 31
0.0
  0
CIRCLE
  5
28F
330
272
100
AcDbEntity
  8
0
  6
Continuous
 62
     7
100
AcDbCircle
 10
-9.672469359999993
 20
-30.8
 30
0.0
 40
1.5
  0
LINE
  5
290
330
272
100
AcDbEntity
  8
0
  6
Continuous
 62
     7
100
AcDbLine
 10
-9.672469359999993
 20
-29.365
 30
0.0
 11
-10.91521582
 21
-30.0825
 31
0.0
  0
LINE
  5
291
330
272
100
AcDbEntity
  8
0
  6
Continuous
 62
     7
100
AcDbLine
 10
-9.672469359999993
 20
-29.365
 30
0.0
 11
-8.429722909999995
 21
-30.0825
 31
0.0
  0
LINE
  5
292
330
272
100
AcDbEntity
  8
0
  6
Continuous
 62
     7
100
AcDbLine
 10
-9.672469359999993
 20
-32.235
 30
0.0
 11
-10.91521582
 21
-31.5175
 31
0.0
  0
LINE
  5
293
330
272
100
AcDbEntity
  8
0
  6
Continuous
 62
     7
100
AcDbLine
 10
-9.672469359999993
 20
-32.235
 30
0.0
 11
-8.429722909999995
 21
-31.5175
 31
0.0
  0
LINE
  5
294
330
272
100
AcDbEntity
  8
0
  6
Continuous
 62
     7
100
AcDbLine
 10
-8.429722909999995
 20
-31.5175
 30
0.0
 11
-8.429722909999995
 21
-30.0825
 31
0.0
  0
LINE
  5
295
330
272
100
AcDbEntity
  8
0
  6
Continuous
 62
     7
100
AcDbLine
 10
-10.91521582
 20
-31.5175
 30
0.0
 11
-10.91521582
 21
-30.0825
 31
0.0
  0
CIRCLE
  5
296
330
272
100
AcDbEntity
  8
0
  6
Continuous
 62
     7
100
AcDbCircle
 10
-9.672469359999993
 20
-30.8
 30
0.0
 40
2.75
  0
CIRCLE
  5
297
330
272
100
AcDbEntity
  8
0
  6
Continuous
 62
     7
100
AcDbCircle
 10
-9.672469359999993
 20
-30.8
 30
0.0
 40
3.25
  0
LINE
  5
298
330
272
100
AcDbEntity
  8
0
  6
Continuous
 62
     2
100
AcDbLine
 10
-13.17246935999999
 20
22.8
 30
0.0
 11
-22.17246936
 21
22.8
 31
0.0
  0
LINE
  5
299
330
272
100
AcDbEntity
  8
0
  6
Continuous
 62
     2
100
AcDbLine
 10
-17.67246935999999
 20
18.3
 30
0.0
 11
-17.67246935999999
 21
27.3
 31
0.0
  0
CIRCLE
  5
29A
330
272
100
AcDbEntity
  8
0
  6
Continuous
 62
     7
100
AcDbCircle
 10
-17.67246935999999
 20
22.8
 30
0.0
 40
3.25
  0
CIRCLE
  5
29B
330
272
100
AcDbEntity
  8
0
  6
Continuous
 62
     7
100
AcDbCircle
 10
-17.67246935999999
 20
22.8
 30
0.0
 40
2.75
  0
LINE
  5
29C
330
272
100
AcDbEntity
  8
0
  6
Continuous
 62
     7
100
AcDbLine
 10
-18.91521582
 20
23.5175
 30
0.0
 11
-18.91521582
 21
22.0825
 31
0.0
  0
LINE
  5
29D
330
272
100
AcDbEntity
  8
0
  6
Continuous
 62
     7
100
AcDbLine
 10
-16.42972290999999
 20
23.5175
 30
0.0
 11
-16.42972290999999
 21
22.0825
 31
0.0
  0
LINE
  5
29E
330
272
100
AcDbEntity
  8
0
  6
Continuous
 62
     7
100
AcDbLine
 10
-17.67246935999999
 20
24.23500000000001
 30
0.0
 11
-16.42972290999999
 21
23.5175
 31
0.0
  0
LINE
  5
29F
330
272
100
AcDbEntity
  8
0
  6
Continuous
 62
     7
100
AcDbLine
 10
-17.67246935999999
 20
24.23500000000001
 30
0.0
 11
-18.91521582
 21
23.5175
 31
0.0
  0
LINE
  5
2A0
330
272
100
AcDbEntity
  8
0
  6
Continuous
 62
     7
100
AcDbLine
 10
-17.67246935999999
 20
21.365
 30
0.0
 11
-16.42972290999999
 21
22.0825
 31
0.0
  0
LINE
  5
2A1
330
272
100
AcDbEntity
  8
0
  6
Continuous
 62
     7
100
AcDbLine
 10
-17.67246935999999
 20
21.365
 30
0.0
 11
-18.91521582
 21
22.0825
 31
0.0
  0
CIRCLE
  5
2A2
330
272
100
AcDbEntity
  8
0
  6
Continuous
 62
     7
100
AcDbCircle
 10
-17.67246935999999
 20
22.8
 30
0.0
 40
1.5
  0
LINE
  5
2A3
330
272
100
AcDbEntity
  8
0
  6
Continuous
 62
     2
100
AcDbLine
 10
5.42753064
 20
-30.8
 30
0.0
 11
14.42753064
 21
-30.8
 31
0.0
  0
LINE
  5
2A4
330
272
100
AcDbEntity
  8
0
  6
Continuous
 62
     2
100
AcDbLine
 10
9.92753064
 20
-26.3
 30
0.0
 11
9.92753064
 21
-35.3
 31
0.0
  0
CIRCLE
  5
2A5
330
272
100
AcDbEntity
  8
0
  6
Continuous
 62
     7
100
AcDbCircle
 10
9.92753064
 20
-30.8
 30
0.0
 40
2.75
  0
CIRCLE
  5
2A6
330
272
100
AcDbEntity
  8
0
  6
Continuous
 62
     7
100
AcDbCircle
 10
9.92753064
 20
-30.8
 30
0.0
 40
3.25
  0
LINE
  5
2A7
330
272
100
AcDbEntity
  8
0
  6
Continuous
 62
     7
100
AcDbLine
 10
11.17027709
 20
-31.5175
 30
0.0
 11
11.17027709
 21
-30.0825
 31
0.0
  0
LINE
  5
2A8
330
272
100
AcDbEntity
  8
0
  6
Continuous
 62
     7
100
AcDbLine
 10
8.684784179999994
 20
-31.5175
 30
0.0
 11
8.684784179999994
 21
-30.0825
 31
0.0
  0
LINE
  5
2A9
330
272
100
AcDbEntity
  8
0
  6
Continuous
 62
     7
100
AcDbLine
 10
9.92753064
 20
-32.235
 30
0.0
 11
8.684784179999994
 21
-31.5175
 31
0.0
  0
LINE
  5
2AA
330
272
100
AcDbEntity
  8
0
  6
Continuous
 62
     7
100
AcDbLine
 10
9.92753064
 20
-32.235
 30
0.0
 11
11.17027709
 21
-31.5175
 31
0.0
  0
LINE
  5
2AB
330
272
100
AcDbEntity
  8
0
  6
Continuous
 62
     7
100
AcDbLine
 10
9.92753064
 20
-29.365
 30
0.0
 11
8.684784179999994
 21
-30.0825
 31
0.0
  0
LINE
  5
2AC
330
272
100
AcDbEntity
  8
0
  6
Continuous
 62
     7
100
AcDbLine
 10
9.92753064
 20
-29.365
 30
0.0
 11
11.17027709
 21
-30.0825
 31
0.0
  0
CIRCLE
  5
2AD
330
272
100
AcDbEntity
  8
0
  6
Continuous
 62
     7
100
AcDbCircle
 10
9.92753064
 20
-30.8
 30
0.0
 40
1.5
  0
LINE
  5
2AE
330
272
100
AcDbEntity
  8
0
  6
Continuous
 62
     2
100
AcDbLine
 10
13.42753064
 20
22.8
 30
0.0
 11
22.42753064
 21
22.8
 31
0.0
  0
LINE
  5
2AF
330
272
100
AcDbEntity
  8
0
  6
Continuous
 62
     2
100
AcDbLine
 10
17.92753064
 20
18.3
 30
0.0
 11
17.92753064
 21
27.3
 31
0.0
  0
CIRCLE
  5
2B0
330
272
100
AcDbEntity
  8
0
  6
Continuous
 62
     7
100
AcDbCircle
 10
17.92753064
 20
22.8
 30
0.0
 40
3.25
  0
CIRCLE
  5
2B1
330
272
100
AcDbEntity
  8
0
  6
Continuous
 62
     7
100
AcDbCircle
 10
17.92753064
 20
22.8
 30
0.0
 40
2.75
  0
CIRCLE
  5
2B2
330
272
100
AcDbEntity
  8
0
  6
Continuous
 62
     7
100
AcDbCircle
 10
17.92753064
 20
22.8
 30
0.0
 40
1.5
  0
LINE
  5
2B3
330
272
100
AcDbEntity
  8
0
  6
Continuous
 62
     7
100
AcDbLine
 10
17.92753064
 20
21.365
 30
0.0
 11
19.17027709
 21
22.0825
 31
0.0
  0
LINE
  5
2B4
330
272
100
AcDbEntity
  8
0
  6
Continuous
 62
     7
100
AcDbLine
 10
17.92753064
 20
21.365
 30
0.0
 11
16.68478417999999
 21
22.0825
 31
0.0
  0
LINE
  5
2B5
330
272
100
AcDbEntity
  8
0
  6
Continuous
 62
     7
100
AcDbLine
 10
17.92753064
 20
24.23500000000001
 30
0.0
 11
19.17027709
 21
23.5175
 31
0.0
  0
LINE
  5
2B6
330
272
100
AcDbEntity
  8
0
  6
Continuous
 62
     7
100
AcDbLine
 10
17.92753064
 20
24.23500000000001
 30
0.0
 11
16.68478417999999
 21
23.5175
 31
0.0
  0
LINE
  5
2B7
330
272
100
AcDbEntity
  8
0
  6
Continuous
 62
     7
100
AcDbLine
 10
16.68478417999999
 20
23.5175
 30
0.0
 11
16.68478417999999
 21
22.0825
 31
0.0
  0
LINE
  5
2B8
330
272
100
AcDbEntity
  8
0
  6
Continuous
 62
     7
100
AcDbLine
 10
19.17027709
 20
23.5175
 30
0.0
 11
19.17027709
 21
22.0825
 31
0.0
  0
LINE
  5
2B9
330
272
100
AcDbEntity
  8
0
  6
Continuous
 62
     2
100
AcDbLine
 10
-18.87246936
 20
-3.0
 30
0.0
 11
-18.87246936
 21
3.0
 31
0.0
  0
CIRCLE
  5
2BA
330
272
100
AcDbEntity
  8
0
  6
Continuous
 62
     7
100
AcDbCircle
 10
0.1275306400000034
 20
0.0
 30
0.0
 40
4.5
  0
LINE
  5
2BB
330
272
100
AcDbEntity
  8
0
  6
Continuous
 62
     2
100
AcDbLine
 10
0.1275306400000034
 20
-43.51744519
 30
0.0
 11
0.1275306400000034
 21
-59.56264439
 31
0.0
  0
LINE
  5
2BC
330
272
100
AcDbEntity
  8
0
  6
Continuous
 62
     2
100
AcDbLine
 10
-3.5268358
 20
-55.56851568999999
 30
0.0
 11
3.982883360000002
 21
-53.55629249999999
 31
0.0
  0
LINE
  5
2BD
330
272
100
AcDbEntity
  8
0
  6
Continuous
 62
     7
100
AcDbLine
 10
-2.772469360000002
 20
-55.36638381
 30
0.0
 11
-2.772469360000002
 21
-35.0
 31
0.0
  0
LINE
  5
2BE
330
272
100
AcDbEntity
  8
0
  6
Continuous
 62
     2
100
AcDbLine
 10
4.045931260000003
 20
-54.53939887
 30
0.0
 11
-3.549825900000001
 21
-56.57467587
 31
0.0
  0
LINE
  5
2BF
330
272
100
AcDbEntity
  8
0
  6
Continuous
 62
     7
100
AcDbLine
 10
3.027530639999994
 20
-53.81227849
 30
0.0
 11
3.027530639999994
 21
-35.0
 31
0.0
  0
CIRCLE
  5
2C0
330
272
100
AcDbEntity
  8
0
  6
Continuous
 62
     7
100
AcDbCircle
 10
10.70766518
 20
-14.5623059
 30
0.0
 40
10.0
  0
CIRCLE
  5
2C1
330
272
100
AcDbEntity
  8
0
  6
Continuous
 62
     7
100
AcDbCircle
 10
10.70766518
 20
-14.5623059
 30
0.0
 40
9.0
  0
CIRCLE
  5
2C2
330
272
100
AcDbEntity
  8
0
  6
Continuous
 62
     7
100
AcDbCircle
 10
-18.87246936
 20
0.0
 30
0.0
 40
1.5
  0
LINE
  5
2C3
330
272
100
AcDbEntity
  8
0
  6
Continuous
 62
     2
100
AcDbLine
 10
18.62753064
 20
2.755479839999999
 30
0.0
 11
18.62753064
 21
-3.026111499999998
 31
0.0
  0
LINE
  5
2C4
330
272
100
AcDbEntity
  8
0
  6
Continuous
 62
     2
100
AcDbLine
 10
19.62753064
 20
2.755479839999999
 30
0.0
 11
19.62753064
 21
-3.026111499999998
 31
0.0
  0
ARC
  5
2C5
330
272
100
AcDbEntity
  8
0
  6
Continuous
 62
     7
100
AcDbCircle
 10
19.62753064
 20
0.0
 30
0.0
 40
1.5
100
AcDbArc
 50
270.0
 51
90.0
  0
ARC
  5
2C6
330
272
100
AcDbEntity
  8
0
  6
Continuous
 62
     7
100
AcDbCircle
 10
18.62753064
 20
0.0
 30
0.0
 40
1.5
100
AcDbArc
 50
90.0
 51
270.0
  0
LINE
  5
2C7
330
272
100
AcDbEntity
  8
0
  6
Continuous
 62
     7
100
AcDbLine
 10
19.62753064
 20
1.5
 30
0.0
 11
18.62753064
 21
1.5
 31
0.0
  0
LINE
  5
2C8
330
272
100
AcDbEntity
  8
0
  6
Continuous
 62
     7
100
AcDbLine
 10
18.62753064
 20
-1.5
 30
0.0
 11
19.62753064
 21
-1.5
 31
0.0
  0
ENDBLK
  5
274
330
272
100
AcDbEntity
  8
0
100
AcDbBlockEnd
  0
ENDSEC
  0
SECTION
  2
ENTITIES
  0
MTEXT
  5
167
330
A
100
AcDbEntity
  8
0
  6
Continuous
 62
     7
100
AcDbMText
 10
-185.70945946
 20
117.6000061
 30
0.0
 40
4.5
 41
0.0
 71
     4
 72
     5
  1
\W1.054;\A1;MODEL:EWHRT1A
 73
     1
 44
1.0
1001
ACAD
1000
MTEXTBEGIN
1070
    73
1070
     1
1070
    44
1040
1.0
1070
    74
1070
     0
1000
MTEXTEND
  0
LINE
  5
168
330
A
100
AcDbEntity
  8
0
  6
Continuous
 62
     7
100
AcDbLine
 10
-194.25
 20
132.6000061
 30
0.0
 11
194.80000305
 21
132.6000061
 31
0.0
  0
LINE
  5
169
330
A
100
AcDbEntity
  8
0
  6
Continuous
 62
     7
100
AcDbLine
 10
194.80000305
 20
132.6000061
 30
0.0
 11
194.80000305
 21
-133.5
 31
0.0
  0
LINE
  5
16A
330
A
100
AcDbEntity
  8
0
  6
Continuous
 62
     7
100
AcDbLine
 10
-194.25
 20
132.6000061
 30
0.0
 11
-194.25
 21
-133.5
 31
0.0
  0
LINE
  5
16B
330
A
100
AcDbEntity
  8
0
  6
Continuous
 62
     7
100
AcDbLine
 10
-194.25
 20
-133.5
 30
0.0
 11
194.80000305
 21
-133.5
 31
0.0
  0
INSERT
  5
1C2
330
A
100
AcDbEntity
  8
0
  6
Continuous
100
AcDbBlockReference
  2
EWHRT1A_1
 10
21.63808023
 20
28.70583804000001
 30
0.0
  0
INSERT
  5
271
330
A
100
AcDbEntity
  8
0
  6
Continuous
100
AcDbBlockReference
  2
EWHRT1A_2
 10
-96.02184108999999
 20
28.70583804
 30
0.0
  0
INSERT
  5
2C9
330
A
100
AcDbEntity
  8
0
  6
Continuous
100
AcDbBlockReference
  2
EWHRT1A_3
 10
106.17047092
 20
28.70583804
 30
0.0
  0
ENDSEC
  0
SECTION
  2
OBJECTS
  0
DICTIONARY
  5
19
330
0
100
AcDbDictionary
281
     1
  3
ACAD_COLOR
350
174
  3
ACAD_GROUP
350
1A
  3
ACAD_LAYOUT
350
177
  3
ACAD_MATERIAL
350
173
  3
ACAD_MLINESTYLE
350
1B
  3
ACAD_PLOTSETTINGS
350
178
  3
ACAD_PLOTSTYLENAME
350
171
  3
ACAD_TABLESTYLE
350
175
  3
ACDBHEADERROUNDTRIPXREC
350
2D0
  3
AcDbVariableDictionary
350
2CA
  3
DWGPROPS
350
2CF
  0
DICTIONARY
  5
174
102
{ACAD_REACTORS
330
19
102
}
330
19
100
AcDbDictionary
281
     1
  0
DICTIONARY
  5
1A
102
{ACAD_REACTORS
330
19
102
}
330
19
100
AcDbDictionary
281
     1
  0
DICTIONARY
  5
177
102
{ACAD_REACTORS
330
19
102
}
330
19
100
AcDbDictionary
281
     1
  3
Model
350
179
  3
レイアウト1
350
17A
  0
DICTIONARY
  5
173
102
{ACAD_REACTORS
330
19
102
}
330
19
100
AcDbDictionary
281
     1
  0
DICTIONARY
  5
1B
102
{ACAD_REACTORS
330
19
102
}
330
19
100
AcDbDictionary
281
     1
  3
STANDARD
350
1C
  0
DICTIONARY
  5
178
102
{ACAD_REACTORS
330
19
102
}
330
19
100
AcDbDictionary
281
     1
  0
ACDBDICTIONARYWDFLT
  5
171
102
{ACAD_REACTORS
330
19
102
}
330
19
100
AcDbDictionary
281
     1
  3
Normal
350
172
100
AcDbDictionaryWithDefault
340
172
  0
DICTIONARY
  5
175
102
{ACAD_REACTORS
330
19
102
}
330
19
100
AcDbDictionary
281
     1
  3
Standard
350
176
  0
DICTIONARY
  5
2D0
102
{ACAD_REACTORS
330
19
102
}
330
19
100
AcDbDictionary
281
     1
  0
DICTIONARY
  5
2CA
102
{ACAD_REACTORS
330
19
102
}
330
19
100
AcDbDictionary
281
     1
  3
CTABLESTYLE
350
2CB
  3
DIMASSOC
350
2CC
  3
PROJECTNAME
350
2CD
  0
XRECORD
  5
2CF
102
{ACAD_REACTORS
330
19
102
}
330
19
100
AcDbXrecord
280
     1
  1
DWGPROPS COOKIE
  2

  3

  4

  6

  7

  8

  9

300
=
301
=
302
=
303
=
304
=
305
=
306
=
307
=
308
=
309
=
 40
0.0015027546296296
 41
2454481.53744213
 42
2454495.7149461
  1

 90
        0
  0
LAYOUT
  5
179
102
{ACAD_XDICTIONARY
360
2D1
102
}
102
{ACAD_REACTORS
330
177
102
}
330
177
100
AcDbPlotSettings
  1

  2
Microsoft Office Document Image Writer
  4

  6

 40
0.0
 41
0.0
 42
0.0
 43
0.0
 44
0.0
 45
0.0
 46
0.0
 47
0.0
 48
0.0
 49
0.0
140
0.0
141
0.0
142
1.0
143
1.0
 70
  1712
 72
     0
 73
     0
 74
     0
  7

 75
     0
147
1.0
148
0.0
149
0.0
100
AcDbLayout
  1
Model
 70
     1
 71
     0
 10
0.0
 20
0.0
 11
12.0
 21
9.0
 12
0.0
 22
0.0
 32
0.0
 14
0.0
 24
0.0
 34
0.0
 15
0.0
 25
0.0
 35
0.0
146
0.0
 13
0.0
 23
0.0
 33
0.0
 16
1.0
 26
0.0
 36
0.0
 17
0.0
 27
1.0
 37
0.0
 76
     0
330
A
  0
LAYOUT
  5
17A
102
{ACAD_XDICTIONARY
360
2D3
102
}
102
{ACAD_REACTORS
330
177
102
}
330
177
100
AcDbPlotSettings
  1

  2
Microsoft Office Document Image Writer
  4

  6

 40
0.0
 41
0.0
 42
0.0
 43
0.0
 44
0.0
 45
0.0
 46
0.0
 47
0.0
 48
0.0
 49
0.0
140
0.0
141
0.0
142
1.0
143
1.0
 70
   688
 72
     0
 73
     0
 74
     5
  7

 75
    16
147
1.0
148
0.0
149
0.0
100
AcDbLayout
  1
レイアウト1
 70
     0
 71
     1
 10
0.0
 20
0.0
 11
12.0
 21
9.0
 12
0.0
 22
0.0
 32
0.0
 14
1.000000000000000E+20
 24
1.000000000000000E+20
 34
1.000000000000000E+20
 15
-1.000000000000000E+20
 25
-1.000000000000000E+20
 35
-1.000000000000000E+20
146
0.0
 13
0.0
 23
0.0
 33
0.0
 16
1.0
 26
0.0
 36
0.0
 17
0.0
 27
1.0
 37
0.0
 76
     0
330
B
  0
MLINESTYLE
  5
1C
102
{ACAD_REACTORS
330
1B
102
}
330
1B
100
AcDbMlineStyle
  2
STANDARD
 70
     0
  3

 62
     0
 51
90.0
 52
90.0
 71
     2
 49
0.5
 62
   256
  6
BYLAYER
 49
-0.5
 62
   256
  6
BYLAYER
  0
ACDBPLACEHOLDER
  5
172
102
{ACAD_REACTORS
330
171
102
}
330
171
  0
TABLESTYLE
  5
176
102
{ACAD_REACTORS
330
175
102
}
330
175
100
AcDbTableStyle
  3
Standard
 70
     0
 71
     0
 40
0.06
 41
0.06
280
     0
281
     0
  7
MX_NOTE_STANDARD
140
0.18
170
     2
 62
     0
 63
     7
283
     0
274
    -2
284
     1
 64
     0
275
    -2
285
     1
 65
     0
276
    -2
286
     1
 66
     0
277
    -2
287
     1
 67
     0
278
    -2
288
     1
 68
     0
279
    -2
289
     1
 69
     0
  7
MX_NOTE_STANDARD
140
0.25
170
     5
 62
     0
 63
     7
283
     0
274
    -2
284
     1
 64
     0
275
    -2
285
     1
 65
     0
276
    -2
286
     1
 66
     0
277
    -2
287
     1
 67
     0
278
    -2
288
     1
 68
     0
279
    -2
289
     1
 69
     0
  7
MX_NOTE_STANDARD
140
0.18
170
     5
 62
     0
 63
     7
283
     0
274
    -2
284
     1
 64
     0
275
    -2
285
     1
 65
     0
276
    -2
286
     1
 66
     0
277
    -2
287
     1
 67
     0
278
    -2
288
     1
 68
     0
279
    -2
289
     1
 69
     0
  0
DICTIONARYVAR
  5
2CB
102
{ACAD_REACTORS
330
2CA
102
}
330
2CA
100
DictionaryVariables
280
     0
  1
STANDARD
  0
DICTIONARYVAR
  5
2CC
102
{ACAD_REACTORS
330
2CA
102
}
330
2CA
100
DictionaryVariables
280
     0
  1
1
  0
DICTIONARYVAR
  5
2CD
102
{ACAD_REACTORS
330
2CA
102
}
330
2CA
100
DictionaryVariables
280
     0
  1

  0
DICTIONARY
  5
2D1
330
179
100
AcDbDictionary
280
     1
281
     1
  3
ACAD_XREC_ROUNDTRIP
360
2D2
  0
DICTIONARY
  5
2D3
330
17A
100
AcDbDictionary
280
     1
281
     1
  3
ACAD_XREC_ROUNDTRIP
360
2D4
  0
XRECORD
  5
2D2
102
{ACAD_REACTORS
330
2D1
102
}
330
2D1
100
AcDbXrecord
280
     1
102
SHADEPLOT
 70
     0
102
SHADEPLOTRESLEVEL
 70
     2
102
SHADEPLOTCUSTOMDPI
 70
   300
  0
XRECORD
  5
2D4
102
{ACAD_REACTORS
330
2D3
102
}
330
2D3
100
AcDbXrecord
280
     1
102
SHADEPLOT
 70
     0
102
SHADEPLOTRESLEVEL
 70
     2
102
SHADEPLOTCUSTOMDPI
 70
   300
  0
ENDSEC
  0
EOF
