  0
SECTION
  2
HEADER
  9
$ACADVER
  1
AC1015
  9
$ACADMAINTVER
 70
    20
  9
$DWGCODEPAGE
  3
ANSI_932
  9
$INSBASE
 10
0.0
 20
0.0
 30
0.0
  9
$EXTMIN
 10
-281.25
 20
-271.56691588
 30
0.0
  9
$EXTMAX
 10
345.93971963
 20
195.5
 30
0.0
  9
$LIMMIN
 10
-281.25
 20
-195.0
  9
$LIMMAX
 10
285.59998798
 20
195.5
  9
$ORTHOMODE
 70
     0
  9
$REGENMODE
 70
     1
  9
$FILLMODE
 70
     1
  9
$QTEXTMODE
 70
     0
  9
$MIRRTEXT
 70
     1
  9
$LTSCALE
 40
1.0
  9
$ATTMODE
 70
     1
  9
$TEXTSIZE
 40
3.200000049999999
  9
$TRACEWID
 40
0.05
  9
$TEXTSTYLE
  7
MX_NOTE_STANDARD
  9
$CLAYER
  8
0
  9
$CELTYPE
  6
CONTINUOUS
  9
$CECOLOR
 62
   256
  9
$CELTSCALE
 40
1.0
  9
$DISPSILH
 70
     0
  9
$DIMSCALE
 40
1.0
  9
$DIMASZ
 40
2.5
  9
$DIMEXO
 40
1.5
  9
$DIMDLI
 40
3.75
  9
$DIMRND
 40
0.0
  9
$DIMDLE
 40
0.0
  9
$DIMEXE
 40
1.5
  9
$DIMTP
 40
0.0
  9
$DIMTM
 40
0.0
  9
$DIMTXT
 40
3.200000049999999
  9
$DIMCEN
 40
2.5
  9
$DIMTSZ
 40
0.0
  9
$DIMTOL
 70
     0
  9
$DIMLIM
 70
     0
  9
$DIMTIH
 70
     0
  9
$DIMTOH
 70
     0
  9
$DIMSE1
 70
     0
  9
$DIMSE2
 70
     0
  9
$DIMTAD
 70
     1
  9
$DIMZIN
 70
     8
  9
$DIMBLK
  1

  9
$DIMASO
 70
     1
  9
$DIMSHO
 70
     1
  9
$DIMPOST
  1

  9
$DIMAPOST
  1

  9
$DIMALT
 70
     0
  9
$DIMALTD
 70
     4
  9
$DIMALTF
 40
0.0394
  9
$DIMLFAC
 40
1.0
  9
$DIMTOFL
 70
     1
  9
$DIMTVP
 40
0.0
  9
$DIMTIX
 70
     0
  9
$DIMSOXD
 70
     0
  9
$DIMSAH
 70
     0
  9
$DIMBLK1
  1

  9
$DIMBLK2
  1

  9
$DIMSTYLE
  2
MXDIMSTYLE
  9
$DIMCLRD
 70
     0
  9
$DIMCLRE
 70
     0
  9
$DIMCLRT
 70
     0
  9
$DIMTFAC
 40
1.0
  9
$DIMGAP
 40
1.0
  9
$DIMJUST
 70
     0
  9
$DIMSD1
 70
     0
  9
$DIMSD2
 70
     0
  9
$DIMTOLJ
 70
     1
  9
$DIMTZIN
 70
     0
  9
$DIMALTZ
 70
     0
  9
$DIMALTTZ
 70
     0
  9
$DIMUPT
 70
     0
  9
$DIMDEC
 70
     4
  9
$DIMTDEC
 70
     4
  9
$DIMALTU
 70
     2
  9
$DIMALTTD
 70
     2
  9
$DIMTXSTY
  7
Standard
  9
$DIMAUNIT
 70
     0
  9
$DIMADEC
 70
     0
  9
$DIMALTRND
 40
0.0
  9
$DIMAZIN
 70
     0
  9
$DIMDSEP
 70
    46
  9
$DIMATFIT
 70
     3
  9
$DIMFRAC
 70
     0
  9
$DIMLDRBLK
  1

  9
$DIMLUNIT
 70
     2
  9
$DIMLWD
 70
    -2
  9
$DIMLWE
 70
    -2
  9
$DIMTMOVE
 70
     0
  9
$LUNITS
 70
     2
  9
$LUPREC
 70
     4
  9
$SKETCHINC
 40
0.1
  9
$FILLETRAD
 40
0.0
  9
$AUNITS
 70
     0
  9
$AUPREC
 70
     0
  9
$MENU
  1
acad
  9
$ELEVATION
 40
0.0
  9
$PELEVATION
 40
0.0
  9
$THICKNESS
 40
0.0
  9
$LIMCHECK
 70
     0
  9
$CHAMFERA
 40
0.0
  9
$CHAMFERB
 40
0.0
  9
$CHAMFERC
 40
5.0
  9
$CHAMFERD
 40
0.7853981633974483
  9
$SKPOLY
 70
     0
  9
$TDCREATE
 40
2452754.618263889
  9
$TDUCREATE
 40
2452754.243263889
  9
$TDUPDATE
 40
2454190.488007975
  9
$TDUUPDATE
 40
2454190.113007975
  9
$TDINDWG
 40
0.0889950926
  9
$TDUSRTIMER
 40
0.0889947338
  9
$USRTIMER
 70
     1
  9
$ANGBASE
 50
0.0
  9
$ANGDIR
 70
     0
  9
$PDMODE
 70
     0
  9
$PDSIZE
 40
0.0
  9
$PLINEWID
 40
0.0
  9
$SPLFRAME
 70
     0
  9
$SPLINETYPE
 70
     6
  9
$SPLINESEGS
 70
     8
  9
$HANDSEED
  5
5F7
  9
$SURFTAB1
 70
     6
  9
$SURFTAB2
 70
     6
  9
$SURFTYPE
 70
     6
  9
$SURFU
 70
     6
  9
$SURFV
 70
     6
  9
$UCSBASE
  2

  9
$UCSNAME
  2

  9
$UCSORG
 10
0.0
 20
0.0
 30
0.0
  9
$UCSXDIR
 10
1.0
 20
0.0
 30
0.0
  9
$UCSYDIR
 10
0.0
 20
1.0
 30
0.0
  9
$UCSORTHOREF
  2

  9
$UCSORTHOVIEW
 70
     0
  9
$UCSORGTOP
 10
0.0
 20
0.0
 30
0.0
  9
$UCSORGBOTTOM
 10
0.0
 20
0.0
 30
0.0
  9
$UCSORGLEFT
 10
0.0
 20
0.0
 30
0.0
  9
$UCSORGRIGHT
 10
0.0
 20
0.0
 30
0.0
  9
$UCSORGFRONT
 10
0.0
 20
0.0
 30
0.0
  9
$UCSORGBACK
 10
0.0
 20
0.0
 30
0.0
  9
$PUCSBASE
  2

  9
$PUCSNAME
  2

  9
$PUCSORG
 10
0.0
 20
0.0
 30
0.0
  9
$PUCSXDIR
 10
1.0
 20
0.0
 30
0.0
  9
$PUCSYDIR
 10
0.0
 20
1.0
 30
0.0
  9
$PUCSORTHOREF
  2

  9
$PUCSORTHOVIEW
 70
     0
  9
$PUCSORGTOP
 10
0.0
 20
0.0
 30
0.0
  9
$PUCSORGBOTTOM
 10
0.0
 20
0.0
 30
0.0
  9
$PUCSORGLEFT
 10
0.0
 20
0.0
 30
0.0
  9
$PUCSORGRIGHT
 10
0.0
 20
0.0
 30
0.0
  9
$PUCSORGFRONT
 10
0.0
 20
0.0
 30
0.0
  9
$PUCSORGBACK
 10
0.0
 20
0.0
 30
0.0
  9
$USERI1
 70
     0
  9
$USERI2
 70
     0
  9
$USERI3
 70
     0
  9
$USERI4
 70
     0
  9
$USERI5
 70
     0
  9
$USERR1
 40
0.0
  9
$USERR2
 40
0.0
  9
$USERR3
 40
0.0
  9
$USERR4
 40
0.0
  9
$USERR5
 40
0.0
  9
$WORLDVIEW
 70
     1
  9
$SHADEDGE
 70
     3
  9
$SHADEDIF
 70
    70
  9
$TILEMODE
 70
     1
  9
$MAXACTVP
 70
    16
  9
$PINSBASE
 10
0.0
 20
0.0
 30
0.0
  9
$PLIMCHECK
 70
     0
  9
$PEXTMIN
 10
1.130750010332723
 20
0.7880833242821881
 30
0.0
  9
$PEXTMAX
 10
10.17675009299451
 20
7.092749918539693
 30
0.0
  9
$PLIMMIN
 10
-0.1912502979669045
 20
-0.1912499975970411
  9
$PLIMMAX
 10
11.50208240418922
 20
8.075416444793461
  9
$UNITMODE
 70
     0
  9
$VISRETAIN
 70
     0
  9
$PLINEGEN
 70
     1
  9
$PSLTSCALE
 70
     0
  9
$TREEDEPTH
 70
  3020
  9
$CMLSTYLE
  2
Standard
  9
$CMLJUST
 70
     0
  9
$CMLSCALE
 40
1.0
  9
$PROXYGRAPHICS
 70
     1
  9
$MEASUREMENT
 70
     0
  9
$CELWEIGHT
370
    -1
  9
$ENDCAPS
280
     0
  9
$JOINSTYLE
280
     0
  9
$LWDISPLAY
290
     0
  9
$INSUNITS
 70
     0
  9
$HYPERLINKBASE
  1

  9
$STYLESHEET
  1

  9
$XEDIT
290
     1
  9
$CEPSNTYPE
380
     0
  9
$PSTYLEMODE
290
     1
  9
$FINGERPRINTGUID
  2
{A98E8695-6D39-4B64-B4BC-97606E596383}
  9
$VERSIONGUID
  2
{1F41DE13-359B-4DDB-B780-CDFE04BFF6FA}
  9
$EXTNAMES
290
     1
  9
$PSVPSCALE
 40
0.0
  9
$OLESTARTUP
290
     0
  0
ENDSEC
  0
SECTION
  2
CLASSES
  0
CLASS
  1
ACDBDICTIONARYWDFLT
  2
AcDbDictionaryWithDefault
  3
ObjectDBX Classes
 90
        0
280
     0
281
     0
  0
CLASS
  1
TABLESTYLE
  2
AcDbTableStyle
  3
ObjectDBX Classes
 90
     2047
280
     0
281
     0
  0
CLASS
  1
SORTENTSTABLE
  2
AcDbSortentsTable
  3
ObjectDBX Classes
 90
        0
280
     0
281
     0
  0
CLASS
  1
DICTIONARYVAR
  2
AcDbDictionaryVar
  3
ObjectDBX Classes
 90
        0
280
     0
281
     0
  0
CLASS
  1
ACDBPLACEHOLDER
  2
AcDbPlaceHolder
  3
ObjectDBX Classes
 90
        0
280
     0
281
     0
  0
CLASS
  1
LAYOUT
  2
AcDbLayout
  3
ObjectDBX Classes
 90
        0
280
     0
281
     0
  0
ENDSEC
  0
SECTION
  2
TABLES
  0
TABLE
  2
VPORT
  5
244
330
0
100
AcDbSymbolTable
 70
    15
  0
VPORT
  5
5ED
330
244
100
AcDbSymbolTableRecord
100
AcDbViewportTableRecord
  2
*Active
 70
     0
 10
0.0
 20
0.0
 11
1.0
 21
1.0
 12
56.05748928125314
 22
73.96153017232257
 13
0.0
 23
0.0
 14
1.0
 24
1.0
 15
0.0
 25
0.0
 16
0.0
 26
0.0
 36
1.0
 17
0.0
 27
0.0
 37
0.0
 40
303.2948715118398
 41
1.554854981084489
 42
50.0
 43
0.0
 44
0.0
 50
0.0
 51
0.0
 71
     0
 72
   100
 73
     1
 74
     1
 75
     0
 76
     0
 77
     0
 78
     0
281
     0
 65
     1
110
0.0
120
0.0
130
0.0
111
1.0
121
0.0
131
0.0
112
0.0
122
1.0
132
0.0
 79
     0
146
0.0
  0
ENDTAB
  0
TABLE
  2
LTYPE
  5
241
330
0
100
AcDbSymbolTable
 70
     4
  0
LTYPE
  5
24F
330
241
100
AcDbSymbolTableRecord
100
AcDbLinetypeTableRecord
  2
ByBlock
 70
     0
  3

 72
    65
 73
     0
 40
0.0
  0
LTYPE
  5
250
330
241
100
AcDbSymbolTableRecord
100
AcDbLinetypeTableRecord
  2
ByLayer
 70
     0
  3

 72
    65
 73
     0
 40
0.0
  0
LTYPE
  5
251
330
241
100
AcDbSymbolTableRecord
100
AcDbLinetypeTableRecord
  2
CONTINUOUS
 70
     0
  3
Solid line
 72
    65
 73
     0
 40
0.0
  0
LTYPE
  5
264
330
241
100
AcDbSymbolTableRecord
100
AcDbLinetypeTableRecord
  2
CENTER
 70
     0
  3
Center ____ _ ____ _ ____ _ ____ _ ____ _ ____
 72
    65
 73
     4
 40
50.8
 49
31.75
 74
     0
 49
-6.349999999999999
 74
     0
 49
6.349999999999999
 74
     0
 49
-6.349999999999999
 74
     0
  0
LTYPE
  5
265
330
241
100
AcDbSymbolTableRecord
100
AcDbLinetypeTableRecord
  2
DASHED
 70
     0
  3
Dashed __ __ __ __ __ __ __ __ __ __ __ __ __ _
 72
    65
 73
     2
 40
19.05
 49
12.7
 74
     0
 49
-6.349999999999999
 74
     0
  0
ENDTAB
  0
TABLE
  2
LAYER
  5
23E
102
{ACAD_XDICTIONARY
360
27A
102
}
330
0
100
AcDbSymbolTable
 70
     2
  0
LAYER
  5
24C
330
23E
100
AcDbSymbolTableRecord
100
AcDbLayerTableRecord
  2
0
 70
     0
 62
     7
  6
CONTINUOUS
370
    -3
390
24B
  0
LAYER
  5
266
330
23E
100
AcDbSymbolTableRecord
100
AcDbLayerTableRecord
  2
DEFPOINTS
 70
     0
 62
     7
  6
CONTINUOUS
290
     0
370
    -3
390
24B
  0
ENDTAB
  0
TABLE
  2
STYLE
  5
23F
330
0
100
AcDbSymbolTable
 70
     2
  0
STYLE
  5
24D
330
23F
100
AcDbSymbolTableRecord
100
AcDbTextStyleTableRecord
  2
Standard
 70
     0
 40
0.0
 41
1.0
 50
0.0
 71
     0
 42
0.2
  3
txt
  4

  0
STYLE
  5
262
330
23F
100
AcDbSymbolTableRecord
100
AcDbTextStyleTableRecord
  2
MX_NOTE_STANDARD
 70
     0
 40
3.200000049999999
 41
1.0
 50
0.0
 71
     0
 42
3.200000049999999
  3
txt.shx
  4
extfont.shx
  0
ENDTAB
  0
TABLE
  2
VIEW
  5
242
330
0
100
AcDbSymbolTable
 70
     1
  0
ENDTAB
  0
TABLE
  2
UCS
  5
243
330
0
100
AcDbSymbolTable
 70
     0
  0
ENDTAB
  0
TABLE
  2
APPID
  5
245
330
0
100
AcDbSymbolTable
 70
     3
  0
APPID
  5
24E
330
245
100
AcDbSymbolTableRecord
100
AcDbRegAppTableRecord
  2
ACAD
 70
     0
  0
APPID
  5
274
330
245
100
AcDbSymbolTableRecord
100
AcDbRegAppTableRecord
  2
ACAD_PSEXT
 70
     0
  0
APPID
  5
46D
330
245
100
AcDbSymbolTableRecord
100
AcDbRegAppTableRecord
  2
ACAD_EXEMPT_FROM_CAD_STANDARDS
 70
     0
  0
ENDTAB
  0
TABLE
  2
DIMSTYLE
  5
246
330
0
100
AcDbSymbolTable
 70
     2
100
AcDbDimStyleTable
 71
     1
340
267
  0
DIMSTYLE
105
267
330
246
100
AcDbSymbolTableRecord
100
AcDbDimStyleTableRecord
  2
MXDIMSTYLE
 70
     0
 41
2.5
 42
1.5
 43
3.75
 44
1.5
 73
     0
 74
     0
 77
     1
 78
     8
140
3.200000049999999
141
2.5
143
0.0394
147
1.0
171
     4
172
     1
274
     4
279
     2
284
     8
285
     8
286
     8
340
262
  0
ENDTAB
  0
TABLE
  2
BLOCK_RECORD
  5
23D
330
0
100
AcDbSymbolTable
 70
     7
  0
BLOCK_RECORD
  5
25E
102
{ACAD_XDICTIONARY
360
2E4
102
}
330
23D
100
AcDbSymbolTableRecord
100
AcDbBlockTableRecord
  2
*Model_Space
340
261
  0
BLOCK_RECORD
  5
25A
330
23D
100
AcDbSymbolTableRecord
100
AcDbBlockTableRecord
  2
*Paper_Space
340
25D
  0
BLOCK_RECORD
  5
26A
330
23D
100
AcDbSymbolTableRecord
100
AcDbBlockTableRecord
  2
MS_1
340
0
  0
BLOCK_RECORD
  5
26B
330
23D
100
AcDbSymbolTableRecord
100
AcDbBlockTableRecord
  2
MS_2
340
0
  0
BLOCK_RECORD
  5
26C
330
23D
100
AcDbSymbolTableRecord
100
AcDbBlockTableRecord
  2
MS_3
340
0
  0
BLOCK_RECORD
  5
26D
330
23D
100
AcDbSymbolTableRecord
100
AcDbBlockTableRecord
  2
MS_4
340
0
  0
BLOCK_RECORD
  5
26E
330
23D
100
AcDbSymbolTableRecord
100
AcDbBlockTableRecord
  2
_OPEN30
340
0
  0
ENDTAB
  0
ENDSEC
  0
SECTION
  2
BLOCKS
  0
BLOCK
  5
25F
330
25E
100
AcDbEntity
  8
0
100
AcDbBlockBegin
  2
*Model_Space
 70
     0
 10
0.0
 20
0.0
 30
0.0
  3
*Model_Space
  1

  0
ENDBLK
  5
260
330
25E
100
AcDbEntity
  8
0
100
AcDbBlockEnd
  0
BLOCK
  5
25B
330
25A
100
AcDbEntity
 67
     1
  8
0
100
AcDbBlockBegin
  2
*Paper_Space
 70
     0
 10
0.0
 20
0.0
 30
0.0
  3
*Paper_Space
  1

  0
ENDBLK
  5
25C
330
25A
100
AcDbEntity
 67
     1
  8
0
100
AcDbBlockEnd
  0
BLOCK
  5
22
330
26A
100
AcDbEntity
  8
0
100
AcDbBlockBegin
  2
MS_1
 70
     0
 10
0.0
 20
0.0
 30
0.0
  3
MS_1
  1

  0
ARC
  5
23
330
26A
100
AcDbEntity
  8
0
  6
Continuous
 62
     7
100
AcDbCircle
 10
22.99627632
 20
57.75372368
 30
0.0
 40
0.9962832799999999
100
AcDbArc
 50
89.78585223999999
 51
180.21414776
  0
ARC
  5
24
330
26A
100
AcDbEntity
  8
0
  6
Continuous
 62
     7
100
AcDbCircle
 10
22.99502849
 20
53.74502849
 30
0.0
 40
0.9950409
100
AcDbArc
 50
179.71373236
 51
270.28626764
  0
ARC
  5
25
330
26A
100
AcDbEntity
  8
0
  6
Continuous
 62
     7
100
AcDbCircle
 10
40.99605215999999
 20
53.75394784
 30
0.0
 40
1.0039556
100
AcDbArc
 50
270.22530366
 51
359.77469634
  0
ARC
  5
26
330
26A
100
AcDbEntity
  8
0
  6
Continuous
 62
     7
100
AcDbCircle
 10
40.99481541
 20
57.74481541
 30
0.0
 40
1.00519796
100
AcDbArc
 50
0.2955205
 51
89.7044795
  0
ARC
  5
27
330
26A
100
AcDbEntity
  8
0
  6
Continuous
 62
     7
100
AcDbCircle
 10
26.74639932
 20
75.25360068000001
 30
0.0
 40
0.9964058300000001
100
AcDbArc
 50
89.79295175999999
 51
180.20704824
  0
ARC
  5
28
330
26A
100
AcDbEntity
  8
0
  6
Continuous
 62
     7
100
AcDbCircle
 10
26.74492916
 20
61.74492916
 30
0.0
 40
0.9949420799999998
100
AcDbArc
 50
179.707984
 51
270.292016
  0
ARC
  5
29
330
26A
100
AcDbEntity
  8
0
  6
Continuous
 62
     7
100
AcDbCircle
 10
37.24615115000001
 20
61.75384884999999
 30
0.0
 40
1.00385623
100
AcDbArc
 50
270.21967626
 51
359.78032374
  0
ARC
  5
2A
330
26A
100
AcDbEntity
  8
0
  6
Continuous
 62
     7
100
AcDbCircle
 10
37.24469403
 20
75.24469403000001
 30
0.0
 40
1.005319969999999
100
AcDbArc
 50
0.30240213
 51
89.69759786999999
  0
ARC
  5
2B
330
26A
100
AcDbEntity
  8
0
  6
Continuous
 62
     7
100
AcDbCircle
 10
20.49648329
 20
78.50351671
 30
0.0
 40
2.24648605
100
AcDbArc
 50
89.91030771
 51
180.0896922899999
  0
ARC
  5
2C
330
26A
100
AcDbEntity
  8
0
  6
Continuous
 62
     7
100
AcDbCircle
 10
43.49462154
 20
78.49462154
 30
0.0
 40
2.255384869999999
100
AcDbArc
 50
0.13663438
 51
89.86336561999999
  0
CIRCLE
  5
2D
330
26A
100
AcDbEntity
  8
0
  6
Continuous
 62
     7
100
AcDbCircle
 10
47.99112488
 20
27.4997876
 30
0.0
 40
3.5
  0
CIRCLE
  5
2E
330
26A
100
AcDbEntity
  8
0
  6
Continuous
 62
     7
100
AcDbCircle
 10
15.99110962
 20
27.4997876
 30
0.0
 40
3.5
  0
CIRCLE
  5
2F
330
26A
100
AcDbEntity
  8
0
  6
Continuous
 62
     7
100
AcDbCircle
 10
15.99110962
 20
-27.50019714
 30
0.0
 40
3.5
  0
CIRCLE
  5
30
330
26A
100
AcDbEntity
  8
0
  6
Continuous
 62
     7
100
AcDbCircle
 10
47.99112488
 20
-27.50021240000001
 30
0.0
 40
3.5
  0
LINE
  5
31
330
26A
100
AcDbEntity
  8
0
  6
Continuous
 62
     7
100
AcDbLine
 10
17.0
 20
34.5
 30
0.0
 11
16.5
 21
34.5
 31
0.0
  0
LINE
  5
32
330
26A
100
AcDbEntity
  8
0
  6
Continuous
 62
     7
100
AcDbLine
 10
47.5
 20
34.5
 30
0.0
 11
47.5
 21
32.5
 31
0.0
  0
LINE
  5
33
330
26A
100
AcDbEntity
  8
0
  6
Continuous
 62
     7
100
AcDbLine
 10
16.5
 20
34.5
 30
0.0
 11
16.5
 21
32.5
 31
0.0
  0
LINE
  5
34
330
26A
100
AcDbEntity
  8
0
  6
Continuous
 62
     7
100
AcDbLine
 10
47.5
 20
34.5
 30
0.0
 11
47.0
 21
34.5
 31
0.0
  0
LINE
  5
35
330
26A
100
AcDbEntity
  8
0
  6
Continuous
 62
     7
100
AcDbLine
 10
22.0
 20
53.75
 30
0.0
 11
22.0
 21
57.75
 31
0.0
  0
LINE
  5
36
330
26A
100
AcDbEntity
  8
0
  6
Continuous
 62
     7
100
AcDbLine
 10
42.0
 20
53.75
 30
0.0
 11
42.0
 21
57.75
 31
0.0
  0
LINE
  5
37
330
26A
100
AcDbEntity
  8
0
  6
Continuous
 62
     7
100
AcDbLine
 10
41.0
 20
52.75
 30
0.0
 11
23.0
 21
52.75
 31
0.0
  0
LINE
  5
38
330
26A
100
AcDbEntity
  8
0
  6
Continuous
 62
     7
100
AcDbLine
 10
41.0
 20
58.75
 30
0.0
 11
23.0
 21
58.75
 31
0.0
  0
LINE
  5
39
330
26A
100
AcDbEntity
  8
0
  6
Continuous
 62
     7
100
AcDbLine
 10
24.0
 20
63.25
 30
0.0
 11
24.0
 21
64.75
 31
0.0
  0
LINE
  5
3A
330
26A
100
AcDbEntity
  8
0
  6
Continuous
 62
     7
100
AcDbLine
 10
24.0
 20
67.75
 30
0.0
 11
24.0
 21
69.25
 31
0.0
  0
LINE
  5
3B
330
26A
100
AcDbEntity
  8
0
  6
Continuous
 62
     7
100
AcDbLine
 10
24.0
 20
70.25
 30
0.0
 11
24.0
 21
71.75
 31
0.0
  0
LINE
  5
3C
330
26A
100
AcDbEntity
  8
0
  6
Continuous
 62
     7
100
AcDbLine
 10
24.0
 20
74.75
 30
0.0
 11
24.0
 21
76.25
 31
0.0
  0
LINE
  5
3D
330
26A
100
AcDbEntity
  8
0
  6
Continuous
 62
     7
100
AcDbLine
 10
40.0
 20
63.25
 30
0.0
 11
40.0
 21
64.75
 31
0.0
  0
LINE
  5
3E
330
26A
100
AcDbEntity
  8
0
  6
Continuous
 62
     7
100
AcDbLine
 10
40.0
 20
67.75
 30
0.0
 11
40.0
 21
69.25
 31
0.0
  0
LINE
  5
3F
330
26A
100
AcDbEntity
  8
0
  6
Continuous
 62
     7
100
AcDbLine
 10
40.0
 20
70.25
 30
0.0
 11
40.0
 21
71.75
 31
0.0
  0
LINE
  5
40
330
26A
100
AcDbEntity
  8
0
  6
Continuous
 62
     7
100
AcDbLine
 10
40.0
 20
74.75
 30
0.0
 11
40.0
 21
76.25
 31
0.0
  0
LINE
  5
41
330
26A
100
AcDbEntity
  8
0
  6
Continuous
 62
     7
100
AcDbLine
 10
40.0
 20
60.75
 30
0.0
 11
40.0
 21
62.25
 31
0.0
  0
LINE
  5
42
330
26A
100
AcDbEntity
  8
0
  6
Continuous
 62
     7
100
AcDbLine
 10
24.0
 20
60.75
 30
0.0
 11
24.0
 21
62.25
 31
0.0
  0
LINE
  5
43
330
26A
100
AcDbEntity
  8
0
  6
Continuous
 62
     7
100
AcDbLine
 10
38.25
 20
61.75
 30
0.0
 11
38.25
 21
75.25
 31
0.0
  0
LINE
  5
44
330
26A
100
AcDbEntity
  8
0
  6
Continuous
 62
     7
100
AcDbLine
 10
25.75
 20
61.75
 30
0.0
 11
25.75
 21
75.25
 31
0.0
  0
LINE
  5
45
330
26A
100
AcDbEntity
  8
0
  6
Continuous
 62
     7
100
AcDbLine
 10
24.0
 20
60.75
 30
0.0
 11
18.25
 21
60.75
 31
0.0
  0
LINE
  5
46
330
26A
100
AcDbEntity
  8
0
  6
Continuous
 62
     7
100
AcDbLine
 10
24.0
 20
76.25
 30
0.0
 11
18.25
 21
76.25
 31
0.0
  0
LINE
  5
47
330
26A
100
AcDbEntity
  8
0
  6
Continuous
 62
     7
100
AcDbLine
 10
37.25
 20
76.25
 30
0.0
 11
26.75
 21
76.25
 31
0.0
  0
LINE
  5
48
330
26A
100
AcDbEntity
  8
0
  6
Continuous
 62
     7
100
AcDbLine
 10
24.0
 20
74.75
 30
0.0
 11
18.25
 21
74.75
 31
0.0
  0
LINE
  5
49
330
26A
100
AcDbEntity
  8
0
  6
Continuous
 62
     7
100
AcDbLine
 10
24.0
 20
71.75
 30
0.0
 11
18.25
 21
71.75
 31
0.0
  0
LINE
  5
4A
330
26A
100
AcDbEntity
  8
0
  6
Continuous
 62
     7
100
AcDbLine
 10
24.0
 20
70.25
 30
0.0
 11
18.25
 21
70.25
 31
0.0
  0
LINE
  5
4B
330
26A
100
AcDbEntity
  8
0
  6
Continuous
 62
     7
100
AcDbLine
 10
24.0
 20
69.25
 30
0.0
 11
18.25
 21
69.25
 31
0.0
  0
LINE
  5
4C
330
26A
100
AcDbEntity
  8
0
  6
Continuous
 62
     7
100
AcDbLine
 10
24.0
 20
67.75
 30
0.0
 11
18.25
 21
67.75
 31
0.0
  0
LINE
  5
4D
330
26A
100
AcDbEntity
  8
0
  6
Continuous
 62
     7
100
AcDbLine
 10
24.0
 20
64.75
 30
0.0
 11
18.25
 21
64.75
 31
0.0
  0
LINE
  5
4E
330
26A
100
AcDbEntity
  8
0
  6
Continuous
 62
     7
100
AcDbLine
 10
24.0
 20
63.25
 30
0.0
 11
18.25
 21
63.25
 31
0.0
  0
LINE
  5
4F
330
26A
100
AcDbEntity
  8
0
  6
Continuous
 62
     7
100
AcDbLine
 10
24.0
 20
62.25
 30
0.0
 11
18.25
 21
62.25
 31
0.0
  0
LINE
  5
50
330
26A
100
AcDbEntity
  8
0
  6
Continuous
 62
     7
100
AcDbLine
 10
37.25
 20
60.75
 30
0.0
 11
26.75
 21
60.75
 31
0.0
  0
LINE
  5
51
330
26A
100
AcDbEntity
  8
0
  6
Continuous
 62
     7
100
AcDbLine
 10
18.4
 20
44.55
 30
0.0
 11
17.0
 21
44.55
 31
0.0
  0
LINE
  5
52
330
26A
100
AcDbEntity
  8
0
  6
Continuous
 62
     7
100
AcDbLine
 10
45.75
 20
60.75
 30
0.0
 11
40.0
 21
60.75
 31
0.0
  0
LINE
  5
53
330
26A
100
AcDbEntity
  8
0
  6
Continuous
 62
     7
100
AcDbLine
 10
45.75
 20
62.25
 30
0.0
 11
40.0
 21
62.25
 31
0.0
  0
LINE
  5
54
330
26A
100
AcDbEntity
  8
0
  6
Continuous
 62
     7
100
AcDbLine
 10
45.75
 20
63.25
 30
0.0
 11
40.0
 21
63.25
 31
0.0
  0
LINE
  5
55
330
26A
100
AcDbEntity
  8
0
  6
Continuous
 62
     7
100
AcDbLine
 10
45.75
 20
64.75
 30
0.0
 11
40.0
 21
64.75
 31
0.0
  0
LINE
  5
56
330
26A
100
AcDbEntity
  8
0
  6
Continuous
 62
     7
100
AcDbLine
 10
45.75
 20
67.75
 30
0.0
 11
40.0
 21
67.75
 31
0.0
  0
LINE
  5
57
330
26A
100
AcDbEntity
  8
0
  6
Continuous
 62
     7
100
AcDbLine
 10
45.75
 20
69.25
 30
0.0
 11
40.0
 21
69.25
 31
0.0
  0
LINE
  5
58
330
26A
100
AcDbEntity
  8
0
  6
Continuous
 62
     7
100
AcDbLine
 10
45.75
 20
70.25
 30
0.0
 11
40.0
 21
70.25
 31
0.0
  0
LINE
  5
59
330
26A
100
AcDbEntity
  8
0
  6
Continuous
 62
     7
100
AcDbLine
 10
45.75
 20
71.75
 30
0.0
 11
40.0
 21
71.75
 31
0.0
  0
LINE
  5
5A
330
26A
100
AcDbEntity
  8
0
  6
Continuous
 62
     7
100
AcDbLine
 10
45.75
 20
74.75
 30
0.0
 11
40.0
 21
74.75
 31
0.0
  0
LINE
  5
5B
330
26A
100
AcDbEntity
  8
0
  6
Continuous
 62
     7
100
AcDbLine
 10
45.75
 20
76.25
 30
0.0
 11
40.0
 21
76.25
 31
0.0
  0
LINE
  5
5C
330
26A
100
AcDbEntity
  8
0
  6
Continuous
 62
     7
100
AcDbLine
 10
47.0
 20
44.55
 30
0.0
 11
47.0
 21
35.5
 31
0.0
  0
LINE
  5
5D
330
26A
100
AcDbEntity
  8
0
  6
Continuous
 62
     7
100
AcDbLine
 10
17.0
 20
44.55
 30
0.0
 11
17.0
 21
35.5
 31
0.0
  0
LINE
  5
5E
330
26A
100
AcDbEntity
  8
0
  6
Continuous
 62
     7
100
AcDbLine
 10
47.0
 20
44.55
 30
0.0
 11
45.6
 21
44.55
 31
0.0
  0
LINE
  5
5F
330
26A
100
AcDbEntity
  8
0
  6
Continuous
 62
     7
100
AcDbLine
 10
18.4
 20
51.45
 30
0.0
 11
18.4
 21
46.55
 31
0.0
  0
LINE
  5
60
330
26A
100
AcDbEntity
  8
0
  6
Continuous
 62
     7
100
AcDbLine
 10
45.75
 20
74.75
 30
0.0
 11
45.75
 21
71.75
 31
0.0
  0
LINE
  5
61
330
26A
100
AcDbEntity
  8
0
  6
Continuous
 62
     7
100
AcDbLine
 10
18.25
 20
74.75
 30
0.0
 11
18.25
 21
71.75
 31
0.0
  0
LINE
  5
62
330
26A
100
AcDbEntity
  8
0
  6
Continuous
 62
     7
100
AcDbLine
 10
18.25
 20
70.25
 30
0.0
 11
18.25
 21
69.25
 31
0.0
  0
LINE
  5
63
330
26A
100
AcDbEntity
  8
0
  6
Continuous
 62
     7
100
AcDbLine
 10
45.75
 20
70.25
 30
0.0
 11
45.75
 21
69.25
 31
0.0
  0
LINE
  5
64
330
26A
100
AcDbEntity
  8
0
  6
Continuous
 62
     7
100
AcDbLine
 10
45.49999999999999
 20
71.75
 30
0.0
 11
45.49999999999999
 21
70.25
 31
0.0
  0
LINE
  5
65
330
26A
100
AcDbEntity
  8
0
  6
Continuous
 62
     7
100
AcDbLine
 10
18.5
 20
71.75
 30
0.0
 11
18.5
 21
70.25
 31
0.0
  0
LINE
  5
66
330
26A
100
AcDbEntity
  8
0
  6
Continuous
 62
     7
100
AcDbLine
 10
45.49999999999999
 20
69.25
 30
0.0
 11
45.49999999999999
 21
67.75
 31
0.0
  0
LINE
  5
67
330
26A
100
AcDbEntity
  8
0
  6
Continuous
 62
     7
100
AcDbLine
 10
18.5
 20
69.25
 30
0.0
 11
18.5
 21
67.75
 31
0.0
  0
LINE
  5
68
330
26A
100
AcDbEntity
  8
0
  6
Continuous
 62
     7
100
AcDbLine
 10
45.75
 20
67.75
 30
0.0
 11
45.75
 21
64.75
 31
0.0
  0
LINE
  5
69
330
26A
100
AcDbEntity
  8
0
  6
Continuous
 62
     7
100
AcDbLine
 10
18.25
 20
67.75
 30
0.0
 11
18.25
 21
64.75
 31
0.0
  0
LINE
  5
6A
330
26A
100
AcDbEntity
  8
0
  6
Continuous
 62
     7
100
AcDbLine
 10
45.49999999999999
 20
64.75
 30
0.0
 11
45.49999999999999
 21
63.25
 31
0.0
  0
LINE
  5
6B
330
26A
100
AcDbEntity
  8
0
  6
Continuous
 62
     7
100
AcDbLine
 10
18.5
 20
64.75
 30
0.0
 11
18.5
 21
63.25
 31
0.0
  0
LINE
  5
6C
330
26A
100
AcDbEntity
  8
0
  6
Continuous
 62
     7
100
AcDbLine
 10
45.75
 20
63.25
 30
0.0
 11
45.75
 21
62.25
 31
0.0
  0
LINE
  5
6D
330
26A
100
AcDbEntity
  8
0
  6
Continuous
 62
     7
100
AcDbLine
 10
18.25
 20
63.25
 30
0.0
 11
18.25
 21
62.25
 31
0.0
  0
LINE
  5
6E
330
26A
100
AcDbEntity
  8
0
  6
Continuous
 62
     7
100
AcDbLine
 10
45.49999999999999
 20
62.25
 30
0.0
 11
45.49999999999999
 21
60.75
 31
0.0
  0
LINE
  5
6F
330
26A
100
AcDbEntity
  8
0
  6
Continuous
 62
     7
100
AcDbLine
 10
18.5
 20
62.25
 30
0.0
 11
18.5
 21
60.75
 31
0.0
  0
LINE
  5
70
330
26A
100
AcDbEntity
  8
0
  6
Continuous
 62
     7
100
AcDbLine
 10
45.75
 20
60.75
 30
0.0
 11
45.75
 21
51.45
 31
0.0
  0
LINE
  5
71
330
26A
100
AcDbEntity
  8
0
  6
Continuous
 62
     7
100
AcDbLine
 10
18.25
 20
60.75
 30
0.0
 11
18.25
 21
51.45
 31
0.0
  0
LINE
  5
72
330
26A
100
AcDbEntity
  8
0
  6
Continuous
 62
     7
100
AcDbLine
 10
18.5
 20
76.25
 30
0.0
 11
18.5
 21
74.75
 31
0.0
  0
LINE
  5
73
330
26A
100
AcDbEntity
  8
0
  6
Continuous
 62
     7
100
AcDbLine
 10
45.49999999999999
 20
76.25
 30
0.0
 11
45.49999999999999
 21
74.75
 31
0.0
  0
LINE
  5
74
330
26A
100
AcDbEntity
  8
0
  6
Continuous
 62
     7
100
AcDbLine
 10
45.75
 20
78.5
 30
0.0
 11
45.75
 21
76.25
 31
0.0
  0
LINE
  5
75
330
26A
100
AcDbEntity
  8
0
  6
Continuous
 62
     7
100
AcDbLine
 10
18.25
 20
78.5
 30
0.0
 11
18.25
 21
76.25
 31
0.0
  0
LINE
  5
76
330
26A
100
AcDbEntity
  8
0
  6
Continuous
 62
     7
100
AcDbLine
 10
45.6
 20
51.45
 30
0.0
 11
45.6
 21
46.55
 31
0.0
  0
LINE
  5
77
330
26A
100
AcDbEntity
  8
0
  6
Continuous
 62
     7
100
AcDbLine
 10
45.75
 20
51.45
 30
0.0
 11
18.25
 21
51.45
 31
0.0
  0
LINE
  5
78
330
26A
100
AcDbEntity
  8
0
  6
Continuous
 62
     7
100
AcDbLine
 10
43.5
 20
80.75000000000001
 30
0.0
 11
20.5
 21
80.75000000000001
 31
0.0
  0
LINE
  5
79
330
26A
100
AcDbEntity
  8
0
  6
Continuous
 62
     7
100
AcDbLine
 10
10.5
 20
32.5
 30
0.0
 11
10.5
 21
-32.5
 31
0.0
  0
LINE
  5
7A
330
26A
100
AcDbEntity
  8
0
  6
Continuous
 62
     7
100
AcDbLine
 10
53.5
 20
32.5
 30
0.0
 11
53.5
 21
-32.5
 31
0.0
  0
LINE
  5
7C
330
26A
100
AcDbEntity
  8
0
  6
CENTER
 62
     2
100
AcDbLine
 10
53.0
 20
27.5
 30
0.0
 11
43.0
 21
27.5
 31
0.0
  0
LINE
  5
7D
330
26A
100
AcDbEntity
  8
0
  6
CENTER
 62
     2
100
AcDbLine
 10
48.0
 20
22.5
 30
0.0
 11
48.0
 21
32.5
 31
0.0
  0
LINE
  5
7E
330
26A
100
AcDbEntity
  8
0
  6
CENTER
 62
     2
100
AcDbLine
 10
21.0
 20
27.5
 30
0.0
 11
11.0
 21
27.5
 31
0.0
  0
LINE
  5
7F
330
26A
100
AcDbEntity
  8
0
  6
CENTER
 62
     2
100
AcDbLine
 10
16.0
 20
22.5
 30
0.0
 11
16.0
 21
32.5
 31
0.0
  0
LINE
  5
80
330
26A
100
AcDbEntity
  8
0
  6
CENTER
 62
     2
100
AcDbLine
 10
21.0
 20
-27.5
 30
0.0
 11
11.0
 21
-27.5
 31
0.0
  0
LINE
  5
81
330
26A
100
AcDbEntity
  8
0
  6
CENTER
 62
     2
100
AcDbLine
 10
16.0
 20
-32.5
 30
0.0
 11
16.0
 21
-22.5
 31
0.0
  0
LINE
  5
82
330
26A
100
AcDbEntity
  8
0
  6
CENTER
 62
     2
100
AcDbLine
 10
64.0
 20
-4.5
 30
0.0
 11
64.0
 21
4.5
 31
0.0
  0
LINE
  5
83
330
26A
100
AcDbEntity
  8
0
  6
CENTER
 62
     2
100
AcDbLine
 10
0.0
 20
-4.5
 30
0.0
 11
0.0
 21
4.5
 31
0.0
  0
LINE
  5
84
330
26A
100
AcDbEntity
  8
0
  6
Continuous
 62
     7
100
AcDbLine
 10
71.0
 20
-24.5
 30
0.0
 11
63.0
 21
-32.5
 31
0.0
  0
LINE
  5
85
330
26A
100
AcDbEntity
  8
0
  6
Continuous
 62
     7
100
AcDbLine
 10
63.0
 20
32.5
 30
0.0
 11
71.0
 21
24.5
 31
0.0
  0
LINE
  5
86
330
26A
100
AcDbEntity
  8
0
  6
Continuous
 62
     7
100
AcDbLine
 10
-7.0
 20
24.5
 30
0.0
 11
1.0
 21
32.5
 31
0.0
  0
LINE
  5
87
330
26A
100
AcDbEntity
  8
0
  6
Continuous
 62
     7
100
AcDbLine
 10
1.0
 20
-32.5
 30
0.0
 11
-7.0
 21
-24.5
 31
0.0
  0
LINE
  5
88
330
26A
100
AcDbEntity
  8
0
  6
Continuous
 62
     7
100
AcDbLine
 10
-7.0
 20
24.5
 30
0.0
 11
-7.0
 21
-24.5
 31
0.0
  0
LINE
  5
89
330
26A
100
AcDbEntity
  8
0
  6
Continuous
 62
     7
100
AcDbLine
 10
71.0
 20
24.5
 30
0.0
 11
71.0
 21
-24.5
 31
0.0
  0
LINE
  5
8A
330
26A
100
AcDbEntity
  8
0
  6
CENTER
 62
     2
100
AcDbLine
 10
-9.169999999999999
 20
0.0
 30
0.0
 11
72.88
 21
0.0
 31
0.0
  0
LINE
  5
8B
330
26A
100
AcDbEntity
  8
0
  6
CENTER
 62
     2
100
AcDbLine
 10
53.0
 20
-27.5
 30
0.0
 11
43.0
 21
-27.5
 31
0.0
  0
LINE
  5
8C
330
26A
100
AcDbEntity
  8
0
  6
CENTER
 62
     2
100
AcDbLine
 10
48.0
 20
-32.5
 30
0.0
 11
48.0
 21
-22.5
 31
0.0
  0
LINE
  5
8D
330
26A
100
AcDbEntity
  8
0
  6
Continuous
 62
     7
100
AcDbLine
 10
63.0
 20
-32.5
 30
0.0
 11
1.0
 21
-32.5
 31
0.0
  0
LINE
  5
8E
330
26A
100
AcDbEntity
  8
0
  6
Continuous
 62
     7
100
AcDbLine
 10
63.0
 20
32.5
 30
0.0
 11
1.0
 21
32.5
 31
0.0
  0
LINE
  5
8F
330
26A
100
AcDbEntity
  8
0
  6
CENTER
 62
     2
100
AcDbLine
 10
32.0
 20
85.75000000000001
 30
0.0
 11
32.0
 21
-37.0
 31
0.0
  0
CIRCLE
  5
90
330
26A
100
AcDbEntity
  8
0
  6
Continuous
 62
     7
100
AcDbCircle
 10
64.0
 20
0.0
 30
0.0
 40
3.25
  0
CIRCLE
  5
91
330
26A
100
AcDbEntity
  8
0
  6
Continuous
 62
     7
100
AcDbCircle
 10
0.0
 20
0.0
 30
0.0
 40
3.25
  0
LINE
  5
92
330
26A
100
AcDbEntity
  8
0
  6
Continuous
 62
     7
100
AcDbLine
 10
17.6263456
 20
25.8736544
 30
0.0
 11
14.3736544
 21
29.1263456
 31
0.0
  0
LINE
  5
93
330
26A
100
AcDbEntity
  8
0
  6
Continuous
 62
     7
100
AcDbLine
 10
17.6263456
 20
29.1263456
 30
0.0
 11
14.3736544
 21
25.8736544
 31
0.0
  0
LINE
  5
94
330
26A
100
AcDbEntity
  8
0
  6
Continuous
 62
     7
100
AcDbLine
 10
17.0
 20
34.5
 30
0.0
 11
17.0
 21
35.5
 31
0.0
  0
LINE
  5
95
330
26A
100
AcDbEntity
  8
0
  6
Continuous
 62
     7
100
AcDbLine
 10
47.0
 20
35.5
 30
0.0
 11
17.0
 21
35.5
 31
0.0
  0
LINE
  5
96
330
26A
100
AcDbEntity
  8
0
  6
Continuous
 62
     7
100
AcDbLine
 10
47.0
 20
34.5
 30
0.0
 11
47.0
 21
35.5
 31
0.0
  0
LINE
  5
97
330
26A
100
AcDbEntity
  8
0
  6
Continuous
 62
     7
100
AcDbLine
 10
47.0
 20
34.5
 30
0.0
 11
17.0
 21
34.5
 31
0.0
  0
LINE
  5
98
330
26A
100
AcDbEntity
  8
0
  6
Continuous
 62
     7
100
AcDbLine
 10
18.4
 20
44.55
 30
0.0
 11
18.4
 21
46.55
 31
0.0
  0
LINE
  5
99
330
26A
100
AcDbEntity
  8
0
  6
Continuous
 62
     7
100
AcDbLine
 10
45.6
 20
46.55
 30
0.0
 11
18.4
 21
46.55
 31
0.0
  0
LINE
  5
9A
330
26A
100
AcDbEntity
  8
0
  6
Continuous
 62
     7
100
AcDbLine
 10
45.6
 20
44.55
 30
0.0
 11
18.4
 21
44.55
 31
0.0
  0
LINE
  5
9B
330
26A
100
AcDbEntity
  8
0
  6
Continuous
 62
     7
100
AcDbLine
 10
45.6
 20
44.55
 30
0.0
 11
45.6
 21
46.55
 31
0.0
  0
SOLID
  5
9C
330
26A
100
AcDbEntity
  8
0
  6
Continuous
 62
     7
100
AcDbTrace
 10
18.4
 20
46.55
 30
0.0
 11
45.6
 21
46.55
 31
0.0
 12
18.4
 22
44.55
 32
0.0
 13
45.6
 23
44.55
 33
0.0
  0
SOLID
  5
9D
330
26A
100
AcDbEntity
  8
0
  6
Continuous
 62
     7
100
AcDbTrace
 10
17.0
 20
35.5
 30
0.0
 11
47.0
 21
35.5
 31
0.0
 12
17.0
 22
34.5
 32
0.0
 13
47.0
 23
34.5
 33
0.0
  0
ENDBLK
  5
9E
330
26A
100
AcDbEntity
  8
0
100
AcDbBlockEnd
  0
BLOCK
  5
9F
330
26B
100
AcDbEntity
  8
0
100
AcDbBlockBegin
  2
MS_2
 70
     0
 10
0.0
 20
0.0
 30
0.0
  3
MS_2
  1

  0
LINE
  5
A0
330
26B
100
AcDbEntity
  8
0
  6
Continuous
 62
     7
100
AcDbLine
 10
-8.5
 20
0.0
 30
0.0
 11
7.0
 21
0.0
 31
0.0
  0
LINE
  5
A1
330
26B
100
AcDbEntity
  8
0
  6
Continuous
 62
     7
100
AcDbLine
 10
-8.5
 20
2.0
 30
0.0
 11
7.0
 21
2.0
 31
0.0
  0
ARC
  5
A2
330
26B
100
AcDbEntity
  8
0
  6
Continuous
 62
     7
100
AcDbCircle
 10
-13.36152567
 20
5.212275069999999
 30
0.0
 40
0.8615603
100
AcDbArc
 50
297.77785833
 51
0.51373266
  0
ARC
  5
A3
330
26B
100
AcDbEntity
  8
0
  6
Continuous
 62
     7
100
AcDbCircle
 10
-18.63190287
 20
5.216200879999999
 30
0.0
 40
0.86810544
100
AcDbArc
 50
179.74925393
 51
241.95915508
  0
ARC
  5
A4
330
26B
100
AcDbEntity
  8
0
  6
Continuous
 62
     7
100
AcDbCircle
 10
-16.0
 20
10.19108311
 30
0.0
 40
6.49627857
100
AcDbArc
 50
242.09802824
 51
297.90197176
  0
ARC
  5
A5
330
26B
100
AcDbEntity
  8
0
  6
Continuous
 62
     7
100
AcDbCircle
 10
-45.36156445999999
 20
5.212298249999999
 30
0.0
 40
0.86159888
100
AcDbArc
 50
297.77942242
 51
0.5121685700000001
  0
ARC
  5
A6
330
26B
100
AcDbEntity
  8
0
  6
Continuous
 62
     7
100
AcDbCircle
 10
-50.63190708
 20
5.216198369999999
 30
0.0
 40
0.86810124
100
AcDbArc
 50
179.74908649
 51
241.95932253
  0
ARC
  5
A7
330
26B
100
AcDbEntity
  8
0
  6
Continuous
 62
     7
100
AcDbCircle
 10
-48.0
 20
10.1910831
 30
0.0
 40
6.49627856
100
AcDbArc
 50
242.0980282
 51
297.9019718
  0
ARC
  5
A8
330
26B
100
AcDbEntity
  8
0
  6
Continuous
 62
     7
100
AcDbCircle
 10
-55.49333094
 20
1.99333094
 30
0.0
 40
1.9933421
100
AcDbArc
 50
269.80830703
 51
0.19169297
  0
ARC
  5
A9
330
26B
100
AcDbEntity
  8
0
  6
Continuous
 62
     7
100
AcDbCircle
 10
-8.50223659
 20
1.997763409999999
 30
0.0
 40
1.997764659999999
100
AcDbArc
 50
179.93585466
 51
270.06414534
  0
ARC
  5
AA
330
26B
100
AcDbEntity
  8
0
  6
Continuous
 62
     7
100
AcDbCircle
 10
-10.50225458
 20
6.99774542
 30
0.0
 40
2.00225585
100
AcDbArc
 50
0.0645163
 51
89.9354837
  0
ARC
  5
AB
330
26B
100
AcDbEntity
  8
0
  6
Continuous
 62
     7
100
AcDbCircle
 10
-53.49333269
 20
6.993332689999999
 30
0.0
 40
2.006678379999999
100
AcDbArc
 50
90.19036893000002
 51
179.80963107
  0
CIRCLE
  5
AC
330
26B
100
AcDbEntity
  8
0
  6
Continuous
 62
     7
100
AcDbCircle
 10
-31.99556213
 20
43.50106384
 30
0.0
 40
5.72249985
  0
CIRCLE
  5
AD
330
26B
100
AcDbEntity
  8
0
  6
Continuous
 62
     2
100
AcDbCircle
 10
-31.99556213
 20
43.50106384
 30
0.0
 40
6.57849979
  0
ARC
  5
AE
330
26B
100
AcDbEntity
  8
0
  6
Continuous
 62
     7
100
AcDbCircle
 10
-40.21654794999999
 20
141.89831258
 30
0.0
 40
4.855752299999999
100
AcDbArc
 50
104.47158932
 51
115.80101754
  0
ARC
  5
AF
330
26B
100
AcDbEntity
  8
0
  6
Continuous
 62
     7
100
AcDbCircle
 10
-23.76218654
 20
141.89881039
 30
0.0
 40
4.853864139999999
100
AcDbArc
 50
104.40861071
 51
124.47929885
  0
ARC
  5
B0
330
26B
100
AcDbEntity
  8
0
  6
Continuous
 62
     7
100
AcDbCircle
 10
-40.22155299
 20
141.89548981
 30
0.0
 40
4.8530624
100
AcDbArc
 50
55.60382216
 51
75.78707931
  0
ARC
  5
B1
330
26B
100
AcDbEntity
  8
0
  6
Continuous
 62
     7
100
AcDbCircle
 10
-31.995
 20
128.60059692
 30
0.0
 40
18.14812861
100
AcDbArc
 50
72.40810686999999
 51
107.59189313
  0
ARC
  5
B2
330
26B
100
AcDbEntity
  8
0
  6
Continuous
 62
     7
100
AcDbCircle
 10
-23.78239935
 20
141.90118358
 30
0.0
 40
4.852709339999999
100
AcDbArc
 50
64.19541868
 51
75.53197446
  0
LINE
  5
B3
330
26B
100
AcDbEntity
  8
0
  6
Continuous
 62
     7
100
AcDbLine
 10
-1.0
 20
0.0
 30
0.0
 11
-1.0
 21
2.0
 31
0.0
  0
LINE
  5
B4
330
26B
100
AcDbEntity
  8
0
  6
Continuous
 62
     7
100
AcDbLine
 10
-63.0
 20
0.0
 30
0.0
 11
-63.0
 21
2.0
 31
0.0
  0
LINE
  5
B5
330
26B
100
AcDbEntity
  8
0
  6
Continuous
 62
     7
100
AcDbLine
 10
-23.37
 20
141.25
 30
0.0
 11
-23.37
 21
136.75
 31
0.0
  0
LINE
  5
B6
330
26B
100
AcDbEntity
  8
0
  6
Continuous
 62
     7
100
AcDbLine
 10
-40.63
 20
141.25
 30
0.0
 11
-40.63
 21
136.75
 31
0.0
  0
LINE
  5
B7
330
26B
100
AcDbEntity
  8
0
  6
Continuous
 62
     2
100
AcDbLine
 10
-41.29999999999999
 20
141.25
 30
0.0
 11
-41.29999999999999
 21
136.75
 31
0.0
  0
LINE
  5
B8
330
26B
100
AcDbEntity
  8
0
  6
Continuous
 62
     2
100
AcDbLine
 10
-22.7
 20
141.25
 30
0.0
 11
-22.7
 21
136.75
 31
0.0
  0
LINE
  5
B9
330
26B
100
AcDbEntity
  8
0
  6
Continuous
 62
     7
100
AcDbLine
 10
-13.5
 20
127.5
 30
0.0
 11
-13.77
 21
128.5
 31
0.0
  0
LINE
  5
BA
330
26B
100
AcDbEntity
  8
0
  6
Continuous
 62
     7
100
AcDbLine
 10
-50.5
 20
127.5
 30
0.0
 11
-50.22999999999999
 21
128.5
 31
0.0
  0
LINE
  5
BB
330
26B
100
AcDbEntity
  8
0
  6
Continuous
 62
     7
100
AcDbLine
 10
-71.0
 20
0.0
 30
0.0
 11
-71.0
 21
2.0
 31
0.0
  0
LINE
  5
BC
330
26B
100
AcDbEntity
  8
0
  6
Continuous
 62
     7
100
AcDbLine
 10
-48.7
 20
6.299999999999999
 30
0.0
 11
-48.0
 21
7.0
 31
0.0
  0
LINE
  5
BD
330
26B
100
AcDbEntity
  8
0
  6
Continuous
 62
     7
100
AcDbLine
 10
-48.0
 20
6.299999999999999
 30
0.0
 11
-47.29999999999999
 21
7.0
 31
0.0
  0
LINE
  5
BE
330
26B
100
AcDbEntity
  8
0
  6
Continuous
 62
     7
100
AcDbLine
 10
-16.0
 20
7.0
 30
0.0
 11
-16.7
 21
6.299999999999999
 31
0.0
  0
LINE
  5
BF
330
26B
100
AcDbEntity
  8
0
  6
Continuous
 62
     7
100
AcDbLine
 10
-16.0
 20
6.299999999999999
 30
0.0
 11
-15.3
 21
7.0
 31
0.0
  0
LINE
  5
C0
330
26B
100
AcDbEntity
  8
0
  6
Continuous
 62
     7
100
AcDbLine
 10
-19.5
 20
6.299999999999999
 30
0.0
 11
-12.5
 21
6.299999999999999
 31
0.0
  0
LINE
  5
C1
330
26B
100
AcDbEntity
  8
0
  6
Continuous
 62
     7
100
AcDbLine
 10
-12.5
 20
5.219999999999999
 30
0.0
 11
-12.5
 21
7.0
 31
0.0
  0
LINE
  5
C3
330
26B
100
AcDbEntity
  8
0
  6
DASHED
 62
     7
100
AcDbLine
 10
-13.7
 20
4.12
 30
0.0
 11
-14.55
 21
5.599999999999999
 31
0.0
  0
LINE
  5
C4
330
26B
100
AcDbEntity
  8
0
  6
DASHED
 62
     7
100
AcDbLine
 10
-14.55
 20
5.599999999999999
 30
0.0
 11
-16.0
 21
6.36
 31
0.0
  0
LINE
  5
C5
330
26B
100
AcDbEntity
  8
0
  6
DASHED
 62
     7
100
AcDbLine
 10
-17.45
 20
5.599999999999999
 30
0.0
 11
-16.0
 21
6.36
 31
0.0
  0
LINE
  5
C6
330
26B
100
AcDbEntity
  8
0
  6
DASHED
 62
     7
100
AcDbLine
 10
-18.3
 20
4.12
 30
0.0
 11
-17.45
 21
5.599999999999999
 31
0.0
  0
LINE
  5
C7
330
26B
100
AcDbEntity
  8
0
  6
Continuous
 62
     7
100
AcDbLine
 10
-19.5
 20
5.219999999999999
 30
0.0
 11
-19.5
 21
7.0
 31
0.0
  0
LINE
  5
C8
330
26B
100
AcDbEntity
  8
0
  6
Continuous
 62
     7
100
AcDbLine
 10
-51.5
 20
6.299999999999999
 30
0.0
 11
-44.5
 21
6.299999999999999
 31
0.0
  0
LINE
  5
C9
330
26B
100
AcDbEntity
  8
0
  6
Continuous
 62
     7
100
AcDbLine
 10
-44.5
 20
5.219999999999999
 30
0.0
 11
-44.5
 21
7.0
 31
0.0
  0
LINE
  5
CA
330
26B
100
AcDbEntity
  8
0
  6
DASHED
 62
     7
100
AcDbLine
 10
-45.7
 20
4.12
 30
0.0
 11
-46.55
 21
5.599999999999999
 31
0.0
  0
LINE
  5
CB
330
26B
100
AcDbEntity
  8
0
  6
DASHED
 62
     7
100
AcDbLine
 10
-46.55
 20
5.599999999999999
 30
0.0
 11
-48.0
 21
6.36
 31
0.0
  0
LINE
  5
CC
330
26B
100
AcDbEntity
  8
0
  6
DASHED
 62
     7
100
AcDbLine
 10
-49.45
 20
5.599999999999999
 30
0.0
 11
-48.0
 21
6.36
 31
0.0
  0
LINE
  5
CD
330
26B
100
AcDbEntity
  8
0
  6
DASHED
 62
     7
100
AcDbLine
 10
-50.3
 20
4.12
 30
0.0
 11
-49.45
 21
5.599999999999999
 31
0.0
  0
LINE
  5
CE
330
26B
100
AcDbEntity
  8
0
  6
Continuous
 62
     7
100
AcDbLine
 10
-51.5
 20
5.219999999999999
 30
0.0
 11
-51.5
 21
7.0
 31
0.0
  0
LINE
  5
CF
330
26B
100
AcDbEntity
  8
0
  6
Continuous
 62
     7
100
AcDbLine
 10
-71.0
 20
2.0
 30
0.0
 11
-55.5
 21
2.0
 31
0.0
  0
LINE
  5
D0
330
26B
100
AcDbEntity
  8
0
  6
Continuous
 62
     7
100
AcDbLine
 10
-71.0
 20
0.0
 30
0.0
 11
-55.5
 21
0.0
 31
0.0
  0
LINE
  5
D1
330
26B
100
AcDbEntity
  8
0
  6
Continuous
 62
     7
100
AcDbLine
 10
-55.5
 20
2.0
 30
0.0
 11
-55.5
 21
7.0
 31
0.0
  0
LINE
  5
D2
330
26B
100
AcDbEntity
  8
0
  6
Continuous
 62
     7
100
AcDbLine
 10
-8.5
 20
2.0
 30
0.0
 11
-8.5
 21
7.0
 31
0.0
  0
LINE
  5
D3
330
26B
100
AcDbEntity
  8
0
  6
Continuous
 62
     7
100
AcDbLine
 10
-53.5
 20
2.0
 30
0.0
 11
-53.5
 21
7.0
 31
0.0
  0
LINE
  5
D4
330
26B
100
AcDbEntity
  8
0
  6
Continuous
 62
     7
100
AcDbLine
 10
-10.5
 20
2.0
 30
0.0
 11
-10.5
 21
7.0
 31
0.0
  0
LINE
  5
D5
330
26B
100
AcDbEntity
  8
0
  6
Continuous
 62
     7
100
AcDbLine
 10
-53.5
 20
7.0
 30
0.0
 11
-10.5
 21
7.0
 31
0.0
  0
LINE
  5
D6
330
26B
100
AcDbEntity
  8
0
  6
Continuous
 62
     7
100
AcDbLine
 10
-53.5
 20
9.0
 30
0.0
 11
-10.5
 21
9.0
 31
0.0
  0
LINE
  5
D7
330
26B
100
AcDbEntity
  8
0
  6
CENTER
 62
     2
100
AcDbLine
 10
-40.49999999999999
 20
43.5
 30
0.0
 11
-23.5
 21
43.5
 31
0.0
  0
LINE
  5
D8
330
26B
100
AcDbEntity
  8
0
  6
Continuous
 62
     7
100
AcDbLine
 10
-53.0
 20
57.0
 30
0.0
 11
-11.0
 21
57.0
 31
0.0
  0
LINE
  5
D9
330
26B
100
AcDbEntity
  8
0
  6
Continuous
 62
     7
100
AcDbLine
 10
-53.0
 20
77.5
 30
0.0
 11
-11.0
 21
77.5
 31
0.0
  0
LINE
  5
DA
330
26B
100
AcDbEntity
  8
0
  6
Continuous
 62
     7
100
AcDbLine
 10
-53.0
 20
127.5
 30
0.0
 11
-11.0
 21
127.5
 31
0.0
  0
LINE
  5
DB
330
26B
100
AcDbEntity
  8
0
  6
Continuous
 62
     7
100
AcDbLine
 10
-13.5
 20
127.5
 30
0.0
 11
-13.5
 21
9.0
 31
0.0
  0
LINE
  5
DC
330
26B
100
AcDbEntity
  8
0
  6
Continuous
 62
     7
100
AcDbLine
 10
-50.5
 20
9.0
 30
0.0
 11
-50.5
 21
127.5
 31
0.0
  0
LINE
  5
DD
330
26B
100
AcDbEntity
  8
0
  6
Continuous
 62
     7
100
AcDbLine
 10
-42.96999999999999
 20
141.25
 30
0.0
 11
-21.03
 21
141.25
 31
0.0
  0
LINE
  5
DE
330
26B
100
AcDbEntity
  8
0
  6
Continuous
 62
     7
100
AcDbLine
 10
-22.57
 20
141.25
 30
0.0
 11
-22.57
 21
146.75
 31
0.0
  0
LINE
  5
DF
330
26B
100
AcDbEntity
  8
0
  6
Continuous
 62
     7
100
AcDbLine
 10
-24.97
 20
141.25
 30
0.0
 11
-24.97
 21
146.75
 31
0.0
  0
LINE
  5
E0
330
26B
100
AcDbEntity
  8
0
  6
Continuous
 62
     7
100
AcDbLine
 10
-39.03
 20
141.25
 30
0.0
 11
-39.03
 21
146.75
 31
0.0
  0
LINE
  5
E1
330
26B
100
AcDbEntity
  8
0
  6
Continuous
 62
     7
100
AcDbLine
 10
-41.42999999999999
 20
141.25
 30
0.0
 11
-41.42999999999999
 21
146.75
 31
0.0
  0
LINE
  5
E2
330
26B
100
AcDbEntity
  8
0
  6
Continuous
 62
     7
100
AcDbLine
 10
-29.6
 20
141.25
 30
0.0
 11
-29.6
 21
146.59
 31
0.0
  0
LINE
  5
E3
330
26B
100
AcDbEntity
  8
0
  6
Continuous
 62
     7
100
AcDbLine
 10
-34.4
 20
141.25
 30
0.0
 11
-34.4
 21
146.59
 31
0.0
  0
LINE
  5
E4
330
26B
100
AcDbEntity
  8
0
  6
Continuous
 62
     7
100
AcDbLine
 10
-41.5
 20
146.75
 30
0.0
 11
-42.96999999999999
 21
145.9
 31
0.0
  0
LINE
  5
E5
330
26B
100
AcDbEntity
  8
0
  6
Continuous
 62
     7
100
AcDbLine
 10
-41.5
 20
146.75
 30
0.0
 11
-22.5
 21
146.75
 31
0.0
  0
LINE
  5
E6
330
26B
100
AcDbEntity
  8
0
  6
Continuous
 62
     7
100
AcDbLine
 10
-22.5
 20
146.75
 30
0.0
 11
-21.03
 21
145.9
 31
0.0
  0
LINE
  5
E7
330
26B
100
AcDbEntity
  8
0
  6
Continuous
 62
     7
100
AcDbLine
 10
-21.03
 20
141.25
 30
0.0
 11
-21.03
 21
145.9
 31
0.0
  0
LINE
  5
E8
330
26B
100
AcDbEntity
  8
0
  6
Continuous
 62
     7
100
AcDbLine
 10
-26.51
 20
141.25
 30
0.0
 11
-26.51
 21
145.9
 31
0.0
  0
LINE
  5
E9
330
26B
100
AcDbEntity
  8
0
  6
Continuous
 62
     7
100
AcDbLine
 10
-37.48
 20
141.25
 30
0.0
 11
-37.48
 21
145.9
 31
0.0
  0
LINE
  5
EA
330
26B
100
AcDbEntity
  8
0
  6
Continuous
 62
     7
100
AcDbLine
 10
-42.96999999999999
 20
141.25
 30
0.0
 11
-42.96999999999999
 21
145.9
 31
0.0
  0
LINE
  5
EB
330
26B
100
AcDbEntity
  8
0
  6
Continuous
 62
     7
100
AcDbLine
 10
-43.25
 20
136.75
 30
0.0
 11
-20.75
 21
136.75
 31
0.0
  0
LINE
  5
EC
330
26B
100
AcDbEntity
  8
0
  6
Continuous
 62
     7
100
AcDbLine
 10
-20.75
 20
136.75
 30
0.0
 11
-20.75
 21
128.5
 31
0.0
  0
LINE
  5
ED
330
26B
100
AcDbEntity
  8
0
  6
Continuous
 62
     7
100
AcDbLine
 10
-43.25
 20
136.75
 30
0.0
 11
-43.25
 21
128.5
 31
0.0
  0
LINE
  5
EE
330
26B
100
AcDbEntity
  8
0
  6
Continuous
 62
     7
100
AcDbLine
 10
-53.0
 20
127.5
 30
0.0
 11
-52.0
 21
128.5
 31
0.0
  0
LINE
  5
EF
330
26B
100
AcDbEntity
  8
0
  6
Continuous
 62
     7
100
AcDbLine
 10
-12.0
 20
128.5
 30
0.0
 11
-11.0
 21
127.5
 31
0.0
  0
LINE
  5
F0
330
26B
100
AcDbEntity
  8
0
  6
Continuous
 62
     7
100
AcDbLine
 10
-11.0
 20
127.5
 30
0.0
 11
-11.0
 21
9.0
 31
0.0
  0
LINE
  5
F1
330
26B
100
AcDbEntity
  8
0
  6
Continuous
 62
     7
100
AcDbLine
 10
-52.0
 20
128.5
 30
0.0
 11
-12.0
 21
128.5
 31
0.0
  0
LINE
  5
F2
330
26B
100
AcDbEntity
  8
0
  6
Continuous
 62
     7
100
AcDbLine
 10
-53.0
 20
9.0
 30
0.0
 11
-53.0
 21
127.5
 31
0.0
  0
LINE
  5
F3
330
26B
100
AcDbEntity
  8
0
  6
CENTER
 62
     2
100
AcDbLine
 10
-32.0
 20
154.49
 30
0.0
 11
-32.0
 21
-2.0
 31
0.0
  0
LINE
  5
F4
330
26B
100
AcDbEntity
  8
0
  6
Continuous
 62
     7
100
AcDbLine
 10
7.0
 20
0.0
 30
0.0
 11
7.0
 21
2.0
 31
0.0
  0
LINE
  5
F5
330
26B
100
AcDbEntity
  8
0
  6
CENTER
 62
     2
100
AcDbLine
 10
0.0
 20
5.0
 30
0.0
 11
0.0
 21
-2.0
 31
0.0
  0
LINE
  5
F6
330
26B
100
AcDbEntity
  8
0
  6
CENTER
 62
     2
100
AcDbLine
 10
-64.0
 20
5.0
 30
0.0
 11
-64.0
 21
-2.0
 31
0.0
  0
LINE
  5
F7
330
26B
100
AcDbEntity
  8
0
  6
DASHED
 62
     2
100
AcDbLine
 10
3.25
 20
2.0
 30
0.0
 11
3.25
 21
0.0
 31
0.0
  0
LINE
  5
F8
330
26B
100
AcDbEntity
  8
0
  6
DASHED
 62
     2
100
AcDbLine
 10
-3.25
 20
2.0
 30
0.0
 11
-3.25
 21
0.0
 31
0.0
  0
LINE
  5
F9
330
26B
100
AcDbEntity
  8
0
  6
DASHED
 62
     2
100
AcDbLine
 10
-67.25
 20
2.0
 30
0.0
 11
-67.25
 21
0.0
 31
0.0
  0
LINE
  5
FA
330
26B
100
AcDbEntity
  8
0
  6
DASHED
 62
     2
100
AcDbLine
 10
-60.75
 20
2.0
 30
0.0
 11
-60.75
 21
0.0
 31
0.0
  0
ENDBLK
  5
FB
330
26B
100
AcDbEntity
  8
0
100
AcDbBlockEnd
  0
BLOCK
  5
FC
330
26C
100
AcDbEntity
  8
0
100
AcDbBlockBegin
  2
MS_3
 70
     0
 10
0.0
 20
0.0
 30
0.0
  3
MS_3
  1

  0
LINE
  5
FD
330
26C
100
AcDbEntity
  8
0
  6
Continuous
 62
     7
100
AcDbLine
 10
-7.0
 20
0.0
 30
0.0
 11
8.5
 21
0.0
 31
0.0
  0
LINE
  5
FE
330
26C
100
AcDbEntity
  8
0
  6
Continuous
 62
     7
100
AcDbLine
 10
-7.0
 20
2.0
 30
0.0
 11
8.5
 21
2.0
 31
0.0
  0
ARC
  5
FF
330
26C
100
AcDbEntity
  8
0
  6
Continuous
 62
     7
100
AcDbCircle
 10
16.0
 20
10.1910843
 30
0.0
 40
6.49627963
100
AcDbArc
 50
242.09803316
 51
297.90196684
  0
ARC
  5
100
330
26C
100
AcDbEntity
  8
0
  6
Continuous
 62
     7
100
AcDbCircle
 10
8.502942689999999
 20
1.997057309999999
 30
0.0
 40
1.99705948
100
AcDbArc
 50
269.91557407
 51
0.08442593
  0
ARC
  5
101
330
26C
100
AcDbEntity
  8
0
  6
Continuous
 62
     7
100
AcDbCircle
 10
55.49403668
 20
1.994036679999999
 30
0.0
 40
1.994045589999999
100
AcDbArc
 50
179.82865302
 51
270.17134698
  0
ARC
  5
102
330
26C
100
AcDbEntity
  8
0
  6
Continuous
 62
     7
100
AcDbCircle
 10
53.4940285
 20
6.9940285
 30
0.0
 40
2.005980389999999
100
AcDbArc
 50
0.17056106
 51
89.82943893999999
  0
ARC
  5
103
330
26C
100
AcDbEntity
  8
0
  6
Continuous
 62
     7
100
AcDbCircle
 10
10.50296431
 20
6.997035689999999
 30
0.0
 40
2.002966499999999
100
AcDbArc
 50
90.08479538999999
 51
179.91520461
  0
ARC
  5
104
330
26C
100
AcDbEntity
  8
0
  6
Continuous
 62
     7
100
AcDbCircle
 10
48.0
 20
10.1910843
 30
0.0
 40
6.49627962
100
AcDbArc
 50
242.09803313
 51
297.9019668700001
  0
ARC
  5
105
330
26C
100
AcDbEntity
  8
0
  6
Continuous
 62
     7
100
AcDbCircle
 10
45.36261495
 20
5.212925809999999
 30
0.0
 40
0.8626439599999999
100
AcDbArc
 50
179.53013572
 51
242.1782733
  0
ARC
  5
106
330
26C
100
AcDbEntity
  8
0
  6
Continuous
 62
     7
100
AcDbCircle
 10
18.6329557
 20
5.21557192
 30
0.0
 40
0.8670556000000001
100
AcDbArc
 50
297.99897825
 51
0.29261274
  0
ARC
  5
107
330
26C
100
AcDbEntity
  8
0
  6
Continuous
 62
     7
100
AcDbCircle
 10
50.63293814
 20
5.215582409999999
 30
0.0
 40
0.8670731099999999
100
AcDbArc
 50
297.99967752
 51
0.29191347
  0
ARC
  5
108
330
26C
100
AcDbEntity
  8
0
  6
Continuous
 62
     7
100
AcDbCircle
 10
13.36259912
 20
5.21291636
 30
0.0
 40
0.86262821
100
AcDbArc
 50
179.52949925
 51
242.17890976
  0
CIRCLE
  5
109
330
26C
100
AcDbEntity
  8
0
  6
Continuous
 62
     7
100
AcDbCircle
 10
22.9970166
 20
69.0110791
 30
0.0
 40
2.06699944
  0
CIRCLE
  5
10A
330
26C
100
AcDbEntity
  8
0
  6
Continuous
 62
     2
100
AcDbCircle
 10
22.9970166
 20
69.0110791
 30
0.0
 40
2.49999905
  0
CIRCLE
  5
10B
330
26C
100
AcDbEntity
  8
0
  6
Continuous
 62
     7
100
AcDbCircle
 10
31.99698608
 20
23.50108101
 30
0.0
 40
5.72249985
  0
CIRCLE
  5
10C
330
26C
100
AcDbEntity
  8
0
  6
Continuous
 62
     7
100
AcDbCircle
 10
31.99698608
 20
43.50107910000001
 30
0.0
 40
5.72249985
  0
CIRCLE
  5
10D
330
26C
100
AcDbEntity
  8
0
  6
Continuous
 62
     2
100
AcDbCircle
 10
31.99698608
 20
43.50107910000001
 30
0.0
 40
6.57849979
  0
CIRCLE
  5
10E
330
26C
100
AcDbEntity
  8
0
  6
Continuous
 62
     2
100
AcDbCircle
 10
31.99698608
 20
23.50108101
 30
0.0
 40
6.57849979
  0
ARC
  5
10F
330
26C
100
AcDbEntity
  8
0
  6
Continuous
 62
     7
100
AcDbCircle
 10
23.78257752
 20
141.90069767
 30
0.0
 40
4.853224349999999
100
AcDbArc
 50
104.46862901
 51
115.80397784
  0
ARC
  5
110
330
26C
100
AcDbEntity
  8
0
  6
Continuous
 62
     7
100
AcDbCircle
 10
40.23654582
 20
141.90159919
 30
0.0
 40
4.85084766
100
AcDbArc
 50
104.4023056
 51
124.48560396
  0
ARC
  5
111
330
26C
100
AcDbEntity
  8
0
  6
Continuous
 62
     7
100
AcDbCircle
 10
23.77718716
 20
141.89270015
 30
0.0
 40
4.856076019999999
100
AcDbArc
 50
55.61015043
 51
75.78075103999999
  0
ARC
  5
112
330
26C
100
AcDbEntity
  8
0
  6
Continuous
 62
     7
100
AcDbCircle
 10
32.005
 20
128.60057998
 30
0.0
 40
18.14814476
100
AcDbArc
 50
72.40812303
 51
107.59187697
  0
ARC
  5
113
330
26C
100
AcDbEntity
  8
0
  6
Continuous
 62
     7
100
AcDbCircle
 10
40.21672502
 20
141.8987955
 30
0.0
 40
4.85524047
100
AcDbArc
 50
64.19838333
 51
75.52900981
  0
CIRCLE
  5
114
330
26C
100
AcDbEntity
  8
0
  6
Continuous
 62
     7
100
AcDbCircle
 10
31.99698608
 20
107.5010791
 30
0.0
 40
3.29999924
  0
ARC
  5
115
330
26C
100
AcDbEntity
  8
0
  6
Continuous
 62
     7
100
AcDbCircle
 10
31.99795347
 20
107.50204653
 30
0.0
 40
2.802093409999999
100
AcDbArc
 50
231.14354034
 51
38.85645966
  0
ARC
  5
116
330
26C
100
AcDbEntity
  8
0
  6
Continuous
 62
     7
100
AcDbCircle
 10
31.99795351
 20
107.50204649
 30
0.0
 40
2.80003057
100
AcDbArc
 50
50.73804941
 51
219.26195059
  0
ARC
  5
117
330
26C
100
AcDbEntity
  8
0
  6
Continuous
 62
     7
100
AcDbCircle
 10
33.22740977
 20
107.5
 30
0.0
 40
0.5779988900000001
100
AcDbArc
 50
134.81844004
 51
225.18155996
  0
ARC
  5
118
330
26C
100
AcDbEntity
  8
0
  6
Continuous
 62
     7
100
AcDbCircle
 10
32.0
 20
108.73146184
 30
0.0
 40
0.5808621600000001
100
AcDbArc
 50
225.10196096
 51
314.89803904
  0
ARC
  5
119
330
26C
100
AcDbEntity
  8
0
  6
Continuous
 62
     7
100
AcDbCircle
 10
32.0
 20
106.27071162
 30
0.0
 40
0.57932458
100
AcDbArc
 50
44.95023356999999
 51
135.04976643
  0
ARC
  5
11A
330
26C
100
AcDbEntity
  8
0
  6
Continuous
 62
     7
100
AcDbCircle
 10
30.76665395
 20
107.5
 30
0.0
 40
0.58219838
100
AcDbArc
 50
315.23284658
 51
44.76715342000001
  0
ARC
  5
11B
330
26C
100
AcDbEntity
  8
0
  6
Continuous
 62
     7
100
AcDbCircle
 10
43.49796092
 20
96.00203908000001
 30
0.0
 40
2.25204
100
AcDbArc
 50
270.05187766
 51
359.9481223400001
  0
ARC
  5
11C
330
26C
100
AcDbEntity
  8
0
  6
Continuous
 62
     7
100
AcDbCircle
 10
43.49905456
 20
118.99905456
 30
0.0
 40
2.250945639999999
100
AcDbArc
 50
0.02406539
 51
89.97593460999999
  0
ARC
  5
11D
330
26C
100
AcDbEntity
  8
0
  6
Continuous
 62
     7
100
AcDbCircle
 10
20.4979842
 20
119.0020158
 30
0.0
 40
2.2479851
100
AcDbArc
 50
89.948622
 51
180.051378
  0
ARC
  5
11E
330
26C
100
AcDbEntity
  8
0
  6
Continuous
 62
     7
100
AcDbCircle
 10
20.49907927
 20
95.99907927
 30
0.0
 40
2.249079459999999
100
AcDbArc
 50
179.97654426
 51
270.02345574
  0
ARC
  5
11F
330
26C
100
AcDbEntity
  8
0
  6
Continuous
 62
     7
100
AcDbCircle
 10
20.49907895
 20
95.99907894999999
 30
0.0
 40
3.49907907
100
AcDbArc
 50
179.98491823
 51
270.01508177
  0
ARC
  5
120
330
26C
100
AcDbEntity
  8
0
  6
Continuous
 62
     7
100
AcDbCircle
 10
43.49796099
 20
96.00203901
 30
0.0
 40
3.5020396
100
AcDbArc
 50
270.03335956
 51
359.96664044
  0
ARC
  5
121
330
26C
100
AcDbEntity
  8
0
  6
Continuous
 62
     7
100
AcDbCircle
 10
43.49905489
 20
118.99905489
 30
0.0
 40
3.50094524
100
AcDbArc
 50
0.01546753
 51
89.98453247000002
  0
ARC
  5
122
330
26C
100
AcDbEntity
  8
0
  6
Continuous
 62
     7
100
AcDbCircle
 10
20.49798413
 20
119.00201587
 30
0.0
 40
3.497984709999999
100
AcDbArc
 50
89.96698075000001
 51
180.03301925
  0
ARC
  5
123
330
26C
100
AcDbEntity
  8
0
  6
Continuous
 62
     7
100
AcDbCircle
 10
43.49796100999999
 20
96.00203899
 30
0.0
 40
4.00203951
100
AcDbArc
 50
270.02919151
 51
359.97080849
  0
ARC
  5
124
330
26C
100
AcDbEntity
  8
0
  6
Continuous
 62
     7
100
AcDbCircle
 10
43.49905496
 20
118.99905496
 30
0.0
 40
4.000945149999999
100
AcDbArc
 50
0.01353348
 51
89.98646651999999
  0
ARC
  5
125
330
26C
100
AcDbEntity
  8
0
  6
Continuous
 62
     7
100
AcDbCircle
 10
20.49798411
 20
119.00201589
 30
0.0
 40
3.99798462
100
AcDbArc
 50
89.97111002
 51
180.02888998
  0
ARC
  5
126
330
26C
100
AcDbEntity
  8
0
  6
Continuous
 62
     7
100
AcDbCircle
 10
20.49907888
 20
95.99907888
 30
0.0
 40
3.99907898
100
AcDbArc
 50
179.98680285
 51
270.01319715
  0
LINE
  5
127
330
26C
100
AcDbEntity
  8
0
  6
Continuous
 62
     7
100
AcDbLine
 10
63.0
 20
0.0
 30
0.0
 11
63.0
 21
2.0
 31
0.0
  0
LINE
  5
128
330
26C
100
AcDbEntity
  8
0
  6
Continuous
 62
     7
100
AcDbLine
 10
1.0
 20
0.0
 30
0.0
 11
1.0
 21
2.0
 31
0.0
  0
LINE
  5
129
330
26C
100
AcDbEntity
  8
0
  6
Continuous
 62
     2
100
AcDbLine
 10
41.29999999999999
 20
141.25
 30
0.0
 11
41.29999999999999
 21
136.75
 31
0.0
  0
LINE
  5
12A
330
26C
100
AcDbEntity
  8
0
  6
Continuous
 62
     2
100
AcDbLine
 10
22.7
 20
141.25
 30
0.0
 11
22.7
 21
136.75
 31
0.0
  0
LINE
  5
12B
330
26C
100
AcDbEntity
  8
0
  6
Continuous
 62
     7
100
AcDbLine
 10
40.63
 20
141.25
 30
0.0
 11
40.63
 21
136.75
 31
0.0
  0
LINE
  5
12C
330
26C
100
AcDbEntity
  8
0
  6
Continuous
 62
     7
100
AcDbLine
 10
23.37
 20
141.25
 30
0.0
 11
23.37
 21
136.75
 31
0.0
  0
LINE
  5
12D
330
26C
100
AcDbEntity
  8
0
  6
Continuous
 62
     7
100
AcDbLine
 10
50.5
 20
127.5
 30
0.0
 11
50.22999999999999
 21
128.5
 31
0.0
  0
LINE
  5
12E
330
26C
100
AcDbEntity
  8
0
  6
Continuous
 62
     7
100
AcDbLine
 10
13.5
 20
127.5
 30
0.0
 11
13.77
 21
128.5
 31
0.0
  0
LINE
  5
12F
330
26C
100
AcDbEntity
  8
0
  6
Continuous
 62
     7
100
AcDbLine
 10
44.5
 20
6.299999999999999
 30
0.0
 11
51.5
 21
6.299999999999999
 31
0.0
  0
LINE
  5
130
330
26C
100
AcDbEntity
  8
0
  6
Continuous
 62
     7
100
AcDbLine
 10
51.5
 20
5.219999999999999
 30
0.0
 11
51.5
 21
7.0
 31
0.0
  0
LINE
  5
131
330
26C
100
AcDbEntity
  8
0
  6
Continuous
 62
     7
100
AcDbLine
 10
44.5
 20
5.219999999999999
 30
0.0
 11
44.5
 21
7.0
 31
0.0
  0
LINE
  5
132
330
26C
100
AcDbEntity
  8
0
  6
Continuous
 62
     7
100
AcDbLine
 10
12.5
 20
6.299999999999999
 30
0.0
 11
19.5
 21
6.299999999999999
 31
0.0
  0
LINE
  5
133
330
26C
100
AcDbEntity
  8
0
  6
Continuous
 62
     7
100
AcDbLine
 10
19.5
 20
5.219999999999999
 30
0.0
 11
19.5
 21
7.0
 31
0.0
  0
LINE
  5
134
330
26C
100
AcDbEntity
  8
0
  6
Continuous
 62
     7
100
AcDbLine
 10
12.5
 20
5.219999999999999
 30
0.0
 11
12.5
 21
7.0
 31
0.0
  0
LINE
  5
135
330
26C
100
AcDbEntity
  8
0
  6
Continuous
 62
     7
100
AcDbLine
 10
55.5
 20
2.0
 30
0.0
 11
71.0
 21
2.0
 31
0.0
  0
LINE
  5
136
330
26C
100
AcDbEntity
  8
0
  6
Continuous
 62
     7
100
AcDbLine
 10
55.5
 20
0.0
 30
0.0
 11
71.0
 21
0.0
 31
0.0
  0
LINE
  5
137
330
26C
100
AcDbEntity
  8
0
  6
Continuous
 62
     7
100
AcDbLine
 10
71.0
 20
0.0
 30
0.0
 11
71.0
 21
2.0
 31
0.0
  0
LINE
  5
138
330
26C
100
AcDbEntity
  8
0
  6
Continuous
 62
     7
100
AcDbLine
 10
8.5
 20
2.0
 30
0.0
 11
8.5
 21
7.0
 31
0.0
  0
LINE
  5
139
330
26C
100
AcDbEntity
  8
0
  6
Continuous
 62
     7
100
AcDbLine
 10
55.5
 20
2.0
 30
0.0
 11
55.5
 21
7.0
 31
0.0
  0
LINE
  5
13A
330
26C
100
AcDbEntity
  8
0
  6
Continuous
 62
     7
100
AcDbLine
 10
10.5
 20
2.0
 30
0.0
 11
10.5
 21
7.0
 31
0.0
  0
LINE
  5
13B
330
26C
100
AcDbEntity
  8
0
  6
Continuous
 62
     7
100
AcDbLine
 10
53.5
 20
2.0
 30
0.0
 11
53.5
 21
7.0
 31
0.0
  0
LINE
  5
13C
330
26C
100
AcDbEntity
  8
0
  6
Continuous
 62
     7
100
AcDbLine
 10
10.5
 20
7.0
 30
0.0
 11
53.5
 21
7.0
 31
0.0
  0
LINE
  5
13D
330
26C
100
AcDbEntity
  8
0
  6
Continuous
 62
     7
100
AcDbLine
 10
10.5
 20
9.0
 30
0.0
 11
53.5
 21
9.0
 31
0.0
  0
LINE
  5
13E
330
26C
100
AcDbEntity
  8
0
  6
CENTER
 62
     2
100
AcDbLine
 10
18.49701779
 20
69.01
 30
0.0
 11
27.49701541
 21
69.01
 31
0.0
  0
LINE
  5
13F
330
26C
100
AcDbEntity
  8
0
  6
CENTER
 62
     2
100
AcDbLine
 10
23.0
 20
64.51108184
 30
0.0
 11
23.0
 21
73.51107637
 31
0.0
  0
LINE
  5
140
330
26C
100
AcDbEntity
  8
0
  6
CENTER
 62
     2
100
AcDbLine
 10
23.41848638
 20
43.5
 30
0.0
 11
40.57548579
 21
43.5
 31
0.0
  0
LINE
  5
141
330
26C
100
AcDbEntity
  8
0
  6
CENTER
 62
     2
100
AcDbLine
 10
23.41848638
 20
23.5
 30
0.0
 11
40.57548579
 21
23.5
 31
0.0
  0
LINE
  5
142
330
26C
100
AcDbEntity
  8
0
  6
Continuous
 62
     7
100
AcDbLine
 10
11.0
 20
57.0
 30
0.0
 11
53.0
 21
57.0
 31
0.0
  0
LINE
  5
143
330
26C
100
AcDbEntity
  8
0
  6
CENTER
 62
     2
100
AcDbLine
 10
32.0
 20
154.49
 30
0.0
 11
32.0
 21
-1.99
 31
0.0
  0
LINE
  5
144
330
26C
100
AcDbEntity
  8
0
  6
Continuous
 62
     7
100
AcDbLine
 10
11.0
 20
77.5
 30
0.0
 11
53.0
 21
77.5
 31
0.0
  0
LINE
  5
145
330
26C
100
AcDbEntity
  8
0
  6
Continuous
 62
     7
100
AcDbLine
 10
21.03
 20
141.25
 30
0.0
 11
42.96999999999999
 21
141.25
 31
0.0
  0
LINE
  5
146
330
26C
100
AcDbEntity
  8
0
  6
Continuous
 62
     7
100
AcDbLine
 10
41.42999999999999
 20
141.25
 30
0.0
 11
41.42999999999999
 21
146.75
 31
0.0
  0
LINE
  5
147
330
26C
100
AcDbEntity
  8
0
  6
Continuous
 62
     7
100
AcDbLine
 10
39.03
 20
141.25
 30
0.0
 11
39.03
 21
146.75
 31
0.0
  0
LINE
  5
148
330
26C
100
AcDbEntity
  8
0
  6
Continuous
 62
     7
100
AcDbLine
 10
24.97
 20
141.25
 30
0.0
 11
24.97
 21
146.75
 31
0.0
  0
LINE
  5
149
330
26C
100
AcDbEntity
  8
0
  6
Continuous
 62
     7
100
AcDbLine
 10
22.57
 20
141.25
 30
0.0
 11
22.57
 21
146.75
 31
0.0
  0
LINE
  5
14A
330
26C
100
AcDbEntity
  8
0
  6
Continuous
 62
     7
100
AcDbLine
 10
34.4
 20
141.25
 30
0.0
 11
34.4
 21
146.59
 31
0.0
  0
LINE
  5
14B
330
26C
100
AcDbEntity
  8
0
  6
Continuous
 62
     7
100
AcDbLine
 10
29.6
 20
141.25
 30
0.0
 11
29.6
 21
146.59
 31
0.0
  0
LINE
  5
14C
330
26C
100
AcDbEntity
  8
0
  6
Continuous
 62
     7
100
AcDbLine
 10
22.5
 20
146.75
 30
0.0
 11
21.03
 21
145.9
 31
0.0
  0
LINE
  5
14D
330
26C
100
AcDbEntity
  8
0
  6
Continuous
 62
     7
100
AcDbLine
 10
22.5
 20
146.75
 30
0.0
 11
41.5
 21
146.75
 31
0.0
  0
LINE
  5
14E
330
26C
100
AcDbEntity
  8
0
  6
Continuous
 62
     7
100
AcDbLine
 10
41.5
 20
146.75
 30
0.0
 11
42.96999999999999
 21
145.9
 31
0.0
  0
LINE
  5
14F
330
26C
100
AcDbEntity
  8
0
  6
Continuous
 62
     7
100
AcDbLine
 10
42.96999999999999
 20
141.25
 30
0.0
 11
42.96999999999999
 21
145.9
 31
0.0
  0
LINE
  5
150
330
26C
100
AcDbEntity
  8
0
  6
Continuous
 62
     7
100
AcDbLine
 10
37.49
 20
141.25
 30
0.0
 11
37.49
 21
145.9
 31
0.0
  0
LINE
  5
151
330
26C
100
AcDbEntity
  8
0
  6
Continuous
 62
     7
100
AcDbLine
 10
26.52
 20
141.25
 30
0.0
 11
26.52
 21
145.9
 31
0.0
  0
LINE
  5
152
330
26C
100
AcDbEntity
  8
0
  6
Continuous
 62
     7
100
AcDbLine
 10
21.03
 20
141.25
 30
0.0
 11
21.03
 21
145.9
 31
0.0
  0
LINE
  5
153
330
26C
100
AcDbEntity
  8
0
  6
Continuous
 62
     7
100
AcDbLine
 10
43.25
 20
136.75
 30
0.0
 11
43.25
 21
121.25
 31
0.0
  0
LINE
  5
154
330
26C
100
AcDbEntity
  8
0
  6
Continuous
 62
     7
100
AcDbLine
 10
20.75
 20
136.75
 30
0.0
 11
43.25
 21
136.75
 31
0.0
  0
LINE
  5
155
330
26C
100
AcDbEntity
  8
0
  6
Continuous
 62
     7
100
AcDbLine
 10
20.75
 20
136.75
 30
0.0
 11
20.75
 21
121.25
 31
0.0
  0
LINE
  5
156
330
26C
100
AcDbEntity
  8
0
  6
Continuous
 62
     7
100
AcDbLine
 10
43.25
 20
128.5
 30
0.0
 11
52.0
 21
128.5
 31
0.0
  0
LINE
  5
157
330
26C
100
AcDbEntity
  8
0
  6
Continuous
 62
     7
100
AcDbLine
 10
20.75
 20
127.5
 30
0.0
 11
11.0
 21
127.5
 31
0.0
  0
LINE
  5
158
330
26C
100
AcDbEntity
  8
0
  6
Continuous
 62
     7
100
AcDbLine
 10
53.0
 20
127.5
 30
0.0
 11
43.25
 21
127.5
 31
0.0
  0
LINE
  5
159
330
26C
100
AcDbEntity
  8
0
  6
Continuous
 62
     7
100
AcDbLine
 10
50.5
 20
9.0
 30
0.0
 11
50.5
 21
127.5
 31
0.0
  0
LINE
  5
15A
330
26C
100
AcDbEntity
  8
0
  6
Continuous
 62
     7
100
AcDbLine
 10
13.5
 20
9.0
 30
0.0
 11
13.5
 21
127.5
 31
0.0
  0
LINE
  5
15B
330
26C
100
AcDbEntity
  8
0
  6
Continuous
 62
     7
100
AcDbLine
 10
11.0
 20
127.5
 30
0.0
 11
12.0
 21
128.5
 31
0.0
  0
LINE
  5
15C
330
26C
100
AcDbEntity
  8
0
  6
Continuous
 62
     7
100
AcDbLine
 10
52.0
 20
128.5
 30
0.0
 11
53.0
 21
127.5
 31
0.0
  0
LINE
  5
15D
330
26C
100
AcDbEntity
  8
0
  6
Continuous
 62
     7
100
AcDbLine
 10
53.0
 20
127.5
 30
0.0
 11
53.0
 21
9.0
 31
0.0
  0
LINE
  5
15E
330
26C
100
AcDbEntity
  8
0
  6
Continuous
 62
     7
100
AcDbLine
 10
12.0
 20
128.5
 30
0.0
 11
20.75
 21
128.5
 31
0.0
  0
LINE
  5
15F
330
26C
100
AcDbEntity
  8
0
  6
Continuous
 62
     7
100
AcDbLine
 10
11.0
 20
9.0
 30
0.0
 11
11.0
 21
127.5
 31
0.0
  0
LINE
  5
160
330
26C
100
AcDbEntity
  8
0
  6
Continuous
 62
     7
100
AcDbLine
 10
32.41
 20
108.32
 30
0.0
 11
33.77000000000001
 21
109.67
 31
0.0
  0
LINE
  5
161
330
26C
100
AcDbEntity
  8
0
  6
Continuous
 62
     7
100
AcDbLine
 10
32.82
 20
107.91
 30
0.0
 11
34.18
 21
109.26
 31
0.0
  0
LINE
  5
162
330
26C
100
AcDbEntity
  8
0
  6
Continuous
 62
     7
100
AcDbLine
 10
31.59
 20
108.32
 30
0.0
 11
31.18
 21
108.73
 31
0.0
  0
LINE
  5
163
330
26C
100
AcDbEntity
  8
0
  6
Continuous
 62
     7
100
AcDbLine
 10
31.18
 20
107.91
 30
0.0
 11
30.77
 21
108.32
 31
0.0
  0
LINE
  5
164
330
26C
100
AcDbEntity
  8
0
  6
Continuous
 62
     7
100
AcDbLine
 10
29.83
 20
105.73
 30
0.0
 11
31.18
 21
107.09
 31
0.0
  0
LINE
  5
165
330
26C
100
AcDbEntity
  8
0
  6
Continuous
 62
     7
100
AcDbLine
 10
30.24
 20
105.32
 30
0.0
 11
31.59
 21
106.68
 31
0.0
  0
LINE
  5
166
330
26C
100
AcDbEntity
  8
0
  6
Continuous
 62
     7
100
AcDbLine
 10
30.77
 20
108.32
 30
0.0
 11
31.18
 21
108.73
 31
0.0
  0
LINE
  5
167
330
26C
100
AcDbEntity
  8
0
  6
Continuous
 62
     7
100
AcDbLine
 10
32.82
 20
106.27
 30
0.0
 11
33.23
 21
106.68
 31
0.0
  0
LINE
  5
168
330
26C
100
AcDbEntity
  8
0
  6
Continuous
 62
     7
100
AcDbLine
 10
33.23
 20
106.68
 30
0.0
 11
32.82
 21
107.09
 31
0.0
  0
LINE
  5
169
330
26C
100
AcDbEntity
  8
0
  6
Continuous
 62
     7
100
AcDbLine
 10
32.82
 20
106.27
 30
0.0
 11
32.41
 21
106.68
 31
0.0
  0
LINE
  5
16A
330
26C
100
AcDbEntity
  8
0
  6
Continuous
 62
     7
100
AcDbLine
 10
43.25
 20
123.0
 30
0.0
 11
43.5
 21
123.0
 31
0.0
  0
LINE
  5
16B
330
26C
100
AcDbEntity
  8
0
  6
Continuous
 62
     7
100
AcDbLine
 10
43.25
 20
122.5
 30
0.0
 11
43.5
 21
122.5
 31
0.0
  0
LINE
  5
16C
330
26C
100
AcDbEntity
  8
0
  6
Continuous
 62
     7
100
AcDbLine
 10
45.75
 20
119.0
 30
0.0
 11
45.75
 21
96.0
 31
0.0
  0
LINE
  5
16D
330
26C
100
AcDbEntity
  8
0
  6
Continuous
 62
     7
100
AcDbLine
 10
18.25
 20
119.0
 30
0.0
 11
18.25
 21
96.0
 31
0.0
  0
LINE
  5
16E
330
26C
100
AcDbEntity
  8
0
  6
Continuous
 62
     7
100
AcDbLine
 10
20.5
 20
93.75
 30
0.0
 11
43.5
 21
93.75
 31
0.0
  0
LINE
  5
16F
330
26C
100
AcDbEntity
  8
0
  6
Continuous
 62
     7
100
AcDbLine
 10
20.5
 20
121.25
 30
0.0
 11
43.5
 21
121.25
 31
0.0
  0
LINE
  5
170
330
26C
100
AcDbEntity
  8
0
  6
CENTER
 62
     2
100
AcDbLine
 10
25.13
 20
107.5
 30
0.0
 11
39.42
 21
107.5
 31
0.0
  0
LINE
  5
171
330
26C
100
AcDbEntity
  8
0
  6
Continuous
 62
     7
100
AcDbLine
 10
20.5
 20
92.5
 30
0.0
 11
43.5
 21
92.5
 31
0.0
  0
LINE
  5
172
330
26C
100
AcDbEntity
  8
0
  6
Continuous
 62
     7
100
AcDbLine
 10
47.0
 20
119.0
 30
0.0
 11
47.0
 21
96.0
 31
0.0
  0
LINE
  5
173
330
26C
100
AcDbEntity
  8
0
  6
Continuous
 62
     7
100
AcDbLine
 10
20.5
 20
122.5
 30
0.0
 11
20.75
 21
122.5
 31
0.0
  0
LINE
  5
174
330
26C
100
AcDbEntity
  8
0
  6
Continuous
 62
     7
100
AcDbLine
 10
17.0
 20
119.0
 30
0.0
 11
17.0
 21
96.0
 31
0.0
  0
LINE
  5
175
330
26C
100
AcDbEntity
  8
0
  6
Continuous
 62
     7
100
AcDbLine
 10
20.5
 20
92.0
 30
0.0
 11
43.5
 21
92.0
 31
0.0
  0
LINE
  5
176
330
26C
100
AcDbEntity
  8
0
  6
Continuous
 62
     7
100
AcDbLine
 10
16.5
 20
119.0
 30
0.0
 11
16.5
 21
96.0
 31
0.0
  0
LINE
  5
177
330
26C
100
AcDbEntity
  8
0
  6
Continuous
 62
     7
100
AcDbLine
 10
47.5
 20
119.0
 30
0.0
 11
47.5
 21
96.0
 31
0.0
  0
LINE
  5
178
330
26C
100
AcDbEntity
  8
0
  6
Continuous
 62
     7
100
AcDbLine
 10
20.5
 20
123.0
 30
0.0
 11
20.75
 21
123.0
 31
0.0
  0
LINE
  5
179
330
26C
100
AcDbEntity
  8
0
  6
Continuous
 62
     7
100
AcDbLine
 10
-7.0
 20
0.0
 30
0.0
 11
-7.0
 21
2.0
 31
0.0
  0
LINE
  5
17A
330
26C
100
AcDbEntity
  8
0
  6
DASHED
 62
     2
100
AcDbLine
 10
67.25
 20
2.0
 30
0.0
 11
67.25
 21
0.0
 31
0.0
  0
LINE
  5
17B
330
26C
100
AcDbEntity
  8
0
  6
CENTER
 62
     2
100
AcDbLine
 10
64.0
 20
5.0
 30
0.0
 11
64.0
 21
-2.0
 31
0.0
  0
LINE
  5
17C
330
26C
100
AcDbEntity
  8
0
  6
DASHED
 62
     2
100
AcDbLine
 10
60.75
 20
2.0
 30
0.0
 11
60.75
 21
0.0
 31
0.0
  0
LINE
  5
17D
330
26C
100
AcDbEntity
  8
0
  6
DASHED
 62
     2
100
AcDbLine
 10
3.25
 20
2.0
 30
0.0
 11
3.25
 21
0.0
 31
0.0
  0
LINE
  5
17E
330
26C
100
AcDbEntity
  8
0
  6
DASHED
 62
     2
100
AcDbLine
 10
-3.25
 20
2.0
 30
0.0
 11
-3.25
 21
0.0
 31
0.0
  0
LINE
  5
17F
330
26C
100
AcDbEntity
  8
0
  6
CENTER
 62
     2
100
AcDbLine
 10
0.0
 20
5.0
 30
0.0
 11
0.0
 21
-2.0
 31
0.0
  0
ENDBLK
  5
180
330
26C
100
AcDbEntity
  8
0
100
AcDbBlockEnd
  0
BLOCK
  5
181
330
26D
100
AcDbEntity
  8
0
100
AcDbBlockBegin
  2
MS_4
 70
     0
 10
0.0
 20
0.0
 30
0.0
  3
MS_4
  1

  0
LINE
  5
182
330
26D
100
AcDbEntity
  8
0
  6
Continuous
 62
     7
100
AcDbLine
 10
-34.5
 20
92.5
 30
0.0
 11
-35.5
 21
92.5
 31
0.0
  0
LINE
  5
183
330
26D
100
AcDbEntity
  8
0
  6
Continuous
 62
     7
100
AcDbLine
 10
-34.5
 20
122.5
 30
0.0
 11
-35.5
 21
122.5
 31
0.0
  0
SOLID
  5
184
330
26D
100
AcDbEntity
  8
0
  6
Continuous
 62
     7
100
AcDbTrace
 10
-35.5
 20
122.5
 30
0.0
 11
-34.5
 21
122.5
 31
0.0
 12
-35.5
 22
92.5
 32
0.0
 13
-34.5
 23
92.5
 33
0.0
  0
LINE
  5
185
330
26D
100
AcDbEntity
  8
0
  6
Continuous
 62
     7
100
AcDbLine
 10
-34.5
 20
122.5
 30
0.0
 11
-34.5
 21
92.5
 31
0.0
  0
LINE
  5
186
330
26D
100
AcDbEntity
  8
0
  6
Continuous
 62
     7
100
AcDbLine
 10
-35.5
 20
122.5
 30
0.0
 11
-35.5
 21
92.5
 31
0.0
  0
LINE
  5
187
330
26D
100
AcDbEntity
  8
0
  6
Continuous
 62
     7
100
AcDbLine
 10
-44.55
 20
93.9
 30
0.0
 11
-46.55
 21
93.9
 31
0.0
  0
LINE
  5
188
330
26D
100
AcDbEntity
  8
0
  6
Continuous
 62
     7
100
AcDbLine
 10
-44.55
 20
121.1
 30
0.0
 11
-46.55
 21
121.1
 31
0.0
  0
LINE
  5
189
330
26D
100
AcDbEntity
  8
0
  6
Continuous
 62
     7
100
AcDbLine
 10
-44.55
 20
121.1
 30
0.0
 11
-44.55
 21
93.9
 31
0.0
  0
SOLID
  5
18A
330
26D
100
AcDbEntity
  8
0
  6
Continuous
 62
     7
100
AcDbTrace
 10
-46.55
 20
121.1
 30
0.0
 11
-44.55
 21
121.1
 31
0.0
 12
-46.55
 22
93.9
 32
0.0
 13
-44.55
 23
93.9
 33
0.0
  0
LINE
  5
18B
330
26D
100
AcDbEntity
  8
0
  6
Continuous
 62
     7
100
AcDbLine
 10
-46.55
 20
121.1
 30
0.0
 11
-46.55
 21
93.9
 31
0.0
  0
ARC
  5
18C
330
26D
100
AcDbEntity
  8
0
  6
Continuous
 62
     7
100
AcDbCircle
 10
-78.49933132
 20
96.00066868
 30
0.0
 40
2.250668779999999
100
AcDbArc
 50
180.01702268
 51
269.98297732
  0
ARC
  5
18D
330
26D
100
AcDbEntity
  8
0
  6
Continuous
 62
     7
100
AcDbCircle
 10
-78.50039511
 20
119.00039511
 30
0.0
 40
2.249604929999999
100
AcDbArc
 50
89.9899369
 51
180.0100631
  0
ARC
  5
18E
330
26D
100
AcDbEntity
  8
0
  6
Continuous
 62
     7
100
AcDbCircle
 10
-64.75045011999999
 20
133.03217656
 30
0.0
 40
13.71638087
100
AcDbArc
 50
98.72027957
 51
110.25924562
  0
ARC
  5
18F
330
26D
100
AcDbEntity
  8
0
  6
Continuous
 62
     7
100
AcDbCircle
 10
-74.25045108
 20
133.03218025
 30
0.0
 40
13.71637707
100
AcDbArc
 50
98.72027797000001
 51
110.25924722
  0
ARC
  5
190
330
26D
100
AcDbEntity
  8
0
  6
Continuous
 62
     7
100
AcDbCircle
 10
-74.24225945999999
 20
133.03042702
 30
0.0
 40
13.71549976
100
AcDbArc
 50
69.77185634999999
 51
81.35222337
  0
ARC
  5
191
330
26D
100
AcDbEntity
  8
0
  6
Continuous
 62
     7
100
AcDbCircle
 10
-64.74225850999999
 20
133.03043071
 30
0.0
 40
13.71549596
100
AcDbArc
 50
69.77185473999999
 51
81.35222496999999
  0
LINE
  5
192
330
26D
100
AcDbEntity
  8
0
  6
Continuous
 62
     7
100
AcDbLine
 10
-78.12999999999999
 20
136.75
 30
0.0
 11
-78.12999999999999
 21
141.25
 31
0.0
  0
LINE
  5
193
330
26D
100
AcDbEntity
  8
0
  6
Continuous
 62
     7
100
AcDbLine
 10
-60.86999999999999
 20
136.75
 30
0.0
 11
-60.86999999999999
 21
141.25
 31
0.0
  0
LINE
  5
194
330
26D
100
AcDbEntity
  8
0
  6
Continuous
 62
     2
100
AcDbLine
 10
-78.79999999999999
 20
136.75
 30
0.0
 11
-78.79999999999999
 21
141.25
 31
0.0
  0
LINE
  5
195
330
26D
100
AcDbEntity
  8
0
  6
Continuous
 62
     2
100
AcDbLine
 10
-60.2
 20
136.75
 30
0.0
 11
-60.2
 21
141.25
 31
0.0
  0
LINE
  5
196
330
26D
100
AcDbEntity
  8
0
  6
Continuous
 62
     7
100
AcDbLine
 10
-30.0
 20
127.5
 30
0.0
 11
-29.74
 21
128.5
 31
0.0
  0
LINE
  5
197
330
26D
100
AcDbEntity
  8
0
  6
Continuous
 62
     7
100
AcDbLine
 10
30.0
 20
127.5
 30
0.0
 11
29.73
 21
128.5
 31
0.0
  0
LINE
  5
198
330
26D
100
AcDbEntity
  8
0
  6
Continuous
 62
     7
100
AcDbLine
 10
24.5
 20
0.0
 30
0.0
 11
24.5
 21
2.0
 31
0.0
  0
LINE
  5
199
330
26D
100
AcDbEntity
  8
0
  6
Continuous
 62
     7
100
AcDbLine
 10
-24.5
 20
0.0
 30
0.0
 11
-24.5
 21
2.0
 31
0.0
  0
LINE
  5
19A
330
26D
100
AcDbEntity
  8
0
  6
Continuous
 62
     7
100
AcDbLine
 10
32.5
 20
2.0
 30
0.0
 11
-32.5
 21
2.0
 31
0.0
  0
LINE
  5
19B
330
26D
100
AcDbEntity
  8
0
  6
Continuous
 62
     7
100
AcDbLine
 10
32.5
 20
0.0
 30
0.0
 11
-32.5
 21
0.0
 31
0.0
  0
LINE
  5
19C
330
26D
100
AcDbEntity
  8
0
  6
Continuous
 62
     7
100
AcDbLine
 10
32.5
 20
57.0
 30
0.0
 11
-32.5
 21
57.0
 31
0.0
  0
LINE
  5
19D
330
26D
100
AcDbEntity
  8
0
  6
Continuous
 62
     7
100
AcDbLine
 10
32.5
 20
9.0
 30
0.0
 11
-32.5
 21
9.0
 31
0.0
  0
LINE
  5
19E
330
26D
100
AcDbEntity
  8
0
  6
CENTER
 62
     2
100
AcDbLine
 10
0.0
 20
133.0
 30
0.0
 11
0.0
 21
-6.0
 31
0.0
  0
LINE
  5
19F
330
26D
100
AcDbEntity
  8
0
  6
Continuous
 62
     7
100
AcDbLine
 10
-32.5
 20
77.5
 30
0.0
 11
32.5
 21
77.5
 31
0.0
  0
LINE
  5
1A0
330
26D
100
AcDbEntity
  8
0
  6
Continuous
 62
     7
100
AcDbLine
 10
-44.55
 20
93.9
 30
0.0
 11
-44.55
 21
92.5
 31
0.0
  0
LINE
  5
1A1
330
26D
100
AcDbEntity
  8
0
  6
Continuous
 62
     7
100
AcDbLine
 10
-34.5
 20
92.5
 30
0.0
 11
-34.5
 21
92.0
 31
0.0
  0
LINE
  5
1A2
330
26D
100
AcDbEntity
  8
0
  6
Continuous
 62
     7
100
AcDbLine
 10
-60.75
 20
121.25
 30
0.0
 11
-60.75
 21
93.75
 31
0.0
  0
LINE
  5
1A3
330
26D
100
AcDbEntity
  8
0
  6
Continuous
 62
     7
100
AcDbLine
 10
-62.25
 20
121.25
 30
0.0
 11
-62.25
 21
93.75
 31
0.0
  0
LINE
  5
1A4
330
26D
100
AcDbEntity
  8
0
  6
Continuous
 62
     7
100
AcDbLine
 10
-63.25
 20
121.25
 30
0.0
 11
-63.25
 21
93.75
 31
0.0
  0
LINE
  5
1A5
330
26D
100
AcDbEntity
  8
0
  6
Continuous
 62
     7
100
AcDbLine
 10
-64.75
 20
121.25
 30
0.0
 11
-64.75
 21
93.75
 31
0.0
  0
LINE
  5
1A6
330
26D
100
AcDbEntity
  8
0
  6
Continuous
 62
     7
100
AcDbLine
 10
-67.75
 20
121.25
 30
0.0
 11
-67.75
 21
93.75
 31
0.0
  0
LINE
  5
1A7
330
26D
100
AcDbEntity
  8
0
  6
Continuous
 62
     7
100
AcDbLine
 10
-69.25
 20
121.25
 30
0.0
 11
-69.25
 21
93.75
 31
0.0
  0
LINE
  5
1A8
330
26D
100
AcDbEntity
  8
0
  6
Continuous
 62
     7
100
AcDbLine
 10
-70.25
 20
121.25
 30
0.0
 11
-70.25
 21
93.75
 31
0.0
  0
LINE
  5
1A9
330
26D
100
AcDbEntity
  8
0
  6
Continuous
 62
     7
100
AcDbLine
 10
-71.75
 20
121.25
 30
0.0
 11
-71.75
 21
93.75
 31
0.0
  0
LINE
  5
1AA
330
26D
100
AcDbEntity
  8
0
  6
Continuous
 62
     7
100
AcDbLine
 10
-74.75
 20
121.25
 30
0.0
 11
-74.75
 21
93.75
 31
0.0
  0
LINE
  5
1AB
330
26D
100
AcDbEntity
  8
0
  6
Continuous
 62
     7
100
AcDbLine
 10
-76.25
 20
121.25
 30
0.0
 11
-76.25
 21
93.75
 31
0.0
  0
LINE
  5
1AC
330
26D
100
AcDbEntity
  8
0
  6
Continuous
 62
     7
100
AcDbLine
 10
-34.5
 20
123.0
 30
0.0
 11
-32.5
 21
123.0
 31
0.0
  0
LINE
  5
1AD
330
26D
100
AcDbEntity
  8
0
  6
Continuous
 62
     7
100
AcDbLine
 10
-34.5
 20
92.0
 30
0.0
 11
-32.5
 21
92.0
 31
0.0
  0
LINE
  5
1AE
330
26D
100
AcDbEntity
  8
0
  6
Continuous
 62
     7
100
AcDbLine
 10
-34.5
 20
123.0
 30
0.0
 11
-34.5
 21
122.5
 31
0.0
  0
LINE
  5
1AF
330
26D
100
AcDbEntity
  8
0
  6
Continuous
 62
     7
100
AcDbLine
 10
-44.55
 20
122.5
 30
0.0
 11
-35.5
 21
122.5
 31
0.0
  0
LINE
  5
1B0
330
26D
100
AcDbEntity
  8
0
  6
Continuous
 62
     7
100
AcDbLine
 10
-44.55
 20
92.5
 30
0.0
 11
-35.5
 21
92.5
 31
0.0
  0
LINE
  5
1B1
330
26D
100
AcDbEntity
  8
0
  6
Continuous
 62
     7
100
AcDbLine
 10
-44.55
 20
122.5
 30
0.0
 11
-44.55
 21
121.1
 31
0.0
  0
LINE
  5
1B2
330
26D
100
AcDbEntity
  8
0
  6
Continuous
 62
     7
100
AcDbLine
 10
-51.45
 20
93.9
 30
0.0
 11
-46.55
 21
93.9
 31
0.0
  0
LINE
  5
1B3
330
26D
100
AcDbEntity
  8
0
  6
Continuous
 62
     7
100
AcDbLine
 10
-74.75
 20
121.25
 30
0.0
 11
-71.75
 21
121.25
 31
0.0
  0
LINE
  5
1B4
330
26D
100
AcDbEntity
  8
0
  6
Continuous
 62
     7
100
AcDbLine
 10
-74.75
 20
93.75
 30
0.0
 11
-71.75
 21
93.75
 31
0.0
  0
LINE
  5
1B5
330
26D
100
AcDbEntity
  8
0
  6
Continuous
 62
     7
100
AcDbLine
 10
-70.25
 20
93.75
 30
0.0
 11
-69.25
 21
93.75
 31
0.0
  0
LINE
  5
1B6
330
26D
100
AcDbEntity
  8
0
  6
Continuous
 62
     7
100
AcDbLine
 10
-70.25
 20
121.25
 30
0.0
 11
-69.25
 21
121.25
 31
0.0
  0
LINE
  5
1B7
330
26D
100
AcDbEntity
  8
0
  6
Continuous
 62
     7
100
AcDbLine
 10
-71.75
 20
121.0
 30
0.0
 11
-70.25
 21
121.0
 31
0.0
  0
LINE
  5
1B8
330
26D
100
AcDbEntity
  8
0
  6
Continuous
 62
     7
100
AcDbLine
 10
-71.75
 20
94.0
 30
0.0
 11
-70.25
 21
94.0
 31
0.0
  0
LINE
  5
1B9
330
26D
100
AcDbEntity
  8
0
  6
Continuous
 62
     7
100
AcDbLine
 10
-69.25
 20
121.0
 30
0.0
 11
-67.75
 21
121.0
 31
0.0
  0
LINE
  5
1BA
330
26D
100
AcDbEntity
  8
0
  6
Continuous
 62
     7
100
AcDbLine
 10
-69.25
 20
94.0
 30
0.0
 11
-67.75
 21
94.0
 31
0.0
  0
LINE
  5
1BB
330
26D
100
AcDbEntity
  8
0
  6
Continuous
 62
     7
100
AcDbLine
 10
-67.75
 20
121.25
 30
0.0
 11
-64.75
 21
121.25
 31
0.0
  0
LINE
  5
1BC
330
26D
100
AcDbEntity
  8
0
  6
Continuous
 62
     7
100
AcDbLine
 10
-67.75
 20
93.75
 30
0.0
 11
-64.75
 21
93.75
 31
0.0
  0
LINE
  5
1BD
330
26D
100
AcDbEntity
  8
0
  6
Continuous
 62
     7
100
AcDbLine
 10
-64.75
 20
121.0
 30
0.0
 11
-63.25
 21
121.0
 31
0.0
  0
LINE
  5
1BE
330
26D
100
AcDbEntity
  8
0
  6
Continuous
 62
     7
100
AcDbLine
 10
-64.75
 20
94.0
 30
0.0
 11
-63.25
 21
94.0
 31
0.0
  0
LINE
  5
1BF
330
26D
100
AcDbEntity
  8
0
  6
Continuous
 62
     7
100
AcDbLine
 10
-63.25
 20
121.25
 30
0.0
 11
-62.25
 21
121.25
 31
0.0
  0
LINE
  5
1C0
330
26D
100
AcDbEntity
  8
0
  6
Continuous
 62
     7
100
AcDbLine
 10
-63.25
 20
93.75
 30
0.0
 11
-62.25
 21
93.75
 31
0.0
  0
LINE
  5
1C1
330
26D
100
AcDbEntity
  8
0
  6
Continuous
 62
     7
100
AcDbLine
 10
-62.25
 20
121.0
 30
0.0
 11
-60.75
 21
121.0
 31
0.0
  0
LINE
  5
1C2
330
26D
100
AcDbEntity
  8
0
  6
Continuous
 62
     7
100
AcDbLine
 10
-62.25
 20
94.0
 30
0.0
 11
-60.75
 21
94.0
 31
0.0
  0
LINE
  5
1C3
330
26D
100
AcDbEntity
  8
0
  6
Continuous
 62
     7
100
AcDbLine
 10
-60.75
 20
121.25
 30
0.0
 11
-51.45
 21
121.25
 31
0.0
  0
LINE
  5
1C4
330
26D
100
AcDbEntity
  8
0
  6
Continuous
 62
     7
100
AcDbLine
 10
-60.75
 20
93.75
 30
0.0
 11
-51.45
 21
93.75
 31
0.0
  0
LINE
  5
1C5
330
26D
100
AcDbEntity
  8
0
  6
Continuous
 62
     7
100
AcDbLine
 10
-76.25
 20
94.0
 30
0.0
 11
-74.75
 21
94.0
 31
0.0
  0
LINE
  5
1C6
330
26D
100
AcDbEntity
  8
0
  6
Continuous
 62
     7
100
AcDbLine
 10
-76.25
 20
121.0
 30
0.0
 11
-74.75
 21
121.0
 31
0.0
  0
LINE
  5
1C7
330
26D
100
AcDbEntity
  8
0
  6
Continuous
 62
     7
100
AcDbLine
 10
-78.5
 20
121.25
 30
0.0
 11
-76.25
 21
121.25
 31
0.0
  0
LINE
  5
1C8
330
26D
100
AcDbEntity
  8
0
  6
Continuous
 62
     7
100
AcDbLine
 10
-78.5
 20
93.75
 30
0.0
 11
-76.25
 21
93.75
 31
0.0
  0
LINE
  5
1C9
330
26D
100
AcDbEntity
  8
0
  6
Continuous
 62
     7
100
AcDbLine
 10
-51.45
 20
121.1
 30
0.0
 11
-46.55
 21
121.1
 31
0.0
  0
LINE
  5
1CA
330
26D
100
AcDbEntity
  8
0
  6
Continuous
 62
     7
100
AcDbLine
 10
-51.45
 20
121.25
 30
0.0
 11
-51.45
 21
93.75
 31
0.0
  0
LINE
  5
1CB
330
26D
100
AcDbEntity
  8
0
  6
Continuous
 62
     7
100
AcDbLine
 10
-80.75000000000001
 20
136.75
 30
0.0
 11
-80.75000000000001
 21
96.0
 31
0.0
  0
LINE
  5
1CC
330
26D
100
AcDbEntity
  8
0
  6
Continuous
 62
     7
100
AcDbLine
 10
32.5
 20
127.5
 30
0.0
 11
-32.5
 21
127.5
 31
0.0
  0
LINE
  5
1CD
330
26D
100
AcDbEntity
  8
0
  6
Continuous
 62
     7
100
AcDbLine
 10
-30.0
 20
127.5
 30
0.0
 11
-30.0
 21
9.0
 31
0.0
  0
LINE
  5
1CE
330
26D
100
AcDbEntity
  8
0
  6
Continuous
 62
     7
100
AcDbLine
 10
30.0
 20
127.5
 30
0.0
 11
30.0
 21
9.0
 31
0.0
  0
LINE
  5
1CF
330
26D
100
AcDbEntity
  8
0
  6
CENTER
 62
     2
100
AcDbLine
 10
-85.75000000000001
 20
107.5
 30
0.0
 11
-28.87
 21
107.5
 31
0.0
  0
LINE
  5
1D0
330
26D
100
AcDbEntity
  8
0
  6
Continuous
 62
     7
100
AcDbLine
 10
-79.0
 20
141.25
 30
0.0
 11
-60.0
 21
141.25
 31
0.0
  0
LINE
  5
1D1
330
26D
100
AcDbEntity
  8
0
  6
Continuous
 62
     7
100
AcDbLine
 10
-62.68
 20
141.25
 30
0.0
 11
-62.68
 21
146.75
 31
0.0
  0
LINE
  5
1D2
330
26D
100
AcDbEntity
  8
0
  6
Continuous
 62
     7
100
AcDbLine
 10
-66.82999999999999
 20
141.25
 30
0.0
 11
-66.82999999999999
 21
146.75
 31
0.0
  0
LINE
  5
1D3
330
26D
100
AcDbEntity
  8
0
  6
Continuous
 62
     7
100
AcDbLine
 10
-72.18
 20
141.25
 30
0.0
 11
-72.18
 21
146.75
 31
0.0
  0
LINE
  5
1D4
330
26D
100
AcDbEntity
  8
0
  6
Continuous
 62
     7
100
AcDbLine
 10
-76.33
 20
141.25
 30
0.0
 11
-76.33
 21
146.75
 31
0.0
  0
LINE
  5
1D5
330
26D
100
AcDbEntity
  8
0
  6
Continuous
 62
     7
100
AcDbLine
 10
-79.0
 20
146.75
 30
0.0
 11
-60.0
 21
146.75
 31
0.0
  0
LINE
  5
1D6
330
26D
100
AcDbEntity
  8
0
  6
Continuous
 62
     7
100
AcDbLine
 10
-60.0
 20
141.25
 30
0.0
 11
-60.0
 21
146.75
 31
0.0
  0
LINE
  5
1D7
330
26D
100
AcDbEntity
  8
0
  6
Continuous
 62
     7
100
AcDbLine
 10
-69.5
 20
141.25
 30
0.0
 11
-69.5
 21
145.9
 31
0.0
  0
LINE
  5
1D8
330
26D
100
AcDbEntity
  8
0
  6
Continuous
 62
     7
100
AcDbLine
 10
-79.0
 20
141.25
 30
0.0
 11
-79.0
 21
146.75
 31
0.0
  0
LINE
  5
1D9
330
26D
100
AcDbEntity
  8
0
  6
CENTER
 62
     2
100
AcDbLine
 10
-69.5
 20
120.67
 30
0.0
 11
-69.5
 21
154.49
 31
0.0
  0
LINE
  5
1DA
330
26D
100
AcDbEntity
  8
0
  6
Continuous
 62
     7
100
AcDbLine
 10
-32.5
 20
127.5
 30
0.0
 11
-32.5
 21
0.0
 31
0.0
  0
LINE
  5
1DB
330
26D
100
AcDbEntity
  8
0
  6
Continuous
 62
     7
100
AcDbLine
 10
31.5
 20
128.5
 30
0.0
 11
32.5
 21
127.5
 31
0.0
  0
LINE
  5
1DC
330
26D
100
AcDbEntity
  8
0
  6
Continuous
 62
     7
100
AcDbLine
 10
-31.5
 20
128.5
 30
0.0
 11
-32.5
 21
127.5
 31
0.0
  0
LINE
  5
1DD
330
26D
100
AcDbEntity
  8
0
  6
Continuous
 62
     7
100
AcDbLine
 10
-31.5
 20
128.5
 30
0.0
 11
31.5
 21
128.5
 31
0.0
  0
LINE
  5
1DE
330
26D
100
AcDbEntity
  8
0
  6
Continuous
 62
     7
100
AcDbLine
 10
32.5
 20
127.5
 30
0.0
 11
32.5
 21
0.0
 31
0.0
  0
LINE
  5
1DF
330
26D
100
AcDbEntity
  8
0
  6
Continuous
 62
     7
100
AcDbLine
 10
-58.25
 20
136.75
 30
0.0
 11
-58.25
 21
121.25
 31
0.0
  0
LINE
  5
1E0
330
26D
100
AcDbEntity
  8
0
  6
Continuous
 62
     7
100
AcDbLine
 10
-80.75000000000001
 20
136.75
 30
0.0
 11
-58.25
 21
136.75
 31
0.0
  0
LINE
  5
1E1
330
26D
100
AcDbEntity
  8
0
  6
DASHED
 62
     2
100
AcDbLine
 10
3.25
 20
2.0
 30
0.0
 11
3.25
 21
0.0
 31
0.0
  0
LINE
  5
1E2
330
26D
100
AcDbEntity
  8
0
  6
DASHED
 62
     2
100
AcDbLine
 10
-3.25
 20
2.0
 30
0.0
 11
-3.25
 21
0.0
 31
0.0
  0
LINE
  5
1E3
330
26D
100
AcDbEntity
  8
0
  6
CENTER
 62
     2
100
AcDbLine
 10
-39.49999998
 20
43.5
 30
0.0
 11
-25.49999998
 21
43.5
 31
0.0
  0
LINE
  5
1E4
330
26D
100
AcDbEntity
  8
0
  6
CENTER
 62
     2
100
AcDbLine
 10
-39.49999998
 20
23.5
 30
0.0
 11
-25.49999998
 21
23.5
 31
0.0
  0
LINE
  5
1E5
330
26D
100
AcDbEntity
  8
0
  6
CENTER
 62
     2
100
AcDbLine
 10
25.5
 20
43.5
 30
0.0
 11
39.5
 21
43.5
 31
0.0
  0
ENDBLK
  5
1E6
330
26D
100
AcDbEntity
  8
0
100
AcDbBlockEnd
  0
BLOCK
  5
1ED
330
26E
100
AcDbEntity
  8
0
  6
ByBlock
 62
     0
100
AcDbBlockBegin
  2
_OPEN30
 70
     2
 10
0.0
 20
0.0
 30
0.0
  3
_OPEN30
  1

  0
LINE
  5
1EE
330
26E
100
AcDbEntity
  8
0
  6
ByBlock
 62
     0
100
AcDbLine
 10
-1.0
 20
0.267949
 30
0.0
 11
0.0
 21
0.0
 31
0.0
  0
LINE
  5
1EF
330
26E
100
AcDbEntity
  8
0
  6
ByBlock
 62
     0
100
AcDbLine
 10
0.0
 20
0.0
 30
0.0
 11
-1.0
 21
-0.267949
 31
0.0
  0
LINE
  5
1F0
330
26E
100
AcDbEntity
  8
0
  6
ByBlock
 62
     0
100
AcDbLine
 10
0.0
 20
0.0
 30
0.0
 11
-1.0
 21
0.0
 31
0.0
  0
ENDBLK
  5
1F1
330
26E
100
AcDbEntity
  8
0
  6
ByBlock
 62
     0
100
AcDbBlockEnd
  0
ENDSEC
  0
SECTION
  2
ENTITIES
  0
TEXT
  5
20D
330
25E
100
AcDbEntity
  8
0
  6
Continuous
 62
     7
100
AcDbText
 10
-251.6169074
 20
182.349999905
 30
0.0
 40
6.30000019
  1
ETR SERIES
 41
1.079136689999999
  7
MX_NOTE_STANDARD
 11
-251.6169074
 21
185.5
 31
0.0
100
AcDbText
 73
     2
  0
LINE
  5
20E
330
25E
100
AcDbEntity
  8
0
  6
Continuous
 62
     7
100
AcDbLine
 10
-281.25
 20
175.5
 30
0.0
 11
-161.25
 21
175.5
 31
0.0
  0
LINE
  5
20F
330
25E
100
AcDbEntity
  8
0
  6
Continuous
 62
     7
100
AcDbLine
 10
-161.25
 20
195.5
 30
0.0
 11
-161.25
 21
175.5
 31
0.0
  0
LINE
  5
210
330
25E
100
AcDbEntity
  8
0
  6
Continuous
 62
     7
100
AcDbLine
 10
162.09997559
 20
-175.0
 30
0.0
 11
162.09997559
 21
-195.0
 31
0.0
  0
LINE
  5
211
330
25E
100
AcDbEntity
  8
0
  6
Continuous
 62
     7
100
AcDbLine
 10
162.09997559
 20
-175.0
 30
0.0
 11
282.09985352
 21
-175.0
 31
0.0
  0
TEXT
  5
212
330
25E
100
AcDbEntity
  8
0
  6
Continuous
 62
     7
100
AcDbText
 10
170.28099767
 20
-189.5
 30
0.0
 40
9.0
  1
KOGANEI CORP.
 41
1.12068965
  7
MX_NOTE_STANDARD
 11
170.28099767
 21
-185.0
 31
0.0
100
AcDbText
 73
     2
  0
TEXT
  5
213
330
25E
100
AcDbEntity
  8
0
  6
Continuous
 62
     7
100
AcDbText
 10
198.27702403
 20
182.349999905
 30
0.0
 40
6.30000019
  1
Ver. 1.0
 41
1.311475399999999
  7
MX_NOTE_STANDARD
 11
198.27702403
 21
185.5
 31
0.0
100
AcDbText
 73
     2
  0
LINE
  5
214
330
25E
100
AcDbEntity
  8
0
  6
Continuous
 62
     7
100
AcDbLine
 10
162.09997559
 20
175.5
 30
0.0
 11
282.09985352
 21
175.5
 31
0.0
  0
LINE
  5
215
330
25E
100
AcDbEntity
  8
0
  6
Continuous
 62
     7
100
AcDbLine
 10
162.09997559
 20
195.5
 30
0.0
 11
162.09997559
 21
175.5
 31
0.0
  0
LINE
  5
216
330
25E
100
AcDbEntity
  8
0
  6
Continuous
 62
     7
100
AcDbLine
 10
282.09985352
 20
195.5
 30
0.0
 11
282.09985352
 21
-195.0
 31
0.0
  0
LINE
  5
217
330
25E
100
AcDbEntity
  8
0
  6
Continuous
 62
     7
100
AcDbLine
 10
-281.25
 20
195.5
 30
0.0
 11
282.09985352
 21
195.5
 31
0.0
  0
LINE
  5
218
330
25E
100
AcDbEntity
  8
0
  6
Continuous
 62
     7
100
AcDbLine
 10
-281.25
 20
195.5
 30
0.0
 11
-281.25
 21
-195.0
 31
0.0
  0
LINE
  5
219
330
25E
100
AcDbEntity
  8
0
  6
Continuous
 62
     7
100
AcDbLine
 10
-281.25
 20
-195.0
 30
0.0
 11
282.09985352
 21
-195.0
 31
0.0
  0
TEXT
  5
21A
330
25E
100
AcDbEntity
  8
0
  6
Continuous
 62
     7
100
AcDbText
 10
-268.25454551
 20
157.349999905
 30
0.0
 40
6.30000019
  1
MODEL:ETR600
 41
1.09090909
  7
MX_NOTE_STANDARD
 11
-268.25454551
 21
160.5
 31
0.0
100
AcDbText
 73
     2
  0
LINE
  5
280
330
25E
100
AcDbEntity
  8
0
  6
Continuous
 62
     7
100
AcDbLine
 10
-10.84028037
 20
104.20654206
 30
0.0
 11
-11.84028037
 21
104.20654206
 31
0.0
  0
LINE
  5
281
330
25E
100
AcDbEntity
  8
0
  6
Continuous
 62
     7
100
AcDbLine
 10
-10.84028037
 20
134.20654206
 30
0.0
 11
-11.84028037
 21
134.20654206
 31
0.0
  0
SOLID
  5
282
330
25E
100
AcDbEntity
  8
0
  6
Continuous
 62
     7
100
AcDbTrace
 10
-11.84028037
 20
134.20654206
 30
0.0
 11
-10.84028037
 21
134.20654206
 31
0.0
 12
-11.84028037
 22
104.20654206
 32
0.0
 13
-10.84028037
 23
104.20654206
 33
0.0
  0
LINE
  5
283
330
25E
100
AcDbEntity
  8
0
  6
Continuous
 62
     7
100
AcDbLine
 10
-10.84028037
 20
134.20654206
 30
0.0
 11
-10.84028037
 21
104.20654206
 31
0.0
  0
LINE
  5
284
330
25E
100
AcDbEntity
  8
0
  6
Continuous
 62
     7
100
AcDbLine
 10
-11.84028037
 20
134.20654206
 30
0.0
 11
-11.84028037
 21
104.20654206
 31
0.0
  0
LINE
  5
285
330
25E
100
AcDbEntity
  8
0
  6
Continuous
 62
     7
100
AcDbLine
 10
-20.89028037
 20
105.60654206
 30
0.0
 11
-22.89028037
 21
105.60654206
 31
0.0
  0
LINE
  5
286
330
25E
100
AcDbEntity
  8
0
  6
Continuous
 62
     7
100
AcDbLine
 10
-20.89028037
 20
132.80654206
 30
0.0
 11
-22.89028037
 21
132.80654206
 31
0.0
  0
LINE
  5
287
330
25E
100
AcDbEntity
  8
0
  6
Continuous
 62
     7
100
AcDbLine
 10
-20.89028037
 20
132.80654206
 30
0.0
 11
-20.89028037
 21
105.60654206
 31
0.0
  0
SOLID
  5
288
330
25E
100
AcDbEntity
  8
0
  6
Continuous
 62
     7
100
AcDbTrace
 10
-22.89028037
 20
132.80654206
 30
0.0
 11
-20.89028037
 21
132.80654206
 31
0.0
 12
-22.89028037
 22
105.60654206
 32
0.0
 13
-20.89028037
 23
105.60654206
 33
0.0
  0
LINE
  5
289
330
25E
100
AcDbEntity
  8
0
  6
Continuous
 62
     7
100
AcDbLine
 10
-22.89028037
 20
132.80654206
 30
0.0
 11
-22.89028037
 21
105.60654206
 31
0.0
  0
ARC
  5
28A
330
25E
100
AcDbEntity
  8
0
  6
Continuous
 62
     7
100
AcDbCircle
 10
-54.83961169
 20
107.70721074
 30
0.0
 40
2.250668779999999
100
AcDbArc
 50
180.0170226799999
 51
269.98297732
  0
ARC
  5
28B
330
25E
100
AcDbEntity
  8
0
  6
Continuous
 62
     7
100
AcDbCircle
 10
-54.84067548
 20
130.70693717
 30
0.0
 40
2.249604929999999
100
AcDbArc
 50
89.98993689999997
 51
180.0100631
  0
ARC
  5
28C
330
25E
100
AcDbEntity
  8
0
  6
Continuous
 62
     7
100
AcDbCircle
 10
-41.09073049
 20
144.73871862
 30
0.0
 40
13.71638087
100
AcDbArc
 50
98.72027957000002
 51
110.25924562
  0
ARC
  5
28D
330
25E
100
AcDbEntity
  8
0
  6
Continuous
 62
     7
100
AcDbCircle
 10
-50.59073145000001
 20
144.73872231
 30
0.0
 40
13.71637707
100
AcDbArc
 50
98.72027796999997
 51
110.25924722
  0
ARC
  5
28E
330
25E
100
AcDbEntity
  8
0
  6
Continuous
 62
     7
100
AcDbCircle
 10
-50.58253983
 20
144.73696908
 30
0.0
 40
13.71549976
100
AcDbArc
 50
69.77185634999999
 51
81.35222337000005
  0
ARC
  5
28F
330
25E
100
AcDbEntity
  8
0
  6
Continuous
 62
     7
100
AcDbCircle
 10
-41.08253888
 20
144.73697277
 30
0.0
 40
13.71549596
100
AcDbArc
 50
69.77185473999994
 51
81.35222496999993
  0
LINE
  5
290
330
25E
100
AcDbEntity
  8
0
  6
Continuous
 62
     7
100
AcDbLine
 10
-54.47028036999999
 20
148.45654206
 30
0.0
 11
-54.47028036999999
 21
152.95654206
 31
0.0
  0
LINE
  5
291
330
25E
100
AcDbEntity
  8
0
  6
Continuous
 62
     7
100
AcDbLine
 10
-37.21028036999999
 20
148.45654206
 30
0.0
 11
-37.21028036999999
 21
152.95654206
 31
0.0
  0
LINE
  5
292
330
25E
100
AcDbEntity
  8
0
  6
Continuous
 62
     2
100
AcDbLine
 10
-55.14028037
 20
148.45654206
 30
0.0
 11
-55.14028037
 21
152.95654206
 31
0.0
  0
LINE
  5
293
330
25E
100
AcDbEntity
  8
0
  6
Continuous
 62
     2
100
AcDbLine
 10
-36.54028037000001
 20
148.45654206
 30
0.0
 11
-36.54028037000001
 21
152.95654206
 31
0.0
  0
LINE
  5
294
330
25E
100
AcDbEntity
  8
0
  6
Continuous
 62
     7
100
AcDbLine
 10
-6.340280369999998
 20
139.20654206
 30
0.0
 11
-6.080280369999996
 21
140.20654206
 31
0.0
  0
LINE
  5
295
330
25E
100
AcDbEntity
  8
0
  6
Continuous
 62
     7
100
AcDbLine
 10
53.65971962999999
 20
139.20654206
 30
0.0
 11
53.38971963
 21
140.20654206
 31
0.0
  0
LINE
  5
296
330
25E
100
AcDbEntity
  8
0
  6
Continuous
 62
     7
100
AcDbLine
 10
53.65971962999999
 20
-11.29345794
 30
0.0
 11
53.65971962999999
 21
-9.293457939999999
 31
0.0
  0
LINE
  5
297
330
25E
100
AcDbEntity
  8
0
  6
Continuous
 62
     7
100
AcDbLine
 10
-6.340280369999998
 20
-11.29345794
 30
0.0
 11
-6.340280369999998
 21
-9.293457939999999
 31
0.0
  0
LINE
  5
298
330
25E
100
AcDbEntity
  8
0
  6
Continuous
 62
     7
100
AcDbLine
 10
63.65971962999997
 20
-9.293457939999999
 30
0.0
 11
-16.34028036999999
 21
-9.293457939999999
 31
0.0
  0
LINE
  5
299
330
25E
100
AcDbEntity
  8
0
  6
Continuous
 62
     7
100
AcDbLine
 10
63.65971962999997
 20
-11.29345794
 30
0.0
 11
-16.34028036999999
 21
-11.29345794
 31
0.0
  0
LINE
  5
29B
330
25E
100
AcDbEntity
  8
0
  6
Continuous
 62
     7
100
AcDbLine
 10
63.65971962999997
 20
-2.29345794
 30
0.0
 11
-16.34028036999999
 21
-2.293457939999999
 31
0.0
  0
LINE
  5
29C
330
25E
100
AcDbEntity
  8
0
  6
CENTER
 62
     2
100
AcDbLine
 10
23.65971963
 20
144.70654206
 30
0.0
 11
23.65971963
 21
-17.29345794
 31
0.0
  0
LINE
  5
29E
330
25E
100
AcDbEntity
  8
0
  6
Continuous
 62
     7
100
AcDbLine
 10
-20.89028037
 20
105.60654206
 30
0.0
 11
-20.89028037
 21
104.20654206
 31
0.0
  0
LINE
  5
29F
330
25E
100
AcDbEntity
  8
0
  6
Continuous
 62
     7
100
AcDbLine
 10
-10.84028037
 20
104.20654206
 30
0.0
 11
-10.84028037
 21
103.70654206
 31
0.0
  0
LINE
  5
2A0
330
25E
100
AcDbEntity
  8
0
  6
Continuous
 62
     7
100
AcDbLine
 10
-37.09028037
 20
132.95654206
 30
0.0
 11
-37.09028037
 21
105.45654206
 31
0.0
  0
LINE
  5
2A1
330
25E
100
AcDbEntity
  8
0
  6
Continuous
 62
     7
100
AcDbLine
 10
-38.59028037
 20
132.95654206
 30
0.0
 11
-38.59028037
 21
105.45654206
 31
0.0
  0
LINE
  5
2A2
330
25E
100
AcDbEntity
  8
0
  6
Continuous
 62
     7
100
AcDbLine
 10
-39.59028037
 20
132.95654206
 30
0.0
 11
-39.59028037
 21
105.45654206
 31
0.0
  0
LINE
  5
2A3
330
25E
100
AcDbEntity
  8
0
  6
Continuous
 62
     7
100
AcDbLine
 10
-41.09028037
 20
132.95654206
 30
0.0
 11
-41.09028037
 21
105.45654206
 31
0.0
  0
LINE
  5
2A4
330
25E
100
AcDbEntity
  8
0
  6
Continuous
 62
     7
100
AcDbLine
 10
-44.09028037
 20
132.95654206
 30
0.0
 11
-44.09028037
 21
105.45654206
 31
0.0
  0
LINE
  5
2A5
330
25E
100
AcDbEntity
  8
0
  6
Continuous
 62
     7
100
AcDbLine
 10
-45.59028037
 20
132.95654206
 30
0.0
 11
-45.59028037
 21
105.45654206
 31
0.0
  0
LINE
  5
2A6
330
25E
100
AcDbEntity
  8
0
  6
Continuous
 62
     7
100
AcDbLine
 10
-46.59028037
 20
132.95654206
 30
0.0
 11
-46.59028037
 21
105.45654206
 31
0.0
  0
LINE
  5
2A7
330
25E
100
AcDbEntity
  8
0
  6
Continuous
 62
     7
100
AcDbLine
 10
-48.09028037
 20
132.95654206
 30
0.0
 11
-48.09028037
 21
105.45654206
 31
0.0
  0
LINE
  5
2A8
330
25E
100
AcDbEntity
  8
0
  6
Continuous
 62
     7
100
AcDbLine
 10
-51.09028037
 20
132.95654206
 30
0.0
 11
-51.09028037
 21
105.45654206
 31
0.0
  0
LINE
  5
2A9
330
25E
100
AcDbEntity
  8
0
  6
Continuous
 62
     7
100
AcDbLine
 10
-52.59028037
 20
132.95654206
 30
0.0
 11
-52.59028037
 21
105.45654206
 31
0.0
  0
LINE
  5
2AA
330
25E
100
AcDbEntity
  8
0
  6
Continuous
 62
     7
100
AcDbLine
 10
-10.84028037
 20
134.70654206
 30
0.0
 11
-8.840280369999998
 21
134.70654206
 31
0.0
  0
LINE
  5
2AB
330
25E
100
AcDbEntity
  8
0
  6
Continuous
 62
     7
100
AcDbLine
 10
-10.84028037
 20
103.70654206
 30
0.0
 11
-8.840280369999998
 21
103.70654206
 31
0.0
  0
LINE
  5
2AC
330
25E
100
AcDbEntity
  8
0
  6
Continuous
 62
     7
100
AcDbLine
 10
-10.84028037
 20
134.70654206
 30
0.0
 11
-10.84028037
 21
134.20654206
 31
0.0
  0
LINE
  5
2AD
330
25E
100
AcDbEntity
  8
0
  6
Continuous
 62
     7
100
AcDbLine
 10
-20.89028037
 20
134.20654206
 30
0.0
 11
-11.84028037
 21
134.20654206
 31
0.0
  0
LINE
  5
2AE
330
25E
100
AcDbEntity
  8
0
  6
Continuous
 62
     7
100
AcDbLine
 10
-20.89028037
 20
104.20654206
 30
0.0
 11
-11.84028037
 21
104.20654206
 31
0.0
  0
LINE
  5
2AF
330
25E
100
AcDbEntity
  8
0
  6
Continuous
 62
     7
100
AcDbLine
 10
-20.89028037
 20
134.20654206
 30
0.0
 11
-20.89028037
 21
132.80654206
 31
0.0
  0
LINE
  5
2B0
330
25E
100
AcDbEntity
  8
0
  6
Continuous
 62
     7
100
AcDbLine
 10
-27.79028037
 20
105.60654206
 30
0.0
 11
-22.89028037
 21
105.60654206
 31
0.0
  0
LINE
  5
2B1
330
25E
100
AcDbEntity
  8
0
  6
Continuous
 62
     7
100
AcDbLine
 10
-51.09028037
 20
132.95654206
 30
0.0
 11
-48.09028037
 21
132.95654206
 31
0.0
  0
LINE
  5
2B2
330
25E
100
AcDbEntity
  8
0
  6
Continuous
 62
     7
100
AcDbLine
 10
-51.09028037
 20
105.45654206
 30
0.0
 11
-48.09028037
 21
105.45654206
 31
0.0
  0
LINE
  5
2B3
330
25E
100
AcDbEntity
  8
0
  6
Continuous
 62
     7
100
AcDbLine
 10
-46.59028037
 20
105.45654206
 30
0.0
 11
-45.59028037
 21
105.45654206
 31
0.0
  0
LINE
  5
2B4
330
25E
100
AcDbEntity
  8
0
  6
Continuous
 62
     7
100
AcDbLine
 10
-46.59028037
 20
132.95654206
 30
0.0
 11
-45.59028037
 21
132.95654206
 31
0.0
  0
LINE
  5
2B5
330
25E
100
AcDbEntity
  8
0
  6
Continuous
 62
     7
100
AcDbLine
 10
-48.09028037
 20
132.70654206
 30
0.0
 11
-46.59028037
 21
132.70654206
 31
0.0
  0
LINE
  5
2B6
330
25E
100
AcDbEntity
  8
0
  6
Continuous
 62
     7
100
AcDbLine
 10
-48.09028037
 20
105.70654206
 30
0.0
 11
-46.59028037
 21
105.70654206
 31
0.0
  0
LINE
  5
2B7
330
25E
100
AcDbEntity
  8
0
  6
Continuous
 62
     7
100
AcDbLine
 10
-45.59028037
 20
132.70654206
 30
0.0
 11
-44.09028037
 21
132.70654206
 31
0.0
  0
LINE
  5
2B8
330
25E
100
AcDbEntity
  8
0
  6
Continuous
 62
     7
100
AcDbLine
 10
-45.59028037
 20
105.70654206
 30
0.0
 11
-44.09028037
 21
105.70654206
 31
0.0
  0
LINE
  5
2B9
330
25E
100
AcDbEntity
  8
0
  6
Continuous
 62
     7
100
AcDbLine
 10
-44.09028037
 20
132.95654206
 30
0.0
 11
-41.09028037
 21
132.95654206
 31
0.0
  0
LINE
  5
2BA
330
25E
100
AcDbEntity
  8
0
  6
Continuous
 62
     7
100
AcDbLine
 10
-44.09028037
 20
105.45654206
 30
0.0
 11
-41.09028037
 21
105.45654206
 31
0.0
  0
LINE
  5
2BB
330
25E
100
AcDbEntity
  8
0
  6
Continuous
 62
     7
100
AcDbLine
 10
-41.09028037
 20
132.70654206
 30
0.0
 11
-39.59028037
 21
132.70654206
 31
0.0
  0
LINE
  5
2BC
330
25E
100
AcDbEntity
  8
0
  6
Continuous
 62
     7
100
AcDbLine
 10
-41.09028037
 20
105.70654206
 30
0.0
 11
-39.59028037
 21
105.70654206
 31
0.0
  0
LINE
  5
2BD
330
25E
100
AcDbEntity
  8
0
  6
Continuous
 62
     7
100
AcDbLine
 10
-39.59028037
 20
132.95654206
 30
0.0
 11
-38.59028037
 21
132.95654206
 31
0.0
  0
LINE
  5
2BE
330
25E
100
AcDbEntity
  8
0
  6
Continuous
 62
     7
100
AcDbLine
 10
-39.59028037
 20
105.45654206
 30
0.0
 11
-38.59028037
 21
105.45654206
 31
0.0
  0
LINE
  5
2BF
330
25E
100
AcDbEntity
  8
0
  6
Continuous
 62
     7
100
AcDbLine
 10
-38.59028037
 20
132.70654206
 30
0.0
 11
-37.09028037
 21
132.70654206
 31
0.0
  0
LINE
  5
2C0
330
25E
100
AcDbEntity
  8
0
  6
Continuous
 62
     7
100
AcDbLine
 10
-38.59028037
 20
105.70654206
 30
0.0
 11
-37.09028037
 21
105.70654206
 31
0.0
  0
LINE
  5
2C1
330
25E
100
AcDbEntity
  8
0
  6
Continuous
 62
     7
100
AcDbLine
 10
-37.09028037
 20
132.95654206
 30
0.0
 11
-27.79028037
 21
132.95654206
 31
0.0
  0
LINE
  5
2C2
330
25E
100
AcDbEntity
  8
0
  6
Continuous
 62
     7
100
AcDbLine
 10
-37.09028037
 20
105.45654206
 30
0.0
 11
-27.79028037
 21
105.45654206
 31
0.0
  0
LINE
  5
2C3
330
25E
100
AcDbEntity
  8
0
  6
Continuous
 62
     7
100
AcDbLine
 10
-52.59028037
 20
105.70654206
 30
0.0
 11
-51.09028037
 21
105.70654206
 31
0.0
  0
LINE
  5
2C4
330
25E
100
AcDbEntity
  8
0
  6
Continuous
 62
     7
100
AcDbLine
 10
-52.59028037
 20
132.70654206
 30
0.0
 11
-51.09028037
 21
132.70654206
 31
0.0
  0
LINE
  5
2C5
330
25E
100
AcDbEntity
  8
0
  6
Continuous
 62
     7
100
AcDbLine
 10
-54.84028037
 20
132.95654206
 30
0.0
 11
-52.59028037
 21
132.95654206
 31
0.0
  0
LINE
  5
2C6
330
25E
100
AcDbEntity
  8
0
  6
Continuous
 62
     7
100
AcDbLine
 10
-54.84028037
 20
105.45654206
 30
0.0
 11
-52.59028037
 21
105.45654206
 31
0.0
  0
LINE
  5
2C7
330
25E
100
AcDbEntity
  8
0
  6
Continuous
 62
     7
100
AcDbLine
 10
-27.79028037
 20
132.80654206
 30
0.0
 11
-22.89028037
 21
132.80654206
 31
0.0
  0
LINE
  5
2C8
330
25E
100
AcDbEntity
  8
0
  6
Continuous
 62
     7
100
AcDbLine
 10
-27.79028037
 20
132.95654206
 30
0.0
 11
-27.79028037
 21
105.45654206
 31
0.0
  0
LINE
  5
2C9
330
25E
100
AcDbEntity
  8
0
  6
Continuous
 62
     7
100
AcDbLine
 10
-57.09028037
 20
148.45654206
 30
0.0
 11
-57.09028037
 21
107.70654206
 31
0.0
  0
LINE
  5
2CA
330
25E
100
AcDbEntity
  8
0
  6
Continuous
 62
     7
100
AcDbLine
 10
56.15971962999999
 20
139.20654206
 30
0.0
 11
-8.840280369999998
 21
139.20654206
 31
0.0
  0
LINE
  5
2CB
330
25E
100
AcDbEntity
  8
0
  6
Continuous
 62
     7
100
AcDbLine
 10
-6.340280369999998
 20
139.20654206
 30
0.0
 11
-6.340280369999998
 21
89.70654205813969
 31
0.0
  0
LINE
  5
2CD
330
25E
100
AcDbEntity
  8
0
  6
CENTER
 62
     2
100
AcDbLine
 10
-62.09028037
 20
119.20654206
 30
0.0
 11
-5.210280369999999
 21
119.20654206
 31
0.0
  0
LINE
  5
2CE
330
25E
100
AcDbEntity
  8
0
  6
Continuous
 62
     7
100
AcDbLine
 10
-55.34028037
 20
152.95654206
 30
0.0
 11
-36.34028037
 21
152.95654206
 31
0.0
  0
LINE
  5
2CF
330
25E
100
AcDbEntity
  8
0
  6
Continuous
 62
     7
100
AcDbLine
 10
-39.02028037
 20
152.95654206
 30
0.0
 11
-39.02028037
 21
158.45654206
 31
0.0
  0
LINE
  5
2D0
330
25E
100
AcDbEntity
  8
0
  6
Continuous
 62
     7
100
AcDbLine
 10
-43.17028037
 20
152.95654206
 30
0.0
 11
-43.17028037
 21
158.45654206
 31
0.0
  0
LINE
  5
2D1
330
25E
100
AcDbEntity
  8
0
  6
Continuous
 62
     7
100
AcDbLine
 10
-48.52028037000001
 20
152.95654206
 30
0.0
 11
-48.52028037000001
 21
158.45654206
 31
0.0
  0
LINE
  5
2D2
330
25E
100
AcDbEntity
  8
0
  6
Continuous
 62
     7
100
AcDbLine
 10
-52.67028037
 20
152.95654206
 30
0.0
 11
-52.67028037
 21
158.45654206
 31
0.0
  0
LINE
  5
2D3
330
25E
100
AcDbEntity
  8
0
  6
Continuous
 62
     7
100
AcDbLine
 10
-55.34028037
 20
158.45654206
 30
0.0
 11
-36.34028037
 21
158.45654206
 31
0.0
  0
LINE
  5
2D4
330
25E
100
AcDbEntity
  8
0
  6
Continuous
 62
     7
100
AcDbLine
 10
-36.34028037
 20
152.95654206
 30
0.0
 11
-36.34028037
 21
158.45654206
 31
0.0
  0
LINE
  5
2D5
330
25E
100
AcDbEntity
  8
0
  6
Continuous
 62
     7
100
AcDbLine
 10
-45.84028037
 20
152.95654206
 30
0.0
 11
-45.84028037
 21
157.60654206
 31
0.0
  0
LINE
  5
2D6
330
25E
100
AcDbEntity
  8
0
  6
Continuous
 62
     7
100
AcDbLine
 10
-55.34028037
 20
152.95654206
 30
0.0
 11
-55.34028037
 21
158.45654206
 31
0.0
  0
LINE
  5
2D7
330
25E
100
AcDbEntity
  8
0
  6
CENTER
 62
     2
100
AcDbLine
 10
-45.84028037
 20
132.37654206
 30
0.0
 11
-45.84028037
 21
166.19654206
 31
0.0
  0
LINE
  5
2D8
330
25E
100
AcDbEntity
  8
0
  6
Continuous
 62
     7
100
AcDbLine
 10
-8.840280369999998
 20
139.20654206
 30
0.0
 11
-8.840280369999998
 21
89.70654205813969
 31
0.0
  0
LINE
  5
2D9
330
25E
100
AcDbEntity
  8
0
  6
Continuous
 62
     7
100
AcDbLine
 10
55.15971963
 20
140.20654206
 30
0.0
 11
56.15971962999999
 21
139.20654206
 31
0.0
  0
LINE
  5
2DA
330
25E
100
AcDbEntity
  8
0
  6
Continuous
 62
     7
100
AcDbLine
 10
-7.840280369999998
 20
140.20654206
 30
0.0
 11
-8.840280369999998
 21
139.20654206
 31
0.0
  0
LINE
  5
2DB
330
25E
100
AcDbEntity
  8
0
  6
Continuous
 62
     7
100
AcDbLine
 10
-7.840280369999998
 20
140.20654206
 30
0.0
 11
55.15971963
 21
140.20654206
 31
0.0
  0
LINE
  5
2DD
330
25E
100
AcDbEntity
  8
0
  6
Continuous
 62
     7
100
AcDbLine
 10
-34.59028037
 20
148.45654206
 30
0.0
 11
-34.59028037
 21
132.95654206
 31
0.0
  0
LINE
  5
2DE
330
25E
100
AcDbEntity
  8
0
  6
Continuous
 62
     7
100
AcDbLine
 10
-57.09028037
 20
148.45654206
 30
0.0
 11
-34.59028037
 21
148.45654206
 31
0.0
  0
ARC
  5
2EA
330
25E
100
AcDbEntity
  8
0
  6
Continuous
 62
     7
100
AcDbCircle
 10
-102.55624369
 20
-9.299421259999999
 30
0.0
 40
1.994045589999999
100
AcDbArc
 50
179.82865302
 51
270.1713469800002
  0
ARC
  5
2EB
330
25E
100
AcDbEntity
  8
0
  6
Continuous
 62
     7
100
AcDbCircle
 10
-104.55625187
 20
-4.299429439999999
 30
0.0
 40
2.005980389999999
100
AcDbArc
 50
0.1705610600000074
 51
89.8294389400003
  0
ARC
  5
2ED
330
25E
100
AcDbEntity
  8
0
  6
Continuous
 62
     7
100
AcDbCircle
 10
-112.55028037
 20
-1.102373639999999
 30
0.0
 40
6.49627962
100
AcDbArc
 50
242.0980331299994
 51
297.9019668700005
  0
ARC
  5
2EE
330
25E
100
AcDbEntity
  8
0
  6
Continuous
 62
     7
100
AcDbCircle
 10
-115.18766542
 20
-6.080532129999999
 30
0.0
 40
0.8626439599999999
100
AcDbArc
 50
179.53013572
 51
242.1782733000001
  0
ARC
  5
2F0
330
25E
100
AcDbEntity
  8
0
  6
Continuous
 62
     7
100
AcDbCircle
 10
-109.91734223
 20
-6.07787553
 30
0.0
 40
0.8670731099999999
100
AcDbArc
 50
297.9996775199993
 51
0.2919134699999815
  0
CIRCLE
  5
2F2
330
25E
100
AcDbEntity
  8
0
  6
Continuous
 62
     7
100
AcDbCircle
 10
-141.55326377
 20
80.71762116
 30
0.0
 40
2.06699944
  0
CIRCLE
  5
2F3
330
25E
100
AcDbEntity
  8
0
  6
Continuous
 62
     2
100
AcDbCircle
 10
-141.55326377
 20
80.71762116
 30
0.0
 40
2.49999905
  0
ARC
  5
2F8
330
25E
100
AcDbEntity
  8
0
  6
Continuous
 62
     7
100
AcDbCircle
 10
-140.76770285
 20
153.60723973
 30
0.0
 40
4.853224349999999
100
AcDbArc
 50
104.4686290100006
 51
115.8039778399994
  0
ARC
  5
2F9
330
25E
100
AcDbEntity
  8
0
  6
Continuous
 62
     7
100
AcDbCircle
 10
-124.31373455
 20
153.60814125
 30
0.0
 40
4.85084766
100
AcDbArc
 50
104.4023056
 51
124.4856039600003
  0
ARC
  5
2FA
330
25E
100
AcDbEntity
  8
0
  6
Continuous
 62
     7
100
AcDbCircle
 10
-140.7730932099999
 20
153.59924221
 30
0.0
 40
4.856076019999999
100
AcDbArc
 50
55.61015042999971
 51
75.78075104000021
  0
ARC
  5
2FB
330
25E
100
AcDbEntity
  8
0
  6
Continuous
 62
     7
100
AcDbCircle
 10
-132.54528037
 20
140.30712204
 30
0.0
 40
18.14814476
100
AcDbArc
 50
72.4081230299996
 51
107.5918769700004
  0
ARC
  5
2FC
330
25E
100
AcDbEntity
  8
0
  6
Continuous
 62
     7
100
AcDbCircle
 10
-124.33355535
 20
153.60533756
 30
0.0
 40
4.85524047
100
AcDbArc
 50
64.19838333000047
 51
75.5290098099994
  0
CIRCLE
  5
2FD
330
25E
100
AcDbEntity
  8
0
  6
Continuous
 62
     7
100
AcDbCircle
 10
-132.55329429
 20
119.20762116
 30
0.0
 40
3.29999924
  0
ARC
  5
2FE
330
25E
100
AcDbEntity
  8
0
  6
Continuous
 62
     7
100
AcDbCircle
 10
-132.5523269
 20
119.20858859
 30
0.0
 40
2.802093409999999
100
AcDbArc
 50
231.1435403400001
 51
38.85645966000029
  0
ARC
  5
2FF
330
25E
100
AcDbEntity
  8
0
  6
Continuous
 62
     7
100
AcDbCircle
 10
-132.55232686
 20
119.20858855
 30
0.0
 40
2.80003057
100
AcDbArc
 50
50.73804940999972
 51
219.2619505899999
  0
ARC
  5
300
330
25E
100
AcDbEntity
  8
0
  6
Continuous
 62
     7
100
AcDbCircle
 10
-131.3228706
 20
119.20654206
 30
0.0
 40
0.5779988900000001
100
AcDbArc
 50
134.8184400400002
 51
225.1815599599998
  0
ARC
  5
301
330
25E
100
AcDbEntity
  8
0
  6
Continuous
 62
     7
100
AcDbCircle
 10
-132.55028037
 20
120.4380039
 30
0.0
 40
0.5808621600000001
100
AcDbArc
 50
225.1019609600001
 51
314.89803904
  0
ARC
  5
302
330
25E
100
AcDbEntity
  8
0
  6
Continuous
 62
     7
100
AcDbCircle
 10
-132.55028037
 20
117.97725368
 30
0.0
 40
0.57932458
100
AcDbArc
 50
44.95023357000011
 51
135.0497664299999
  0
ARC
  5
303
330
25E
100
AcDbEntity
  8
0
  6
Continuous
 62
     7
100
AcDbCircle
 10
-133.78362642
 20
119.20654206
 30
0.0
 40
0.58219838
100
AcDbArc
 50
315.2328465800002
 51
44.76715341999973
  0
ARC
  5
304
330
25E
100
AcDbEntity
  8
0
  6
Continuous
 62
     7
100
AcDbCircle
 10
-121.05231945
 20
107.70858114
 30
0.0
 40
2.25204
100
AcDbArc
 50
270.0518776599995
 51
359.9481223400001
  0
ARC
  5
305
330
25E
100
AcDbEntity
  8
0
  6
Continuous
 62
     7
100
AcDbCircle
 10
-121.05122581
 20
130.70559662
 30
0.0
 40
2.250945639999999
100
AcDbArc
 50
0.0240653900000192
 51
89.97593460999937
  0
ARC
  5
306
330
25E
100
AcDbEntity
  8
0
  6
Continuous
 62
     7
100
AcDbCircle
 10
-144.05229617
 20
130.70855786
 30
0.0
 40
2.2479851
100
AcDbArc
 50
89.94862200000003
 51
180.0513779999999
  0
ARC
  5
307
330
25E
100
AcDbEntity
  8
0
  6
Continuous
 62
     7
100
AcDbCircle
 10
-144.0512011
 20
107.70562133
 30
0.0
 40
2.249079459999999
100
AcDbArc
 50
179.97654426
 51
270.0234557400006
  0
ARC
  5
308
330
25E
100
AcDbEntity
  8
0
  6
Continuous
 62
     7
100
AcDbCircle
 10
-144.05120142
 20
107.70562101
 30
0.0
 40
3.49907907
100
AcDbArc
 50
179.98491823
 51
270.0150817699996
  0
ARC
  5
309
330
25E
100
AcDbEntity
  8
0
  6
Continuous
 62
     7
100
AcDbCircle
 10
-121.05231938
 20
107.70858107
 30
0.0
 40
3.5020396
100
AcDbArc
 50
270.0333595599996
 51
359.96664044
  0
ARC
  5
30A
330
25E
100
AcDbEntity
  8
0
  6
Continuous
 62
     7
100
AcDbCircle
 10
-121.05122548
 20
130.70559695
 30
0.0
 40
3.50094524
100
AcDbArc
 50
0.0154675300000045
 51
89.9845324700003
  0
ARC
  5
30B
330
25E
100
AcDbEntity
  8
0
  6
Continuous
 62
     7
100
AcDbCircle
 10
-144.05229624
 20
130.70855793
 30
0.0
 40
3.497984709999999
100
AcDbArc
 50
89.96698074999926
 51
180.03301925
  0
ARC
  5
30C
330
25E
100
AcDbEntity
  8
0
  6
Continuous
 62
     7
100
AcDbCircle
 10
-121.05231936
 20
107.70858105
 30
0.0
 40
4.00203951
100
AcDbArc
 50
270.02919151
 51
359.97080849
  0
ARC
  5
30D
330
25E
100
AcDbEntity
  8
0
  6
Continuous
 62
     7
100
AcDbCircle
 10
-121.05122541
 20
130.70559702
 30
0.0
 40
4.000945149999999
100
AcDbArc
 50
0.0135334800000462
 51
89.98646651999974
  0
ARC
  5
30E
330
25E
100
AcDbEntity
  8
0
  6
Continuous
 62
     7
100
AcDbCircle
 10
-144.05229626
 20
130.70855795
 30
0.0
 40
3.99798462
100
AcDbArc
 50
89.97111002000016
 51
180.0288899799999
  0
ARC
  5
30F
330
25E
100
AcDbEntity
  8
0
  6
Continuous
 62
     7
100
AcDbCircle
 10
-144.05120149
 20
107.70562094
 30
0.0
 40
3.99907898
100
AcDbArc
 50
179.9868028499999
 51
270.0131971500007
  0
LINE
  5
310
330
25E
100
AcDbEntity
  8
0
  6
Continuous
 62
     7
100
AcDbLine
 10
-89.05028036999999
 20
-11.29345794
 30
0.0
 11
-89.05028036999999
 21
-9.293457939999999
 31
0.0
  0
LINE
  5
312
330
25E
100
AcDbEntity
  8
0
  6
Continuous
 62
     2
100
AcDbLine
 10
-123.25028037
 20
152.95654206
 30
0.0
 11
-123.25028037
 21
148.45654206
 31
0.0
  0
LINE
  5
313
330
25E
100
AcDbEntity
  8
0
  6
Continuous
 62
     2
100
AcDbLine
 10
-141.85028037
 20
152.95654206
 30
0.0
 11
-141.85028037
 21
148.45654206
 31
0.0
  0
LINE
  5
314
330
25E
100
AcDbEntity
  8
0
  6
Continuous
 62
     7
100
AcDbLine
 10
-123.92028037
 20
152.95654206
 30
0.0
 11
-123.92028037
 21
148.45654206
 31
0.0
  0
LINE
  5
315
330
25E
100
AcDbEntity
  8
0
  6
Continuous
 62
     7
100
AcDbLine
 10
-141.18028037
 20
152.95654206
 30
0.0
 11
-141.18028037
 21
148.45654206
 31
0.0
  0
LINE
  5
316
330
25E
100
AcDbEntity
  8
0
  6
Continuous
 62
     7
100
AcDbLine
 10
-114.05028037
 20
139.20654206
 30
0.0
 11
-114.32028037
 21
140.20654206
 31
0.0
  0
LINE
  5
317
330
25E
100
AcDbEntity
  8
0
  6
Continuous
 62
     7
100
AcDbLine
 10
-151.05028037
 20
139.20654206
 30
0.0
 11
-150.78028037
 21
140.20654206
 31
0.0
  0
LINE
  5
318
330
25E
100
AcDbEntity
  8
0
  6
Continuous
 62
     7
100
AcDbLine
 10
-116.05028037
 20
-4.993457939999999
 30
0.0
 11
-109.05028037
 21
-4.993457939999999
 31
0.0
  0
LINE
  5
319
330
25E
100
AcDbEntity
  8
0
  6
Continuous
 62
     7
100
AcDbLine
 10
-109.05028037
 20
-6.073457939999999
 30
0.0
 11
-109.05028037
 21
-4.293457939999999
 31
0.0
  0
LINE
  5
31A
330
25E
100
AcDbEntity
  8
0
  6
Continuous
 62
     7
100
AcDbLine
 10
-116.05028037
 20
-6.073457939999999
 30
0.0
 11
-116.05028037
 21
-4.293457939999999
 31
0.0
  0
LINE
  5
31E
330
25E
100
AcDbEntity
  8
0
  6
Continuous
 62
     7
100
AcDbLine
 10
-102.55028037
 20
-9.293457939999999
 30
0.0
 11
-79.05028037
 21
-9.293457939999999
 31
0.0
  0
LINE
  5
31F
330
25E
100
AcDbEntity
  8
0
  6
Continuous
 62
     7
100
AcDbLine
 10
-102.55028037
 20
-11.29345794
 30
0.0
 11
-79.05028037
 21
-11.29345794
 31
0.0
  0
LINE
  5
320
330
25E
100
AcDbEntity
  8
0
  6
Continuous
 62
     7
100
AcDbLine
 10
-79.05028037
 20
-11.29345794
 30
0.0
 11
-79.05028037
 21
-9.293457939999999
 31
0.0
  0
LINE
  5
322
330
25E
100
AcDbEntity
  8
0
  6
Continuous
 62
     7
100
AcDbLine
 10
-102.55028037
 20
-9.293457939999999
 30
0.0
 11
-102.55028037
 21
-4.293457939999999
 31
0.0
  0
LINE
  5
324
330
25E
100
AcDbEntity
  8
0
  6
Continuous
 62
     7
100
AcDbLine
 10
-104.55028037
 20
-9.293457939999999
 30
0.0
 11
-104.55028037
 21
-4.293457939999999
 31
0.0
  0
LINE
  5
327
330
25E
100
AcDbEntity
  8
0
  6
CENTER
 62
     2
100
AcDbLine
 10
-146.05326258
 20
80.71654206000001
 30
0.0
 11
-137.05326496
 21
80.71654206000001
 31
0.0
  0
LINE
  5
328
330
25E
100
AcDbEntity
  8
0
  6
CENTER
 62
     2
100
AcDbLine
 10
-141.55028037
 20
76.2176239
 30
0.0
 11
-141.55028037
 21
85.21761843
 31
0.0
  0
LINE
  5
329
330
25E
100
AcDbEntity
  8
0
  6
CENTER
 62
     2
100
AcDbLine
 10
-147.55028037
 20
46.70654206
 30
0.0
 11
-117.55028037
 21
46.70654206
 31
0.0
  0
LINE
  5
32B
330
25E
100
AcDbEntity
  8
0
  6
Continuous
 62
     7
100
AcDbLine
 10
-160.05028037
 20
64.50654206
 30
0.0
 11
-105.05028037
 21
64.50654205999999
 31
0.0
  0
LINE
  5
32C
330
25E
100
AcDbEntity
  8
0
  6
CENTER
 62
     2
100
AcDbLine
 10
-132.55028037
 20
166.19654206
 30
0.0
 11
-132.55028037
 21
-13.28345794
 31
0.0
  0
LINE
  5
32E
330
25E
100
AcDbEntity
  8
0
  6
Continuous
 62
     7
100
AcDbLine
 10
-143.52028037
 20
152.95654206
 30
0.0
 11
-121.58028037
 21
152.95654206
 31
0.0
  0
LINE
  5
32F
330
25E
100
AcDbEntity
  8
0
  6
Continuous
 62
     7
100
AcDbLine
 10
-123.12028037
 20
152.95654206
 30
0.0
 11
-123.12028037
 21
158.45654206
 31
0.0
  0
LINE
  5
330
330
25E
100
AcDbEntity
  8
0
  6
Continuous
 62
     7
100
AcDbLine
 10
-125.52028037
 20
152.95654206
 30
0.0
 11
-125.52028037
 21
158.45654206
 31
0.0
  0
LINE
  5
331
330
25E
100
AcDbEntity
  8
0
  6
Continuous
 62
     7
100
AcDbLine
 10
-139.58028037
 20
152.95654206
 30
0.0
 11
-139.58028037
 21
158.45654206
 31
0.0
  0
LINE
  5
332
330
25E
100
AcDbEntity
  8
0
  6
Continuous
 62
     7
100
AcDbLine
 10
-141.98028037
 20
152.95654206
 30
0.0
 11
-141.98028037
 21
158.45654206
 31
0.0
  0
LINE
  5
333
330
25E
100
AcDbEntity
  8
0
  6
Continuous
 62
     7
100
AcDbLine
 10
-130.15028037
 20
152.95654206
 30
0.0
 11
-130.15028037
 21
158.29654206
 31
0.0
  0
LINE
  5
334
330
25E
100
AcDbEntity
  8
0
  6
Continuous
 62
     7
100
AcDbLine
 10
-134.95028037
 20
152.95654206
 30
0.0
 11
-134.95028037
 21
158.29654206
 31
0.0
  0
LINE
  5
335
330
25E
100
AcDbEntity
  8
0
  6
Continuous
 62
     7
100
AcDbLine
 10
-142.05028037
 20
158.45654206
 30
0.0
 11
-143.52028037
 21
157.60654206
 31
0.0
  0
LINE
  5
336
330
25E
100
AcDbEntity
  8
0
  6
Continuous
 62
     7
100
AcDbLine
 10
-142.05028037
 20
158.45654206
 30
0.0
 11
-123.05028037
 21
158.45654206
 31
0.0
  0
LINE
  5
337
330
25E
100
AcDbEntity
  8
0
  6
Continuous
 62
     7
100
AcDbLine
 10
-123.05028037
 20
158.45654206
 30
0.0
 11
-121.58028037
 21
157.60654206
 31
0.0
  0
LINE
  5
338
330
25E
100
AcDbEntity
  8
0
  6
Continuous
 62
     7
100
AcDbLine
 10
-121.58028037
 20
152.95654206
 30
0.0
 11
-121.58028037
 21
157.60654206
 31
0.0
  0
LINE
  5
339
330
25E
100
AcDbEntity
  8
0
  6
Continuous
 62
     7
100
AcDbLine
 10
-127.06028037
 20
152.95654206
 30
0.0
 11
-127.06028037
 21
157.60654206
 31
0.0
  0
LINE
  5
33A
330
25E
100
AcDbEntity
  8
0
  6
Continuous
 62
     7
100
AcDbLine
 10
-138.03028037
 20
152.95654206
 30
0.0
 11
-138.03028037
 21
157.60654206
 31
0.0
  0
LINE
  5
33B
330
25E
100
AcDbEntity
  8
0
  6
Continuous
 62
     7
100
AcDbLine
 10
-143.52028037
 20
152.95654206
 30
0.0
 11
-143.52028037
 21
157.60654206
 31
0.0
  0
LINE
  5
33C
330
25E
100
AcDbEntity
  8
0
  6
Continuous
 62
     7
100
AcDbLine
 10
-121.30028037
 20
148.45654206
 30
0.0
 11
-121.30028037
 21
132.95654206
 31
0.0
  0
LINE
  5
33D
330
25E
100
AcDbEntity
  8
0
  6
Continuous
 62
     7
100
AcDbLine
 10
-143.80028037
 20
148.45654206
 30
0.0
 11
-121.30028037
 21
148.45654206
 31
0.0
  0
LINE
  5
33E
330
25E
100
AcDbEntity
  8
0
  6
Continuous
 62
     7
100
AcDbLine
 10
-143.80028037
 20
148.45654206
 30
0.0
 11
-143.80028037
 21
132.95654206
 31
0.0
  0
LINE
  5
33F
330
25E
100
AcDbEntity
  8
0
  6
Continuous
 62
     7
100
AcDbLine
 10
-121.30028037
 20
140.20654206
 30
0.0
 11
-112.55028037
 21
140.20654206
 31
0.0
  0
LINE
  5
340
330
25E
100
AcDbEntity
  8
0
  6
Continuous
 62
     7
100
AcDbLine
 10
-143.80028037
 20
139.20654206
 30
0.0
 11
-153.55028037
 21
139.20654206
 31
0.0
  0
LINE
  5
341
330
25E
100
AcDbEntity
  8
0
  6
Continuous
 62
     7
100
AcDbLine
 10
-111.55028037
 20
139.20654206
 30
0.0
 11
-121.30028037
 21
139.20654206
 31
0.0
  0
LINE
  5
342
330
25E
100
AcDbEntity
  8
0
  6
Continuous
 62
     7
100
AcDbLine
 10
-114.05028037
 20
89.70654206000002
 30
0.0
 11
-114.05028037
 21
139.20654206
 31
0.0
  0
LINE
  5
343
330
25E
100
AcDbEntity
  8
0
  6
Continuous
 62
     7
100
AcDbLine
 10
-151.05028037
 20
89.70654205999995
 30
0.0
 11
-151.05028037
 21
139.20654206
 31
0.0
  0
LINE
  5
344
330
25E
100
AcDbEntity
  8
0
  6
Continuous
 62
     7
100
AcDbLine
 10
-153.55028037
 20
139.20654206
 30
0.0
 11
-152.55028037
 21
140.20654206
 31
0.0
  0
LINE
  5
345
330
25E
100
AcDbEntity
  8
0
  6
Continuous
 62
     7
100
AcDbLine
 10
-112.55028037
 20
140.20654206
 30
0.0
 11
-111.55028037
 21
139.20654206
 31
0.0
  0
LINE
  5
346
330
25E
100
AcDbEntity
  8
0
  6
Continuous
 62
     7
100
AcDbLine
 10
-111.55028037
 20
139.20654206
 30
0.0
 11
-111.55028037
 21
89.70654206000002
 31
0.0
  0
LINE
  5
347
330
25E
100
AcDbEntity
  8
0
  6
Continuous
 62
     7
100
AcDbLine
 10
-152.55028037
 20
140.20654206
 30
0.0
 11
-143.80028037
 21
140.20654206
 31
0.0
  0
LINE
  5
348
330
25E
100
AcDbEntity
  8
0
  6
Continuous
 62
     7
100
AcDbLine
 10
-153.55028037
 20
89.70654205999995
 30
0.0
 11
-153.55028037
 21
139.20654206
 31
0.0
  0
LINE
  5
349
330
25E
100
AcDbEntity
  8
0
  6
Continuous
 62
     7
100
AcDbLine
 10
-132.14028037
 20
120.02654206
 30
0.0
 11
-130.78028037
 21
121.37654206
 31
0.0
  0
LINE
  5
34A
330
25E
100
AcDbEntity
  8
0
  6
Continuous
 62
     7
100
AcDbLine
 10
-131.73028037
 20
119.61654206
 30
0.0
 11
-130.37028037
 21
120.96654206
 31
0.0
  0
LINE
  5
34B
330
25E
100
AcDbEntity
  8
0
  6
Continuous
 62
     7
100
AcDbLine
 10
-132.96028037
 20
120.02654206
 30
0.0
 11
-133.37028037
 21
120.43654206
 31
0.0
  0
LINE
  5
34C
330
25E
100
AcDbEntity
  8
0
  6
Continuous
 62
     7
100
AcDbLine
 10
-133.37028037
 20
119.61654206
 30
0.0
 11
-133.78028037
 21
120.02654206
 31
0.0
  0
LINE
  5
34D
330
25E
100
AcDbEntity
  8
0
  6
Continuous
 62
     7
100
AcDbLine
 10
-134.72028037
 20
117.43654206
 30
0.0
 11
-133.37028037
 21
118.79654206
 31
0.0
  0
LINE
  5
34E
330
25E
100
AcDbEntity
  8
0
  6
Continuous
 62
     7
100
AcDbLine
 10
-134.31028037
 20
117.02654206
 30
0.0
 11
-132.96028037
 21
118.38654206
 31
0.0
  0
LINE
  5
34F
330
25E
100
AcDbEntity
  8
0
  6
Continuous
 62
     7
100
AcDbLine
 10
-133.78028037
 20
120.02654206
 30
0.0
 11
-133.37028037
 21
120.43654206
 31
0.0
  0
LINE
  5
350
330
25E
100
AcDbEntity
  8
0
  6
Continuous
 62
     7
100
AcDbLine
 10
-131.73028037
 20
117.97654206
 30
0.0
 11
-131.32028037
 21
118.38654206
 31
0.0
  0
LINE
  5
351
330
25E
100
AcDbEntity
  8
0
  6
Continuous
 62
     7
100
AcDbLine
 10
-131.32028037
 20
118.38654206
 30
0.0
 11
-131.73028037
 21
118.79654206
 31
0.0
  0
LINE
  5
352
330
25E
100
AcDbEntity
  8
0
  6
Continuous
 62
     7
100
AcDbLine
 10
-131.73028037
 20
117.97654206
 30
0.0
 11
-132.14028037
 21
118.38654206
 31
0.0
  0
LINE
  5
353
330
25E
100
AcDbEntity
  8
0
  6
Continuous
 62
     7
100
AcDbLine
 10
-121.30028037
 20
134.70654206
 30
0.0
 11
-121.05028037
 21
134.70654206
 31
0.0
  0
LINE
  5
354
330
25E
100
AcDbEntity
  8
0
  6
Continuous
 62
     7
100
AcDbLine
 10
-121.30028037
 20
134.20654206
 30
0.0
 11
-121.05028037
 21
134.20654206
 31
0.0
  0
LINE
  5
355
330
25E
100
AcDbEntity
  8
0
  6
Continuous
 62
     7
100
AcDbLine
 10
-118.80028037
 20
130.70654206
 30
0.0
 11
-118.80028037
 21
107.70654206
 31
0.0
  0
LINE
  5
356
330
25E
100
AcDbEntity
  8
0
  6
Continuous
 62
     7
100
AcDbLine
 10
-146.30028037
 20
130.70654206
 30
0.0
 11
-146.30028037
 21
107.70654206
 31
0.0
  0
LINE
  5
357
330
25E
100
AcDbEntity
  8
0
  6
Continuous
 62
     7
100
AcDbLine
 10
-144.05028037
 20
105.45654206
 30
0.0
 11
-121.05028037
 21
105.45654206
 31
0.0
  0
LINE
  5
358
330
25E
100
AcDbEntity
  8
0
  6
Continuous
 62
     7
100
AcDbLine
 10
-144.05028037
 20
132.95654206
 30
0.0
 11
-121.05028037
 21
132.95654206
 31
0.0
  0
LINE
  5
359
330
25E
100
AcDbEntity
  8
0
  6
CENTER
 62
     2
100
AcDbLine
 10
-139.42028037
 20
119.20654206
 30
0.0
 11
-125.13028037
 21
119.20654206
 31
0.0
  0
LINE
  5
35A
330
25E
100
AcDbEntity
  8
0
  6
Continuous
 62
     7
100
AcDbLine
 10
-144.05028037
 20
104.20654206
 30
0.0
 11
-121.05028037
 21
104.20654206
 31
0.0
  0
LINE
  5
35B
330
25E
100
AcDbEntity
  8
0
  6
Continuous
 62
     7
100
AcDbLine
 10
-117.55028037
 20
130.70654206
 30
0.0
 11
-117.55028037
 21
107.70654206
 31
0.0
  0
LINE
  5
35C
330
25E
100
AcDbEntity
  8
0
  6
Continuous
 62
     7
100
AcDbLine
 10
-144.05028037
 20
134.20654206
 30
0.0
 11
-143.80028037
 21
134.20654206
 31
0.0
  0
LINE
  5
35D
330
25E
100
AcDbEntity
  8
0
  6
Continuous
 62
     7
100
AcDbLine
 10
-147.55028037
 20
130.70654206
 30
0.0
 11
-147.55028037
 21
107.70654206
 31
0.0
  0
LINE
  5
35E
330
25E
100
AcDbEntity
  8
0
  6
Continuous
 62
     7
100
AcDbLine
 10
-144.05028037
 20
103.70654206
 30
0.0
 11
-121.05028037
 21
103.70654206
 31
0.0
  0
LINE
  5
35F
330
25E
100
AcDbEntity
  8
0
  6
Continuous
 62
     7
100
AcDbLine
 10
-148.05028037
 20
130.70654206
 30
0.0
 11
-148.05028037
 21
107.70654206
 31
0.0
  0
LINE
  5
360
330
25E
100
AcDbEntity
  8
0
  6
Continuous
 62
     7
100
AcDbLine
 10
-117.05028037
 20
130.70654206
 30
0.0
 11
-117.05028037
 21
107.70654206
 31
0.0
  0
LINE
  5
361
330
25E
100
AcDbEntity
  8
0
  6
Continuous
 62
     7
100
AcDbLine
 10
-144.05028037
 20
134.70654206
 30
0.0
 11
-143.80028037
 21
134.70654206
 31
0.0
  0
LINE
  5
363
330
25E
100
AcDbEntity
  8
0
  6
DASHED
 62
     2
100
AcDbLine
 10
-87.30028037
 20
-9.293457939999999
 30
0.0
 11
-87.30028037
 21
-11.29345794
 31
0.0
  0
LINE
  5
364
330
25E
100
AcDbEntity
  8
0
  6
CENTER
 62
     2
100
AcDbLine
 10
-90.05028037
 20
-6.293457939999999
 30
0.0
 11
-90.05028037
 21
-13.29345794
 31
0.0
  0
LINE
  5
365
330
25E
100
AcDbEntity
  8
0
  6
DASHED
 62
     2
100
AcDbLine
 10
-92.80028036999999
 20
-9.293457939999999
 30
0.0
 11
-92.80028036999999
 21
-11.29345794
 31
0.0
  0
ARC
  5
3C3
330
25E
100
AcDbEntity
  8
0
  6
Continuous
 62
     7
100
AcDbCircle
 10
-141.55400405
 20
-75.52973426
 30
0.0
 40
0.9962832799999999
100
AcDbArc
 50
89.78585223999962
 51
180.2141477600003
  0
ARC
  5
3C4
330
25E
100
AcDbEntity
  8
0
  6
Continuous
 62
     7
100
AcDbCircle
 10
-141.55525188
 20
-79.53842944999999
 30
0.0
 40
0.9950409
100
AcDbArc
 50
179.71373236
 51
270.28626764
  0
ARC
  5
3C5
330
25E
100
AcDbEntity
  8
0
  6
Continuous
 62
     7
100
AcDbCircle
 10
-123.55422821
 20
-79.52951010000001
 30
0.0
 40
1.0039556
100
AcDbArc
 50
270.2253036599999
 51
359.7746963400001
  0
ARC
  5
3C6
330
25E
100
AcDbEntity
  8
0
  6
Continuous
 62
     7
100
AcDbCircle
 10
-123.55546496
 20
-75.53864253
 30
0.0
 40
1.00519796
100
AcDbArc
 50
0.29552050000059
 51
89.70447949999941
  0
ARC
  5
3C7
330
25E
100
AcDbEntity
  8
0
  6
Continuous
 62
     7
100
AcDbCircle
 10
-137.80388105
 20
-58.02985726
 30
0.0
 40
0.9964058300000001
100
AcDbArc
 50
89.7929517599992
 51
180.2070482400008
  0
ARC
  5
3C8
330
25E
100
AcDbEntity
  8
0
  6
Continuous
 62
     7
100
AcDbCircle
 10
-137.80535121
 20
-71.53852878000001
 30
0.0
 40
0.9949420799999998
100
AcDbArc
 50
179.7079840000002
 51
270.2920159999997
  0
ARC
  5
3C9
330
25E
100
AcDbEntity
  8
0
  6
Continuous
 62
     7
100
AcDbCircle
 10
-127.30412922
 20
-71.52960909
 30
0.0
 40
1.00385623
100
AcDbArc
 50
270.2196762600002
 51
359.7803237399998
  0
ARC
  5
3CA
330
25E
100
AcDbEntity
  8
0
  6
Continuous
 62
     7
100
AcDbCircle
 10
-127.30558634
 20
-58.03876391
 30
0.0
 40
1.005319969999999
100
AcDbArc
 50
0.3024021299994403
 51
89.69759787000056
  0
ARC
  5
3CB
330
25E
100
AcDbEntity
  8
0
  6
Continuous
 62
     7
100
AcDbCircle
 10
-144.05379708
 20
-54.77994123000001
 30
0.0
 40
2.24648605
100
AcDbArc
 50
89.91030770999961
 51
180.0896922900004
  0
ARC
  5
3CC
330
25E
100
AcDbEntity
  8
0
  6
Continuous
 62
     7
100
AcDbCircle
 10
-121.05565883
 20
-54.78883640000001
 30
0.0
 40
2.255384869999999
100
AcDbArc
 50
0.1366343800004255
 51
89.86336561999957
  0
CIRCLE
  5
3CD
330
25E
100
AcDbEntity
  8
0
  6
Continuous
 62
     7
100
AcDbCircle
 10
-112.55915549
 20
-100.78367034
 30
0.0
 40
3.5
  0
LINE
  5
3D5
330
25E
100
AcDbEntity
  8
0
  6
Continuous
 62
     7
100
AcDbLine
 10
-142.55028037
 20
-79.53345794
 30
0.0
 11
-142.55028037
 21
-75.53345794000001
 31
0.0
  0
LINE
  5
3D6
330
25E
100
AcDbEntity
  8
0
  6
Continuous
 62
     7
100
AcDbLine
 10
-122.55028037
 20
-79.53345794
 30
0.0
 11
-122.55028037
 21
-75.53345794000001
 31
0.0
  0
LINE
  5
3D7
330
25E
100
AcDbEntity
  8
0
  6
Continuous
 62
     7
100
AcDbLine
 10
-123.55028037
 20
-80.53345794
 30
0.0
 11
-141.55028037
 21
-80.53345794
 31
0.0
  0
LINE
  5
3D8
330
25E
100
AcDbEntity
  8
0
  6
Continuous
 62
     7
100
AcDbLine
 10
-123.55028037
 20
-74.53345794
 30
0.0
 11
-141.55028037
 21
-74.53345794
 31
0.0
  0
LINE
  5
3D9
330
25E
100
AcDbEntity
  8
0
  6
Continuous
 62
     7
100
AcDbLine
 10
-140.55028037
 20
-70.03345794000001
 30
0.0
 11
-140.55028037
 21
-68.53345794
 31
0.0
  0
LINE
  5
3DA
330
25E
100
AcDbEntity
  8
0
  6
Continuous
 62
     7
100
AcDbLine
 10
-140.55028037
 20
-65.53345794000001
 30
0.0
 11
-140.55028037
 21
-64.03345794
 31
0.0
  0
LINE
  5
3DB
330
25E
100
AcDbEntity
  8
0
  6
Continuous
 62
     7
100
AcDbLine
 10
-140.55028037
 20
-63.03345794000001
 30
0.0
 11
-140.55028037
 21
-61.53345794
 31
0.0
  0
LINE
  5
3DC
330
25E
100
AcDbEntity
  8
0
  6
Continuous
 62
     7
100
AcDbLine
 10
-140.55028037
 20
-58.53345794
 30
0.0
 11
-140.55028037
 21
-57.03345794
 31
0.0
  0
LINE
  5
3DD
330
25E
100
AcDbEntity
  8
0
  6
Continuous
 62
     7
100
AcDbLine
 10
-124.55028037
 20
-70.03345794000001
 30
0.0
 11
-124.55028037
 21
-68.53345794
 31
0.0
  0
LINE
  5
3DE
330
25E
100
AcDbEntity
  8
0
  6
Continuous
 62
     7
100
AcDbLine
 10
-124.55028037
 20
-65.53345794000001
 30
0.0
 11
-124.55028037
 21
-64.03345794
 31
0.0
  0
LINE
  5
3DF
330
25E
100
AcDbEntity
  8
0
  6
Continuous
 62
     7
100
AcDbLine
 10
-124.55028037
 20
-63.03345794000001
 30
0.0
 11
-124.55028037
 21
-61.53345794
 31
0.0
  0
LINE
  5
3E0
330
25E
100
AcDbEntity
  8
0
  6
Continuous
 62
     7
100
AcDbLine
 10
-124.55028037
 20
-58.53345794
 30
0.0
 11
-124.55028037
 21
-57.03345794
 31
0.0
  0
LINE
  5
3E1
330
25E
100
AcDbEntity
  8
0
  6
Continuous
 62
     7
100
AcDbLine
 10
-124.55028037
 20
-72.53345794000001
 30
0.0
 11
-124.55028037
 21
-71.03345794
 31
0.0
  0
LINE
  5
3E2
330
25E
100
AcDbEntity
  8
0
  6
Continuous
 62
     7
100
AcDbLine
 10
-140.55028037
 20
-72.53345794000001
 30
0.0
 11
-140.55028037
 21
-71.03345794
 31
0.0
  0
LINE
  5
3E3
330
25E
100
AcDbEntity
  8
0
  6
Continuous
 62
     7
100
AcDbLine
 10
-126.30028037
 20
-71.53345794
 30
0.0
 11
-126.30028037
 21
-58.03345794000001
 31
0.0
  0
LINE
  5
3E4
330
25E
100
AcDbEntity
  8
0
  6
Continuous
 62
     7
100
AcDbLine
 10
-138.80028037
 20
-71.53345794
 30
0.0
 11
-138.80028037
 21
-58.03345794000001
 31
0.0
  0
LINE
  5
3E5
330
25E
100
AcDbEntity
  8
0
  6
Continuous
 62
     7
100
AcDbLine
 10
-140.55028037
 20
-72.53345794000001
 30
0.0
 11
-146.30028037
 21
-72.53345794000001
 31
0.0
  0
LINE
  5
3E6
330
25E
100
AcDbEntity
  8
0
  6
Continuous
 62
     7
100
AcDbLine
 10
-140.55028037
 20
-57.03345794
 30
0.0
 11
-146.30028037
 21
-57.03345794
 31
0.0
  0
LINE
  5
3E7
330
25E
100
AcDbEntity
  8
0
  6
Continuous
 62
     7
100
AcDbLine
 10
-127.30028037
 20
-57.03345794
 30
0.0
 11
-137.80028037
 21
-57.03345794
 31
0.0
  0
LINE
  5
3E8
330
25E
100
AcDbEntity
  8
0
  6
Continuous
 62
     7
100
AcDbLine
 10
-140.55028037
 20
-58.53345794
 30
0.0
 11
-146.30028037
 21
-58.53345794
 31
0.0
  0
LINE
  5
3E9
330
25E
100
AcDbEntity
  8
0
  6
Continuous
 62
     7
100
AcDbLine
 10
-140.55028037
 20
-61.53345794
 30
0.0
 11
-146.30028037
 21
-61.53345794
 31
0.0
  0
LINE
  5
3EA
330
25E
100
AcDbEntity
  8
0
  6
Continuous
 62
     7
100
AcDbLine
 10
-140.55028037
 20
-63.03345794000001
 30
0.0
 11
-146.30028037
 21
-63.03345794000001
 31
0.0
  0
LINE
  5
3EB
330
25E
100
AcDbEntity
  8
0
  6
Continuous
 62
     7
100
AcDbLine
 10
-140.55028037
 20
-64.03345794
 30
0.0
 11
-146.30028037
 21
-64.03345794
 31
0.0
  0
LINE
  5
3EC
330
25E
100
AcDbEntity
  8
0
  6
Continuous
 62
     7
100
AcDbLine
 10
-140.55028037
 20
-65.53345794000001
 30
0.0
 11
-146.30028037
 21
-65.53345794000001
 31
0.0
  0
LINE
  5
3ED
330
25E
100
AcDbEntity
  8
0
  6
Continuous
 62
     7
100
AcDbLine
 10
-140.55028037
 20
-68.53345794
 30
0.0
 11
-146.30028037
 21
-68.53345794
 31
0.0
  0
LINE
  5
3EE
330
25E
100
AcDbEntity
  8
0
  6
Continuous
 62
     7
100
AcDbLine
 10
-140.55028037
 20
-70.03345794000001
 30
0.0
 11
-146.30028037
 21
-70.03345794000001
 31
0.0
  0
LINE
  5
3EF
330
25E
100
AcDbEntity
  8
0
  6
Continuous
 62
     7
100
AcDbLine
 10
-140.55028037
 20
-71.03345794
 30
0.0
 11
-146.30028037
 21
-71.03345794
 31
0.0
  0
LINE
  5
3F0
330
25E
100
AcDbEntity
  8
0
  6
Continuous
 62
     7
100
AcDbLine
 10
-127.30028037
 20
-72.53345794000001
 30
0.0
 11
-137.80028037
 21
-72.53345794000001
 31
0.0
  0
LINE
  5
3F1
330
25E
100
AcDbEntity
  8
0
  6
Continuous
 62
     7
100
AcDbLine
 10
-146.15028037
 20
-88.73345794
 30
0.0
 11
-147.55028037
 21
-88.73345794
 31
0.0
  0
LINE
  5
3F2
330
25E
100
AcDbEntity
  8
0
  6
Continuous
 62
     7
100
AcDbLine
 10
-118.80028037
 20
-72.53345794000001
 30
0.0
 11
-124.55028037
 21
-72.53345794000001
 31
0.0
  0
LINE
  5
3F3
330
25E
100
AcDbEntity
  8
0
  6
Continuous
 62
     7
100
AcDbLine
 10
-118.80028037
 20
-71.03345794
 30
0.0
 11
-124.55028037
 21
-71.03345794
 31
0.0
  0
LINE
  5
3F4
330
25E
100
AcDbEntity
  8
0
  6
Continuous
 62
     7
100
AcDbLine
 10
-118.80028037
 20
-70.03345794000001
 30
0.0
 11
-124.55028037
 21
-70.03345794000001
 31
0.0
  0
LINE
  5
3F5
330
25E
100
AcDbEntity
  8
0
  6
Continuous
 62
     7
100
AcDbLine
 10
-118.80028037
 20
-68.53345794
 30
0.0
 11
-124.55028037
 21
-68.53345794
 31
0.0
  0
LINE
  5
3F6
330
25E
100
AcDbEntity
  8
0
  6
Continuous
 62
     7
100
AcDbLine
 10
-118.80028037
 20
-65.53345794000001
 30
0.0
 11
-124.55028037
 21
-65.53345794000001
 31
0.0
  0
LINE
  5
3F7
330
25E
100
AcDbEntity
  8
0
  6
Continuous
 62
     7
100
AcDbLine
 10
-118.80028037
 20
-64.03345794
 30
0.0
 11
-124.55028037
 21
-64.03345794
 31
0.0
  0
LINE
  5
3F8
330
25E
100
AcDbEntity
  8
0
  6
Continuous
 62
     7
100
AcDbLine
 10
-118.80028037
 20
-63.03345794000001
 30
0.0
 11
-124.55028037
 21
-63.03345794000001
 31
0.0
  0
LINE
  5
3F9
330
25E
100
AcDbEntity
  8
0
  6
Continuous
 62
     7
100
AcDbLine
 10
-118.80028037
 20
-61.53345794
 30
0.0
 11
-124.55028037
 21
-61.53345794
 31
0.0
  0
LINE
  5
3FA
330
25E
100
AcDbEntity
  8
0
  6
Continuous
 62
     7
100
AcDbLine
 10
-118.80028037
 20
-58.53345794
 30
0.0
 11
-124.55028037
 21
-58.53345794
 31
0.0
  0
LINE
  5
3FB
330
25E
100
AcDbEntity
  8
0
  6
Continuous
 62
     7
100
AcDbLine
 10
-118.80028037
 20
-57.03345794
 30
0.0
 11
-124.55028037
 21
-57.03345794
 31
0.0
  0
LINE
  5
3FC
330
25E
100
AcDbEntity
  8
0
  6
Continuous
 62
     7
100
AcDbLine
 10
-117.55028037
 20
-88.73345794
 30
0.0
 11
-117.55028037
 21
-93.28345793999998
 31
0.0
  0
LINE
  5
3FD
330
25E
100
AcDbEntity
  8
0
  6
Continuous
 62
     7
100
AcDbLine
 10
-147.55028037
 20
-88.73345794
 30
0.0
 11
-147.55028037
 21
-93.28345793999998
 31
0.0
  0
LINE
  5
3FE
330
25E
100
AcDbEntity
  8
0
  6
Continuous
 62
     7
100
AcDbLine
 10
-117.55028037
 20
-88.73345794
 30
0.0
 11
-118.95028037
 21
-88.73345794
 31
0.0
  0
LINE
  5
3FF
330
25E
100
AcDbEntity
  8
0
  6
Continuous
 62
     7
100
AcDbLine
 10
-146.15028037
 20
-81.83345794
 30
0.0
 11
-146.15028037
 21
-86.73345794000001
 31
0.0
  0
LINE
  5
400
330
25E
100
AcDbEntity
  8
0
  6
Continuous
 62
     7
100
AcDbLine
 10
-118.80028037
 20
-58.53345794
 30
0.0
 11
-118.80028037
 21
-61.53345794
 31
0.0
  0
LINE
  5
401
330
25E
100
AcDbEntity
  8
0
  6
Continuous
 62
     7
100
AcDbLine
 10
-146.30028037
 20
-58.53345794
 30
0.0
 11
-146.30028037
 21
-61.53345794
 31
0.0
  0
LINE
  5
402
330
25E
100
AcDbEntity
  8
0
  6
Continuous
 62
     7
100
AcDbLine
 10
-146.30028037
 20
-63.03345794000001
 30
0.0
 11
-146.30028037
 21
-64.03345794
 31
0.0
  0
LINE
  5
403
330
25E
100
AcDbEntity
  8
0
  6
Continuous
 62
     7
100
AcDbLine
 10
-118.80028037
 20
-63.03345794000001
 30
0.0
 11
-118.80028037
 21
-64.03345794
 31
0.0
  0
LINE
  5
404
330
25E
100
AcDbEntity
  8
0
  6
Continuous
 62
     7
100
AcDbLine
 10
-119.05028037
 20
-61.53345794
 30
0.0
 11
-119.05028037
 21
-63.03345794000001
 31
0.0
  0
LINE
  5
405
330
25E
100
AcDbEntity
  8
0
  6
Continuous
 62
     7
100
AcDbLine
 10
-146.05028037
 20
-61.53345794
 30
0.0
 11
-146.05028037
 21
-63.03345794000001
 31
0.0
  0
LINE
  5
406
330
25E
100
AcDbEntity
  8
0
  6
Continuous
 62
     7
100
AcDbLine
 10
-119.05028037
 20
-64.03345794
 30
0.0
 11
-119.05028037
 21
-65.53345794000001
 31
0.0
  0
LINE
  5
407
330
25E
100
AcDbEntity
  8
0
  6
Continuous
 62
     7
100
AcDbLine
 10
-146.05028037
 20
-64.03345794
 30
0.0
 11
-146.05028037
 21
-65.53345794000001
 31
0.0
  0
LINE
  5
408
330
25E
100
AcDbEntity
  8
0
  6
Continuous
 62
     7
100
AcDbLine
 10
-118.80028037
 20
-65.53345794000001
 30
0.0
 11
-118.80028037
 21
-68.53345794
 31
0.0
  0
LINE
  5
409
330
25E
100
AcDbEntity
  8
0
  6
Continuous
 62
     7
100
AcDbLine
 10
-146.30028037
 20
-65.53345794000001
 30
0.0
 11
-146.30028037
 21
-68.53345794
 31
0.0
  0
LINE
  5
40A
330
25E
100
AcDbEntity
  8
0
  6
Continuous
 62
     7
100
AcDbLine
 10
-119.05028037
 20
-68.53345794
 30
0.0
 11
-119.05028037
 21
-70.03345794000001
 31
0.0
  0
LINE
  5
40B
330
25E
100
AcDbEntity
  8
0
  6
Continuous
 62
     7
100
AcDbLine
 10
-146.05028037
 20
-68.53345794
 30
0.0
 11
-146.05028037
 21
-70.03345794000001
 31
0.0
  0
LINE
  5
40C
330
25E
100
AcDbEntity
  8
0
  6
Continuous
 62
     7
100
AcDbLine
 10
-118.80028037
 20
-70.03345794000001
 30
0.0
 11
-118.80028037
 21
-71.03345794
 31
0.0
  0
LINE
  5
40D
330
25E
100
AcDbEntity
  8
0
  6
Continuous
 62
     7
100
AcDbLine
 10
-146.30028037
 20
-70.03345794000001
 30
0.0
 11
-146.30028037
 21
-71.03345794
 31
0.0
  0
LINE
  5
40E
330
25E
100
AcDbEntity
  8
0
  6
Continuous
 62
     7
100
AcDbLine
 10
-119.05028037
 20
-71.03345794
 30
0.0
 11
-119.05028037
 21
-72.53345794000001
 31
0.0
  0
LINE
  5
40F
330
25E
100
AcDbEntity
  8
0
  6
Continuous
 62
     7
100
AcDbLine
 10
-146.05028037
 20
-71.03345794
 30
0.0
 11
-146.05028037
 21
-72.53345794000001
 31
0.0
  0
LINE
  5
410
330
25E
100
AcDbEntity
  8
0
  6
Continuous
 62
     7
100
AcDbLine
 10
-118.80028037
 20
-72.53345794000001
 30
0.0
 11
-118.80028037
 21
-81.83345794
 31
0.0
  0
LINE
  5
411
330
25E
100
AcDbEntity
  8
0
  6
Continuous
 62
     7
100
AcDbLine
 10
-146.30028037
 20
-72.53345794000001
 30
0.0
 11
-146.30028037
 21
-81.83345794
 31
0.0
  0
LINE
  5
412
330
25E
100
AcDbEntity
  8
0
  6
Continuous
 62
     7
100
AcDbLine
 10
-146.05028037
 20
-57.03345794
 30
0.0
 11
-146.05028037
 21
-58.53345794
 31
0.0
  0
LINE
  5
413
330
25E
100
AcDbEntity
  8
0
  6
Continuous
 62
     7
100
AcDbLine
 10
-119.05028037
 20
-57.03345794
 30
0.0
 11
-119.05028037
 21
-58.53345794
 31
0.0
  0
LINE
  5
414
330
25E
100
AcDbEntity
  8
0
  6
Continuous
 62
     7
100
AcDbLine
 10
-118.80028037
 20
-54.78345794
 30
0.0
 11
-118.80028037
 21
-57.03345794
 31
0.0
  0
LINE
  5
415
330
25E
100
AcDbEntity
  8
0
  6
Continuous
 62
     7
100
AcDbLine
 10
-146.30028037
 20
-54.78345794
 30
0.0
 11
-146.30028037
 21
-57.03345794
 31
0.0
  0
LINE
  5
416
330
25E
100
AcDbEntity
  8
0
  6
Continuous
 62
     7
100
AcDbLine
 10
-118.95028037
 20
-81.83345794
 30
0.0
 11
-118.95028037
 21
-86.73345794000001
 31
0.0
  0
LINE
  5
417
330
25E
100
AcDbEntity
  8
0
  6
Continuous
 62
     7
100
AcDbLine
 10
-118.80028037
 20
-81.83345794
 30
0.0
 11
-146.30028037
 21
-81.83345794
 31
0.0
  0
LINE
  5
418
330
25E
100
AcDbEntity
  8
0
  6
Continuous
 62
     7
100
AcDbLine
 10
-121.05028037
 20
-52.53345794000001
 30
0.0
 11
-144.05028037
 21
-52.53345794000001
 31
0.0
  0
LINE
  5
41A
330
25E
100
AcDbEntity
  8
0
  6
Continuous
 62
     7
100
AcDbLine
 10
-104.55028037
 20
-93.28345794
 30
0.0
 11
-104.55028037
 21
-173.28345794
 31
0.0
  0
LINE
  5
41B
330
25E
100
AcDbEntity
  8
0
  6
CENTER
 62
     2
100
AcDbLine
 10
-107.55028037
 20
-100.78345794
 30
0.0
 11
-117.55028037
 21
-100.78345794
 31
0.0
  0
LINE
  5
41C
330
25E
100
AcDbEntity
  8
0
  6
CENTER
 62
     2
100
AcDbLine
 10
-112.55028037
 20
-105.78345794
 30
0.0
 11
-112.55028037
 21
-95.78345794
 31
0.0
  0
LINE
  5
421
330
25E
100
AcDbEntity
  8
0
  6
CENTER
 62
     2
100
AcDbLine
 10
-90.05028037
 20
-105.28345794
 30
0.0
 11
-90.05028037
 21
-96.28345794000001
 31
0.0
  0
LINE
  5
428
330
25E
100
AcDbEntity
  8
0
  6
Continuous
 62
     7
100
AcDbLine
 10
-82.55028037
 20
-98.28345794
 30
0.0
 11
-82.55028037
 21
-168.28345794
 31
0.0
  0
LINE
  5
429
330
25E
100
AcDbEntity
  8
0
  6
CENTER
 62
     2
100
AcDbLine
 10
-173.7202803699999
 20
-133.28345794
 30
0.0
 11
-91.67028036999999
 21
-133.28345794
 31
0.0
  0
LINE
  5
42D
330
25E
100
AcDbEntity
  8
0
  6
Continuous
 62
     7
100
AcDbLine
 10
-87.55028037
 20
-93.28345794
 30
0.0
 11
-177.55028037
 21
-93.28345793999998
 31
0.0
  0
LINE
  5
42E
330
25E
100
AcDbEntity
  8
0
  6
CENTER
 62
     2
100
AcDbLine
 10
-132.55028037
 20
-47.53345794
 30
0.0
 11
-132.55028037
 21
-170.28345794
 31
0.0
  0
LINE
  5
437
330
25E
100
AcDbEntity
  8
0
  6
Continuous
 62
     7
100
AcDbLine
 10
-146.15028037
 20
-88.73345794
 30
0.0
 11
-146.15028037
 21
-86.73345794000001
 31
0.0
  0
LINE
  5
438
330
25E
100
AcDbEntity
  8
0
  6
Continuous
 62
     7
100
AcDbLine
 10
-118.95028037
 20
-86.73345794000001
 30
0.0
 11
-146.15028037
 21
-86.73345794000001
 31
0.0
  0
LINE
  5
439
330
25E
100
AcDbEntity
  8
0
  6
Continuous
 62
     7
100
AcDbLine
 10
-118.95028037
 20
-88.73345794
 30
0.0
 11
-146.15028037
 21
-88.73345794
 31
0.0
  0
LINE
  5
43A
330
25E
100
AcDbEntity
  8
0
  6
Continuous
 62
     7
100
AcDbLine
 10
-118.95028037
 20
-88.73345794
 30
0.0
 11
-118.95028037
 21
-86.73345794000001
 31
0.0
  0
SOLID
  5
43B
330
25E
100
AcDbEntity
  8
0
  6
Continuous
 62
     7
100
AcDbTrace
 10
-146.15028037
 20
-86.73345794000001
 30
0.0
 11
-118.95028037
 21
-86.73345794000001
 31
0.0
 12
-146.15028037
 22
-88.73345794
 32
0.0
 13
-118.95028037
 23
-88.73345794
 33
0.0
  0
LINE
  5
43D
330
25E
100
AcDbEntity
  8
0
  6
Continuous
 62
     7
100
AcDbLine
 10
-107.55028037
 20
-2.293457939999999
 30
0.0
 11
-107.55028037
 21
89.70654206000004
 31
0.0
  0
LINE
  5
43E
330
25E
100
AcDbEntity
  8
0
  6
Continuous
 62
     7
100
AcDbLine
 10
-105.05028037
 20
89.70654206000004
 30
0.0
 11
-105.05028037
 21
-2.293457939999999
 31
0.0
  0
LINE
  5
43F
330
25E
100
AcDbEntity
  8
0
  6
Continuous
 62
     7
100
AcDbLine
 10
-160.0398830328606
 20
89.70654205999993
 30
0.0
 11
-105.05028037
 21
89.70654206000004
 31
0.0
  0
ARC
  5
459
330
25E
100
AcDbEntity
  8
0
  6
Continuous
 62
     7
100
AcDbCircle
 10
-162.54431705
 20
-9.299421259999999
 30
0.0
 40
1.994045589999999
100
AcDbArc
 50
269.8286530199998
 51
0.1713469799999865
  0
ARC
  5
45A
330
25E
100
AcDbEntity
  8
0
  6
Continuous
 62
     7
100
AcDbCircle
 10
-160.54430887
 20
-4.299429439999999
 30
0.0
 40
2.005980389999999
100
AcDbArc
 50
90.17056105999969
 51
179.82943894
  0
ARC
  5
45B
330
25E
100
AcDbEntity
  8
0
  6
Continuous
 62
     7
100
AcDbCircle
 10
-152.55028037
 20
-1.102373639999999
 30
0.0
 40
6.49627962
100
AcDbArc
 50
242.0980331300008
 51
297.9019668699992
  0
ARC
  5
45C
330
25E
100
AcDbEntity
  8
0
  6
Continuous
 62
     7
100
AcDbCircle
 10
-149.91289532
 20
-6.080532129999999
 30
0.0
 40
0.8626439599999999
100
AcDbArc
 50
297.8217266999985
 51
0.4698642799999898
  0
ARC
  5
45D
330
25E
100
AcDbEntity
  8
0
  6
Continuous
 62
     7
100
AcDbCircle
 10
-155.18321851
 20
-6.07787553
 30
0.0
 40
0.8670731099999999
100
AcDbArc
 50
179.70808653
 51
242.0003224799993
  0
LINE
  5
45E
330
25E
100
AcDbEntity
  8
0
  6
Continuous
 62
     7
100
AcDbLine
 10
-176.05028037
 20
-11.29345794
 30
0.0
 11
-176.05028037
 21
-9.293457939999999
 31
0.0
  0
LINE
  5
45F
330
25E
100
AcDbEntity
  8
0
  6
Continuous
 62
     7
100
AcDbLine
 10
-149.05028037
 20
-4.993457939999999
 30
0.0
 11
-156.05028037
 21
-4.993457939999999
 31
0.0
  0
LINE
  5
460
330
25E
100
AcDbEntity
  8
0
  6
Continuous
 62
     7
100
AcDbLine
 10
-156.05028037
 20
-6.073457939999999
 30
0.0
 11
-156.05028037
 21
-4.293457939999999
 31
0.0
  0
LINE
  5
461
330
25E
100
AcDbEntity
  8
0
  6
Continuous
 62
     7
100
AcDbLine
 10
-149.05028037
 20
-6.073457939999999
 30
0.0
 11
-149.05028037
 21
-4.293457939999999
 31
0.0
  0
LINE
  5
462
330
25E
100
AcDbEntity
  8
0
  6
Continuous
 62
     7
100
AcDbLine
 10
-162.55028037
 20
-9.293457939999999
 30
0.0
 11
-186.05028037
 21
-9.293457939999999
 31
0.0
  0
LINE
  5
463
330
25E
100
AcDbEntity
  8
0
  6
Continuous
 62
     7
100
AcDbLine
 10
-162.55028037
 20
-11.29345794
 30
0.0
 11
-186.05028037
 21
-11.29345794
 31
0.0
  0
LINE
  5
464
330
25E
100
AcDbEntity
  8
0
  6
Continuous
 62
     7
100
AcDbLine
 10
-186.05028037
 20
-11.29345794
 30
0.0
 11
-186.05028037
 21
-9.293457939999999
 31
0.0
  0
LINE
  5
465
330
25E
100
AcDbEntity
  8
0
  6
Continuous
 62
     7
100
AcDbLine
 10
-162.55028037
 20
-9.293457939999999
 30
0.0
 11
-162.55028037
 21
-4.293457939999999
 31
0.0
  0
LINE
  5
466
330
25E
100
AcDbEntity
  8
0
  6
Continuous
 62
     7
100
AcDbLine
 10
-160.55028037
 20
-9.293457939999999
 30
0.0
 11
-160.55028037
 21
-4.293457939999999
 31
0.0
  0
LINE
  5
467
330
25E
100
AcDbEntity
  8
0
  6
DASHED
 62
     2
100
AcDbLine
 10
-177.80028037
 20
-9.293457939999999
 30
0.0
 11
-177.80028037
 21
-11.29345794
 31
0.0
  0
LINE
  5
468
330
25E
100
AcDbEntity
  8
0
  6
CENTER
 62
     2
100
AcDbLine
 10
-175.05028037
 20
-6.293457939999999
 30
0.0
 11
-175.05028037
 21
-13.29345794
 31
0.0
  0
LINE
  5
469
330
25E
100
AcDbEntity
  8
0
  6
DASHED
 62
     2
100
AcDbLine
 10
-172.30028037
 20
-9.293457939999999
 30
0.0
 11
-172.30028037
 21
-11.29345794
 31
0.0
  0
LINE
  5
46A
330
25E
100
AcDbEntity
  8
0
  6
Continuous
 62
     7
100
AcDbLine
 10
-157.55028037
 20
-2.293457939999999
 30
0.0
 11
-157.55028037
 21
89.70654206000004
 31
0.0
  0
LINE
  5
46B
330
25E
100
AcDbEntity
  8
0
  6
Continuous
 62
     7
100
AcDbLine
 10
-160.05028037
 20
89.70654206000004
 30
0.0
 11
-160.05028037
 21
-2.293457939999999
 31
0.0
  0
LINE
  5
474
330
25E
100
AcDbEntity
  8
0
  6
Continuous
100
AcDbLine
 10
-160.5502803680622
 20
-2.293457938139754
 30
0.0
 11
-104.5502803719378
 21
-2.293457938139754
 31
0.0
  0
LINE
  5
475
330
25E
100
AcDbEntity
  8
0
  6
Continuous
100
AcDbLine
 10
-160.55028037
 20
-4.293457939999999
 30
0.0
 11
-104.55028037
 21
-4.293457939999999
 31
0.0
  0
CIRCLE
  5
48F
330
25E
100
AcDbEntity
  8
0
  6
Continuous
 62
     2
100
AcDbCircle
 10
-132.55028037
 20
46.70654206
 30
0.0
 40
10.47749996
  0
CIRCLE
  5
490
330
25E
100
AcDbEntity
  8
0
  6
Continuous
 62
     7
100
AcDbCircle
 10
-132.55028037
 20
46.70654206
 30
0.0
 40
9.31550026
  0
LINE
  5
494
330
25E
100
AcDbEntity
  8
0
  6
CENTER
 62
     2
100
AcDbLine
 10
-147.55028037
 20
14.70654206
 30
0.0
 11
-117.55028037
 21
14.70654206
 31
0.0
  0
CIRCLE
  5
495
330
25E
100
AcDbEntity
  8
0
  6
Continuous
 62
     2
100
AcDbCircle
 10
-132.55028037
 20
14.70654206
 30
0.0
 40
10.47749996
  0
CIRCLE
  5
496
330
25E
100
AcDbEntity
  8
0
  6
Continuous
 62
     7
100
AcDbCircle
 10
-132.55028037
 20
14.70654206
 30
0.0
 40
9.31550026
  0
ARC
  5
503
330
25E
100
AcDbEntity
  8
0
  6
Continuous
 62
     7
100
AcDbCircle
 10
197.44375631
 20
-9.299421259999999
 30
0.0
 40
1.994045589999999
100
AcDbArc
 50
179.82865302
 51
270.1713469800002
  0
ARC
  5
504
330
25E
100
AcDbEntity
  8
0
  6
Continuous
 62
     7
100
AcDbCircle
 10
195.44374813
 20
-4.299429439999999
 30
0.0
 40
2.005980389999999
100
AcDbArc
 50
0.1705610600000085
 51
89.8294389400003
  0
ARC
  5
505
330
25E
100
AcDbEntity
  8
0
  6
Continuous
 62
     7
100
AcDbCircle
 10
187.44971963
 20
-1.102373639999999
 30
0.0
 40
6.49627962
100
AcDbArc
 50
242.0980331300008
 51
297.9019668699992
  0
ARC
  5
506
330
25E
100
AcDbEntity
  8
0
  6
Continuous
 62
     7
100
AcDbCircle
 10
184.81233458
 20
-6.080532129999999
 30
0.0
 40
0.8626439599999999
100
AcDbArc
 50
179.53013572
 51
242.1782733000015
  0
ARC
  5
507
330
25E
100
AcDbEntity
  8
0
  6
Continuous
 62
     7
100
AcDbCircle
 10
190.08265777
 20
-6.07787553
 30
0.0
 40
0.8670731099999999
100
AcDbArc
 50
297.9996775200007
 51
0.2919134699999795
  0
LINE
  5
51D
330
25E
100
AcDbEntity
  8
0
  6
Continuous
 62
     7
100
AcDbLine
 10
210.94971963
 20
-11.29345794
 30
0.0
 11
210.94971963
 21
-9.293457939999999
 31
0.0
  0
LINE
  5
51E
330
25E
100
AcDbEntity
  8
0
  6
Continuous
 62
     7
100
AcDbLine
 10
185.94971963
 20
139.20654206
 30
0.0
 11
185.67971963
 21
140.20654206
 31
0.0
  0
LINE
  5
51F
330
25E
100
AcDbEntity
  8
0
  6
Continuous
 62
     7
100
AcDbLine
 10
148.94971963
 20
139.20654206
 30
0.0
 11
149.21971963
 21
140.20654206
 31
0.0
  0
LINE
  5
520
330
25E
100
AcDbEntity
  8
0
  6
Continuous
 62
     7
100
AcDbLine
 10
183.94971963
 20
-4.993457939999999
 30
0.0
 11
190.94971963
 21
-4.993457939999999
 31
0.0
  0
LINE
  5
521
330
25E
100
AcDbEntity
  8
0
  6
Continuous
 62
     7
100
AcDbLine
 10
190.94971963
 20
-6.073457939999999
 30
0.0
 11
190.94971963
 21
-4.293457939999999
 31
0.0
  0
LINE
  5
522
330
25E
100
AcDbEntity
  8
0
  6
Continuous
 62
     7
100
AcDbLine
 10
183.94971963
 20
-6.073457939999999
 30
0.0
 11
183.94971963
 21
-4.293457939999999
 31
0.0
  0
LINE
  5
523
330
25E
100
AcDbEntity
  8
0
  6
Continuous
 62
     7
100
AcDbLine
 10
197.44971963
 20
-9.293457939999999
 30
0.0
 11
220.94971963
 21
-9.293457939999999
 31
0.0
  0
LINE
  5
524
330
25E
100
AcDbEntity
  8
0
  6
Continuous
 62
     7
100
AcDbLine
 10
197.44971963
 20
-11.29345794
 30
0.0
 11
220.94971963
 21
-11.29345794
 31
0.0
  0
LINE
  5
525
330
25E
100
AcDbEntity
  8
0
  6
Continuous
 62
     7
100
AcDbLine
 10
220.94971963
 20
-11.29345794
 30
0.0
 11
220.94971963
 21
-9.293457939999999
 31
0.0
  0
LINE
  5
526
330
25E
100
AcDbEntity
  8
0
  6
Continuous
 62
     7
100
AcDbLine
 10
197.44971963
 20
-9.293457939999999
 30
0.0
 11
197.44971963
 21
-4.293457939999999
 31
0.0
  0
LINE
  5
527
330
25E
100
AcDbEntity
  8
0
  6
Continuous
 62
     7
100
AcDbLine
 10
195.44971963
 20
-9.293457939999999
 30
0.0
 11
195.44971963
 21
-4.293457939999999
 31
0.0
  0
LINE
  5
52A
330
25E
100
AcDbEntity
  8
0
  6
CENTER
 62
     2
100
AcDbLine
 10
152.44971963
 20
46.70654206
 30
0.0
 11
182.44971963
 21
46.70654206
 31
0.0
  0
LINE
  5
52B
330
25E
100
AcDbEntity
  8
0
  6
Continuous
 62
     7
100
AcDbLine
 10
139.94971963
 20
64.50654206
 30
0.0
 11
194.94971963
 21
64.50654205999999
 31
0.0
  0
LINE
  5
52D
330
25E
100
AcDbEntity
  8
0
  6
Continuous
 62
     7
100
AcDbLine
 10
188.44971963
 20
139.20654206
 30
0.0
 11
146.44971963
 21
139.20654206
 31
0.0
  0
LINE
  5
52F
330
25E
100
AcDbEntity
  8
0
  6
Continuous
 62
     7
100
AcDbLine
 10
185.94971963
 20
89.70654206000002
 30
0.0
 11
185.94971963
 21
139.20654206
 31
0.0
  0
LINE
  5
530
330
25E
100
AcDbEntity
  8
0
  6
Continuous
 62
     7
100
AcDbLine
 10
148.94971963
 20
89.70654205999995
 30
0.0
 11
148.94971963
 21
139.20654206
 31
0.0
  0
LINE
  5
531
330
25E
100
AcDbEntity
  8
0
  6
Continuous
 62
     7
100
AcDbLine
 10
146.44971963
 20
139.20654206
 30
0.0
 11
147.44971963
 21
140.20654206
 31
0.0
  0
LINE
  5
532
330
25E
100
AcDbEntity
  8
0
  6
Continuous
 62
     7
100
AcDbLine
 10
187.44971963
 20
140.20654206
 30
0.0
 11
188.44971963
 21
139.20654206
 31
0.0
  0
LINE
  5
533
330
25E
100
AcDbEntity
  8
0
  6
Continuous
 62
     7
100
AcDbLine
 10
188.44971963
 20
139.20654206
 30
0.0
 11
188.44971963
 21
89.70654206000002
 31
0.0
  0
LINE
  5
534
330
25E
100
AcDbEntity
  8
0
  6
Continuous
 62
     7
100
AcDbLine
 10
147.44971963
 20
140.20654206
 30
0.0
 11
187.44971963
 21
140.20654206
 31
0.0
  0
LINE
  5
535
330
25E
100
AcDbEntity
  8
0
  6
Continuous
 62
     7
100
AcDbLine
 10
146.44971963
 20
89.70654205999995
 30
0.0
 11
146.44971963
 21
139.20654206
 31
0.0
  0
LINE
  5
54F
330
25E
100
AcDbEntity
  8
0
  6
DASHED
 62
     2
100
AcDbLine
 10
212.69971963
 20
-9.293457939999999
 30
0.0
 11
212.69971963
 21
-11.29345794
 31
0.0
  0
LINE
  5
550
330
25E
100
AcDbEntity
  8
0
  6
CENTER
 62
     2
100
AcDbLine
 10
209.94971963
 20
-6.293457939999999
 30
0.0
 11
209.94971963
 21
-13.29345794
 31
0.0
  0
LINE
  5
551
330
25E
100
AcDbEntity
  8
0
  6
DASHED
 62
     2
100
AcDbLine
 10
207.19971963
 20
-9.293457939999999
 30
0.0
 11
207.19971963
 21
-11.29345794
 31
0.0
  0
LINE
  5
552
330
25E
100
AcDbEntity
  8
0
  6
Continuous
 62
     7
100
AcDbLine
 10
192.44971963
 20
-2.293457939999999
 30
0.0
 11
192.44971963
 21
89.70654206000004
 31
0.0
  0
LINE
  5
553
330
25E
100
AcDbEntity
  8
0
  6
Continuous
 62
     7
100
AcDbLine
 10
194.94971963
 20
89.70654206000004
 30
0.0
 11
194.94971963
 21
-2.293457939999999
 31
0.0
  0
LINE
  5
554
330
25E
100
AcDbEntity
  8
0
  6
Continuous
 62
     7
100
AcDbLine
 10
139.9601169671393
 20
89.70654205999993
 30
0.0
 11
194.94971963
 21
89.70654206000004
 31
0.0
  0
ARC
  5
555
330
25E
100
AcDbEntity
  8
0
  6
Continuous
 62
     7
100
AcDbCircle
 10
137.45568295
 20
-9.299421259999999
 30
0.0
 40
1.994045589999999
100
AcDbArc
 50
269.8286530199998
 51
0.1713469799999833
  0
ARC
  5
556
330
25E
100
AcDbEntity
  8
0
  6
Continuous
 62
     7
100
AcDbCircle
 10
139.45569113
 20
-4.299429439999999
 30
0.0
 40
2.005980389999999
100
AcDbArc
 50
90.17056105999969
 51
179.82943894
  0
ARC
  5
557
330
25E
100
AcDbEntity
  8
0
  6
Continuous
 62
     7
100
AcDbCircle
 10
147.44971963
 20
-1.102373639999999
 30
0.0
 40
6.49627962
100
AcDbArc
 50
242.0980331300011
 51
297.901966869999
  0
ARC
  5
558
330
25E
100
AcDbEntity
  8
0
  6
Continuous
 62
     7
100
AcDbCircle
 10
150.08710468
 20
-6.080532129999999
 30
0.0
 40
0.8626439599999999
100
AcDbArc
 50
297.8217266999982
 51
0.4698642800000012
  0
ARC
  5
559
330
25E
100
AcDbEntity
  8
0
  6
Continuous
 62
     7
100
AcDbCircle
 10
144.81678149
 20
-6.07787553
 30
0.0
 40
0.8670731099999999
100
AcDbArc
 50
179.70808653
 51
242.000322479999
  0
LINE
  5
55A
330
25E
100
AcDbEntity
  8
0
  6
Continuous
 62
     7
100
AcDbLine
 10
123.94971963
 20
-11.29345794
 30
0.0
 11
123.94971963
 21
-9.293457939999999
 31
0.0
  0
LINE
  5
55B
330
25E
100
AcDbEntity
  8
0
  6
Continuous
 62
     7
100
AcDbLine
 10
150.94971963
 20
-4.993457939999999
 30
0.0
 11
143.94971963
 21
-4.993457939999999
 31
0.0
  0
LINE
  5
55C
330
25E
100
AcDbEntity
  8
0
  6
Continuous
 62
     7
100
AcDbLine
 10
143.94971963
 20
-6.073457939999999
 30
0.0
 11
143.94971963
 21
-4.293457939999999
 31
0.0
  0
LINE
  5
55D
330
25E
100
AcDbEntity
  8
0
  6
Continuous
 62
     7
100
AcDbLine
 10
150.94971963
 20
-6.073457939999999
 30
0.0
 11
150.94971963
 21
-4.293457939999999
 31
0.0
  0
LINE
  5
55E
330
25E
100
AcDbEntity
  8
0
  6
Continuous
 62
     7
100
AcDbLine
 10
137.44971963
 20
-9.293457939999999
 30
0.0
 11
113.94971963
 21
-9.293457939999999
 31
0.0
  0
LINE
  5
55F
330
25E
100
AcDbEntity
  8
0
  6
Continuous
 62
     7
100
AcDbLine
 10
137.44971963
 20
-11.29345794
 30
0.0
 11
113.94971963
 21
-11.29345794
 31
0.0
  0
LINE
  5
560
330
25E
100
AcDbEntity
  8
0
  6
Continuous
 62
     7
100
AcDbLine
 10
113.94971963
 20
-11.29345794
 30
0.0
 11
113.94971963
 21
-9.293457939999999
 31
0.0
  0
LINE
  5
561
330
25E
100
AcDbEntity
  8
0
  6
Continuous
 62
     7
100
AcDbLine
 10
137.44971963
 20
-9.293457939999999
 30
0.0
 11
137.44971963
 21
-4.293457939999999
 31
0.0
  0
LINE
  5
562
330
25E
100
AcDbEntity
  8
0
  6
Continuous
 62
     7
100
AcDbLine
 10
139.44971963
 20
-9.293457939999999
 30
0.0
 11
139.44971963
 21
-4.293457939999999
 31
0.0
  0
LINE
  5
563
330
25E
100
AcDbEntity
  8
0
  6
DASHED
 62
     2
100
AcDbLine
 10
122.19971963
 20
-9.293457939999999
 30
0.0
 11
122.19971963
 21
-11.29345794
 31
0.0
  0
LINE
  5
564
330
25E
100
AcDbEntity
  8
0
  6
CENTER
 62
     2
100
AcDbLine
 10
124.94971963
 20
-6.293457939999999
 30
0.0
 11
124.94971963
 21
-13.29345794
 31
0.0
  0
LINE
  5
565
330
25E
100
AcDbEntity
  8
0
  6
DASHED
 62
     2
100
AcDbLine
 10
127.69971963
 20
-9.293457939999999
 30
0.0
 11
127.69971963
 21
-11.29345794
 31
0.0
  0
LINE
  5
566
330
25E
100
AcDbEntity
  8
0
  6
Continuous
 62
     7
100
AcDbLine
 10
142.44971963
 20
-2.293457939999999
 30
0.0
 11
142.44971963
 21
89.70654206000004
 31
0.0
  0
LINE
  5
567
330
25E
100
AcDbEntity
  8
0
  6
Continuous
 62
     7
100
AcDbLine
 10
139.94971963
 20
89.70654206000004
 30
0.0
 11
139.94971963
 21
-2.293457939999999
 31
0.0
  0
LINE
  5
568
330
25E
100
AcDbEntity
  8
0
  6
Continuous
100
AcDbLine
 10
139.4497196319378
 20
-2.293457938139754
 30
0.0
 11
195.4497196280622
 21
-2.293457938139754
 31
0.0
  0
LINE
  5
569
330
25E
100
AcDbEntity
  8
0
  6
Continuous
100
AcDbLine
 10
139.44971963
 20
-4.293457939999999
 30
0.0
 11
195.44971963
 21
-4.293457939999999
 31
0.0
  0
CIRCLE
  5
56A
330
25E
100
AcDbEntity
  8
0
  6
Continuous
 62
     2
100
AcDbCircle
 10
167.44971963
 20
46.70654206
 30
0.0
 40
10.47749996
  0
CIRCLE
  5
56B
330
25E
100
AcDbEntity
  8
0
  6
Continuous
 62
     7
100
AcDbCircle
 10
167.44971963
 20
46.70654206
 30
0.0
 40
9.31550026
  0
LINE
  5
56F
330
25E
100
AcDbEntity
  8
0
  6
CENTER
 62
     2
100
AcDbLine
 10
167.44971963
 20
166.19654206
 30
0.0
 11
167.44971963
 21
-13.28345794
 31
0.0
  0
ARC
  5
570
330
25E
100
AcDbEntity
  8
0
  6
Continuous
 62
     7
100
AcDbCircle
 10
159.23317168
 20
153.60485464
 30
0.0
 40
4.855752299999999
100
AcDbArc
 50
104.4715893199998
 51
115.8010175400002
  0
ARC
  5
571
330
25E
100
AcDbEntity
  8
0
  6
Continuous
 62
     7
100
AcDbCircle
 10
175.6875330899999
 20
153.60535245
 30
0.0
 40
4.853864139999999
100
AcDbArc
 50
104.4086107099992
 51
124.4792988499997
  0
ARC
  5
572
330
25E
100
AcDbEntity
  8
0
  6
Continuous
 62
     7
100
AcDbCircle
 10
159.22816664
 20
153.60203187
 30
0.0
 40
4.8530624
100
AcDbArc
 50
55.60382216000061
 51
75.78707931000025
  0
ARC
  5
573
330
25E
100
AcDbEntity
  8
0
  6
Continuous
 62
     7
100
AcDbCircle
 10
167.45471963
 20
140.30713898
 30
0.0
 40
18.14812861
100
AcDbArc
 50
72.4081068699997
 51
107.5918931300003
  0
ARC
  5
574
330
25E
100
AcDbEntity
  8
0
  6
Continuous
 62
     7
100
AcDbCircle
 10
175.66732028
 20
153.60772564
 30
0.0
 40
4.852709339999999
100
AcDbArc
 50
64.1954186799995
 51
75.53197445999983
  0
LINE
  5
575
330
25E
100
AcDbEntity
  8
0
  6
Continuous
 62
     7
100
AcDbLine
 10
176.07971963
 20
152.95654206
 30
0.0
 11
176.07971963
 21
148.45654206
 31
0.0
  0
LINE
  5
576
330
25E
100
AcDbEntity
  8
0
  6
Continuous
 62
     7
100
AcDbLine
 10
158.81971963
 20
152.95654206
 30
0.0
 11
158.81971963
 21
148.45654206
 31
0.0
  0
LINE
  5
577
330
25E
100
AcDbEntity
  8
0
  6
Continuous
 62
     2
100
AcDbLine
 10
158.14971963
 20
152.95654206
 30
0.0
 11
158.14971963
 21
148.45654206
 31
0.0
  0
LINE
  5
578
330
25E
100
AcDbEntity
  8
0
  6
Continuous
 62
     2
100
AcDbLine
 10
176.74971963
 20
152.95654206
 30
0.0
 11
176.74971963
 21
148.45654206
 31
0.0
  0
LINE
  5
579
330
25E
100
AcDbEntity
  8
0
  6
Continuous
 62
     7
100
AcDbLine
 10
156.4797196299999
 20
152.95654206
 30
0.0
 11
178.41971963
 21
152.95654206
 31
0.0
  0
LINE
  5
57A
330
25E
100
AcDbEntity
  8
0
  6
Continuous
 62
     7
100
AcDbLine
 10
176.87971963
 20
152.95654206
 30
0.0
 11
176.87971963
 21
158.45654206
 31
0.0
  0
LINE
  5
57B
330
25E
100
AcDbEntity
  8
0
  6
Continuous
 62
     7
100
AcDbLine
 10
174.4797196299999
 20
152.95654206
 30
0.0
 11
174.4797196299999
 21
158.45654206
 31
0.0
  0
LINE
  5
57C
330
25E
100
AcDbEntity
  8
0
  6
Continuous
 62
     7
100
AcDbLine
 10
160.41971963
 20
152.95654206
 30
0.0
 11
160.41971963
 21
158.45654206
 31
0.0
  0
LINE
  5
57D
330
25E
100
AcDbEntity
  8
0
  6
Continuous
 62
     7
100
AcDbLine
 10
158.01971963
 20
152.95654206
 30
0.0
 11
158.01971963
 21
158.45654206
 31
0.0
  0
LINE
  5
57E
330
25E
100
AcDbEntity
  8
0
  6
Continuous
 62
     7
100
AcDbLine
 10
169.84971963
 20
152.95654206
 30
0.0
 11
169.84971963
 21
158.29654206
 31
0.0
  0
LINE
  5
57F
330
25E
100
AcDbEntity
  8
0
  6
Continuous
 62
     7
100
AcDbLine
 10
165.04971963
 20
152.95654206
 30
0.0
 11
165.04971963
 21
158.29654206
 31
0.0
  0
LINE
  5
580
330
25E
100
AcDbEntity
  8
0
  6
Continuous
 62
     7
100
AcDbLine
 10
157.94971963
 20
158.45654206
 30
0.0
 11
156.4797196299999
 21
157.60654206
 31
0.0
  0
LINE
  5
581
330
25E
100
AcDbEntity
  8
0
  6
Continuous
 62
     7
100
AcDbLine
 10
157.94971963
 20
158.45654206
 30
0.0
 11
176.94971963
 21
158.45654206
 31
0.0
  0
LINE
  5
582
330
25E
100
AcDbEntity
  8
0
  6
Continuous
 62
     7
100
AcDbLine
 10
176.94971963
 20
158.45654206
 30
0.0
 11
178.41971963
 21
157.60654206
 31
0.0
  0
LINE
  5
583
330
25E
100
AcDbEntity
  8
0
  6
Continuous
 62
     7
100
AcDbLine
 10
178.41971963
 20
152.95654206
 30
0.0
 11
178.41971963
 21
157.60654206
 31
0.0
  0
LINE
  5
584
330
25E
100
AcDbEntity
  8
0
  6
Continuous
 62
     7
100
AcDbLine
 10
172.93971963
 20
152.95654206
 30
0.0
 11
172.93971963
 21
157.60654206
 31
0.0
  0
LINE
  5
585
330
25E
100
AcDbEntity
  8
0
  6
Continuous
 62
     7
100
AcDbLine
 10
161.96971963
 20
152.95654206
 30
0.0
 11
161.96971963
 21
157.60654206
 31
0.0
  0
LINE
  5
586
330
25E
100
AcDbEntity
  8
0
  6
Continuous
 62
     7
100
AcDbLine
 10
156.4797196299999
 20
152.95654206
 30
0.0
 11
156.4797196299999
 21
157.60654206
 31
0.0
  0
LINE
  5
587
330
25E
100
AcDbEntity
  8
0
  6
Continuous
 62
     7
100
AcDbLine
 10
156.19971963
 20
148.45654206
 30
0.0
 11
178.69971963
 21
148.45654206
 31
0.0
  0
LINE
  5
588
330
25E
100
AcDbEntity
  8
0
  6
Continuous
 62
     7
100
AcDbLine
 10
178.69971963
 20
148.45654206
 30
0.0
 11
178.69971963
 21
140.20654206
 31
0.0
  0
LINE
  5
589
330
25E
100
AcDbEntity
  8
0
  6
Continuous
 62
     7
100
AcDbLine
 10
156.19971963
 20
148.45654206
 30
0.0
 11
156.19971963
 21
140.20654206
 31
0.0
  0
LINE
  5
58C
330
25E
100
AcDbEntity
  8
0
  6
Continuous
 62
     7
100
AcDbLine
 10
-16.34028036999999
 20
64.50654205813975
 30
0.0
 11
63.65971962999998
 21
64.50654205813974
 31
0.0
  0
LINE
  5
58D
330
25E
100
AcDbEntity
  8
0
  6
Continuous
 62
     7
100
AcDbLine
 10
-16.34028036999999
 20
89.70654205813968
 30
0.0
 11
63.65971962999999
 21
89.70654205813982
 31
0.0
  0
LINE
  5
58E
330
25E
100
AcDbEntity
  8
0
  6
Continuous
 62
     7
100
AcDbLine
 10
-13.84028037
 20
89.70654205813969
 30
0.0
 11
-13.84028037
 21
-2.293457939999999
 31
0.0
  0
LINE
  5
58F
330
25E
100
AcDbEntity
  8
0
  6
Continuous
 62
     7
100
AcDbLine
 10
-16.34028036999999
 20
89.70654205813968
 30
0.0
 11
-16.34028036999999
 21
-11.29345794
 31
0.0
  0
LINE
  5
592
330
25E
100
AcDbEntity
  8
0
  6
Continuous
 62
     7
100
AcDbLine
 10
61.15971963
 20
89.70654205813969
 30
0.0
 11
61.15971962999998
 21
-2.293457940000003
 31
0.0
  0
LINE
  5
593
330
25E
100
AcDbEntity
  8
0
  6
Continuous
 62
     7
100
AcDbLine
 10
63.65971962999999
 20
89.70654205813982
 30
0.0
 11
63.65971962999997
 21
-11.29345794
 31
0.0
  0
LINE
  5
594
330
25E
100
AcDbEntity
  8
0
  6
Continuous
 62
     7
100
AcDbLine
 10
53.65971962999999
 20
139.20654206
 30
0.0
 11
53.65971963000001
 21
89.70654205813969
 31
0.0
  0
LINE
  5
595
330
25E
100
AcDbEntity
  8
0
  6
Continuous
 62
     7
100
AcDbLine
 10
56.15971962999999
 20
139.20654206
 30
0.0
 11
56.15971963000001
 21
89.70654205813969
 31
0.0
  0
LINE
  5
597
330
25E
100
AcDbEntity
  8
0
  6
CENTER
 62
     2
100
AcDbLine
 10
-31.34028037
 20
46.70654205813976
 30
0.0
 11
-1.340280370000002
 21
46.70654205813976
 31
0.0
  0
LINE
  5
598
330
25E
100
AcDbEntity
  8
0
  6
CENTER
 62
     2
100
AcDbLine
 10
-31.34028037
 20
14.70654205813976
 30
0.0
 11
-1.340280370000002
 21
14.70654205813976
 31
0.0
  0
LINE
  5
599
330
25E
100
AcDbEntity
  8
0
  6
CENTER
 62
     2
100
AcDbLine
 10
48.65971962999997
 20
46.70654205813977
 30
0.0
 11
78.65971962999997
 21
46.70654205813977
 31
0.0
  0
LINE
  5
59A
330
25E
100
AcDbEntity
  8
0
  6
Continuous
 62
     7
100
AcDbLine
 10
-110.92393477
 20
-102.40980354
 30
0.0
 11
-114.17662597
 21
-99.15711233999999
 31
0.0
  0
LINE
  5
59B
330
25E
100
AcDbEntity
  8
0
  6
Continuous
 62
     7
100
AcDbLine
 10
-110.92393477
 20
-99.15711233999999
 30
0.0
 11
-114.17662597
 21
-102.40980354
 31
0.0
  0
CIRCLE
  5
5A1
330
25E
100
AcDbEntity
  8
0
  6
Continuous
 62
     7
100
AcDbCircle
 10
-112.55915549
 20
-165.78324554
 30
0.0
 40
3.5
  0
LINE
  5
5A2
330
25E
100
AcDbEntity
  8
0
  6
CENTER
 62
     2
100
AcDbLine
 10
-107.55028037
 20
-165.78345794
 30
0.0
 11
-117.55028037
 21
-165.78345794
 31
0.0
  0
LINE
  5
5A3
330
25E
100
AcDbEntity
  8
0
  6
CENTER
 62
     2
100
AcDbLine
 10
-112.55028037
 20
-160.78345794
 30
0.0
 11
-112.55028037
 21
-170.78345794
 31
0.0
  0
LINE
  5
5A4
330
25E
100
AcDbEntity
  8
0
  6
Continuous
 62
     7
100
AcDbLine
 10
-87.55028037
 20
-173.28345794
 30
0.0
 11
-177.55028037
 21
-173.28345794
 31
0.0
  0
LINE
  5
5A5
330
25E
100
AcDbEntity
  8
0
  6
Continuous
 62
     7
100
AcDbLine
 10
-110.92393477
 20
-164.15711234
 30
0.0
 11
-114.17662597
 21
-167.40980354
 31
0.0
  0
LINE
  5
5A6
330
25E
100
AcDbEntity
  8
0
  6
Continuous
 62
     7
100
AcDbLine
 10
-110.92393477
 20
-167.40980354
 30
0.0
 11
-114.17662597
 21
-164.15711234
 31
0.0
  0
LINE
  5
5AA
330
25E
100
AcDbEntity
  8
0
  6
Continuous
 62
     7
100
AcDbLine
 10
-87.55028037
 20
-93.28345794
 30
0.0
 11
-82.55028037
 21
-98.28345794
 31
0.0
  0
LINE
  5
5AB
330
25E
100
AcDbEntity
  8
0
  6
Continuous
 62
     7
100
AcDbLine
 10
-82.55028037
 20
-168.28345794
 30
0.0
 11
-87.55028037
 21
-173.28345794
 31
0.0
  0
LINE
  5
5AC
330
25E
100
AcDbEntity
  8
0
  6
CENTER
 62
     2
100
AcDbLine
 10
-85.05028037
 20
-100.78345794
 30
0.0
 11
-95.05028037
 21
-100.78345794
 31
0.0
  0
LINE
  5
5AD
330
25E
100
AcDbEntity
  8
0
  6
CENTER
 62
     2
100
AcDbLine
 10
-90.05028037
 20
-161.28345794
 30
0.0
 11
-90.05028037
 21
-170.28345794
 31
0.0
  0
LINE
  5
5AF
330
25E
100
AcDbEntity
  8
0
  6
CENTER
 62
     2
100
AcDbLine
 10
-85.05028037
 20
-165.78345794
 30
0.0
 11
-95.05028037
 21
-165.78345794
 31
0.0
  0
CIRCLE
  5
5B0
330
25E
100
AcDbEntity
  8
0
  6
Continuous
 62
     7
100
AcDbCircle
 10
-152.54140525
 20
-100.78367034
 30
0.0
 40
3.5
  0
LINE
  5
5B1
330
25E
100
AcDbEntity
  8
0
  6
Continuous
 62
     7
100
AcDbLine
 10
-160.55028037
 20
-93.28345794
 30
0.0
 11
-160.55028037
 21
-173.28345794
 31
0.0
  0
LINE
  5
5B2
330
25E
100
AcDbEntity
  8
0
  6
CENTER
 62
     2
100
AcDbLine
 10
-157.55028037
 20
-100.78345794
 30
0.0
 11
-147.55028037
 21
-100.78345794
 31
0.0
  0
LINE
  5
5B3
330
25E
100
AcDbEntity
  8
0
  6
CENTER
 62
     2
100
AcDbLine
 10
-152.55028037
 20
-105.78345794
 30
0.0
 11
-152.55028037
 21
-95.78345794
 31
0.0
  0
LINE
  5
5B4
330
25E
100
AcDbEntity
  8
0
  6
CENTER
 62
     2
100
AcDbLine
 10
-175.05028037
 20
-105.28345794
 30
0.0
 11
-175.05028037
 21
-96.28345794000001
 31
0.0
  0
LINE
  5
5B5
330
25E
100
AcDbEntity
  8
0
  6
Continuous
 62
     7
100
AcDbLine
 10
-182.55028037
 20
-98.28345794
 30
0.0
 11
-182.55028037
 21
-168.28345794
 31
0.0
  0
LINE
  5
5B6
330
25E
100
AcDbEntity
  8
0
  6
Continuous
 62
     7
100
AcDbLine
 10
-177.55028037
 20
-93.28345794
 30
0.0
 11
-182.55028037
 21
-98.28345794
 31
0.0
  0
LINE
  5
5B8
330
25E
100
AcDbEntity
  8
0
  6
Continuous
 62
     7
100
AcDbLine
 10
-154.17662597
 20
-102.40980354
 30
0.0
 11
-150.92393477
 21
-99.15711233999999
 31
0.0
  0
LINE
  5
5B9
330
25E
100
AcDbEntity
  8
0
  6
Continuous
 62
     7
100
AcDbLine
 10
-154.17662597
 20
-99.15711233999999
 30
0.0
 11
-150.92393477
 21
-102.40980354
 31
0.0
  0
CIRCLE
  5
5BA
330
25E
100
AcDbEntity
  8
0
  6
Continuous
 62
     7
100
AcDbCircle
 10
-152.54140525
 20
-165.78324554
 30
0.0
 40
3.5
  0
LINE
  5
5BB
330
25E
100
AcDbEntity
  8
0
  6
CENTER
 62
     2
100
AcDbLine
 10
-157.55028037
 20
-165.78345794
 30
0.0
 11
-147.55028037
 21
-165.78345794
 31
0.0
  0
LINE
  5
5BC
330
25E
100
AcDbEntity
  8
0
  6
CENTER
 62
     2
100
AcDbLine
 10
-152.55028037
 20
-160.78345794
 30
0.0
 11
-152.55028037
 21
-170.78345794
 31
0.0
  0
LINE
  5
5BD
330
25E
100
AcDbEntity
  8
0
  6
Continuous
 62
     7
100
AcDbLine
 10
-182.55028037
 20
-168.28345794
 30
0.0
 11
-177.55028037
 21
-173.28345794
 31
0.0
  0
LINE
  5
5BE
330
25E
100
AcDbEntity
  8
0
  6
Continuous
 62
     7
100
AcDbLine
 10
-154.17662597
 20
-164.15711234
 30
0.0
 11
-150.92393477
 21
-167.40980354
 31
0.0
  0
LINE
  5
5BF
330
25E
100
AcDbEntity
  8
0
  6
Continuous
 62
     7
100
AcDbLine
 10
-154.17662597
 20
-167.40980354
 30
0.0
 11
-150.92393477
 21
-164.15711234
 31
0.0
  0
LINE
  5
5C0
330
25E
100
AcDbEntity
  8
0
  6
CENTER
 62
     2
100
AcDbLine
 10
-180.05028037
 20
-100.78345794
 30
0.0
 11
-170.05028037
 21
-100.78345794
 31
0.0
  0
LINE
  5
5C1
330
25E
100
AcDbEntity
  8
0
  6
CENTER
 62
     2
100
AcDbLine
 10
-175.05028037
 20
-161.28345794
 30
0.0
 11
-175.05028037
 21
-170.28345794
 31
0.0
  0
LINE
  5
5C3
330
25E
100
AcDbEntity
  8
0
  6
CENTER
 62
     2
100
AcDbLine
 10
-180.05028037
 20
-165.78345794
 30
0.0
 11
-170.05028037
 21
-165.78345794
 31
0.0
  0
CIRCLE
  5
5D8
330
25E
100
AcDbEntity
  8
0
  6
Continuous
100
AcDbCircle
 10
-90.05028037
 20
-100.78345794
 30
0.0
 40
2.75
  0
CIRCLE
  5
5D9
330
25E
100
AcDbEntity
  8
0
  6
Continuous
100
AcDbCircle
 10
-175.05028037
 20
-100.78345794
 30
0.0
 40
2.75
  0
CIRCLE
  5
5DA
330
25E
100
AcDbEntity
  8
0
  6
Continuous
100
AcDbCircle
 10
-175.05028037
 20
-165.78345794
 30
0.0
 40
2.75
  0
CIRCLE
  5
5DB
330
25E
100
AcDbEntity
  8
0
  6
Continuous
100
AcDbCircle
 10
-90.05028037
 20
-165.78345794
 30
0.0
 40
2.75
  0
LINE
  5
5DD
330
25E
100
AcDbEntity
  8
0
  6
DASHED
 62
     2
100
AcDbLine
 10
-11.59028036999999
 20
-9.293457939999999
 30
0.0
 11
-11.59028036999999
 21
-11.29345794
 31
0.0
  0
LINE
  5
5DE
330
25E
100
AcDbEntity
  8
0
  6
CENTER
 62
     2
100
AcDbLine
 10
-8.840280369999987
 20
-6.293457939999999
 30
0.0
 11
-8.840280369999987
 21
-13.29345794
 31
0.0
  0
LINE
  5
5DF
330
25E
100
AcDbEntity
  8
0
  6
DASHED
 62
     2
100
AcDbLine
 10
-6.090280369999987
 20
-9.293457939999999
 30
0.0
 11
-6.090280369999987
 21
-11.29345794
 31
0.0
  0
LINE
  5
5E0
330
25E
100
AcDbEntity
  8
0
  6
DASHED
 62
     2
100
AcDbLine
 10
53.40971963000001
 20
-9.293457939999999
 30
0.0
 11
53.40971963000001
 21
-11.29345794
 31
0.0
  0
LINE
  5
5E1
330
25E
100
AcDbEntity
  8
0
  6
CENTER
 62
     2
100
AcDbLine
 10
56.15971963000001
 20
-6.293457939999999
 30
0.0
 11
56.15971963000001
 21
-13.29345794
 31
0.0
  0
LINE
  5
5E2
330
25E
100
AcDbEntity
  8
0
  6
DASHED
 62
     2
100
AcDbLine
 10
58.90971963000001
 20
-9.293457939999999
 30
0.0
 11
58.90971963000001
 21
-11.29345794
 31
0.0
  0
VIEWPORT
  5
273
102
{ACAD_XDICTIONARY
360
5F3
102
}
330
25A
100
AcDbEntity
 67
     1
  8
0
  6
Continuous
100
AcDbViewport
 10
5.655416053111158
 20
3.94208322359821
 30
0.0
 40
13.59896860961993
 41
8.746133096049151
 68
     1
 69
     1
 12
5.655416053111158
 22
3.94208322359821
 13
0.0
 23
0.0
 14
10.0
 24
10.0
 15
10.0
 25
10.0
 16
0.0
 26
0.0
 36
1.0
 17
0.0
 27
0.0
 37
0.0
 42
50.0
 43
0.0
 44
0.0
 45
8.746133096049151
 50
0.0
 51
0.0
 72
   100
 90
    32800
  1

281
     0
 71
     1
 74
     0
110
0.0
120
0.0
130
0.0
111
1.0
121
0.0
131
0.0
112
0.0
122
1.0
132
0.0
 79
     0
146
0.0
  0
VIEWPORT
  5
276
102
{ACAD_XDICTIONARY
360
5F5
102
}
330
25A
100
AcDbEntity
 67
     1
  8
0
  6
Continuous
100
AcDbViewport
 10
5.653750051663616
 20
3.94041662141094
 30
0.0
 40
9.046000082661784
 41
6.304666594257505
 68
     2
 69
     2
 12
1.334464090000039
 22
0.25
 13
0.0
 23
0.0
 14
1.0
 24
1.0
 15
0.0
 25
0.0
 16
0.0
 26
0.0
 36
1.0
 17
0.0
 27
0.0
 37
0.0
 42
50.0
 43
0.0
 44
0.0
 45
396.7837353843578
 50
0.0
 51
0.0
 72
   100
 90
    32800
  1

281
     0
 71
     1
 74
     0
110
0.0
120
0.0
130
0.0
111
1.0
121
0.0
131
0.0
112
0.0
122
1.0
132
0.0
 79
     0
146
0.0
  0
ENDSEC
  0
SECTION
  2
OBJECTS
  0
DICTIONARY
  5
248
330
0
100
AcDbDictionary
281
     1
  3
ACAD_COLOR
350
257
  3
ACAD_GROUP
350
249
  3
ACAD_LAYOUT
350
255
  3
ACAD_MATERIAL
350
256
  3
ACAD_MLINESTYLE
350
252
  3
ACAD_PLOTSETTINGS
350
254
  3
ACAD_PLOTSTYLENAME
350
24A
  3
ACAD_TABLESTYLE
350
258
  3
ACDBHEADERROUNDTRIPXREC
350
5EF
  3
AcDbVariableDictionary
350
441
  3
DWGPROPS
350
5EE
  0
DICTIONARY
  5
27A
330
23E
100
AcDbDictionary
280
     1
281
     1
  3
ACAD_LAYERSTATES
360
27B
  0
DICTIONARY
  5
2E4
330
25E
100
AcDbDictionary
280
     1
281
     1
  3
ACAD_SORTENTS
360
2E5
  0
DICTIONARY
  5
5F3
330
273
100
AcDbDictionary
280
     1
281
     1
  3
ACAD_XREC_ROUNDTRIP
360
5F4
  0
DICTIONARY
  5
5F5
330
276
100
AcDbDictionary
280
     1
281
     1
  3
ACAD_XREC_ROUNDTRIP
360
5F6
  0
DICTIONARY
  5
257
102
{ACAD_REACTORS
330
248
102
}
330
248
100
AcDbDictionary
281
     1
  0
DICTIONARY
  5
249
102
{ACAD_REACTORS
330
248
102
}
330
248
100
AcDbDictionary
281
     1
  0
DICTIONARY
  5
255
102
{ACAD_REACTORS
330
248
102
}
330
248
100
AcDbDictionary
281
     1
  3
Model
350
261
  3
レイアウト1
350
25D
  0
DICTIONARY
  5
256
102
{ACAD_REACTORS
330
248
102
}
330
248
100
AcDbDictionary
281
     1
  0
DICTIONARY
  5
252
102
{ACAD_REACTORS
330
248
102
}
330
248
100
AcDbDictionary
281
     1
  3
Standard
350
253
  0
DICTIONARY
  5
254
102
{ACAD_REACTORS
330
248
102
}
330
248
100
AcDbDictionary
281
     1
  0
ACDBDICTIONARYWDFLT
  5
24A
102
{ACAD_REACTORS
330
248
102
}
330
248
100
AcDbDictionary
281
     1
  3
Normal
350
24B
100
AcDbDictionaryWithDefault
340
24B
  0
DICTIONARY
  5
258
102
{ACAD_REACTORS
330
248
102
}
330
248
100
AcDbDictionary
281
     1
  3
Standard
350
259
  0
DICTIONARY
  5
5EF
102
{ACAD_REACTORS
330
248
102
}
330
248
100
AcDbDictionary
281
     1
  0
DICTIONARY
  5
441
102
{ACAD_REACTORS
330
248
102
}
330
248
100
AcDbDictionary
281
     1
  3
CTABLESTYLE
350
442
  3
DIMASSOC
350
477
  3
PROJECTNAME
350
478
  0
XRECORD
  5
5EE
102
{ACAD_REACTORS
330
248
102
}
330
248
100
AcDbXrecord
280
     1
  1
DWGPROPS COOKIE
  2

  3

  4

  6

  7

  8

  9

300
=
301
=
302
=
303
=
304
=
305
=
306
=
307
=
308
=
309
=
 40
0.0889950925925926
 41
2452754.618263889
 42
2454190.488007975
  1

 90
        0
  0
DICTIONARY
  5
27B
102
{ACAD_REACTORS
330
27A
102
}
330
27A
100
AcDbDictionary
281
     1
  0
SORTENTSTABLE
  5
2E5
102
{ACAD_REACTORS
330
2E4
102
}
330
2E4
100
AcDbSortentsTable
330
25E
331
330
  5
3DC
331
352
  5
3FE
331
280
  5
32E
331
554
  5
556
331
2F9
  5
3A5
331
2D7
  5
385
331
2A2
  5
350
331
576
  5
578
331
465
  5
467
331
598
  5
59A
331
217
  5
43B
331
341
  5
3ED
331
21A
  5
43E
331
291
  5
33F
331
363
  5
40F
331
507
  5
51E
331
2C6
  5
374
331
2B3
  5
361
331
40E
  5
2FD
331
565
  5
567
331
30A
  5
3B6
331
587
  5
589
331
3FD
  5
2EC
331
3EC
  5
2D9
331
350
  5
3FC
331
552
  5
554
331
319
  5
3C8
331
2D5
  5
383
331
2A0
  5
34E
331
574
  5
576
331
463
  5
465
331
215
  5
439
331
33F
  5
3EB
331
42E
  5
326
331
218
  5
43C
331
28F
  5
33D
331
361
  5
40E
331
527
  5
52B
331
505
  5
507
331
2C4
  5
372
331
2B1
  5
35F
331
40C
  5
2FB
331
563
  5
565
331
308
  5
3B4
331
3EA
  5
2D7
331
585
  5
587
331
474
  5
48F
331
496
  5
504
331
32E
  5
3DA
331
43F
  5
45A
331
3FB
  5
2EA
331
550
  5
552
331
317
  5
3C3
331
2D3
  5
381
331
572
  5
574
331
461
  5
463
331
594
  5
597
331
213
  5
437
331
33D
  5
3E9
331
35F
  5
40B
331
28D
  5
33B
331
525
  5
527
331
503
  5
505
331
2C2
  5
370
331
2AF
  5
35D
331
306
  5
3B2
331
40A
  5
2F9
331
3E8
  5
2D5
331
561
  5
563
331
583
  5
585
331
5A5
  5
5AA
331
494
  5
496
331
32C
  5
3D9
331
43D
  5
43F
331
34E
  5
3FA
331
29E
  5
34C
331
41B
  5
30A
331
3F9
  5
2E8
331
3DF
  5
2CC
331
534
  5
54F
331
2F3
  5
3A3
331
2D1
  5
37F
331
315
  5
3C1
331
570
  5
572
331
45F
  5
461
331
592
  5
594
331
211
  5
435
331
33B
  5
3E7
331
35D
  5
409
331
28B
  5
339
331
523
  5
525
331
2C0
  5
36E
331
2AD
  5
35B
331
304
  5
3B0
331
408
  5
2F7
331
3E6
  5
2D3
331
3CC
  5
2B8
331
55F
  5
561
331
5A3
  5
5A5
331
581
  5
583
331
34C
  5
3F8
331
43B
  5
32D
331
29C
  5
34B
331
3F7
  5
2E6
331
3DD
  5
2CA
331
532
  5
534
331
313
  5
3BF
331
3CA
  5
2B6
331
45D
  5
45F
331
20F
  5
433
331
406
  5
2F5
331
339
  5
3E5
331
35B
  5
407
331
289
  5
337
331
521
  5
523
331
2BE
  5
36C
331
2AB
  5
359
331
302
  5
3AE
331
428
  5
317
331
3E4
  5
2D1
331
55D
  5
55F
331
324
  5
3D2
331
57F
  5
581
331
5A1
  5
5A3
331
490
  5
495
331
328
  5
3D5
331
34A
  5
3F6
331
439
  5
32A
331
2CF
  5
37D
331
417
  5
306
331
3F5
  5
2E2
331
3DB
  5
2C8
331
530
  5
532
331
3C8
  5
2B4
331
45B
  5
45D
331
58E
  5
592
331
20D
  5
431
331
337
  5
3E3
331
359
  5
405
331
287
  5
335
331
51F
  5
521
331
2DE
  5
38C
331
2BC
  5
36A
331
2A9
  5
357
331
300
  5
3AC
331
404
  5
2F3
331
3E2
  5
2CF
331
55B
  5
55D
331
322
  5
3D1
331
57D
  5
57F
331
348
  5
3F4
331
437
  5
328
331
2CD
  5
37B
331
298
  5
347
331
415
  5
304
331
3F3
  5
2E0
331
3D9
  5
2C6
331
56A
  5
56F
331
459
  5
45B
331
3E0
  5
2CD
331
58C
  5
58E
331
335
  5
3E1
331
357
  5
403
331
285
  5
333
331
51D
  5
51F
331
2BA
  5
368
331
2A7
  5
355
331
2FE
  5
3AA
331
402
  5
2F1
331
559
  5
55B
331
320
  5
3CE
331
57B
  5
57D
331
46A
  5
474
331
346
  5
3F2
331
2ED
  5
39A
331
2CB
  5
37A
331
296
  5
344
331
413
  5
302
331
3F1
  5
2DE
331
3D7
  5
2C4
331
30F
  5
3BC
331
3C6
  5
2B2
331
568
  5
56A
331
333
  5
3DF
331
355
  5
401
331
283
  5
331
331
2FC
  5
3A8
331
2DA
  5
389
331
2B8
  5
366
331
2A5
  5
353
331
400
  5
2EF
331
557
  5
559
331
31E
  5
3CA
331
579
  5
57B
331
468
  5
46A
331
59B
  5
5A2
331
344
  5
3F0
331
2EB
  5
398
331
2C9
  5
377
331
2B6
  5
364
331
294
  5
342
331
411
  5
300
331
3EF
  5
2DC
331
3D5
  5
2C2
331
30D
  5
3B9
331
3C4
  5
2B0
331
588
  5
58C
331
331
  5
3DD
331
281
  5
32F
331
353
  5
3FF
331
555
  5
557
331
2FA
  5
3A6
331
2D8
  5
386
331
2A3
  5
351
331
5AA
  5
318
331
577
  5
579
331
466
  5
468
331
599
  5
59B
331
342
  5
3EE
331
364
  5
42F
331
292
  5
340
331
52A
  5
52D
331
2C7
  5
375
331
2B4
  5
362
331
566
  5
568
331
30B
  5
3B7
331
40F
  5
2FE
331
3FE
  5
2ED
331
3ED
  5
2DA
331
351
  5
3FD
331
553
  5
555
331
31A
  5
3C9
331
2F8
  5
3A4
331
2D6
  5
384
331
2A1
  5
34F
331
575
  5
577
331
464
  5
466
331
597
  5
599
331
216
  5
43A
331
340
  5
3EC
331
219
  5
43D
331
290
  5
33E
331
506
  5
51D
331
2C5
  5
373
331
2B2
  5
360
331
564
  5
566
331
309
  5
3B5
331
40D
  5
2FC
331
3EB
  5
2D8
331
586
  5
588
331
475
  5
490
331
32F
  5
3DB
331
3FC
  5
2EB
331
551
  5
553
331
318
  5
3C4
331
2D4
  5
382
331
573
  5
575
331
462
  5
464
331
595
  5
598
331
214
  5
438
331
33E
  5
3EA
331
42D
  5
31E
331
360
  5
40D
331
28E
  5
33C
331
526
  5
52A
331
504
  5
506
331
2C3
  5
371
331
2B0
  5
35E
331
40B
  5
2FA
331
562
  5
564
331
307
  5
3B3
331
3E9
  5
2D6
331
584
  5
586
331
5A6
  5
5AB
331
495
  5
503
331
43E
  5
459
331
34F
  5
3FB
331
29F
  5
34D
331
41C
  5
30B
331
3FA
  5
2E9
331
535
  5
550
331
2D2
  5
380
331
54F
  5
551
331
316
  5
3C2
331
571
  5
573
331
460
  5
462
331
593
  5
595
331
212
  5
436
331
33C
  5
3E8
331
35E
  5
40A
331
28C
  5
33A
331
524
  5
526
331
2C1
  5
36F
331
2AE
  5
35C
331
305
  5
3B1
331
409
  5
2F8
331
3E7
  5
2D4
331
3CD
  5
2BA
331
560
  5
562
331
327
  5
3D3
331
582
  5
584
331
5A4
  5
5A6
331
32B
  5
3D8
331
34D
  5
3F9
331
41A
  5
309
331
3F8
  5
2E7
331
3DE
  5
2CB
331
533
  5
535
331
2F2
  5
3A2
331
2D0
  5
37E
331
314
  5
3C0
331
56F
  5
571
331
45E
  5
460
331
210
  5
434
331
33A
  5
3E6
331
429
  5
31C
331
35C
  5
408
331
28A
  5
338
331
522
  5
524
331
2BF
  5
36D
331
2AC
  5
35A
331
407
  5
2F6
331
303
  5
3AF
331
3E5
  5
2D2
331
3CB
  5
2B7
331
55E
  5
560
331
580
  5
582
331
5A2
  5
5A4
331
329
  5
3D6
331
34B
  5
3F7
331
43A
  5
32C
331
29B
  5
34A
331
418
  5
307
331
3F6
  5
2E3
331
3DC
  5
2C9
331
531
  5
533
331
2F0
  5
39D
331
312
  5
3BE
331
3C9
  5
2B5
331
45C
  5
45E
331
58F
  5
593
331
20E
  5
432
331
338
  5
3E4
331
35A
  5
406
331
288
  5
336
331
520
  5
522
331
2BD
  5
36B
331
2AA
  5
358
331
301
  5
3AD
331
405
  5
2F4
331
3E3
  5
2D0
331
55C
  5
55E
331
57E
  5
580
331
48F
  5
494
331
349
  5
3F5
331
438
  5
329
331
2CE
  5
37C
331
299
  5
348
331
416
  5
305
331
3F4
  5
2E1
331
3DA
  5
2C7
331
310
  5
3BD
331
56B
  5
570
331
45A
  5
45C
331
3E1
  5
2CE
331
58D
  5
58F
331
336
  5
3E2
331
358
  5
404
331
286
  5
334
331
51E
  5
520
331
2DD
  5
38B
331
2BB
  5
369
331
2A8
  5
356
331
2FF
  5
3AB
331
403
  5
2F2
331
55A
  5
55C
331
57C
  5
57E
331
46B
  5
475
331
347
  5
3F3
331
52F
  5
531
331
2EE
  5
39C
331
297
  5
345
331
414
  5
303
331
3F2
  5
2DF
331
3D8
  5
2C5
331
3C7
  5
2B3
331
569
  5
56B
331
334
  5
3E0
331
356
  5
402
331
284
  5
332
331
2FD
  5
3A9
331
2DB
  5
38A
331
2B9
  5
367
331
2A6
  5
354
331
401
  5
2F0
331
558
  5
55A
331
31F
  5
3CC
331
57A
  5
57C
331
469
  5
46B
331
345
  5
3F1
331
52D
  5
530
331
2CA
  5
379
331
2B7
  5
365
331
295
  5
343
331
412
  5
301
331
3F0
  5
2DD
331
3D6
  5
2C3
331
30E
  5
3BA
331
3C5
  5
2B1
331
589
  5
58D
331
332
  5
3DE
331
5AB
  5
5A8
331
354
  5
400
331
282
  5
330
331
556
  5
558
331
2FB
  5
3A7
331
2D9
  5
387
331
2A4
  5
352
331
421
  5
310
331
578
  5
57A
331
467
  5
469
331
59A
  5
5A1
331
343
  5
3EF
331
365
  5
430
331
293
  5
341
331
52B
  5
52F
331
2EA
  5
397
331
2C8
  5
376
331
2B5
  5
363
331
410
  5
2FF
331
567
  5
569
331
30C
  5
3B8
331
3FF
  5
2EE
331
3C3
  5
2AF
331
3EE
  5
2DB
  0
XRECORD
  5
5F4
102
{ACAD_REACTORS
330
5F3
102
}
330
5F3
100
AcDbXrecord
280
     1
102
SHADEPLOT
 70
     0
  0
XRECORD
  5
5F6
102
{ACAD_REACTORS
330
5F5
102
}
330
5F5
100
AcDbXrecord
280
     1
102
SHADEPLOT
 70
     0
  0
LAYOUT
  5
261
102
{ACAD_XDICTIONARY
360
5F1
102
}
102
{ACAD_REACTORS
330
255
102
}
330
255
100
AcDbPlotSettings
  1

  2
DocuCentre Color f450
  4

  6

 40
0.0
 41
0.0
 42
0.0
 43
0.0
 44
0.0
 45
0.0
 46
0.0
 47
0.0
 48
0.0
 49
0.0
140
0.0
141
0.0
142
1.0
143
1.0
 70
  1712
 72
     0
 73
     0
 74
     0
  7

 75
     0
147
1.0
148
0.0
149
0.0
100
AcDbLayout
  1
Model
 70
     1
 71
     0
 10
0.0
 20
0.0
 11
12.0
 21
9.0
 12
0.0
 22
0.0
 32
0.0
 14
0.0
 24
0.0
 34
0.0
 15
0.0
 25
0.0
 35
0.0
146
0.0
 13
0.0
 23
0.0
 33
0.0
 16
1.0
 26
0.0
 36
0.0
 17
0.0
 27
1.0
 37
0.0
 76
     0
330
25E
  0
LAYOUT
  5
25D
102
{ACAD_XDICTIONARY
360
27D
102
}
102
{ACAD_REACTORS
330
255
102
}
330
255
100
AcDbPlotSettings
  1

  2
DocuCentre Color f450
  4
A4
  6

 40
4.857749938964843
 41
4.942390441894531
 42
4.942413330078125
 43
4.857757568359375
 44
209.9733276367187
 45
297.0106506347656
 46
0.0
 47
0.0
 48
0.0
 49
0.0
140
0.0
141
0.0
142
1.0
143
1.0
 70
   688
 72
     0
 73
     1
 74
     5
  7

 75
    16
147
1.0
148
0.0
149
0.0
100
AcDbLayout
  1
レイアウト1
 70
     0
 71
     1
 10
-0.1912502979669045
 20
-0.1912499975970411
 11
11.50208240418922
 21
8.075416444793461
 12
0.0
 22
0.0
 32
0.0
 14
1.130750010332723
 24
0.7880833242821881
 34
0.0
 15
10.17675009299451
 25
7.092749918539693
 35
0.0
146
0.0
 13
0.0
 23
0.0
 33
0.0
 16
1.0
 26
0.0
 36
0.0
 17
0.0
 27
1.0
 37
0.0
 76
     0
330
25A
331
273
1001
ACAD_PSEXT
1000
DocuCentre Color f450
1000
FX DocuCentre Color f450
1000
192.168.41.214
1000

1070
     0
  0
MLINESTYLE
  5
253
102
{ACAD_REACTORS
330
252
102
}
330
252
100
AcDbMlineStyle
  2
STANDARD
 70
     0
  3

 62
   256
 51
90.0
 52
90.0
 71
     2
 49
0.5
 62
   256
  6
BYLAYER
 49
-0.5
 62
   256
  6
BYLAYER
  0
ACDBPLACEHOLDER
  5
24B
102
{ACAD_REACTORS
330
24A
102
}
330
24A
  0
TABLESTYLE
  5
259
102
{ACAD_REACTORS
330
258
102
}
330
258
100
AcDbTableStyle
  3
Standard
 70
     0
 71
     0
 40
0.06
 41
0.06
280
     0
281
     0
  7
Standard
140
0.18
170
     2
 62
     0
 63
     7
283
     0
274
    -2
284
     1
 64
     0
275
    -2
285
     1
 65
     0
276
    -2
286
     1
 66
     0
277
    -2
287
     1
 67
     0
278
    -2
288
     1
 68
     0
279
    -2
289
     1
 69
     0
  7
Standard
140
0.25
170
     5
 62
     0
 63
     7
283
     0
274
    -2
284
     1
 64
     0
275
    -2
285
     1
 65
     0
276
    -2
286
     1
 66
     0
277
    -2
287
     1
 67
     0
278
    -2
288
     1
 68
     0
279
    -2
289
     1
 69
     0
  7
Standard
140
0.18
170
     5
 62
     0
 63
     7
283
     0
274
    -2
284
     1
 64
     0
275
    -2
285
     1
 65
     0
276
    -2
286
     1
 66
     0
277
    -2
287
     1
 67
     0
278
    -2
288
     1
 68
     0
279
    -2
289
     1
 69
     0
  0
DICTIONARYVAR
  5
442
102
{ACAD_REACTORS
330
441
102
}
330
441
100
DictionaryVariables
280
     0
  1
STANDARD
  0
DICTIONARYVAR
  5
477
102
{ACAD_REACTORS
330
441
102
}
330
441
100
DictionaryVariables
280
     0
  1
1
  0
DICTIONARYVAR
  5
478
102
{ACAD_REACTORS
330
441
102
}
330
441
100
DictionaryVariables
280
     0
  1

  0
DICTIONARY
  5
5F1
330
261
100
AcDbDictionary
280
     1
281
     1
  3
ACAD_XREC_ROUNDTRIP
360
5F2
  0
DICTIONARY
  5
27D
330
25D
100
AcDbDictionary
280
     1
281
     1
  3
ACAD_XREC_ROUNDTRIP
360
5F0
  3
ADSK_XREC_LAYOUTTHUMBNAIL
360
27E
  0
XRECORD
  5
5F2
102
{ACAD_REACTORS
330
5F1
102
}
330
5F1
100
AcDbXrecord
280
     1
102
SHADEPLOT
 70
     0
102
SHADEPLOTRESLEVEL
 70
     2
102
SHADEPLOTCUSTOMDPI
 70
   300
  0
XRECORD
  5
5F0
102
{ACAD_REACTORS
330
27D
102
}
330
27D
100
AcDbXrecord
280
     1
102
SHADEPLOT
 70
     0
102
SHADEPLOTRESLEVEL
 70
     2
102
SHADEPLOTCUSTOMDPI
 70
   300
  0
XRECORD
  5
27E
102
{ACAD_REACTORS
330
27D
102
}
330
27D
100
AcDbXrecord
280
     1
310
28000000B40000007F00000001000800000000004C590000000000000000000000010000000000000000000000000000FFFFFF000000000000000000000000000000000000000000000000000000000000000000330000006600000099000000CC000000FF00000000330000333300006633000099330000CC330000FF3300
310
0000660000336600006666000099660000CC660000FF66000000990000339900006699000099990000CC990000FF99000000CC000033CC000066CC000099CC0000CCCC0000FFCC000000FF000033FF000066FF000099FF0000CCFF0000FFFF000000003300330033006600330099003300CC003300FF003300003333003333
310
33006633330099333300CC333300FF33330000663300336633006666330099663300CC663300FF66330000993300339933006699330099993300CC993300FF99330000CC330033CC330066CC330099CC3300CCCC3300FFCC330000FF330033FF330066FF330099FF3300CCFF3300FFFF330000006600330066006600660099
310
006600CC006600FF00660000336600333366006633660099336600CC336600FF33660000666600336666006666660099666600CC666600FF66660000996600339966006699660099996600CC996600FF99660000CC660033CC660066CC660099CC6600CCCC6600FFCC660000FF660033FF660066FF660099FF6600CCFF6600
310
FFFF660000009900330099006600990099009900CC009900FF00990000339900333399006633990099339900CC339900FF33990000669900336699006666990099669900CC669900FF66990000999900339999006699990099999900CC999900FF99990000CC990033CC990066CC990099CC9900CCCC9900FFCC990000FF99
310
0033FF990066FF990099FF9900CCFF9900FFFF99000000CC003300CC006600CC009900CC00CC00CC00FF00CC000033CC003333CC006633CC009933CC00CC33CC00FF33CC000066CC003366CC006666CC009966CC00CC66CC00FF66CC000099CC003399CC006699CC009999CC00CC99CC00FF99CC0000CCCC0033CCCC0066CC
310
CC0099CCCC00CCCCCC00FFCCCC0000FFCC0033FFCC0066FFCC0099FFCC00CCFFCC00FFFFCC000000FF003300FF006600FF009900FF00CC00FF00FF00FF000033FF003333FF006633FF009933FF00CC33FF00FF33FF000066FF003366FF006666FF009966FF00CC66FF00FF66FF000099FF003399FF006699FF009999FF00CC
310
99FF00FF99FF0000CCFF0033CCFF0066CCFF0099CCFF00CCCCFF00FFCCFF0000FFFF0033FFFF0066FFFF0099FFFF00CCFFFF00FFFFFF00000000000D0D0D001A1A1A00282828003535350043434300505050005D5D5D006B6B6B00787878008686860093939300A1A1A100AEAEAE00BBBBBB00C9C9C900D6D6D600E4E4E400
310
F1F1F100FFFFFF0000000000000000000000000000000000000000000000000000000000000000000000000000000000EFF5F5F5F5F5F5F5F5F5F5F5F5F5F5F5F5F5F5F5F5F5F5F5F5F5F5F5F5F5F5F5F5F5F5F5F5F5F5F5F5F5F5F5F5F5F5F5F5F5F5F5F5F5F5F5F5F5F5F5F5F5F5F5F5F5F5F5F5F5F5F5F5F5F5F5F5F5F5
310
F5F5F5F5F5F5F5F5F5F5F5F5F5F5F5F5F5F5F5F5F5F5F5F5F5F5F5F5F5F5F5F5F5F5F5F5F5F5F5F5F5F5F5F5F5F5F5F5F5F5F5F5F5F5F5F5F5F5F5F5F5F5F5F5F5F5F5F5F5F5F5F5F5F5F5F5F5F5F5F5F5F5F5F5F5F5F5F5F5F5F5F5F5F5F5F5F5F5F5F5F5EFF5E2E2E2E2E2E2E2E2E2E2E2E2E2E2E2E2E2E2E2E2E2E2E2E2
310
E2E2E2E2E2E2E2E2E2E2E2E2E2E2E2E2E2E2E2E2E2E2E2E2E2E2E2E2E2E2E2E2E2E2E2E2E2E2E2E2E2E2E2E2E2E2E2E2E2E2E2E2E2E2E2E2E2E2E2E2E2E2E2E2E2E2E2E2E2E2E2E2E2E2E2E2E2E2E2E2E2E2E2E2E2E2E2E2E2E2E2E2E2E2E2E2E2E2E2E2E2E2E2E2E2E2E2E2E2E2E2E2E2E2E2E2E2E2E2E2E2E2E2E2E2E2E2
310
E2E2E2E2E2E2E2E2E2E2E2E2E2E2E2E2E2E2E2E2E2E2E2E2E2F5F5EFF5E2E2E2E2E2E2E2E2E2E2E2E2E2E2E2E2E2E2E2E2E2E2E2E2E2E2E2E2E2E2E2E2E2E2E2E2E2E2E2E2E2E2E2E2E2E2E2E2E2E2E2E2E2E2E2E2E2E2E2E2E2E2E2E2E2E2E2E2E2E2E2E2E2E2E2E2E2E2E2E2E2E2E2E2E2E2E2E2E2E2E2E2E2E2E2E2E2E2
310
E2E2E2E2E2E2E2E2E2E2E2E2E2E2E2E2E2E2E2E2E2E2E2E2E2E2E2E2E2E2E2E2E2E2E2E2E2E2E2E2E2E2E2E2E2E2E2E2E2E2E2E2E2E2E2E2E2E2E2E2E2E2E2E2E2E2E2E2E2E2E2E2E2E2E2E2E2E2F5F5EFF5E2E2F5F5F5F5F5F5F5F5E2E2E2E2E2E2E2E2E2F5F5F5F5F5F5F5F5F5F5F5F5F5F5F5F5E2E2E2E2E2E2E2E2E2F5
310
F5F5F5F5F5F5F5F5F5F5F5F5F5F5E2E2E2E2E2E2E2E2E2F5F5F5F5F5F5F5F5F5F5F5F5F5F5F5F5E2E2E2E2E2E2E2E2F5F5F5F5F5F5F5F5F5F5F5F5F5F5F5F5E2E2E2E2E2E2E2E2E2F5F5F5F5F5F5F5F5F5F5F5F5F5F5F5E2E2E2E2E2E2E2E2E2F5F5F5F5F5F5F5F5F5F5F5F5F5F5F5F5E2E2E2E2E2E2E2E2E2F5F5F5F5F5F5
310
F5F5E2E2F5F5EFF5E2E2F5E2E2E2E2E2E2E2E2E2E2E2E2E2E2E2E2E2E2E2E2E2E2E2E2E2E2E2E2E2E2E2E2E2E2E2E2E2E2E2E2E2E2E2E2E2E2E2E2E2E2E2E2E2E2E2E2E2E2E2E2E2E2E2E2E2E2E2E2E2E2E2E2E2E2E2E2E2E2E2E2E2E2E2E2E2E2E2E2E2E2E2E2E2E2E2E2E2E2E2E2E2E2E2E2E2E2E2E2E2E2E2E2E2E2E2E2
310
E2E2E2E2E2E2E2E2E2E2E2E2E2E2E2E2E2E2E2E2E2E2E2E2E2E2E2E2E2E2E2E2E2E2E2E2E2E2E2E2E2E2E2E2E2E2E2E2E2E2E2E2E2E2F5E2E2F5F5EFF5E2E2F5E2E2E2E2E2E2E2E2E2E2E2E2E2E2E2E2E2E2E2E2E2E2E2E2E2E2E2E2E2E2E2E2E2E2E2E2E2E2E2E2E2E2E2E2E2E2E2E2E2E2E2E2E2E2E2E2E2E2E2E2E2E2E2
310
E2E2E2E2E2E2E2E2E2E2E2E2E2E2E2E2E2E2E2E2E2E2E2E2E2E2E2E2E2E2E2E2E2E2E2E2E2E2E2E2E2E2E2E2E2E2E2E2E2E2E2E2E2E2E2E2E2E2E2E2E2E2E2E2E2E2E2E2E2E2E2E2E2E2E2E2E2E2E2E2E2E2E2E2E2E2E2E2E2E2E2E2E2E2E2E2E2E2E2E2E2E2E2E2E2E2E2F5E2E2F5F5EFF5E2E2F5E2E2E2E2E2E2E2E2E2E2
310
E2E2E2E2E2E2E2E2E2E2E2E2E2E2E2E2E2E2E2E2E2E2E2E2E2E2E2E2E2E2E2E2E2E2E2E2E2E2E2E2E2E2E2E2E2E2E2E2E2E2E2E2E2E2E2E2E2E2E2E2E2E2E2E2E2E2E2E2E2E2E2E2E2E2E2E2E2E2E2E2E2E2E2E2E2E2E2E2E2E2E2E2E2E2E2E2E2E2E2E2E2E2E2E2E2E2E2E2E2E2E2E2E2E2E2E2E2E2E2E2E2E2E2E2E2E2E2
310
E2E2E2E2E2E2E2E2E2E2E2E2E2E2E2E2E2E2E2E2E2E2E2E2E2E2E2E2E2E2E2E2E2F5E2E2F5F5EFF5E2E2F5E2E2E2E2E2E2E2E2E2E2E2E2E2E2E2E2E2E2E2E2E2E2E2E2E2E2E2E2E2E2E2E2E2E2E2E2E2E2E2E2E2E2E2E2E2E2E2E2E2E2E2E2E2E2E2E2E2E2E2E2E2E2E2E2E2E2E2E2E2E2E2E2E2E2E2E2E2E2E2E2E2E2E2E2
310
E2E2E2E2E2E2E2E2E2E2E2E2E2E2E2E2E2E2E2E2E2E2E2E2E2E2E2E2E2E2E2E2E2E2E2E2E2E2E2E2E2E2E2E2E2E2E2E2E2E2E2E2E2E2E2E2E2E2E2E2E2E2E2E2E2E2E2E2E2E2E2E2E2E2E2E2E2E2E2E2E2E2E2E2E2E2F5E2E2F5F5EFF5E2E2F5E2E2E2E2E2E2E2E2E2E2E2E2E2E2E2E2E2E2E2E2E2E2E2E2E2E2E2E2E2E2E2
310
E2E2E2E2E2E2E2E2E2E2E2E2E2E2E2E2E2E2E2E2E2E2E2E2E2E2E2E2E2E2E2E2E2E2E2E2E2E2E2E2E2E2E2E2E2E2E2E2E2E2E2E2E2E2E2E2E2E2E2E2E2E2E2E2E2E2E2E2E2E2E2E2E2E2E2E2E2E2E2E2E2E2E2E2E2E2E2E2E2E2E2E2E2E2E2E2E2E2E2E2E2E2E2E2E2E2E2E2E2E2E2E2E2E2E2E2E2E2E2E2E2E2E2E2E2E2E2
310
E2E2E2E2E2E2E2E2E2E2E2E2F5E2E2F5F5EFF5E2E2F5E2E2E2E2E2E2E2E2E2E2E2E2E2E2E2E2E2E2E2E2E2E2E2E2E2E2E2E2E2E2E2E2E2E2E2E2E2E2E2E2E2E2E2E2E2E2E2E2E2E2E2E2E2E2E2E2E2E2E2E2E2E2E2E2E2E2E2E2E2E2E2E2E2E2E2E2E2E2E2E2E2E2E2E2E2E2E2E2E2E2E2E2E2E2E2E2E2E2E2E2E2E2E2E2E2
310
E2E2E2E2E2E2E2E2E2E2E2E2E2E2E2E2E2E2E2E2E2E2E2E2E2E2E2E2E2E2E2E2E2E2E2E2E2E2E2E2E2E2E2E2E2E2E2E2E2E2E2E2E2E2E2E2E2E2E2E2E2E2E2E2E2F5E2E2F5F5EFF5E2E2F5E2E2E2E2E2E2E2E2E2E2E2E2E2E2E2E2E2E2E2E2E2E2E2E2E2E2E2E2E2E2E2E2E2E2E2E2E2E2E2E2E2E2E2E2E2E2E2E2E2E2E2E2
310
E2E2E2E2E2E2E2E2E2E2E2E2E2E2E2E2E2E2E2E2E2E2E2E2E2E2E2E2E2E2E2E2E2E2E2E2E2E2E2E2E2E2E2E2E2E2E2E2E2E2E2E2E2E2E2E2E2E2E2E2E2E2E2E2E2E2E2E2E2E2E2E2E2E2E2E2E2E2E2E2E2E2E2E2E2E2E2E2E2E2E2E2E2E2E2E2E2E2E2E2E2E2E2E2E2E2E2E2E2E2E2E2E2E2E2E2E2E2F5E2E2F5F5EFF5E2E2
310
E2E2E2E2E2E2E2E2E2E2E2E2E2E2E2E2E2E2E2E2E2E2E2E2E2E2E2E2E2E2E2E2E2E2E2E2E2E2E2E2E2E2E2E2E2E2E2E2E2E2E2E2E2E2E2E2E2E2E2E2E2E2E2E2E2E2E2E2E2E2E2E2E2E2E2E2E2E2E2E2E2E2E2E2E2E2E2E2E2E2E2E2E2E2E2E2E2E2E2E2E2E2E2E2E2E2E2E2E2E2E2E2E2E2E2E2E2E2E2E2E2E2E2E2E2E2E2
310
E2E2E2E2E2E2E2E2E2E2E2E2E2E2E2E2E2E2E2E2E2E2E2E2E2E2E2E2E2E2E2E2E2E2E2E2E2E2E2E2E2E2E2E2E2E2E2F5F5EFF5E2E2E2E2E2E2E2E2E2E2E2E2E2E2E2E2E2E2E2E2E2E2E2E2E2E2E2E2E2E2E2E2E2E2E2E2E2E2E2E2E2E2E2E2E2E2E2E2E2E2E2E2E2E2E2E2E2E2E2E2E2E2E2E2E2E2E2E2E2E2E2E2E2E2E2E2
310
E2E2E2E2E2E2E2E2E2E2E2E2E2E2E2E2E2E2E2E2E2E2E2E2E2E2E2E2E2E2E2E2E2E2E2E2E2E2E2E2E2E2E2E2E2E2E2E2E2E2E2E2E2E2E2E2E2E2E2E2E2E2E2E2E2E2E2E2E2E2E2E2E2E2E2E2E2E2E2E2E2E2E2E2E2E2E2E2E2E2E2E2E2E2E2E2E2E2E2E2F5F5EFF5E2E2E2E2E2E2E2E2E2E2E2E2E2E2E2E2E2E2E2E2E2E2E2
310
E2E2E2E2E2E2E2E2E2E2E2E2E2E2E2E2E2E2E2E2E2E2E2E2E2E2E2E2E2E2E2E2E2E2E2E2E2E2E2E2E2E2E2E2E2E2E2E2E2E2E2E2E2E2E2E2E2E2E2E2E2E2E2E2E2E2E2E2E2E2E2E2E2E2E2E2E2E2E2E2E2E2E2E2E2E2E2E2E2E2E2E2E2E2E2E2E2E2E2E2E2E2E2E2E2E2E2E2E2E2E2E2E2E2E2E2E2E2E2E2E2E2E2E2E2E2E2
310
E2E2E2E2E2E2E2E2E2E2E2E2E2E2E2E2E2E2E2E2E2E2E2E2E2E2F5F5EFF5E2E2E2E2E2E2E2E2E2E2E2E2E2E2E2E2E2E2E2E2E2E2E2E2E2E2E2E2E2E2E2E2E2E2E2E2E2E2E2E2E2E2E2E2E2E2E2E2E2E2E2E2E2E2E2E2E2E2E2E2E2E2E2E2E2E2E2E2E2E2E2E2E2E2E2E2E2E2E2E2E2E2E2E2E2E2E2E2E2E2E2E2E2E2E2E2E2
310
E2E2E2E2E2E2E2E2E2E2E2E2E2E2E2E2E2E2E2E2E2E2E2E2E2E2E2E2E2E2E2E2E2E2E2E2E2E2E2E2E2E2E2E2E2E2E2E2E2E2E2E2E2E2E2E2E2E2E2E2E2E2E2E2E2E2E2E2E2E2E2E2E2E2E2E2E2E2E2F5F5EFF5E2E2E2E2E2E2E2E2E2E2E2E2E2E2E2E2E2E2E2F5F5F5F5F5F5F5F5F5F5F5F5F5F5F5F5F5F5F5F5F5F5F5F5F5
310
F5F5F5F5F5F5F5F5F5F5F5F5F5F5F5F5F5F5F5F5F5F5F5F5F5F5F5F5F5F5F5F5F5F5F5F5F5F5F5F5F5F5F5F5F5F5F5F5F5F5F5F5F5F5F5F5F5F5F5F5F5F5F5F5F5F5F5F5F5F5F5F5F5F5F5F5F5F5F5F5F5F5F5F5F5F5F5F5F5F5F5F5F5F5F5F5F5F5F5F5F5F5F5F5F5F5F5F5F5F5F5F5F5E2E2E2E2E2E2E2E2E2E2E2E2E2E2
310
E2E2E2E2E2F5F5EFF5E2E2E2E2E2E2E2E2E2E2E2E2E2E2E2E2E2E2E2F5F5F5F5F5F5F5F5F5F5F5F5F5F5F5F5F5F5F5F5F5F5F5F5F5F5F5F5F5F5F5F5F5F5F5F5F5F5F5F5F5F5F5F5F5F5F5F5F5F5F5F5F5F5F5F5F5F5F5F5F5F5F5F5F5F5F5F5F5F5F5F5F5F5F5F5F5F5F5F5F5F5F5F5F5F5F5F5F5F5F5F5F5F5F5F5F5F5F5
310
F5F5F5F5F5F5F5F5F5F5F5F5F5F5F5F5F5F5F5F5F5F5F5F5F5F5F5F5F5F5F5F5F5F5F5F5F5F5F5E2E2E2E2E2E2E2E2E2E2E2E2E2E2E2E2E2E2E2F5F5EFF5E2E2E2E2E2E2E2E2E2E2E2E2E2E2E2E2E2E2E2F5E2E2E2E2E2E2E2E2E2E2E2E2E2E2E2E2E2E2E2E2E2E2E2E2E2E2E2E2E2E2E2E2E2E2E2E2E2E2E2E2E2E2E2E2E2
310
E2E2E2E2E2E2E2E2E2E2E2E2E2E2E2E2E2E2E2E2E2E2E2E2E2E2E2E2E2E2E2E2E2E2E2E2E2E2E2E2E2E2E2E2E2E2E2E2E2E2E2E2E2E2E2E2E2E2E2E2E2F5E2F5E2F5F5F5F5F5F5F5F5F5E2F5F5F5F5F5E2F5F5F5F5F5F5F5F5E2F5F5E2E2E2E2E2E2E2E2E2E2E2E2E2E2E2E2E2E2E2F5F5EFF5E2E2E2E2E2E2E2E2E2E2E2E2
310
E2E2E2E2E2E2E2F5E2E2E2E2E2E2E2E2E2E2E2E2E2E2E2E2E2E2E2E2E2E2E2E2E2E2E2E2E2E2E2E2E2E2E2E2E2E2E2E2E2E2E2E2E2E2E2E2E2E2E2E2E2E2E2E2E2E2E2E2E2E2E2E2E2E2E2E2E2E2E2E2E2E2E2E2E2E2E2E2E2E2E2E2E2E2E2E2E2E2E2E2E2E2E2E2E2E2E2E2E2E2E2E2E2E2F5E2F5F5E2F5F5F5F5F5F5F5F5
310
F5F5F5E2F5E2E2F5E2F5E2F5F5F5F5F5F5F5E2E2E2E2E2E2E2E2E2E2E2E2E2E2E2E2E2E2E2F5F5EFF5E2E2E2E2E2E2E2E2E2E2E2E2E2E2E2E2E2E2E2F5E2E2E2E2E2E2E2E2E2E2E2E2E2E2E2E2E2E2E2E2E2E2E2E2E2E2E2E2E2E2E2E2E2F5F5F5F5F5E2E2E2E2E2E2E2E2E2E2E2E2E2E2E2E2E2E2E2E2E2E2E2E2E2E2E2E2
310
E2E2E2E2E2E2E2E2E2E2E2E2E2E2E2E2E2E2E2E2E2E2E2E2E2E2E2E2E2E2E2E2E2E2E2E2E2E2E2E2F5E2F5E2F5F5F5F5F5F5F5E2F5E2F5F5F5F5F5E2F5F5F5F5F5F5F5F5F5F5F5E2E2E2E2E2E2E2E2E2E2E2E2E2E2E2E2E2E2E2F5F5EFF5E2E2F5E2E2E2E2E2E2E2E2E2E2E2E2E2E2E2E2F5E2E2E2E2E2E2E2E2E2E2E2E2E2
310
E2E2E2E2E2E2E2E2E2E2E2E2E2E2E2E2E2E2E2E2F5F5E2F5F5E2E2E2E2E2E2E2E2E2E2E2E2E2E2E2E2E2E2E2E2E2E2E2E2E2E2E2E2E2E2E2E2E2E2E2E2E2E2E2E2E2E2E2E2E2E2E2E2E2E2E2E2E2E2E2E2E2E2E2E2E2E2E2E2E2E2E2E2F5F5F5F5F5F5F5F5F5F5F5F5F5F5F5F5F5F5F5F5F5F5F5F5F5F5F5F5F5F5F5E2E2E2
310
E2E2E2E2E2E2E2E2E2E2E2E2E2F5E2E2F5F5EFF5E2E2F5E2E2E2E2E2E2E2E2E2E2E2E2E2E2E2E2F5E2E2E2E2E2E2E2E2E2E2E2E2E2E2E2E2E2E2E2E2E2E2E2E2E2E2E2E2E2E2E2E2E2E2E2E2E2E2E2E2E2E2E2E2E2E2E2E2E2E2E2E2E2E2E2E2E2E2E2E2E2E2E2E2E2E2E2E2E2E2E2E2E2E2E2E2E2E2E2E2E2E2E2E2E2E2E2
310
E2E2E2E2E2E2E2E2E2E2E2E2E2E2E2E2E2E2E2E2E2E2E2E2E2E2E2E2E2E2E2E2E2E2E2E2E2E2E2E2E2E2E2E2E2E2E2E2F5F5E2E2E2E2E2E2E2E2E2E2E2E2E2E2E2E2F5E2E2F5F5EFF5E2E2F5E2E2E2E2E2E2E2E2E2E2E2E2E2E2E2E2F5E2E2E2E2E2E2E2E2E2E2E2E2E2E2E2E2E2E2E2E2E2E2E2E2E2E2E2E2E2E2E2E2E2E2
310
E2DCE2E2E2E2E2E2E2E2E2E2E2E2E2E2E2E2E2E2E2E2E2E2E2E2E2E2E2E2E2E2E2E2E2E2E2E2E2E2E2E2E2E2E2E2E2E2E2E2E2E2E2E2E2E2E2E2E2E2E2E2E2E2E2E2E2E2E2E2E2E2E2E2E2E2E2E2E2E2E2E2E2E2E2E2E2E2E2E2E2E2E2E2E2E2E2E2E2E2E2F5F5E2E2E2E2E2E2E2E2E2E2E2E2E2E2E2E2F5E2E2F5F5EFF5E2
310
E2F5E2E2E2E2E2E2E2E2E2E2E2E2E2E2E2E2F5E2E2E2E2E2E2E2E2E2E2E2E2E2E2E2E2E2E2E2E2E2E2E2E2E2E2E2E2F5F5F5F5F5F5F5DCF5F5F5F5F5F5F5F5E2E2E2E2E2E2E2E2E2E2E2E2E2E2E2E2E2E2E2E2E2E2E2E2E2E2E2E2E2E2E2E2E2E2E2E2E2E2E2E2E2E2E2E2E2E2E2E2E2E2E2E2E2E2E2E2E2E2E2E2E2E2E2E2
310
E2E2E2E2E2E2E2E2E2E2E2E2E2E2E2E2E2E2E2E2E2E2E2E2E2E2E2F5F5E2E2E2E2E2E2E2E2E2E2E2E2E2E2E2E2F5E2E2F5F5EFF5E2E2F5E2E2E2E2E2E2E2E2E2E2E2E2E2E2E2E2F5E2E2E2E2E2E2E2E2E2E2E2E2E2E2E2E2E2E2E2E2E2E2E2E2E2E2E2F5E2E2DCDCDCDCE2DCE2E2DCDCDCE2E2E2F5E2E2E2E2E2E2E2E2E2E2
310
E2E2E2E2E2E2E2E2E2E2E2E2E2E2E2E2E2E2E2E2E2E2E2E2E2E2E2E2E2E2E2E2E2E2E2E2E2E2E2E2E2E2E2E2E2E2E2E2E2E2E2E2E2E2E2E2E2E2E2E2E2E2E2E2E2E2E2E2E2E2E2E2E2E2E2E2E2E2E2E2F5F5E2E2E2E2E2E2E2E2E2E2E2E2E2E2E2E2F5E2E2F5F5EFF5E2E2F5E2E2E2E2E2E2E2E2E2E2E2E2E2E2E2E2F5E2E2
310
E2E2E2E2E2E2E2E2E2E2E2E2E2E2E2E2E2E2E2E2E2E2E2E2F5E2E2E2F5DCF5E2E2DCE2E2F5DCF5E2E2E2E2F5E2E2E2E2E2E2E2E2E2E2E2E2E2E2E2E2E2E2E2E2E2E2E2E2E2E2E2E2E2E2E2E2E2E2E2E2E2E2E2E2E2E2E2E2E2E2E2E2E2E2E2E2E2E2E2E2E2E2E2E2E2E2E2E2E2E2E2E2E2E2E2E2E2E2E2E2E2E2E2E2E2E2E2
310
E2E2E2E2E2E2F5F5E2E2E2E2E2E2E2E2E2E2E2E2E2E2E2E2F5E2E2F5F5EFF5E2E2F5E2E2E2E2E2E2E2E2E2E2E2E2E2E2E2E2F5E2E2E2E2E2E2E2E2E2E2E2E2E2E2E2E2E2E2E2E2E2E2E2E2E2E2F5E2E2E2F5E2E2E2E2DCE2E2E2E2F5E2E2E2E2F5E2DCDCDCDCDCDCDCDCDCE2E2E2E2E2E2E2E2E2E2E2E2E2E2E2E2E2E2E2E2
310
E2E2E2E2E2E2E2E2E2E2E2E2E2E2E2E2E2E2E2E2E2E2E2E2E2E2E2E2E2E2E2E2E2E2E2E2E2E2E2E2E2E2E2E2E2E2E2E2E2E2E2E2E2E2E2E2E2E2E2F5F5E2E2E2E2E2E2E2E2E2E2E2E2E2E2E2E2F5E2E2F5F5EFF5E2E2F5E2E2E2E2E2E2E2E2E2E2E2E2E2E2E2E2F5E2E2E2E2E2E2E2E2E2E2E2E2E2E2E2E2E2E2E2E2E2E2E2
310
E2E2E2F5E2E2E2F5E2E2E2E2DCE2E2E2E2F5E2E2E2E2F5E2DCDCDCDCE2DCDCDCDCE2E2E2E2E2E2E2E2E2E2E2E2E2E2E2E2E2E2E2E2E2E2E2E2E2E2E2E2E2E2E2E2E2E2E2E2E2E2E2E2E2E2E2E2E2E2E2E2E2E2E2E2E2E2E2E2E2E2E2E2E2E2E2E2E2E2E2E2E2E2E2E2E2E2E2E2E2E2E2F5F5E2E2E2E2E2E2E2E2E2E2E2E2E2
310
E2E2E2F5E2E2F5F5EFF5E2E2F5E2E2E2E2E2E2E2E2E2E2E2E2E2E2E2E2F5E2E2E2E2E2E2E2E2E2E2E2E2E2E2E2E2E2E2E2E2E2E2E2E2E2E2F5E2E2E2F5E2E2E2E2DCE2E2E2E2F5E2E2E2E2F5DCE2DCDCDCE2DCDCDCDCE2E2E2E2E2E2E2E2E2E2E2E2E2E2E2E2E2E2E2E2E2E2E2E2E2E2E2E2E2E2E2E2E2E2E2E2E2E2E2E2E2
310
E2E2E2E2E2E2E2E2E2E2E2E2E2E2E2E2E2E2E2E2E2E2E2E2E2E2E2E2E2E2E2E2E2E2E2E2E2E2F5F5E2E2E2E2E2E2E2E2E2E2E2E2E2E2E2E2F5E2E2F5F5EFF5E2E2F5E2E2E2E2E2E2E2E2E2E2E2E2E2E2E2E2F5E2E2E2E2E2E2E2E2E2E2E2E2E2E2E2E2E2E2E2E2E2E2E2E2E2E2F5DCE2E2F5E2E2E2E2E2E2E2E2E2F5E2E2DC
310
E2F5DCE2DCDCDCDCDCDCDCDCE2E2E2E2E2E2E2E2E2E2E2E2E2E2E2E2E2E2E2E2E2E2E2E2E2E2E2E2E2E2E2E2E2E2E2E2E2E2E2E2E2E2E2E2E2E2E2E2E2E2E2E2E2E2E2E2E2E2E2E2E2E2E2E2E2E2E2E2E2E2E2E2E2E2E2E2E2E2E2F5F5E2E2E2E2E2E2E2E2E2E2E2E2E2E2E2E2F5E2E2F5F5EFF5E2E2F5E2E2E2E2E2E2E2E2
310
E2E2E2E2E2E2E2E2F5E2E2E2E2E2E2E2E2E2E2E2E2E2E2E2E2E2E2E2E2E2E2E2E2E2E2F5F5F5E2F5E2E2E2E2DCE2E2E2E2F5E2F5F5E2DCE2E2E2E2E2E2E2E2E2E2E2E2E2E2E2E2E2E2E2E2E2E2E2E2E2E2E2E2E2E2E2E2E2E2E2E2E2E2E2E2E2E2E2E2E2E2E2E2E2E2E2E2E2E2E2E2E2E2E2E2E2E2E2E2E2E2E2E2E2E2E2E2
310
E2E2E2E2E2E2E2E2E2E2E2E2E2E2E2E2E2F5F5E2E2E2E2E2E2E2E2E2E2E2E2E2E2E2E2F5E2E2F5F5EFF5E2E2F5E2E2E2E2E2E2E2E2E2E2E2E2E2E2E2E2F5E2E2E2E2E2E2E2E2E2E2E2E2E2E2E2E2E2E2E2E2E2E2E2E2E2DCDCDCF5DCDCDCDCDCDCDCDCDCDCDCDCDCF5F5F5DCE2E2E2E2E2E2E2E2E2E2E2E2E2E2E2E2E2E2E2
310
E2E2E2E2E2E2E2E2E2E2E2E2E2E2E2E2E2E2E2E2E2E2E2E2E2E2E2E2E2E2E2E2E2E2E2E2E2E2E2E2E2E2E2E2E2E2E2E2E2E2E2E2E2E2E2E2E2E2E2E2E2E2E2E2E2E2E2E2E2E2F5F5E2E2E2E2E2E2E2E2E2E2E2E2E2E2E2E2F5E2E2F5F5EFF5E2E2F5E2E2E2E2E2E2E2E2E2E2E2E2E2E2E2E2F5E2E2E2E2E2E2E2E2E2E2E2E2
310
E2E2E2E2E2E2E2E2E2E2E2E2E2E2DCDCE2E2F5E2E2E2E2E2E2E2E2E2F5E2E2DCE2F5E2E2E2E2E2E2E2E2E2E2E2E2E2E2E2E2E2E2E2E2E2E2E2E2E2E2E2E2E2E2E2E2E2E2E2E2E2E2E2E2E2E2E2E2E2E2E2E2E2E2E2E2E2E2E2E2E2E2E2E2E2E2E2E2E2E2E2E2E2E2E2E2E2E2E2E2E2E2E2E2E2E2E2E2E2E2E2E2E2F5F5E2E2
310
E2E2E2E2E2E2E2E2E2E2E2E2E2E2F5E2E2F5F5EFF5E2E2F5E2E2E2E2E2E2E2E2E2E2E2E2E2E2E2E2F5E2E2E2E2E2E2E2E2E2E2E2E2E2E2E2E2E2E2E2E2E2E2E2E2E2E2DCE2E2E2F5E2E2E2E2DCE2E2E2E2F5E2E2E2E2F5E2E2E2E2E2E2E2E2E2E2E2E2E2E2E2E2E2E2E2E2E2E2E2E2E2E2E2E2E2E2E2E2E2E2E2E2E2E2E2E2
310
E2E2E2E2E2E2E2E2E2E2E2E2E2E2E2E2E2E2E2E2E2E2E2E2E2E2E2E2E2E2E2E2E2E2E2E2E2E2E2E2E2E2E2E2E2E2E2E2E2F5F5E2E2E2E2E2E2E2E2E2E2E2E2E2E2E2E2F5E2E2F5F5EFF5E2E2F5E2E2E2E2E2E2E2E2E2E2E2E2E2E2E2E2F5E2E2E2E2E2E2E2E2E2E2E2E2E2E2E2E2E2E2E2E2E2E2E2E2E2DCF5E2E2E2F5E2E2
310
E2E2DCE2E2E2E2F5E2E2E2E2F5E2E2E2E2E2E2E2E2E2E2E2E2E2E2E2E2E2E2E2E2E2E2E2E2E2E2E2E2E2E2E2E2E2E2E2E2E2E2E2E2E2E2E2E2E2E2E2E2E2E2E2E2E2E2E2E2E2E2E2E2E2E2E2E2E2E2E2E2E2E2E2E2E2E2E2E2E2E2E2E2E2E2E2E2E2E2E2E2E2F5F5E2E2E2E2E2E2E2E2E2E2E2E2E2E2E2E2F5E2E2F5F5EFF5
310
E2E2E2E2E2E2E2E2E2E2E2E2E2E2E2E2E2E2E2F5E2E2E2E2E2E2E2E2E2E2E2E2E2E2E2E2E2E2E2E2E2E2E2E2E2DCF5E2E2E2F5E2E2E2E2DCE2E2E2E2F5E2E2E2E2F5E2E2E2E2E2E2E2E2E2E2E2E2E2E2E2E2E2E2E2E2E2E2E2E2E2E2E2E2E2E2E2E2E2E2E2E2E2E2E2E2E2E2E2E2E2E2E2E2E2E2E2E2E2E2E2E2E2E2E2E2E2
310
E2E2E2E2E2E2E2E2E2E2E2E2E2E2E2E2E2E2E2E2E2E2E2E2E2E2E2E2F5F5E2E2E2E2E2E2E2E2E2E2E2E2E2E2E2E2E2E2E2F5F5EFF5E2E2E2E2E2E2E2E2E2E2E2E2E2E2E2E2E2E2E2F5E2E2E2E2E2E2E2E2E2E2E2E2E2E2E2E2DCDCDCDCDCDCDCDCDCE2F5E2E2E2F5DCE2E2E2DCE2E2E2DCF5E2E2E2E2F5E2E2E2E2E2E2E2E2
310
E2E2E2E2E2E2E2E2E2E2E2E2E2E2E2E2E2E2E2E2E2E2E2E2E2E2E2E2E2E2E2E2E2E2E2E2E2E2E2E2E2E2E2E2E2E2E2E2E2E2E2E2E2E2E2E2E2E2E2E2E2E2E2E2E2E2E2E2E2E2E2E2E2E2E2E2E2E2E2E2E2F5F5E2E2E2E2E2E2E2E2E2E2E2E2E2E2E2E2E2E2E2F5F5EFF5E2E2E2E2E2E2E2E2E2E2E2E2E2E2E2E2E2E2E2F5E2
310
E2E2E2E2E2E2E2E2E2E2E2E2E2E2E2DCE2DCDCE2DCDCDCE2E2F5E2E2E2DCF5F5DCE2DCE2E2DCDCDCE2E2E2E2F5E2E2E2E2E2E2E2E2E2E2E2E2E2E2E2E2E2E2E2E2E2E2E2E2E2E2E2E2E2E2E2E2E2E2E2E2E2E2E2E2E2E2E2E2E2E2E2E2E2E2E2E2E2E2E2E2E2E2E2E2E2E2E2E2E2E2E2E2E2E2E2E2E2E2E2E2E2E2E2E2E2E2
310
E2E2E2E2E2E2E2F5F5E2E2E2E2E2E2E2E2E2E2E2E2E2E2E2E2E2E2E2F5F5EFF5E2E2E2E2E2E2E2E2E2E2E2E2E2E2E2E2E2E2E2F5E2E2E2E2E2E2E2E2E2E2E2E2E2E2E2E2DCDCDCDCDCDCDCDCE2E2E2F5F5F5F5F5F5F5F5DCF5F5F5F5F5F5F5F5F5E2E2E2E2E2E2E2E2E2E2E2E2E2E2E2E2E2E2E2E2E2E2E2E2E2E2E2E2E2E2
310
E2E2E2E2E2E2E2E2E2E2E2E2E2E2E2E2E2E2E2E2E2E2E2E2E2E2E2E2E2E2E2E2E2E2E2E2E2E2E2E2E2E2E2E2E2E2E2E2E2E2E2E2E2E2E2E2E2E2E2E2F5F5E2E2E2E2E2E2E2E2E2E2E2E2E2E2E2E2E2E2E2F5F5EFF5E2E2E2E2E2E2E2E2E2E2E2E2E2E2E2E2E2E2E2F5E2E2E2E2E2E2E2E2E2E2E2E2E2E2E2E2E2E2E2E2E2E2
310
E2E2E2E2E2E2E2E2E2F5F5F5F5F5F5F5F5F5E2E2E2E2E2E2E2E2E2E2E2E2E2E2E2E2E2E2E2E2E2E2E2E2E2E2E2E2E2E2E2E2E2E2E2E2E2E2E2E2E2E2E2E2E2E2E2E2E2E2E2E2E2E2E2E2E2E2E2E2E2E2E2E2E2E2E2E2E2E2E2E2E2E2E2E2E2E2E2E2E2E2E2E2E2E2E2E2E2E2E2E2E2E2E2F5F5E2E2E2E2E2E2E2E2E2E2E2E2
310
E2E2E2E2E2E2E2F5F5EFF5E2E2E2E2E2E2E2E2E2E2E2E2E2E2E2E2E2E2E2F5E2E2E2E2E2E2E2E2E2E2E2E2E2E2E2E2E2E2E2E2E2E2E2E2E2E2E2E2E2E2E2E2F5E2E2DCE2E2E2F5E2E2E2E2E2E2E2E2E2E2E2E2E2E2E2E2E2E2E2E2E2E2E2E2E2E2E2E2E2E2E2E2E2E2E2E2E2E2E2E2E2E2E2E2E2E2E2E2E2E2E2E2E2E2E2E2
310
E2E2E2E2E2E2E2E2E2E2E2E2E2E2E2E2E2E2E2E2E2E2E2E2E2E2E2E2E2E2E2E2E2E2E2E2E2E2E2F5F5E2E2E2E2E2E2E2E2E2E2E2E2E2E2E2E2E2E2E2F5F5EFF5E2E2E2E2E2E2E2E2E2E2E2E2E2E2E2E2E2E2E2F5E2E2E2E2E2E2E2E2E2E2E2E2E2E2E2E2E2E2E2E2E2E2E2E2E2E2E2E2E2E2E2E2F5F5F5F5F5F5F5F5E2E2E2
310
E2E2E2E2E2E2E2E2E2E2E2E2E2E2E2E2E2E2E2E2E2E2E2E2E2E2E2E2E2E2E2E2E2E2E2E2E2E2E2E2E2E2E2E2E2E2E2E2E2E2E2E2E2E2E2E2E2E2E2E2E2E2E2E2E2E2E2E2E2E2E2E2E2E2E2E2E2E2E2E2E2E2E2E2E2E2E2E2E2E2E2E2F5F5E2E2E2E2E2E2E2E2E2E2E2E2E2E2E2E2E2E2E2F5F5EFF5E2E2E2E2E2E2E2E2E2E2
310
E2E2E2E2E2E2E2E2E2F5E2E2E2E2E2E2E2E2E2E2E2E2E2E2E2E2E2E2E2E2E2E2E2E2E2E2E2E2E2E2E2E2F5F5F5F5F5F5F5E2E2E2E2E2E2E2E2E2E2E2E2E2E2E2E2E2E2E2E2E2E2E2E2E2E2E2E2E2E2E2E2E2E2E2E2E2E2E2E2E2E2E2E2E2E2E2E2E2E2E2E2E2E2E2E2E2E2E2E2E2E2E2E2E2E2E2E2E2E2E2E2E2E2E2E2E2E2
310
E2E2E2E2E2E2E2E2E2E2E2E2E2E2E2E2E2E2F5F5E2E2E2E2E2E2E2E2E2E2E2E2E2E2E2E2E2E2E2F5F5EFF5E2E2E2E2E2E2E2E2E2E2E2E2E2E2E2E2E2E2E2F5E2E2E2E2E2E2E2E2E2E2E2E2E2E2E2E2E2E2E2E2E2E2E2E2E2E2E2E2E2E2E2E2F5F5F5DCF5F5F5F5E2E2E2E2E2E2E2E2E2E2E2E2E2E2E2E2E2E2E2E2E2E2E2E2
310
E2E2E2E2E2E2E2E2E2E2E2E2E2E2E2E2E2E2E2E2E2E2E2E2E2E2E2E2E2E2E2E2E2E2E2E2E2E2E2E2E2E2E2E2E2E2E2E2E2E2E2E2E2E2E2E2E2E2E2E2E2E2E2E2E2E2E2E2E2E2E2F5F5E2E2E2E2E2E2E2E2E2E2E2E2E2E2E2E2E2E2E2F5F5EFF5E2E2F5E2E2E2E2E2E2E2E2E2E2E2E2E2E2E2E2F5E2E2E2E2E2E2E2E2E2E2E2
310
E2E2E2E2E2E2E2E2E2E2E2E2E2E2E2E2E2E2E2E2E2F5F5E2E2E2E2F5F5E2E2E2E2E2E2E2E2E2E2E2E2E2E2E2E2E2E2E2E2E2E2E2E2E2E2E2E2E2E2E2E2E2E2E2E2E2E2E2E2E2E2E2E2E2E2E2E2E2E2E2E2E2E2E2E2E2E2E2E2E2E2E2E2E2E2E2E2E2E2E2E2E2E2E2E2E2E2E2E2E2E2E2E2E2E2E2E2E2E2E2E2E2E2E2F5F5E2
310
E2E2E2E2E2E2E2E2E2E2E2E2E2E2E2F5E2E2F5F5EFF5E2E2F5E2E2E2E2E2E2E2E2E2E2E2E2E2E2E2E2F5E2E2E2E2E2E2E2E2E2E2E2E2E2E2E2E2E2E2E2E2E2E2E2E2E2E2E2E2E2E2E2E2F5F5F5DCF5F5F5F5E2E2E2E2E2E2E2E2E2E2E2E2E2E2E2E2E2E2E2E2E2E2E2E2E2E2E2E2E2E2E2E2E2E2E2E2E2E2E2E2E2E2E2E2E2
310
E2E2E2E2E2E2E2E2E2E2E2E2E2E2E2E2E2E2E2E2E2E2E2E2E2E2E2E2E2E2E2E2E2E2E2E2E2E2E2E2E2E2E2E2E2E2E2E2E2E2F5F5E2E2E2E2E2E2E2E2E2E2E2E2E2E2E2E2F5E2E2F5F5EFF5E2E2F5E2E2E2E2E2E2E2E2E2E2E2E2E2E2E2E2F5E2E2E2E2E2E2E2E2E2E2E2E2E2E2E2E2E2E2E2E2E2E2E2E2E2E2E2E2E2E2E2E2
310
F5F5F5DCE2F5F5F5E2E2E2E2E2E2E2E2E2E2E2E2E2E2E2E2E2E2E2E2E2E2E2E2E2E2E2E2E2E2E2E2E2E2E2E2E2E2E2E2E2E2E2E2E2E2E2E2E2E2E2E2E2E2E2E2E2E2E2E2E2E2E2E2E2E2E2E2E2E2E2E2E2E2E2E2E2E2E2E2E2E2E2E2E2E2E2E2E2E2E2E2E2E2E2F5F5E2E2E2E2E2E2E2E2E2E2E2E2E2E2E2E2F5E2E2F5F5EF
310
F5E2E2F5E2E2E2E2E2E2E2E2E2E2E2E2E2E2E2E2F5E2E2E2E2E2E2E2E2E2E2E2E2E2E2E2E2E2E2E2E2E2E2E2E2E2E2E2E2E2E2E2E2F5F5F5DCE2F5F5F5E2E2E2E2E2E2E2E2E2E2E2E2E2E2E2E2E2E2E2E2E2E2E2E2E2E2E2E2E2E2E2E2E2E2E2E2E2E2E2E2E2E2E2E2E2E2E2E2E2E2E2E2E2E2E2E2E2E2E2E2E2E2E2E2E2E2
310
E2E2E2E2E2E2E2E2E2E2E2E2E2E2E2E2E2E2E2E2E2E2E2E2E2E2E2E2E2F5F5E2E2E2E2E2E2E2E2E2E2E2E2E2E2E2E2F5E2E2F5F5EFF5E2E2F5E2E2E2E2E2E2E2E2E2E2E2E2E2E2E2E2F5E2E2E2E2E2E2E2E2E2E2E2E2E2E2E2E2E2E2E2E2E2E2E2E2E2E2E2E2E2E2E2E2F5F5F5DCE2F5F5F5E2E2E2E2E2E2E2E2E2E2E2E2E2
310
E2E2E2E2E2E2E2E2E2E2E2E2E2E2E2E2E2E2E2E2E2E2E2E2E2E2E2E2E2E2E2E2E2E2E2E2E2E2E2E2E2E2E2E2E2E2E2E2E2E2E2E2E2E2E2E2E2E2E2E2E2E2E2E2E2E2E2E2E2E2E2E2E2E2E2E2E2E2E2E2E2E2F5F5E2E2E2E2E2E2E2E2E2E2E2E2E2E2E2E2F5E2E2F5F5EFF5E2E2F5E2E2E2E2E2E2E2E2E2E2E2E2E2E2E2E2F5
310
E2E2E2E2E2E2E2E2E2E2E2E2E2E2E2E2E2E2E2E2E2E2E2E2E2E2E2E2E2E2E2E2F5F5F5DCF5F5F5F5E2E2E2E2E2E2E2E2E2E2E2E2E2E2E2E2E2E2E2E2E2E2E2E2E2E2E2E2E2E2E2E2E2E2E2E2E2E2E2E2E2E2E2E2E2E2E2E2E2E2E2E2E2E2E2E2E2E2E2E2E2E2E2E2E2E2E2E2E2E2E2E2E2E2E2E2E2E2E2E2E2E2E2E2E2E2E2
310
E2E2E2E2E2E2E2E2F5F5E2E2E2E2E2E2E2E2E2E2E2E2E2E2E2E2F5E2E2F5F5EFF5E2E2F5E2E2E2E2E2E2E2E2E2E2E2E2E2E2E2E2F5E2E2E2E2E2E2E2E2E2E2E2E2E2E2E2E2E2E2E2E2E2E2E2E2E2E2E2E2E2E2E2E2F5F5F5DCF5F5F5F5E2E2E2E2E2E2E2E2E2E2E2E2E2E2E2E2E2E2E2E2E2E2E2E2E2E2E2E2E2E2E2E2E2E2
310
E2E2E2E2E2E2E2E2E2E2E2E2E2E2E2E2E2E2E2E2E2E2E2E2E2E2E2E2E2E2E2E2E2E2E2E2E2E2E2E2E2E2E2E2E2E2E2E2E2E2E2E2E2E2E2E2E2E2E2E2E2F5F5E2E2E2E2E2E2E2E2E2E2E2E2E2E2E2E2F5E2E2F5F5EFF5E2E2F5E2E2E2E2E2E2E2E2E2E2E2E2E2E2E2E2F5E2E2E2E2E2E2E2E2E2E2E2E2E2E2E2E2E2E2E2E2E2
310
E2E2E2E2E2E2E2E2E2E2E2E2E2E2DCE2E2E2E2E2E2E2E2E2E2E2E2E2E2E2E2E2E2E2E2E2E2E2E2E2E2E2E2E2E2E2E2E2E2E2E2E2E2E2E2E2E2E2E2E2E2E2E2E2E2E2E2E2E2E2E2E2E2E2E2E2E2E2E2E2E2E2E2E2E2E2E2E2E2E2E2E2E2E2E2E2E2E2E2E2E2E2E2E2E2E2E2E2E2E2E2E2E2E2F5F5E2E2E2E2E2E2E2E2E2E2E2
310
E2E2E2E2E2F5E2E2F5F5EFF5E2E2F5E2E2E2E2E2E2E2E2E2E2E2E2E2E2E2E2F5E2E2E2E2E2E2E2E2E2E2E2E2E2E2E2E2E2E2E2E2E2E2E2E2E2E2E2E2E2E2E2E2E2E2E2E2E2E2E2E2E2E2E2E2E2E2E2E2E2E2E2E2E2E2E2E2E2E2E2E2E2E2E2E2E2E2E2E2E2E2E2E2E2E2E2E2E2E2E2E2E2E2E2E2E2E2E2E2E2E2E2E2E2E2E2
310
E2E2E2E2E2E2E2E2E2E2E2E2E2E2E2E2E2E2E2E2E2E2E2E2E2E2E2E2E2E2E2E2E2E2E2E2E2E2E2E2F5F5E2E2E2E2E2E2E2E2E2E2E2E2E2E2E2E2F5E2E2F5F5EFF5E2E2F5E2E2E2E2E2E2E2E2E2E2E2E2E2E2E2E2F5E2E2E2E2E2E2E2E2E2E2E2E2E2E2E2E2E2E2E2E2E2E2E2E2E2E2E2E2E2E2E2E2E2E2E2E2E2E2E2E2E2E2
310
E2E2E2E2E2E2E2E2E2E2E2E2E2E2E2E2E2E2E2E2E2E2E2E2E2E2E2E2E2E2E2E2E2E2E2E2E2E2E2E2E2E2E2E2E2E2E2E2E2E2E2E2E2E2E2E2E2E2E2E2E2E2E2E2E2E2E2E2E2E2E2E2E2E2E2E2E2E2E2E2E2E2E2E2E2E2E2E2E2E2E2E2E2F5F5E2E2E2E2E2E2E2E2E2E2E2E2E2E2E2E2F5E2E2F5F5EFF5E2E2F5E2E2E2E2E2E2
310
E2E2E2E2E2E2E2E2E2E2F5E2E2E2E2E2E2E2E2E2E2E2E2E2E2E2E2DCDCDCDCDCDCDCDCDCE2E2E2E2E2E2E2E2E2E2E2E2E2E2E2E2E2E2E2E2E2E2E2E2E2E2E2E2E2E2E2E2E2E2E2E2DCDCDCDCDCDCDCDCDCE2E2E2E2E2E2E2E2E2E2E2E2E2E2E2E2E2E2E2E2E2E2E2E2E2E2E2E2E2E2E2DCDCDCDCDCDCDCDCDCE2E2E2E2E2E2
310
E2E2E2E2E2E2E2E2E2E2E2E2E2E2E2E2E2E2E2F5F5E2E2E2E2E2E2E2E2E2E2E2E2E2E2E2E2F5E2E2F5F5EFF5E2E2F5E2E2E2E2E2E2E2E2E2E2E2E2E2E2E2E2F5E2E2E2E2E2E2E2E2E2E2E2E2E2E2E2E2DCE2DCDCE2DCDCDCE2DCE2E2E2E2E2E2E2E2E2E2E2E2E2E2E2E2E2E2E2E2E2E2E2E2E2E2E2E2E2E2E2E2E2E2E2DCE2
310
DCDCDCDCDCDCE2DCE2E2E2E2E2E2E2E2E2E2E2E2E2E2E2E2E2E2E2E2E2E2E2E2E2E2E2E2E2E2DCE2DCE2DCDCDCDCE2DCE2E2E2E2E2E2E2E2E2E2E2E2E2E2E2E2E2E2E2E2E2E2E2E2F5F5E2E2E2E2E2E2E2E2E2E2E2E2E2E2E2E2F5E2E2F5F5EFF5E2E2F5E2E2E2E2E2E2E2E2E2E2E2E2E2E2E2E2F5E2E2E2E2E2E2E2E2E2E2
310
E2E2E2E2E2E2DCDCDCDCDCDCDCDCE2DCE2E2E2E2E2E2E2F5F5E2E2F5E2E2E2E2E2E2E2E2E2E2E2E2E2E2E2E2E2E2E2E2E2E2E2DCDCDCDCE2DCDCDCDCDCE2E2E2E2E2F5E2E2F5F5E2E2E2E2E2E2E2E2E2E2E2E2E2E2E2E2E2E2E2E2DCDCDCDCDCDCDCDCE2DCE2E2E2F5F5E2E2F5E2E2E2E2E2E2E2E2E2E2E2E2E2E2E2E2F5F5
310
E2E2E2E2E2E2E2E2E2E2E2E2E2E2E2E2F5E2E2F5F5EFF5E2E2F5E2E2E2E2E2E2E2E2E2E2E2E2E2E2E2E2F5E2E2E2E2E2E2E2E2E2E2E2E2E2E2E2E2E2E2E2E2E2E2E2E2E2E2DCE2E2E2E2E2E2F5F5F5F5F5E2E2E2E2E2E2E2E2E2E2E2E2E2E2E2E2E2E2E2E2E2E2E2E2E2E2E2E2E2E2E2E2E2DCE2E2E2E2F5F5F5F5F5E2E2E2
310
E2E2E2E2E2E2E2E2E2E2E2E2E2E2E2E2E2E2E2E2E2E2E2E2E2E2E2DCE2E2F5F5F5F5F5E2E2E2E2E2E2E2E2E2E2E2E2E2E2E2E2F5F5E2E2E2E2E2E2E2E2E2E2E2E2E2E2E2E2F5E2E2F5F5EFF5E2E2F5E2E2E2E2E2E2E2E2E2E2E2E2E2E2E2E2F5E2E2E2E2E2E2E2E2E2E2E2E2E2E2E2E2E2E2E2E2E2E2E2E2E2E2DCE2E2E2E2
310
E2E2F5F5E2E2F5E2E2E2E2E2E2E2E2E2E2E2E2E2E2E2E2E2E2E2E2E2E2E2E2E2E2E2E2E2E2E2E2E2E2DCE2E2E2F5F5E2F5F5E2E2E2E2E2E2E2E2E2E2E2E2E2E2E2E2E2E2E2E2E2E2E2E2E2E2E2E2E2E2E2DCE2F5F5E2E2F5E2E2E2E2E2E2E2E2E2E2E2E2E2E2E2E2F5F5E2E2E2E2E2E2E2E2E2E2E2E2E2E2E2E2F5E2E2F5F5
310
EFF5E2E2E2E2E2E2E2E2E2E2E2E2E2E2E2E2E2E2E2F5E2E2E2E2E2E2E2E2E2E2E2E2E2E2E2E2E2E2E2E2E2E2E2E2E2E2E2DCE2E2E2E2E2E2E2E2E2E2E2E2E2E2E2E2E2E2E2E2E2E2E2E2E2E2E2E2E2E2E2E2E2E2E2E2E2E2E2E2E2E2E2E2DCDCE2E2E2E2E2E2E2E2E2E2E2E2E2E2E2E2E2E2E2E2E2E2E2E2E2E2E2E2E2E2E2
310
E2E2E2E2E2E2E2DCE2E2E2E2E2E2E2E2E2E2E2E2E2E2E2E2E2E2E2E2E2E2F5F5E2E2E2E2E2E2E2E2E2E2E2E2E2E2E2E2E2E2E2F5F5EFF5E2E2E2E2E2E2E2E2E2E2E2E2E2E2E2E2E2E2E2F5E2E2E2E2E2E2E2E2E2E2E2E2E2E2E2E2E2E2E2E2E2E2E2E2E2E2F5DCDCF5F5E2E2E2E2DCE2E2E2E2E2F5DCDCDCDCE2E2E2E2E2E2
310
E2E2E2E2E2E2E2E2E2E2E2E2E2F5F5F5F5F5F5F5DCDCDCF5F5F5F5F5F5DCE2E2E2E2E2E2E2E2E2E2E2E2E2E2F5DCDCF5F5E2E2E2E2DCE2E2E2E2F5F5DCDCDCE2E2E2E2E2E2E2E2E2E2E2E2E2E2E2E2E2E2E2E2F5F5E2E2E2E2E2E2E2E2E2E2E2E2E2E2E2E2E2E2E2F5F5EFF5E2E2E2E2E2E2E2E2E2E2E2E2E2E2E2E2E2E2E2
310
F5E2E2E2E2E2E2E2E2E2E2E2E2E2E2E2E2E2E2E2E2E2E2E2E2E2E2F5DCDCF5F5F5F5E2E2DCE2E2F5F5F5F5DCDCDCDCDCE2E2E2E2E2E2E2E2E2E2E2E2E2E2E2E2E2E2F5F5F5F5F5F5F5DCDCDCF5F5F5F5F5F5DCDCE2E2E2E2E2E2E2E2E2E2E2E2E2F5DCDCF5F5F5F5E2E2DCE2E2F5F5F5F5DCDCDCDCE2E2E2E2E2E2E2E2E2E2
310
E2E2E2E2E2E2E2E2E2F5F5E2E2E2E2E2E2E2E2E2E2E2E2E2E2E2E2E2E2E2F5F5EFF5E2E2E2E2E2E2E2E2E2E2E2E2E2E2E2E2E2E2E2F5E2E2E2E2E2E2E2E2E2E2E2E2E2E2E2E2E2E2E2E2E2E2E2E2E2E2E2E2E2E2F5F5F5F5F5DCF5F5F5F5F5F5E2E2E2E2DCE2E2E2E2E2E2E2E2E2E2E2E2E2E2E2E2E2E2F5F5F5F5F5F5F5F5
310
DCF5F5F5F5F5F5F5F5DCE2E2E2E2E2E2E2E2E2E2E2E2E2E2E2E2F5F5F5F5F5F5DCF5F5F5F5F5F5E2E2E2DCE2E2E2E2E2E2E2E2E2E2E2E2E2E2E2E2E2E2E2F5F5E2E2E2E2E2E2E2E2E2E2E2E2E2E2E2E2E2E2E2F5F5EFF5E2E2E2E2E2E2E2E2E2E2E2E2E2E2E2E2E2E2E2F5E2E2E2E2E2E2E2E2E2E2E2E2E2E2E2E2E2E2E2E2
310
E2E2E2E2E2E2E2E2E2E2F5F5E2E2E2DCE2E2E2E2F5E2E2E2E2E2E2DCE2E2E2E2E2E2E2E2E2E2E2E2E2E2E2E2E2F5F5E2E2E2E2E2E2DCE2E2E2E2E2E2F5F5E2DCE2E2E2E2E2E2E2E2E2E2E2E2E2E2E2E2F5F5E2E2E2DCE2E2E2F5F5E2E2E2E2E2DCE2E2E2E2E2E2E2E2E2E2E2E2E2E2E2E2E2E2F5F5E2E2E2E2E2E2E2E2E2E2
310
E2E2E2E2E2E2E2E2E2F5F5EFF5E2E2E2E2E2E2E2E2E2E2E2E2E2E2E2E2E2E2E2F5E2E2E2E2E2E2E2E2E2E2E2E2E2E2E2E2E2E2E2E2E2E2E2E2E2E2E2E2E2E2F5F5E2E2E2DCE2E2E2E2F5E2E2E2E2E2E2DCE2E2E2E2E2E2E2E2E2E2E2E2E2E2E2E2E2F5F5E2E2E2E2E2E2DCE2E2E2E2E2E2F5F5E2DCE2E2E2E2E2E2E2E2E2E2
310
E2E2E2E2E2E2F5F5E2E2E2DCE2E2E2F5F5E2E2E2E2E2E2DCE2E2E2E2E2E2E2E2E2E2E2E2E2E2E2E2E2F5F5E2E2E2E2E2E2E2E2E2E2E2E2E2E2E2E2E2E2E2F5F5EFF5E2E2E2E2E2E2E2E2E2E2E2E2E2E2E2E2E2E2E2F5E2E2E2E2E2E2E2E2E2E2E2E2E2E2E2E2E2E2E2E2E2E2E2E2E2E2E2E2E2E2F5F5E2E2DCF5DCDCE2E2F5
310
E2E2E2E2E2E2E2DCE2E2E2E2E2E2E2E2E2E2E2E2E2E2E2E2F5F5E2E2E2E2E2E2DCE2E2E2E2E2E2F5F5E2E2DCE2E2E2E2E2E2E2E2E2E2E2E2E2E2E2F5F5E2E2E2E2E2E2E2F5F5E2E2E2E2E2E2DCE2E2E2E2E2E2E2E2E2E2E2E2E2E2E2E2E2F5F5E2E2E2E2E2E2E2E2E2E2E2E2E2E2E2E2E2E2E2F5F5EFF5E2E2E2E2E2E2E2E2
310
E2E2E2E2E2E2E2E2E2E2E2F5E2E2E2E2E2E2E2E2E2E2E2E2E2E2E2E2E2E2E2E2E2E2E2E2E2E2E2E2E2E2F5F5E2DCDCDCDCDCE2E2F5E2E2E2E2E2E2E2DCDCDCDCDCDCDCDCDCE2E2E2E2E2E2DCDCDCDCDCE2E2E2E2E2DCE2E2E2E2E2E2F5F5E2E2DCDCDCDCDCDCDCDCDCE2E2E2E2E2E2E2F5F5E2E2E2DCE2E2E2F5F5E2E2E2E2
310
E2E2E2DCDCDCDCDCDCDCDCDCE2E2E2E2E2E2E2E2F5F5E2E2E2E2E2E2E2E2E2E2E2E2E2E2E2E2E2E2E2F5F5EFF5E2E2E2E2E2E2E2E2E2E2E2E2E2E2E2E2E2E2E2F5E2E2E2E2E2E2E2E2E2E2E2E2E2E2E2E2E2E2E2E2E2E2E2E2E2E2E2E2E2E2F5F5E2E2DCDCDCDCE2E2F5E2E2E2E2E2E2E2E2DCDCDCDCE2DCDCDCE2E2E2E2E2
310
E2E2E2F5F5E2E2E2E2E2E2DCE2E2E2E2E2E2F5F5E2E2E2DCDCDCE2DCDCDCDCE2E2E2E2E2E2E2F5F5E2E2E2DCE2E2E2F5F5E2E2E2E2E2E2E2E2DCDCDCDCE2DCDCDCE2E2E2E2E2E2E2E2F5F5E2E2E2E2E2E2E2E2E2E2E2E2E2E2E2E2E2E2E2F5F5EFF5E2E2F5E2E2E2E2E2E2E2E2E2E2E2E2E2E2E2E2F5E2E2E2E2E2E2E2E2E2
310
E2E2E2E2E2E2E2E2E2E2E2E2E2E2E2E2E2E2E2E2E2F5F5E2E2E2DCE2E2E2E2F5E2E2E2E2E2E2E2E2DCDCDCDCDCDCDCDCE2E2E2E2E2E2E2E2F5F5E2E2E2E2E2E2E2E2E2E2E2E2E2F5F5E2E2E2DCDCDCDCDCDCDCDCE2E2E2E2E2E2E2F5F5E2E2E2E2E2E2E2F5F5E2E2E2E2E2E2E2E2DCDCDCDCDCDCDCDCE2E2E2E2E2E2E2E2F5
310
F5E2E2E2E2E2E2E2E2E2E2E2E2E2E2E2E2F5E2E2F5F5EFF5E2E2F5E2E2E2E2E2E2E2E2E2E2E2E2E2E2E2E2F5E2E2E2E2E2E2E2E2E2E2E2E2E2E2E2E2E2E2E2E2E2E2E2E2E2E2E2E2E2E2F5F5E2E2DCDCDCE2E2E2F5E2E2E2E2E2E2E2E2E2E2E2E2E2E2E2E2E2E2E2E2E2E2E2E2F5F5E2E2E2E2E2E2DCE2E2E2E2E2E2F5F5E2
310
E2E2E2E2E2E2E2E2E2E2E2E2E2E2E2E2E2F5F5E2E2DCDCDCE2E2F5F5E2E2E2E2E2E2E2E2E2E2E2E2E2E2E2E2E2E2E2E2E2E2E2E2F5F5E2E2E2E2E2E2E2E2E2E2E2E2E2E2E2E2F5E2E2F5F5EFF5E2E2F5E2E2E2E2E2E2E2E2E2E2E2E2E2E2E2E2F5E2E2E2E2E2E2E2E2E2E2E2E2E2E2E2E2E2E2E2E2E2E2E2E2E2E2E2E2E2E2
310
F5F5E2E2DCDCF5DCE2E2F5E2E2E2E2E2E2E2E2E2E2E2E2E2E2E2E2E2E2E2E2E2E2E2E2F5F5E2E2E2E2E2E2DCE2E2E2E2E2E2F5F5E2E2E2E2E2E2E2E2E2E2E2E2E2E2E2E2E2E2F5F5E2E2DCDCDCE2E2F5F5E2E2E2E2E2E2E2E2E2E2E2E2E2E2E2E2E2E2E2E2E2E2E2E2F5F5E2E2E2E2E2E2E2E2E2E2E2E2E2E2E2E2F5E2E2F5
310
F5EFF5E2E2F5E2E2E2E2E2E2E2E2E2E2E2E2E2E2E2E2F5E2E2E2E2E2E2E2E2E2E2E2E2E2E2E2E2E2E2E2E2E2E2E2E2E2E2E2E2E2E2F5F5E2DCDCDCDCDCE2E2F5E2E2E2E2E2E2E2E2E2E2E2E2E2E2E2E2E2E2E2E2E2E2DCDCDCDCDCE2E2E2E2E2E2E2E2E2E2E2DCDCDCDCE2E2E2E2E2E2E2E2E2E2E2E2E2E2E2E2E2F5F5E2DC
310
DCDCDCDCE2F5F5E2E2E2E2E2E2E2E2E2E2E2E2E2E2E2E2E2E2E2E2E2E2E2E2F5F5E2E2E2E2E2E2E2E2E2E2E2E2E2E2E2E2F5E2E2F5F5EFF5E2E2F5E2E2E2E2E2E2E2E2E2E2E2E2E2E2E2E2F5E2E2E2E2E2E2E2E2E2E2E2E2E2E2E2E2E2E2E2E2E2E2E2E2E2E2E2E2E2E2F5F5E2E2DCDCDCDCE2E2F5E2E2E2E2E2E2E2E2E2E2
310
E2E2E2E2E2E2E2E2E2E2E2E2E2E2F5F5E2E2E2E2E2E2DCE2E2E2E2E2E2F5F5E2E2E2E2E2E2E2E2E2E2E2E2E2E2E2E2E2E2F5F5E2E2DCDCDCE2E2F5F5E2E2E2E2E2E2E2E2E2E2E2E2E2E2E2E2E2E2E2E2E2E2E2E2F5F5E2E2E2E2E2E2E2E2E2E2E2E2E2E2E2E2F5E2E2F5F5EFF5E2E2F5E2E2E2E2E2E2E2E2E2E2E2E2E2E2E2
310
E2F5E2E2E2E2E2E2E2E2E2E2E2E2E2E2E2E2E2E2E2E2E2E2E2E2E2E2E2E2E2E2F5F5E2E2E2DCE2E2E2E2F5E2E2E2E2E2E2E2E2E2E2E2E2E2E2E2E2E2E2E2E2E2E2E2E2F5F5E2E2E2E2E2E2DCE2E2E2E2E2E2F5F5E2E2E2E2E2E2E2E2E2E2E2E2E2E2E2E2E2E2F5F5E2E2E2DCE2E2E2F5F5E2E2E2E2E2E2E2E2E2E2E2E2E2E2
310
E2E2E2E2E2E2E2E2E2E2F5F5E2E2E2E2E2E2E2E2E2E2E2E2E2E2E2E2F5E2E2F5F5EFF5E2E2F5E2E2E2E2E2E2E2E2E2E2E2E2E2E2E2E2F5E2E2E2E2E2E2E2E2E2E2E2E2E2E2E2E2E2E2E2E2E2E2E2E2E2E2E2E2E2E2F5F5F5F5F5DCF5F5F5F5F5E2E2E2E2E2E2E2E2E2E2E2E2E2E2E2E2E2E2E2E2E2E2E2E2F5F5F5F5F5F5F5
310
F5DCF5F5F5F5F5F5F5F5E2E2E2E2E2E2E2E2E2E2E2E2E2E2E2E2E2E2F5F5F5F5F5DCF5F5F5F5F5E2E2E2E2E2E2E2E2E2E2E2E2E2E2E2E2E2E2E2E2E2E2E2E2F5F5E2E2E2E2E2E2E2E2E2E2E2E2E2E2E2E2F5E2E2F5F5EFF5E2E2F5E2E2E2E2E2E2E2E2E2E2E2E2E2E2E2E2F5E2E2E2E2E2E2E2E2E2E2E2E2E2E2E2E2E2E2E2
310
E2E2E2E2E2E2E2E2E2E2E2F5F5E2E2E2DCE2E2E2E2F5E2E2E2E2E2E2E2E2E2E2E2E2E2E2E2E2E2E2E2E2E2E2E2E2F5F5E2E2E2E2E2E2DCE2E2E2E2E2E2F5F5E2E2E2E2E2E2E2E2E2E2E2E2E2E2E2E2E2E2F5F5E2E2E2DCE2E2E2F5F5E2E2E2E2E2E2E2E2E2E2E2E2E2E2E2E2E2E2E2E2E2E2E2E2F5F5E2E2E2E2E2E2E2E2E2
310
E2E2E2E2E2E2E2F5E2E2F5F5EFF5E2E2F5E2E2E2E2E2E2E2E2E2E2E2E2E2E2E2E2F5E2E2E2E2E2E2E2E2E2E2E2E2E2E2E2E2E2E2E2E2E2E2E2E2E2E2E2E2E2E2F5F5E2DCE2DCE2E2E2E2F5E2E2E2E2E2E2E2E2E2E2E2E2E2E2E2E2E2E2E2E2E2E2E2E2F5F5E2E2E2E2E2E2DCE2E2E2E2E2E2F5F5E2E2E2E2E2E2E2E2E2E2E2
310
E2E2E2E2E2E2E2F5F5E2E2E2DCE2E2E2F5F5E2E2E2E2E2E2E2E2E2E2E2E2E2E2E2E2E2E2E2E2E2E2E2E2F5F5E2E2E2E2E2E2E2E2E2E2E2E2E2E2E2E2F5E2E2F5F5EFF5E2E2F5E2E2E2E2E2E2E2E2E2E2E2E2E2E2E2E2F5E2E2E2E2E2E2E2E2E2E2E2E2E2E2E2E2E2E2E2E2E2E2E2E2E2E2E2E2E2E2F5F5DCDCDCE2E2E2E2E2
310
F5E2E2E2E2E2E2E2E2E2E2E2E2E2E2E2E2E2E2E2E2E2E2E2E2F5F5E2E2E2E2E2E2DCE2E2E2E2E2E2F5F5E2E2E2E2E2E2E2E2E2E2E2E2E2E2E2E2E2E2F5F5E2E2E2E2E2E2E2F5F5E2E2E2E2E2E2E2E2E2E2E2E2E2E2E2E2E2E2E2E2E2E2E2E2F5F5E2E2E2E2E2E2E2E2E2E2E2E2E2E2E2E2F5E2E2F5F5EFF5E2E2F5E2E2E2E2
310
E2E2E2E2E2E2E2E2E2E2E2E2F5E2E2E2E2E2E2E2E2E2E2E2E2E2E2E2E2E2E2E2E2E2E2E2E2E2E2E2E2E2E2F5F5E2DCE2DCE2E2E2E2F5E2E2E2E2E2E2E2E2E2E2E2E2E2E2E2E2E2E2E2E2E2E2E2E2F5F5E2E2E2E2E2E2DCE2E2E2E2E2E2F5F5E2E2E2E2E2E2E2E2E2E2E2E2E2E2E2E2E2E2F5F5E2E2E2DCE2E2E2F5F5E2E2E2
310
E2E2E2E2E2E2E2E2E2E2E2E2E2E2E2E2E2E2E2E2E2F5F5E2E2E2E2E2E2E2E2E2E2E2E2E2E2E2E2F5E2E2F5F5EFF5E2E2F5E2E2E2E2E2E2E2E2E2E2E2E2E2E2E2E2F5E2E2E2E2E2E2E2E2E2E2E2E2E2E2E2E2E2E2E2E2E2E2E2E2E2E2E2E2E2E2F5F5F5F5F5F5F5F5F5F5F5E2E2E2E2E2E2E2E2E2E2E2E2E2E2E2E2E2E2E2E2
310
E2E2E2E2F5F5F5F5F5F5F5F5F5F5F5F5F5F5F5F5F5E2E2E2E2E2E2E2E2E2E2E2E2E2E2E2E2E2E2F5F5F5F5F5DCF5F5F5F5F5E2E2E2E2E2E2E2E2E2E2E2E2E2E2E2E2E2E2E2E2E2E2E2E2F5F5E2E2E2E2E2E2E2E2E2E2E2E2E2E2E2E2F5E2E2F5F5EFF5E2E2F5E2E2E2E2E2E2E2E2E2E2E2E2E2E2E2E2F5E2E2E2E2E2E2E2E2
310
E2E2E2E2E2E2E2E2E2E2E2E2E2E2E2E2E2E2E2E2E2E2F5F5E2E2E2E2E2E2E2E2F5E2E2E2E2E2E2E2E2E2E2E2E2E2E2E2E2E2E2E2E2E2E2E2E2F5F5E2E2E2E2E2E2E2E2E2E2E2E2E2F5F5E2E2E2E2E2E2E2E2E2E2E2E2E2E2E2E2E2E2F5F5E2E2E2E2E2E2E2F5F5E2E2E2E2E2E2E2E2E2E2E2E2E2E2E2E2E2E2E2E2E2E2E2E2
310
F5F5E2E2E2E2E2E2E2E2E2E2E2E2E2E2E2E2F5E2E2F5F5EFF5E2E2F5E2E2E2E2E2E2E2E2E2E2E2E2E2E2E2E2F5E2E2E2E2E2E2E2E2E2E2E2E2E2E2E2E2E2E2E2E2E2E2E2E2E2E2E2E2E2E2F5F5E2E2E2DCE2E2E2E2F5E2E2E2E2E2E2E2E2E2E2E2E2E2E2E2E2E2E2E2E2E2E2E2E2F5F5E2E2E2E2E2E2DCE2E2E2E2E2E2F5F5
310
E2E2E2E2E2E2E2E2E2E2E2E2E2E2E2E2E2E2F5F5E2E2E2DCE2E2E2F5F5E2E2E2E2E2E2E2E2E2E2E2E2E2E2E2E2E2E2E2E2E2E2E2E2F5F5E2E2E2E2E2E2E2E2E2E2E2E2E2E2E2E2F5E2E2F5F5EFF5E2E2F5E2E2E2E2E2E2E2E2E2E2E2E2E2E2E2E2F5E2E2E2E2E2E2E2E2E2E2E2E2E2E2E2E2E2E2E2E2E2E2E2E2E2E2E2E2E2
310
E2F5F5E2E2E2DCE2E2E2E2F5E2E2E2E2E2E2E2E2E2E2E2E2E2E2E2E2E2E2E2E2E2E2E2E2F5F5E2E2E2E2E2E2DCE2E2E2E2E2E2F5F5E2E2E2E2E2E2E2E2E2E2E2E2E2E2E2E2E2E2F5F5E2E2E2DCE2E2E2F5F5E2E2E2E2E2E2E2E2E2E2E2E2E2E2E2E2E2E2E2E2E2E2E2E2F5F5E2E2E2E2E2E2E2E2E2E2E2E2E2E2E2E2F5E2E2
310
F5F5EFF5E2E2E2E2E2E2E2E2E2E2E2E2E2E2E2E2E2E2E2F5E2E2E2E2E2E2E2E2E2E2E2E2E2E2E2E2E2E2E2E2E2E2E2E2E2E2E2E2E2E2F5F5F5F5F5F5F5F5F5F5F5E2E2E2E2E2E2E2E2E2E2E2E2E2F5F5F5F5F5F5F5F5F5F5F5F5F5E2E2E2E2E2E2DCE2E2E2E2E2E2F5F5E2E2E2E2E2E2E2E2E2E2E2E2E2E2E2E2E2E2F5F5E2
310
E2E2DCE2E2E2F5F5E2E2E2E2E2E2E2E2E2E2E2E2E2E2E2E2E2E2E2E2E2E2E2E2F5F5E2E2E2E2E2E2E2E2E2E2E2E2E2E2E2E2E2E2E2F5F5EFF5E2E2E2E2E2E2E2E2E2E2E2E2E2E2E2E2E2E2E2F5E2E2E2E2E2E2E2E2E2E2E2E2E2E2E2E2E2E2E2E2E2E2E2E2E2E2E2E2E2E2F5F5F5E2E2DCE2E2E2F5F5E2E2E2E2E2E2E2E2E2
310
E2E2E2F5F5F5F5F5F5E2F5E2F5E2F5F5F5E2E2E2E2E2E2DCE2E2E2E2E2E2F5F5E2E2E2E2E2E2E2E2E2E2E2E2E2E2E2E2E2E2F5F5E2E2E2DCE2E2E2F5F5E2E2E2E2E2E2E2E2E2E2E2E2E2E2E2E2E2E2E2E2E2E2E2E2F5F5E2E2E2E2E2E2E2E2E2E2E2E2E2E2E2E2E2E2E2F5F5EFF5E2E2E2E2E2E2E2E2E2E2E2E2E2E2E2E2E2
310
E2E2F5E2E2E2E2E2E2E2E2E2E2E2E2E2E2E2E2E2E2E2E2E2E2E2E2E2E2E2E2E2E2F5F5F5E2E2DCE2E2E2F5F5E2E2E2E2E2E2E2E2E2E2E2E2F5F5F5F5F5F5E2F5E2F5E2F5F5F5E2E2E2E2E2E2DCE2E2E2E2E2E2F5F5E2E2E2E2E2E2E2E2E2E2E2E2E2E2E2E2E2E2F5F5E2E2E2DCE2E2E2F5F5E2E2E2E2E2E2E2E2E2E2E2E2E2
310
E2E2E2E2E2E2E2E2E2E2E2F5F5E2E2E2E2E2E2E2E2E2E2E2E2E2E2E2E2E2E2E2F5F5EFF5E2E2E2E2E2E2E2E2E2E2E2E2E2E2E2E2E2E2E2F5E2E2E2E2E2E2E2E2E2E2E2E2E2E2E2E2E2E2E2E2E2E2E2E2E2E2E2E2E2E2F5F5F5E2DCDCDCDCE2F5F5E2E2E2E2E2E2E2E2E2E2E2DCDCDCDCDCDCDCDCDCDCDCDCDCF5DCE2E2E2E2
310
E2E2DCE2E2E2E2E2E2F5F5E2E2E2E2E2E2E2E2E2E2E2E2E2E2E2E2E2E2F5F5E2E2E2DCE2E2E2F5F5E2E2E2E2E2E2E2E2E2E2E2E2E2E2E2E2E2E2E2E2E2E2E2E2F5F5E2E2E2E2E2E2E2E2E2E2E2E2E2E2E2E2E2E2E2F5F5EFF5E2E2E2E2E2E2E2E2E2E2E2E2E2E2E2E2E2E2E2F5E2E2E2E2E2E2E2E2E2E2E2E2E2E2E2E2E2E2
310
E2E2E2E2E2E2E2E2E2E2E2E2F5F5F5E2E2F5F5E2E2F5F5E2E2E2E2E2E2E2E2E2E2E2E2F5F5F5F5F5F5E2F5E2F5E2F5F5F5E2E2E2E2E2E2DCE2E2E2E2E2E2F5F5E2E2E2E2E2E2E2E2E2E2E2E2E2E2E2E2E2E2F5F5E2E2E2DCE2E2E2F5F5E2E2E2E2E2E2E2E2E2E2E2E2E2E2E2E2E2E2E2E2E2E2E2E2F5F5E2E2E2E2E2E2E2E2
310
E2E2E2E2E2E2E2E2E2E2E2F5F5EFF5E2E2E2E2E2E2E2E2E2E2E2E2E2E2E2E2E2E2E2F5E2E2E2E2E2E2E2E2E2E2E2E2E2E2E2E2E2E2E2E2E2E2E2E2E2E2E2E2E2E2F5F5F5E2E2DCE2E2E2F5F5E2E2E2E2E2E2E2E2E2E2E2E2F5F5F5F5F5F5E2F5E2F5E2F5F5F5E2E2E2E2E2E2DCE2E2E2E2E2E2F5F5E2E2E2E2E2E2E2E2E2E2
310
E2E2E2E2E2E2E2E2F5F5E2E2E2DCE2E2E2F5F5E2E2E2E2E2E2E2E2E2E2E2E2E2E2E2E2E2E2E2E2E2E2E2E2F5F5E2E2E2E2E2E2E2E2E2E2E2E2E2E2E2E2E2E2E2F5F5EFF5E2E2E2E2E2E2E2E2E2E2E2E2E2E2E2E2E2E2E2F5E2E2E2E2E2E2E2E2E2E2E2E2E2E2E2E2E2E2E2E2E2E2E2E2E2E2E2E2E2E2F5F5F5E2E2DCE2E2F5
310
F5F5E2E2E2E2E2E2E2E2E2E2E2E2F5F5F5DCF5F5E2F5E2F5E2F5F5F5E2E2E2E2E2E2DCE2E2E2E2E2E2F5F5E2E2E2E2E2E2E2E2E2E2E2E2E2E2E2E2E2E2F5F5E2E2E2DCE2E2E2F5F5E2E2E2E2E2E2E2E2E2E2E2E2E2E2E2E2E2E2E2E2E2E2E2E2F5F5E2E2E2E2E2E2E2E2E2E2E2E2E2E2E2E2E2E2E2F5F5EFF5E2E2E2E2E2E2
310
E2E2E2E2E2E2E2E2E2E2E2E2E2F5E2E2E2E2E2E2E2E2E2E2E2E2E2E2E2E2E2E2E2E2E2E2E2E2E2E2E2E2E2E2F5F5F5F5F5F5F5F5F5F5F5E2E2E2E2E2E2E2E2E2E2E2E2F5F5F5DCF5F5F5F5F5F5F5F5F5F5E2E2E2E2E2E2DCE2E2E2E2E2E2F5F5E2E2E2E2E2E2E2E2E2E2E2E2E2E2E2E2E2E2F5F5E2E2E2DCE2E2E2F5F5E2E2
310
E2E2E2E2E2E2E2E2E2E2E2E2E2E2E2E2E2E2E2E2E2E2F5F5E2E2E2E2E2E2E2E2E2E2E2E2E2E2E2E2E2E2E2F5F5EFF5E2E2E2E2E2E2E2E2E2E2E2E2E2E2E2E2E2E2E2F5E2E2E2E2E2E2E2E2E2E2E2E2E2E2E2E2E2E2E2E2E2E2E2E2E2E2E2E2E2E2F5F5F5E2E2DCE2E2F5F5F5E2E2E2E2E2E2E2E2E2E2E2E2F5E2E2DCE2E2F5
310
E2E2E2E2E2F5F5F5F5F5F5F5F5F5F5F5F5F5F5F5F5F5E2E2E2E2E2E2E2E2E2E2E2E2E2E2E2E2E2E2F5F5F5F5F5DCF5F5F5F5F5E2E2E2E2E2E2E2E2E2E2E2E2E2E2E2E2E2E2E2E2E2E2E2E2F5F5E2E2E2E2E2E2E2E2E2E2E2E2E2E2E2E2E2E2E2F5F5EFF5E2E2F5E2E2E2E2E2E2E2E2E2E2E2E2E2E2E2E2F5E2E2E2E2E2E2E2
310
E2E2E2E2E2E2E2E2E2E2E2E2E2E2E2E2E2E2E2E2E2E2E2E2E2F5E2E2DCE2E2F5E2E2E2E2E2E2E2E2E2E2E2E2E2E2F5E2E2DCE2E2F5E2E2E2E2E2E2E2E2E2E2E2E2E2DCE2E2E2E2E2E2E2E2E2E2E2E2E2E2E2E2E2E2E2E2E2E2E2E2E2E2E2E2F5E2E2DCE2E2F5E2E2E2E2E2E2E2E2E2E2E2E2E2E2E2E2E2E2E2E2E2E2E2E2E2
310
E2F5F5E2E2E2E2E2E2E2E2E2E2E2E2E2E2E2E2F5E2E2F5F5EFF5E2E2F5E2E2E2E2E2E2E2E2E2E2E2E2E2E2E2E2F5E2E2E2E2E2E2E2E2E2E2E2E2E2E2E2E2E2E2E2E2E2E2E2E2E2E2E2E2E2E2E2E2F5F5F5F5F5F5F5E2E2E2E2E2E2E2E2E2E2E2E2E2E2F5F5F5F5F5F5F5E2E2E2E2E2E2E2E2E2E2E2E2E2E2E2E2E2E2E2E2E2
310
E2E2E2E2E2E2E2E2E2E2E2E2E2E2E2E2E2E2E2E2E2F5F5F5DCF5F5F5E2E2E2E2E2E2E2E2E2E2E2E2E2E2E2E2E2E2E2E2E2E2E2E2E2E2F5F5E2E2E2E2E2E2E2E2E2E2E2E2E2E2E2E2F5E2E2F5F5EFF5E2E2F5E2E2E2E2E2E2E2E2E2E2E2E2E2E2E2E2F5E2E2E2E2E2E2E2E2E2E2E2E2E2E2E2E2E2E2E2E2E2E2E2E2E2E2E2E2
310
E2E2E2E2E2F5F5F5F5F5F5E2E2E2E2E2E2E2E2E2E2E2E2E2E2E2F5F5DCF5F5E2E2E2E2E2E2E2E2E2E2E2E2E2E2E2E2E2E2E2E2E2E2E2E2E2E2E2E2E2E2E2E2E2E2E2E2E2E2E2E2E2E2E2F5F5F5DCF5F5F5E2E2E2E2E2E2E2E2E2E2E2E2E2E2E2E2E2E2E2E2E2E2E2E2E2E2F5F5E2E2E2E2E2E2E2E2E2E2E2E2E2E2E2E2F5E2
310
E2F5F5EFF5E2E2F5E2E2E2E2E2E2E2E2E2E2E2E2E2E2E2E2F5E2E2E2E2E2E2E2E2E2E2E2E2E2E2E2E2E2E2E2E2E2E2E2E2E2E2E2E2E2E2E2E2E2F5F5F5F5F5F5E2E2E2E2E2E2E2E2E2E2E2E2E2E2E2F5F5DCF5F5E2E2E2E2E2E2E2E2E2E2E2E2E2E2E2E2E2E2E2E2E2E2E2E2E2E2E2E2E2E2E2E2E2E2E2E2E2E2E2E2E2E2E2
310
F5F5F5DCF5F5F5E2E2E2E2E2E2E2E2E2E2E2E2E2E2E2E2E2E2E2E2E2E2E2E2E2E2F5F5E2E2E2E2E2E2E2E2E2E2E2E2E2E2E2E2F5E2E2F5F5EFF5E2E2F5E2E2E2E2E2E2E2E2E2E2E2E2E2E2E2E2F5E2E2E2E2E2E2E2E2E2E2E2E2E2E2E2E2E2E2E2E2E2E2E2E2E2E2E2E2E2E2E2E2E2F5F5F5F5F5F5E2E2E2E2E2E2E2E2E2E2
310
E2E2E2E2E2F5F5DCF5F5E2E2E2E2E2E2E2E2E2E2E2E2E2E2E2E2E2E2E2E2E2E2E2E2E2E2E2E2E2E2E2E2E2E2E2E2E2E2E2E2E2E2E2F5F5F5DCF5F5F5E2E2E2E2E2E2E2E2E2E2E2E2E2E2E2E2E2E2E2E2E2E2E2E2E2E2F5F5E2E2E2E2E2E2E2E2E2E2E2E2E2E2E2E2F5E2E2F5F5EFF5E2E2F5E2E2E2E2E2E2E2E2E2E2E2E2E2
310
E2E2E2F5E2E2E2E2E2E2E2E2E2E2E2E2E2E2E2E2E2E2E2E2E2E2E2E2E2E2E2E2E2E2E2E2E2E2E2DCE2E2E2E2E2E2E2E2E2E2E2E2E2E2E2E2E2E2E2E2DCE2E2E2E2E2E2E2E2E2E2E2E2E2E2E2E2E2E2E2E2E2E2E2E2E2E2E2E2E2E2E2E2E2E2E2E2E2E2E2E2E2E2E2E2E2E2E2E2DCE2E2E2E2E2E2E2E2E2E2E2E2E2E2E2E2E2
310
E2E2E2E2E2E2E2E2E2E2E2E2F5F5E2E2E2E2E2E2E2E2E2E2E2E2E2E2E2E2F5E2E2F5F5EFF5E2E2F5E2E2E2E2E2E2E2E2E2E2E2E2E2E2E2E2F5E2E2E2E2E2E2E2E2E2E2E2E2E2E2E2E2E2E2E2E2E2E2E2E2E2E2E2E2E2E2E2E2E2E2E2DCE2E2E2E2E2E2E2E2E2E2E2E2E2E2E2E2E2E2E2E2DCE2E2E2E2E2E2E2E2E2E2E2E2E2
310
E2E2E2E2E2E2E2E2E2E2E2E2E2E2E2E2E2E2E2E2E2E2E2E2E2E2E2E2E2E2E2E2E2E2E2DCE2E2E2E2E2E2E2E2E2E2E2E2E2E2E2E2E2E2E2E2E2E2E2E2E2E2E2E2E2F5F5E2E2E2E2E2E2E2E2E2E2E2E2E2E2E2E2F5E2E2F5F5EFF5E2E2F5E2E2E2E2E2E2E2E2E2E2E2E2E2E2E2E2F5E2E2E2E2E2E2E2E2E2E2E2E2E2E2E2E2E2
310
E2E2E2E2E2E2E2E2E2E2E2E2E2E2E2E2E2E2E2E2E2E2E2E2E2E2E2E2E2E2E2E2E2E2E2E2E2E2E2E2E2E2E2E2E2E2E2E2E2E2E2E2E2E2E2E2E2E2E2E2E2E2E2E2E2E2E2E2E2E2E2E2E2E2E2E2E2E2E2E2E2E2E2E2E2E2E2E2E2E2E2E2E2E2E2E2E2E2E2E2E2E2E2E2E2E2E2E2E2E2E2E2E2E2E2E2E2E2F5F5E2E2E2E2E2E2E2
310
E2E2E2E2E2E2E2E2E2F5E2E2F5F5EFF5E2E2F5E2E2E2E2E2E2E2E2E2E2E2E2E2E2E2E2F5E2E2E2E2E2E2E2E2E2E2E2E2E2E2E2E2E2E2E2E2E2E2E2E2E2E2E2E2E2E2E2E2E2E2E2E2E2E2E2E2E2E2E2E2E2E2E2E2E2E2E2E2E2E2E2E2E2E2E2E2E2E2E2E2E2E2E2E2E2E2E2E2E2E2E2E2E2E2E2E2E2E2E2E2E2E2E2E2E2E2E2
310
E2E2E2E2E2E2E2E2E2E2E2E2E2E2E2E2E2E2E2E2E2E2E2E2E2E2E2E2E2E2E2E2E2E2E2E2E2E2E2E2E2E2E2E2F5F5E2E2E2E2E2E2E2E2E2E2E2E2E2E2E2E2F5E2E2F5F5EFF5E2E2F5E2E2E2E2E2E2E2E2E2E2E2E2E2E2E2E2F5E2E2F5E2F5F5F5F5F5F5F5F5F5E2F5F5F5F5F5F5F5E2E2E2E2E2E2E2E2E2E2E2E2E2E2E2E2E2
310
E2E2E2E2E2E2E2E2E2E2E2E2E2E2E2E2E2E2E2E2E2E2E2E2E2E2E2E2E2E2E2E2E2E2E2E2E2E2E2E2E2E2E2E2E2E2E2E2E2E2E2E2E2E2E2E2E2E2E2E2E2E2E2E2E2E2E2E2E2E2E2E2E2E2E2E2E2E2E2E2E2E2E2E2E2E2E2E2E2E2E2E2E2E2E2E2E2F5F5E2E2E2E2E2E2E2E2E2E2E2E2E2E2E2E2F5E2E2F5F5EFF5E2E2F5E2E2
310
E2E2E2E2E2E2E2E2E2E2E2E2E2E2F5E2E2F5F5F5F5F5F5F5F5E2F5F5E2F5F5F5F5F5F5F5E2E2E2E2E2E2E2E2E2E2E2E2E2E2E2E2E2E2E2E2E2E2E2E2E2E2E2E2E2E2E2E2E2E2E2E2E2E2E2E2E2E2E2E2E2E2E2E2E2E2E2E2E2E2E2E2E2E2E2E2E2E2E2E2E2E2E2E2E2E2E2E2E2E2E2E2E2E2E2E2E2E2E2E2E2E2E2E2E2E2E2
310
E2E2E2E2E2E2E2E2E2E2E2E2E2E2E2E2E2E2E2E2E2E2E2F5F5E2E2E2E2E2E2E2E2E2E2E2E2E2E2E2E2F5E2E2F5F5EFF5E2E2F5E2E2E2E2E2E2E2E2E2E2E2E2E2E2E2E2F5E2E2F5E2F5F5F5F5F5F5E2F5F5F5F5F5E2F5F5E2F5E2E2E2E2E2E2E2E2E2E2E2E2E2E2E2E2E2E2E2E2E2E2E2E2E2E2E2E2E2E2E2E2E2E2E2E2E2E2
310
E2E2E2E2E2E2E2E2E2E2E2E2E2E2E2E2E2E2E2E2E2E2E2E2E2E2E2E2E2E2E2E2E2E2E2E2E2E2E2E2E2E2E2E2E2E2E2E2E2E2E2E2E2E2E2E2E2E2E2E2E2E2E2E2E2E2E2E2E2E2E2E2E2E2E2E2F5F5E2E2E2E2E2E2E2E2E2E2E2E2E2E2E2E2F5E2E2F5F5EFF5E2E2F5E2E2E2E2E2E2E2E2E2E2E2E2E2E2E2E2F5E2E2E2E2E2E2
310
E2E2E2E2E2E2E2E2E2E2E2E2E2E2E2E2E2E2E2E2E2E2E2E2E2E2E2E2E2E2E2E2E2E2E2E2E2E2E2E2E2E2E2E2E2E2E2E2E2E2E2E2E2E2E2E2E2E2E2E2E2E2E2E2E2E2E2E2E2E2E2E2E2E2E2E2E2E2E2E2E2E2E2E2E2E2E2E2E2E2E2E2E2E2E2E2E2E2E2E2E2E2E2E2E2E2E2E2E2E2E2E2E2E2E2E2E2E2E2E2E2E2E2E2E2E2E2
310
E2E2F5F5E2E2E2E2E2E2E2E2E2E2E2E2E2E2E2E2F5E2E2F5F5EFF5E2E2F5E2E2E2E2E2E2E2E2E2E2E2E2E2E2E2E2F5E2E2E2E2E2E2E2E2E2E2E2E2E2E2E2E2E2E2E2E2E2E2E2E2E2E2E2E2E2E2E2E2E2E2E2E2E2E2E2E2E2E2E2E2E2E2E2E2E2E2E2E2E2E2E2E2E2E2E2E2E2E2E2E2E2E2E2E2E2E2E2E2E2E2E2E2E2E2E2E2
310
E2E2E2E2E2E2E2E2E2E2E2E2E2E2E2E2E2E2E2E2E2E2E2E2E2E2E2E2E2E2E2E2E2E2E2E2E2E2E2E2E2E2E2E2E2E2E2E2E2E2E2E2E2E2E2F5F5E2E2E2E2E2E2E2E2E2E2E2E2E2E2E2E2F5E2E2F5F5EFF5E2E2F5E2E2E2E2E2E2E2E2E2E2E2E2E2E2E2E2F5F5F5F5F5F5F5F5F5F5F5F5F5F5F5F5F5F5F5F5F5F5F5F5F5F5F5F5
310
F5F5E2E2E2E2E2E2E2E2E2E2E2E2E2E2E2E2E2E2E2E2E2E2E2E2E2E2E2E2E2E2E2E2E2E2E2E2E2E2E2E2E2E2E2E2E2E2E2E2E2E2E2E2E2E2E2E2E2E2E2E2E2E2E2E2E2E2E2E2E2E2E2E2E2E2E2E2E2F5F5F5F5F5F5F5F5F5F5F5F5F5F5F5F5F5F5F5F5F5F5F5F5F5F5F5F5F5F5F5E2E2E2E2E2E2E2E2E2E2E2E2E2E2E2E2F5
310
E2E2F5F5EFF5E2E2E2E2E2E2E2E2E2E2E2E2E2E2E2E2E2E2E2F5E2E2E2E2E2E2F5F5F5F5F5F5F5F5F5F5F5F5F5F5F5F5E2E2E2E2E2E2F5E2E2E2E2E2E2E2E2E2E2E2E2E2E2E2E2E2E2E2E2E2E2E2E2E2E2E2E2E2E2E2E2E2E2E2E2E2E2E2E2E2E2E2E2E2E2E2E2E2E2E2E2E2E2E2E2E2E2E2E2E2E2E2E2E2E2E2E2E2E2E2E2
310
E2E2E2E2E2F5E2E2E2E2E2E2E2E2E2F5E2F5F5F5E2F5E2F5F5F5F5E2E2E2E2E2E2E2F5F5E2E2E2E2E2E2E2E2E2E2E2E2E2E2E2E2E2E2E2F5F5EFF5E2E2E2E2E2E2E2E2E2E2E2E2E2E2E2E2E2E2E2F5E2E2E2E2E2E2F5F5E2F5F5F5F5F5F5F5F5F5F5F5F5F5E2E2E2E2E2E2F5E2E2E2E2E2E2E2E2E2E2E2E2E2E2E2E2E2E2E2
310
E2E2E2E2E2E2E2E2E2E2E2E2E2E2E2E2E2E2E2E2E2E2E2E2E2E2E2E2E2E2E2E2E2E2E2E2E2E2E2E2E2E2E2E2E2E2E2E2E2E2E2E2E2E2E2E2E2E2F5E2E2E2E2E2E2E2E2E2F5F5F5F5F5F5E2E2F5E2F5F5E2E2E2E2E2E2E2F5F5E2E2E2E2E2E2E2E2E2E2E2E2E2E2E2E2E2E2E2F5F5EFF5E2E2E2E2E2E2E2E2E2E2E2E2E2E2E2
310
E2E2E2E2F5E2E2E2E2E2E2F5F5F5F5F5F5E2F5F5F5F5F5F5F5F5F5E2E2E2E2E2E2F5E2E2E2E2E2E2E2E2E2E2E2E2E2E2E2E2E2E2E2E2E2E2E2E2E2E2E2E2E2E2E2E2E2E2E2E2E2E2E2E2E2E2E2E2E2E2E2E2E2E2E2E2E2E2E2E2E2E2E2E2E2E2E2E2E2E2E2E2E2E2E2E2E2E2E2E2E2F5E2E2E2E2E2E2E2E2F5E2F5E2E2E2E2
310
E2E2F5E2F5E2E2E2E2E2E2E2E2F5F5E2E2E2E2E2E2E2E2E2E2E2E2E2E2E2E2E2E2E2F5F5EFF5E2E2E2E2E2E2E2E2E2E2E2E2E2E2E2E2E2E2E2F5F5F5F5F5F5F5F5F5F5F5F5F5F5F5F5F5F5F5F5F5F5F5F5F5F5F5F5F5F5F5F5F5F5F5F5F5F5F5F5F5F5F5F5F5F5F5F5F5F5F5F5F5F5F5F5F5F5F5F5F5F5F5F5F5F5F5F5F5F5
310
F5F5F5F5F5F5F5F5F5F5F5F5F5F5F5F5F5F5F5F5F5F5F5F5F5F5F5F5F5F5F5F5F5F5F5F5F5F5F5F5F5F5F5F5F5F5F5F5F5F5F5F5F5F5F5F5F5F5F5F5F5F5F5F5F5F5F5F5E2E2E2E2E2E2E2E2E2E2E2E2E2E2E2E2E2E2E2F5F5EFF5E2E2E2E2E2E2E2E2E2E2E2E2E2E2E2E2E2E2E2F5F5F5F5F5F5F5F5F5F5F5F5F5F5F5F5F5
310
F5F5F5F5F5F5F5F5F5F5F5F5F5F5F5F5F5F5F5F5F5F5F5F5F5F5F5F5F5F5F5F5F5F5F5F5F5F5F5F5F5F5F5F5F5F5F5F5F5F5F5F5F5F5F5F5F5F5F5F5F5F5F5F5F5F5F5F5F5F5F5F5F5F5F5F5F5F5F5F5F5F5F5F5F5F5F5F5F5F5F5F5F5F5F5F5F5F5F5F5F5F5F5F5F5F5F5F5F5F5F5F5F5F5F5F5F5F5F5F5F5E2E2E2E2E2E2
310
E2E2E2E2E2E2E2E2E2E2E2E2E2F5F5EFF5E2E2E2E2E2E2E2E2E2E2E2E2E2E2E2E2E2E2E2E2E2E2E2E2E2E2E2E2E2E2E2E2E2E2E2E2E2E2E2E2E2E2E2E2E2E2E2E2E2E2E2E2E2E2E2E2E2E2E2E2E2E2E2E2E2E2E2E2E2E2E2E2E2E2E2E2E2E2E2E2E2E2E2E2E2E2E2E2E2E2E2E2E2E2E2E2E2E2E2E2E2E2E2E2E2E2E2E2E2E2
310
E2E2E2E2E2E2E2E2E2E2E2E2E2E2E2E2E2E2E2E2E2E2E2E2E2E2E2E2E2E2E2E2E2E2E2E2E2E2E2E2E2E2E2E2E2E2E2E2E2E2E2E2E2E2E2E2E2E2E2E2E2E2E2E2E2E2F5F5EFF5E2E2E2E2E2E2E2E2E2E2E2E2E2E2E2E2E2E2E2E2E2E2E2E2E2E2E2E2E2E2E2E2E2E2E2E2E2E2E2E2E2E2E2E2E2E2E2E2E2E2E2E2E2E2E2E2E2
310
E2E2E2E2E2E2E2E2E2E2E2E2E2E2E2E2E2E2E2E2E2E2E2E2E2E2E2E2E2E2E2E2E2E2E2E2E2E2E2E2E2E2E2E2E2E2E2E2E2E2E2E2E2E2E2E2E2E2E2E2E2E2E2E2E2E2E2E2E2E2E2E2E2E2E2E2E2E2E2E2E2E2E2E2E2E2E2E2E2E2E2E2E2E2E2E2E2E2E2E2E2E2E2E2E2E2E2E2E2E2E2E2E2E2E2E2E2E2E2F5F5EFF5E2E2E2E2
310
E2E2E2E2E2E2E2E2E2E2E2E2E2E2E2E2E2E2E2E2E2E2E2E2E2E2E2E2E2E2E2E2E2E2E2E2E2E2E2E2E2E2E2E2E2E2E2E2E2E2E2E2E2E2E2E2E2E2E2E2E2E2E2E2E2E2E2E2E2E2E2E2E2E2E2E2E2E2E2E2E2E2E2E2E2E2E2E2E2E2E2E2E2E2E2E2E2E2E2E2E2E2E2E2E2E2E2E2E2E2E2E2E2E2E2E2E2E2E2E2E2E2E2E2E2E2E2
310
E2E2E2E2E2E2E2E2E2E2E2E2E2E2E2E2E2E2E2E2E2E2E2E2E2E2E2E2E2E2E2E2E2E2E2E2E2E2E2E2E2E2E2E2E2F5F5EFF5E2E2E2E2E2E2E2E2E2E2E2E2E2E2E2E2E2E2E2E2E2E2E2E2E2E2E2E2E2E2E2E2E2E2E2E2E2E2E2E2E2E2E2E2E2E2E2E2E2E2E2E2E2E2E2E2E2E2E2E2E2E2E2E2E2E2E2E2E2E2E2E2E2E2E2E2E2E2
310
E2E2E2E2E2E2E2E2E2E2E2E2E2E2E2E2E2E2E2E2E2E2E2E2E2E2E2E2E2E2E2E2E2E2E2E2E2E2E2E2E2E2E2E2E2E2E2E2E2E2E2E2E2E2E2E2E2E2E2E2E2E2E2E2E2E2E2E2E2E2E2E2E2E2E2E2E2E2E2E2E2E2E2E2E2E2E2E2E2E2E2E2E2E2E2E2E2E2F5F5EFF5E2E2F5E2E2E2E2E2E2E2E2E2E2E2E2E2E2E2E2E2E2E2E2E2E2
310
E2E2E2E2E2E2E2E2E2E2E2E2E2E2E2E2E2E2E2E2E2E2E2E2E2E2E2E2E2E2E2E2E2E2E2E2E2E2E2E2E2E2E2E2E2E2E2E2E2E2E2E2E2E2E2E2E2E2E2E2E2E2E2E2E2E2E2E2E2E2E2E2E2E2E2E2E2E2E2E2E2E2E2E2E2E2E2E2E2E2E2E2E2E2E2E2E2E2E2E2E2E2E2E2E2E2E2E2E2E2E2E2E2E2E2E2E2E2E2E2E2E2E2E2E2E2E2
310
E2E2E2E2E2E2E2E2E2E2E2E2E2E2E2E2E2E2E2E2E2F5E2E2F5F5EFF5E2E2F5E2E2E2E2E2E2E2E2E2E2E2E2E2E2E2E2E2E2E2E2E2E2E2E2E2E2E2E2E2E2E2E2E2E2E2E2E2E2E2E2E2E2E2E2E2E2E2E2E2E2E2E2E2E2E2E2E2E2E2E2E2E2E2E2E2E2E2E2E2E2E2E2E2E2E2E2E2E2E2E2E2E2E2E2E2E2E2E2E2E2E2E2E2E2E2E2
310
E2E2E2E2E2E2E2E2E2E2E2E2E2E2E2E2E2E2E2E2E2E2E2E2E2E2E2E2E2E2E2E2E2E2E2E2E2E2E2E2E2E2E2E2E2E2E2E2E2E2E2E2E2E2E2E2E2E2E2E2E2E2E2E2E2E2E2E2E2E2E2E2E2E2F5E2E2F5F5EFF5E2E2F5E2E2E2E2E2E2E2E2E2E2E2E2E2E2E2E2E2E2E2E2E2E2E2E2E2E2E2E2E2E2E2E2E2E2E2E2E2E2E2E2E2E2E2
310
E2E2E2E2E2E2E2E2E2E2E2E2E2E2E2E2E2E2E2E2E2E2E2E2E2E2E2E2E2E2E2E2E2E2E2E2E2E2E2E2E2E2E2E2E2E2E2E2E2E2E2E2E2E2E2E2E2E2E2E2E2E2E2E2E2E2E2E2E2E2E2E2E2E2E2E2E2E2E2E2E2E2E2E2E2E2E2E2E2E2E2E2E2E2E2E2E2E2E2E2E2E2E2E2E2E2E2E2E2E2E2E2E2E2E2E2E2E2E2E2E2E2E2E2E2E2E2
310
F5E2E2F5F5EFF5E2E2F5E2E2E2E2E2E2E2E2E2E2E2E2E2E2E2E2E2E2E2E2E2E2E2E2E2E2E2E2E2E2E2E2E2E2E2E2E2E2E2E2E2E2E2E2E2E2E2E2E2E2E2E2E2E2E2E2E2E2E2E2E2E2E2E2E2E2E2E2E2E2E2E2E2E2E2E2E2E2E2E2E2E2E2E2E2E2E2E2E2E2E2E2E2E2E2E2E2E2E2E2E2E2E2E2E2E2E2E2E2E2E2E2E2E2E2E2E2
310
E2E2E2E2E2E2E2E2E2E2E2E2E2E2E2E2E2E2E2E2E2E2E2E2E2E2E2E2E2E2E2E2E2E2E2E2E2E2E2E2E2E2E2E2E2E2E2E2E2E2E2E2E2F5E2E2F5F5EFF5E2E2F5E2E2E2E2E2E2E2E2E2E2E2E2E2E2E2E2E2E2E2E2E2E2E2E2E2E2E2E2E2E2E2E2E2E2E2E2E2E2E2E2E2E2E2E2E2E2E2E2E2E2E2E2E2E2E2E2E2E2E2E2E2E2E2E2
310
E2E2E2E2E2E2E2E2E2E2E2E2E2E2E2E2E2E2E2E2E2E2E2E2E2E2E2E2E2E2E2E2E2E2E2E2E2E2E2E2E2E2E2E2E2E2E2E2E2E2E2E2E2E2E2E2E2E2E2E2E2E2E2E2E2E2E2E2E2E2E2E2E2E2E2E2E2E2E2E2E2E2E2E2E2E2E2E2E2E2E2E2E2E2E2E2E2E2E2E2E2E2E2E2E2E2F5E2E2F5F5EFF5E2E2F5E2E2E2E2E2E2E2E2E2E2E2
310
E2E2E2E2E2E2E2E2E2E2E2E2E2E2E2E2E2E2E2E2E2E2E2E2E2E2E2E2E2E2E2E2E2E2E2E2E2E2E2E2E2E2E2E2E2E2E2E2E2E2E2E2E2E2E2E2E2E2E2E2E2E2E2E2E2E2E2E2E2E2E2E2E2E2E2E2E2E2E2E2E2E2E2E2E2E2E2E2E2E2E2E2E2E2E2E2E2E2E2E2E2E2E2E2E2E2E2E2E2E2E2E2E2E2E2E2E2E2E2E2E2E2E2E2E2E2E2
310
E2E2E2E2E2E2E2E2E2E2E2E2E2E2E2E2E2E2E2E2E2E2E2E2E2E2E2E2E2E2E2E2F5E2E2F5F5EFF5E2E2F5E2E2E2E2E2E2E2E2E2E2E2E2E2E2E2E2E2E2E2E2E2E2E2E2E2E2E2E2E2E2E2E2E2E2E2E2E2E2E2E2E2E2E2E2E2E2E2E2E2E2E2E2E2E2E2E2E2E2E2E2E2E2E2E2E2E2E2E2E2E2E2E2E2E2E2E2E2E2E2E2E2E2E2E2E2
310
E2E2E2E2E2E2E2E2E2E2E2E2E2E2E2E2E2E2E2E2E2E2E2E2E2E2E2E2E2E2E2E2E2E2E2E2E2E2E2E2E2E2E2E2E2E2E2E2E2E2E2E2E2E2E2E2E2E2E2E2E2E2E2E2E2E2E2E2E2E2E2E2E2E2E2E2E2E2E2E2E2E2E2E2E2F5E2E2F5F5EFF5E2E2F5F5F5F5F5F5F5F5E2E2E2E2E2E2E2E2E2F5F5F5F5F5F5F5F5F5F5F5F5F5F5F5F5
310
E2E2E2E2E2E2E2E2E2F5F5F5F5F5F5F5F5F5F5F5F5F5F5F5E2E2E2E2E2E2E2E2E2F5F5F5F5F5F5F5F5F5F5F5F5F5F5F5F5E2E2E2E2E2E2E2E2F5F5F5F5F5F5F5F5F5F5F5F5F5F5F5F5E2E2E2E2E2E2E2E2E2F5F5F5F5F5F5F5F5F5F5F5F5F5F5F5E2E2E2E2E2E2E2E2E2F5F5F5F5F5F5F5F5F5F5F5F5F5F5F5F5E2E2E2E2E2
310
E2E2E2E2F5F5F5F5F5F5F5F5E2E2F5F5EFF5E2E2E2E2E2E2E2E2E2E2E2E2E2E2E2E2E2E2E2E2E2E2E2E2E2E2E2E2E2E2E2E2E2E2E2E2E2E2E2E2E2E2E2E2E2E2E2E2E2E2E2E2E2E2E2E2E2E2E2E2E2E2E2E2E2E2E2E2E2E2E2E2E2E2E2E2E2E2E2E2E2E2E2E2E2E2E2E2E2E2E2E2E2E2E2E2E2E2E2E2E2E2E2E2E2E2E2E2E2
310
E2E2E2E2E2E2E2E2E2E2E2E2E2E2E2E2E2E2E2E2E2E2E2E2E2E2E2E2E2E2E2E2E2E2E2E2E2E2E2E2E2E2E2E2E2E2E2E2E2E2E2E2E2E2E2E2E2E2E2E2E2E2E2E2E2E2E2F5F5EFF5E2E2E2E2E2E2E2E2E2E2E2E2E2E2E2E2E2E2E2E2E2E2E2E2E2E2E2E2E2E2E2E2E2E2E2E2E2E2E2E2E2E2E2E2E2E2E2E2E2E2E2E2E2E2E2E2
310
E2E2E2E2E2E2E2E2E2E2E2E2E2E2E2E2E2E2E2E2E2E2E2E2E2E2E2E2E2E2E2E2E2E2E2E2E2E2E2E2E2E2E2E2E2E2E2E2E2E2E2E2E2E2E2E2E2E2E2E2E2E2E2E2E2E2E2E2E2E2E2E2E2E2E2E2E2E2E2E2E2E2E2E2E2E2E2E2E2E2E2E2E2E2E2E2E2E2E2E2E2E2E2E2E2E2E2E2E2E2E2E2E2E2E2E2E2E2E2E2F5EFEFF5F5F5F5
310
F5F5F5F5F5F5F5F5F5F5F5F5F5F5F5F5F5F5F5F5F5F5F5F5F5F5F5F5F5F5F5F5F5F5F5F5F5F5F5F5F5F5F5F5F5F5F5F5F5F5F5F5F5F5F5F5F5F5F5F5F5F5F5F5F5F5F5F5F5F5F5F5F5F5F5F5F5F5F5F5F5F5F5F5F5F5F5F5F5F5F5F5F5F5F5F5F5F5F5F5F5F5F5F5F5F5F5F5F5F5F5F5F5F5F5F5F5F5F5F5F5F5F5F5F5F5F5
310
F5F5F5F5F5F5F5F5F5F5F5F5F5F5F5F5F5F5F5F5F5F5F5F5F5F5F5F5F5F5F5F5F5F5F5F5F5F5F5F5F5F5F5F5F5F5F5EF
  0
ENDSEC
  0
EOF
