  0
SECTION
  2
HEADER
  9
$ACADVER
  1
AC1009
  9
$DWGCODEPAGE
  3
dos932
  9
$INSBASE
 10
0.0
 20
0.0
 30
0.0
  9
$EXTMIN
 10
-194.25
 20
-133.5
 30
0.0
  9
$EXTMAX
 10
194.80000305
 20
132.6000061
 30
0.0
  9
$LIMMIN
 10
-194.25
 20
-133.5
  9
$LIMMAX
 10
194.80000305
 20
132.6000061
  9
$ORTHOMODE
 70
       0
  9
$REGENMODE
 70
       1
  9
$FILLMODE
 70
       1
  9
$QTEXTMODE
 70
       0
  9
$MIRRTEXT
 70
       1
  9
$DRAGMODE
 70
       2
  9
$LTSCALE
 40
1.0
  9
$OSMODE
 70
       0
  9
$ATTMODE
 70
       1
  9
$TEXTSIZE
 40
3.20000005
  9
$TRACEWID
 40
0.05
  9
$TEXTSTYLE
  7
MX_NOTE_STANDARD
  9
$CLAYER
  8
0
  9
$CELTYPE
  6
CONTINUOUS
  9
$CECOLOR
 62
     256
  9
$DIMSCALE
 40
1.0
  9
$DIMASZ
 40
2.5
  9
$DIMEXO
 40
1.5
  9
$DIMDLI
 40
3.75
  9
$DIMRND
 40
0.0
  9
$DIMDLE
 40
0.0
  9
$DIMEXE
 40
1.5
  9
$DIMTP
 40
0.0
  9
$DIMTM
 40
0.0
  9
$DIMTXT
 40
3.20000005
  9
$DIMCEN
 40
2.5
  9
$DIMTSZ
 40
0.0
  9
$DIMTOL
 70
       0
  9
$DIMLIM
 70
       0
  9
$DIMTIH
 70
       0
  9
$DIMTOH
 70
       0
  9
$DIMSE1
 70
       0
  9
$DIMSE2
 70
       0
  9
$DIMTAD
 70
       1
  9
$DIMZIN
 70
       8
  9
$DIMBLK
  1

  9
$DIMASO
 70
       1
  9
$DIMSHO
 70
       1
  9
$DIMPOST
  1

  9
$DIMAPOST
  1

  9
$DIMALT
 70
       0
  9
$DIMALTD
 70
       4
  9
$DIMALTF
 40
0.03937008
  9
$DIMLFAC
 40
1.0
  9
$DIMTOFL
 70
       1
  9
$DIMTVP
 40
0.0
  9
$DIMTIX
 70
       0
  9
$DIMSOXD
 70
       0
  9
$DIMSAH
 70
       0
  9
$DIMBLK1
  1

  9
$DIMBLK2
  1

  9
$DIMSTYLE
  2
MXDIMSTYLE
  9
$DIMCLRD
 70
       0
  9
$DIMCLRE
 70
       0
  9
$DIMCLRT
 70
       0
  9
$DIMTFAC
 40
1.0
  9
$DIMGAP
 40
1.0
  9
$LUNITS
 70
       2
  9
$LUPREC
 70
       4
  9
$AXISMODE
 70
       0
  9
$AXISUNIT
 10
0.0
 20
0.0
  9
$SKETCHINC
 40
0.1
  9
$FILLETRAD
 40
0.0
  9
$AUNITS
 70
       0
  9
$AUPREC
 70
       0
  9
$MENU
  1
acad
  9
$ELEVATION
 40
0.0
  9
$PELEVATION
 40
0.0
  9
$THICKNESS
 40
0.0
  9
$LIMCHECK
 70
       0
  9
$BLIPMODE
 70
       1
  9
$CHAMFERA
 40
0.0
  9
$CHAMFERB
 40
0.0
  9
$SKPOLY
 70
       0
  9
$TDCREATE
 40
2453581.678958334
  9
$TDUPDATE
 40
2453581.678958334
  9
$TDINDWG
 40
0.0000000000
  9
$TDUSRTIMER
 40
0.0000000000
  9
$USRTIMER
 70
       1
  9
$ANGBASE
 50
0.0
  9
$ANGDIR
 70
       0
  9
$PDMODE
 70
       0
  9
$PDSIZE
 40
0.0
  9
$PLINEWID
 40
0.0
  9
$COORDS
 70
       1
  9
$SPLFRAME
 70
       0
  9
$SPLINETYPE
 70
       6
  9
$SPLINESEGS
 70
       8
  9
$ATTDIA
 70
       0
  9
$ATTREQ
 70
       1
  9
$HANDLING
 70
       1
  9
$HANDSEED
  5
3EE
  9
$SURFTAB1
 70
       6
  9
$SURFTAB2
 70
       6
  9
$SURFTYPE
 70
       6
  9
$SURFU
 70
       6
  9
$SURFV
 70
       6
  9
$UCSNAME
  2

  9
$UCSORG
 10
0.0
 20
0.0
 30
0.0
  9
$UCSXDIR
 10
1.0
 20
0.0
 30
0.0
  9
$UCSYDIR
 10
0.0
 20
1.0
 30
0.0
  9
$PUCSNAME
  2

  9
$PUCSORG
 10
0.0
 20
0.0
 30
0.0
  9
$PUCSXDIR
 10
1.0
 20
0.0
 30
0.0
  9
$PUCSYDIR
 10
0.0
 20
1.0
 30
0.0
  9
$USERI1
 70
       0
  9
$USERI2
 70
       0
  9
$USERI3
 70
       0
  9
$USERI4
 70
       0
  9
$USERI5
 70
       0
  9
$USERR1
 40
0.0
  9
$USERR2
 40
0.0
  9
$USERR3
 40
0.0
  9
$USERR4
 40
0.0
  9
$USERR5
 40
0.0
  9
$WORLDVIEW
 70
       1
  9
$SHADEDGE
 70
       3
  9
$SHADEDIF
 70
      70
  9
$TILEMODE
 70
       1
  9
$MAXACTVP
 70
      16
  9
$PINSBASE
 10
0.0
 20
0.0
 30
0.0
  9
$PLIMCHECK
 70
       0
  9
$PEXTMIN
 10
1.00000000E+20
 20
1.00000000E+20
 30
1.00000000E+20
  9
$PEXTMAX
 10
-1.00000000E+20
 20
-1.00000000E+20
 30
-1.00000000E+20
  9
$PLIMMIN
 10
0.0
 20
0.0
  9
$PLIMMAX
 10
12.0
 20
9.0
  9
$UNITMODE
 70
       0
  9
$VISRETAIN
 70
       0
  9
$PLINEGEN
 70
       1
  9
$PSLTSCALE
 70
       0
  9
$TREEDEPTH
 70
    3020
  9
$DWGCODEPAGE
  3
dos932
  0
ENDSEC
  0
SECTION
  2
TABLES
  0
TABLE
  2
VPORT
 70
       1
  0
VPORT
  2
*ACTIVE
 70
       0
 10
0.0
 20
0.0
 11
1.0
 21
1.0
 12
0.27500153
 22
-0.44999695
 13
0.0
 23
0.0
 14
1.0
 24
1.0
 15
0.0
 25
0.0
 16
0.0
 26
0.0
 36
1.0
 17
0.0
 27
0.0
 37
0.0
 40
268.76100616
 41
1.73205081
 42
50.0
 43
0.0
 44
0.0
 50
0.0
 51
0.0
 71
       0
 72
     100
 73
       1
 74
       1
 75
       0
 76
       0
 77
       0
 78
       0
  0
ENDTAB
  0
TABLE
  2
LTYPE
 70
       2
  0
LTYPE
  2
CONTINUOUS
 70
      64
  3
Solid line
 72
      65
 73
       0
 40
0.0
  0
LTYPE
  2
DASHED
 70
      64
  3
Dashed __ __ __ __ __ __ __ __ __ __ __ __ __ _
 72
      65
 73
       2
 40
4.0
 49
2.0
 49
-2.0
  0
ENDTAB
  0
TABLE
  2
LAYER
 70
       2
  0
LAYER
  2
0
 70
       0
 62
       7
  6
CONTINUOUS
  0
LAYER
  2
DEFPOINTS
 70
       0
 62
       7
  6
CONTINUOUS
  0
ENDTAB
  0
TABLE
  2
STYLE
 70
       1
  0
STYLE
  2
MX_NOTE_STANDARD
 70
       0
 40
0.0
 41
1.0
 50
0.0
 71
       0
 42
3.20000005
  3
txt.shx
  4
extfont.shx
  0
ENDTAB
  0
TABLE
  2
VIEW
 70
       0
  0
ENDTAB
  0
TABLE
  2
UCS
 70
       0
  0
ENDTAB
  0
TABLE
  2
APPID
 70
       1
  0
APPID
  2
ACAD
 70
       0
  0
ENDTAB
  0
TABLE
  2
DIMSTYLE
 70
       1
  0
DIMSTYLE
  2
MXDIMSTYLE
 70
       0
  3

  4

  5

  6

  7

 40
1.0
 41
2.5
 42
1.5
 43
3.75
 44
1.5
 45
0.0
 46
0.0
 47
0.0
 48
0.0
 71
       0
 72
       0
 73
       0
 74
       0
 75
       0
 76
       0
 77
       1
 78
       8
140
3.20000005
141
2.5
142
0.0
143
0.03937008
144
1.0
145
0.0
146
1.0
147
1.0
170
       0
171
       4
172
       1
173
       0
174
       0
175
       0
176
       0
177
       0
178
       0
  0
ENDTAB
  0
ENDSEC
  0
SECTION
  2
BLOCKS
  0
BLOCK
  8
0
  6
BYBLOCK
 62
       0
  5
E0
  2
_OPEN30
 70
       2
 10
0.0
 20
0.0
 30
0.0
  3
_OPEN30
  0
LINE
  8
0
  6
BYBLOCK
 62
       0
  5
E1
 10
-1.0
 20
0.267949
 30
0.0
 11
0.0
 21
0.0
 31
0.0
  0
LINE
  8
0
  6
BYBLOCK
 62
       0
  5
E2
 10
0.0
 20
0.0
 30
0.0
 11
-1.0
 21
-0.267949
 31
0.0
  0
LINE
  8
0
  6
BYBLOCK
 62
       0
  5
E3
 10
0.0
 20
0.0
 30
0.0
 11
-1.0
 21
0.0
 31
0.0
  0
ENDBLK
  8
0
  6
BYBLOCK
 62
       0
  5
E4
  0
ENDSEC
  0
SECTION
  2
ENTITIES
  0
TEXT
  8
0
  6
CONTINUOUS
 62
       7
  5
1E
 10
-180.63002266
 20
-65.19343254
 30
0.0
 40
4.5
  1
- 2:2ポｰﾄ(プﾗグ添付)
 41
1.14795915
  7
MX_NOTE_STANDARD
  0
TEXT
  8
0
  6
CONTINUOUS
 62
       7
  5
1F
 10
-180.60985747
 20
-56.19343254
 30
0.0
 40
4.5
  1
-02:配管ポｰﾄRc1/4
 41
1.1081794
  7
MX_NOTE_STANDARD
  0
TEXT
  8
0
  6
CONTINUOUS
 62
       7
  5
20
 10
-178.819369
 20
-39.27176633
 30
0.0
 40
4.5
  1
選択記号
 41
0.8333333
  7
MX_NOTE_STANDARD
  0
TEXT
  8
0
  6
CONTINUOUS
 62
       7
  5
21
 10
-180.5873335
 20
-47.19343254
 30
0.0
 40
4.5
  1
-01:配管ポｰﾄRc1/8
 41
1.13821136
  7
MX_NOTE_STANDARD
  0
LINE
  8
0
  6
CONTINUOUS
 62
       2
  5
22
 10
57.62591147
 20
43.22250299
 30
0.0
 11
150.46816146
 21
43.22250299
 31
0.0
  0
LINE
  8
0
  6
CONTINUOUS
 62
       2
  5
23
 10
106.9769255
 20
-40.51424546
 30
0.0
 11
106.9769255
 21
105.27486254
 31
0.0
  0
LINE
  8
0
  6
CONTINUOUS
 62
       7
  5
24
 10
88.4769255
 20
-35.77749701
 30
0.0
 11
125.4769255
 21
-35.77749701
 31
0.0
  0
ARC
  8
0
  6
CONTINUOUS
 62
       7
  5
25
 10
90.06536662
 20
-4.77749701
 30
0.0
 40
7.56155888
 50
307.10347874
 51
52.89652126
  0
ARC
  8
0
  6
CONTINUOUS
 62
       7
  5
26
 10
94.6269255
 20
-4.77749701
 30
0.0
 40
0.7
 50
51.16567846
 51
314.4153086
  0
POLYLINE
  8
0
  6
CONTINUOUS
 62
       7
  5
27
 66
       1
 10
0.0
 20
0.0
 30
0.0
  0
VERTEX
  8
0
  6
CONTINUOUS
 62
       7
  5
1F9
 10
92.5991966
 20
-0.75619142
 30
0.0
  0
VERTEX
  8
0
  6
CONTINUOUS
 62
       7
  5
1FA
 10
92.55640019
 20
-0.75621089
 30
0.0
  0
VERTEX
  8
0
  6
CONTINUOUS
 62
       7
  5
1FB
 10
92.51372918
 20
-0.75732585
 30
0.0
  0
VERTEX
  8
0
  6
CONTINUOUS
 62
       7
  5
1FC
 10
92.47124025
 20
-0.75957199
 30
0.0
  0
VERTEX
  8
0
  6
CONTINUOUS
 62
       7
  5
1FD
 10
92.42899008
 20
-0.76298498
 30
0.0
  0
VERTEX
  8
0
  6
CONTINUOUS
 62
       7
  5
1FE
 10
92.38703535
 20
-0.76760051
 30
0.0
  0
VERTEX
  8
0
  6
CONTINUOUS
 62
       7
  5
1FF
 10
92.34543274
 20
-0.77345427
 30
0.0
  0
VERTEX
  8
0
  6
CONTINUOUS
 62
       7
  5
200
 10
92.30423893
 20
-0.78058192
 30
0.0
  0
VERTEX
  8
0
  6
CONTINUOUS
 62
       7
  5
201
 10
92.26351058
 20
-0.78901915
 30
0.0
  0
VERTEX
  8
0
  6
CONTINUOUS
 62
       7
  5
202
 10
92.22330439
 20
-0.79880164
 30
0.0
  0
VERTEX
  8
0
  6
CONTINUOUS
 62
       7
  5
203
 10
92.18367703
 20
-0.80996508
 30
0.0
  0
VERTEX
  8
0
  6
CONTINUOUS
 62
       7
  5
204
 10
92.14468517
 20
-0.82254515
 30
0.0
  0
VERTEX
  8
0
  6
CONTINUOUS
 62
       7
  5
205
 10
92.10638551
 20
-0.83657751
 30
0.0
  0
VERTEX
  8
0
  6
CONTINUOUS
 62
       7
  5
206
 10
92.0688347
 20
-0.85209787
 30
0.0
  0
VERTEX
  8
0
  6
CONTINUOUS
 62
       7
  5
207
 10
92.03208944
 20
-0.8691419
 30
0.0
  0
VERTEX
  8
0
  6
CONTINUOUS
 62
       7
  5
208
 10
91.9962064
 20
-0.88774527
 30
0.0
  0
VERTEX
  8
0
  6
CONTINUOUS
 62
       7
  5
209
 10
91.96124226
 20
-0.90794367
 30
0.0
  0
VERTEX
  8
0
  6
CONTINUOUS
 62
       7
  5
20A
 10
91.90863528
 20
-0.94264924
 30
0.0
  0
VERTEX
  8
0
  6
CONTINUOUS
 62
       7
  5
20B
 10
91.85838297
 20
-0.9810467
 30
0.0
  0
VERTEX
  8
0
  6
CONTINUOUS
 62
       7
  5
20C
 10
91.81046648
 20
-1.0228605
 30
0.0
  0
VERTEX
  8
0
  6
CONTINUOUS
 62
       7
  5
20D
 10
91.76486695
 20
-1.06781512
 30
0.0
  0
VERTEX
  8
0
  6
CONTINUOUS
 62
       7
  5
20E
 10
91.72156554
 20
-1.11563501
 30
0.0
  0
VERTEX
  8
0
  6
CONTINUOUS
 62
       7
  5
20F
 10
91.68054338
 20
-1.16604462
 30
0.0
  0
VERTEX
  8
0
  6
CONTINUOUS
 62
       7
  5
210
 10
91.64178163
 20
-1.21876843
 30
0.0
  0
VERTEX
  8
0
  6
CONTINUOUS
 62
       7
  5
211
 10
91.60526143
 20
-1.27353088
 30
0.0
  0
VERTEX
  8
0
  6
CONTINUOUS
 62
       7
  5
212
 10
91.57096392
 20
-1.33005644
 30
0.0
  0
VERTEX
  8
0
  6
CONTINUOUS
 62
       7
  5
213
 10
91.53887027
 20
-1.38806957
 30
0.0
  0
VERTEX
  8
0
  6
CONTINUOUS
 62
       7
  5
214
 10
91.5089616
 20
-1.44729473
 30
0.0
  0
VERTEX
  8
0
  6
CONTINUOUS
 62
       7
  5
215
 10
91.48121907
 20
-1.50745637
 30
0.0
  0
VERTEX
  8
0
  6
CONTINUOUS
 62
       7
  5
216
 10
91.45562382
 20
-1.56827896
 30
0.0
  0
VERTEX
  8
0
  6
CONTINUOUS
 62
       7
  5
217
 10
91.432157
 20
-1.62948696
 30
0.0
  0
VERTEX
  8
0
  6
CONTINUOUS
 62
       7
  5
218
 10
91.41079977
 20
-1.69080483
 30
0.0
  0
VERTEX
  8
0
  6
CONTINUOUS
 62
       7
  5
219
 10
91.39153325
 20
-1.75195701
 30
0.0
  0
SEQEND
  8
0
  6
CONTINUOUS
 62
       7
  5
21A
  0
LINE
  8
0
  6
CONTINUOUS
 62
       2
  5
28
 10
119.3269255
 20
-10.57442934
 30
0.0
 11
119.3269255
 21
-1.46827406
 31
0.0
  0
ARC
  8
0
  6
CONTINUOUS
 62
       7
  5
29
 10
121.63632658
 20
-10.42023314
 30
0.0
 40
7.64273613
 50
72.41205032
 51
107.58794968
  0
ARC
  8
0
  6
CONTINUOUS
 62
       7
  5
2A
 10
117.01752442
 20
-10.42023314
 30
0.0
 40
7.64273613
 50
72.41205032
 51
107.58794958
  0
LINE
  8
0
  6
CONTINUOUS
 62
       7
  5
2B
 10
81.4769255
 20
27.55345488
 30
0.0
 11
81.4769255
 21
34.34838331
 31
0.0
  0
ARC
  8
0
  6
CONTINUOUS
 62
       7
  5
2C
 10
92.4769255
 20
59.72250299
 30
0.0
 40
11.0
 50
122.31746115
 51
180.0
  0
LINE
  8
0
  6
CONTINUOUS
 62
       7
  5
2D
 10
106.93678998
 20
71.98169249
 30
0.0
 11
106.93678998
 21
92.97597884
 31
0.0
  0
ARC
  8
0
  6
CONTINUOUS
 62
       7
  5
2E
 10
102.06944809
 20
77.48169188
 30
0.0
 40
16.24081111
 50
72.56052267
 51
107.58795369
  0
ARC
  8
0
  6
CONTINUOUS
 62
       7
  5
2F
 10
102.06944821
 20
87.46331045
 30
0.0
 40
16.24080746
 50
258.22421741
 51
287.5879573
  0
ARC
  8
0
  6
CONTINUOUS
 62
       7
  5
30
 10
111.88440279
 20
87.46331045
 30
0.0
 40
16.24080746
 50
252.4120427
 51
287.5879573
  0
ARC
  8
0
  6
CONTINUOUS
 62
       7
  5
31
 10
93.06944809
 20
77.48169188
 30
0.0
 40
16.24081111
 50
72.41204633
 51
72.56052267
  0
ARC
  8
0
  6
CONTINUOUS
 62
       7
  5
32
 10
111.88440279
 20
77.48169265
 30
0.0
 40
16.24081034
 50
72.41204591
 51
107.58795409
  0
POLYLINE
  8
0
  6
CONTINUOUS
 62
       7
  5
33
 66
       1
 10
0.0
 20
0.0
 30
0.0
  0
VERTEX
  8
0
  6
CONTINUOUS
 62
       7
  5
21B
 10
90.44932119
 20
-1.77749701
 30
0.0
  0
VERTEX
  8
0
  6
CONTINUOUS
 62
       7
  5
21C
 10
90.71392171
 20
-1.80386795
 30
0.0
  0
VERTEX
  8
0
  6
CONTINUOUS
 62
       7
  5
21D
 10
90.97387039
 20
-1.88251716
 30
0.0
  0
VERTEX
  8
0
  6
CONTINUOUS
 62
       7
  5
21E
 10
91.22459716
 20
-2.01206193
 30
0.0
  0
VERTEX
  8
0
  6
CONTINUOUS
 62
       7
  5
21F
 10
91.46169409
 20
-2.19022479
 30
0.0
  0
VERTEX
  8
0
  6
CONTINUOUS
 62
       7
  5
220
 10
91.68099287
 20
-2.41387352
 30
0.0
  0
VERTEX
  8
0
  6
CONTINUOUS
 62
       7
  5
221
 10
91.87863809
 20
-2.67907624
 30
0.0
  0
VERTEX
  8
0
  6
CONTINUOUS
 62
       7
  5
222
 10
92.05115502
 20
-2.98117051
 30
0.0
  0
VERTEX
  8
0
  6
CONTINUOUS
 62
       7
  5
223
 10
92.1955107
 20
-3.31484533
 30
0.0
  0
VERTEX
  8
0
  6
CONTINUOUS
 62
       7
  5
224
 10
92.30916728
 20
-3.67423448
 30
0.0
  0
VERTEX
  8
0
  6
CONTINUOUS
 62
       7
  5
225
 10
92.39012659
 20
-4.05301968
 30
0.0
  0
VERTEX
  8
0
  6
CONTINUOUS
 62
       7
  5
226
 10
92.43696533
 20
-4.44454165
 30
0.0
  0
VERTEX
  8
0
  6
CONTINUOUS
 62
       7
  5
227
 10
92.44886003
 20
-4.84191718
 30
0.0
  0
VERTEX
  8
0
  6
CONTINUOUS
 62
       7
  5
228
 10
92.42560159
 20
-5.23816017
 30
0.0
  0
VERTEX
  8
0
  6
CONTINUOUS
 62
       7
  5
229
 10
92.36759889
 20
-5.62630441
 30
0.0
  0
VERTEX
  8
0
  6
CONTINUOUS
 62
       7
  5
22A
 10
92.27587167
 20
-5.99952608
 30
0.0
  0
VERTEX
  8
0
  6
CONTINUOUS
 62
       7
  5
22B
 10
92.15203254
 20
-6.35126371
 30
0.0
  0
VERTEX
  8
0
  6
CONTINUOUS
 62
       7
  5
22C
 10
91.99825868
 20
-6.67533354
 30
0.0
  0
VERTEX
  8
0
  6
CONTINUOUS
 62
       7
  5
22D
 10
91.81725353
 20
-6.9660382
 30
0.0
  0
VERTEX
  8
0
  6
CONTINUOUS
 62
       7
  5
22E
 10
91.61219926
 20
-7.21826694
 30
0.0
  0
VERTEX
  8
0
  6
CONTINUOUS
 62
       7
  5
22F
 10
91.38670087
 20
-7.42758541
 30
0.0
  0
VERTEX
  8
0
  6
CONTINUOUS
 62
       7
  5
230
 10
91.14472275
 20
-7.59031366
 30
0.0
  0
VERTEX
  8
0
  6
CONTINUOUS
 62
       7
  5
231
 10
90.89051904
 20
-7.70359083
 30
0.0
  0
VERTEX
  8
0
  6
CONTINUOUS
 62
       7
  5
232
 10
90.62855879
 20
-7.76542543
 30
0.0
  0
VERTEX
  8
0
  6
CONTINUOUS
 62
       7
  5
233
 10
90.36344744
 20
-7.77473037
 30
0.0
  0
VERTEX
  8
0
  6
CONTINUOUS
 62
       7
  5
234
 10
90.18472068
 20
-7.75112607
 30
0.0
  0
VERTEX
  8
0
  6
CONTINUOUS
 62
       7
  5
235
 10
90.00812335
 20
-7.70359083
 30
0.0
  0
SEQEND
  8
0
  6
CONTINUOUS
 62
       7
  5
236
  0
LINE
  8
0
  6
CONTINUOUS
 62
       7
  5
34
 10
94.6269255
 20
-0.78063312
 30
0.0
 11
94.6269255
 21
1.25320389
 31
0.0
  0
ARC
  8
0
  6
CONTINUOUS
 62
       7
  5
35
 10
90.6269255
 20
-4.77749701
 30
0.0
 40
5.0
 50
323.13010235
 51
355.21850334
  0
LINE
  8
0
  6
CONTINUOUS
 62
       7
  5
36
 10
97.00634441
 20
-7.77749701
 30
0.0
 11
106.2269255
 21
-7.77749701
 31
0.0
  0
LINE
  8
0
  6
CONTINUOUS
 62
       7
  5
37
 10
94.6269255
 20
1.25320389
 30
0.0
 11
98.44416029
 21
1.25320389
 31
0.0
  0
LINE
  8
0
  6
CONTINUOUS
 62
       7
  5
38
 10
106.2269255
 20
-7.77749701
 30
0.0
 11
106.2269255
 21
-1.77749701
 31
0.0
  0
ARC
  8
0
  6
CONTINUOUS
 62
       7
  5
39
 10
91.54887156
 20
-0.77749701
 30
0.0
 40
1.0
 50
210.46554492
 51
270.0
  0
LINE
  8
0
  6
CONTINUOUS
 62
       7
  5
3A
 10
110.12884929
 20
-7.77749701
 30
0.0
 11
124.4769255
 21
-7.77749701
 31
0.0
  0
POLYLINE
  8
0
  6
CONTINUOUS
 62
       7
  5
3B
 66
       1
 10
0.0
 20
0.0
 30
0.0
  0
VERTEX
  8
0
  6
CONTINUOUS
 62
       7
  5
237
 10
115.7269255
 20
-1.77749701
 30
0.0
  0
VERTEX
  8
0
  6
CONTINUOUS
 62
       7
  5
238
 10
115.83139065
 20
-1.79391137
 30
0.0
  0
VERTEX
  8
0
  6
CONTINUOUS
 62
       7
  5
239
 10
115.93471264
 20
-1.84297481
 30
0.0
  0
VERTEX
  8
0
  6
CONTINUOUS
 62
       7
  5
23A
 10
116.03576084
 20
-1.92415045
 30
0.0
  0
VERTEX
  8
0
  6
CONTINUOUS
 62
       7
  5
23B
 10
116.13342948
 20
-2.03654998
 30
0.0
  0
VERTEX
  8
0
  6
CONTINUOUS
 62
       7
  5
23C
 10
116.22664979
 20
-2.17894344
 30
0.0
  0
VERTEX
  8
0
  6
CONTINUOUS
 62
       7
  5
23D
 10
116.31440167
 20
-2.34977261
 30
0.0
  0
VERTEX
  8
0
  6
CONTINUOUS
 62
       7
  5
23E
 10
116.39572485
 20
-2.54716814
 30
0.0
  0
VERTEX
  8
0
  6
CONTINUOUS
 62
       7
  5
23F
 10
116.46972942
 20
-2.76896994
 30
0.0
  0
VERTEX
  8
0
  6
CONTINUOUS
 62
       7
  5
240
 10
116.47228149
 20
-2.77749701
 30
0.0
  0
SEQEND
  8
0
  6
CONTINUOUS
 62
       7
  5
241
  0
POLYLINE
  8
0
  6
CONTINUOUS
 62
       7
  5
3C
 66
       1
 10
0.0
 20
0.0
 30
0.0
  0
VERTEX
  8
0
  6
CONTINUOUS
 62
       7
  5
242
 10
120.91006639
 20
1.22250299
 30
0.0
  0
VERTEX
  8
0
  6
CONTINUOUS
 62
       7
  5
243
 10
121.13920873
 20
1.18299325
 30
0.0
  0
VERTEX
  8
0
  6
CONTINUOUS
 62
       7
  5
244
 10
121.36533328
 20
1.06498435
 30
0.0
  0
VERTEX
  8
0
  6
CONTINUOUS
 62
       7
  5
245
 10
121.58546201
 20
0.87003048
 30
0.0
  0
VERTEX
  8
0
  6
CONTINUOUS
 62
       7
  5
246
 10
121.79669583
 20
0.60069916
 30
0.0
  0
VERTEX
  8
0
  6
CONTINUOUS
 62
       7
  5
247
 10
121.99625282
 20
0.26053745
 30
0.0
  0
VERTEX
  8
0
  6
CONTINUOUS
 62
       7
  5
248
 10
122.18150483
 20
-0.14597474
 30
0.0
  0
VERTEX
  8
0
  6
CONTINUOUS
 62
       7
  5
249
 10
122.3500121
 20
-0.61348369
 30
0.0
  0
VERTEX
  8
0
  6
CONTINUOUS
 62
       7
  5
24A
 10
122.49955542
 20
-1.13583233
 30
0.0
  0
VERTEX
  8
0
  6
CONTINUOUS
 62
       7
  5
24B
 10
122.62816529
 20
-1.70614138
 30
0.0
  0
VERTEX
  8
0
  6
CONTINUOUS
 62
       7
  5
24C
 10
122.73414795
 20
-2.31689993
 30
0.0
  0
VERTEX
  8
0
  6
CONTINUOUS
 62
       7
  5
24D
 10
122.76650408
 20
-2.54528919
 30
0.0
  0
VERTEX
  8
0
  6
CONTINUOUS
 62
       7
  5
24E
 10
122.79568447
 20
-2.77749701
 30
0.0
  0
SEQEND
  8
0
  6
CONTINUOUS
 62
       7
  5
24F
  0
LINE
  8
0
  6
CONTINUOUS
 62
       7
  5
3D
 10
94.6269255
 20
-10.80819791
 30
0.0
 11
94.6269255
 21
-7.77749701
 31
0.0
  0
ARC
  8
0
  6
CONTINUOUS
 62
       7
  5
3E
 10
78.4769255
 20
27.55345488
 30
0.0
 40
3.0
 50
329.03624347
 51
0.0
  0
ARC
  8
0
  6
CONTINUOUS
 62
       7
  5
3F
 10
81.4769255
 20
20.89155109
 30
0.0
 40
3.0
 50
149.03624347
 51
180.0
  0
LINE
  8
0
  6
CONTINUOUS
 62
       7
  5
40
 10
116.79188008
 20
71.22250299
 30
0.0
 11
116.79188008
 21
93.72250299
 31
0.0
  0
LINE
  8
0
  6
CONTINUOUS
 62
       7
  5
41
 10
97.16197092
 20
72.48403956
 30
0.0
 11
97.16197092
 21
93.72250299
 31
0.0
  0
LINE
  8
0
  6
CONTINUOUS
 62
       7
  5
42
 10
116.79188008
 20
93.72250299
 30
0.0
 11
97.16197092
 21
93.72250299
 31
0.0
  0
LINE
  8
0
  6
CONTINUOUS
 62
       7
  5
43
 10
116.9769255
 20
71.22250299
 30
0.0
 11
99.34701637
 21
71.22250299
 31
0.0
  0
LINE
  8
0
  6
CONTINUOUS
 62
       7
  5
44
 10
116.9769255
 20
70.72250299
 30
0.0
 11
116.9769255
 21
71.22250299
 31
0.0
  0
ARC
  8
0
  6
CONTINUOUS
 62
       7
  5
45
 10
89.4769255
 20
-8.77749701
 30
0.0
 40
1.0
 50
90.0
 51
180.0
  0
ARC
  8
0
  6
CONTINUOUS
 62
       7
  5
46
 10
85.40497945
 20
5.72250299
 30
0.0
 40
1.0
 50
30.46554492
 51
90.0
  0
ARC
  8
0
  6
CONTINUOUS
 62
       7
  5
47
 10
121.4769255
 20
16.72250299
 30
0.0
 40
1.0
 50
270.0
 51
0.0
  0
ARC
  8
0
  6
CONTINUOUS
 62
       7
  5
48
 10
132.9769255
 20
20.72250299
 30
0.0
 40
1.0
 50
0.0
 51
90.0
  0
ARC
  8
0
  6
CONTINUOUS
 62
       7
  5
49
 10
77.4769255
 20
16.72250299
 30
0.0
 40
1.0
 50
270.0
 51
0.0
  0
ARC
  8
0
  6
CONTINUOUS
 62
       7
  5
4A
 10
80.9769255
 20
20.72250299
 30
0.0
 40
1.0
 50
90.0
 51
180.0
  0
ARC
  8
0
  6
CONTINUOUS
 62
       7
  5
4B
 10
75.4769255
 20
14.72250299
 30
0.0
 40
1.0
 50
90.0
 51
180.0
  0
ARC
  8
0
  6
CONTINUOUS
 62
       7
  5
4C
 10
75.4769255
 20
7.72250299
 30
0.0
 40
1.0
 50
180.0
 51
270.0
  0
ARC
  8
0
  6
CONTINUOUS
 62
       7
  5
4D
 10
124.4769255
 20
-8.77749701
 30
0.0
 40
1.0
 50
0.0
 51
90.0
  0
ARC
  8
0
  6
CONTINUOUS
 62
       7
  5
4E
 10
128.54887156
 20
5.72250299
 30
0.0
 40
1.0
 50
90.0
 51
149.53445508
  0
ARC
  8
0
  6
CONTINUOUS
 62
       7
  5
4F
 10
138.4769255
 20
14.72250299
 30
0.0
 40
1.0
 50
0.0
 51
90.0
  0
ARC
  8
0
  6
CONTINUOUS
 62
       7
  5
50
 10
136.4769255
 20
16.72250299
 30
0.0
 40
1.0
 50
180.0
 51
270.0
  0
POLYLINE
  8
0
  6
CONTINUOUS
 62
       7
  5
51
 66
       1
 10
0.0
 20
0.0
 30
0.0
  0
VERTEX
  8
0
  6
CONTINUOUS
 62
       7
  5
250
 10
90.4769255
 20
-1.77749701
 30
0.0
  0
VERTEX
  8
0
  6
CONTINUOUS
 62
       7
  5
251
 10
90.21360225
 20
-1.80361286
 30
0.0
  0
VERTEX
  8
0
  6
CONTINUOUS
 62
       7
  5
252
 10
89.95486361
 20
-1.88150571
 30
0.0
  0
VERTEX
  8
0
  6
CONTINUOUS
 62
       7
  5
253
 10
89.70521436
 20
-2.00981941
 30
0.0
  0
VERTEX
  8
0
  6
CONTINUOUS
 62
       7
  5
254
 10
89.46900104
 20
-2.18631994
 30
0.0
  0
VERTEX
  8
0
  6
CONTINUOUS
 62
       7
  5
255
 10
89.25033625
 20
-2.40793432
 30
0.0
  0
VERTEX
  8
0
  6
CONTINUOUS
 62
       7
  5
256
 10
89.05302708
 20
-2.67080413
 30
0.0
  0
VERTEX
  8
0
  6
CONTINUOUS
 62
       7
  5
257
 10
88.88050878
 20
-2.97035266
 30
0.0
  0
VERTEX
  8
0
  6
CONTINUOUS
 62
       7
  5
258
 10
88.735785
 20
-3.30136459
 30
0.0
  0
VERTEX
  8
0
  6
CONTINUOUS
 62
       7
  5
259
 10
88.62137546
 20
-3.65807682
 30
0.0
  0
VERTEX
  8
0
  6
CONTINUOUS
 62
       7
  5
25A
 10
88.53927209
 20
-4.03427879
 30
0.0
  0
VERTEX
  8
0
  6
CONTINUOUS
 62
       7
  5
25B
 10
88.49090436
 20
-4.4234206
 30
0.0
  0
VERTEX
  8
0
  6
CONTINUOUS
 62
       7
  5
25C
 10
88.47711439
 20
-4.81872709
 30
0.0
  0
VERTEX
  8
0
  6
CONTINUOUS
 62
       7
  5
25D
 10
88.49814226
 20
-5.21331574
 30
0.0
  0
VERTEX
  8
0
  6
CONTINUOUS
 62
       7
  5
25E
 10
88.55362186
 20
-5.60031654
 30
0.0
  0
VERTEX
  8
0
  6
CONTINUOUS
 62
       7
  5
25F
 10
88.64258726
 20
-5.97299158
 30
0.0
  0
VERTEX
  8
0
  6
CONTINUOUS
 62
       7
  5
260
 10
88.76348953
 20
-6.32485239
 30
0.0
  0
VERTEX
  8
0
  6
CONTINUOUS
 62
       7
  5
261
 10
88.91422369
 20
-6.64977287
 30
0.0
  0
VERTEX
  8
0
  6
CONTINUOUS
 62
       7
  5
262
 10
89.09216537
 20
-6.94209597
 30
0.0
  0
VERTEX
  8
0
  6
CONTINUOUS
 62
       7
  5
263
 10
89.29421651
 20
-7.19673217
 30
0.0
  0
VERTEX
  8
0
  6
CONTINUOUS
 62
       7
  5
264
 10
89.51685928
 20
-7.40924812
 30
0.0
  0
VERTEX
  8
0
  6
CONTINUOUS
 62
       7
  5
265
 10
89.75621735
 20
-7.5759438
 30
0.0
  0
VERTEX
  8
0
  6
CONTINUOUS
 62
       7
  5
266
 10
90.00812335
 20
-7.69391694
 30
0.0
  0
VERTEX
  8
0
  6
CONTINUOUS
 62
       7
  5
267
 10
90.00812335
 20
-7.69391694
 30
0.0
  0
SEQEND
  8
0
  6
CONTINUOUS
 62
       7
  5
268
  0
LINE
  8
0
  6
CONTINUOUS
 62
       7
  5
52
 10
119.3269255
 20
-6.77749701
 30
0.0
 11
119.3269255
 21
-3.13476252
 31
0.0
  0
LINE
  8
0
  6
CONTINUOUS
 62
       7
  5
53
 10
123.94572765
 20
-7.777497
 30
0.0
 11
123.94572765
 21
-2.77749701
 31
0.0
  0
LINE
  8
0
  6
CONTINUOUS
 62
       7
  5
54
 10
114.70812335
 20
-7.777497
 30
0.0
 11
114.70812335
 21
-3.13476247
 31
0.0
  0
LINE
  8
0
  6
CONTINUOUS
 62
       7
  5
55
 10
123.94572765
 20
-2.77749701
 30
0.0
 11
114.7269255
 21
-2.77749701
 31
0.0
  0
LINE
  8
0
  6
CONTINUOUS
 62
       7
  5
56
 10
123.94572765
 20
-6.77749701
 30
0.0
 11
114.70812335
 21
-6.77749701
 31
0.0
  0
LINE
  8
0
  6
CONTINUOUS
 62
       7
  5
57
 10
114.7269255
 20
-3.12204861
 30
0.0
 11
114.7269255
 21
-1.77749701
 31
0.0
  0
LINE
  8
0
  6
CONTINUOUS
 62
       7
  5
58
 10
115.7269255
 20
-1.77749701
 30
0.0
 11
120.52053601
 21
1.22250299
 31
0.0
  0
POLYLINE
  8
0
  6
CONTINUOUS
 62
       7
  5
59
 66
       1
 10
0.0
 20
0.0
 30
0.0
  0
VERTEX
  8
0
  6
CONTINUOUS
 62
       7
  5
269
 10
122.7269255
 20
1.22250299
 30
0.0
  0
VERTEX
  8
0
  6
CONTINUOUS
 62
       7
  5
26A
 10
122.98797789
 20
1.17117216
 30
0.0
  0
VERTEX
  8
0
  6
CONTINUOUS
 62
       7
  5
26B
 10
123.24456359
 20
1.01805795
 30
0.0
  0
VERTEX
  8
0
  6
CONTINUOUS
 62
       7
  5
26C
 10
123.49229237
 20
0.76578018
 30
0.0
  0
VERTEX
  8
0
  6
CONTINUOUS
 62
       7
  5
26D
 10
123.7269255
 20
0.41865541
 30
0.0
  0
VERTEX
  8
0
  6
CONTINUOUS
 62
       7
  5
26E
 10
123.94444836
 20
-0.01737697
 30
0.0
  0
VERTEX
  8
0
  6
CONTINUOUS
 62
       7
  5
26F
 10
124.14113906
 20
-0.53485632
 30
0.0
  0
VERTEX
  8
0
  6
CONTINUOUS
 62
       7
  5
270
 10
124.31363218
 20
-1.12492844
 30
0.0
  0
VERTEX
  8
0
  6
CONTINUOUS
 62
       7
  5
271
 10
124.45897631
 20
-1.77749701
 30
0.0
  0
VERTEX
  8
0
  6
CONTINUOUS
 62
       7
  5
272
 10
124.57468457
 20
-2.48139642
 30
0.0
  0
VERTEX
  8
0
  6
CONTINUOUS
 62
       7
  5
273
 10
124.65877715
 20
-3.22458274
 30
0.0
  0
VERTEX
  8
0
  6
CONTINUOUS
 62
       7
  5
274
 10
124.70981522
 20
-3.99433986
 30
0.0
  0
VERTEX
  8
0
  6
CONTINUOUS
 62
       7
  5
275
 10
124.7269255
 20
-4.77749701
 30
0.0
  0
VERTEX
  8
0
  6
CONTINUOUS
 62
       7
  5
276
 10
124.70981522
 20
-5.56065416
 30
0.0
  0
VERTEX
  8
0
  6
CONTINUOUS
 62
       7
  5
277
 10
124.65877715
 20
-6.33041128
 30
0.0
  0
VERTEX
  8
0
  6
CONTINUOUS
 62
       7
  5
278
 10
124.57468457
 20
-7.07359761
 30
0.0
  0
VERTEX
  8
0
  6
CONTINUOUS
 62
       7
  5
279
 10
124.45897631
 20
-7.77749701
 30
0.0
  0
SEQEND
  8
0
  6
CONTINUOUS
 62
       7
  5
27A
  0
LINE
  8
0
  6
CONTINUOUS
 62
       7
  5
5A
 10
120.52053601
 20
1.22250299
 30
0.0
 11
122.72692556
 21
1.22250299
 31
0.0
  0
LINE
  8
0
  6
CONTINUOUS
 62
       7
  5
5B
 10
89.4769255
 20
-7.77749701
 30
0.0
 11
94.6269255
 21
-7.77749701
 31
0.0
  0
LINE
  8
0
  6
CONTINUOUS
 62
       2
  5
5C
 10
128.17197393
 20
-4.77749701
 30
0.0
 11
86.74769779
 21
-4.77749701
 31
0.0
  0
LINE
  8
0
  6
CONTINUOUS
 62
       7
  5
5D
 10
99.4769255
 20
-7.77749701
 30
0.0
 11
99.4769255
 21
-13.77749701
 31
0.0
  0
LINE
  8
0
  6
CONTINUOUS
 62
       7
  5
5E
 10
127.68693734
 20
6.22952312
 30
0.0
 11
123.97295754
 21
-0.08424255
 31
0.0
  0
LINE
  8
0
  6
CONTINUOUS
 62
       7
  5
5F
 10
86.26691366
 20
6.22952312
 30
0.0
 11
90.68693734
 21
-1.28451714
 31
0.0
  0
LINE
  8
0
  6
CONTINUOUS
 62
       7
  5
60
 10
74.4769255
 20
12.72250299
 30
0.0
 11
90.14525301
 21
12.72250299
 31
0.0
  0
LINE
  8
0
  6
CONTINUOUS
 62
       7
  5
61
 10
121.4769255
 20
70.72250299
 30
0.0
 11
100.21304177
 21
70.72250299
 31
0.0
  0
LINE
  8
0
  6
CONTINUOUS
 62
       7
  5
62
 10
134.79315327
 20
21.45042707
 30
0.0
 11
133.9769255
 21
21.72250299
 31
0.0
  0
LINE
  8
0
  6
CONTINUOUS
 62
       7
  5
63
 10
133.9769255
 20
21.72250299
 30
0.0
 11
132.05923837
 21
33.2286258
 31
0.0
  0
LINE
  8
0
  6
CONTINUOUS
 62
       7
  5
64
 10
135.4769255
 20
16.72250299
 30
0.0
 11
135.4769255
 21
20.50174377
 31
0.0
  0
LINE
  8
0
  6
CONTINUOUS
 62
       7
  5
65
 10
86.54316883
 20
21.72250299
 30
0.0
 11
80.9769255
 21
21.72250299
 31
0.0
  0
LINE
  8
0
  6
CONTINUOUS
 62
       7
  5
66
 10
121.4769255
 20
15.72250299
 30
0.0
 11
100.21304185
 21
15.72250299
 31
0.0
  0
LINE
  8
0
  6
CONTINUOUS
 62
       7
  5
67
 10
79.9769255
 20
15.72250299
 30
0.0
 11
75.4769255
 21
15.72250299
 31
0.0
  0
LINE
  8
0
  6
CONTINUOUS
 62
       7
  5
68
 10
91.4769255
 20
6.72250299
 30
0.0
 11
91.4769255
 21
11.26261047
 31
0.0
  0
LINE
  8
0
  6
CONTINUOUS
 62
       7
  5
69
 10
122.4769255
 20
6.72250299
 30
0.0
 11
122.4769255
 21
21.11481202
 31
0.0
  0
LINE
  8
0
  6
CONTINUOUS
 62
       7
  5
6A
 10
79.9769255
 20
6.72250299
 30
0.0
 11
79.9769255
 21
20.72250299
 31
0.0
  0
LINE
  8
0
  6
CONTINUOUS
 62
       7
  5
6B
 10
133.9769255
 20
6.72250299
 30
0.0
 11
133.9769255
 21
21.72250299
 31
0.0
  0
LINE
  8
0
  6
CONTINUOUS
 62
       7
  5
6C
 10
81.04940428
 20
26.00996762
 30
0.0
 11
78.90444672
 21
22.43503836
 31
0.0
  0
LINE
  8
0
  6
CONTINUOUS
 62
       7
  5
6D
 10
85.60521523
 20
26.72250299
 30
0.0
 11
81.35954912
 21
26.72250299
 31
0.0
  0
LINE
  8
0
  6
CONTINUOUS
 62
       7
  5
6E
 10
132.9769255
 20
21.72250299
 30
0.0
 11
123.30940847
 21
21.72250299
 31
0.0
  0
LINE
  8
0
  6
CONTINUOUS
 62
       7
  5
6F
 10
78.4769255
 20
16.72250299
 30
0.0
 11
78.4769255
 21
20.89155109
 31
0.0
  0
LINE
  8
0
  6
CONTINUOUS
 62
       7
  5
70
 10
138.4769255
 20
15.72250299
 30
0.0
 11
133.9769255
 21
15.72250299
 31
0.0
  0
LINE
  8
0
  6
CONTINUOUS
 62
       7
  5
71
 10
88.4769255
 20
-13.77749701
 30
0.0
 11
88.4769255
 21
-8.77749701
 31
0.0
  0
LINE
  8
0
  6
CONTINUOUS
 62
       7
  5
72
 10
125.4769255
 20
-13.77749701
 30
0.0
 11
125.4769255
 21
-8.77749701
 31
0.0
  0
LINE
  8
0
  6
CONTINUOUS
 62
       7
  5
73
 10
139.4769255
 20
7.72250299
 30
0.0
 11
139.4769255
 21
14.72250299
 31
0.0
  0
LINE
  8
0
  6
CONTINUOUS
 62
       7
  5
74
 10
138.4769255
 20
6.72250299
 30
0.0
 11
114.72289219
 21
6.72250299
 31
0.0
  0
LINE
  8
0
  6
CONTINUOUS
 62
       7
  5
75
 10
74.4769255
 20
7.72250299
 30
0.0
 11
74.4769255
 21
14.72250299
 31
0.0
  0
LINE
  8
0
  6
CONTINUOUS
 62
       7
  5
76
 10
88.4769255
 20
-13.77749701
 30
0.0
 11
125.4769255
 21
-13.77749701
 31
0.0
  0
CIRCLE
  8
0
  6
CONTINUOUS
 62
       7
  5
77
 10
106.9769255
 20
6.72250299
 30
0.0
 40
3.35
  0
ARC
  8
0
  6
CONTINUOUS
 62
       7
  5
78
 10
106.9769255
 20
6.72250299
 30
0.0
 40
6.0
 50
194.47751219
 51
345.52248781
  0
ARC
  8
0
  6
CONTINUOUS
 62
       7
  5
79
 10
114.72289219
 20
4.72250299
 30
0.0
 40
2.0
 50
90.0
 51
165.52248781
  0
ARC
  8
0
  6
CONTINUOUS
 62
       7
  5
7A
 10
99.23095881
 20
4.72250299
 30
0.0
 40
2.0
 50
14.47751219
 51
90.0
  0
LINE
  8
0
  6
CONTINUOUS
 62
       7
  5
7B
 10
105.2091585
 20
4.95473613
 30
0.0
 11
108.74469228
 21
8.49026992
 31
0.0
  0
LINE
  8
0
  6
CONTINUOUS
 62
       7
  5
7C
 10
105.20915838
 20
8.49026992
 30
0.0
 11
108.74469232
 21
4.95473598
 31
0.0
  0
ARC
  8
0
  6
CONTINUOUS
 62
       7
  5
7D
 10
138.4769255
 20
7.72250299
 30
0.0
 40
1.0
 50
270.0
 51
0.0
  0
LINE
  8
0
  6
CONTINUOUS
 62
       2
  5
7E
 10
95.96737734
 20
62.2915998
 30
0.0
 11
88.86633025
 21
74.59097415
 31
0.0
  0
LINE
  8
0
  6
CONTINUOUS
 62
       2
  5
7F
 10
89.90411381
 20
13.65152556
 30
0.0
 11
95.2464848
 21
22.90478356
 31
0.0
  0
ARC
  8
0
  6
CONTINUOUS
 62
       7
  5
80
 10
92.54316879
 20
68.22250299
 30
0.0
 40
6.0
 50
59.99999998
 51
180.00000005
  0
ARC
  8
0
  6
CONTINUOUS
 62
       7
  5
81
 10
92.54316884
 20
18.22250296
 30
0.0
 40
6.0
 50
180.00000005
 51
300.00000007
  0
ARC
  8
0
  6
CONTINUOUS
 62
       7
  5
82
 10
135.84443895
 20
43.22250299
 30
0.0
 40
6.0
 50
300.00000007
 51
59.99999998
  0
LINE
  8
0
  6
CONTINUOUS
 62
       7
  5
83
 10
95.54316879
 20
73.41865541
 30
0.0
 11
101.90995
 21
69.74279257
 31
0.0
  0
LINE
  8
0
  6
CONTINUOUS
 62
       7
  5
84
 10
138.84443896
 20
38.02635057
 30
0.0
 11
132.47765774
 21
34.35048771
 31
0.0
  0
LINE
  8
0
  6
CONTINUOUS
 62
       7
  5
85
 10
86.54316884
 20
18.22250296
 30
0.0
 11
86.54316883
 21
25.57422862
 31
0.0
  0
LINE
  8
0
  6
CONTINUOUS
 62
       7
  5
86
 10
132.4769255
 20
52.09494102
 30
0.0
 11
138.84443895
 21
48.41865541
 31
0.0
  0
ARC
  8
0
  6
CONTINUOUS
 62
       2
  5
87
 10
106.9769255
 20
43.22250299
 30
0.0
 40
28.86751345
 50
110.91233113
 51
131.62090089
  0
LINE
  8
0
  6
CONTINUOUS
 62
       7
  5
88
 10
86.5431688
 20
60.87077732
 30
0.0
 11
86.54316879
 21
68.22250298
 31
0.0
  0
ARC
  8
0
  6
CONTINUOUS
 62
       2
  5
89
 10
106.9769255
 20
43.22250299
 30
0.0
 40
28.86751345
 50
229.698825
 51
250.08888672
  0
LINE
  8
0
  6
CONTINUOUS
 62
       7
  5
8A
 10
81.4769255
 20
52.09662266
 30
0.0
 11
81.4769255
 21
60.72250299
 31
0.0
  0
LINE
  8
0
  6
CONTINUOUS
 62
       7
  5
8B
 10
101.90995006
 20
16.7022134
 30
0.0
 11
95.54316884
 21
13.02635054
 31
0.0
  0
ARC
  8
0
  6
CONTINUOUS
 62
       2
  5
8C
 10
106.9769255
 20
43.22250299
 30
0.0
 40
28.86751345
 50
350.37761262
 51
10.28882866
  0
LINE
  8
0
  6
CONTINUOUS
 62
       7
  5
8D
 10
132.4769255
 20
52.09662266
 30
0.0
 11
132.4769255
 21
59.72250299
 31
0.0
  0
ARC
  8
0
  6
CONTINUOUS
 62
       7
  5
8E
 10
121.4769255
 20
59.72250299
 30
0.0
 40
11.0
 50
0.0
 51
90.0
  0
CIRCLE
  8
0
  6
CONTINUOUS
 62
       7
  5
8F
 10
92.54316879
 20
68.22250299
 30
0.0
 40
4.0
  0
CIRCLE
  8
0
  6
CONTINUOUS
 62
       7
  5
90
 10
135.84443895
 20
43.22250299
 30
0.0
 40
4.0
  0
CIRCLE
  8
0
  6
CONTINUOUS
 62
       7
  5
91
 10
92.54316884
 20
18.22250296
 30
0.0
 40
4.0
  0
LINE
  8
0
  6
CONTINUOUS
 62
       7
  5
92
 10
135.84443895
 20
45.22250299
 30
0.0
 11
134.11238814
 21
44.22250299
 31
0.0
  0
LINE
  8
0
  6
CONTINUOUS
 62
       7
  5
93
 10
134.11238814
 20
44.22250299
 30
0.0
 11
134.11238814
 21
42.22250299
 31
0.0
  0
LINE
  8
0
  6
CONTINUOUS
 62
       7
  5
94
 10
134.11238814
 20
42.22250299
 30
0.0
 11
135.84443895
 21
41.22250299
 31
0.0
  0
LINE
  8
0
  6
CONTINUOUS
 62
       7
  5
95
 10
135.84443895
 20
41.22250299
 30
0.0
 11
137.57648976
 21
42.22250299
 31
0.0
  0
LINE
  8
0
  6
CONTINUOUS
 62
       7
  5
96
 10
137.57648976
 20
42.22250299
 30
0.0
 11
137.57648976
 21
44.22250299
 31
0.0
  0
LINE
  8
0
  6
CONTINUOUS
 62
       7
  5
97
 10
137.57648976
 20
44.22250299
 30
0.0
 11
135.84443895
 21
45.22250299
 31
0.0
  0
LINE
  8
0
  6
CONTINUOUS
 62
       7
  5
98
 10
91.74564144
 20
66.38839554
 30
0.0
 11
93.73278876
 21
66.61477032
 31
0.0
  0
LINE
  8
0
  6
CONTINUOUS
 62
       7
  5
99
 10
93.73278876
 20
66.61477032
 30
0.0
 11
94.53031611
 21
68.44887777
 31
0.0
  0
LINE
  8
0
  6
CONTINUOUS
 62
       7
  5
9A
 10
94.53031611
 20
68.44887777
 30
0.0
 11
93.34069614
 21
70.05661044
 31
0.0
  0
LINE
  8
0
  6
CONTINUOUS
 62
       7
  5
9B
 10
93.34069614
 20
70.05661044
 30
0.0
 11
91.35354882
 21
69.83023566
 31
0.0
  0
LINE
  8
0
  6
CONTINUOUS
 62
       7
  5
9C
 10
91.35354882
 20
69.83023566
 30
0.0
 11
90.55602147
 21
67.99612821
 31
0.0
  0
LINE
  8
0
  6
CONTINUOUS
 62
       7
  5
9D
 10
90.55602147
 20
67.99612821
 30
0.0
 11
91.74564144
 21
66.38839554
 31
0.0
  0
LINE
  8
0
  6
CONTINUOUS
 62
       7
  5
9E
 10
94.49100919
 20
17.7687211
 30
0.0
 11
93.91007563
 21
19.68249126
 31
0.0
  0
LINE
  8
0
  6
CONTINUOUS
 62
       7
  5
9F
 10
93.91007563
 20
19.68249126
 30
0.0
 11
91.96223528
 21
20.13627312
 31
0.0
  0
LINE
  8
0
  6
CONTINUOUS
 62
       7
  5
A0
 10
91.96223528
 20
20.13627312
 30
0.0
 11
90.59532849
 21
18.67628482
 31
0.0
  0
LINE
  8
0
  6
CONTINUOUS
 62
       7
  5
A1
 10
90.59532849
 20
18.67628482
 30
0.0
 11
91.17626204
 21
16.76251467
 31
0.0
  0
LINE
  8
0
  6
CONTINUOUS
 62
       7
  5
A2
 10
91.17626204
 20
16.76251467
 30
0.0
 11
93.12410239
 21
16.30873281
 31
0.0
  0
LINE
  8
0
  6
CONTINUOUS
 62
       7
  5
A3
 10
93.12410239
 20
16.30873281
 30
0.0
 11
94.49100919
 21
17.7687211
 31
0.0
  0
ARC
  8
0
  6
CONTINUOUS
 62
       7
  5
A4
 10
134.4769255
 20
20.50174377
 30
0.0
 40
1.0
 50
360.0
 51
71.56505118
  0
ARC
  8
0
  6
CONTINUOUS
 62
       7
  5
A5
 10
95.11684419
 20
-3.77749701
 30
0.0
 40
1.5
 50
270.0
 51
15.18097367
  0
POLYLINE
  8
0
  6
CONTINUOUS
 62
       7
  5
A6
 66
       1
 10
0.0
 20
0.0
 30
0.0
  0
VERTEX
  8
0
  6
CONTINUOUS
 62
       7
  5
27B
 10
95.46529581
 20
-3.6568401
 30
0.0
  0
VERTEX
  8
0
  6
CONTINUOUS
 62
       7
  5
27C
 10
95.37827378
 20
-3.35609573
 30
0.0
  0
VERTEX
  8
0
  6
CONTINUOUS
 62
       7
  5
27D
 10
95.27125742
 20
-3.07277278
 30
0.0
  0
VERTEX
  8
0
  6
CONTINUOUS
 62
       7
  5
27E
 10
95.14555839
 20
-2.81034381
 30
0.0
  0
VERTEX
  8
0
  6
CONTINUOUS
 62
       7
  5
27F
 10
95.00271732
 20
-2.57202527
 30
0.0
  0
VERTEX
  8
0
  6
CONTINUOUS
 62
       7
  5
280
 10
94.84448494
 20
-2.36073813
 30
0.0
  0
VERTEX
  8
0
  6
CONTINUOUS
 62
       7
  5
281
 10
94.67280062
 20
-2.17907202
 30
0.0
  0
VERTEX
  8
0
  6
CONTINUOUS
 62
       7
  5
282
 10
94.48976863
 20
-2.02925354
 30
0.0
  0
VERTEX
  8
0
  6
CONTINUOUS
 62
       7
  5
283
 10
94.29763229
 20
-1.91311894
 30
0.0
  0
VERTEX
  8
0
  6
CONTINUOUS
 62
       7
  5
284
 10
94.09874653
 20
-1.83209163
 30
0.0
  0
VERTEX
  8
0
  6
CONTINUOUS
 62
       7
  5
285
 10
93.89554899
 20
-1.78716472
 30
0.0
  0
VERTEX
  8
0
  6
CONTINUOUS
 62
       7
  5
286
 10
93.82131023
 20
-1.77991491
 30
0.0
  0
VERTEX
  8
0
  6
CONTINUOUS
 62
       7
  5
287
 10
93.74695161
 20
-1.77749701
 30
0.0
  0
SEQEND
  8
0
  6
CONTINUOUS
 62
       7
  5
288
  0
POLYLINE
  8
0
  6
CONTINUOUS
 62
       7
  5
A7
 66
       1
 10
0.0
 20
0.0
 30
0.0
  0
VERTEX
  8
0
  6
CONTINUOUS
 62
       7
  5
289
 10
96.56449945
 20
-3.38469395
 30
0.0
  0
VERTEX
  8
0
  6
CONTINUOUS
 62
       7
  5
28A
 10
96.40853854
 20
-2.83391309
 30
0.0
  0
VERTEX
  8
0
  6
CONTINUOUS
 62
       7
  5
28B
 10
96.20315551
 20
-2.32743311
 30
0.0
  0
VERTEX
  8
0
  6
CONTINUOUS
 62
       7
  5
28C
 10
95.95303172
 20
-1.8767984
 30
0.0
  0
VERTEX
  8
0
  6
CONTINUOUS
 62
       7
  5
28D
 10
95.66386835
 20
-1.49228045
 30
0.0
  0
VERTEX
  8
0
  6
CONTINUOUS
 62
       7
  5
28E
 10
95.34225641
 20
-1.18264374
 30
0.0
  0
VERTEX
  8
0
  6
CONTINUOUS
 62
       7
  5
28F
 10
94.99552652
 20
-0.95494594
 30
0.0
  0
VERTEX
  8
0
  6
CONTINUOUS
 62
       7
  5
290
 10
94.63158185
 20
-0.81437705
 30
0.0
  0
VERTEX
  8
0
  6
CONTINUOUS
 62
       7
  5
291
 10
94.25871791
 20
-0.76414111
 30
0.0
  0
VERTEX
  8
0
  6
CONTINUOUS
 62
       7
  5
292
 10
94.25871791
 20
-0.76414111
 30
0.0
  0
SEQEND
  8
0
  6
CONTINUOUS
 62
       7
  5
293
  0
ARC
  8
0
  6
CONTINUOUS
 62
       7
  5
A8
 10
94.98007225
 20
-3.77749701
 30
0.0
 40
0.5
 50
294.57019468
 51
13.9640959
  0
LINE
  8
0
  6
CONTINUOUS
 62
       7
  5
A9
 10
94.25857264
 20
-0.77619309
 30
0.0
 11
92.5991966
 21
-0.75619142
 31
0.0
  0
LINE
  8
0
  6
CONTINUOUS
 62
       7
  5
AA
 10
95.18797612
 20
-4.23222328
 30
0.0
 11
94.18797612
 21
-4.23222328
 31
0.0
  0
LINE
  8
0
  6
CONTINUOUS
 62
       7
  5
AB
 10
95.11684419
 20
-5.27749701
 30
0.0
 11
94.13702755
 21
-5.27749701
 31
0.0
  0
LINE
  8
0
  6
CONTINUOUS
 62
       7
  5
AC
 10
94.94108466
 20
12.72250299
 30
0.0
 11
139.4769255
 21
12.72250299
 31
0.0
  0
LINE
  8
0
  6
CONTINUOUS
 62
       7
  5
AD
 10
88.4769255
 20
-35.77749701
 30
0.0
 11
88.4769255
 21
-13.77749701
 31
0.0
  0
LINE
  8
0
  6
CONTINUOUS
 62
       7
  5
AE
 10
125.4769255
 20
-35.77749701
 30
0.0
 11
125.4769255
 21
-13.77749701
 31
0.0
  0
LINE
  8
0
  6
CONTINUOUS
 62
       7
  5
AF
 10
99.23095881
 20
6.72250299
 30
0.0
 11
75.4769255
 21
6.72250299
 31
0.0
  0
LINE
  8
0
  6
CONTINUOUS
 62
       2
  5
B0
 10
102.73276946
 20
6.72250314
 30
0.0
 11
111.22108154
 21
6.72250314
 31
0.0
  0
LINE
  8
0
  6
CONTINUOUS
 62
       2
  5
B1
 10
97.16099455
 20
-24.77749701
 30
0.0
 11
115.51927162
 21
-24.77749701
 31
0.0
  0
CIRCLE
  8
0
  6
CONTINUOUS
 62
       7
  5
B2
 10
106.9769255
 20
-24.77749701
 30
0.0
 40
4.0
  0
CIRCLE
  8
0
  6
CONTINUOUS
 62
       2
  5
B3
 10
106.9769255
 20
-24.77749701
 30
0.0
 40
5.0
  0
LINE
  8
0
  6
CONTINUOUS
 62
       7
  5
B4
 10
92.9769255
 20
-35.77749701
 30
0.0
 11
92.9769255
 21
-13.77749701
 31
0.0
  0
LINE
  8
0
  6
CONTINUOUS
 62
       7
  5
B5
 10
90.4769255
 20
-1.77749701
 30
0.0
 11
115.7269255
 21
-1.77749701
 31
0.0
  0
LINE
  8
0
  6
DASHED
 62
       7
  5
B7
 10
103.01706102
 20
85.72250299
 30
0.0
 11
103.01706102
 21
93.72250299
 31
0.0
  0
LINE
  8
0
  6
DASHED
 62
       2
  5
B8
 10
102.29642718
 20
85.72250297
 30
0.0
 11
102.01706103
 21
93.72250297
 31
0.0
  0
LINE
  8
0
  6
DASHED
 62
       7
  5
B9
 10
111.01706102
 20
85.72250299
 30
0.0
 11
111.01706102
 21
93.72250299
 31
0.0
  0
LINE
  8
0
  6
DASHED
 62
       2
  5
BA
 10
111.73769487
 20
85.72250297
 30
0.0
 11
112.01706103
 21
93.72250297
 31
0.0
  0
LINE
  8
0
  6
CONTINUOUS
 62
       2
  5
BB
 10
111.9769255
 20
27.21720297
 30
0.0
 11
111.9769255
 21
39.55024692
 31
0.0
  0
LINE
  8
0
  6
CONTINUOUS
 62
       2
  5
BC
 10
105.47067511
 20
33.72250299
 30
0.0
 11
117.68952421
 21
33.72250299
 31
0.0
  0
LINE
  8
0
  6
CONTINUOUS
 62
       2
  5
BD
 10
111.9769255
 20
46.28774315
 30
0.0
 11
111.9769255
 21
58.96337166
 31
0.0
  0
LINE
  8
0
  6
CONTINUOUS
 62
       7
  5
BE
 10
108.4769255
 20
54.74322919
 30
0.0
 11
108.4769255
 21
50.70177774
 31
0.0
  0
LINE
  8
0
  6
CONTINUOUS
 62
       7
  5
BF
 10
115.4769255
 20
54.74322919
 30
0.0
 11
115.4769255
 21
50.70177774
 31
0.0
  0
LINE
  8
0
  6
CONTINUOUS
 62
       7
  5
C0
 10
108.47692622
 20
54.74322955
 30
0.0
 11
111.9769252
 21
56.76395456
 31
0.0
  0
LINE
  8
0
  6
CONTINUOUS
 62
       7
  5
C1
 10
111.97692533
 20
48.68105224
 30
0.0
 11
115.47692513
 21
50.70177773
 31
0.0
  0
LINE
  8
0
  6
CONTINUOUS
 62
       7
  5
C2
 10
111.9769245
 20
56.76395421
 30
0.0
 11
115.47692431
 21
54.74322873
 31
0.0
  0
LINE
  8
0
  6
CONTINUOUS
 62
       7
  5
C3
 10
108.47692539
 20
50.7017769
 30
0.0
 11
111.9769252
 21
48.68105142
 31
0.0
  0
CIRCLE
  8
0
  6
CONTINUOUS
 62
       7
  5
C4
 10
111.9769255
 20
52.72250299
 30
0.0
 40
3.5
  0
CIRCLE
  8
0
  6
CONTINUOUS
 62
       2
  5
C5
 10
111.9769255
 20
52.72250299
 30
0.0
 40
2.0
  0
CIRCLE
  8
0
  6
CONTINUOUS
 62
       7
  5
C6
 10
111.9769255
 20
52.72250299
 30
0.0
 40
1.62099934
  0
LINE
  8
0
  6
CONTINUOUS
 62
       7
  5
C7
 10
108.4769255
 20
35.74322919
 30
0.0
 11
108.4769255
 21
31.70177774
 31
0.0
  0
LINE
  8
0
  6
CONTINUOUS
 62
       7
  5
C8
 10
115.4769255
 20
35.74322919
 30
0.0
 11
115.4769255
 21
31.70177774
 31
0.0
  0
LINE
  8
0
  6
CONTINUOUS
 62
       7
  5
C9
 10
108.47692622
 20
35.74322955
 30
0.0
 11
111.9769252
 21
37.76395456
 31
0.0
  0
LINE
  8
0
  6
CONTINUOUS
 62
       7
  5
CA
 10
111.97692533
 20
29.68105224
 30
0.0
 11
115.47692513
 21
31.70177773
 31
0.0
  0
LINE
  8
0
  6
CONTINUOUS
 62
       7
  5
CB
 10
111.9769245
 20
37.76395421
 30
0.0
 11
115.47692431
 21
35.74322873
 31
0.0
  0
LINE
  8
0
  6
CONTINUOUS
 62
       7
  5
CC
 10
108.47692539
 20
31.7017769
 30
0.0
 11
111.9769252
 21
29.68105142
 31
0.0
  0
CIRCLE
  8
0
  6
CONTINUOUS
 62
       7
  5
CD
 10
111.9769255
 20
33.72250299
 30
0.0
 40
3.5
  0
CIRCLE
  8
0
  6
CONTINUOUS
 62
       2
  5
CE
 10
111.9769255
 20
33.72250299
 30
0.0
 40
2.0
  0
CIRCLE
  8
0
  6
CONTINUOUS
 62
       7
  5
CF
 10
111.9769255
 20
33.72250299
 30
0.0
 40
1.62099934
  0
LINE
  8
0
  6
CONTINUOUS
 62
       7
  5
D0
 10
108.4769255
 20
44.72250299
 30
0.0
 11
125.91762243
 21
44.72250299
 31
0.0
  0
LINE
  8
0
  6
CONTINUOUS
 62
       7
  5
D1
 10
108.4769255
 20
41.72250299
 30
0.0
 11
125.91762243
 21
41.72250299
 31
0.0
  0
ARC
  8
0
  6
CONTINUOUS
 62
       7
  5
D2
 10
108.4769255
 20
43.22250299
 30
0.0
 40
1.5
 50
90.0
 51
270.0
  0
ARC
  8
0
  6
CONTINUOUS
 62
       7
  5
D3
 10
106.9769255
 20
43.22250299
 30
0.0
 40
27.0
 50
259.18340831
 51
340.81659184
  0
ARC
  8
0
  6
CONTINUOUS
 62
       7
  5
D4
 10
106.9769255
 20
43.22250299
 30
0.0
 40
27.0
 50
19.18340814
 51
100.81659183
  0
ARC
  8
0
  6
CONTINUOUS
 62
       7
  5
D5
 10
106.9769255
 20
43.22250299
 30
0.0
 40
27.0
 50
139.18340807
 51
220.81659204
  0
CIRCLE
  8
0
  6
CONTINUOUS
 62
       7
  5
D6
 10
106.9769255
 20
43.22250299
 30
0.0
 40
21.0
  0
LINE
  8
0
  6
CONTINUOUS
 62
       7
  5
D7
 10
92.9769255
 20
27.57002713
 30
0.0
 11
92.9769255
 21
58.8749788
 31
0.0
  0
ARC
  8
0
  6
CONTINUOUS
 62
       7
  5
D8
 10
106.9769255
 20
43.22250299
 30
0.0
 40
19.0
 50
235.46848512
 51
124.53151512
  0
LINE
  8
0
  6
CONTINUOUS
 62
       7
  5
D9
 10
92.97692545
 20
58.8749788
 30
0.0
 11
96.20659585
 21
58.8749788
 31
0.0
  0
LINE
  8
0
  6
CONTINUOUS
 62
       7
  5
DA
 10
92.97692545
 20
27.57002713
 30
0.0
 11
96.20659591
 21
27.57002713
 31
0.0
  0
LINE
  8
0
  6
CONTINUOUS
 62
       2
  5
DB
 10
105.81325966
 20
52.72250299
 30
0.0
 11
117.45245212
 21
52.72250299
 31
0.0
  0
LINE
  8
0
  6
CONTINUOUS
 62
       7
  5
DC
 10
69.9769255
 20
30.22250299
 30
0.0
 11
69.9769255
 21
56.22250299
 31
0.0
  0
LINE
  8
0
  6
CONTINUOUS
 62
       7
  5
DD
 10
69.9769255
 20
56.22250299
 30
0.0
 11
81.4769255
 21
56.22250299
 31
0.0
  0
LINE
  8
0
  6
CONTINUOUS
 62
       7
  5
DE
 10
69.9769255
 20
30.22250299
 30
0.0
 11
81.4769255
 21
30.22250299
 31
0.0
  0
POLYLINE
  8
0
  6
CONTINUOUS
 62
       7
  5
E5
 66
       1
 10
0.0
 20
0.0
 30
0.0
  0
VERTEX
  8
0
  6
CONTINUOUS
 62
       7
  5
294
 10
103.49355109
 20
-28.36443202
 30
0.0
  0
VERTEX
  8
0
  6
CONTINUOUS
 62
       7
  5
295
 10
95.48271277
 20
-52.90324208
 30
0.0
  0
VERTEX
  8
0
  6
CONTINUOUS
 62
       7
  5
296
 10
57.19925358
 20
-52.90324208
 30
0.0
  0
SEQEND
  8
0
  6
CONTINUOUS
 62
       7
  5
297
  0
INSERT
  8
0
  6
CONTINUOUS
 62
       7
  5
E6
  2
_OPEN30
 10
103.49355109
 20
-28.36443202
 30
0.0
 41
2.77
 42
2.77
 50
71.92042507
 43
2.77
  0
TEXT
  8
0
  6
CONTINUOUS
 62
       7
  5
E7
 10
57.81679741
 20
-50.90324232
 30
0.0
 40
3.19999981
  1
-01:3-Rc1/8
 41
1.15789473
  7
MX_NOTE_STANDARD
 11
57.81679741
 21
-49.30324241
 31
0.0
 73
       2
  0
TEXT
  8
0
  6
CONTINUOUS
 62
       7
  5
E8
 10
57.79586372
 20
-58.10324165
 30
0.0
 40
3.19999981
  1
-02:3-Rc1/4
 41
1.11864407
  7
MX_NOTE_STANDARD
 11
57.79586372
 21
-56.50324175
 31
0.0
 73
       2
  0
LINE
  8
0
  6
CONTINUOUS
 62
       7
  5
E9
 10
-102.47240034
 20
-13.77749701
 30
0.0
 11
-46.97240034
 21
-13.77749701
 31
0.0
  0
LINE
  8
0
  6
CONTINUOUS
 62
       7
  5
EA
 10
-107.22240034
 20
7.72250299
 30
0.0
 11
-107.22240034
 21
14.72250299
 31
0.0
  0
LINE
  8
0
  6
CONTINUOUS
 62
       2
  5
EB
 10
25.40955933
 20
43.22250299
 30
0.0
 11
-80.25231554
 21
43.22250299
 31
0.0
  0
LINE
  8
0
  6
CONTINUOUS
 62
       7
  5
EC
 10
19.27759966
 20
13.15625972
 30
0.0
 11
19.27759966
 21
23.28874626
 31
0.0
  0
LINE
  8
0
  6
CONTINUOUS
 62
       7
  5
ED
 10
3.77759966
 20
19.22250299
 30
0.0
 11
-21.22240034
 21
19.22250299
 31
0.0
  0
LINE
  8
0
  6
CONTINUOUS
 62
       7
  5
EE
 10
-42.22240034
 20
6.72250299
 30
0.0
 11
-106.22240034
 21
6.72250299
 31
0.0
  0
LINE
  8
0
  6
CONTINUOUS
 62
       7
  5
EF
 10
-42.22240034
 20
1.72250299
 30
0.0
 11
-42.22240034
 21
14.72250299
 31
0.0
  0
LINE
  8
0
  6
CONTINUOUS
 62
       7
  5
F0
 10
-46.97240034
 20
-13.77749701
 30
0.0
 11
-46.97240034
 21
-8.77749701
 31
0.0
  0
LINE
  8
0
  6
CONTINUOUS
 62
       7
  5
F1
 10
-102.47240034
 20
-13.77749701
 30
0.0
 11
-102.47240034
 21
-8.77749701
 31
0.0
  0
LINE
  8
0
  6
CONTINUOUS
 62
       7
  5
F2
 10
-43.22240034
 20
15.72250299
 30
0.0
 11
-47.72240034
 21
15.72250299
 31
0.0
  0
LINE
  8
0
  6
CONTINUOUS
 62
       7
  5
F3
 10
-103.22240034
 20
16.72250299
 30
0.0
 11
-103.22240034
 21
20.89155109
 31
0.0
  0
LINE
  8
0
  6
CONTINUOUS
 62
       7
  5
F4
 10
-48.72240034
 20
21.72250299
 30
0.0
 11
-58.22240034
 21
21.72250299
 31
0.0
  0
LINE
  8
0
  6
CONTINUOUS
 62
       7
  5
F5
 10
-59.56928602
 20
26.72250299
 30
0.0
 11
-100.33977672
 21
26.72250299
 31
0.0
  0
LINE
  8
0
  6
CONTINUOUS
 62
       7
  5
F6
 10
-100.64992156
 20
26.00996762
 30
0.0
 11
-102.79487912
 21
22.43503836
 31
0.0
  0
LINE
  8
0
  6
CONTINUOUS
 62
       7
  5
F7
 10
-47.72240034
 20
6.72250299
 30
0.0
 11
-47.72240034
 21
21.72250299
 31
0.0
  0
LINE
  8
0
  6
CONTINUOUS
 62
       7
  5
F8
 10
-101.72240034
 20
6.72250299
 30
0.0
 11
-101.72240034
 21
20.72250299
 31
0.0
  0
LINE
  8
0
  6
CONTINUOUS
 62
       7
  5
F9
 10
-59.22240034
 20
6.72250299
 30
0.0
 11
-59.22240034
 21
20.72250299
 31
0.0
  0
LINE
  8
0
  6
CONTINUOUS
 62
       7
  5
FA
 10
-90.22240034
 20
6.72250299
 30
0.0
 11
-90.22240034
 21
20.72250299
 31
0.0
  0
LINE
  8
0
  6
CONTINUOUS
 62
       7
  5
FB
 10
-101.72240034
 20
15.72250299
 30
0.0
 11
-106.22240034
 21
15.72250299
 31
0.0
  0
LINE
  8
0
  6
CONTINUOUS
 62
       7
  5
FC
 10
-60.22240034
 20
15.72250299
 30
0.0
 11
-89.22240034
 21
15.72250299
 31
0.0
  0
LINE
  8
0
  6
CONTINUOUS
 62
       7
  5
FD
 10
-91.22240034
 20
21.72250299
 30
0.0
 11
-100.72240034
 21
21.72250299
 31
0.0
  0
LINE
  8
0
  6
CONTINUOUS
 62
       7
  5
FE
 10
-25.72240034
 20
65.22250299
 30
0.0
 11
-49.22240034
 21
65.22250299
 31
0.0
  0
LINE
  8
0
  6
CONTINUOUS
 62
       7
  5
FF
 10
-24.72240034
 20
21.22250299
 30
0.0
 11
-45.22240034
 21
21.22250299
 31
0.0
  0
LINE
  8
0
  6
CONTINUOUS
 62
       7
  5
100
 10
-50.22240034
 20
37.13631564
 30
0.0
 11
-50.22240034
 21
64.22250299
 31
0.0
  0
LINE
  8
0
  6
CONTINUOUS
 62
       7
  5
101
 10
-46.22240034
 20
16.72250299
 30
0.0
 11
-46.22240034
 21
20.22250299
 31
0.0
  0
LINE
  8
0
  6
CONTINUOUS
 62
       7
  5
102
 10
-47.72240034
 20
21.72250299
 30
0.0
 11
-50.15436996
 21
36.3143207
 31
0.0
  0
LINE
  8
0
  6
CONTINUOUS
 62
       7
  5
103
 10
-59.72240034
 20
27.489975
 30
0.0
 11
-59.72240034
 21
45.67752375
 31
0.0
  0
LINE
  8
0
  6
CONTINUOUS
 62
       7
  5
104
 10
-55.22240034
 20
21.72250299
 30
0.0
 11
-59.20898863
 21
26.15204554
 31
0.0
  0
LINE
  8
0
  6
CONTINUOUS
 62
       7
  5
105
 10
-50.545276
 20
64.72250299
 30
0.0
 11
-51.39844435
 21
64.72250299
 31
0.0
  0
LINE
  8
0
  6
CONTINUOUS
 62
       7
  5
106
 10
-61.32520712
 20
21.72250299
 30
0.0
 11
-87.41863186
 21
21.72250299
 31
0.0
  0
LINE
  8
0
  6
CONTINUOUS
 62
       7
  5
107
 10
-43.22240034
 20
0.72250299
 30
0.0
 11
-46.08961812
 21
0.72250299
 31
0.0
  0
LINE
  8
0
  6
CONTINUOUS
 62
       7
  5
108
 10
-45.75724726
 20
21.06745196
 30
0.0
 11
-47.72240034
 21
21.72250299
 31
0.0
  0
LINE
  8
0
  6
CONTINUOUS
 62
       7
  5
109
 10
-24.72240034
 20
19.22250299
 30
0.0
 11
-24.72240034
 21
23.22250299
 31
0.0
  0
LINE
  8
0
  6
CONTINUOUS
 62
       2
  5
10A
 10
-8.72240034
 20
25.79984459
 30
0.0
 11
-8.72240034
 21
70.57314984
 31
0.0
  0
LINE
  8
0
  6
CONTINUOUS
 62
       7
  5
10B
 10
6.27759966
 20
13.15625972
 30
0.0
 11
6.27759966
 21
73.28874626
 31
0.0
  0
LINE
  8
0
  6
CONTINUOUS
 62
       7
  5
10C
 10
-22.22240034
 20
67.22250299
 30
0.0
 11
-23.72240034
 21
67.22250299
 31
0.0
  0
LINE
  8
0
  6
CONTINUOUS
 62
       7
  5
10D
 10
18.27759966
 20
12.15625972
 30
0.0
 11
7.27759966
 21
12.15625972
 31
0.0
  0
LINE
  8
0
  6
CONTINUOUS
 62
       7
  5
10E
 10
18.27759966
 20
24.28874626
 30
0.0
 11
15.27759966
 21
24.28874626
 31
0.0
  0
LINE
  8
0
  6
CONTINUOUS
 62
       7
  5
10F
 10
18.27759966
 20
26.22250299
 30
0.0
 11
15.27759966
 21
26.22250299
 31
0.0
  0
LINE
  8
0
  6
CONTINUOUS
 62
       7
  5
110
 10
19.27759966
 20
27.22250299
 30
0.0
 11
19.27759966
 21
43.22250299
 31
0.0
  0
LINE
  8
0
  6
CONTINUOUS
 62
       7
  5
111
 10
14.27759966
 20
20.15625972
 30
0.0
 11
14.27759966
 21
43.22250299
 31
0.0
  0
ARC
  8
0
  6
CONTINUOUS
 62
       7
  5
112
 10
18.27759966
 20
27.22250299
 30
0.0
 40
1.0
 50
270.0
 51
0.0
  0
ARC
  8
0
  6
CONTINUOUS
 62
       7
  5
113
 10
15.27759966
 20
25.28874626
 30
0.0
 40
1.0
 50
180.0
 51
270.0
  0
ARC
  8
0
  6
CONTINUOUS
 62
       7
  5
114
 10
18.27759966
 20
23.28874626
 30
0.0
 40
1.0
 50
0.0
 51
90.0
  0
ARC
  8
0
  6
CONTINUOUS
 62
       7
  5
115
 10
18.27759966
 20
13.15625972
 30
0.0
 40
1.0
 50
270.0
 51
0.0
  0
LINE
  8
0
  6
CONTINUOUS
 62
       7
  5
116
 10
6.27759966
 20
13.72250299
 30
0.0
 11
4.77759966
 21
13.72250299
 31
0.0
  0
ARC
  8
0
  6
CONTINUOUS
 62
       7
  5
117
 10
4.77759966
 20
14.72250299
 30
0.0
 40
1.0
 50
180.0
 51
270.0
  0
ARC
  8
0
  6
CONTINUOUS
 62
       7
  5
118
 10
7.27759966
 20
13.15625972
 30
0.0
 40
1.0
 50
180.0
 51
270.0
  0
LINE
  8
0
  6
CONTINUOUS
 62
       2
  5
119
 10
-29.22240034
 20
15.29135862
 30
0.0
 11
-29.22240034
 21
67.222503
 31
0.0
  0
LINE
  8
0
  6
CONTINUOUS
 62
       7
  5
11A
 10
-24.26888741
 20
63.22250299
 30
0.0
 11
-34.17591327
 21
63.22250299
 31
0.0
  0
LINE
  8
0
  6
CONTINUOUS
 62
       7
  5
11B
 10
-24.27364957
 20
23.22250299
 30
0.0
 11
-34.17115117
 21
23.22250299
 31
0.0
  0
LINE
  8
0
  6
CONTINUOUS
 62
       7
  5
11C
 10
-24.67797832
 20
52.22250299
 30
0.0
 11
-33.76682236
 21
52.22250299
 31
0.0
  0
LINE
  8
0
  6
CONTINUOUS
 62
       7
  5
11D
 10
-35.17488181
 20
62.17709533
 30
0.0
 11
-34.7657909
 21
53.17709533
 31
0.0
  0
LINE
  8
0
  6
CONTINUOUS
 62
       7
  5
11E
 10
-24.67364956
 20
33.22250299
 30
0.0
 11
-33.77115113
 21
33.22250299
 31
0.0
  0
LINE
  8
0
  6
CONTINUOUS
 62
       7
  5
11F
 10
-35.16990351
 20
24.27244061
 30
0.0
 11
-34.76990347
 21
32.27244061
 31
0.0
  0
LINE
  8
0
  6
CONTINUOUS
 62
       7
  5
120
 10
-32.72240034
 20
33.22250299
 30
0.0
 11
-32.72240034
 21
52.22250299
 31
0.0
  0
LINE
  8
0
  6
CONTINUOUS
 62
       7
  5
121
 10
-31.22240034
 20
33.22250299
 30
0.0
 11
-31.22240034
 21
52.22250299
 31
0.0
  0
LINE
  8
0
  6
CONTINUOUS
 62
       7
  5
122
 10
-30.52240034
 20
33.22250299
 30
0.0
 11
-30.52240034
 21
45.39650545
 31
0.0
  0
LINE
  8
0
  6
CONTINUOUS
 62
       7
  5
123
 10
-30.52240053
 20
45.39650553
 30
0.0
 11
-31.22240034
 21
46.60894078
 31
0.0
  0
LINE
  8
0
  6
CONTINUOUS
 62
       7
  5
124
 10
-33.22240034
 20
19.22250299
 30
0.0
 11
-33.22240034
 21
20.22250299
 31
0.0
  0
LINE
  8
0
  6
CONTINUOUS
 62
       7
  5
125
 10
-28.57240034
 20
16.52250299
 30
0.0
 11
-29.87240034
 21
16.52250299
 31
0.0
  0
ARC
  8
0
  6
CONTINUOUS
 62
       7
  5
126
 10
-29.87240034
 20
19.22250299
 30
0.0
 40
2.7
 50
180.0
 51
270.0
  0
ARC
  8
0
  6
CONTINUOUS
 62
       7
  5
127
 10
-28.57240034
 20
19.22250299
 30
0.0
 40
2.7
 50
270.0
 51
0.0
  0
LINE
  8
0
  6
CONTINUOUS
 62
       7
  5
128
 10
-29.22240031
 20
16.52250299
 30
0.0
 11
-30.42240045
 21
17.72250312
 31
0.0
  0
LINE
  8
0
  6
CONTINUOUS
 62
       7
  5
129
 10
-28.02240023
 20
17.722503
 30
0.0
 11
-29.22240024
 21
16.52250299
 31
0.0
  0
LINE
  8
0
  6
CONTINUOUS
 62
       7
  5
12A
 10
-24.72240034
 20
63.22250299
 30
0.0
 11
-24.72240034
 21
66.22250299
 31
0.0
  0
LINE
  8
0
  6
CONTINUOUS
 62
       7
  5
12B
 10
-61.79074645
 20
70.72250299
 30
0.0
 11
-89.22240034
 21
70.72250299
 31
0.0
  0
LINE
  8
0
  6
CONTINUOUS
 62
       7
  5
12C
 10
-107.22240034
 20
12.72250299
 30
0.0
 11
-42.22240034
 21
12.72250299
 31
0.0
  0
LINE
  8
0
  6
CONTINUOUS
 62
       7
  5
12D
 10
-41.22240034
 20
10.07250299
 30
0.0
 11
-42.22240034
 21
10.07250299
 31
0.0
  0
LINE
  8
0
  6
CONTINUOUS
 62
       7
  5
12E
 10
-41.22240034
 20
3.37250299
 30
0.0
 11
-42.22240034
 21
3.37250299
 31
0.0
  0
LINE
  8
0
  6
CONTINUOUS
 62
       7
  5
12F
 10
-41.22240034
 20
3.37250299
 30
0.0
 11
-41.22240034
 21
10.07250299
 31
0.0
  0
LINE
  8
0
  6
CONTINUOUS
 62
       7
  5
130
 10
-38.52240034
 20
6.07250299
 30
0.0
 11
-38.52240034
 21
7.37250299
 31
0.0
  0
ARC
  8
0
  6
CONTINUOUS
 62
       7
  5
131
 10
-41.22240034
 20
7.37250299
 30
0.0
 40
2.7
 50
0.0
 51
90.0
  0
ARC
  8
0
  6
CONTINUOUS
 62
       7
  5
132
 10
-41.22240034
 20
6.07250299
 30
0.0
 40
2.7
 50
270.0
 51
0.0
  0
LINE
  8
0
  6
CONTINUOUS
 62
       7
  5
133
 10
-38.52240023
 20
6.722503
 30
0.0
 11
-39.72240028
 21
7.92250305
 31
0.0
  0
LINE
  8
0
  6
CONTINUOUS
 62
       7
  5
134
 10
-38.52240023
 20
6.722503
 30
0.0
 11
-39.72240028
 21
5.52250295
 31
0.0
  0
LINE
  8
0
  6
CONTINUOUS
 62
       7
  5
135
 10
-47.081896
 20
1.59846825
 30
0.0
 11
-47.50340903
 21
4.97057246
 31
0.0
  0
ARC
  8
0
  6
CONTINUOUS
 62
       7
  5
136
 10
-49.48796478
 20
4.72250299
 30
0.0
 40
2.0
 50
7.12501635
 51
90.0
  0
LINE
  8
0
  6
CONTINUOUS
 62
       7
  5
137
 10
-95.43241218
 20
6.22952312
 30
0.0
 11
-91.0123885
 21
-1.28451714
 31
0.0
  0
LINE
  8
0
  6
CONTINUOUS
 62
       7
  5
138
 10
-54.0123885
 20
6.22952312
 30
0.0
 11
-57.43963511
 21
0.40320389
 31
0.0
  0
LINE
  8
0
  6
CONTINUOUS
 62
       7
  5
139
 10
-57.97240034
 20
-7.77749701
 30
0.0
 11
-57.97240034
 21
-13.77749701
 31
0.0
  0
LINE
  8
0
  6
CONTINUOUS
 62
       2
  5
13A
 10
-45.1104387
 20
-4.77749701
 30
0.0
 11
-105.4866832
 21
-4.77749701
 31
0.0
  0
LINE
  8
0
  6
CONTINUOUS
 62
       7
  5
13B
 10
-47.97240034
 20
-7.77749701
 30
0.0
 11
-53.12240034
 21
-7.77749701
 31
0.0
  0
LINE
  8
0
  6
CONTINUOUS
 62
       7
  5
13C
 10
-48.97240034
 20
-1.77749701
 30
0.0
 11
-51.27003076
 21
-1.77749701
 31
0.0
  0
LINE
  8
0
  6
CONTINUOUS
 62
       7
  5
13D
 10
-91.72240034
 20
-1.77749701
 30
0.0
 11
-92.7224004
 21
-1.77749701
 31
0.0
  0
LINE
  8
0
  6
CONTINUOUS
 62
       7
  5
13E
 10
-97.51601085
 20
1.22250299
 30
0.0
 11
-99.7224004
 21
1.22250299
 31
0.0
  0
POLYLINE
  8
0
  6
CONTINUOUS
 62
       7
  5
13F
 66
       1
 10
0.0
 20
0.0
 30
0.0
  0
VERTEX
  8
0
  6
CONTINUOUS
 62
       7
  5
298
 10
-99.72240034
 20
1.22250299
 30
0.0
  0
VERTEX
  8
0
  6
CONTINUOUS
 62
       7
  5
299
 10
-99.98345273
 20
1.17117216
 30
0.0
  0
VERTEX
  8
0
  6
CONTINUOUS
 62
       7
  5
29A
 10
-100.24003843
 20
1.01805795
 30
0.0
  0
VERTEX
  8
0
  6
CONTINUOUS
 62
       7
  5
29B
 10
-100.48776721
 20
0.76578018
 30
0.0
  0
VERTEX
  8
0
  6
CONTINUOUS
 62
       7
  5
29C
 10
-100.72240034
 20
0.41865541
 30
0.0
  0
VERTEX
  8
0
  6
CONTINUOUS
 62
       7
  5
29D
 10
-100.9399232
 20
-0.01737697
 30
0.0
  0
VERTEX
  8
0
  6
CONTINUOUS
 62
       7
  5
29E
 10
-101.1366139
 20
-0.53485632
 30
0.0
  0
VERTEX
  8
0
  6
CONTINUOUS
 62
       7
  5
29F
 10
-101.30910702
 20
-1.12492844
 30
0.0
  0
VERTEX
  8
0
  6
CONTINUOUS
 62
       7
  5
2A0
 10
-101.45445115
 20
-1.77749701
 30
0.0
  0
VERTEX
  8
0
  6
CONTINUOUS
 62
       7
  5
2A1
 10
-101.57015941
 20
-2.48139642
 30
0.0
  0
VERTEX
  8
0
  6
CONTINUOUS
 62
       7
  5
2A2
 10
-101.65425199
 20
-3.22458274
 30
0.0
  0
VERTEX
  8
0
  6
CONTINUOUS
 62
       7
  5
2A3
 10
-101.70529006
 20
-3.99433986
 30
0.0
  0
VERTEX
  8
0
  6
CONTINUOUS
 62
       7
  5
2A4
 10
-101.72240034
 20
-4.77749701
 30
0.0
  0
VERTEX
  8
0
  6
CONTINUOUS
 62
       7
  5
2A5
 10
-101.70529006
 20
-5.56065416
 30
0.0
  0
VERTEX
  8
0
  6
CONTINUOUS
 62
       7
  5
2A6
 10
-101.65425199
 20
-6.33041128
 30
0.0
  0
VERTEX
  8
0
  6
CONTINUOUS
 62
       7
  5
2A7
 10
-101.57015941
 20
-7.07359761
 30
0.0
  0
VERTEX
  8
0
  6
CONTINUOUS
 62
       7
  5
2A8
 10
-101.45445115
 20
-7.77749701
 30
0.0
  0
SEQEND
  8
0
  6
CONTINUOUS
 62
       7
  5
2A9
  0
LINE
  8
0
  6
CONTINUOUS
 62
       7
  5
140
 10
-92.72240034
 20
-1.77749701
 30
0.0
 11
-97.51601085
 21
1.22250299
 31
0.0
  0
LINE
  8
0
  6
CONTINUOUS
 62
       7
  5
141
 10
-91.72240034
 20
-3.12204861
 30
0.0
 11
-91.72240034
 21
-1.77749701
 31
0.0
  0
LINE
  8
0
  6
CONTINUOUS
 62
       7
  5
142
 10
-100.9412025
 20
-6.77749701
 30
0.0
 11
-91.70359819
 21
-6.77749701
 31
0.0
  0
LINE
  8
0
  6
CONTINUOUS
 62
       7
  5
143
 10
-100.9412025
 20
-2.77749701
 30
0.0
 11
-91.72240034
 21
-2.77749701
 31
0.0
  0
LINE
  8
0
  6
CONTINUOUS
 62
       7
  5
144
 10
-91.70359819
 20
-7.777497
 30
0.0
 11
-91.70359819
 21
-3.13476247
 31
0.0
  0
LINE
  8
0
  6
CONTINUOUS
 62
       7
  5
145
 10
-100.9412025
 20
-7.777497
 30
0.0
 11
-100.9412025
 21
-2.77749701
 31
0.0
  0
LINE
  8
0
  6
CONTINUOUS
 62
       7
  5
146
 10
-96.32240034
 20
-6.77749701
 30
0.0
 11
-96.32240034
 21
-3.13476252
 31
0.0
  0
POLYLINE
  8
0
  6
CONTINUOUS
 62
       7
  5
147
 66
       1
 10
0.0
 20
0.0
 30
0.0
  0
VERTEX
  8
0
  6
CONTINUOUS
 62
       7
  5
2AA
 10
-48.97240034
 20
-1.77749701
 30
0.0
  0
VERTEX
  8
0
  6
CONTINUOUS
 62
       7
  5
2AB
 10
-48.69181277
 20
-1.80716725
 30
0.0
  0
VERTEX
  8
0
  6
CONTINUOUS
 62
       7
  5
2AC
 10
-48.41677527
 20
-1.89559109
 30
0.0
  0
VERTEX
  8
0
  6
CONTINUOUS
 62
       7
  5
2AD
 10
-48.15272811
 20
-2.04101949
 30
0.0
  0
VERTEX
  8
0
  6
CONTINUOUS
 62
       7
  5
2AE
 10
-47.90489421
 20
-2.24057585
 30
0.0
  0
VERTEX
  8
0
  6
CONTINUOUS
 62
       7
  5
2AF
 10
-47.67817575
 20
-2.49031292
 30
0.0
  0
VERTEX
  8
0
  6
CONTINUOUS
 62
       7
  5
2B0
 10
-47.47705726
 20
-2.78529085
 30
0.0
  0
VERTEX
  8
0
  6
CONTINUOUS
 62
       7
  5
2B1
 10
-47.30551689
 20
-3.11967494
 30
0.0
  0
VERTEX
  8
0
  6
CONTINUOUS
 62
       7
  5
2B2
 10
-47.16694775
 20
-3.48685102
 30
0.0
  0
VERTEX
  8
0
  6
CONTINUOUS
 62
       7
  5
2B3
 10
-47.06409074
 20
-3.87955628
 30
0.0
  0
VERTEX
  8
0
  6
CONTINUOUS
 62
       7
  5
2B4
 10
-46.99898041
 20
-4.29002295
 30
0.0
  0
VERTEX
  8
0
  6
CONTINUOUS
 62
       7
  5
2B5
 10
-46.97290463
 20
-4.71013194
 30
0.0
  0
VERTEX
  8
0
  6
CONTINUOUS
 62
       7
  5
2B6
 10
-46.98637921
 20
-5.13157342
 30
0.0
  0
VERTEX
  8
0
  6
CONTINUOUS
 62
       7
  5
2B7
 10
-47.03913759
 20
-5.54601121
 30
0.0
  0
VERTEX
  8
0
  6
CONTINUOUS
 62
       7
  5
2B8
 10
-47.13013623
 20
-5.94524767
 30
0.0
  0
VERTEX
  8
0
  6
CONTINUOUS
 62
       7
  5
2B9
 10
-47.25757514
 20
-6.32138583
 30
0.0
  0
VERTEX
  8
0
  6
CONTINUOUS
 62
       7
  5
2BA
 10
-47.41893357
 20
-6.66698563
 30
0.0
  0
VERTEX
  8
0
  6
CONTINUOUS
 62
       7
  5
2BB
 10
-47.61101982
 20
-6.97521103
 30
0.0
  0
VERTEX
  8
0
  6
CONTINUOUS
 62
       7
  5
2BC
 10
-47.8300344
 20
-7.23996531
 30
0.0
  0
VERTEX
  8
0
  6
CONTINUOUS
 62
       7
  5
2BD
 10
-48.07164515
 20
-7.45601156
 30
0.0
  0
VERTEX
  8
0
  6
CONTINUOUS
 62
       7
  5
2BE
 10
-48.33107299
 20
-7.61907637
 30
0.0
  0
VERTEX
  8
0
  6
CONTINUOUS
 62
       7
  5
2BF
 10
-48.41677527
 20
-7.65940293
 30
0.0
  0
VERTEX
  8
0
  6
CONTINUOUS
 62
       7
  5
2C0
 10
-48.50359819
 20
-7.69391694
 30
0.0
  0
SEQEND
  8
0
  6
CONTINUOUS
 62
       7
  5
2C1
  0
LINE
  8
0
  6
CONTINUOUS
 62
       7
  5
148
 10
-59.2943464
 20
-1.77749701
 30
0.0
 11
-91.72240034
 21
-1.77749701
 31
0.0
  0
LINE
  8
0
  6
CONTINUOUS
 62
       7
  5
149
 10
-57.43963511
 20
0.40320389
 30
0.0
 11
-58.21340894
 21
-0.91221162
 31
0.0
  0
ARC
  8
0
  6
CONTINUOUS
 62
       7
  5
14A
 10
-23.72240034
 20
66.22250299
 30
0.0
 40
1.0
 50
90.0
 51
180.0
  0
ARC
  8
0
  6
CONTINUOUS
 62
       7
  5
14B
 10
-24.26888741
 20
62.22250299
 30
0.0
 40
1.0
 50
357.3974378
 51
90.0
  0
ARC
  8
0
  6
CONTINUOUS
 62
       7
  5
14C
 10
-34.17591327
 20
62.22250299
 30
0.0
 40
1.0
 50
90.0
 51
182.6025622
  0
ARC
  8
0
  6
CONTINUOUS
 62
       7
  5
14D
 10
-33.76682236
 20
53.22250299
 30
0.0
 40
1.0
 50
182.6025622
 51
270.0
  0
ARC
  8
0
  6
CONTINUOUS
 62
       7
  5
14E
 10
-25.72240034
 20
66.22250299
 30
0.0
 40
1.0
 50
270.0
 51
0.0
  0
ARC
  8
0
  6
CONTINUOUS
 62
       7
  5
14F
 10
15.27759966
 20
25.22250299
 30
0.0
 40
1.0
 50
90.0
 51
180.0
  0
ARC
  8
0
  6
CONTINUOUS
 62
       7
  5
150
 10
-33.77115113
 20
32.22250299
 30
0.0
 40
1.0
 50
90.0
 51
177.13759445
  0
ARC
  8
0
  6
CONTINUOUS
 62
       7
  5
151
 10
-34.17115117
 20
24.22250299
 30
0.0
 40
1.0
 50
177.13759445
 51
270.0
  0
ARC
  8
0
  6
CONTINUOUS
 62
       7
  5
152
 10
-24.27364957
 20
24.22250299
 30
0.0
 40
1.0
 50
270.0
 51
2.86240555
  0
ARC
  8
0
  6
CONTINUOUS
 62
       7
  5
153
 10
-45.22240034
 20
20.22250299
 30
0.0
 40
1.0
 50
90.0
 51
180.0
  0
ARC
  8
0
  6
CONTINUOUS
 62
       7
  5
154
 10
-45.22240034
 20
16.72250299
 30
0.0
 40
1.0
 50
180.0
 51
270.0
  0
ARC
  8
0
  6
CONTINUOUS
 62
       7
  5
155
 10
-43.22240034
 20
14.72250299
 30
0.0
 40
1.0
 50
0.0
 51
90.0
  0
ARC
  8
0
  6
CONTINUOUS
 62
       7
  5
156
 10
-43.22240034
 20
1.72250299
 30
0.0
 40
1.0
 50
270.0
 51
0.0
  0
ARC
  8
0
  6
CONTINUOUS
 62
       7
  5
157
 10
-46.08961812
 20
1.72250299
 30
0.0
 40
1.0
 50
187.12501635
 51
270.0
  0
ARC
  8
0
  6
CONTINUOUS
 62
       7
  5
158
 10
-53.15045429
 20
5.72250299
 30
0.0
 40
1.0
 50
90.0
 51
149.53445508
  0
ARC
  8
0
  6
CONTINUOUS
 62
       7
  5
159
 10
-47.97240034
 20
-8.77749701
 30
0.0
 40
1.0
 50
0.0
 51
90.0
  0
ARC
  8
0
  6
CONTINUOUS
 62
       7
  5
15A
 10
-59.2943464
 20
-0.77749701
 30
0.0
 40
1.0
 50
270.0
 51
318.21306407
  0
ARC
  8
0
  6
CONTINUOUS
 62
       7
  5
15B
 10
-106.22240034
 20
7.72250299
 30
0.0
 40
1.0
 50
180.0
 51
270.0
  0
ARC
  8
0
  6
CONTINUOUS
 62
       7
  5
15C
 10
-106.22240034
 20
14.72250299
 30
0.0
 40
1.0
 50
90.0
 51
180.0
  0
ARC
  8
0
  6
CONTINUOUS
 62
       7
  5
15D
 10
-89.22240034
 20
16.72250299
 30
0.0
 40
1.0
 50
180.0
 51
270.0
  0
ARC
  8
0
  6
CONTINUOUS
 62
       7
  5
15E
 10
-91.22240034
 20
20.72250299
 30
0.0
 40
1.0
 50
0.0
 51
90.0
  0
ARC
  8
0
  6
CONTINUOUS
 62
       7
  5
15F
 10
-100.72240034
 20
20.72250299
 30
0.0
 40
1.0
 50
90.0
 51
180.0
  0
ARC
  8
0
  6
CONTINUOUS
 62
       7
  5
160
 10
-104.22240034
 20
16.72250299
 30
0.0
 40
1.0
 50
270.0
 51
0.0
  0
LINE
  8
0
  6
CONTINUOUS
 62
       7
  5
161
 10
-51.81514742
 20
64.81346033
 30
0.0
 11
-59.30388801
 21
47.68001489
 31
0.0
  0
ARC
  8
0
  6
CONTINUOUS
 62
       7
  5
162
 10
-49.22240034
 20
64.22250299
 30
0.0
 40
1.0
 50
90.0
 51
180.0
  0
ARC
  8
0
  6
CONTINUOUS
 62
       7
  5
163
 10
-50.545276
 20
65.72250299
 30
0.0
 40
1.0
 50
270.0
 51
311.40962211
  0
ARC
  8
0
  6
CONTINUOUS
 62
       7
  5
164
 10
-51.39844435
 20
65.72250299
 30
0.0
 40
1.0
 50
209.88038193
 51
270.0
  0
ARC
  8
0
  6
CONTINUOUS
 62
       7
  5
165
 10
-34.22240034
 20
20.22250299
 30
0.0
 40
1.0
 50
0.0
 51
90.0
  0
ARC
  8
0
  6
CONTINUOUS
 62
       7
  5
166
 10
-21.22240034
 20
20.22250299
 30
0.0
 40
1.0
 50
180.0
 51
270.0
  0
LINE
  8
0
  6
CONTINUOUS
 62
       7
  5
167
 10
-22.22240034
 20
19.22250299
 30
0.0
 11
-33.22240034
 21
19.22250299
 31
0.0
  0
ARC
  8
0
  6
CONTINUOUS
 62
       7
  5
168
 10
-58.22240034
 20
20.72250299
 30
0.0
 40
1.0
 50
90.0
 51
180.0
  0
ARC
  8
0
  6
CONTINUOUS
 62
       7
  5
169
 10
-48.72240034
 20
20.72250299
 30
0.0
 40
1.0
 50
0.0
 51
90.0
  0
ARC
  8
0
  6
CONTINUOUS
 62
       7
  5
16A
 10
-60.22240034
 20
16.72250299
 30
0.0
 40
1.0
 50
270.0
 51
0.0
  0
ARC
  8
0
  6
CONTINUOUS
 62
       7
  5
16B
 10
-96.2943464
 20
5.72250299
 30
0.0
 40
1.0
 50
30.46554492
 51
90.0
  0
ARC
  8
0
  6
CONTINUOUS
 62
       7
  5
16C
 10
-101.47240034
 20
-8.77749701
 30
0.0
 40
1.0
 50
90.0
 51
180.0
  0
LINE
  8
0
  6
CONTINUOUS
 62
       7
  5
16D
 10
-64.72240034
 20
70.72250299
 30
0.0
 11
-64.72240034
 21
71.22250299
 31
0.0
  0
LINE
  8
0
  6
CONTINUOUS
 62
       7
  5
16E
 10
-84.72240034
 20
71.22250299
 30
0.0
 11
-84.72240034
 21
70.72250299
 31
0.0
  0
LINE
  8
0
  6
CONTINUOUS
 62
       7
  5
16F
 10
-64.72240034
 20
71.22250299
 30
0.0
 11
-84.72240034
 21
71.22250299
 31
0.0
  0
LINE
  8
0
  6
CONTINUOUS
 62
       7
  5
170
 10
-66.22240035
 20
93.72250299
 30
0.0
 11
-83.22240034
 21
93.72250299
 31
0.0
  0
ARC
  8
0
  6
CONTINUOUS
 62
       7
  5
171
 10
-57.72240034
 20
27.489975
 30
0.0
 40
2.0
 50
180.0
 51
221.9872125
  0
ARC
  8
0
  6
CONTINUOUS
 62
       7
  5
172
 10
-100.22240034
 20
20.89155109
 30
0.0
 40
3.0
 50
149.03624347
 51
180.0
  0
ARC
  8
0
  6
CONTINUOUS
 62
       7
  5
173
 10
-103.22240034
 20
27.55345488
 30
0.0
 40
3.0
 50
329.03624347
 51
0.0
  0
ARC
  8
0
  6
CONTINUOUS
 62
       7
  5
174
 10
-54.72240034
 20
45.67752375
 30
0.0
 40
5.0
 50
156.39067123
 51
180.0
  0
ARC
  8
0
  6
CONTINUOUS
 62
       7
  5
175
 10
-45.22240034
 20
37.13631564
 30
0.0
 40
5.0
 50
180.0
 51
189.46232221
  0
LINE
  8
0
  6
CONTINUOUS
 62
       2
  5
176
 10
-74.72240034
 20
-40.51424546
 30
0.0
 11
-74.72240034
 21
96.16643971
 31
0.0
  0
LINE
  8
0
  6
CONTINUOUS
 62
       7
  5
177
 10
-53.12240034
 20
-10.80819791
 30
0.0
 11
-53.12240034
 21
-7.77749701
 31
0.0
  0
POLYLINE
  8
0
  6
CONTINUOUS
 62
       7
  5
178
 66
       1
 10
0.0
 20
0.0
 30
0.0
  0
VERTEX
  8
0
  6
CONTINUOUS
 62
       7
  5
2C2
 10
-97.90554123
 20
1.22250299
 30
0.0
  0
VERTEX
  8
0
  6
CONTINUOUS
 62
       7
  5
2C3
 10
-98.21206818
 20
1.15161515
 30
0.0
  0
VERTEX
  8
0
  6
CONTINUOUS
 62
       7
  5
2C4
 10
-98.51135212
 20
0.94062667
 30
0.0
  0
VERTEX
  8
0
  6
CONTINUOUS
 62
       7
  5
2C5
 10
-98.79632119
 20
0.59452305
 30
0.0
  0
VERTEX
  8
0
  6
CONTINUOUS
 62
       7
  5
2C6
 10
-99.06024177
 20
0.12148247
 30
0.0
  0
VERTEX
  8
0
  6
CONTINUOUS
 62
       7
  5
2C7
 10
-99.2968776
 20
-0.46731746
 30
0.0
  0
VERTEX
  8
0
  6
CONTINUOUS
 62
       7
  5
2C8
 10
-99.50063717
 20
-1.15796382
 30
0.0
  0
VERTEX
  8
0
  6
CONTINUOUS
 62
       7
  5
2C9
 10
-99.66670576
 20
-1.93413714
 30
0.0
  0
VERTEX
  8
0
  6
CONTINUOUS
 62
       7
  5
2CA
 10
-99.79115931
 20
-2.77749701
 30
0.0
  0
VERTEX
  8
0
  6
CONTINUOUS
 62
       7
  5
2CB
 10
-99.79115931
 20
-2.77749701
 30
0.0
  0
SEQEND
  8
0
  6
CONTINUOUS
 62
       7
  5
2CC
  0
POLYLINE
  8
0
  6
CONTINUOUS
 62
       7
  5
179
 66
       1
 10
0.0
 20
0.0
 30
0.0
  0
VERTEX
  8
0
  6
CONTINUOUS
 62
       7
  5
2CD
 10
-92.72240034
 20
-1.77749701
 30
0.0
  0
VERTEX
  8
0
  6
CONTINUOUS
 62
       7
  5
2CE
 10
-92.86211982
 20
-1.80692363
 30
0.0
  0
VERTEX
  8
0
  6
CONTINUOUS
 62
       7
  5
2CF
 10
-92.99909832
 20
-1.89462621
 30
0.0
  0
VERTEX
  8
0
  6
CONTINUOUS
 62
       7
  5
2D0
 10
-93.13064863
 20
-2.03888422
 30
0.0
  0
VERTEX
  8
0
  6
CONTINUOUS
 62
       7
  5
2D1
 10
-93.25419003
 20
-2.23686765
 30
0.0
  0
VERTEX
  8
0
  6
CONTINUOUS
 62
       7
  5
2D2
 10
-93.36729891
 20
-2.4846925
 30
0.0
  0
VERTEX
  8
0
  6
CONTINUOUS
 62
       7
  5
2D3
 10
-93.46775633
 20
-2.77749701
 30
0.0
  0
SEQEND
  8
0
  6
CONTINUOUS
 62
       7
  5
2D4
  0
LINE
  8
0
  6
CONTINUOUS
 62
       7
  5
17A
 10
-87.12432413
 20
-7.77749701
 30
0.0
 11
-101.47240034
 21
-7.77749701
 31
0.0
  0
ARC
  8
0
  6
CONTINUOUS
 62
       7
  5
17B
 10
-90.15045429
 20
-0.77749701
 30
0.0
 40
1.0
 50
210.46554492
 51
270.0
  0
LINE
  8
0
  6
CONTINUOUS
 62
       7
  5
17C
 10
-64.72240034
 20
-7.77749701
 30
0.0
 11
-64.72240034
 21
-1.77749701
 31
0.0
  0
LINE
  8
0
  6
CONTINUOUS
 62
       7
  5
17D
 10
-53.12240034
 20
1.25320389
 30
0.0
 11
-56.93963513
 21
1.25320389
 31
0.0
  0
ARC
  8
0
  6
CONTINUOUS
 62
       7
  5
17E
 10
-48.56084146
 20
-4.77749701
 30
0.0
 40
7.56155888
 50
183.79138851
 51
232.89652126
  0
LINE
  8
0
  6
CONTINUOUS
 62
       7
  5
17F
 10
-55.50181925
 20
-7.77749701
 30
0.0
 11
-64.72240034
 21
-7.77749701
 31
0.0
  0
ARC
  8
0
  6
CONTINUOUS
 62
       7
  5
180
 10
-49.12240034
 20
-4.77749701
 30
0.0
 40
5.0
 50
185.73917048
 51
216.86989765
  0
LINE
  8
0
  6
CONTINUOUS
 62
       7
  5
181
 10
-53.12240034
 20
-1.60145705
 30
0.0
 11
-53.12240034
 21
1.25320389
 31
0.0
  0
POLYLINE
  8
0
  6
CONTINUOUS
 62
       7
  5
182
 66
       1
 10
0.0
 20
0.0
 30
0.0
  0
VERTEX
  8
0
  6
CONTINUOUS
 62
       7
  5
2D5
 10
-48.94479603
 20
-1.77749701
 30
0.0
  0
VERTEX
  8
0
  6
CONTINUOUS
 62
       7
  5
2D6
 10
-49.20939655
 20
-1.80386795
 30
0.0
  0
VERTEX
  8
0
  6
CONTINUOUS
 62
       7
  5
2D7
 10
-49.46934523
 20
-1.88251716
 30
0.0
  0
VERTEX
  8
0
  6
CONTINUOUS
 62
       7
  5
2D8
 10
-49.720072
 20
-2.01206193
 30
0.0
  0
VERTEX
  8
0
  6
CONTINUOUS
 62
       7
  5
2D9
 10
-49.95716893
 20
-2.19022479
 30
0.0
  0
VERTEX
  8
0
  6
CONTINUOUS
 62
       7
  5
2DA
 10
-50.17646771
 20
-2.41387352
 30
0.0
  0
VERTEX
  8
0
  6
CONTINUOUS
 62
       7
  5
2DB
 10
-50.37411293
 20
-2.67907624
 30
0.0
  0
VERTEX
  8
0
  6
CONTINUOUS
 62
       7
  5
2DC
 10
-50.54662986
 20
-2.98117051
 30
0.0
  0
VERTEX
  8
0
  6
CONTINUOUS
 62
       7
  5
2DD
 10
-50.69098554
 20
-3.31484533
 30
0.0
  0
VERTEX
  8
0
  6
CONTINUOUS
 62
       7
  5
2DE
 10
-50.80464212
 20
-3.67423448
 30
0.0
  0
VERTEX
  8
0
  6
CONTINUOUS
 62
       7
  5
2DF
 10
-50.88560143
 20
-4.05301968
 30
0.0
  0
VERTEX
  8
0
  6
CONTINUOUS
 62
       7
  5
2E0
 10
-50.93244017
 20
-4.44454165
 30
0.0
  0
VERTEX
  8
0
  6
CONTINUOUS
 62
       7
  5
2E1
 10
-50.94433487
 20
-4.84191718
 30
0.0
  0
VERTEX
  8
0
  6
CONTINUOUS
 62
       7
  5
2E2
 10
-50.92107643
 20
-5.23816017
 30
0.0
  0
VERTEX
  8
0
  6
CONTINUOUS
 62
       7
  5
2E3
 10
-50.86307373
 20
-5.62630441
 30
0.0
  0
VERTEX
  8
0
  6
CONTINUOUS
 62
       7
  5
2E4
 10
-50.77134651
 20
-5.99952608
 30
0.0
  0
VERTEX
  8
0
  6
CONTINUOUS
 62
       7
  5
2E5
 10
-50.64750739
 20
-6.35126371
 30
0.0
  0
VERTEX
  8
0
  6
CONTINUOUS
 62
       7
  5
2E6
 10
-50.49373352
 20
-6.67533354
 30
0.0
  0
VERTEX
  8
0
  6
CONTINUOUS
 62
       7
  5
2E7
 10
-50.31272837
 20
-6.9660382
 30
0.0
  0
VERTEX
  8
0
  6
CONTINUOUS
 62
       7
  5
2E8
 10
-50.1076741
 20
-7.21826694
 30
0.0
  0
VERTEX
  8
0
  6
CONTINUOUS
 62
       7
  5
2E9
 10
-49.88217571
 20
-7.42758541
 30
0.0
  0
VERTEX
  8
0
  6
CONTINUOUS
 62
       7
  5
2EA
 10
-49.64019759
 20
-7.59031366
 30
0.0
  0
VERTEX
  8
0
  6
CONTINUOUS
 62
       7
  5
2EB
 10
-49.38599388
 20
-7.70359083
 30
0.0
  0
VERTEX
  8
0
  6
CONTINUOUS
 62
       7
  5
2EC
 10
-49.12403363
 20
-7.76542543
 30
0.0
  0
VERTEX
  8
0
  6
CONTINUOUS
 62
       7
  5
2ED
 10
-48.85892228
 20
-7.77473037
 30
0.0
  0
VERTEX
  8
0
  6
CONTINUOUS
 62
       7
  5
2EE
 10
-48.68019552
 20
-7.75112607
 30
0.0
  0
VERTEX
  8
0
  6
CONTINUOUS
 62
       7
  5
2EF
 10
-48.50359819
 20
-7.70359083
 30
0.0
  0
SEQEND
  8
0
  6
CONTINUOUS
 62
       7
  5
2F0
  0
CIRCLE
  8
0
  6
CONTINUOUS
 62
       7
  5
183
 10
-8.72240034
 20
43.22250299
 30
0.0
 40
9.0
  0
CIRCLE
  8
0
  6
CONTINUOUS
 62
       2
  5
184
 10
-8.72240034
 20
43.22250299
 30
0.0
 40
10.5
  0
LINE
  8
0
  6
CONTINUOUS
 62
       7
  5
185
 10
3.77759966
 20
67.22250299
 30
0.0
 11
-21.22240034
 21
67.22250299
 31
0.0
  0
LINE
  8
0
  6
CONTINUOUS
 62
       7
  5
186
 10
14.27759966
 20
24.15625972
 30
0.0
 11
6.27759966
 21
24.15625972
 31
0.0
  0
LINE
  8
0
  6
CONTINUOUS
 62
       7
  5
187
 10
19.27759966
 20
59.22250299
 30
0.0
 11
19.27759966
 21
43.22250299
 31
0.0
  0
LINE
  8
0
  6
CONTINUOUS
 62
       7
  5
188
 10
14.27759966
 20
66.28874626
 30
0.0
 11
14.27759966
 21
43.22250299
 31
0.0
  0
LINE
  8
0
  6
CONTINUOUS
 62
       7
  5
189
 10
10.27759966
 20
12.15625972
 30
0.0
 11
10.27759966
 21
74.28874626
 31
0.0
  0
LINE
  8
0
  6
CONTINUOUS
 62
       7
  5
18A
 10
14.27759966
 20
62.28874626
 30
0.0
 11
6.27759966
 21
62.28874626
 31
0.0
  0
ARC
  8
0
  6
CONTINUOUS
 62
       7
  5
18B
 10
15.27759966
 20
61.22250299
 30
0.0
 40
1.0
 50
180.0
 51
270.0
  0
ARC
  8
0
  6
CONTINUOUS
 62
       7
  5
18C
 10
7.27759966
 20
73.28874626
 30
0.0
 40
1.0
 50
90.0
 51
180.0
  0
ARC
  8
0
  6
CONTINUOUS
 62
       7
  5
18D
 10
4.77759966
 20
71.72250299
 30
0.0
 40
1.0
 50
90.0
 51
180.0
  0
LINE
  8
0
  6
CONTINUOUS
 62
       7
  5
18E
 10
6.27759966
 20
72.72250299
 30
0.0
 11
4.77759966
 21
72.72250299
 31
0.0
  0
ARC
  8
0
  6
CONTINUOUS
 62
       7
  5
18F
 10
18.27759966
 20
73.28874626
 30
0.0
 40
1.0
 50
0.0
 51
90.0
  0
ARC
  8
0
  6
CONTINUOUS
 62
       7
  5
190
 10
18.27759966
 20
63.15625972
 30
0.0
 40
1.0
 50
270.0
 51
0.0
  0
ARC
  8
0
  6
CONTINUOUS
 62
       7
  5
191
 10
15.27759966
 20
61.15625972
 30
0.0
 40
1.0
 50
90.0
 51
180.0
  0
ARC
  8
0
  6
CONTINUOUS
 62
       7
  5
192
 10
18.27759966
 20
59.22250299
 30
0.0
 40
1.0
 50
0.0
 51
90.0
  0
LINE
  8
0
  6
CONTINUOUS
 62
       7
  5
193
 10
18.27759966
 20
60.22250299
 30
0.0
 11
15.27759966
 21
60.22250299
 31
0.0
  0
LINE
  8
0
  6
CONTINUOUS
 62
       7
  5
194
 10
18.27759966
 20
62.15625972
 30
0.0
 11
15.27759966
 21
62.15625972
 31
0.0
  0
LINE
  8
0
  6
CONTINUOUS
 62
       7
  5
195
 10
3.77759966
 20
14.72250299
 30
0.0
 11
3.77759966
 21
38.22250299
 31
0.0
  0
LINE
  8
0
  6
CONTINUOUS
 62
       7
  5
196
 10
18.27759966
 20
74.28874626
 30
0.0
 11
7.27759966
 21
74.28874626
 31
0.0
  0
LINE
  8
0
  6
CONTINUOUS
 62
       7
  5
197
 10
19.27759966
 20
73.28874626
 30
0.0
 11
19.27759966
 21
63.15625972
 31
0.0
  0
ARC
  8
0
  6
CONTINUOUS
 62
       7
  5
198
 10
-21.22240034
 20
66.22250299
 30
0.0
 40
1.0
 50
90.0
 51
180.0
  0
LINE
  8
0
  6
CONTINUOUS
 62
       2
  5
199
 10
2.76027242
 20
68.22250299
 30
0.0
 11
20.56156001
 21
68.22250299
 31
0.0
  0
LINE
  8
0
  6
CONTINUOUS
 62
       2
  5
19A
 10
-42.22240039
 20
6.72250299
 30
0.0
 11
-37.22820112
 21
6.72250299
 31
0.0
  0
ARC
  8
0
  6
CONTINUOUS
 62
       7
  5
19B
 10
-79.62987775
 20
77.48169188
 30
0.0
 40
16.24081111
 50
72.41204633
 51
72.56052267
  0
LINE
  8
0
  6
CONTINUOUS
 62
       7
  5
19C
 10
-74.76253587
 20
71.22250299
 30
0.0
 11
-74.76253587
 21
93.72250299
 31
0.0
  0
ARC
  8
0
  6
CONTINUOUS
 62
       7
  5
19D
 10
-89.22240034
 20
59.72250299
 30
0.0
 40
11.0
 50
90.0
 51
180.0
  0
ARC
  8
0
  6
CONTINUOUS
 62
       7
  5
19E
 10
-61.79074645
 20
59.72250299
 30
0.0
 40
11.0
 50
30.00000655
 51
90.0
  0
LINE
  8
0
  6
CONTINUOUS
 62
       7
  5
19F
 10
-100.22240034
 20
27.55345488
 30
0.0
 11
-100.22240034
 21
60.72250299
 31
0.0
  0
ARC
  8
0
  6
CONTINUOUS
 62
       7
  5
1A0
 10
-94.01299926
 20
-10.42023314
 30
0.0
 40
7.64273613
 50
72.41205042
 51
107.58794968
  0
ARC
  8
0
  6
CONTINUOUS
 62
       7
  5
1A1
 10
-98.63180142
 20
-10.42023314
 30
0.0
 40
7.64273613
 50
72.41205032
 51
107.58794968
  0
LINE
  8
0
  6
CONTINUOUS
 62
       2
  5
1A2
 10
-96.32240034
 20
-10.57442934
 30
0.0
 11
-96.32240034
 21
-1.46827406
 31
0.0
  0
POLYLINE
  8
0
  6
CONTINUOUS
 62
       7
  5
1A3
 66
       1
 10
0.0
 20
0.0
 30
0.0
  0
VERTEX
  8
0
  6
CONTINUOUS
 62
       7
  5
2F1
 10
-51.27003076
 20
-1.77749701
 30
0.0
  0
VERTEX
  8
0
  6
CONTINUOUS
 62
       7
  5
2F2
 10
-51.3744072
 20
-1.82744517
 30
0.0
  0
VERTEX
  8
0
  6
CONTINUOUS
 62
       7
  5
2F3
 10
-51.47883652
 20
-1.87686167
 30
0.0
  0
VERTEX
  8
0
  6
CONTINUOUS
 62
       7
  5
2F4
 10
-51.58324363
 20
-1.92600795
 30
0.0
  0
VERTEX
  8
0
  6
CONTINUOUS
 62
       7
  5
2F5
 10
-51.68755346
 20
-1.97514544
 30
0.0
  0
VERTEX
  8
0
  6
CONTINUOUS
 62
       7
  5
2F6
 10
-51.79169094
 20
-2.02453558
 30
0.0
  0
VERTEX
  8
0
  6
CONTINUOUS
 62
       7
  5
2F7
 10
-51.89558098
 20
-2.0744398
 30
0.0
  0
VERTEX
  8
0
  6
CONTINUOUS
 62
       7
  5
2F8
 10
-51.99914852
 20
-2.12511952
 30
0.0
  0
VERTEX
  8
0
  6
CONTINUOUS
 62
       7
  5
2F9
 10
-52.10231847
 20
-2.17683619
 30
0.0
  0
VERTEX
  8
0
  6
CONTINUOUS
 62
       7
  5
2FA
 10
-52.20501575
 20
-2.22985123
 30
0.0
  0
VERTEX
  8
0
  6
CONTINUOUS
 62
       7
  5
2FB
 10
-52.3071653
 20
-2.28442608
 30
0.0
  0
VERTEX
  8
0
  6
CONTINUOUS
 62
       7
  5
2FC
 10
-52.40869203
 20
-2.34082217
 30
0.0
  0
VERTEX
  8
0
  6
CONTINUOUS
 62
       7
  5
2FD
 10
-52.50952087
 20
-2.39930093
 30
0.0
  0
VERTEX
  8
0
  6
CONTINUOUS
 62
       7
  5
2FE
 10
-52.60957674
 20
-2.4601238
 30
0.0
  0
VERTEX
  8
0
  6
CONTINUOUS
 62
       7
  5
2FF
 10
-52.70878457
 20
-2.5235522
 30
0.0
  0
VERTEX
  8
0
  6
CONTINUOUS
 62
       7
  5
300
 10
-52.80706927
 20
-2.58984758
 30
0.0
  0
VERTEX
  8
0
  6
CONTINUOUS
 62
       7
  5
301
 10
-52.90435578
 20
-2.65927135
 30
0.0
  0
VERTEX
  8
0
  6
CONTINUOUS
 62
       7
  5
302
 10
-53.05319385
 20
-2.7732622
 30
0.0
  0
VERTEX
  8
0
  6
CONTINUOUS
 62
       7
  5
303
 10
-53.19994191
 20
-2.89361084
 30
0.0
  0
VERTEX
  8
0
  6
CONTINUOUS
 62
       7
  5
304
 10
-53.34509072
 20
-3.01852397
 30
0.0
  0
VERTEX
  8
0
  6
CONTINUOUS
 62
       7
  5
305
 10
-53.48913107
 20
-3.14620823
 30
0.0
  0
VERTEX
  8
0
  6
CONTINUOUS
 62
       7
  5
306
 10
-53.63255371
 20
-3.27487032
 30
0.0
  0
VERTEX
  8
0
  6
CONTINUOUS
 62
       7
  5
307
 10
-53.77584941
 20
-3.40271688
 30
0.0
  0
VERTEX
  8
0
  6
CONTINUOUS
 62
       7
  5
308
 10
-53.91950894
 20
-3.5279546
 30
0.0
  0
VERTEX
  8
0
  6
CONTINUOUS
 62
       7
  5
309
 10
-54.06402307
 20
-3.64879014
 30
0.0
  0
VERTEX
  8
0
  6
CONTINUOUS
 62
       7
  5
30A
 10
-54.20988257
 20
-3.76343017
 30
0.0
  0
VERTEX
  8
0
  6
CONTINUOUS
 62
       7
  5
30B
 10
-54.3575782
 20
-3.87008136
 30
0.0
  0
VERTEX
  8
0
  6
CONTINUOUS
 62
       7
  5
30C
 10
-54.50760073
 20
-3.96695038
 30
0.0
  0
VERTEX
  8
0
  6
CONTINUOUS
 62
       7
  5
30D
 10
-54.66044093
 20
-4.0522439
 30
0.0
  0
VERTEX
  8
0
  6
CONTINUOUS
 62
       7
  5
30E
 10
-54.81658957
 20
-4.12416859
 30
0.0
  0
VERTEX
  8
0
  6
CONTINUOUS
 62
       7
  5
30F
 10
-54.97653742
 20
-4.18093112
 30
0.0
  0
VERTEX
  8
0
  6
CONTINUOUS
 62
       7
  5
310
 10
-55.14077524
 20
-4.22073815
 30
0.0
  0
VERTEX
  8
0
  6
CONTINUOUS
 62
       7
  5
311
 10
-55.3097938
 20
-4.24179636
 30
0.0
  0
VERTEX
  8
0
  6
CONTINUOUS
 62
       7
  5
312
 10
-55.47593953
 20
-4.24322427
 30
0.0
  0
VERTEX
  8
0
  6
CONTINUOUS
 62
       7
  5
313
 10
-55.6458143
 20
-4.22717136
 30
0.0
  0
VERTEX
  8
0
  6
CONTINUOUS
 62
       7
  5
314
 10
-55.81833536
 20
-4.19490748
 30
0.0
  0
VERTEX
  8
0
  6
CONTINUOUS
 62
       7
  5
315
 10
-55.99241998
 20
-4.14770245
 30
0.0
  0
VERTEX
  8
0
  6
CONTINUOUS
 62
       7
  5
316
 10
-56.16698542
 20
-4.0868261
 30
0.0
  0
VERTEX
  8
0
  6
CONTINUOUS
 62
       7
  5
317
 10
-56.34094894
 20
-4.01354827
 30
0.0
  0
VERTEX
  8
0
  6
CONTINUOUS
 62
       7
  5
318
 10
-56.5132278
 20
-3.92913879
 30
0.0
  0
VERTEX
  8
0
  6
CONTINUOUS
 62
       7
  5
319
 10
-56.68273926
 20
-3.83486748
 30
0.0
  0
VERTEX
  8
0
  6
CONTINUOUS
 62
       7
  5
31A
 10
-56.84840059
 20
-3.73200417
 30
0.0
  0
VERTEX
  8
0
  6
CONTINUOUS
 62
       7
  5
31B
 10
-57.00912904
 20
-3.6218187
 30
0.0
  0
VERTEX
  8
0
  6
CONTINUOUS
 62
       7
  5
31C
 10
-57.16384188
 20
-3.50558089
 30
0.0
  0
VERTEX
  8
0
  6
CONTINUOUS
 62
       7
  5
31D
 10
-57.31145638
 20
-3.38456058
 30
0.0
  0
VERTEX
  8
0
  6
CONTINUOUS
 62
       7
  5
31E
 10
-57.45088978
 20
-3.26002759
 30
0.0
  0
VERTEX
  8
0
  6
CONTINUOUS
 62
       7
  5
31F
 10
-57.58105936
 20
-3.13325176
 30
0.0
  0
VERTEX
  8
0
  6
CONTINUOUS
 62
       7
  5
320
 10
-57.70088237
 20
-3.00550292
 30
0.0
  0
VERTEX
  8
0
  6
CONTINUOUS
 62
       7
  5
321
 10
-57.80927608
 20
-2.87805089
 30
0.0
  0
SEQEND
  8
0
  6
CONTINUOUS
 62
       7
  5
322
  0
POLYLINE
  8
0
  6
CONTINUOUS
 62
       7
  5
1A4
 66
       1
 10
0.0
 20
0.0
 30
0.0
  0
VERTEX
  8
0
  6
CONTINUOUS
 62
       7
  5
323
 10
-51.61480556
 20
-0.833191
 30
0.0
  0
VERTEX
  8
0
  6
CONTINUOUS
 62
       7
  5
324
 10
-51.71789416
 20
-0.8832609
 30
0.0
  0
VERTEX
  8
0
  6
CONTINUOUS
 62
       7
  5
325
 10
-51.82340272
 20
-0.93363653
 30
0.0
  0
VERTEX
  8
0
  6
CONTINUOUS
 62
       7
  5
326
 10
-51.93127988
 20
-0.9845987
 30
0.0
  0
VERTEX
  8
0
  6
CONTINUOUS
 62
       7
  5
327
 10
-52.04145911
 20
-1.03644283
 30
0.0
  0
VERTEX
  8
0
  6
CONTINUOUS
 62
       7
  5
328
 10
-52.15385922
 20
-1.08947969
 30
0.0
  0
VERTEX
  8
0
  6
CONTINUOUS
 62
       7
  5
329
 10
-52.26838422
 20
-1.14403555
 30
0.0
  0
VERTEX
  8
0
  6
CONTINUOUS
 62
       7
  5
32A
 10
-52.38492275
 20
-1.20045188
 30
0.0
  0
VERTEX
  8
0
  6
CONTINUOUS
 62
       7
  5
32B
 10
-52.50334682
 20
-1.2590843
 30
0.0
  0
VERTEX
  8
0
  6
CONTINUOUS
 62
       7
  5
32C
 10
-52.62351023
 20
-1.320301
 30
0.0
  0
VERTEX
  8
0
  6
CONTINUOUS
 62
       7
  5
32D
 10
-52.74524657
 20
-1.38448044
 30
0.0
  0
VERTEX
  8
0
  6
CONTINUOUS
 62
       7
  5
32E
 10
-52.86836711
 20
-1.45200826
 30
0.0
  0
VERTEX
  8
0
  6
CONTINUOUS
 62
       7
  5
32F
 10
-52.9926587
 20
-1.52327345
 30
0.0
  0
VERTEX
  8
0
  6
CONTINUOUS
 62
       7
  5
330
 10
-53.11788217
 20
-1.59866368
 30
0.0
  0
VERTEX
  8
0
  6
CONTINUOUS
 62
       7
  5
331
 10
-53.24377128
 20
-1.67856005
 30
0.0
  0
VERTEX
  8
0
  6
CONTINUOUS
 62
       7
  5
332
 10
-53.37003277
 20
-1.76333125
 30
0.0
  0
VERTEX
  8
0
  6
CONTINUOUS
 62
       7
  5
333
 10
-53.49634779
 20
-1.85332752
 30
0.0
  0
VERTEX
  8
0
  6
CONTINUOUS
 62
       7
  5
334
 10
-53.6756234
 20
-1.99058637
 30
0.0
  0
VERTEX
  8
0
  6
CONTINUOUS
 62
       7
  5
335
 10
-53.84436808
 20
-2.12894431
 30
0.0
  0
VERTEX
  8
0
  6
CONTINUOUS
 62
       7
  5
336
 10
-54.00403416
 20
-2.26633147
 30
0.0
  0
VERTEX
  8
0
  6
CONTINUOUS
 62
       7
  5
337
 10
-54.15576276
 20
-2.40082096
 30
0.0
  0
VERTEX
  8
0
  6
CONTINUOUS
 62
       7
  5
338
 10
-54.30037986
 20
-2.53055302
 30
0.0
  0
VERTEX
  8
0
  6
CONTINUOUS
 62
       7
  5
339
 10
-54.43839656
 20
-2.65369667
 30
0.0
  0
VERTEX
  8
0
  6
CONTINUOUS
 62
       7
  5
33A
 10
-54.57000421
 20
-2.76844429
 30
0.0
  0
VERTEX
  8
0
  6
CONTINUOUS
 62
       7
  5
33B
 10
-54.69506271
 20
-2.87303955
 30
0.0
  0
VERTEX
  8
0
  6
CONTINUOUS
 62
       7
  5
33C
 10
-54.81308834
 20
-2.96584457
 30
0.0
  0
VERTEX
  8
0
  6
CONTINUOUS
 62
       7
  5
33D
 10
-54.92325841
 20
-3.04545666
 30
0.0
  0
VERTEX
  8
0
  6
CONTINUOUS
 62
       7
  5
33E
 10
-55.02446687
 20
-3.11088415
 30
0.0
  0
VERTEX
  8
0
  6
CONTINUOUS
 62
       7
  5
33F
 10
-55.11548791
 20
-3.16177647
 30
0.0
  0
VERTEX
  8
0
  6
CONTINUOUS
 62
       7
  5
340
 10
-55.19532209
 20
-3.19866241
 30
0.0
  0
VERTEX
  8
0
  6
CONTINUOUS
 62
       7
  5
341
 10
-55.26377876
 20
-3.22307288
 30
0.0
  0
VERTEX
  8
0
  6
CONTINUOUS
 62
       7
  5
342
 10
-55.32223413
 20
-3.23733962
 30
0.0
  0
VERTEX
  8
0
  6
CONTINUOUS
 62
       7
  5
343
 10
-55.37427355
 20
-3.24387735
 30
0.0
  0
VERTEX
  8
0
  6
CONTINUOUS
 62
       7
  5
344
 10
-55.43124846
 20
-3.24422341
 30
0.0
  0
VERTEX
  8
0
  6
CONTINUOUS
 62
       7
  5
345
 10
-55.5050304
 20
-3.23713101
 30
0.0
  0
VERTEX
  8
0
  6
CONTINUOUS
 62
       7
  5
346
 10
-55.59394794
 20
-3.22040746
 30
0.0
  0
VERTEX
  8
0
  6
CONTINUOUS
 62
       7
  5
347
 10
-55.69554437
 20
-3.19278629
 30
0.0
  0
VERTEX
  8
0
  6
CONTINUOUS
 62
       7
  5
348
 10
-55.80710021
 20
-3.15382952
 30
0.0
  0
VERTEX
  8
0
  6
CONTINUOUS
 62
       7
  5
349
 10
-55.92592019
 20
-3.10373998
 30
0.0
  0
VERTEX
  8
0
  6
CONTINUOUS
 62
       7
  5
34A
 10
-56.04946058
 20
-3.0431817
 30
0.0
  0
VERTEX
  8
0
  6
CONTINUOUS
 62
       7
  5
34B
 10
-56.17536595
 20
-2.97314111
 30
0.0
  0
VERTEX
  8
0
  6
CONTINUOUS
 62
       7
  5
34C
 10
-56.3014611
 20
-2.89483203
 30
0.0
  0
VERTEX
  8
0
  6
CONTINUOUS
 62
       7
  5
34D
 10
-56.42572412
 20
-2.80963725
 30
0.0
  0
VERTEX
  8
0
  6
CONTINUOUS
 62
       7
  5
34E
 10
-56.54625345
 20
-2.71907944
 30
0.0
  0
VERTEX
  8
0
  6
CONTINUOUS
 62
       7
  5
34F
 10
-56.66123486
 20
-2.6248159
 30
0.0
  0
VERTEX
  8
0
  6
CONTINUOUS
 62
       7
  5
350
 10
-56.76891071
 20
-2.5286559
 30
0.0
  0
VERTEX
  8
0
  6
CONTINUOUS
 62
       7
  5
351
 10
-56.86755271
 20
-2.4326033
 30
0.0
  0
VERTEX
  8
0
  6
CONTINUOUS
 62
       7
  5
352
 10
-56.95544009
 20
-2.33893274
 30
0.0
  0
VERTEX
  8
0
  6
CONTINUOUS
 62
       7
  5
353
 10
-57.03084892
 20
-2.25031595
 30
0.0
  0
SEQEND
  8
0
  6
CONTINUOUS
 62
       7
  5
354
  0
POLYLINE
  8
0
  6
CONTINUOUS
 62
       7
  5
1A5
 66
       1
 10
0.0
 20
0.0
 30
0.0
  0
VERTEX
  8
0
  6
CONTINUOUS
 62
       7
  5
355
 10
-51.27003076
 20
-1.77749701
 30
0.0
  0
VERTEX
  8
0
  6
CONTINUOUS
 62
       7
  5
356
 10
-51.3744072
 20
-1.82744517
 30
0.0
  0
VERTEX
  8
0
  6
CONTINUOUS
 62
       7
  5
357
 10
-51.47883652
 20
-1.87686167
 30
0.0
  0
VERTEX
  8
0
  6
CONTINUOUS
 62
       7
  5
358
 10
-51.58324363
 20
-1.92600795
 30
0.0
  0
VERTEX
  8
0
  6
CONTINUOUS
 62
       7
  5
359
 10
-51.68755346
 20
-1.97514544
 30
0.0
  0
VERTEX
  8
0
  6
CONTINUOUS
 62
       7
  5
35A
 10
-51.79169094
 20
-2.02453558
 30
0.0
  0
VERTEX
  8
0
  6
CONTINUOUS
 62
       7
  5
35B
 10
-51.89558098
 20
-2.0744398
 30
0.0
  0
VERTEX
  8
0
  6
CONTINUOUS
 62
       7
  5
35C
 10
-51.99914852
 20
-2.12511952
 30
0.0
  0
VERTEX
  8
0
  6
CONTINUOUS
 62
       7
  5
35D
 10
-52.10231847
 20
-2.17683619
 30
0.0
  0
VERTEX
  8
0
  6
CONTINUOUS
 62
       7
  5
35E
 10
-52.20501575
 20
-2.22985123
 30
0.0
  0
VERTEX
  8
0
  6
CONTINUOUS
 62
       7
  5
35F
 10
-52.3071653
 20
-2.28442608
 30
0.0
  0
VERTEX
  8
0
  6
CONTINUOUS
 62
       7
  5
360
 10
-52.40869203
 20
-2.34082217
 30
0.0
  0
VERTEX
  8
0
  6
CONTINUOUS
 62
       7
  5
361
 10
-52.50952087
 20
-2.39930093
 30
0.0
  0
VERTEX
  8
0
  6
CONTINUOUS
 62
       7
  5
362
 10
-52.60957674
 20
-2.4601238
 30
0.0
  0
VERTEX
  8
0
  6
CONTINUOUS
 62
       7
  5
363
 10
-52.70878457
 20
-2.5235522
 30
0.0
  0
VERTEX
  8
0
  6
CONTINUOUS
 62
       7
  5
364
 10
-52.80706927
 20
-2.58984758
 30
0.0
  0
VERTEX
  8
0
  6
CONTINUOUS
 62
       7
  5
365
 10
-52.90435578
 20
-2.65927135
 30
0.0
  0
VERTEX
  8
0
  6
CONTINUOUS
 62
       7
  5
366
 10
-53.05319385
 20
-2.7732622
 30
0.0
  0
VERTEX
  8
0
  6
CONTINUOUS
 62
       7
  5
367
 10
-53.19994191
 20
-2.89361084
 30
0.0
  0
VERTEX
  8
0
  6
CONTINUOUS
 62
       7
  5
368
 10
-53.34509072
 20
-3.01852397
 30
0.0
  0
VERTEX
  8
0
  6
CONTINUOUS
 62
       7
  5
369
 10
-53.48913107
 20
-3.14620823
 30
0.0
  0
VERTEX
  8
0
  6
CONTINUOUS
 62
       7
  5
36A
 10
-53.63255371
 20
-3.27487032
 30
0.0
  0
VERTEX
  8
0
  6
CONTINUOUS
 62
       7
  5
36B
 10
-53.77584941
 20
-3.40271688
 30
0.0
  0
VERTEX
  8
0
  6
CONTINUOUS
 62
       7
  5
36C
 10
-53.91950894
 20
-3.5279546
 30
0.0
  0
VERTEX
  8
0
  6
CONTINUOUS
 62
       7
  5
36D
 10
-54.06402307
 20
-3.64879014
 30
0.0
  0
VERTEX
  8
0
  6
CONTINUOUS
 62
       7
  5
36E
 10
-54.20988257
 20
-3.76343017
 30
0.0
  0
VERTEX
  8
0
  6
CONTINUOUS
 62
       7
  5
36F
 10
-54.3575782
 20
-3.87008136
 30
0.0
  0
VERTEX
  8
0
  6
CONTINUOUS
 62
       7
  5
370
 10
-54.50760073
 20
-3.96695038
 30
0.0
  0
VERTEX
  8
0
  6
CONTINUOUS
 62
       7
  5
371
 10
-54.66044093
 20
-4.0522439
 30
0.0
  0
VERTEX
  8
0
  6
CONTINUOUS
 62
       7
  5
372
 10
-54.81658957
 20
-4.12416859
 30
0.0
  0
VERTEX
  8
0
  6
CONTINUOUS
 62
       7
  5
373
 10
-54.97653742
 20
-4.18093112
 30
0.0
  0
VERTEX
  8
0
  6
CONTINUOUS
 62
       7
  5
374
 10
-55.14077524
 20
-4.22073815
 30
0.0
  0
VERTEX
  8
0
  6
CONTINUOUS
 62
       7
  5
375
 10
-55.3097938
 20
-4.24179636
 30
0.0
  0
VERTEX
  8
0
  6
CONTINUOUS
 62
       7
  5
376
 10
-55.47593953
 20
-4.24322427
 30
0.0
  0
VERTEX
  8
0
  6
CONTINUOUS
 62
       7
  5
377
 10
-55.6458143
 20
-4.22717136
 30
0.0
  0
VERTEX
  8
0
  6
CONTINUOUS
 62
       7
  5
378
 10
-55.81833536
 20
-4.19490748
 30
0.0
  0
VERTEX
  8
0
  6
CONTINUOUS
 62
       7
  5
379
 10
-55.99241998
 20
-4.14770245
 30
0.0
  0
VERTEX
  8
0
  6
CONTINUOUS
 62
       7
  5
37A
 10
-56.16698542
 20
-4.0868261
 30
0.0
  0
VERTEX
  8
0
  6
CONTINUOUS
 62
       7
  5
37B
 10
-56.34094894
 20
-4.01354827
 30
0.0
  0
VERTEX
  8
0
  6
CONTINUOUS
 62
       7
  5
37C
 10
-56.5132278
 20
-3.92913879
 30
0.0
  0
VERTEX
  8
0
  6
CONTINUOUS
 62
       7
  5
37D
 10
-56.68273926
 20
-3.83486748
 30
0.0
  0
VERTEX
  8
0
  6
CONTINUOUS
 62
       7
  5
37E
 10
-56.84840059
 20
-3.73200417
 30
0.0
  0
VERTEX
  8
0
  6
CONTINUOUS
 62
       7
  5
37F
 10
-57.00912904
 20
-3.6218187
 30
0.0
  0
VERTEX
  8
0
  6
CONTINUOUS
 62
       7
  5
380
 10
-57.16384188
 20
-3.50558089
 30
0.0
  0
VERTEX
  8
0
  6
CONTINUOUS
 62
       7
  5
381
 10
-57.31145638
 20
-3.38456058
 30
0.0
  0
VERTEX
  8
0
  6
CONTINUOUS
 62
       7
  5
382
 10
-57.45088978
 20
-3.26002759
 30
0.0
  0
VERTEX
  8
0
  6
CONTINUOUS
 62
       7
  5
383
 10
-57.58105936
 20
-3.13325176
 30
0.0
  0
VERTEX
  8
0
  6
CONTINUOUS
 62
       7
  5
384
 10
-57.70088237
 20
-3.00550292
 30
0.0
  0
VERTEX
  8
0
  6
CONTINUOUS
 62
       7
  5
385
 10
-57.80927608
 20
-2.87805089
 30
0.0
  0
SEQEND
  8
0
  6
CONTINUOUS
 62
       7
  5
386
  0
POLYLINE
  8
0
  6
CONTINUOUS
 62
       7
  5
1A6
 66
       1
 10
0.0
 20
0.0
 30
0.0
  0
VERTEX
  8
0
  6
CONTINUOUS
 62
       7
  5
387
 10
-51.61480556
 20
-0.833191
 30
0.0
  0
VERTEX
  8
0
  6
CONTINUOUS
 62
       7
  5
388
 10
-51.54397792
 20
-0.81474924
 30
0.0
  0
VERTEX
  8
0
  6
CONTINUOUS
 62
       7
  5
389
 10
-51.47145751
 20
-0.79845401
 30
0.0
  0
VERTEX
  8
0
  6
CONTINUOUS
 62
       7
  5
38A
 10
-51.39756272
 20
-0.78450574
 30
0.0
  0
VERTEX
  8
0
  6
CONTINUOUS
 62
       7
  5
38B
 10
-51.3226119
 20
-0.77310484
 30
0.0
  0
VERTEX
  8
0
  6
CONTINUOUS
 62
       7
  5
38C
 10
-51.24692342
 20
-0.76445174
 30
0.0
  0
VERTEX
  8
0
  6
CONTINUOUS
 62
       7
  5
38D
 10
-51.17081565
 20
-0.75874687
 30
0.0
  0
VERTEX
  8
0
  6
CONTINUOUS
 62
       7
  5
38E
 10
-51.09460695
 20
-0.75619064
 30
0.0
  0
VERTEX
  8
0
  6
CONTINUOUS
 62
       7
  5
38F
 10
-51.01861568
 20
-0.75698349
 30
0.0
  0
VERTEX
  8
0
  6
CONTINUOUS
 62
       7
  5
390
 10
-50.94316021
 20
-0.76132583
 30
0.0
  0
VERTEX
  8
0
  6
CONTINUOUS
 62
       7
  5
391
 10
-50.86855892
 20
-0.76941809
 30
0.0
  0
VERTEX
  8
0
  6
CONTINUOUS
 62
       7
  5
392
 10
-50.79513015
 20
-0.78146069
 30
0.0
  0
VERTEX
  8
0
  6
CONTINUOUS
 62
       7
  5
393
 10
-50.72319228
 20
-0.79765406
 30
0.0
  0
VERTEX
  8
0
  6
CONTINUOUS
 62
       7
  5
394
 10
-50.65306368
 20
-0.81819862
 30
0.0
  0
VERTEX
  8
0
  6
CONTINUOUS
 62
       7
  5
395
 10
-50.5850627
 20
-0.84329479
 30
0.0
  0
VERTEX
  8
0
  6
CONTINUOUS
 62
       7
  5
396
 10
-50.51950772
 20
-0.873143
 30
0.0
  0
VERTEX
  8
0
  6
CONTINUOUS
 62
       7
  5
397
 10
-50.4567171
 20
-0.90794367
 30
0.0
  0
VERTEX
  8
0
  6
CONTINUOUS
 62
       7
  5
398
 10
-50.40411012
 20
-0.94264924
 30
0.0
  0
VERTEX
  8
0
  6
CONTINUOUS
 62
       7
  5
399
 10
-50.35385781
 20
-0.9810467
 30
0.0
  0
VERTEX
  8
0
  6
CONTINUOUS
 62
       7
  5
39A
 10
-50.30594132
 20
-1.0228605
 30
0.0
  0
VERTEX
  8
0
  6
CONTINUOUS
 62
       7
  5
39B
 10
-50.26034179
 20
-1.06781512
 30
0.0
  0
VERTEX
  8
0
  6
CONTINUOUS
 62
       7
  5
39C
 10
-50.21704038
 20
-1.11563501
 30
0.0
  0
VERTEX
  8
0
  6
CONTINUOUS
 62
       7
  5
39D
 10
-50.17601822
 20
-1.16604462
 30
0.0
  0
VERTEX
  8
0
  6
CONTINUOUS
 62
       7
  5
39E
 10
-50.13725647
 20
-1.21876843
 30
0.0
  0
VERTEX
  8
0
  6
CONTINUOUS
 62
       7
  5
39F
 10
-50.10073627
 20
-1.27353088
 30
0.0
  0
VERTEX
  8
0
  6
CONTINUOUS
 62
       7
  5
3A0
 10
-50.06643877
 20
-1.33005644
 30
0.0
  0
VERTEX
  8
0
  6
CONTINUOUS
 62
       7
  5
3A1
 10
-50.03434511
 20
-1.38806957
 30
0.0
  0
VERTEX
  8
0
  6
CONTINUOUS
 62
       7
  5
3A2
 10
-50.00443644
 20
-1.44729473
 30
0.0
  0
VERTEX
  8
0
  6
CONTINUOUS
 62
       7
  5
3A3
 10
-49.97669391
 20
-1.50745637
 30
0.0
  0
VERTEX
  8
0
  6
CONTINUOUS
 62
       7
  5
3A4
 10
-49.95109866
 20
-1.56827896
 30
0.0
  0
VERTEX
  8
0
  6
CONTINUOUS
 62
       7
  5
3A5
 10
-49.92763184
 20
-1.62948696
 30
0.0
  0
VERTEX
  8
0
  6
CONTINUOUS
 62
       7
  5
3A6
 10
-49.90627461
 20
-1.69080483
 30
0.0
  0
VERTEX
  8
0
  6
CONTINUOUS
 62
       7
  5
3A7
 10
-49.88700809
 20
-1.75195701
 30
0.0
  0
SEQEND
  8
0
  6
CONTINUOUS
 62
       7
  5
3A8
  0
CIRCLE
  8
0
  6
CONTINUOUS
 62
       7
  5
1A7
 10
-58.05213725
 20
-1.38548896
 30
0.0
 40
0.5
  0
POLYLINE
  8
0
  6
CONTINUOUS
 62
       7
  5
1A8
 66
       1
 10
0.0
 20
0.0
 30
0.0
  0
VERTEX
  8
0
  6
CONTINUOUS
 62
       7
  5
3A9
 10
-56.91636525
 20
-2.38244238
 30
0.0
  0
VERTEX
  8
0
  6
CONTINUOUS
 62
       7
  5
3AA
 10
-56.9463981
 20
-2.34241046
 30
0.0
  0
VERTEX
  8
0
  6
CONTINUOUS
 62
       7
  5
3AB
 10
-56.9760505
 20
-2.30208635
 30
0.0
  0
VERTEX
  8
0
  6
CONTINUOUS
 62
       7
  5
3AC
 10
-57.00531752
 20
-2.26147602
 30
0.0
  0
VERTEX
  8
0
  6
CONTINUOUS
 62
       7
  5
3AD
 10
-57.03419425
 20
-2.22058543
 30
0.0
  0
VERTEX
  8
0
  6
CONTINUOUS
 62
       7
  5
3AE
 10
-57.06267585
 20
-2.17942058
 30
0.0
  0
VERTEX
  8
0
  6
CONTINUOUS
 62
       7
  5
3AF
 10
-57.09075752
 20
-2.1379875
 30
0.0
  0
VERTEX
  8
0
  6
CONTINUOUS
 62
       7
  5
3B0
 10
-57.11843453
 20
-2.09629222
 30
0.0
  0
VERTEX
  8
0
  6
CONTINUOUS
 62
       7
  5
3B1
 10
-57.14570217
 20
-2.05434078
 30
0.0
  0
VERTEX
  8
0
  6
CONTINUOUS
 62
       7
  5
3B2
 10
-57.1725558
 20
-2.01213927
 30
0.0
  0
VERTEX
  8
0
  6
CONTINUOUS
 62
       7
  5
3B3
 10
-57.19899085
 20
-1.96969375
 30
0.0
  0
VERTEX
  8
0
  6
CONTINUOUS
 62
       7
  5
3B4
 10
-57.22500278
 20
-1.92701034
 30
0.0
  0
VERTEX
  8
0
  6
CONTINUOUS
 62
       7
  5
3B5
 10
-57.25058711
 20
-1.88409512
 30
0.0
  0
VERTEX
  8
0
  6
CONTINUOUS
 62
       7
  5
3B6
 10
-57.27573942
 20
-1.84095422
 30
0.0
  0
VERTEX
  8
0
  6
CONTINUOUS
 62
       7
  5
3B7
 10
-57.30045535
 20
-1.79759374
 30
0.0
  0
VERTEX
  8
0
  6
CONTINUOUS
 62
       7
  5
3B8
 10
-57.3247306
 20
-1.75401982
 30
0.0
  0
VERTEX
  8
0
  6
CONTINUOUS
 62
       7
  5
3B9
 10
-57.34856092
 20
-1.71023858
 30
0.0
  0
VERTEX
  8
0
  6
CONTINUOUS
 62
       7
  5
3BA
 10
-57.36516423
 20
-1.67911469
 30
0.0
  0
VERTEX
  8
0
  6
CONTINUOUS
 62
       7
  5
3BB
 10
-57.38155576
 20
-1.64786614
 30
0.0
  0
VERTEX
  8
0
  6
CONTINUOUS
 62
       7
  5
3BC
 10
-57.39773493
 20
-1.61649478
 30
0.0
  0
VERTEX
  8
0
  6
CONTINUOUS
 62
       7
  5
3BD
 10
-57.41370118
 20
-1.58500246
 30
0.0
  0
VERTEX
  8
0
  6
CONTINUOUS
 62
       7
  5
3BE
 10
-57.42945391
 20
-1.55339102
 30
0.0
  0
VERTEX
  8
0
  6
CONTINUOUS
 62
       7
  5
3BF
 10
-57.44499257
 20
-1.52166233
 30
0.0
  0
VERTEX
  8
0
  6
CONTINUOUS
 62
       7
  5
3C0
 10
-57.46031659
 20
-1.48981828
 30
0.0
  0
VERTEX
  8
0
  6
CONTINUOUS
 62
       7
  5
3C1
 10
-57.47542539
 20
-1.45786073
 30
0.0
  0
VERTEX
  8
0
  6
CONTINUOUS
 62
       7
  5
3C2
 10
-57.49031842
 20
-1.42579159
 30
0.0
  0
VERTEX
  8
0
  6
CONTINUOUS
 62
       7
  5
3C3
 10
-57.50499512
 20
-1.39361276
 30
0.0
  0
VERTEX
  8
0
  6
CONTINUOUS
 62
       7
  5
3C4
 10
-57.51945493
 20
-1.36132616
 30
0.0
  0
VERTEX
  8
0
  6
CONTINUOUS
 62
       7
  5
3C5
 10
-57.53369729
 20
-1.32893369
 30
0.0
  0
VERTEX
  8
0
  6
CONTINUOUS
 62
       7
  5
3C6
 10
-57.54772166
 20
-1.2964373
 30
0.0
  0
VERTEX
  8
0
  6
CONTINUOUS
 62
       7
  5
3C7
 10
-57.56152749
 20
-1.26383893
 30
0.0
  0
VERTEX
  8
0
  6
CONTINUOUS
 62
       7
  5
3C8
 10
-57.57511424
 20
-1.23114051
 30
0.0
  0
VERTEX
  8
0
  6
CONTINUOUS
 62
       7
  5
3C9
 10
-57.58848137
 20
-1.19834401
 30
0.0
  0
SEQEND
  8
0
  6
CONTINUOUS
 62
       7
  5
3CA
  0
POLYLINE
  8
0
  6
CONTINUOUS
 62
       7
  5
1A9
 66
       1
 10
0.0
 20
0.0
 30
0.0
  0
VERTEX
  8
0
  6
CONTINUOUS
 62
       7
  5
3CB
 10
-57.71339622
 20
-2.98638082
 30
0.0
  0
VERTEX
  8
0
  6
CONTINUOUS
 62
       7
  5
3CC
 10
-57.74917839
 20
-2.9386854
 30
0.0
  0
VERTEX
  8
0
  6
CONTINUOUS
 62
       7
  5
3CD
 10
-57.78450996
 20
-2.89063822
 30
0.0
  0
VERTEX
  8
0
  6
CONTINUOUS
 62
       7
  5
3CE
 10
-57.81938626
 20
-2.84224454
 30
0.0
  0
VERTEX
  8
0
  6
CONTINUOUS
 62
       7
  5
3CF
 10
-57.85380263
 20
-2.7935096
 30
0.0
  0
VERTEX
  8
0
  6
CONTINUOUS
 62
       7
  5
3D0
 10
-57.88775437
 20
-2.74443866
 30
0.0
  0
VERTEX
  8
0
  6
CONTINUOUS
 62
       7
  5
3D1
 10
-57.92123684
 20
-2.69503697
 30
0.0
  0
VERTEX
  8
0
  6
CONTINUOUS
 62
       7
  5
3D2
 10
-57.95424534
 20
-2.64530978
 30
0.0
  0
VERTEX
  8
0
  6
CONTINUOUS
 62
       7
  5
3D3
 10
-57.98677521
 20
-2.59526234
 30
0.0
  0
VERTEX
  8
0
  6
CONTINUOUS
 62
       7
  5
3D4
 10
-58.01882178
 20
-2.5448999
 30
0.0
  0
VERTEX
  8
0
  6
CONTINUOUS
 62
       7
  5
3D5
 10
-58.05038038
 20
-2.49422772
 30
0.0
  0
VERTEX
  8
0
  6
CONTINUOUS
 62
       7
  5
3D6
 10
-58.08144632
 20
-2.44325103
 30
0.0
  0
VERTEX
  8
0
  6
CONTINUOUS
 62
       7
  5
3D7
 10
-58.11201495
 20
-2.3919751
 30
0.0
  0
VERTEX
  8
0
  6
CONTINUOUS
 62
       7
  5
3D8
 10
-58.14208158
 20
-2.34040517
 30
0.0
  0
VERTEX
  8
0
  6
CONTINUOUS
 62
       7
  5
3D9
 10
-58.17164155
 20
-2.2885465
 30
0.0
  0
VERTEX
  8
0
  6
CONTINUOUS
 62
       7
  5
3DA
 10
-58.20069018
 20
-2.23640434
 30
0.0
  0
VERTEX
  8
0
  6
CONTINUOUS
 62
       7
  5
3DB
 10
-58.2292228
 20
-2.18398393
 30
0.0
  0
VERTEX
  8
0
  6
CONTINUOUS
 62
       7
  5
3DC
 10
-58.24910442
 20
-2.14671466
 30
0.0
  0
VERTEX
  8
0
  6
CONTINUOUS
 62
       7
  5
3DD
 10
-58.26872483
 20
-2.10931065
 30
0.0
  0
VERTEX
  8
0
  6
CONTINUOUS
 62
       7
  5
3DE
 10
-58.2880837
 20
-2.07177389
 30
0.0
  0
VERTEX
  8
0
  6
CONTINUOUS
 62
       7
  5
3DF
 10
-58.30718069
 20
-2.03410641
 30
0.0
  0
VERTEX
  8
0
  6
CONTINUOUS
 62
       7
  5
3E0
 10
-58.32601544
 20
-1.99631023
 30
0.0
  0
VERTEX
  8
0
  6
CONTINUOUS
 62
       7
  5
3E1
 10
-58.34458763
 20
-1.95838735
 30
0.0
  0
VERTEX
  8
0
  6
CONTINUOUS
 62
       7
  5
3E2
 10
-58.3628969
 20
-1.92033979
 30
0.0
  0
VERTEX
  8
0
  6
CONTINUOUS
 62
       7
  5
3E3
 10
-58.38094293
 20
-1.88216957
 30
0.0
  0
VERTEX
  8
0
  6
CONTINUOUS
 62
       7
  5
3E4
 10
-58.39872536
 20
-1.84387871
 30
0.0
  0
VERTEX
  8
0
  6
CONTINUOUS
 62
       7
  5
3E5
 10
-58.41624386
 20
-1.80546922
 30
0.0
  0
VERTEX
  8
0
  6
CONTINUOUS
 62
       7
  5
3E6
 10
-58.43349808
 20
-1.76694311
 30
0.0
  0
VERTEX
  8
0
  6
CONTINUOUS
 62
       7
  5
3E7
 10
-58.45048768
 20
-1.72830241
 30
0.0
  0
VERTEX
  8
0
  6
CONTINUOUS
 62
       7
  5
3E8
 10
-58.46721233
 20
-1.68954912
 30
0.0
  0
VERTEX
  8
0
  6
CONTINUOUS
 62
       7
  5
3E9
 10
-58.48367168
 20
-1.65068526
 30
0.0
  0
VERTEX
  8
0
  6
CONTINUOUS
 62
       7
  5
3EA
 10
-58.49986539
 20
-1.61171285
 30
0.0
  0
VERTEX
  8
0
  6
CONTINUOUS
 62
       7
  5
3EB
 10
-58.51579312
 20
-1.57263391
 30
0.0
  0
SEQEND
  8
0
  6
CONTINUOUS
 62
       7
  5
3EC
  0
CIRCLE
  8
0
  6
CONTINUOUS
 62
       7
  5
1AA
 10
-58.12240034
 20
-4.77749701
 30
0.0
 40
0.5
  0
LINE
  8
0
  6
CONTINUOUS
 62
       7
  5
1AB
 10
-58.1224003
 20
-5.27749701
 30
0.0
 11
-52.63250239
 21
-5.27749701
 31
0.0
  0
LINE
  8
0
  6
CONTINUOUS
 62
       7
  5
1AC
 10
-58.12240034
 20
-4.27749701
 30
0.0
 11
-52.63250239
 21
-4.27749701
 31
0.0
  0
ARC
  8
0
  6
CONTINUOUS
 62
       7
  5
1AD
 10
-53.12240034
 20
-4.77749701
 30
0.0
 40
0.7
 50
225.5846914
 51
134.4153086
  0
ARC
  8
0
  6
CONTINUOUS
 62
       7
  5
1AE
 10
-48.56084146
 20
-4.77749701
 30
0.0
 40
7.56155888
 50
127.10347874
 51
167.18287055
  0
ARC
  8
0
  6
CONTINUOUS
 62
       7
  5
1AF
 10
-48.56084146
 20
-4.77749701
 30
0.0
 40
7.56155888
 50
174.96704694
 51
176.20861149
  0
ARC
  8
0
  6
CONTINUOUS
 62
       7
  5
1B0
 10
-49.12240034
 20
-4.77749701
 30
0.0
 40
5.0
 50
166.09328661
 51
174.26082952
  0
LINE
  8
0
  6
CONTINUOUS
 62
       2
  5
1B1
 10
2.53234898
 20
18.22250299
 30
0.0
 11
20.56156001
 21
18.22250299
 31
0.0
  0
LINE
  8
0
  6
CONTINUOUS
 62
       7
  5
1B2
 10
-102.22240034
 20
-35.77749701
 30
0.0
 11
-47.22240034
 21
-35.77749701
 31
0.0
  0
LINE
  8
0
  6
CONTINUOUS
 62
       7
  5
1B3
 10
-102.22240034
 20
-35.77749701
 30
0.0
 11
-102.22240034
 21
-13.77749701
 31
0.0
  0
LINE
  8
0
  6
CONTINUOUS
 62
       7
  5
1B4
 10
-47.22240034
 20
-35.77749701
 30
0.0
 11
-47.22240034
 21
-13.77749701
 31
0.0
  0
LINE
  8
0
  6
CONTINUOUS
 62
       7
  5
1B5
 10
-63.38906701
 20
71.98169233
 30
0.0
 11
-63.38906701
 21
92.96331361
 31
0.0
  0
LINE
  8
0
  6
CONTINUOUS
 62
       7
  5
1B6
 10
-86.05573368
 20
71.98169245
 30
0.0
 11
-86.05573368
 21
92.96331361
 31
0.0
  0
LINE
  8
0
  6
CONTINUOUS
 62
       7
  5
1B7
 10
-69.05573368
 20
71.98169233
 30
0.0
 11
-69.05573368
 21
92.96331361
 31
0.0
  0
LINE
  8
0
  6
CONTINUOUS
 62
       7
  5
1B8
 10
-80.38906691
 20
71.98169233
 30
0.0
 11
-80.38906691
 21
92.96331361
 31
0.0
  0
LINE
  8
0
  6
CONTINUOUS
 62
       7
  5
1B9
 10
-66.22240047
 20
93.72250303
 30
0.0
 11
-63.38906701
 21
92.96331361
 31
0.0
  0
LINE
  8
0
  6
CONTINUOUS
 62
       7
  5
1BA
 10
-86.05573372
 20
92.96331363
 30
0.0
 11
-83.22240047
 21
93.72250297
 31
0.0
  0
ARC
  8
0
  6
CONTINUOUS
 62
       7
  5
1BB
 10
-83.2224003
 20
88.05583612
 30
0.0
 40
5.66666687
 50
60.0000006
 51
90.00000045
  0
ARC
  8
0
  6
CONTINUOUS
 62
       7
  5
1BC
 10
-74.7224003
 20
72.19462067
 30
0.0
 40
21.52788232
 50
74.73851951
 51
105.26148049
  0
ARC
  8
0
  6
CONTINUOUS
 62
       7
  5
1BD
 10
-66.22240034
 20
88.0558363
 30
0.0
 40
5.66666668
 50
90.00000002
 51
119.99999989
  0
LINE
  8
0
  6
CONTINUOUS
 62
       7
  5
1BE
 10
-66.22240047
 20
71.22250297
 30
0.0
 11
-63.3890671
 21
71.98169233
 31
0.0
  0
LINE
  8
0
  6
CONTINUOUS
 62
       7
  5
1BF
 10
-86.05573384
 20
71.98169245
 30
0.0
 11
-83.22240034
 21
71.22250303
 31
0.0
  0
ARC
  8
0
  6
CONTINUOUS
 62
       7
  5
1C0
 10
-66.22240039
 20
76.88916959
 30
0.0
 40
5.6666666
 50
240.00000015
 51
270.00000002
  0
ARC
  8
0
  6
CONTINUOUS
 62
       7
  5
1C1
 10
-74.7224003
 20
92.75038565
 30
0.0
 40
21.52788266
 50
254.73851973
 51
285.26148025
  0
ARC
  8
0
  6
CONTINUOUS
 62
       7
  5
1C2
 10
-83.22240038
 20
76.88917025
 30
0.0
 40
5.66666726
 50
270.0
 51
299.99999809
  0
LINE
  8
0
  6
CONTINUOUS
 62
       2
  5
1C3
 10
-110.73000205
 20
-92.67884533
 30
0.0
 11
-41.64431433
 21
-92.67884533
 31
0.0
  0
LINE
  8
0
  6
CONTINUOUS
 62
       7
  5
1C4
 10
-102.22240034
 20
-106.67884533
 30
0.0
 11
-102.22240034
 21
-80.17884532
 31
0.0
  0
LINE
  8
0
  6
CONTINUOUS
 62
       7
  5
1C5
 10
-47.22240034
 20
-105.17884531
 30
0.0
 11
-47.22240034
 21
-78.67884533
 31
0.0
  0
ARC
  8
0
  6
CONTINUOUS
 62
       2
  5
1C6
 10
-74.72240034
 20
-92.67884533
 30
0.0
 40
25.0
 50
127.9449299
 51
160.6381162
  0
LINE
  8
0
  6
CONTINUOUS
 62
       2
  5
1C7
 10
-101.21744637
 20
-77.38192336
 30
0.0
 11
-91.55524805
 21
-82.96039616
 31
0.0
  0
CIRCLE
  8
0
  6
CONTINUOUS
 62
       7
  5
1C8
 10
-53.07176524
 20
-105.17884531
 30
0.0
 40
2.5
  0
CIRCLE
  8
0
  6
CONTINUOUS
 62
       7
  5
1C9
 10
-96.37303543
 20
-80.17884532
 30
0.0
 40
2.5
  0
CIRCLE
  8
0
  6
CONTINUOUS
 62
       7
  5
1CA
 10
-96.37303543
 20
-80.17884532
 30
0.0
 40
2.0
  0
CIRCLE
  8
0
  6
CONTINUOUS
 62
       7
  5
1CB
 10
-53.07176524
 20
-105.17884531
 30
0.0
 40
2.0
  0
ARC
  8
0
  6
CONTINUOUS
 62
       7
  5
1CC
 10
-96.37303543
 20
-80.17884532
 30
0.0
 40
5.84936491
 50
14.85881573
 51
180.0
  0
LINE
  8
0
  6
CONTINUOUS
 62
       7
  5
1CD
 10
-90.71926944
 20
-78.67884533
 30
0.0
 11
-80.10756518
 21
-78.67884533
 31
0.0
  0
LINE
  8
0
  6
CONTINUOUS
 62
       7
  5
1CE
 10
-102.22240034
 20
-106.67884533
 30
0.0
 11
-80.10756511
 21
-106.67884533
 31
0.0
  0
ARC
  8
0
  6
CONTINUOUS
 62
       7
  5
1CF
 10
-74.72240034
 20
-92.67884531
 30
0.0
 40
15.0
 50
68.96053007
 51
111.03946993
  0
LINE
  8
0
  6
CONTINUOUS
 62
       7
  5
1D0
 10
-69.3372355
 20
-78.67884533
 30
0.0
 11
-47.22240034
 21
-78.67884533
 31
0.0
  0
LINE
  8
0
  6
CONTINUOUS
 62
       7
  5
1D1
 10
-69.33723557
 20
-106.67884533
 30
0.0
 11
-58.72553122
 21
-106.67884533
 31
0.0
  0
ARC
  8
0
  6
CONTINUOUS
 62
       7
  5
1D2
 10
-74.72240034
 20
-92.67884531
 30
0.0
 40
15.0
 50
248.96053037
 51
291.03946963
  0
LINE
  8
0
  6
CONTINUOUS
 62
       2
  5
1D3
 10
-57.49158243
 20
-102.62706267
 30
0.0
 11
-48.92491297
 21
-107.57303159
 31
0.0
  0
LINE
  8
0
  6
CONTINUOUS
 62
       2
  5
1D4
 10
-111.25821592
 20
-24.77749701
 30
0.0
 11
-39.25221824
 21
-24.77749701
 31
0.0
  0
LINE
  8
0
  6
DASHED
 62
       7
  5
1D5
 10
-102.22240035
 20
-20.77749701
 30
0.0
 11
-94.22240034
 21
-20.77749701
 31
0.0
  0
LINE
  8
0
  6
DASHED
 62
       7
  5
1D6
 10
-102.22240035
 20
-28.77749701
 30
0.0
 11
-94.22240034
 21
-28.77749701
 31
0.0
  0
LINE
  8
0
  6
DASHED
 62
       2
  5
1D7
 10
-102.22240023
 20
-19.77749702
 30
0.0
 11
-94.22240047
 21
-20.05686317
 31
0.0
  0
LINE
  8
0
  6
DASHED
 62
       2
  5
1D8
 10
-102.22240023
 20
-29.77749701
 30
0.0
 11
-94.22240047
 21
-29.49813086
 31
0.0
  0
LINE
  8
0
  6
DASHED
 62
       2
  5
1D9
 10
-55.22240035
 20
-20.05686317
 30
0.0
 11
-47.22240035
 21
-19.77749701
 31
0.0
  0
LINE
  8
0
  6
DASHED
 62
       2
  5
1DA
 10
-55.22240035
 20
-29.49813085
 30
0.0
 11
-47.22240035
 21
-29.77749701
 31
0.0
  0
LINE
  8
0
  6
DASHED
 62
       7
  5
1DB
 10
-55.22240034
 20
-20.77749701
 30
0.0
 11
-47.22240035
 21
-20.77749701
 31
0.0
  0
LINE
  8
0
  6
DASHED
 62
       7
  5
1DC
 10
-55.22240034
 20
-28.77749701
 30
0.0
 11
-47.22240035
 21
-28.77749701
 31
0.0
  0
LINE
  8
0
  6
DASHED
 62
       7
  5
1DD
 10
-78.72240034
 20
85.72250299
 30
0.0
 11
-78.72240034
 21
93.72250299
 31
0.0
  0
LINE
  8
0
  6
DASHED
 62
       7
  5
1DE
 10
-70.72240034
 20
85.72250299
 30
0.0
 11
-70.72240034
 21
93.72250299
 31
0.0
  0
LINE
  8
0
  6
DASHED
 62
       2
  5
1DF
 10
-70.0017665
 20
85.72250297
 30
0.0
 11
-69.72240034
 21
93.72250297
 31
0.0
  0
LINE
  8
0
  6
DASHED
 62
       2
  5
1E0
 10
-79.44303418
 20
85.72250297
 30
0.0
 11
-79.72240034
 21
93.72250297
 31
0.0
  0
LINE
  8
0
  6
CONTINUOUS
 62
       7
  5
1E1
 10
-22.22240034
 20
19.22250299
 30
0.0
 11
-22.22240034
 21
67.22250299
 31
0.0
  0
LINE
  8
0
  6
CONTINUOUS
 62
       7
  5
1E2
 10
-90.71926944
 20
-35.77749703
 30
0.0
 11
-90.71926944
 21
-13.77749701
 31
0.0
  0
LINE
  8
0
  6
CONTINUOUS
 62
       7
  5
1E3
 10
-80.10756518
 20
-35.77749703
 30
0.0
 11
-80.10756518
 21
-13.77749701
 31
0.0
  0
LINE
  8
0
  6
CONTINUOUS
 62
       7
  5
1E4
 10
-69.3372355
 20
-35.77749703
 30
0.0
 11
-69.3372355
 21
-13.77749703
 31
0.0
  0
CIRCLE
  8
0
  6
CONTINUOUS
 62
       7
  5
1E5
 10
-8.72240034
 20
43.22250299
 30
0.0
 40
13.0
  0
LINE
  8
0
  6
CONTINUOUS
 62
       7
  5
1E6
 10
-27.92240034
 20
33.22250299
 30
0.0
 11
-27.92240034
 21
45.39650545
 31
0.0
  0
LINE
  8
0
  6
CONTINUOUS
 62
       7
  5
1E7
 10
-27.22240034
 20
33.22250299
 30
0.0
 11
-27.22240034
 21
52.22250299
 31
0.0
  0
LINE
  8
0
  6
CONTINUOUS
 62
       7
  5
1E8
 10
-25.72240034
 20
33.22250299
 30
0.0
 11
-25.72240034
 21
52.22250299
 31
0.0
  0
LINE
  8
0
  6
CONTINUOUS
 62
       7
  5
1E9
 10
-27.92240015
 20
45.39650553
 30
0.0
 11
-27.22240034
 21
46.60894078
 31
0.0
  0
LINE
  8
0
  6
CONTINUOUS
 62
       7
  5
1EA
 10
-23.26991887
 20
62.17709533
 30
0.0
 11
-23.67900978
 21
53.17709533
 31
0.0
  0
ARC
  8
0
  6
CONTINUOUS
 62
       7
  5
1EB
 10
-24.67797832
 20
53.22250299
 30
0.0
 40
1.0
 50
270.0
 51
357.3974378
  0
ARC
  8
0
  6
CONTINUOUS
 62
       7
  5
1EC
 10
-24.67364956
 20
32.22250299
 30
0.0
 40
1.0
 50
2.86240555
 51
90.0
  0
LINE
  8
0
  6
CONTINUOUS
 62
       7
  5
1ED
 10
-23.27489717
 20
24.27244061
 30
0.0
 11
-23.67489722
 21
32.27244061
 31
0.0
  0
LINE
  8
0
  6
CONTINUOUS
 62
       7
  5
1EE
 10
-31.2224004
 20
45.39650545
 30
0.0
 11
-27.22240029
 21
45.39650545
 31
0.0
  0
LINE
  8
0
  6
CONTINUOUS
 62
       7
  5
1EF
 10
3.77759966
 20
48.22250299
 30
0.0
 11
3.77759966
 21
71.72250299
 31
0.0
  0
ARC
  8
0
  6
CONTINUOUS
 62
       2
  5
1F0
 10
-74.72240034
 20
-92.67884533
 30
0.0
 40
25.0
 50
308.03333818
 51
340.30738987
  0
ARC
  8
0
  6
CONTINUOUS
 62
       7
  5
1F1
 10
-53.07176524
 20
-105.17884531
 30
0.0
 40
5.84936491
 50
194.85881594
 51
0.0
  0
LINE
  8
0
  6
CONTINUOUS
 62
       2
  5
1F2
 10
-74.72240034
 20
-117.03233622
 30
0.0
 11
-74.72240034
 21
-67.76784959
 31
0.0
  0
TEXT
  8
0
  6
CONTINUOUS
 62
       7
  5
1F3
 10
-185.65625
 20
115.3500061
 30
0.0
 40
4.5
  1
MODE:EP062E1-01
 41
1.125
  7
MX_NOTE_STANDARD
 11
-185.65625
 21
117.6000061
 31
0.0
 73
       2
  0
LINE
  8
0
  6
CONTINUOUS
 62
       7
  5
1F4
 10
-194.25
 20
132.6000061
 30
0.0
 11
194.80000305
 21
132.6000061
 31
0.0
  0
LINE
  8
0
  6
CONTINUOUS
 62
       7
  5
1F5
 10
194.80000305
 20
132.6000061
 30
0.0
 11
194.80000305
 21
-133.5
 31
0.0
  0
LINE
  8
0
  6
CONTINUOUS
 62
       7
  5
1F6
 10
-194.25
 20
132.6000061
 30
0.0
 11
-194.25
 21
-133.5
 31
0.0
  0
LINE
  8
0
  6
CONTINUOUS
 62
       7
  5
1F7
 10
-194.25
 20
-133.5
 30
0.0
 11
194.80000305
 21
-133.5
 31
0.0
  0
ENDSEC
  0
EOF
