  0
SECTION
  2
HEADER
  9
$ACADVER
  1
AC1012
  9
$DWGCODEPAGE
  3
dos932
  9
$INSBASE
 10
0.0
 20
0.0
 30
0.0
  9
$EXTMIN
 10
-194.25
 20
-133.5
 30
0.0
  9
$EXTMAX
 10
196.2723600854633
 20
132.60000610351562
 30
0.0
  9
$LIMMIN
 10
-194.25
 20
-133.5
  9
$LIMMAX
 10
196.2723600854633
 20
132.60000610351562
  9
$ORTHOMODE
 70
               0
  9
$REGENMODE
 70
               1
  9
$FILLMODE
 70
               1
  9
$QTEXTMODE
 70
               0
  9
$MIRRTEXT
 70
               1
  9
$DRAGMODE
 70
               2
  9
$LTSCALE
 40
1.0
  9
$OSMODE
 70
               0
  9
$ATTMODE
 70
               1
  9
$TEXTSIZE
 40
3.2000000476837158
  9
$TRACEWID
 40
0.05
  9
$TEXTSTYLE
  7
MX_NOTE_STANDARD
  9
$CLAYER
  8
0
  9
$CELTYPE
  6
CONTINUOUS
  9
$CECOLOR
 62
             256
  9
$CELTSCALE
 40
1.0
  9
$DELOBJ
 70
               1
  9
$DISPSILH
 70
               0
  9
$DIMSCALE
 40
1.0
  9
$DIMASZ
 40
2.5
  9
$DIMEXO
 40
1.5
  9
$DIMDLI
 40
3.75
  9
$DIMRND
 40
0.0
  9
$DIMDLE
 40
0.0
  9
$DIMEXE
 40
1.5
  9
$DIMTP
 40
0.0
  9
$DIMTM
 40
0.0
  9
$DIMTXT
 40
3.2000000476837158
  9
$DIMCEN
 40
2.5
  9
$DIMTSZ
 40
0.0
  9
$DIMTOL
 70
               0
  9
$DIMLIM
 70
               0
  9
$DIMTIH
 70
               0
  9
$DIMTOH
 70
               0
  9
$DIMSE1
 70
               0
  9
$DIMSE2
 70
               0
  9
$DIMTAD
 70
               1
  9
$DIMZIN
 70
               8
  9
$DIMBLK
  1

  9
$DIMASO
 70
               1
  9
$DIMSHO
 70
               1
  9
$DIMPOST
  1

  9
$DIMAPOST
  1

  9
$DIMALT
 70
               0
  9
$DIMALTD
 70
               4
  9
$DIMALTF
 40
0.03937007874016
  9
$DIMLFAC
 40
1.0
  9
$DIMTOFL
 70
               1
  9
$DIMTVP
 40
0.0
  9
$DIMTIX
 70
               0
  9
$DIMSOXD
 70
               0
  9
$DIMSAH
 70
               0
  9
$DIMBLK1
  1

  9
$DIMBLK2
  1

  9
$DIMSTYLE
  2
MXDIMSTYLE
  9
$DIMCLRD
 70
               0
  9
$DIMCLRE
 70
               0
  9
$DIMCLRT
 70
               0
  9
$DIMTFAC
 40
1.0
  9
$DIMGAP
 40
1.0
  9
$DIMJUST
 70
               0
  9
$DIMSD1
 70
               0
  9
$DIMSD2
 70
               0
  9
$DIMTOLJ
 70
               1
  9
$DIMTZIN
 70
               0
  9
$DIMALTZ
 70
               0
  9
$DIMALTTZ
 70
               0
  9
$DIMFIT
 70
               3
  9
$DIMUPT
 70
               1
  9
$DIMUNIT
 70
               2
  9
$DIMDEC
 70
               4
  9
$DIMTDEC
 70
               4
  9
$DIMALTU
 70
               2
  9
$DIMALTTD
 70
               4
  9
$DIMTXSTY
  7
MX_NOTE_STANDARD
  9
$DIMAUNIT
 70
               0
  9
$LUNITS
 70
               2
  9
$LUPREC
 70
               4
  9
$SKETCHINC
 40
0.1
  9
$FILLETRAD
 40
0.0
  9
$AUNITS
 70
               0
  9
$AUPREC
 70
               0
  9
$MENU
  1
acad
  9
$ELEVATION
 40
0.0
  9
$PELEVATION
 40
0.0
  9
$THICKNESS
 40
0.0
  9
$LIMCHECK
 70
               0
  9
$BLIPMODE
 70
               1
  9
$CHAMFERA
 40
0.0
  9
$CHAMFERB
 40
0.0
  9
$CHAMFERC
 40
0.0
  9
$CHAMFERD
 40
0.0
  9
$SKPOLY
 70
               0
  9
$TDCREATE
 40
2453378.356354167
  9
$TDUPDATE
 40
2453378.356354167
  9
$TDINDWG
 40
0.0000000000
  9
$TDUSRTIMER
 40
0.0000000000
  9
$USRTIMER
 70
               1
  9
$ANGBASE
 50
0.0
  9
$ANGDIR
 70
               0
  9
$PDMODE
 70
               0
  9
$PDSIZE
 40
0.0
  9
$PLINEWID
 40
0.0
  9
$COORDS
 70
               1
  9
$SPLFRAME
 70
               0
  9
$SPLINETYPE
 70
               6
  9
$SPLINESEGS
 70
               8
  9
$ATTDIA
 70
               0
  9
$ATTREQ
 70
               1
  9
$HANDLING
 70
               1
  9
$HANDSEED
  5
315
  9
$SURFTAB1
 70
               6
  9
$SURFTAB2
 70
               6
  9
$SURFTYPE
 70
               6
  9
$SURFU
 70
               6
  9
$SURFV
 70
               6
  9
$UCSNAME
  2

  9
$UCSORG
 10
0.0
 20
0.0
 30
0.0
  9
$UCSXDIR
 10
1.0
 20
0.0
 30
0.0
  9
$UCSYDIR
 10
0.0
 20
1.0
 30
0.0
  9
$PUCSNAME
  2

  9
$PUCSORG
 10
0.0
 20
0.0
 30
0.0
  9
$PUCSXDIR
 10
1.0
 20
0.0
 30
0.0
  9
$PUCSYDIR
 10
0.0
 20
1.0
 30
0.0
  9
$USERI1
 70
               0
  9
$USERI2
 70
               0
  9
$USERI3
 70
               0
  9
$USERI4
 70
               0
  9
$USERI5
 70
               0
  9
$USERR1
 40
0.0
  9
$USERR2
 40
0.0
  9
$USERR3
 40
0.0
  9
$USERR4
 40
0.0
  9
$USERR5
 40
0.0
  9
$WORLDVIEW
 70
               1
  9
$SHADEDGE
 70
               3
  9
$SHADEDIF
 70
              70
  9
$TILEMODE
 70
               1
  9
$MAXACTVP
 70
              16
  9
$PINSBASE
 10
0.0
 20
0.0
 30
0.0
  9
$PLIMCHECK
 70
               0
  9
$PEXTMIN
 10
1.0000000000000000E+20
 20
1.0000000000000000E+20
 30
1.0000000000000000E+20
  9
$PEXTMAX
 10
-1.0000000000000000E+20
 20
-1.0000000000000000E+20
 30
-1.0000000000000000E+20
  9
$PLIMMIN
 10
0.0
 20
0.0
  9
$PLIMMAX
 10
12.0
 20
9.0
  9
$UNITMODE
 70
               0
  9
$VISRETAIN
 70
               0
  9
$PLINEGEN
 70
               1
  9
$PSLTSCALE
 70
               0
  9
$TREEDEPTH
 70
            3020
  9
$PICKSTYLE
 70
               1
  9
$CMLSTYLE
  2
Standard
  9
$CMLJUST
 70
               0
  9
$CMLSCALE
 40
1.0
  9
$SAVEIMAGES
 70
               0
  0
ENDSEC
  0
SECTION
  2
CLASSES
  0
CLASS
  1
LWPOLYLINE
  2
AcDbPolyline
  3
"AutoCAD"
 90
        0
280
               0
281
               1
  0
CLASS
  1
IMAGE
  2
AcDbRasterImage
  3
ISM
 90
      127
280
               0
281
               1
  0
CLASS
  1
OLE2FRAME
  2
AcDbOle2Frame
  3
""
 90
        0
280
               0
281
               1
  0
CLASS
  1
HATCH
  2
AcDbHatch
  3
"ACAD_SEDONA"
 90
        0
280
               0
281
               1
  0
CLASS
  1
DICTIONARYVAR
  2
AcDbDictionaryVar
  3
"AutoCAD"
 90
        0
280
               0
281
               0
  0
CLASS
  1
RASTERVARIABLES
  2
AcDbRasterVariables
  3
ISM
 90
        0
280
               0
281
               0
  0
CLASS
  1
IMAGEDEF
  2
AcDbRasterImageDef
  3
ISM
 90
        0
280
               0
281
               0
  0
CLASS
  1
IMAGEDEF_REACTOR
  2
AcDbRasterImageDefReactor
  3
ISM
 90
        1
280
               0
281
               0
  0
CLASS
  1
IDBUFFER
  2
AcDbIdBuffer
  3
"Acad"
 90
        0
280
               0
281
               0
  0
CLASS
  1
SPATIAL_FILTER
  2
AcDbSpatialFilter
  3
"Acad"
 90
        0
280
               0
281
               0
  0
CLASS
  1
XRECORD
  2
AcDbXrecord
  3
"<Built In>"
 90
        0
280
               0
281
               0
  0
CLASS
  1
SORTENTSTABLE
  2
AcDbSortentsTable
  3
"AutoCAD"
 90
        0
280
               0
281
               0
  0
CLASS
  1
LAYER_INDEX
  2
AcDbLayerIndex
  3
"Acad"
 90
        0
280
               0
281
               0
  0
CLASS
  1
SPATIAL_INDEX
  2
AcDbSpatialIndex
  3
"Acad"
 90
        0
280
               0
281
               0
  0
CLASS
  1
OBJECT_PTR
  2
CAseDLPNTableRecord
  3
"ASE-LPNTableRecord"
 90
        1
280
               0
281
               0
  0
CLASS
  1
LAYOUT
  2
AcDbLayout
  3
"AutoCAD 2000"
 90
        1
280
               0
281
               0
  0
CLASS
  1
PLOTSETTINGS
  2
AcDbPlotSettings
  3
"AutoCAD 2000"
 90
        1
280
               0
281
               0
  0
CLASS
  1
ACDBDICTIONARYWDFLT
  2
AcDbDictionaryWithDefault
  3
"AutoCAD 2000"
 90
        1
280
               0
281
               0
  0
CLASS
  1
ACDBPLACEHOLDER
  2
AcDbPlaceHolder
  3
"AutoCAD 2000"
 90
        1
280
               0
281
               0
  0
ENDSEC
  0
SECTION
  2
TABLES
  0
TABLE
  2
VPORT
  5
7
100
AcDbSymbolTable
 70
               1
  0
VPORT
  5
15
100
AcDbSymbolTableRecord
100
AcDbViewportTableRecord
  2
*ACTIVE
 70
               0
 10
0.0
 20
0.0
 11
1.0
 21
1.0
 12
1.0111800427316666
 22
-0.4499969482421875
 13
0.0
 23
0.0
 14
1.0
 24
1.0
 15
0.0
 25
0.0
 16
0.0
 26
0.0
 36
1.0
 17
0.0
 27
0.0
 37
0.0
 40
268.76100616455079
 41
1.7320508075688772
 42
50.0
 43
0.0
 44
0.0
 50
0.0
 51
0.0
 71
               0
 72
             100
 73
               1
 74
               1
 75
               0
 76
               0
 77
               0
 78
               0
  0
ENDTAB
  0
TABLE
  2
LTYPE
  5
4
100
AcDbSymbolTable
 70
               6
  0
LTYPE
  5
11
100
AcDbSymbolTableRecord
100
AcDbLinetypeTableRecord
  2
BYBLOCK
 70
              64
  3

 72
              65
 73
               0
 40
0.0
  0
LTYPE
  5
12
100
AcDbSymbolTableRecord
100
AcDbLinetypeTableRecord
  2
BYLAYER
 70
              64
  3

 72
              65
 73
               0
 40
0.0
  0
LTYPE
  5
13
100
AcDbSymbolTableRecord
100
AcDbLinetypeTableRecord
  2
CONTINUOUS
 70
              64
  3
Solid line
 72
              65
 73
               0
 40
0.0
  0
LTYPE
  5
25
100
AcDbSymbolTableRecord
100
AcDbLinetypeTableRecord
  2
CENTER
 70
              64
  3
Center ____ _ ____ _ ____ _ ____ _ ____ _ ____
 72
              65
 73
               4
 40
26.0
 49
20.0
 74
               0
 49
-2.0
 74
               0
 49
2.0
 74
               0
 49
-2.0
 74
               0
  0
LTYPE
  5
5A
100
AcDbSymbolTableRecord
100
AcDbLinetypeTableRecord
  2
PHANTOM
 70
              64
  3
Phantom ______  __  __  ______  __  __  ______
 72
              65
 73
               6
 40
30.0
 49
20.0
 74
               0
 49
-2.0
 74
               0
 49
2.0
 74
               0
 49
-2.0
 74
               0
 49
2.0
 74
               0
 49
-2.0
 74
               0
  0
LTYPE
  5
F2
100
AcDbSymbolTableRecord
100
AcDbLinetypeTableRecord
  2
DASHED
 70
              64
  3
Dashed __ __ __ __ __ __ __ __ __ __ __ __ __ _
 72
              65
 73
               2
 40
4.0
 49
2.0
 74
               0
 49
-2.0
 74
               0
  0
ENDTAB
  0
TABLE
  2
LAYER
  5
2
100
AcDbSymbolTable
 70
               2
  0
LAYER
  5
14
100
AcDbSymbolTableRecord
100
AcDbLayerTableRecord
  2
0
 70
               0
 62
               7
  6
CONTINUOUS
  0
LAYER
  5
1D
100
AcDbSymbolTableRecord
100
AcDbLayerTableRecord
  2
DEFPOINTS
 70
               0
 62
               7
  6
CONTINUOUS
  0
ENDTAB
  0
TABLE
  2
STYLE
  5
3
100
AcDbSymbolTable
 70
               1
  0
STYLE
  5
17
100
AcDbSymbolTableRecord
100
AcDbTextStyleTableRecord
  2
MX_NOTE_STANDARD
 70
               0
 40
0.0
 41
1.0
 50
0.0
 71
               0
 42
3.2000000476837158
  3
txt.shx
  4
extfont.shx
  0
ENDTAB
  0
TABLE
  2
VIEW
  5
5
100
AcDbSymbolTable
 70
               0
  0
ENDTAB
  0
TABLE
  2
UCS
  5
6
100
AcDbSymbolTable
 70
               0
  0
ENDTAB
  0
TABLE
  2
APPID
  5
8
100
AcDbSymbolTable
 70
               1
  0
APPID
  5
16
100
AcDbSymbolTableRecord
100
AcDbRegAppTableRecord
  2
ACAD
 70
               0
  0
ENDTAB
  0
TABLE
  2
DIMSTYLE
  5
9
100
AcDbSymbolTable
 70
               1
  0
DIMSTYLE
105
18
100
AcDbSymbolTableRecord
100
AcDbDimStyleTableRecord
  2
MXDIMSTYLE
 70
               0
  3

  4

  5

  6

  7

 40
1.0
 41
2.5
 42
1.5
 43
3.75
 44
1.5
 45
0.0
 46
0.0
 47
0.0
 48
0.0
 71
               0
 72
               0
 73
               0
 74
               0
 75
               0
 76
               0
 77
               1
 78
               8
140
3.2000000476837158
141
2.5
142
0.0
143
0.03937007874016
144
1.0
145
0.0
146
1.0
147
1.0
170
               0
171
               4
172
               1
173
               0
174
               0
175
               0
176
               0
177
               0
178
               0
270
               2
271
               4
272
               4
273
               2
274
               4
275
               0
280
               0
281
               0
282
               0
283
               1
284
               0
285
               0
286
               0
287
               3
288
               1
340
17
  0
ENDTAB
  0
TABLE
  2
BLOCK_RECORD
  5
1
100
AcDbSymbolTable
 70
               6
  0
BLOCK_RECORD
  5
A
100
AcDbSymbolTableRecord
100
AcDbBlockTableRecord
  2
*MODEL_SPACE
  0
BLOCK_RECORD
  5
B
100
AcDbSymbolTableRecord
100
AcDbBlockTableRecord
  2
*PAPER_SPACE
  0
BLOCK_RECORD
  5
1E
100
AcDbSymbolTableRecord
100
AcDbBlockTableRecord
  2
EB10SF1-1
  0
BLOCK_RECORD
  5
1F
100
AcDbSymbolTableRecord
100
AcDbBlockTableRecord
  2
EB10SF1-2
  0
BLOCK_RECORD
  5
20
100
AcDbSymbolTableRecord
100
AcDbBlockTableRecord
  2
EB10SF1-3
  0
BLOCK_RECORD
  5
21
100
AcDbSymbolTableRecord
100
AcDbBlockTableRecord
  2
EB10SF1-4
  0
BLOCK_RECORD
  5
22
100
AcDbSymbolTableRecord
100
AcDbBlockTableRecord
  2
EB10SF1-5
  0
BLOCK_RECORD
  5
23
100
AcDbSymbolTableRecord
100
AcDbBlockTableRecord
  2
EB10SF1-6
  0
ENDTAB
  0
ENDSEC
  0
SECTION
  2
BLOCKS
  0
BLOCK
  5
D
100
AcDbEntity
  8
0
100
AcDbBlockBegin
  2
*MODEL_SPACE
 70
               0
 10
0.0
 20
0.0
 30
0.0
  3
*MODEL_SPACE
  1

  0
ENDBLK
  5
E
100
AcDbEntity
  8
0
100
AcDbBlockEnd
  0
BLOCK
  5
F
100
AcDbEntity
 67
               1
  8
0
100
AcDbBlockBegin
  2
*PAPER_SPACE
 70
               0
 10
0.0
 20
0.0
 30
0.0
  3
*PAPER_SPACE
  1

  0
ENDBLK
  5
10
100
AcDbEntity
 67
               1
  8
0
100
AcDbBlockEnd
  0
BLOCK
  5
24
100
AcDbEntity
  8
0
100
AcDbBlockBegin
  2
EB10SF1-1
 70
               0
 10
0.0
 20
0.0
 30
0.0
  3
EB10SF1-1
  1

  0
LINE
  5
26
100
AcDbEntity
  8
0
  6
CENTER
 62
               2
100
AcDbLine
 10
11.0
 20
64.569683056948364
 30
0.0
 11
11.0
 21
2.2438875818592123
 31
0.0
  0
LINE
  5
27
100
AcDbEntity
  8
0
  6
CONTINUOUS
 62
               4
100
AcDbLine
 10
11.999981689453136
 20
74.692929270933362
 30
0.0
 11
12.499981689453136
 21
74.692929270933362
 31
0.0
  0
LINE
  5
28
100
AcDbEntity
  8
0
  6
CONTINUOUS
 62
               4
100
AcDbLine
 10
9.4999816894531364
 20
74.692929270933362
 30
0.0
 11
9.9999816894531364
 21
74.692929270933362
 31
0.0
  0
ARC
  5
29
100
AcDbEntity
  8
0
  6
CONTINUOUS
 62
               4
100
AcDbCircle
 10
15.500296847864206
 20
36.699703152135797
 30
0.0
 40
0.4997032403068001
100
AcDbArc
 50
269.96596353714654
 51
0.0340364628527164
  0
LINE
  5
2A
100
AcDbEntity
  8
0
  6
CONTINUOUS
 62
               4
100
AcDbLine
 10
6.0
 20
36.200000000000003
 30
0.0
 11
16.0
 21
36.200000000000003
 31
0.0
  0
LINE
  5
2B
100
AcDbEntity
  8
0
  6
CONTINUOUS
 62
               4
100
AcDbLine
 10
16.0
 20
58.700000000000003
 30
0.0
 11
16.0
 21
36.200000000000003
 31
0.0
  0
LINE
  5
2C
100
AcDbEntity
  8
0
  6
CONTINUOUS
 62
               4
100
AcDbLine
 10
6.0000000290891649
 20
58.70000000426937
 30
0.0
 11
7.2499816894531364
 21
58.70000000426937
 31
0.0
  0
ARC
  5
2D
100
AcDbEntity
  8
0
  6
CONTINUOUS
 62
               4
100
AcDbCircle
 10
15.204095146658176
 20
58.100095150927544
 30
0.0
 40
0.5999048608870732
100
AcDbArc
 50
359.99091272245295
 51
90.009087277546172
  0
ARC
  5
2E
100
AcDbEntity
  8
0
  6
CONTINUOUS
 62
               4
100
AcDbCircle
 10
6.5
 20
58.100000004269347
 30
0.0
 40
0.5
100
AcDbArc
 50
89.999999999999815
 51
179.99999999999963
  0
LINE
  5
2F
100
AcDbEntity
  8
0
  6
CONTINUOUS
 62
               4
100
AcDbLine
 10
7.2499816894531364
 20
58.600000004269347
 30
0.0
 11
6.5
 21
58.600000004269347
 31
0.0
  0
LINE
  5
30
100
AcDbEntity
  8
0
  6
CONTINUOUS
 62
               4
100
AcDbLine
 10
16.0
 20
57.100000004269347
 30
0.0
 11
14.749981689453136
 21
57.100000004269347
 31
0.0
  0
LINE
  5
31
100
AcDbEntity
  8
0
  6
CONTINUOUS
 62
               4
100
AcDbLine
 10
16.0
 20
58.70000000426937
 30
0.0
 11
14.749981689453136
 21
58.70000000426937
 31
0.0
  0
LINE
  5
32
100
AcDbEntity
  8
0
  6
CONTINUOUS
 62
               4
100
AcDbLine
 10
16.0
 20
58.100000004269347
 30
0.0
 11
14.749981689453136
 21
58.100000004269347
 31
0.0
  0
LINE
  5
33
100
AcDbEntity
  8
0
  6
CONTINUOUS
 62
               4
100
AcDbLine
 10
6.0
 20
58.70000000426937
 30
0.0
 11
6.0
 21
36.200000000000003
 31
0.0
  0
LINE
  5
34
100
AcDbEntity
  8
0
  6
CONTINUOUS
 62
               4
100
AcDbLine
 10
5.9999816894531364
 20
55.699999999999889
 30
0.0
 11
6.4999816894531364
 21
55.699999999999889
 31
0.0
  0
LINE
  5
35
100
AcDbEntity
  8
0
  6
CONTINUOUS
 62
               4
100
AcDbLine
 10
6.4999816894531364
 20
55.699999999999889
 30
0.0
 11
8.2499816894531364
 21
55.699999999999889
 31
0.0
  0
LINE
  5
36
100
AcDbEntity
  8
0
  6
CONTINUOUS
 62
               4
100
AcDbLine
 10
15.769981689453118
 20
55.199999999999889
 30
0.0
 11
15.769981689453118
 21
38.891919190653837
 31
0.0
  0
LINE
  5
37
100
AcDbEntity
  8
0
  6
CONTINUOUS
 62
               4
100
AcDbLine
 10
6.2299816894530977
 20
55.199999999999889
 30
0.0
 11
6.2299816894530977
 21
38.891919190673136
 31
0.0
  0
LINE
  5
38
100
AcDbEntity
  8
0
  6
CONTINUOUS
 62
               4
100
AcDbLine
 10
6.7299816894530977
 20
38.391919190669412
 30
0.0
 11
15.269981689453118
 21
38.391919190669412
 31
0.0
  0
LINE
  5
39
100
AcDbEntity
  8
0
  6
CONTINUOUS
 62
               4
100
AcDbLine
 10
15.499981689453136
 20
55.699999999999889
 30
0.0
 11
15.999981689453136
 21
55.699999999999889
 31
0.0
  0
LINE
  5
3A
100
AcDbEntity
  8
0
  6
CONTINUOUS
 62
               4
100
AcDbLine
 10
8.2499816894531364
 20
47.699999999999889
 30
0.0
 11
13.749981689453136
 21
47.699999999999889
 31
0.0
  0
LINE
  5
3B
100
AcDbEntity
  8
0
  6
CONTINUOUS
 62
               4
100
AcDbLine
 10
13.749981689453136
 20
55.699999999999889
 30
0.0
 11
15.499981689453136
 21
55.699999999999889
 31
0.0
  0
LINE
  5
3C
100
AcDbEntity
  8
0
  6
CONTINUOUS
 62
               4
100
AcDbLine
 10
8.2499816894531364
 20
63.699999999999889
 30
0.0
 11
8.2499816894531364
 21
47.699999999999889
 31
0.0
  0
LINE
  5
3D
100
AcDbEntity
  8
0
  6
CONTINUOUS
 62
               4
100
AcDbLine
 10
7.2499816894531364
 20
63.699999999999889
 30
0.0
 11
7.2499816894531364
 21
55.699999999999889
 31
0.0
  0
LINE
  5
3E
100
AcDbEntity
  8
0
  6
CONTINUOUS
 62
               4
100
AcDbLine
 10
8.2499816894531364
 20
62.199999999999889
 30
0.0
 11
13.749981689453136
 21
62.199999999999889
 31
0.0
  0
LINE
  5
3F
100
AcDbEntity
  8
0
  6
CONTINUOUS
 62
               4
100
AcDbLine
 10
13.749981689453136
 20
63.699999999999889
 30
0.0
 11
13.749981689453136
 21
47.699999999999889
 31
0.0
  0
LINE
  5
40
100
AcDbEntity
  8
0
  6
CONTINUOUS
 62
               4
100
AcDbLine
 10
14.749981689453136
 20
63.699999999999889
 30
0.0
 11
14.749981689453136
 21
55.699999999999889
 31
0.0
  0
LINE
  5
41
100
AcDbEntity
  8
0
  6
CONTINUOUS
 62
               4
100
AcDbLine
 10
7.2499816894531364
 20
63.699999999999889
 30
0.0
 11
14.749981689453136
 21
63.699999999999889
 31
0.0
  0
ARC
  5
42
100
AcDbEntity
  8
0
  6
CONTINUOUS
 62
               4
100
AcDbCircle
 10
6.7311699733583623
 20
38.893107474574677
 30
0.0
 40
0.5011896925741138
100
AcDbArc
 50
180.13584420715239
 51
269.86415579284636
  0
ARC
  5
43
100
AcDbEntity
  8
0
  6
CONTINUOUS
 62
               4
100
AcDbCircle
 10
15.268778183341396
 20
38.893122696781163
 30
0.0
 40
0.5012049510586274
100
AcDbArc
 50
270.13758021931233
 51
359.86241978068648
  0
ARC
  5
44
100
AcDbEntity
  8
0
  6
CONTINUOUS
 62
               4
100
AcDbCircle
 10
15.269979247973879
 20
55.199997558520593
 30
0.0
 40
0.500002441485227
100
AcDbArc
 50
0.0002797715494944
 51
89.999720228450514
  0
ARC
  5
45
100
AcDbEntity
  8
0
  6
CONTINUOUS
 62
               4
100
AcDbCircle
 10
6.7299688721153643
 20
55.200012817337623
 30
0.0
 40
0.4999871828265524
100
AcDbArc
 50
89.998531203634272
 51
180.00146879636483
  0
ARC
  5
46
100
AcDbEntity
  8
0
  6
CONTINUOUS
 62
               4
100
AcDbCircle
 10
6.4999710083217224
 20
55.200010681131246
 30
0.0
 40
0.4999893189827007
100
AcDbArc
 50
89.998776006354774
 51
180.00122399364432
  0
ARC
  5
47
100
AcDbEntity
  8
0
  6
CONTINUOUS
 62
               4
100
AcDbCircle
 10
15.499977111702322
 20
55.199995422249074
 30
0.0
 40
0.5000045777717621
100
AcDbArc
 50
0.0005245667992071
 51
89.9994754332008
  0
ARC
  5
48
100
AcDbEntity
  8
0
  6
CONTINUOUS
 62
               4
100
AcDbCircle
 10
6.499977111930491
 20
36.699995422477244
 30
0.0
 40
0.4999954224983215
100
AcDbArc
 50
179.99947544974256
 51
270.00052455025656
  0
ARC
  5
49
100
AcDbEntity
  8
0
  6
CONTINUOUS
 62
               4
100
AcDbCircle
 10
15.499971008279829
 20
36.700010681173197
 30
0.0
 40
0.5000106812873828
100
AcDbArc
 50
270.00122394615329
 51
359.9987760538454
  0
LINE
  5
4A
100
AcDbEntity
  8
0
  6
CONTINUOUS
 62
               4
100
AcDbLine
 10
12.899981689453114
 20
71.192929272933341
 30
0.0
 11
12.899981689453114
 21
67.699999999999889
 31
0.0
  0
LINE
  5
4B
100
AcDbEntity
  8
0
  6
CONTINUOUS
 62
               4
100
AcDbLine
 10
11.599981689453102
 20
71.192929272933341
 30
0.0
 11
11.599981689453102
 21
68.049999999999912
 31
0.0
  0
LINE
  5
4C
100
AcDbEntity
  8
0
  6
CONTINUOUS
 62
               4
100
AcDbLine
 10
9.9999816894531364
 20
74.692929270933362
 30
0.0
 11
9.9999816894531364
 21
71.192929272933341
 31
0.0
  0
LINE
  5
4D
100
AcDbEntity
  8
0
  6
CONTINUOUS
 62
               4
100
AcDbLine
 10
9.4999816894531364
 20
74.692929270933362
 30
0.0
 11
9.4999816894531364
 21
71.192929272933341
 31
0.0
  0
LINE
  5
4E
100
AcDbEntity
  8
0
  6
CONTINUOUS
 62
               4
100
AcDbLine
 10
12.899981689453114
 20
66.66999999999986
 30
0.0
 11
12.899981689453114
 21
63.699999999999889
 31
0.0
  0
LINE
  5
4F
100
AcDbEntity
  8
0
  6
CONTINUOUS
 62
               4
100
AcDbLine
 10
11.599981689453102
 20
67.019999999999882
 30
0.0
 11
11.599981689453102
 21
63.699999999999889
 31
0.0
  0
LINE
  5
50
100
AcDbEntity
  8
0
  6
CONTINUOUS
 62
               4
100
AcDbLine
 10
9.0999816894531023
 20
67.689999999999898
 30
0.0
 11
9.0999816894531023
 21
63.699999999999889
 31
0.0
  0
LINE
  5
51
100
AcDbEntity
  8
0
  6
CONTINUOUS
 62
               4
100
AcDbLine
 10
10.399981689453114
 20
71.192929272933341
 30
0.0
 11
10.399981689453114
 21
68.369999999999905
 31
0.0
  0
LINE
  5
52
100
AcDbEntity
  8
0
  6
CONTINUOUS
 62
               4
100
AcDbLine
 10
9.0999816894531023
 20
71.192929272933341
 30
0.0
 11
9.0999816894531023
 21
68.719999999999871
 31
0.0
  0
LINE
  5
53
100
AcDbEntity
  8
0
  6
CONTINUOUS
 62
               4
100
AcDbLine
 10
12.499981689453136
 20
74.692929270933362
 30
0.0
 11
12.499981689453136
 21
71.192929272933341
 31
0.0
  0
LINE
  5
54
100
AcDbEntity
  8
0
  6
CONTINUOUS
 62
               4
100
AcDbLine
 10
11.999981689453136
 20
74.692929270933362
 30
0.0
 11
11.999981689453136
 21
71.192929272933341
 31
0.0
  0
LINE
  5
55
100
AcDbEntity
  8
0
  6
CONTINUOUS
 62
               4
100
AcDbLine
 10
10.399981689453114
 20
67.339999999999876
 30
0.0
 11
10.399981689453114
 21
63.699999999999889
 31
0.0
  0
LINE
  5
56
100
AcDbEntity
  8
0
  6
CONTINUOUS
 62
               4
100
AcDbLine
 10
9.0999816894531023
 20
71.192929272933341
 30
0.0
 11
10.399981689453114
 21
71.192929272933341
 31
0.0
  0
LINE
  5
57
100
AcDbEntity
  8
0
  6
CONTINUOUS
 62
             200
100
AcDbLine
 10
7.2499816894531364
 20
68.179999999999907
 30
0.0
 11
14.749981689453136
 21
66.16999999999986
 31
0.0
  0
LINE
  5
58
100
AcDbEntity
  8
0
  6
CONTINUOUS
 62
             200
100
AcDbLine
 10
7.2499816894531364
 20
69.219999999999871
 30
0.0
 11
14.749981689453136
 21
67.20999999999988
 31
0.0
  0
LINE
  5
59
100
AcDbEntity
  8
0
  6
CONTINUOUS
 62
               4
100
AcDbLine
 10
11.599981689453102
 20
71.192929272933341
 30
0.0
 11
12.899981689453114
 21
71.192929272933341
 31
0.0
  0
LINE
  5
5B
100
AcDbEntity
  8
0
  6
PHANTOM
 62
             200
100
AcDbLine
 10
12.499981689453136
 20
43.699999999999889
 30
0.0
 11
12.499981689453136
 21
41.699999999999889
 31
0.0
  0
LINE
  5
5C
100
AcDbEntity
  8
0
  6
PHANTOM
 62
             200
100
AcDbLine
 10
9.4999816894531364
 20
43.699999999999889
 30
0.0
 11
9.4999816894531364
 21
41.699999999999889
 31
0.0
  0
LINE
  5
5D
100
AcDbEntity
  8
0
  6
PHANTOM
 62
             200
100
AcDbLine
 10
9.4999816894531364
 20
41.699999999999889
 30
0.0
 11
12.499981689453136
 21
41.699999999999889
 31
0.0
  0
LINE
  5
5E
100
AcDbEntity
  8
0
  6
PHANTOM
 62
             200
100
AcDbLine
 10
9.4999816894531364
 20
43.699999999999889
 30
0.0
 11
12.499981689453136
 21
43.699999999999889
 31
0.0
  0
LINE
  5
5F
100
AcDbEntity
  8
0
  6
CENTER
 62
             200
100
AcDbLine
 10
1.75
 20
0.0
 30
0.0
 11
1.75
 21
1.2000000000000171
 31
0.0
  0
LINE
  5
60
100
AcDbEntity
  8
0
  6
CENTER
 62
             200
100
AcDbLine
 10
-1.75
 20
0.0
 30
0.0
 11
-1.75
 21
1.2000000000000171
 31
0.0
  0
LINE
  5
61
100
AcDbEntity
  8
0
  6
CENTER
 62
             200
100
AcDbLine
 10
23.75
 20
0.0
 30
0.0
 11
23.75
 21
1.2000000000000171
 31
0.0
  0
LINE
  5
62
100
AcDbEntity
  8
0
  6
CENTER
 62
             200
100
AcDbLine
 10
20.25
 20
0.0
 30
0.0
 11
20.25
 21
1.2000000000000171
 31
0.0
  0
LINE
  5
63
100
AcDbEntity
  8
0
  6
CENTER
 62
             200
100
AcDbLine
 10
22.0
 20
-2.4438717557984688
 30
0.0
 11
22.0
 21
3.8000000000000114
 31
0.0
  0
LINE
  5
64
100
AcDbEntity
  8
0
  6
CENTER
 62
             200
100
AcDbLine
 10
0.0
 20
-2.4438717557984688
 30
0.0
 11
0.0
 21
3.8000000000000114
 31
0.0
  0
LINE
  5
65
100
AcDbEntity
  8
0
  6
CONTINUOUS
 62
               4
100
AcDbLine
 10
-3.0
 20
1.2000000000000171
 30
0.0
 11
4.1000000000000227
 21
1.2000000000000171
 31
0.0
  0
LINE
  5
66
100
AcDbEntity
  8
0
  6
CONTINUOUS
 62
               4
100
AcDbLine
 10
-3.0
 20
0.0
 30
0.0
 11
4.1000000000000227
 21
0.0
 31
0.0
  0
LINE
  5
67
100
AcDbEntity
  8
0
  6
CONTINUOUS
 62
               4
100
AcDbLine
 10
-3.0
 20
0.0
 30
0.0
 11
-3.0
 21
1.2000000000000171
 31
0.0
  0
LINE
  5
68
100
AcDbEntity
  8
0
  6
CONTINUOUS
 62
               4
100
AcDbLine
 10
5.7000000000000171
 20
3.8000000000000114
 30
0.0
 11
16.300000000000011
 21
3.8000000000000114
 31
0.0
  0
LINE
  5
69
100
AcDbEntity
  8
0
  6
CONTINUOUS
 62
               4
100
AcDbLine
 10
5.5
 20
1.4000000000000057
 30
0.0
 11
5.5
 21
3.5999999999999943
 31
0.0
  0
LINE
  5
6A
100
AcDbEntity
  8
0
  6
CONTINUOUS
 62
               4
100
AcDbLine
 10
4.3000000000000114
 20
1.4000000000000057
 30
0.0
 11
4.3000000000000114
 21
3.5999999999999943
 31
0.0
  0
LINE
  5
6B
100
AcDbEntity
  8
0
  6
CONTINUOUS
 62
               4
100
AcDbLine
 10
5.9700000000000273
 20
3.2660000000000196
 30
0.0
 11
5.9700000000000273
 21
3.8000000000000114
 31
0.0
  0
LINE
  5
6C
100
AcDbEntity
  8
0
  6
CONTINUOUS
 62
               4
100
AcDbLine
 10
9.4300000000000068
 20
3.2660000000000196
 30
0.0
 11
9.4300000000000068
 21
3.8000000000000114
 31
0.0
  0
LINE
  5
6D
100
AcDbEntity
  8
0
  6
CONTINUOUS
 62
               4
100
AcDbLine
 10
12.569999999999993
 20
3.2660000000000196
 30
0.0
 11
12.569999999999993
 21
3.8000000000000114
 31
0.0
  0
LINE
  5
6E
100
AcDbEntity
  8
0
  6
CONTINUOUS
 62
               4
100
AcDbLine
 10
16.03000000000003
 20
3.2660000000000196
 30
0.0
 11
16.03000000000003
 21
3.8000000000000114
 31
0.0
  0
ARC
  5
6F
100
AcDbEntity
  8
0
  6
CONTINUOUS
 62
               4
100
AcDbCircle
 10
4.0999415866173763
 20
1.4000584133826521
 30
0.0
 40
0.2000584219104543
100
AcDbArc
 50
270.01672931490481
 51
359.98327068509366
  0
ARC
  5
70
100
AcDbEntity
  8
0
  6
CONTINUOUS
 62
               4
100
AcDbCircle
 10
16.299115528302707
 20
3.5991155283026899
 30
0.0
 40
0.2008864188024893
100
AcDbArc
 50
0.2522652321918488
 51
89.747734767807131
  0
ARC
  5
71
100
AcDbEntity
  8
0
  6
CONTINUOUS
 62
               4
100
AcDbCircle
 10
5.6999333589326397
 20
3.6000666410673716
 30
0.0
 40
0.1999333700389205
100
AcDbArc
 50
89.980902377767208
 51
180.01909762223218
  0
ARC
  5
72
100
AcDbEntity
  8
0
  6
CONTINUOUS
 62
               4
100
AcDbCircle
 10
4.099943315390135
 20
1.4000566846098934
 30
0.0
 40
1.4000566857574084
100
AcDbArc
 50
270.00231975529556
 51
359.99768024470291
  0
ARC
  5
73
100
AcDbEntity
  8
0
  6
CONTINUOUS
 62
               4
100
AcDbCircle
 10
7.6990000000000123
 20
7.1068760989089697
 30
0.0
 40
4.6140039015894576
100
AcDbArc
 50
253.80344035273558
 51
286.19655964726314
  0
ARC
  5
74
100
AcDbEntity
  8
0
  6
CONTINUOUS
 62
               4
100
AcDbCircle
 10
6.5838413187467495
 20
3.265298072688239
 30
0.0
 40
0.613841720073419
100
AcDbArc
 50
179.93448232673219
 51
253.74313632481389
  0
ARC
  5
75
100
AcDbEntity
  8
0
  6
CONTINUOUS
 62
               4
100
AcDbCircle
 10
8.8152220268359258
 20
3.2665820679404476
 30
0.0
 40
0.6147782487131708
100
AcDbArc
 50
286.12822533946951
 51
359.94575273046883
  0
ARC
  5
76
100
AcDbEntity
  8
0
  6
CONTINUOUS
 62
               4
100
AcDbCircle
 10
14.299000000000035
 20
7.1068760988772226
 30
0.0
 40
4.6140039015589682
100
AcDbArc
 50
253.80344035262561
 51
286.19655964737319
  0
ARC
  5
77
100
AcDbEntity
  8
0
  6
CONTINUOUS
 62
               4
100
AcDbCircle
 10
13.183839364596452
 20
3.2652966087315747
 30
0.0
 40
0.6138397676001843
100
AcDbArc
 50
179.93434547259068
 51
253.74327317895529
  0
ARC
  5
78
100
AcDbEntity
  8
0
  6
CONTINUOUS
 62
               4
100
AcDbCircle
 10
15.415220075966602
 20
3.2665835360522806
 30
0.0
 40
0.6147802009733803
100
AcDbArc
 50
286.12836199114588
 51
359.94561607879228
  0
LINE
  5
79
100
AcDbEntity
  8
0
  6
CONTINUOUS
 62
               4
100
AcDbLine
 10
25.0
 20
0.0
 30
0.0
 11
25.0
 21
1.2000000000000171
 31
0.0
  0
LINE
  5
7A
100
AcDbEntity
  8
0
  6
CONTINUOUS
 62
               4
100
AcDbLine
 10
17.900000000000034
 20
1.2000000000000171
 30
0.0
 11
25.0
 21
1.2000000000000171
 31
0.0
  0
LINE
  5
7B
100
AcDbEntity
  8
0
  6
CONTINUOUS
 62
               4
100
AcDbLine
 10
17.900000000000034
 20
0.0
 30
0.0
 11
25.0
 21
0.0
 31
0.0
  0
ARC
  5
7C
100
AcDbEntity
  8
0
  6
CONTINUOUS
 62
               4
100
AcDbCircle
 10
17.899103340046224
 20
1.3991033400461959
 30
0.0
 40
0.1991053590856348
100
AcDbArc
 50
179.74197075907335
 51
270.25802924092562
  0
ARC
  5
7D
100
AcDbEntity
  8
0
  6
CONTINUOUS
 62
               4
100
AcDbCircle
 10
17.899103333594837
 20
1.3991033335948089
 30
0.0
 40
1.3991036209254675
100
AcDbArc
 50
179.96327991479848
 51
270.03672008520033
  0
LINE
  5
7E
100
AcDbEntity
  8
0
  6
CONTINUOUS
 62
               4
100
AcDbLine
 10
17.699999999999989
 20
1.4000000000000057
 30
0.0
 11
17.699999999999989
 21
3.5999999999999943
 31
0.0
  0
LINE
  5
7F
100
AcDbEntity
  8
0
  6
CONTINUOUS
 62
               4
100
AcDbLine
 10
16.5
 20
1.4000000000000057
 30
0.0
 11
16.5
 21
3.5999999999999943
 31
0.0
  0
ARC
  5
80
100
AcDbEntity
  8
0
  6
CONTINUOUS
 62
               4
100
AcDbCircle
 10
5.6999316768315111
 20
3.6000683231685287
 30
0.0
 40
1.3999316784987346
100
AcDbArc
 50
89.997203699822904
 51
180.00279630017653
  0
ARC
  5
81
100
AcDbEntity
  8
0
  6
CONTINUOUS
 62
               4
100
AcDbCircle
 10
16.299115537943862
 20
3.5991155379438453
 30
0.0
 40
1.4008847412629901
100
AcDbArc
 50
0.0361742439122946
 51
89.963825756087459
  0
LINE
  5
82
100
AcDbEntity
  8
0
  6
CONTINUOUS
 62
               4
100
AcDbLine
 10
16.300000000000011
 20
5.0
 30
0.0
 11
5.7000000000000171
 21
5.0
 31
0.0
  0
LINE
  5
83
100
AcDbEntity
  8
0
  6
CONTINUOUS
 62
               4
100
AcDbLine
 10
22.0
 20
0.0
 30
0.0
 11
22.0
 21
1.2000000000000171
 31
0.0
  0
LINE
  5
84
100
AcDbEntity
  8
0
  6
CONTINUOUS
 62
               4
100
AcDbLine
 10
0.0
 20
0.0
 30
0.0
 11
0.0
 21
1.2000000000000171
 31
0.0
  0
LINE
  5
85
100
AcDbEntity
  8
0
  6
CONTINUOUS
 62
               7
100
AcDbLine
 10
16.0
 20
36.200000000000003
 30
0.0
 11
6.0
 21
36.200000000000003
 31
0.0
  0
LINE
  5
86
100
AcDbEntity
  8
0
  6
CONTINUOUS
 62
               7
100
AcDbLine
 10
6.0
 20
24.5
 30
0.0
 11
6.0
 21
36.200000000000003
 31
0.0
  0
LINE
  5
87
100
AcDbEntity
  8
0
  6
CONTINUOUS
 62
               7
100
AcDbLine
 10
16.0
 20
24.5
 30
0.0
 11
16.0
 21
36.200000000000003
 31
0.0
  0
LINE
  5
88
100
AcDbEntity
  8
0
  6
CONTINUOUS
 62
               7
100
AcDbLine
 10
9.0
 20
32.200000000000003
 30
0.0
 11
9.0
 21
36.200000000000003
 31
0.0
  0
LINE
  5
89
100
AcDbEntity
  8
0
  6
CONTINUOUS
 62
               7
100
AcDbLine
 10
13.0
 20
32.200000000000003
 30
0.0
 11
13.0
 21
36.200000000000003
 31
0.0
  0
ARC
  5
8A
100
AcDbEntity
  8
0
  6
CONTINUOUS
 62
               7
100
AcDbCircle
 10
11.0
 20
32.200000000000003
 30
0.0
 40
2.0
100
AcDbArc
 50
179.99999999999963
 51
0.0
  0
LINE
  5
8B
100
AcDbEntity
  8
0
  6
CENTER
 62
               2
100
AcDbLine
 10
12.700000000000017
 20
33.899999999999991
 30
0.0
 11
9.3000000000000114
 21
33.899999999999991
 31
0.0
  0
CIRCLE
  5
8C
100
AcDbEntity
  8
0
  6
CONTINUOUS
 62
               7
100
AcDbCircle
 10
11.0
 20
33.899999999999991
 30
0.0
 40
1.3000000000000012
  0
CIRCLE
  5
8D
100
AcDbEntity
  8
0
  6
CONTINUOUS
 62
               7
100
AcDbCircle
 10
11.0
 20
33.899999999999991
 30
0.0
 40
1.1500000000000001
  0
CIRCLE
  5
8E
100
AcDbEntity
  8
0
  6
CONTINUOUS
 62
               7
100
AcDbCircle
 10
11.0
 20
33.899999999999991
 30
0.0
 40
1.1000000000000001
  0
CIRCLE
  5
8F
100
AcDbEntity
  8
0
  6
CONTINUOUS
 62
               7
100
AcDbCircle
 10
11.0
 20
33.899999999999991
 30
0.0
 40
0.75
  0
ARC
  5
90
100
AcDbEntity
  8
0
  6
CONTINUOUS
 62
               7
100
AcDbCircle
 10
6.5905539681090772
 20
6.2682512686530458
 30
0.0
 40
0.6105564724372721
100
AcDbArc
 50
179.83589550320582
 51
253.77907243150949
  0
LINE
  5
91
100
AcDbEntity
  8
0
  6
CONTINUOUS
 62
               7
100
AcDbLine
 10
15.800000000000011
 20
5.0
 30
0.0
 11
6.2000000000000171
 21
5.0
 31
0.0
  0
LINE
  5
92
100
AcDbEntity
  8
0
  6
CONTINUOUS
 62
               7
100
AcDbLine
 10
5.9800000000000182
 20
6.7999999999999829
 30
0.0
 11
9.5
 21
6.7999999999999829
 31
0.0
  0
ARC
  5
93
100
AcDbEntity
  8
0
  6
CONTINUOUS
 62
               7
100
AcDbCircle
 10
6.2991048631411388
 20
7.0991048631410933
 30
0.0
 40
0.2991062025847394
100
AcDbArc
 50
179.82853033398985
 51
270.17146966600922
  0
ARC
  5
94
100
AcDbEntity
  8
0
  6
CONTINUOUS
 62
               7
100
AcDbCircle
 10
6.2000000000000171
 20
5.1999999999999886
 30
0.0
 40
0.2
100
AcDbArc
 50
179.99999999999963
 51
269.99999999999937
  0
LINE
  5
95
100
AcDbEntity
  8
0
  6
CONTINUOUS
 62
               7
100
AcDbLine
 10
9.5
 20
5.0
 30
0.0
 11
9.5
 21
6.7999999999999829
 31
0.0
  0
ARC
  5
96
100
AcDbEntity
  8
0
  6
CONTINUOUS
 62
               7
100
AcDbCircle
 10
7.7000000000000171
 20
10.087421236733945
 30
0.0
 40
4.5876068132596712
100
AcDbArc
 50
253.79871892415684
 51
286.20128107584191
  0
ARC
  5
97
100
AcDbEntity
  8
0
  6
CONTINUOUS
 62
               7
100
AcDbCircle
 10
8.8082280041660965
 20
6.2691627179709712
 30
0.0
 40
0.6117725687931934
100
AcDbArc
 50
286.30661609184898
 51
0.0784159734340139
  0
LINE
  5
98
100
AcDbEntity
  8
0
  6
CONTINUOUS
 62
               7
100
AcDbLine
 10
9.4200000000000159
 20
6.2700000000000102
 30
0.0
 11
9.4200000000000159
 21
6.7999999999999829
 31
0.0
  0
LINE
  5
99
100
AcDbEntity
  8
0
  6
CONTINUOUS
 62
               7
100
AcDbLine
 10
6.0
 20
5.1999999999999886
 30
0.0
 11
6.0
 21
6.1132505693459507
 31
0.0
  0
LINE
  5
9A
100
AcDbEntity
  8
0
  6
CONTINUOUS
 62
               7
100
AcDbLine
 10
5.9800000000000182
 20
6.2700000000000102
 30
0.0
 11
5.9800000000000182
 21
6.7999999999999829
 31
0.0
  0
ARC
  5
9B
100
AcDbEntity
  8
0
  6
CONTINUOUS
 62
               7
100
AcDbCircle
 10
15.800000000000011
 20
5.1999999999999886
 30
0.0
 40
0.2
100
AcDbArc
 50
269.99999999999937
 51
0.0
  0
LINE
  5
9C
100
AcDbEntity
  8
0
  6
CONTINUOUS
 62
               7
100
AcDbLine
 10
14.700000000000017
 20
12.699999999999989
 30
0.0
 11
16.0
 21
12.699999999999989
 31
0.0
  0
LINE
  5
9D
100
AcDbEntity
  8
0
  6
CONTINUOUS
 62
               7
100
AcDbLine
 10
14.700000000000017
 20
15.899999999999977
 30
0.0
 11
16.0
 21
15.899999999999977
 31
0.0
  0
LINE
  5
9E
100
AcDbEntity
  8
0
  6
CONTINUOUS
 62
               7
100
AcDbLine
 10
7.3000000000000114
 20
21.799999999999983
 30
0.0
 11
6.0
 21
21.799999999999983
 31
0.0
  0
LINE
  5
9F
100
AcDbEntity
  8
0
  6
CONTINUOUS
 62
               7
100
AcDbLine
 10
7.3000000000000114
 20
18.599999999999994
 30
0.0
 11
6.0
 21
18.599999999999994
 31
0.0
  0
LINE
  5
A0
100
AcDbEntity
  8
0
  6
CONTINUOUS
 62
               7
100
AcDbLine
 10
16.000000006382493
 20
10.0
 30
0.0
 11
6.0000000063824928
 21
10.0
 31
0.0
  0
LINE
  5
A1
100
AcDbEntity
  8
0
  6
CENTER
 62
               2
100
AcDbLine
 10
16.560577971874096
 20
14.299999999999983
 30
0.0
 11
12.282054828561172
 21
14.299999999999983
 31
0.0
  0
ARC
  5
A2
100
AcDbEntity
  8
0
  6
CONTINUOUS
 62
               7
100
AcDbCircle
 10
14.700000000000017
 20
14.299999999999983
 30
0.0
 40
1.6000000000000001
100
AcDbArc
 50
89.999999999999815
 51
269.99999999999937
  0
ARC
  5
A3
100
AcDbEntity
  8
0
  6
CONTINUOUS
 62
               7
100
AcDbCircle
 10
7.3000000000000114
 20
20.199999999999989
 30
0.0
 40
1.6000000000000001
100
AcDbArc
 50
269.99999999999937
 51
89.999999999999801
  0
CIRCLE
  5
A4
100
AcDbEntity
  8
0
  6
CONTINUOUS
 62
               7
100
AcDbCircle
 10
14.700000000000017
 20
14.299999999999983
 30
0.0
 40
1.075
  0
CIRCLE
  5
A5
100
AcDbEntity
  8
0
  6
CONTINUOUS
 62
               7
100
AcDbCircle
 10
7.3000000000000114
 20
20.199999999999989
 30
0.0
 40
1.075
  0
LINE
  5
A6
100
AcDbEntity
  8
0
  6
CENTER
 62
               2
100
AcDbLine
 10
9.4781662840152308
 20
20.199999999999989
 30
0.0
 11
4.8222827114486222
 21
20.199999999999989
 31
0.0
  0
LINE
  5
A7
100
AcDbEntity
  8
0
  6
CENTER
 62
               2
100
AcDbLine
 10
14.700000000000017
 20
11.991725194902557
 30
0.0
 11
14.700000000000017
 21
16.651939608336619
 31
0.0
  0
LINE
  5
A8
100
AcDbEntity
  8
0
  6
CENTER
 62
               2
100
AcDbLine
 10
7.3000000000000114
 20
17.606854984051068
 30
0.0
 11
7.3000000000000114
 21
22.656448283146972
 31
0.0
  0
LINE
  5
A9
100
AcDbEntity
  8
0
  6
CONTINUOUS
 62
               7
100
AcDbLine
 10
16.0
 20
24.5
 30
0.0
 11
6.0
 21
24.5
 31
0.0
  0
LINE
  5
AA
100
AcDbEntity
  8
0
  6
CONTINUOUS
 62
               7
100
AcDbLine
 10
6.0
 20
6.7999999999999829
 30
0.0
 11
6.0
 21
24.500000000494481
 31
0.0
  0
LINE
  5
AB
100
AcDbEntity
  8
0
  6
CONTINUOUS
 62
               7
100
AcDbLine
 10
16.0
 20
5.1999999999999886
 30
0.0
 11
16.0
 21
24.5
 31
0.0
  0
LINE
  5
AC
100
AcDbEntity
  8
0
  6
CENTER
 62
               2
100
AcDbLine
 10
15.0
 20
18.599999999999994
 30
0.0
 11
11.0
 21
18.599999999999994
 31
0.0
  0
LINE
  5
AD
100
AcDbEntity
  8
0
  6
CENTER
 62
               2
100
AcDbLine
 10
13.0
 20
16.599999999999994
 30
0.0
 11
13.0
 21
20.599999999999994
 31
0.0
  0
CIRCLE
  5
AE
100
AcDbEntity
  8
0
  6
CONTINUOUS
 62
               2
100
AcDbCircle
 10
13.0
 20
18.599999999999994
 30
0.0
 40
1.5
  0
CIRCLE
  5
AF
100
AcDbEntity
  8
0
  6
CONTINUOUS
 62
               7
100
AcDbCircle
 10
13.0
 20
18.599999999999994
 30
0.0
 40
1.25
  0
ARC
  5
B0
100
AcDbEntity
  8
0
  6
CONTINUOUS
 62
               7
100
AcDbCircle
 10
11.0
 20
32.200000000000003
 30
0.0
 40
3.1000000000000001
100
AcDbArc
 50
179.99999999999963
 51
0.0
  0
LINE
  5
B1
100
AcDbEntity
  8
0
  6
CONTINUOUS
 62
               7
100
AcDbLine
 10
14.099999999999994
 20
32.200000000000003
 30
0.0
 11
14.099999999999994
 21
36.200000000000003
 31
0.0
  0
LINE
  5
B2
100
AcDbEntity
  8
0
  6
CONTINUOUS
 62
               7
100
AcDbLine
 10
7.9000000000000057
 20
32.200000000000003
 30
0.0
 11
7.9000000000000057
 21
36.200000000000003
 31
0.0
  0
ENDBLK
  5
B3
100
AcDbEntity
  8
0
100
AcDbBlockEnd
  0
BLOCK
  5
B4
100
AcDbEntity
  8
0
100
AcDbBlockBegin
  2
EB10SF1-2
 70
               0
 10
0.0
 20
0.0
 30
0.0
  3
EB10SF1-2
  1

  0
LINE
  5
B5
100
AcDbEntity
  8
0
  6
CONTINUOUS
 62
               4
100
AcDbLine
 10
12.253535479107654
 20
74.694949488666552
 30
0.0
 11
12.748484973774339
 21
74.694949488666552
 31
0.0
  0
LINE
  5
B6
100
AcDbEntity
  8
0
  6
CONTINUOUS
 62
               4
100
AcDbLine
 10
7.000000132574371
 20
36.199999999999974
 30
0.0
 11
7.000000132574371
 21
58.099999994932247
 31
0.0
  0
LINE
  5
B7
100
AcDbEntity
  8
0
  6
CONTINUOUS
 62
               4
100
AcDbLine
 10
-6.999999867425629
 20
58.09999999999998
 30
0.0
 11
-6.999999867425629
 21
36.199999999999974
 31
0.0
  0
LINE
  5
B8
100
AcDbEntity
  8
0
  6
CONTINUOUS
 62
               4
100
AcDbLine
 10
-6.999999867425629
 20
36.199999999999974
 30
0.0
 11
10.005050631907693
 21
36.199999999999974
 31
0.0
  0
LINE
  5
B9
100
AcDbEntity
  8
0
  6
CONTINUOUS
 62
               4
100
AcDbLine
 10
-4.2999998674256403
 20
58.700000000000003
 30
0.0
 11
-4.2999998674256403
 21
58.100000000000037
 31
0.0
  0
LINE
  5
BA
100
AcDbEntity
  8
0
  6
CONTINUOUS
 62
               4
100
AcDbLine
 10
-4.2999998674256403
 20
58.100000000000037
 30
0.0
 11
-6.9999998634256144
 21
58.100000000000037
 31
0.0
  0
LINE
  5
BB
100
AcDbEntity
  8
0
  6
CONTINUOUS
 62
               4
100
AcDbLine
 10
6.5000001285743565
 20
58.600000000000037
 30
0.0
 11
5.0000001325744279
 21
58.600000000000037
 31
0.0
  0
LINE
  5
BC
100
AcDbEntity
  8
0
  6
CONTINUOUS
 62
               4
100
AcDbLine
 10
6.200000042574402
 20
58.700000000000003
 30
0.0
 11
-6.1999997774256599
 21
58.700000000000003
 31
0.0
  0
ARC
  5
BD
100
AcDbEntity
  8
0
  6
CONTINUOUS
 62
               4
100
AcDbCircle
 10
6.2000951892230205
 20
58.100095146648655
 30
0.0
 40
0.5999048008965869
100
AcDbArc
 50
56.247417870393882
 51
90.009087277546172
  0
ARC
  5
BE
100
AcDbEntity
  8
0
  6
CONTINUOUS
 62
               4
100
AcDbCircle
 10
-6.2010877825538273
 20
58.101088005128204
 30
0.0
 40
0.5989129231257409
100
AcDbArc
 50
89.895914524772735
 51
180.10408547522667
  0
ARC
  5
BF
100
AcDbEntity
  8
0
  6
CONTINUOUS
 62
               4
100
AcDbCircle
 10
-6.4999998634256144
 20
58.100000000000037
 30
0.0
 40
0.5
100
AcDbArc
 50
93.919585899650798
 51
179.99999999999963
  0
ARC
  5
C0
100
AcDbEntity
  8
0
  6
CONTINUOUS
 62
               4
100
AcDbCircle
 10
6.5000001285743565
 20
58.100000000000037
 30
0.0
 40
0.5
100
AcDbArc
 50
0.0
 51
89.999999999999815
  0
LINE
  5
C1
100
AcDbEntity
  8
0
  6
CONTINUOUS
 62
               4
100
AcDbLine
 10
5.0000001325744279
 20
58.700000000000003
 30
0.0
 11
5.0000001325744279
 21
57.100000000000037
 31
0.0
  0
LINE
  5
C2
100
AcDbEntity
  8
0
  6
CONTINUOUS
 62
               4
100
AcDbLine
 10
5.0000001325744279
 20
57.100000000000037
 30
0.0
 11
-6.9999998634256144
 21
57.100000000000037
 31
0.0
  0
LINE
  5
C3
100
AcDbEntity
  8
0
  6
CONTINUOUS
 62
               4
100
AcDbLine
 10
7.0000001285743565
 20
55.693939382800025
 30
0.0
 11
14.502020326307729
 21
55.693939382800025
 31
0.0
  0
LINE
  5
C4
100
AcDbEntity
  8
0
  6
CONTINUOUS
 62
               4
100
AcDbLine
 10
15.00404052804106
 20
55.19898988813334
 30
0.0
 11
15.00404052804106
 21
38.844444442933238
 31
0.0
  0
LINE
  5
C5
100
AcDbEntity
  8
0
  6
CONTINUOUS
 62
               4
100
AcDbLine
 10
10.005050631907693
 20
36.199999999999889
 30
0.0
 11
14.714141538307672
 21
38.391919190666627
 31
0.0
  0
LINE
  5
C6
100
AcDbEntity
  8
0
  6
CONTINUOUS
 62
               4
100
AcDbLine
 10
10.005050631907693
 20
63.699999999999861
 30
0.0
 11
14.098990023507668
 21
63.699999999999861
 31
0.0
  0
LINE
  5
C7
100
AcDbEntity
  8
0
  6
CONTINUOUS
 62
               4
100
AcDbLine
 10
11.603030428974307
 20
63.699999999999861
 30
0.0
 11
11.603030428974307
 21
55.696969692399918
 31
0.0
  0
LINE
  5
C8
100
AcDbEntity
  8
0
  6
CONTINUOUS
 62
               4
100
AcDbLine
 10
13.398990023907686
 20
63.699999999999861
 30
0.0
 11
13.398990023907686
 21
55.696969692399918
 31
0.0
  0
LINE
  5
C9
100
AcDbEntity
  8
0
  6
CONTINUOUS
 62
               4
100
AcDbLine
 10
16.997979920840976
 20
63.699999999999861
 30
0.0
 11
16.997979920840976
 21
62.202020193733219
 31
0.0
  0
LINE
  5
CA
100
AcDbEntity
  8
0
  6
CONTINUOUS
 62
               4
100
AcDbLine
 10
16.100000123374343
 20
57.096969691599881
 30
0.0
 11
16.997979920840976
 21
62.202020193733219
 31
0.0
  0
LINE
  5
CB
100
AcDbEntity
  8
0
  6
CONTINUOUS
 62
               4
100
AcDbLine
 10
16.001010224441075
 20
63.699999999999861
 30
0.0
 11
16.001010224441075
 21
62.286868678533196
 31
0.0
  0
LINE
  5
CC
100
AcDbEntity
  8
0
  6
CONTINUOUS
 62
               4
100
AcDbLine
 10
16.001010224441075
 20
63.699999999999861
 30
0.0
 11
16.997979920840976
 21
63.699999999999861
 31
0.0
  0
LINE
  5
CD
100
AcDbEntity
  8
0
  6
CONTINUOUS
 62
               4
100
AcDbLine
 10
14.897979922041031
 20
56.029292924533237
 30
0.0
 11
16.015151638574366
 21
62.37171716333323
 31
0.0
  0
LINE
  5
CE
100
AcDbEntity
  8
0
  6
CONTINUOUS
 62
               4
100
AcDbLine
 10
15.103030426974328
 20
54.699999995999903
 30
0.0
 11
15.103030426974328
 21
49.001010100266555
 31
0.0
  0
LINE
  5
CF
100
AcDbEntity
  8
0
  6
CONTINUOUS
 62
               4
100
AcDbLine
 10
14.098990023507668
 20
63.699999999999861
 30
0.0
 11
14.098990023507668
 21
56.099999995199923
 31
0.0
  0
LINE
  5
D0
100
AcDbEntity
  8
0
  6
CONTINUOUS
 62
               4
100
AcDbLine
 10
14.403030427374347
 20
63.395959596133181
 30
0.0
 11
14.403030427374347
 21
57.499999994399886
 31
0.0
  0
LINE
  5
D1
100
AcDbEntity
  8
0
  6
CONTINUOUS
 62
               4
100
AcDbLine
 10
14.098990023507668
 20
63.699999999999861
 30
0.0
 11
14.403030427374347
 21
63.395959596133181
 31
0.0
  0
LINE
  5
D2
100
AcDbEntity
  8
0
  6
CONTINUOUS
 62
               4
100
AcDbLine
 10
10.005050631907693
 20
62.696969688399903
 30
0.0
 11
10.500000126574378
 21
62.696969688399903
 31
0.0
  0
LINE
  5
D3
100
AcDbEntity
  8
0
  6
CONTINUOUS
 62
               4
100
AcDbLine
 10
10.005050631907693
 20
57.697979792266537
 30
0.0
 11
10.500000126574378
 21
57.697979792266537
 31
0.0
  0
LINE
  5
D4
100
AcDbEntity
  8
0
  6
CONTINUOUS
 62
               4
100
AcDbLine
 10
14.098990023507668
 20
57.195959590533263
 30
0.0
 11
14.403030427374347
 21
57.499999994399886
 31
0.0
  0
LINE
  5
D5
100
AcDbEntity
  8
0
  6
CONTINUOUS
 62
               4
100
AcDbLine
 10
16.100000123374343
 20
57.096969691599881
 30
0.0
 11
16.100000123374343
 21
47.996969696799894
 31
0.0
  0
LINE
  5
D6
100
AcDbEntity
  8
0
  6
CONTINUOUS
 62
               4
100
AcDbLine
 10
15.103030426974328
 20
47.699999999999861
 30
0.0
 11
15.80303042657431
 21
47.699999999999861
 31
0.0
  0
LINE
  5
D7
100
AcDbEntity
  8
0
  6
CONTINUOUS
 62
               4
100
AcDbLine
 10
15.00404052804106
 20
49.001010100266555
 30
0.0
 11
15.103030426974328
 21
49.001010100266555
 31
0.0
  0
LINE
  5
D8
100
AcDbEntity
  8
0
  6
CONTINUOUS
 62
               4
100
AcDbLine
 10
15.00404052804106
 20
47.798989898933186
 30
0.0
 11
15.103030426974328
 21
47.699999999999861
 31
0.0
  0
LINE
  5
D9
100
AcDbEntity
  8
0
  6
CONTINUOUS
 62
               4
100
AcDbLine
 10
11.850505176307706
 20
68.267676765066525
 30
0.0
 11
11.850505176307706
 21
63.699999999999861
 31
0.0
  0
LINE
  5
DA
100
AcDbEntity
  8
0
  6
CONTINUOUS
 62
               4
100
AcDbLine
 10
13.151515276574401
 20
71.194949490666531
 30
0.0
 11
13.151515276574401
 21
67.864646462266521
 31
0.0
  0
LINE
  5
DB
100
AcDbEntity
  8
0
  6
CONTINUOUS
 62
               4
100
AcDbLine
 10
11.850505176307706
 20
71.194949490666531
 30
0.0
 11
11.850505176307706
 21
68.614141411333193
 31
0.0
  0
LINE
  5
DC
100
AcDbEntity
  8
0
  6
CONTINUOUS
 62
               4
100
AcDbLine
 10
11.850505176307706
 20
71.194949490666531
 30
0.0
 11
13.151515276574401
 21
71.194949490666531
 31
0.0
  0
LINE
  5
DD
100
AcDbEntity
  8
0
  6
CONTINUOUS
 62
               4
100
AcDbLine
 10
12.253535479107654
 20
74.694949488666552
 30
0.0
 11
12.253535479107654
 21
71.194949490666531
 31
0.0
  0
LINE
  5
DE
100
AcDbEntity
  8
0
  6
CONTINUOUS
 62
               4
100
AcDbLine
 10
12.748484973774339
 20
74.694949488666552
 30
0.0
 11
12.748484973774339
 21
71.194949490666531
 31
0.0
  0
LINE
  5
DF
100
AcDbEntity
  8
0
  6
CONTINUOUS
 62
             200
100
AcDbLine
 10
14.000000124574399
 20
67.369696967599893
 30
0.0
 11
11.002020328307708
 21
69.102020198933175
 31
0.0
  0
LINE
  5
E0
100
AcDbEntity
  8
0
  6
CONTINUOUS
 62
             200
100
AcDbLine
 10
14.000000124574399
 20
67.023232321333225
 30
0.0
 11
11.002020328307708
 21
68.755555552666564
 31
0.0
  0
LINE
  5
E1
100
AcDbEntity
  8
0
  6
CONTINUOUS
 62
               4
100
AcDbLine
 10
13.151515276574401
 20
67.518181815999853
 30
0.0
 11
13.151515276574401
 21
63.699999999999861
 31
0.0
  0
LINE
  5
E2
100
AcDbEntity
  8
0
  6
CONTINUOUS
 62
               4
100
AcDbLine
 10
10.005050631907693
 20
63.699999999999861
 30
0.0
 11
10.005050631907693
 21
62.696969688399903
 31
0.0
  0
LINE
  5
E3
100
AcDbEntity
  8
0
  6
CONTINUOUS
 62
               4
100
AcDbLine
 10
10.005050631907693
 20
57.697979792266537
 30
0.0
 11
10.005050631907693
 21
55.696969692399918
 31
0.0
  0
LINE
  5
E4
100
AcDbEntity
  8
0
  6
CONTINUOUS
 62
               4
100
AcDbLine
 10
10.500000126574378
 20
62.696969688399903
 30
0.0
 11
10.500000126574378
 21
57.697979792266537
 31
0.0
  0
LINE
  5
E5
100
AcDbEntity
  8
0
  6
CONTINUOUS
 62
               4
100
AcDbLine
 10
10.005050631907693
 20
36.199999999999889
 30
0.0
 11
10.005050631907693
 21
55.693939382800025
 31
0.0
  0
ARC
  5
E6
100
AcDbEntity
  8
0
  6
CONTINUOUS
 62
               4
100
AcDbCircle
 10
14.498033190143474
 20
38.849484497491645
 30
0.0
 40
0.5060324378497572
100
AcDbArc
 50
295.28139190005214
 51
359.42932783011406
  0
ARC
  5
E7
100
AcDbEntity
  8
0
  6
CONTINUOUS
 62
               4
100
AcDbCircle
 10
14.50383425185305
 20
55.193708514783637
 30
0.0
 40
0.5002341568128574
100
AcDbArc
 50
0.6049287534634878
 51
90.207763713153867
  0
ARC
  5
E8
100
AcDbEntity
  8
0
  6
CONTINUOUS
 62
               4
100
AcDbCircle
 10
15.797896250666213
 20
48.002103872708105
 30
0.0
 40
0.3021474965435785
100
AcDbArc
 50
270.97363298451126
 51
359.02636701548732
  0
ARC
  5
E9
100
AcDbEntity
  8
0
  6
CONTINUOUS
 62
               4
100
AcDbCircle
 10
14.599987073441184
 20
54.697302043044417
 30
0.0
 40
0.5030505883944908
100
AcDbArc
 50
0.3072892911898554
 51
36.562608354652731
  0
ARC
  5
EA
100
AcDbEntity
  8
0
  6
CONTINUOUS
 62
               4
100
AcDbCircle
 10
14.50192125527235
 20
56.103476452093602
 30
0.0
 40
0.4029462287748787
100
AcDbArc
 50
180.49433091715488
 51
349.39117201772478
  0
LINE
  5
EB
100
AcDbEntity
  8
0
  6
CONTINUOUS
 62
               4
100
AcDbLine
 10
-7.0
 20
0.0000000512718543
 30
0.0
 11
-6.9999999816886174
 21
5.0000000256359272
 31
0.0
  0
LINE
  5
EC
100
AcDbEntity
  8
0
  6
CONTINUOUS
 62
               4
100
AcDbLine
 10
7.0
 20
0.0
 30
0.0
 11
7.0000000183113755
 21
4.9999999743640728
 31
0.0
  0
LINE
  5
ED
100
AcDbEntity
  8
0
  6
CONTINUOUS
 62
               4
100
AcDbLine
 10
-6.9999999963549868
 20
1.2000000256359442
 30
0.0
 11
7.0000000036450061
 21
1.1999999743640899
 31
0.0
  0
LINE
  5
EE
100
AcDbEntity
  8
0
  6
CONTINUOUS
 62
               4
100
AcDbLine
 10
-6.9999999868330747
 20
3.8000000256359385
 30
0.0
 11
7.0000000131669253
 21
3.7999999743640842
 31
0.0
  0
LINE
  5
EF
100
AcDbEntity
  8
0
  6
CONTINUOUS
 62
               4
100
AcDbLine
 10
-6.9999999824383536
 20
5.0000000256359272
 30
0.0
 11
7.0000000175616535
 21
4.9999999743640728
 31
0.0
  0
LINE
  5
F0
100
AcDbEntity
  8
0
  6
CONTINUOUS
 62
               4
100
AcDbLine
 10
-7.0000000007497221
 20
0.0000000256359272
 30
0.0
 11
7.0
 21
-0.0000000256359272
 31
0.0
  0
LINE
  5
F1
100
AcDbEntity
  8
0
  6
CENTER
 62
               2
100
AcDbLine
 10
0.0000002265578161
 20
61.862585161280521
 30
0.0
 11
-0.000000008968442
 21
-2.4488717557984785
 31
0.0
  0
ARC
  5
F3
100
AcDbEntity
  8
0
  6
DASHED
 62
             200
100
AcDbCircle
 10
-18.499999929318093
 20
19.300000067752052
 30
0.0
 40
0.5
100
AcDbArc
 50
179.99999979016664
 51
269.99999979016644
  0
ARC
  5
F4
100
AcDbEntity
  8
0
  6
DASHED
 62
             200
100
AcDbCircle
 10
-18.499999911006711
 20
24.30000006775208
 30
0.0
 40
0.5
100
AcDbArc
 50
89.999999790166896
 51
179.9999997901667
  0
LINE
  5
F5
100
AcDbEntity
  8
0
  6
DASHED
 62
             200
100
AcDbLine
 10
-18.999999929318093
 20
19.300000069583177
 30
0.0
 11
-18.999999911006711
 21
24.300000069583206
 31
0.0
  0
LINE
  5
F6
100
AcDbEntity
  8
0
  6
DASHED
 62
             200
100
AcDbLine
 10
-16.499999931149219
 20
18.800000060427493
 30
0.0
 11
-16.499999909175571
 21
24.800000060427521
 31
0.0
  0
LINE
  5
F7
100
AcDbEntity
  8
0
  6
DASHED
 62
             200
100
AcDbLine
 10
-18.499999931149219
 20
18.800000067752052
 30
0.0
 11
-18.499999909175571
 21
24.80000006775208
 31
0.0
  0
LINE
  5
F8
100
AcDbEntity
  8
0
  6
DASHED
 62
             200
100
AcDbLine
 10
-6.9999999311492331
 20
18.800000025635882
 30
0.0
 11
-18.499999931149219
 21
18.800000067752052
 31
0.0
  0
LINE
  5
F9
100
AcDbEntity
  8
0
  6
DASHED
 62
             200
100
AcDbLine
 10
-6.9999999091755711
 20
24.80000002563591
 30
0.0
 11
-18.499999909175571
 21
24.80000006775208
 31
0.0
  0
LINE
  5
FA
100
AcDbEntity
  8
0
  6
CENTER
 62
               2
100
AcDbLine
 10
-6.1241533448633021
 20
21.800000022428321
 30
0.0
 11
-20.405930987652354
 21
21.800000074732111
 31
0.0
  0
LINE
  5
FB
100
AcDbEntity
  8
0
  6
CONTINUOUS
 62
               2
100
AcDbLine
 10
-7.2719999156504684
 20
23.032000026632076
 30
0.0
 11
-6.9999999156504771
 21
23.032000025635938
 31
0.0
  0
LINE
  5
FC
100
AcDbEntity
  8
0
  6
CONTINUOUS
 62
               7
100
AcDbLine
 10
-7.2719999156504684
 20
23.032000026632076
 30
0.0
 11
-6.9999999146689902
 21
23.300000025635939
 31
0.0
  0
LINE
  5
FD
100
AcDbEntity
  8
0
  6
CONTINUOUS
 62
               2
100
AcDbLine
 10
-7.2719999246596672
 20
20.572000026632068
 30
0.0
 11
-6.9999999246596758
 21
20.57200002563593
 31
0.0
  0
LINE
  5
FE
100
AcDbEntity
  8
0
  6
CONTINUOUS
 62
               7
100
AcDbLine
 10
-7.2719999246596672
 20
20.572000026632068
 30
0.0
 11
-6.9999999256558141
 21
20.300000025635939
 31
0.0
  0
LINE
  5
FF
100
AcDbEntity
  8
0
  6
CONTINUOUS
 62
               7
100
AcDbLine
 10
-7.2719999246596672
 20
20.572000026632068
 30
0.0
 11
-7.2719999156504684
 21
23.032000026632076
 31
0.0
  0
ARC
  5
100
100
AcDbEntity
  8
0
  6
CONTINUOUS
 62
               7
100
AcDbCircle
 10
5.2800000369428872
 20
10.087421217397221
 30
0.0
 40
4.5876068132596712
100
AcDbArc
 50
253.79871871432394
 51
286.20128086600903
  0
ARC
  5
101
100
AcDbEntity
  8
0
  6
CONTINUOUS
 62
               7
100
AcDbCircle
 10
4.1717720187933196
 20
6.2691627026929098
 30
0.0
 40
0.6117725687931934
100
AcDbArc
 50
179.92158381673266
 51
253.69338369831684
  0
LINE
  5
102
100
AcDbEntity
  8
0
  6
CONTINUOUS
 62
               7
100
AcDbLine
 10
3.5600000229624698
 20
6.2699999869623895
 30
0.0
 11
3.5600000249034736
 21
6.7999999869623622
 31
0.0
  0
ARC
  5
103
100
AcDbEntity
  8
0
  6
CONTINUOUS
 62
               7
100
AcDbCircle
 10
6.3894460548469993
 20
6.2682512452531967
 30
0.0
 40
0.6105564724372721
100
AcDbArc
 50
286.22092735865721
 51
0.1641042869608735
  0
LINE
  5
104
100
AcDbEntity
  8
0
  6
CONTINUOUS
 62
               7
100
AcDbLine
 10
7.0000000249034713
 20
6.7999999743641411
 30
0.0
 11
3.4800000249034895
 21
6.7999999872553474
 31
0.0
  0
ARC
  5
105
100
AcDbEntity
  8
0
  6
CONTINUOUS
 62
               7
100
AcDbCircle
 10
6.6808951628577802
 20
7.0991048386738953
 30
0.0
 40
0.2991062025847394
100
AcDbArc
 50
269.82853012415757
 51
0.1714694561768531
  0
LINE
  5
106
100
AcDbEntity
  8
0
  6
CONTINUOUS
 62
               7
100
AcDbLine
 10
3.4800000183113937
 20
4.9999999872552792
 30
0.0
 11
3.4800000249034895
 21
6.7999999872553474
 31
0.0
  0
LINE
  5
107
100
AcDbEntity
  8
0
  6
CONTINUOUS
 62
               7
100
AcDbLine
 10
7.0000001065722088
 20
29.099999974364081
 30
0.0
 11
8.1000001106007034
 21
30.199999970335568
 31
0.0
  0
LINE
  5
108
100
AcDbEntity
  8
0
  6
CONTINUOUS
 62
               7
100
AcDbLine
 10
7.0000001325743639
 20
36.199999974364047
 30
0.0
 11
7.0000000897257451
 21
24.499999974364073
 31
0.0
  0
LINE
  5
109
100
AcDbEntity
  8
0
  6
CONTINUOUS
 62
               7
100
AcDbLine
 10
-6.9999998674256432
 20
36.200000025635902
 30
0.0
 11
-6.9999999102742549
 21
24.500000025635927
 31
0.0
  0
LINE
  5
10A
100
AcDbEntity
  8
0
  6
CONTINUOUS
 62
               7
100
AcDbLine
 10
8.5480001201226301
 20
32.799999968694863
 30
0.0
 11
8.5480001281796305
 21
34.999999968694851
 31
0.0
  0
LINE
  5
10B
100
AcDbEntity
  8
0
  6
CONTINUOUS
 62
               7
100
AcDbLine
 10
8.5480001281796305
 20
34.999999968694851
 30
0.0
 11
8.100000128179623
 21
34.999999970335551
 31
0.0
  0
LINE
  5
10C
100
AcDbEntity
  8
0
  6
CONTINUOUS
 62
               7
100
AcDbLine
 10
8.5480001201226301
 20
32.799999968694863
 30
0.0
 11
8.1000001201226226
 21
32.799999970335563
 31
0.0
  0
LINE
  5
10D
100
AcDbEntity
  8
0
  6
CONTINUOUS
 62
               7
100
AcDbLine
 10
8.1000001106007034
 20
30.199999970335568
 30
0.0
 11
8.1000001325743511
 21
36.19999997033554
 31
0.0
  0
ARC
  5
10E
100
AcDbEntity
  8
0
  6
CONTINUOUS
 62
               7
100
AcDbCircle
 10
-6.6009733472538983
 20
5.399026657147985
 30
0.0
 40
0.3990278201647513
100
AcDbArc
 50
179.86023540524448
 51
270.13976417508883
  0
LINE
  5
10F
100
AcDbEntity
  8
0
  6
CONTINUOUS
 62
               7
100
AcDbLine
 10
-6.5999999816886117
 20
5.0000000241710154
 30
0.0
 11
6.6000000183113698
 21
4.9999999758289846
 31
0.0
  0
ARC
  5
110
100
AcDbEntity
  8
0
  6
CONTINUOUS
 62
               7
100
AcDbCircle
 10
6.6009733867993461
 20
5.3990266087987919
 30
0.0
 40
0.3990278201647513
100
AcDbArc
 50
269.86023540524423
 51
0.1397641750894585
  0
LINE
  5
111
100
AcDbEntity
  8
0
  6
CONTINUOUS
 62
               7
100
AcDbLine
 10
-6.9999999633772489
 20
10.000000025635927
 30
0.0
 11
7.0000000231046471
 21
9.9999999743640728
 31
0.0
  0
LINE
  5
112
100
AcDbEntity
  8
0
  6
CONTINUOUS
 62
               7
100
AcDbLine
 10
-6.9999999102742549
 20
24.500000025635927
 30
0.0
 11
7.0000000762076411
 21
24.499999974364073
 31
0.0
  0
LINE
  5
113
100
AcDbEntity
  8
0
  6
CONTINUOUS
 62
               7
100
AcDbLine
 10
7.0000000897257451
 20
24.499999974364073
 30
0.0
 11
7.0000000197762873
 21
5.3999999743641069
 31
0.0
  0
LINE
  5
114
100
AcDbEntity
  8
0
  6
CENTER
 62
               2
100
AcDbLine
 10
2.4168739598955966
 20
21.499999991148741
 30
0.0
 11
5.0848777980730588
 21
21.499999981377783
 31
0.0
  0
LINE
  5
115
100
AcDbEntity
  8
0
  6
CENTER
 62
               2
100
AcDbLine
 10
2.4168739287662504
 20
12.999999991148741
 30
0.0
 11
5.0848777669437197
 21
12.999999981377783
 31
0.0
  0
LINE
  5
116
100
AcDbEntity
  8
0
  6
CENTER
 62
               2
100
AcDbLine
 10
3.7500000525958512
 20
14.361523871097589
 30
0.0
 11
3.7500000425608064
 21
11.621411821077473
 31
0.0
  0
CIRCLE
  5
117
100
AcDbEntity
  8
0
  6
CONTINUOUS
 62
               7
100
AcDbCircle
 10
3.7500000476095749
 20
12.999999986266474
 30
0.0
 40
1.05
  0
CIRCLE
  5
118
100
AcDbEntity
  8
0
  6
CONTINUOUS
 62
               7
100
AcDbCircle
 10
3.7500000787389141
 20
21.499999986266459
 30
0.0
 40
1.05
  0
LINE
  5
119
100
AcDbEntity
  8
0
  6
CENTER
 62
               2
100
AcDbLine
 10
3.7500000840213872
 20
22.942401080371127
 30
0.0
 11
3.7500000734581818
 21
20.058072606665718
 31
0.0
  0
LINE
  5
11A
100
AcDbEntity
  8
0
  6
CONTINUOUS
 62
               7
100
AcDbLine
 10
-6.9999999802237198
 20
5.4000000256359328
 30
0.0
 11
-6.9999999102742549
 21
24.500000025635927
 31
0.0
  0
LINE
  5
11B
100
AcDbEntity
  8
0
  6
CONTINUOUS
 62
               7
100
AcDbLine
 10
6.0000000790878758
 20
21.799999978026335
 30
0.0
 11
7.0000000798375979
 21
21.799999974364056
 31
0.0
  0
LINE
  5
11C
100
AcDbEntity
  8
0
  6
CONTINUOUS
 62
               7
100
AcDbLine
 10
6.000000067368596
 20
18.599999978026347
 30
0.0
 11
7.0000000681183181
 21
18.599999974364067
 31
0.0
  0
LINE
  5
11D
100
AcDbEntity
  8
0
  6
CONTINUOUS
 62
               7
100
AcDbLine
 10
6.0000000790878758
 20
21.799999978026335
 30
0.0
 11
6.000000067368596
 21
18.599999978026347
 31
0.0
  0
ENDBLK
  5
11E
100
AcDbEntity
  8
0
100
AcDbBlockEnd
  0
BLOCK
  5
11F
100
AcDbEntity
  8
0
100
AcDbBlockBegin
  2
EB10SF1-3
 70
               0
 10
0.0
 20
0.0
 30
0.0
  3
EB10SF1-3
  1

  0
LINE
  5
120
100
AcDbEntity
  8
0
  6
CONTINUOUS
 62
               4
100
AcDbLine
 10
-7.2500183105468636
 20
62.696969688399932
 30
0.0
 11
-14.750018310546864
 21
62.696969688399932
 31
0.0
  0
LINE
  5
121
100
AcDbEntity
  8
0
  6
CONTINUOUS
 62
               4
100
AcDbLine
 10
-14.750018310546864
 20
63.699999995730522
 30
0.0
 11
-14.750018310546864
 21
58.700000000000003
 31
0.0
  0
LINE
  5
122
100
AcDbEntity
  8
0
  6
CONTINUOUS
 62
               4
100
AcDbLine
 10
-14.750018310546864
 20
63.699999995730522
 30
0.0
 11
-7.2500183105468636
 21
63.699999995730522
 31
0.0
  0
LINE
  5
123
100
AcDbEntity
  8
0
  6
CONTINUOUS
 62
               4
100
AcDbLine
 10
-7.2500183105468636
 20
63.699999995730522
 30
0.0
 11
-7.2500183105468636
 21
58.600000000000037
 31
0.0
  0
LINE
  5
124
100
AcDbEntity
  8
0
  6
CONTINUOUS
 62
               4
100
AcDbLine
 10
-9.1000183105468864
 20
66.669999995730493
 30
0.0
 11
-9.1000183105468864
 21
63.699999995730522
 31
0.0
  0
LINE
  5
125
100
AcDbEntity
  8
0
  6
CONTINUOUS
 62
               4
100
AcDbLine
 10
-10.400018310546898
 20
67.019999995730515
 30
0.0
 11
-10.400018310546898
 21
63.699999995730522
 31
0.0
  0
LINE
  5
126
100
AcDbEntity
  8
0
  6
CONTINUOUS
 62
               4
100
AcDbLine
 10
-10.400018310546898
 20
71.192929268663974
 30
0.0
 11
-9.1000183105468864
 21
71.192929268663974
 31
0.0
  0
LINE
  5
127
100
AcDbEntity
  8
0
  6
CONTINUOUS
 62
             200
100
AcDbLine
 10
-14.750018310546864
 20
69.219999995730504
 30
0.0
 11
-7.2500183105468636
 21
67.209999995730513
 31
0.0
  0
LINE
  5
128
100
AcDbEntity
  8
0
  6
CONTINUOUS
 62
               4
100
AcDbLine
 10
-12.900018310546898
 20
71.192929268663974
 30
0.0
 11
-11.600018310546886
 21
71.192929268663974
 31
0.0
  0
LINE
  5
129
100
AcDbEntity
  8
0
  6
CONTINUOUS
 62
               4
100
AcDbLine
 10
-10.000018310546864
 20
74.692929266663995
 30
0.0
 11
-10.000018310546864
 21
71.192929268663974
 31
0.0
  0
LINE
  5
12A
100
AcDbEntity
  8
0
  6
CONTINUOUS
 62
               4
100
AcDbLine
 10
-9.5000183105468636
 20
74.692929266663995
 30
0.0
 11
-9.5000183105468636
 21
71.192929268663974
 31
0.0
  0
LINE
  5
12B
100
AcDbEntity
  8
0
  6
CONTINUOUS
 62
               4
100
AcDbLine
 10
-12.900018310546898
 20
71.192929268663974
 30
0.0
 11
-12.900018310546898
 21
68.719999995730504
 31
0.0
  0
LINE
  5
12C
100
AcDbEntity
  8
0
  6
CONTINUOUS
 62
               4
100
AcDbLine
 10
-11.600018310546886
 20
71.192929268663974
 30
0.0
 11
-11.600018310546886
 21
68.369999995730538
 31
0.0
  0
LINE
  5
12D
100
AcDbEntity
  8
0
  6
CONTINUOUS
 62
               4
100
AcDbLine
 10
-12.500018310546864
 20
74.692929266663995
 30
0.0
 11
-12.500018310546864
 21
71.192929268663974
 31
0.0
  0
LINE
  5
12E
100
AcDbEntity
  8
0
  6
CONTINUOUS
 62
               4
100
AcDbLine
 10
-12.000018310546864
 20
74.692929266663995
 30
0.0
 11
-12.000018310546864
 21
71.192929268663974
 31
0.0
  0
LINE
  5
12F
100
AcDbEntity
  8
0
  6
CONTINUOUS
 62
               4
100
AcDbLine
 10
-10.400018310546898
 20
71.192929268663974
 30
0.0
 11
-10.400018310546898
 21
68.049999995730545
 31
0.0
  0
LINE
  5
130
100
AcDbEntity
  8
0
  6
CONTINUOUS
 62
               4
100
AcDbLine
 10
-9.1000183105468864
 20
71.192929268663974
 30
0.0
 11
-9.1000183105468864
 21
67.699999995730522
 31
0.0
  0
LINE
  5
131
100
AcDbEntity
  8
0
  6
CONTINUOUS
 62
               4
100
AcDbLine
 10
-12.500018310546864
 20
74.692929266663995
 30
0.0
 11
-12.000018310546864
 21
74.692929266663995
 31
0.0
  0
LINE
  5
132
100
AcDbEntity
  8
0
  6
CONTINUOUS
 62
               4
100
AcDbLine
 10
-10.000018310546864
 20
74.692929266663995
 30
0.0
 11
-9.5000183105468636
 21
74.692929266663995
 31
0.0
  0
LINE
  5
133
100
AcDbEntity
  8
0
  6
CONTINUOUS
 62
               4
100
AcDbLine
 10
-12.900018310546898
 20
67.689999995730531
 30
0.0
 11
-12.900018310546898
 21
63.699999995730522
 31
0.0
  0
LINE
  5
134
100
AcDbEntity
  8
0
  6
CONTINUOUS
 62
               4
100
AcDbLine
 10
-11.600018310546886
 20
67.339999995730508
 30
0.0
 11
-11.600018310546886
 21
63.699999995730522
 31
0.0
  0
LINE
  5
135
100
AcDbEntity
  8
0
  6
CONTINUOUS
 62
             200
100
AcDbLine
 10
-14.750018310546864
 20
68.17999999573054
 30
0.0
 11
-7.2500183105468636
 21
66.169999995730493
 31
0.0
  0
LINE
  5
136
100
AcDbEntity
  8
0
  6
DASHED
 62
             200
100
AcDbLine
 10
-20.25
 20
0.0
 30
0.0
 11
-20.25
 21
1.2000000000000171
 31
0.0
  0
LINE
  5
137
100
AcDbEntity
  8
0
  6
DASHED
 62
             200
100
AcDbLine
 10
-23.75
 20
0.0
 30
0.0
 11
-23.75
 21
1.2000000000000171
 31
0.0
  0
LINE
  5
138
100
AcDbEntity
  8
0
  6
DASHED
 62
             200
100
AcDbLine
 10
1.75
 20
0.0
 30
0.0
 11
1.75
 21
1.2000000000000171
 31
0.0
  0
LINE
  5
139
100
AcDbEntity
  8
0
  6
DASHED
 62
             200
100
AcDbLine
 10
-1.75
 20
0.0
 30
0.0
 11
-1.75
 21
1.2000000000000171
 31
0.0
  0
LINE
  5
13A
100
AcDbEntity
  8
0
  6
CONTINUOUS
 62
               4
100
AcDbLine
 10
-5.6999999999999886
 20
5.0
 30
0.0
 11
-16.299999999999955
 21
5.0
 31
0.0
  0
LINE
  5
13B
100
AcDbEntity
  8
0
  6
CONTINUOUS
 62
               4
100
AcDbLine
 10
-22.0
 20
0.0
 30
0.0
 11
-22.0
 21
1.2000000000000171
 31
0.0
  0
LINE
  5
13C
100
AcDbEntity
  8
0
  6
CONTINUOUS
 62
               4
100
AcDbLine
 10
0.0
 20
0.0
 30
0.0
 11
0.0
 21
1.2000000000000171
 31
0.0
  0
LINE
  5
13D
100
AcDbEntity
  8
0
  6
CONTINUOUS
 62
               4
100
AcDbLine
 10
-5.5
 20
1.4000000000000057
 30
0.0
 11
-5.5
 21
3.5999999999999943
 31
0.0
  0
LINE
  5
13E
100
AcDbEntity
  8
0
  6
CONTINUOUS
 62
               4
100
AcDbLine
 10
-4.3000000000000114
 20
1.4000000000000057
 30
0.0
 11
-4.3000000000000114
 21
3.5999999999999943
 31
0.0
  0
ARC
  5
13F
100
AcDbEntity
  8
0
  6
CONTINUOUS
 62
               4
100
AcDbCircle
 10
-4.1008966664051627
 20
1.3991033335948089
 30
0.0
 40
1.3991036209254675
100
AcDbArc
 50
179.96327991479848
 51
270.03672008520033
  0
ARC
  5
140
100
AcDbEntity
  8
0
  6
CONTINUOUS
 62
               4
100
AcDbCircle
 10
-4.1008966599537757
 20
1.3991033400461959
 30
0.0
 40
0.1991053590856348
100
AcDbArc
 50
179.74197075907335
 51
270.25802924092562
  0
LINE
  5
141
100
AcDbEntity
  8
0
  6
CONTINUOUS
 62
               4
100
AcDbLine
 10
-4.0999999999999659
 20
0.0
 30
0.0
 11
3.0
 21
0.0
 31
0.0
  0
LINE
  5
142
100
AcDbEntity
  8
0
  6
CONTINUOUS
 62
               4
100
AcDbLine
 10
-4.0999999999999659
 20
1.2000000000000171
 30
0.0
 11
3.0
 21
1.2000000000000171
 31
0.0
  0
LINE
  5
143
100
AcDbEntity
  8
0
  6
CONTINUOUS
 62
               4
100
AcDbLine
 10
3.0
 20
0.0
 30
0.0
 11
3.0
 21
1.2000000000000171
 31
0.0
  0
ARC
  5
144
100
AcDbEntity
  8
0
  6
CONTINUOUS
 62
               4
100
AcDbCircle
 10
-6.5847799240333984
 20
3.2665835360522806
 30
0.0
 40
0.6147802009733803
100
AcDbArc
 50
286.12836199114588
 51
359.94561607879228
  0
ARC
  5
145
100
AcDbEntity
  8
0
  6
CONTINUOUS
 62
               4
100
AcDbCircle
 10
-8.8161606354035484
 20
3.2652966087315747
 30
0.0
 40
0.6138397676001843
100
AcDbArc
 50
179.93434547259068
 51
253.74327317895529
  0
ARC
  5
146
100
AcDbEntity
  8
0
  6
CONTINUOUS
 62
               4
100
AcDbCircle
 10
-7.700999999999965
 20
7.1068760988772226
 30
0.0
 40
4.6140039015589682
100
AcDbArc
 50
253.80344035262561
 51
286.19655964737319
  0
ARC
  5
147
100
AcDbEntity
  8
0
  6
CONTINUOUS
 62
               4
100
AcDbCircle
 10
-13.184777973164046
 20
3.2665820679404476
 30
0.0
 40
0.6147782487131708
100
AcDbArc
 50
286.12822533946951
 51
359.94575273046883
  0
ARC
  5
148
100
AcDbEntity
  8
0
  6
CONTINUOUS
 62
               4
100
AcDbCircle
 10
-15.416158681253251
 20
3.265298072688239
 30
0.0
 40
0.613841720073419
100
AcDbArc
 50
179.93448232673219
 51
253.74313632481389
  0
ARC
  5
149
100
AcDbEntity
  8
0
  6
CONTINUOUS
 62
               4
100
AcDbCircle
 10
-14.300999999999988
 20
7.1068760989089697
 30
0.0
 40
4.6140039015894576
100
AcDbArc
 50
253.80344035273558
 51
286.19655964726314
  0
ARC
  5
14A
100
AcDbEntity
  8
0
  6
CONTINUOUS
 62
               4
100
AcDbCircle
 10
-17.900056684609865
 20
1.4000566846098934
 30
0.0
 40
1.4000566857574084
100
AcDbArc
 50
270.00231975529556
 51
359.99768024470291
  0
ARC
  5
14B
100
AcDbEntity
  8
0
  6
CONTINUOUS
 62
               4
100
AcDbCircle
 10
-16.30006664106736
 20
3.6000666410673716
 30
0.0
 40
0.1999333700389205
100
AcDbArc
 50
89.980902377767208
 51
180.01909762223218
  0
ARC
  5
14C
100
AcDbEntity
  8
0
  6
CONTINUOUS
 62
               4
100
AcDbCircle
 10
-5.7008844716972931
 20
3.5991155283026899
 30
0.0
 40
0.2008864188024893
100
AcDbArc
 50
0.2522652321918488
 51
89.747734767807131
  0
ARC
  5
14D
100
AcDbEntity
  8
0
  6
CONTINUOUS
 62
               4
100
AcDbCircle
 10
-17.900058413382624
 20
1.4000584133826521
 30
0.0
 40
0.2000584219104543
100
AcDbArc
 50
270.01672931490481
 51
359.98327068509366
  0
LINE
  5
14E
100
AcDbEntity
  8
0
  6
CONTINUOUS
 62
               4
100
AcDbLine
 10
-5.9699999999999704
 20
3.2660000000000196
 30
0.0
 11
-5.9699999999999704
 21
3.8000000000000114
 31
0.0
  0
LINE
  5
14F
100
AcDbEntity
  8
0
  6
CONTINUOUS
 62
               4
100
AcDbLine
 10
-9.4300000000000068
 20
3.2660000000000196
 30
0.0
 11
-9.4300000000000068
 21
3.8000000000000114
 31
0.0
  0
LINE
  5
150
100
AcDbEntity
  8
0
  6
CONTINUOUS
 62
               4
100
AcDbLine
 10
-12.569999999999993
 20
3.2660000000000196
 30
0.0
 11
-12.569999999999993
 21
3.8000000000000114
 31
0.0
  0
LINE
  5
151
100
AcDbEntity
  8
0
  6
CONTINUOUS
 62
               4
100
AcDbLine
 10
-16.029999999999973
 20
3.2660000000000196
 30
0.0
 11
-16.029999999999973
 21
3.8000000000000114
 31
0.0
  0
LINE
  5
152
100
AcDbEntity
  8
0
  6
CONTINUOUS
 62
               4
100
AcDbLine
 10
-17.699999999999989
 20
1.4000000000000057
 30
0.0
 11
-17.699999999999989
 21
3.5999999999999943
 31
0.0
  0
LINE
  5
153
100
AcDbEntity
  8
0
  6
CONTINUOUS
 62
               4
100
AcDbLine
 10
-16.5
 20
1.4000000000000057
 30
0.0
 11
-16.5
 21
3.5999999999999943
 31
0.0
  0
LINE
  5
154
100
AcDbEntity
  8
0
  6
CONTINUOUS
 62
               4
100
AcDbLine
 10
-16.299999999999955
 20
3.8000000000000114
 30
0.0
 11
-5.6999999999999886
 21
3.8000000000000114
 31
0.0
  0
LINE
  5
155
100
AcDbEntity
  8
0
  6
CONTINUOUS
 62
               4
100
AcDbLine
 10
-25.0
 20
0.0
 30
0.0
 11
-25.0
 21
1.2000000000000171
 31
0.0
  0
LINE
  5
156
100
AcDbEntity
  8
0
  6
CONTINUOUS
 62
               4
100
AcDbLine
 10
-25.0
 20
0.0
 30
0.0
 11
-17.899999999999977
 21
0.0
 31
0.0
  0
LINE
  5
157
100
AcDbEntity
  8
0
  6
CONTINUOUS
 62
               4
100
AcDbLine
 10
-25.0
 20
1.2000000000000171
 30
0.0
 11
-17.899999999999977
 21
1.2000000000000171
 31
0.0
  0
LINE
  5
158
100
AcDbEntity
  8
0
  6
CENTER
 62
             200
100
AcDbLine
 10
-22.0
 20
-2.4438717557984688
 30
0.0
 11
-22.0
 21
3.8000000000000114
 31
0.0
  0
LINE
  5
159
100
AcDbEntity
  8
0
  6
CENTER
 62
             200
100
AcDbLine
 10
0.0
 20
-2.4438717557984688
 30
0.0
 11
0.0
 21
3.8000000000000114
 31
0.0
  0
ARC
  5
15A
100
AcDbEntity
  8
0
  6
CONTINUOUS
 62
               4
100
AcDbCircle
 10
-16.300068323168489
 20
3.6000683231685287
 30
0.0
 40
1.3999316784987346
100
AcDbArc
 50
89.997203699822904
 51
180.00279630017653
  0
ARC
  5
15B
100
AcDbEntity
  8
0
  6
CONTINUOUS
 62
               4
100
AcDbCircle
 10
-5.7008844620561376
 20
3.5991155379438453
 30
0.0
 40
1.4008847412629901
100
AcDbArc
 50
0.0361742439122946
 51
89.963825756087459
  0
LINE
  5
15C
100
AcDbEntity
  8
0
  6
CENTER
 62
               2
100
AcDbLine
 10
-11.0
 20
61.862585161280549
 30
0.0
 11
-11.0
 21
2.7920000000000158
 31
0.0
  0
LINE
  5
15D
100
AcDbEntity
  8
0
  6
CENTER
 62
               2
100
AcDbLine
 10
-13.5
 20
21.799999999999983
 30
0.0
 11
-8.5
 21
21.799999999999983
 31
0.0
  0
LINE
  5
15E
100
AcDbEntity
  8
0
  6
CONTINUOUS
 62
               7
100
AcDbLine
 10
-11.865999999999929
 20
21.799999999999983
 30
0.0
 11
-11.434000000000026
 21
21.050600240192239
 31
0.0
  0
LINE
  5
15F
100
AcDbEntity
  8
0
  6
CONTINUOUS
 62
               7
100
AcDbLine
 10
-11.434000000000026
 20
22.549399759807727
 30
0.0
 11
-11.865999999999929
 21
21.799999999999983
 31
0.0
  0
LINE
  5
160
100
AcDbEntity
  8
0
  6
CONTINUOUS
 62
               7
100
AcDbLine
 10
-10.565999999999974
 20
22.549399759807727
 30
0.0
 11
-11.434000000000026
 21
22.549399759807727
 31
0.0
  0
LINE
  5
161
100
AcDbEntity
  8
0
  6
CONTINUOUS
 62
               7
100
AcDbLine
 10
-10.134000000000071
 20
21.799999999999983
 30
0.0
 11
-10.565999999999974
 21
22.549399759807727
 31
0.0
  0
LINE
  5
162
100
AcDbEntity
  8
0
  6
CONTINUOUS
 62
               7
100
AcDbLine
 10
-10.565999999999974
 20
21.050600240192239
 30
0.0
 11
-10.134000000000071
 21
21.799999999999983
 31
0.0
  0
LINE
  5
163
100
AcDbEntity
  8
0
  6
CONTINUOUS
 62
               7
100
AcDbLine
 10
-11.434000000000026
 20
21.050600240192239
 30
0.0
 11
-10.565999999999974
 21
21.050600240192239
 31
0.0
  0
CIRCLE
  5
164
100
AcDbEntity
  8
0
  6
CONTINUOUS
 62
               7
100
AcDbCircle
 10
-11.0
 20
21.799999999999983
 30
0.0
 40
0.865999999999957
  0
CIRCLE
  5
165
100
AcDbEntity
  8
0
  6
CONTINUOUS
 62
               2
100
AcDbCircle
 10
-11.0
 20
21.799999999999983
 30
0.0
 40
1.5
  0
CIRCLE
  5
166
100
AcDbEntity
  8
0
  6
CONTINUOUS
 62
               7
100
AcDbCircle
 10
-11.0
 20
21.799999999999983
 30
0.0
 40
1.25
  0
LINE
  5
167
100
AcDbEntity
  8
0
  6
CENTER
 62
               2
100
AcDbLine
 10
-8.5
 20
15.399999999999977
 30
0.0
 11
-13.5
 21
15.399999999999977
 31
0.0
  0
CIRCLE
  5
168
100
AcDbEntity
  8
0
  6
CONTINUOUS
 62
               7
100
AcDbCircle
 10
-11.0
 20
15.399999999999977
 30
0.0
 40
1.25
  0
CIRCLE
  5
169
100
AcDbEntity
  8
0
  6
CONTINUOUS
 62
               2
100
AcDbCircle
 10
-11.0
 20
15.399999999999977
 30
0.0
 40
1.5
  0
CIRCLE
  5
16A
100
AcDbEntity
  8
0
  6
CONTINUOUS
 62
               7
100
AcDbCircle
 10
-7.2999999999999545
 20
20.199999999999989
 30
0.0
 40
1.05
  0
CIRCLE
  5
16B
100
AcDbEntity
  8
0
  6
CONTINUOUS
 62
               7
100
AcDbCircle
 10
-14.699999999999989
 20
14.299999999999983
 30
0.0
 40
1.05
  0
LINE
  5
16C
100
AcDbEntity
  8
0
  6
CONTINUOUS
 62
               4
100
AcDbLine
 10
-6.0
 20
58.700000000000003
 30
0.0
 11
-16.0
 21
58.700000000000003
 31
0.0
  0
LINE
  5
16D
100
AcDbEntity
  8
0
  6
CONTINUOUS
 62
               4
100
AcDbLine
 10
-6.0
 20
57.100000000000037
 30
0.0
 11
-9.1999999999999886
 21
57.100000000000037
 31
0.0
  0
LINE
  5
16E
100
AcDbEntity
  8
0
  6
CONTINUOUS
 62
               4
100
AcDbLine
 10
-9.1999999999999886
 20
58.600000000000037
 30
0.0
 11
-15.5
 21
58.600000000000037
 31
0.0
  0
LINE
  5
16F
100
AcDbEntity
  8
0
  6
CONTINUOUS
 62
               4
100
AcDbLine
 10
-9.1999999999999886
 20
58.600000000000037
 30
0.0
 11
-9.1999999999999886
 21
57.100000000000037
 31
0.0
  0
ARC
  5
170
100
AcDbEntity
  8
0
  6
CONTINUOUS
 62
               4
100
AcDbCircle
 10
-15.5
 20
58.100000000000037
 30
0.0
 40
0.5
100
AcDbArc
 50
89.999999999999815
 51
179.99999999999963
  0
LINE
  5
171
100
AcDbEntity
  8
0
  6
CONTINUOUS
 62
               4
100
AcDbLine
 10
-6.0
 20
58.100000000000037
 30
0.0
 11
-9.1999999999999886
 21
58.100000000000037
 31
0.0
  0
ARC
  5
172
100
AcDbEntity
  8
0
  6
CONTINUOUS
 62
               4
100
AcDbCircle
 10
-6.795904853341824
 20
58.100095146658205
 30
0.0
 40
0.5999048608870732
100
AcDbArc
 50
359.99091272245295
 51
90.009087277546172
  0
ARC
  5
173
100
AcDbEntity
  8
0
  6
CONTINUOUS
 62
               4
100
AcDbCircle
 10
-8.5970880052370262
 20
58.101088005237003
 30
0.0
 40
0.5989129830170392
100
AcDbArc
 50
89.895914524772735
 51
180.10408547522667
  0
LINE
  5
174
100
AcDbEntity
  8
0
  6
CONTINUOUS
 62
               4
100
AcDbLine
 10
-16.0
 20
58.700000000000003
 30
0.0
 11
-16.0
 21
36.200000000000003
 31
0.0
  0
LINE
  5
175
100
AcDbEntity
  8
0
  6
CONTINUOUS
 62
               4
100
AcDbLine
 10
-6.0
 20
58.700000000000003
 30
0.0
 11
-6.0
 21
36.200000000000003
 31
0.0
  0
LINE
  5
176
100
AcDbEntity
  8
0
  6
CONTINUOUS
 62
               7
100
AcDbLine
 10
-16.0
 20
36.200000000000003
 30
0.0
 11
-6.0
 21
36.200000000000003
 31
0.0
  0
LINE
  5
177
100
AcDbEntity
  8
0
  6
CONTINUOUS
 62
               7
100
AcDbLine
 10
-6.0
 20
24.5
 30
0.0
 11
-6.0
 21
36.200000000000003
 31
0.0
  0
LINE
  5
178
100
AcDbEntity
  8
0
  6
CONTINUOUS
 62
               7
100
AcDbLine
 10
-16.0
 20
24.5
 30
0.0
 11
-16.0
 21
36.200000000000003
 31
0.0
  0
ARC
  5
179
100
AcDbEntity
  8
0
  6
CONTINUOUS
 62
               7
100
AcDbCircle
 10
-15.409446031890923
 20
6.2682512686530458
 30
0.0
 40
0.6105564724372722
100
AcDbArc
 50
179.83589550320582
 51
253.77907243150949
  0
LINE
  5
17A
100
AcDbEntity
  8
0
  6
CONTINUOUS
 62
               7
100
AcDbLine
 10
-6.1999999999999886
 20
5.0
 30
0.0
 11
-15.800000000000011
 21
5.0
 31
0.0
  0
LINE
  5
17B
100
AcDbEntity
  8
0
  6
CONTINUOUS
 62
               7
100
AcDbLine
 10
-16.019999999999982
 20
6.7999999999999545
 30
0.0
 11
-12.5
 21
6.7999999999999545
 31
0.0
  0
ARC
  5
17C
100
AcDbEntity
  8
0
  6
CONTINUOUS
 62
               7
100
AcDbCircle
 10
-15.70089513685889
 20
7.0991048631410649
 30
0.0
 40
0.2991062025847394
100
AcDbArc
 50
179.82853033398985
 51
270.17146966600922
  0
ARC
  5
17D
100
AcDbEntity
  8
0
  6
CONTINUOUS
 62
               7
100
AcDbCircle
 10
-15.800000000000011
 20
5.1999999999999886
 30
0.0
 40
0.2
100
AcDbArc
 50
179.99999999999963
 51
269.99999999999937
  0
LINE
  5
17E
100
AcDbEntity
  8
0
  6
CONTINUOUS
 62
               7
100
AcDbLine
 10
-12.5
 20
5.0
 30
0.0
 11
-12.5
 21
6.7999999999999545
 31
0.0
  0
ARC
  5
17F
100
AcDbEntity
  8
0
  6
CONTINUOUS
 62
               7
100
AcDbCircle
 10
-14.300000000000011
 20
10.087421236733917
 30
0.0
 40
4.5876068132596712
100
AcDbArc
 50
253.79871892415684
 51
286.20128107584191
  0
ARC
  5
180
100
AcDbEntity
  8
0
  6
CONTINUOUS
 62
               7
100
AcDbCircle
 10
-13.191771995833903
 20
6.2691627179709712
 30
0.0
 40
0.6117725687931934
100
AcDbArc
 50
286.30661609184898
 51
0.0784159734340139
  0
LINE
  5
181
100
AcDbEntity
  8
0
  6
CONTINUOUS
 62
               7
100
AcDbLine
 10
-12.579999999999984
 20
6.2699999999999818
 30
0.0
 11
-12.579999999999984
 21
6.7999999999999545
 31
0.0
  0
LINE
  5
182
100
AcDbEntity
  8
0
  6
CONTINUOUS
 62
               7
100
AcDbLine
 10
-16.0
 20
5.1999999999999886
 30
0.0
 11
-16.0
 21
6.1132505693459507
 31
0.0
  0
LINE
  5
183
100
AcDbEntity
  8
0
  6
CONTINUOUS
 62
               7
100
AcDbLine
 10
-16.019999999999982
 20
6.2699999999999818
 30
0.0
 11
-16.019999999999982
 21
6.7999999999999545
 31
0.0
  0
ARC
  5
184
100
AcDbEntity
  8
0
  6
CONTINUOUS
 62
               7
100
AcDbCircle
 10
-6.1999999999999886
 20
5.1999999999999886
 30
0.0
 40
0.2
100
AcDbArc
 50
269.99999999999937
 51
0.0
  0
LINE
  5
185
100
AcDbEntity
  8
0
  6
CENTER
 62
               2
100
AcDbLine
 10
-17.199999999999989
 20
14.299999999999983
 30
0.0
 11
-12.199999999999989
 21
14.299999999999983
 31
0.0
  0
LINE
  5
186
100
AcDbEntity
  8
0
  6
CENTER
 62
               2
100
AcDbLine
 10
-9.7999999999999545
 20
20.199999999999989
 30
0.0
 11
-4.7999999999999545
 21
20.199999999999989
 31
0.0
  0
LINE
  5
187
100
AcDbEntity
  8
0
  6
CENTER
 62
               2
100
AcDbLine
 10
-14.699999999999989
 20
11.799999999999983
 30
0.0
 11
-14.699999999999989
 21
16.799999999999983
 31
0.0
  0
LINE
  5
188
100
AcDbEntity
  8
0
  6
CENTER
 62
               2
100
AcDbLine
 10
-7.2999999999999545
 20
17.699999999999989
 30
0.0
 11
-7.2999999999999545
 21
22.699999999999989
 31
0.0
  0
LINE
  5
189
100
AcDbEntity
  8
0
  6
CONTINUOUS
 62
               7
100
AcDbLine
 10
-16.0
 20
24.5
 30
0.0
 11
-6.0
 21
24.5
 31
0.0
  0
LINE
  5
18A
100
AcDbEntity
  8
0
  6
CONTINUOUS
 62
               7
100
AcDbLine
 10
-16.0
 20
6.7999999999999545
 30
0.0
 11
-16.0
 21
24.500000000494481
 31
0.0
  0
LINE
  5
18B
100
AcDbEntity
  8
0
  6
CONTINUOUS
 62
               7
100
AcDbLine
 10
-6.0
 20
5.1999999999999886
 30
0.0
 11
-6.0
 21
24.5
 31
0.0
  0
LINE
  5
18C
100
AcDbEntity
  8
0
  6
CONTINUOUS
 62
               7
100
AcDbLine
 10
-6.0000000063824359
 20
10.0
 30
0.0
 11
-16.000000006382436
 21
10.0
 31
0.0
  0
LINE
  5
18D
100
AcDbEntity
  8
0
  6
CENTER
 62
               2
100
AcDbLine
 10
-12.5
 20
28.299999999999983
 30
0.0
 11
-9.5
 21
28.299999999999983
 31
0.0
  0
CIRCLE
  5
18E
100
AcDbEntity
  8
0
  6
CONTINUOUS
 62
               7
100
AcDbCircle
 10
-11.0
 20
28.299999999999983
 30
0.0
 40
0.9
  0
ENDBLK
  5
18F
100
AcDbEntity
  8
0
100
AcDbBlockEnd
  0
BLOCK
  5
190
100
AcDbEntity
  8
0
100
AcDbBlockBegin
  2
EB10SF1-4
 70
               0
 10
0.0
 20
0.0
 30
0.0
  3
EB10SF1-4
  1

  0
LINE
  5
191
100
AcDbEntity
  8
0
  6
CENTER
 62
             200
100
AcDbLine
 10
1.75
 20
0.0
 30
0.0
 11
1.75
 21
1.2000000000000171
 31
0.0
  0
LINE
  5
192
100
AcDbEntity
  8
0
  6
CENTER
 62
             200
100
AcDbLine
 10
-1.75
 20
0.0
 30
0.0
 11
-1.75
 21
1.2000000000000171
 31
0.0
  0
LINE
  5
193
100
AcDbEntity
  8
0
  6
CENTER
 62
             200
100
AcDbLine
 10
23.75
 20
0.0
 30
0.0
 11
23.75
 21
1.2000000000000171
 31
0.0
  0
LINE
  5
194
100
AcDbEntity
  8
0
  6
CENTER
 62
             200
100
AcDbLine
 10
20.25
 20
0.0
 30
0.0
 11
20.25
 21
1.2000000000000171
 31
0.0
  0
LINE
  5
195
100
AcDbEntity
  8
0
  6
CENTER
 62
             200
100
AcDbLine
 10
22.0
 20
-2.4438717557984688
 30
0.0
 11
22.0
 21
3.8000000000000114
 31
0.0
  0
LINE
  5
196
100
AcDbEntity
  8
0
  6
CENTER
 62
             200
100
AcDbLine
 10
0.0
 20
-2.4438717557984688
 30
0.0
 11
0.0
 21
3.8000000000000114
 31
0.0
  0
LINE
  5
197
100
AcDbEntity
  8
0
  6
CENTER
 62
               2
100
AcDbLine
 10
11.0
 20
2.2438875818592123
 30
0.0
 11
11.0
 21
61.862585161280521
 31
0.0
  0
LINE
  5
198
100
AcDbEntity
  8
0
  6
CONTINUOUS
 62
               4
100
AcDbLine
 10
-3.0
 20
1.2000000000000171
 30
0.0
 11
4.1000000000000227
 21
1.2000000000000171
 31
0.0
  0
LINE
  5
199
100
AcDbEntity
  8
0
  6
CONTINUOUS
 62
               4
100
AcDbLine
 10
-3.0
 20
0.0
 30
0.0
 11
4.1000000000000227
 21
0.0
 31
0.0
  0
LINE
  5
19A
100
AcDbEntity
  8
0
  6
CONTINUOUS
 62
               4
100
AcDbLine
 10
-3.0
 20
0.0
 30
0.0
 11
-3.0
 21
1.2000000000000171
 31
0.0
  0
LINE
  5
19B
100
AcDbEntity
  8
0
  6
CONTINUOUS
 62
               4
100
AcDbLine
 10
5.7000000000000171
 20
3.8000000000000114
 30
0.0
 11
16.300000000000011
 21
3.8000000000000114
 31
0.0
  0
LINE
  5
19C
100
AcDbEntity
  8
0
  6
CONTINUOUS
 62
               4
100
AcDbLine
 10
5.5
 20
1.4000000000000057
 30
0.0
 11
5.5
 21
3.5999999999999943
 31
0.0
  0
LINE
  5
19D
100
AcDbEntity
  8
0
  6
CONTINUOUS
 62
               4
100
AcDbLine
 10
4.3000000000000114
 20
1.4000000000000057
 30
0.0
 11
4.3000000000000114
 21
3.5999999999999943
 31
0.0
  0
LINE
  5
19E
100
AcDbEntity
  8
0
  6
CONTINUOUS
 62
               4
100
AcDbLine
 10
5.9700000000000273
 20
3.2660000000000196
 30
0.0
 11
5.9700000000000273
 21
3.8000000000000114
 31
0.0
  0
LINE
  5
19F
100
AcDbEntity
  8
0
  6
CONTINUOUS
 62
               4
100
AcDbLine
 10
9.4300000000000068
 20
3.2660000000000196
 30
0.0
 11
9.4300000000000068
 21
3.8000000000000114
 31
0.0
  0
LINE
  5
1A0
100
AcDbEntity
  8
0
  6
CONTINUOUS
 62
               4
100
AcDbLine
 10
12.569999999999993
 20
3.2660000000000196
 30
0.0
 11
12.569999999999993
 21
3.8000000000000114
 31
0.0
  0
LINE
  5
1A1
100
AcDbEntity
  8
0
  6
CONTINUOUS
 62
               4
100
AcDbLine
 10
16.03000000000003
 20
3.2660000000000196
 30
0.0
 11
16.03000000000003
 21
3.8000000000000114
 31
0.0
  0
ARC
  5
1A2
100
AcDbEntity
  8
0
  6
CONTINUOUS
 62
               4
100
AcDbCircle
 10
4.0999415866173763
 20
1.4000584133826521
 30
0.0
 40
0.2000584219104543
100
AcDbArc
 50
270.01672931490481
 51
359.98327068509366
  0
ARC
  5
1A3
100
AcDbEntity
  8
0
  6
CONTINUOUS
 62
               4
100
AcDbCircle
 10
16.299115528302707
 20
3.5991155283026899
 30
0.0
 40
0.2008864188024893
100
AcDbArc
 50
0.2522652321918488
 51
89.747734767807131
  0
ARC
  5
1A4
100
AcDbEntity
  8
0
  6
CONTINUOUS
 62
               4
100
AcDbCircle
 10
5.6999333589326397
 20
3.6000666410673716
 30
0.0
 40
0.1999333700389205
100
AcDbArc
 50
89.980902377767208
 51
180.01909762223218
  0
ARC
  5
1A5
100
AcDbEntity
  8
0
  6
CONTINUOUS
 62
               4
100
AcDbCircle
 10
4.099943315390135
 20
1.4000566846098934
 30
0.0
 40
1.4000566857574084
100
AcDbArc
 50
270.00231975529556
 51
359.99768024470291
  0
ARC
  5
1A6
100
AcDbEntity
  8
0
  6
CONTINUOUS
 62
               4
100
AcDbCircle
 10
7.6990000000000123
 20
7.1068760989089697
 30
0.0
 40
4.6140039015894576
100
AcDbArc
 50
253.80344035273558
 51
286.19655964726314
  0
ARC
  5
1A7
100
AcDbEntity
  8
0
  6
CONTINUOUS
 62
               4
100
AcDbCircle
 10
6.5838413187467495
 20
3.265298072688239
 30
0.0
 40
0.613841720073419
100
AcDbArc
 50
179.93448232673219
 51
253.74313632481389
  0
ARC
  5
1A8
100
AcDbEntity
  8
0
  6
CONTINUOUS
 62
               4
100
AcDbCircle
 10
8.8152220268359258
 20
3.2665820679404476
 30
0.0
 40
0.6147782487131708
100
AcDbArc
 50
286.12822533946951
 51
359.94575273046883
  0
ARC
  5
1A9
100
AcDbEntity
  8
0
  6
CONTINUOUS
 62
               4
100
AcDbCircle
 10
14.299000000000035
 20
7.1068760988772226
 30
0.0
 40
4.6140039015589682
100
AcDbArc
 50
253.80344035262561
 51
286.19655964737319
  0
ARC
  5
1AA
100
AcDbEntity
  8
0
  6
CONTINUOUS
 62
               4
100
AcDbCircle
 10
13.183839364596452
 20
3.2652966087315747
 30
0.0
 40
0.6138397676001843
100
AcDbArc
 50
179.93434547259068
 51
253.74327317895529
  0
ARC
  5
1AB
100
AcDbEntity
  8
0
  6
CONTINUOUS
 62
               4
100
AcDbCircle
 10
15.415220075966602
 20
3.2665835360522806
 30
0.0
 40
0.6147802009733803
100
AcDbArc
 50
286.12836199114588
 51
359.94561607879228
  0
LINE
  5
1AC
100
AcDbEntity
  8
0
  6
CONTINUOUS
 62
               4
100
AcDbLine
 10
25.0
 20
0.0
 30
0.0
 11
25.0
 21
1.2000000000000171
 31
0.0
  0
LINE
  5
1AD
100
AcDbEntity
  8
0
  6
CONTINUOUS
 62
               4
100
AcDbLine
 10
17.900000000000034
 20
1.2000000000000171
 30
0.0
 11
25.0
 21
1.2000000000000171
 31
0.0
  0
LINE
  5
1AE
100
AcDbEntity
  8
0
  6
CONTINUOUS
 62
               4
100
AcDbLine
 10
17.900000000000034
 20
0.0
 30
0.0
 11
25.0
 21
0.0
 31
0.0
  0
ARC
  5
1AF
100
AcDbEntity
  8
0
  6
CONTINUOUS
 62
               4
100
AcDbCircle
 10
17.899103340046224
 20
1.3991033400461959
 30
0.0
 40
0.1991053590856348
100
AcDbArc
 50
179.74197075907335
 51
270.25802924092562
  0
ARC
  5
1B0
100
AcDbEntity
  8
0
  6
CONTINUOUS
 62
               4
100
AcDbCircle
 10
17.899103333594837
 20
1.3991033335948089
 30
0.0
 40
1.3991036209254675
100
AcDbArc
 50
179.96327991479848
 51
270.03672008520033
  0
LINE
  5
1B1
100
AcDbEntity
  8
0
  6
CONTINUOUS
 62
               4
100
AcDbLine
 10
17.699999999999989
 20
1.4000000000000057
 30
0.0
 11
17.699999999999989
 21
3.5999999999999943
 31
0.0
  0
LINE
  5
1B2
100
AcDbEntity
  8
0
  6
CONTINUOUS
 62
               4
100
AcDbLine
 10
16.5
 20
1.4000000000000057
 30
0.0
 11
16.5
 21
3.5999999999999943
 31
0.0
  0
ARC
  5
1B3
100
AcDbEntity
  8
0
  6
CONTINUOUS
 62
               4
100
AcDbCircle
 10
5.6999316768315111
 20
3.6000683231685287
 30
0.0
 40
1.3999316784987346
100
AcDbArc
 50
89.997203699822904
 51
180.00279630017653
  0
ARC
  5
1B4
100
AcDbEntity
  8
0
  6
CONTINUOUS
 62
               4
100
AcDbCircle
 10
16.299115537943862
 20
3.5991155379438453
 30
0.0
 40
1.4008847412629901
100
AcDbArc
 50
0.0361742439122946
 51
89.963825756087459
  0
LINE
  5
1B5
100
AcDbEntity
  8
0
  6
CONTINUOUS
 62
               4
100
AcDbLine
 10
16.300000000000011
 20
5.0
 30
0.0
 11
5.7000000000000171
 21
5.0
 31
0.0
  0
LINE
  5
1B6
100
AcDbEntity
  8
0
  6
CONTINUOUS
 62
               4
100
AcDbLine
 10
22.0
 20
0.0
 30
0.0
 11
22.0
 21
1.2000000000000171
 31
0.0
  0
LINE
  5
1B7
100
AcDbEntity
  8
0
  6
CONTINUOUS
 62
               4
100
AcDbLine
 10
0.0
 20
0.0
 30
0.0
 11
0.0
 21
1.2000000000000171
 31
0.0
  0
ARC
  5
1B8
100
AcDbEntity
  8
0
  6
CONTINUOUS
 62
               4
100
AcDbCircle
 10
15.268802575510279
 20
38.904188752838294
 30
0.0
 40
0.5011988548874781
100
AcDbArc
 50
270.1368866551544
 51
359.86311334484418
  0
ARC
  5
1B9
100
AcDbEntity
  8
0
  6
CONTINUOUS
 62
               4
100
AcDbCircle
 10
6.7311974244897215
 20
38.904188752838294
 30
0.0
 40
0.5011988548874781
100
AcDbArc
 50
180.13688665515463
 51
269.86311334484435
  0
LINE
  5
1BA
100
AcDbEntity
  8
0
  6
CONTINUOUS
 62
               4
100
AcDbLine
 10
6.7300000000000182
 20
38.402991328348591
 30
0.0
 11
15.269999999999982
 21
38.402991328348591
 31
0.0
  0
LINE
  5
1BB
100
AcDbEntity
  8
0
  6
CONTINUOUS
 62
               4
100
AcDbLine
 10
6.5
 20
55.702000000000041
 30
0.0
 11
8.25
 21
55.702000000000041
 31
0.0
  0
ARC
  5
1BC
100
AcDbEntity
  8
0
  6
CONTINUOUS
 62
               4
100
AcDbCircle
 10
6.7300009155542853
 20
55.201999084445774
 30
0.0
 40
0.5000009155550945
100
AcDbArc
 50
90.000104914596918
 51
179.99989508540253
  0
ARC
  5
1BD
100
AcDbEntity
  8
0
  6
CONTINUOUS
 62
               4
100
AcDbCircle
 10
6.5000106811733076
 20
55.201989318826733
 30
0.0
 40
0.5000106812873828
100
AcDbArc
 50
90.001223946153175
 51
179.9987760538454
  0
LINE
  5
1BE
100
AcDbEntity
  8
0
  6
PHANTOM
 62
             200
100
AcDbLine
 10
9.5
 20
43.702000000000012
 30
0.0
 11
9.5
 21
41.702000000000012
 31
0.0
  0
LINE
  5
1BF
100
AcDbEntity
  8
0
  6
PHANTOM
 62
             200
100
AcDbLine
 10
12.5
 20
43.702000000000012
 30
0.0
 11
12.5
 21
41.702000000000012
 31
0.0
  0
LINE
  5
1C0
100
AcDbEntity
  8
0
  6
PHANTOM
 62
             200
100
AcDbLine
 10
9.5
 20
41.702000000000012
 30
0.0
 11
12.5
 21
41.702000000000012
 31
0.0
  0
LINE
  5
1C1
100
AcDbEntity
  8
0
  6
PHANTOM
 62
             200
100
AcDbLine
 10
9.5
 20
43.702000000000012
 30
0.0
 11
12.5
 21
43.702000000000012
 31
0.0
  0
LINE
  5
1C2
100
AcDbEntity
  8
0
  6
CONTINUOUS
 62
               4
100
AcDbLine
 10
8.8000000000000114
 20
54.252000000000024
 30
0.0
 11
10.699999999999989
 21
54.252000000000024
 31
0.0
  0
LINE
  5
1C3
100
AcDbEntity
  8
0
  6
CONTINUOUS
 62
               4
100
AcDbLine
 10
8.8000000000000114
 20
54.452000000000041
 30
0.0
 11
10.699999999999989
 21
54.452000000000041
 31
0.0
  0
LINE
  5
1C4
100
AcDbEntity
  8
0
  6
CONTINUOUS
 62
               4
100
AcDbLine
 10
10.25
 20
52.352000000000018
 30
0.0
 11
10.25
 21
52.052000000000035
 31
0.0
  0
LINE
  5
1C5
100
AcDbEntity
  8
0
  6
CONTINUOUS
 62
               4
100
AcDbLine
 10
10.699999999999989
 20
54.452000000000041
 30
0.0
 11
10.699999999999989
 21
52.352000000000018
 31
0.0
  0
LINE
  5
1C6
100
AcDbEntity
  8
0
  6
CONTINUOUS
 62
               4
100
AcDbLine
 10
8.1500000000000341
 20
55.702000000000041
 30
0.0
 11
8.1500000000000341
 21
54.202000000000041
 31
0.0
  0
LINE
  5
1C7
100
AcDbEntity
  8
0
  6
CONTINUOUS
 62
               4
100
AcDbLine
 10
8.25
 20
54.762000000000043
 30
0.0
 11
8.5799999999999841
 21
55.102000000000018
 31
0.0
  0
LINE
  5
1C8
100
AcDbEntity
  8
0
  6
CONTINUOUS
 62
               4
100
AcDbLine
 10
7.1500000000000341
 20
54.202000000000041
 30
0.0
 11
8.1500000000000341
 21
54.202000000000041
 31
0.0
  0
LINE
  5
1C9
100
AcDbEntity
  8
0
  6
CONTINUOUS
 62
               4
100
AcDbLine
 10
7.1500000000000341
 20
54.202000000000041
 30
0.0
 11
7.1500000000000341
 21
52.202000000000041
 31
0.0
  0
LINE
  5
1CA
100
AcDbEntity
  8
0
  6
CONTINUOUS
 62
               4
100
AcDbLine
 10
7.25
 20
52.302000000000035
 30
0.0
 11
7.25
 21
54.102000000000018
 31
0.0
  0
LINE
  5
1CB
100
AcDbEntity
  8
0
  6
CONTINUOUS
 62
               4
100
AcDbLine
 10
7.25
 20
54.102000000000018
 30
0.0
 11
8.25
 21
54.102000000000018
 31
0.0
  0
LINE
  5
1CC
100
AcDbEntity
  8
0
  6
CONTINUOUS
 62
               4
100
AcDbLine
 10
8.25
 20
52.302000000000035
 30
0.0
 11
8.25
 21
50.802000000000035
 31
0.0
  0
LINE
  5
1CD
100
AcDbEntity
  8
0
  6
CONTINUOUS
 62
               4
100
AcDbLine
 10
9.25
 20
52.352000000000018
 30
0.0
 11
9.25
 21
52.052000000000035
 31
0.0
  0
LINE
  5
1CE
100
AcDbEntity
  8
0
  6
CONTINUOUS
 62
               4
100
AcDbLine
 10
8.1500000000000341
 20
52.202000000000041
 30
0.0
 11
8.1500000000000341
 21
50.702000000000041
 31
0.0
  0
CIRCLE
  5
1CF
100
AcDbEntity
  8
0
  6
CONTINUOUS
 62
               4
100
AcDbCircle
 10
9.75
 20
53.301984741210973
 30
0.0
 40
0.8499675393104553
  0
LINE
  5
1D0
100
AcDbEntity
  8
0
  6
CONTINUOUS
 62
               4
100
AcDbLine
 10
7.1500000000000341
 20
52.202000000000041
 30
0.0
 11
8.1500000000000341
 21
52.202000000000041
 31
0.0
  0
LINE
  5
1D1
100
AcDbEntity
  8
0
  6
CONTINUOUS
 62
               4
100
AcDbLine
 10
8.8000000000000114
 20
54.452000000000041
 30
0.0
 11
8.8000000000000114
 21
52.352000000000018
 31
0.0
  0
LINE
  5
1D2
100
AcDbEntity
  8
0
  6
CONTINUOUS
 62
               4
100
AcDbLine
 10
7.25
 20
52.302000000000035
 30
0.0
 11
8.25
 21
52.302000000000035
 31
0.0
  0
LINE
  5
1D3
100
AcDbEntity
  8
0
  6
CONTINUOUS
 62
               4
100
AcDbLine
 10
9.25
 20
52.052000000000035
 30
0.0
 11
10.25
 21
52.052000000000035
 31
0.0
  0
LINE
  5
1D4
100
AcDbEntity
  8
0
  6
CONTINUOUS
 62
               4
100
AcDbLine
 10
8.8000000000000114
 20
52.352000000000018
 30
0.0
 11
10.699999999999989
 21
52.352000000000018
 31
0.0
  0
LINE
  5
1D5
100
AcDbEntity
  8
0
  6
CONTINUOUS
 62
               4
100
AcDbLine
 10
8.25
 20
57.802000000000035
 30
0.0
 11
8.25
 21
54.102000000000018
 31
0.0
  0
LINE
  5
1D6
100
AcDbEntity
  8
0
  6
CONTINUOUS
 62
               4
100
AcDbLine
 10
8.25
 20
57.802000000000035
 30
0.0
 11
13.75
 21
57.802000000000035
 31
0.0
  0
LINE
  5
1D7
100
AcDbEntity
  8
0
  6
CONTINUOUS
 62
               4
100
AcDbLine
 10
8.25
 20
56.802000000000035
 30
0.0
 11
13.75
 21
56.802000000000035
 31
0.0
  0
CIRCLE
  5
1D8
100
AcDbEntity
  8
0
  6
CONTINUOUS
 62
               4
100
AcDbCircle
 10
12.25
 20
53.301984741210973
 30
0.0
 40
0.8499675393104553
  0
LINE
  5
1D9
100
AcDbEntity
  8
0
  6
CONTINUOUS
 62
               4
100
AcDbLine
 10
13.850000000000023
 20
52.202000000000041
 30
0.0
 11
14.850000000000023
 21
52.202000000000041
 31
0.0
  0
LINE
  5
1DA
100
AcDbEntity
  8
0
  6
CONTINUOUS
 62
               4
100
AcDbLine
 10
13.850000000000023
 20
54.202000000000041
 30
0.0
 11
14.850000000000023
 21
54.202000000000041
 31
0.0
  0
LINE
  5
1DB
100
AcDbEntity
  8
0
  6
CONTINUOUS
 62
               4
100
AcDbLine
 10
11.300000000000011
 20
54.452000000000041
 30
0.0
 11
13.199999999999989
 21
54.452000000000041
 31
0.0
  0
LINE
  5
1DC
100
AcDbEntity
  8
0
  6
CONTINUOUS
 62
               4
100
AcDbLine
 10
11.300000000000011
 20
52.352000000000018
 30
0.0
 11
13.199999999999989
 21
52.352000000000018
 31
0.0
  0
LINE
  5
1DD
100
AcDbEntity
  8
0
  6
CONTINUOUS
 62
               4
100
AcDbLine
 10
11.300000000000011
 20
54.252000000000024
 30
0.0
 11
13.199999999999989
 21
54.252000000000024
 31
0.0
  0
LINE
  5
1DE
100
AcDbEntity
  8
0
  6
CONTINUOUS
 62
               4
100
AcDbLine
 10
13.75
 20
54.102000000000018
 30
0.0
 11
14.75
 21
54.102000000000018
 31
0.0
  0
LINE
  5
1DF
100
AcDbEntity
  8
0
  6
CONTINUOUS
 62
               4
100
AcDbLine
 10
13.75
 20
52.302000000000035
 30
0.0
 11
14.75
 21
52.302000000000035
 31
0.0
  0
LINE
  5
1E0
100
AcDbEntity
  8
0
  6
CONTINUOUS
 62
               4
100
AcDbLine
 10
11.75
 20
52.052000000000035
 30
0.0
 11
12.75
 21
52.052000000000035
 31
0.0
  0
LINE
  5
1E1
100
AcDbEntity
  8
0
  6
CONTINUOUS
 62
               4
100
AcDbLine
 10
13.75
 20
52.302000000000035
 30
0.0
 11
13.75
 21
50.802000000000035
 31
0.0
  0
LINE
  5
1E2
100
AcDbEntity
  8
0
  6
CONTINUOUS
 62
               4
100
AcDbLine
 10
12.75
 20
52.352000000000018
 30
0.0
 11
12.75
 21
52.052000000000035
 31
0.0
  0
LINE
  5
1E3
100
AcDbEntity
  8
0
  6
CONTINUOUS
 62
               4
100
AcDbLine
 10
13.70999999999998
 20
54.802000000000035
 30
0.0
 11
13.410000000000025
 21
55.102000000000018
 31
0.0
  0
LINE
  5
1E4
100
AcDbEntity
  8
0
  6
CONTINUOUS
 62
               4
100
AcDbLine
 10
13.199999999999989
 20
54.452000000000041
 30
0.0
 11
13.199999999999989
 21
52.352000000000018
 31
0.0
  0
LINE
  5
1E5
100
AcDbEntity
  8
0
  6
CONTINUOUS
 62
               4
100
AcDbLine
 10
13.850000000000023
 20
55.702000000000041
 30
0.0
 11
13.850000000000023
 21
54.202000000000041
 31
0.0
  0
LINE
  5
1E6
100
AcDbEntity
  8
0
  6
CONTINUOUS
 62
               4
100
AcDbLine
 10
13.850000000000023
 20
52.202000000000041
 30
0.0
 11
13.850000000000023
 21
50.702000000000041
 31
0.0
  0
LINE
  5
1E7
100
AcDbEntity
  8
0
  6
CONTINUOUS
 62
               4
100
AcDbLine
 10
14.850000000000023
 20
54.202000000000041
 30
0.0
 11
14.850000000000023
 21
52.202000000000041
 31
0.0
  0
LINE
  5
1E8
100
AcDbEntity
  8
0
  6
CONTINUOUS
 62
               4
100
AcDbLine
 10
14.75
 20
52.302000000000035
 30
0.0
 11
14.75
 21
54.102000000000018
 31
0.0
  0
ARC
  5
1E9
100
AcDbEntity
  8
0
  6
CONTINUOUS
 62
               4
100
AcDbCircle
 10
15.269999084445772
 20
55.201999084445774
 30
0.0
 40
0.5000009155550945
100
AcDbArc
 50
0.0001049145970977
 51
89.999895085402713
  0
LINE
  5
1EA
100
AcDbEntity
  8
0
  6
CONTINUOUS
 62
               4
100
AcDbLine
 10
11.75
 20
52.352000000000018
 30
0.0
 11
11.75
 21
52.052000000000035
 31
0.0
  0
LINE
  5
1EB
100
AcDbEntity
  8
0
  6
CONTINUOUS
 62
               4
100
AcDbLine
 10
11.300000000000011
 20
54.452000000000041
 30
0.0
 11
11.300000000000011
 21
52.352000000000018
 31
0.0
  0
LINE
  5
1EC
100
AcDbEntity
  8
0
  6
CONTINUOUS
 62
               4
100
AcDbLine
 10
13.75
 20
55.702000000000041
 30
0.0
 11
15.5
 21
55.702000000000041
 31
0.0
  0
ARC
  5
1ED
100
AcDbEntity
  8
0
  6
CONTINUOUS
 62
               4
100
AcDbCircle
 10
15.500004577522645
 20
55.202004577522658
 30
0.0
 40
0.4999954224983215
100
AcDbArc
 50
359.99947544974214
 51
90.000524550256856
  0
LINE
  5
1EE
100
AcDbEntity
  8
0
  6
CONTINUOUS
 62
               4
100
AcDbLine
 10
8.25
 20
50.802000000000035
 30
0.0
 11
13.75
 21
50.802000000000035
 31
0.0
  0
LINE
  5
1EF
100
AcDbEntity
  8
0
  6
CONTINUOUS
 62
               4
100
AcDbLine
 10
8.25
 20
55.802000000000035
 30
0.0
 11
13.75
 21
55.802000000000035
 31
0.0
  0
LINE
  5
1F0
100
AcDbEntity
  8
0
  6
CONTINUOUS
 62
               4
100
AcDbLine
 10
8.2800000000000296
 20
54.802000000000035
 30
0.0
 11
13.70999999999998
 21
54.802000000000035
 31
0.0
  0
LINE
  5
1F1
100
AcDbEntity
  8
0
  6
CONTINUOUS
 62
               4
100
AcDbLine
 10
8.5799999999999841
 20
55.102000000000018
 30
0.0
 11
13.410000000000025
 21
55.102000000000018
 31
0.0
  0
LINE
  5
1F2
100
AcDbEntity
  8
0
  6
CONTINUOUS
 62
               4
100
AcDbLine
 10
8.1500000000000341
 20
50.702000000000041
 30
0.0
 11
13.850000000000023
 21
50.702000000000041
 31
0.0
  0
LINE
  5
1F3
100
AcDbEntity
  8
0
  6
CONTINUOUS
 62
               4
100
AcDbLine
 10
13.75
 20
57.802000000000035
 30
0.0
 11
13.75
 21
54.102000000000018
 31
0.0
  0
ARC
  5
1F4
100
AcDbEntity
  8
0
  6
CONTINUOUS
 62
               4
100
AcDbCircle
 10
13.402911994762974
 20
58.101088005237031
 30
0.0
 40
0.5989129830170392
100
AcDbArc
 50
89.895914524772735
 51
180.10408547522667
  0
ARC
  5
1F5
100
AcDbEntity
  8
0
  6
CONTINUOUS
 62
               4
100
AcDbCircle
 10
15.204095146658233
 20
58.100095146658177
 30
0.0
 40
0.5999048608870732
100
AcDbArc
 50
359.99091272245295
 51
90.009087277546172
  0
LINE
  5
1F6
100
AcDbEntity
  8
0
  6
CONTINUOUS
 62
               4
100
AcDbLine
 10
16.0
 20
58.100000000000009
 30
0.0
 11
12.800000000000011
 21
58.100000000000009
 31
0.0
  0
ARC
  5
1F7
100
AcDbEntity
  8
0
  6
CONTINUOUS
 62
               4
100
AcDbCircle
 10
6.5
 20
58.100000000000009
 30
0.0
 40
0.5
100
AcDbArc
 50
89.999999999999815
 51
179.99999999999963
  0
LINE
  5
1F8
100
AcDbEntity
  8
0
  6
CONTINUOUS
 62
               4
100
AcDbLine
 10
12.800000000000011
 20
58.600000000000009
 30
0.0
 11
12.800000000000011
 21
57.802000000000035
 31
0.0
  0
LINE
  5
1F9
100
AcDbEntity
  8
0
  6
CONTINUOUS
 62
               4
100
AcDbLine
 10
12.800000000000011
 20
58.600000000000009
 30
0.0
 11
6.5
 21
58.600000000000009
 31
0.0
  0
LINE
  5
1FA
100
AcDbEntity
  8
0
  6
CONTINUOUS
 62
               4
100
AcDbLine
 10
16.0
 20
57.100000000000009
 30
0.0
 11
13.75
 21
57.100000000000009
 31
0.0
  0
LINE
  5
1FB
100
AcDbEntity
  8
0
  6
CONTINUOUS
 62
               4
100
AcDbLine
 10
16.0
 20
58.700000000000031
 30
0.0
 11
6.0
 21
58.700000000000031
 31
0.0
  0
LINE
  5
1FC
100
AcDbEntity
  8
0
  6
CONTINUOUS
 62
               4
100
AcDbLine
 10
15.769999999999982
 20
55.202000000000041
 30
0.0
 11
15.769999999999982
 21
38.902991328348989
 31
0.0
  0
LINE
  5
1FD
100
AcDbEntity
  8
0
  6
CONTINUOUS
 62
               4
100
AcDbLine
 10
6.2300000000000182
 20
55.202000000000041
 30
0.0
 11
6.2300000000000182
 21
38.902991328348989
 31
0.0
  0
LINE
  5
1FE
100
AcDbEntity
  8
0
  6
CONTINUOUS
 62
               4
100
AcDbLine
 10
6.0
 20
58.700000000000031
 30
0.0
 11
6.0
 21
36.200000000000031
 31
0.0
  0
LINE
  5
1FF
100
AcDbEntity
  8
0
  6
CONTINUOUS
 62
               4
100
AcDbLine
 10
16.0
 20
58.700000000000031
 30
0.0
 11
16.0
 21
36.200000000000031
 31
0.0
  0
LINE
  5
200
100
AcDbEntity
  8
0
  6
CONTINUOUS
 62
               7
100
AcDbLine
 10
16.0
 20
36.200000000000003
 30
0.0
 11
6.0
 21
36.200000000000003
 31
0.0
  0
LINE
  5
201
100
AcDbEntity
  8
0
  6
CONTINUOUS
 62
               7
100
AcDbLine
 10
6.0
 20
24.5
 30
0.0
 11
6.0
 21
36.200000000000003
 31
0.0
  0
LINE
  5
202
100
AcDbEntity
  8
0
  6
CONTINUOUS
 62
               7
100
AcDbLine
 10
16.0
 20
24.5
 30
0.0
 11
16.0
 21
36.200000000000003
 31
0.0
  0
LINE
  5
203
100
AcDbEntity
  8
0
  6
CONTINUOUS
 62
               7
100
AcDbLine
 10
9.0
 20
32.200000000000003
 30
0.0
 11
9.0
 21
36.200000000000003
 31
0.0
  0
LINE
  5
204
100
AcDbEntity
  8
0
  6
CONTINUOUS
 62
               7
100
AcDbLine
 10
13.0
 20
32.200000000000003
 30
0.0
 11
13.0
 21
36.200000000000003
 31
0.0
  0
ARC
  5
205
100
AcDbEntity
  8
0
  6
CONTINUOUS
 62
               7
100
AcDbCircle
 10
11.0
 20
32.200000000000003
 30
0.0
 40
2.0
100
AcDbArc
 50
179.99999999999963
 51
0.0
  0
LINE
  5
206
100
AcDbEntity
  8
0
  6
CENTER
 62
               2
100
AcDbLine
 10
12.700000000000017
 20
33.899999999999991
 30
0.0
 11
9.3000000000000114
 21
33.899999999999991
 31
0.0
  0
CIRCLE
  5
207
100
AcDbEntity
  8
0
  6
CONTINUOUS
 62
               7
100
AcDbCircle
 10
11.0
 20
33.899999999999991
 30
0.0
 40
1.3000000000000012
  0
CIRCLE
  5
208
100
AcDbEntity
  8
0
  6
CONTINUOUS
 62
               7
100
AcDbCircle
 10
11.0
 20
33.899999999999991
 30
0.0
 40
1.1500000000000001
  0
CIRCLE
  5
209
100
AcDbEntity
  8
0
  6
CONTINUOUS
 62
               7
100
AcDbCircle
 10
11.0
 20
33.899999999999991
 30
0.0
 40
1.1000000000000001
  0
CIRCLE
  5
20A
100
AcDbEntity
  8
0
  6
CONTINUOUS
 62
               7
100
AcDbCircle
 10
11.0
 20
33.899999999999991
 30
0.0
 40
0.75
  0
ARC
  5
20B
100
AcDbEntity
  8
0
  6
CONTINUOUS
 62
               7
100
AcDbCircle
 10
6.5905539681090772
 20
6.2682512686530458
 30
0.0
 40
0.6105564724372721
100
AcDbArc
 50
179.83589550320582
 51
253.77907243150949
  0
LINE
  5
20C
100
AcDbEntity
  8
0
  6
CONTINUOUS
 62
               7
100
AcDbLine
 10
15.800000000000011
 20
5.0
 30
0.0
 11
6.2000000000000171
 21
5.0
 31
0.0
  0
LINE
  5
20D
100
AcDbEntity
  8
0
  6
CONTINUOUS
 62
               7
100
AcDbLine
 10
5.9800000000000182
 20
6.7999999999999829
 30
0.0
 11
9.5
 21
6.7999999999999829
 31
0.0
  0
ARC
  5
20E
100
AcDbEntity
  8
0
  6
CONTINUOUS
 62
               7
100
AcDbCircle
 10
6.2991048631411388
 20
7.0991048631410933
 30
0.0
 40
0.2991062025847394
100
AcDbArc
 50
179.82853033398985
 51
270.17146966600922
  0
ARC
  5
20F
100
AcDbEntity
  8
0
  6
CONTINUOUS
 62
               7
100
AcDbCircle
 10
6.2000000000000171
 20
5.1999999999999886
 30
0.0
 40
0.2
100
AcDbArc
 50
179.99999999999963
 51
269.99999999999937
  0
LINE
  5
210
100
AcDbEntity
  8
0
  6
CONTINUOUS
 62
               7
100
AcDbLine
 10
9.5
 20
5.0
 30
0.0
 11
9.5
 21
6.7999999999999829
 31
0.0
  0
ARC
  5
211
100
AcDbEntity
  8
0
  6
CONTINUOUS
 62
               7
100
AcDbCircle
 10
7.7000000000000171
 20
10.087421236733945
 30
0.0
 40
4.5876068132596712
100
AcDbArc
 50
253.79871892415684
 51
286.20128107584191
  0
ARC
  5
212
100
AcDbEntity
  8
0
  6
CONTINUOUS
 62
               7
100
AcDbCircle
 10
8.8082280041660965
 20
6.2691627179709712
 30
0.0
 40
0.6117725687931934
100
AcDbArc
 50
286.30661609184898
 51
0.0784159734340139
  0
LINE
  5
213
100
AcDbEntity
  8
0
  6
CONTINUOUS
 62
               7
100
AcDbLine
 10
9.4200000000000159
 20
6.2700000000000102
 30
0.0
 11
9.4200000000000159
 21
6.7999999999999829
 31
0.0
  0
LINE
  5
214
100
AcDbEntity
  8
0
  6
CONTINUOUS
 62
               7
100
AcDbLine
 10
6.0
 20
5.1999999999999886
 30
0.0
 11
6.0
 21
6.1132505693459507
 31
0.0
  0
LINE
  5
215
100
AcDbEntity
  8
0
  6
CONTINUOUS
 62
               7
100
AcDbLine
 10
5.9800000000000182
 20
6.2700000000000102
 30
0.0
 11
5.9800000000000182
 21
6.7999999999999829
 31
0.0
  0
ARC
  5
216
100
AcDbEntity
  8
0
  6
CONTINUOUS
 62
               7
100
AcDbCircle
 10
15.800000000000011
 20
5.1999999999999886
 30
0.0
 40
0.2
100
AcDbArc
 50
269.99999999999937
 51
0.0
  0
LINE
  5
217
100
AcDbEntity
  8
0
  6
CONTINUOUS
 62
               7
100
AcDbLine
 10
14.700000000000017
 20
12.699999999999989
 30
0.0
 11
16.0
 21
12.699999999999989
 31
0.0
  0
LINE
  5
218
100
AcDbEntity
  8
0
  6
CONTINUOUS
 62
               7
100
AcDbLine
 10
14.700000000000017
 20
15.899999999999977
 30
0.0
 11
16.0
 21
15.899999999999977
 31
0.0
  0
LINE
  5
219
100
AcDbEntity
  8
0
  6
CONTINUOUS
 62
               7
100
AcDbLine
 10
7.3000000000000114
 20
21.799999999999983
 30
0.0
 11
6.0
 21
21.799999999999983
 31
0.0
  0
LINE
  5
21A
100
AcDbEntity
  8
0
  6
CONTINUOUS
 62
               7
100
AcDbLine
 10
7.3000000000000114
 20
18.599999999999994
 30
0.0
 11
6.0
 21
18.599999999999994
 31
0.0
  0
LINE
  5
21B
100
AcDbEntity
  8
0
  6
CONTINUOUS
 62
               7
100
AcDbLine
 10
16.000000006382493
 20
10.0
 30
0.0
 11
6.0000000063824928
 21
10.0
 31
0.0
  0
LINE
  5
21C
100
AcDbEntity
  8
0
  6
CENTER
 62
               2
100
AcDbLine
 10
16.560577971874096
 20
14.299999999999983
 30
0.0
 11
12.282054828561172
 21
14.299999999999983
 31
0.0
  0
ARC
  5
21D
100
AcDbEntity
  8
0
  6
CONTINUOUS
 62
               7
100
AcDbCircle
 10
14.700000000000017
 20
14.299999999999983
 30
0.0
 40
1.6000000000000001
100
AcDbArc
 50
89.999999999999815
 51
269.99999999999937
  0
ARC
  5
21E
100
AcDbEntity
  8
0
  6
CONTINUOUS
 62
               7
100
AcDbCircle
 10
7.3000000000000114
 20
20.199999999999989
 30
0.0
 40
1.6000000000000001
100
AcDbArc
 50
269.99999999999937
 51
89.999999999999801
  0
CIRCLE
  5
21F
100
AcDbEntity
  8
0
  6
CONTINUOUS
 62
               7
100
AcDbCircle
 10
14.700000000000017
 20
14.299999999999983
 30
0.0
 40
1.075
  0
CIRCLE
  5
220
100
AcDbEntity
  8
0
  6
CONTINUOUS
 62
               7
100
AcDbCircle
 10
7.3000000000000114
 20
20.199999999999989
 30
0.0
 40
1.075
  0
LINE
  5
221
100
AcDbEntity
  8
0
  6
CENTER
 62
               2
100
AcDbLine
 10
9.4781662840152308
 20
20.199999999999989
 30
0.0
 11
4.8222827114486222
 21
20.199999999999989
 31
0.0
  0
LINE
  5
222
100
AcDbEntity
  8
0
  6
CENTER
 62
               2
100
AcDbLine
 10
14.700000000000017
 20
11.991725194902557
 30
0.0
 11
14.700000000000017
 21
16.651939608336619
 31
0.0
  0
LINE
  5
223
100
AcDbEntity
  8
0
  6
CENTER
 62
               2
100
AcDbLine
 10
7.3000000000000114
 20
17.606854984051068
 30
0.0
 11
7.3000000000000114
 21
22.656448283146972
 31
0.0
  0
LINE
  5
224
100
AcDbEntity
  8
0
  6
CONTINUOUS
 62
               7
100
AcDbLine
 10
16.0
 20
24.5
 30
0.0
 11
6.0
 21
24.5
 31
0.0
  0
LINE
  5
225
100
AcDbEntity
  8
0
  6
CONTINUOUS
 62
               7
100
AcDbLine
 10
6.0
 20
6.7999999999999829
 30
0.0
 11
6.0
 21
24.500000000494481
 31
0.0
  0
LINE
  5
226
100
AcDbEntity
  8
0
  6
CONTINUOUS
 62
               7
100
AcDbLine
 10
16.0
 20
5.1999999999999886
 30
0.0
 11
16.0
 21
24.5
 31
0.0
  0
LINE
  5
227
100
AcDbEntity
  8
0
  6
CENTER
 62
               2
100
AcDbLine
 10
15.0
 20
18.599999999999994
 30
0.0
 11
11.0
 21
18.599999999999994
 31
0.0
  0
LINE
  5
228
100
AcDbEntity
  8
0
  6
CENTER
 62
               2
100
AcDbLine
 10
13.0
 20
16.599999999999994
 30
0.0
 11
13.0
 21
20.599999999999994
 31
0.0
  0
CIRCLE
  5
229
100
AcDbEntity
  8
0
  6
CONTINUOUS
 62
               2
100
AcDbCircle
 10
13.0
 20
18.599999999999994
 30
0.0
 40
1.5
  0
CIRCLE
  5
22A
100
AcDbEntity
  8
0
  6
CONTINUOUS
 62
               7
100
AcDbCircle
 10
13.0
 20
18.599999999999994
 30
0.0
 40
1.25
  0
ARC
  5
22B
100
AcDbEntity
  8
0
  6
CONTINUOUS
 62
               7
100
AcDbCircle
 10
11.0
 20
32.200000000000003
 30
0.0
 40
3.1000000000000001
100
AcDbArc
 50
179.99999999999963
 51
0.0
  0
LINE
  5
22C
100
AcDbEntity
  8
0
  6
CONTINUOUS
 62
               7
100
AcDbLine
 10
14.1
 20
32.200000000000003
 30
0.0
 11
14.1
 21
36.200000000000003
 31
0.0
  0
LINE
  5
22D
100
AcDbEntity
  8
0
  6
CONTINUOUS
 62
               7
100
AcDbLine
 10
7.9000000000000004
 20
32.200000000000003
 30
0.0
 11
7.9000000000000004
 21
36.200000000000003
 31
0.0
  0
ENDBLK
  5
22E
100
AcDbEntity
  8
0
100
AcDbBlockEnd
  0
BLOCK
  5
22F
100
AcDbEntity
  8
0
100
AcDbBlockBegin
  2
EB10SF1-5
 70
               0
 10
0.0
 20
0.0
 30
0.0
  3
EB10SF1-5
  1

  0
LINE
  5
230
100
AcDbEntity
  8
0
  6
CONTINUOUS
 62
               4
100
AcDbLine
 10
-7.0
 20
0.0000000256359272
 30
0.0
 11
-7.0
 21
5.0
 31
0.0
  0
LINE
  5
231
100
AcDbEntity
  8
0
  6
CONTINUOUS
 62
               4
100
AcDbLine
 10
7.0
 20
0.0000000256359272
 30
0.0
 11
7.0
 21
5.0
 31
0.0
  0
LINE
  5
232
100
AcDbEntity
  8
0
  6
CONTINUOUS
 62
               4
100
AcDbLine
 10
-7.0000000007497221
 20
1.2000000000000171
 30
0.0
 11
6.9999999992502779
 21
1.2000000000000171
 31
0.0
  0
LINE
  5
233
100
AcDbEntity
  8
0
  6
CONTINUOUS
 62
               4
100
AcDbLine
 10
-7.0000000007497221
 20
3.8000000000000114
 30
0.0
 11
6.9999999992502779
 21
3.8000000000000114
 31
0.0
  0
LINE
  5
234
100
AcDbEntity
  8
0
  6
CONTINUOUS
 62
               4
100
AcDbLine
 10
-7.0000000007497221
 20
5.0
 30
0.0
 11
6.9999999992502779
 21
5.0
 31
0.0
  0
LINE
  5
235
100
AcDbEntity
  8
0
  6
CONTINUOUS
 62
               4
100
AcDbLine
 10
-7.0000000007497221
 20
0.0
 30
0.0
 11
7.0
 21
0.0
 31
0.0
  0
LINE
  5
236
100
AcDbEntity
  8
0
  6
CENTER
 62
               2
100
AcDbLine
 10
0.0
 20
61.862585161280521
 30
0.0
 11
0.0
 21
-2.4488717557984785
 31
0.0
  0
ARC
  5
237
100
AcDbEntity
  8
0
  6
DASHED
 62
             200
100
AcDbCircle
 10
-18.5
 20
19.299999999999955
 30
0.0
 40
0.5
100
AcDbArc
 50
179.99999999999963
 51
269.99999999999937
  0
ARC
  5
238
100
AcDbEntity
  8
0
  6
DASHED
 62
             200
100
AcDbCircle
 10
-18.5
 20
24.299999999999983
 30
0.0
 40
0.5
100
AcDbArc
 50
89.999999999999815
 51
179.99999999999963
  0
LINE
  5
239
100
AcDbEntity
  8
0
  6
DASHED
 62
             200
100
AcDbLine
 10
-19.0
 20
19.299999999999955
 30
0.0
 11
-19.0
 21
24.299999999999983
 31
0.0
  0
LINE
  5
23A
100
AcDbEntity
  8
0
  6
DASHED
 62
             200
100
AcDbLine
 10
-16.5
 20
18.799999999999955
 30
0.0
 11
-16.5
 21
24.799999999999983
 31
0.0
  0
LINE
  5
23B
100
AcDbEntity
  8
0
  6
DASHED
 62
             200
100
AcDbLine
 10
-18.5
 20
18.799999999999955
 30
0.0
 11
-18.5
 21
24.799999999999983
 31
0.0
  0
LINE
  5
23C
100
AcDbEntity
  8
0
  6
DASHED
 62
             200
100
AcDbLine
 10
-7.0
 20
18.799999999999955
 30
0.0
 11
-18.5
 21
18.799999999999955
 31
0.0
  0
LINE
  5
23D
100
AcDbEntity
  8
0
  6
DASHED
 62
             200
100
AcDbLine
 10
-7.0
 20
24.799999999999983
 30
0.0
 11
-18.5
 21
24.799999999999983
 31
0.0
  0
LINE
  5
23E
100
AcDbEntity
  8
0
  6
CENTER
 62
               2
100
AcDbLine
 10
-6.1241534247009071
 20
21.799999999999983
 30
0.0
 11
-20.405931067489945
 21
21.799999999999983
 31
0.0
  0
LINE
  5
23F
100
AcDbEntity
  8
0
  6
CONTINUOUS
 62
               4
100
AcDbLine
 10
33.995959596051236
 20
52.959233128737011
 30
0.0
 11
33.995959596051236
 21
53.459233128737011
 31
0.0
  0
ARC
  5
240
100
AcDbEntity
  8
0
  6
CONTINUOUS
 62
               4
100
AcDbCircle
 10
9.8869807275629569
 20
36.699995453571191
 30
0.0
 40
0.5
100
AcDbArc
 50
269.7556636029762
 51
295.03102081721903
  0
LINE
  5
241
100
AcDbEntity
  8
0
  6
CONTINUOUS
 62
               4
100
AcDbLine
 10
7.0000000135181608
 20
36.20000000000023
 30
0.0
 11
9.8848484967181207
 21
36.20000000000023
 31
0.0
  0
ARC
  5
242
100
AcDbEntity
  8
0
  6
CONTINUOUS
 62
               4
100
AcDbCircle
 10
-4.3989118272451435
 20
58.101088005237258
 30
0.0
 40
0.5989129830170392
100
AcDbArc
 50
359.89591452477299
 51
90.104085475226924
  0
LINE
  5
243
100
AcDbEntity
  8
0
  6
CONTINUOUS
 62
               4
100
AcDbLine
 10
-3.2999998324822286
 20
58.100000000000236
 30
0.0
 11
-3.2999998324822286
 21
58.700000000000259
 31
0.0
  0
LINE
  5
244
100
AcDbEntity
  8
0
  6
CONTINUOUS
 62
               4
100
AcDbLine
 10
30.495959596051165
 20
53.860555545467278
 30
0.0
 11
27.158585860584566
 21
53.860555545467221
 31
0.0
  0
LINE
  5
245
100
AcDbEntity
  8
0
  6
CONTINUOUS
 62
               4
100
AcDbLine
 10
30.495959596051193
 20
52.559545445200584
 30
0.0
 11
27.90808080965121
 21
52.559545445200527
 31
0.0
  0
LINE
  5
246
100
AcDbEntity
  8
0
  6
CONTINUOUS
 62
               4
100
AcDbLine
 10
7.0000000135178198
 20
55.701010089866926
 30
0.0
 11
14.49494950418449
 21
55.701010089867097
 31
0.0
  0
LINE
  5
247
100
AcDbEntity
  8
0
  6
CONTINUOUS
 62
               4
100
AcDbLine
 10
14.996969705917849
 20
55.19898988813371
 30
0.0
 11
14.996969705918161
 21
38.851515150000452
 31
0.0
  0
LINE
  5
248
100
AcDbEntity
  8
0
  6
CONTINUOUS
 62
               4
100
AcDbLine
 10
22.993939398317906
 20
50.702020193733787
 30
0.0
 11
22.993939398317821
 21
54.803030292400521
 31
0.0
  0
LINE
  5
249
100
AcDbEntity
  8
0
  6
CONTINUOUS
 62
               4
100
AcDbLine
 10
16.389898998051166
 20
56.80404039226714
 30
0.0
 11
21.494949500184475
 21
57.702020189733886
 31
0.0
  0
LINE
  5
24A
100
AcDbEntity
  8
0
  6
CONTINUOUS
 62
               4
100
AcDbLine
 10
22.993939398317792
 20
56.705050493333815
 30
0.0
 11
22.993939398317764
 21
57.702020189733886
 31
0.0
  0
LINE
  5
24B
100
AcDbEntity
  8
0
  6
CONTINUOUS
 62
               4
100
AcDbLine
 10
15.329292938051196
 20
55.602020190933658
 30
0.0
 11
21.671717176851132
 21
56.719191907467163
 31
0.0
  0
LINE
  5
24C
100
AcDbEntity
  8
0
  6
CONTINUOUS
 62
               4
100
AcDbLine
 10
13.992929302451159
 20
55.799999988800366
 30
0.0
 11
8.293939406717783
 21
55.799999988800252
 31
0.0
  0
LINE
  5
24D
100
AcDbEntity
  8
0
  6
CONTINUOUS
 62
               4
100
AcDbLine
 10
22.993939398317821
 20
54.803030292400521
 30
0.0
 11
22.696969701517844
 21
55.099999989200498
 31
0.0
  0
LINE
  5
24E
100
AcDbEntity
  8
0
  6
CONTINUOUS
 62
               4
100
AcDbLine
 10
21.996969701917891
 20
50.702020193733787
 30
0.0
 11
21.996969701917891
 21
51.3030302944005
 31
0.0
  0
LINE
  5
24F
100
AcDbEntity
  8
0
  6
CONTINUOUS
 62
               4
100
AcDbLine
 10
21.996969701917891
 20
51.3030302944005
 30
0.0
 11
16.997979805784524
 21
51.303030294400443
 31
0.0
  0
LINE
  5
250
100
AcDbEntity
  8
0
  6
CONTINUOUS
 62
               4
100
AcDbLine
 10
16.997979805784553
 20
50.702020193733674
 30
0.0
 11
16.997979805784524
 21
51.303030294400443
 31
0.0
  0
LINE
  5
251
100
AcDbEntity
  8
0
  6
CONTINUOUS
 62
               4
100
AcDbLine
 10
16.495959604051166
 20
54.803030292400408
 30
0.0
 11
16.792929300851142
 21
55.099999989200384
 31
0.0
  0
LINE
  5
252
100
AcDbEntity
  8
0
  6
CONTINUOUS
 62
               4
100
AcDbLine
 10
16.389898998051166
 20
56.80404039226714
 30
0.0
 11
7.296969710317768
 21
56.80404039226697
 31
0.0
  0
LINE
  5
253
100
AcDbEntity
  8
0
  6
CONTINUOUS
 62
               4
100
AcDbLine
 10
8.293939406717783
 20
55.701010089866983
 30
0.0
 11
8.293939406717783
 21
55.799999988800252
 31
0.0
  0
LINE
  5
254
100
AcDbEntity
  8
0
  6
CONTINUOUS
 62
               4
100
AcDbLine
 10
27.561616163384514
 20
52.55454544520056
 30
0.0
 11
22.993939398317877
 21
52.554545445200446
 31
0.0
  0
LINE
  5
255
100
AcDbEntity
  8
0
  6
CONTINUOUS
 62
             200
100
AcDbLine
 10
26.324242426717831
 20
54.709040393467163
 30
0.0
 11
28.056565658051227
 21
51.70398989013394
 31
0.0
  0
LINE
  5
256
100
AcDbEntity
  8
0
  6
CONTINUOUS
 62
               4
100
AcDbLine
 10
26.81212121431787
 20
53.855555545467226
 30
0.0
 11
22.993939398317849
 21
53.855555545467169
 31
0.0
  0
LINE
  5
257
100
AcDbEntity
  8
0
  6
CONTINUOUS
 62
               4
100
AcDbLine
 10
22.993939398317764
 20
57.702020189733886
 30
0.0
 11
21.494949500184475
 21
57.702020189733886
 31
0.0
  0
LINE
  5
258
100
AcDbEntity
  8
0
  6
CONTINUOUS
 62
               4
100
AcDbLine
 10
22.993939398317792
 20
56.705050493333815
 30
0.0
 11
21.586868692051098
 21
56.705050493333815
 31
0.0
  0
LINE
  5
259
100
AcDbEntity
  8
0
  6
CONTINUOUS
 62
               4
100
AcDbLine
 10
22.696969701517844
 20
55.099999989200498
 30
0.0
 11
16.792929300851142
 21
55.099999989200384
 31
0.0
  0
LINE
  5
25A
100
AcDbEntity
  8
0
  6
CONTINUOUS
 62
               4
100
AcDbLine
 10
22.993939398317821
 20
54.803030292400521
 30
0.0
 11
15.400000008717882
 21
54.803030292400379
 31
0.0
  0
LINE
  5
25B
100
AcDbEntity
  8
0
  6
CONTINUOUS
 62
               4
100
AcDbLine
 10
22.993939398317849
 20
54.10303029280054
 30
0.0
 11
14.996969705917877
 21
54.103030292800426
 31
0.0
  0
LINE
  5
25C
100
AcDbEntity
  8
0
  6
CONTINUOUS
 62
               4
100
AcDbLine
 10
22.993939398317877
 20
52.299999990800544
 30
0.0
 11
14.996969705917905
 21
52.299999990800401
 31
0.0
  0
LINE
  5
25D
100
AcDbEntity
  8
0
  6
CONTINUOUS
 62
               4
100
AcDbLine
 10
14.996969705917934
 20
50.702020193733674
 30
0.0
 11
16.997979805784553
 21
50.702020193733674
 31
0.0
  0
LINE
  5
25E
100
AcDbEntity
  8
0
  6
CONTINUOUS
 62
               4
100
AcDbLine
 10
21.996969701917891
 20
50.702020193733787
 30
0.0
 11
22.993939398317906
 21
50.702020193733787
 31
0.0
  0
ARC
  5
25F
100
AcDbEntity
  8
0
  6
CONTINUOUS
 62
               7
100
AcDbCircle
 10
14.497257383074867
 20
38.852522460539561
 30
0.0
 40
0.4997133381008656
100
AcDbArc
 50
294.82621530980992
 51
359.88450442035736
  0
ARC
  5
260
100
AcDbEntity
  8
0
  6
CONTINUOUS
 62
               4
100
AcDbCircle
 10
14.500332854439165
 20
55.204373238388385
 30
0.0
 40
0.4966660273328702
100
AcDbArc
 50
359.37896036356483
 51
90.621039636434716
  0
ARC
  5
261
100
AcDbEntity
  8
0
  6
CONTINUOUS
 62
               4
100
AcDbCircle
 10
7.2994313052352311
 20
56.504584129418916
 30
0.0
 40
0.2994663800970315
100
AcDbArc
 50
90.47097302846538
 51
180.87710076750685
  0
ARC
  5
262
100
AcDbEntity
  8
0
  6
CONTINUOUS
 62
               4
100
AcDbCircle
 10
13.999912527655027
 20
55.30503432509299
 30
0.0
 40
0.4950149226876426
100
AcDbArc
 50
53.123124741165753
 51
90.808304124579536
  0
ARC
  5
263
100
AcDbEntity
  8
0
  6
CONTINUOUS
 62
               4
100
AcDbCircle
 10
15.399895939896879
 20
55.205327231604898
 30
0.0
 40
0.4029269013737999
100
AcDbArc
 50
100.09177155739695
 51
179.8957164142515
  0
ARC
  5
264
100
AcDbEntity
  8
0
  6
CONTINUOUS
 62
               4
100
AcDbCircle
 10
15.400834052872199
 20
55.206894639354729
 30
0.0
 40
0.403865208170398
100
AcDbArc
 50
180.11832473551567
 51
269.88167526448677
  0
LINE
  5
265
100
AcDbEntity
  8
0
  6
CONTINUOUS
 62
             200
100
AcDbLine
 10
26.670707072984527
 20
54.70904039346722
 30
0.0
 11
28.403030304317923
 21
51.711060597200586
 31
0.0
  0
LINE
  5
266
100
AcDbEntity
  8
0
  6
CONTINUOUS
 62
               4
100
AcDbLine
 10
4.9999999824822225
 20
57.099999999999952
 30
0.0
 11
-7.0000000135178055
 21
57.100000000000179
 31
0.0
  0
LINE
  5
267
100
AcDbEntity
  8
0
  6
CONTINUOUS
 62
               4
100
AcDbLine
 10
4.9999999824822794
 20
58.700000000000003
 30
0.0
 11
4.9999999824822225
 21
57.099999999999952
 31
0.0
  0
LINE
  5
268
100
AcDbEntity
  8
0
  6
CONTINUOUS
 62
               4
100
AcDbLine
 10
6.4999999784822364
 20
58.600000000000009
 30
0.0
 11
4.999999982482251
 21
58.600000000000009
 31
0.0
  0
ARC
  5
269
100
AcDbEntity
  8
0
  6
CONTINUOUS
 62
               4
100
AcDbCircle
 10
6.4999999784822364
 20
58.099999999999952
 30
0.0
 40
0.5
100
AcDbArc
 50
359.99999999999898
 51
89.999999999998778
  0
LINE
  5
26A
100
AcDbEntity
  8
0
  6
CONTINUOUS
 62
               4
100
AcDbLine
 10
6.1999998924822535
 20
58.700000000000003
 30
0.0
 11
-6.1999999275177657
 21
58.70000000000023
 31
0.0
  0
ARC
  5
26B
100
AcDbEntity
  8
0
  6
CONTINUOUS
 62
               4
100
AcDbCircle
 10
-6.500000013517834
 20
58.100000000000207
 30
0.0
 40
0.5
100
AcDbArc
 50
93.919585899649775
 51
179.99999999999858
  0
LINE
  5
26C
100
AcDbEntity
  8
0
  6
CONTINUOUS
 62
               4
100
AcDbLine
 10
-3.2999998324822286
 20
58.100000000000151
 30
0.0
 11
-7.0000000135178055
 21
58.100000000000207
 31
0.0
  0
ARC
  5
26D
100
AcDbEntity
  8
0
  6
CONTINUOUS
 62
               4
100
AcDbCircle
 10
-6.2010879326460469
 20
58.10108800512846
 30
0.0
 40
0.598912923125741
100
AcDbArc
 50
89.895914524771712
 51
180.10408547522565
  0
ARC
  5
26E
100
AcDbEntity
  8
0
  6
CONTINUOUS
 62
               4
100
AcDbCircle
 10
6.2000950391309289
 20
58.100095146648655
 30
0.0
 40
0.599904800896587
100
AcDbArc
 50
56.247417870392866
 51
90.009087277545149
  0
LINE
  5
26F
100
AcDbEntity
  8
0
  6
CONTINUOUS
 62
               4
100
AcDbLine
 10
30.495959596051193
 20
52.559545445200584
 30
0.0
 11
30.495959596051165
 21
53.860555545467278
 31
0.0
  0
LINE
  5
270
100
AcDbEntity
  8
0
  6
CONTINUOUS
 62
               4
100
AcDbLine
 10
30.495959596051179
 20
53.459233112521432
 30
0.0
 11
33.995959596051236
 21
53.459233112521432
 31
0.0
  0
LINE
  5
271
100
AcDbEntity
  8
0
  6
CONTINUOUS
 62
               4
100
AcDbLine
 10
30.495959596051179
 20
52.959233112521432
 30
0.0
 11
33.995959596051236
 21
52.959233112521432
 31
0.0
  0
LINE
  5
272
100
AcDbEntity
  8
0
  6
CONTINUOUS
 62
               4
100
AcDbLine
 10
7.0000000135177913
 20
58.100000000000207
 30
0.0
 11
7.0000000135181608
 21
36.20000000000023
 31
0.0
  0
LINE
  5
273
100
AcDbEntity
  8
0
  6
CONTINUOUS
 62
               4
100
AcDbLine
 10
-6.9999999784818101
 20
36.199999999999974
 30
0.0
 11
-6.999999978482208
 21
58.099999999999952
 31
0.0
  0
LINE
  5
274
100
AcDbEntity
  8
0
  6
CONTINUOUS
 62
               4
100
AcDbLine
 10
9.8848484967181207
 20
36.200000000000287
 30
0.0
 11
9.8848484967177797
 21
55.701010089866983
 31
0.0
  0
LINE
  5
275
100
AcDbEntity
  8
0
  6
CONTINUOUS
 62
               4
100
AcDbLine
 10
10.098535171945954
 20
36.246956032480924
 30
0.0
 11
14.707070716184802
 21
38.398989897733699
 31
0.0
  0
LINE
  5
276
100
AcDbEntity
  8
0
  6
CONTINUOUS
 62
               2
100
AcDbLine
 10
-7.2719999999999914
 20
23.032000000000011
 30
0.0
 11
-7.0
 21
23.032000000000011
 31
0.0
  0
LINE
  5
277
100
AcDbEntity
  8
0
  6
CONTINUOUS
 62
               7
100
AcDbLine
 10
-7.2719999999999914
 20
23.032000000000011
 30
0.0
 11
-7.0
 21
23.300000000000011
 31
0.0
  0
LINE
  5
278
100
AcDbEntity
  8
0
  6
CONTINUOUS
 62
               2
100
AcDbLine
 10
-7.2719999999999914
 20
20.572000000000003
 30
0.0
 11
-7.0
 21
20.572000000000003
 31
0.0
  0
LINE
  5
279
100
AcDbEntity
  8
0
  6
CONTINUOUS
 62
               7
100
AcDbLine
 10
-7.2719999999999914
 20
20.572000000000003
 30
0.0
 11
-7.0
 21
20.300000000000011
 31
0.0
  0
LINE
  5
27A
100
AcDbEntity
  8
0
  6
CONTINUOUS
 62
               7
100
AcDbLine
 10
-7.2719999999999914
 20
20.572000000000003
 30
0.0
 11
-7.2719999999999914
 21
23.032000000000011
 31
0.0
  0
ARC
  5
27B
100
AcDbEntity
  8
0
  6
CONTINUOUS
 62
               7
100
AcDbCircle
 10
5.2799999999999727
 20
10.087421236734031
 30
0.0
 40
4.5876068132596712
100
AcDbArc
 50
253.7987189241569
 51
286.20128107584202
  0
ARC
  5
27C
100
AcDbEntity
  8
0
  6
CONTINUOUS
 62
               7
100
AcDbCircle
 10
4.1717719958339217
 20
6.2691627179710849
 30
0.0
 40
0.6117725687931934
100
AcDbArc
 50
179.9215840265656
 51
253.6933839081498
  0
LINE
  5
27D
100
AcDbEntity
  8
0
  6
CONTINUOUS
 62
               7
100
AcDbLine
 10
3.5600000000000023
 20
6.2700000000000955
 30
0.0
 11
3.5600000000000023
 21
6.8000000000000682
 31
0.0
  0
ARC
  5
27E
100
AcDbEntity
  8
0
  6
CONTINUOUS
 62
               7
100
AcDbCircle
 10
6.389446031890941
 20
6.2682512686531027
 30
0.0
 40
0.6105564724372721
100
AcDbArc
 50
286.22092756849014
 51
0.1641044967937703
  0
LINE
  5
27F
100
AcDbEntity
  8
0
  6
CONTINUOUS
 62
               7
100
AcDbLine
 10
7.0
 20
6.8000000000000682
 30
0.0
 11
3.4800000000000182
 21
6.8000000000000682
 31
0.0
  0
ARC
  5
280
100
AcDbEntity
  8
0
  6
CONTINUOUS
 62
               7
100
AcDbCircle
 10
6.6808951368589078
 20
7.0991048631411786
 30
0.0
 40
0.2991062025847394
100
AcDbArc
 50
269.82853033399044
 51
0.1714696660097498
  0
LINE
  5
281
100
AcDbEntity
  8
0
  6
CONTINUOUS
 62
               7
100
AcDbLine
 10
3.4800000000000182
 20
5.0
 30
0.0
 11
3.4800000000000182
 21
6.8000000000000682
 31
0.0
  0
LINE
  5
282
100
AcDbEntity
  8
0
  6
CONTINUOUS
 62
               7
100
AcDbLine
 10
-7.0000028165267736
 20
36.199999999999974
 30
0.0
 11
10.0
 21
36.199999999999974
 31
0.0
  0
LINE
  5
283
100
AcDbEntity
  8
0
  6
CONTINUOUS
 62
               7
100
AcDbLine
 10
7.0
 20
29.100000000000009
 30
0.0
 11
8.0999999999999943
 21
30.200000000000003
 31
0.0
  0
LINE
  5
284
100
AcDbEntity
  8
0
  6
CONTINUOUS
 62
               7
100
AcDbLine
 10
7.0
 20
36.199999999999974
 30
0.0
 11
7.0
 21
24.5
 31
0.0
  0
LINE
  5
285
100
AcDbEntity
  8
0
  6
CONTINUOUS
 62
               7
100
AcDbLine
 10
-7.0
 20
36.199999999999974
 30
0.0
 11
-7.0
 21
24.5
 31
0.0
  0
LINE
  5
286
100
AcDbEntity
  8
0
  6
CONTINUOUS
 62
               7
100
AcDbLine
 10
8.5480000000000018
 20
32.799999999999997
 30
0.0
 11
8.5480000000000018
 21
34.999999999999986
 31
0.0
  0
LINE
  5
287
100
AcDbEntity
  8
0
  6
CONTINUOUS
 62
               7
100
AcDbLine
 10
8.5480000000000018
 20
34.999999999999986
 30
0.0
 11
8.0999999999999943
 21
34.999999999999986
 31
0.0
  0
LINE
  5
288
100
AcDbEntity
  8
0
  6
CONTINUOUS
 62
               7
100
AcDbLine
 10
8.5480000000000018
 20
32.799999999999997
 30
0.0
 11
8.0999999999999943
 21
32.799999999999997
 31
0.0
  0
LINE
  5
289
100
AcDbEntity
  8
0
  6
CONTINUOUS
 62
               7
100
AcDbLine
 10
8.0999999999999943
 20
30.200000000000003
 30
0.0
 11
8.0999999999999943
 21
36.199999999999974
 31
0.0
  0
ARC
  5
28A
100
AcDbEntity
  8
0
  6
CONTINUOUS
 62
               7
100
AcDbCircle
 10
-6.6009733670266257
 20
5.3990266329734027
 30
0.0
 40
0.3990278201647513
100
AcDbArc
 50
179.8602356150773
 51
270.1397643849217
  0
LINE
  5
28B
100
AcDbEntity
  8
0
  6
CONTINUOUS
 62
               7
100
AcDbLine
 10
-6.5999999999999943
 20
5.0
 30
0.0
 11
6.5999999999999943
 21
5.0
 31
0.0
  0
ARC
  5
28C
100
AcDbEntity
  8
0
  6
CONTINUOUS
 62
               7
100
AcDbCircle
 10
6.6009733670266257
 20
5.3990266329733743
 30
0.0
 40
0.3990278201647513
100
AcDbArc
 50
269.8602356150771
 51
0.1397643849223044
  0
LINE
  5
28D
100
AcDbEntity
  8
0
  6
CONTINUOUS
 62
               7
100
AcDbLine
 10
6.9986102931690652
 20
36.705000108343299
 30
0.0
 11
6.9985717684384099
 21
36.205000109827424
 31
0.0
  0
LINE
  5
28E
100
AcDbEntity
  8
0
  6
CONTINUOUS
 62
               7
100
AcDbLine
 10
-7.0
 20
10.0
 30
0.0
 11
6.999999986481896
 21
10.0
 31
0.0
  0
LINE
  5
28F
100
AcDbEntity
  8
0
  6
CONTINUOUS
 62
               7
100
AcDbLine
 10
-7.0
 20
24.5
 30
0.0
 11
6.999999986481896
 21
24.5
 31
0.0
  0
LINE
  5
290
100
AcDbEntity
  8
0
  6
CONTINUOUS
 62
               7
100
AcDbLine
 10
7.0
 20
24.5
 30
0.0
 11
7.0
 21
5.4000000000000341
 31
0.0
  0
LINE
  5
291
100
AcDbEntity
  8
0
  6
CENTER
 62
               2
100
AcDbLine
 10
2.4168738811566755
 20
21.5
 30
0.0
 11
5.0848777193341448
 21
21.5
 31
0.0
  0
LINE
  5
292
100
AcDbEntity
  8
0
  6
CENTER
 62
               2
100
AcDbLine
 10
2.4168738811566755
 20
13.0
 30
0.0
 11
5.0848777193341448
 21
13.0
 31
0.0
  0
LINE
  5
293
100
AcDbEntity
  8
0
  6
CENTER
 62
               2
100
AcDbLine
 10
3.75
 20
14.361523884831115
 30
0.0
 11
3.75
 21
11.621411834810999
 31
0.0
  0
CIRCLE
  5
294
100
AcDbEntity
  8
0
  6
CONTINUOUS
 62
               7
100
AcDbCircle
 10
3.75
 20
13.0
 30
0.0
 40
1.05
  0
CIRCLE
  5
295
100
AcDbEntity
  8
0
  6
CONTINUOUS
 62
               7
100
AcDbCircle
 10
3.75
 20
21.5
 30
0.0
 40
1.05
  0
LINE
  5
296
100
AcDbEntity
  8
0
  6
CENTER
 62
               2
100
AcDbLine
 10
3.75
 20
22.942401094104667
 30
0.0
 11
3.75
 21
20.058072620399258
 31
0.0
  0
LINE
  5
297
100
AcDbEntity
  8
0
  6
CONTINUOUS
 62
               7
100
AcDbLine
 10
-7.0
 20
5.4000000000000057
 30
0.0
 11
-7.0
 21
24.5
 31
0.0
  0
LINE
  5
298
100
AcDbEntity
  8
0
  6
CONTINUOUS
 62
               7
100
AcDbLine
 10
5.9999999992502779
 20
21.799999999999983
 30
0.0
 11
7.0
 21
21.799999999999983
 31
0.0
  0
LINE
  5
299
100
AcDbEntity
  8
0
  6
CONTINUOUS
 62
               7
100
AcDbLine
 10
5.9999999992502779
 20
18.599999999999994
 30
0.0
 11
7.0
 21
18.599999999999994
 31
0.0
  0
LINE
  5
29A
100
AcDbEntity
  8
0
  6
CONTINUOUS
 62
               7
100
AcDbLine
 10
5.9999999992502779
 20
21.799999999999983
 30
0.0
 11
5.9999999992502779
 21
18.599999999999994
 31
0.0
  0
ENDBLK
  5
29B
100
AcDbEntity
  8
0
100
AcDbBlockEnd
  0
BLOCK
  5
29C
100
AcDbEntity
  8
0
100
AcDbBlockBegin
  2
EB10SF1-6
 70
               0
 10
0.0
 20
0.0
 30
0.0
  3
EB10SF1-6
  1

  0
LINE
  5
29D
100
AcDbEntity
  8
0
  6
DASHED
 62
             200
100
AcDbLine
 10
-20.25
 20
0.0
 30
0.0
 11
-20.25
 21
1.2000000000000171
 31
0.0
  0
LINE
  5
29E
100
AcDbEntity
  8
0
  6
DASHED
 62
             200
100
AcDbLine
 10
-23.75
 20
0.0
 30
0.0
 11
-23.75
 21
1.2000000000000171
 31
0.0
  0
LINE
  5
29F
100
AcDbEntity
  8
0
  6
DASHED
 62
             200
100
AcDbLine
 10
1.75
 20
0.0
 30
0.0
 11
1.75
 21
1.2000000000000171
 31
0.0
  0
LINE
  5
2A0
100
AcDbEntity
  8
0
  6
DASHED
 62
             200
100
AcDbLine
 10
-1.75
 20
0.0
 30
0.0
 11
-1.75
 21
1.2000000000000171
 31
0.0
  0
LINE
  5
2A1
100
AcDbEntity
  8
0
  6
CONTINUOUS
 62
               4
100
AcDbLine
 10
-5.6999999999999886
 20
5.0
 30
0.0
 11
-16.299999999999955
 21
5.0
 31
0.0
  0
LINE
  5
2A2
100
AcDbEntity
  8
0
  6
CONTINUOUS
 62
               4
100
AcDbLine
 10
-22.0
 20
0.0
 30
0.0
 11
-22.0
 21
1.2000000000000171
 31
0.0
  0
LINE
  5
2A3
100
AcDbEntity
  8
0
  6
CONTINUOUS
 62
               4
100
AcDbLine
 10
0.0
 20
0.0
 30
0.0
 11
0.0
 21
1.2000000000000171
 31
0.0
  0
LINE
  5
2A4
100
AcDbEntity
  8
0
  6
CONTINUOUS
 62
               4
100
AcDbLine
 10
-5.5
 20
1.4000000000000057
 30
0.0
 11
-5.5
 21
3.5999999999999943
 31
0.0
  0
LINE
  5
2A5
100
AcDbEntity
  8
0
  6
CONTINUOUS
 62
               4
100
AcDbLine
 10
-4.3000000000000114
 20
1.4000000000000057
 30
0.0
 11
-4.3000000000000114
 21
3.5999999999999943
 31
0.0
  0
ARC
  5
2A6
100
AcDbEntity
  8
0
  6
CONTINUOUS
 62
               4
100
AcDbCircle
 10
-4.1008966664051627
 20
1.3991033335948089
 30
0.0
 40
1.3991036209254675
100
AcDbArc
 50
179.96327991479848
 51
270.03672008520033
  0
ARC
  5
2A7
100
AcDbEntity
  8
0
  6
CONTINUOUS
 62
               4
100
AcDbCircle
 10
-4.1008966599537757
 20
1.3991033400461959
 30
0.0
 40
0.1991053590856348
100
AcDbArc
 50
179.74197075907335
 51
270.25802924092562
  0
LINE
  5
2A8
100
AcDbEntity
  8
0
  6
CONTINUOUS
 62
               4
100
AcDbLine
 10
-4.0999999999999659
 20
0.0
 30
0.0
 11
3.0
 21
0.0
 31
0.0
  0
LINE
  5
2A9
100
AcDbEntity
  8
0
  6
CONTINUOUS
 62
               4
100
AcDbLine
 10
-4.0999999999999659
 20
1.2000000000000171
 30
0.0
 11
3.0
 21
1.2000000000000171
 31
0.0
  0
LINE
  5
2AA
100
AcDbEntity
  8
0
  6
CONTINUOUS
 62
               4
100
AcDbLine
 10
3.0
 20
0.0
 30
0.0
 11
3.0
 21
1.2000000000000171
 31
0.0
  0
ARC
  5
2AB
100
AcDbEntity
  8
0
  6
CONTINUOUS
 62
               4
100
AcDbCircle
 10
-6.5847799240333984
 20
3.2665835360522806
 30
0.0
 40
0.6147802009733803
100
AcDbArc
 50
286.12836199114588
 51
359.94561607879228
  0
ARC
  5
2AC
100
AcDbEntity
  8
0
  6
CONTINUOUS
 62
               4
100
AcDbCircle
 10
-8.8161606354035484
 20
3.2652966087315747
 30
0.0
 40
0.6138397676001843
100
AcDbArc
 50
179.93434547259068
 51
253.74327317895529
  0
ARC
  5
2AD
100
AcDbEntity
  8
0
  6
CONTINUOUS
 62
               4
100
AcDbCircle
 10
-7.700999999999965
 20
7.1068760988772226
 30
0.0
 40
4.6140039015589682
100
AcDbArc
 50
253.80344035262561
 51
286.19655964737319
  0
ARC
  5
2AE
100
AcDbEntity
  8
0
  6
CONTINUOUS
 62
               4
100
AcDbCircle
 10
-13.184777973164046
 20
3.2665820679404476
 30
0.0
 40
0.6147782487131708
100
AcDbArc
 50
286.12822533946951
 51
359.94575273046883
  0
ARC
  5
2AF
100
AcDbEntity
  8
0
  6
CONTINUOUS
 62
               4
100
AcDbCircle
 10
-15.416158681253251
 20
3.265298072688239
 30
0.0
 40
0.613841720073419
100
AcDbArc
 50
179.93448232673219
 51
253.74313632481389
  0
ARC
  5
2B0
100
AcDbEntity
  8
0
  6
CONTINUOUS
 62
               4
100
AcDbCircle
 10
-14.300999999999988
 20
7.1068760989089697
 30
0.0
 40
4.6140039015894576
100
AcDbArc
 50
253.80344035273558
 51
286.19655964726314
  0
ARC
  5
2B1
100
AcDbEntity
  8
0
  6
CONTINUOUS
 62
               4
100
AcDbCircle
 10
-17.900056684609865
 20
1.4000566846098934
 30
0.0
 40
1.4000566857574084
100
AcDbArc
 50
270.00231975529556
 51
359.99768024470291
  0
ARC
  5
2B2
100
AcDbEntity
  8
0
  6
CONTINUOUS
 62
               4
100
AcDbCircle
 10
-16.30006664106736
 20
3.6000666410673716
 30
0.0
 40
0.1999333700389205
100
AcDbArc
 50
89.980902377767208
 51
180.01909762223218
  0
ARC
  5
2B3
100
AcDbEntity
  8
0
  6
CONTINUOUS
 62
               4
100
AcDbCircle
 10
-5.7008844716972931
 20
3.5991155283026899
 30
0.0
 40
0.2008864188024893
100
AcDbArc
 50
0.2522652321918488
 51
89.747734767807131
  0
ARC
  5
2B4
100
AcDbEntity
  8
0
  6
CONTINUOUS
 62
               4
100
AcDbCircle
 10
-17.900058413382624
 20
1.4000584133826521
 30
0.0
 40
0.2000584219104543
100
AcDbArc
 50
270.01672931490481
 51
359.98327068509366
  0
LINE
  5
2B5
100
AcDbEntity
  8
0
  6
CONTINUOUS
 62
               4
100
AcDbLine
 10
-5.9699999999999704
 20
3.2660000000000196
 30
0.0
 11
-5.9699999999999704
 21
3.8000000000000114
 31
0.0
  0
LINE
  5
2B6
100
AcDbEntity
  8
0
  6
CONTINUOUS
 62
               4
100
AcDbLine
 10
-9.4300000000000068
 20
3.2660000000000196
 30
0.0
 11
-9.4300000000000068
 21
3.8000000000000114
 31
0.0
  0
LINE
  5
2B7
100
AcDbEntity
  8
0
  6
CONTINUOUS
 62
               4
100
AcDbLine
 10
-12.569999999999993
 20
3.2660000000000196
 30
0.0
 11
-12.569999999999993
 21
3.8000000000000114
 31
0.0
  0
LINE
  5
2B8
100
AcDbEntity
  8
0
  6
CONTINUOUS
 62
               4
100
AcDbLine
 10
-16.029999999999973
 20
3.2660000000000196
 30
0.0
 11
-16.029999999999973
 21
3.8000000000000114
 31
0.0
  0
LINE
  5
2B9
100
AcDbEntity
  8
0
  6
CONTINUOUS
 62
               4
100
AcDbLine
 10
-17.699999999999989
 20
1.4000000000000057
 30
0.0
 11
-17.699999999999989
 21
3.5999999999999943
 31
0.0
  0
LINE
  5
2BA
100
AcDbEntity
  8
0
  6
CONTINUOUS
 62
               4
100
AcDbLine
 10
-16.5
 20
1.4000000000000057
 30
0.0
 11
-16.5
 21
3.5999999999999943
 31
0.0
  0
LINE
  5
2BB
100
AcDbEntity
  8
0
  6
CONTINUOUS
 62
               4
100
AcDbLine
 10
-16.299999999999955
 20
3.8000000000000114
 30
0.0
 11
-5.6999999999999886
 21
3.8000000000000114
 31
0.0
  0
LINE
  5
2BC
100
AcDbEntity
  8
0
  6
CONTINUOUS
 62
               4
100
AcDbLine
 10
-25.0
 20
0.0
 30
0.0
 11
-25.0
 21
1.2000000000000171
 31
0.0
  0
LINE
  5
2BD
100
AcDbEntity
  8
0
  6
CONTINUOUS
 62
               4
100
AcDbLine
 10
-25.0
 20
0.0
 30
0.0
 11
-17.899999999999977
 21
0.0
 31
0.0
  0
LINE
  5
2BE
100
AcDbEntity
  8
0
  6
CONTINUOUS
 62
               4
100
AcDbLine
 10
-25.0
 20
1.2000000000000171
 30
0.0
 11
-17.899999999999977
 21
1.2000000000000171
 31
0.0
  0
LINE
  5
2BF
100
AcDbEntity
  8
0
  6
CENTER
 62
             200
100
AcDbLine
 10
-22.0
 20
-2.4438717557984688
 30
0.0
 11
-22.0
 21
3.8000000000000114
 31
0.0
  0
LINE
  5
2C0
100
AcDbEntity
  8
0
  6
CENTER
 62
             200
100
AcDbLine
 10
0.0
 20
-2.4438717557984688
 30
0.0
 11
0.0
 21
3.8000000000000114
 31
0.0
  0
ARC
  5
2C1
100
AcDbEntity
  8
0
  6
CONTINUOUS
 62
               4
100
AcDbCircle
 10
-16.300068323168489
 20
3.6000683231685287
 30
0.0
 40
1.3999316784987346
100
AcDbArc
 50
89.997203699822904
 51
180.00279630017653
  0
ARC
  5
2C2
100
AcDbEntity
  8
0
  6
CONTINUOUS
 62
               4
100
AcDbCircle
 10
-5.7008844620561376
 20
3.5991155379438453
 30
0.0
 40
1.4008847412629901
100
AcDbArc
 50
0.0361742439122946
 51
89.963825756087459
  0
LINE
  5
2C3
100
AcDbEntity
  8
0
  6
CENTER
 62
               2
100
AcDbLine
 10
-11.0
 20
61.862585161280549
 30
0.0
 11
-11.0
 21
2.7920000000000158
 31
0.0
  0
LINE
  5
2C4
100
AcDbEntity
  8
0
  6
CENTER
 62
               2
100
AcDbLine
 10
-13.5
 20
21.799999999999983
 30
0.0
 11
-8.5
 21
21.799999999999983
 31
0.0
  0
LINE
  5
2C5
100
AcDbEntity
  8
0
  6
CONTINUOUS
 62
               7
100
AcDbLine
 10
-11.865999999999929
 20
21.799999999999983
 30
0.0
 11
-11.434000000000026
 21
21.050600240192239
 31
0.0
  0
LINE
  5
2C6
100
AcDbEntity
  8
0
  6
CONTINUOUS
 62
               7
100
AcDbLine
 10
-11.434000000000026
 20
22.549399759807727
 30
0.0
 11
-11.865999999999929
 21
21.799999999999983
 31
0.0
  0
LINE
  5
2C7
100
AcDbEntity
  8
0
  6
CONTINUOUS
 62
               7
100
AcDbLine
 10
-10.565999999999974
 20
22.549399759807727
 30
0.0
 11
-11.434000000000026
 21
22.549399759807727
 31
0.0
  0
LINE
  5
2C8
100
AcDbEntity
  8
0
  6
CONTINUOUS
 62
               7
100
AcDbLine
 10
-10.134000000000071
 20
21.799999999999983
 30
0.0
 11
-10.565999999999974
 21
22.549399759807727
 31
0.0
  0
LINE
  5
2C9
100
AcDbEntity
  8
0
  6
CONTINUOUS
 62
               7
100
AcDbLine
 10
-10.565999999999974
 20
21.050600240192239
 30
0.0
 11
-10.134000000000071
 21
21.799999999999983
 31
0.0
  0
LINE
  5
2CA
100
AcDbEntity
  8
0
  6
CONTINUOUS
 62
               7
100
AcDbLine
 10
-11.434000000000026
 20
21.050600240192239
 30
0.0
 11
-10.565999999999974
 21
21.050600240192239
 31
0.0
  0
CIRCLE
  5
2CB
100
AcDbEntity
  8
0
  6
CONTINUOUS
 62
               7
100
AcDbCircle
 10
-11.0
 20
21.799999999999983
 30
0.0
 40
0.865999999999957
  0
CIRCLE
  5
2CC
100
AcDbEntity
  8
0
  6
CONTINUOUS
 62
               2
100
AcDbCircle
 10
-11.0
 20
21.799999999999983
 30
0.0
 40
1.5
  0
CIRCLE
  5
2CD
100
AcDbEntity
  8
0
  6
CONTINUOUS
 62
               7
100
AcDbCircle
 10
-11.0
 20
21.799999999999983
 30
0.0
 40
1.25
  0
LINE
  5
2CE
100
AcDbEntity
  8
0
  6
CENTER
 62
               2
100
AcDbLine
 10
-8.5
 20
15.399999999999977
 30
0.0
 11
-13.5
 21
15.399999999999977
 31
0.0
  0
CIRCLE
  5
2CF
100
AcDbEntity
  8
0
  6
CONTINUOUS
 62
               7
100
AcDbCircle
 10
-11.0
 20
15.399999999999977
 30
0.0
 40
1.25
  0
CIRCLE
  5
2D0
100
AcDbEntity
  8
0
  6
CONTINUOUS
 62
               2
100
AcDbCircle
 10
-11.0
 20
15.399999999999977
 30
0.0
 40
1.5
  0
CIRCLE
  5
2D1
100
AcDbEntity
  8
0
  6
CONTINUOUS
 62
               7
100
AcDbCircle
 10
-7.2999999999999545
 20
20.199999999999989
 30
0.0
 40
1.05
  0
CIRCLE
  5
2D2
100
AcDbEntity
  8
0
  6
CONTINUOUS
 62
               7
100
AcDbCircle
 10
-14.699999999999989
 20
14.299999999999983
 30
0.0
 40
1.05
  0
LINE
  5
2D3
100
AcDbEntity
  8
0
  6
CONTINUOUS
 62
               4
100
AcDbLine
 10
-6.0
 20
58.700000000000003
 30
0.0
 11
-16.0
 21
58.700000000000003
 31
0.0
  0
LINE
  5
2D4
100
AcDbEntity
  8
0
  6
CONTINUOUS
 62
               4
100
AcDbLine
 10
-6.0
 20
57.100000000000037
 30
0.0
 11
-9.1999999999999886
 21
57.100000000000037
 31
0.0
  0
LINE
  5
2D5
100
AcDbEntity
  8
0
  6
CONTINUOUS
 62
               4
100
AcDbLine
 10
-9.1999999999999886
 20
58.600000000000037
 30
0.0
 11
-15.5
 21
58.600000000000037
 31
0.0
  0
LINE
  5
2D6
100
AcDbEntity
  8
0
  6
CONTINUOUS
 62
               4
100
AcDbLine
 10
-9.1999999999999886
 20
58.600000000000037
 30
0.0
 11
-9.1999999999999886
 21
57.100000000000037
 31
0.0
  0
ARC
  5
2D7
100
AcDbEntity
  8
0
  6
CONTINUOUS
 62
               4
100
AcDbCircle
 10
-15.5
 20
58.100000000000037
 30
0.0
 40
0.5
100
AcDbArc
 50
89.999999999999815
 51
179.99999999999963
  0
LINE
  5
2D8
100
AcDbEntity
  8
0
  6
CONTINUOUS
 62
               4
100
AcDbLine
 10
-6.0
 20
58.100000000000037
 30
0.0
 11
-9.1999999999999886
 21
58.100000000000037
 31
0.0
  0
ARC
  5
2D9
100
AcDbEntity
  8
0
  6
CONTINUOUS
 62
               4
100
AcDbCircle
 10
-6.795904853341824
 20
58.100095146658205
 30
0.0
 40
0.5999048608870732
100
AcDbArc
 50
359.99091272245295
 51
90.009087277546172
  0
ARC
  5
2DA
100
AcDbEntity
  8
0
  6
CONTINUOUS
 62
               4
100
AcDbCircle
 10
-8.5970880052370262
 20
58.101088005237003
 30
0.0
 40
0.5989129830170392
100
AcDbArc
 50
89.895914524772735
 51
180.10408547522667
  0
LINE
  5
2DB
100
AcDbEntity
  8
0
  6
CONTINUOUS
 62
               4
100
AcDbLine
 10
-16.0
 20
58.700000000000003
 30
0.0
 11
-16.0
 21
36.200000000000003
 31
0.0
  0
LINE
  5
2DC
100
AcDbEntity
  8
0
  6
CONTINUOUS
 62
               4
100
AcDbLine
 10
-6.0
 20
58.700000000000003
 30
0.0
 11
-6.0
 21
36.200000000000003
 31
0.0
  0
LINE
  5
2DD
100
AcDbEntity
  8
0
  6
CONTINUOUS
 62
               7
100
AcDbLine
 10
-16.0
 20
36.200000000000003
 30
0.0
 11
-6.0
 21
36.200000000000003
 31
0.0
  0
LINE
  5
2DE
100
AcDbEntity
  8
0
  6
CONTINUOUS
 62
               7
100
AcDbLine
 10
-6.0
 20
24.5
 30
0.0
 11
-6.0
 21
36.200000000000003
 31
0.0
  0
LINE
  5
2DF
100
AcDbEntity
  8
0
  6
CONTINUOUS
 62
               7
100
AcDbLine
 10
-16.0
 20
24.5
 30
0.0
 11
-16.0
 21
36.200000000000003
 31
0.0
  0
ARC
  5
2E0
100
AcDbEntity
  8
0
  6
CONTINUOUS
 62
               7
100
AcDbCircle
 10
-15.409446031890923
 20
6.2682512686530458
 30
0.0
 40
0.6105564724372722
100
AcDbArc
 50
179.83589550320582
 51
253.77907243150949
  0
LINE
  5
2E1
100
AcDbEntity
  8
0
  6
CONTINUOUS
 62
               7
100
AcDbLine
 10
-6.1999999999999886
 20
5.0
 30
0.0
 11
-15.800000000000011
 21
5.0
 31
0.0
  0
LINE
  5
2E2
100
AcDbEntity
  8
0
  6
CONTINUOUS
 62
               7
100
AcDbLine
 10
-16.019999999999982
 20
6.7999999999999545
 30
0.0
 11
-12.5
 21
6.7999999999999545
 31
0.0
  0
ARC
  5
2E3
100
AcDbEntity
  8
0
  6
CONTINUOUS
 62
               7
100
AcDbCircle
 10
-15.70089513685889
 20
7.0991048631410649
 30
0.0
 40
0.2991062025847394
100
AcDbArc
 50
179.82853033398985
 51
270.17146966600922
  0
ARC
  5
2E4
100
AcDbEntity
  8
0
  6
CONTINUOUS
 62
               7
100
AcDbCircle
 10
-15.800000000000011
 20
5.1999999999999886
 30
0.0
 40
0.2
100
AcDbArc
 50
179.99999999999963
 51
269.99999999999937
  0
LINE
  5
2E5
100
AcDbEntity
  8
0
  6
CONTINUOUS
 62
               7
100
AcDbLine
 10
-12.5
 20
5.0
 30
0.0
 11
-12.5
 21
6.7999999999999545
 31
0.0
  0
ARC
  5
2E6
100
AcDbEntity
  8
0
  6
CONTINUOUS
 62
               7
100
AcDbCircle
 10
-14.300000000000011
 20
10.087421236733917
 30
0.0
 40
4.5876068132596712
100
AcDbArc
 50
253.79871892415684
 51
286.20128107584191
  0
ARC
  5
2E7
100
AcDbEntity
  8
0
  6
CONTINUOUS
 62
               7
100
AcDbCircle
 10
-13.191771995833903
 20
6.2691627179709712
 30
0.0
 40
0.6117725687931934
100
AcDbArc
 50
286.30661609184898
 51
0.0784159734340139
  0
LINE
  5
2E8
100
AcDbEntity
  8
0
  6
CONTINUOUS
 62
               7
100
AcDbLine
 10
-12.579999999999984
 20
6.2699999999999818
 30
0.0
 11
-12.579999999999984
 21
6.7999999999999545
 31
0.0
  0
LINE
  5
2E9
100
AcDbEntity
  8
0
  6
CONTINUOUS
 62
               7
100
AcDbLine
 10
-16.0
 20
5.1999999999999886
 30
0.0
 11
-16.0
 21
6.1132505693459507
 31
0.0
  0
LINE
  5
2EA
100
AcDbEntity
  8
0
  6
CONTINUOUS
 62
               7
100
AcDbLine
 10
-16.019999999999982
 20
6.2699999999999818
 30
0.0
 11
-16.019999999999982
 21
6.7999999999999545
 31
0.0
  0
ARC
  5
2EB
100
AcDbEntity
  8
0
  6
CONTINUOUS
 62
               7
100
AcDbCircle
 10
-6.1999999999999886
 20
5.1999999999999886
 30
0.0
 40
0.2
100
AcDbArc
 50
269.99999999999937
 51
0.0
  0
LINE
  5
2EC
100
AcDbEntity
  8
0
  6
CENTER
 62
               2
100
AcDbLine
 10
-17.199999999999989
 20
14.299999999999983
 30
0.0
 11
-12.199999999999989
 21
14.299999999999983
 31
0.0
  0
LINE
  5
2ED
100
AcDbEntity
  8
0
  6
CENTER
 62
               2
100
AcDbLine
 10
-9.7999999999999545
 20
20.199999999999989
 30
0.0
 11
-4.7999999999999545
 21
20.199999999999989
 31
0.0
  0
LINE
  5
2EE
100
AcDbEntity
  8
0
  6
CENTER
 62
               2
100
AcDbLine
 10
-14.699999999999989
 20
11.799999999999983
 30
0.0
 11
-14.699999999999989
 21
16.799999999999983
 31
0.0
  0
LINE
  5
2EF
100
AcDbEntity
  8
0
  6
CENTER
 62
               2
100
AcDbLine
 10
-7.2999999999999545
 20
17.699999999999989
 30
0.0
 11
-7.2999999999999545
 21
22.699999999999989
 31
0.0
  0
LINE
  5
2F0
100
AcDbEntity
  8
0
  6
CONTINUOUS
 62
               7
100
AcDbLine
 10
-16.0
 20
24.5
 30
0.0
 11
-6.0
 21
24.5
 31
0.0
  0
LINE
  5
2F1
100
AcDbEntity
  8
0
  6
CONTINUOUS
 62
               7
100
AcDbLine
 10
-16.0
 20
6.7999999999999545
 30
0.0
 11
-16.0
 21
24.500000000494481
 31
0.0
  0
LINE
  5
2F2
100
AcDbEntity
  8
0
  6
CONTINUOUS
 62
               7
100
AcDbLine
 10
-6.0
 20
5.1999999999999886
 30
0.0
 11
-6.0
 21
24.5
 31
0.0
  0
LINE
  5
2F3
100
AcDbEntity
  8
0
  6
CONTINUOUS
 62
               7
100
AcDbLine
 10
-6.0000000063824359
 20
10.0
 30
0.0
 11
-16.000000006382436
 21
10.0
 31
0.0
  0
LINE
  5
2F4
100
AcDbEntity
  8
0
  6
CENTER
 62
               2
100
AcDbLine
 10
-12.5
 20
28.299999999999983
 30
0.0
 11
-9.5
 21
28.299999999999983
 31
0.0
  0
CIRCLE
  5
2F5
100
AcDbEntity
  8
0
  6
CONTINUOUS
 62
               7
100
AcDbCircle
 10
-11.0
 20
28.299999999999983
 30
0.0
 40
0.9
  0
ENDBLK
  5
2F6
100
AcDbEntity
  8
0
100
AcDbBlockEnd
  0
ENDSEC
  0
SECTION
  2
ENTITIES
  0
INSERT
  5
2F7
100
AcDbEntity
  8
0
  6
ByBlock
100
AcDbBlockReference
  2
EB10SF1-6
 10
-51.022983096764904
 20
30.900054720231537
 30
0.0
  0
INSERT
  5
2F8
100
AcDbEntity
  8
0
  6
ByBlock
100
AcDbBlockReference
  2
EB10SF1-5
 10
8.9770169032351106
 20
30.900054720231566
 30
0.0
 50
359.99999979016627
  0
INSERT
  5
2F9
100
AcDbEntity
  8
0
  6
ByBlock
100
AcDbBlockReference
  2
EB10SF1-4
 10
71.777016903235094
 20
30.900054720231566
 30
0.0
  0
INSERT
  5
2FA
100
AcDbEntity
  8
0
  6
ByBlock
100
AcDbBlockReference
  2
EB10SF1-1
 10
71.777016903235094
 20
-99.99994934877887
 30
0.0
  0
INSERT
  5
2FB
100
AcDbEntity
  8
0
  6
ByBlock
100
AcDbBlockReference
  2
EB10SF1-2
 10
8.9770169032351106
 20
-99.99994934877887
 30
0.0
  0
INSERT
  5
2FC
100
AcDbEntity
  8
0
  6
ByBlock
100
AcDbBlockReference
  2
EB10SF1-3
 10
-51.022983096764904
 20
-99.999949348778898
 30
0.0
  0
MTEXT
  5
2FD
100
AcDbEntity
  8
0
  6
CONTINUOUS
 62
               7
100
AcDbMText
 10
115.52672595002113
 20
-126.0
 30
0.0
 40
6.3000001907348633
 41
0.0
 71
               4
 72
               1
  1
\W1.121;\A1;KOGANEI CORP.
  0
MTEXT
  5
2FE
100
AcDbEntity
  8
0
  6
CONTINUOUS
 62
               7
100
AcDbMText
 10
135.2836095956161
 20
125.10000610351562
 30
0.0
 40
4.5
 41
0.0
 71
               4
 72
               1
  1
\W1.311;\A1;Ver. 1.0
  0
LINE
  5
2FF
100
AcDbEntity
  8
0
  6
CONTINUOUS
 62
               7
100
AcDbLine
 10
-109.25
 20
132.60000610351562
 30
0.0
 11
-109.25
 21
117.60000610351562
 31
0.0
  0
LINE
  5
300
100
AcDbEntity
  8
0
  6
CONTINUOUS
 62
               7
100
AcDbLine
 10
-194.25
 20
117.60000610351562
 30
0.0
 11
-109.25
 21
117.60000610351562
 31
0.0
  0
LINE
  5
301
100
AcDbEntity
  8
0
  6
CONTINUOUS
 62
               7
100
AcDbLine
 10
109.80000305175781
 20
117.60000610351562
 30
0.0
 11
194.80000305175781
 21
117.60000610351562
 31
0.0
  0
LINE
  5
302
100
AcDbEntity
  8
0
  6
CONTINUOUS
 62
               7
100
AcDbLine
 10
109.80000305175781
 20
132.60000610351562
 30
0.0
 11
109.80000305175781
 21
117.60000610351562
 31
0.0
  0
LINE
  5
303
100
AcDbEntity
  8
0
  6
CONTINUOUS
 62
               7
100
AcDbLine
 10
109.80000305175781
 20
-118.5
 30
0.0
 11
194.80000305175781
 21
-118.5
 31
0.0
  0
LINE
  5
304
100
AcDbEntity
  8
0
  6
CONTINUOUS
 62
               7
100
AcDbLine
 10
109.80000305175781
 20
-118.5
 30
0.0
 11
109.80000305175781
 21
-133.5
 31
0.0
  0
LINE
  5
305
100
AcDbEntity
  8
0
  6
CONTINUOUS
 62
               7
100
AcDbLine
 10
-194.25
 20
-133.5
 30
0.0
 11
194.80000305175781
 21
-133.5
 31
0.0
  0
LINE
  5
306
100
AcDbEntity
  8
0
  6
CONTINUOUS
 62
               7
100
AcDbLine
 10
-194.25
 20
132.60000610351562
 30
0.0
 11
-194.25
 21
-133.5
 31
0.0
  0
LINE
  5
307
100
AcDbEntity
  8
0
  6
CONTINUOUS
 62
               7
100
AcDbLine
 10
194.80000305175781
 20
132.60000610351562
 30
0.0
 11
194.80000305175781
 21
-133.5
 31
0.0
  0
LINE
  5
308
100
AcDbEntity
  8
0
  6
CONTINUOUS
 62
               7
100
AcDbLine
 10
-194.25
 20
132.60000610351562
 30
0.0
 11
194.80000305175781
 21
132.60000610351562
 31
0.0
  0
MTEXT
  5
309
100
AcDbEntity
  8
0
  6
CONTINUOUS
 62
               7
100
AcDbMText
 10
-185.66990295012121
 20
107.60000610351562
 30
0.0
 40
4.5
 41
0.0
 71
               4
 72
               1
  1
\W1.107;\A1;MODEL:EB10SF1-21-PL
  0
MTEXT
  5
30A
100
AcDbEntity
  8
0
  6
CONTINUOUS
 62
               1
100
AcDbMText
 10
-177.91666665526046
 20
125.10000610351562
 30
0.0
 40
4.5
 41
0.0
 71
               4
 72
               1
  1
\W1.111;\A1;EA･EB SERIES
  0
LINE
  5
30B
100
AcDbEntity
  8
0
  6
CONTINUOUS
 62
               7
100
AcDbLine
 10
-194.25
 20
-8.5999959309895786
 30
0.0
 11
194.80000305175781
 21
-8.5999959309895786
 31
0.0
  0
MTEXT
  5
30C
100
AcDbEntity
  8
0
  6
CONTINUOUS
 62
               7
100
AcDbMText
 10
-185.66990295012121
 20
-18.599995930989564
 30
0.0
 40
4.5
 41
0.0
 71
               4
 72
               1
  1
\W1.107;\A1;MODEL:EB10SF1-21-PS
  0
MTEXT
  5
30D
100
AcDbEntity
  8
0
  6
CONTINUOUS
 62
               7
100
AcDbMText
 10
-158.69863014082773
 20
-26.599995930989564
 30
0.0
 40
4.5
 41
0.0
 71
               4
 72
               1
  1
\W1.068;\A1;EB10SF2-21-PS
  0
MTEXT
  5
30E
100
AcDbEntity
  8
0
  6
CONTINUOUS
 62
               7
100
AcDbMText
 10
-158.69863014082773
 20
99.600006103515625
 30
0.0
 40
4.5
 41
0.0
 71
               4
 72
               1
  1
\W1.068;\A1;EB10SF2-21-PL
  0
MTEXT
  5
30F
100
AcDbEntity
  8
0
  6
CONTINUOUS
 62
               7
100
AcDbMText
 10
-158.69863014082773
 20
91.600006103515625
 30
0.0
 40
4.5
 41
0.0
 71
               4
 72
               1
  1
\W1.068;\A1;EB10SF3-21-PL
  0
MTEXT
  5
310
100
AcDbEntity
  8
0
  6
CONTINUOUS
 62
               7
100
AcDbMText
 10
-158.69863014082773
 20
-34.599995930989564
 30
0.0
 40
4.5
 41
0.0
 71
               4
 72
               1
  1
\W1.068;\A1;EB10SF3-21-PS
  0
MTEXT
  5
311
100
AcDbEntity
  8
0
  6
CONTINUOUS
 62
               7
100
AcDbMText
 10
-158.69863014082773
 20
83.600006103515625
 30
0.0
 40
4.5
 41
0.0
 71
               4
 72
               1
  1
\W1.068;\A1;EB10SF4-21-PL
  0
MTEXT
  5
312
100
AcDbEntity
  8
0
  6
CONTINUOUS
 62
               7
100
AcDbMText
 10
-158.69863014082773
 20
-42.599995930989564
 30
0.0
 40
4.5
 41
0.0
 71
               4
 72
               1
  1
\W1.068;\A1;EB10SF4-21-PS
  0
ENDSEC
  0
SECTION
  2
OBJECTS
  0
DICTIONARY
  5
19
100
AcDbDictionary
  3
ACAD_GROUP
350
1A
  3
ACAD_MLINESTYLE
350
1B
  0
DICTIONARY
  5
1A
102
{ACAD_REACTORS
330
19
102
}
100
AcDbDictionary
  0
DICTIONARY
  5
1B
102
{ACAD_REACTORS
330
19
102
}
100
AcDbDictionary
  3
STANDARD
350
1C
  0
MLINESTYLE
  5
1C
102
{ACAD_REACTORS
330
1B
102
}
100
AcDbMlineStyle
  2
Standard
 70
               0
  3

 62
               0
 51
90.0
 52
90.0
 71
               2
 49
0.5
 62
             256
  6
ByLayer
 49
-0.5
 62
             256
  6
ByLayer
  0
ENDSEC
  0
EOF
