  0
SECTION
  2
HEADER
  9
$ACADVER
  1
AC1012
  9
$DWGCODEPAGE
  3
dos932
  9
$INSBASE
 10
0.0
 20
0.0
 30
0.0
  9
$EXTMIN
 10
-281.25
 20
-195.0
 30
0.0
  9
$EXTMAX
 10
285.6319057062413
 20
195.5
 30
0.0
  9
$LIMMIN
 10
-281.25
 20
-195.0
  9
$LIMMAX
 10
285.6319057062413
 20
195.5
  9
$ORTHOMODE
 70
               0
  9
$REGENMODE
 70
               1
  9
$FILLMODE
 70
               1
  9
$QTEXTMODE
 70
               0
  9
$MIRRTEXT
 70
               1
  9
$DRAGMODE
 70
               2
  9
$LTSCALE
 40
1.0
  9
$OSMODE
 70
               0
  9
$ATTMODE
 70
               1
  9
$TEXTSIZE
 40
3.2000000476837158
  9
$TRACEWID
 40
0.05
  9
$TEXTSTYLE
  7
MX_NOTE_STANDARD
  9
$CLAYER
  8
0
  9
$CELTYPE
  6
CONTINUOUS
  9
$CECOLOR
 62
             256
  9
$CELTSCALE
 40
1.0
  9
$DELOBJ
 70
               1
  9
$DISPSILH
 70
               0
  9
$DIMSCALE
 40
1.0
  9
$DIMASZ
 40
2.5
  9
$DIMEXO
 40
1.5
  9
$DIMDLI
 40
3.75
  9
$DIMRND
 40
0.0
  9
$DIMDLE
 40
0.0
  9
$DIMEXE
 40
1.5
  9
$DIMTP
 40
0.0
  9
$DIMTM
 40
0.0
  9
$DIMTXT
 40
3.2000000476837158
  9
$DIMCEN
 40
2.5
  9
$DIMTSZ
 40
0.0
  9
$DIMTOL
 70
               0
  9
$DIMLIM
 70
               0
  9
$DIMTIH
 70
               0
  9
$DIMTOH
 70
               0
  9
$DIMSE1
 70
               0
  9
$DIMSE2
 70
               0
  9
$DIMTAD
 70
               1
  9
$DIMZIN
 70
               8
  9
$DIMBLK
  1

  9
$DIMASO
 70
               1
  9
$DIMSHO
 70
               1
  9
$DIMPOST
  1

  9
$DIMAPOST
  1

  9
$DIMALT
 70
               0
  9
$DIMALTD
 70
               4
  9
$DIMALTF
 40
0.03937007874016
  9
$DIMLFAC
 40
1.0
  9
$DIMTOFL
 70
               1
  9
$DIMTVP
 40
0.0
  9
$DIMTIX
 70
               0
  9
$DIMSOXD
 70
               0
  9
$DIMSAH
 70
               0
  9
$DIMBLK1
  1

  9
$DIMBLK2
  1

  9
$DIMSTYLE
  2
MXDIMSTYLE
  9
$DIMCLRD
 70
               0
  9
$DIMCLRE
 70
               0
  9
$DIMCLRT
 70
               0
  9
$DIMTFAC
 40
1.0
  9
$DIMGAP
 40
1.0
  9
$DIMJUST
 70
               0
  9
$DIMSD1
 70
               0
  9
$DIMSD2
 70
               0
  9
$DIMTOLJ
 70
               1
  9
$DIMTZIN
 70
               0
  9
$DIMALTZ
 70
               0
  9
$DIMALTTZ
 70
               0
  9
$DIMFIT
 70
               3
  9
$DIMUPT
 70
               1
  9
$DIMUNIT
 70
               2
  9
$DIMDEC
 70
               4
  9
$DIMTDEC
 70
               4
  9
$DIMALTU
 70
               2
  9
$DIMALTTD
 70
               4
  9
$DIMTXSTY
  7
MX_NOTE_STANDARD
  9
$DIMAUNIT
 70
               0
  9
$LUNITS
 70
               2
  9
$LUPREC
 70
               4
  9
$SKETCHINC
 40
0.1
  9
$FILLETRAD
 40
0.0
  9
$AUNITS
 70
               0
  9
$AUPREC
 70
               0
  9
$MENU
  1
acad
  9
$ELEVATION
 40
0.0
  9
$PELEVATION
 40
0.0
  9
$THICKNESS
 40
0.0
  9
$LIMCHECK
 70
               0
  9
$BLIPMODE
 70
               1
  9
$CHAMFERA
 40
0.0
  9
$CHAMFERB
 40
0.0
  9
$CHAMFERC
 40
0.0
  9
$CHAMFERD
 40
0.0
  9
$SKPOLY
 70
               0
  9
$TDCREATE
 40
2453378.356342593
  9
$TDUPDATE
 40
2453378.356342593
  9
$TDINDWG
 40
0.0000000000
  9
$TDUSRTIMER
 40
0.0000000000
  9
$USRTIMER
 70
               1
  9
$ANGBASE
 50
0.0
  9
$ANGDIR
 70
               0
  9
$PDMODE
 70
               0
  9
$PDSIZE
 40
0.0
  9
$PLINEWID
 40
0.0
  9
$COORDS
 70
               1
  9
$SPLFRAME
 70
               0
  9
$SPLINETYPE
 70
               6
  9
$SPLINESEGS
 70
               8
  9
$ATTDIA
 70
               0
  9
$ATTREQ
 70
               1
  9
$HANDLING
 70
               1
  9
$HANDSEED
  5
44E
  9
$SURFTAB1
 70
               6
  9
$SURFTAB2
 70
               6
  9
$SURFTYPE
 70
               6
  9
$SURFU
 70
               6
  9
$SURFV
 70
               6
  9
$UCSNAME
  2

  9
$UCSORG
 10
0.0
 20
0.0
 30
0.0
  9
$UCSXDIR
 10
1.0
 20
0.0
 30
0.0
  9
$UCSYDIR
 10
0.0
 20
1.0
 30
0.0
  9
$PUCSNAME
  2

  9
$PUCSORG
 10
0.0
 20
0.0
 30
0.0
  9
$PUCSXDIR
 10
1.0
 20
0.0
 30
0.0
  9
$PUCSYDIR
 10
0.0
 20
1.0
 30
0.0
  9
$USERI1
 70
               0
  9
$USERI2
 70
               0
  9
$USERI3
 70
               0
  9
$USERI4
 70
               0
  9
$USERI5
 70
               0
  9
$USERR1
 40
0.0
  9
$USERR2
 40
0.0
  9
$USERR3
 40
0.0
  9
$USERR4
 40
0.0
  9
$USERR5
 40
0.0
  9
$WORLDVIEW
 70
               1
  9
$SHADEDGE
 70
               3
  9
$SHADEDIF
 70
              70
  9
$TILEMODE
 70
               1
  9
$MAXACTVP
 70
              16
  9
$PINSBASE
 10
0.0
 20
0.0
 30
0.0
  9
$PLIMCHECK
 70
               0
  9
$PEXTMIN
 10
1.0000000000000000E+20
 20
1.0000000000000000E+20
 30
1.0000000000000000E+20
  9
$PEXTMAX
 10
-1.0000000000000000E+20
 20
-1.0000000000000000E+20
 30
-1.0000000000000000E+20
  9
$PLIMMIN
 10
0.0
 20
0.0
  9
$PLIMMAX
 10
12.0
 20
9.0
  9
$UNITMODE
 70
               0
  9
$VISRETAIN
 70
               0
  9
$PLINEGEN
 70
               1
  9
$PSLTSCALE
 70
               0
  9
$TREEDEPTH
 70
            3020
  9
$PICKSTYLE
 70
               1
  9
$CMLSTYLE
  2
Standard
  9
$CMLJUST
 70
               0
  9
$CMLSCALE
 40
1.0
  9
$SAVEIMAGES
 70
               0
  0
ENDSEC
  0
SECTION
  2
CLASSES
  0
CLASS
  1
LWPOLYLINE
  2
AcDbPolyline
  3
"AutoCAD"
 90
        0
280
               0
281
               1
  0
CLASS
  1
IMAGE
  2
AcDbRasterImage
  3
ISM
 90
      127
280
               0
281
               1
  0
CLASS
  1
OLE2FRAME
  2
AcDbOle2Frame
  3
""
 90
        0
280
               0
281
               1
  0
CLASS
  1
HATCH
  2
AcDbHatch
  3
"ACAD_SEDONA"
 90
        0
280
               0
281
               1
  0
CLASS
  1
DICTIONARYVAR
  2
AcDbDictionaryVar
  3
"AutoCAD"
 90
        0
280
               0
281
               0
  0
CLASS
  1
RASTERVARIABLES
  2
AcDbRasterVariables
  3
ISM
 90
        0
280
               0
281
               0
  0
CLASS
  1
IMAGEDEF
  2
AcDbRasterImageDef
  3
ISM
 90
        0
280
               0
281
               0
  0
CLASS
  1
IMAGEDEF_REACTOR
  2
AcDbRasterImageDefReactor
  3
ISM
 90
        1
280
               0
281
               0
  0
CLASS
  1
IDBUFFER
  2
AcDbIdBuffer
  3
"Acad"
 90
        0
280
               0
281
               0
  0
CLASS
  1
SPATIAL_FILTER
  2
AcDbSpatialFilter
  3
"Acad"
 90
        0
280
               0
281
               0
  0
CLASS
  1
XRECORD
  2
AcDbXrecord
  3
"<Built In>"
 90
        0
280
               0
281
               0
  0
CLASS
  1
SORTENTSTABLE
  2
AcDbSortentsTable
  3
"AutoCAD"
 90
        0
280
               0
281
               0
  0
CLASS
  1
LAYER_INDEX
  2
AcDbLayerIndex
  3
"Acad"
 90
        0
280
               0
281
               0
  0
CLASS
  1
SPATIAL_INDEX
  2
AcDbSpatialIndex
  3
"Acad"
 90
        0
280
               0
281
               0
  0
CLASS
  1
OBJECT_PTR
  2
CAseDLPNTableRecord
  3
"ASE-LPNTableRecord"
 90
        1
280
               0
281
               0
  0
CLASS
  1
LAYOUT
  2
AcDbLayout
  3
"AutoCAD 2000"
 90
        1
280
               0
281
               0
  0
CLASS
  1
PLOTSETTINGS
  2
AcDbPlotSettings
  3
"AutoCAD 2000"
 90
        1
280
               0
281
               0
  0
CLASS
  1
ACDBDICTIONARYWDFLT
  2
AcDbDictionaryWithDefault
  3
"AutoCAD 2000"
 90
        1
280
               0
281
               0
  0
CLASS
  1
ACDBPLACEHOLDER
  2
AcDbPlaceHolder
  3
"AutoCAD 2000"
 90
        1
280
               0
281
               0
  0
ENDSEC
  0
SECTION
  2
TABLES
  0
TABLE
  2
VPORT
  5
7
100
AcDbSymbolTable
 70
               1
  0
VPORT
  5
15
100
AcDbSymbolTableRecord
100
AcDbViewportTableRecord
  2
*ACTIVE
 70
               0
 10
0.0
 20
0.0
 11
1.0
 21
1.0
 12
2.1909528531206206
 22
0.25
 13
0.0
 23
0.0
 14
1.0
 24
1.0
 15
0.0
 25
0.0
 16
0.0
 26
0.0
 36
1.0
 17
0.0
 27
0.0
 37
0.0
 40
394.40500000000003
 41
1.7320508075688772
 42
50.0
 43
0.0
 44
0.0
 50
0.0
 51
0.0
 71
               0
 72
             100
 73
               1
 74
               1
 75
               0
 76
               0
 77
               0
 78
               0
  0
ENDTAB
  0
TABLE
  2
LTYPE
  5
4
100
AcDbSymbolTable
 70
               6
  0
LTYPE
  5
11
100
AcDbSymbolTableRecord
100
AcDbLinetypeTableRecord
  2
BYBLOCK
 70
              64
  3

 72
              65
 73
               0
 40
0.0
  0
LTYPE
  5
12
100
AcDbSymbolTableRecord
100
AcDbLinetypeTableRecord
  2
BYLAYER
 70
              64
  3

 72
              65
 73
               0
 40
0.0
  0
LTYPE
  5
13
100
AcDbSymbolTableRecord
100
AcDbLinetypeTableRecord
  2
CONTINUOUS
 70
              64
  3
Solid line
 72
              65
 73
               0
 40
0.0
  0
LTYPE
  5
2B
100
AcDbSymbolTableRecord
100
AcDbLinetypeTableRecord
  2
CENTER
 70
              64
  3
Center ____ _ ____ _ ____ _ ____ _ ____ _ ____
 72
              65
 73
               4
 40
26.0
 49
20.0
 74
               0
 49
-2.0
 74
               0
 49
2.0
 74
               0
 49
-2.0
 74
               0
  0
LTYPE
  5
59
100
AcDbSymbolTableRecord
100
AcDbLinetypeTableRecord
  2
PHANTOM
 70
              64
  3
Phantom ______  __  __  ______  __  __  ______
 72
              65
 73
               6
 40
30.0
 49
20.0
 74
               0
 49
-2.0
 74
               0
 49
2.0
 74
               0
 49
-2.0
 74
               0
 49
2.0
 74
               0
 49
-2.0
 74
               0
  0
LTYPE
  5
D0
100
AcDbSymbolTableRecord
100
AcDbLinetypeTableRecord
  2
DASHED
 70
              64
  3
Dashed __ __ __ __ __ __ __ __ __ __ __ __ __ _
 72
              65
 73
               2
 40
4.0
 49
2.0
 74
               0
 49
-2.0
 74
               0
  0
ENDTAB
  0
TABLE
  2
LAYER
  5
2
100
AcDbSymbolTable
 70
               2
  0
LAYER
  5
14
100
AcDbSymbolTableRecord
100
AcDbLayerTableRecord
  2
0
 70
               0
 62
               7
  6
CONTINUOUS
  0
LAYER
  5
1D
100
AcDbSymbolTableRecord
100
AcDbLayerTableRecord
  2
DEFPOINTS
 70
               0
 62
               7
  6
CONTINUOUS
  0
ENDTAB
  0
TABLE
  2
STYLE
  5
3
100
AcDbSymbolTable
 70
               1
  0
STYLE
  5
17
100
AcDbSymbolTableRecord
100
AcDbTextStyleTableRecord
  2
MX_NOTE_STANDARD
 70
               0
 40
0.0
 41
1.0
 50
0.0
 71
               0
 42
3.2000000476837158
  3
txt.shx
  4
extfont.shx
  0
ENDTAB
  0
TABLE
  2
VIEW
  5
5
100
AcDbSymbolTable
 70
               0
  0
ENDTAB
  0
TABLE
  2
UCS
  5
6
100
AcDbSymbolTable
 70
               0
  0
ENDTAB
  0
TABLE
  2
APPID
  5
8
100
AcDbSymbolTable
 70
               1
  0
APPID
  5
16
100
AcDbSymbolTableRecord
100
AcDbRegAppTableRecord
  2
ACAD
 70
               0
  0
ENDTAB
  0
TABLE
  2
DIMSTYLE
  5
9
100
AcDbSymbolTable
 70
               1
  0
DIMSTYLE
105
18
100
AcDbSymbolTableRecord
100
AcDbDimStyleTableRecord
  2
MXDIMSTYLE
 70
               0
  3

  4

  5

  6

  7

 40
1.0
 41
2.5
 42
1.5
 43
3.75
 44
1.5
 45
0.0
 46
0.0
 47
0.0
 48
0.0
 71
               0
 72
               0
 73
               0
 74
               0
 75
               0
 76
               0
 77
               1
 78
               8
140
3.2000000476837158
141
2.5
142
0.0
143
0.03937007874016
144
1.0
145
0.0
146
1.0
147
1.0
170
               0
171
               4
172
               1
173
               0
174
               0
175
               0
176
               0
177
               0
178
               0
270
               2
271
               4
272
               4
273
               2
274
               4
275
               0
280
               0
281
               0
282
               0
283
               1
284
               0
285
               0
286
               0
287
               3
288
               1
340
17
  0
ENDTAB
  0
TABLE
  2
BLOCK_RECORD
  5
1
100
AcDbSymbolTable
 70
               9
  0
BLOCK_RECORD
  5
A
100
AcDbSymbolTableRecord
100
AcDbBlockTableRecord
  2
*MODEL_SPACE
  0
BLOCK_RECORD
  5
B
100
AcDbSymbolTableRecord
100
AcDbBlockTableRecord
  2
*PAPER_SPACE
  0
BLOCK_RECORD
  5
1E
100
AcDbSymbolTableRecord
100
AcDbBlockTableRecord
  2
EB10F1-1
  0
BLOCK_RECORD
  5
1F
100
AcDbSymbolTableRecord
100
AcDbBlockTableRecord
  2
EB10F1-2
  0
BLOCK_RECORD
  5
20
100
AcDbSymbolTableRecord
100
AcDbBlockTableRecord
  2
EB10F1-3
  0
BLOCK_RECORD
  5
21
100
AcDbSymbolTableRecord
100
AcDbBlockTableRecord
  2
EB10F1-4
  0
BLOCK_RECORD
  5
22
100
AcDbSymbolTableRecord
100
AcDbBlockTableRecord
  2
EB10F1-5
  0
BLOCK_RECORD
  5
23
100
AcDbSymbolTableRecord
100
AcDbBlockTableRecord
  2
EB10F1-6
  0
BLOCK_RECORD
  5
24
100
AcDbSymbolTableRecord
100
AcDbBlockTableRecord
  2
EB10F1-7
  0
BLOCK_RECORD
  5
25
100
AcDbSymbolTableRecord
100
AcDbBlockTableRecord
  2
EB10F1-8
  0
BLOCK_RECORD
  5
26
100
AcDbSymbolTableRecord
100
AcDbBlockTableRecord
  2
EB10F1-9
  0
ENDTAB
  0
ENDSEC
  0
SECTION
  2
BLOCKS
  0
BLOCK
  5
D
100
AcDbEntity
  8
0
100
AcDbBlockBegin
  2
*MODEL_SPACE
 70
               0
 10
0.0
 20
0.0
 30
0.0
  3
*MODEL_SPACE
  1

  0
ENDBLK
  5
E
100
AcDbEntity
  8
0
100
AcDbBlockEnd
  0
BLOCK
  5
F
100
AcDbEntity
 67
               1
  8
0
100
AcDbBlockBegin
  2
*PAPER_SPACE
 70
               0
 10
0.0
 20
0.0
 30
0.0
  3
*PAPER_SPACE
  1

  0
ENDBLK
  5
10
100
AcDbEntity
 67
               1
  8
0
100
AcDbBlockEnd
  0
BLOCK
  5
27
100
AcDbEntity
  8
0
100
AcDbBlockBegin
  2
EB10F1-1
 70
               0
 10
0.0
 20
0.0
 30
0.0
  3
EB10F1-1
  1

  0
LINE
  5
28
100
AcDbEntity
  8
0
  6
CONTINUOUS
 62
               7
100
AcDbLine
 10
7.8999999999999986
 20
31.499999999999993
 30
0.0
 11
7.8999999999999986
 21
35.499999999999993
 31
0.0
  0
LINE
  5
29
100
AcDbEntity
  8
0
  6
CONTINUOUS
 62
               7
100
AcDbLine
 10
14.100000000000001
 20
31.5
 30
0.0
 11
14.100000000000001
 21
35.5
 31
0.0
  0
ARC
  5
2A
100
AcDbEntity
  8
0
  6
CONTINUOUS
 62
               7
100
AcDbCircle
 10
11.0
 20
31.499999999999993
 30
0.0
 40
3.1000000000000001
100
AcDbArc
 50
179.99999999999963
 51
0.0
  0
LINE
  5
2C
100
AcDbEntity
  8
0
  6
CENTER
 62
             200
100
AcDbLine
 10
1.75
 20
0.0
 30
0.0
 11
1.75
 21
1.2000000000000028
 31
0.0
  0
LINE
  5
2D
100
AcDbEntity
  8
0
  6
CENTER
 62
             200
100
AcDbLine
 10
-1.75
 20
0.0
 30
0.0
 11
-1.75
 21
1.2000000000000028
 31
0.0
  0
LINE
  5
2E
100
AcDbEntity
  8
0
  6
CENTER
 62
             200
100
AcDbLine
 10
23.75
 20
0.0
 30
0.0
 11
23.75
 21
1.2000000000000028
 31
0.0
  0
LINE
  5
2F
100
AcDbEntity
  8
0
  6
CENTER
 62
             200
100
AcDbLine
 10
20.25
 20
0.0
 30
0.0
 11
20.25
 21
1.2000000000000028
 31
0.0
  0
LINE
  5
30
100
AcDbEntity
  8
0
  6
CENTER
 62
             200
100
AcDbLine
 10
22.0
 20
-2.4438717557984795
 30
0.0
 11
22.0
 21
3.7999999999999972
 31
0.0
  0
LINE
  5
31
100
AcDbEntity
  8
0
  6
CENTER
 62
             200
100
AcDbLine
 10
0.0
 20
-2.4438717557984795
 30
0.0
 11
0.0
 21
3.7999999999999972
 31
0.0
  0
LINE
  5
32
100
AcDbEntity
  8
0
  6
CENTER
 62
               2
100
AcDbLine
 10
11.0
 20
2.2438875818592052
 30
0.0
 11
11.0
 21
61.162585161280504
 31
0.0
  0
LINE
  5
33
100
AcDbEntity
  8
0
  6
CONTINUOUS
 62
               4
100
AcDbLine
 10
-3.0
 20
1.2000000000000028
 30
0.0
 11
4.1000000000000227
 21
1.2000000000000028
 31
0.0
  0
LINE
  5
34
100
AcDbEntity
  8
0
  6
CONTINUOUS
 62
               4
100
AcDbLine
 10
-3.0
 20
0.0
 30
0.0
 11
4.1000000000000227
 21
0.0
 31
0.0
  0
LINE
  5
35
100
AcDbEntity
  8
0
  6
CONTINUOUS
 62
               4
100
AcDbLine
 10
-3.0
 20
0.0
 30
0.0
 11
-3.0
 21
1.2000000000000028
 31
0.0
  0
LINE
  5
36
100
AcDbEntity
  8
0
  6
CONTINUOUS
 62
               4
100
AcDbLine
 10
5.7000000000000171
 20
3.7999999999999972
 30
0.0
 11
16.300000000000011
 21
3.7999999999999972
 31
0.0
  0
LINE
  5
37
100
AcDbEntity
  8
0
  6
CONTINUOUS
 62
               4
100
AcDbLine
 10
5.5
 20
1.4000000000000057
 30
0.0
 11
5.5
 21
3.5999999999999943
 31
0.0
  0
LINE
  5
38
100
AcDbEntity
  8
0
  6
CONTINUOUS
 62
               4
100
AcDbLine
 10
4.3000000000000114
 20
1.4000000000000057
 30
0.0
 11
4.3000000000000114
 21
3.5999999999999943
 31
0.0
  0
LINE
  5
39
100
AcDbEntity
  8
0
  6
CONTINUOUS
 62
               4
100
AcDbLine
 10
5.9700000000000273
 20
3.2660000000000053
 30
0.0
 11
5.9700000000000273
 21
3.7999999999999972
 31
0.0
  0
LINE
  5
3A
100
AcDbEntity
  8
0
  6
CONTINUOUS
 62
               4
100
AcDbLine
 10
9.4300000000000068
 20
3.2660000000000053
 30
0.0
 11
9.4300000000000068
 21
3.7999999999999972
 31
0.0
  0
LINE
  5
3B
100
AcDbEntity
  8
0
  6
CONTINUOUS
 62
               4
100
AcDbLine
 10
12.569999999999993
 20
3.2660000000000053
 30
0.0
 11
12.569999999999993
 21
3.7999999999999972
 31
0.0
  0
LINE
  5
3C
100
AcDbEntity
  8
0
  6
CONTINUOUS
 62
               4
100
AcDbLine
 10
16.03000000000003
 20
3.2660000000000053
 30
0.0
 11
16.03000000000003
 21
3.7999999999999972
 31
0.0
  0
ARC
  5
3D
100
AcDbEntity
  8
0
  6
CONTINUOUS
 62
               4
100
AcDbCircle
 10
4.0999415866173763
 20
1.4000584133826379
 30
0.0
 40
0.2000584219104543
100
AcDbArc
 50
270.01672931490481
 51
359.98327068509366
  0
ARC
  5
3E
100
AcDbEntity
  8
0
  6
CONTINUOUS
 62
               4
100
AcDbCircle
 10
16.299115528302707
 20
3.5991155283026899
 30
0.0
 40
0.2008864188024893
100
AcDbArc
 50
0.2522652321918488
 51
89.747734767807131
  0
ARC
  5
3F
100
AcDbEntity
  8
0
  6
CONTINUOUS
 62
               4
100
AcDbCircle
 10
5.6999333589326397
 20
3.6000666410673574
 30
0.0
 40
0.1999333700389205
100
AcDbArc
 50
89.980902377767208
 51
180.01909762223218
  0
ARC
  5
40
100
AcDbEntity
  8
0
  6
CONTINUOUS
 62
               4
100
AcDbCircle
 10
4.099943315390135
 20
1.4000566846098934
 30
0.0
 40
1.4000566857574084
100
AcDbArc
 50
270.00231975529556
 51
359.99768024470291
  0
ARC
  5
41
100
AcDbEntity
  8
0
  6
CONTINUOUS
 62
               4
100
AcDbCircle
 10
7.6990000000000123
 20
7.1068760989089554
 30
0.0
 40
4.6140039015894576
100
AcDbArc
 50
253.80344035273558
 51
286.19655964726314
  0
ARC
  5
42
100
AcDbEntity
  8
0
  6
CONTINUOUS
 62
               4
100
AcDbCircle
 10
6.5838413187467495
 20
3.265298072688239
 30
0.0
 40
0.613841720073419
100
AcDbArc
 50
179.93448232673219
 51
253.74313632481389
  0
ARC
  5
43
100
AcDbEntity
  8
0
  6
CONTINUOUS
 62
               4
100
AcDbCircle
 10
8.8152220268359258
 20
3.2665820679404334
 30
0.0
 40
0.6147782487131708
100
AcDbArc
 50
286.12822533946951
 51
359.94575273046883
  0
ARC
  5
44
100
AcDbEntity
  8
0
  6
CONTINUOUS
 62
               4
100
AcDbCircle
 10
14.299000000000035
 20
7.1068760988772226
 30
0.0
 40
4.6140039015589682
100
AcDbArc
 50
253.80344035262561
 51
286.19655964737319
  0
ARC
  5
45
100
AcDbEntity
  8
0
  6
CONTINUOUS
 62
               4
100
AcDbCircle
 10
13.183839364596452
 20
3.2652966087315747
 30
0.0
 40
0.6138397676001843
100
AcDbArc
 50
179.93434547259068
 51
253.74327317895529
  0
ARC
  5
46
100
AcDbEntity
  8
0
  6
CONTINUOUS
 62
               4
100
AcDbCircle
 10
15.415220075966602
 20
3.2665835360522806
 30
0.0
 40
0.6147802009733803
100
AcDbArc
 50
286.12836199114588
 51
359.94561607879228
  0
LINE
  5
47
100
AcDbEntity
  8
0
  6
CONTINUOUS
 62
               4
100
AcDbLine
 10
25.0
 20
0.0
 30
0.0
 11
25.0
 21
1.2000000000000028
 31
0.0
  0
LINE
  5
48
100
AcDbEntity
  8
0
  6
CONTINUOUS
 62
               4
100
AcDbLine
 10
17.900000000000034
 20
1.2000000000000028
 30
0.0
 11
25.0
 21
1.2000000000000028
 31
0.0
  0
LINE
  5
49
100
AcDbEntity
  8
0
  6
CONTINUOUS
 62
               4
100
AcDbLine
 10
17.900000000000034
 20
0.0
 30
0.0
 11
25.0
 21
0.0
 31
0.0
  0
ARC
  5
4A
100
AcDbEntity
  8
0
  6
CONTINUOUS
 62
               4
100
AcDbCircle
 10
17.899103340046224
 20
1.3991033400461959
 30
0.0
 40
0.1991053590856348
100
AcDbArc
 50
179.74197075907335
 51
270.25802924092562
  0
ARC
  5
4B
100
AcDbEntity
  8
0
  6
CONTINUOUS
 62
               4
100
AcDbCircle
 10
17.899103333594837
 20
1.3991033335948089
 30
0.0
 40
1.3991036209254675
100
AcDbArc
 50
179.96327991479848
 51
270.03672008520033
  0
LINE
  5
4C
100
AcDbEntity
  8
0
  6
CONTINUOUS
 62
               4
100
AcDbLine
 10
17.699999999999989
 20
1.4000000000000057
 30
0.0
 11
17.699999999999989
 21
3.5999999999999943
 31
0.0
  0
LINE
  5
4D
100
AcDbEntity
  8
0
  6
CONTINUOUS
 62
               4
100
AcDbLine
 10
16.5
 20
1.4000000000000057
 30
0.0
 11
16.5
 21
3.5999999999999943
 31
0.0
  0
ARC
  5
4E
100
AcDbEntity
  8
0
  6
CONTINUOUS
 62
               4
100
AcDbCircle
 10
5.6999316768315111
 20
3.6000683231685144
 30
0.0
 40
1.3999316784987346
100
AcDbArc
 50
89.997203699822904
 51
180.00279630017653
  0
ARC
  5
4F
100
AcDbEntity
  8
0
  6
CONTINUOUS
 62
               4
100
AcDbCircle
 10
16.299115537943862
 20
3.5991155379438453
 30
0.0
 40
1.4008847412629901
100
AcDbArc
 50
0.0361742439122946
 51
89.963825756087459
  0
LINE
  5
50
100
AcDbEntity
  8
0
  6
CONTINUOUS
 62
               4
100
AcDbLine
 10
16.300000000000011
 20
5.0
 30
0.0
 11
5.7000000000000171
 21
5.0
 31
0.0
  0
LINE
  5
51
100
AcDbEntity
  8
0
  6
CONTINUOUS
 62
               4
100
AcDbLine
 10
22.0
 20
0.0
 30
0.0
 11
22.0
 21
1.2000000000000028
 31
0.0
  0
LINE
  5
52
100
AcDbEntity
  8
0
  6
CONTINUOUS
 62
               4
100
AcDbLine
 10
0.0
 20
0.0
 30
0.0
 11
0.0
 21
1.2000000000000028
 31
0.0
  0
ARC
  5
53
100
AcDbEntity
  8
0
  6
CONTINUOUS
 62
               4
100
AcDbCircle
 10
15.268802575510279
 20
38.204188752838292
 30
0.0
 40
0.5011988548874781
100
AcDbArc
 50
270.1368866551544
 51
359.86311334484418
  0
ARC
  5
54
100
AcDbEntity
  8
0
  6
CONTINUOUS
 62
               4
100
AcDbCircle
 10
6.7311974244897215
 20
38.204188752838292
 30
0.0
 40
0.5011988548874781
100
AcDbArc
 50
180.13688665515463
 51
269.86311334484435
  0
LINE
  5
55
100
AcDbEntity
  8
0
  6
CONTINUOUS
 62
               4
100
AcDbLine
 10
6.7300000000000182
 20
37.702991328348588
 30
0.0
 11
15.269999999999982
 21
37.702991328348588
 31
0.0
  0
LINE
  5
56
100
AcDbEntity
  8
0
  6
CONTINUOUS
 62
               4
100
AcDbLine
 10
6.5
 20
55.002000000000038
 30
0.0
 11
8.25
 21
55.002000000000038
 31
0.0
  0
ARC
  5
57
100
AcDbEntity
  8
0
  6
CONTINUOUS
 62
               4
100
AcDbCircle
 10
6.7300009155542853
 20
54.501999084445771
 30
0.0
 40
0.5000009155550945
100
AcDbArc
 50
90.000104914596918
 51
179.99989508540253
  0
ARC
  5
58
100
AcDbEntity
  8
0
  6
CONTINUOUS
 62
               4
100
AcDbCircle
 10
6.5000106811733076
 20
54.50198931882673
 30
0.0
 40
0.5000106812873828
100
AcDbArc
 50
90.001223946153175
 51
179.9987760538454
  0
LINE
  5
5A
100
AcDbEntity
  8
0
  6
PHANTOM
 62
             200
100
AcDbLine
 10
9.5
 20
43.00200000000001
 30
0.0
 11
9.5
 21
41.00200000000001
 31
0.0
  0
LINE
  5
5B
100
AcDbEntity
  8
0
  6
PHANTOM
 62
             200
100
AcDbLine
 10
12.5
 20
43.00200000000001
 30
0.0
 11
12.5
 21
41.00200000000001
 31
0.0
  0
LINE
  5
5C
100
AcDbEntity
  8
0
  6
PHANTOM
 62
             200
100
AcDbLine
 10
9.5
 20
41.00200000000001
 30
0.0
 11
12.5
 21
41.00200000000001
 31
0.0
  0
LINE
  5
5D
100
AcDbEntity
  8
0
  6
PHANTOM
 62
             200
100
AcDbLine
 10
9.5
 20
43.00200000000001
 30
0.0
 11
12.5
 21
43.00200000000001
 31
0.0
  0
LINE
  5
5E
100
AcDbEntity
  8
0
  6
CONTINUOUS
 62
               4
100
AcDbLine
 10
8.8000000000000114
 20
53.552000000000021
 30
0.0
 11
10.699999999999989
 21
53.552000000000021
 31
0.0
  0
LINE
  5
5F
100
AcDbEntity
  8
0
  6
CONTINUOUS
 62
               4
100
AcDbLine
 10
8.8000000000000114
 20
53.752000000000038
 30
0.0
 11
10.699999999999989
 21
53.752000000000038
 31
0.0
  0
LINE
  5
60
100
AcDbEntity
  8
0
  6
CONTINUOUS
 62
               4
100
AcDbLine
 10
10.25
 20
51.652000000000015
 30
0.0
 11
10.25
 21
51.352000000000032
 31
0.0
  0
LINE
  5
61
100
AcDbEntity
  8
0
  6
CONTINUOUS
 62
               4
100
AcDbLine
 10
10.699999999999989
 20
53.752000000000038
 30
0.0
 11
10.699999999999989
 21
51.652000000000015
 31
0.0
  0
LINE
  5
62
100
AcDbEntity
  8
0
  6
CONTINUOUS
 62
               4
100
AcDbLine
 10
8.1500000000000341
 20
55.002000000000038
 30
0.0
 11
8.1500000000000341
 21
53.502000000000038
 31
0.0
  0
LINE
  5
63
100
AcDbEntity
  8
0
  6
CONTINUOUS
 62
               4
100
AcDbLine
 10
8.25
 20
54.06200000000004
 30
0.0
 11
8.5799999999999841
 21
54.402000000000015
 31
0.0
  0
LINE
  5
64
100
AcDbEntity
  8
0
  6
CONTINUOUS
 62
               4
100
AcDbLine
 10
7.1500000000000341
 20
53.502000000000038
 30
0.0
 11
8.1500000000000341
 21
53.502000000000038
 31
0.0
  0
LINE
  5
65
100
AcDbEntity
  8
0
  6
CONTINUOUS
 62
               4
100
AcDbLine
 10
7.1500000000000341
 20
53.502000000000038
 30
0.0
 11
7.1500000000000341
 21
51.502000000000038
 31
0.0
  0
LINE
  5
66
100
AcDbEntity
  8
0
  6
CONTINUOUS
 62
               4
100
AcDbLine
 10
7.25
 20
51.602000000000032
 30
0.0
 11
7.25
 21
53.402000000000015
 31
0.0
  0
LINE
  5
67
100
AcDbEntity
  8
0
  6
CONTINUOUS
 62
               4
100
AcDbLine
 10
7.25
 20
53.402000000000015
 30
0.0
 11
8.25
 21
53.402000000000015
 31
0.0
  0
LINE
  5
68
100
AcDbEntity
  8
0
  6
CONTINUOUS
 62
               4
100
AcDbLine
 10
8.25
 20
51.602000000000032
 30
0.0
 11
8.25
 21
50.102000000000032
 31
0.0
  0
LINE
  5
69
100
AcDbEntity
  8
0
  6
CONTINUOUS
 62
               4
100
AcDbLine
 10
9.25
 20
51.652000000000015
 30
0.0
 11
9.25
 21
51.352000000000032
 31
0.0
  0
LINE
  5
6A
100
AcDbEntity
  8
0
  6
CONTINUOUS
 62
               4
100
AcDbLine
 10
8.1500000000000341
 20
51.502000000000038
 30
0.0
 11
8.1500000000000341
 21
50.002000000000038
 31
0.0
  0
CIRCLE
  5
6B
100
AcDbEntity
  8
0
  6
CONTINUOUS
 62
               4
100
AcDbCircle
 10
9.75
 20
52.60198474121097
 30
0.0
 40
0.8499675393104553
  0
LINE
  5
6C
100
AcDbEntity
  8
0
  6
CONTINUOUS
 62
               4
100
AcDbLine
 10
7.1500000000000341
 20
51.502000000000038
 30
0.0
 11
8.1500000000000341
 21
51.502000000000038
 31
0.0
  0
LINE
  5
6D
100
AcDbEntity
  8
0
  6
CONTINUOUS
 62
               4
100
AcDbLine
 10
8.8000000000000114
 20
53.752000000000038
 30
0.0
 11
8.8000000000000114
 21
51.652000000000015
 31
0.0
  0
LINE
  5
6E
100
AcDbEntity
  8
0
  6
CONTINUOUS
 62
               4
100
AcDbLine
 10
7.25
 20
51.602000000000032
 30
0.0
 11
8.25
 21
51.602000000000032
 31
0.0
  0
LINE
  5
6F
100
AcDbEntity
  8
0
  6
CONTINUOUS
 62
               4
100
AcDbLine
 10
9.25
 20
51.352000000000032
 30
0.0
 11
10.25
 21
51.352000000000032
 31
0.0
  0
LINE
  5
70
100
AcDbEntity
  8
0
  6
CONTINUOUS
 62
               4
100
AcDbLine
 10
8.8000000000000114
 20
51.652000000000015
 30
0.0
 11
10.699999999999989
 21
51.652000000000015
 31
0.0
  0
LINE
  5
71
100
AcDbEntity
  8
0
  6
CONTINUOUS
 62
               4
100
AcDbLine
 10
8.25
 20
57.102000000000032
 30
0.0
 11
8.25
 21
53.402000000000015
 31
0.0
  0
LINE
  5
72
100
AcDbEntity
  8
0
  6
CONTINUOUS
 62
               4
100
AcDbLine
 10
8.25
 20
57.102000000000032
 30
0.0
 11
13.75
 21
57.102000000000032
 31
0.0
  0
LINE
  5
73
100
AcDbEntity
  8
0
  6
CONTINUOUS
 62
               4
100
AcDbLine
 10
8.25
 20
56.102000000000032
 30
0.0
 11
13.75
 21
56.102000000000032
 31
0.0
  0
CIRCLE
  5
74
100
AcDbEntity
  8
0
  6
CONTINUOUS
 62
               4
100
AcDbCircle
 10
12.25
 20
52.60198474121097
 30
0.0
 40
0.8499675393104553
  0
LINE
  5
75
100
AcDbEntity
  8
0
  6
CONTINUOUS
 62
               4
100
AcDbLine
 10
13.850000000000023
 20
51.502000000000038
 30
0.0
 11
14.850000000000023
 21
51.502000000000038
 31
0.0
  0
LINE
  5
76
100
AcDbEntity
  8
0
  6
CONTINUOUS
 62
               4
100
AcDbLine
 10
13.850000000000023
 20
53.502000000000038
 30
0.0
 11
14.850000000000023
 21
53.502000000000038
 31
0.0
  0
LINE
  5
77
100
AcDbEntity
  8
0
  6
CONTINUOUS
 62
               4
100
AcDbLine
 10
11.300000000000011
 20
53.752000000000038
 30
0.0
 11
13.199999999999989
 21
53.752000000000038
 31
0.0
  0
LINE
  5
78
100
AcDbEntity
  8
0
  6
CONTINUOUS
 62
               4
100
AcDbLine
 10
11.300000000000011
 20
51.652000000000015
 30
0.0
 11
13.199999999999989
 21
51.652000000000015
 31
0.0
  0
LINE
  5
79
100
AcDbEntity
  8
0
  6
CONTINUOUS
 62
               4
100
AcDbLine
 10
11.300000000000011
 20
53.552000000000021
 30
0.0
 11
13.199999999999989
 21
53.552000000000021
 31
0.0
  0
LINE
  5
7A
100
AcDbEntity
  8
0
  6
CONTINUOUS
 62
               4
100
AcDbLine
 10
13.75
 20
53.402000000000015
 30
0.0
 11
14.75
 21
53.402000000000015
 31
0.0
  0
LINE
  5
7B
100
AcDbEntity
  8
0
  6
CONTINUOUS
 62
               4
100
AcDbLine
 10
13.75
 20
51.602000000000032
 30
0.0
 11
14.75
 21
51.602000000000032
 31
0.0
  0
LINE
  5
7C
100
AcDbEntity
  8
0
  6
CONTINUOUS
 62
               4
100
AcDbLine
 10
11.75
 20
51.352000000000032
 30
0.0
 11
12.75
 21
51.352000000000032
 31
0.0
  0
LINE
  5
7D
100
AcDbEntity
  8
0
  6
CONTINUOUS
 62
               4
100
AcDbLine
 10
13.75
 20
51.602000000000032
 30
0.0
 11
13.75
 21
50.102000000000032
 31
0.0
  0
LINE
  5
7E
100
AcDbEntity
  8
0
  6
CONTINUOUS
 62
               4
100
AcDbLine
 10
12.75
 20
51.652000000000015
 30
0.0
 11
12.75
 21
51.352000000000032
 31
0.0
  0
LINE
  5
7F
100
AcDbEntity
  8
0
  6
CONTINUOUS
 62
               4
100
AcDbLine
 10
13.70999999999998
 20
54.102000000000032
 30
0.0
 11
13.410000000000025
 21
54.402000000000015
 31
0.0
  0
LINE
  5
80
100
AcDbEntity
  8
0
  6
CONTINUOUS
 62
               4
100
AcDbLine
 10
13.199999999999989
 20
53.752000000000038
 30
0.0
 11
13.199999999999989
 21
51.652000000000015
 31
0.0
  0
LINE
  5
81
100
AcDbEntity
  8
0
  6
CONTINUOUS
 62
               4
100
AcDbLine
 10
13.850000000000023
 20
55.002000000000038
 30
0.0
 11
13.850000000000023
 21
53.502000000000038
 31
0.0
  0
LINE
  5
82
100
AcDbEntity
  8
0
  6
CONTINUOUS
 62
               4
100
AcDbLine
 10
13.850000000000023
 20
51.502000000000038
 30
0.0
 11
13.850000000000023
 21
50.002000000000038
 31
0.0
  0
LINE
  5
83
100
AcDbEntity
  8
0
  6
CONTINUOUS
 62
               4
100
AcDbLine
 10
14.850000000000023
 20
53.502000000000038
 30
0.0
 11
14.850000000000023
 21
51.502000000000038
 31
0.0
  0
LINE
  5
84
100
AcDbEntity
  8
0
  6
CONTINUOUS
 62
               4
100
AcDbLine
 10
14.75
 20
51.602000000000032
 30
0.0
 11
14.75
 21
53.402000000000015
 31
0.0
  0
ARC
  5
85
100
AcDbEntity
  8
0
  6
CONTINUOUS
 62
               4
100
AcDbCircle
 10
15.269999084445772
 20
54.501999084445771
 30
0.0
 40
0.5000009155550945
100
AcDbArc
 50
0.0001049145970977
 51
89.999895085402713
  0
LINE
  5
86
100
AcDbEntity
  8
0
  6
CONTINUOUS
 62
               4
100
AcDbLine
 10
11.75
 20
51.652000000000015
 30
0.0
 11
11.75
 21
51.352000000000032
 31
0.0
  0
LINE
  5
87
100
AcDbEntity
  8
0
  6
CONTINUOUS
 62
               4
100
AcDbLine
 10
11.300000000000011
 20
53.752000000000038
 30
0.0
 11
11.300000000000011
 21
51.652000000000015
 31
0.0
  0
LINE
  5
88
100
AcDbEntity
  8
0
  6
CONTINUOUS
 62
               4
100
AcDbLine
 10
13.75
 20
55.002000000000038
 30
0.0
 11
15.5
 21
55.002000000000038
 31
0.0
  0
ARC
  5
89
100
AcDbEntity
  8
0
  6
CONTINUOUS
 62
               4
100
AcDbCircle
 10
15.500004577522645
 20
54.502004577522655
 30
0.0
 40
0.4999954224983215
100
AcDbArc
 50
359.99947544974214
 51
90.000524550256856
  0
LINE
  5
8A
100
AcDbEntity
  8
0
  6
CONTINUOUS
 62
               4
100
AcDbLine
 10
8.25
 20
50.102000000000032
 30
0.0
 11
13.75
 21
50.102000000000032
 31
0.0
  0
LINE
  5
8B
100
AcDbEntity
  8
0
  6
CONTINUOUS
 62
               4
100
AcDbLine
 10
8.25
 20
55.102000000000032
 30
0.0
 11
13.75
 21
55.102000000000032
 31
0.0
  0
LINE
  5
8C
100
AcDbEntity
  8
0
  6
CONTINUOUS
 62
               4
100
AcDbLine
 10
8.2800000000000296
 20
54.102000000000032
 30
0.0
 11
13.70999999999998
 21
54.102000000000032
 31
0.0
  0
LINE
  5
8D
100
AcDbEntity
  8
0
  6
CONTINUOUS
 62
               4
100
AcDbLine
 10
8.5799999999999841
 20
54.402000000000015
 30
0.0
 11
13.410000000000025
 21
54.402000000000015
 31
0.0
  0
LINE
  5
8E
100
AcDbEntity
  8
0
  6
CONTINUOUS
 62
               4
100
AcDbLine
 10
8.1500000000000341
 20
50.002000000000038
 30
0.0
 11
13.850000000000023
 21
50.002000000000038
 31
0.0
  0
LINE
  5
8F
100
AcDbEntity
  8
0
  6
CONTINUOUS
 62
               4
100
AcDbLine
 10
13.75
 20
57.102000000000032
 30
0.0
 11
13.75
 21
53.402000000000015
 31
0.0
  0
ARC
  5
90
100
AcDbEntity
  8
0
  6
CONTINUOUS
 62
               4
100
AcDbCircle
 10
13.402911994762974
 20
57.401088005237028
 30
0.0
 40
0.5989129830170392
100
AcDbArc
 50
89.895914524772735
 51
180.10408547522667
  0
ARC
  5
91
100
AcDbEntity
  8
0
  6
CONTINUOUS
 62
               4
100
AcDbCircle
 10
15.204095146658233
 20
57.400095146658174
 30
0.0
 40
0.5999048608870732
100
AcDbArc
 50
359.99091272245295
 51
90.009087277546172
  0
LINE
  5
92
100
AcDbEntity
  8
0
  6
CONTINUOUS
 62
               4
100
AcDbLine
 10
16.0
 20
57.400000000000006
 30
0.0
 11
12.800000000000011
 21
57.400000000000006
 31
0.0
  0
ARC
  5
93
100
AcDbEntity
  8
0
  6
CONTINUOUS
 62
               4
100
AcDbCircle
 10
6.5
 20
57.400000000000006
 30
0.0
 40
0.5
100
AcDbArc
 50
89.999999999999815
 51
179.99999999999963
  0
LINE
  5
94
100
AcDbEntity
  8
0
  6
CONTINUOUS
 62
               4
100
AcDbLine
 10
12.800000000000011
 20
57.900000000000006
 30
0.0
 11
12.800000000000011
 21
57.102000000000032
 31
0.0
  0
LINE
  5
95
100
AcDbEntity
  8
0
  6
CONTINUOUS
 62
               4
100
AcDbLine
 10
12.800000000000011
 20
57.900000000000006
 30
0.0
 11
6.5
 21
57.900000000000006
 31
0.0
  0
LINE
  5
96
100
AcDbEntity
  8
0
  6
CONTINUOUS
 62
               4
100
AcDbLine
 10
16.0
 20
56.400000000000006
 30
0.0
 11
13.75
 21
56.400000000000006
 31
0.0
  0
LINE
  5
97
100
AcDbEntity
  8
0
  6
CONTINUOUS
 62
               4
100
AcDbLine
 10
16.0
 20
58.000000000000028
 30
0.0
 11
6.0
 21
58.000000000000028
 31
0.0
  0
LINE
  5
98
100
AcDbEntity
  8
0
  6
CONTINUOUS
 62
               4
100
AcDbLine
 10
15.769999999999982
 20
54.502000000000038
 30
0.0
 11
15.769999999999982
 21
38.202991328348986
 31
0.0
  0
LINE
  5
99
100
AcDbEntity
  8
0
  6
CONTINUOUS
 62
               4
100
AcDbLine
 10
6.2300000000000182
 20
54.502000000000038
 30
0.0
 11
6.2300000000000182
 21
38.202991328348986
 31
0.0
  0
LINE
  5
9A
100
AcDbEntity
  8
0
  6
CONTINUOUS
 62
               4
100
AcDbLine
 10
6.0
 20
58.000000000000028
 30
0.0
 11
6.0
 21
35.500000000000021
 31
0.0
  0
LINE
  5
9B
100
AcDbEntity
  8
0
  6
CONTINUOUS
 62
               4
100
AcDbLine
 10
16.0
 20
58.000000000000028
 30
0.0
 11
16.0
 21
35.500000000000021
 31
0.0
  0
LINE
  5
9C
100
AcDbEntity
  8
0
  6
CONTINUOUS
 62
               7
100
AcDbLine
 10
16.0
 20
35.499999999999993
 30
0.0
 11
6.0
 21
35.499999999999993
 31
0.0
  0
LINE
  5
9D
100
AcDbEntity
  8
0
  6
CONTINUOUS
 62
               7
100
AcDbLine
 10
6.0
 20
24.499999999999993
 30
0.0
 11
6.0
 21
35.499999999999993
 31
0.0
  0
LINE
  5
9E
100
AcDbEntity
  8
0
  6
CONTINUOUS
 62
               7
100
AcDbLine
 10
16.0
 20
24.499999999999993
 30
0.0
 11
16.0
 21
35.499999999999993
 31
0.0
  0
LINE
  5
9F
100
AcDbEntity
  8
0
  6
CONTINUOUS
 62
               7
100
AcDbLine
 10
9.0
 20
31.499999999999993
 30
0.0
 11
9.0
 21
35.499999999999993
 31
0.0
  0
LINE
  5
A0
100
AcDbEntity
  8
0
  6
CONTINUOUS
 62
               7
100
AcDbLine
 10
13.0
 20
31.499999999999993
 30
0.0
 11
13.0
 21
35.499999999999993
 31
0.0
  0
ARC
  5
A1
100
AcDbEntity
  8
0
  6
CONTINUOUS
 62
               7
100
AcDbCircle
 10
11.0
 20
31.499999999999993
 30
0.0
 40
2.0
100
AcDbArc
 50
179.99999999999963
 51
0.0
  0
LINE
  5
A2
100
AcDbEntity
  8
0
  6
CENTER
 62
               2
100
AcDbLine
 10
12.700000000000017
 20
33.199999999999982
 30
0.0
 11
9.3000000000000114
 21
33.199999999999982
 31
0.0
  0
CIRCLE
  5
A3
100
AcDbEntity
  8
0
  6
CONTINUOUS
 62
               7
100
AcDbCircle
 10
11.0
 20
33.199999999999982
 30
0.0
 40
1.3000000000000012
  0
CIRCLE
  5
A4
100
AcDbEntity
  8
0
  6
CONTINUOUS
 62
               7
100
AcDbCircle
 10
11.0
 20
33.199999999999982
 30
0.0
 40
1.1500000000000001
  0
CIRCLE
  5
A5
100
AcDbEntity
  8
0
  6
CONTINUOUS
 62
               7
100
AcDbCircle
 10
11.0
 20
33.199999999999982
 30
0.0
 40
1.1000000000000001
  0
CIRCLE
  5
A6
100
AcDbEntity
  8
0
  6
CONTINUOUS
 62
               7
100
AcDbCircle
 10
11.0
 20
33.199999999999982
 30
0.0
 40
0.75
  0
ARC
  5
A7
100
AcDbEntity
  8
0
  6
CONTINUOUS
 62
               7
100
AcDbCircle
 10
6.5905539681090772
 20
6.2682512686530387
 30
0.0
 40
0.6105564724372721
100
AcDbArc
 50
179.83589550320582
 51
253.77907243150949
  0
LINE
  5
A8
100
AcDbEntity
  8
0
  6
CONTINUOUS
 62
               7
100
AcDbLine
 10
15.800000000000011
 20
4.9999999999999929
 30
0.0
 11
6.2000000000000171
 21
4.9999999999999929
 31
0.0
  0
LINE
  5
A9
100
AcDbEntity
  8
0
  6
CONTINUOUS
 62
               7
100
AcDbLine
 10
5.9800000000000182
 20
6.7999999999999758
 30
0.0
 11
9.5
 21
6.7999999999999758
 31
0.0
  0
ARC
  5
AA
100
AcDbEntity
  8
0
  6
CONTINUOUS
 62
               7
100
AcDbCircle
 10
6.2991048631411388
 20
7.0991048631410862
 30
0.0
 40
0.2991062025847394
100
AcDbArc
 50
179.82853033398985
 51
270.17146966600922
  0
ARC
  5
AB
100
AcDbEntity
  8
0
  6
CONTINUOUS
 62
               7
100
AcDbCircle
 10
6.2000000000000171
 20
5.1999999999999815
 30
0.0
 40
0.2
100
AcDbArc
 50
179.99999999999963
 51
269.99999999999937
  0
LINE
  5
AC
100
AcDbEntity
  8
0
  6
CONTINUOUS
 62
               7
100
AcDbLine
 10
9.5
 20
4.9999999999999929
 30
0.0
 11
9.5
 21
6.7999999999999758
 31
0.0
  0
ARC
  5
AD
100
AcDbEntity
  8
0
  6
CONTINUOUS
 62
               7
100
AcDbCircle
 10
7.7000000000000171
 20
10.087421236733938
 30
0.0
 40
4.5876068132596712
100
AcDbArc
 50
253.79871892415684
 51
286.20128107584191
  0
ARC
  5
AE
100
AcDbEntity
  8
0
  6
CONTINUOUS
 62
               7
100
AcDbCircle
 10
8.8082280041660965
 20
6.2691627179709641
 30
0.0
 40
0.6117725687931934
100
AcDbArc
 50
286.30661609184898
 51
0.0784159734340139
  0
LINE
  5
AF
100
AcDbEntity
  8
0
  6
CONTINUOUS
 62
               7
100
AcDbLine
 10
9.4200000000000159
 20
6.2700000000000031
 30
0.0
 11
9.4200000000000159
 21
6.7999999999999758
 31
0.0
  0
LINE
  5
B0
100
AcDbEntity
  8
0
  6
CONTINUOUS
 62
               7
100
AcDbLine
 10
6.0
 20
5.1999999999999815
 30
0.0
 11
6.0
 21
6.1132505693459436
 31
0.0
  0
LINE
  5
B1
100
AcDbEntity
  8
0
  6
CONTINUOUS
 62
               7
100
AcDbLine
 10
5.9800000000000182
 20
6.2700000000000031
 30
0.0
 11
5.9800000000000182
 21
6.7999999999999758
 31
0.0
  0
ARC
  5
B2
100
AcDbEntity
  8
0
  6
CONTINUOUS
 62
               7
100
AcDbCircle
 10
15.800000000000011
 20
5.1999999999999815
 30
0.0
 40
0.2
100
AcDbArc
 50
269.99999999999937
 51
0.0
  0
LINE
  5
B3
100
AcDbEntity
  8
0
  6
CONTINUOUS
 62
               7
100
AcDbLine
 10
14.700000000000017
 20
12.699999999999982
 30
0.0
 11
16.0
 21
12.699999999999982
 31
0.0
  0
LINE
  5
B4
100
AcDbEntity
  8
0
  6
CONTINUOUS
 62
               7
100
AcDbLine
 10
14.700000000000017
 20
15.89999999999997
 30
0.0
 11
16.0
 21
15.89999999999997
 31
0.0
  0
LINE
  5
B5
100
AcDbEntity
  8
0
  6
CONTINUOUS
 62
               7
100
AcDbLine
 10
7.3000000000000114
 20
21.799999999999976
 30
0.0
 11
6.0
 21
21.799999999999976
 31
0.0
  0
LINE
  5
B6
100
AcDbEntity
  8
0
  6
CONTINUOUS
 62
               7
100
AcDbLine
 10
7.3000000000000114
 20
18.599999999999987
 30
0.0
 11
6.0
 21
18.599999999999987
 31
0.0
  0
LINE
  5
B7
100
AcDbEntity
  8
0
  6
CONTINUOUS
 62
               7
100
AcDbLine
 10
16.000000006382493
 20
9.9999999999999929
 30
0.0
 11
6.0000000063824928
 21
9.9999999999999929
 31
0.0
  0
LINE
  5
B8
100
AcDbEntity
  8
0
  6
CENTER
 62
               2
100
AcDbLine
 10
16.560577971874096
 20
14.299999999999976
 30
0.0
 11
12.282054828561172
 21
14.299999999999976
 31
0.0
  0
ARC
  5
B9
100
AcDbEntity
  8
0
  6
CONTINUOUS
 62
               7
100
AcDbCircle
 10
14.700000000000017
 20
14.299999999999976
 30
0.0
 40
1.6000000000000001
100
AcDbArc
 50
89.999999999999815
 51
269.99999999999937
  0
ARC
  5
BA
100
AcDbEntity
  8
0
  6
CONTINUOUS
 62
               7
100
AcDbCircle
 10
7.3000000000000114
 20
20.199999999999982
 30
0.0
 40
1.6000000000000001
100
AcDbArc
 50
269.99999999999937
 51
89.999999999999801
  0
CIRCLE
  5
BB
100
AcDbEntity
  8
0
  6
CONTINUOUS
 62
               7
100
AcDbCircle
 10
14.700000000000017
 20
14.299999999999976
 30
0.0
 40
1.075
  0
CIRCLE
  5
BC
100
AcDbEntity
  8
0
  6
CONTINUOUS
 62
               7
100
AcDbCircle
 10
7.3000000000000114
 20
20.199999999999982
 30
0.0
 40
1.075
  0
LINE
  5
BD
100
AcDbEntity
  8
0
  6
CENTER
 62
               2
100
AcDbLine
 10
9.4781662840152308
 20
20.199999999999982
 30
0.0
 11
4.8222827114486222
 21
20.199999999999982
 31
0.0
  0
LINE
  5
BE
100
AcDbEntity
  8
0
  6
CENTER
 62
               2
100
AcDbLine
 10
14.700000000000017
 20
11.99172519490255
 30
0.0
 11
14.700000000000017
 21
16.651939608336612
 31
0.0
  0
LINE
  5
BF
100
AcDbEntity
  8
0
  6
CENTER
 62
               2
100
AcDbLine
 10
7.3000000000000114
 20
17.606854984051061
 30
0.0
 11
7.3000000000000114
 21
22.656448283146965
 31
0.0
  0
LINE
  5
C0
100
AcDbEntity
  8
0
  6
CONTINUOUS
 62
               7
100
AcDbLine
 10
16.0
 20
24.499999999999993
 30
0.0
 11
6.0
 21
24.499999999999993
 31
0.0
  0
LINE
  5
C1
100
AcDbEntity
  8
0
  6
CONTINUOUS
 62
               7
100
AcDbLine
 10
6.0
 20
6.7999999999999758
 30
0.0
 11
6.0
 21
24.500000000494474
 31
0.0
  0
LINE
  5
C2
100
AcDbEntity
  8
0
  6
CONTINUOUS
 62
               7
100
AcDbLine
 10
16.0
 20
5.1999999999999815
 30
0.0
 11
16.0
 21
24.499999999999993
 31
0.0
  0
LINE
  5
C3
100
AcDbEntity
  8
0
  6
CENTER
 62
               2
100
AcDbLine
 10
15.0
 20
18.599999999999987
 30
0.0
 11
11.0
 21
18.599999999999987
 31
0.0
  0
LINE
  5
C4
100
AcDbEntity
  8
0
  6
CENTER
 62
               2
100
AcDbLine
 10
13.0
 20
16.599999999999987
 30
0.0
 11
13.0
 21
20.599999999999987
 31
0.0
  0
CIRCLE
  5
C5
100
AcDbEntity
  8
0
  6
CONTINUOUS
 62
               2
100
AcDbCircle
 10
13.0
 20
18.599999999999987
 30
0.0
 40
1.5
  0
CIRCLE
  5
C6
100
AcDbEntity
  8
0
  6
CONTINUOUS
 62
               7
100
AcDbCircle
 10
13.0
 20
18.599999999999987
 30
0.0
 40
1.25
  0
ENDBLK
  5
C7
100
AcDbEntity
  8
0
100
AcDbBlockEnd
  0
BLOCK
  5
C8
100
AcDbEntity
  8
0
100
AcDbBlockBegin
  2
EB10F1-2
 70
               0
 10
0.0
 20
0.0
 30
0.0
  3
EB10F1-2
  1

  0
LINE
  5
C9
100
AcDbEntity
  8
0
  6
CONTINUOUS
 62
               4
100
AcDbLine
 10
-7.0
 20
0.0000000256359201
 30
0.0
 11
-7.0
 21
5.0
 31
0.0
  0
LINE
  5
CA
100
AcDbEntity
  8
0
  6
CONTINUOUS
 62
               4
100
AcDbLine
 10
7.0
 20
0.0000000256359201
 30
0.0
 11
7.0
 21
5.0
 31
0.0
  0
LINE
  5
CB
100
AcDbEntity
  8
0
  6
CONTINUOUS
 62
               4
100
AcDbLine
 10
-7.0000000007497079
 20
1.2000000000000028
 30
0.0
 11
6.9999999992502921
 21
1.2000000000000028
 31
0.0
  0
LINE
  5
CC
100
AcDbEntity
  8
0
  6
CONTINUOUS
 62
               4
100
AcDbLine
 10
-7.0000000007497079
 20
3.7999999999999972
 30
0.0
 11
6.9999999992502921
 21
3.7999999999999972
 31
0.0
  0
LINE
  5
CD
100
AcDbEntity
  8
0
  6
CONTINUOUS
 62
               4
100
AcDbLine
 10
-7.0000000007497079
 20
5.0
 30
0.0
 11
6.9999999992502921
 21
5.0
 31
0.0
  0
LINE
  5
CE
100
AcDbEntity
  8
0
  6
CONTINUOUS
 62
               4
100
AcDbLine
 10
-7.0000000007497079
 20
0.0
 30
0.0
 11
7.0
 21
0.0
 31
0.0
  0
LINE
  5
CF
100
AcDbEntity
  8
0
  6
CENTER
 62
               2
100
AcDbLine
 10
0.0
 20
61.162585161280504
 30
0.0
 11
0.0
 21
-2.4488717557984856
 31
0.0
  0
ARC
  5
D1
100
AcDbEntity
  8
0
  6
DASHED
 62
             200
100
AcDbCircle
 10
-18.5
 20
19.299999999999947
 30
0.0
 40
0.5
100
AcDbArc
 50
179.99999999999963
 51
269.99999999999937
  0
ARC
  5
D2
100
AcDbEntity
  8
0
  6
DASHED
 62
             200
100
AcDbCircle
 10
-18.5
 20
24.299999999999976
 30
0.0
 40
0.5
100
AcDbArc
 50
89.999999999999815
 51
179.99999999999963
  0
LINE
  5
D3
100
AcDbEntity
  8
0
  6
DASHED
 62
             200
100
AcDbLine
 10
-19.0
 20
19.299999999999947
 30
0.0
 11
-19.0
 21
24.299999999999976
 31
0.0
  0
LINE
  5
D4
100
AcDbEntity
  8
0
  6
DASHED
 62
             200
100
AcDbLine
 10
-16.5
 20
18.799999999999947
 30
0.0
 11
-16.5
 21
24.799999999999976
 31
0.0
  0
LINE
  5
D5
100
AcDbEntity
  8
0
  6
DASHED
 62
             200
100
AcDbLine
 10
-18.5
 20
18.799999999999947
 30
0.0
 11
-18.5
 21
24.799999999999976
 31
0.0
  0
LINE
  5
D6
100
AcDbEntity
  8
0
  6
DASHED
 62
             200
100
AcDbLine
 10
-7.0
 20
18.799999999999947
 30
0.0
 11
-18.5
 21
18.799999999999947
 31
0.0
  0
LINE
  5
D7
100
AcDbEntity
  8
0
  6
DASHED
 62
             200
100
AcDbLine
 10
-7.0
 20
24.799999999999976
 30
0.0
 11
-18.5
 21
24.799999999999976
 31
0.0
  0
LINE
  5
D8
100
AcDbEntity
  8
0
  6
CENTER
 62
               2
100
AcDbLine
 10
-6.1241534247009213
 20
21.799999999999976
 30
0.0
 11
-20.405931067489945
 21
21.799999999999976
 31
0.0
  0
LINE
  5
D9
100
AcDbEntity
  8
0
  6
CONTINUOUS
 62
               4
100
AcDbLine
 10
33.995959596051236
 20
52.259233128737009
 30
0.0
 11
33.995959596051236
 21
52.759233128737009
 31
0.0
  0
ARC
  5
DA
100
AcDbEntity
  8
0
  6
CONTINUOUS
 62
               4
100
AcDbCircle
 10
9.8869807275629569
 20
35.999995453571181
 30
0.0
 40
0.5
100
AcDbArc
 50
269.7556636029762
 51
295.03102081721903
  0
LINE
  5
DB
100
AcDbEntity
  8
0
  6
CONTINUOUS
 62
               4
100
AcDbLine
 10
7.0000000135181608
 20
35.50000000000022
 30
0.0
 11
9.8848484967181207
 21
35.50000000000022
 31
0.0
  0
ARC
  5
DC
100
AcDbEntity
  8
0
  6
CONTINUOUS
 62
               4
100
AcDbCircle
 10
-4.3989118272451435
 20
57.401088005237256
 30
0.0
 40
0.5989129830170392
100
AcDbArc
 50
359.89591452477299
 51
90.104085475226924
  0
LINE
  5
DD
100
AcDbEntity
  8
0
  6
CONTINUOUS
 62
               4
100
AcDbLine
 10
-3.2999998324822286
 20
57.400000000000233
 30
0.0
 11
-3.2999998324822286
 21
58.000000000000256
 31
0.0
  0
LINE
  5
DE
100
AcDbEntity
  8
0
  6
CONTINUOUS
 62
               4
100
AcDbLine
 10
30.495959596051165
 20
53.160555545467275
 30
0.0
 11
27.158585860584566
 21
53.160555545467219
 31
0.0
  0
LINE
  5
DF
100
AcDbEntity
  8
0
  6
CONTINUOUS
 62
               4
100
AcDbLine
 10
30.495959596051193
 20
51.859545445200581
 30
0.0
 11
27.90808080965121
 21
51.859545445200524
 31
0.0
  0
LINE
  5
E0
100
AcDbEntity
  8
0
  6
CONTINUOUS
 62
               4
100
AcDbLine
 10
7.0000000135178198
 20
55.001010089866924
 30
0.0
 11
14.49494950418449
 21
55.001010089867094
 31
0.0
  0
LINE
  5
E1
100
AcDbEntity
  8
0
  6
CONTINUOUS
 62
               4
100
AcDbLine
 10
14.996969705917849
 20
54.498989888133707
 30
0.0
 11
14.996969705918161
 21
38.151515150000449
 31
0.0
  0
LINE
  5
E2
100
AcDbEntity
  8
0
  6
CONTINUOUS
 62
               4
100
AcDbLine
 10
22.993939398317906
 20
50.002020193733784
 30
0.0
 11
22.993939398317821
 21
54.103030292400518
 31
0.0
  0
LINE
  5
E3
100
AcDbEntity
  8
0
  6
CONTINUOUS
 62
               4
100
AcDbLine
 10
16.389898998051166
 20
56.104040392267137
 30
0.0
 11
21.494949500184475
 21
57.002020189733884
 31
0.0
  0
LINE
  5
E4
100
AcDbEntity
  8
0
  6
CONTINUOUS
 62
               4
100
AcDbLine
 10
22.993939398317792
 20
56.005050493333812
 30
0.0
 11
22.993939398317764
 21
57.002020189733884
 31
0.0
  0
LINE
  5
E5
100
AcDbEntity
  8
0
  6
CONTINUOUS
 62
               4
100
AcDbLine
 10
15.329292938051196
 20
54.902020190933655
 30
0.0
 11
21.671717176851132
 21
56.01919190746716
 31
0.0
  0
LINE
  5
E6
100
AcDbEntity
  8
0
  6
CONTINUOUS
 62
               4
100
AcDbLine
 10
13.992929302451159
 20
55.099999988800363
 30
0.0
 11
8.293939406717783
 21
55.099999988800249
 31
0.0
  0
LINE
  5
E7
100
AcDbEntity
  8
0
  6
CONTINUOUS
 62
               4
100
AcDbLine
 10
22.993939398317821
 20
54.103030292400518
 30
0.0
 11
22.696969701517844
 21
54.399999989200495
 31
0.0
  0
LINE
  5
E8
100
AcDbEntity
  8
0
  6
CONTINUOUS
 62
               4
100
AcDbLine
 10
21.996969701917891
 20
50.002020193733784
 30
0.0
 11
21.996969701917891
 21
50.603030294400497
 31
0.0
  0
LINE
  5
E9
100
AcDbEntity
  8
0
  6
CONTINUOUS
 62
               4
100
AcDbLine
 10
21.996969701917891
 20
50.603030294400497
 30
0.0
 11
16.997979805784524
 21
50.60303029440044
 31
0.0
  0
LINE
  5
EA
100
AcDbEntity
  8
0
  6
CONTINUOUS
 62
               4
100
AcDbLine
 10
16.997979805784553
 20
50.002020193733671
 30
0.0
 11
16.997979805784524
 21
50.60303029440044
 31
0.0
  0
LINE
  5
EB
100
AcDbEntity
  8
0
  6
CONTINUOUS
 62
               4
100
AcDbLine
 10
16.495959604051166
 20
54.103030292400405
 30
0.0
 11
16.792929300851142
 21
54.399999989200381
 31
0.0
  0
LINE
  5
EC
100
AcDbEntity
  8
0
  6
CONTINUOUS
 62
               4
100
AcDbLine
 10
16.389898998051166
 20
56.104040392267137
 30
0.0
 11
7.296969710317768
 21
56.104040392266967
 31
0.0
  0
LINE
  5
ED
100
AcDbEntity
  8
0
  6
CONTINUOUS
 62
               4
100
AcDbLine
 10
8.293939406717783
 20
55.00101008986698
 30
0.0
 11
8.293939406717783
 21
55.099999988800249
 31
0.0
  0
LINE
  5
EE
100
AcDbEntity
  8
0
  6
CONTINUOUS
 62
               4
100
AcDbLine
 10
27.561616163384514
 20
51.854545445200557
 30
0.0
 11
22.993939398317877
 21
51.854545445200444
 31
0.0
  0
LINE
  5
EF
100
AcDbEntity
  8
0
  6
CONTINUOUS
 62
             200
100
AcDbLine
 10
26.324242426717831
 20
54.00904039346716
 30
0.0
 11
28.056565658051227
 21
51.003989890133937
 31
0.0
  0
LINE
  5
F0
100
AcDbEntity
  8
0
  6
CONTINUOUS
 62
               4
100
AcDbLine
 10
26.81212121431787
 20
53.155555545467223
 30
0.0
 11
22.993939398317849
 21
53.155555545467166
 31
0.0
  0
LINE
  5
F1
100
AcDbEntity
  8
0
  6
CONTINUOUS
 62
               4
100
AcDbLine
 10
22.993939398317764
 20
57.002020189733884
 30
0.0
 11
21.494949500184475
 21
57.002020189733884
 31
0.0
  0
LINE
  5
F2
100
AcDbEntity
  8
0
  6
CONTINUOUS
 62
               4
100
AcDbLine
 10
22.993939398317792
 20
56.005050493333812
 30
0.0
 11
21.586868692051098
 21
56.005050493333812
 31
0.0
  0
LINE
  5
F3
100
AcDbEntity
  8
0
  6
CONTINUOUS
 62
               4
100
AcDbLine
 10
22.696969701517844
 20
54.399999989200495
 30
0.0
 11
16.792929300851142
 21
54.399999989200381
 31
0.0
  0
LINE
  5
F4
100
AcDbEntity
  8
0
  6
CONTINUOUS
 62
               4
100
AcDbLine
 10
22.993939398317821
 20
54.103030292400518
 30
0.0
 11
15.400000008717882
 21
54.103030292400376
 31
0.0
  0
LINE
  5
F5
100
AcDbEntity
  8
0
  6
CONTINUOUS
 62
               4
100
AcDbLine
 10
22.993939398317849
 20
53.403030292800537
 30
0.0
 11
14.996969705917877
 21
53.403030292800423
 31
0.0
  0
LINE
  5
F6
100
AcDbEntity
  8
0
  6
CONTINUOUS
 62
               4
100
AcDbLine
 10
22.993939398317877
 20
51.599999990800541
 30
0.0
 11
14.996969705917905
 21
51.599999990800399
 31
0.0
  0
LINE
  5
F7
100
AcDbEntity
  8
0
  6
CONTINUOUS
 62
               4
100
AcDbLine
 10
14.996969705917934
 20
50.002020193733671
 30
0.0
 11
16.997979805784553
 21
50.002020193733671
 31
0.0
  0
LINE
  5
F8
100
AcDbEntity
  8
0
  6
CONTINUOUS
 62
               4
100
AcDbLine
 10
21.996969701917891
 20
50.002020193733784
 30
0.0
 11
22.993939398317906
 21
50.002020193733784
 31
0.0
  0
ARC
  5
F9
100
AcDbEntity
  8
0
  6
CONTINUOUS
 62
               4
100
AcDbCircle
 10
14.497257383074867
 20
38.152522460539558
 30
0.0
 40
0.4997133381008656
100
AcDbArc
 50
294.82621530980992
 51
359.88450442035736
  0
ARC
  5
FA
100
AcDbEntity
  8
0
  6
CONTINUOUS
 62
               4
100
AcDbCircle
 10
14.500332854439165
 20
54.504373238388382
 30
0.0
 40
0.4966660273328702
100
AcDbArc
 50
359.37896036356483
 51
90.621039636434716
  0
ARC
  5
FB
100
AcDbEntity
  8
0
  6
CONTINUOUS
 62
               4
100
AcDbCircle
 10
7.2994313052352311
 20
55.804584129418913
 30
0.0
 40
0.2994663800970315
100
AcDbArc
 50
90.47097302846538
 51
180.87710076750685
  0
ARC
  5
FC
100
AcDbEntity
  8
0
  6
CONTINUOUS
 62
               4
100
AcDbCircle
 10
13.999912527655027
 20
54.605034325092987
 30
0.0
 40
0.4950149226876426
100
AcDbArc
 50
53.123124741165753
 51
90.808304124579536
  0
ARC
  5
FD
100
AcDbEntity
  8
0
  6
CONTINUOUS
 62
               4
100
AcDbCircle
 10
15.399895939896879
 20
54.505327231604895
 30
0.0
 40
0.4029269013737999
100
AcDbArc
 50
100.09177155739695
 51
179.8957164142515
  0
ARC
  5
FE
100
AcDbEntity
  8
0
  6
CONTINUOUS
 62
               4
100
AcDbCircle
 10
15.400834052872199
 20
54.506894639354726
 30
0.0
 40
0.403865208170398
100
AcDbArc
 50
180.11832473551567
 51
269.88167526448677
  0
LINE
  5
FF
100
AcDbEntity
  8
0
  6
CONTINUOUS
 62
             200
100
AcDbLine
 10
26.670707072984527
 20
54.009040393467217
 30
0.0
 11
28.403030304317923
 21
51.011060597200583
 31
0.0
  0
LINE
  5
100
100
AcDbEntity
  8
0
  6
CONTINUOUS
 62
               4
100
AcDbLine
 10
4.9999999824822225
 20
56.399999999999949
 30
0.0
 11
-7.0000000135178198
 21
56.400000000000176
 31
0.0
  0
LINE
  5
101
100
AcDbEntity
  8
0
  6
CONTINUOUS
 62
               4
100
AcDbLine
 10
4.9999999824822794
 20
58.0
 30
0.0
 11
4.9999999824822225
 21
56.399999999999949
 31
0.0
  0
LINE
  5
102
100
AcDbEntity
  8
0
  6
CONTINUOUS
 62
               4
100
AcDbLine
 10
6.4999999784822364
 20
57.900000000000006
 30
0.0
 11
4.999999982482251
 21
57.900000000000006
 31
0.0
  0
ARC
  5
103
100
AcDbEntity
  8
0
  6
CONTINUOUS
 62
               4
100
AcDbCircle
 10
6.4999999784822364
 20
57.399999999999949
 30
0.0
 40
0.5
100
AcDbArc
 50
359.99999999999898
 51
89.999999999998778
  0
LINE
  5
104
100
AcDbEntity
  8
0
  6
CONTINUOUS
 62
               4
100
AcDbLine
 10
6.1999998924822535
 20
58.0
 30
0.0
 11
-6.1999999275177515
 21
58.000000000000227
 31
0.0
  0
ARC
  5
105
100
AcDbEntity
  8
0
  6
CONTINUOUS
 62
               4
100
AcDbCircle
 10
-6.5000000135178198
 20
57.400000000000205
 30
0.0
 40
0.5
100
AcDbArc
 50
93.919585899649775
 51
179.99999999999858
  0
LINE
  5
106
100
AcDbEntity
  8
0
  6
CONTINUOUS
 62
               4
100
AcDbLine
 10
-3.2999998324822286
 20
57.400000000000148
 30
0.0
 11
-7.0000000135178198
 21
57.400000000000205
 31
0.0
  0
ARC
  5
107
100
AcDbEntity
  8
0
  6
CONTINUOUS
 62
               4
100
AcDbCircle
 10
-6.2010879326460326
 20
57.401088005128457
 30
0.0
 40
0.598912923125741
100
AcDbArc
 50
89.895914524771712
 51
180.10408547522565
  0
ARC
  5
108
100
AcDbEntity
  8
0
  6
CONTINUOUS
 62
               4
100
AcDbCircle
 10
6.2000950391309289
 20
57.400095146648653
 30
0.0
 40
0.599904800896587
100
AcDbArc
 50
56.247417870392866
 51
90.009087277545149
  0
LINE
  5
109
100
AcDbEntity
  8
0
  6
CONTINUOUS
 62
               4
100
AcDbLine
 10
30.495959596051193
 20
51.859545445200581
 30
0.0
 11
30.495959596051165
 21
53.160555545467275
 31
0.0
  0
LINE
  5
10A
100
AcDbEntity
  8
0
  6
CONTINUOUS
 62
               4
100
AcDbLine
 10
30.495959596051179
 20
52.759233112521429
 30
0.0
 11
33.995959596051236
 21
52.759233112521429
 31
0.0
  0
LINE
  5
10B
100
AcDbEntity
  8
0
  6
CONTINUOUS
 62
               4
100
AcDbLine
 10
30.495959596051179
 20
52.259233112521429
 30
0.0
 11
33.995959596051236
 21
52.259233112521429
 31
0.0
  0
LINE
  5
10C
100
AcDbEntity
  8
0
  6
CONTINUOUS
 62
               4
100
AcDbLine
 10
7.0000000135177913
 20
57.400000000000205
 30
0.0
 11
7.0000000135181608
 21
35.50000000000022
 31
0.0
  0
LINE
  5
10D
100
AcDbEntity
  8
0
  6
CONTINUOUS
 62
               4
100
AcDbLine
 10
-6.9999999784818101
 20
35.499999999999964
 30
0.0
 11
-6.999999978482208
 21
57.399999999999949
 31
0.0
  0
LINE
  5
10E
100
AcDbEntity
  8
0
  6
CONTINUOUS
 62
               4
100
AcDbLine
 10
9.8848484967181207
 20
35.500000000000277
 30
0.0
 11
9.8848484967177797
 21
55.00101008986698
 31
0.0
  0
LINE
  5
10F
100
AcDbEntity
  8
0
  6
CONTINUOUS
 62
               4
100
AcDbLine
 10
10.098535171945969
 20
35.546956032480914
 30
0.0
 11
14.707070716184802
 21
37.698989897733696
 31
0.0
  0
LINE
  5
110
100
AcDbEntity
  8
0
  6
CONTINUOUS
 62
               2
100
AcDbLine
 10
-7.2719999999999914
 20
23.032000000000004
 30
0.0
 11
-7.0
 21
23.032000000000004
 31
0.0
  0
LINE
  5
111
100
AcDbEntity
  8
0
  6
CONTINUOUS
 62
               7
100
AcDbLine
 10
-7.2719999999999914
 20
23.032000000000004
 30
0.0
 11
-7.0
 21
23.300000000000004
 31
0.0
  0
LINE
  5
112
100
AcDbEntity
  8
0
  6
CONTINUOUS
 62
               2
100
AcDbLine
 10
-7.2719999999999914
 20
20.571999999999996
 30
0.0
 11
-7.0
 21
20.571999999999996
 31
0.0
  0
LINE
  5
113
100
AcDbEntity
  8
0
  6
CONTINUOUS
 62
               7
100
AcDbLine
 10
-7.2719999999999914
 20
20.571999999999996
 30
0.0
 11
-7.0
 21
20.300000000000004
 31
0.0
  0
LINE
  5
114
100
AcDbEntity
  8
0
  6
CONTINUOUS
 62
               7
100
AcDbLine
 10
-7.2719999999999914
 20
20.571999999999996
 30
0.0
 11
-7.2719999999999914
 21
23.032000000000004
 31
0.0
  0
ARC
  5
115
100
AcDbEntity
  8
0
  6
CONTINUOUS
 62
               7
100
AcDbCircle
 10
5.2799999999999727
 20
10.087421236734023
 30
0.0
 40
4.5876068132596712
100
AcDbArc
 50
253.7987189241569
 51
286.20128107584202
  0
ARC
  5
116
100
AcDbEntity
  8
0
  6
CONTINUOUS
 62
               7
100
AcDbCircle
 10
4.1717719958339217
 20
6.2691627179710778
 30
0.0
 40
0.6117725687931934
100
AcDbArc
 50
179.9215840265656
 51
253.6933839081498
  0
LINE
  5
117
100
AcDbEntity
  8
0
  6
CONTINUOUS
 62
               7
100
AcDbLine
 10
3.5600000000000023
 20
6.2700000000000884
 30
0.0
 11
3.5600000000000023
 21
6.8000000000000611
 31
0.0
  0
ARC
  5
118
100
AcDbEntity
  8
0
  6
CONTINUOUS
 62
               7
100
AcDbCircle
 10
6.389446031890941
 20
6.2682512686530956
 30
0.0
 40
0.6105564724372721
100
AcDbArc
 50
286.22092756849014
 51
0.1641044967937703
  0
LINE
  5
119
100
AcDbEntity
  8
0
  6
CONTINUOUS
 62
               7
100
AcDbLine
 10
7.0
 20
6.8000000000000611
 30
0.0
 11
3.4800000000000182
 21
6.8000000000000611
 31
0.0
  0
ARC
  5
11A
100
AcDbEntity
  8
0
  6
CONTINUOUS
 62
               7
100
AcDbCircle
 10
6.6808951368589078
 20
7.0991048631411715
 30
0.0
 40
0.2991062025847394
100
AcDbArc
 50
269.82853033399044
 51
0.1714696660097498
  0
LINE
  5
11B
100
AcDbEntity
  8
0
  6
CONTINUOUS
 62
               7
100
AcDbLine
 10
3.4800000000000182
 20
4.9999999999999929
 30
0.0
 11
3.4800000000000182
 21
6.8000000000000611
 31
0.0
  0
LINE
  5
11C
100
AcDbEntity
  8
0
  6
CONTINUOUS
 62
               7
100
AcDbLine
 10
-7.0000028165267736
 20
35.499999999999964
 30
0.0
 11
8.0999999999999943
 21
35.499999999999964
 31
0.0
  0
LINE
  5
11D
100
AcDbEntity
  8
0
  6
CONTINUOUS
 62
               7
100
AcDbLine
 10
7.0
 20
28.399999999999999
 30
0.0
 11
8.0999999999999943
 21
29.499999999999993
 31
0.0
  0
LINE
  5
11E
100
AcDbEntity
  8
0
  6
CONTINUOUS
 62
               7
100
AcDbLine
 10
7.0
 20
35.499999999999964
 30
0.0
 11
7.0
 21
24.499999999999993
 31
0.0
  0
LINE
  5
11F
100
AcDbEntity
  8
0
  6
CONTINUOUS
 62
               7
100
AcDbLine
 10
-7.0
 20
35.499999999999964
 30
0.0
 11
-7.0
 21
24.499999999999993
 31
0.0
  0
LINE
  5
120
100
AcDbEntity
  8
0
  6
CONTINUOUS
 62
               7
100
AcDbLine
 10
8.5480000000000018
 20
32.099999999999987
 30
0.0
 11
8.5480000000000018
 21
34.299999999999976
 31
0.0
  0
LINE
  5
121
100
AcDbEntity
  8
0
  6
CONTINUOUS
 62
               7
100
AcDbLine
 10
8.5480000000000018
 20
34.299999999999976
 30
0.0
 11
8.0999999999999943
 21
34.299999999999976
 31
0.0
  0
LINE
  5
122
100
AcDbEntity
  8
0
  6
CONTINUOUS
 62
               7
100
AcDbLine
 10
8.5480000000000018
 20
32.099999999999987
 30
0.0
 11
8.0999999999999943
 21
32.099999999999987
 31
0.0
  0
LINE
  5
123
100
AcDbEntity
  8
0
  6
CONTINUOUS
 62
               7
100
AcDbLine
 10
8.0999999999999943
 20
29.499999999999993
 30
0.0
 11
8.0999999999999943
 21
35.499999999999964
 31
0.0
  0
ARC
  5
124
100
AcDbEntity
  8
0
  6
CONTINUOUS
 62
               7
100
AcDbCircle
 10
-6.6009733670266257
 20
5.3990266329733956
 30
0.0
 40
0.3990278201647513
100
AcDbArc
 50
179.8602356150773
 51
270.1397643849217
  0
LINE
  5
125
100
AcDbEntity
  8
0
  6
CONTINUOUS
 62
               7
100
AcDbLine
 10
-6.5999999999999943
 20
4.9999999999999929
 30
0.0
 11
6.5999999999999943
 21
4.9999999999999929
 31
0.0
  0
ARC
  5
126
100
AcDbEntity
  8
0
  6
CONTINUOUS
 62
               7
100
AcDbCircle
 10
6.6009733670266257
 20
5.3990266329733672
 30
0.0
 40
0.3990278201647513
100
AcDbArc
 50
269.8602356150771
 51
0.1397643849223044
  0
LINE
  5
127
100
AcDbEntity
  8
0
  6
CONTINUOUS
 62
               4
100
AcDbLine
 10
6.9986102931690652
 20
36.005000108343289
 30
0.0
 11
6.9985717684384099
 21
35.505000109827414
 31
0.0
  0
LINE
  5
128
100
AcDbEntity
  8
0
  6
CONTINUOUS
 62
               7
100
AcDbLine
 10
-7.0
 20
9.9999999999999929
 30
0.0
 11
6.999999986481896
 21
9.9999999999999929
 31
0.0
  0
LINE
  5
129
100
AcDbEntity
  8
0
  6
CONTINUOUS
 62
               7
100
AcDbLine
 10
-7.0
 20
24.499999999999993
 30
0.0
 11
6.999999986481896
 21
24.499999999999993
 31
0.0
  0
LINE
  5
12A
100
AcDbEntity
  8
0
  6
CONTINUOUS
 62
               7
100
AcDbLine
 10
7.0
 20
24.499999999999993
 30
0.0
 11
7.0
 21
5.400000000000027
 31
0.0
  0
LINE
  5
12B
100
AcDbEntity
  8
0
  6
CENTER
 62
               2
100
AcDbLine
 10
2.4168738811566755
 20
21.499999999999993
 30
0.0
 11
5.0848777193341448
 21
21.499999999999993
 31
0.0
  0
LINE
  5
12C
100
AcDbEntity
  8
0
  6
CENTER
 62
               2
100
AcDbLine
 10
2.4168738811566755
 20
12.999999999999993
 30
0.0
 11
5.0848777193341448
 21
12.999999999999993
 31
0.0
  0
LINE
  5
12D
100
AcDbEntity
  8
0
  6
CENTER
 62
               2
100
AcDbLine
 10
3.75
 20
14.361523884831108
 30
0.0
 11
3.75
 21
11.621411834810992
 31
0.0
  0
CIRCLE
  5
12E
100
AcDbEntity
  8
0
  6
CONTINUOUS
 62
               7
100
AcDbCircle
 10
3.75
 20
12.999999999999993
 30
0.0
 40
1.05
  0
CIRCLE
  5
12F
100
AcDbEntity
  8
0
  6
CONTINUOUS
 62
               7
100
AcDbCircle
 10
3.75
 20
21.499999999999993
 30
0.0
 40
1.05
  0
LINE
  5
130
100
AcDbEntity
  8
0
  6
CENTER
 62
               2
100
AcDbLine
 10
3.75
 20
22.94240109410466
 30
0.0
 11
3.75
 21
20.058072620399251
 31
0.0
  0
LINE
  5
131
100
AcDbEntity
  8
0
  6
CONTINUOUS
 62
               7
100
AcDbLine
 10
-7.0
 20
5.3999999999999986
 30
0.0
 11
-7.0
 21
24.499999999999993
 31
0.0
  0
LINE
  5
132
100
AcDbEntity
  8
0
  6
CONTINUOUS
 62
               7
100
AcDbLine
 10
5.9999999992502921
 20
21.799999999999976
 30
0.0
 11
7.0
 21
21.799999999999976
 31
0.0
  0
LINE
  5
133
100
AcDbEntity
  8
0
  6
CONTINUOUS
 62
               7
100
AcDbLine
 10
5.9999999992502921
 20
18.599999999999987
 30
0.0
 11
7.0
 21
18.599999999999987
 31
0.0
  0
LINE
  5
134
100
AcDbEntity
  8
0
  6
CONTINUOUS
 62
               7
100
AcDbLine
 10
5.9999999992502921
 20
21.799999999999976
 30
0.0
 11
5.9999999992502921
 21
18.599999999999987
 31
0.0
  0
ENDBLK
  5
135
100
AcDbEntity
  8
0
100
AcDbBlockEnd
  0
BLOCK
  5
136
100
AcDbEntity
  8
0
100
AcDbBlockBegin
  2
EB10F1-3
 70
               0
 10
0.0
 20
0.0
 30
0.0
  3
EB10F1-3
  1

  0
LINE
  5
137
100
AcDbEntity
  8
0
  6
DASHED
 62
             200
100
AcDbLine
 10
-20.25
 20
0.0
 30
0.0
 11
-20.25
 21
1.2000000000000028
 31
0.0
  0
LINE
  5
138
100
AcDbEntity
  8
0
  6
DASHED
 62
             200
100
AcDbLine
 10
-23.75
 20
0.0
 30
0.0
 11
-23.75
 21
1.2000000000000028
 31
0.0
  0
LINE
  5
139
100
AcDbEntity
  8
0
  6
DASHED
 62
             200
100
AcDbLine
 10
1.75
 20
0.0
 30
0.0
 11
1.75
 21
1.2000000000000028
 31
0.0
  0
LINE
  5
13A
100
AcDbEntity
  8
0
  6
DASHED
 62
             200
100
AcDbLine
 10
-1.75
 20
0.0
 30
0.0
 11
-1.75
 21
1.2000000000000028
 31
0.0
  0
LINE
  5
13B
100
AcDbEntity
  8
0
  6
CONTINUOUS
 62
               4
100
AcDbLine
 10
-5.6999999999999886
 20
5.0
 30
0.0
 11
-16.299999999999955
 21
5.0
 31
0.0
  0
LINE
  5
13C
100
AcDbEntity
  8
0
  6
CONTINUOUS
 62
               4
100
AcDbLine
 10
-22.0
 20
0.0
 30
0.0
 11
-22.0
 21
1.2000000000000028
 31
0.0
  0
LINE
  5
13D
100
AcDbEntity
  8
0
  6
CONTINUOUS
 62
               4
100
AcDbLine
 10
0.0
 20
0.0
 30
0.0
 11
0.0
 21
1.2000000000000028
 31
0.0
  0
LINE
  5
13E
100
AcDbEntity
  8
0
  6
CONTINUOUS
 62
               4
100
AcDbLine
 10
-5.5
 20
1.4000000000000057
 30
0.0
 11
-5.5
 21
3.5999999999999943
 31
0.0
  0
LINE
  5
13F
100
AcDbEntity
  8
0
  6
CONTINUOUS
 62
               4
100
AcDbLine
 10
-4.3000000000000114
 20
1.4000000000000057
 30
0.0
 11
-4.3000000000000114
 21
3.5999999999999943
 31
0.0
  0
ARC
  5
140
100
AcDbEntity
  8
0
  6
CONTINUOUS
 62
               4
100
AcDbCircle
 10
-4.1008966664051627
 20
1.3991033335948089
 30
0.0
 40
1.3991036209254675
100
AcDbArc
 50
179.96327991479848
 51
270.03672008520033
  0
ARC
  5
141
100
AcDbEntity
  8
0
  6
CONTINUOUS
 62
               4
100
AcDbCircle
 10
-4.1008966599537757
 20
1.3991033400461959
 30
0.0
 40
0.1991053590856348
100
AcDbArc
 50
179.74197075907335
 51
270.25802924092562
  0
LINE
  5
142
100
AcDbEntity
  8
0
  6
CONTINUOUS
 62
               4
100
AcDbLine
 10
-4.0999999999999659
 20
0.0
 30
0.0
 11
3.0
 21
0.0
 31
0.0
  0
LINE
  5
143
100
AcDbEntity
  8
0
  6
CONTINUOUS
 62
               4
100
AcDbLine
 10
-4.0999999999999659
 20
1.2000000000000028
 30
0.0
 11
3.0
 21
1.2000000000000028
 31
0.0
  0
LINE
  5
144
100
AcDbEntity
  8
0
  6
CONTINUOUS
 62
               4
100
AcDbLine
 10
3.0
 20
0.0
 30
0.0
 11
3.0
 21
1.2000000000000028
 31
0.0
  0
ARC
  5
145
100
AcDbEntity
  8
0
  6
CONTINUOUS
 62
               4
100
AcDbCircle
 10
-6.5847799240333984
 20
3.2665835360522806
 30
0.0
 40
0.6147802009733803
100
AcDbArc
 50
286.12836199114588
 51
359.94561607879228
  0
ARC
  5
146
100
AcDbEntity
  8
0
  6
CONTINUOUS
 62
               4
100
AcDbCircle
 10
-8.8161606354035484
 20
3.2652966087315747
 30
0.0
 40
0.6138397676001843
100
AcDbArc
 50
179.93434547259068
 51
253.74327317895529
  0
ARC
  5
147
100
AcDbEntity
  8
0
  6
CONTINUOUS
 62
               4
100
AcDbCircle
 10
-7.700999999999965
 20
7.1068760988772226
 30
0.0
 40
4.6140039015589682
100
AcDbArc
 50
253.80344035262561
 51
286.19655964737319
  0
ARC
  5
148
100
AcDbEntity
  8
0
  6
CONTINUOUS
 62
               4
100
AcDbCircle
 10
-13.184777973164046
 20
3.2665820679404334
 30
0.0
 40
0.6147782487131708
100
AcDbArc
 50
286.12822533946951
 51
359.94575273046883
  0
ARC
  5
149
100
AcDbEntity
  8
0
  6
CONTINUOUS
 62
               4
100
AcDbCircle
 10
-15.416158681253251
 20
3.265298072688239
 30
0.0
 40
0.613841720073419
100
AcDbArc
 50
179.93448232673219
 51
253.74313632481389
  0
ARC
  5
14A
100
AcDbEntity
  8
0
  6
CONTINUOUS
 62
               4
100
AcDbCircle
 10
-14.300999999999988
 20
7.1068760989089554
 30
0.0
 40
4.6140039015894576
100
AcDbArc
 50
253.80344035273558
 51
286.19655964726314
  0
ARC
  5
14B
100
AcDbEntity
  8
0
  6
CONTINUOUS
 62
               4
100
AcDbCircle
 10
-17.900056684609865
 20
1.4000566846098934
 30
0.0
 40
1.4000566857574084
100
AcDbArc
 50
270.00231975529556
 51
359.99768024470291
  0
ARC
  5
14C
100
AcDbEntity
  8
0
  6
CONTINUOUS
 62
               4
100
AcDbCircle
 10
-16.30006664106736
 20
3.6000666410673574
 30
0.0
 40
0.1999333700389205
100
AcDbArc
 50
89.980902377767208
 51
180.01909762223218
  0
ARC
  5
14D
100
AcDbEntity
  8
0
  6
CONTINUOUS
 62
               4
100
AcDbCircle
 10
-5.7008844716972931
 20
3.5991155283026899
 30
0.0
 40
0.2008864188024893
100
AcDbArc
 50
0.2522652321918488
 51
89.747734767807131
  0
ARC
  5
14E
100
AcDbEntity
  8
0
  6
CONTINUOUS
 62
               4
100
AcDbCircle
 10
-17.900058413382624
 20
1.4000584133826379
 30
0.0
 40
0.2000584219104543
100
AcDbArc
 50
270.01672931490481
 51
359.98327068509366
  0
LINE
  5
14F
100
AcDbEntity
  8
0
  6
CONTINUOUS
 62
               4
100
AcDbLine
 10
-5.9699999999999704
 20
3.2660000000000053
 30
0.0
 11
-5.9699999999999704
 21
3.7999999999999972
 31
0.0
  0
LINE
  5
150
100
AcDbEntity
  8
0
  6
CONTINUOUS
 62
               4
100
AcDbLine
 10
-9.4300000000000068
 20
3.2660000000000053
 30
0.0
 11
-9.4300000000000068
 21
3.7999999999999972
 31
0.0
  0
LINE
  5
151
100
AcDbEntity
  8
0
  6
CONTINUOUS
 62
               4
100
AcDbLine
 10
-12.569999999999993
 20
3.2660000000000053
 30
0.0
 11
-12.569999999999993
 21
3.7999999999999972
 31
0.0
  0
LINE
  5
152
100
AcDbEntity
  8
0
  6
CONTINUOUS
 62
               4
100
AcDbLine
 10
-16.029999999999973
 20
3.2660000000000053
 30
0.0
 11
-16.029999999999973
 21
3.7999999999999972
 31
0.0
  0
LINE
  5
153
100
AcDbEntity
  8
0
  6
CONTINUOUS
 62
               4
100
AcDbLine
 10
-17.699999999999989
 20
1.4000000000000057
 30
0.0
 11
-17.699999999999989
 21
3.5999999999999943
 31
0.0
  0
LINE
  5
154
100
AcDbEntity
  8
0
  6
CONTINUOUS
 62
               4
100
AcDbLine
 10
-16.5
 20
1.4000000000000057
 30
0.0
 11
-16.5
 21
3.5999999999999943
 31
0.0
  0
LINE
  5
155
100
AcDbEntity
  8
0
  6
CONTINUOUS
 62
               4
100
AcDbLine
 10
-16.299999999999955
 20
3.7999999999999972
 30
0.0
 11
-5.6999999999999886
 21
3.7999999999999972
 31
0.0
  0
LINE
  5
156
100
AcDbEntity
  8
0
  6
CONTINUOUS
 62
               4
100
AcDbLine
 10
-25.0
 20
0.0
 30
0.0
 11
-25.0
 21
1.2000000000000028
 31
0.0
  0
LINE
  5
157
100
AcDbEntity
  8
0
  6
CONTINUOUS
 62
               4
100
AcDbLine
 10
-25.0
 20
0.0
 30
0.0
 11
-17.899999999999977
 21
0.0
 31
0.0
  0
LINE
  5
158
100
AcDbEntity
  8
0
  6
CONTINUOUS
 62
               4
100
AcDbLine
 10
-25.0
 20
1.2000000000000028
 30
0.0
 11
-17.899999999999977
 21
1.2000000000000028
 31
0.0
  0
LINE
  5
159
100
AcDbEntity
  8
0
  6
CENTER
 62
             200
100
AcDbLine
 10
-22.0
 20
-2.4438717557984795
 30
0.0
 11
-22.0
 21
3.7999999999999972
 31
0.0
  0
LINE
  5
15A
100
AcDbEntity
  8
0
  6
CENTER
 62
             200
100
AcDbLine
 10
0.0
 20
-2.4438717557984795
 30
0.0
 11
0.0
 21
3.7999999999999972
 31
0.0
  0
ARC
  5
15B
100
AcDbEntity
  8
0
  6
CONTINUOUS
 62
               4
100
AcDbCircle
 10
-16.300068323168489
 20
3.6000683231685144
 30
0.0
 40
1.3999316784987346
100
AcDbArc
 50
89.997203699822904
 51
180.00279630017653
  0
ARC
  5
15C
100
AcDbEntity
  8
0
  6
CONTINUOUS
 62
               4
100
AcDbCircle
 10
-5.7008844620561376
 20
3.5991155379438453
 30
0.0
 40
1.4008847412629901
100
AcDbArc
 50
0.0361742439122946
 51
89.963825756087459
  0
LINE
  5
15D
100
AcDbEntity
  8
0
  6
CENTER
 62
               2
100
AcDbLine
 10
-11.0
 20
61.162585161280532
 30
0.0
 11
-11.0
 21
2.7920000000000087
 31
0.0
  0
LINE
  5
15E
100
AcDbEntity
  8
0
  6
CENTER
 62
               2
100
AcDbLine
 10
-13.5
 20
21.799999999999976
 30
0.0
 11
-8.5
 21
21.799999999999976
 31
0.0
  0
LINE
  5
15F
100
AcDbEntity
  8
0
  6
DASHED
 62
               2
100
AcDbLine
 10
-11.865999999999929
 20
21.799999999999976
 30
0.0
 11
-11.434000000000026
 21
21.050600240192232
 31
0.0
  0
LINE
  5
160
100
AcDbEntity
  8
0
  6
DASHED
 62
               2
100
AcDbLine
 10
-11.434000000000026
 20
22.54939975980772
 30
0.0
 11
-11.865999999999929
 21
21.799999999999976
 31
0.0
  0
LINE
  5
161
100
AcDbEntity
  8
0
  6
DASHED
 62
               2
100
AcDbLine
 10
-10.565999999999974
 20
22.54939975980772
 30
0.0
 11
-11.434000000000026
 21
22.54939975980772
 31
0.0
  0
LINE
  5
162
100
AcDbEntity
  8
0
  6
DASHED
 62
               2
100
AcDbLine
 10
-10.134000000000071
 20
21.799999999999976
 30
0.0
 11
-10.565999999999974
 21
22.54939975980772
 31
0.0
  0
LINE
  5
163
100
AcDbEntity
  8
0
  6
DASHED
 62
               2
100
AcDbLine
 10
-10.565999999999974
 20
21.050600240192232
 30
0.0
 11
-10.134000000000071
 21
21.799999999999976
 31
0.0
  0
LINE
  5
164
100
AcDbEntity
  8
0
  6
DASHED
 62
               2
100
AcDbLine
 10
-11.434000000000026
 20
21.050600240192232
 30
0.0
 11
-10.565999999999974
 21
21.050600240192232
 31
0.0
  0
CIRCLE
  5
165
100
AcDbEntity
  8
0
  6
DASHED
 62
               2
100
AcDbCircle
 10
-11.0
 20
21.799999999999976
 30
0.0
 40
0.865999999999957
  0
CIRCLE
  5
166
100
AcDbEntity
  8
0
  6
CONTINUOUS
 62
               2
100
AcDbCircle
 10
-11.0
 20
21.799999999999976
 30
0.0
 40
1.5
  0
CIRCLE
  5
167
100
AcDbEntity
  8
0
  6
CONTINUOUS
 62
               7
100
AcDbCircle
 10
-11.0
 20
21.799999999999976
 30
0.0
 40
1.25
  0
LINE
  5
168
100
AcDbEntity
  8
0
  6
CENTER
 62
               2
100
AcDbLine
 10
-8.5
 20
15.39999999999997
 30
0.0
 11
-13.5
 21
15.39999999999997
 31
0.0
  0
CIRCLE
  5
169
100
AcDbEntity
  8
0
  6
CONTINUOUS
 62
               7
100
AcDbCircle
 10
-11.0
 20
15.39999999999997
 30
0.0
 40
1.25
  0
CIRCLE
  5
16A
100
AcDbEntity
  8
0
  6
CONTINUOUS
 62
               2
100
AcDbCircle
 10
-11.0
 20
15.39999999999997
 30
0.0
 40
1.5
  0
CIRCLE
  5
16B
100
AcDbEntity
  8
0
  6
CONTINUOUS
 62
               7
100
AcDbCircle
 10
-7.2999999999999545
 20
20.199999999999982
 30
0.0
 40
1.05
  0
CIRCLE
  5
16C
100
AcDbEntity
  8
0
  6
CONTINUOUS
 62
               7
100
AcDbCircle
 10
-14.699999999999989
 20
14.299999999999976
 30
0.0
 40
1.05
  0
LINE
  5
16D
100
AcDbEntity
  8
0
  6
CONTINUOUS
 62
               4
100
AcDbLine
 10
-6.0
 20
58.0
 30
0.0
 11
-16.0
 21
58.0
 31
0.0
  0
LINE
  5
16E
100
AcDbEntity
  8
0
  6
CONTINUOUS
 62
               4
100
AcDbLine
 10
-6.0
 20
56.400000000000034
 30
0.0
 11
-9.1999999999999886
 21
56.400000000000034
 31
0.0
  0
LINE
  5
16F
100
AcDbEntity
  8
0
  6
CONTINUOUS
 62
               4
100
AcDbLine
 10
-9.1999999999999886
 20
57.900000000000034
 30
0.0
 11
-15.5
 21
57.900000000000034
 31
0.0
  0
LINE
  5
170
100
AcDbEntity
  8
0
  6
CONTINUOUS
 62
               4
100
AcDbLine
 10
-9.1999999999999886
 20
57.900000000000034
 30
0.0
 11
-9.1999999999999886
 21
56.400000000000034
 31
0.0
  0
ARC
  5
171
100
AcDbEntity
  8
0
  6
CONTINUOUS
 62
               4
100
AcDbCircle
 10
-15.5
 20
57.400000000000034
 30
0.0
 40
0.5
100
AcDbArc
 50
89.999999999999815
 51
179.99999999999963
  0
LINE
  5
172
100
AcDbEntity
  8
0
  6
CONTINUOUS
 62
               4
100
AcDbLine
 10
-6.0
 20
57.400000000000034
 30
0.0
 11
-9.1999999999999886
 21
57.400000000000034
 31
0.0
  0
ARC
  5
173
100
AcDbEntity
  8
0
  6
CONTINUOUS
 62
               4
100
AcDbCircle
 10
-6.795904853341824
 20
57.400095146658202
 30
0.0
 40
0.5999048608870732
100
AcDbArc
 50
359.99091272245295
 51
90.009087277546172
  0
ARC
  5
174
100
AcDbEntity
  8
0
  6
CONTINUOUS
 62
               4
100
AcDbCircle
 10
-8.5970880052370262
 20
57.401088005237
 30
0.0
 40
0.5989129830170392
100
AcDbArc
 50
89.895914524772735
 51
180.10408547522667
  0
LINE
  5
175
100
AcDbEntity
  8
0
  6
CONTINUOUS
 62
               4
100
AcDbLine
 10
-16.0
 20
58.0
 30
0.0
 11
-16.0
 21
35.499999999999993
 31
0.0
  0
LINE
  5
176
100
AcDbEntity
  8
0
  6
CONTINUOUS
 62
               4
100
AcDbLine
 10
-6.0
 20
58.0
 30
0.0
 11
-6.0
 21
35.499999999999993
 31
0.0
  0
LINE
  5
177
100
AcDbEntity
  8
0
  6
CONTINUOUS
 62
               7
100
AcDbLine
 10
-16.0
 20
35.499999999999993
 30
0.0
 11
-6.0
 21
35.499999999999993
 31
0.0
  0
LINE
  5
178
100
AcDbEntity
  8
0
  6
CONTINUOUS
 62
               7
100
AcDbLine
 10
-6.0
 20
24.499999999999993
 30
0.0
 11
-6.0
 21
35.499999999999993
 31
0.0
  0
LINE
  5
179
100
AcDbEntity
  8
0
  6
CONTINUOUS
 62
               7
100
AcDbLine
 10
-16.0
 20
24.499999999999993
 30
0.0
 11
-16.0
 21
35.499999999999993
 31
0.0
  0
ARC
  5
17A
100
AcDbEntity
  8
0
  6
CONTINUOUS
 62
               7
100
AcDbCircle
 10
-15.409446031890923
 20
6.2682512686530387
 30
0.0
 40
0.6105564724372722
100
AcDbArc
 50
179.83589550320582
 51
253.77907243150949
  0
LINE
  5
17B
100
AcDbEntity
  8
0
  6
CONTINUOUS
 62
               7
100
AcDbLine
 10
-6.1999999999999886
 20
4.9999999999999929
 30
0.0
 11
-15.800000000000011
 21
4.9999999999999929
 31
0.0
  0
LINE
  5
17C
100
AcDbEntity
  8
0
  6
CONTINUOUS
 62
               7
100
AcDbLine
 10
-16.019999999999982
 20
6.7999999999999474
 30
0.0
 11
-12.5
 21
6.7999999999999474
 31
0.0
  0
ARC
  5
17D
100
AcDbEntity
  8
0
  6
CONTINUOUS
 62
               7
100
AcDbCircle
 10
-15.70089513685889
 20
7.0991048631410578
 30
0.0
 40
0.2991062025847394
100
AcDbArc
 50
179.82853033398985
 51
270.17146966600922
  0
ARC
  5
17E
100
AcDbEntity
  8
0
  6
CONTINUOUS
 62
               7
100
AcDbCircle
 10
-15.800000000000011
 20
5.1999999999999815
 30
0.0
 40
0.2
100
AcDbArc
 50
179.99999999999963
 51
269.99999999999937
  0
LINE
  5
17F
100
AcDbEntity
  8
0
  6
CONTINUOUS
 62
               7
100
AcDbLine
 10
-12.5
 20
4.9999999999999929
 30
0.0
 11
-12.5
 21
6.7999999999999474
 31
0.0
  0
ARC
  5
180
100
AcDbEntity
  8
0
  6
CONTINUOUS
 62
               7
100
AcDbCircle
 10
-14.300000000000011
 20
10.08742123673391
 30
0.0
 40
4.5876068132596712
100
AcDbArc
 50
253.79871892415684
 51
286.20128107584191
  0
ARC
  5
181
100
AcDbEntity
  8
0
  6
CONTINUOUS
 62
               7
100
AcDbCircle
 10
-13.191771995833903
 20
6.2691627179709641
 30
0.0
 40
0.6117725687931934
100
AcDbArc
 50
286.30661609184898
 51
0.0784159734340139
  0
LINE
  5
182
100
AcDbEntity
  8
0
  6
CONTINUOUS
 62
               7
100
AcDbLine
 10
-12.579999999999984
 20
6.2699999999999747
 30
0.0
 11
-12.579999999999984
 21
6.7999999999999474
 31
0.0
  0
LINE
  5
183
100
AcDbEntity
  8
0
  6
CONTINUOUS
 62
               7
100
AcDbLine
 10
-16.0
 20
5.1999999999999815
 30
0.0
 11
-16.0
 21
6.1132505693459436
 31
0.0
  0
LINE
  5
184
100
AcDbEntity
  8
0
  6
CONTINUOUS
 62
               7
100
AcDbLine
 10
-16.019999999999982
 20
6.2699999999999747
 30
0.0
 11
-16.019999999999982
 21
6.7999999999999474
 31
0.0
  0
ARC
  5
185
100
AcDbEntity
  8
0
  6
CONTINUOUS
 62
               7
100
AcDbCircle
 10
-6.1999999999999886
 20
5.1999999999999815
 30
0.0
 40
0.2
100
AcDbArc
 50
269.99999999999937
 51
0.0
  0
LINE
  5
186
100
AcDbEntity
  8
0
  6
CENTER
 62
               2
100
AcDbLine
 10
-17.199999999999989
 20
14.299999999999976
 30
0.0
 11
-12.199999999999989
 21
14.299999999999976
 31
0.0
  0
LINE
  5
187
100
AcDbEntity
  8
0
  6
CENTER
 62
               2
100
AcDbLine
 10
-9.7999999999999545
 20
20.199999999999982
 30
0.0
 11
-4.7999999999999545
 21
20.199999999999982
 31
0.0
  0
LINE
  5
188
100
AcDbEntity
  8
0
  6
CENTER
 62
               2
100
AcDbLine
 10
-14.699999999999989
 20
11.799999999999976
 30
0.0
 11
-14.699999999999989
 21
16.799999999999976
 31
0.0
  0
LINE
  5
189
100
AcDbEntity
  8
0
  6
CENTER
 62
               2
100
AcDbLine
 10
-7.2999999999999545
 20
17.699999999999982
 30
0.0
 11
-7.2999999999999545
 21
22.699999999999982
 31
0.0
  0
LINE
  5
18A
100
AcDbEntity
  8
0
  6
CONTINUOUS
 62
               7
100
AcDbLine
 10
-16.0
 20
24.499999999999993
 30
0.0
 11
-6.0
 21
24.499999999999993
 31
0.0
  0
LINE
  5
18B
100
AcDbEntity
  8
0
  6
CONTINUOUS
 62
               7
100
AcDbLine
 10
-16.0
 20
6.7999999999999474
 30
0.0
 11
-16.0
 21
24.500000000494474
 31
0.0
  0
LINE
  5
18C
100
AcDbEntity
  8
0
  6
CONTINUOUS
 62
               7
100
AcDbLine
 10
-6.0
 20
5.1999999999999815
 30
0.0
 11
-6.0
 21
24.499999999999993
 31
0.0
  0
LINE
  5
18D
100
AcDbEntity
  8
0
  6
CONTINUOUS
 62
               7
100
AcDbLine
 10
-6.0000000063824359
 20
9.9999999999999929
 30
0.0
 11
-16.000000006382436
 21
9.9999999999999929
 31
0.0
  0
LINE
  5
18E
100
AcDbEntity
  8
0
  6
CENTER
 62
               2
100
AcDbLine
 10
-12.5
 20
28.299999999999976
 30
0.0
 11
-9.5
 21
28.299999999999976
 31
0.0
  0
CIRCLE
  5
18F
100
AcDbEntity
  8
0
  6
CONTINUOUS
 62
               7
100
AcDbCircle
 10
-11.0
 20
28.299999999999976
 30
0.0
 40
0.9
  0
ENDBLK
  5
190
100
AcDbEntity
  8
0
100
AcDbBlockEnd
  0
BLOCK
  5
191
100
AcDbEntity
  8
0
100
AcDbBlockBegin
  2
EB10F1-4
 70
               0
 10
0.0
 20
0.0
 30
0.0
  3
EB10F1-4
  1

  0
LINE
  5
192
100
AcDbEntity
  8
0
  6
CONTINUOUS
 62
               7
100
AcDbLine
 10
7.8999999999999773
 20
31.5
 30
0.0
 11
7.8999999999999773
 21
35.5
 31
0.0
  0
LINE
  5
193
100
AcDbEntity
  8
0
  6
CONTINUOUS
 62
               7
100
AcDbLine
 10
14.099999999999994
 20
31.5
 30
0.0
 11
14.099999999999994
 21
35.5
 31
0.0
  0
ARC
  5
194
100
AcDbEntity
  8
0
  6
CONTINUOUS
 62
               7
100
AcDbCircle
 10
11.0
 20
31.5
 30
0.0
 40
3.1000000000000001
100
AcDbArc
 50
179.99999999999963
 51
0.0
  0
LINE
  5
195
100
AcDbEntity
  8
0
  6
CENTER
 62
             200
100
AcDbLine
 10
1.75
 20
0.0
 30
0.0
 11
1.75
 21
1.2000000000000028
 31
0.0
  0
LINE
  5
196
100
AcDbEntity
  8
0
  6
CENTER
 62
             200
100
AcDbLine
 10
-1.75
 20
0.0
 30
0.0
 11
-1.75
 21
1.2000000000000028
 31
0.0
  0
LINE
  5
197
100
AcDbEntity
  8
0
  6
CENTER
 62
             200
100
AcDbLine
 10
23.75
 20
0.0
 30
0.0
 11
23.75
 21
1.2000000000000028
 31
0.0
  0
LINE
  5
198
100
AcDbEntity
  8
0
  6
CENTER
 62
             200
100
AcDbLine
 10
20.25
 20
0.0
 30
0.0
 11
20.25
 21
1.2000000000000028
 31
0.0
  0
LINE
  5
199
100
AcDbEntity
  8
0
  6
CENTER
 62
             200
100
AcDbLine
 10
22.0
 20
-2.443871755798483
 30
0.0
 11
22.0
 21
3.7999999999999972
 31
0.0
  0
LINE
  5
19A
100
AcDbEntity
  8
0
  6
CENTER
 62
             200
100
AcDbLine
 10
0.0
 20
-2.443871755798483
 30
0.0
 11
0.0
 21
3.7999999999999972
 31
0.0
  0
LINE
  5
19B
100
AcDbEntity
  8
0
  6
CONTINUOUS
 62
               4
100
AcDbLine
 10
-3.0
 20
1.2000000000000028
 30
0.0
 11
4.1000000000000227
 21
1.2000000000000028
 31
0.0
  0
LINE
  5
19C
100
AcDbEntity
  8
0
  6
CONTINUOUS
 62
               4
100
AcDbLine
 10
-3.0
 20
0.0
 30
0.0
 11
4.1000000000000227
 21
0.0
 31
0.0
  0
LINE
  5
19D
100
AcDbEntity
  8
0
  6
CONTINUOUS
 62
               4
100
AcDbLine
 10
-3.0
 20
0.0
 30
0.0
 11
-3.0
 21
1.2000000000000028
 31
0.0
  0
LINE
  5
19E
100
AcDbEntity
  8
0
  6
CONTINUOUS
 62
               4
100
AcDbLine
 10
5.6999999999999886
 20
3.7999999999999972
 30
0.0
 11
16.300000000000011
 21
3.7999999999999972
 31
0.0
  0
LINE
  5
19F
100
AcDbEntity
  8
0
  6
CONTINUOUS
 62
               4
100
AcDbLine
 10
5.5
 20
1.4000000000000057
 30
0.0
 11
5.5
 21
3.5999999999999943
 31
0.0
  0
LINE
  5
1A0
100
AcDbEntity
  8
0
  6
CONTINUOUS
 62
               4
100
AcDbLine
 10
4.3000000000000114
 20
1.4000000000000057
 30
0.0
 11
4.3000000000000114
 21
3.5999999999999943
 31
0.0
  0
LINE
  5
1A1
100
AcDbEntity
  8
0
  6
CONTINUOUS
 62
               4
100
AcDbLine
 10
5.9700000000000273
 20
3.2660000000000053
 30
0.0
 11
5.9700000000000273
 21
3.7999999999999972
 31
0.0
  0
LINE
  5
1A2
100
AcDbEntity
  8
0
  6
CONTINUOUS
 62
               4
100
AcDbLine
 10
9.4300000000000068
 20
3.2660000000000053
 30
0.0
 11
9.4300000000000068
 21
3.7999999999999972
 31
0.0
  0
LINE
  5
1A3
100
AcDbEntity
  8
0
  6
CONTINUOUS
 62
               4
100
AcDbLine
 10
12.569999999999993
 20
3.2660000000000053
 30
0.0
 11
12.569999999999993
 21
3.7999999999999972
 31
0.0
  0
LINE
  5
1A4
100
AcDbEntity
  8
0
  6
CONTINUOUS
 62
               4
100
AcDbLine
 10
16.03000000000003
 20
3.2660000000000053
 30
0.0
 11
16.03000000000003
 21
3.7999999999999972
 31
0.0
  0
ARC
  5
1A5
100
AcDbEntity
  8
0
  6
CONTINUOUS
 62
               4
100
AcDbCircle
 10
4.0999415866173763
 20
1.4000584133826379
 30
0.0
 40
0.2000584219104543
100
AcDbArc
 50
270.01672931490481
 51
359.98327068509366
  0
ARC
  5
1A6
100
AcDbEntity
  8
0
  6
CONTINUOUS
 62
               4
100
AcDbCircle
 10
16.299115528302707
 20
3.5991155283026899
 30
0.0
 40
0.2008864188024893
100
AcDbArc
 50
0.2522652321918488
 51
89.747734767807131
  0
ARC
  5
1A7
100
AcDbEntity
  8
0
  6
CONTINUOUS
 62
               4
100
AcDbCircle
 10
5.6999333589326397
 20
3.6000666410673574
 30
0.0
 40
0.1999333700389205
100
AcDbArc
 50
89.980902377767208
 51
180.01909762223218
  0
ARC
  5
1A8
100
AcDbEntity
  8
0
  6
CONTINUOUS
 62
               4
100
AcDbCircle
 10
4.099943315390135
 20
1.4000566846098934
 30
0.0
 40
1.4000566857574084
100
AcDbArc
 50
270.00231975529556
 51
359.99768024470291
  0
ARC
  5
1A9
100
AcDbEntity
  8
0
  6
CONTINUOUS
 62
               4
100
AcDbCircle
 10
7.6990000000000123
 20
7.1068760989089554
 30
0.0
 40
4.6140039015894576
100
AcDbArc
 50
253.80344035273558
 51
286.19655964726314
  0
ARC
  5
1AA
100
AcDbEntity
  8
0
  6
CONTINUOUS
 62
               4
100
AcDbCircle
 10
6.5838413187467495
 20
3.265298072688239
 30
0.0
 40
0.613841720073419
100
AcDbArc
 50
179.93448232673219
 51
253.74313632481389
  0
ARC
  5
1AB
100
AcDbEntity
  8
0
  6
CONTINUOUS
 62
               4
100
AcDbCircle
 10
8.8152220268358974
 20
3.2665820679404334
 30
0.0
 40
0.6147782487131708
100
AcDbArc
 50
286.12822533946951
 51
359.94575273046883
  0
ARC
  5
1AC
100
AcDbEntity
  8
0
  6
CONTINUOUS
 62
               4
100
AcDbCircle
 10
14.299000000000035
 20
7.1068760988772226
 30
0.0
 40
4.6140039015589682
100
AcDbArc
 50
253.80344035262561
 51
286.19655964737319
  0
ARC
  5
1AD
100
AcDbEntity
  8
0
  6
CONTINUOUS
 62
               4
100
AcDbCircle
 10
13.183839364596452
 20
3.2652966087315747
 30
0.0
 40
0.6138397676001843
100
AcDbArc
 50
179.93434547259068
 51
253.74327317895529
  0
ARC
  5
1AE
100
AcDbEntity
  8
0
  6
CONTINUOUS
 62
               4
100
AcDbCircle
 10
15.415220075966602
 20
3.2665835360522806
 30
0.0
 40
0.6147802009733803
100
AcDbArc
 50
286.12836199114588
 51
359.94561607879228
  0
LINE
  5
1AF
100
AcDbEntity
  8
0
  6
CONTINUOUS
 62
               4
100
AcDbLine
 10
25.0
 20
0.0
 30
0.0
 11
25.0
 21
1.2000000000000028
 31
0.0
  0
LINE
  5
1B0
100
AcDbEntity
  8
0
  6
CONTINUOUS
 62
               4
100
AcDbLine
 10
17.900000000000034
 20
1.2000000000000028
 30
0.0
 11
25.0
 21
1.2000000000000028
 31
0.0
  0
LINE
  5
1B1
100
AcDbEntity
  8
0
  6
CONTINUOUS
 62
               4
100
AcDbLine
 10
17.900000000000034
 20
0.0
 30
0.0
 11
25.0
 21
0.0
 31
0.0
  0
ARC
  5
1B2
100
AcDbEntity
  8
0
  6
CONTINUOUS
 62
               4
100
AcDbCircle
 10
17.899103340046224
 20
1.3991033400461959
 30
0.0
 40
0.1991053590856348
100
AcDbArc
 50
179.74197075907335
 51
270.25802924092562
  0
ARC
  5
1B3
100
AcDbEntity
  8
0
  6
CONTINUOUS
 62
               4
100
AcDbCircle
 10
17.899103333594837
 20
1.3991033335948089
 30
0.0
 40
1.3991036209254675
100
AcDbArc
 50
179.96327991479848
 51
270.03672008520033
  0
LINE
  5
1B4
100
AcDbEntity
  8
0
  6
CONTINUOUS
 62
               4
100
AcDbLine
 10
17.699999999999989
 20
1.4000000000000057
 30
0.0
 11
17.699999999999989
 21
3.5999999999999943
 31
0.0
  0
LINE
  5
1B5
100
AcDbEntity
  8
0
  6
CONTINUOUS
 62
               4
100
AcDbLine
 10
16.5
 20
1.4000000000000057
 30
0.0
 11
16.5
 21
3.5999999999999943
 31
0.0
  0
ARC
  5
1B6
100
AcDbEntity
  8
0
  6
CONTINUOUS
 62
               4
100
AcDbCircle
 10
5.6999316768315111
 20
3.6000683231685144
 30
0.0
 40
1.3999316784987346
100
AcDbArc
 50
89.997203699822904
 51
180.00279630017653
  0
ARC
  5
1B7
100
AcDbEntity
  8
0
  6
CONTINUOUS
 62
               4
100
AcDbCircle
 10
16.299115537943862
 20
3.5991155379438453
 30
0.0
 40
1.4008847412629901
100
AcDbArc
 50
0.0361742439122946
 51
89.963825756087459
  0
LINE
  5
1B8
100
AcDbEntity
  8
0
  6
CONTINUOUS
 62
               4
100
AcDbLine
 10
16.300000000000011
 20
5.0
 30
0.0
 11
5.6999999999999886
 21
5.0
 31
0.0
  0
LINE
  5
1B9
100
AcDbEntity
  8
0
  6
CONTINUOUS
 62
               4
100
AcDbLine
 10
22.0
 20
0.0
 30
0.0
 11
22.0
 21
1.2000000000000028
 31
0.0
  0
LINE
  5
1BA
100
AcDbEntity
  8
0
  6
CONTINUOUS
 62
               4
100
AcDbLine
 10
0.0
 20
0.0
 30
0.0
 11
0.0
 21
1.2000000000000028
 31
0.0
  0
LINE
  5
1BB
100
AcDbEntity
  8
0
  6
CONTINUOUS
 62
               7
100
AcDbLine
 10
16.0
 20
35.5
 30
0.0
 11
6.0
 21
35.5
 31
0.0
  0
LINE
  5
1BC
100
AcDbEntity
  8
0
  6
CONTINUOUS
 62
               7
100
AcDbLine
 10
6.0
 20
24.5
 30
0.0
 11
6.0
 21
35.5
 31
0.0
  0
LINE
  5
1BD
100
AcDbEntity
  8
0
  6
CONTINUOUS
 62
               7
100
AcDbLine
 10
16.0
 20
24.5
 30
0.0
 11
16.0
 21
35.5
 31
0.0
  0
LINE
  5
1BE
100
AcDbEntity
  8
0
  6
CONTINUOUS
 62
               7
100
AcDbLine
 10
9.0
 20
31.5
 30
0.0
 11
9.0
 21
35.5
 31
0.0
  0
LINE
  5
1BF
100
AcDbEntity
  8
0
  6
CONTINUOUS
 62
               7
100
AcDbLine
 10
13.0
 20
31.5
 30
0.0
 11
13.0
 21
35.5
 31
0.0
  0
ARC
  5
1C0
100
AcDbEntity
  8
0
  6
CONTINUOUS
 62
               7
100
AcDbCircle
 10
11.0
 20
31.5
 30
0.0
 40
2.0
100
AcDbArc
 50
179.99999999999963
 51
0.0
  0
LINE
  5
1C1
100
AcDbEntity
  8
0
  6
CENTER
 62
               2
100
AcDbLine
 10
12.699999999999989
 20
33.199999999999989
 30
0.0
 11
9.3000000000000114
 21
33.199999999999989
 31
0.0
  0
CIRCLE
  5
1C2
100
AcDbEntity
  8
0
  6
CONTINUOUS
 62
               7
100
AcDbCircle
 10
11.0
 20
33.199999999999989
 30
0.0
 40
1.3000000000000012
  0
CIRCLE
  5
1C3
100
AcDbEntity
  8
0
  6
CONTINUOUS
 62
               7
100
AcDbCircle
 10
11.0
 20
33.199999999999989
 30
0.0
 40
1.1500000000000001
  0
CIRCLE
  5
1C4
100
AcDbEntity
  8
0
  6
CONTINUOUS
 62
               7
100
AcDbCircle
 10
11.0
 20
33.199999999999989
 30
0.0
 40
1.1000000000000001
  0
CIRCLE
  5
1C5
100
AcDbEntity
  8
0
  6
CONTINUOUS
 62
               7
100
AcDbCircle
 10
11.0
 20
33.199999999999989
 30
0.0
 40
0.75
  0
ARC
  5
1C6
100
AcDbEntity
  8
0
  6
CONTINUOUS
 62
               7
100
AcDbCircle
 10
6.5905539681090772
 20
6.2682512686530458
 30
0.0
 40
0.6105564724372721
100
AcDbArc
 50
179.83589550320582
 51
253.77907243150949
  0
LINE
  5
1C7
100
AcDbEntity
  8
0
  6
CONTINUOUS
 62
               7
100
AcDbLine
 10
15.800000000000011
 20
5.0
 30
0.0
 11
6.1999999999999886
 21
5.0
 31
0.0
  0
LINE
  5
1C8
100
AcDbEntity
  8
0
  6
CONTINUOUS
 62
               7
100
AcDbLine
 10
5.9800000000000182
 20
6.7999999999999829
 30
0.0
 11
9.5
 21
6.7999999999999829
 31
0.0
  0
ARC
  5
1C9
100
AcDbEntity
  8
0
  6
CONTINUOUS
 62
               7
100
AcDbCircle
 10
6.2991048631411104
 20
7.0991048631410933
 30
0.0
 40
0.2991062025847394
100
AcDbArc
 50
179.82853033398985
 51
270.17146966600922
  0
ARC
  5
1CA
100
AcDbEntity
  8
0
  6
CONTINUOUS
 62
               7
100
AcDbCircle
 10
6.1999999999999886
 20
5.1999999999999886
 30
0.0
 40
0.2
100
AcDbArc
 50
179.99999999999963
 51
269.99999999999937
  0
LINE
  5
1CB
100
AcDbEntity
  8
0
  6
CONTINUOUS
 62
               7
100
AcDbLine
 10
9.5
 20
5.0
 30
0.0
 11
9.5
 21
6.7999999999999829
 31
0.0
  0
ARC
  5
1CC
100
AcDbEntity
  8
0
  6
CONTINUOUS
 62
               7
100
AcDbCircle
 10
7.6999999999999886
 20
10.087421236733945
 30
0.0
 40
4.5876068132596712
100
AcDbArc
 50
253.79871892415684
 51
286.20128107584191
  0
ARC
  5
1CD
100
AcDbEntity
  8
0
  6
CONTINUOUS
 62
               7
100
AcDbCircle
 10
8.8082280041660965
 20
6.2691627179709712
 30
0.0
 40
0.6117725687931934
100
AcDbArc
 50
286.30661609184898
 51
0.0784159734340139
  0
LINE
  5
1CE
100
AcDbEntity
  8
0
  6
CONTINUOUS
 62
               7
100
AcDbLine
 10
9.4200000000000159
 20
6.2700000000000102
 30
0.0
 11
9.4200000000000159
 21
6.7999999999999829
 31
0.0
  0
LINE
  5
1CF
100
AcDbEntity
  8
0
  6
CONTINUOUS
 62
               7
100
AcDbLine
 10
6.0
 20
5.1999999999999886
 30
0.0
 11
6.0
 21
6.1132505693459507
 31
0.0
  0
LINE
  5
1D0
100
AcDbEntity
  8
0
  6
CONTINUOUS
 62
               7
100
AcDbLine
 10
5.9800000000000182
 20
6.2700000000000102
 30
0.0
 11
5.9800000000000182
 21
6.7999999999999829
 31
0.0
  0
ARC
  5
1D1
100
AcDbEntity
  8
0
  6
CONTINUOUS
 62
               7
100
AcDbCircle
 10
15.800000000000011
 20
5.1999999999999886
 30
0.0
 40
0.2
100
AcDbArc
 50
269.99999999999937
 51
0.0
  0
LINE
  5
1D2
100
AcDbEntity
  8
0
  6
CONTINUOUS
 62
               7
100
AcDbLine
 10
14.699999999999989
 20
12.699999999999989
 30
0.0
 11
16.0
 21
12.699999999999989
 31
0.0
  0
LINE
  5
1D3
100
AcDbEntity
  8
0
  6
CONTINUOUS
 62
               7
100
AcDbLine
 10
14.699999999999989
 20
15.899999999999977
 30
0.0
 11
16.0
 21
15.899999999999977
 31
0.0
  0
LINE
  5
1D4
100
AcDbEntity
  8
0
  6
CONTINUOUS
 62
               7
100
AcDbLine
 10
7.3000000000000114
 20
21.799999999999983
 30
0.0
 11
6.0
 21
21.799999999999983
 31
0.0
  0
LINE
  5
1D5
100
AcDbEntity
  8
0
  6
CONTINUOUS
 62
               7
100
AcDbLine
 10
7.3000000000000114
 20
18.599999999999994
 30
0.0
 11
6.0
 21
18.599999999999994
 31
0.0
  0
LINE
  5
1D6
100
AcDbEntity
  8
0
  6
CONTINUOUS
 62
               7
100
AcDbLine
 10
16.000000006382493
 20
10.0
 30
0.0
 11
6.0000000063824928
 21
10.0
 31
0.0
  0
LINE
  5
1D7
100
AcDbEntity
  8
0
  6
CENTER
 62
               2
100
AcDbLine
 10
16.560577971874068
 20
14.299999999999983
 30
0.0
 11
12.282054828561172
 21
14.299999999999983
 31
0.0
  0
ARC
  5
1D8
100
AcDbEntity
  8
0
  6
CONTINUOUS
 62
               7
100
AcDbCircle
 10
14.699999999999989
 20
14.299999999999983
 30
0.0
 40
1.6000000000000001
100
AcDbArc
 50
89.999999999999815
 51
269.99999999999937
  0
ARC
  5
1D9
100
AcDbEntity
  8
0
  6
CONTINUOUS
 62
               7
100
AcDbCircle
 10
7.3000000000000114
 20
20.199999999999989
 30
0.0
 40
1.6000000000000001
100
AcDbArc
 50
269.99999999999937
 51
89.999999999999801
  0
CIRCLE
  5
1DA
100
AcDbEntity
  8
0
  6
CONTINUOUS
 62
               7
100
AcDbCircle
 10
14.699999999999989
 20
14.299999999999983
 30
0.0
 40
1.075
  0
CIRCLE
  5
1DB
100
AcDbEntity
  8
0
  6
CONTINUOUS
 62
               7
100
AcDbCircle
 10
7.3000000000000114
 20
20.199999999999989
 30
0.0
 40
1.075
  0
LINE
  5
1DC
100
AcDbEntity
  8
0
  6
CENTER
 62
               2
100
AcDbLine
 10
9.4781662840152308
 20
20.199999999999989
 30
0.0
 11
4.8222827114486222
 21
20.199999999999989
 31
0.0
  0
LINE
  5
1DD
100
AcDbEntity
  8
0
  6
CENTER
 62
               2
100
AcDbLine
 10
14.699999999999989
 20
11.991725194902557
 30
0.0
 11
14.699999999999989
 21
16.651939608336619
 31
0.0
  0
LINE
  5
1DE
100
AcDbEntity
  8
0
  6
CENTER
 62
               2
100
AcDbLine
 10
7.3000000000000114
 20
17.606854984051068
 30
0.0
 11
7.3000000000000114
 21
22.656448283146972
 31
0.0
  0
LINE
  5
1DF
100
AcDbEntity
  8
0
  6
CONTINUOUS
 62
               7
100
AcDbLine
 10
16.0
 20
24.5
 30
0.0
 11
6.0
 21
24.5
 31
0.0
  0
LINE
  5
1E0
100
AcDbEntity
  8
0
  6
CONTINUOUS
 62
               7
100
AcDbLine
 10
6.0
 20
6.7999999999999829
 30
0.0
 11
6.0
 21
24.500000000494481
 31
0.0
  0
LINE
  5
1E1
100
AcDbEntity
  8
0
  6
CONTINUOUS
 62
               7
100
AcDbLine
 10
16.0
 20
5.1999999999999886
 30
0.0
 11
16.0
 21
24.5
 31
0.0
  0
LINE
  5
1E2
100
AcDbEntity
  8
0
  6
CENTER
 62
               2
100
AcDbLine
 10
15.0
 20
18.599999999999994
 30
0.0
 11
11.0
 21
18.599999999999994
 31
0.0
  0
LINE
  5
1E3
100
AcDbEntity
  8
0
  6
CENTER
 62
               2
100
AcDbLine
 10
13.0
 20
16.599999999999994
 30
0.0
 11
13.0
 21
20.599999999999994
 31
0.0
  0
CIRCLE
  5
1E4
100
AcDbEntity
  8
0
  6
CONTINUOUS
 62
               2
100
AcDbCircle
 10
13.0
 20
18.599999999999994
 30
0.0
 40
1.5
  0
CIRCLE
  5
1E5
100
AcDbEntity
  8
0
  6
CONTINUOUS
 62
               7
100
AcDbCircle
 10
13.0
 20
18.599999999999994
 30
0.0
 40
1.25
  0
LINE
  5
1E6
100
AcDbEntity
  8
0
  6
PHANTOM
 62
             200
100
AcDbLine
 10
9.4999816894531364
 20
42.999999999999886
 30
0.0
 11
12.499981689453136
 21
42.999999999999886
 31
0.0
  0
LINE
  5
1E7
100
AcDbEntity
  8
0
  6
PHANTOM
 62
             200
100
AcDbLine
 10
9.4999816894531364
 20
40.999999999999886
 30
0.0
 11
12.499981689453136
 21
40.999999999999886
 31
0.0
  0
LINE
  5
1E8
100
AcDbEntity
  8
0
  6
PHANTOM
 62
             200
100
AcDbLine
 10
9.4999816894531364
 20
42.999999999999886
 30
0.0
 11
9.4999816894531364
 21
40.999999999999886
 31
0.0
  0
LINE
  5
1E9
100
AcDbEntity
  8
0
  6
PHANTOM
 62
             200
100
AcDbLine
 10
12.499981689453136
 20
42.999999999999886
 30
0.0
 11
12.499981689453136
 21
40.999999999999886
 31
0.0
  0
LINE
  5
1EA
100
AcDbEntity
  8
0
  6
CONTINUOUS
 62
               4
100
AcDbLine
 10
11.599981689453102
 20
70.492929272933338
 30
0.0
 11
12.899981689453114
 21
70.492929272933338
 31
0.0
  0
LINE
  5
1EB
100
AcDbEntity
  8
0
  6
CONTINUOUS
 62
             200
100
AcDbLine
 10
7.2499816894531364
 20
68.519999999999868
 30
0.0
 11
14.749981689453136
 21
66.509999999999877
 31
0.0
  0
LINE
  5
1EC
100
AcDbEntity
  8
0
  6
CONTINUOUS
 62
             200
100
AcDbLine
 10
7.2499816894531364
 20
67.479999999999905
 30
0.0
 11
14.749981689453136
 21
65.469999999999857
 31
0.0
  0
LINE
  5
1ED
100
AcDbEntity
  8
0
  6
CONTINUOUS
 62
               4
100
AcDbLine
 10
9.0999816894531023
 20
70.492929272933338
 30
0.0
 11
10.399981689453114
 21
70.492929272933338
 31
0.0
  0
LINE
  5
1EE
100
AcDbEntity
  8
0
  6
CONTINUOUS
 62
               4
100
AcDbLine
 10
10.399981689453114
 20
66.639999999999873
 30
0.0
 11
10.399981689453114
 21
62.999999999999886
 31
0.0
  0
LINE
  5
1EF
100
AcDbEntity
  8
0
  6
CONTINUOUS
 62
               4
100
AcDbLine
 10
11.999981689453136
 20
73.992929270933359
 30
0.0
 11
11.999981689453136
 21
70.492929272933338
 31
0.0
  0
LINE
  5
1F0
100
AcDbEntity
  8
0
  6
CONTINUOUS
 62
               4
100
AcDbLine
 10
12.499981689453136
 20
73.992929270933359
 30
0.0
 11
12.499981689453136
 21
70.492929272933338
 31
0.0
  0
LINE
  5
1F1
100
AcDbEntity
  8
0
  6
CONTINUOUS
 62
               4
100
AcDbLine
 10
9.0999816894531023
 20
70.492929272933338
 30
0.0
 11
9.0999816894531023
 21
68.019999999999868
 31
0.0
  0
LINE
  5
1F2
100
AcDbEntity
  8
0
  6
CONTINUOUS
 62
               4
100
AcDbLine
 10
10.399981689453114
 20
70.492929272933338
 30
0.0
 11
10.399981689453114
 21
67.669999999999902
 31
0.0
  0
LINE
  5
1F3
100
AcDbEntity
  8
0
  6
CONTINUOUS
 62
               4
100
AcDbLine
 10
9.0999816894531023
 20
66.989999999999895
 30
0.0
 11
9.0999816894531023
 21
62.999999999999886
 31
0.0
  0
LINE
  5
1F4
100
AcDbEntity
  8
0
  6
CONTINUOUS
 62
               4
100
AcDbLine
 10
11.599981689453102
 20
66.319999999999879
 30
0.0
 11
11.599981689453102
 21
62.999999999999886
 31
0.0
  0
LINE
  5
1F5
100
AcDbEntity
  8
0
  6
CONTINUOUS
 62
               4
100
AcDbLine
 10
12.899981689453114
 20
65.969999999999857
 30
0.0
 11
12.899981689453114
 21
62.999999999999886
 31
0.0
  0
LINE
  5
1F6
100
AcDbEntity
  8
0
  6
CONTINUOUS
 62
               4
100
AcDbLine
 10
9.4999816894531364
 20
73.992929270933359
 30
0.0
 11
9.4999816894531364
 21
70.492929272933338
 31
0.0
  0
LINE
  5
1F7
100
AcDbEntity
  8
0
  6
CONTINUOUS
 62
               4
100
AcDbLine
 10
9.9999816894531364
 20
73.992929270933359
 30
0.0
 11
9.9999816894531364
 21
70.492929272933338
 31
0.0
  0
LINE
  5
1F8
100
AcDbEntity
  8
0
  6
CONTINUOUS
 62
               4
100
AcDbLine
 10
11.599981689453102
 20
70.492929272933338
 30
0.0
 11
11.599981689453102
 21
67.349999999999909
 31
0.0
  0
LINE
  5
1F9
100
AcDbEntity
  8
0
  6
CONTINUOUS
 62
               4
100
AcDbLine
 10
12.899981689453114
 20
70.492929272933338
 30
0.0
 11
12.899981689453114
 21
66.999999999999886
 31
0.0
  0
ARC
  5
1FA
100
AcDbEntity
  8
0
  6
CONTINUOUS
 62
               4
100
AcDbCircle
 10
15.499971008279829
 20
36.000010681173194
 30
0.0
 40
0.5000106812873828
100
AcDbArc
 50
270.00122394615329
 51
359.9987760538454
  0
ARC
  5
1FB
100
AcDbEntity
  8
0
  6
CONTINUOUS
 62
               4
100
AcDbCircle
 10
6.499977111930491
 20
35.999995422477241
 30
0.0
 40
0.4999954224983215
100
AcDbArc
 50
179.99947544974256
 51
270.00052455025656
  0
ARC
  5
1FC
100
AcDbEntity
  8
0
  6
CONTINUOUS
 62
               4
100
AcDbCircle
 10
15.499977111702322
 20
54.499995422249071
 30
0.0
 40
0.5000045777717621
100
AcDbArc
 50
0.0005245667992071
 51
89.9994754332008
  0
ARC
  5
1FD
100
AcDbEntity
  8
0
  6
CONTINUOUS
 62
               4
100
AcDbCircle
 10
6.4999710083217224
 20
54.500010681131243
 30
0.0
 40
0.4999893189827007
100
AcDbArc
 50
89.998776006354774
 51
180.00122399364432
  0
ARC
  5
1FE
100
AcDbEntity
  8
0
  6
CONTINUOUS
 62
               4
100
AcDbCircle
 10
6.7299688721153643
 20
54.50001281733762
 30
0.0
 40
0.4999871828265524
100
AcDbArc
 50
89.998531203634272
 51
180.00146879636483
  0
ARC
  5
1FF
100
AcDbEntity
  8
0
  6
CONTINUOUS
 62
               4
100
AcDbCircle
 10
15.269979247973879
 20
54.49999755852059
 30
0.0
 40
0.500002441485227
100
AcDbArc
 50
0.0002797715494944
 51
89.999720228450514
  0
ARC
  5
200
100
AcDbEntity
  8
0
  6
CONTINUOUS
 62
               4
100
AcDbCircle
 10
15.268778183341396
 20
38.19312269678116
 30
0.0
 40
0.5012049510586274
100
AcDbArc
 50
270.13758021931233
 51
359.86241978068648
  0
ARC
  5
201
100
AcDbEntity
  8
0
  6
CONTINUOUS
 62
               4
100
AcDbCircle
 10
6.7311699733583623
 20
38.193107474574674
 30
0.0
 40
0.5011896925741138
100
AcDbArc
 50
180.13584420715239
 51
269.86415579284636
  0
LINE
  5
202
100
AcDbEntity
  8
0
  6
CONTINUOUS
 62
               4
100
AcDbLine
 10
7.2499816894531364
 20
62.999999999999886
 30
0.0
 11
14.749981689453136
 21
62.999999999999886
 31
0.0
  0
LINE
  5
203
100
AcDbEntity
  8
0
  6
CONTINUOUS
 62
               4
100
AcDbLine
 10
14.749981689453136
 20
62.999999999999886
 30
0.0
 11
14.749981689453136
 21
54.999999999999886
 31
0.0
  0
LINE
  5
204
100
AcDbEntity
  8
0
  6
CONTINUOUS
 62
               4
100
AcDbLine
 10
13.749981689453136
 20
62.999999999999886
 30
0.0
 11
13.749981689453136
 21
46.999999999999886
 31
0.0
  0
LINE
  5
205
100
AcDbEntity
  8
0
  6
CONTINUOUS
 62
               4
100
AcDbLine
 10
8.2499816894531364
 20
61.499999999999886
 30
0.0
 11
13.749981689453136
 21
61.499999999999886
 31
0.0
  0
LINE
  5
206
100
AcDbEntity
  8
0
  6
CONTINUOUS
 62
               4
100
AcDbLine
 10
7.2499816894531364
 20
62.999999999999886
 30
0.0
 11
7.2499816894531364
 21
54.999999999999886
 31
0.0
  0
LINE
  5
207
100
AcDbEntity
  8
0
  6
CONTINUOUS
 62
               4
100
AcDbLine
 10
8.2499816894531364
 20
62.999999999999886
 30
0.0
 11
8.2499816894531364
 21
46.999999999999886
 31
0.0
  0
LINE
  5
208
100
AcDbEntity
  8
0
  6
CONTINUOUS
 62
               4
100
AcDbLine
 10
13.749981689453136
 20
54.999999999999886
 30
0.0
 11
15.499981689453136
 21
54.999999999999886
 31
0.0
  0
LINE
  5
209
100
AcDbEntity
  8
0
  6
CONTINUOUS
 62
               4
100
AcDbLine
 10
8.2499816894531364
 20
46.999999999999886
 30
0.0
 11
13.749981689453136
 21
46.999999999999886
 31
0.0
  0
LINE
  5
20A
100
AcDbEntity
  8
0
  6
CONTINUOUS
 62
               4
100
AcDbLine
 10
15.499981689453136
 20
54.999999999999886
 30
0.0
 11
15.999981689453136
 21
54.999999999999886
 31
0.0
  0
LINE
  5
20B
100
AcDbEntity
  8
0
  6
CONTINUOUS
 62
               4
100
AcDbLine
 10
6.7299816894530977
 20
37.69191919066941
 30
0.0
 11
15.269981689453118
 21
37.69191919066941
 31
0.0
  0
LINE
  5
20C
100
AcDbEntity
  8
0
  6
CONTINUOUS
 62
               4
100
AcDbLine
 10
6.2299816894530977
 20
54.499999999999886
 30
0.0
 11
6.2299816894530977
 21
38.191919190673133
 31
0.0
  0
LINE
  5
20D
100
AcDbEntity
  8
0
  6
CONTINUOUS
 62
               4
100
AcDbLine
 10
15.769981689453118
 20
54.499999999999886
 30
0.0
 11
15.769981689453118
 21
38.191919190653834
 31
0.0
  0
LINE
  5
20E
100
AcDbEntity
  8
0
  6
CONTINUOUS
 62
               4
100
AcDbLine
 10
6.4999816894531364
 20
54.999999999999886
 30
0.0
 11
8.2499816894531364
 21
54.999999999999886
 31
0.0
  0
LINE
  5
20F
100
AcDbEntity
  8
0
  6
CONTINUOUS
 62
               4
100
AcDbLine
 10
5.9999816894531364
 20
54.999999999999886
 30
0.0
 11
6.4999816894531364
 21
54.999999999999886
 31
0.0
  0
LINE
  5
210
100
AcDbEntity
  8
0
  6
CONTINUOUS
 62
               4
100
AcDbLine
 10
6.0
 20
58.000000004269367
 30
0.0
 11
6.0
 21
35.5
 31
0.0
  0
LINE
  5
211
100
AcDbEntity
  8
0
  6
CONTINUOUS
 62
               4
100
AcDbLine
 10
16.0
 20
57.400000004269344
 30
0.0
 11
14.749981689453136
 21
57.400000004269344
 31
0.0
  0
LINE
  5
212
100
AcDbEntity
  8
0
  6
CONTINUOUS
 62
               4
100
AcDbLine
 10
16.0
 20
58.000000004269367
 30
0.0
 11
14.749981689453136
 21
58.000000004269367
 31
0.0
  0
LINE
  5
213
100
AcDbEntity
  8
0
  6
CONTINUOUS
 62
               4
100
AcDbLine
 10
16.0
 20
56.400000004269344
 30
0.0
 11
14.749981689453136
 21
56.400000004269344
 31
0.0
  0
LINE
  5
214
100
AcDbEntity
  8
0
  6
CONTINUOUS
 62
               4
100
AcDbLine
 10
7.2499816894531364
 20
57.900000004269344
 30
0.0
 11
6.5
 21
57.900000004269344
 31
0.0
  0
ARC
  5
215
100
AcDbEntity
  8
0
  6
CONTINUOUS
 62
               4
100
AcDbCircle
 10
6.5
 20
57.400000004269344
 30
0.0
 40
0.5
100
AcDbArc
 50
89.999999999999815
 51
179.99999999999963
  0
ARC
  5
216
100
AcDbEntity
  8
0
  6
CONTINUOUS
 62
               4
100
AcDbCircle
 10
15.204095146658176
 20
57.400095150927541
 30
0.0
 40
0.5999048608870732
100
AcDbArc
 50
359.99091272245295
 51
90.009087277546172
  0
LINE
  5
217
100
AcDbEntity
  8
0
  6
CONTINUOUS
 62
               4
100
AcDbLine
 10
6.0000000290891649
 20
58.000000004269367
 30
0.0
 11
7.2499816894531364
 21
58.000000004269367
 31
0.0
  0
LINE
  5
218
100
AcDbEntity
  8
0
  6
CONTINUOUS
 62
               4
100
AcDbLine
 10
16.0
 20
58.0
 30
0.0
 11
16.0
 21
35.5
 31
0.0
  0
LINE
  5
219
100
AcDbEntity
  8
0
  6
CONTINUOUS
 62
               4
100
AcDbLine
 10
6.0
 20
35.5
 30
0.0
 11
16.0
 21
35.5
 31
0.0
  0
ARC
  5
21A
100
AcDbEntity
  8
0
  6
CONTINUOUS
 62
               4
100
AcDbCircle
 10
15.500296847864206
 20
35.999703152135794
 30
0.0
 40
0.4997032403068001
100
AcDbArc
 50
269.96596353714654
 51
0.0340364628527164
  0
LINE
  5
21B
100
AcDbEntity
  8
0
  6
CONTINUOUS
 62
               4
100
AcDbLine
 10
9.4999816894531364
 20
73.992929270933359
 30
0.0
 11
9.9999816894531364
 21
73.992929270933359
 31
0.0
  0
LINE
  5
21C
100
AcDbEntity
  8
0
  6
CONTINUOUS
 62
               4
100
AcDbLine
 10
11.999981689453136
 20
73.992929270933359
 30
0.0
 11
12.499981689453136
 21
73.992929270933359
 31
0.0
  0
LINE
  5
21D
100
AcDbEntity
  8
0
  6
CENTER
 62
               2
100
AcDbLine
 10
11.0
 20
63.869683056948361
 30
0.0
 11
11.0
 21
2.2438875818592123
 31
0.0
  0
ENDBLK
  5
21E
100
AcDbEntity
  8
0
100
AcDbBlockEnd
  0
BLOCK
  5
21F
100
AcDbEntity
  8
0
100
AcDbBlockBegin
  2
EB10F1-5
 70
               0
 10
0.0
 20
0.0
 30
0.0
  3
EB10F1-5
  1

  0
LINE
  5
220
100
AcDbEntity
  8
0
  6
CONTINUOUS
 62
               4
100
AcDbLine
 10
-6.9999999999999858
 20
0.0000000256359272
 30
0.0
 11
-6.9999999999999858
 21
5.0
 31
0.0
  0
LINE
  5
221
100
AcDbEntity
  8
0
  6
CONTINUOUS
 62
               4
100
AcDbLine
 10
7.0
 20
0.0000000256359272
 30
0.0
 11
7.0
 21
5.0
 31
0.0
  0
LINE
  5
222
100
AcDbEntity
  8
0
  6
CONTINUOUS
 62
               4
100
AcDbLine
 10
-7.0000000007497079
 20
1.2000000000000028
 30
0.0
 11
6.9999999992502921
 21
1.2000000000000028
 31
0.0
  0
LINE
  5
223
100
AcDbEntity
  8
0
  6
CONTINUOUS
 62
               4
100
AcDbLine
 10
-7.0000000007497079
 20
3.7999999999999972
 30
0.0
 11
6.9999999992502921
 21
3.7999999999999972
 31
0.0
  0
LINE
  5
224
100
AcDbEntity
  8
0
  6
CONTINUOUS
 62
               4
100
AcDbLine
 10
-7.0000000007497079
 20
5.0
 30
0.0
 11
6.9999999992502921
 21
5.0
 31
0.0
  0
LINE
  5
225
100
AcDbEntity
  8
0
  6
CONTINUOUS
 62
               4
100
AcDbLine
 10
-7.0000000007497079
 20
0.0
 30
0.0
 11
7.0
 21
0.0
 31
0.0
  0
LINE
  5
226
100
AcDbEntity
  8
0
  6
CENTER
 62
               2
100
AcDbLine
 10
0.0
 20
61.162585161280504
 30
0.0
 11
0.0
 21
-2.4488717557984785
 31
0.0
  0
ARC
  5
227
100
AcDbEntity
  8
0
  6
DASHED
 62
             200
100
AcDbCircle
 10
-18.499999999999986
 20
19.299999999999955
 30
0.0
 40
0.5
100
AcDbArc
 50
179.99999999999963
 51
269.99999999999937
  0
ARC
  5
228
100
AcDbEntity
  8
0
  6
DASHED
 62
             200
100
AcDbCircle
 10
-18.499999999999986
 20
24.299999999999983
 30
0.0
 40
0.5
100
AcDbArc
 50
89.999999999999815
 51
179.99999999999963
  0
LINE
  5
229
100
AcDbEntity
  8
0
  6
DASHED
 62
             200
100
AcDbLine
 10
-18.999999999999986
 20
19.299999999999955
 30
0.0
 11
-18.999999999999986
 21
24.299999999999983
 31
0.0
  0
LINE
  5
22A
100
AcDbEntity
  8
0
  6
DASHED
 62
             200
100
AcDbLine
 10
-16.499999999999986
 20
18.799999999999955
 30
0.0
 11
-16.499999999999986
 21
24.799999999999983
 31
0.0
  0
LINE
  5
22B
100
AcDbEntity
  8
0
  6
DASHED
 62
             200
100
AcDbLine
 10
-18.499999999999986
 20
18.799999999999955
 30
0.0
 11
-18.499999999999986
 21
24.799999999999983
 31
0.0
  0
LINE
  5
22C
100
AcDbEntity
  8
0
  6
DASHED
 62
             200
100
AcDbLine
 10
-6.9999999999999858
 20
18.799999999999955
 30
0.0
 11
-18.499999999999986
 21
18.799999999999955
 31
0.0
  0
LINE
  5
22D
100
AcDbEntity
  8
0
  6
DASHED
 62
             200
100
AcDbLine
 10
-6.9999999999999858
 20
24.799999999999983
 30
0.0
 11
-18.499999999999986
 21
24.799999999999983
 31
0.0
  0
LINE
  5
22E
100
AcDbEntity
  8
0
  6
CENTER
 62
               2
100
AcDbLine
 10
-6.1241534247008929
 20
21.799999999999983
 30
0.0
 11
-20.405931067489931
 21
21.799999999999983
 31
0.0
  0
LINE
  5
22F
100
AcDbEntity
  8
0
  6
CONTINUOUS
 62
               2
100
AcDbLine
 10
-7.2719999999999771
 20
23.032000000000011
 30
0.0
 11
-6.9999999999999858
 21
23.032000000000011
 31
0.0
  0
LINE
  5
230
100
AcDbEntity
  8
0
  6
CONTINUOUS
 62
               7
100
AcDbLine
 10
-7.2719999999999771
 20
23.032000000000011
 30
0.0
 11
-6.9999999999999858
 21
23.300000000000011
 31
0.0
  0
LINE
  5
231
100
AcDbEntity
  8
0
  6
CONTINUOUS
 62
               2
100
AcDbLine
 10
-7.2719999999999771
 20
20.572000000000003
 30
0.0
 11
-6.9999999999999858
 21
20.572000000000003
 31
0.0
  0
LINE
  5
232
100
AcDbEntity
  8
0
  6
CONTINUOUS
 62
               7
100
AcDbLine
 10
-7.2719999999999771
 20
20.572000000000003
 30
0.0
 11
-6.9999999999999858
 21
20.300000000000011
 31
0.0
  0
LINE
  5
233
100
AcDbEntity
  8
0
  6
CONTINUOUS
 62
               7
100
AcDbLine
 10
-7.2719999999999771
 20
20.572000000000003
 30
0.0
 11
-7.2719999999999771
 21
23.032000000000011
 31
0.0
  0
ARC
  5
234
100
AcDbEntity
  8
0
  6
CONTINUOUS
 62
               7
100
AcDbCircle
 10
5.2799999999999727
 20
10.087421236734031
 30
0.0
 40
4.5876068132596712
100
AcDbArc
 50
253.7987189241569
 51
286.20128107584202
  0
ARC
  5
235
100
AcDbEntity
  8
0
  6
CONTINUOUS
 62
               7
100
AcDbCircle
 10
4.1717719958339217
 20
6.2691627179710849
 30
0.0
 40
0.6117725687931934
100
AcDbArc
 50
179.9215840265656
 51
253.6933839081498
  0
LINE
  5
236
100
AcDbEntity
  8
0
  6
CONTINUOUS
 62
               7
100
AcDbLine
 10
3.5600000000000023
 20
6.2700000000000955
 30
0.0
 11
3.5600000000000023
 21
6.8000000000000682
 31
0.0
  0
ARC
  5
237
100
AcDbEntity
  8
0
  6
CONTINUOUS
 62
               7
100
AcDbCircle
 10
6.389446031890941
 20
6.2682512686531027
 30
0.0
 40
0.6105564724372721
100
AcDbArc
 50
286.22092756849014
 51
0.1641044967937703
  0
LINE
  5
238
100
AcDbEntity
  8
0
  6
CONTINUOUS
 62
               7
100
AcDbLine
 10
7.0
 20
6.8000000000000682
 30
0.0
 11
3.4800000000000182
 21
6.8000000000000682
 31
0.0
  0
ARC
  5
239
100
AcDbEntity
  8
0
  6
CONTINUOUS
 62
               7
100
AcDbCircle
 10
6.6808951368589078
 20
7.0991048631411786
 30
0.0
 40
0.2991062025847394
100
AcDbArc
 50
269.82853033399044
 51
0.1714696660097498
  0
LINE
  5
23A
100
AcDbEntity
  8
0
  6
CONTINUOUS
 62
               7
100
AcDbLine
 10
3.4800000000000182
 20
5.0
 30
0.0
 11
3.4800000000000182
 21
6.8000000000000682
 31
0.0
  0
LINE
  5
23B
100
AcDbEntity
  8
0
  6
CONTINUOUS
 62
               7
100
AcDbLine
 10
-7.0000028165267594
 20
35.499999999999972
 30
0.0
 11
8.1000000000000227
 21
35.499999999999972
 31
0.0
  0
LINE
  5
23C
100
AcDbEntity
  8
0
  6
CONTINUOUS
 62
               7
100
AcDbLine
 10
7.0
 20
28.400000000000006
 30
0.0
 11
8.1000000000000227
 21
29.5
 31
0.0
  0
LINE
  5
23D
100
AcDbEntity
  8
0
  6
CONTINUOUS
 62
               7
100
AcDbLine
 10
7.0
 20
35.499999999999972
 30
0.0
 11
7.0
 21
24.5
 31
0.0
  0
LINE
  5
23E
100
AcDbEntity
  8
0
  6
CONTINUOUS
 62
               7
100
AcDbLine
 10
-6.9999999999999858
 20
35.499999999999972
 30
0.0
 11
-6.9999999999999858
 21
24.5
 31
0.0
  0
LINE
  5
23F
100
AcDbEntity
  8
0
  6
CONTINUOUS
 62
               7
100
AcDbLine
 10
8.5480000000000018
 20
32.099999999999994
 30
0.0
 11
8.5480000000000018
 21
34.299999999999983
 31
0.0
  0
LINE
  5
240
100
AcDbEntity
  8
0
  6
CONTINUOUS
 62
               7
100
AcDbLine
 10
8.5480000000000018
 20
34.299999999999983
 30
0.0
 11
8.1000000000000227
 21
34.299999999999983
 31
0.0
  0
LINE
  5
241
100
AcDbEntity
  8
0
  6
CONTINUOUS
 62
               7
100
AcDbLine
 10
8.5480000000000018
 20
32.099999999999994
 30
0.0
 11
8.1000000000000227
 21
32.099999999999994
 31
0.0
  0
LINE
  5
242
100
AcDbEntity
  8
0
  6
CONTINUOUS
 62
               7
100
AcDbLine
 10
8.1000000000000227
 20
29.5
 30
0.0
 11
8.1000000000000227
 21
35.499999999999972
 31
0.0
  0
ARC
  5
243
100
AcDbEntity
  8
0
  6
CONTINUOUS
 62
               7
100
AcDbCircle
 10
-6.6009733670266115
 20
5.3990266329734027
 30
0.0
 40
0.3990278201647513
100
AcDbArc
 50
179.8602356150773
 51
270.1397643849217
  0
LINE
  5
244
100
AcDbEntity
  8
0
  6
CONTINUOUS
 62
               7
100
AcDbLine
 10
-6.5999999999999801
 20
5.0
 30
0.0
 11
6.6000000000000227
 21
5.0
 31
0.0
  0
ARC
  5
245
100
AcDbEntity
  8
0
  6
CONTINUOUS
 62
               7
100
AcDbCircle
 10
6.6009733670266542
 20
5.3990266329733743
 30
0.0
 40
0.3990278201647513
100
AcDbArc
 50
269.8602356150771
 51
0.1397643849223044
  0
LINE
  5
246
100
AcDbEntity
  8
0
  6
CONTINUOUS
 62
               7
100
AcDbLine
 10
-6.9999999999999858
 20
10.0
 30
0.0
 11
6.999999986481896
 21
10.0
 31
0.0
  0
LINE
  5
247
100
AcDbEntity
  8
0
  6
CONTINUOUS
 62
               7
100
AcDbLine
 10
-6.9999999999999858
 20
24.5
 30
0.0
 11
6.999999986481896
 21
24.5
 31
0.0
  0
LINE
  5
248
100
AcDbEntity
  8
0
  6
CONTINUOUS
 62
               7
100
AcDbLine
 10
7.0
 20
24.5
 30
0.0
 11
7.0
 21
5.4000000000000341
 31
0.0
  0
LINE
  5
249
100
AcDbEntity
  8
0
  6
CENTER
 62
               2
100
AcDbLine
 10
2.4168738811566755
 20
21.5
 30
0.0
 11
5.0848777193341448
 21
21.5
 31
0.0
  0
LINE
  5
24A
100
AcDbEntity
  8
0
  6
CENTER
 62
               2
100
AcDbLine
 10
2.4168738811566755
 20
13.0
 30
0.0
 11
5.0848777193341448
 21
13.0
 31
0.0
  0
LINE
  5
24B
100
AcDbEntity
  8
0
  6
CENTER
 62
               2
100
AcDbLine
 10
3.75
 20
14.361523884831115
 30
0.0
 11
3.75
 21
11.621411834810999
 31
0.0
  0
CIRCLE
  5
24C
100
AcDbEntity
  8
0
  6
CONTINUOUS
 62
               7
100
AcDbCircle
 10
3.75
 20
13.0
 30
0.0
 40
1.05
  0
CIRCLE
  5
24D
100
AcDbEntity
  8
0
  6
CONTINUOUS
 62
               7
100
AcDbCircle
 10
3.75
 20
21.5
 30
0.0
 40
1.05
  0
LINE
  5
24E
100
AcDbEntity
  8
0
  6
CENTER
 62
               2
100
AcDbLine
 10
3.75
 20
22.942401094104667
 30
0.0
 11
3.75
 21
20.058072620399258
 31
0.0
  0
LINE
  5
24F
100
AcDbEntity
  8
0
  6
CONTINUOUS
 62
               7
100
AcDbLine
 10
-6.9999999999999858
 20
5.4000000000000057
 30
0.0
 11
-6.9999999999999858
 21
24.5
 31
0.0
  0
LINE
  5
250
100
AcDbEntity
  8
0
  6
CONTINUOUS
 62
               7
100
AcDbLine
 10
5.9999999992502921
 20
21.799999999999983
 30
0.0
 11
7.0
 21
21.799999999999983
 31
0.0
  0
LINE
  5
251
100
AcDbEntity
  8
0
  6
CONTINUOUS
 62
               7
100
AcDbLine
 10
5.9999999992502921
 20
18.599999999999994
 30
0.0
 11
7.0
 21
18.599999999999994
 31
0.0
  0
LINE
  5
252
100
AcDbEntity
  8
0
  6
CONTINUOUS
 62
               7
100
AcDbLine
 10
5.9999999992502921
 20
21.799999999999983
 30
0.0
 11
5.9999999992502921
 21
18.599999999999994
 31
0.0
  0
ARC
  5
253
100
AcDbEntity
  8
0
  6
CONTINUOUS
 62
               4
100
AcDbCircle
 10
14.501921122697979
 20
55.403476452093599
 30
0.0
 40
0.4029462287748787
100
AcDbArc
 50
180.49433091715488
 51
349.39117201772478
  0
ARC
  5
254
100
AcDbEntity
  8
0
  6
CONTINUOUS
 62
               4
100
AcDbCircle
 10
14.599986940866813
 20
53.997302043044414
 30
0.0
 40
0.5030505883944908
100
AcDbArc
 50
0.3072892911898554
 51
36.562608354652731
  0
ARC
  5
255
100
AcDbEntity
  8
0
  6
CONTINUOUS
 62
               4
100
AcDbCircle
 10
15.797896118091842
 20
47.302103872708102
 30
0.0
 40
0.3021474965435785
100
AcDbArc
 50
270.97363298451126
 51
359.02636701548732
  0
ARC
  5
256
100
AcDbEntity
  8
0
  6
CONTINUOUS
 62
               4
100
AcDbCircle
 10
14.503834119278679
 20
54.493708514783634
 30
0.0
 40
0.5002341568128574
100
AcDbArc
 50
0.6049287534634878
 51
90.207763713153867
  0
ARC
  5
257
100
AcDbEntity
  8
0
  6
CONTINUOUS
 62
               4
100
AcDbCircle
 10
14.498033057569103
 20
38.149484497491642
 30
0.0
 40
0.5060324378497572
100
AcDbArc
 50
295.28139190005214
 51
359.42932783011406
  0
LINE
  5
258
100
AcDbEntity
  8
0
  6
CONTINUOUS
 62
               4
100
AcDbLine
 10
10.005050499333322
 20
35.499999999999886
 30
0.0
 11
10.005050499333322
 21
54.993939382800022
 31
0.0
  0
LINE
  5
259
100
AcDbEntity
  8
0
  6
CONTINUOUS
 62
               4
100
AcDbLine
 10
10.499999994000007
 20
61.996969688399901
 30
0.0
 11
10.499999994000007
 21
56.997979792266534
 31
0.0
  0
LINE
  5
25A
100
AcDbEntity
  8
0
  6
CONTINUOUS
 62
               4
100
AcDbLine
 10
10.005050499333322
 20
56.997979792266534
 30
0.0
 11
10.005050499333322
 21
54.996969692399915
 31
0.0
  0
LINE
  5
25B
100
AcDbEntity
  8
0
  6
CONTINUOUS
 62
               4
100
AcDbLine
 10
10.005050499333322
 20
62.999999999999858
 30
0.0
 11
10.005050499333322
 21
61.996969688399901
 31
0.0
  0
LINE
  5
25C
100
AcDbEntity
  8
0
  6
CONTINUOUS
 62
               4
100
AcDbLine
 10
13.15151514400003
 20
66.81818181599985
 30
0.0
 11
13.15151514400003
 21
62.999999999999858
 31
0.0
  0
LINE
  5
25D
100
AcDbEntity
  8
0
  6
CONTINUOUS
 62
             200
100
AcDbLine
 10
13.999999992000028
 20
66.323232321333222
 30
0.0
 11
11.002020195733337
 21
68.055555552666561
 31
0.0
  0
LINE
  5
25E
100
AcDbEntity
  8
0
  6
CONTINUOUS
 62
             200
100
AcDbLine
 10
13.999999992000028
 20
66.66969696759989
 30
0.0
 11
11.002020195733337
 21
68.402020198933172
 31
0.0
  0
LINE
  5
25F
100
AcDbEntity
  8
0
  6
CONTINUOUS
 62
               4
100
AcDbLine
 10
12.748484841199968
 20
73.994949488666549
 30
0.0
 11
12.748484841199968
 21
70.494949490666528
 31
0.0
  0
LINE
  5
260
100
AcDbEntity
  8
0
  6
CONTINUOUS
 62
               4
100
AcDbLine
 10
12.253535346533283
 20
73.994949488666549
 30
0.0
 11
12.253535346533283
 21
70.494949490666528
 31
0.0
  0
LINE
  5
261
100
AcDbEntity
  8
0
  6
CONTINUOUS
 62
               4
100
AcDbLine
 10
11.850505043733335
 20
70.494949490666528
 30
0.0
 11
13.15151514400003
 21
70.494949490666528
 31
0.0
  0
LINE
  5
262
100
AcDbEntity
  8
0
  6
CONTINUOUS
 62
               4
100
AcDbLine
 10
11.850505043733335
 20
70.494949490666528
 30
0.0
 11
11.850505043733335
 21
67.91414141133319
 31
0.0
  0
LINE
  5
263
100
AcDbEntity
  8
0
  6
CONTINUOUS
 62
               4
100
AcDbLine
 10
13.15151514400003
 20
70.494949490666528
 30
0.0
 11
13.15151514400003
 21
67.164646462266518
 31
0.0
  0
LINE
  5
264
100
AcDbEntity
  8
0
  6
CONTINUOUS
 62
               4
100
AcDbLine
 10
11.850505043733335
 20
67.567676765066523
 30
0.0
 11
11.850505043733335
 21
62.999999999999858
 31
0.0
  0
LINE
  5
265
100
AcDbEntity
  8
0
  6
CONTINUOUS
 62
               4
100
AcDbLine
 10
15.004040395466689
 20
47.098989898933183
 30
0.0
 11
15.103030294399957
 21
46.999999999999858
 31
0.0
  0
LINE
  5
266
100
AcDbEntity
  8
0
  6
CONTINUOUS
 62
               4
100
AcDbLine
 10
15.004040395466689
 20
48.301010100266552
 30
0.0
 11
15.103030294399957
 21
48.301010100266552
 31
0.0
  0
LINE
  5
267
100
AcDbEntity
  8
0
  6
CONTINUOUS
 62
               4
100
AcDbLine
 10
15.103030294399957
 20
46.999999999999858
 30
0.0
 11
15.803030293999939
 21
46.999999999999858
 31
0.0
  0
LINE
  5
268
100
AcDbEntity
  8
0
  6
CONTINUOUS
 62
               4
100
AcDbLine
 10
16.099999990799972
 20
56.396969691599878
 30
0.0
 11
16.099999990799972
 21
47.296969696799891
 31
0.0
  0
LINE
  5
269
100
AcDbEntity
  8
0
  6
CONTINUOUS
 62
               4
100
AcDbLine
 10
14.098989890933296
 20
56.495959590533261
 30
0.0
 11
14.403030294799976
 21
56.799999994399883
 31
0.0
  0
LINE
  5
26A
100
AcDbEntity
  8
0
  6
CONTINUOUS
 62
               4
100
AcDbLine
 10
10.005050499333322
 20
56.997979792266534
 30
0.0
 11
10.499999994000007
 21
56.997979792266534
 31
0.0
  0
LINE
  5
26B
100
AcDbEntity
  8
0
  6
CONTINUOUS
 62
               4
100
AcDbLine
 10
10.005050499333322
 20
61.996969688399901
 30
0.0
 11
10.499999994000007
 21
61.996969688399901
 31
0.0
  0
LINE
  5
26C
100
AcDbEntity
  8
0
  6
CONTINUOUS
 62
               4
100
AcDbLine
 10
14.098989890933296
 20
62.999999999999858
 30
0.0
 11
14.403030294799976
 21
62.695959596133179
 31
0.0
  0
LINE
  5
26D
100
AcDbEntity
  8
0
  6
CONTINUOUS
 62
               4
100
AcDbLine
 10
14.403030294799976
 20
62.695959596133179
 30
0.0
 11
14.403030294799976
 21
56.799999994399883
 31
0.0
  0
LINE
  5
26E
100
AcDbEntity
  8
0
  6
CONTINUOUS
 62
               4
100
AcDbLine
 10
14.098989890933296
 20
62.999999999999858
 30
0.0
 11
14.098989890933296
 21
55.39999999519992
 31
0.0
  0
LINE
  5
26F
100
AcDbEntity
  8
0
  6
CONTINUOUS
 62
               4
100
AcDbLine
 10
15.103030294399957
 20
53.9999999959999
 30
0.0
 11
15.103030294399957
 21
48.301010100266552
 31
0.0
  0
LINE
  5
270
100
AcDbEntity
  8
0
  6
CONTINUOUS
 62
               4
100
AcDbLine
 10
14.89797978946666
 20
55.329292924533235
 30
0.0
 11
16.015151505999995
 21
61.671717163333227
 31
0.0
  0
LINE
  5
271
100
AcDbEntity
  8
0
  6
CONTINUOUS
 62
               4
100
AcDbLine
 10
16.001010091866704
 20
62.999999999999858
 30
0.0
 11
16.997979788266605
 21
62.999999999999858
 31
0.0
  0
LINE
  5
272
100
AcDbEntity
  8
0
  6
CONTINUOUS
 62
               4
100
AcDbLine
 10
16.001010091866704
 20
62.999999999999858
 30
0.0
 11
16.001010091866704
 21
61.586868678533193
 31
0.0
  0
LINE
  5
273
100
AcDbEntity
  8
0
  6
CONTINUOUS
 62
               4
100
AcDbLine
 10
16.099999990799972
 20
56.396969691599878
 30
0.0
 11
16.997979788266605
 21
61.502020193733216
 31
0.0
  0
LINE
  5
274
100
AcDbEntity
  8
0
  6
CONTINUOUS
 62
               4
100
AcDbLine
 10
16.997979788266605
 20
62.999999999999858
 30
0.0
 11
16.997979788266605
 21
61.502020193733216
 31
0.0
  0
LINE
  5
275
100
AcDbEntity
  8
0
  6
CONTINUOUS
 62
               4
100
AcDbLine
 10
13.398989891333315
 20
62.999999999999858
 30
0.0
 11
13.398989891333315
 21
54.996969692399915
 31
0.0
  0
LINE
  5
276
100
AcDbEntity
  8
0
  6
CONTINUOUS
 62
               4
100
AcDbLine
 10
11.603030296399936
 20
62.999999999999858
 30
0.0
 11
11.603030296399936
 21
54.996969692399915
 31
0.0
  0
LINE
  5
277
100
AcDbEntity
  8
0
  6
CONTINUOUS
 62
               4
100
AcDbLine
 10
10.005050499333322
 20
62.999999999999858
 30
0.0
 11
14.098989890933296
 21
62.999999999999858
 31
0.0
  0
LINE
  5
278
100
AcDbEntity
  8
0
  6
CONTINUOUS
 62
               4
100
AcDbLine
 10
10.005050499333322
 20
35.499999999999886
 30
0.0
 11
14.714141405733301
 21
37.691919190666624
 31
0.0
  0
LINE
  5
279
100
AcDbEntity
  8
0
  6
CONTINUOUS
 62
               4
100
AcDbLine
 10
15.004040395466689
 20
54.498989888133337
 30
0.0
 11
15.004040395466689
 21
38.144444442933235
 31
0.0
  0
LINE
  5
27A
100
AcDbEntity
  8
0
  6
CONTINUOUS
 62
               4
100
AcDbLine
 10
6.9999999959999855
 20
54.993939382800022
 30
0.0
 11
14.502020193733358
 21
54.993939382800022
 31
0.0
  0
LINE
  5
27B
100
AcDbEntity
  8
0
  6
CONTINUOUS
 62
               4
100
AcDbLine
 10
5.0000000000000568
 20
56.400000000000034
 30
0.0
 11
-6.9999999959999712
 21
56.400000000000034
 31
0.0
  0
LINE
  5
27C
100
AcDbEntity
  8
0
  6
CONTINUOUS
 62
               4
100
AcDbLine
 10
5.0000000000000568
 20
58.0
 30
0.0
 11
5.0000000000000568
 21
56.400000000000034
 31
0.0
  0
ARC
  5
27D
100
AcDbEntity
  8
0
  6
CONTINUOUS
 62
               4
100
AcDbCircle
 10
6.4999999959999855
 20
57.400000000000034
 30
0.0
 40
0.5
100
AcDbArc
 50
0.0
 51
89.999999999999815
  0
ARC
  5
27E
100
AcDbEntity
  8
0
  6
CONTINUOUS
 62
               4
100
AcDbCircle
 10
-6.4999999959999712
 20
57.400000000000034
 30
0.0
 40
0.5
100
AcDbArc
 50
93.919585899650798
 51
179.99999999999963
  0
ARC
  5
27F
100
AcDbEntity
  8
0
  6
CONTINUOUS
 62
               4
100
AcDbCircle
 10
-6.2010879151281841
 20
57.401088005128202
 30
0.0
 40
0.5989129231257409
100
AcDbArc
 50
89.895914524772735
 51
180.10408547522667
  0
ARC
  5
280
100
AcDbEntity
  8
0
  6
CONTINUOUS
 62
               4
100
AcDbCircle
 10
6.2000950566486495
 20
57.400095146648653
 30
0.0
 40
0.5999048008965869
100
AcDbArc
 50
56.247417870393882
 51
90.009087277546172
  0
LINE
  5
281
100
AcDbEntity
  8
0
  6
CONTINUOUS
 62
               4
100
AcDbLine
 10
6.1999999100000309
 20
58.0
 30
0.0
 11
-6.1999999100000167
 21
58.0
 31
0.0
  0
LINE
  5
282
100
AcDbEntity
  8
0
  6
CONTINUOUS
 62
               4
100
AcDbLine
 10
6.4999999959999855
 20
57.900000000000034
 30
0.0
 11
5.0000000000000568
 21
57.900000000000034
 31
0.0
  0
LINE
  5
283
100
AcDbEntity
  8
0
  6
CONTINUOUS
 62
               4
100
AcDbLine
 10
-4.3000000000000114
 20
57.400000000000034
 30
0.0
 11
-6.9999999959999712
 21
57.400000000000034
 31
0.0
  0
LINE
  5
284
100
AcDbEntity
  8
0
  6
CONTINUOUS
 62
               4
100
AcDbLine
 10
-4.3000000000000114
 20
58.0
 30
0.0
 11
-4.3000000000000114
 21
57.400000000000034
 31
0.0
  0
LINE
  5
285
100
AcDbEntity
  8
0
  6
CONTINUOUS
 62
               4
100
AcDbLine
 10
-6.9999999999999858
 20
35.499999999999972
 30
0.0
 11
10.000002816526774
 21
35.499999999999972
 31
0.0
  0
LINE
  5
286
100
AcDbEntity
  8
0
  6
CONTINUOUS
 62
               4
100
AcDbLine
 10
-6.9999999999999858
 20
57.399999999999977
 30
0.0
 11
-6.9999999999999858
 21
35.499999999999972
 31
0.0
  0
LINE
  5
287
100
AcDbEntity
  8
0
  6
CONTINUOUS
 62
               4
100
AcDbLine
 10
7.0
 20
35.499999999999972
 30
0.0
 11
7.0
 21
57.399999994932244
 31
0.0
  0
LINE
  5
288
100
AcDbEntity
  8
0
  6
CONTINUOUS
 62
               4
100
AcDbLine
 10
12.253535346533283
 20
73.994949488666549
 30
0.0
 11
12.748484841199968
 21
73.994949488666549
 31
0.0
  0
ENDBLK
  5
289
100
AcDbEntity
  8
0
100
AcDbBlockEnd
  0
BLOCK
  5
28A
100
AcDbEntity
  8
0
100
AcDbBlockBegin
  2
EB10F1-6
 70
               0
 10
0.0
 20
0.0
 30
0.0
  3
EB10F1-6
  1

  0
LINE
  5
28B
100
AcDbEntity
  8
0
  6
DASHED
 62
             200
100
AcDbLine
 10
-20.25
 20
0.0
 30
0.0
 11
-20.25
 21
1.2000000000000028
 31
0.0
  0
LINE
  5
28C
100
AcDbEntity
  8
0
  6
DASHED
 62
             200
100
AcDbLine
 10
-23.75
 20
0.0
 30
0.0
 11
-23.75
 21
1.2000000000000028
 31
0.0
  0
LINE
  5
28D
100
AcDbEntity
  8
0
  6
DASHED
 62
             200
100
AcDbLine
 10
1.75
 20
0.0
 30
0.0
 11
1.75
 21
1.2000000000000028
 31
0.0
  0
LINE
  5
28E
100
AcDbEntity
  8
0
  6
DASHED
 62
             200
100
AcDbLine
 10
-1.75
 20
0.0
 30
0.0
 11
-1.75
 21
1.2000000000000028
 31
0.0
  0
LINE
  5
28F
100
AcDbEntity
  8
0
  6
CONTINUOUS
 62
               4
100
AcDbLine
 10
-5.6999999999999886
 20
5.0
 30
0.0
 11
-16.299999999999955
 21
5.0
 31
0.0
  0
LINE
  5
290
100
AcDbEntity
  8
0
  6
CONTINUOUS
 62
               4
100
AcDbLine
 10
-22.0
 20
0.0
 30
0.0
 11
-22.0
 21
1.2000000000000028
 31
0.0
  0
LINE
  5
291
100
AcDbEntity
  8
0
  6
CONTINUOUS
 62
               4
100
AcDbLine
 10
0.0
 20
0.0
 30
0.0
 11
0.0
 21
1.2000000000000028
 31
0.0
  0
LINE
  5
292
100
AcDbEntity
  8
0
  6
CONTINUOUS
 62
               4
100
AcDbLine
 10
-5.5
 20
1.4000000000000057
 30
0.0
 11
-5.5
 21
3.5999999999999943
 31
0.0
  0
LINE
  5
293
100
AcDbEntity
  8
0
  6
CONTINUOUS
 62
               4
100
AcDbLine
 10
-4.3000000000000114
 20
1.4000000000000057
 30
0.0
 11
-4.3000000000000114
 21
3.5999999999999943
 31
0.0
  0
ARC
  5
294
100
AcDbEntity
  8
0
  6
CONTINUOUS
 62
               4
100
AcDbCircle
 10
-4.1008966664051627
 20
1.3991033335948089
 30
0.0
 40
1.3991036209254675
100
AcDbArc
 50
179.96327991479848
 51
270.03672008520033
  0
ARC
  5
295
100
AcDbEntity
  8
0
  6
CONTINUOUS
 62
               4
100
AcDbCircle
 10
-4.1008966599537757
 20
1.3991033400461959
 30
0.0
 40
0.1991053590856348
100
AcDbArc
 50
179.74197075907335
 51
270.25802924092562
  0
LINE
  5
296
100
AcDbEntity
  8
0
  6
CONTINUOUS
 62
               4
100
AcDbLine
 10
-4.0999999999999659
 20
0.0
 30
0.0
 11
3.0
 21
0.0
 31
0.0
  0
LINE
  5
297
100
AcDbEntity
  8
0
  6
CONTINUOUS
 62
               4
100
AcDbLine
 10
-4.0999999999999659
 20
1.2000000000000028
 30
0.0
 11
3.0
 21
1.2000000000000028
 31
0.0
  0
LINE
  5
298
100
AcDbEntity
  8
0
  6
CONTINUOUS
 62
               4
100
AcDbLine
 10
3.0
 20
0.0
 30
0.0
 11
3.0
 21
1.2000000000000028
 31
0.0
  0
ARC
  5
299
100
AcDbEntity
  8
0
  6
CONTINUOUS
 62
               4
100
AcDbCircle
 10
-6.5847799240333984
 20
3.2665835360522806
 30
0.0
 40
0.6147802009733803
100
AcDbArc
 50
286.12836199114588
 51
359.94561607879228
  0
ARC
  5
29A
100
AcDbEntity
  8
0
  6
CONTINUOUS
 62
               4
100
AcDbCircle
 10
-8.8161606354035484
 20
3.2652966087315747
 30
0.0
 40
0.6138397676001843
100
AcDbArc
 50
179.93434547259068
 51
253.74327317895529
  0
ARC
  5
29B
100
AcDbEntity
  8
0
  6
CONTINUOUS
 62
               4
100
AcDbCircle
 10
-7.700999999999965
 20
7.1068760988772226
 30
0.0
 40
4.6140039015589682
100
AcDbArc
 50
253.80344035262561
 51
286.19655964737319
  0
ARC
  5
29C
100
AcDbEntity
  8
0
  6
CONTINUOUS
 62
               4
100
AcDbCircle
 10
-13.184777973164046
 20
3.2665820679404334
 30
0.0
 40
0.6147782487131708
100
AcDbArc
 50
286.12822533946951
 51
359.94575273046883
  0
ARC
  5
29D
100
AcDbEntity
  8
0
  6
CONTINUOUS
 62
               4
100
AcDbCircle
 10
-15.416158681253251
 20
3.265298072688239
 30
0.0
 40
0.613841720073419
100
AcDbArc
 50
179.93448232673219
 51
253.74313632481389
  0
ARC
  5
29E
100
AcDbEntity
  8
0
  6
CONTINUOUS
 62
               4
100
AcDbCircle
 10
-14.300999999999988
 20
7.1068760989089554
 30
0.0
 40
4.6140039015894576
100
AcDbArc
 50
253.80344035273558
 51
286.19655964726314
  0
ARC
  5
29F
100
AcDbEntity
  8
0
  6
CONTINUOUS
 62
               4
100
AcDbCircle
 10
-17.900056684609865
 20
1.4000566846098934
 30
0.0
 40
1.4000566857574084
100
AcDbArc
 50
270.00231975529556
 51
359.99768024470291
  0
ARC
  5
2A0
100
AcDbEntity
  8
0
  6
CONTINUOUS
 62
               4
100
AcDbCircle
 10
-16.30006664106736
 20
3.6000666410673574
 30
0.0
 40
0.1999333700389205
100
AcDbArc
 50
89.980902377767208
 51
180.01909762223218
  0
ARC
  5
2A1
100
AcDbEntity
  8
0
  6
CONTINUOUS
 62
               4
100
AcDbCircle
 10
-5.7008844716972931
 20
3.5991155283026899
 30
0.0
 40
0.2008864188024893
100
AcDbArc
 50
0.2522652321918488
 51
89.747734767807131
  0
ARC
  5
2A2
100
AcDbEntity
  8
0
  6
CONTINUOUS
 62
               4
100
AcDbCircle
 10
-17.900058413382624
 20
1.4000584133826379
 30
0.0
 40
0.2000584219104543
100
AcDbArc
 50
270.01672931490481
 51
359.98327068509366
  0
LINE
  5
2A3
100
AcDbEntity
  8
0
  6
CONTINUOUS
 62
               4
100
AcDbLine
 10
-5.9699999999999704
 20
3.2660000000000053
 30
0.0
 11
-5.9699999999999704
 21
3.7999999999999972
 31
0.0
  0
LINE
  5
2A4
100
AcDbEntity
  8
0
  6
CONTINUOUS
 62
               4
100
AcDbLine
 10
-9.4300000000000068
 20
3.2660000000000053
 30
0.0
 11
-9.4300000000000068
 21
3.7999999999999972
 31
0.0
  0
LINE
  5
2A5
100
AcDbEntity
  8
0
  6
CONTINUOUS
 62
               4
100
AcDbLine
 10
-12.569999999999993
 20
3.2660000000000053
 30
0.0
 11
-12.569999999999993
 21
3.7999999999999972
 31
0.0
  0
LINE
  5
2A6
100
AcDbEntity
  8
0
  6
CONTINUOUS
 62
               4
100
AcDbLine
 10
-16.029999999999973
 20
3.2660000000000053
 30
0.0
 11
-16.029999999999973
 21
3.7999999999999972
 31
0.0
  0
LINE
  5
2A7
100
AcDbEntity
  8
0
  6
CONTINUOUS
 62
               4
100
AcDbLine
 10
-17.699999999999989
 20
1.4000000000000057
 30
0.0
 11
-17.699999999999989
 21
3.5999999999999943
 31
0.0
  0
LINE
  5
2A8
100
AcDbEntity
  8
0
  6
CONTINUOUS
 62
               4
100
AcDbLine
 10
-16.5
 20
1.4000000000000057
 30
0.0
 11
-16.5
 21
3.5999999999999943
 31
0.0
  0
LINE
  5
2A9
100
AcDbEntity
  8
0
  6
CONTINUOUS
 62
               4
100
AcDbLine
 10
-16.299999999999955
 20
3.7999999999999972
 30
0.0
 11
-5.6999999999999886
 21
3.7999999999999972
 31
0.0
  0
LINE
  5
2AA
100
AcDbEntity
  8
0
  6
CONTINUOUS
 62
               4
100
AcDbLine
 10
-25.0
 20
0.0
 30
0.0
 11
-25.0
 21
1.2000000000000028
 31
0.0
  0
LINE
  5
2AB
100
AcDbEntity
  8
0
  6
CONTINUOUS
 62
               4
100
AcDbLine
 10
-25.0
 20
0.0
 30
0.0
 11
-17.899999999999977
 21
0.0
 31
0.0
  0
LINE
  5
2AC
100
AcDbEntity
  8
0
  6
CONTINUOUS
 62
               4
100
AcDbLine
 10
-25.0
 20
1.2000000000000028
 30
0.0
 11
-17.899999999999977
 21
1.2000000000000028
 31
0.0
  0
LINE
  5
2AD
100
AcDbEntity
  8
0
  6
CENTER
 62
             200
100
AcDbLine
 10
-22.0
 20
-2.443871755798483
 30
0.0
 11
-22.0
 21
3.7999999999999972
 31
0.0
  0
LINE
  5
2AE
100
AcDbEntity
  8
0
  6
CENTER
 62
             200
100
AcDbLine
 10
0.0
 20
-2.443871755798483
 30
0.0
 11
0.0
 21
3.7999999999999972
 31
0.0
  0
ARC
  5
2AF
100
AcDbEntity
  8
0
  6
CONTINUOUS
 62
               4
100
AcDbCircle
 10
-16.300068323168489
 20
3.6000683231685144
 30
0.0
 40
1.3999316784987346
100
AcDbArc
 50
89.997203699822904
 51
180.00279630017653
  0
ARC
  5
2B0
100
AcDbEntity
  8
0
  6
CONTINUOUS
 62
               4
100
AcDbCircle
 10
-5.7008844620561376
 20
3.5991155379438453
 30
0.0
 40
1.4008847412629901
100
AcDbArc
 50
0.0361742439122946
 51
89.963825756087459
  0
LINE
  5
2B1
100
AcDbEntity
  8
0
  6
CENTER
 62
               2
100
AcDbLine
 10
-11.0
 20
63.869683056948389
 30
0.0
 11
-11.0
 21
2.7920000000000016
 31
0.0
  0
LINE
  5
2B2
100
AcDbEntity
  8
0
  6
CENTER
 62
               2
100
AcDbLine
 10
-13.5
 20
21.799999999999983
 30
0.0
 11
-8.5
 21
21.799999999999983
 31
0.0
  0
LINE
  5
2B3
100
AcDbEntity
  8
0
  6
DASHED
 62
               2
100
AcDbLine
 10
-11.865999999999929
 20
21.799999999999983
 30
0.0
 11
-11.434000000000026
 21
21.050600240192239
 31
0.0
  0
LINE
  5
2B4
100
AcDbEntity
  8
0
  6
DASHED
 62
               2
100
AcDbLine
 10
-11.434000000000026
 20
22.549399759807727
 30
0.0
 11
-11.865999999999929
 21
21.799999999999983
 31
0.0
  0
LINE
  5
2B5
100
AcDbEntity
  8
0
  6
DASHED
 62
               2
100
AcDbLine
 10
-10.565999999999974
 20
22.549399759807727
 30
0.0
 11
-11.434000000000026
 21
22.549399759807727
 31
0.0
  0
LINE
  5
2B6
100
AcDbEntity
  8
0
  6
DASHED
 62
               2
100
AcDbLine
 10
-10.134000000000071
 20
21.799999999999983
 30
0.0
 11
-10.565999999999974
 21
22.549399759807727
 31
0.0
  0
LINE
  5
2B7
100
AcDbEntity
  8
0
  6
DASHED
 62
               2
100
AcDbLine
 10
-10.565999999999974
 20
21.050600240192239
 30
0.0
 11
-10.134000000000071
 21
21.799999999999983
 31
0.0
  0
LINE
  5
2B8
100
AcDbEntity
  8
0
  6
DASHED
 62
               2
100
AcDbLine
 10
-11.434000000000026
 20
21.050600240192239
 30
0.0
 11
-10.565999999999974
 21
21.050600240192239
 31
0.0
  0
CIRCLE
  5
2B9
100
AcDbEntity
  8
0
  6
DASHED
 62
               2
100
AcDbCircle
 10
-11.0
 20
21.799999999999983
 30
0.0
 40
0.865999999999957
  0
CIRCLE
  5
2BA
100
AcDbEntity
  8
0
  6
CONTINUOUS
 62
               2
100
AcDbCircle
 10
-11.0
 20
21.799999999999983
 30
0.0
 40
1.5
  0
CIRCLE
  5
2BB
100
AcDbEntity
  8
0
  6
CONTINUOUS
 62
               7
100
AcDbCircle
 10
-11.0
 20
21.799999999999983
 30
0.0
 40
1.25
  0
LINE
  5
2BC
100
AcDbEntity
  8
0
  6
CENTER
 62
               2
100
AcDbLine
 10
-8.5
 20
15.399999999999977
 30
0.0
 11
-13.5
 21
15.399999999999977
 31
0.0
  0
CIRCLE
  5
2BD
100
AcDbEntity
  8
0
  6
CONTINUOUS
 62
               7
100
AcDbCircle
 10
-11.0
 20
15.399999999999977
 30
0.0
 40
1.25
  0
CIRCLE
  5
2BE
100
AcDbEntity
  8
0
  6
CONTINUOUS
 62
               2
100
AcDbCircle
 10
-11.0
 20
15.399999999999977
 30
0.0
 40
1.5
  0
CIRCLE
  5
2BF
100
AcDbEntity
  8
0
  6
CONTINUOUS
 62
               7
100
AcDbCircle
 10
-7.2999999999999545
 20
20.199999999999989
 30
0.0
 40
1.05
  0
CIRCLE
  5
2C0
100
AcDbEntity
  8
0
  6
CONTINUOUS
 62
               7
100
AcDbCircle
 10
-14.699999999999989
 20
14.299999999999983
 30
0.0
 40
1.05
  0
LINE
  5
2C1
100
AcDbEntity
  8
0
  6
CONTINUOUS
 62
               7
100
AcDbLine
 10
-16.0
 20
35.5
 30
0.0
 11
-6.0
 21
35.5
 31
0.0
  0
LINE
  5
2C2
100
AcDbEntity
  8
0
  6
CONTINUOUS
 62
               7
100
AcDbLine
 10
-6.0
 20
24.5
 30
0.0
 11
-6.0
 21
35.5
 31
0.0
  0
LINE
  5
2C3
100
AcDbEntity
  8
0
  6
CONTINUOUS
 62
               7
100
AcDbLine
 10
-16.0
 20
24.5
 30
0.0
 11
-16.0
 21
35.5
 31
0.0
  0
ARC
  5
2C4
100
AcDbEntity
  8
0
  6
CONTINUOUS
 62
               7
100
AcDbCircle
 10
-15.409446031890923
 20
6.2682512686530458
 30
0.0
 40
0.6105564724372722
100
AcDbArc
 50
179.83589550320582
 51
253.77907243150949
  0
LINE
  5
2C5
100
AcDbEntity
  8
0
  6
CONTINUOUS
 62
               7
100
AcDbLine
 10
-6.1999999999999886
 20
5.0
 30
0.0
 11
-15.800000000000011
 21
5.0
 31
0.0
  0
LINE
  5
2C6
100
AcDbEntity
  8
0
  6
CONTINUOUS
 62
               7
100
AcDbLine
 10
-16.019999999999982
 20
6.7999999999999545
 30
0.0
 11
-12.5
 21
6.7999999999999545
 31
0.0
  0
ARC
  5
2C7
100
AcDbEntity
  8
0
  6
CONTINUOUS
 62
               7
100
AcDbCircle
 10
-15.70089513685889
 20
7.0991048631410649
 30
0.0
 40
0.2991062025847394
100
AcDbArc
 50
179.82853033398985
 51
270.17146966600922
  0
ARC
  5
2C8
100
AcDbEntity
  8
0
  6
CONTINUOUS
 62
               7
100
AcDbCircle
 10
-15.800000000000011
 20
5.1999999999999886
 30
0.0
 40
0.2
100
AcDbArc
 50
179.99999999999963
 51
269.99999999999937
  0
LINE
  5
2C9
100
AcDbEntity
  8
0
  6
CONTINUOUS
 62
               7
100
AcDbLine
 10
-12.5
 20
5.0
 30
0.0
 11
-12.5
 21
6.7999999999999545
 31
0.0
  0
ARC
  5
2CA
100
AcDbEntity
  8
0
  6
CONTINUOUS
 62
               7
100
AcDbCircle
 10
-14.300000000000011
 20
10.087421236733917
 30
0.0
 40
4.5876068132596712
100
AcDbArc
 50
253.79871892415684
 51
286.20128107584191
  0
ARC
  5
2CB
100
AcDbEntity
  8
0
  6
CONTINUOUS
 62
               7
100
AcDbCircle
 10
-13.191771995833903
 20
6.2691627179709712
 30
0.0
 40
0.6117725687931934
100
AcDbArc
 50
286.30661609184898
 51
0.0784159734340139
  0
LINE
  5
2CC
100
AcDbEntity
  8
0
  6
CONTINUOUS
 62
               7
100
AcDbLine
 10
-12.579999999999984
 20
6.2699999999999818
 30
0.0
 11
-12.579999999999984
 21
6.7999999999999545
 31
0.0
  0
LINE
  5
2CD
100
AcDbEntity
  8
0
  6
CONTINUOUS
 62
               7
100
AcDbLine
 10
-16.0
 20
5.1999999999999886
 30
0.0
 11
-16.0
 21
6.1132505693459507
 31
0.0
  0
LINE
  5
2CE
100
AcDbEntity
  8
0
  6
CONTINUOUS
 62
               7
100
AcDbLine
 10
-16.019999999999982
 20
6.2699999999999818
 30
0.0
 11
-16.019999999999982
 21
6.7999999999999545
 31
0.0
  0
ARC
  5
2CF
100
AcDbEntity
  8
0
  6
CONTINUOUS
 62
               7
100
AcDbCircle
 10
-6.1999999999999886
 20
5.1999999999999886
 30
0.0
 40
0.2
100
AcDbArc
 50
269.99999999999937
 51
0.0
  0
LINE
  5
2D0
100
AcDbEntity
  8
0
  6
CENTER
 62
               2
100
AcDbLine
 10
-17.199999999999989
 20
14.299999999999983
 30
0.0
 11
-12.199999999999989
 21
14.299999999999983
 31
0.0
  0
LINE
  5
2D1
100
AcDbEntity
  8
0
  6
CENTER
 62
               2
100
AcDbLine
 10
-9.7999999999999545
 20
20.199999999999989
 30
0.0
 11
-4.7999999999999545
 21
20.199999999999989
 31
0.0
  0
LINE
  5
2D2
100
AcDbEntity
  8
0
  6
CENTER
 62
               2
100
AcDbLine
 10
-14.699999999999989
 20
11.799999999999983
 30
0.0
 11
-14.699999999999989
 21
16.799999999999983
 31
0.0
  0
LINE
  5
2D3
100
AcDbEntity
  8
0
  6
CENTER
 62
               2
100
AcDbLine
 10
-7.2999999999999545
 20
17.699999999999989
 30
0.0
 11
-7.2999999999999545
 21
22.699999999999989
 31
0.0
  0
LINE
  5
2D4
100
AcDbEntity
  8
0
  6
CONTINUOUS
 62
               7
100
AcDbLine
 10
-16.0
 20
24.5
 30
0.0
 11
-6.0
 21
24.5
 31
0.0
  0
LINE
  5
2D5
100
AcDbEntity
  8
0
  6
CONTINUOUS
 62
               7
100
AcDbLine
 10
-16.0
 20
6.7999999999999545
 30
0.0
 11
-16.0
 21
24.500000000494481
 31
0.0
  0
LINE
  5
2D6
100
AcDbEntity
  8
0
  6
CONTINUOUS
 62
               7
100
AcDbLine
 10
-6.0
 20
5.1999999999999886
 30
0.0
 11
-6.0
 21
24.5
 31
0.0
  0
LINE
  5
2D7
100
AcDbEntity
  8
0
  6
CONTINUOUS
 62
               7
100
AcDbLine
 10
-6.0000000063824359
 20
10.0
 30
0.0
 11
-16.000000006382436
 21
10.0
 31
0.0
  0
LINE
  5
2D8
100
AcDbEntity
  8
0
  6
CENTER
 62
               2
100
AcDbLine
 10
-12.5
 20
28.299999999999983
 30
0.0
 11
-9.5
 21
28.299999999999983
 31
0.0
  0
CIRCLE
  5
2D9
100
AcDbEntity
  8
0
  6
CONTINUOUS
 62
               7
100
AcDbCircle
 10
-11.0
 20
28.299999999999983
 30
0.0
 40
0.9
  0
LINE
  5
2DA
100
AcDbEntity
  8
0
  6
CONTINUOUS
 62
               4
100
AcDbLine
 10
-16.0
 20
58.0
 30
0.0
 11
-16.0
 21
35.5
 31
0.0
  0
LINE
  5
2DB
100
AcDbEntity
  8
0
  6
CONTINUOUS
 62
               4
100
AcDbLine
 10
-6.0
 20
58.0
 30
0.0
 11
-6.0
 21
35.5
 31
0.0
  0
ARC
  5
2DC
100
AcDbEntity
  8
0
  6
CONTINUOUS
 62
               4
100
AcDbCircle
 10
-8.5970880052370262
 20
57.401088005237
 30
0.0
 40
0.5989129830170392
100
AcDbArc
 50
89.895914524772735
 51
180.10408547522667
  0
ARC
  5
2DD
100
AcDbEntity
  8
0
  6
CONTINUOUS
 62
               4
100
AcDbCircle
 10
-6.795904853341824
 20
57.400095146658202
 30
0.0
 40
0.5999048608870732
100
AcDbArc
 50
359.99091272245295
 51
90.009087277546172
  0
LINE
  5
2DE
100
AcDbEntity
  8
0
  6
CONTINUOUS
 62
               4
100
AcDbLine
 10
-6.0
 20
57.400000000000034
 30
0.0
 11
-9.1999999999999886
 21
57.400000000000034
 31
0.0
  0
ARC
  5
2DF
100
AcDbEntity
  8
0
  6
CONTINUOUS
 62
               4
100
AcDbCircle
 10
-15.5
 20
57.400000000000034
 30
0.0
 40
0.5
100
AcDbArc
 50
89.999999999999815
 51
179.99999999999963
  0
LINE
  5
2E0
100
AcDbEntity
  8
0
  6
CONTINUOUS
 62
               4
100
AcDbLine
 10
-9.1999999999999886
 20
57.900000000000034
 30
0.0
 11
-9.1999999999999886
 21
56.400000000000034
 31
0.0
  0
LINE
  5
2E1
100
AcDbEntity
  8
0
  6
CONTINUOUS
 62
               4
100
AcDbLine
 10
-9.1999999999999886
 20
57.900000000000034
 30
0.0
 11
-15.5
 21
57.900000000000034
 31
0.0
  0
LINE
  5
2E2
100
AcDbEntity
  8
0
  6
CONTINUOUS
 62
               4
100
AcDbLine
 10
-6.0
 20
56.400000000000034
 30
0.0
 11
-9.1999999999999886
 21
56.400000000000034
 31
0.0
  0
LINE
  5
2E3
100
AcDbEntity
  8
0
  6
CONTINUOUS
 62
               4
100
AcDbLine
 10
-6.0
 20
58.0
 30
0.0
 11
-16.0
 21
58.0
 31
0.0
  0
LINE
  5
2E4
100
AcDbEntity
  8
0
  6
CONTINUOUS
 62
             200
100
AcDbLine
 10
-14.750018310546864
 20
67.479999995730537
 30
0.0
 11
-7.2500183105468636
 21
65.46999999573049
 31
0.0
  0
LINE
  5
2E5
100
AcDbEntity
  8
0
  6
CONTINUOUS
 62
               4
100
AcDbLine
 10
-11.600018310546886
 20
66.639999995730506
 30
0.0
 11
-11.600018310546886
 21
62.999999995730519
 31
0.0
  0
LINE
  5
2E6
100
AcDbEntity
  8
0
  6
CONTINUOUS
 62
               4
100
AcDbLine
 10
-12.900018310546898
 20
66.989999995730528
 30
0.0
 11
-12.900018310546898
 21
62.999999995730519
 31
0.0
  0
LINE
  5
2E7
100
AcDbEntity
  8
0
  6
CONTINUOUS
 62
               4
100
AcDbLine
 10
-10.400018310546898
 20
66.319999995730512
 30
0.0
 11
-10.400018310546898
 21
62.999999995730519
 31
0.0
  0
LINE
  5
2E8
100
AcDbEntity
  8
0
  6
CONTINUOUS
 62
               4
100
AcDbLine
 10
-9.1000183105468864
 20
65.96999999573049
 30
0.0
 11
-9.1000183105468864
 21
62.999999995730519
 31
0.0
  0
LINE
  5
2E9
100
AcDbEntity
  8
0
  6
CONTINUOUS
 62
               4
100
AcDbLine
 10
-10.000018310546864
 20
73.992929266663992
 30
0.0
 11
-9.5000183105468636
 21
73.992929266663992
 31
0.0
  0
LINE
  5
2EA
100
AcDbEntity
  8
0
  6
CONTINUOUS
 62
               4
100
AcDbLine
 10
-12.500018310546864
 20
73.992929266663992
 30
0.0
 11
-12.000018310546864
 21
73.992929266663992
 31
0.0
  0
LINE
  5
2EB
100
AcDbEntity
  8
0
  6
CONTINUOUS
 62
               4
100
AcDbLine
 10
-9.1000183105468864
 20
70.492929268663971
 30
0.0
 11
-9.1000183105468864
 21
66.999999995730519
 31
0.0
  0
LINE
  5
2EC
100
AcDbEntity
  8
0
  6
CONTINUOUS
 62
               4
100
AcDbLine
 10
-10.400018310546898
 20
70.492929268663971
 30
0.0
 11
-10.400018310546898
 21
67.349999995730542
 31
0.0
  0
LINE
  5
2ED
100
AcDbEntity
  8
0
  6
CONTINUOUS
 62
               4
100
AcDbLine
 10
-12.000018310546864
 20
73.992929266663992
 30
0.0
 11
-12.000018310546864
 21
70.492929268663971
 31
0.0
  0
LINE
  5
2EE
100
AcDbEntity
  8
0
  6
CONTINUOUS
 62
               4
100
AcDbLine
 10
-12.500018310546864
 20
73.992929266663992
 30
0.0
 11
-12.500018310546864
 21
70.492929268663971
 31
0.0
  0
LINE
  5
2EF
100
AcDbEntity
  8
0
  6
CONTINUOUS
 62
               4
100
AcDbLine
 10
-11.600018310546886
 20
70.492929268663971
 30
0.0
 11
-11.600018310546886
 21
67.669999995730535
 31
0.0
  0
LINE
  5
2F0
100
AcDbEntity
  8
0
  6
CONTINUOUS
 62
               4
100
AcDbLine
 10
-12.900018310546898
 20
70.492929268663971
 30
0.0
 11
-12.900018310546898
 21
68.019999995730501
 31
0.0
  0
LINE
  5
2F1
100
AcDbEntity
  8
0
  6
CONTINUOUS
 62
               4
100
AcDbLine
 10
-9.5000183105468636
 20
73.992929266663992
 30
0.0
 11
-9.5000183105468636
 21
70.492929268663971
 31
0.0
  0
LINE
  5
2F2
100
AcDbEntity
  8
0
  6
CONTINUOUS
 62
               4
100
AcDbLine
 10
-10.000018310546864
 20
73.992929266663992
 30
0.0
 11
-10.000018310546864
 21
70.492929268663971
 31
0.0
  0
LINE
  5
2F3
100
AcDbEntity
  8
0
  6
CONTINUOUS
 62
               4
100
AcDbLine
 10
-12.900018310546898
 20
70.492929268663971
 30
0.0
 11
-11.600018310546886
 21
70.492929268663971
 31
0.0
  0
LINE
  5
2F4
100
AcDbEntity
  8
0
  6
CONTINUOUS
 62
             200
100
AcDbLine
 10
-14.750018310546864
 20
68.519999995730501
 30
0.0
 11
-7.2500183105468636
 21
66.50999999573051
 31
0.0
  0
LINE
  5
2F5
100
AcDbEntity
  8
0
  6
CONTINUOUS
 62
               4
100
AcDbLine
 10
-10.400018310546898
 20
70.492929268663971
 30
0.0
 11
-9.1000183105468864
 21
70.492929268663971
 31
0.0
  0
LINE
  5
2F6
100
AcDbEntity
  8
0
  6
CONTINUOUS
 62
               4
100
AcDbLine
 10
-14.750018310546864
 20
62.999999995730519
 30
0.0
 11
-7.2500183105468636
 21
62.999999995730519
 31
0.0
  0
LINE
  5
2F7
100
AcDbEntity
  8
0
  6
CONTINUOUS
 62
               4
100
AcDbLine
 10
-7.2500183105468636
 20
62.999999995730519
 30
0.0
 11
-7.2500183105468636
 21
58.0
 31
0.0
  0
LINE
  5
2F8
100
AcDbEntity
  8
0
  6
CONTINUOUS
 62
               4
100
AcDbLine
 10
-14.750018310546864
 20
62.999999995730519
 30
0.0
 11
-14.750018310546864
 21
58.0
 31
0.0
  0
ENDBLK
  5
2F9
100
AcDbEntity
  8
0
100
AcDbBlockEnd
  0
BLOCK
  5
2FA
100
AcDbEntity
  8
0
100
AcDbBlockBegin
  2
EB10F1-7
 70
               0
 10
0.0
 20
0.0
 30
0.0
  3
EB10F1-7
  1

  0
LINE
  5
2FB
100
AcDbEntity
  8
0
  6
CONTINUOUS
 62
               7
100
AcDbLine
 10
7.9000000000000057
 20
31.5
 30
0.0
 11
7.9000000000000057
 21
35.5
 31
0.0
  0
LINE
  5
2FC
100
AcDbEntity
  8
0
  6
CONTINUOUS
 62
               7
100
AcDbLine
 10
14.099999999999994
 20
31.5
 30
0.0
 11
14.099999999999994
 21
35.5
 31
0.0
  0
ARC
  5
2FD
100
AcDbEntity
  8
0
  6
CONTINUOUS
 62
               7
100
AcDbCircle
 10
11.0
 20
31.5
 30
0.0
 40
3.1000000000000001
100
AcDbArc
 50
179.99999999999963
 51
0.0
  0
LINE
  5
2FE
100
AcDbEntity
  8
0
  6
CENTER
 62
             200
100
AcDbLine
 10
1.75
 20
0.0
 30
0.0
 11
1.75
 21
1.1999999999999886
 31
0.0
  0
LINE
  5
2FF
100
AcDbEntity
  8
0
  6
CENTER
 62
             200
100
AcDbLine
 10
-1.75
 20
0.0
 30
0.0
 11
-1.75
 21
1.1999999999999886
 31
0.0
  0
LINE
  5
300
100
AcDbEntity
  8
0
  6
CENTER
 62
             200
100
AcDbLine
 10
23.75
 20
0.0
 30
0.0
 11
23.75
 21
1.1999999999999886
 31
0.0
  0
LINE
  5
301
100
AcDbEntity
  8
0
  6
CENTER
 62
             200
100
AcDbLine
 10
20.25
 20
0.0
 30
0.0
 11
20.25
 21
1.1999999999999886
 31
0.0
  0
LINE
  5
302
100
AcDbEntity
  8
0
  6
CENTER
 62
             200
100
AcDbLine
 10
22.0
 20
-2.443871755798483
 30
0.0
 11
22.0
 21
3.8000000000000114
 31
0.0
  0
LINE
  5
303
100
AcDbEntity
  8
0
  6
CENTER
 62
             200
100
AcDbLine
 10
0.0
 20
-2.443871755798483
 30
0.0
 11
0.0
 21
3.8000000000000114
 31
0.0
  0
LINE
  5
304
100
AcDbEntity
  8
0
  6
CENTER
 62
               2
100
AcDbLine
 10
11.0
 20
2.2438875818592123
 30
0.0
 11
11.0
 21
61.162585161280504
 31
0.0
  0
LINE
  5
305
100
AcDbEntity
  8
0
  6
CONTINUOUS
 62
               4
100
AcDbLine
 10
-3.0
 20
1.1999999999999886
 30
0.0
 11
4.1000000000000227
 21
1.1999999999999886
 31
0.0
  0
LINE
  5
306
100
AcDbEntity
  8
0
  6
CONTINUOUS
 62
               4
100
AcDbLine
 10
-3.0
 20
0.0
 30
0.0
 11
4.1000000000000227
 21
0.0
 31
0.0
  0
LINE
  5
307
100
AcDbEntity
  8
0
  6
CONTINUOUS
 62
               4
100
AcDbLine
 10
-3.0
 20
0.0
 30
0.0
 11
-3.0
 21
1.1999999999999886
 31
0.0
  0
LINE
  5
308
100
AcDbEntity
  8
0
  6
CONTINUOUS
 62
               4
100
AcDbLine
 10
5.7000000000000171
 20
3.8000000000000114
 30
0.0
 11
16.300000000000011
 21
3.8000000000000114
 31
0.0
  0
LINE
  5
309
100
AcDbEntity
  8
0
  6
CONTINUOUS
 62
               4
100
AcDbLine
 10
5.5
 20
1.4000000000000057
 30
0.0
 11
5.5
 21
3.5999999999999943
 31
0.0
  0
LINE
  5
30A
100
AcDbEntity
  8
0
  6
CONTINUOUS
 62
               4
100
AcDbLine
 10
4.3000000000000114
 20
1.4000000000000057
 30
0.0
 11
4.3000000000000114
 21
3.5999999999999943
 31
0.0
  0
LINE
  5
30B
100
AcDbEntity
  8
0
  6
CONTINUOUS
 62
               4
100
AcDbLine
 10
5.9700000000000273
 20
3.2660000000000196
 30
0.0
 11
5.9700000000000273
 21
3.8000000000000114
 31
0.0
  0
LINE
  5
30C
100
AcDbEntity
  8
0
  6
CONTINUOUS
 62
               4
100
AcDbLine
 10
9.4300000000000068
 20
3.2660000000000196
 30
0.0
 11
9.4300000000000068
 21
3.8000000000000114
 31
0.0
  0
LINE
  5
30D
100
AcDbEntity
  8
0
  6
CONTINUOUS
 62
               4
100
AcDbLine
 10
12.569999999999993
 20
3.2660000000000196
 30
0.0
 11
12.569999999999993
 21
3.8000000000000114
 31
0.0
  0
LINE
  5
30E
100
AcDbEntity
  8
0
  6
CONTINUOUS
 62
               4
100
AcDbLine
 10
16.03000000000003
 20
3.2660000000000196
 30
0.0
 11
16.03000000000003
 21
3.8000000000000114
 31
0.0
  0
ARC
  5
30F
100
AcDbEntity
  8
0
  6
CONTINUOUS
 62
               4
100
AcDbCircle
 10
4.0999415866173763
 20
1.4000584133826237
 30
0.0
 40
0.2000584219104543
100
AcDbArc
 50
270.01672931490481
 51
359.98327068509366
  0
ARC
  5
310
100
AcDbEntity
  8
0
  6
CONTINUOUS
 62
               4
100
AcDbCircle
 10
16.299115528302707
 20
3.5991155283026899
 30
0.0
 40
0.2008864188024893
100
AcDbArc
 50
0.2522652321918488
 51
89.747734767807131
  0
ARC
  5
311
100
AcDbEntity
  8
0
  6
CONTINUOUS
 62
               4
100
AcDbCircle
 10
5.6999333589326397
 20
3.6000666410673716
 30
0.0
 40
0.1999333700389205
100
AcDbArc
 50
89.980902377767208
 51
180.01909762223218
  0
ARC
  5
312
100
AcDbEntity
  8
0
  6
CONTINUOUS
 62
               4
100
AcDbCircle
 10
4.099943315390135
 20
1.4000566846098934
 30
0.0
 40
1.4000566857574084
100
AcDbArc
 50
270.00231975529556
 51
359.99768024470291
  0
ARC
  5
313
100
AcDbEntity
  8
0
  6
CONTINUOUS
 62
               4
100
AcDbCircle
 10
7.6990000000000123
 20
7.1068760989089697
 30
0.0
 40
4.6140039015894576
100
AcDbArc
 50
253.80344035273558
 51
286.19655964726314
  0
ARC
  5
314
100
AcDbEntity
  8
0
  6
CONTINUOUS
 62
               4
100
AcDbCircle
 10
6.5838413187467495
 20
3.265298072688239
 30
0.0
 40
0.613841720073419
100
AcDbArc
 50
179.93448232673219
 51
253.74313632481389
  0
ARC
  5
315
100
AcDbEntity
  8
0
  6
CONTINUOUS
 62
               4
100
AcDbCircle
 10
8.8152220268359258
 20
3.2665820679404192
 30
0.0
 40
0.6147782487131708
100
AcDbArc
 50
286.12822533946951
 51
359.94575273046883
  0
ARC
  5
316
100
AcDbEntity
  8
0
  6
CONTINUOUS
 62
               4
100
AcDbCircle
 10
14.299000000000035
 20
7.1068760988772226
 30
0.0
 40
4.6140039015589682
100
AcDbArc
 50
253.80344035262561
 51
286.19655964737319
  0
ARC
  5
317
100
AcDbEntity
  8
0
  6
CONTINUOUS
 62
               4
100
AcDbCircle
 10
13.183839364596452
 20
3.2652966087315747
 30
0.0
 40
0.6138397676001843
100
AcDbArc
 50
179.93434547259068
 51
253.74327317895529
  0
ARC
  5
318
100
AcDbEntity
  8
0
  6
CONTINUOUS
 62
               4
100
AcDbCircle
 10
15.415220075966602
 20
3.2665835360522806
 30
0.0
 40
0.6147802009733803
100
AcDbArc
 50
286.12836199114588
 51
359.94561607879228
  0
LINE
  5
319
100
AcDbEntity
  8
0
  6
CONTINUOUS
 62
               4
100
AcDbLine
 10
25.0
 20
0.0
 30
0.0
 11
25.0
 21
1.1999999999999886
 31
0.0
  0
LINE
  5
31A
100
AcDbEntity
  8
0
  6
CONTINUOUS
 62
               4
100
AcDbLine
 10
17.900000000000034
 20
1.1999999999999886
 30
0.0
 11
25.0
 21
1.1999999999999886
 31
0.0
  0
LINE
  5
31B
100
AcDbEntity
  8
0
  6
CONTINUOUS
 62
               4
100
AcDbLine
 10
17.900000000000034
 20
0.0
 30
0.0
 11
25.0
 21
0.0
 31
0.0
  0
ARC
  5
31C
100
AcDbEntity
  8
0
  6
CONTINUOUS
 62
               4
100
AcDbCircle
 10
17.899103340046224
 20
1.3991033400461959
 30
0.0
 40
0.1991053590856348
100
AcDbArc
 50
179.74197075907335
 51
270.25802924092562
  0
ARC
  5
31D
100
AcDbEntity
  8
0
  6
CONTINUOUS
 62
               4
100
AcDbCircle
 10
17.899103333594837
 20
1.3991033335948089
 30
0.0
 40
1.3991036209254675
100
AcDbArc
 50
179.96327991479848
 51
270.03672008520033
  0
LINE
  5
31E
100
AcDbEntity
  8
0
  6
CONTINUOUS
 62
               4
100
AcDbLine
 10
17.699999999999989
 20
1.4000000000000057
 30
0.0
 11
17.699999999999989
 21
3.5999999999999943
 31
0.0
  0
LINE
  5
31F
100
AcDbEntity
  8
0
  6
CONTINUOUS
 62
               4
100
AcDbLine
 10
16.5
 20
1.4000000000000057
 30
0.0
 11
16.5
 21
3.5999999999999943
 31
0.0
  0
ARC
  5
320
100
AcDbEntity
  8
0
  6
CONTINUOUS
 62
               4
100
AcDbCircle
 10
5.6999316768315111
 20
3.6000683231685002
 30
0.0
 40
1.3999316784987346
100
AcDbArc
 50
89.997203699822904
 51
180.00279630017653
  0
ARC
  5
321
100
AcDbEntity
  8
0
  6
CONTINUOUS
 62
               4
100
AcDbCircle
 10
16.299115537943862
 20
3.5991155379438453
 30
0.0
 40
1.4008847412629901
100
AcDbArc
 50
0.0361742439122946
 51
89.963825756087459
  0
LINE
  5
322
100
AcDbEntity
  8
0
  6
CONTINUOUS
 62
               4
100
AcDbLine
 10
16.300000000000011
 20
5.0
 30
0.0
 11
5.7000000000000171
 21
5.0
 31
0.0
  0
LINE
  5
323
100
AcDbEntity
  8
0
  6
CONTINUOUS
 62
               4
100
AcDbLine
 10
22.0
 20
0.0
 30
0.0
 11
22.0
 21
1.1999999999999886
 31
0.0
  0
LINE
  5
324
100
AcDbEntity
  8
0
  6
CONTINUOUS
 62
               4
100
AcDbLine
 10
0.0
 20
0.0
 30
0.0
 11
0.0
 21
1.1999999999999886
 31
0.0
  0
LINE
  5
325
100
AcDbEntity
  8
0
  6
CONTINUOUS
 62
               7
100
AcDbLine
 10
16.0
 20
35.5
 30
0.0
 11
6.0
 21
35.5
 31
0.0
  0
LINE
  5
326
100
AcDbEntity
  8
0
  6
CONTINUOUS
 62
               7
100
AcDbLine
 10
6.0
 20
24.5
 30
0.0
 11
6.0
 21
35.5
 31
0.0
  0
LINE
  5
327
100
AcDbEntity
  8
0
  6
CONTINUOUS
 62
               7
100
AcDbLine
 10
16.0
 20
24.5
 30
0.0
 11
16.0
 21
35.5
 31
0.0
  0
LINE
  5
328
100
AcDbEntity
  8
0
  6
CONTINUOUS
 62
               7
100
AcDbLine
 10
9.0
 20
31.5
 30
0.0
 11
9.0
 21
35.5
 31
0.0
  0
LINE
  5
329
100
AcDbEntity
  8
0
  6
CONTINUOUS
 62
               7
100
AcDbLine
 10
13.0
 20
31.5
 30
0.0
 11
13.0
 21
35.5
 31
0.0
  0
ARC
  5
32A
100
AcDbEntity
  8
0
  6
CONTINUOUS
 62
               7
100
AcDbCircle
 10
11.0
 20
31.5
 30
0.0
 40
2.0
100
AcDbArc
 50
179.99999999999963
 51
0.0
  0
LINE
  5
32B
100
AcDbEntity
  8
0
  6
CENTER
 62
               2
100
AcDbLine
 10
12.700000000000017
 20
33.199999999999989
 30
0.0
 11
9.3000000000000114
 21
33.199999999999989
 31
0.0
  0
CIRCLE
  5
32C
100
AcDbEntity
  8
0
  6
CONTINUOUS
 62
               7
100
AcDbCircle
 10
11.0
 20
33.199999999999989
 30
0.0
 40
1.3000000000000012
  0
CIRCLE
  5
32D
100
AcDbEntity
  8
0
  6
CONTINUOUS
 62
               7
100
AcDbCircle
 10
11.0
 20
33.199999999999989
 30
0.0
 40
1.1500000000000001
  0
CIRCLE
  5
32E
100
AcDbEntity
  8
0
  6
CONTINUOUS
 62
               7
100
AcDbCircle
 10
11.0
 20
33.199999999999989
 30
0.0
 40
1.1000000000000001
  0
CIRCLE
  5
32F
100
AcDbEntity
  8
0
  6
CONTINUOUS
 62
               7
100
AcDbCircle
 10
11.0
 20
33.199999999999989
 30
0.0
 40
0.75
  0
ARC
  5
330
100
AcDbEntity
  8
0
  6
CONTINUOUS
 62
               7
100
AcDbCircle
 10
6.5905539681090772
 20
6.2682512686530458
 30
0.0
 40
0.6105564724372721
100
AcDbArc
 50
179.83589550320582
 51
253.77907243150949
  0
LINE
  5
331
100
AcDbEntity
  8
0
  6
CONTINUOUS
 62
               7
100
AcDbLine
 10
15.800000000000011
 20
5.0
 30
0.0
 11
6.2000000000000171
 21
5.0
 31
0.0
  0
LINE
  5
332
100
AcDbEntity
  8
0
  6
CONTINUOUS
 62
               7
100
AcDbLine
 10
5.9800000000000182
 20
6.7999999999999829
 30
0.0
 11
9.5
 21
6.7999999999999829
 31
0.0
  0
ARC
  5
333
100
AcDbEntity
  8
0
  6
CONTINUOUS
 62
               7
100
AcDbCircle
 10
6.2991048631411388
 20
7.0991048631410933
 30
0.0
 40
0.2991062025847394
100
AcDbArc
 50
179.82853033398985
 51
270.17146966600922
  0
ARC
  5
334
100
AcDbEntity
  8
0
  6
CONTINUOUS
 62
               7
100
AcDbCircle
 10
6.2000000000000171
 20
5.1999999999999886
 30
0.0
 40
0.2
100
AcDbArc
 50
179.99999999999963
 51
269.99999999999937
  0
LINE
  5
335
100
AcDbEntity
  8
0
  6
CONTINUOUS
 62
               7
100
AcDbLine
 10
9.5
 20
5.0
 30
0.0
 11
9.5
 21
6.7999999999999829
 31
0.0
  0
ARC
  5
336
100
AcDbEntity
  8
0
  6
CONTINUOUS
 62
               7
100
AcDbCircle
 10
7.7000000000000171
 20
10.087421236733945
 30
0.0
 40
4.5876068132596712
100
AcDbArc
 50
253.79871892415684
 51
286.20128107584191
  0
ARC
  5
337
100
AcDbEntity
  8
0
  6
CONTINUOUS
 62
               7
100
AcDbCircle
 10
8.8082280041660965
 20
6.2691627179709712
 30
0.0
 40
0.6117725687931934
100
AcDbArc
 50
286.30661609184898
 51
0.0784159734340139
  0
LINE
  5
338
100
AcDbEntity
  8
0
  6
CONTINUOUS
 62
               7
100
AcDbLine
 10
9.4200000000000159
 20
6.2700000000000102
 30
0.0
 11
9.4200000000000159
 21
6.7999999999999829
 31
0.0
  0
LINE
  5
339
100
AcDbEntity
  8
0
  6
CONTINUOUS
 62
               7
100
AcDbLine
 10
6.0
 20
5.1999999999999886
 30
0.0
 11
6.0
 21
6.1132505693459507
 31
0.0
  0
LINE
  5
33A
100
AcDbEntity
  8
0
  6
CONTINUOUS
 62
               7
100
AcDbLine
 10
5.9800000000000182
 20
6.2700000000000102
 30
0.0
 11
5.9800000000000182
 21
6.7999999999999829
 31
0.0
  0
ARC
  5
33B
100
AcDbEntity
  8
0
  6
CONTINUOUS
 62
               7
100
AcDbCircle
 10
15.800000000000011
 20
5.1999999999999886
 30
0.0
 40
0.2
100
AcDbArc
 50
269.99999999999937
 51
0.0
  0
LINE
  5
33C
100
AcDbEntity
  8
0
  6
CONTINUOUS
 62
               7
100
AcDbLine
 10
14.700000000000017
 20
12.699999999999989
 30
0.0
 11
16.0
 21
12.699999999999989
 31
0.0
  0
LINE
  5
33D
100
AcDbEntity
  8
0
  6
CONTINUOUS
 62
               7
100
AcDbLine
 10
14.700000000000017
 20
15.899999999999977
 30
0.0
 11
16.0
 21
15.899999999999977
 31
0.0
  0
LINE
  5
33E
100
AcDbEntity
  8
0
  6
CONTINUOUS
 62
               7
100
AcDbLine
 10
7.3000000000000114
 20
21.799999999999983
 30
0.0
 11
6.0
 21
21.799999999999983
 31
0.0
  0
LINE
  5
33F
100
AcDbEntity
  8
0
  6
CONTINUOUS
 62
               7
100
AcDbLine
 10
7.3000000000000114
 20
18.599999999999994
 30
0.0
 11
6.0
 21
18.599999999999994
 31
0.0
  0
LINE
  5
340
100
AcDbEntity
  8
0
  6
CONTINUOUS
 62
               7
100
AcDbLine
 10
16.000000006382493
 20
10.0
 30
0.0
 11
6.0000000063824928
 21
10.0
 31
0.0
  0
LINE
  5
341
100
AcDbEntity
  8
0
  6
CENTER
 62
               2
100
AcDbLine
 10
16.560577971874096
 20
14.299999999999983
 30
0.0
 11
12.282054828561172
 21
14.299999999999983
 31
0.0
  0
ARC
  5
342
100
AcDbEntity
  8
0
  6
CONTINUOUS
 62
               7
100
AcDbCircle
 10
14.700000000000017
 20
14.299999999999983
 30
0.0
 40
1.6000000000000001
100
AcDbArc
 50
89.999999999999815
 51
269.99999999999937
  0
ARC
  5
343
100
AcDbEntity
  8
0
  6
CONTINUOUS
 62
               7
100
AcDbCircle
 10
7.3000000000000114
 20
20.199999999999989
 30
0.0
 40
1.6000000000000001
100
AcDbArc
 50
269.99999999999937
 51
89.999999999999801
  0
CIRCLE
  5
344
100
AcDbEntity
  8
0
  6
CONTINUOUS
 62
               7
100
AcDbCircle
 10
14.700000000000017
 20
14.299999999999983
 30
0.0
 40
1.075
  0
CIRCLE
  5
345
100
AcDbEntity
  8
0
  6
CONTINUOUS
 62
               7
100
AcDbCircle
 10
7.3000000000000114
 20
20.199999999999989
 30
0.0
 40
1.075
  0
LINE
  5
346
100
AcDbEntity
  8
0
  6
CENTER
 62
               2
100
AcDbLine
 10
9.4781662840152308
 20
20.199999999999989
 30
0.0
 11
4.8222827114486222
 21
20.199999999999989
 31
0.0
  0
LINE
  5
347
100
AcDbEntity
  8
0
  6
CENTER
 62
               2
100
AcDbLine
 10
14.700000000000017
 20
11.991725194902557
 30
0.0
 11
14.700000000000017
 21
16.651939608336619
 31
0.0
  0
LINE
  5
348
100
AcDbEntity
  8
0
  6
CENTER
 62
               2
100
AcDbLine
 10
7.3000000000000114
 20
17.606854984051068
 30
0.0
 11
7.3000000000000114
 21
22.656448283146972
 31
0.0
  0
LINE
  5
349
100
AcDbEntity
  8
0
  6
CONTINUOUS
 62
               7
100
AcDbLine
 10
16.0
 20
24.5
 30
0.0
 11
6.0
 21
24.5
 31
0.0
  0
LINE
  5
34A
100
AcDbEntity
  8
0
  6
CONTINUOUS
 62
               7
100
AcDbLine
 10
6.0
 20
6.7999999999999829
 30
0.0
 11
6.0
 21
24.500000000494481
 31
0.0
  0
LINE
  5
34B
100
AcDbEntity
  8
0
  6
CONTINUOUS
 62
               7
100
AcDbLine
 10
16.0
 20
5.1999999999999886
 30
0.0
 11
16.0
 21
24.5
 31
0.0
  0
LINE
  5
34C
100
AcDbEntity
  8
0
  6
CENTER
 62
               2
100
AcDbLine
 10
15.0
 20
18.599999999999994
 30
0.0
 11
11.0
 21
18.599999999999994
 31
0.0
  0
LINE
  5
34D
100
AcDbEntity
  8
0
  6
CENTER
 62
               2
100
AcDbLine
 10
13.0
 20
16.599999999999994
 30
0.0
 11
13.0
 21
20.599999999999994
 31
0.0
  0
CIRCLE
  5
34E
100
AcDbEntity
  8
0
  6
CONTINUOUS
 62
               2
100
AcDbCircle
 10
13.0
 20
18.599999999999994
 30
0.0
 40
1.5
  0
CIRCLE
  5
34F
100
AcDbEntity
  8
0
  6
CONTINUOUS
 62
               7
100
AcDbCircle
 10
13.0
 20
18.599999999999994
 30
0.0
 40
1.25
  0
LINE
  5
350
100
AcDbEntity
  8
0
  6
CONTINUOUS
 62
               4
100
AcDbLine
 10
16.0
 20
58.0
 30
0.0
 11
16.0
 21
35.5
 31
0.0
  0
ARC
  5
351
100
AcDbEntity
  8
0
  6
CONTINUOUS
 62
               4
100
AcDbCircle
 10
15.204095146658176
 20
57.400095146658174
 30
0.0
 40
0.5999048608870732
100
AcDbArc
 50
359.99091272245295
 51
90.009087277546172
  0
ARC
  5
352
100
AcDbEntity
  8
0
  6
CONTINUOUS
 62
               4
100
AcDbCircle
 10
15.062807376533669
 20
37.077192619200389
 30
0.0
 40
0.4991932763770037
100
AcDbArc
 50
269.90733190886618
 51
0.0926680911333844
  0
ARC
  5
353
100
AcDbEntity
  8
0
  6
CONTINUOUS
 62
               4
100
AcDbCircle
 10
15.062575596042279
 20
53.500575596042268
 30
0.0
 40
0.499424735650256
100
AcDbArc
 50
359.93396556302804
 51
90.066034436970796
  0
ARC
  5
354
100
AcDbEntity
  8
0
  6
CONTINUOUS
 62
               4
100
AcDbCircle
 10
15.500296847864206
 20
53.500296847864178
 30
0.0
 40
0.4997032403068001
100
AcDbArc
 50
359.96596353714654
 51
90.034036462852711
  0
LINE
  5
355
100
AcDbEntity
  8
0
  6
CONTINUOUS
 62
               4
100
AcDbLine
 10
15.562000000000012
 20
53.5
 30
0.0
 11
15.562000000000012
 21
37.077999995734103
 31
0.0
  0
ARC
  5
356
100
AcDbEntity
  8
0
  6
CONTINUOUS
 62
               4
100
AcDbCircle
 10
15.500296847864206
 20
35.999703152135794
 30
0.0
 40
0.4997032403068001
100
AcDbArc
 50
269.96596353714654
 51
0.0340364628527164
  0
LINE
  5
357
100
AcDbEntity
  8
0
  6
CONTINUOUS
 62
               4
100
AcDbLine
 10
6.0
 20
58.0
 30
0.0
 11
6.0
 21
35.5
 31
0.0
  0
ARC
  5
358
100
AcDbEntity
  8
0
  6
CONTINUOUS
 62
               4
100
AcDbCircle
 10
13.402911994762917
 20
57.401088005237
 30
0.0
 40
0.5989129830170392
100
AcDbArc
 50
89.895914524772735
 51
180.10408547522667
  0
CIRCLE
  5
359
100
AcDbEntity
  8
0
  6
CONTINUOUS
 62
               4
100
AcDbCircle
 10
9.7505938720703398
 20
50.5
 30
0.0
 40
0.7250000000000001
  0
CIRCLE
  5
35A
100
AcDbEntity
  8
0
  6
CONTINUOUS
 62
               4
100
AcDbCircle
 10
12.25059387207034
 20
50.5
 30
0.0
 40
0.7250000000000001
  0
LINE
  5
35B
100
AcDbEntity
  8
0
  6
CONTINUOUS
 62
               4
100
AcDbLine
 10
12.25
 20
48.5
 30
0.0
 11
9.75
 21
48.5
 31
0.0
  0
LINE
  5
35C
100
AcDbEntity
  8
0
  6
CONTINUOUS
 62
               4
100
AcDbLine
 10
12.25
 20
52.5
 30
0.0
 11
9.75
 21
52.5
 31
0.0
  0
ARC
  5
35D
100
AcDbEntity
  8
0
  6
CONTINUOUS
 62
               4
100
AcDbCircle
 10
9.75
 20
50.5
 30
0.0
 40
2.0000000881710065
100
AcDbArc
 50
89.999999999999815
 51
269.99999999999937
  0
ARC
  5
35E
100
AcDbEntity
  8
0
  6
CONTINUOUS
 62
               4
100
AcDbCircle
 10
12.25
 20
50.5
 30
0.0
 40
2.0000000881710065
100
AcDbArc
 50
269.99999999999937
 51
89.999999999999801
  0
ARC
  5
35F
100
AcDbEntity
  8
0
  6
CONTINUOUS
 62
               4
100
AcDbCircle
 10
6.9377864392091624
 20
37.077786434943278
 30
0.0
 40
0.4997864848369056
100
AcDbArc
 50
179.97551728042748
 51
270.02448271957149
  0
ARC
  5
360
100
AcDbEntity
  8
0
  6
CONTINUOUS
 62
               4
100
AcDbCircle
 10
6.5002970242061338
 20
53.499702975793866
 30
0.0
 40
0.5002971123771114
100
AcDbArc
 50
90.034016255545609
 51
179.96598374445358
  0
ARC
  5
361
100
AcDbEntity
  8
0
  6
CONTINUOUS
 62
               4
100
AcDbCircle
 10
6.9380179446579291
 20
53.499982055342059
 30
0.0
 40
0.5000179449799356
100
AcDbArc
 50
90.002056232531103
 51
179.99794376746806
  0
LINE
  5
362
100
AcDbEntity
  8
0
  6
CONTINUOUS
 62
               4
100
AcDbLine
 10
6.4379999999999882
 20
53.5
 30
0.0
 11
6.4379999999999882
 21
37.077999995734103
 31
0.0
  0
CIRCLE
  5
363
100
AcDbEntity
  8
0
  6
CONTINUOUS
 62
               4
100
AcDbCircle
 10
9.7505938720703398
 20
50.5
 30
0.0
 40
0.25
  0
CIRCLE
  5
364
100
AcDbEntity
  8
0
  6
CONTINUOUS
 62
               4
100
AcDbCircle
 10
12.25059387207034
 20
50.5
 30
0.0
 40
0.25
  0
ARC
  5
365
100
AcDbEntity
  8
0
  6
CONTINUOUS
 62
               4
100
AcDbCircle
 10
6.5
 20
57.399999999999977
 30
0.0
 40
0.5
100
AcDbArc
 50
89.999999999999815
 51
179.99999999999963
  0
LINE
  5
366
100
AcDbEntity
  8
0
  6
CONTINUOUS
 62
               4
100
AcDbLine
 10
12.799999999999955
 20
57.899999999999977
 30
0.0
 11
12.799999999999955
 21
56.399999999999977
 31
0.0
  0
LINE
  5
367
100
AcDbEntity
  8
0
  6
CONTINUOUS
 62
               4
100
AcDbLine
 10
12.799999999999955
 20
57.899999999999977
 30
0.0
 11
6.5
 21
57.899999999999977
 31
0.0
  0
LINE
  5
368
100
AcDbEntity
  8
0
  6
PHANTOM
 62
             200
100
AcDbLine
 10
9.4999816894531364
 20
42.999999995730519
 30
0.0
 11
12.499981689453136
 21
42.999999995730519
 31
0.0
  0
LINE
  5
369
100
AcDbEntity
  8
0
  6
PHANTOM
 62
             200
100
AcDbLine
 10
9.4999816894531364
 20
40.999999995730519
 30
0.0
 11
12.499981689453136
 21
40.999999995730519
 31
0.0
  0
LINE
  5
36A
100
AcDbEntity
  8
0
  6
PHANTOM
 62
             200
100
AcDbLine
 10
12.499981689453136
 20
42.999999995730519
 30
0.0
 11
12.499981689453136
 21
40.999999995730519
 31
0.0
  0
LINE
  5
36B
100
AcDbEntity
  8
0
  6
PHANTOM
 62
             200
100
AcDbLine
 10
9.4999816894531364
 20
42.999999995730519
 30
0.0
 11
9.4999816894531364
 21
40.999999995730519
 31
0.0
  0
ARC
  5
36C
100
AcDbEntity
  8
0
  6
CONTINUOUS
 62
               4
100
AcDbCircle
 10
6.5002970242061338
 20
36.000297024206105
 30
0.0
 40
0.5002971123771115
100
AcDbArc
 50
180.03401625554557
 51
269.96598374445358
  0
LINE
  5
36D
100
AcDbEntity
  8
0
  6
CONTINUOUS
 62
               4
100
AcDbLine
 10
6.0
 20
35.5
 30
0.0
 11
16.0
 21
35.5
 31
0.0
  0
LINE
  5
36E
100
AcDbEntity
  8
0
  6
CONTINUOUS
 62
               4
100
AcDbLine
 10
16.0
 20
57.399999999999977
 30
0.0
 11
12.799999999999955
 21
57.399999999999977
 31
0.0
  0
LINE
  5
36F
100
AcDbEntity
  8
0
  6
CONTINUOUS
 62
               4
100
AcDbLine
 10
16.0
 20
58.0
 30
0.0
 11
6.0
 21
58.0
 31
0.0
  0
LINE
  5
370
100
AcDbEntity
  8
0
  6
CONTINUOUS
 62
               4
100
AcDbLine
 10
16.0
 20
56.399999999999977
 30
0.0
 11
12.799999999999955
 21
56.399999999999977
 31
0.0
  0
LINE
  5
371
100
AcDbEntity
  8
0
  6
CONTINUOUS
 62
               4
100
AcDbLine
 10
15.5
 20
54.0
 30
0.0
 11
6.5
 21
54.0
 31
0.0
  0
LINE
  5
372
100
AcDbEntity
  8
0
  6
CONTINUOUS
 62
               4
100
AcDbLine
 10
15.062000000000012
 20
36.577999995734103
 30
0.0
 11
6.9379999999999882
 21
36.577999995734103
 31
0.0
  0
ENDBLK
  5
373
100
AcDbEntity
  8
0
100
AcDbBlockEnd
  0
BLOCK
  5
374
100
AcDbEntity
  8
0
100
AcDbBlockBegin
  2
EB10F1-8
 70
               0
 10
0.0
 20
0.0
 30
0.0
  3
EB10F1-8
  1

  0
LINE
  5
375
100
AcDbEntity
  8
0
  6
CONTINUOUS
 62
               4
100
AcDbLine
 10
-7.0
 20
0.0000000256359272
 30
0.0
 11
-7.0
 21
5.0
 31
0.0
  0
LINE
  5
376
100
AcDbEntity
  8
0
  6
CONTINUOUS
 62
               4
100
AcDbLine
 10
7.0
 20
0.0000000256359272
 30
0.0
 11
7.0
 21
5.0
 31
0.0
  0
LINE
  5
377
100
AcDbEntity
  8
0
  6
CONTINUOUS
 62
               4
100
AcDbLine
 10
-7.0000000007497079
 20
1.1999999999999886
 30
0.0
 11
6.9999999992502921
 21
1.1999999999999886
 31
0.0
  0
LINE
  5
378
100
AcDbEntity
  8
0
  6
CONTINUOUS
 62
               4
100
AcDbLine
 10
-7.0000000007497079
 20
3.8000000000000114
 30
0.0
 11
6.9999999992502921
 21
3.8000000000000114
 31
0.0
  0
LINE
  5
379
100
AcDbEntity
  8
0
  6
CONTINUOUS
 62
               4
100
AcDbLine
 10
-7.0000000007497079
 20
5.0
 30
0.0
 11
6.9999999992502921
 21
5.0
 31
0.0
  0
LINE
  5
37A
100
AcDbEntity
  8
0
  6
CONTINUOUS
 62
               4
100
AcDbLine
 10
-7.0000000007497079
 20
0.0
 30
0.0
 11
7.0
 21
0.0
 31
0.0
  0
LINE
  5
37B
100
AcDbEntity
  8
0
  6
CENTER
 62
               2
100
AcDbLine
 10
0.0
 20
61.162585161280504
 30
0.0
 11
0.0
 21
-2.4488717557984785
 31
0.0
  0
ARC
  5
37C
100
AcDbEntity
  8
0
  6
DASHED
 62
             200
100
AcDbCircle
 10
-18.5
 20
19.299999999999955
 30
0.0
 40
0.5
100
AcDbArc
 50
179.99999999999963
 51
269.99999999999937
  0
ARC
  5
37D
100
AcDbEntity
  8
0
  6
DASHED
 62
             200
100
AcDbCircle
 10
-18.5
 20
24.299999999999983
 30
0.0
 40
0.5
100
AcDbArc
 50
89.999999999999815
 51
179.99999999999963
  0
LINE
  5
37E
100
AcDbEntity
  8
0
  6
DASHED
 62
             200
100
AcDbLine
 10
-19.0
 20
19.299999999999955
 30
0.0
 11
-19.0
 21
24.299999999999983
 31
0.0
  0
LINE
  5
37F
100
AcDbEntity
  8
0
  6
DASHED
 62
             200
100
AcDbLine
 10
-16.5
 20
18.799999999999955
 30
0.0
 11
-16.5
 21
24.799999999999983
 31
0.0
  0
LINE
  5
380
100
AcDbEntity
  8
0
  6
DASHED
 62
             200
100
AcDbLine
 10
-18.5
 20
18.799999999999955
 30
0.0
 11
-18.5
 21
24.799999999999983
 31
0.0
  0
LINE
  5
381
100
AcDbEntity
  8
0
  6
DASHED
 62
             200
100
AcDbLine
 10
-7.0
 20
18.799999999999955
 30
0.0
 11
-18.5
 21
18.799999999999955
 31
0.0
  0
LINE
  5
382
100
AcDbEntity
  8
0
  6
DASHED
 62
             200
100
AcDbLine
 10
-7.0
 20
24.799999999999983
 30
0.0
 11
-18.5
 21
24.799999999999983
 31
0.0
  0
LINE
  5
383
100
AcDbEntity
  8
0
  6
CENTER
 62
               2
100
AcDbLine
 10
-6.1241534247008929
 20
21.799999999999983
 30
0.0
 11
-20.405931067489917
 21
21.799999999999983
 31
0.0
  0
LINE
  5
384
100
AcDbEntity
  8
0
  6
CONTINUOUS
 62
               2
100
AcDbLine
 10
-7.2719999999999914
 20
23.032000000000011
 30
0.0
 11
-7.0
 21
23.032000000000011
 31
0.0
  0
LINE
  5
385
100
AcDbEntity
  8
0
  6
CONTINUOUS
 62
               7
100
AcDbLine
 10
-7.2719999999999914
 20
23.032000000000011
 30
0.0
 11
-7.0
 21
23.300000000000011
 31
0.0
  0
LINE
  5
386
100
AcDbEntity
  8
0
  6
CONTINUOUS
 62
               2
100
AcDbLine
 10
-7.2719999999999914
 20
20.572000000000003
 30
0.0
 11
-7.0
 21
20.572000000000003
 31
0.0
  0
LINE
  5
387
100
AcDbEntity
  8
0
  6
CONTINUOUS
 62
               7
100
AcDbLine
 10
-7.2719999999999914
 20
20.572000000000003
 30
0.0
 11
-7.0
 21
20.300000000000011
 31
0.0
  0
LINE
  5
388
100
AcDbEntity
  8
0
  6
CONTINUOUS
 62
               7
100
AcDbLine
 10
-7.2719999999999914
 20
20.572000000000003
 30
0.0
 11
-7.2719999999999914
 21
23.032000000000011
 31
0.0
  0
ARC
  5
389
100
AcDbEntity
  8
0
  6
CONTINUOUS
 62
               7
100
AcDbCircle
 10
5.2799999999999727
 20
10.087421236734031
 30
0.0
 40
4.5876068132596712
100
AcDbArc
 50
253.7987189241569
 51
286.20128107584202
  0
ARC
  5
38A
100
AcDbEntity
  8
0
  6
CONTINUOUS
 62
               7
100
AcDbCircle
 10
4.1717719958339217
 20
6.2691627179710849
 30
0.0
 40
0.6117725687931934
100
AcDbArc
 50
179.9215840265656
 51
253.6933839081498
  0
LINE
  5
38B
100
AcDbEntity
  8
0
  6
CONTINUOUS
 62
               7
100
AcDbLine
 10
3.5600000000000023
 20
6.2700000000000955
 30
0.0
 11
3.5600000000000023
 21
6.8000000000000682
 31
0.0
  0
ARC
  5
38C
100
AcDbEntity
  8
0
  6
CONTINUOUS
 62
               7
100
AcDbCircle
 10
6.389446031890941
 20
6.2682512686531027
 30
0.0
 40
0.6105564724372721
100
AcDbArc
 50
286.22092756849014
 51
0.1641044967937703
  0
LINE
  5
38D
100
AcDbEntity
  8
0
  6
CONTINUOUS
 62
               7
100
AcDbLine
 10
7.0
 20
6.8000000000000682
 30
0.0
 11
3.4800000000000182
 21
6.8000000000000682
 31
0.0
  0
ARC
  5
38E
100
AcDbEntity
  8
0
  6
CONTINUOUS
 62
               7
100
AcDbCircle
 10
6.6808951368589078
 20
7.0991048631411786
 30
0.0
 40
0.2991062025847394
100
AcDbArc
 50
269.82853033399044
 51
0.1714696660097498
  0
LINE
  5
38F
100
AcDbEntity
  8
0
  6
CONTINUOUS
 62
               7
100
AcDbLine
 10
3.4800000000000182
 20
5.0
 30
0.0
 11
3.4800000000000182
 21
6.8000000000000682
 31
0.0
  0
LINE
  5
390
100
AcDbEntity
  8
0
  6
CONTINUOUS
 62
               7
100
AcDbLine
 10
-7.0000028165267736
 20
35.499999999999972
 30
0.0
 11
8.1000000000000227
 21
35.499999999999972
 31
0.0
  0
LINE
  5
391
100
AcDbEntity
  8
0
  6
CONTINUOUS
 62
               7
100
AcDbLine
 10
7.0
 20
28.400000000000006
 30
0.0
 11
8.1000000000000227
 21
29.5
 31
0.0
  0
LINE
  5
392
100
AcDbEntity
  8
0
  6
CONTINUOUS
 62
               7
100
AcDbLine
 10
7.0
 20
35.499999999999972
 30
0.0
 11
7.0
 21
24.5
 31
0.0
  0
LINE
  5
393
100
AcDbEntity
  8
0
  6
CONTINUOUS
 62
               7
100
AcDbLine
 10
-7.0
 20
35.499999999999972
 30
0.0
 11
-7.0
 21
24.5
 31
0.0
  0
LINE
  5
394
100
AcDbEntity
  8
0
  6
CONTINUOUS
 62
               7
100
AcDbLine
 10
8.5480000000000018
 20
32.099999999999994
 30
0.0
 11
8.5480000000000018
 21
34.299999999999983
 31
0.0
  0
LINE
  5
395
100
AcDbEntity
  8
0
  6
CONTINUOUS
 62
               7
100
AcDbLine
 10
8.5480000000000018
 20
34.299999999999983
 30
0.0
 11
8.1000000000000227
 21
34.299999999999983
 31
0.0
  0
LINE
  5
396
100
AcDbEntity
  8
0
  6
CONTINUOUS
 62
               7
100
AcDbLine
 10
8.5480000000000018
 20
32.099999999999994
 30
0.0
 11
8.1000000000000227
 21
32.099999999999994
 31
0.0
  0
LINE
  5
397
100
AcDbEntity
  8
0
  6
CONTINUOUS
 62
               7
100
AcDbLine
 10
8.1000000000000227
 20
29.5
 30
0.0
 11
8.1000000000000227
 21
35.499999999999972
 31
0.0
  0
ARC
  5
398
100
AcDbEntity
  8
0
  6
CONTINUOUS
 62
               7
100
AcDbCircle
 10
-6.6009733670265973
 20
5.3990266329734027
 30
0.0
 40
0.3990278201647513
100
AcDbArc
 50
179.8602356150773
 51
270.1397643849217
  0
LINE
  5
399
100
AcDbEntity
  8
0
  6
CONTINUOUS
 62
               7
100
AcDbLine
 10
-6.5999999999999659
 20
5.0
 30
0.0
 11
6.6000000000000227
 21
5.0
 31
0.0
  0
ARC
  5
39A
100
AcDbEntity
  8
0
  6
CONTINUOUS
 62
               7
100
AcDbCircle
 10
6.6009733670266542
 20
5.3990266329733743
 30
0.0
 40
0.3990278201647513
100
AcDbArc
 50
269.8602356150771
 51
0.1397643849223044
  0
LINE
  5
39B
100
AcDbEntity
  8
0
  6
CONTINUOUS
 62
               7
100
AcDbLine
 10
-7.0
 20
10.0
 30
0.0
 11
6.999999986481896
 21
10.0
 31
0.0
  0
LINE
  5
39C
100
AcDbEntity
  8
0
  6
CONTINUOUS
 62
               7
100
AcDbLine
 10
-7.0
 20
24.5
 30
0.0
 11
6.999999986481896
 21
24.5
 31
0.0
  0
LINE
  5
39D
100
AcDbEntity
  8
0
  6
CONTINUOUS
 62
               7
100
AcDbLine
 10
7.0
 20
24.5
 30
0.0
 11
7.0
 21
5.4000000000000341
 31
0.0
  0
LINE
  5
39E
100
AcDbEntity
  8
0
  6
CENTER
 62
               2
100
AcDbLine
 10
2.4168738811566755
 20
21.5
 30
0.0
 11
5.0848777193341448
 21
21.5
 31
0.0
  0
LINE
  5
39F
100
AcDbEntity
  8
0
  6
CENTER
 62
               2
100
AcDbLine
 10
2.4168738811566755
 20
13.0
 30
0.0
 11
5.0848777193341448
 21
13.0
 31
0.0
  0
LINE
  5
3A0
100
AcDbEntity
  8
0
  6
CENTER
 62
               2
100
AcDbLine
 10
3.75
 20
14.361523884831115
 30
0.0
 11
3.75
 21
11.621411834810999
 31
0.0
  0
CIRCLE
  5
3A1
100
AcDbEntity
  8
0
  6
CONTINUOUS
 62
               7
100
AcDbCircle
 10
3.75
 20
13.0
 30
0.0
 40
1.05
  0
CIRCLE
  5
3A2
100
AcDbEntity
  8
0
  6
CONTINUOUS
 62
               7
100
AcDbCircle
 10
3.75
 20
21.5
 30
0.0
 40
1.05
  0
LINE
  5
3A3
100
AcDbEntity
  8
0
  6
CENTER
 62
               2
100
AcDbLine
 10
3.75
 20
22.942401094104667
 30
0.0
 11
3.75
 21
20.058072620399258
 31
0.0
  0
LINE
  5
3A4
100
AcDbEntity
  8
0
  6
CONTINUOUS
 62
               7
100
AcDbLine
 10
-7.0
 20
5.4000000000000057
 30
0.0
 11
-7.0
 21
24.5
 31
0.0
  0
LINE
  5
3A5
100
AcDbEntity
  8
0
  6
CONTINUOUS
 62
               7
100
AcDbLine
 10
5.9999999992502921
 20
21.799999999999983
 30
0.0
 11
7.0
 21
21.799999999999983
 31
0.0
  0
LINE
  5
3A6
100
AcDbEntity
  8
0
  6
CONTINUOUS
 62
               7
100
AcDbLine
 10
5.9999999992502921
 20
18.599999999999994
 30
0.0
 11
7.0
 21
18.599999999999994
 31
0.0
  0
LINE
  5
3A7
100
AcDbEntity
  8
0
  6
CONTINUOUS
 62
               7
100
AcDbLine
 10
5.9999999992502921
 20
21.799999999999983
 30
0.0
 11
5.9999999992502921
 21
18.599999999999994
 31
0.0
  0
LINE
  5
3A8
100
AcDbEntity
  8
0
  6
CONTINUOUS
 62
               4
100
AcDbLine
 10
7.0
 20
35.499999999999972
 30
0.0
 11
7.0
 21
57.399999994932244
 31
0.0
  0
LINE
  5
3A9
100
AcDbEntity
  8
0
  6
CONTINUOUS
 62
               4
100
AcDbLine
 10
-7.0
 20
57.399999999999977
 30
0.0
 11
-7.0
 21
35.499999999999972
 31
0.0
  0
LINE
  5
3AA
100
AcDbEntity
  8
0
  6
CONTINUOUS
 62
               4
100
AcDbLine
 10
10.000002816526774
 20
35.499999999999972
 30
0.0
 11
10.000002816526774
 21
53.99799999999999
 31
0.0
  0
LINE
  5
3AB
100
AcDbEntity
  8
0
  6
CONTINUOUS
 62
               4
100
AcDbLine
 10
10.000002816526774
 20
35.499999999999972
 30
0.0
 11
12.312002816526785
 21
36.577999999999975
 31
0.0
  0
LINE
  5
3AC
100
AcDbEntity
  8
0
  6
CONTINUOUS
 62
               4
100
AcDbLine
 10
19.296903939204356
 20
50.747182617187434
 30
0.0
 11
22.796903939204398
 21
50.747182617187434
 31
0.0
  0
LINE
  5
3AD
100
AcDbEntity
  8
0
  6
CONTINUOUS
 62
               4
100
AcDbLine
 10
19.296903939204356
 20
50.247182617187434
 30
0.0
 11
22.796903939204398
 21
50.247182617187434
 31
0.0
  0
ARC
  5
3AE
100
AcDbEntity
  8
0
  6
CONTINUOUS
 62
               4
100
AcDbCircle
 10
13.300002816526785
 20
52.49799999999999
 30
0.0
 40
0.5
100
AcDbArc
 50
0.0
 51
89.999999999999815
  0
ARC
  5
3AF
100
AcDbEntity
  8
0
  6
CONTINUOUS
 62
               4
100
AcDbCircle
 10
13.300002816526785
 20
48.497999999999962
 30
0.0
 40
0.5
100
AcDbArc
 50
270.00000000000023
 51
0.0
  0
LINE
  5
3B0
100
AcDbEntity
  8
0
  6
CONTINUOUS
 62
               4
100
AcDbLine
 10
12.600002816526796
 20
52.99799999999999
 30
0.0
 11
13.300002816526785
 21
52.99799999999999
 31
0.0
  0
LINE
  5
3B1
100
AcDbEntity
  8
0
  6
CONTINUOUS
 62
               4
100
AcDbLine
 10
13.800002816526785
 20
48.497999999999962
 30
0.0
 11
13.800002816526785
 21
52.49799999999999
 31
0.0
  0
LINE
  5
3B2
100
AcDbEntity
  8
0
  6
CONTINUOUS
 62
               4
100
AcDbLine
 10
12.600002816526796
 20
47.997999999999962
 30
0.0
 11
13.300002816526785
 21
47.997999999999962
 31
0.0
  0
LINE
  5
3B3
100
AcDbEntity
  8
0
  6
CONTINUOUS
 62
               4
100
AcDbLine
 10
19.296903939204356
 20
51.147182617187411
 30
0.0
 11
19.296903939204356
 21
49.847182617187457
 31
0.0
  0
LINE
  5
3B4
100
AcDbEntity
  8
0
  6
CONTINUOUS
 62
             200
100
AcDbLine
 10
15.43090393920437
 20
51.74799999999999
 30
0.0
 11
16.87490393920433
 21
49.247999999999962
 31
0.0
  0
LINE
  5
3B5
100
AcDbEntity
  8
0
  6
CONTINUOUS
 62
               4
100
AcDbLine
 10
15.776903939204374
 20
51.147999999999968
 30
0.0
 11
19.296903939204356
 21
51.147999999999968
 31
0.0
  0
LINE
  5
3B6
100
AcDbEntity
  8
0
  6
CONTINUOUS
 62
               4
100
AcDbLine
 10
16.526903939204374
 20
49.847999999999956
 30
0.0
 11
19.296903939204356
 21
49.847999999999956
 31
0.0
  0
LINE
  5
3B7
100
AcDbEntity
  8
0
  6
CONTINUOUS
 62
             200
100
AcDbLine
 10
14.93090393920437
 20
51.74799999999999
 30
0.0
 11
16.37490393920433
 21
49.247999999999962
 31
0.0
  0
LINE
  5
3B8
100
AcDbEntity
  8
0
  6
CONTINUOUS
 62
               4
100
AcDbLine
 10
12.600002816526796
 20
53.49799999999999
 30
0.0
 11
12.600002816526796
 21
52.99799999999999
 31
0.0
  0
ARC
  5
3B9
100
AcDbEntity
  8
0
  6
CONTINUOUS
 62
               4
100
AcDbCircle
 10
12.099538372008794
 20
37.031127224716244
 30
0.0
 40
0.5004652055472239
100
AcDbArc
 50
295.12116424320402
 51
0.0999197646782735
  0
ARC
  5
3BA
100
AcDbEntity
  8
0
  6
CONTINUOUS
 62
               4
100
AcDbCircle
 10
12.100040340532189
 20
53.498037524005383
 30
0.0
 40
0.4999624774027422
100
AcDbArc
 50
359.99569974300096
 51
90.004300256998803
  0
LINE
  5
3BB
100
AcDbEntity
  8
0
  6
CONTINUOUS
 62
               4
100
AcDbLine
 10
7.0000028165267736
 20
53.99799999999999
 30
0.0
 11
12.100002816526796
 21
53.99799999999999
 31
0.0
  0
LINE
  5
3BC
100
AcDbEntity
  8
0
  6
CONTINUOUS
 62
               4
100
AcDbLine
 10
13.800002816526785
 20
49.847999999999956
 30
0.0
 11
16.026903939204374
 21
49.847999999999956
 31
0.0
  0
LINE
  5
3BD
100
AcDbEntity
  8
0
  6
CONTINUOUS
 62
               4
100
AcDbLine
 10
13.800002816526785
 20
51.147999999999968
 30
0.0
 11
15.276903939204374
 21
51.147999999999968
 31
0.0
  0
LINE
  5
3BE
100
AcDbEntity
  8
0
  6
CONTINUOUS
 62
               4
100
AcDbLine
 10
12.600002816526796
 20
52.99799999999999
 30
0.0
 11
12.600002816526796
 21
37.031999999999954
 31
0.0
  0
LINE
  5
3BF
100
AcDbEntity
  8
0
  6
CONTINUOUS
 62
               4
100
AcDbLine
 10
-3.3000000000000114
 20
57.400000000000091
 30
0.0
 11
-3.3000000000000114
 21
58.0
 31
0.0
  0
LINE
  5
3C0
100
AcDbEntity
  8
0
  6
CONTINUOUS
 62
               4
100
AcDbLine
 10
-6.3170951466582324
 20
57.999999999999972
 30
0.0
 11
5.0000028165267736
 21
58.000000000000057
 31
0.0
  0
ARC
  5
3C1
100
AcDbEntity
  8
0
  6
CONTINUOUS
 62
               4
100
AcDbCircle
 10
-4.5159119947629733
 20
57.401088005237
 30
0.0
 40
0.5989129830170392
100
AcDbArc
 50
359.89591452477293
 51
90.104085475226867
  0
ARC
  5
3C2
100
AcDbEntity
  8
0
  6
CONTINUOUS
 62
               4
100
AcDbCircle
 10
-6.3170951466581755
 20
57.400095146658174
 30
0.0
 40
0.5999048608870732
100
AcDbArc
 50
123.56005066674096
 51
180.00908727754583
  0
LINE
  5
3C3
100
AcDbEntity
  8
0
  6
CONTINUOUS
 62
               4
100
AcDbLine
 10
-6.9999999999999432
 20
57.400000000000091
 30
0.0
 11
-3.3000000000000114
 21
57.400000000000091
 31
0.0
  0
LINE
  5
3C4
100
AcDbEntity
  8
0
  6
CONTINUOUS
 62
               4
100
AcDbLine
 10
5.0000028165267736
 20
58.000000000000057
 30
0.0
 11
5.0000028165267736
 21
56.400000000000063
 31
0.0
  0
LINE
  5
3C5
100
AcDbEntity
  8
0
  6
CONTINUOUS
 62
               4
100
AcDbLine
 10
-7.0
 20
56.400000000000063
 30
0.0
 11
5.0000028165267736
 21
56.400000000000063
 31
0.0
  0
LINE
  5
3C6
100
AcDbEntity
  8
0
  6
CONTINUOUS
 62
               4
100
AcDbLine
 10
6.5000000000000568
 20
57.899999999999977
 30
0.0
 11
5.0000000000000568
 21
57.899999999999977
 31
0.0
  0
ARC
  5
3C7
100
AcDbEntity
  8
0
  6
CONTINUOUS
 62
               4
100
AcDbCircle
 10
6.5000000000000568
 20
57.399999999999977
 30
0.0
 40
0.5
100
AcDbArc
 50
0.0
 51
89.999999999999815
  0
ARC
  5
3C8
100
AcDbEntity
  8
0
  6
CONTINUOUS
 62
               4
100
AcDbCircle
 10
-6.4999999999999432
 20
57.399999999999977
 30
0.0
 40
0.5
100
AcDbArc
 50
114.73039869686018
 51
179.99999999999963
  0
ARC
  5
3C9
100
AcDbEntity
  8
0
  6
CONTINUOUS
 62
               4
100
AcDbCircle
 10
-6.3170951466581755
 20
57.400095146658174
 30
0.0
 40
0.5999048608870732
100
AcDbArc
 50
89.99091272245343
 51
123.56005066674096
  0
LINE
  5
3CA
100
AcDbEntity
  8
0
  6
CONTINUOUS
 62
               4
100
AcDbLine
 10
22.796903939204398
 20
50.747182617187434
 30
0.0
 11
22.796903939204398
 21
50.247182617187434
 31
0.0
  0
LINE
  5
3CB
100
AcDbEntity
  8
0
  6
CONTINUOUS
 62
               4
100
AcDbLine
 10
-7.0
 20
35.499999999999972
 30
0.0
 11
10.000002816526774
 21
35.499999999999972
 31
0.0
  0
ENDBLK
  5
3CC
100
AcDbEntity
  8
0
100
AcDbBlockEnd
  0
BLOCK
  5
3CD
100
AcDbEntity
  8
0
100
AcDbBlockBegin
  2
EB10F1-9
 70
               0
 10
0.0
 20
0.0
 30
0.0
  3
EB10F1-9
  1

  0
LINE
  5
3CE
100
AcDbEntity
  8
0
  6
DASHED
 62
             200
100
AcDbLine
 10
-20.25
 20
0.0
 30
0.0
 11
-20.25
 21
1.1999999999999886
 31
0.0
  0
LINE
  5
3CF
100
AcDbEntity
  8
0
  6
DASHED
 62
             200
100
AcDbLine
 10
-23.75
 20
0.0
 30
0.0
 11
-23.75
 21
1.1999999999999886
 31
0.0
  0
LINE
  5
3D0
100
AcDbEntity
  8
0
  6
DASHED
 62
             200
100
AcDbLine
 10
1.75
 20
0.0
 30
0.0
 11
1.75
 21
1.1999999999999886
 31
0.0
  0
LINE
  5
3D1
100
AcDbEntity
  8
0
  6
DASHED
 62
             200
100
AcDbLine
 10
-1.75
 20
0.0
 30
0.0
 11
-1.75
 21
1.1999999999999886
 31
0.0
  0
LINE
  5
3D2
100
AcDbEntity
  8
0
  6
CONTINUOUS
 62
               4
100
AcDbLine
 10
-5.6999999999999886
 20
5.0
 30
0.0
 11
-16.299999999999955
 21
5.0
 31
0.0
  0
LINE
  5
3D3
100
AcDbEntity
  8
0
  6
CONTINUOUS
 62
               4
100
AcDbLine
 10
-22.0
 20
0.0
 30
0.0
 11
-22.0
 21
1.1999999999999886
 31
0.0
  0
LINE
  5
3D4
100
AcDbEntity
  8
0
  6
CONTINUOUS
 62
               4
100
AcDbLine
 10
0.0
 20
0.0
 30
0.0
 11
0.0
 21
1.1999999999999886
 31
0.0
  0
LINE
  5
3D5
100
AcDbEntity
  8
0
  6
CONTINUOUS
 62
               4
100
AcDbLine
 10
-5.5
 20
1.4000000000000057
 30
0.0
 11
-5.5
 21
3.5999999999999943
 31
0.0
  0
LINE
  5
3D6
100
AcDbEntity
  8
0
  6
CONTINUOUS
 62
               4
100
AcDbLine
 10
-4.3000000000000114
 20
1.4000000000000057
 30
0.0
 11
-4.3000000000000114
 21
3.5999999999999943
 31
0.0
  0
ARC
  5
3D7
100
AcDbEntity
  8
0
  6
CONTINUOUS
 62
               4
100
AcDbCircle
 10
-4.1008966664051627
 20
1.3991033335948089
 30
0.0
 40
1.3991036209254675
100
AcDbArc
 50
179.96327991479848
 51
270.03672008520033
  0
ARC
  5
3D8
100
AcDbEntity
  8
0
  6
CONTINUOUS
 62
               4
100
AcDbCircle
 10
-4.1008966599537757
 20
1.3991033400461959
 30
0.0
 40
0.1991053590856348
100
AcDbArc
 50
179.74197075907335
 51
270.25802924092562
  0
LINE
  5
3D9
100
AcDbEntity
  8
0
  6
CONTINUOUS
 62
               4
100
AcDbLine
 10
-4.0999999999999659
 20
0.0
 30
0.0
 11
3.0
 21
0.0
 31
0.0
  0
LINE
  5
3DA
100
AcDbEntity
  8
0
  6
CONTINUOUS
 62
               4
100
AcDbLine
 10
-4.0999999999999659
 20
1.1999999999999886
 30
0.0
 11
3.0
 21
1.1999999999999886
 31
0.0
  0
LINE
  5
3DB
100
AcDbEntity
  8
0
  6
CONTINUOUS
 62
               4
100
AcDbLine
 10
3.0
 20
0.0
 30
0.0
 11
3.0
 21
1.1999999999999886
 31
0.0
  0
ARC
  5
3DC
100
AcDbEntity
  8
0
  6
CONTINUOUS
 62
               4
100
AcDbCircle
 10
-6.5847799240333984
 20
3.2665835360522806
 30
0.0
 40
0.6147802009733803
100
AcDbArc
 50
286.12836199114588
 51
359.94561607879228
  0
ARC
  5
3DD
100
AcDbEntity
  8
0
  6
CONTINUOUS
 62
               4
100
AcDbCircle
 10
-8.8161606354035484
 20
3.2652966087315747
 30
0.0
 40
0.6138397676001843
100
AcDbArc
 50
179.93434547259068
 51
253.74327317895529
  0
ARC
  5
3DE
100
AcDbEntity
  8
0
  6
CONTINUOUS
 62
               4
100
AcDbCircle
 10
-7.700999999999965
 20
7.1068760988772226
 30
0.0
 40
4.6140039015589682
100
AcDbArc
 50
253.80344035262561
 51
286.19655964737319
  0
ARC
  5
3DF
100
AcDbEntity
  8
0
  6
CONTINUOUS
 62
               4
100
AcDbCircle
 10
-13.184777973164046
 20
3.2665820679404192
 30
0.0
 40
0.6147782487131708
100
AcDbArc
 50
286.12822533946951
 51
359.94575273046883
  0
ARC
  5
3E0
100
AcDbEntity
  8
0
  6
CONTINUOUS
 62
               4
100
AcDbCircle
 10
-15.416158681253251
 20
3.265298072688239
 30
0.0
 40
0.613841720073419
100
AcDbArc
 50
179.93448232673219
 51
253.74313632481389
  0
ARC
  5
3E1
100
AcDbEntity
  8
0
  6
CONTINUOUS
 62
               4
100
AcDbCircle
 10
-14.300999999999988
 20
7.1068760989089697
 30
0.0
 40
4.6140039015894576
100
AcDbArc
 50
253.80344035273558
 51
286.19655964726314
  0
ARC
  5
3E2
100
AcDbEntity
  8
0
  6
CONTINUOUS
 62
               4
100
AcDbCircle
 10
-17.900056684609865
 20
1.4000566846098934
 30
0.0
 40
1.4000566857574084
100
AcDbArc
 50
270.00231975529556
 51
359.99768024470291
  0
ARC
  5
3E3
100
AcDbEntity
  8
0
  6
CONTINUOUS
 62
               4
100
AcDbCircle
 10
-16.30006664106736
 20
3.6000666410673716
 30
0.0
 40
0.1999333700389205
100
AcDbArc
 50
89.980902377767208
 51
180.01909762223218
  0
ARC
  5
3E4
100
AcDbEntity
  8
0
  6
CONTINUOUS
 62
               4
100
AcDbCircle
 10
-5.7008844716972931
 20
3.5991155283026899
 30
0.0
 40
0.2008864188024893
100
AcDbArc
 50
0.2522652321918488
 51
89.747734767807131
  0
ARC
  5
3E5
100
AcDbEntity
  8
0
  6
CONTINUOUS
 62
               4
100
AcDbCircle
 10
-17.900058413382624
 20
1.4000584133826237
 30
0.0
 40
0.2000584219104543
100
AcDbArc
 50
270.01672931490481
 51
359.98327068509366
  0
LINE
  5
3E6
100
AcDbEntity
  8
0
  6
CONTINUOUS
 62
               4
100
AcDbLine
 10
-5.9699999999999704
 20
3.2660000000000196
 30
0.0
 11
-5.9699999999999704
 21
3.8000000000000114
 31
0.0
  0
LINE
  5
3E7
100
AcDbEntity
  8
0
  6
CONTINUOUS
 62
               4
100
AcDbLine
 10
-9.4300000000000068
 20
3.2660000000000196
 30
0.0
 11
-9.4300000000000068
 21
3.8000000000000114
 31
0.0
  0
LINE
  5
3E8
100
AcDbEntity
  8
0
  6
CONTINUOUS
 62
               4
100
AcDbLine
 10
-12.569999999999993
 20
3.2660000000000196
 30
0.0
 11
-12.569999999999993
 21
3.8000000000000114
 31
0.0
  0
LINE
  5
3E9
100
AcDbEntity
  8
0
  6
CONTINUOUS
 62
               4
100
AcDbLine
 10
-16.029999999999973
 20
3.2660000000000196
 30
0.0
 11
-16.029999999999973
 21
3.8000000000000114
 31
0.0
  0
LINE
  5
3EA
100
AcDbEntity
  8
0
  6
CONTINUOUS
 62
               4
100
AcDbLine
 10
-17.699999999999989
 20
1.4000000000000057
 30
0.0
 11
-17.699999999999989
 21
3.5999999999999943
 31
0.0
  0
LINE
  5
3EB
100
AcDbEntity
  8
0
  6
CONTINUOUS
 62
               4
100
AcDbLine
 10
-16.5
 20
1.4000000000000057
 30
0.0
 11
-16.5
 21
3.5999999999999943
 31
0.0
  0
LINE
  5
3EC
100
AcDbEntity
  8
0
  6
CONTINUOUS
 62
               4
100
AcDbLine
 10
-16.299999999999955
 20
3.8000000000000114
 30
0.0
 11
-5.6999999999999886
 21
3.8000000000000114
 31
0.0
  0
LINE
  5
3ED
100
AcDbEntity
  8
0
  6
CONTINUOUS
 62
               4
100
AcDbLine
 10
-25.0
 20
0.0
 30
0.0
 11
-25.0
 21
1.1999999999999886
 31
0.0
  0
LINE
  5
3EE
100
AcDbEntity
  8
0
  6
CONTINUOUS
 62
               4
100
AcDbLine
 10
-25.0
 20
0.0
 30
0.0
 11
-17.899999999999977
 21
0.0
 31
0.0
  0
LINE
  5
3EF
100
AcDbEntity
  8
0
  6
CONTINUOUS
 62
               4
100
AcDbLine
 10
-25.0
 20
1.1999999999999886
 30
0.0
 11
-17.899999999999977
 21
1.1999999999999886
 31
0.0
  0
LINE
  5
3F0
100
AcDbEntity
  8
0
  6
CENTER
 62
             200
100
AcDbLine
 10
-22.0
 20
-2.443871755798483
 30
0.0
 11
-22.0
 21
3.8000000000000114
 31
0.0
  0
LINE
  5
3F1
100
AcDbEntity
  8
0
  6
CENTER
 62
             200
100
AcDbLine
 10
0.0
 20
-2.443871755798483
 30
0.0
 11
0.0
 21
3.8000000000000114
 31
0.0
  0
ARC
  5
3F2
100
AcDbEntity
  8
0
  6
CONTINUOUS
 62
               4
100
AcDbCircle
 10
-16.300068323168489
 20
3.6000683231685002
 30
0.0
 40
1.3999316784987346
100
AcDbArc
 50
89.997203699822904
 51
180.00279630017653
  0
ARC
  5
3F3
100
AcDbEntity
  8
0
  6
CONTINUOUS
 62
               4
100
AcDbCircle
 10
-5.7008844620561376
 20
3.5991155379438453
 30
0.0
 40
1.4008847412629901
100
AcDbArc
 50
0.0361742439122946
 51
89.963825756087459
  0
LINE
  5
3F4
100
AcDbEntity
  8
0
  6
CENTER
 62
               2
100
AcDbLine
 10
-11.0
 20
61.162585161280532
 30
0.0
 11
-11.0
 21
2.7920000000000016
 31
0.0
  0
LINE
  5
3F5
100
AcDbEntity
  8
0
  6
CENTER
 62
               2
100
AcDbLine
 10
-13.5
 20
21.799999999999983
 30
0.0
 11
-8.5
 21
21.799999999999983
 31
0.0
  0
LINE
  5
3F6
100
AcDbEntity
  8
0
  6
DASHED
 62
               2
100
AcDbLine
 10
-11.865999999999929
 20
21.799999999999983
 30
0.0
 11
-11.434000000000026
 21
21.050600240192239
 31
0.0
  0
LINE
  5
3F7
100
AcDbEntity
  8
0
  6
DASHED
 62
               2
100
AcDbLine
 10
-11.434000000000026
 20
22.549399759807727
 30
0.0
 11
-11.865999999999929
 21
21.799999999999983
 31
0.0
  0
LINE
  5
3F8
100
AcDbEntity
  8
0
  6
DASHED
 62
               2
100
AcDbLine
 10
-10.565999999999974
 20
22.549399759807727
 30
0.0
 11
-11.434000000000026
 21
22.549399759807727
 31
0.0
  0
LINE
  5
3F9
100
AcDbEntity
  8
0
  6
DASHED
 62
               2
100
AcDbLine
 10
-10.134000000000071
 20
21.799999999999983
 30
0.0
 11
-10.565999999999974
 21
22.549399759807727
 31
0.0
  0
LINE
  5
3FA
100
AcDbEntity
  8
0
  6
DASHED
 62
               2
100
AcDbLine
 10
-10.565999999999974
 20
21.050600240192239
 30
0.0
 11
-10.134000000000071
 21
21.799999999999983
 31
0.0
  0
LINE
  5
3FB
100
AcDbEntity
  8
0
  6
DASHED
 62
               2
100
AcDbLine
 10
-11.434000000000026
 20
21.050600240192239
 30
0.0
 11
-10.565999999999974
 21
21.050600240192239
 31
0.0
  0
CIRCLE
  5
3FC
100
AcDbEntity
  8
0
  6
DASHED
 62
               2
100
AcDbCircle
 10
-11.0
 20
21.799999999999983
 30
0.0
 40
0.865999999999957
  0
CIRCLE
  5
3FD
100
AcDbEntity
  8
0
  6
CONTINUOUS
 62
               2
100
AcDbCircle
 10
-11.0
 20
21.799999999999983
 30
0.0
 40
1.5
  0
CIRCLE
  5
3FE
100
AcDbEntity
  8
0
  6
CONTINUOUS
 62
               7
100
AcDbCircle
 10
-11.0
 20
21.799999999999983
 30
0.0
 40
1.25
  0
LINE
  5
3FF
100
AcDbEntity
  8
0
  6
CENTER
 62
               2
100
AcDbLine
 10
-8.5
 20
15.399999999999977
 30
0.0
 11
-13.5
 21
15.399999999999977
 31
0.0
  0
CIRCLE
  5
400
100
AcDbEntity
  8
0
  6
CONTINUOUS
 62
               7
100
AcDbCircle
 10
-11.0
 20
15.399999999999977
 30
0.0
 40
1.25
  0
CIRCLE
  5
401
100
AcDbEntity
  8
0
  6
CONTINUOUS
 62
               2
100
AcDbCircle
 10
-11.0
 20
15.399999999999977
 30
0.0
 40
1.5
  0
CIRCLE
  5
402
100
AcDbEntity
  8
0
  6
CONTINUOUS
 62
               7
100
AcDbCircle
 10
-7.2999999999999545
 20
20.199999999999989
 30
0.0
 40
1.05
  0
CIRCLE
  5
403
100
AcDbEntity
  8
0
  6
CONTINUOUS
 62
               7
100
AcDbCircle
 10
-14.699999999999989
 20
14.299999999999983
 30
0.0
 40
1.05
  0
LINE
  5
404
100
AcDbEntity
  8
0
  6
CONTINUOUS
 62
               7
100
AcDbLine
 10
-16.0
 20
35.5
 30
0.0
 11
-6.0
 21
35.5
 31
0.0
  0
LINE
  5
405
100
AcDbEntity
  8
0
  6
CONTINUOUS
 62
               7
100
AcDbLine
 10
-6.0
 20
24.5
 30
0.0
 11
-6.0
 21
35.5
 31
0.0
  0
LINE
  5
406
100
AcDbEntity
  8
0
  6
CONTINUOUS
 62
               7
100
AcDbLine
 10
-16.0
 20
24.5
 30
0.0
 11
-16.0
 21
35.5
 31
0.0
  0
ARC
  5
407
100
AcDbEntity
  8
0
  6
CONTINUOUS
 62
               7
100
AcDbCircle
 10
-15.409446031890923
 20
6.2682512686530458
 30
0.0
 40
0.6105564724372722
100
AcDbArc
 50
179.83589550320582
 51
253.77907243150949
  0
LINE
  5
408
100
AcDbEntity
  8
0
  6
CONTINUOUS
 62
               7
100
AcDbLine
 10
-6.1999999999999886
 20
5.0
 30
0.0
 11
-15.800000000000011
 21
5.0
 31
0.0
  0
LINE
  5
409
100
AcDbEntity
  8
0
  6
CONTINUOUS
 62
               7
100
AcDbLine
 10
-16.019999999999982
 20
6.7999999999999545
 30
0.0
 11
-12.5
 21
6.7999999999999545
 31
0.0
  0
ARC
  5
40A
100
AcDbEntity
  8
0
  6
CONTINUOUS
 62
               7
100
AcDbCircle
 10
-15.70089513685889
 20
7.0991048631410649
 30
0.0
 40
0.2991062025847394
100
AcDbArc
 50
179.82853033398985
 51
270.17146966600922
  0
ARC
  5
40B
100
AcDbEntity
  8
0
  6
CONTINUOUS
 62
               7
100
AcDbCircle
 10
-15.800000000000011
 20
5.1999999999999886
 30
0.0
 40
0.2
100
AcDbArc
 50
179.99999999999963
 51
269.99999999999937
  0
LINE
  5
40C
100
AcDbEntity
  8
0
  6
CONTINUOUS
 62
               7
100
AcDbLine
 10
-12.5
 20
5.0
 30
0.0
 11
-12.5
 21
6.7999999999999545
 31
0.0
  0
ARC
  5
40D
100
AcDbEntity
  8
0
  6
CONTINUOUS
 62
               7
100
AcDbCircle
 10
-14.300000000000011
 20
10.087421236733917
 30
0.0
 40
4.5876068132596712
100
AcDbArc
 50
253.79871892415684
 51
286.20128107584191
  0
ARC
  5
40E
100
AcDbEntity
  8
0
  6
CONTINUOUS
 62
               7
100
AcDbCircle
 10
-13.191771995833903
 20
6.2691627179709712
 30
0.0
 40
0.6117725687931934
100
AcDbArc
 50
286.30661609184898
 51
0.0784159734340139
  0
LINE
  5
40F
100
AcDbEntity
  8
0
  6
CONTINUOUS
 62
               7
100
AcDbLine
 10
-12.579999999999984
 20
6.2699999999999818
 30
0.0
 11
-12.579999999999984
 21
6.7999999999999545
 31
0.0
  0
LINE
  5
410
100
AcDbEntity
  8
0
  6
CONTINUOUS
 62
               7
100
AcDbLine
 10
-16.0
 20
5.1999999999999886
 30
0.0
 11
-16.0
 21
6.1132505693459507
 31
0.0
  0
LINE
  5
411
100
AcDbEntity
  8
0
  6
CONTINUOUS
 62
               7
100
AcDbLine
 10
-16.019999999999982
 20
6.2699999999999818
 30
0.0
 11
-16.019999999999982
 21
6.7999999999999545
 31
0.0
  0
ARC
  5
412
100
AcDbEntity
  8
0
  6
CONTINUOUS
 62
               7
100
AcDbCircle
 10
-6.1999999999999886
 20
5.1999999999999886
 30
0.0
 40
0.2
100
AcDbArc
 50
269.99999999999937
 51
0.0
  0
LINE
  5
413
100
AcDbEntity
  8
0
  6
CENTER
 62
               2
100
AcDbLine
 10
-17.199999999999989
 20
14.299999999999983
 30
0.0
 11
-12.199999999999989
 21
14.299999999999983
 31
0.0
  0
LINE
  5
414
100
AcDbEntity
  8
0
  6
CENTER
 62
               2
100
AcDbLine
 10
-9.7999999999999545
 20
20.199999999999989
 30
0.0
 11
-4.7999999999999545
 21
20.199999999999989
 31
0.0
  0
LINE
  5
415
100
AcDbEntity
  8
0
  6
CENTER
 62
               2
100
AcDbLine
 10
-14.699999999999989
 20
11.799999999999983
 30
0.0
 11
-14.699999999999989
 21
16.799999999999983
 31
0.0
  0
LINE
  5
416
100
AcDbEntity
  8
0
  6
CENTER
 62
               2
100
AcDbLine
 10
-7.2999999999999545
 20
17.699999999999989
 30
0.0
 11
-7.2999999999999545
 21
22.699999999999989
 31
0.0
  0
LINE
  5
417
100
AcDbEntity
  8
0
  6
CONTINUOUS
 62
               7
100
AcDbLine
 10
-16.0
 20
24.5
 30
0.0
 11
-6.0
 21
24.5
 31
0.0
  0
LINE
  5
418
100
AcDbEntity
  8
0
  6
CONTINUOUS
 62
               7
100
AcDbLine
 10
-16.0
 20
6.7999999999999545
 30
0.0
 11
-16.0
 21
24.500000000494481
 31
0.0
  0
LINE
  5
419
100
AcDbEntity
  8
0
  6
CONTINUOUS
 62
               7
100
AcDbLine
 10
-6.0
 20
5.1999999999999886
 30
0.0
 11
-6.0
 21
24.5
 31
0.0
  0
LINE
  5
41A
100
AcDbEntity
  8
0
  6
CONTINUOUS
 62
               7
100
AcDbLine
 10
-6.0000000063824359
 20
10.0
 30
0.0
 11
-16.000000006382436
 21
10.0
 31
0.0
  0
LINE
  5
41B
100
AcDbEntity
  8
0
  6
CENTER
 62
               2
100
AcDbLine
 10
-12.5
 20
28.299999999999983
 30
0.0
 11
-9.5
 21
28.299999999999983
 31
0.0
  0
CIRCLE
  5
41C
100
AcDbEntity
  8
0
  6
CONTINUOUS
 62
               7
100
AcDbCircle
 10
-11.0
 20
28.299999999999983
 30
0.0
 40
0.9
  0
LINE
  5
41D
100
AcDbEntity
  8
0
  6
CONTINUOUS
 62
               4
100
AcDbLine
 10
-6.0
 20
58.0
 30
0.0
 11
-6.0
 21
35.5
 31
0.0
  0
LINE
  5
41E
100
AcDbEntity
  8
0
  6
CONTINUOUS
 62
               4
100
AcDbLine
 10
-9.2000000000000455
 20
57.899999999999977
 30
0.0
 11
-15.5
 21
57.899999999999977
 31
0.0
  0
LINE
  5
41F
100
AcDbEntity
  8
0
  6
CONTINUOUS
 62
               4
100
AcDbLine
 10
-6.0
 20
58.0
 30
0.0
 11
-16.0
 21
58.0
 31
0.0
  0
LINE
  5
420
100
AcDbEntity
  8
0
  6
CONTINUOUS
 62
               4
100
AcDbLine
 10
-6.0
 20
56.399999999999977
 30
0.0
 11
-9.2000000000000455
 21
56.399999999999977
 31
0.0
  0
LINE
  5
421
100
AcDbEntity
  8
0
  6
CONTINUOUS
 62
               4
100
AcDbLine
 10
-6.0
 20
57.399999999999977
 30
0.0
 11
-9.2000000000000455
 21
57.399999999999977
 31
0.0
  0
LINE
  5
422
100
AcDbEntity
  8
0
  6
CONTINUOUS
 62
               4
100
AcDbLine
 10
-9.2000000000000455
 20
57.899999999999977
 30
0.0
 11
-9.2000000000000455
 21
56.399999999999977
 31
0.0
  0
ARC
  5
423
100
AcDbEntity
  8
0
  6
CONTINUOUS
 62
               4
100
AcDbCircle
 10
-8.5970880052370831
 20
57.401088005237
 30
0.0
 40
0.5989129830170392
100
AcDbArc
 50
89.895914524772735
 51
180.10408547522667
  0
ARC
  5
424
100
AcDbEntity
  8
0
  6
CONTINUOUS
 62
               4
100
AcDbCircle
 10
-6.795904853341824
 20
57.400095146658174
 30
0.0
 40
0.5999048608870732
100
AcDbArc
 50
359.99091272245295
 51
90.009087277546172
  0
LINE
  5
425
100
AcDbEntity
  8
0
  6
CONTINUOUS
 62
               4
100
AcDbLine
 10
-16.0
 20
58.0
 30
0.0
 11
-16.0
 21
35.5
 31
0.0
  0
ARC
  5
426
100
AcDbEntity
  8
0
  6
CONTINUOUS
 62
               4
100
AcDbCircle
 10
-15.5
 20
57.399999999999977
 30
0.0
 40
0.5
100
AcDbArc
 50
89.999999999999815
 51
179.99999999999963
  0
ENDBLK
  5
427
100
AcDbEntity
  8
0
100
AcDbBlockEnd
  0
ENDSEC
  0
SECTION
  2
ENTITIES
  0
INSERT
  5
428
100
AcDbEntity
  8
0
  6
ByBlock
100
AcDbBlockReference
  2
EB10F1-4
 10
210.9825352914678
 20
27.380349670046627
 30
0.0
  0
INSERT
  5
429
100
AcDbEntity
  8
0
  6
ByBlock
100
AcDbBlockReference
  2
EB10F1-5
 10
133.18253529146779
 20
27.380349670046598
 30
0.0
 50
359.99999979016627
  0
INSERT
  5
42A
100
AcDbEntity
  8
0
  6
ByBlock
100
AcDbBlockReference
  2
EB10F1-6
 10
63.182535291467786
 20
27.380349670046598
 30
0.0
  0
INSERT
  5
42B
100
AcDbEntity
  8
0
  6
ByBlock
100
AcDbBlockReference
  2
EB10F1-7
 10
78.224926757812497
 20
-146.91965032995333
 30
0.0
  0
INSERT
  5
42C
100
AcDbEntity
  8
0
  6
ByBlock
100
AcDbBlockReference
  2
EB10F1-8
 10
0.4249267578125
 20
-146.91965032995333
 30
0.0
 50
359.99999979016627
  0
INSERT
  5
42D
100
AcDbEntity
  8
0
  6
ByBlock
100
AcDbBlockReference
  2
EB10F1-9
 10
-69.5750732421875
 20
-146.91965032995338
 30
0.0
  0
INSERT
  5
42E
100
AcDbEntity
  8
0
  6
ByBlock
100
AcDbBlockReference
  2
EB10F1-1
 10
-70.692391466344716
 20
27.380349670046627
 30
0.0
  0
INSERT
  5
42F
100
AcDbEntity
  8
0
  6
ByBlock
100
AcDbBlockReference
  2
EB10F1-2
 10
-148.49239146634471
 20
27.380349670046627
 30
0.0
  0
INSERT
  5
430
100
AcDbEntity
  8
0
  6
ByBlock
100
AcDbBlockReference
  2
EB10F1-3
 10
-218.49239146634471
 20
27.380349670046598
 30
0.0
  0
LINE
  5
431
100
AcDbEntity
  8
0
  6
CONTINUOUS
 62
               7
100
AcDbLine
 10
-281.25
 20
-195.0
 30
0.0
 11
282.099853515625
 21
-195.0
 31
0.0
  0
LINE
  5
432
100
AcDbEntity
  8
0
  6
CONTINUOUS
 62
               7
100
AcDbLine
 10
-281.25
 20
195.5
 30
0.0
 11
-281.25
 21
-195.0
 31
0.0
  0
LINE
  5
433
100
AcDbEntity
  8
0
  6
CONTINUOUS
 62
               7
100
AcDbLine
 10
-281.25
 20
195.5
 30
0.0
 11
282.099853515625
 21
195.5
 31
0.0
  0
LINE
  5
434
100
AcDbEntity
  8
0
  6
CONTINUOUS
 62
               7
100
AcDbLine
 10
282.099853515625
 20
195.5
 30
0.0
 11
282.099853515625
 21
-195.0
 31
0.0
  0
LINE
  5
435
100
AcDbEntity
  8
0
  6
CONTINUOUS
 62
               7
100
AcDbLine
 10
162.0999755859375
 20
195.5
 30
0.0
 11
162.0999755859375
 21
175.5
 31
0.0
  0
LINE
  5
436
100
AcDbEntity
  8
0
  6
CONTINUOUS
 62
               7
100
AcDbLine
 10
162.0999755859375
 20
175.5
 30
0.0
 11
282.099853515625
 21
175.5
 31
0.0
  0
MTEXT
  5
437
100
AcDbEntity
  8
0
  6
CONTINUOUS
 62
               7
100
AcDbMText
 10
198.27702406779611
 20
185.5
 30
0.0
 40
6.3000001907348633
 41
0.0
 71
               4
 72
               1
  1
\W1.311;\A1;Ver. 1.0
  0
MTEXT
  5
438
100
AcDbEntity
  8
0
  6
CONTINUOUS
 62
               7
100
AcDbMText
 10
170.28099805280428
 20
-185.0
 30
0.0
 40
9.0
 41
0.0
 71
               4
 72
               1
  1
\W1.121;\A1;KOGANEI CORP.
  0
LINE
  5
439
100
AcDbEntity
  8
0
  6
CONTINUOUS
 62
               7
100
AcDbLine
 10
162.0999755859375
 20
-175.0
 30
0.0
 11
282.099853515625
 21
-175.0
 31
0.0
  0
LINE
  5
43A
100
AcDbEntity
  8
0
  6
CONTINUOUS
 62
               7
100
AcDbLine
 10
162.0999755859375
 20
-175.0
 30
0.0
 11
162.0999755859375
 21
-195.0
 31
0.0
  0
LINE
  5
43B
100
AcDbEntity
  8
0
  6
CONTINUOUS
 62
               7
100
AcDbLine
 10
-161.25
 20
195.5
 30
0.0
 11
-161.25
 21
175.5
 31
0.0
  0
LINE
  5
43C
100
AcDbEntity
  8
0
  6
CONTINUOUS
 62
               7
100
AcDbLine
 10
-281.25
 20
175.5
 30
0.0
 11
-161.25
 21
175.5
 31
0.0
  0
MTEXT
  5
43D
100
AcDbEntity
  8
0
  6
CONTINUOUS
 62
               7
100
AcDbMText
 10
-257.88333446177035
 20
185.5
 30
0.0
 40
6.3000001907348633
 41
0.0
 71
               4
 72
               1
  1
\W1.111;\A1;EA･EB SERIES
  0
LINE
  5
43E
100
AcDbEntity
  8
0
  6
CONTINUOUS
 62
               7
100
AcDbLine
 10
-281.25
 20
-38.799999999999983
 30
0.0
 11
282.099853515625
 21
-38.799999999999983
 31
0.0
  0
LINE
  5
43F
100
AcDbEntity
  8
0
  6
CONTINUOUS
 62
               7
100
AcDbLine
 10
0.4249267578125
 20
-38.799999999999983
 30
0.0
 11
0.4249267578125
 21
195.5
 31
0.0
  0
MTEXT
  5
440
100
AcDbEntity
  8
0
  6
CONTINUOUS
 62
               7
100
AcDbMText
 10
-230.43333226831936
 20
130.5
 30
0.0
 40
6.3000001907348633
 41
0.0
 71
               4
 72
               1
  1
\W1.111;\A1;EB10(L)F4-21-PL
  0
MTEXT
  5
441
100
AcDbEntity
  8
0
  6
CONTINUOUS
 62
               7
100
AcDbMText
 10
-230.43333226831936
 20
140.5
 30
0.0
 40
6.3000001907348633
 41
0.0
 71
               4
 72
               1
  1
\W1.111;\A1;EB10(L)F3-21-PL
  0
MTEXT
  5
442
100
AcDbEntity
  8
0
  6
CONTINUOUS
 62
               7
100
AcDbMText
 10
-230.43333226831936
 20
150.5
 30
0.0
 40
6.3000001907348633
 41
0.0
 71
               4
 72
               1
  1
\W1.111;\A1;EB10(L)F2-21-PL
  0
MTEXT
  5
443
100
AcDbEntity
  8
0
  6
CONTINUOUS
 62
               7
100
AcDbMText
 10
-268.20810818116126
 20
160.5
 30
0.0
 40
6.3000001907348633
 41
0.0
 71
               4
 72
               1
  1
\W1.135;\A1;MODEL:EB10(L)F1-21-PL
  0
MTEXT
  5
444
100
AcDbEntity
  8
0
  6
CONTINUOUS
 62
               7
100
AcDbMText
 10
51.241594489493124
 20
130.5
 30
0.0
 40
6.3000001907348633
 41
0.0
 71
               4
 72
               1
  1
\W1.111;\A1;EB10(L)F4-21-PS
  0
MTEXT
  5
445
100
AcDbEntity
  8
0
  6
CONTINUOUS
 62
               7
100
AcDbMText
 10
51.241594489493124
 20
140.5
 30
0.0
 40
6.3000001907348633
 41
0.0
 71
               4
 72
               1
  1
\W1.111;\A1;EB10(L)F3-21-PS
  0
MTEXT
  5
446
100
AcDbEntity
  8
0
  6
CONTINUOUS
 62
               7
100
AcDbMText
 10
51.241594489493124
 20
150.5
 30
0.0
 40
6.3000001907348633
 41
0.0
 71
               4
 72
               1
  1
\W1.111;\A1;EB10(L)F2-21-PS
  0
MTEXT
  5
447
100
AcDbEntity
  8
0
  6
CONTINUOUS
 62
               7
100
AcDbMText
 10
13.466818576651233
 20
160.5
 30
0.0
 40
6.3000001907348633
 41
0.0
 71
               4
 72
               1
  1
\W1.135;\A1;MODEL:EB10(L)F1-21-PS
  0
MTEXT
  5
448
100
AcDbEntity
  8
0
  6
CONTINUOUS
 62
               7
100
AcDbMText
 10
-230.47164072094353
 20
-83.799999999999983
 30
0.0
 40
6.3000001907348633
 41
0.0
 71
               4
 72
               1
  1
\W1.075;\A1;EB10F4-21-GL
  0
MTEXT
  5
449
100
AcDbEntity
  8
0
  6
CONTINUOUS
 62
               7
100
AcDbMText
 10
-230.47164072094353
 20
-73.799999999999983
 30
0.0
 40
6.3000001907348633
 41
0.0
 71
               4
 72
               1
  1
\W1.075;\A1;EB10F3-21-GL
  0
MTEXT
  5
44A
100
AcDbEntity
  8
0
  6
CONTINUOUS
 62
               7
100
AcDbMText
 10
-230.47164072094353
 20
-63.799999999999983
 30
0.0
 40
6.3000001907348633
 41
0.0
 71
               4
 72
               1
  1
\W1.075;\A1;EB10F2-21-GL
  0
MTEXT
  5
44B
100
AcDbEntity
  8
0
  6
CONTINUOUS
 62
               7
100
AcDbMText
 10
-268.23092953013872
 20
-53.799999999999983
 30
0.0
 40
6.3000001907348633
 41
0.0
 71
               4
 72
               1
  1
\W1.113;\A1;MODEL:EB10F1-21-GL
  0
ENDSEC
  0
SECTION
  2
OBJECTS
  0
DICTIONARY
  5
19
100
AcDbDictionary
  3
ACAD_GROUP
350
1A
  3
ACAD_MLINESTYLE
350
1B
  0
DICTIONARY
  5
1A
102
{ACAD_REACTORS
330
19
102
}
100
AcDbDictionary
  0
DICTIONARY
  5
1B
102
{ACAD_REACTORS
330
19
102
}
100
AcDbDictionary
  3
STANDARD
350
1C
  0
MLINESTYLE
  5
1C
102
{ACAD_REACTORS
330
1B
102
}
100
AcDbMlineStyle
  2
Standard
 70
               0
  3

 62
               0
 51
90.0
 52
90.0
 71
               2
 49
0.5
 62
             256
  6
ByLayer
 49
-0.5
 62
             256
  6
ByLayer
  0
ENDSEC
  0
EOF
