  0
SECTION
  2
HEADER
  9
$ACADVER
  1
AC1012
  9
$DWGCODEPAGE
  3
dos932
  9
$INSBASE
 10
0.0
 20
0.0
 30
0.0
  9
$EXTMIN
 10
-194.25
 20
-133.5
 30
0.0
  9
$EXTMAX
 10
196.2723600854633
 20
132.60000610351562
 30
0.0
  9
$LIMMIN
 10
-194.25
 20
-133.5
  9
$LIMMAX
 10
196.2723600854633
 20
132.60000610351562
  9
$ORTHOMODE
 70
               0
  9
$REGENMODE
 70
               1
  9
$FILLMODE
 70
               1
  9
$QTEXTMODE
 70
               0
  9
$MIRRTEXT
 70
               1
  9
$DRAGMODE
 70
               2
  9
$LTSCALE
 40
1.0
  9
$OSMODE
 70
               0
  9
$ATTMODE
 70
               1
  9
$TEXTSIZE
 40
3.2000000476837158
  9
$TRACEWID
 40
0.05
  9
$TEXTSTYLE
  7
MX_NOTE_STANDARD
  9
$CLAYER
  8
0
  9
$CELTYPE
  6
CONTINUOUS
  9
$CECOLOR
 62
             256
  9
$CELTSCALE
 40
1.0
  9
$DELOBJ
 70
               1
  9
$DISPSILH
 70
               0
  9
$DIMSCALE
 40
1.0
  9
$DIMASZ
 40
2.5
  9
$DIMEXO
 40
1.5
  9
$DIMDLI
 40
3.75
  9
$DIMRND
 40
0.0
  9
$DIMDLE
 40
0.0
  9
$DIMEXE
 40
1.5
  9
$DIMTP
 40
0.0
  9
$DIMTM
 40
0.0
  9
$DIMTXT
 40
3.2000000476837158
  9
$DIMCEN
 40
2.5
  9
$DIMTSZ
 40
0.0
  9
$DIMTOL
 70
               0
  9
$DIMLIM
 70
               0
  9
$DIMTIH
 70
               0
  9
$DIMTOH
 70
               0
  9
$DIMSE1
 70
               0
  9
$DIMSE2
 70
               0
  9
$DIMTAD
 70
               1
  9
$DIMZIN
 70
               8
  9
$DIMBLK
  1

  9
$DIMASO
 70
               1
  9
$DIMSHO
 70
               1
  9
$DIMPOST
  1

  9
$DIMAPOST
  1

  9
$DIMALT
 70
               0
  9
$DIMALTD
 70
               4
  9
$DIMALTF
 40
0.03937007874016
  9
$DIMLFAC
 40
1.0
  9
$DIMTOFL
 70
               1
  9
$DIMTVP
 40
0.0
  9
$DIMTIX
 70
               0
  9
$DIMSOXD
 70
               0
  9
$DIMSAH
 70
               0
  9
$DIMBLK1
  1

  9
$DIMBLK2
  1

  9
$DIMSTYLE
  2
MXDIMSTYLE
  9
$DIMCLRD
 70
               0
  9
$DIMCLRE
 70
               0
  9
$DIMCLRT
 70
               0
  9
$DIMTFAC
 40
1.0
  9
$DIMGAP
 40
1.0
  9
$DIMJUST
 70
               0
  9
$DIMSD1
 70
               0
  9
$DIMSD2
 70
               0
  9
$DIMTOLJ
 70
               1
  9
$DIMTZIN
 70
               0
  9
$DIMALTZ
 70
               0
  9
$DIMALTTZ
 70
               0
  9
$DIMFIT
 70
               3
  9
$DIMUPT
 70
               1
  9
$DIMUNIT
 70
               2
  9
$DIMDEC
 70
               4
  9
$DIMTDEC
 70
               4
  9
$DIMALTU
 70
               2
  9
$DIMALTTD
 70
               4
  9
$DIMTXSTY
  7
MX_NOTE_STANDARD
  9
$DIMAUNIT
 70
               0
  9
$LUNITS
 70
               2
  9
$LUPREC
 70
               4
  9
$SKETCHINC
 40
0.1
  9
$FILLETRAD
 40
0.0
  9
$AUNITS
 70
               0
  9
$AUPREC
 70
               0
  9
$MENU
  1
acad
  9
$ELEVATION
 40
0.0
  9
$PELEVATION
 40
0.0
  9
$THICKNESS
 40
0.0
  9
$LIMCHECK
 70
               0
  9
$BLIPMODE
 70
               1
  9
$CHAMFERA
 40
0.0
  9
$CHAMFERB
 40
0.0
  9
$CHAMFERC
 40
0.0
  9
$CHAMFERD
 40
0.0
  9
$SKPOLY
 70
               0
  9
$TDCREATE
 40
2453378.356319444
  9
$TDUPDATE
 40
2453378.356319444
  9
$TDINDWG
 40
0.0000000000
  9
$TDUSRTIMER
 40
0.0000000000
  9
$USRTIMER
 70
               1
  9
$ANGBASE
 50
0.0
  9
$ANGDIR
 70
               0
  9
$PDMODE
 70
               0
  9
$PDSIZE
 40
0.0
  9
$PLINEWID
 40
0.0
  9
$COORDS
 70
               1
  9
$SPLFRAME
 70
               0
  9
$SPLINETYPE
 70
               6
  9
$SPLINESEGS
 70
               8
  9
$ATTDIA
 70
               0
  9
$ATTREQ
 70
               1
  9
$HANDLING
 70
               1
  9
$HANDSEED
  5
303
  9
$SURFTAB1
 70
               6
  9
$SURFTAB2
 70
               6
  9
$SURFTYPE
 70
               6
  9
$SURFU
 70
               6
  9
$SURFV
 70
               6
  9
$UCSNAME
  2

  9
$UCSORG
 10
0.0
 20
0.0
 30
0.0
  9
$UCSXDIR
 10
1.0
 20
0.0
 30
0.0
  9
$UCSYDIR
 10
0.0
 20
1.0
 30
0.0
  9
$PUCSNAME
  2

  9
$PUCSORG
 10
0.0
 20
0.0
 30
0.0
  9
$PUCSXDIR
 10
1.0
 20
0.0
 30
0.0
  9
$PUCSYDIR
 10
0.0
 20
1.0
 30
0.0
  9
$USERI1
 70
               0
  9
$USERI2
 70
               0
  9
$USERI3
 70
               0
  9
$USERI4
 70
               0
  9
$USERI5
 70
               0
  9
$USERR1
 40
0.0
  9
$USERR2
 40
0.0
  9
$USERR3
 40
0.0
  9
$USERR4
 40
0.0
  9
$USERR5
 40
0.0
  9
$WORLDVIEW
 70
               1
  9
$SHADEDGE
 70
               3
  9
$SHADEDIF
 70
              70
  9
$TILEMODE
 70
               1
  9
$MAXACTVP
 70
              16
  9
$PINSBASE
 10
0.0
 20
0.0
 30
0.0
  9
$PLIMCHECK
 70
               0
  9
$PEXTMIN
 10
1.0000000000000000E+20
 20
1.0000000000000000E+20
 30
1.0000000000000000E+20
  9
$PEXTMAX
 10
-1.0000000000000000E+20
 20
-1.0000000000000000E+20
 30
-1.0000000000000000E+20
  9
$PLIMMIN
 10
0.0
 20
0.0
  9
$PLIMMAX
 10
12.0
 20
9.0
  9
$UNITMODE
 70
               0
  9
$VISRETAIN
 70
               0
  9
$PLINEGEN
 70
               1
  9
$PSLTSCALE
 70
               0
  9
$TREEDEPTH
 70
            3020
  9
$PICKSTYLE
 70
               1
  9
$CMLSTYLE
  2
Standard
  9
$CMLJUST
 70
               0
  9
$CMLSCALE
 40
1.0
  9
$SAVEIMAGES
 70
               0
  0
ENDSEC
  0
SECTION
  2
CLASSES
  0
CLASS
  1
LWPOLYLINE
  2
AcDbPolyline
  3
"AutoCAD"
 90
        0
280
               0
281
               1
  0
CLASS
  1
IMAGE
  2
AcDbRasterImage
  3
ISM
 90
      127
280
               0
281
               1
  0
CLASS
  1
OLE2FRAME
  2
AcDbOle2Frame
  3
""
 90
        0
280
               0
281
               1
  0
CLASS
  1
HATCH
  2
AcDbHatch
  3
"ACAD_SEDONA"
 90
        0
280
               0
281
               1
  0
CLASS
  1
DICTIONARYVAR
  2
AcDbDictionaryVar
  3
"AutoCAD"
 90
        0
280
               0
281
               0
  0
CLASS
  1
RASTERVARIABLES
  2
AcDbRasterVariables
  3
ISM
 90
        0
280
               0
281
               0
  0
CLASS
  1
IMAGEDEF
  2
AcDbRasterImageDef
  3
ISM
 90
        0
280
               0
281
               0
  0
CLASS
  1
IMAGEDEF_REACTOR
  2
AcDbRasterImageDefReactor
  3
ISM
 90
        1
280
               0
281
               0
  0
CLASS
  1
IDBUFFER
  2
AcDbIdBuffer
  3
"Acad"
 90
        0
280
               0
281
               0
  0
CLASS
  1
SPATIAL_FILTER
  2
AcDbSpatialFilter
  3
"Acad"
 90
        0
280
               0
281
               0
  0
CLASS
  1
XRECORD
  2
AcDbXrecord
  3
"<Built In>"
 90
        0
280
               0
281
               0
  0
CLASS
  1
SORTENTSTABLE
  2
AcDbSortentsTable
  3
"AutoCAD"
 90
        0
280
               0
281
               0
  0
CLASS
  1
LAYER_INDEX
  2
AcDbLayerIndex
  3
"Acad"
 90
        0
280
               0
281
               0
  0
CLASS
  1
SPATIAL_INDEX
  2
AcDbSpatialIndex
  3
"Acad"
 90
        0
280
               0
281
               0
  0
CLASS
  1
OBJECT_PTR
  2
CAseDLPNTableRecord
  3
"ASE-LPNTableRecord"
 90
        1
280
               0
281
               0
  0
CLASS
  1
LAYOUT
  2
AcDbLayout
  3
"AutoCAD 2000"
 90
        1
280
               0
281
               0
  0
CLASS
  1
PLOTSETTINGS
  2
AcDbPlotSettings
  3
"AutoCAD 2000"
 90
        1
280
               0
281
               0
  0
CLASS
  1
ACDBDICTIONARYWDFLT
  2
AcDbDictionaryWithDefault
  3
"AutoCAD 2000"
 90
        1
280
               0
281
               0
  0
CLASS
  1
ACDBPLACEHOLDER
  2
AcDbPlaceHolder
  3
"AutoCAD 2000"
 90
        1
280
               0
281
               0
  0
ENDSEC
  0
SECTION
  2
TABLES
  0
TABLE
  2
VPORT
  5
7
100
AcDbSymbolTable
 70
               1
  0
VPORT
  5
15
100
AcDbSymbolTableRecord
100
AcDbViewportTableRecord
  2
*ACTIVE
 70
               0
 10
0.0
 20
0.0
 11
1.0
 21
1.0
 12
1.0111800427316666
 22
-0.4499969482421875
 13
0.0
 23
0.0
 14
1.0
 24
1.0
 15
0.0
 25
0.0
 16
0.0
 26
0.0
 36
1.0
 17
0.0
 27
0.0
 37
0.0
 40
268.76100616455079
 41
1.7320508075688772
 42
50.0
 43
0.0
 44
0.0
 50
0.0
 51
0.0
 71
               0
 72
             100
 73
               1
 74
               1
 75
               0
 76
               0
 77
               0
 78
               0
  0
ENDTAB
  0
TABLE
  2
LTYPE
  5
4
100
AcDbSymbolTable
 70
               5
  0
LTYPE
  5
11
100
AcDbSymbolTableRecord
100
AcDbLinetypeTableRecord
  2
BYBLOCK
 70
              64
  3

 72
              65
 73
               0
 40
0.0
  0
LTYPE
  5
12
100
AcDbSymbolTableRecord
100
AcDbLinetypeTableRecord
  2
BYLAYER
 70
              64
  3

 72
              65
 73
               0
 40
0.0
  0
LTYPE
  5
13
100
AcDbSymbolTableRecord
100
AcDbLinetypeTableRecord
  2
CONTINUOUS
 70
              64
  3
Solid line
 72
              65
 73
               0
 40
0.0
  0
LTYPE
  5
30
100
AcDbSymbolTableRecord
100
AcDbLinetypeTableRecord
  2
CENTER
 70
              64
  3
Center ____ _ ____ _ ____ _ ____ _ ____ _ ____
 72
              65
 73
               4
 40
26.0
 49
20.0
 74
               0
 49
-2.0
 74
               0
 49
2.0
 74
               0
 49
-2.0
 74
               0
  0
LTYPE
  5
7C
100
AcDbSymbolTableRecord
100
AcDbLinetypeTableRecord
  2
PHANTOM
 70
              64
  3
Phantom ______  __  __  ______  __  __  ______
 72
              65
 73
               6
 40
30.0
 49
20.0
 74
               0
 49
-2.0
 74
               0
 49
2.0
 74
               0
 49
-2.0
 74
               0
 49
2.0
 74
               0
 49
-2.0
 74
               0
  0
ENDTAB
  0
TABLE
  2
LAYER
  5
2
100
AcDbSymbolTable
 70
               2
  0
LAYER
  5
14
100
AcDbSymbolTableRecord
100
AcDbLayerTableRecord
  2
0
 70
               0
 62
               7
  6
CONTINUOUS
  0
LAYER
  5
1D
100
AcDbSymbolTableRecord
100
AcDbLayerTableRecord
  2
DEFPOINTS
 70
               0
 62
               7
  6
CONTINUOUS
  0
ENDTAB
  0
TABLE
  2
STYLE
  5
3
100
AcDbSymbolTable
 70
               1
  0
STYLE
  5
17
100
AcDbSymbolTableRecord
100
AcDbTextStyleTableRecord
  2
MX_NOTE_STANDARD
 70
               0
 40
0.0
 41
1.0
 50
0.0
 71
               0
 42
3.2000000476837158
  3
txt.shx
  4
extfont.shx
  0
ENDTAB
  0
TABLE
  2
VIEW
  5
5
100
AcDbSymbolTable
 70
               0
  0
ENDTAB
  0
TABLE
  2
UCS
  5
6
100
AcDbSymbolTable
 70
               0
  0
ENDTAB
  0
TABLE
  2
APPID
  5
8
100
AcDbSymbolTable
 70
               1
  0
APPID
  5
16
100
AcDbSymbolTableRecord
100
AcDbRegAppTableRecord
  2
ACAD
 70
               0
  0
ENDTAB
  0
TABLE
  2
DIMSTYLE
  5
9
100
AcDbSymbolTable
 70
               1
  0
DIMSTYLE
105
18
100
AcDbSymbolTableRecord
100
AcDbDimStyleTableRecord
  2
MXDIMSTYLE
 70
               0
  3

  4

  5

  6

  7

 40
1.0
 41
2.5
 42
1.5
 43
3.75
 44
1.5
 45
0.0
 46
0.0
 47
0.0
 48
0.0
 71
               0
 72
               0
 73
               0
 74
               0
 75
               0
 76
               0
 77
               1
 78
               8
140
3.2000000476837158
141
2.5
142
0.0
143
0.03937007874016
144
1.0
145
0.0
146
1.0
147
1.0
170
               0
171
               4
172
               1
173
               0
174
               0
175
               0
176
               0
177
               0
178
               0
270
               2
271
               4
272
               4
273
               2
274
               4
275
               0
280
               0
281
               0
282
               0
283
               1
284
               0
285
               0
286
               0
287
               3
288
               1
340
17
  0
ENDTAB
  0
TABLE
  2
BLOCK_RECORD
  5
1
100
AcDbSymbolTable
 70
               7
  0
BLOCK_RECORD
  5
A
100
AcDbSymbolTableRecord
100
AcDbBlockTableRecord
  2
*MODEL_SPACE
  0
BLOCK_RECORD
  5
B
100
AcDbSymbolTableRecord
100
AcDbBlockTableRecord
  2
*PAPER_SPACE
  0
BLOCK_RECORD
  5
1E
100
AcDbSymbolTableRecord
100
AcDbBlockTableRecord
  2
EA10SA5-1
  0
BLOCK_RECORD
  5
1F
100
AcDbSymbolTableRecord
100
AcDbBlockTableRecord
  2
EA10SA5-2
  0
BLOCK_RECORD
  5
20
100
AcDbSymbolTableRecord
100
AcDbBlockTableRecord
  2
EA10SA5-3
  0
BLOCK_RECORD
  5
21
100
AcDbSymbolTableRecord
100
AcDbBlockTableRecord
  2
EA10SA5-4
  0
BLOCK_RECORD
  5
22
100
AcDbSymbolTableRecord
100
AcDbBlockTableRecord
  2
EA10SA5-5
  0
BLOCK_RECORD
  5
23
100
AcDbSymbolTableRecord
100
AcDbBlockTableRecord
  2
EA10SA5-6
  0
BLOCK_RECORD
  5
2F6
100
AcDbSymbolTableRecord
100
AcDbBlockTableRecord
  2
_OPEN30
  0
ENDTAB
  0
ENDSEC
  0
SECTION
  2
BLOCKS
  0
BLOCK
  5
D
100
AcDbEntity
  8
0
100
AcDbBlockBegin
  2
*MODEL_SPACE
 70
               0
 10
0.0
 20
0.0
 30
0.0
  3
*MODEL_SPACE
  1

  0
ENDBLK
  5
E
100
AcDbEntity
  8
0
100
AcDbBlockEnd
  0
BLOCK
  5
F
100
AcDbEntity
 67
               1
  8
0
100
AcDbBlockBegin
  2
*PAPER_SPACE
 70
               0
 10
0.0
 20
0.0
 30
0.0
  3
*PAPER_SPACE
  1

  0
ENDBLK
  5
10
100
AcDbEntity
 67
               1
  8
0
100
AcDbBlockEnd
  0
BLOCK
  5
24
100
AcDbEntity
  8
0
100
AcDbBlockBegin
  2
EA10SA5-1
 70
               0
 10
0.0
 20
0.0
 30
0.0
  3
EA10SA5-1
  1

  0
LINE
  5
25
100
AcDbEntity
  8
0
  6
CONTINUOUS
 62
               7
100
AcDbLine
 10
-11.390998569384834
 20
2.0
 30
0.0
 11
-11.390998569384834
 21
6.0
 31
0.0
  0
LINE
  5
26
100
AcDbEntity
  8
0
  6
CONTINUOUS
 62
               7
100
AcDbLine
 10
-5.2090014306151602
 20
2.0
 30
0.0
 11
-5.2090014306151602
 21
6.0
 31
0.0
  0
ARC
  5
27
100
AcDbEntity
  8
0
  6
CONTINUOUS
 62
               7
100
AcDbCircle
 10
-8.2999999999999972
 20
2.0
 30
0.0
 40
3.090998569384837
100
AcDbArc
 50
179.99999999999963
 51
0.0
  0
LINE
  5
28
100
AcDbEntity
  8
0
  6
CONTINUOUS
 62
               7
100
AcDbLine
 10
-13.299999999999997
 20
-9.2516685226452324
 30
0.0
 11
-13.299999999999997
 21
-5.7000000000000028
 31
0.0
  0
LINE
  5
29
100
AcDbEntity
  8
0
  6
CONTINUOUS
 62
               7
100
AcDbLine
 10
-3.2999999999999972
 20
-18.850669953260407
 30
0.0
 11
-3.2999999999999972
 21
-5.7000000000000028
 31
0.0
  0
LINE
  5
2A
100
AcDbEntity
  8
0
  6
CONTINUOUS
 62
               7
100
AcDbLine
 10
-12.707106781186539
 20
-10.708105350571344
 30
0.0
 11
-11.292893218813461
 21
-9.2938917881982519
 31
0.0
  0
LINE
  5
2B
100
AcDbEntity
  8
0
  6
CONTINUOUS
 62
               7
100
AcDbLine
 10
-11.292893218813489
 20
-10.708105350571344
 30
0.0
 11
-12.707106781186539
 21
-9.2938917881982519
 31
0.0
  0
CIRCLE
  5
2C
100
AcDbEntity
  8
0
  6
CONTINUOUS
 62
               7
100
AcDbCircle
 10
-11.999999999999986
 20
-10.0
 30
0.0
 40
1.5
  0
LINE
  5
2D
100
AcDbEntity
  8
0
  6
CONTINUOUS
 62
               7
100
AcDbLine
 10
-5.3071067811865618
 20
-20.307106781186519
 30
0.0
 11
-3.8928932188134837
 21
-18.892893218813427
 31
0.0
  0
LINE
  5
2E
100
AcDbEntity
  8
0
  6
CONTINUOUS
 62
               7
100
AcDbLine
 10
-3.8928932188135121
 20
-20.307106781186519
 30
0.0
 11
-5.3071067811865618
 21
-18.892893218813427
 31
0.0
  0
CIRCLE
  5
2F
100
AcDbEntity
  8
0
  6
CONTINUOUS
 62
               7
100
AcDbCircle
 10
-4.6000000000000085
 20
-19.599001430615175
 30
0.0
 40
1.5
  0
LINE
  5
31
100
AcDbEntity
  8
0
  6
CENTER
 62
               2
100
AcDbLine
 10
-6.9699999999999989
 20
3.6990014306151835
 30
0.0
 11
-9.6400000000000006
 21
3.6990014306151835
 31
0.0
  0
LINE
  5
32
100
AcDbEntity
  8
0
  6
CONTINUOUS
 62
               4
100
AcDbLine
 10
-3.2999999999999972
 20
6.0
 30
0.0
 11
-13.299999999999997
 21
6.0
 31
0.0
  0
LINE
  5
33
100
AcDbEntity
  8
0
  6
CONTINUOUS
 62
               7
100
AcDbLine
 10
-13.299999999999997
 20
-5.7000000000000028
 30
0.0
 11
-13.299999999999997
 21
6.0
 31
0.0
  0
LINE
  5
34
100
AcDbEntity
  8
0
  6
CONTINUOUS
 62
               7
100
AcDbLine
 10
-3.2999999999999972
 20
-5.7000000000000028
 30
0.0
 11
-3.2999999999999972
 21
6.0
 31
0.0
  0
LINE
  5
35
100
AcDbEntity
  8
0
  6
CONTINUOUS
 62
               7
100
AcDbLine
 10
-10.299999999999997
 20
2.0
 30
0.0
 11
-10.299999999999997
 21
6.0
 31
0.0
  0
LINE
  5
36
100
AcDbEntity
  8
0
  6
CONTINUOUS
 62
               7
100
AcDbLine
 10
-6.2999999999999972
 20
2.0
 30
0.0
 11
-6.2999999999999972
 21
6.0
 31
0.0
  0
ARC
  5
37
100
AcDbEntity
  8
0
  6
CONTINUOUS
 62
               7
100
AcDbCircle
 10
-8.2999999999999972
 20
2.0
 30
0.0
 40
2.0
100
AcDbArc
 50
179.99999999999963
 51
0.0
  0
LINE
  5
38
100
AcDbEntity
  8
0
  6
CENTER
 62
               2
100
AcDbLine
 10
-6.6000000000000085
 20
3.7000000000000171
 30
0.0
 11
-9.9999999999999858
 21
3.7000000000000171
 31
0.0
  0
CIRCLE
  5
39
100
AcDbEntity
  8
0
  6
CONTINUOUS
 62
               7
100
AcDbCircle
 10
-8.2999999999999972
 20
3.7000000000000171
 30
0.0
 40
1.3000000000000012
  0
CIRCLE
  5
3A
100
AcDbEntity
  8
0
  6
CONTINUOUS
 62
               7
100
AcDbCircle
 10
-8.2999999999999972
 20
3.7000000000000171
 30
0.0
 40
1.1500000000000001
  0
CIRCLE
  5
3B
100
AcDbEntity
  8
0
  6
CONTINUOUS
 62
               7
100
AcDbCircle
 10
-8.2999999999999972
 20
3.7000000000000171
 30
0.0
 40
1.1000000000000001
  0
CIRCLE
  5
3C
100
AcDbEntity
  8
0
  6
CONTINUOUS
 62
               7
100
AcDbCircle
 10
-8.2999999999999972
 20
3.7000000000000171
 30
0.0
 40
0.75
  0
LINE
  5
3D
100
AcDbEntity
  8
0
  6
CONTINUOUS
 62
               7
100
AcDbLine
 10
-3.2999999999999972
 20
-5.7000000000000028
 30
0.0
 11
-13.299999999999997
 21
-5.7000000000000028
 31
0.0
  0
LINE
  5
3E
100
AcDbEntity
  8
0
  6
CONTINUOUS
 62
               4
100
AcDbLine
 10
-13.069999999999979
 20
25.002000000000024
 30
0.0
 11
-13.069999999999979
 21
8.6979913283485359
 31
0.0
  0
LINE
  5
3F
100
AcDbEntity
  8
0
  6
CONTINUOUS
 62
               4
100
AcDbLine
 10
-3.5300000000000153
 20
25.002000000000024
 30
0.0
 11
-3.5300000000000153
 21
8.6979913283485359
 31
0.0
  0
LINE
  5
40
100
AcDbEntity
  8
0
  6
CONTINUOUS
 62
               4
100
AcDbLine
 10
-13.299999999999997
 20
28.500000000000028
 30
0.0
 11
-13.299999999999997
 21
6.0
 31
0.0
  0
LINE
  5
41
100
AcDbEntity
  8
0
  6
CONTINUOUS
 62
               4
100
AcDbLine
 10
-3.2999999999999972
 20
28.500000000000028
 30
0.0
 11
-3.2999999999999972
 21
6.0
 31
0.0
  0
LINE
  5
42
100
AcDbEntity
  8
0
  6
CONTINUOUS
 62
               4
100
AcDbLine
 10
-3.2999999999999972
 20
28.500000000000028
 30
0.0
 11
-13.299999999999997
 21
28.500000000000028
 31
0.0
  0
LINE
  5
43
100
AcDbEntity
  8
0
  6
CONTINUOUS
 62
               4
100
AcDbLine
 10
-3.2999999999999972
 20
26.900000000000006
 30
0.0
 11
-5.5499999999999972
 21
26.900000000000006
 31
0.0
  0
LINE
  5
44
100
AcDbEntity
  8
0
  6
CONTINUOUS
 62
               4
100
AcDbLine
 10
-6.4999999999999858
 20
28.400000000000006
 30
0.0
 11
-12.799999999999997
 21
28.400000000000006
 31
0.0
  0
LINE
  5
45
100
AcDbEntity
  8
0
  6
CONTINUOUS
 62
               4
100
AcDbLine
 10
-6.4999999999999858
 20
28.400000000000006
 30
0.0
 11
-6.4999999999999858
 21
27.602000000000018
 31
0.0
  0
ARC
  5
46
100
AcDbEntity
  8
0
  6
CONTINUOUS
 62
               4
100
AcDbCircle
 10
-12.799999999999997
 20
27.900000000000006
 30
0.0
 40
0.5
100
AcDbArc
 50
89.999999999999815
 51
179.99999999999963
  0
LINE
  5
47
100
AcDbEntity
  8
0
  6
CONTINUOUS
 62
               4
100
AcDbLine
 10
-3.2999999999999972
 20
27.900000000000006
 30
0.0
 11
-6.4999999999999858
 21
27.900000000000006
 31
0.0
  0
ARC
  5
48
100
AcDbEntity
  8
0
  6
CONTINUOUS
 62
               4
100
AcDbCircle
 10
-4.0959048533417644
 20
27.900095146658174
 30
0.0
 40
0.5999048608870732
100
AcDbArc
 50
359.99091272245295
 51
90.009087277546172
  0
ARC
  5
49
100
AcDbEntity
  8
0
  6
CONTINUOUS
 62
               4
100
AcDbCircle
 10
-5.8970880052370234
 20
27.901088005237028
 30
0.0
 40
0.5989129830170392
100
AcDbArc
 50
89.895914524772735
 51
180.10408547522667
  0
LINE
  5
4A
100
AcDbEntity
  8
0
  6
CONTINUOUS
 62
               4
100
AcDbLine
 10
-5.5499999999999972
 20
27.602000000000018
 30
0.0
 11
-5.5499999999999972
 21
23.902000000000001
 31
0.0
  0
LINE
  5
4B
100
AcDbEntity
  8
0
  6
CONTINUOUS
 62
               4
100
AcDbLine
 10
-11.149999999999991
 20
20.502000000000024
 30
0.0
 11
-5.4500000000000028
 21
20.502000000000024
 31
0.0
  0
LINE
  5
4C
100
AcDbEntity
  8
0
  6
CONTINUOUS
 62
               4
100
AcDbLine
 10
-10.720000000000013
 20
24.902000000000001
 30
0.0
 11
-5.8900000000000006
 21
24.902000000000001
 31
0.0
  0
LINE
  5
4D
100
AcDbEntity
  8
0
  6
CONTINUOUS
 62
               4
100
AcDbLine
 10
-11.019999999999996
 20
24.602000000000018
 30
0.0
 11
-5.5900000000000176
 21
24.602000000000018
 31
0.0
  0
LINE
  5
4E
100
AcDbEntity
  8
0
  6
CONTINUOUS
 62
               4
100
AcDbLine
 10
-11.049999999999997
 20
25.602000000000018
 30
0.0
 11
-5.5499999999999972
 21
25.602000000000018
 31
0.0
  0
LINE
  5
4F
100
AcDbEntity
  8
0
  6
CONTINUOUS
 62
               4
100
AcDbLine
 10
-11.049999999999997
 20
20.602000000000018
 30
0.0
 11
-5.5499999999999972
 21
20.602000000000018
 31
0.0
  0
ARC
  5
50
100
AcDbEntity
  8
0
  6
CONTINUOUS
 62
               4
100
AcDbCircle
 10
-3.7999954224773518
 20
25.002004577522641
 30
0.0
 40
0.4999954224983215
100
AcDbArc
 50
359.99947544974214
 51
90.000524550256856
  0
LINE
  5
51
100
AcDbEntity
  8
0
  6
CONTINUOUS
 62
               4
100
AcDbLine
 10
-5.5499999999999972
 20
25.502000000000024
 30
0.0
 11
-3.7999999999999972
 21
25.502000000000024
 31
0.0
  0
LINE
  5
52
100
AcDbEntity
  8
0
  6
CONTINUOUS
 62
               4
100
AcDbLine
 10
-7.9999999999999858
 20
24.252000000000024
 30
0.0
 11
-7.9999999999999858
 21
22.152000000000001
 31
0.0
  0
LINE
  5
53
100
AcDbEntity
  8
0
  6
CONTINUOUS
 62
               4
100
AcDbLine
 10
-7.5499999999999972
 20
22.152000000000001
 30
0.0
 11
-7.5499999999999972
 21
21.852000000000018
 31
0.0
  0
ARC
  5
54
100
AcDbEntity
  8
0
  6
CONTINUOUS
 62
               4
100
AcDbCircle
 10
-4.030000915554254
 20
25.001999084445757
 30
0.0
 40
0.5000009155550945
100
AcDbArc
 50
0.0001049145970977
 51
89.999895085402713
  0
LINE
  5
55
100
AcDbEntity
  8
0
  6
CONTINUOUS
 62
               4
100
AcDbLine
 10
-4.5499999999999972
 20
22.102000000000018
 30
0.0
 11
-4.5499999999999972
 21
23.902000000000001
 31
0.0
  0
LINE
  5
56
100
AcDbEntity
  8
0
  6
CONTINUOUS
 62
               4
100
AcDbLine
 10
-4.4500000000000028
 20
24.002000000000024
 30
0.0
 11
-4.4500000000000028
 21
22.002000000000024
 31
0.0
  0
LINE
  5
57
100
AcDbEntity
  8
0
  6
CONTINUOUS
 62
               4
100
AcDbLine
 10
-5.4500000000000028
 20
22.002000000000024
 30
0.0
 11
-5.4500000000000028
 21
20.502000000000024
 31
0.0
  0
LINE
  5
58
100
AcDbEntity
  8
0
  6
CONTINUOUS
 62
               4
100
AcDbLine
 10
-5.4500000000000028
 20
25.502000000000024
 30
0.0
 11
-5.4500000000000028
 21
24.002000000000024
 31
0.0
  0
LINE
  5
59
100
AcDbEntity
  8
0
  6
CONTINUOUS
 62
               4
100
AcDbLine
 10
-6.1000000000000085
 20
24.252000000000024
 30
0.0
 11
-6.1000000000000085
 21
22.152000000000001
 31
0.0
  0
LINE
  5
5A
100
AcDbEntity
  8
0
  6
CONTINUOUS
 62
               4
100
AcDbLine
 10
-5.5900000000000176
 20
24.602000000000018
 30
0.0
 11
-5.8900000000000006
 21
24.902000000000001
 31
0.0
  0
LINE
  5
5B
100
AcDbEntity
  8
0
  6
CONTINUOUS
 62
               4
100
AcDbLine
 10
-6.5499999999999972
 20
22.152000000000001
 30
0.0
 11
-6.5499999999999972
 21
21.852000000000018
 31
0.0
  0
LINE
  5
5C
100
AcDbEntity
  8
0
  6
CONTINUOUS
 62
               4
100
AcDbLine
 10
-5.5499999999999972
 20
22.102000000000018
 30
0.0
 11
-5.5499999999999972
 21
20.602000000000018
 31
0.0
  0
LINE
  5
5D
100
AcDbEntity
  8
0
  6
CONTINUOUS
 62
               4
100
AcDbLine
 10
-7.5499999999999972
 20
21.852000000000018
 30
0.0
 11
-6.5499999999999972
 21
21.852000000000018
 31
0.0
  0
LINE
  5
5E
100
AcDbEntity
  8
0
  6
CONTINUOUS
 62
               4
100
AcDbLine
 10
-5.5499999999999972
 20
22.102000000000018
 30
0.0
 11
-4.5499999999999972
 21
22.102000000000018
 31
0.0
  0
LINE
  5
5F
100
AcDbEntity
  8
0
  6
CONTINUOUS
 62
               4
100
AcDbLine
 10
-5.5499999999999972
 20
23.902000000000001
 30
0.0
 11
-4.5499999999999972
 21
23.902000000000001
 31
0.0
  0
LINE
  5
60
100
AcDbEntity
  8
0
  6
CONTINUOUS
 62
               4
100
AcDbLine
 10
-7.9999999999999858
 20
24.052000000000007
 30
0.0
 11
-6.1000000000000085
 21
24.052000000000007
 31
0.0
  0
LINE
  5
61
100
AcDbEntity
  8
0
  6
CONTINUOUS
 62
               4
100
AcDbLine
 10
-7.9999999999999858
 20
22.152000000000001
 30
0.0
 11
-6.1000000000000085
 21
22.152000000000001
 31
0.0
  0
LINE
  5
62
100
AcDbEntity
  8
0
  6
CONTINUOUS
 62
               4
100
AcDbLine
 10
-7.9999999999999858
 20
24.252000000000024
 30
0.0
 11
-6.1000000000000085
 21
24.252000000000024
 31
0.0
  0
LINE
  5
63
100
AcDbEntity
  8
0
  6
CONTINUOUS
 62
               4
100
AcDbLine
 10
-5.4500000000000028
 20
24.002000000000024
 30
0.0
 11
-4.4500000000000028
 21
24.002000000000024
 31
0.0
  0
LINE
  5
64
100
AcDbEntity
  8
0
  6
CONTINUOUS
 62
               4
100
AcDbLine
 10
-5.4500000000000028
 20
22.002000000000024
 30
0.0
 11
-4.4500000000000028
 21
22.002000000000024
 31
0.0
  0
CIRCLE
  5
65
100
AcDbEntity
  8
0
  6
CONTINUOUS
 62
               4
100
AcDbCircle
 10
-7.0499999999999972
 20
23.101984741210956
 30
0.0
 40
0.8499675393104553
  0
LINE
  5
66
100
AcDbEntity
  8
0
  6
CONTINUOUS
 62
               4
100
AcDbLine
 10
-11.049999999999997
 20
26.602000000000018
 30
0.0
 11
-5.5499999999999972
 21
26.602000000000018
 31
0.0
  0
LINE
  5
67
100
AcDbEntity
  8
0
  6
CONTINUOUS
 62
               4
100
AcDbLine
 10
-11.049999999999997
 20
27.602000000000018
 30
0.0
 11
-5.5499999999999972
 21
27.602000000000018
 31
0.0
  0
LINE
  5
68
100
AcDbEntity
  8
0
  6
CONTINUOUS
 62
               4
100
AcDbLine
 10
-11.049999999999997
 20
27.602000000000018
 30
0.0
 11
-11.049999999999997
 21
23.902000000000001
 31
0.0
  0
LINE
  5
69
100
AcDbEntity
  8
0
  6
CONTINUOUS
 62
               4
100
AcDbLine
 10
-10.499999999999986
 20
22.152000000000001
 30
0.0
 11
-8.6000000000000085
 21
22.152000000000001
 31
0.0
  0
LINE
  5
6A
100
AcDbEntity
  8
0
  6
CONTINUOUS
 62
               4
100
AcDbLine
 10
-10.049999999999997
 20
21.852000000000018
 30
0.0
 11
-9.0499999999999972
 21
21.852000000000018
 31
0.0
  0
LINE
  5
6B
100
AcDbEntity
  8
0
  6
CONTINUOUS
 62
               4
100
AcDbLine
 10
-12.049999999999997
 20
22.102000000000018
 30
0.0
 11
-11.049999999999997
 21
22.102000000000018
 31
0.0
  0
LINE
  5
6C
100
AcDbEntity
  8
0
  6
CONTINUOUS
 62
               4
100
AcDbLine
 10
-10.499999999999986
 20
24.252000000000024
 30
0.0
 11
-10.499999999999986
 21
22.152000000000001
 31
0.0
  0
LINE
  5
6D
100
AcDbEntity
  8
0
  6
CONTINUOUS
 62
               4
100
AcDbLine
 10
-12.149999999999991
 20
22.002000000000024
 30
0.0
 11
-11.149999999999991
 21
22.002000000000024
 31
0.0
  0
CIRCLE
  5
6E
100
AcDbEntity
  8
0
  6
CONTINUOUS
 62
               4
100
AcDbCircle
 10
-9.5499999999999972
 20
23.101984741210956
 30
0.0
 40
0.8499675393104553
  0
LINE
  5
6F
100
AcDbEntity
  8
0
  6
CONTINUOUS
 62
               4
100
AcDbLine
 10
-11.149999999999991
 20
22.002000000000024
 30
0.0
 11
-11.149999999999991
 21
20.502000000000024
 31
0.0
  0
LINE
  5
70
100
AcDbEntity
  8
0
  6
CONTINUOUS
 62
               4
100
AcDbLine
 10
-10.049999999999997
 20
22.152000000000001
 30
0.0
 11
-10.049999999999997
 21
21.852000000000018
 31
0.0
  0
LINE
  5
71
100
AcDbEntity
  8
0
  6
CONTINUOUS
 62
               4
100
AcDbLine
 10
-11.049999999999997
 20
22.102000000000018
 30
0.0
 11
-11.049999999999997
 21
20.602000000000018
 31
0.0
  0
LINE
  5
72
100
AcDbEntity
  8
0
  6
CONTINUOUS
 62
               4
100
AcDbLine
 10
-12.049999999999997
 20
23.902000000000001
 30
0.0
 11
-11.049999999999997
 21
23.902000000000001
 31
0.0
  0
LINE
  5
73
100
AcDbEntity
  8
0
  6
CONTINUOUS
 62
               4
100
AcDbLine
 10
-12.049999999999997
 20
22.102000000000018
 30
0.0
 11
-12.049999999999997
 21
23.902000000000001
 31
0.0
  0
LINE
  5
74
100
AcDbEntity
  8
0
  6
CONTINUOUS
 62
               4
100
AcDbLine
 10
-12.149999999999991
 20
24.002000000000024
 30
0.0
 11
-12.149999999999991
 21
22.002000000000024
 31
0.0
  0
LINE
  5
75
100
AcDbEntity
  8
0
  6
CONTINUOUS
 62
               4
100
AcDbLine
 10
-12.149999999999991
 20
24.002000000000024
 30
0.0
 11
-11.149999999999991
 21
24.002000000000024
 31
0.0
  0
LINE
  5
76
100
AcDbEntity
  8
0
  6
CONTINUOUS
 62
               4
100
AcDbLine
 10
-11.049999999999997
 20
24.562000000000026
 30
0.0
 11
-10.720000000000013
 21
24.902000000000001
 31
0.0
  0
LINE
  5
77
100
AcDbEntity
  8
0
  6
CONTINUOUS
 62
               4
100
AcDbLine
 10
-11.149999999999991
 20
25.502000000000024
 30
0.0
 11
-11.149999999999991
 21
24.002000000000024
 31
0.0
  0
LINE
  5
78
100
AcDbEntity
  8
0
  6
CONTINUOUS
 62
               4
100
AcDbLine
 10
-8.6000000000000085
 20
24.252000000000024
 30
0.0
 11
-8.6000000000000085
 21
22.152000000000001
 31
0.0
  0
LINE
  5
79
100
AcDbEntity
  8
0
  6
CONTINUOUS
 62
               4
100
AcDbLine
 10
-9.0499999999999972
 20
22.152000000000001
 30
0.0
 11
-9.0499999999999972
 21
21.852000000000018
 31
0.0
  0
LINE
  5
7A
100
AcDbEntity
  8
0
  6
CONTINUOUS
 62
               4
100
AcDbLine
 10
-10.499999999999986
 20
24.252000000000024
 30
0.0
 11
-8.6000000000000085
 21
24.252000000000024
 31
0.0
  0
LINE
  5
7B
100
AcDbEntity
  8
0
  6
CONTINUOUS
 62
               4
100
AcDbLine
 10
-10.499999999999986
 20
24.052000000000007
 30
0.0
 11
-8.6000000000000085
 21
24.052000000000007
 31
0.0
  0
LINE
  5
7D
100
AcDbEntity
  8
0
  6
PHANTOM
 62
             200
100
AcDbLine
 10
-9.7999999999999972
 20
13.501999999999995
 30
0.0
 11
-6.7999999999999972
 21
13.501999999999995
 31
0.0
  0
LINE
  5
7E
100
AcDbEntity
  8
0
  6
PHANTOM
 62
             200
100
AcDbLine
 10
-9.7999999999999972
 20
11.501999999999995
 30
0.0
 11
-6.7999999999999972
 21
11.501999999999995
 31
0.0
  0
LINE
  5
7F
100
AcDbEntity
  8
0
  6
PHANTOM
 62
             200
100
AcDbLine
 10
-6.7999999999999972
 20
13.501999999999995
 30
0.0
 11
-6.7999999999999972
 21
11.501999999999995
 31
0.0
  0
LINE
  5
80
100
AcDbEntity
  8
0
  6
PHANTOM
 62
             200
100
AcDbLine
 10
-9.7999999999999972
 20
13.501999999999995
 30
0.0
 11
-9.7999999999999972
 21
11.501999999999995
 31
0.0
  0
ARC
  5
81
100
AcDbEntity
  8
0
  6
CONTINUOUS
 62
               4
100
AcDbCircle
 10
-12.79998931882669
 20
25.001989318826716
 30
0.0
 40
0.5000106812873828
100
AcDbArc
 50
90.001223946153175
 51
179.9987760538454
  0
ARC
  5
82
100
AcDbEntity
  8
0
  6
CONTINUOUS
 62
               4
100
AcDbCircle
 10
-12.56999908444574
 20
25.001999084445757
 30
0.0
 40
0.5000009155550945
100
AcDbArc
 50
90.000104914596918
 51
179.99989508540253
  0
LINE
  5
83
100
AcDbEntity
  8
0
  6
CONTINUOUS
 62
               4
100
AcDbLine
 10
-12.799999999999997
 20
25.502000000000024
 30
0.0
 11
-11.049999999999997
 21
25.502000000000024
 31
0.0
  0
LINE
  5
84
100
AcDbEntity
  8
0
  6
CONTINUOUS
 62
               4
100
AcDbLine
 10
-12.569999999999979
 20
8.1979913283481096
 30
0.0
 11
-4.0300000000000153
 21
8.1979913283481096
 31
0.0
  0
ARC
  5
85
100
AcDbEntity
  8
0
  6
CONTINUOUS
 62
               4
100
AcDbCircle
 10
-12.568802575510276
 20
8.6991887528378129
 30
0.0
 40
0.5011988548874781
100
AcDbArc
 50
180.13688665515463
 51
269.86311334484435
  0
ARC
  5
86
100
AcDbEntity
  8
0
  6
CONTINUOUS
 62
               4
100
AcDbCircle
 10
-4.0311974244897186
 20
8.6991887528378129
 30
0.0
 40
0.5011988548874781
100
AcDbArc
 50
270.1368866551544
 51
359.86311334484418
  0
LINE
  5
87
100
AcDbEntity
  8
0
  6
CONTINUOUS
 62
               7
100
AcDbLine
 10
-13.299999999999997
 20
-27.09999999999998
 30
0.0
 11
-13.299999999999997
 21
-10.748331477354768
 31
0.0
  0
LINE
  5
88
100
AcDbEntity
  8
0
  6
CONTINUOUS
 62
               7
100
AcDbLine
 10
-3.2999999999999972
 20
-28.700000000000003
 30
0.0
 11
-3.2999999999999972
 21
-20.347332907969943
 31
0.0
  0
LINE
  5
89
100
AcDbEntity
  8
0
  6
CONTINUOUS
 62
               7
100
AcDbLine
 10
-3.2999999999999972
 20
-23.899999999999991
 30
0.0
 11
-13.299999999999997
 21
-23.899999999999991
 31
0.0
  0
ARC
  5
8A
100
AcDbEntity
  8
0
  6
CONTINUOUS
 62
               7
100
AcDbCircle
 10
-3.4999999999999858
 20
-28.700000000000003
 30
0.0
 40
0.2
100
AcDbArc
 50
269.99999999999937
 51
0.0
  0
LINE
  5
8B
100
AcDbEntity
  8
0
  6
CONTINUOUS
 62
               7
100
AcDbLine
 10
-13.319999999999979
 20
-27.629999999999953
 30
0.0
 11
-13.319999999999979
 21
-27.09999999999998
 31
0.0
  0
LINE
  5
8C
100
AcDbEntity
  8
0
  6
CONTINUOUS
 62
               7
100
AcDbLine
 10
-13.299999999999997
 20
-28.700000000000003
 30
0.0
 11
-13.299999999999997
 21
-27.786749430654041
 31
0.0
  0
LINE
  5
8D
100
AcDbEntity
  8
0
  6
CONTINUOUS
 62
               7
100
AcDbLine
 10
-9.8799999999999812
 20
-27.629999999999953
 30
0.0
 11
-9.8799999999999812
 21
-27.09999999999998
 31
0.0
  0
ARC
  5
8E
100
AcDbEntity
  8
0
  6
CONTINUOUS
 62
               7
100
AcDbCircle
 10
-10.491771995833901
 20
-27.630837282028992
 30
0.0
 40
0.6117725687931934
100
AcDbArc
 50
286.30661609184898
 51
0.0784159734340139
  0
ARC
  5
8F
100
AcDbEntity
  8
0
  6
CONTINUOUS
 62
               7
100
AcDbCircle
 10
-11.600000000000009
 20
-23.812578763266018
 30
0.0
 40
4.5876068132596712
100
AcDbArc
 50
253.79871892415684
 51
286.20128107584191
  0
LINE
  5
90
100
AcDbEntity
  8
0
  6
CONTINUOUS
 62
               7
100
AcDbLine
 10
-9.7999999999999972
 20
-28.899999999999991
 30
0.0
 11
-9.7999999999999972
 21
-27.09999999999998
 31
0.0
  0
ARC
  5
91
100
AcDbEntity
  8
0
  6
CONTINUOUS
 62
               7
100
AcDbCircle
 10
-13.100000000000009
 20
-28.700000000000003
 30
0.0
 40
0.2
100
AcDbArc
 50
179.99999999999963
 51
269.99999999999937
  0
ARC
  5
92
100
AcDbEntity
  8
0
  6
CONTINUOUS
 62
               7
100
AcDbCircle
 10
-13.000895136858887
 20
-26.80089513685887
 30
0.0
 40
0.2991062025847394
100
AcDbArc
 50
179.82853033398985
 51
270.17146966600922
  0
LINE
  5
93
100
AcDbEntity
  8
0
  6
CONTINUOUS
 62
               7
100
AcDbLine
 10
-13.319999999999979
 20
-27.09999999999998
 30
0.0
 11
-9.7999999999999972
 21
-27.09999999999998
 31
0.0
  0
LINE
  5
94
100
AcDbEntity
  8
0
  6
CONTINUOUS
 62
               7
100
AcDbLine
 10
-3.4999999999999858
 20
-28.899999999999991
 30
0.0
 11
-13.100000000000009
 21
-28.899999999999991
 31
0.0
  0
ARC
  5
95
100
AcDbEntity
  8
0
  6
CONTINUOUS
 62
               7
100
AcDbCircle
 10
-12.70944603189092
 20
-27.631748731346946
 30
0.0
 40
0.6105564724372722
100
AcDbArc
 50
179.83589550320582
 51
253.77907243150949
  0
LINE
  5
96
100
AcDbEntity
  8
0
  6
CONTINUOUS
 62
               7
100
AcDbLine
 10
-14.299999999999997
 20
-32.299999999999997
 30
0.0
 11
2.7000000000000028
 21
-32.299999999999997
 31
0.0
  0
LINE
  5
97
100
AcDbEntity
  8
0
  6
CONTINUOUS
 62
               7
100
AcDbLine
 10
-3.2999999999999972
 20
2.7000000000000028
 30
0.0
 11
2.7000000000000028
 21
2.7000000000000028
 31
0.0
  0
LINE
  5
98
100
AcDbEntity
  8
0
  6
CENTER
 62
               2
100
AcDbLine
 10
-2.5
 20
0.0
 30
0.0
 11
2.5
 21
0.0
 31
0.0
  0
LINE
  5
99
100
AcDbEntity
  8
0
  6
CENTER
 62
               2
100
AcDbLine
 10
-2.5
 20
-29.599999999999994
 30
0.0
 11
2.5
 21
-29.599999999999994
 31
0.0
  0
CIRCLE
  5
9A
100
AcDbEntity
  8
0
  6
CONTINUOUS
 62
               7
100
AcDbCircle
 10
0.0000183105468778
 20
-0.0000030517578153
 30
0.0
 40
1.5499992370605469
  0
CIRCLE
  5
9B
100
AcDbEntity
  8
0
  6
CONTINUOUS
 62
               7
100
AcDbCircle
 10
0.0000183105468778
 20
-29.599993896484378
 30
0.0
 40
1.5499992370605469
  0
LINE
  5
9C
100
AcDbEntity
  8
0
  6
CENTER
 62
               2
100
AcDbLine
 10
0.0
 20
-27.099999999999994
 30
0.0
 11
0.0
 21
-32.099999999999994
 31
0.0
  0
LINE
  5
9D
100
AcDbEntity
  8
0
  6
CENTER
 62
               2
100
AcDbLine
 10
0.0
 20
2.5
 30
0.0
 11
0.0
 21
-2.5
 31
0.0
  0
LINE
  5
9E
100
AcDbEntity
  8
0
  6
CONTINUOUS
 62
               7
100
AcDbLine
 10
2.7000000000000028
 20
2.7000000000000028
 30
0.0
 11
2.7000000000000028
 21
-32.299999999999997
 31
0.0
  0
LINE
  5
9F
100
AcDbEntity
  8
0
  6
CENTER
 62
               2
100
AcDbLine
 10
-8.2999999999999972
 20
-31.355792523378071
 30
0.0
 11
-8.2999999999999972
 21
29.398000000000025
 31
0.0
  0
ARC
  5
A0
100
AcDbEntity
  8
0
  6
CONTINUOUS
 62
               7
100
AcDbCircle
 10
-11.999999999999986
 20
-10.000000000000043
 30
0.0
 40
1.6000000000000001
100
AcDbArc
 50
269.99999999999937
 51
89.999999999999801
  0
ARC
  5
A1
100
AcDbEntity
  8
0
  6
CONTINUOUS
 62
               7
100
AcDbCircle
 10
-4.6000000000000085
 20
-19.600000000000009
 30
0.0
 40
1.6000000000000001
100
AcDbArc
 50
89.999999999999815
 51
269.99999999999937
  0
LINE
  5
A2
100
AcDbEntity
  8
0
  6
CONTINUOUS
 62
               7
100
AcDbLine
 10
-11.999999999999986
 20
-11.600000000000037
 30
0.0
 11
-13.299999999999997
 21
-11.600000000000037
 31
0.0
  0
LINE
  5
A3
100
AcDbEntity
  8
0
  6
CONTINUOUS
 62
               7
100
AcDbLine
 10
-11.999999999999986
 20
-8.4000000000000199
 30
0.0
 11
-13.299999999999997
 21
-8.4000000000000199
 31
0.0
  0
LINE
  5
A4
100
AcDbEntity
  8
0
  6
CONTINUOUS
 62
               7
100
AcDbLine
 10
-4.6000000000000085
 20
-21.200000000000003
 30
0.0
 11
-3.2999999999999972
 21
-21.200000000000003
 31
0.0
  0
LINE
  5
A5
100
AcDbEntity
  8
0
  6
CONTINUOUS
 62
               7
100
AcDbLine
 10
-4.6000000000000085
 20
-18.000000000000014
 30
0.0
 11
-3.2999999999999972
 21
-18.000000000000014
 31
0.0
  0
LINE
  5
A6
100
AcDbEntity
  8
0
  6
CONTINUOUS
 62
               7
100
AcDbLine
 10
-14.299999999999997
 20
-32.299999999999997
 30
0.0
 11
-14.299999999999997
 21
2.7000000000000028
 31
0.0
  0
LINE
  5
A7
100
AcDbEntity
  8
0
  6
CONTINUOUS
 62
               7
100
AcDbLine
 10
-14.299999999999997
 20
2.7000000000000028
 30
0.0
 11
-13.299999999999997
 21
2.7000000000000028
 31
0.0
  0
LINE
  5
A8
100
AcDbEntity
  8
0
  6
CENTER
 62
               2
100
AcDbLine
 10
0.2162062056379739
 20
-22.399999999999991
 30
0.0
 11
17.830000000000013
 21
-22.399999999999991
 31
0.0
  0
LINE
  5
A9
100
AcDbEntity
  8
0
  6
PHANTOM
 62
             200
100
AcDbLine
 10
2.7000000000000028
 20
-18.399999999999991
 30
0.0
 11
16.200000000000017
 21
-18.399999999999991
 31
0.0
  0
LINE
  5
AA
100
AcDbEntity
  8
0
  6
PHANTOM
 62
             200
100
AcDbLine
 10
2.7000000000000028
 20
-26.399999999999991
 30
0.0
 11
16.200000000000017
 21
-26.399999999999991
 31
0.0
  0
LINE
  5
AB
100
AcDbEntity
  8
0
  6
CENTER
 62
               2
100
AcDbLine
 10
0.2162062056379739
 20
-4.7999999999999972
 30
0.0
 11
17.830000000000013
 21
-4.7999999999999972
 31
0.0
  0
LINE
  5
AC
100
AcDbEntity
  8
0
  6
PHANTOM
 62
             200
100
AcDbLine
 10
2.7000000000000028
 20
-0.7999999999999972
 30
0.0
 11
16.200000000000017
 21
-0.7999999999999972
 31
0.0
  0
LINE
  5
AD
100
AcDbEntity
  8
0
  6
PHANTOM
 62
             200
100
AcDbLine
 10
2.7000000000000028
 20
-8.7999999999999972
 30
0.0
 11
16.200000000000017
 21
-8.7999999999999972
 31
0.0
  0
LINE
  5
AE
100
AcDbEntity
  8
0
  6
PHANTOM
 62
             200
100
AcDbLine
 10
16.200000000000017
 20
-0.7999999999999972
 30
0.0
 11
16.200000000000017
 21
-8.7999999999999972
 31
0.0
  0
LINE
  5
AF
100
AcDbEntity
  8
0
  6
PHANTOM
 62
             200
100
AcDbLine
 10
14.200000000000017
 20
-0.7999999999999972
 30
0.0
 11
14.200000000000017
 21
-8.7999999999999972
 31
0.0
  0
LINE
  5
B0
100
AcDbEntity
  8
0
  6
PHANTOM
 62
             200
100
AcDbLine
 10
16.700000000000017
 20
-1.2999999999999972
 30
0.0
 11
16.700000000000017
 21
-8.2999999999999972
 31
0.0
  0
ARC
  5
B1
100
AcDbEntity
  8
0
  6
PHANTOM
 62
             200
100
AcDbCircle
 10
16.200000000000017
 20
-8.2999999999999972
 30
0.0
 40
0.5
100
AcDbArc
 50
269.99999999999937
 51
0.0
  0
ARC
  5
B2
100
AcDbEntity
  8
0
  6
PHANTOM
 62
             200
100
AcDbCircle
 10
16.200000000000017
 20
-1.2999999999999972
 30
0.0
 40
0.5
100
AcDbArc
 50
0.0
 51
89.999999999999815
  0
ARC
  5
B3
100
AcDbEntity
  8
0
  6
PHANTOM
 62
             200
100
AcDbCircle
 10
16.200000000000017
 20
-18.899999999999991
 30
0.0
 40
0.5
100
AcDbArc
 50
0.0
 51
89.999999999999815
  0
ARC
  5
B4
100
AcDbEntity
  8
0
  6
PHANTOM
 62
             200
100
AcDbCircle
 10
16.200000000000017
 20
-25.899999999999991
 30
0.0
 40
0.5
100
AcDbArc
 50
269.99999999999937
 51
0.0
  0
LINE
  5
B5
100
AcDbEntity
  8
0
  6
PHANTOM
 62
             200
100
AcDbLine
 10
16.700000000000017
 20
-18.899999999999991
 30
0.0
 11
16.700000000000017
 21
-25.899999999999991
 31
0.0
  0
LINE
  5
B6
100
AcDbEntity
  8
0
  6
PHANTOM
 62
             200
100
AcDbLine
 10
14.200000000000017
 20
-18.399999999999991
 30
0.0
 11
14.200000000000017
 21
-26.399999999999991
 31
0.0
  0
LINE
  5
B7
100
AcDbEntity
  8
0
  6
PHANTOM
 62
             200
100
AcDbLine
 10
16.200000000000017
 20
-18.399999999999991
 30
0.0
 11
16.200000000000017
 21
-26.399999999999991
 31
0.0
  0
ENDBLK
  5
B8
100
AcDbEntity
  8
0
100
AcDbBlockEnd
  0
BLOCK
  5
B9
100
AcDbEntity
  8
0
100
AcDbBlockBegin
  2
EA10SA5-2
 70
               0
 10
0.0
 20
0.0
 30
0.0
  3
EA10SA5-2
  1

  0
ARC
  5
BA
100
AcDbEntity
  8
0
  6
CONTINUOUS
 62
               4
100
AcDbCircle
 10
33.886980727563014
 20
6.4999954535709037
 30
0.0
 40
0.5
100
AcDbArc
 50
269.75566360192528
 51
295.0310208172188
  0
LINE
  5
BB
100
AcDbEntity
  8
0
  6
CONTINUOUS
 62
               4
100
AcDbLine
 10
54.495959596051179
 20
22.754233112521135
 30
0.0
 11
57.995959596051236
 21
22.754233112521135
 31
0.0
  0
LINE
  5
BC
100
AcDbEntity
  8
0
  6
CONTINUOUS
 62
               4
100
AcDbLine
 10
57.995959596051236
 20
23.254233112521135
 30
0.0
 11
57.995959596051236
 21
22.754233112521135
 31
0.0
  0
LINE
  5
BD
100
AcDbEntity
  8
0
  6
CONTINUOUS
 62
               4
100
AcDbLine
 10
54.495959596051179
 20
23.254233112521135
 30
0.0
 11
57.995959596051236
 21
23.254233112521135
 31
0.0
  0
LINE
  5
BE
100
AcDbEntity
  8
0
  6
CONTINUOUS
 62
               7
100
AcDbLine
 10
30.199999999999989
 20
-8.5000000000000142
 30
0.0
 11
30.0
 21
-8.5000000000000142
 31
0.0
  0
ARC
  5
BF
100
AcDbEntity
  8
0
  6
CONTINUOUS
 62
               7
100
AcDbCircle
 10
30.199999999999989
 20
-8.9000000000000199
 30
0.0
 40
0.4
100
AcDbArc
 50
0.0
 51
89.999999999999815
  0
LINE
  5
C0
100
AcDbEntity
  8
0
  6
CONTINUOUS
 62
               7
100
AcDbLine
 10
30.199999999999989
 20
-11.500000000000014
 30
0.0
 11
30.0
 21
-11.500000000000014
 31
0.0
  0
ARC
  5
C1
100
AcDbEntity
  8
0
  6
CONTINUOUS
 62
               7
100
AcDbCircle
 10
30.199999999999989
 20
-11.100000000000023
 30
0.0
 40
0.4
100
AcDbArc
 50
270.00000000000023
 51
0.0
  0
LINE
  5
C2
100
AcDbEntity
  8
0
  6
CONTINUOUS
 62
               7
100
AcDbLine
 10
30.599999999999994
 20
-8.9000000000000199
 30
0.0
 11
30.599999999999994
 21
-11.100000000000023
 31
0.0
  0
LINE
  5
C3
100
AcDbEntity
  8
0
  6
CONTINUOUS
 62
               7
100
AcDbLine
 10
17.000000013518104
 20
6.0049999999999386
 30
0.0
 11
16.999996948242199
 21
-30.100006103515625
 31
0.0
  0
LINE
  5
C4
100
AcDbEntity
  8
0
  6
CONTINUOUS
 62
               7
100
AcDbLine
 10
30.0
 20
-8.3990014306151863
 30
0.0
 11
30.0
 21
-11.599001430615203
 31
0.0
  0
LINE
  5
C5
100
AcDbEntity
  8
0
  6
CONTINUOUS
 62
               7
100
AcDbLine
 10
31.049999999999983
 20
-27.929999999999993
 30
0.0
 11
31.049999999999983
 21
-27.399999999999991
 31
0.0
  0
LINE
  5
C6
100
AcDbEntity
  8
0
  6
CONTINUOUS
 62
               7
100
AcDbLine
 10
31.0
 20
-28.129999999999981
 30
0.0
 11
31.0
 21
-28.499999999999986
 31
0.0
  0
LINE
  5
C7
100
AcDbEntity
  8
0
  6
CONTINUOUS
 62
               7
100
AcDbLine
 10
31.0
 20
-5.6999999999999886
 30
0.0
 11
31.0
 21
-27.399999999999991
 31
0.0
  0
ARC
  5
C8
100
AcDbEntity
  8
0
  6
CONTINUOUS
 62
               7
100
AcDbCircle
 10
30.623582287124151
 20
-27.93681079780869
 30
0.0
 40
0.4264721008707071
100
AcDbArc
 50
298.94777670470961
 51
0.9150576515650383
  0
ARC
  5
C9
100
AcDbEntity
  8
0
  6
CONTINUOUS
 62
               7
100
AcDbCircle
 10
30.599993896379601
 20
-28.499993896379593
 30
0.0
 40
0.400006103666966
100
AcDbArc
 50
270.00087426588038
 51
359.99912573411802
  0
LINE
  5
CA
100
AcDbEntity
  8
0
  6
CONTINUOUS
 62
               7
100
AcDbLine
 10
31.000000013518132
 20
-1.0950000000000131
 30
0.0
 11
32.100000013518155
 21
0.0
 31
0.0
  0
LINE
  5
CB
100
AcDbEntity
  8
0
  6
CONTINUOUS
 62
               7
100
AcDbLine
 10
31.000000013518161
 20
5.9999999999999289
 30
0.0
 11
31.000000013518161
 21
-5.7000000000000028
 31
0.0
  0
LINE
  5
CC
100
AcDbEntity
  8
0
  6
CONTINUOUS
 62
               7
100
AcDbLine
 10
32.548000013518077
 20
2.5999999999999943
 30
0.0
 11
32.548000013518134
 21
4.8000000000000398
 31
0.0
  0
LINE
  5
CD
100
AcDbEntity
  8
0
  6
CONTINUOUS
 62
               7
100
AcDbLine
 10
32.548000013518134
 20
4.8000000000000398
 30
0.0
 11
32.100000013518155
 21
4.8000000000000256
 31
0.0
  0
LINE
  5
CE
100
AcDbEntity
  8
0
  6
CONTINUOUS
 62
               7
100
AcDbLine
 10
32.548000013518077
 20
2.5999999999999943
 30
0.0
 11
32.100000013518155
 21
2.5999999999999943
 31
0.0
  0
LINE
  5
CF
100
AcDbEntity
  8
0
  6
CONTINUOUS
 62
               7
100
AcDbLine
 10
32.100000013518155
 20
0.0
 30
0.0
 11
32.100000013518155
 21
5.9999999999999289
 31
0.0
  0
LINE
  5
D0
100
AcDbEntity
  8
0
  6
CONTINUOUS
 62
               7
100
AcDbLine
 10
17.000000013518104
 20
-5.7000000000000028
 30
0.0
 11
31.0
 21
-5.6999999999999886
 31
0.0
  0
LINE
  5
D1
100
AcDbEntity
  8
0
  6
CONTINUOUS
 62
               7
100
AcDbLine
 10
30.0
 20
-8.3990014306151863
 30
0.0
 11
31.0
 21
-8.3990014306151863
 31
0.0
  0
LINE
  5
D2
100
AcDbEntity
  8
0
  6
CONTINUOUS
 62
               7
100
AcDbLine
 10
30.0
 20
-11.599001430615203
 30
0.0
 11
31.0
 21
-11.599001430615203
 31
0.0
  0
LINE
  5
D3
100
AcDbEntity
  8
0
  6
CONTINUOUS
 62
               4
100
AcDbLine
 10
54.495959596051193
 20
22.354545445200301
 30
0.0
 11
54.495959596051165
 21
23.655555545466996
 31
0.0
  0
ARC
  5
D4
100
AcDbEntity
  8
0
  6
CONTINUOUS
 62
               4
100
AcDbCircle
 10
30.200095082166513
 20
27.900095146648567
 30
0.0
 40
0.599904800896587
100
AcDbArc
 50
56.247417870394948
 51
90.009087277547238
  0
ARC
  5
D5
100
AcDbEntity
  8
0
  6
CONTINUOUS
 62
               4
100
AcDbCircle
 10
17.798912110389551
 20
27.901088005127917
 30
0.0
 40
0.598912923125741
100
AcDbArc
 50
89.895914524773801
 51
180.10408547522775
  0
LINE
  5
D6
100
AcDbEntity
  8
0
  6
CONTINUOUS
 62
               4
100
AcDbLine
 10
20.700000202553383
 20
27.899999999999679
 30
0.0
 11
17.000000029517793
 21
27.899999999999636
 31
0.0
  0
ARC
  5
D7
100
AcDbEntity
  8
0
  6
CONTINUOUS
 62
               4
100
AcDbCircle
 10
17.500000029517764
 20
27.899999999999665
 30
0.0
 40
0.5
100
AcDbArc
 50
93.919585899651864
 51
180.00000000000065
  0
LINE
  5
D8
100
AcDbEntity
  8
0
  6
CONTINUOUS
 62
               4
100
AcDbLine
 10
30.199999935517809
 20
28.499999999999915
 30
0.0
 11
17.800000115517804
 21
28.499999999999687
 31
0.0
  0
LINE
  5
D9
100
AcDbEntity
  8
0
  6
CONTINUOUS
 62
               4
100
AcDbLine
 10
31.000000013517791
 20
27.899999999999892
 30
0.0
 11
31.000000013518161
 21
5.9999999999999147
 31
0.0
  0
ARC
  5
DA
100
AcDbEntity
  8
0
  6
CONTINUOUS
 62
               4
100
AcDbCircle
 10
30.50000002151782
 20
27.899999999999864
 30
0.0
 40
0.5
100
AcDbArc
 50
0.0000000000010687
 51
90.000000000000867
  0
LINE
  5
DB
100
AcDbEntity
  8
0
  6
CONTINUOUS
 62
               4
100
AcDbLine
 10
30.50000002151782
 20
28.39999999999992
 30
0.0
 11
29.000000025517835
 21
28.399999999999864
 31
0.0
  0
LINE
  5
DC
100
AcDbEntity
  8
0
  6
CONTINUOUS
 62
               4
100
AcDbLine
 10
29.000000025517835
 20
28.499999999999858
 30
0.0
 11
29.000000025517835
 21
26.899999999999807
 31
0.0
  0
LINE
  5
DD
100
AcDbEntity
  8
0
  6
CONTINUOUS
 62
               4
100
AcDbLine
 10
29.000000025517835
 20
26.899999999999807
 30
0.0
 11
17.000000029517821
 21
26.899999999999608
 31
0.0
  0
LINE
  5
DE
100
AcDbEntity
  8
0
  6
CONTINUOUS
 62
               4
100
AcDbLine
 10
17.00000002151819
 20
5.9999999999996589
 30
0.0
 11
17.000000021517792
 21
27.899999999999636
 31
0.0
  0
LINE
  5
DF
100
AcDbEntity
  8
0
  6
CONTINUOUS
 62
             200
100
AcDbLine
 10
50.670707072984527
 20
24.504040393466937
 30
0.0
 11
52.403030304317923
 21
21.506060597200275
 31
0.0
  0
ARC
  5
E0
100
AcDbEntity
  8
0
  6
CONTINUOUS
 62
               4
100
AcDbCircle
 10
39.400834052872199
 20
25.006894639354414
 30
0.0
 40
0.403865208170398
100
AcDbArc
 50
180.11832473551567
 51
269.88167526448677
  0
ARC
  5
E1
100
AcDbEntity
  8
0
  6
CONTINUOUS
 62
               4
100
AcDbCircle
 10
39.399895939896879
 20
25.005327231604582
 30
0.0
 40
0.4029269013737999
100
AcDbArc
 50
100.09177155739695
 51
179.8957164142515
  0
ARC
  5
E2
100
AcDbEntity
  8
0
  6
CONTINUOUS
 62
               4
100
AcDbCircle
 10
37.999912527655027
 20
25.105034325092674
 30
0.0
 40
0.4950149226876426
100
AcDbArc
 50
53.123124741165753
 51
90.808304124579536
  0
ARC
  5
E3
100
AcDbEntity
  8
0
  6
CONTINUOUS
 62
               4
100
AcDbCircle
 10
31.299431305235231
 20
26.3045841294186
 30
0.0
 40
0.2994663800970315
100
AcDbArc
 50
90.47097302846538
 51
180.87710076750685
  0
ARC
  5
E4
100
AcDbEntity
  8
0
  6
CONTINUOUS
 62
               4
100
AcDbCircle
 10
38.500332854439165
 20
25.004373238388069
 30
0.0
 40
0.4966660273328702
100
AcDbArc
 50
359.37896036356483
 51
90.621039636434716
  0
ARC
  5
E5
100
AcDbEntity
  8
0
  6
CONTINUOUS
 62
               4
100
AcDbCircle
 10
38.497257383074867
 20
8.6525224605392452
 30
0.0
 40
0.4997133381008656
100
AcDbArc
 50
294.82621530980992
 51
359.88450442035736
  0
LINE
  5
E6
100
AcDbEntity
  8
0
  6
CONTINUOUS
 62
               4
100
AcDbLine
 10
33.884848496718121
 20
5.9999999999999716
 30
0.0
 11
33.88484849671778
 21
25.501010089866668
 31
0.0
  0
LINE
  5
E7
100
AcDbEntity
  8
0
  6
CONTINUOUS
 62
               4
100
AcDbLine
 10
45.996969701917891
 20
20.502020193733472
 30
0.0
 11
46.993939398317906
 21
20.502020193733472
 31
0.0
  0
LINE
  5
E8
100
AcDbEntity
  8
0
  6
CONTINUOUS
 62
               4
100
AcDbLine
 10
38.996969705917934
 20
20.502020193733358
 30
0.0
 11
40.997979805784553
 21
20.502020193733358
 31
0.0
  0
LINE
  5
E9
100
AcDbEntity
  8
0
  6
CONTINUOUS
 62
               4
100
AcDbLine
 10
46.993939398317877
 20
22.099999990800228
 30
0.0
 11
38.996969705917905
 21
22.099999990800086
 31
0.0
  0
LINE
  5
EA
100
AcDbEntity
  8
0
  6
CONTINUOUS
 62
               4
100
AcDbLine
 10
46.993939398317849
 20
23.903030292800224
 30
0.0
 11
38.996969705917877
 21
23.903030292800111
 31
0.0
  0
LINE
  5
EB
100
AcDbEntity
  8
0
  6
CONTINUOUS
 62
               4
100
AcDbLine
 10
46.993939398317821
 20
24.603030292400206
 30
0.0
 11
39.400000008717882
 21
24.603030292400064
 31
0.0
  0
LINE
  5
EC
100
AcDbEntity
  8
0
  6
CONTINUOUS
 62
               4
100
AcDbLine
 10
46.696969701517844
 20
24.899999989200182
 30
0.0
 11
40.792929300851142
 21
24.899999989200069
 31
0.0
  0
LINE
  5
ED
100
AcDbEntity
  8
0
  6
CONTINUOUS
 62
               4
100
AcDbLine
 10
46.993939398317792
 20
26.505050493333499
 30
0.0
 11
45.586868692051098
 21
26.505050493333499
 31
0.0
  0
LINE
  5
EE
100
AcDbEntity
  8
0
  6
CONTINUOUS
 62
               4
100
AcDbLine
 10
46.993939398317764
 20
27.502020189733571
 30
0.0
 11
45.494949500184475
 21
27.502020189733571
 31
0.0
  0
LINE
  5
EF
100
AcDbEntity
  8
0
  6
CONTINUOUS
 62
               4
100
AcDbLine
 10
50.81212121431787
 20
23.65555554546691
 30
0.0
 11
46.993939398317849
 21
23.655555545466854
 31
0.0
  0
LINE
  5
F0
100
AcDbEntity
  8
0
  6
CONTINUOUS
 62
             200
100
AcDbLine
 10
50.324242426717831
 20
24.50404039346688
 30
0.0
 11
52.056565658051227
 21
21.498989890133657
 31
0.0
  0
LINE
  5
F1
100
AcDbEntity
  8
0
  6
CONTINUOUS
 62
               4
100
AcDbLine
 10
51.561616163384514
 20
22.354545445200245
 30
0.0
 11
46.993939398317877
 21
22.354545445200131
 31
0.0
  0
LINE
  5
F2
100
AcDbEntity
  8
0
  6
CONTINUOUS
 62
               4
100
AcDbLine
 10
32.293939406717783
 20
25.501010089866668
 30
0.0
 11
32.293939406717783
 21
25.599999988799937
 31
0.0
  0
LINE
  5
F3
100
AcDbEntity
  8
0
  6
CONTINUOUS
 62
               4
100
AcDbLine
 10
40.389898998051166
 20
26.604040392266825
 30
0.0
 11
31.296969710317768
 21
26.604040392266654
 31
0.0
  0
LINE
  5
F4
100
AcDbEntity
  8
0
  6
CONTINUOUS
 62
               4
100
AcDbLine
 10
40.495959604051166
 20
24.603030292400092
 30
0.0
 11
40.792929300851142
 21
24.899999989200069
 31
0.0
  0
LINE
  5
F5
100
AcDbEntity
  8
0
  6
CONTINUOUS
 62
               4
100
AcDbLine
 10
40.997979805784553
 20
20.502020193733358
 30
0.0
 11
40.997979805784524
 21
21.103030294400128
 31
0.0
  0
LINE
  5
F6
100
AcDbEntity
  8
0
  6
CONTINUOUS
 62
               4
100
AcDbLine
 10
45.996969701917891
 20
21.103030294400185
 30
0.0
 11
40.997979805784524
 21
21.103030294400128
 31
0.0
  0
LINE
  5
F7
100
AcDbEntity
  8
0
  6
CONTINUOUS
 62
               4
100
AcDbLine
 10
45.996969701917891
 20
20.502020193733472
 30
0.0
 11
45.996969701917891
 21
21.103030294400185
 31
0.0
  0
LINE
  5
F8
100
AcDbEntity
  8
0
  6
CONTINUOUS
 62
               4
100
AcDbLine
 10
46.993939398317821
 20
24.603030292400206
 30
0.0
 11
46.696969701517844
 21
24.899999989200182
 31
0.0
  0
LINE
  5
F9
100
AcDbEntity
  8
0
  6
CONTINUOUS
 62
               4
100
AcDbLine
 10
37.992929302451159
 20
25.59999998880005
 30
0.0
 11
32.293939406717783
 21
25.599999988799937
 31
0.0
  0
LINE
  5
FA
100
AcDbEntity
  8
0
  6
CONTINUOUS
 62
               4
100
AcDbLine
 10
39.329292938051196
 20
25.402020190933342
 30
0.0
 11
45.671717176851132
 21
26.519191907466848
 31
0.0
  0
LINE
  5
FB
100
AcDbEntity
  8
0
  6
CONTINUOUS
 62
               4
100
AcDbLine
 10
46.993939398317792
 20
26.505050493333499
 30
0.0
 11
46.993939398317764
 21
27.502020189733571
 31
0.0
  0
LINE
  5
FC
100
AcDbEntity
  8
0
  6
CONTINUOUS
 62
               4
100
AcDbLine
 10
40.389898998051166
 20
26.604040392266825
 30
0.0
 11
45.494949500184475
 21
27.502020189733571
 31
0.0
  0
LINE
  5
FD
100
AcDbEntity
  8
0
  6
CONTINUOUS
 62
               4
100
AcDbLine
 10
46.993939398317906
 20
20.502020193733472
 30
0.0
 11
46.993939398317821
 21
24.603030292400206
 31
0.0
  0
LINE
  5
FE
100
AcDbEntity
  8
0
  6
CONTINUOUS
 62
               4
100
AcDbLine
 10
34.098535171945997
 20
6.0469560324806366
 30
0.0
 11
38.707070716184802
 21
8.1989898977333837
 31
0.0
  0
LINE
  5
FF
100
AcDbEntity
  8
0
  6
CONTINUOUS
 62
               4
100
AcDbLine
 10
38.996969705917849
 20
24.998989888133394
 30
0.0
 11
38.996969705918161
 21
8.6515151500001366
 31
0.0
  0
LINE
  5
100
100
AcDbEntity
  8
0
  6
CONTINUOUS
 62
               4
100
AcDbLine
 10
31.00000001351782
 20
25.501010089866611
 30
0.0
 11
38.49494950418449
 21
25.501010089866782
 31
0.0
  0
LINE
  5
101
100
AcDbEntity
  8
0
  6
CONTINUOUS
 62
               4
100
AcDbLine
 10
17.00000002151819
 20
5.9999999999996589
 30
0.0
 11
33.884848496718121
 21
5.9999999999999716
 31
0.0
  0
LINE
  5
102
100
AcDbEntity
  8
0
  6
CONTINUOUS
 62
               4
100
AcDbLine
 10
54.495959596051193
 20
22.354545445200301
 30
0.0
 11
51.90808080965121
 21
22.354545445200245
 31
0.0
  0
LINE
  5
103
100
AcDbEntity
  8
0
  6
CONTINUOUS
 62
               4
100
AcDbLine
 10
54.495959596051165
 20
23.655555545466996
 30
0.0
 11
51.158585860584566
 21
23.655555545466939
 31
0.0
  0
LINE
  5
104
100
AcDbEntity
  8
0
  6
CONTINUOUS
 62
               7
100
AcDbLine
 10
30.599999999999994
 20
-28.899999999999991
 30
0.0
 11
17.400000000000006
 21
-28.899999999999991
 31
0.0
  0
LINE
  5
105
100
AcDbEntity
  8
0
  6
CONTINUOUS
 62
               7
100
AcDbLine
 10
31.049999999999983
 20
-27.399999999999991
 30
0.0
 11
27.699999999999989
 21
-27.399999999999991
 31
0.0
  0
ARC
  5
106
100
AcDbEntity
  8
0
  6
CONTINUOUS
 62
               7
100
AcDbCircle
 10
29.305000000000007
 20
-25.499981304912836
 30
0.0
 40
3.1971596874005721
100
AcDbArc
 50
241.5112711324667
 51
298.48872886753213
  0
LINE
  5
107
100
AcDbEntity
  8
0
  6
CONTINUOUS
 62
               7
100
AcDbLine
 10
16.999999988079082
 20
-23.899999999999991
 30
0.0
 11
30.999999988079054
 21
-23.899999999999991
 31
0.0
  0
ARC
  5
108
100
AcDbEntity
  8
0
  6
CONTINUOUS
 62
               7
100
AcDbCircle
 10
17.400003051944083
 20
-28.499996948055909
 30
0.0
 40
0.4000030519557204
100
AcDbArc
 50
180.00043715545169
 51
269.99956284454754
  0
ARC
  5
109
100
AcDbEntity
  8
0
  6
CONTINUOUS
 62
               7
100
AcDbCircle
 10
27.974082972497598
 20
-27.932923464014593
 30
0.0
 40
0.4240930489930741
100
AcDbArc
 50
179.60503130945165
 51
242.76491800802398
  0
ARC
  5
10A
100
AcDbEntity
  8
0
  6
CONTINUOUS
 62
               7
100
AcDbCircle
 10
27.699992370611284
 20
-27.599992370611275
 30
0.0
 40
0.1999923707568137
100
AcDbArc
 50
89.997814257754712
 51
180.00218574224468
  0
ARC
  5
10B
100
AcDbEntity
  8
0
  6
CONTINUOUS
 62
               7
100
AcDbCircle
 10
27.299998474115256
 20
-28.699998474115262
 30
0.0
 40
0.200001525890548
100
AcDbArc
 50
270.00043713043902
 51
359.99956286956035
  0
LINE
  5
10C
100
AcDbEntity
  8
0
  6
CONTINUOUS
 62
               7
100
AcDbLine
 10
27.549999999999983
 20
-27.929999999999993
 30
0.0
 11
27.549999999999983
 21
-27.459999999999994
 31
0.0
  0
LINE
  5
10D
100
AcDbEntity
  8
0
  6
CONTINUOUS
 62
               7
100
AcDbLine
 10
27.5
 20
-27.59999999999998
 30
0.0
 11
27.5
 21
-28.699999999999989
 31
0.0
  0
LINE
  5
10E
100
AcDbEntity
  8
0
  6
CONTINUOUS
 62
               7
100
AcDbLine
 10
16.0
 20
2.7000000000000028
 30
0.0
 11
0.0
 21
2.7000000000000028
 31
0.0
  0
LINE
  5
10F
100
AcDbEntity
  8
0
  6
CONTINUOUS
 62
               7
100
AcDbLine
 10
16.0
 20
-32.299999999999997
 30
0.0
 11
0.0
 21
-32.299999999999997
 31
0.0
  0
LINE
  5
110
100
AcDbEntity
  8
0
  6
CENTER
 62
               2
100
AcDbLine
 10
7.5
 20
-19.999999999999986
 30
0.0
 11
14.5
 21
-19.999999999999986
 31
0.0
  0
CIRCLE
  5
111
100
AcDbEntity
  8
0
  6
CONTINUOUS
 62
               2
100
AcDbCircle
 10
4.9999816894531364
 20
-12.300006103515628
 30
0.0
 40
2.5
  0
CIRCLE
  5
112
100
AcDbEntity
  8
0
  6
CONTINUOUS
 62
               2
100
AcDbCircle
 10
10.999996948242199
 20
-20.000003051757815
 30
0.0
 40
2.5
  0
CIRCLE
  5
113
100
AcDbEntity
  8
0
  6
CONTINUOUS
 62
               7
100
AcDbCircle
 10
10.999996948242199
 20
-20.000003051757815
 30
0.0
 40
2.0669994354248047
  0
CIRCLE
  5
114
100
AcDbEntity
  8
0
  6
CONTINUOUS
 62
               7
100
AcDbCircle
 10
4.9999816894531364
 20
-12.300006103515628
 30
0.0
 40
2.0669994354248047
  0
LINE
  5
115
100
AcDbEntity
  8
0
  6
CENTER
 62
               2
100
AcDbLine
 10
1.5
 20
-12.299999999999997
 30
0.0
 11
8.5
 21
-12.299999999999997
 31
0.0
  0
LINE
  5
116
100
AcDbEntity
  8
0
  6
CENTER
 62
               2
100
AcDbLine
 10
5.0
 20
-8.7999999999999972
 30
0.0
 11
5.0
 21
-15.799999999999997
 31
0.0
  0
LINE
  5
117
100
AcDbEntity
  8
0
  6
CENTER
 62
               2
100
AcDbLine
 10
11.0
 20
-16.5
 30
0.0
 11
11.0
 21
-23.499999999999986
 31
0.0
  0
LINE
  5
118
100
AcDbEntity
  8
0
  6
CONTINUOUS
 62
               7
100
AcDbLine
 10
0.0
 20
2.7000000000000028
 30
0.0
 11
0.0
 21
-32.299999999999997
 31
0.0
  0
LINE
  5
119
100
AcDbEntity
  8
0
  6
CONTINUOUS
 62
               7
100
AcDbLine
 10
16.0
 20
-32.299999999999997
 30
0.0
 11
16.0
 21
2.7000000000000028
 31
0.0
  0
LINE
  5
11A
100
AcDbEntity
  8
0
  6
CONTINUOUS
 62
               7
100
AcDbLine
 10
16.999996948242199
 20
0.4999938964843835
 30
0.0
 11
15.999996948242199
 21
0.4999938964843835
 31
0.0
  0
LINE
  5
11B
100
AcDbEntity
  8
0
  6
CONTINUOUS
 62
               7
100
AcDbLine
 10
16.999996948242199
 20
-30.100006103515625
 30
0.0
 11
15.999996948242199
 21
-30.100006103515625
 31
0.0
  0
LINE
  5
11C
100
AcDbEntity
  8
0
  6
CENTER
 62
               2
100
AcDbLine
 10
24.000000021518844
 20
-31.112999999998877
 30
0.0
 11
24.000000021517764
 21
30.342850672798193
 31
0.0
  0
LINE
  5
11D
100
AcDbEntity
  8
0
  6
CONTINUOUS
 62
               4
100
AcDbLine
 10
20.700000202553383
 20
27.899999999999665
 30
0.0
 11
20.700000202553383
 21
28.499999999999687
 31
0.0
  0
ARC
  5
11E
100
AcDbEntity
  8
0
  6
CONTINUOUS
 62
               4
100
AcDbCircle
 10
19.601088207790468
 20
27.901088005236673
 30
0.0
 40
0.5989129830170392
100
AcDbArc
 50
359.89591452477299
 51
90.104085475226924
  0
LINE
  5
11F
100
AcDbEntity
  8
0
  6
CENTER
 62
               2
100
AcDbLine
 10
-2.0000000167243002
 20
0.0
 30
0.0
 11
1.9999999832756998
 21
0.0
 31
0.0
  0
LINE
  5
120
100
AcDbEntity
  8
0
  6
CENTER
 62
               2
100
AcDbLine
 10
-2.0
 20
0.0
 30
0.0
 11
2.0
 21
0.0
 31
0.0
  0
LINE
  5
121
100
AcDbEntity
  8
0
  6
CENTER
 62
               2
100
AcDbLine
 10
-2.0
 20
-29.599999999999994
 30
0.0
 11
2.0
 21
-29.599999999999994
 31
0.0
  0
ENDBLK
  5
122
100
AcDbEntity
  8
0
100
AcDbBlockEnd
  0
BLOCK
  5
123
100
AcDbEntity
  8
0
100
AcDbBlockBegin
  2
EA10SA5-3
 70
               0
 10
0.0
 20
0.0
 30
0.0
  3
EA10SA5-3
  1

  0
LINE
  5
124
100
AcDbEntity
  8
0
  6
CONTINUOUS
 62
               4
100
AcDbLine
 10
-54.495959550691751
 20
22.754233112520097
 30
0.0
 11
-57.995959550691808
 21
22.754233112519955
 31
0.0
  0
LINE
  5
125
100
AcDbEntity
  8
0
  6
CONTINUOUS
 62
               4
100
AcDbLine
 10
-57.995959550691808
 20
23.254233112519955
 30
0.0
 11
-57.995959550691808
 21
22.754233112519955
 31
0.0
  0
LINE
  5
126
100
AcDbEntity
  8
0
  6
CONTINUOUS
 62
               4
100
AcDbLine
 10
-54.495959550691751
 20
23.254233112520097
 30
0.0
 11
-57.995959550691808
 21
23.254233112519955
 31
0.0
  0
LINE
  5
127
100
AcDbEntity
  8
0
  6
CONTINUOUS
 62
               7
100
AcDbLine
 10
-30.199999976158153
 20
-18.099999999999994
 30
0.0
 11
-29.999999976158165
 21
-18.099999999999994
 31
0.0
  0
ARC
  5
128
100
AcDbEntity
  8
0
  6
CONTINUOUS
 62
               7
100
AcDbCircle
 10
-30.199999976158153
 20
-18.5
 30
0.0
 40
0.4
100
AcDbArc
 50
89.999999999999815
 51
179.99999999999963
  0
LINE
  5
129
100
AcDbEntity
  8
0
  6
CONTINUOUS
 62
               7
100
AcDbLine
 10
-30.199999976158153
 20
-21.099999999999994
 30
0.0
 11
-29.999999976158165
 21
-21.099999999999994
 31
0.0
  0
ARC
  5
12A
100
AcDbEntity
  8
0
  6
CONTINUOUS
 62
               7
100
AcDbCircle
 10
-30.199999976158153
 20
-20.700000000000003
 30
0.0
 40
0.4
100
AcDbArc
 50
179.99999999999963
 51
269.99999999999937
  0
LINE
  5
12B
100
AcDbEntity
  8
0
  6
CONTINUOUS
 62
               7
100
AcDbLine
 10
-30.599999976158159
 20
-18.5
 30
0.0
 11
-30.599999976158159
 21
-20.700000000000003
 31
0.0
  0
LINE
  5
12C
100
AcDbEntity
  8
0
  6
CONTINUOUS
 62
               7
100
AcDbLine
 10
-16.999999976158165
 20
6.0
 30
0.0
 11
-16.999978637695335
 21
-30.100006103515625
 31
0.0
  0
ARC
  5
12D
100
AcDbEntity
  8
0
  6
CONTINUOUS
 62
               7
100
AcDbCircle
 10
-30.599984717369125
 20
-28.499984741210923
 30
0.0
 40
0.4000152590800927
100
AcDbArc
 50
180.00218557716028
 51
269.99781442283921
  0
ARC
  5
12E
100
AcDbEntity
  8
0
  6
CONTINUOUS
 62
               7
100
AcDbCircle
 10
-17.39999387321302
 20
-28.500006102945193
 30
0.0
 40
0.3999938971013656
100
AcDbArc
 50
269.99912580415821
 51
0.0008741958432351
  0
ARC
  5
12F
100
AcDbEntity
  8
0
  6
CONTINUOUS
 62
               7
100
AcDbCircle
 10
-17.374706615486957
 20
-27.935293360671224
 30
0.0
 40
0.4222744853241268
100
AcDbArc
 50
297.45748041710277
 51
332.54251958289433
  0
ARC
  5
130
100
AcDbEntity
  8
0
  6
CONTINUOUS
 62
               7
100
AcDbCircle
 10
-20.023563967371388
 20
-27.936800205439212
 30
0.0
 40
0.4264902254261231
100
AcDbArc
 50
179.08640442595285
 51
241.0507612177737
  0
ARC
  5
131
100
AcDbEntity
  8
0
  6
CONTINUOUS
 62
               7
100
AcDbCircle
 10
-20.299995398049987
 20
-27.600004578108198
 30
0.0
 40
0.2000045781606
100
AcDbArc
 50
90.001311501357506
 51
179.99868849862943
  0
ARC
  5
132
100
AcDbEntity
  8
0
  6
CONTINUOUS
 62
               7
100
AcDbCircle
 10
-20.699989295477337
 20
-28.700010680680847
 30
0.0
 40
0.1999893196043432
100
AcDbArc
 50
269.99694004691679
 51
0.0030599530887399
  0
ARC
  5
133
100
AcDbEntity
  8
0
  6
CONTINUOUS
 62
               7
100
AcDbCircle
 10
-18.704999976158206
 20
-25.499981271273313
 30
0.0
 40
3.1971597169667145
100
AcDbArc
 50
241.51127142001724
 51
298.48872857998202
  0
LINE
  5
134
100
AcDbEntity
  8
0
  6
CONTINUOUS
 62
               7
100
AcDbLine
 10
-20.449999976158153
 20
-27.929999999999993
 30
0.0
 11
-20.449999976158153
 21
-27.459999999999994
 31
0.0
  0
LINE
  5
135
100
AcDbEntity
  8
0
  6
CONTINUOUS
 62
               7
100
AcDbLine
 10
-20.499999976158165
 20
-27.599999999999994
 30
0.0
 11
-20.499999976158165
 21
-28.700000000000003
 31
0.0
  0
LINE
  5
136
100
AcDbEntity
  8
0
  6
CONTINUOUS
 62
               7
100
AcDbLine
 10
-30.599999976158188
 20
-28.899999999999991
 30
0.0
 11
-17.399999976158199
 21
-28.899999999999991
 31
0.0
  0
LINE
  5
137
100
AcDbEntity
  8
0
  6
CONTINUOUS
 62
               7
100
AcDbLine
 10
-29.999999976158165
 20
-17.999001430615195
 30
0.0
 11
-29.999999976158165
 21
-21.199001430615183
 31
0.0
  0
LINE
  5
138
100
AcDbEntity
  8
0
  6
CONTINUOUS
 62
               7
100
AcDbLine
 10
-16.999999976158165
 20
-5.7000000000000028
 30
0.0
 11
-30.999999976158165
 21
-5.7000000000000028
 31
0.0
  0
LINE
  5
139
100
AcDbEntity
  8
0
  6
CONTINUOUS
 62
               7
100
AcDbLine
 10
-30.999999976158165
 20
6.0
 30
0.0
 11
-30.999999976158165
 21
-28.499999999999986
 31
0.0
  0
LINE
  5
13A
100
AcDbEntity
  8
0
  6
CONTINUOUS
 62
               7
100
AcDbLine
 10
-31.00003850088882
 20
6.4999999985157899
 30
0.0
 11
-30.999999976158165
 21
6.0
 31
0.0
  0
LINE
  5
13B
100
AcDbEntity
  8
0
  6
CONTINUOUS
 62
               7
100
AcDbLine
 10
-32.099999976158188
 20
0.0
 30
0.0
 11
-32.099999976158188
 21
5.9999999999999432
 31
0.0
  0
LINE
  5
13C
100
AcDbEntity
  8
0
  6
CONTINUOUS
 62
               7
100
AcDbLine
 10
-30.999999976158222
 20
-1.0999999999999943
 30
0.0
 11
-32.099999976158188
 21
0.0
 31
0.0
  0
LINE
  5
13D
100
AcDbEntity
  8
0
  6
CONTINUOUS
 62
               7
100
AcDbLine
 10
-32.547999976158167
 20
2.5999999999999943
 30
0.0
 11
-32.547999976158167
 21
4.8000000000000398
 31
0.0
  0
LINE
  5
13E
100
AcDbEntity
  8
0
  6
CONTINUOUS
 62
               7
100
AcDbLine
 10
-32.547999976158167
 20
4.8000000000000398
 30
0.0
 11
-32.099999976158188
 21
4.8000000000000398
 31
0.0
  0
LINE
  5
13F
100
AcDbEntity
  8
0
  6
CONTINUOUS
 62
               7
100
AcDbLine
 10
-32.547999976158167
 20
2.5999999999999943
 30
0.0
 11
-32.099999976158188
 21
2.5999999999999943
 31
0.0
  0
LINE
  5
140
100
AcDbEntity
  8
0
  6
CONTINUOUS
 62
               7
100
AcDbLine
 10
-29.999999976158165
 20
-17.999001430615195
 30
0.0
 11
-30.999999976158165
 21
-17.999001430615195
 31
0.0
  0
LINE
  5
141
100
AcDbEntity
  8
0
  6
CONTINUOUS
 62
               7
100
AcDbLine
 10
-29.999999976158165
 20
-21.199001430615183
 30
0.0
 11
-30.999999976158165
 21
-21.199001430615183
 31
0.0
  0
LINE
  5
142
100
AcDbEntity
  8
0
  6
CONTINUOUS
 62
               7
100
AcDbLine
 10
-20.299999964237259
 20
-27.399999999999991
 30
0.0
 11
-16.99999995231633
 21
-27.399999999999991
 31
0.0
  0
LINE
  5
143
100
AcDbEntity
  8
0
  6
CONTINUOUS
 62
               7
100
AcDbLine
 10
-30.99999995231633
 20
-23.899999999999991
 30
0.0
 11
-16.99999995231633
 21
-23.899999999999991
 31
0.0
  0
LINE
  5
144
100
AcDbEntity
  8
0
  6
CONTINUOUS
 62
               4
100
AcDbLine
 10
-54.495959550691765
 20
23.655555545465973
 30
0.0
 11
-51.158585815225166
 21
23.655555545466029
 31
0.0
  0
LINE
  5
145
100
AcDbEntity
  8
0
  6
CONTINUOUS
 62
               4
100
AcDbLine
 10
-54.495959550691737
 20
22.354545445199278
 30
0.0
 11
-51.908080764291753
 21
22.354545445199307
 31
0.0
  0
ARC
  5
146
100
AcDbEntity
  8
0
  6
CONTINUOUS
 62
               4
100
AcDbCircle
 10
-17.799904915509842
 20
27.900095146648653
 30
0.0
 40
0.599904800896587
100
AcDbArc
 50
56.247417870394948
 51
90.009087277547238
  0
ARC
  5
147
100
AcDbEntity
  8
0
  6
CONTINUOUS
 62
               4
100
AcDbCircle
 10
-30.201087887286803
 20
27.901088005128003
 30
0.0
 40
0.598912923125741
100
AcDbArc
 50
89.895914524773801
 51
180.10408547522775
  0
LINE
  5
148
100
AcDbEntity
  8
0
  6
CONTINUOUS
 62
               4
100
AcDbLine
 10
-27.299999787122971
 20
27.899999999999778
 30
0.0
 11
-30.999999968158562
 21
27.899999999999721
 31
0.0
  0
ARC
  5
149
100
AcDbEntity
  8
0
  6
CONTINUOUS
 62
               4
100
AcDbCircle
 10
-30.49999996815859
 20
27.89999999999975
 30
0.0
 40
0.5
100
AcDbArc
 50
93.919585899651864
 51
180.00000000000065
  0
LINE
  5
14A
100
AcDbEntity
  8
0
  6
CONTINUOUS
 62
               4
100
AcDbLine
 10
-17.800000062158517
 20
28.5
 30
0.0
 11
-30.199999882158522
 21
28.499999999999773
 31
0.0
  0
LINE
  5
14B
100
AcDbEntity
  8
0
  6
CONTINUOUS
 62
               4
100
AcDbLine
 10
-30.999999968158562
 20
27.899999999999721
 30
0.0
 11
-30.999999968158136
 21
5.9999999999997442
 31
0.0
  0
ARC
  5
14C
100
AcDbEntity
  8
0
  6
CONTINUOUS
 62
               4
100
AcDbCircle
 10
-17.499999976158534
 20
27.899999999999949
 30
0.0
 40
0.5
100
AcDbArc
 50
0.0000000000010687
 51
90.000000000000867
  0
LINE
  5
14D
100
AcDbEntity
  8
0
  6
CONTINUOUS
 62
               4
100
AcDbLine
 10
-17.499999976158534
 20
28.400000000000006
 30
0.0
 11
-18.99999997215852
 21
28.399999999999963
 31
0.0
  0
LINE
  5
14E
100
AcDbEntity
  8
0
  6
CONTINUOUS
 62
               4
100
AcDbLine
 10
-18.999999972158491
 20
28.499999999999957
 30
0.0
 11
-18.999999972158491
 21
26.899999999999906
 31
0.0
  0
LINE
  5
14F
100
AcDbEntity
  8
0
  6
CONTINUOUS
 62
               4
100
AcDbLine
 10
-18.999999972158491
 20
26.899999999999906
 30
0.0
 11
-30.999999968158505
 21
26.899999999999693
 31
0.0
  0
LINE
  5
150
100
AcDbEntity
  8
0
  6
CONTINUOUS
 62
               4
100
AcDbLine
 10
-16.999999976158165
 20
6.0
 30
0.0
 11
-16.999999976158563
 21
27.899999999999977
 31
0.0
  0
LINE
  5
151
100
AcDbEntity
  8
0
  6
CONTINUOUS
 62
             200
100
AcDbLine
 10
-50.670707027625184
 20
24.504040393466056
 30
0.0
 11
-52.403030258958466
 21
21.506060597199337
 31
0.0
  0
ARC
  5
152
100
AcDbEntity
  8
0
  6
CONTINUOUS
 62
               4
100
AcDbCircle
 10
-39.400834007512856
 20
25.006894639353931
 30
0.0
 40
0.403865208170398
100
AcDbArc
 50
270.11832473551408
 51
359.88167526448518
  0
ARC
  5
153
100
AcDbEntity
  8
0
  6
CONTINUOUS
 62
               4
100
AcDbCircle
 10
-39.399895894537536
 20
25.005327231604099
 30
0.0
 40
0.4029269013737999
100
AcDbArc
 50
0.1042835857501941
 51
79.908228442604724
  0
ARC
  5
154
100
AcDbEntity
  8
0
  6
CONTINUOUS
 62
               4
100
AcDbCircle
 10
-37.999912482295684
 20
25.105034325092248
 30
0.0
 40
0.4950149226876426
100
AcDbArc
 50
89.191695875422141
 51
126.87687525883594
  0
ARC
  5
155
100
AcDbEntity
  8
0
  6
CONTINUOUS
 62
               4
100
AcDbCircle
 10
-31.299431259875945
 20
26.30458412941843
 30
0.0
 40
0.2994663800970315
100
AcDbArc
 50
359.12289923249404
 51
89.529026971536297
  0
ARC
  5
156
100
AcDbEntity
  8
0
  6
CONTINUOUS
 62
               4
100
AcDbCircle
 10
-38.500332809079822
 20
25.004373238387629
 30
0.0
 40
0.4966660273328702
100
AcDbArc
 50
89.378960363566961
 51
180.62103963643685
  0
ARC
  5
157
100
AcDbEntity
  8
0
  6
CONTINUOUS
 62
               4
100
AcDbCircle
 10
-38.497257337714956
 20
8.6525224605388047
 30
0.0
 40
0.4997133381008656
100
AcDbArc
 50
180.11549557964358
 51
245.17378469019093
  0
LINE
  5
158
100
AcDbEntity
  8
0
  6
CONTINUOUS
 62
               4
100
AcDbLine
 10
-33.884848451358096
 20
5.9999999999997016
 30
0.0
 11
-33.884848451358437
 21
25.501010089866398
 31
0.0
  0
LINE
  5
159
100
AcDbEntity
  8
0
  6
CONTINUOUS
 62
               4
100
AcDbLine
 10
-45.996969656558377
 20
20.502020193732761
 30
0.0
 11
-46.993939352958392
 21
20.502020193732719
 31
0.0
  0
LINE
  5
15A
100
AcDbEntity
  8
0
  6
CONTINUOUS
 62
               4
100
AcDbLine
 10
-38.99696966055842
 20
20.502020193732903
 30
0.0
 11
-40.997979760425039
 21
20.502020193732832
 31
0.0
  0
LINE
  5
15B
100
AcDbEntity
  8
0
  6
CONTINUOUS
 62
               4
100
AcDbLine
 10
-46.993939352958421
 20
22.099999990799489
 30
0.0
 11
-38.996969660558449
 21
22.099999990799631
 31
0.0
  0
LINE
  5
15C
100
AcDbEntity
  8
0
  6
CONTINUOUS
 62
               4
100
AcDbLine
 10
-46.993939352958449
 20
23.903030292799485
 30
0.0
 11
-38.996969660558477
 21
23.903030292799656
 31
0.0
  0
LINE
  5
15D
100
AcDbEntity
  8
0
  6
CONTINUOUS
 62
               4
100
AcDbLine
 10
-46.993939352958478
 20
24.603030292399467
 30
0.0
 11
-39.399999963358539
 21
24.603030292399581
 31
0.0
  0
LINE
  5
15E
100
AcDbEntity
  8
0
  6
CONTINUOUS
 62
               4
100
AcDbLine
 10
-46.696969656158501
 20
24.899999989199443
 30
0.0
 11
-40.792929255491799
 21
24.899999989199543
 31
0.0
  0
LINE
  5
15F
100
AcDbEntity
  8
0
  6
CONTINUOUS
 62
               4
100
AcDbLine
 10
-46.993939352958506
 20
26.50505049333276
 30
0.0
 11
-45.586868646691812
 21
26.505050493332803
 31
0.0
  0
LINE
  5
160
100
AcDbEntity
  8
0
  6
CONTINUOUS
 62
               4
100
AcDbLine
 10
-46.993939352958535
 20
27.502020189732832
 30
0.0
 11
-45.494949454825246
 21
27.502020189732875
 31
0.0
  0
LINE
  5
161
100
AcDbEntity
  8
0
  6
CONTINUOUS
 62
               4
100
AcDbLine
 10
-50.81212116895847
 20
23.655555545466029
 30
0.0
 11
-46.993939352958449
 21
23.655555545466115
 31
0.0
  0
LINE
  5
162
100
AcDbEntity
  8
0
  6
CONTINUOUS
 62
             200
100
AcDbLine
 10
-50.324242381358488
 20
24.504040393466013
 30
0.0
 11
-52.05656561269177
 21
21.498989890132719
 31
0.0
  0
LINE
  5
163
100
AcDbEntity
  8
0
  6
CONTINUOUS
 62
               4
100
AcDbLine
 10
-51.561616118025057
 20
22.354545445199335
 30
0.0
 11
-46.993939352958421
 21
22.354545445199392
 31
0.0
  0
LINE
  5
164
100
AcDbEntity
  8
0
  6
CONTINUOUS
 62
               4
100
AcDbLine
 10
-32.29393936135844
 20
25.501010089866455
 30
0.0
 11
-32.293939361358497
 21
25.599999988799723
 31
0.0
  0
LINE
  5
165
100
AcDbEntity
  8
0
  6
CONTINUOUS
 62
               4
100
AcDbLine
 10
-40.38989895269188
 20
26.604040392266313
 30
0.0
 11
-31.296969664958482
 21
26.604040392266484
 31
0.0
  0
LINE
  5
166
100
AcDbEntity
  8
0
  6
CONTINUOUS
 62
               4
100
AcDbLine
 10
-40.495959558691823
 20
24.603030292399581
 30
0.0
 11
-40.792929255491799
 21
24.899999989199543
 31
0.0
  0
LINE
  5
167
100
AcDbEntity
  8
0
  6
CONTINUOUS
 62
               4
100
AcDbLine
 10
-40.997979760425039
 20
20.502020193732832
 30
0.0
 11
-40.997979760425068
 21
21.103030294399602
 31
0.0
  0
LINE
  5
168
100
AcDbEntity
  8
0
  6
CONTINUOUS
 62
               4
100
AcDbLine
 10
-45.996969656558434
 20
21.103030294399474
 30
0.0
 11
-40.997979760425068
 21
21.103030294399602
 31
0.0
  0
LINE
  5
169
100
AcDbEntity
  8
0
  6
CONTINUOUS
 62
               4
100
AcDbLine
 10
-45.996969656558377
 20
20.502020193732761
 30
0.0
 11
-45.996969656558434
 21
21.103030294399474
 31
0.0
  0
LINE
  5
16A
100
AcDbEntity
  8
0
  6
CONTINUOUS
 62
               4
100
AcDbLine
 10
-46.993939352958478
 20
24.603030292399467
 30
0.0
 11
-46.696969656158501
 21
24.899999989199443
 31
0.0
  0
LINE
  5
16B
100
AcDbEntity
  8
0
  6
CONTINUOUS
 62
               4
100
AcDbLine
 10
-37.992929257091873
 20
25.599999988799624
 30
0.0
 11
-32.293939361358497
 21
25.599999988799723
 31
0.0
  0
LINE
  5
16C
100
AcDbEntity
  8
0
  6
CONTINUOUS
 62
               4
100
AcDbLine
 10
-39.329292892691853
 20
25.402020190932873
 30
0.0
 11
-45.671717131491846
 21
26.519191907466137
 31
0.0
  0
LINE
  5
16D
100
AcDbEntity
  8
0
  6
CONTINUOUS
 62
               4
100
AcDbLine
 10
-46.993939352958506
 20
26.50505049333276
 30
0.0
 11
-46.993939352958535
 21
27.502020189732832
 31
0.0
  0
LINE
  5
16E
100
AcDbEntity
  8
0
  6
CONTINUOUS
 62
               4
100
AcDbLine
 10
-40.38989895269188
 20
26.604040392266313
 30
0.0
 11
-45.494949454825246
 21
27.502020189732875
 31
0.0
  0
LINE
  5
16F
100
AcDbEntity
  8
0
  6
CONTINUOUS
 62
               4
100
AcDbLine
 10
-46.993939352958392
 20
20.502020193732719
 30
0.0
 11
-46.993939352958478
 21
24.603030292399467
 31
0.0
  0
LINE
  5
170
100
AcDbEntity
  8
0
  6
CONTINUOUS
 62
               4
100
AcDbLine
 10
-34.098535126585986
 20
6.0469560324803524
 30
0.0
 11
-38.707070670824834
 21
8.198989897732929
 31
0.0
  0
LINE
  5
171
100
AcDbEntity
  8
0
  6
CONTINUOUS
 62
               4
100
AcDbLine
 10
-38.996969660558506
 20
24.99898988813294
 30
0.0
 11
-38.99696966055825
 21
8.6515151499996819
 31
0.0
  0
LINE
  5
172
100
AcDbEntity
  8
0
  6
CONTINUOUS
 62
               4
100
AcDbLine
 10
-30.999999968158477
 20
25.50101008986644
 30
0.0
 11
-38.494949458825147
 21
25.501010089866341
 31
0.0
  0
LINE
  5
173
100
AcDbEntity
  8
0
  6
CONTINUOUS
 62
               4
100
AcDbLine
 10
-16.999999976158165
 20
6.0
 30
0.0
 11
-33.884848451358096
 21
5.9999999999997016
 31
0.0
  0
LINE
  5
174
100
AcDbEntity
  8
0
  6
CONTINUOUS
 62
               4
100
AcDbLine
 10
-54.495959550691737
 20
22.354545445199278
 30
0.0
 11
-54.495959550691765
 21
23.655555545465973
 31
0.0
  0
LINE
  5
175
100
AcDbEntity
  8
0
  6
CONTINUOUS
 62
               7
100
AcDbLine
 10
-16.0
 20
-32.299999999999997
 30
0.0
 11
-16.0
 21
2.7000000000000028
 31
0.0
  0
LINE
  5
176
100
AcDbEntity
  8
0
  6
CONTINUOUS
 62
               7
100
AcDbLine
 10
0.0
 20
2.7000000000000028
 30
0.0
 11
0.0
 21
-32.299999999999997
 31
0.0
  0
LINE
  5
177
100
AcDbEntity
  8
0
  6
CONTINUOUS
 62
               7
100
AcDbLine
 10
-16.0
 20
2.7000000000000028
 30
0.0
 11
0.0
 21
2.7000000000000028
 31
0.0
  0
LINE
  5
178
100
AcDbEntity
  8
0
  6
CONTINUOUS
 62
               7
100
AcDbLine
 10
-16.0
 20
-32.299999999999997
 30
0.0
 11
0.0
 21
-32.299999999999997
 31
0.0
  0
LINE
  5
179
100
AcDbEntity
  8
0
  6
CENTER
 62
               2
100
AcDbLine
 10
-5.0
 20
-18.899999999999991
 30
0.0
 11
-5.0
 21
-25.899999999999991
 31
0.0
  0
LINE
  5
17A
100
AcDbEntity
  8
0
  6
CENTER
 62
               2
100
AcDbLine
 10
-8.5
 20
-22.399999999999991
 30
0.0
 11
-1.5
 21
-22.399999999999991
 31
0.0
  0
LINE
  5
17B
100
AcDbEntity
  8
0
  6
CENTER
 62
               2
100
AcDbLine
 10
-11.0
 20
-11.299999999999997
 30
0.0
 11
-11.0
 21
-18.299999999999997
 31
0.0
  0
LINE
  5
17C
100
AcDbEntity
  8
0
  6
CENTER
 62
               2
100
AcDbLine
 10
-14.5
 20
-14.799999999999997
 30
0.0
 11
-7.5
 21
-14.799999999999997
 31
0.0
  0
LINE
  5
17D
100
AcDbEntity
  8
0
  6
CENTER
 62
               2
100
AcDbLine
 10
-10.0
 20
-1.2999999999999972
 30
0.0
 11
-10.0
 21
-8.2999999999999972
 31
0.0
  0
LINE
  5
17E
100
AcDbEntity
  8
0
  6
CENTER
 62
               2
100
AcDbLine
 10
-13.5
 20
-4.7999999999999972
 30
0.0
 11
-6.5
 21
-4.7999999999999972
 31
0.0
  0
CIRCLE
  5
17F
100
AcDbEntity
  8
0
  6
CONTINUOUS
 62
               7
100
AcDbCircle
 10
-9.9999786376953352
 20
-4.8000061035156278
 30
0.0
 40
2.0669994354248047
  0
CIRCLE
  5
180
100
AcDbEntity
  8
0
  6
CONTINUOUS
 62
               7
100
AcDbCircle
 10
-10.999978637695335
 20
-14.800006103515628
 30
0.0
 40
2.0669994354248047
  0
CIRCLE
  5
181
100
AcDbEntity
  8
0
  6
CONTINUOUS
 62
               7
100
AcDbCircle
 10
-4.9999786376953352
 20
-22.39999694824219
 30
0.0
 40
2.0669994354248047
  0
CIRCLE
  5
182
100
AcDbEntity
  8
0
  6
CONTINUOUS
 62
               2
100
AcDbCircle
 10
-4.9999786376953352
 20
-22.39999694824219
 30
0.0
 40
2.5
  0
CIRCLE
  5
183
100
AcDbEntity
  8
0
  6
CONTINUOUS
 62
               2
100
AcDbCircle
 10
-10.999978637695335
 20
-14.800006103515628
 30
0.0
 40
2.5
  0
CIRCLE
  5
184
100
AcDbEntity
  8
0
  6
CONTINUOUS
 62
               2
100
AcDbCircle
 10
-9.9999786376953352
 20
-4.8000061035156278
 30
0.0
 40
2.5
  0
LINE
  5
185
100
AcDbEntity
  8
0
  6
CENTER
 62
               2
100
AcDbLine
 10
-23.999999976158165
 20
30.347850672801101
 30
0.0
 11
-23.999999976158165
 21
-31.099999999999994
 31
0.0
  0
LINE
  5
186
100
AcDbEntity
  8
0
  6
CONTINUOUS
 62
               7
100
AcDbLine
 10
-16.999978637695335
 20
-30.100006103515625
 30
0.0
 11
-15.999978637695335
 21
-30.100006103515625
 31
0.0
  0
LINE
  5
187
100
AcDbEntity
  8
0
  6
CONTINUOUS
 62
               7
100
AcDbLine
 10
-16.999978637695335
 20
0.4999938964843835
 30
0.0
 11
-15.999978637695335
 21
0.4999938964843835
 31
0.0
  0
LINE
  5
188
100
AcDbEntity
  8
0
  6
CONTINUOUS
 62
               4
100
AcDbLine
 10
-27.299999787122971
 20
27.89999999999975
 30
0.0
 11
-27.299999787122971
 21
28.499999999999773
 31
0.0
  0
ARC
  5
189
100
AcDbEntity
  8
0
  6
CONTINUOUS
 62
               4
100
AcDbCircle
 10
-28.398911781885886
 20
27.901088005236758
 30
0.0
 40
0.5989129830170392
100
AcDbArc
 50
359.89591452477299
 51
90.104085475226924
  0
ARC
  5
18A
100
AcDbEntity
  8
0
  6
CONTINUOUS
 62
               4
100
AcDbCircle
 10
-33.886980682203031
 20
6.4999954535706479
 30
0.0
 40
0.5
100
AcDbArc
 50
244.96897918278245
 51
270.24433639730165
  0
LINE
  5
18B
100
AcDbEntity
  8
0
  6
CENTER
 62
               2
100
AcDbLine
 10
-2.0000000167243286
 20
-29.599999999999994
 30
0.0
 11
1.9999999832756714
 21
-29.599999999999994
 31
0.0
  0
LINE
  5
18C
100
AcDbEntity
  8
0
  6
CENTER
 62
               2
100
AcDbLine
 10
-2.0000000167243286
 20
0.0
 30
0.0
 11
1.9999999832756714
 21
0.0
 31
0.0
  0
ENDBLK
  5
18D
100
AcDbEntity
  8
0
100
AcDbBlockEnd
  0
BLOCK
  5
18E
100
AcDbEntity
  8
0
100
AcDbBlockBegin
  2
EA10SA5-4
 70
               0
 10
0.0
 20
0.0
 30
0.0
  3
EA10SA5-4
  1

  0
LINE
  5
18F
100
AcDbEntity
  8
0
  6
PHANTOM
 62
             200
100
AcDbLine
 10
16.200000000000017
 20
-18.399999999999991
 30
0.0
 11
16.200000000000017
 21
-26.399999999999991
 31
0.0
  0
LINE
  5
190
100
AcDbEntity
  8
0
  6
PHANTOM
 62
             200
100
AcDbLine
 10
14.200000000000017
 20
-18.399999999999991
 30
0.0
 11
14.200000000000017
 21
-26.399999999999991
 31
0.0
  0
LINE
  5
191
100
AcDbEntity
  8
0
  6
PHANTOM
 62
             200
100
AcDbLine
 10
16.700000000000017
 20
-18.899999999999991
 30
0.0
 11
16.700000000000017
 21
-25.899999999999991
 31
0.0
  0
ARC
  5
192
100
AcDbEntity
  8
0
  6
PHANTOM
 62
             200
100
AcDbCircle
 10
16.200000000000017
 20
-25.899999999999991
 30
0.0
 40
0.5
100
AcDbArc
 50
269.99999999999937
 51
0.0
  0
ARC
  5
193
100
AcDbEntity
  8
0
  6
PHANTOM
 62
             200
100
AcDbCircle
 10
16.200000000000017
 20
-18.899999999999991
 30
0.0
 40
0.5
100
AcDbArc
 50
0.0
 51
89.999999999999815
  0
ARC
  5
194
100
AcDbEntity
  8
0
  6
PHANTOM
 62
             200
100
AcDbCircle
 10
16.200000000000017
 20
-1.2999999999999972
 30
0.0
 40
0.5
100
AcDbArc
 50
0.0
 51
89.999999999999815
  0
ARC
  5
195
100
AcDbEntity
  8
0
  6
PHANTOM
 62
             200
100
AcDbCircle
 10
16.200000000000017
 20
-8.2999999999999972
 30
0.0
 40
0.5
100
AcDbArc
 50
269.99999999999937
 51
0.0
  0
LINE
  5
196
100
AcDbEntity
  8
0
  6
PHANTOM
 62
             200
100
AcDbLine
 10
16.700000000000017
 20
-1.2999999999999972
 30
0.0
 11
16.700000000000017
 21
-8.2999999999999972
 31
0.0
  0
LINE
  5
197
100
AcDbEntity
  8
0
  6
PHANTOM
 62
             200
100
AcDbLine
 10
14.200000000000017
 20
-0.7999999999999972
 30
0.0
 11
14.200000000000017
 21
-8.7999999999999972
 31
0.0
  0
LINE
  5
198
100
AcDbEntity
  8
0
  6
PHANTOM
 62
             200
100
AcDbLine
 10
16.200000000000017
 20
-0.7999999999999972
 30
0.0
 11
16.200000000000017
 21
-8.7999999999999972
 31
0.0
  0
LINE
  5
199
100
AcDbEntity
  8
0
  6
PHANTOM
 62
             200
100
AcDbLine
 10
2.7000000000000028
 20
-8.7999999999999972
 30
0.0
 11
16.200000000000017
 21
-8.7999999999999972
 31
0.0
  0
LINE
  5
19A
100
AcDbEntity
  8
0
  6
PHANTOM
 62
             200
100
AcDbLine
 10
2.7000000000000028
 20
-0.7999999999999972
 30
0.0
 11
16.200000000000017
 21
-0.7999999999999972
 31
0.0
  0
LINE
  5
19B
100
AcDbEntity
  8
0
  6
CENTER
 62
               2
100
AcDbLine
 10
0.2162062056379739
 20
-4.7999999999999972
 30
0.0
 11
17.830000000000013
 21
-4.7999999999999972
 31
0.0
  0
LINE
  5
19C
100
AcDbEntity
  8
0
  6
PHANTOM
 62
             200
100
AcDbLine
 10
2.7000000000000028
 20
-26.399999999999991
 30
0.0
 11
16.200000000000017
 21
-26.399999999999991
 31
0.0
  0
LINE
  5
19D
100
AcDbEntity
  8
0
  6
PHANTOM
 62
             200
100
AcDbLine
 10
2.7000000000000028
 20
-18.399999999999991
 30
0.0
 11
16.200000000000017
 21
-18.399999999999991
 31
0.0
  0
LINE
  5
19E
100
AcDbEntity
  8
0
  6
CENTER
 62
               2
100
AcDbLine
 10
0.2162062056379739
 20
-22.399999999999991
 30
0.0
 11
17.830000000000013
 21
-22.399999999999991
 31
0.0
  0
LINE
  5
19F
100
AcDbEntity
  8
0
  6
CONTINUOUS
 62
               7
100
AcDbLine
 10
-14.299999999999997
 20
2.7000000000000028
 30
0.0
 11
-13.299999999999997
 21
2.7000000000000028
 31
0.0
  0
LINE
  5
1A0
100
AcDbEntity
  8
0
  6
CONTINUOUS
 62
               7
100
AcDbLine
 10
-14.299999999999997
 20
-32.299999999999997
 30
0.0
 11
-14.299999999999997
 21
2.7000000000000028
 31
0.0
  0
LINE
  5
1A1
100
AcDbEntity
  8
0
  6
CONTINUOUS
 62
               7
100
AcDbLine
 10
-4.6000000000000085
 20
-18.000000000000014
 30
0.0
 11
-3.2999999999999972
 21
-18.000000000000014
 31
0.0
  0
LINE
  5
1A2
100
AcDbEntity
  8
0
  6
CONTINUOUS
 62
               7
100
AcDbLine
 10
-4.6000000000000085
 20
-21.200000000000003
 30
0.0
 11
-3.2999999999999972
 21
-21.200000000000003
 31
0.0
  0
LINE
  5
1A3
100
AcDbEntity
  8
0
  6
CONTINUOUS
 62
               7
100
AcDbLine
 10
-11.999999999999986
 20
-8.4000000000000199
 30
0.0
 11
-13.299999999999997
 21
-8.4000000000000199
 31
0.0
  0
LINE
  5
1A4
100
AcDbEntity
  8
0
  6
CONTINUOUS
 62
               7
100
AcDbLine
 10
-11.999999999999986
 20
-11.600000000000037
 30
0.0
 11
-13.299999999999997
 21
-11.600000000000037
 31
0.0
  0
ARC
  5
1A5
100
AcDbEntity
  8
0
  6
CONTINUOUS
 62
               7
100
AcDbCircle
 10
-4.6000000000000085
 20
-19.600000000000009
 30
0.0
 40
1.6000000000000001
100
AcDbArc
 50
89.999999999999815
 51
269.99999999999937
  0
ARC
  5
1A6
100
AcDbEntity
  8
0
  6
CONTINUOUS
 62
               7
100
AcDbCircle
 10
-11.999999999999986
 20
-10.000000000000043
 30
0.0
 40
1.6000000000000001
100
AcDbArc
 50
269.99999999999937
 51
89.999999999999801
  0
LINE
  5
1A7
100
AcDbEntity
  8
0
  6
CONTINUOUS
 62
               7
100
AcDbLine
 10
2.7000000000000028
 20
2.7000000000000028
 30
0.0
 11
2.7000000000000028
 21
-32.299999999999997
 31
0.0
  0
LINE
  5
1A8
100
AcDbEntity
  8
0
  6
CENTER
 62
               2
100
AcDbLine
 10
0.0
 20
2.5
 30
0.0
 11
0.0
 21
-2.5
 31
0.0
  0
LINE
  5
1A9
100
AcDbEntity
  8
0
  6
CENTER
 62
               2
100
AcDbLine
 10
0.0
 20
-27.099999999999994
 30
0.0
 11
0.0
 21
-32.099999999999994
 31
0.0
  0
CIRCLE
  5
1AA
100
AcDbEntity
  8
0
  6
CONTINUOUS
 62
               7
100
AcDbCircle
 10
0.0000183105468778
 20
-29.599993896484378
 30
0.0
 40
1.5499992370605469
  0
CIRCLE
  5
1AB
100
AcDbEntity
  8
0
  6
CONTINUOUS
 62
               7
100
AcDbCircle
 10
0.0000183105468778
 20
-0.0000030517578153
 30
0.0
 40
1.5499992370605469
  0
LINE
  5
1AC
100
AcDbEntity
  8
0
  6
CENTER
 62
               2
100
AcDbLine
 10
-2.5
 20
-29.599999999999994
 30
0.0
 11
2.5
 21
-29.599999999999994
 31
0.0
  0
LINE
  5
1AD
100
AcDbEntity
  8
0
  6
CENTER
 62
               2
100
AcDbLine
 10
-2.5
 20
0.0
 30
0.0
 11
2.5
 21
0.0
 31
0.0
  0
LINE
  5
1AE
100
AcDbEntity
  8
0
  6
CONTINUOUS
 62
               7
100
AcDbLine
 10
-3.2999999999999972
 20
2.7000000000000028
 30
0.0
 11
2.7000000000000028
 21
2.7000000000000028
 31
0.0
  0
LINE
  5
1AF
100
AcDbEntity
  8
0
  6
CONTINUOUS
 62
               7
100
AcDbLine
 10
-14.299999999999997
 20
-32.299999999999997
 30
0.0
 11
2.7000000000000028
 21
-32.299999999999997
 31
0.0
  0
ARC
  5
1B0
100
AcDbEntity
  8
0
  6
CONTINUOUS
 62
               7
100
AcDbCircle
 10
-12.70944603189092
 20
-27.631748731346946
 30
0.0
 40
0.6105564724372722
100
AcDbArc
 50
179.83589550320582
 51
253.77907243150949
  0
LINE
  5
1B1
100
AcDbEntity
  8
0
  6
CONTINUOUS
 62
               7
100
AcDbLine
 10
-3.4999999999999858
 20
-28.899999999999991
 30
0.0
 11
-13.100000000000009
 21
-28.899999999999991
 31
0.0
  0
LINE
  5
1B2
100
AcDbEntity
  8
0
  6
CONTINUOUS
 62
               7
100
AcDbLine
 10
-13.319999999999979
 20
-27.09999999999998
 30
0.0
 11
-9.7999999999999972
 21
-27.09999999999998
 31
0.0
  0
ARC
  5
1B3
100
AcDbEntity
  8
0
  6
CONTINUOUS
 62
               7
100
AcDbCircle
 10
-13.000895136858887
 20
-26.80089513685887
 30
0.0
 40
0.2991062025847394
100
AcDbArc
 50
179.82853033398985
 51
270.17146966600922
  0
ARC
  5
1B4
100
AcDbEntity
  8
0
  6
CONTINUOUS
 62
               7
100
AcDbCircle
 10
-13.100000000000009
 20
-28.700000000000003
 30
0.0
 40
0.2
100
AcDbArc
 50
179.99999999999963
 51
269.99999999999937
  0
LINE
  5
1B5
100
AcDbEntity
  8
0
  6
CONTINUOUS
 62
               7
100
AcDbLine
 10
-9.7999999999999972
 20
-28.899999999999991
 30
0.0
 11
-9.7999999999999972
 21
-27.09999999999998
 31
0.0
  0
ARC
  5
1B6
100
AcDbEntity
  8
0
  6
CONTINUOUS
 62
               7
100
AcDbCircle
 10
-11.600000000000009
 20
-23.812578763266018
 30
0.0
 40
4.5876068132596712
100
AcDbArc
 50
253.79871892415684
 51
286.20128107584191
  0
ARC
  5
1B7
100
AcDbEntity
  8
0
  6
CONTINUOUS
 62
               7
100
AcDbCircle
 10
-10.491771995833901
 20
-27.630837282028992
 30
0.0
 40
0.6117725687931934
100
AcDbArc
 50
286.30661609184898
 51
0.0784159734340139
  0
LINE
  5
1B8
100
AcDbEntity
  8
0
  6
CONTINUOUS
 62
               7
100
AcDbLine
 10
-9.8799999999999812
 20
-27.629999999999953
 30
0.0
 11
-9.8799999999999812
 21
-27.09999999999998
 31
0.0
  0
LINE
  5
1B9
100
AcDbEntity
  8
0
  6
CONTINUOUS
 62
               7
100
AcDbLine
 10
-13.299999999999997
 20
-28.700000000000003
 30
0.0
 11
-13.299999999999997
 21
-27.786749430654041
 31
0.0
  0
LINE
  5
1BA
100
AcDbEntity
  8
0
  6
CONTINUOUS
 62
               7
100
AcDbLine
 10
-13.319999999999979
 20
-27.629999999999953
 30
0.0
 11
-13.319999999999979
 21
-27.09999999999998
 31
0.0
  0
ARC
  5
1BB
100
AcDbEntity
  8
0
  6
CONTINUOUS
 62
               7
100
AcDbCircle
 10
-3.4999999999999858
 20
-28.700000000000003
 30
0.0
 40
0.2
100
AcDbArc
 50
269.99999999999937
 51
0.0
  0
LINE
  5
1BC
100
AcDbEntity
  8
0
  6
CONTINUOUS
 62
               7
100
AcDbLine
 10
-3.2999999999999972
 20
-23.899999999999991
 30
0.0
 11
-13.299999999999997
 21
-23.899999999999991
 31
0.0
  0
LINE
  5
1BD
100
AcDbEntity
  8
0
  6
CONTINUOUS
 62
               7
100
AcDbLine
 10
-3.2999999999999972
 20
-28.700000000000003
 30
0.0
 11
-3.2999999999999972
 21
-20.347332907969943
 31
0.0
  0
LINE
  5
1BE
100
AcDbEntity
  8
0
  6
CONTINUOUS
 62
               7
100
AcDbLine
 10
-13.299999999999997
 20
-27.09999999999998
 30
0.0
 11
-13.299999999999997
 21
-10.748331477354768
 31
0.0
  0
LINE
  5
1BF
100
AcDbEntity
  8
0
  6
CONTINUOUS
 62
               7
100
AcDbLine
 10
-3.2999999999999972
 20
-5.7000000000000028
 30
0.0
 11
-13.299999999999997
 21
-5.7000000000000028
 31
0.0
  0
CIRCLE
  5
1C0
100
AcDbEntity
  8
0
  6
CONTINUOUS
 62
               7
100
AcDbCircle
 10
-8.2999999999999972
 20
3.7000000000000171
 30
0.0
 40
0.75
  0
CIRCLE
  5
1C1
100
AcDbEntity
  8
0
  6
CONTINUOUS
 62
               7
100
AcDbCircle
 10
-8.2999999999999972
 20
3.7000000000000171
 30
0.0
 40
1.1000000000000001
  0
CIRCLE
  5
1C2
100
AcDbEntity
  8
0
  6
CONTINUOUS
 62
               7
100
AcDbCircle
 10
-8.2999999999999972
 20
3.7000000000000171
 30
0.0
 40
1.1500000000000001
  0
CIRCLE
  5
1C3
100
AcDbEntity
  8
0
  6
CONTINUOUS
 62
               7
100
AcDbCircle
 10
-8.2999999999999972
 20
3.7000000000000171
 30
0.0
 40
1.3000000000000012
  0
LINE
  5
1C4
100
AcDbEntity
  8
0
  6
CENTER
 62
               2
100
AcDbLine
 10
-6.6000000000000085
 20
3.7000000000000171
 30
0.0
 11
-9.9999999999999858
 21
3.7000000000000171
 31
0.0
  0
ARC
  5
1C5
100
AcDbEntity
  8
0
  6
CONTINUOUS
 62
               7
100
AcDbCircle
 10
-8.2999999999999972
 20
2.0
 30
0.0
 40
2.0
100
AcDbArc
 50
179.99999999999963
 51
0.0
  0
LINE
  5
1C6
100
AcDbEntity
  8
0
  6
CONTINUOUS
 62
               7
100
AcDbLine
 10
-6.2999999999999972
 20
2.0
 30
0.0
 11
-6.2999999999999972
 21
6.0
 31
0.0
  0
LINE
  5
1C7
100
AcDbEntity
  8
0
  6
CONTINUOUS
 62
               7
100
AcDbLine
 10
-10.299999999999997
 20
2.0
 30
0.0
 11
-10.299999999999997
 21
6.0
 31
0.0
  0
LINE
  5
1C8
100
AcDbEntity
  8
0
  6
CONTINUOUS
 62
               7
100
AcDbLine
 10
-3.2999999999999972
 20
-5.7000000000000028
 30
0.0
 11
-3.2999999999999972
 21
6.0
 31
0.0
  0
LINE
  5
1C9
100
AcDbEntity
  8
0
  6
CONTINUOUS
 62
               7
100
AcDbLine
 10
-13.299999999999997
 20
-5.7000000000000028
 30
0.0
 11
-13.299999999999997
 21
6.0
 31
0.0
  0
LINE
  5
1CA
100
AcDbEntity
  8
0
  6
CENTER
 62
               2
100
AcDbLine
 10
-6.9699999999999989
 20
3.6990014306151835
 30
0.0
 11
-9.6400000000000006
 21
3.6990014306151835
 31
0.0
  0
CIRCLE
  5
1CB
100
AcDbEntity
  8
0
  6
CONTINUOUS
 62
               7
100
AcDbCircle
 10
-4.6000000000000085
 20
-19.599001430615175
 30
0.0
 40
1.5
  0
LINE
  5
1CC
100
AcDbEntity
  8
0
  6
CONTINUOUS
 62
               7
100
AcDbLine
 10
-3.8928932188135121
 20
-20.307106781186519
 30
0.0
 11
-5.3071067811865618
 21
-18.892893218813427
 31
0.0
  0
LINE
  5
1CD
100
AcDbEntity
  8
0
  6
CONTINUOUS
 62
               7
100
AcDbLine
 10
-5.3071067811865618
 20
-20.307106781186519
 30
0.0
 11
-3.8928932188134837
 21
-18.892893218813427
 31
0.0
  0
CIRCLE
  5
1CE
100
AcDbEntity
  8
0
  6
CONTINUOUS
 62
               7
100
AcDbCircle
 10
-11.999999999999986
 20
-10.0
 30
0.0
 40
1.5
  0
LINE
  5
1CF
100
AcDbEntity
  8
0
  6
CONTINUOUS
 62
               7
100
AcDbLine
 10
-11.292893218813489
 20
-10.708105350571344
 30
0.0
 11
-12.707106781186539
 21
-9.2938917881982519
 31
0.0
  0
LINE
  5
1D0
100
AcDbEntity
  8
0
  6
CONTINUOUS
 62
               7
100
AcDbLine
 10
-12.707106781186539
 20
-10.708105350571344
 30
0.0
 11
-11.292893218813461
 21
-9.2938917881982519
 31
0.0
  0
LINE
  5
1D1
100
AcDbEntity
  8
0
  6
CONTINUOUS
 62
               7
100
AcDbLine
 10
-3.2999999999999972
 20
-18.850669953260407
 30
0.0
 11
-3.2999999999999972
 21
-5.7000000000000028
 31
0.0
  0
LINE
  5
1D2
100
AcDbEntity
  8
0
  6
CONTINUOUS
 62
               7
100
AcDbLine
 10
-13.299999999999997
 20
-9.2516685226452324
 30
0.0
 11
-13.299999999999997
 21
-5.7000000000000028
 31
0.0
  0
ARC
  5
1D3
100
AcDbEntity
  8
0
  6
CONTINUOUS
 62
               7
100
AcDbCircle
 10
-8.2999999999999972
 20
2.0
 30
0.0
 40
3.090998569384837
100
AcDbArc
 50
179.99999999999963
 51
0.0
  0
LINE
  5
1D4
100
AcDbEntity
  8
0
  6
CONTINUOUS
 62
               7
100
AcDbLine
 10
-5.2090014306151602
 20
2.0
 30
0.0
 11
-5.2090014306151602
 21
6.0
 31
0.0
  0
LINE
  5
1D5
100
AcDbEntity
  8
0
  6
CONTINUOUS
 62
               7
100
AcDbLine
 10
-11.390998569384834
 20
2.0
 30
0.0
 11
-11.390998569384834
 21
6.0
 31
0.0
  0
LINE
  5
1D6
100
AcDbEntity
  8
0
  6
CONTINUOUS
 62
               4
100
AcDbLine
 10
-7.3000183105468608
 20
44.492929270933359
 30
0.0
 11
-6.8000183105468608
 21
44.492929270933359
 31
0.0
  0
LINE
  5
1D7
100
AcDbEntity
  8
0
  6
CONTINUOUS
 62
               4
100
AcDbLine
 10
-9.8000183105468608
 20
44.492929270933359
 30
0.0
 11
-9.3000183105468608
 21
44.492929270933359
 31
0.0
  0
ARC
  5
1D8
100
AcDbEntity
  8
0
  6
CONTINUOUS
 62
               4
100
AcDbCircle
 10
-3.7997031521357911
 20
6.499703152135794
 30
0.0
 40
0.4997032403068001
100
AcDbArc
 50
269.96596353714654
 51
0.0340364628527164
  0
LINE
  5
1D9
100
AcDbEntity
  8
0
  6
CONTINUOUS
 62
               4
100
AcDbLine
 10
-13.299999999999997
 20
6.0
 30
0.0
 11
-3.2999999999999972
 21
6.0
 31
0.0
  0
LINE
  5
1DA
100
AcDbEntity
  8
0
  6
CONTINUOUS
 62
               4
100
AcDbLine
 10
-3.2999999999999972
 20
28.5
 30
0.0
 11
-3.2999999999999972
 21
6.0
 31
0.0
  0
LINE
  5
1DB
100
AcDbEntity
  8
0
  6
CONTINUOUS
 62
               4
100
AcDbLine
 10
-13.299999970910832
 20
28.500000004269367
 30
0.0
 11
-12.050018310546861
 21
28.500000004269367
 31
0.0
  0
ARC
  5
1DC
100
AcDbEntity
  8
0
  6
CONTINUOUS
 62
               4
100
AcDbCircle
 10
-4.0959048533418212
 20
27.900095150927541
 30
0.0
 40
0.5999048608870732
100
AcDbArc
 50
359.99091272245295
 51
90.009087277546172
  0
ARC
  5
1DD
100
AcDbEntity
  8
0
  6
CONTINUOUS
 62
               4
100
AcDbCircle
 10
-12.799999999999997
 20
27.900000004269344
 30
0.0
 40
0.5
100
AcDbArc
 50
89.999999999999815
 51
179.99999999999963
  0
LINE
  5
1DE
100
AcDbEntity
  8
0
  6
CONTINUOUS
 62
               4
100
AcDbLine
 10
-12.050018310546861
 20
28.400000004269344
 30
0.0
 11
-12.799999999999997
 21
28.400000004269344
 31
0.0
  0
LINE
  5
1DF
100
AcDbEntity
  8
0
  6
CONTINUOUS
 62
               4
100
AcDbLine
 10
-3.2999999999999972
 20
26.900000004269344
 30
0.0
 11
-4.5500183105468608
 21
26.900000004269344
 31
0.0
  0
LINE
  5
1E0
100
AcDbEntity
  8
0
  6
CONTINUOUS
 62
               4
100
AcDbLine
 10
-3.2999999999999972
 20
28.500000004269367
 30
0.0
 11
-4.5500183105468608
 21
28.500000004269367
 31
0.0
  0
LINE
  5
1E1
100
AcDbEntity
  8
0
  6
CONTINUOUS
 62
               4
100
AcDbLine
 10
-3.2999999999999972
 20
27.900000004269344
 30
0.0
 11
-4.5500183105468608
 21
27.900000004269344
 31
0.0
  0
LINE
  5
1E2
100
AcDbEntity
  8
0
  6
CONTINUOUS
 62
               4
100
AcDbLine
 10
-13.299999999999997
 20
28.500000004269367
 30
0.0
 11
-13.299999999999997
 21
6.0
 31
0.0
  0
LINE
  5
1E3
100
AcDbEntity
  8
0
  6
CONTINUOUS
 62
               4
100
AcDbLine
 10
-13.300018310546861
 20
25.499999999999886
 30
0.0
 11
-12.800018310546861
 21
25.499999999999886
 31
0.0
  0
LINE
  5
1E4
100
AcDbEntity
  8
0
  6
CONTINUOUS
 62
               4
100
AcDbLine
 10
-12.800018310546861
 20
25.499999999999886
 30
0.0
 11
-11.050018310546861
 21
25.499999999999886
 31
0.0
  0
LINE
  5
1E5
100
AcDbEntity
  8
0
  6
CONTINUOUS
 62
               4
100
AcDbLine
 10
-3.530018310546879
 20
24.999999999999886
 30
0.0
 11
-3.530018310546879
 21
8.6919191906538344
 31
0.0
  0
LINE
  5
1E6
100
AcDbEntity
  8
0
  6
CONTINUOUS
 62
               4
100
AcDbLine
 10
-13.070018310546899
 20
24.999999999999886
 30
0.0
 11
-13.070018310546899
 21
8.6919191906731328
 31
0.0
  0
LINE
  5
1E7
100
AcDbEntity
  8
0
  6
CONTINUOUS
 62
               4
100
AcDbLine
 10
-12.570018310546899
 20
8.1919191906694095
 30
0.0
 11
-4.030018310546879
 21
8.1919191906694095
 31
0.0
  0
LINE
  5
1E8
100
AcDbEntity
  8
0
  6
CONTINUOUS
 62
               4
100
AcDbLine
 10
-3.8000183105468608
 20
25.499999999999886
 30
0.0
 11
-3.3000183105468608
 21
25.499999999999886
 31
0.0
  0
LINE
  5
1E9
100
AcDbEntity
  8
0
  6
CONTINUOUS
 62
               4
100
AcDbLine
 10
-11.050018310546861
 20
17.499999999999886
 30
0.0
 11
-5.5500183105468608
 21
17.499999999999886
 31
0.0
  0
LINE
  5
1EA
100
AcDbEntity
  8
0
  6
CONTINUOUS
 62
               4
100
AcDbLine
 10
-5.5500183105468608
 20
25.499999999999886
 30
0.0
 11
-3.8000183105468608
 21
25.499999999999886
 31
0.0
  0
LINE
  5
1EB
100
AcDbEntity
  8
0
  6
CONTINUOUS
 62
               4
100
AcDbLine
 10
-11.050018310546861
 20
33.499999999999886
 30
0.0
 11
-11.050018310546861
 21
17.499999999999886
 31
0.0
  0
LINE
  5
1EC
100
AcDbEntity
  8
0
  6
CONTINUOUS
 62
               4
100
AcDbLine
 10
-12.050018310546861
 20
33.499999999999886
 30
0.0
 11
-12.050018310546861
 21
25.499999999999886
 31
0.0
  0
LINE
  5
1ED
100
AcDbEntity
  8
0
  6
CONTINUOUS
 62
               4
100
AcDbLine
 10
-11.050018310546861
 20
31.999999999999886
 30
0.0
 11
-5.5500183105468608
 21
31.999999999999886
 31
0.0
  0
LINE
  5
1EE
100
AcDbEntity
  8
0
  6
CONTINUOUS
 62
               4
100
AcDbLine
 10
-5.5500183105468608
 20
33.499999999999886
 30
0.0
 11
-5.5500183105468608
 21
17.499999999999886
 31
0.0
  0
LINE
  5
1EF
100
AcDbEntity
  8
0
  6
CONTINUOUS
 62
               4
100
AcDbLine
 10
-4.5500183105468608
 20
33.499999999999886
 30
0.0
 11
-4.5500183105468608
 21
25.499999999999886
 31
0.0
  0
LINE
  5
1F0
100
AcDbEntity
  8
0
  6
CONTINUOUS
 62
               4
100
AcDbLine
 10
-12.050018310546861
 20
33.499999999999886
 30
0.0
 11
-4.5500183105468608
 21
33.499999999999886
 31
0.0
  0
ARC
  5
1F1
100
AcDbEntity
  8
0
  6
CONTINUOUS
 62
               4
100
AcDbCircle
 10
-12.568830026641635
 20
8.6931074745746741
 30
0.0
 40
0.5011896925741138
100
AcDbArc
 50
180.13584420715239
 51
269.86415579284636
  0
ARC
  5
1F2
100
AcDbEntity
  8
0
  6
CONTINUOUS
 62
               4
100
AcDbCircle
 10
-4.0312218166586007
 20
8.6931226967811597
 30
0.0
 40
0.5012049510586274
100
AcDbArc
 50
270.13758021931233
 51
359.86241978068648
  0
ARC
  5
1F3
100
AcDbEntity
  8
0
  6
CONTINUOUS
 62
               4
100
AcDbCircle
 10
-4.0300207520261182
 20
24.99999755852059
 30
0.0
 40
0.500002441485227
100
AcDbArc
 50
0.0002797715494944
 51
89.999720228450514
  0
ARC
  5
1F4
100
AcDbEntity
  8
0
  6
CONTINUOUS
 62
               4
100
AcDbCircle
 10
-12.570031127884633
 20
25.00001281733762
 30
0.0
 40
0.4999871828265524
100
AcDbArc
 50
89.998531203634272
 51
180.00146879636483
  0
ARC
  5
1F5
100
AcDbEntity
  8
0
  6
CONTINUOUS
 62
               4
100
AcDbCircle
 10
-12.800028991678275
 20
25.000010681131243
 30
0.0
 40
0.4999893189827007
100
AcDbArc
 50
89.998776006354774
 51
180.00122399364432
  0
ARC
  5
1F6
100
AcDbEntity
  8
0
  6
CONTINUOUS
 62
               4
100
AcDbCircle
 10
-3.8000228882976756
 20
24.999995422249071
 30
0.0
 40
0.5000045777717621
100
AcDbArc
 50
0.0005245667992071
 51
89.9994754332008
  0
ARC
  5
1F7
100
AcDbEntity
  8
0
  6
CONTINUOUS
 62
               4
100
AcDbCircle
 10
-12.800022888069506
 20
6.4999954224772409
 30
0.0
 40
0.4999954224983215
100
AcDbArc
 50
179.99947544974256
 51
270.00052455025656
  0
ARC
  5
1F8
100
AcDbEntity
  8
0
  6
CONTINUOUS
 62
               4
100
AcDbCircle
 10
-3.8000289917201684
 20
6.5000106811731939
 30
0.0
 40
0.5000106812873828
100
AcDbArc
 50
270.00122394615329
 51
359.9987760538454
  0
LINE
  5
1F9
100
AcDbEntity
  8
0
  6
CONTINUOUS
 62
               4
100
AcDbLine
 10
-6.4000183105468835
 20
40.992929272933338
 30
0.0
 11
-6.4000183105468835
 21
37.499999999999886
 31
0.0
  0
LINE
  5
1FA
100
AcDbEntity
  8
0
  6
CONTINUOUS
 62
               4
100
AcDbLine
 10
-7.7000183105468949
 20
40.992929272933338
 30
0.0
 11
-7.7000183105468949
 21
37.849999999999909
 31
0.0
  0
LINE
  5
1FB
100
AcDbEntity
  8
0
  6
CONTINUOUS
 62
               4
100
AcDbLine
 10
-9.3000183105468608
 20
44.492929270933359
 30
0.0
 11
-9.3000183105468608
 21
40.992929272933338
 31
0.0
  0
LINE
  5
1FC
100
AcDbEntity
  8
0
  6
CONTINUOUS
 62
               4
100
AcDbLine
 10
-9.8000183105468608
 20
44.492929270933359
 30
0.0
 11
-9.8000183105468608
 21
40.992929272933338
 31
0.0
  0
LINE
  5
1FD
100
AcDbEntity
  8
0
  6
CONTINUOUS
 62
               4
100
AcDbLine
 10
-6.4000183105468835
 20
36.469999999999857
 30
0.0
 11
-6.4000183105468835
 21
33.499999999999886
 31
0.0
  0
LINE
  5
1FE
100
AcDbEntity
  8
0
  6
CONTINUOUS
 62
               4
100
AcDbLine
 10
-7.7000183105468949
 20
36.819999999999879
 30
0.0
 11
-7.7000183105468949
 21
33.499999999999886
 31
0.0
  0
LINE
  5
1FF
100
AcDbEntity
  8
0
  6
CONTINUOUS
 62
               4
100
AcDbLine
 10
-10.200018310546895
 20
37.489999999999895
 30
0.0
 11
-10.200018310546895
 21
33.499999999999886
 31
0.0
  0
LINE
  5
200
100
AcDbEntity
  8
0
  6
CONTINUOUS
 62
               4
100
AcDbLine
 10
-8.9000183105468835
 20
40.992929272933338
 30
0.0
 11
-8.9000183105468835
 21
38.169999999999902
 31
0.0
  0
LINE
  5
201
100
AcDbEntity
  8
0
  6
CONTINUOUS
 62
               4
100
AcDbLine
 10
-10.200018310546895
 20
40.992929272933338
 30
0.0
 11
-10.200018310546895
 21
38.519999999999868
 31
0.0
  0
LINE
  5
202
100
AcDbEntity
  8
0
  6
CONTINUOUS
 62
               4
100
AcDbLine
 10
-6.8000183105468608
 20
44.492929270933359
 30
0.0
 11
-6.8000183105468608
 21
40.992929272933338
 31
0.0
  0
LINE
  5
203
100
AcDbEntity
  8
0
  6
CONTINUOUS
 62
               4
100
AcDbLine
 10
-7.3000183105468608
 20
44.492929270933359
 30
0.0
 11
-7.3000183105468608
 21
40.992929272933338
 31
0.0
  0
LINE
  5
204
100
AcDbEntity
  8
0
  6
CONTINUOUS
 62
               4
100
AcDbLine
 10
-8.9000183105468835
 20
37.139999999999873
 30
0.0
 11
-8.9000183105468835
 21
33.499999999999886
 31
0.0
  0
LINE
  5
205
100
AcDbEntity
  8
0
  6
CONTINUOUS
 62
               4
100
AcDbLine
 10
-10.200018310546895
 20
40.992929272933338
 30
0.0
 11
-8.9000183105468835
 21
40.992929272933338
 31
0.0
  0
LINE
  5
206
100
AcDbEntity
  8
0
  6
CONTINUOUS
 62
             200
100
AcDbLine
 10
-12.050018310546861
 20
37.979999999999905
 30
0.0
 11
-4.5500183105468608
 21
35.969999999999857
 31
0.0
  0
LINE
  5
207
100
AcDbEntity
  8
0
  6
CONTINUOUS
 62
             200
100
AcDbLine
 10
-12.050018310546861
 20
39.019999999999868
 30
0.0
 11
-4.5500183105468608
 21
37.009999999999877
 31
0.0
  0
LINE
  5
208
100
AcDbEntity
  8
0
  6
CONTINUOUS
 62
               4
100
AcDbLine
 10
-7.7000183105468949
 20
40.992929272933338
 30
0.0
 11
-6.4000183105468835
 21
40.992929272933338
 31
0.0
  0
LINE
  5
209
100
AcDbEntity
  8
0
  6
PHANTOM
 62
             200
100
AcDbLine
 10
-6.8000183105468608
 20
13.499999999999886
 30
0.0
 11
-6.8000183105468608
 21
11.499999999999886
 31
0.0
  0
LINE
  5
20A
100
AcDbEntity
  8
0
  6
PHANTOM
 62
             200
100
AcDbLine
 10
-9.8000183105468608
 20
13.499999999999886
 30
0.0
 11
-9.8000183105468608
 21
11.499999999999886
 31
0.0
  0
LINE
  5
20B
100
AcDbEntity
  8
0
  6
PHANTOM
 62
             200
100
AcDbLine
 10
-9.8000183105468608
 20
11.499999999999886
 30
0.0
 11
-6.8000183105468608
 21
11.499999999999886
 31
0.0
  0
LINE
  5
20C
100
AcDbEntity
  8
0
  6
PHANTOM
 62
             200
100
AcDbLine
 10
-9.8000183105468608
 20
13.499999999999886
 30
0.0
 11
-6.8000183105468608
 21
13.499999999999886
 31
0.0
  0
LINE
  5
20D
100
AcDbEntity
  8
0
  6
CENTER
 62
               2
100
AcDbLine
 10
-8.2999999999999972
 20
34.369683056948361
 30
0.0
 11
-8.2999999999999972
 21
-31.355792523378071
 31
0.0
  0
ENDBLK
  5
20E
100
AcDbEntity
  8
0
100
AcDbBlockEnd
  0
BLOCK
  5
20F
100
AcDbEntity
  8
0
100
AcDbBlockBegin
  2
EA10SA5-5
 70
               0
 10
0.0
 20
0.0
 30
0.0
  3
EA10SA5-5
  1

  0
LINE
  5
210
100
AcDbEntity
  8
0
  6
CENTER
 62
               2
100
AcDbLine
 10
-2.0
 20
-29.599999999999994
 30
0.0
 11
2.0
 21
-29.599999999999994
 31
0.0
  0
LINE
  5
211
100
AcDbEntity
  8
0
  6
CENTER
 62
               7
100
AcDbLine
 10
-2.0
 20
0.0
 30
0.0
 11
2.0
 21
0.0
 31
0.0
  0
LINE
  5
212
100
AcDbEntity
  8
0
  6
CENTER
 62
               2
100
AcDbLine
 10
-2.0000000167243002
 20
0.0
 30
0.0
 11
1.9999999832756998
 21
0.0
 31
0.0
  0
LINE
  5
213
100
AcDbEntity
  8
0
  6
CENTER
 62
               2
100
AcDbLine
 10
24.000000021518844
 20
-31.112999999998877
 30
0.0
 11
24.000000021517764
 21
30.342850672798193
 31
0.0
  0
LINE
  5
214
100
AcDbEntity
  8
0
  6
CONTINUOUS
 62
               7
100
AcDbLine
 10
16.999996948242199
 20
-30.100006103515625
 30
0.0
 11
15.999996948242199
 21
-30.100006103515625
 31
0.0
  0
LINE
  5
215
100
AcDbEntity
  8
0
  6
CONTINUOUS
 62
               7
100
AcDbLine
 10
16.999996948242199
 20
0.4999938964843835
 30
0.0
 11
15.999996948242199
 21
0.4999938964843835
 31
0.0
  0
LINE
  5
216
100
AcDbEntity
  8
0
  6
CONTINUOUS
 62
               7
100
AcDbLine
 10
16.0
 20
-32.299999999999997
 30
0.0
 11
16.0
 21
2.7000000000000028
 31
0.0
  0
LINE
  5
217
100
AcDbEntity
  8
0
  6
CONTINUOUS
 62
               7
100
AcDbLine
 10
0.0
 20
2.7000000000000028
 30
0.0
 11
0.0
 21
-32.299999999999997
 31
0.0
  0
LINE
  5
218
100
AcDbEntity
  8
0
  6
CENTER
 62
               2
100
AcDbLine
 10
11.0
 20
-16.5
 30
0.0
 11
11.0
 21
-23.499999999999986
 31
0.0
  0
LINE
  5
219
100
AcDbEntity
  8
0
  6
CENTER
 62
               2
100
AcDbLine
 10
5.0
 20
-8.7999999999999972
 30
0.0
 11
5.0
 21
-15.799999999999997
 31
0.0
  0
LINE
  5
21A
100
AcDbEntity
  8
0
  6
CENTER
 62
               2
100
AcDbLine
 10
1.5
 20
-12.299999999999997
 30
0.0
 11
8.5
 21
-12.299999999999997
 31
0.0
  0
CIRCLE
  5
21B
100
AcDbEntity
  8
0
  6
CONTINUOUS
 62
               7
100
AcDbCircle
 10
4.9999816894531364
 20
-12.300006103515628
 30
0.0
 40
2.0669994354248047
  0
CIRCLE
  5
21C
100
AcDbEntity
  8
0
  6
CONTINUOUS
 62
               7
100
AcDbCircle
 10
10.999996948242199
 20
-20.000003051757815
 30
0.0
 40
2.0669994354248047
  0
CIRCLE
  5
21D
100
AcDbEntity
  8
0
  6
CONTINUOUS
 62
               2
100
AcDbCircle
 10
10.999996948242199
 20
-20.000003051757815
 30
0.0
 40
2.5
  0
CIRCLE
  5
21E
100
AcDbEntity
  8
0
  6
CONTINUOUS
 62
               2
100
AcDbCircle
 10
4.9999816894531364
 20
-12.300006103515628
 30
0.0
 40
2.5
  0
LINE
  5
21F
100
AcDbEntity
  8
0
  6
CENTER
 62
               2
100
AcDbLine
 10
7.5
 20
-19.999999999999986
 30
0.0
 11
14.5
 21
-19.999999999999986
 31
0.0
  0
LINE
  5
220
100
AcDbEntity
  8
0
  6
CONTINUOUS
 62
               7
100
AcDbLine
 10
16.0
 20
-32.299999999999997
 30
0.0
 11
0.0
 21
-32.299999999999997
 31
0.0
  0
LINE
  5
221
100
AcDbEntity
  8
0
  6
CONTINUOUS
 62
               7
100
AcDbLine
 10
16.0
 20
2.7000000000000028
 30
0.0
 11
0.0
 21
2.7000000000000028
 31
0.0
  0
LINE
  5
222
100
AcDbEntity
  8
0
  6
CONTINUOUS
 62
               7
100
AcDbLine
 10
27.5
 20
-27.59999999999998
 30
0.0
 11
27.5
 21
-28.699999999999989
 31
0.0
  0
LINE
  5
223
100
AcDbEntity
  8
0
  6
CONTINUOUS
 62
               7
100
AcDbLine
 10
27.549999999999983
 20
-27.929999999999993
 30
0.0
 11
27.549999999999983
 21
-27.459999999999994
 31
0.0
  0
ARC
  5
224
100
AcDbEntity
  8
0
  6
CONTINUOUS
 62
               7
100
AcDbCircle
 10
27.299998474115256
 20
-28.699998474115262
 30
0.0
 40
0.200001525890548
100
AcDbArc
 50
270.00043713043902
 51
359.99956286956035
  0
ARC
  5
225
100
AcDbEntity
  8
0
  6
CONTINUOUS
 62
               7
100
AcDbCircle
 10
27.699992370611284
 20
-27.599992370611275
 30
0.0
 40
0.1999923707568137
100
AcDbArc
 50
89.997814257754712
 51
180.00218574224468
  0
ARC
  5
226
100
AcDbEntity
  8
0
  6
CONTINUOUS
 62
               7
100
AcDbCircle
 10
27.974082972497598
 20
-27.932923464014593
 30
0.0
 40
0.4240930489930741
100
AcDbArc
 50
179.60503130945165
 51
242.76491800802398
  0
ARC
  5
227
100
AcDbEntity
  8
0
  6
CONTINUOUS
 62
               7
100
AcDbCircle
 10
17.400003051944083
 20
-28.499996948055909
 30
0.0
 40
0.4000030519557204
100
AcDbArc
 50
180.00043715545169
 51
269.99956284454754
  0
LINE
  5
228
100
AcDbEntity
  8
0
  6
CONTINUOUS
 62
               7
100
AcDbLine
 10
16.999999988079082
 20
-23.899999999999991
 30
0.0
 11
30.999999988079054
 21
-23.899999999999991
 31
0.0
  0
ARC
  5
229
100
AcDbEntity
  8
0
  6
CONTINUOUS
 62
               7
100
AcDbCircle
 10
29.305000000000007
 20
-25.499981304912836
 30
0.0
 40
3.1971596874005721
100
AcDbArc
 50
241.5112711324667
 51
298.48872886753213
  0
LINE
  5
22A
100
AcDbEntity
  8
0
  6
CONTINUOUS
 62
               7
100
AcDbLine
 10
31.049999999999983
 20
-27.399999999999991
 30
0.0
 11
27.699999999999989
 21
-27.399999999999991
 31
0.0
  0
LINE
  5
22B
100
AcDbEntity
  8
0
  6
CONTINUOUS
 62
               7
100
AcDbLine
 10
30.599999999999994
 20
-28.899999999999991
 30
0.0
 11
17.400000000000006
 21
-28.899999999999991
 31
0.0
  0
LINE
  5
22C
100
AcDbEntity
  8
0
  6
CONTINUOUS
 62
               7
100
AcDbLine
 10
30.0
 20
-11.599001430615203
 30
0.0
 11
31.0
 21
-11.599001430615203
 31
0.0
  0
LINE
  5
22D
100
AcDbEntity
  8
0
  6
CONTINUOUS
 62
               7
100
AcDbLine
 10
30.0
 20
-8.3990014306151863
 30
0.0
 11
31.0
 21
-8.3990014306151863
 31
0.0
  0
LINE
  5
22E
100
AcDbEntity
  8
0
  6
CONTINUOUS
 62
               7
100
AcDbLine
 10
17.000000013518104
 20
-5.7000000000000028
 30
0.0
 11
31.0
 21
-5.6999999999999886
 31
0.0
  0
LINE
  5
22F
100
AcDbEntity
  8
0
  6
CONTINUOUS
 62
               7
100
AcDbLine
 10
32.100000013518155
 20
0.0
 30
0.0
 11
32.100000013518155
 21
5.9999999999999289
 31
0.0
  0
LINE
  5
230
100
AcDbEntity
  8
0
  6
CONTINUOUS
 62
               7
100
AcDbLine
 10
32.548000013518077
 20
2.5999999999999943
 30
0.0
 11
32.100000013518155
 21
2.5999999999999943
 31
0.0
  0
LINE
  5
231
100
AcDbEntity
  8
0
  6
CONTINUOUS
 62
               7
100
AcDbLine
 10
32.548000013518134
 20
4.8000000000000398
 30
0.0
 11
32.100000013518155
 21
4.8000000000000256
 31
0.0
  0
LINE
  5
232
100
AcDbEntity
  8
0
  6
CONTINUOUS
 62
               7
100
AcDbLine
 10
32.548000013518077
 20
2.5999999999999943
 30
0.0
 11
32.548000013518134
 21
4.8000000000000398
 31
0.0
  0
LINE
  5
233
100
AcDbEntity
  8
0
  6
CONTINUOUS
 62
               7
100
AcDbLine
 10
31.000000013518161
 20
5.9999999999999289
 30
0.0
 11
31.000000013518161
 21
-5.7000000000000028
 31
0.0
  0
LINE
  5
234
100
AcDbEntity
  8
0
  6
CONTINUOUS
 62
               7
100
AcDbLine
 10
31.000000013518132
 20
-1.0950000000000131
 30
0.0
 11
32.100000013518155
 21
0.0
 31
0.0
  0
ARC
  5
235
100
AcDbEntity
  8
0
  6
CONTINUOUS
 62
               7
100
AcDbCircle
 10
30.599993896379601
 20
-28.499993896379593
 30
0.0
 40
0.400006103666966
100
AcDbArc
 50
270.00087426588038
 51
359.99912573411802
  0
ARC
  5
236
100
AcDbEntity
  8
0
  6
CONTINUOUS
 62
               7
100
AcDbCircle
 10
30.623582287124151
 20
-27.93681079780869
 30
0.0
 40
0.4264721008707071
100
AcDbArc
 50
298.94777670470961
 51
0.9150576515650383
  0
LINE
  5
237
100
AcDbEntity
  8
0
  6
CONTINUOUS
 62
               7
100
AcDbLine
 10
31.0
 20
-5.6999999999999886
 30
0.0
 11
31.0
 21
-27.399999999999991
 31
0.0
  0
LINE
  5
238
100
AcDbEntity
  8
0
  6
CONTINUOUS
 62
               7
100
AcDbLine
 10
31.0
 20
-28.129999999999981
 30
0.0
 11
31.0
 21
-28.499999999999986
 31
0.0
  0
LINE
  5
239
100
AcDbEntity
  8
0
  6
CONTINUOUS
 62
               7
100
AcDbLine
 10
31.049999999999983
 20
-27.929999999999993
 30
0.0
 11
31.049999999999983
 21
-27.399999999999991
 31
0.0
  0
LINE
  5
23A
100
AcDbEntity
  8
0
  6
CONTINUOUS
 62
               7
100
AcDbLine
 10
30.0
 20
-8.3990014306151863
 30
0.0
 11
30.0
 21
-11.599001430615203
 31
0.0
  0
LINE
  5
23B
100
AcDbEntity
  8
0
  6
CONTINUOUS
 62
               7
100
AcDbLine
 10
17.000000013518104
 20
6.0049999999999386
 30
0.0
 11
16.999996948242199
 21
-30.100006103515625
 31
0.0
  0
LINE
  5
23C
100
AcDbEntity
  8
0
  6
CONTINUOUS
 62
               7
100
AcDbLine
 10
30.599999999999994
 20
-8.9000000000000199
 30
0.0
 11
30.599999999999994
 21
-11.100000000000023
 31
0.0
  0
ARC
  5
23D
100
AcDbEntity
  8
0
  6
CONTINUOUS
 62
               7
100
AcDbCircle
 10
30.199999999999989
 20
-11.100000000000023
 30
0.0
 40
0.4
100
AcDbArc
 50
270.00000000000023
 51
0.0
  0
LINE
  5
23E
100
AcDbEntity
  8
0
  6
CONTINUOUS
 62
               7
100
AcDbLine
 10
30.199999999999989
 20
-11.500000000000014
 30
0.0
 11
30.0
 21
-11.500000000000014
 31
0.0
  0
ARC
  5
23F
100
AcDbEntity
  8
0
  6
CONTINUOUS
 62
               7
100
AcDbCircle
 10
30.199999999999989
 20
-8.9000000000000199
 30
0.0
 40
0.4
100
AcDbArc
 50
0.0
 51
89.999999999999815
  0
LINE
  5
240
100
AcDbEntity
  8
0
  6
CONTINUOUS
 62
               7
100
AcDbLine
 10
30.199999999999989
 20
-8.5000000000000142
 30
0.0
 11
30.0
 21
-8.5000000000000142
 31
0.0
  0
LINE
  5
241
100
AcDbEntity
  8
0
  6
CONTINUOUS
 62
               4
100
AcDbLine
 10
36.253535368051473
 20
44.494949488666364
 30
0.0
 11
36.748484862718158
 21
44.494949488666364
 31
0.0
  0
LINE
  5
242
100
AcDbEntity
  8
0
  6
CONTINUOUS
 62
               4
100
AcDbLine
 10
31.00000002151819
 20
5.9999999999997868
 30
0.0
 11
31.00000002151819
 21
27.89999999493206
 31
0.0
  0
LINE
  5
243
100
AcDbEntity
  8
0
  6
CONTINUOUS
 62
               4
100
AcDbLine
 10
17.00000002151819
 20
27.899999999999793
 30
0.0
 11
17.00000002151819
 21
5.9999999999997868
 31
0.0
  0
LINE
  5
244
100
AcDbEntity
  8
0
  6
CONTINUOUS
 62
               4
100
AcDbLine
 10
17.00000002151819
 20
5.9999999999997868
 30
0.0
 11
34.005050520851512
 21
5.9999999999997868
 31
0.0
  0
LINE
  5
245
100
AcDbEntity
  8
0
  6
CONTINUOUS
 62
               4
100
AcDbLine
 10
19.700000021518179
 20
28.499999999999815
 30
0.0
 11
19.700000021518179
 21
27.899999999999849
 31
0.0
  0
LINE
  5
246
100
AcDbEntity
  8
0
  6
CONTINUOUS
 62
               4
100
AcDbLine
 10
19.700000021518179
 20
27.899999999999849
 30
0.0
 11
17.000000025518204
 21
27.899999999999849
 31
0.0
  0
LINE
  5
247
100
AcDbEntity
  8
0
  6
CONTINUOUS
 62
               4
100
AcDbLine
 10
30.500000017518175
 20
28.399999999999849
 30
0.0
 11
29.000000021518247
 21
28.399999999999849
 31
0.0
  0
LINE
  5
248
100
AcDbEntity
  8
0
  6
CONTINUOUS
 62
               4
100
AcDbLine
 10
30.199999931518221
 20
28.499999999999815
 30
0.0
 11
17.800000111518159
 21
28.499999999999815
 31
0.0
  0
ARC
  5
249
100
AcDbEntity
  8
0
  6
CONTINUOUS
 62
               4
100
AcDbCircle
 10
30.200095078166839
 20
27.900095146648468
 30
0.0
 40
0.5999048008965869
100
AcDbArc
 50
56.247417870393882
 51
90.009087277546172
  0
ARC
  5
24A
100
AcDbEntity
  8
0
  6
CONTINUOUS
 62
               4
100
AcDbCircle
 10
17.798912106389992
 20
27.901088005128017
 30
0.0
 40
0.5989129231257409
100
AcDbArc
 50
89.895914524772735
 51
180.10408547522667
  0
ARC
  5
24B
100
AcDbEntity
  8
0
  6
CONTINUOUS
 62
               4
100
AcDbCircle
 10
17.500000025518204
 20
27.899999999999849
 30
0.0
 40
0.5
100
AcDbArc
 50
93.919585899650798
 51
179.99999999999963
  0
ARC
  5
24C
100
AcDbEntity
  8
0
  6
CONTINUOUS
 62
               4
100
AcDbCircle
 10
30.500000017518175
 20
27.899999999999849
 30
0.0
 40
0.5
100
AcDbArc
 50
0.0
 51
89.999999999999815
  0
LINE
  5
24D
100
AcDbEntity
  8
0
  6
CONTINUOUS
 62
               4
100
AcDbLine
 10
29.000000021518247
 20
28.499999999999815
 30
0.0
 11
29.000000021518247
 21
26.899999999999849
 31
0.0
  0
LINE
  5
24E
100
AcDbEntity
  8
0
  6
CONTINUOUS
 62
               4
100
AcDbLine
 10
29.000000021518247
 20
26.899999999999849
 30
0.0
 11
17.000000025518204
 21
26.899999999999849
 31
0.0
  0
LINE
  5
24F
100
AcDbEntity
  8
0
  6
CONTINUOUS
 62
               4
100
AcDbLine
 10
31.000000017518175
 20
25.493939382799837
 30
0.0
 11
38.502020215251548
 21
25.493939382799837
 31
0.0
  0
LINE
  5
250
100
AcDbEntity
  8
0
  6
CONTINUOUS
 62
               4
100
AcDbLine
 10
39.004040416984878
 20
24.998989888133153
 30
0.0
 11
39.004040416984878
 21
8.6444444429330503
 31
0.0
  0
LINE
  5
251
100
AcDbEntity
  8
0
  6
CONTINUOUS
 62
               4
100
AcDbLine
 10
34.005050520851512
 20
5.9999999999997016
 30
0.0
 11
38.714141427251491
 21
8.1919191906664395
 31
0.0
  0
LINE
  5
252
100
AcDbEntity
  8
0
  6
CONTINUOUS
 62
               4
100
AcDbLine
 10
34.005050520851512
 20
33.499999999999673
 30
0.0
 11
38.098989912451486
 21
33.499999999999673
 31
0.0
  0
LINE
  5
253
100
AcDbEntity
  8
0
  6
CONTINUOUS
 62
               4
100
AcDbLine
 10
35.603030317918126
 20
33.499999999999673
 30
0.0
 11
35.603030317918126
 21
25.49696969239973
 31
0.0
  0
LINE
  5
254
100
AcDbEntity
  8
0
  6
CONTINUOUS
 62
               4
100
AcDbLine
 10
37.398989912851505
 20
33.499999999999673
 30
0.0
 11
37.398989912851505
 21
25.49696969239973
 31
0.0
  0
LINE
  5
255
100
AcDbEntity
  8
0
  6
CONTINUOUS
 62
               4
100
AcDbLine
 10
40.997979809784795
 20
33.499999999999673
 30
0.0
 11
40.997979809784795
 21
32.002020193733031
 31
0.0
  0
LINE
  5
256
100
AcDbEntity
  8
0
  6
CONTINUOUS
 62
               4
100
AcDbLine
 10
40.100000012318162
 20
26.896969691599693
 30
0.0
 11
40.997979809784795
 21
32.002020193733031
 31
0.0
  0
LINE
  5
257
100
AcDbEntity
  8
0
  6
CONTINUOUS
 62
               4
100
AcDbLine
 10
40.001010113384893
 20
33.499999999999673
 30
0.0
 11
40.001010113384893
 21
32.086868678533008
 31
0.0
  0
LINE
  5
258
100
AcDbEntity
  8
0
  6
CONTINUOUS
 62
               4
100
AcDbLine
 10
40.001010113384893
 20
33.499999999999673
 30
0.0
 11
40.997979809784795
 21
33.499999999999673
 31
0.0
  0
LINE
  5
259
100
AcDbEntity
  8
0
  6
CONTINUOUS
 62
               4
100
AcDbLine
 10
38.89797981098485
 20
25.82929292453305
 30
0.0
 11
40.015151527518185
 21
32.171717163333042
 31
0.0
  0
LINE
  5
25A
100
AcDbEntity
  8
0
  6
CONTINUOUS
 62
               4
100
AcDbLine
 10
39.103030315918147
 20
24.499999995999715
 30
0.0
 11
39.103030315918147
 21
18.801010100266367
 31
0.0
  0
LINE
  5
25B
100
AcDbEntity
  8
0
  6
CONTINUOUS
 62
               4
100
AcDbLine
 10
38.098989912451486
 20
33.499999999999673
 30
0.0
 11
38.098989912451486
 21
25.899999995199735
 31
0.0
  0
LINE
  5
25C
100
AcDbEntity
  8
0
  6
CONTINUOUS
 62
               4
100
AcDbLine
 10
38.403030316318166
 20
33.195959596132994
 30
0.0
 11
38.403030316318166
 21
27.299999994399698
 31
0.0
  0
LINE
  5
25D
100
AcDbEntity
  8
0
  6
CONTINUOUS
 62
               4
100
AcDbLine
 10
38.098989912451486
 20
33.499999999999673
 30
0.0
 11
38.403030316318166
 21
33.195959596132994
 31
0.0
  0
LINE
  5
25E
100
AcDbEntity
  8
0
  6
CONTINUOUS
 62
               4
100
AcDbLine
 10
34.005050520851512
 20
32.496969688399716
 30
0.0
 11
34.500000015518197
 21
32.496969688399716
 31
0.0
  0
LINE
  5
25F
100
AcDbEntity
  8
0
  6
CONTINUOUS
 62
               4
100
AcDbLine
 10
34.005050520851512
 20
27.497979792266349
 30
0.0
 11
34.500000015518197
 21
27.497979792266349
 31
0.0
  0
LINE
  5
260
100
AcDbEntity
  8
0
  6
CONTINUOUS
 62
               4
100
AcDbLine
 10
38.098989912451486
 20
26.995959590533076
 30
0.0
 11
38.403030316318166
 21
27.299999994399698
 31
0.0
  0
LINE
  5
261
100
AcDbEntity
  8
0
  6
CONTINUOUS
 62
               4
100
AcDbLine
 10
40.100000012318162
 20
26.896969691599693
 30
0.0
 11
40.100000012318162
 21
17.796969696799707
 31
0.0
  0
LINE
  5
262
100
AcDbEntity
  8
0
  6
CONTINUOUS
 62
               4
100
AcDbLine
 10
39.103030315918147
 20
17.499999999999673
 30
0.0
 11
39.803030315518129
 21
17.499999999999673
 31
0.0
  0
LINE
  5
263
100
AcDbEntity
  8
0
  6
CONTINUOUS
 62
               4
100
AcDbLine
 10
39.004040416984878
 20
18.801010100266367
 30
0.0
 11
39.103030315918147
 21
18.801010100266367
 31
0.0
  0
LINE
  5
264
100
AcDbEntity
  8
0
  6
CONTINUOUS
 62
               4
100
AcDbLine
 10
39.004040416984878
 20
17.598989898932999
 30
0.0
 11
39.103030315918147
 21
17.499999999999673
 31
0.0
  0
LINE
  5
265
100
AcDbEntity
  8
0
  6
CONTINUOUS
 62
               4
100
AcDbLine
 10
35.850505065251525
 20
38.067676765066338
 30
0.0
 11
35.850505065251525
 21
33.499999999999673
 31
0.0
  0
LINE
  5
266
100
AcDbEntity
  8
0
  6
CONTINUOUS
 62
               4
100
AcDbLine
 10
37.151515165518219
 20
40.994949490666343
 30
0.0
 11
37.151515165518219
 21
37.664646462266333
 31
0.0
  0
LINE
  5
267
100
AcDbEntity
  8
0
  6
CONTINUOUS
 62
               4
100
AcDbLine
 10
35.850505065251525
 20
40.994949490666343
 30
0.0
 11
35.850505065251525
 21
38.414141411333006
 31
0.0
  0
LINE
  5
268
100
AcDbEntity
  8
0
  6
CONTINUOUS
 62
               4
100
AcDbLine
 10
35.850505065251525
 20
40.994949490666343
 30
0.0
 11
37.151515165518219
 21
40.994949490666343
 31
0.0
  0
LINE
  5
269
100
AcDbEntity
  8
0
  6
CONTINUOUS
 62
               4
100
AcDbLine
 10
36.253535368051473
 20
44.494949488666364
 30
0.0
 11
36.253535368051473
 21
40.994949490666343
 31
0.0
  0
LINE
  5
26A
100
AcDbEntity
  8
0
  6
CONTINUOUS
 62
               4
100
AcDbLine
 10
36.748484862718158
 20
44.494949488666364
 30
0.0
 11
36.748484862718158
 21
40.994949490666343
 31
0.0
  0
LINE
  5
26B
100
AcDbEntity
  8
0
  6
CONTINUOUS
 62
             200
100
AcDbLine
 10
38.000000013518218
 20
37.169696967599705
 30
0.0
 11
35.002020217251527
 21
38.902020198932988
 31
0.0
  0
LINE
  5
26C
100
AcDbEntity
  8
0
  6
CONTINUOUS
 62
             200
100
AcDbLine
 10
38.000000013518218
 20
36.823232321333037
 30
0.0
 11
35.002020217251527
 21
38.555555552666377
 31
0.0
  0
LINE
  5
26D
100
AcDbEntity
  8
0
  6
CONTINUOUS
 62
               4
100
AcDbLine
 10
37.151515165518219
 20
37.318181815999665
 30
0.0
 11
37.151515165518219
 21
33.499999999999673
 31
0.0
  0
LINE
  5
26E
100
AcDbEntity
  8
0
  6
CONTINUOUS
 62
               4
100
AcDbLine
 10
34.005050520851512
 20
33.499999999999673
 30
0.0
 11
34.005050520851512
 21
32.496969688399716
 31
0.0
  0
LINE
  5
26F
100
AcDbEntity
  8
0
  6
CONTINUOUS
 62
               4
100
AcDbLine
 10
34.005050520851512
 20
27.497979792266349
 30
0.0
 11
34.005050520851512
 21
25.49696969239973
 31
0.0
  0
LINE
  5
270
100
AcDbEntity
  8
0
  6
CONTINUOUS
 62
               4
100
AcDbLine
 10
34.500000015518197
 20
32.496969688399716
 30
0.0
 11
34.500000015518197
 21
27.497979792266349
 31
0.0
  0
LINE
  5
271
100
AcDbEntity
  8
0
  6
CONTINUOUS
 62
               4
100
AcDbLine
 10
34.005050520851512
 20
5.9999999999997016
 30
0.0
 11
34.005050520851512
 21
25.493939382799837
 31
0.0
  0
ARC
  5
272
100
AcDbEntity
  8
0
  6
CONTINUOUS
 62
               4
100
AcDbCircle
 10
38.498033079087293
 20
8.6494844974914571
 30
0.0
 40
0.5060324378497572
100
AcDbArc
 50
295.28139190005214
 51
359.42932783011406
  0
ARC
  5
273
100
AcDbEntity
  8
0
  6
CONTINUOUS
 62
               4
100
AcDbCircle
 10
38.503834140796869
 20
24.993708514783449
 30
0.0
 40
0.5002341568128574
100
AcDbArc
 50
0.6049287534634878
 51
90.207763713153867
  0
ARC
  5
274
100
AcDbEntity
  8
0
  6
CONTINUOUS
 62
               4
100
AcDbCircle
 10
39.797896139610032
 20
17.802103872707917
 30
0.0
 40
0.3021474965435785
100
AcDbArc
 50
270.97363298451126
 51
359.02636701548732
  0
ARC
  5
275
100
AcDbEntity
  8
0
  6
CONTINUOUS
 62
               4
100
AcDbCircle
 10
38.599986962385003
 20
24.497302043044229
 30
0.0
 40
0.5030505883944908
100
AcDbArc
 50
0.3072892911898554
 51
36.562608354652731
  0
ARC
  5
276
100
AcDbEntity
  8
0
  6
CONTINUOUS
 62
               4
100
AcDbCircle
 10
38.501921144216169
 20
25.903476452093415
 30
0.0
 40
0.4029462287748787
100
AcDbArc
 50
180.49433091715488
 51
349.39117201772478
  0
ENDBLK
  5
277
100
AcDbEntity
  8
0
100
AcDbBlockEnd
  0
BLOCK
  5
278
100
AcDbEntity
  8
0
100
AcDbBlockBegin
  2
EA10SA5-6
 70
               0
 10
0.0
 20
0.0
 30
0.0
  3
EA10SA5-6
  1

  0
LINE
  5
279
100
AcDbEntity
  8
0
  6
CENTER
 62
               2
100
AcDbLine
 10
-2.0000000167243286
 20
0.0
 30
0.0
 11
1.9999999832756714
 21
0.0
 31
0.0
  0
LINE
  5
27A
100
AcDbEntity
  8
0
  6
CENTER
 62
               2
100
AcDbLine
 10
-2.0000000167243286
 20
-29.599999999999994
 30
0.0
 11
1.9999999832756714
 21
-29.599999999999994
 31
0.0
  0
LINE
  5
27B
100
AcDbEntity
  8
0
  6
CONTINUOUS
 62
               7
100
AcDbLine
 10
-16.999978637695335
 20
0.4999938964843835
 30
0.0
 11
-15.999978637695335
 21
0.4999938964843835
 31
0.0
  0
LINE
  5
27C
100
AcDbEntity
  8
0
  6
CONTINUOUS
 62
               7
100
AcDbLine
 10
-16.999978637695335
 20
-30.100006103515625
 30
0.0
 11
-15.999978637695335
 21
-30.100006103515625
 31
0.0
  0
LINE
  5
27D
100
AcDbEntity
  8
0
  6
CENTER
 62
               2
100
AcDbLine
 10
-23.999999976158165
 20
30.347850672801101
 30
0.0
 11
-23.999999976158165
 21
-31.099999999999994
 31
0.0
  0
CIRCLE
  5
27E
100
AcDbEntity
  8
0
  6
CONTINUOUS
 62
               2
100
AcDbCircle
 10
-9.9999786376953352
 20
-4.8000061035156278
 30
0.0
 40
2.5
  0
CIRCLE
  5
27F
100
AcDbEntity
  8
0
  6
CONTINUOUS
 62
               2
100
AcDbCircle
 10
-10.999978637695335
 20
-14.800006103515628
 30
0.0
 40
2.5
  0
CIRCLE
  5
280
100
AcDbEntity
  8
0
  6
CONTINUOUS
 62
               2
100
AcDbCircle
 10
-4.9999786376953352
 20
-22.39999694824219
 30
0.0
 40
2.5
  0
CIRCLE
  5
281
100
AcDbEntity
  8
0
  6
CONTINUOUS
 62
               7
100
AcDbCircle
 10
-4.9999786376953352
 20
-22.39999694824219
 30
0.0
 40
2.0669994354248047
  0
CIRCLE
  5
282
100
AcDbEntity
  8
0
  6
CONTINUOUS
 62
               7
100
AcDbCircle
 10
-10.999978637695335
 20
-14.800006103515628
 30
0.0
 40
2.0669994354248047
  0
CIRCLE
  5
283
100
AcDbEntity
  8
0
  6
CONTINUOUS
 62
               7
100
AcDbCircle
 10
-9.9999786376953352
 20
-4.8000061035156278
 30
0.0
 40
2.0669994354248047
  0
LINE
  5
284
100
AcDbEntity
  8
0
  6
CENTER
 62
               2
100
AcDbLine
 10
-13.5
 20
-4.7999999999999972
 30
0.0
 11
-6.5
 21
-4.7999999999999972
 31
0.0
  0
LINE
  5
285
100
AcDbEntity
  8
0
  6
CENTER
 62
               2
100
AcDbLine
 10
-10.0
 20
-1.2999999999999972
 30
0.0
 11
-10.0
 21
-8.2999999999999972
 31
0.0
  0
LINE
  5
286
100
AcDbEntity
  8
0
  6
CENTER
 62
               2
100
AcDbLine
 10
-14.5
 20
-14.799999999999997
 30
0.0
 11
-7.5
 21
-14.799999999999997
 31
0.0
  0
LINE
  5
287
100
AcDbEntity
  8
0
  6
CENTER
 62
               2
100
AcDbLine
 10
-11.0
 20
-11.299999999999997
 30
0.0
 11
-11.0
 21
-18.299999999999997
 31
0.0
  0
LINE
  5
288
100
AcDbEntity
  8
0
  6
CENTER
 62
               2
100
AcDbLine
 10
-8.5
 20
-22.399999999999991
 30
0.0
 11
-1.5
 21
-22.399999999999991
 31
0.0
  0
LINE
  5
289
100
AcDbEntity
  8
0
  6
CENTER
 62
               2
100
AcDbLine
 10
-5.0
 20
-18.899999999999991
 30
0.0
 11
-5.0
 21
-25.899999999999991
 31
0.0
  0
LINE
  5
28A
100
AcDbEntity
  8
0
  6
CONTINUOUS
 62
               7
100
AcDbLine
 10
-16.0
 20
-32.299999999999997
 30
0.0
 11
0.0
 21
-32.299999999999997
 31
0.0
  0
LINE
  5
28B
100
AcDbEntity
  8
0
  6
CONTINUOUS
 62
               7
100
AcDbLine
 10
-16.0
 20
2.7000000000000028
 30
0.0
 11
0.0
 21
2.7000000000000028
 31
0.0
  0
LINE
  5
28C
100
AcDbEntity
  8
0
  6
CONTINUOUS
 62
               7
100
AcDbLine
 10
0.0
 20
2.7000000000000028
 30
0.0
 11
0.0
 21
-32.299999999999997
 31
0.0
  0
LINE
  5
28D
100
AcDbEntity
  8
0
  6
CONTINUOUS
 62
               7
100
AcDbLine
 10
-16.0
 20
-32.299999999999997
 30
0.0
 11
-16.0
 21
2.7000000000000028
 31
0.0
  0
LINE
  5
28E
100
AcDbEntity
  8
0
  6
CONTINUOUS
 62
               7
100
AcDbLine
 10
-30.99999995231633
 20
-23.899999999999991
 30
0.0
 11
-16.99999995231633
 21
-23.899999999999991
 31
0.0
  0
LINE
  5
28F
100
AcDbEntity
  8
0
  6
CONTINUOUS
 62
               7
100
AcDbLine
 10
-20.299999964237259
 20
-27.399999999999991
 30
0.0
 11
-16.99999995231633
 21
-27.399999999999991
 31
0.0
  0
LINE
  5
290
100
AcDbEntity
  8
0
  6
CONTINUOUS
 62
               7
100
AcDbLine
 10
-29.999999976158165
 20
-21.199001430615183
 30
0.0
 11
-30.999999976158165
 21
-21.199001430615183
 31
0.0
  0
LINE
  5
291
100
AcDbEntity
  8
0
  6
CONTINUOUS
 62
               7
100
AcDbLine
 10
-29.999999976158165
 20
-17.999001430615195
 30
0.0
 11
-30.999999976158165
 21
-17.999001430615195
 31
0.0
  0
LINE
  5
292
100
AcDbEntity
  8
0
  6
CONTINUOUS
 62
               7
100
AcDbLine
 10
-32.547999976158167
 20
2.5999999999999943
 30
0.0
 11
-32.099999976158188
 21
2.5999999999999943
 31
0.0
  0
LINE
  5
293
100
AcDbEntity
  8
0
  6
CONTINUOUS
 62
               7
100
AcDbLine
 10
-32.547999976158167
 20
4.8000000000000398
 30
0.0
 11
-32.099999976158188
 21
4.8000000000000398
 31
0.0
  0
LINE
  5
294
100
AcDbEntity
  8
0
  6
CONTINUOUS
 62
               7
100
AcDbLine
 10
-32.547999976158167
 20
2.5999999999999943
 30
0.0
 11
-32.547999976158167
 21
4.8000000000000398
 31
0.0
  0
LINE
  5
295
100
AcDbEntity
  8
0
  6
CONTINUOUS
 62
               7
100
AcDbLine
 10
-30.999999976158222
 20
-1.0999999999999943
 30
0.0
 11
-32.099999976158188
 21
0.0
 31
0.0
  0
LINE
  5
296
100
AcDbEntity
  8
0
  6
CONTINUOUS
 62
               7
100
AcDbLine
 10
-32.099999976158188
 20
0.0
 30
0.0
 11
-32.099999976158188
 21
5.9999999999999432
 31
0.0
  0
LINE
  5
297
100
AcDbEntity
  8
0
  6
CONTINUOUS
 62
               7
100
AcDbLine
 10
-30.999999976158165
 20
6.0
 30
0.0
 11
-30.999999976158165
 21
-28.499999999999986
 31
0.0
  0
LINE
  5
298
100
AcDbEntity
  8
0
  6
CONTINUOUS
 62
               7
100
AcDbLine
 10
-16.999999976158165
 20
-5.7000000000000028
 30
0.0
 11
-30.999999976158165
 21
-5.7000000000000028
 31
0.0
  0
LINE
  5
299
100
AcDbEntity
  8
0
  6
CONTINUOUS
 62
               7
100
AcDbLine
 10
-29.999999976158165
 20
-17.999001430615195
 30
0.0
 11
-29.999999976158165
 21
-21.199001430615183
 31
0.0
  0
LINE
  5
29A
100
AcDbEntity
  8
0
  6
CONTINUOUS
 62
               7
100
AcDbLine
 10
-30.599999976158188
 20
-28.899999999999991
 30
0.0
 11
-17.399999976158199
 21
-28.899999999999991
 31
0.0
  0
LINE
  5
29B
100
AcDbEntity
  8
0
  6
CONTINUOUS
 62
               7
100
AcDbLine
 10
-20.499999976158165
 20
-27.599999999999994
 30
0.0
 11
-20.499999976158165
 21
-28.700000000000003
 31
0.0
  0
LINE
  5
29C
100
AcDbEntity
  8
0
  6
CONTINUOUS
 62
               7
100
AcDbLine
 10
-20.449999976158153
 20
-27.929999999999993
 30
0.0
 11
-20.449999976158153
 21
-27.459999999999994
 31
0.0
  0
ARC
  5
29D
100
AcDbEntity
  8
0
  6
CONTINUOUS
 62
               7
100
AcDbCircle
 10
-18.704999976158206
 20
-25.499981271273313
 30
0.0
 40
3.1971597169667145
100
AcDbArc
 50
241.51127142001724
 51
298.48872857998202
  0
ARC
  5
29E
100
AcDbEntity
  8
0
  6
CONTINUOUS
 62
               7
100
AcDbCircle
 10
-20.699989295477337
 20
-28.700010680680847
 30
0.0
 40
0.1999893196043432
100
AcDbArc
 50
269.99694004691679
 51
0.0030599530887399
  0
ARC
  5
29F
100
AcDbEntity
  8
0
  6
CONTINUOUS
 62
               7
100
AcDbCircle
 10
-20.299995398049987
 20
-27.600004578108198
 30
0.0
 40
0.2000045781606
100
AcDbArc
 50
90.001311501357506
 51
179.99868849862943
  0
ARC
  5
2A0
100
AcDbEntity
  8
0
  6
CONTINUOUS
 62
               7
100
AcDbCircle
 10
-20.023563967371388
 20
-27.936800205439212
 30
0.0
 40
0.4264902254261231
100
AcDbArc
 50
179.08640442595285
 51
241.0507612177737
  0
ARC
  5
2A1
100
AcDbEntity
  8
0
  6
CONTINUOUS
 62
               7
100
AcDbCircle
 10
-17.374706615486957
 20
-27.935293360671224
 30
0.0
 40
0.4222744853241268
100
AcDbArc
 50
297.45748041710277
 51
332.54251958289433
  0
ARC
  5
2A2
100
AcDbEntity
  8
0
  6
CONTINUOUS
 62
               7
100
AcDbCircle
 10
-17.39999387321302
 20
-28.500006102945193
 30
0.0
 40
0.3999938971013656
100
AcDbArc
 50
269.99912580415821
 51
0.0008741958432351
  0
ARC
  5
2A3
100
AcDbEntity
  8
0
  6
CONTINUOUS
 62
               7
100
AcDbCircle
 10
-30.599984717369125
 20
-28.499984741210923
 30
0.0
 40
0.4000152590800927
100
AcDbArc
 50
180.00218557716028
 51
269.99781442283921
  0
LINE
  5
2A4
100
AcDbEntity
  8
0
  6
CONTINUOUS
 62
               7
100
AcDbLine
 10
-16.999999976158165
 20
6.0
 30
0.0
 11
-16.999978637695335
 21
-30.100006103515625
 31
0.0
  0
LINE
  5
2A5
100
AcDbEntity
  8
0
  6
CONTINUOUS
 62
               7
100
AcDbLine
 10
-30.599999976158159
 20
-18.5
 30
0.0
 11
-30.599999976158159
 21
-20.700000000000003
 31
0.0
  0
ARC
  5
2A6
100
AcDbEntity
  8
0
  6
CONTINUOUS
 62
               7
100
AcDbCircle
 10
-30.199999976158153
 20
-20.700000000000003
 30
0.0
 40
0.4
100
AcDbArc
 50
179.99999999999963
 51
269.99999999999937
  0
LINE
  5
2A7
100
AcDbEntity
  8
0
  6
CONTINUOUS
 62
               7
100
AcDbLine
 10
-30.199999976158153
 20
-21.099999999999994
 30
0.0
 11
-29.999999976158165
 21
-21.099999999999994
 31
0.0
  0
ARC
  5
2A8
100
AcDbEntity
  8
0
  6
CONTINUOUS
 62
               7
100
AcDbCircle
 10
-30.199999976158153
 20
-18.5
 30
0.0
 40
0.4
100
AcDbArc
 50
89.999999999999815
 51
179.99999999999963
  0
LINE
  5
2A9
100
AcDbEntity
  8
0
  6
CONTINUOUS
 62
               7
100
AcDbLine
 10
-30.199999976158153
 20
-18.099999999999994
 30
0.0
 11
-29.999999976158165
 21
-18.099999999999994
 31
0.0
  0
ARC
  5
2AA
100
AcDbEntity
  8
0
  6
CONTINUOUS
 62
               4
100
AcDbCircle
 10
-38.501921098856144
 20
25.9034764520935
 30
0.0
 40
0.4029462287748787
100
AcDbArc
 50
190.60882798227402
 51
359.50566908284389
  0
ARC
  5
2AB
100
AcDbEntity
  8
0
  6
CONTINUOUS
 62
               4
100
AcDbCircle
 10
-38.599986917024978
 20
24.497302043044314
 30
0.0
 40
0.5030505883944908
100
AcDbArc
 50
143.43739164534688
 51
179.69271070880976
  0
ARC
  5
2AC
100
AcDbEntity
  8
0
  6
CONTINUOUS
 62
               4
100
AcDbCircle
 10
-39.797896094250007
 20
17.802103872708003
 30
0.0
 40
0.3021474965435785
100
AcDbArc
 50
180.97363298451145
 51
269.02636701548755
  0
ARC
  5
2AD
100
AcDbEntity
  8
0
  6
CONTINUOUS
 62
               4
100
AcDbCircle
 10
-38.503834095436844
 20
24.993708514783535
 30
0.0
 40
0.5002341568128574
100
AcDbArc
 50
89.792236286845736
 51
179.39507124653611
  0
ARC
  5
2AE
100
AcDbEntity
  8
0
  6
CONTINUOUS
 62
               4
100
AcDbCircle
 10
-38.498033033727268
 20
8.6494844974915424
 30
0.0
 40
0.5060324378497572
100
AcDbArc
 50
180.57067216988474
 51
244.71860809994666
  0
LINE
  5
2AF
100
AcDbEntity
  8
0
  6
CONTINUOUS
 62
               4
100
AcDbLine
 10
-34.005050475491487
 20
5.9999999999997868
 30
0.0
 11
-34.005050475491487
 21
25.493939382799923
 31
0.0
  0
LINE
  5
2B0
100
AcDbEntity
  8
0
  6
CONTINUOUS
 62
               4
100
AcDbLine
 10
-34.499999970158171
 20
32.496969688399801
 30
0.0
 11
-34.499999970158171
 21
27.497979792266435
 31
0.0
  0
LINE
  5
2B1
100
AcDbEntity
  8
0
  6
CONTINUOUS
 62
               4
100
AcDbLine
 10
-34.005050475491487
 20
27.497979792266435
 30
0.0
 11
-34.005050475491487
 21
25.496969692399816
 31
0.0
  0
LINE
  5
2B2
100
AcDbEntity
  8
0
  6
CONTINUOUS
 62
               4
100
AcDbLine
 10
-34.005050475491487
 20
33.499999999999758
 30
0.0
 11
-34.005050475491487
 21
32.496969688399801
 31
0.0
  0
LINE
  5
2B3
100
AcDbEntity
  8
0
  6
CONTINUOUS
 62
               4
100
AcDbLine
 10
-37.151515120158194
 20
37.31818181599975
 30
0.0
 11
-37.151515120158194
 21
33.499999999999758
 31
0.0
  0
LINE
  5
2B4
100
AcDbEntity
  8
0
  6
CONTINUOUS
 62
             200
100
AcDbLine
 10
-37.999999968158193
 20
36.823232321333123
 30
0.0
 11
-35.002020171891502
 21
38.555555552666462
 31
0.0
  0
LINE
  5
2B5
100
AcDbEntity
  8
0
  6
CONTINUOUS
 62
             200
100
AcDbLine
 10
-37.999999968158193
 20
37.169696967599791
 30
0.0
 11
-35.002020171891502
 21
38.902020198933073
 31
0.0
  0
LINE
  5
2B6
100
AcDbEntity
  8
0
  6
CONTINUOUS
 62
               4
100
AcDbLine
 10
-36.748484817358133
 20
44.49494948866645
 30
0.0
 11
-36.748484817358133
 21
40.994949490666428
 31
0.0
  0
LINE
  5
2B7
100
AcDbEntity
  8
0
  6
CONTINUOUS
 62
               4
100
AcDbLine
 10
-36.253535322691448
 20
44.49494948866645
 30
0.0
 11
-36.253535322691448
 21
40.994949490666428
 31
0.0
  0
LINE
  5
2B8
100
AcDbEntity
  8
0
  6
CONTINUOUS
 62
               4
100
AcDbLine
 10
-35.8505050198915
 20
40.994949490666428
 30
0.0
 11
-37.151515120158194
 21
40.994949490666428
 31
0.0
  0
LINE
  5
2B9
100
AcDbEntity
  8
0
  6
CONTINUOUS
 62
               4
100
AcDbLine
 10
-35.8505050198915
 20
40.994949490666428
 30
0.0
 11
-35.8505050198915
 21
38.414141411333091
 31
0.0
  0
LINE
  5
2BA
100
AcDbEntity
  8
0
  6
CONTINUOUS
 62
               4
100
AcDbLine
 10
-37.151515120158194
 20
40.994949490666428
 30
0.0
 11
-37.151515120158194
 21
37.664646462266418
 31
0.0
  0
LINE
  5
2BB
100
AcDbEntity
  8
0
  6
CONTINUOUS
 62
               4
100
AcDbLine
 10
-35.8505050198915
 20
38.067676765066423
 30
0.0
 11
-35.8505050198915
 21
33.499999999999758
 31
0.0
  0
LINE
  5
2BC
100
AcDbEntity
  8
0
  6
CONTINUOUS
 62
               4
100
AcDbLine
 10
-39.004040371624853
 20
17.598989898933084
 30
0.0
 11
-39.103030270558122
 21
17.499999999999758
 31
0.0
  0
LINE
  5
2BD
100
AcDbEntity
  8
0
  6
CONTINUOUS
 62
               4
100
AcDbLine
 10
-39.004040371624853
 20
18.801010100266453
 30
0.0
 11
-39.103030270558122
 21
18.801010100266453
 31
0.0
  0
LINE
  5
2BE
100
AcDbEntity
  8
0
  6
CONTINUOUS
 62
               4
100
AcDbLine
 10
-39.103030270558122
 20
17.499999999999758
 30
0.0
 11
-39.803030270158104
 21
17.499999999999758
 31
0.0
  0
LINE
  5
2BF
100
AcDbEntity
  8
0
  6
CONTINUOUS
 62
               4
100
AcDbLine
 10
-40.099999966958137
 20
26.896969691599779
 30
0.0
 11
-40.099999966958137
 21
17.796969696799792
 31
0.0
  0
LINE
  5
2C0
100
AcDbEntity
  8
0
  6
CONTINUOUS
 62
               4
100
AcDbLine
 10
-38.098989867091461
 20
26.995959590533161
 30
0.0
 11
-38.403030270958141
 21
27.299999994399784
 31
0.0
  0
LINE
  5
2C1
100
AcDbEntity
  8
0
  6
CONTINUOUS
 62
               4
100
AcDbLine
 10
-34.005050475491487
 20
27.497979792266435
 30
0.0
 11
-34.499999970158171
 21
27.497979792266435
 31
0.0
  0
LINE
  5
2C2
100
AcDbEntity
  8
0
  6
CONTINUOUS
 62
               4
100
AcDbLine
 10
-34.005050475491487
 20
32.496969688399801
 30
0.0
 11
-34.499999970158171
 21
32.496969688399801
 31
0.0
  0
LINE
  5
2C3
100
AcDbEntity
  8
0
  6
CONTINUOUS
 62
               4
100
AcDbLine
 10
-38.098989867091461
 20
33.499999999999758
 30
0.0
 11
-38.403030270958141
 21
33.195959596133079
 31
0.0
  0
LINE
  5
2C4
100
AcDbEntity
  8
0
  6
CONTINUOUS
 62
               4
100
AcDbLine
 10
-38.403030270958141
 20
33.195959596133079
 30
0.0
 11
-38.403030270958141
 21
27.299999994399784
 31
0.0
  0
LINE
  5
2C5
100
AcDbEntity
  8
0
  6
CONTINUOUS
 62
               4
100
AcDbLine
 10
-38.098989867091461
 20
33.499999999999758
 30
0.0
 11
-38.098989867091461
 21
25.899999995199821
 31
0.0
  0
LINE
  5
2C6
100
AcDbEntity
  8
0
  6
CONTINUOUS
 62
               4
100
AcDbLine
 10
-39.103030270558122
 20
24.499999995999801
 30
0.0
 11
-39.103030270558122
 21
18.801010100266453
 31
0.0
  0
LINE
  5
2C7
100
AcDbEntity
  8
0
  6
CONTINUOUS
 62
               4
100
AcDbLine
 10
-38.897979765624825
 20
25.829292924533135
 30
0.0
 11
-40.01515148215816
 21
32.171717163333128
 31
0.0
  0
LINE
  5
2C8
100
AcDbEntity
  8
0
  6
CONTINUOUS
 62
               4
100
AcDbLine
 10
-40.001010068024868
 20
33.499999999999758
 30
0.0
 11
-40.99797976442477
 21
33.499999999999758
 31
0.0
  0
LINE
  5
2C9
100
AcDbEntity
  8
0
  6
CONTINUOUS
 62
               4
100
AcDbLine
 10
-40.001010068024868
 20
33.499999999999758
 30
0.0
 11
-40.001010068024868
 21
32.086868678533094
 31
0.0
  0
LINE
  5
2CA
100
AcDbEntity
  8
0
  6
CONTINUOUS
 62
               4
100
AcDbLine
 10
-40.099999966958137
 20
26.896969691599779
 30
0.0
 11
-40.99797976442477
 21
32.002020193733117
 31
0.0
  0
LINE
  5
2CB
100
AcDbEntity
  8
0
  6
CONTINUOUS
 62
               4
100
AcDbLine
 10
-40.99797976442477
 20
33.499999999999758
 30
0.0
 11
-40.99797976442477
 21
32.002020193733117
 31
0.0
  0
LINE
  5
2CC
100
AcDbEntity
  8
0
  6
CONTINUOUS
 62
               4
100
AcDbLine
 10
-37.39898986749148
 20
33.499999999999758
 30
0.0
 11
-37.39898986749148
 21
25.496969692399816
 31
0.0
  0
LINE
  5
2CD
100
AcDbEntity
  8
0
  6
CONTINUOUS
 62
               4
100
AcDbLine
 10
-35.603030272558101
 20
33.499999999999758
 30
0.0
 11
-35.603030272558101
 21
25.496969692399816
 31
0.0
  0
LINE
  5
2CE
100
AcDbEntity
  8
0
  6
CONTINUOUS
 62
               4
100
AcDbLine
 10
-34.005050475491487
 20
33.499999999999758
 30
0.0
 11
-38.098989867091461
 21
33.499999999999758
 31
0.0
  0
LINE
  5
2CF
100
AcDbEntity
  8
0
  6
CONTINUOUS
 62
               4
100
AcDbLine
 10
-34.005050475491487
 20
5.9999999999997868
 30
0.0
 11
-38.714141381891466
 21
8.1919191906665247
 31
0.0
  0
LINE
  5
2D0
100
AcDbEntity
  8
0
  6
CONTINUOUS
 62
               4
100
AcDbLine
 10
-39.004040371624853
 20
24.998989888133238
 30
0.0
 11
-39.004040371624853
 21
8.6444444429331355
 31
0.0
  0
LINE
  5
2D1
100
AcDbEntity
  8
0
  6
CONTINUOUS
 62
               4
100
AcDbLine
 10
-30.99999997215815
 20
25.493939382799923
 30
0.0
 11
-38.502020169891523
 21
25.493939382799923
 31
0.0
  0
LINE
  5
2D2
100
AcDbEntity
  8
0
  6
CONTINUOUS
 62
               4
100
AcDbLine
 10
-18.999999976158108
 20
26.899999999999935
 30
0.0
 11
-30.99999997215815
 21
26.899999999999935
 31
0.0
  0
LINE
  5
2D3
100
AcDbEntity
  8
0
  6
CONTINUOUS
 62
               4
100
AcDbLine
 10
-18.999999976158108
 20
28.499999999999901
 30
0.0
 11
-18.999999976158108
 21
26.899999999999935
 31
0.0
  0
ARC
  5
2D4
100
AcDbEntity
  8
0
  6
CONTINUOUS
 62
               4
100
AcDbCircle
 10
-17.499999980158179
 20
27.899999999999935
 30
0.0
 40
0.5
100
AcDbArc
 50
0.0
 51
89.999999999999815
  0
ARC
  5
2D5
100
AcDbEntity
  8
0
  6
CONTINUOUS
 62
               4
100
AcDbCircle
 10
-30.49999997215815
 20
27.899999999999935
 30
0.0
 40
0.5
100
AcDbArc
 50
93.919585899650798
 51
179.99999999999963
  0
ARC
  5
2D6
100
AcDbEntity
  8
0
  6
CONTINUOUS
 62
               4
100
AcDbCircle
 10
-30.201087891286363
 20
27.901088005128102
 30
0.0
 40
0.5989129231257409
100
AcDbArc
 50
89.895914524772735
 51
180.10408547522667
  0
ARC
  5
2D7
100
AcDbEntity
  8
0
  6
CONTINUOUS
 62
               4
100
AcDbCircle
 10
-17.799904919509515
 20
27.900095146648553
 30
0.0
 40
0.5999048008965869
100
AcDbArc
 50
56.247417870393882
 51
90.009087277546172
  0
LINE
  5
2D8
100
AcDbEntity
  8
0
  6
CONTINUOUS
 62
               4
100
AcDbLine
 10
-17.800000066158134
 20
28.499999999999901
 30
0.0
 11
-30.199999886158196
 21
28.499999999999901
 31
0.0
  0
LINE
  5
2D9
100
AcDbEntity
  8
0
  6
CONTINUOUS
 62
               4
100
AcDbLine
 10
-17.499999980158179
 20
28.399999999999935
 30
0.0
 11
-18.999999976158108
 21
28.399999999999935
 31
0.0
  0
LINE
  5
2DA
100
AcDbEntity
  8
0
  6
CONTINUOUS
 62
               4
100
AcDbLine
 10
-28.299999976158176
 20
27.899999999999935
 30
0.0
 11
-30.99999997215815
 21
27.899999999999935
 31
0.0
  0
LINE
  5
2DB
100
AcDbEntity
  8
0
  6
CONTINUOUS
 62
               4
100
AcDbLine
 10
-28.299999976158176
 20
28.499999999999901
 30
0.0
 11
-28.299999976158176
 21
27.899999999999935
 31
0.0
  0
LINE
  5
2DC
100
AcDbEntity
  8
0
  6
CONTINUOUS
 62
               4
100
AcDbLine
 10
-16.999999976158165
 20
5.9999999999998721
 30
0.0
 11
-34.000002792684938
 21
5.9999999999998721
 31
0.0
  0
LINE
  5
2DD
100
AcDbEntity
  8
0
  6
CONTINUOUS
 62
               4
100
AcDbLine
 10
-16.999999976158165
 20
27.899999999999878
 30
0.0
 11
-16.999999976158165
 21
5.9999999999998721
 31
0.0
  0
LINE
  5
2DE
100
AcDbEntity
  8
0
  6
CONTINUOUS
 62
               4
100
AcDbLine
 10
-30.999999976158165
 20
5.9999999999998721
 30
0.0
 11
-30.999999976158165
 21
27.899999994932145
 31
0.0
  0
LINE
  5
2DF
100
AcDbEntity
  8
0
  6
CONTINUOUS
 62
               4
100
AcDbLine
 10
-36.253535322691448
 20
44.49494948866645
 30
0.0
 11
-36.748484817358133
 21
44.49494948866645
 31
0.0
  0
ENDBLK
  5
2E0
100
AcDbEntity
  8
0
100
AcDbBlockEnd
  0
BLOCK
  5
2F7
100
AcDbEntity
  8
0
  6
ByBlock
 62
               0
100
AcDbBlockBegin
  2
_OPEN30
 70
               2
 10
0.0
 20
0.0
 30
0.0
  3
_OPEN30
  1

  0
LINE
  5
2F8
100
AcDbEntity
  8
0
  6
ByBlock
 62
               0
100
AcDbLine
 10
-1.0
 20
0.267949
 30
0.0
 11
0.0
 21
0.0
 31
0.0
  0
LINE
  5
2F9
100
AcDbEntity
  8
0
  6
ByBlock
 62
               0
100
AcDbLine
 10
0.0
 20
0.0
 30
0.0
 11
-1.0
 21
-0.267949
 31
0.0
  0
LINE
  5
2FA
100
AcDbEntity
  8
0
  6
ByBlock
 62
               0
100
AcDbLine
 10
0.0
 20
0.0
 30
0.0
 11
-1.0
 21
0.0
 31
0.0
  0
ENDBLK
  5
2FB
100
AcDbEntity
  8
0
  6
ByBlock
 62
               0
100
AcDbBlockEnd
  0
ENDSEC
  0
SECTION
  2
ENTITIES
  0
INSERT
  5
2E1
100
AcDbEntity
  8
0
  6
ByBlock
100
AcDbBlockReference
  2
EA10SA5-4
 10
3.5750015258789034
 20
-70.160582255031287
 30
0.0
  0
INSERT
  5
2E2
100
AcDbEntity
  8
0
  6
ByBlock
100
AcDbBlockReference
  2
EA10SA5-5
 10
-99.530686898196507
 20
-70.160582255031287
 30
0.0
  0
INSERT
  5
2E3
100
AcDbEntity
  8
0
  6
ByBlock
100
AcDbBlockReference
  2
EA10SA5-6
 10
101.87500150203708
 20
-70.160582255031287
 30
0.0
  0
INSERT
  5
2E4
100
AcDbEntity
  8
0
  6
ByBlock
100
AcDbBlockReference
  2
EA10SA5-1
 10
3.5750015258789034
 20
62.889420796726526
 30
0.0
  0
INSERT
  5
2E5
100
AcDbEntity
  8
0
  6
ByBlock
100
AcDbBlockReference
  2
EA10SA5-2
 10
-99.530686898196507
 20
62.889420796726526
 30
0.0
  0
INSERT
  5
2E6
100
AcDbEntity
  8
0
  6
ByBlock
100
AcDbBlockReference
  2
EA10SA5-3
 10
101.87500150203708
 20
62.889420796726526
 30
0.0
  0
MTEXT
  5
2E7
100
AcDbEntity
  8
0
  6
CONTINUOUS
 62
               7
100
AcDbMText
 10
115.52672595002113
 20
-126.0
 30
0.0
 40
6.3000001907348633
 41
0.0
 71
               4
 72
               1
  1
\W1.121;\A1;KOGANEI CORP.
  0
MTEXT
  5
2E8
100
AcDbEntity
  8
0
  6
CONTINUOUS
 62
               7
100
AcDbMText
 10
135.2836095956161
 20
125.10000610351562
 30
0.0
 40
4.5
 41
0.0
 71
               4
 72
               1
  1
\W1.311;\A1;Ver. 1.0
  0
LINE
  5
2E9
100
AcDbEntity
  8
0
  6
CONTINUOUS
 62
               7
100
AcDbLine
 10
-109.25
 20
132.60000610351562
 30
0.0
 11
-109.25
 21
117.60000610351562
 31
0.0
  0
LINE
  5
2EA
100
AcDbEntity
  8
0
  6
CONTINUOUS
 62
               7
100
AcDbLine
 10
-194.25
 20
117.60000610351562
 30
0.0
 11
-109.25
 21
117.60000610351562
 31
0.0
  0
LINE
  5
2EB
100
AcDbEntity
  8
0
  6
CONTINUOUS
 62
               7
100
AcDbLine
 10
109.80000305175781
 20
117.60000610351562
 30
0.0
 11
194.80000305175781
 21
117.60000610351562
 31
0.0
  0
LINE
  5
2EC
100
AcDbEntity
  8
0
  6
CONTINUOUS
 62
               7
100
AcDbLine
 10
109.80000305175781
 20
132.60000610351562
 30
0.0
 11
109.80000305175781
 21
117.60000610351562
 31
0.0
  0
LINE
  5
2ED
100
AcDbEntity
  8
0
  6
CONTINUOUS
 62
               7
100
AcDbLine
 10
109.80000305175781
 20
-118.5
 30
0.0
 11
194.80000305175781
 21
-118.5
 31
0.0
  0
LINE
  5
2EE
100
AcDbEntity
  8
0
  6
CONTINUOUS
 62
               7
100
AcDbLine
 10
109.80000305175781
 20
-118.5
 30
0.0
 11
109.80000305175781
 21
-133.5
 31
0.0
  0
LINE
  5
2EF
100
AcDbEntity
  8
0
  6
CONTINUOUS
 62
               7
100
AcDbLine
 10
-194.25
 20
-133.5
 30
0.0
 11
194.80000305175781
 21
-133.5
 31
0.0
  0
LINE
  5
2F0
100
AcDbEntity
  8
0
  6
CONTINUOUS
 62
               7
100
AcDbLine
 10
-194.25
 20
132.60000610351562
 30
0.0
 11
-194.25
 21
-133.5
 31
0.0
  0
LINE
  5
2F1
100
AcDbEntity
  8
0
  6
CONTINUOUS
 62
               7
100
AcDbLine
 10
194.80000305175781
 20
132.60000610351562
 30
0.0
 11
194.80000305175781
 21
-133.5
 31
0.0
  0
LINE
  5
2F2
100
AcDbEntity
  8
0
  6
CONTINUOUS
 62
               7
100
AcDbLine
 10
-194.25
 20
132.60000610351562
 30
0.0
 11
194.80000305175781
 21
132.60000610351562
 31
0.0
  0
MTEXT
  5
2F3
100
AcDbEntity
  8
0
  6
CONTINUOUS
 62
               7
100
AcDbMText
 10
-185.70093460595376
 20
107.60000610351562
 30
0.0
 40
4.5
 41
0.0
 71
               4
 72
               1
  1
\W1.065;\A1;MODEL:EA10SA5-25-PL
  0
MTEXT
  5
2F4
100
AcDbEntity
  8
0
  6
CONTINUOUS
 62
               1
100
AcDbMText
 10
-177.91666665526046
 20
125.10000610351562
 30
0.0
 40
4.5
 41
0.0
 71
               4
 72
               1
  1
\W1.111;\A1;EA･EB SERIES
  0
MTEXT
  5
2F5
100
AcDbEntity
  8
0
  6
CONTINUOUS
 62
               2
100
AcDbMText
 10
34.773637421012197
 20
-108.13389420647633
 30
0.0
 40
3.1999998092651367
 41
0.0
 71
               4
 72
               1
  1
\A1;-75
  0
LEADER
  5
2FC
100
AcDbEntity
  8
0
  6
CONTINUOUS
 62
               2
100
AcDbLeader
  3
MXDIMSTYLE
 73
               3
 74
               0
 75
               0
 40
0.0
 76
               3
 10
19.77500152587892
 20
-96.560582255031278
 30
0.0
 10
29.929071075797353
 20
-111.73389387269032
 30
0.0
 10
44.373636848807607
 20
-111.73389387269032
 30
0.0
 77
               2
1001
ACAD
1000
DSTYLE
1002
{
1070
               6
1000
_OPEN30
1070
               7
1000
_OPEN30
1070
              41
1040
2.77
1070
             173
1070
               1
1070
             341
1005
2F6
1002
}
  0
MTEXT
  5
2FD
100
AcDbEntity
  8
0
  6
CONTINUOUS
 62
               7
100
AcDbMText
 10
-185.70093460595376
 20
-10.449996948242187
 30
0.0
 40
4.5
 41
0.0
 71
               4
 72
               1
  1
\W1.065;\A1;MODEL:EA10SA5-25-PS
  0
MTEXT
  5
2FE
100
AcDbEntity
  8
0
  6
CONTINUOUS
 62
               2
100
AcDbMText
 10
34.773637421012197
 20
24.916108845281485
 30
0.0
 40
3.1999998092651367
 41
0.0
 71
               4
 72
               1
  1
\A1;-75
  0
LEADER
  5
2FF
100
AcDbEntity
  8
0
  6
CONTINUOUS
 62
               2
100
AcDbLeader
  3
MXDIMSTYLE
 73
               3
 74
               0
 75
               0
 40
0.0
 76
               3
 10
19.77500152587892
 20
36.489420796726534
 30
0.0
 10
29.929071075797353
 20
21.316109179067496
 30
0.0
 10
44.373636848807607
 20
21.316109179067496
 30
0.0
 77
               2
1001
ACAD
1000
DSTYLE
1002
{
1070
               6
1000
_OPEN30
1070
               7
1000
_OPEN30
1070
              41
1040
2.77
1070
             173
1070
               1
1070
             341
1005
2F6
1002
}
  0
LINE
  5
300
100
AcDbEntity
  8
0
  6
CONTINUOUS
 62
               7
100
AcDbLine
 10
-194.25
 20
-0.4499969482421875
 30
0.0
 11
194.80000305175781
 21
-0.4499969482421875
 31
0.0
  0
ENDSEC
  0
SECTION
  2
OBJECTS
  0
DICTIONARY
  5
19
100
AcDbDictionary
  3
ACAD_GROUP
350
1A
  3
ACAD_MLINESTYLE
350
1B
  0
DICTIONARY
  5
1A
102
{ACAD_REACTORS
330
19
102
}
100
AcDbDictionary
  0
DICTIONARY
  5
1B
102
{ACAD_REACTORS
330
19
102
}
100
AcDbDictionary
  3
STANDARD
350
1C
  0
MLINESTYLE
  5
1C
102
{ACAD_REACTORS
330
1B
102
}
100
AcDbMlineStyle
  2
Standard
 70
               0
  3

 62
               0
 51
90.0
 52
90.0
 71
               2
 49
0.5
 62
             256
  6
ByLayer
 49
-0.5
 62
             256
  6
ByLayer
  0
ENDSEC
  0
EOF
