  0
SECTION
  2
HEADER
  9
$ACADVER
  1
AC1012
  9
$DWGCODEPAGE
  3
dos932
  9
$INSBASE
 10
0.0
 20
0.0
 30
0.0
  9
$EXTMIN
 10
-281.25
 20
-195.0
 30
0.0
  9
$EXTMAX
 10
285.6319057062413
 20
195.5
 30
0.0
  9
$LIMMIN
 10
-281.25
 20
-195.0
  9
$LIMMAX
 10
285.6319057062413
 20
195.5
  9
$ORTHOMODE
 70
               0
  9
$REGENMODE
 70
               1
  9
$FILLMODE
 70
               1
  9
$QTEXTMODE
 70
               0
  9
$MIRRTEXT
 70
               1
  9
$DRAGMODE
 70
               2
  9
$LTSCALE
 40
1.0
  9
$OSMODE
 70
               0
  9
$ATTMODE
 70
               1
  9
$TEXTSIZE
 40
3.2000000476837158
  9
$TRACEWID
 40
0.05
  9
$TEXTSTYLE
  7
MX_NOTE_STANDARD
  9
$CLAYER
  8
0
  9
$CELTYPE
  6
CONTINUOUS
  9
$CECOLOR
 62
             256
  9
$CELTSCALE
 40
1.0
  9
$DELOBJ
 70
               1
  9
$DISPSILH
 70
               0
  9
$DIMSCALE
 40
1.0
  9
$DIMASZ
 40
2.5
  9
$DIMEXO
 40
1.5
  9
$DIMDLI
 40
3.75
  9
$DIMRND
 40
0.0
  9
$DIMDLE
 40
0.0
  9
$DIMEXE
 40
1.5
  9
$DIMTP
 40
0.0
  9
$DIMTM
 40
0.0
  9
$DIMTXT
 40
3.2000000476837158
  9
$DIMCEN
 40
2.5
  9
$DIMTSZ
 40
0.0
  9
$DIMTOL
 70
               0
  9
$DIMLIM
 70
               0
  9
$DIMTIH
 70
               0
  9
$DIMTOH
 70
               0
  9
$DIMSE1
 70
               0
  9
$DIMSE2
 70
               0
  9
$DIMTAD
 70
               1
  9
$DIMZIN
 70
               8
  9
$DIMBLK
  1

  9
$DIMASO
 70
               1
  9
$DIMSHO
 70
               1
  9
$DIMPOST
  1

  9
$DIMAPOST
  1

  9
$DIMALT
 70
               0
  9
$DIMALTD
 70
               4
  9
$DIMALTF
 40
0.03937007874016
  9
$DIMLFAC
 40
1.0
  9
$DIMTOFL
 70
               1
  9
$DIMTVP
 40
0.0
  9
$DIMTIX
 70
               0
  9
$DIMSOXD
 70
               0
  9
$DIMSAH
 70
               0
  9
$DIMBLK1
  1

  9
$DIMBLK2
  1

  9
$DIMSTYLE
  2
MXDIMSTYLE
  9
$DIMCLRD
 70
               0
  9
$DIMCLRE
 70
               0
  9
$DIMCLRT
 70
               0
  9
$DIMTFAC
 40
1.0
  9
$DIMGAP
 40
1.0
  9
$DIMJUST
 70
               0
  9
$DIMSD1
 70
               0
  9
$DIMSD2
 70
               0
  9
$DIMTOLJ
 70
               1
  9
$DIMTZIN
 70
               0
  9
$DIMALTZ
 70
               0
  9
$DIMALTTZ
 70
               0
  9
$DIMFIT
 70
               3
  9
$DIMUPT
 70
               1
  9
$DIMUNIT
 70
               2
  9
$DIMDEC
 70
               4
  9
$DIMTDEC
 70
               4
  9
$DIMALTU
 70
               2
  9
$DIMALTTD
 70
               4
  9
$DIMTXSTY
  7
MX_NOTE_STANDARD
  9
$DIMAUNIT
 70
               0
  9
$LUNITS
 70
               2
  9
$LUPREC
 70
               4
  9
$SKETCHINC
 40
0.1
  9
$FILLETRAD
 40
0.0
  9
$AUNITS
 70
               0
  9
$AUPREC
 70
               0
  9
$MENU
  1
acad
  9
$ELEVATION
 40
0.0
  9
$PELEVATION
 40
0.0
  9
$THICKNESS
 40
0.0
  9
$LIMCHECK
 70
               0
  9
$BLIPMODE
 70
               1
  9
$CHAMFERA
 40
0.0
  9
$CHAMFERB
 40
0.0
  9
$CHAMFERC
 40
0.0
  9
$CHAMFERD
 40
0.0
  9
$SKPOLY
 70
               0
  9
$TDCREATE
 40
2453378.356319444
  9
$TDUPDATE
 40
2453378.356319444
  9
$TDINDWG
 40
0.0000000000
  9
$TDUSRTIMER
 40
0.0000000000
  9
$USRTIMER
 70
               1
  9
$ANGBASE
 50
0.0
  9
$ANGDIR
 70
               0
  9
$PDMODE
 70
               0
  9
$PDSIZE
 40
0.0
  9
$PLINEWID
 40
0.0
  9
$COORDS
 70
               1
  9
$SPLFRAME
 70
               0
  9
$SPLINETYPE
 70
               6
  9
$SPLINESEGS
 70
               8
  9
$ATTDIA
 70
               0
  9
$ATTREQ
 70
               1
  9
$HANDLING
 70
               1
  9
$HANDSEED
  5
457
  9
$SURFTAB1
 70
               6
  9
$SURFTAB2
 70
               6
  9
$SURFTYPE
 70
               6
  9
$SURFU
 70
               6
  9
$SURFV
 70
               6
  9
$UCSNAME
  2

  9
$UCSORG
 10
0.0
 20
0.0
 30
0.0
  9
$UCSXDIR
 10
1.0
 20
0.0
 30
0.0
  9
$UCSYDIR
 10
0.0
 20
1.0
 30
0.0
  9
$PUCSNAME
  2

  9
$PUCSORG
 10
0.0
 20
0.0
 30
0.0
  9
$PUCSXDIR
 10
1.0
 20
0.0
 30
0.0
  9
$PUCSYDIR
 10
0.0
 20
1.0
 30
0.0
  9
$USERI1
 70
               0
  9
$USERI2
 70
               0
  9
$USERI3
 70
               0
  9
$USERI4
 70
               0
  9
$USERI5
 70
               0
  9
$USERR1
 40
0.0
  9
$USERR2
 40
0.0
  9
$USERR3
 40
0.0
  9
$USERR4
 40
0.0
  9
$USERR5
 40
0.0
  9
$WORLDVIEW
 70
               1
  9
$SHADEDGE
 70
               3
  9
$SHADEDIF
 70
              70
  9
$TILEMODE
 70
               1
  9
$MAXACTVP
 70
              16
  9
$PINSBASE
 10
0.0
 20
0.0
 30
0.0
  9
$PLIMCHECK
 70
               0
  9
$PEXTMIN
 10
1.0000000000000000E+20
 20
1.0000000000000000E+20
 30
1.0000000000000000E+20
  9
$PEXTMAX
 10
-1.0000000000000000E+20
 20
-1.0000000000000000E+20
 30
-1.0000000000000000E+20
  9
$PLIMMIN
 10
0.0
 20
0.0
  9
$PLIMMAX
 10
12.0
 20
9.0
  9
$UNITMODE
 70
               0
  9
$VISRETAIN
 70
               0
  9
$PLINEGEN
 70
               1
  9
$PSLTSCALE
 70
               0
  9
$TREEDEPTH
 70
            3020
  9
$PICKSTYLE
 70
               1
  9
$CMLSTYLE
  2
Standard
  9
$CMLJUST
 70
               0
  9
$CMLSCALE
 40
1.0
  9
$SAVEIMAGES
 70
               0
  0
ENDSEC
  0
SECTION
  2
CLASSES
  0
CLASS
  1
LWPOLYLINE
  2
AcDbPolyline
  3
"AutoCAD"
 90
        0
280
               0
281
               1
  0
CLASS
  1
IMAGE
  2
AcDbRasterImage
  3
ISM
 90
      127
280
               0
281
               1
  0
CLASS
  1
OLE2FRAME
  2
AcDbOle2Frame
  3
""
 90
        0
280
               0
281
               1
  0
CLASS
  1
HATCH
  2
AcDbHatch
  3
"ACAD_SEDONA"
 90
        0
280
               0
281
               1
  0
CLASS
  1
DICTIONARYVAR
  2
AcDbDictionaryVar
  3
"AutoCAD"
 90
        0
280
               0
281
               0
  0
CLASS
  1
RASTERVARIABLES
  2
AcDbRasterVariables
  3
ISM
 90
        0
280
               0
281
               0
  0
CLASS
  1
IMAGEDEF
  2
AcDbRasterImageDef
  3
ISM
 90
        0
280
               0
281
               0
  0
CLASS
  1
IMAGEDEF_REACTOR
  2
AcDbRasterImageDefReactor
  3
ISM
 90
        1
280
               0
281
               0
  0
CLASS
  1
IDBUFFER
  2
AcDbIdBuffer
  3
"Acad"
 90
        0
280
               0
281
               0
  0
CLASS
  1
SPATIAL_FILTER
  2
AcDbSpatialFilter
  3
"Acad"
 90
        0
280
               0
281
               0
  0
CLASS
  1
XRECORD
  2
AcDbXrecord
  3
"<Built In>"
 90
        0
280
               0
281
               0
  0
CLASS
  1
SORTENTSTABLE
  2
AcDbSortentsTable
  3
"AutoCAD"
 90
        0
280
               0
281
               0
  0
CLASS
  1
LAYER_INDEX
  2
AcDbLayerIndex
  3
"Acad"
 90
        0
280
               0
281
               0
  0
CLASS
  1
SPATIAL_INDEX
  2
AcDbSpatialIndex
  3
"Acad"
 90
        0
280
               0
281
               0
  0
CLASS
  1
OBJECT_PTR
  2
CAseDLPNTableRecord
  3
"ASE-LPNTableRecord"
 90
        1
280
               0
281
               0
  0
CLASS
  1
LAYOUT
  2
AcDbLayout
  3
"AutoCAD 2000"
 90
        1
280
               0
281
               0
  0
CLASS
  1
PLOTSETTINGS
  2
AcDbPlotSettings
  3
"AutoCAD 2000"
 90
        1
280
               0
281
               0
  0
CLASS
  1
ACDBDICTIONARYWDFLT
  2
AcDbDictionaryWithDefault
  3
"AutoCAD 2000"
 90
        1
280
               0
281
               0
  0
CLASS
  1
ACDBPLACEHOLDER
  2
AcDbPlaceHolder
  3
"AutoCAD 2000"
 90
        1
280
               0
281
               0
  0
ENDSEC
  0
SECTION
  2
TABLES
  0
TABLE
  2
VPORT
  5
7
100
AcDbSymbolTable
 70
               1
  0
VPORT
  5
15
100
AcDbSymbolTableRecord
100
AcDbViewportTableRecord
  2
*ACTIVE
 70
               0
 10
0.0
 20
0.0
 11
1.0
 21
1.0
 12
2.1909528531206206
 22
0.25
 13
0.0
 23
0.0
 14
1.0
 24
1.0
 15
0.0
 25
0.0
 16
0.0
 26
0.0
 36
1.0
 17
0.0
 27
0.0
 37
0.0
 40
394.40500000000003
 41
1.7320508075688772
 42
50.0
 43
0.0
 44
0.0
 50
0.0
 51
0.0
 71
               0
 72
             100
 73
               1
 74
               1
 75
               0
 76
               0
 77
               0
 78
               0
  0
ENDTAB
  0
TABLE
  2
LTYPE
  5
4
100
AcDbSymbolTable
 70
               6
  0
LTYPE
  5
11
100
AcDbSymbolTableRecord
100
AcDbLinetypeTableRecord
  2
BYBLOCK
 70
              64
  3

 72
              65
 73
               0
 40
0.0
  0
LTYPE
  5
12
100
AcDbSymbolTableRecord
100
AcDbLinetypeTableRecord
  2
BYLAYER
 70
              64
  3

 72
              65
 73
               0
 40
0.0
  0
LTYPE
  5
13
100
AcDbSymbolTableRecord
100
AcDbLinetypeTableRecord
  2
CONTINUOUS
 70
              64
  3
Solid line
 72
              65
 73
               0
 40
0.0
  0
LTYPE
  5
28
100
AcDbSymbolTableRecord
100
AcDbLinetypeTableRecord
  2
CENTER
 70
              64
  3
Center ____ _ ____ _ ____ _ ____ _ ____ _ ____
 72
              65
 73
               4
 40
26.0
 49
20.0
 74
               0
 49
-2.0
 74
               0
 49
2.0
 74
               0
 49
-2.0
 74
               0
  0
LTYPE
  5
57
100
AcDbSymbolTableRecord
100
AcDbLinetypeTableRecord
  2
PHANTOM
 70
              64
  3
Phantom ______  __  __  ______  __  __  ______
 72
              65
 73
               6
 40
30.0
 49
20.0
 74
               0
 49
-2.0
 74
               0
 49
2.0
 74
               0
 49
-2.0
 74
               0
 49
2.0
 74
               0
 49
-2.0
 74
               0
  0
LTYPE
  5
12B
100
AcDbSymbolTableRecord
100
AcDbLinetypeTableRecord
  2
DASHED
 70
              64
  3
Dashed __ __ __ __ __ __ __ __ __ __ __ __ __ _
 72
              65
 73
               2
 40
4.0
 49
2.0
 74
               0
 49
-2.0
 74
               0
  0
ENDTAB
  0
TABLE
  2
LAYER
  5
2
100
AcDbSymbolTable
 70
               2
  0
LAYER
  5
14
100
AcDbSymbolTableRecord
100
AcDbLayerTableRecord
  2
0
 70
               0
 62
               7
  6
CONTINUOUS
  0
LAYER
  5
1D
100
AcDbSymbolTableRecord
100
AcDbLayerTableRecord
  2
DEFPOINTS
 70
               0
 62
               7
  6
CONTINUOUS
  0
ENDTAB
  0
TABLE
  2
STYLE
  5
3
100
AcDbSymbolTable
 70
               1
  0
STYLE
  5
17
100
AcDbSymbolTableRecord
100
AcDbTextStyleTableRecord
  2
MX_NOTE_STANDARD
 70
               0
 40
0.0
 41
1.0
 50
0.0
 71
               0
 42
3.2000000476837158
  3
txt.shx
  4
extfont.shx
  0
ENDTAB
  0
TABLE
  2
VIEW
  5
5
100
AcDbSymbolTable
 70
               0
  0
ENDTAB
  0
TABLE
  2
UCS
  5
6
100
AcDbSymbolTable
 70
               0
  0
ENDTAB
  0
TABLE
  2
APPID
  5
8
100
AcDbSymbolTable
 70
               1
  0
APPID
  5
16
100
AcDbSymbolTableRecord
100
AcDbRegAppTableRecord
  2
ACAD
 70
               0
  0
ENDTAB
  0
TABLE
  2
DIMSTYLE
  5
9
100
AcDbSymbolTable
 70
               1
  0
DIMSTYLE
105
18
100
AcDbSymbolTableRecord
100
AcDbDimStyleTableRecord
  2
MXDIMSTYLE
 70
               0
  3

  4

  5

  6

  7

 40
1.0
 41
2.5
 42
1.5
 43
3.75
 44
1.5
 45
0.0
 46
0.0
 47
0.0
 48
0.0
 71
               0
 72
               0
 73
               0
 74
               0
 75
               0
 76
               0
 77
               1
 78
               8
140
3.2000000476837158
141
2.5
142
0.0
143
0.03937007874016
144
1.0
145
0.0
146
1.0
147
1.0
170
               0
171
               4
172
               1
173
               0
174
               0
175
               0
176
               0
177
               0
178
               0
270
               2
271
               4
272
               4
273
               2
274
               4
275
               0
280
               0
281
               0
282
               0
283
               1
284
               0
285
               0
286
               0
287
               3
288
               1
340
17
  0
ENDTAB
  0
TABLE
  2
BLOCK_RECORD
  5
1
100
AcDbSymbolTable
 70
               9
  0
BLOCK_RECORD
  5
A
100
AcDbSymbolTableRecord
100
AcDbBlockTableRecord
  2
*MODEL_SPACE
  0
BLOCK_RECORD
  5
B
100
AcDbSymbolTableRecord
100
AcDbBlockTableRecord
  2
*PAPER_SPACE
  0
BLOCK_RECORD
  5
1E
100
AcDbSymbolTableRecord
100
AcDbBlockTableRecord
  2
EA10F5-1
  0
BLOCK_RECORD
  5
1F
100
AcDbSymbolTableRecord
100
AcDbBlockTableRecord
  2
EA10F5-2
  0
BLOCK_RECORD
  5
20
100
AcDbSymbolTableRecord
100
AcDbBlockTableRecord
  2
EA10F5-3
  0
BLOCK_RECORD
  5
21
100
AcDbSymbolTableRecord
100
AcDbBlockTableRecord
  2
EA10F5-4
  0
BLOCK_RECORD
  5
22
100
AcDbSymbolTableRecord
100
AcDbBlockTableRecord
  2
EA10F5-5
  0
BLOCK_RECORD
  5
23
100
AcDbSymbolTableRecord
100
AcDbBlockTableRecord
  2
EA10F5-6
  0
BLOCK_RECORD
  5
24
100
AcDbSymbolTableRecord
100
AcDbBlockTableRecord
  2
EA10F5-7
  0
BLOCK_RECORD
  5
25
100
AcDbSymbolTableRecord
100
AcDbBlockTableRecord
  2
EA10F5-8
  0
BLOCK_RECORD
  5
26
100
AcDbSymbolTableRecord
100
AcDbBlockTableRecord
  2
EA10F5-9
  0
ENDTAB
  0
ENDSEC
  0
SECTION
  2
BLOCKS
  0
BLOCK
  5
D
100
AcDbEntity
  8
0
100
AcDbBlockBegin
  2
*MODEL_SPACE
 70
               0
 10
0.0
 20
0.0
 30
0.0
  3
*MODEL_SPACE
  1

  0
ENDBLK
  5
E
100
AcDbEntity
  8
0
100
AcDbBlockEnd
  0
BLOCK
  5
F
100
AcDbEntity
 67
               1
  8
0
100
AcDbBlockBegin
  2
*PAPER_SPACE
 70
               0
 10
0.0
 20
0.0
 30
0.0
  3
*PAPER_SPACE
  1

  0
ENDBLK
  5
10
100
AcDbEntity
 67
               1
  8
0
100
AcDbBlockEnd
  0
BLOCK
  5
27
100
AcDbEntity
  8
0
100
AcDbBlockBegin
  2
EA10F5-1
 70
               0
 10
0.0
 20
0.0
 30
0.0
  3
EA10F5-1
  1

  0
LINE
  5
29
100
AcDbEntity
  8
0
  6
CENTER
 62
             200
100
AcDbLine
 10
1.75
 20
0.0
 30
0.0
 11
1.75
 21
1.2000000000000028
 31
0.0
  0
LINE
  5
2A
100
AcDbEntity
  8
0
  6
CENTER
 62
             200
100
AcDbLine
 10
-1.75
 20
0.0
 30
0.0
 11
-1.75
 21
1.2000000000000028
 31
0.0
  0
LINE
  5
2B
100
AcDbEntity
  8
0
  6
CENTER
 62
             200
100
AcDbLine
 10
23.75
 20
0.0
 30
0.0
 11
23.75
 21
1.2000000000000028
 31
0.0
  0
LINE
  5
2C
100
AcDbEntity
  8
0
  6
CENTER
 62
             200
100
AcDbLine
 10
20.25
 20
0.0
 30
0.0
 11
20.25
 21
1.2000000000000028
 31
0.0
  0
LINE
  5
2D
100
AcDbEntity
  8
0
  6
CENTER
 62
             200
100
AcDbLine
 10
22.0
 20
-2.4438717557984795
 30
0.0
 11
22.0
 21
3.7999999999999972
 31
0.0
  0
LINE
  5
2E
100
AcDbEntity
  8
0
  6
CENTER
 62
             200
100
AcDbLine
 10
0.0
 20
-2.4438717557984795
 30
0.0
 11
0.0
 21
3.7999999999999972
 31
0.0
  0
CIRCLE
  5
2F
100
AcDbEntity
  8
0
  6
CONTINUOUS
 62
               7
100
AcDbCircle
 10
7.3000000000000114
 20
23.899999999999991
 30
0.0
 40
1.0
  0
ARC
  5
30
100
AcDbEntity
  8
0
  6
CONTINUOUS
 62
               7
100
AcDbCircle
 10
7.3000000000000114
 20
23.899999999999991
 30
0.0
 40
1.6499999999999999
100
AcDbArc
 50
269.99999999999937
 51
89.999999999999801
  0
LINE
  5
31
100
AcDbEntity
  8
0
  6
CONTINUOUS
 62
               7
100
AcDbLine
 10
7.3000000000000114
 20
25.54999999999999
 30
0.0
 11
6.0
 21
25.54999999999999
 31
0.0
  0
LINE
  5
32
100
AcDbEntity
  8
0
  6
CONTINUOUS
 62
               7
100
AcDbLine
 10
7.3000000000000114
 20
22.249999999999986
 30
0.0
 11
6.0
 21
22.249999999999986
 31
0.0
  0
LINE
  5
33
100
AcDbEntity
  8
0
  6
CENTER
 62
               2
100
AcDbLine
 10
15.178166284015219
 20
22.299999999999997
 30
0.0
 11
10.821833715984781
 21
22.299999999999997
 31
0.0
  0
ARC
  5
34
100
AcDbEntity
  8
0
  6
CONTINUOUS
 62
               7
100
AcDbCircle
 10
6.5905539681090772
 20
6.2682512686530458
 30
0.0
 40
0.6105564724372722
100
AcDbArc
 50
179.83589550320582
 51
253.77907243150949
  0
LINE
  5
35
100
AcDbEntity
  8
0
  6
CONTINUOUS
 62
               7
100
AcDbLine
 10
15.800000000000011
 20
5.0
 30
0.0
 11
6.1999999999999886
 21
5.0
 31
0.0
  0
LINE
  5
36
100
AcDbEntity
  8
0
  6
CONTINUOUS
 62
               7
100
AcDbLine
 10
5.9800000000000182
 20
6.8000000000000114
 30
0.0
 11
9.5
 21
6.8000000000000114
 31
0.0
  0
ARC
  5
37
100
AcDbEntity
  8
0
  6
CONTINUOUS
 62
               7
100
AcDbCircle
 10
6.2991048631411104
 20
7.0991048631411218
 30
0.0
 40
0.2991062025847394
100
AcDbArc
 50
179.82853033398985
 51
270.17146966600922
  0
ARC
  5
38
100
AcDbEntity
  8
0
  6
CONTINUOUS
 62
               7
100
AcDbCircle
 10
6.1999999999999886
 20
5.1999999999999886
 30
0.0
 40
0.2
100
AcDbArc
 50
179.99999999999963
 51
269.99999999999937
  0
LINE
  5
39
100
AcDbEntity
  8
0
  6
CONTINUOUS
 62
               7
100
AcDbLine
 10
9.5
 20
5.0
 30
0.0
 11
9.5
 21
6.8000000000000114
 31
0.0
  0
ARC
  5
3A
100
AcDbEntity
  8
0
  6
CONTINUOUS
 62
               7
100
AcDbCircle
 10
7.6999999999999886
 20
10.087421236733974
 30
0.0
 40
4.5876068132596712
100
AcDbArc
 50
253.79871892415684
 51
286.20128107584191
  0
ARC
  5
3B
100
AcDbEntity
  8
0
  6
CONTINUOUS
 62
               7
100
AcDbCircle
 10
8.8082280041660965
 20
6.2691627179709997
 30
0.0
 40
0.6117725687931934
100
AcDbArc
 50
286.30661609184898
 51
0.0784159734340139
  0
LINE
  5
3C
100
AcDbEntity
  8
0
  6
CONTINUOUS
 62
               7
100
AcDbLine
 10
9.4200000000000159
 20
6.2700000000000387
 30
0.0
 11
9.4200000000000159
 21
6.8000000000000114
 31
0.0
  0
LINE
  5
3D
100
AcDbEntity
  8
0
  6
CONTINUOUS
 62
               7
100
AcDbLine
 10
6.0
 20
5.1999999999999886
 30
0.0
 11
6.0
 21
6.1132505693459507
 31
0.0
  0
LINE
  5
3E
100
AcDbEntity
  8
0
  6
CONTINUOUS
 62
               7
100
AcDbLine
 10
5.9800000000000182
 20
6.2700000000000387
 30
0.0
 11
5.9800000000000182
 21
6.8000000000000114
 31
0.0
  0
ARC
  5
3F
100
AcDbEntity
  8
0
  6
CONTINUOUS
 62
               7
100
AcDbCircle
 10
15.800000000000011
 20
5.1999999999999886
 30
0.0
 40
0.2
100
AcDbArc
 50
269.99999999999937
 51
0.0
  0
LINE
  5
40
100
AcDbEntity
  8
0
  6
CONTINUOUS
 62
               7
100
AcDbLine
 10
16.0
 20
10.0
 30
0.0
 11
6.0
 21
10.0
 31
0.0
  0
LINE
  5
41
100
AcDbEntity
  8
0
  6
CENTER
 62
               2
100
AcDbLine
 10
14.700000000000017
 20
12.121833715984778
 30
0.0
 11
14.700000000000017
 21
16.478166284015217
 31
0.0
  0
CIRCLE
  5
42
100
AcDbEntity
  8
0
  6
CONTINUOUS
 62
               7
100
AcDbCircle
 10
14.700000000000017
 20
14.299999999999997
 30
0.0
 40
1.0
  0
LINE
  5
43
100
AcDbEntity
  8
0
  6
CENTER
 62
               2
100
AcDbLine
 10
11.178166284015219
 20
15.899999999999991
 30
0.0
 11
6.8218337159847806
 21
15.899999999999991
 31
0.0
  0
CIRCLE
  5
44
100
AcDbEntity
  8
0
  6
CONTINUOUS
 62
               2
100
AcDbCircle
 10
9.0026882635082472
 20
15.89220429755737
 30
0.0
 40
1.5
  0
CIRCLE
  5
45
100
AcDbEntity
  8
0
  6
CONTINUOUS
 62
               7
100
AcDbCircle
 10
9.0026882635082472
 20
15.89220429755737
 30
0.0
 40
1.25
  0
LINE
  5
46
100
AcDbEntity
  8
0
  6
CENTER
 62
               2
100
AcDbLine
 10
9.0
 20
13.721833715984772
 30
0.0
 11
9.0
 21
18.078166284015211
 31
0.0
  0
ARC
  5
47
100
AcDbEntity
  8
0
  6
CONTINUOUS
 62
               7
100
AcDbCircle
 10
14.700000000000017
 20
14.299999999999997
 30
0.0
 40
1.6499999999999999
100
AcDbArc
 50
89.999999999999815
 51
269.99999999999937
  0
LINE
  5
48
100
AcDbEntity
  8
0
  6
CONTINUOUS
 62
               7
100
AcDbLine
 10
14.700000000000017
 20
15.949999999999989
 30
0.0
 11
16.0
 21
15.949999999999989
 31
0.0
  0
LINE
  5
49
100
AcDbEntity
  8
0
  6
CONTINUOUS
 62
               7
100
AcDbLine
 10
14.700000000000017
 20
12.649999999999991
 30
0.0
 11
16.0
 21
12.649999999999991
 31
0.0
  0
LINE
  5
4A
100
AcDbEntity
  8
0
  6
CENTER
 62
               2
100
AcDbLine
 10
7.3000000000000114
 20
21.721833715984758
 30
0.0
 11
7.3000000000000114
 21
26.078166284015197
 31
0.0
  0
LINE
  5
4B
100
AcDbEntity
  8
0
  6
CENTER
 62
               2
100
AcDbLine
 10
13.0
 20
20.121833715984778
 30
0.0
 11
13.0
 21
24.478166284015217
 31
0.0
  0
CIRCLE
  5
4C
100
AcDbEntity
  8
0
  6
CONTINUOUS
 62
               7
100
AcDbCircle
 10
13.0
 20
22.299999999999997
 30
0.0
 40
1.25
  0
CIRCLE
  5
4D
100
AcDbEntity
  8
0
  6
CONTINUOUS
 62
               2
100
AcDbCircle
 10
13.0
 20
22.299999999999997
 30
0.0
 40
1.5
  0
LINE
  5
4E
100
AcDbEntity
  8
0
  6
CENTER
 62
               2
100
AcDbLine
 10
11.0
 20
2.2438875818592052
 30
0.0
 11
11.0
 21
62.59800000000002
 31
0.0
  0
LINE
  5
4F
100
AcDbEntity
  8
0
  6
CONTINUOUS
 62
               7
100
AcDbLine
 10
16.0
 20
5.1999999999999886
 30
0.0
 11
16.0
 21
28.199999999999996
 31
0.0
  0
LINE
  5
50
100
AcDbEntity
  8
0
  6
CONTINUOUS
 62
               7
100
AcDbLine
 10
6.0
 20
6.8000000000000114
 30
0.0
 11
6.0
 21
28.199999999999996
 31
0.0
  0
ARC
  5
51
100
AcDbEntity
  8
0
  6
CONTINUOUS
 62
               4
100
AcDbCircle
 10
15.268802575510279
 20
41.904188752838259
 30
0.0
 40
0.5011988548874781
100
AcDbArc
 50
270.1368866551544
 51
359.86311334484418
  0
ARC
  5
52
100
AcDbEntity
  8
0
  6
CONTINUOUS
 62
               4
100
AcDbCircle
 10
6.7311974244897215
 20
41.904188752838259
 30
0.0
 40
0.5011988548874781
100
AcDbArc
 50
180.13688665515463
 51
269.86311334484435
  0
LINE
  5
53
100
AcDbEntity
  8
0
  6
CONTINUOUS
 62
               4
100
AcDbLine
 10
6.7300000000000182
 20
41.402991328348556
 30
0.0
 11
15.269999999999982
 21
41.402991328348556
 31
0.0
  0
LINE
  5
54
100
AcDbEntity
  8
0
  6
CONTINUOUS
 62
               4
100
AcDbLine
 10
6.5
 20
58.702000000000019
 30
0.0
 11
8.25
 21
58.702000000000019
 31
0.0
  0
ARC
  5
55
100
AcDbEntity
  8
0
  6
CONTINUOUS
 62
               4
100
AcDbCircle
 10
6.7300009155542853
 20
58.201999084445752
 30
0.0
 40
0.5000009155550945
100
AcDbArc
 50
90.000104914596918
 51
179.99989508540253
  0
ARC
  5
56
100
AcDbEntity
  8
0
  6
CONTINUOUS
 62
               4
100
AcDbCircle
 10
6.5000106811733076
 20
58.201989318826712
 30
0.0
 40
0.5000106812873828
100
AcDbArc
 50
90.001223946153175
 51
179.9987760538454
  0
LINE
  5
58
100
AcDbEntity
  8
0
  6
PHANTOM
 62
             200
100
AcDbLine
 10
9.5
 20
46.701999999999991
 30
0.0
 11
9.5
 21
44.701999999999991
 31
0.0
  0
LINE
  5
59
100
AcDbEntity
  8
0
  6
PHANTOM
 62
             200
100
AcDbLine
 10
12.5
 20
46.701999999999991
 30
0.0
 11
12.5
 21
44.701999999999991
 31
0.0
  0
LINE
  5
5A
100
AcDbEntity
  8
0
  6
PHANTOM
 62
             200
100
AcDbLine
 10
9.5
 20
44.701999999999991
 30
0.0
 11
12.5
 21
44.701999999999991
 31
0.0
  0
LINE
  5
5B
100
AcDbEntity
  8
0
  6
PHANTOM
 62
             200
100
AcDbLine
 10
9.5
 20
46.701999999999991
 30
0.0
 11
12.5
 21
46.701999999999991
 31
0.0
  0
LINE
  5
5C
100
AcDbEntity
  8
0
  6
CONTINUOUS
 62
               4
100
AcDbLine
 10
8.8000000000000114
 20
57.252000000000002
 30
0.0
 11
10.699999999999989
 21
57.252000000000002
 31
0.0
  0
LINE
  5
5D
100
AcDbEntity
  8
0
  6
CONTINUOUS
 62
               4
100
AcDbLine
 10
8.8000000000000114
 20
57.452000000000019
 30
0.0
 11
10.699999999999989
 21
57.452000000000019
 31
0.0
  0
LINE
  5
5E
100
AcDbEntity
  8
0
  6
CONTINUOUS
 62
               4
100
AcDbLine
 10
10.25
 20
55.351999999999997
 30
0.0
 11
10.25
 21
55.052000000000014
 31
0.0
  0
LINE
  5
5F
100
AcDbEntity
  8
0
  6
CONTINUOUS
 62
               4
100
AcDbLine
 10
10.699999999999989
 20
57.452000000000019
 30
0.0
 11
10.699999999999989
 21
55.351999999999997
 31
0.0
  0
LINE
  5
60
100
AcDbEntity
  8
0
  6
CONTINUOUS
 62
               4
100
AcDbLine
 10
8.1500000000000341
 20
58.702000000000019
 30
0.0
 11
8.1500000000000341
 21
57.202000000000019
 31
0.0
  0
LINE
  5
61
100
AcDbEntity
  8
0
  6
CONTINUOUS
 62
               4
100
AcDbLine
 10
8.25
 20
57.762000000000022
 30
0.0
 11
8.5799999999999841
 21
58.101999999999997
 31
0.0
  0
LINE
  5
62
100
AcDbEntity
  8
0
  6
CONTINUOUS
 62
               4
100
AcDbLine
 10
7.1500000000000341
 20
57.202000000000019
 30
0.0
 11
8.1500000000000341
 21
57.202000000000019
 31
0.0
  0
LINE
  5
63
100
AcDbEntity
  8
0
  6
CONTINUOUS
 62
               4
100
AcDbLine
 10
7.1500000000000341
 20
57.202000000000019
 30
0.0
 11
7.1500000000000341
 21
55.202000000000019
 31
0.0
  0
LINE
  5
64
100
AcDbEntity
  8
0
  6
CONTINUOUS
 62
               4
100
AcDbLine
 10
7.25
 20
55.302000000000014
 30
0.0
 11
7.25
 21
57.101999999999997
 31
0.0
  0
LINE
  5
65
100
AcDbEntity
  8
0
  6
CONTINUOUS
 62
               4
100
AcDbLine
 10
7.25
 20
57.101999999999997
 30
0.0
 11
8.25
 21
57.101999999999997
 31
0.0
  0
LINE
  5
66
100
AcDbEntity
  8
0
  6
CONTINUOUS
 62
               4
100
AcDbLine
 10
8.25
 20
55.302000000000014
 30
0.0
 11
8.25
 21
53.802000000000014
 31
0.0
  0
LINE
  5
67
100
AcDbEntity
  8
0
  6
CONTINUOUS
 62
               4
100
AcDbLine
 10
9.25
 20
55.351999999999997
 30
0.0
 11
9.25
 21
55.052000000000014
 31
0.0
  0
LINE
  5
68
100
AcDbEntity
  8
0
  6
CONTINUOUS
 62
               4
100
AcDbLine
 10
8.1500000000000341
 20
55.202000000000019
 30
0.0
 11
8.1500000000000341
 21
53.702000000000019
 31
0.0
  0
CIRCLE
  5
69
100
AcDbEntity
  8
0
  6
CONTINUOUS
 62
               4
100
AcDbCircle
 10
9.75
 20
56.301984741210951
 30
0.0
 40
0.8499675393104553
  0
LINE
  5
6A
100
AcDbEntity
  8
0
  6
CONTINUOUS
 62
               4
100
AcDbLine
 10
7.1500000000000341
 20
55.202000000000019
 30
0.0
 11
8.1500000000000341
 21
55.202000000000019
 31
0.0
  0
LINE
  5
6B
100
AcDbEntity
  8
0
  6
CONTINUOUS
 62
               4
100
AcDbLine
 10
8.8000000000000114
 20
57.452000000000019
 30
0.0
 11
8.8000000000000114
 21
55.351999999999997
 31
0.0
  0
LINE
  5
6C
100
AcDbEntity
  8
0
  6
CONTINUOUS
 62
               4
100
AcDbLine
 10
7.25
 20
55.302000000000014
 30
0.0
 11
8.25
 21
55.302000000000014
 31
0.0
  0
LINE
  5
6D
100
AcDbEntity
  8
0
  6
CONTINUOUS
 62
               4
100
AcDbLine
 10
9.25
 20
55.052000000000014
 30
0.0
 11
10.25
 21
55.052000000000014
 31
0.0
  0
LINE
  5
6E
100
AcDbEntity
  8
0
  6
CONTINUOUS
 62
               4
100
AcDbLine
 10
8.8000000000000114
 20
55.351999999999997
 30
0.0
 11
10.699999999999989
 21
55.351999999999997
 31
0.0
  0
LINE
  5
6F
100
AcDbEntity
  8
0
  6
CONTINUOUS
 62
               4
100
AcDbLine
 10
8.25
 20
60.802000000000014
 30
0.0
 11
8.25
 21
57.101999999999997
 31
0.0
  0
LINE
  5
70
100
AcDbEntity
  8
0
  6
CONTINUOUS
 62
               4
100
AcDbLine
 10
8.25
 20
60.802000000000014
 30
0.0
 11
13.75
 21
60.802000000000014
 31
0.0
  0
LINE
  5
71
100
AcDbEntity
  8
0
  6
CONTINUOUS
 62
               4
100
AcDbLine
 10
8.25
 20
59.802000000000014
 30
0.0
 11
13.75
 21
59.802000000000014
 31
0.0
  0
CIRCLE
  5
72
100
AcDbEntity
  8
0
  6
CONTINUOUS
 62
               4
100
AcDbCircle
 10
12.25
 20
56.301984741210951
 30
0.0
 40
0.8499675393104553
  0
LINE
  5
73
100
AcDbEntity
  8
0
  6
CONTINUOUS
 62
               4
100
AcDbLine
 10
13.850000000000023
 20
55.202000000000019
 30
0.0
 11
14.850000000000023
 21
55.202000000000019
 31
0.0
  0
LINE
  5
74
100
AcDbEntity
  8
0
  6
CONTINUOUS
 62
               4
100
AcDbLine
 10
13.850000000000023
 20
57.202000000000019
 30
0.0
 11
14.850000000000023
 21
57.202000000000019
 31
0.0
  0
LINE
  5
75
100
AcDbEntity
  8
0
  6
CONTINUOUS
 62
               4
100
AcDbLine
 10
11.300000000000011
 20
57.452000000000019
 30
0.0
 11
13.199999999999989
 21
57.452000000000019
 31
0.0
  0
LINE
  5
76
100
AcDbEntity
  8
0
  6
CONTINUOUS
 62
               4
100
AcDbLine
 10
11.300000000000011
 20
55.351999999999997
 30
0.0
 11
13.199999999999989
 21
55.351999999999997
 31
0.0
  0
LINE
  5
77
100
AcDbEntity
  8
0
  6
CONTINUOUS
 62
               4
100
AcDbLine
 10
11.300000000000011
 20
57.252000000000002
 30
0.0
 11
13.199999999999989
 21
57.252000000000002
 31
0.0
  0
LINE
  5
78
100
AcDbEntity
  8
0
  6
CONTINUOUS
 62
               4
100
AcDbLine
 10
13.75
 20
57.101999999999997
 30
0.0
 11
14.75
 21
57.101999999999997
 31
0.0
  0
LINE
  5
79
100
AcDbEntity
  8
0
  6
CONTINUOUS
 62
               4
100
AcDbLine
 10
13.75
 20
55.302000000000014
 30
0.0
 11
14.75
 21
55.302000000000014
 31
0.0
  0
LINE
  5
7A
100
AcDbEntity
  8
0
  6
CONTINUOUS
 62
               4
100
AcDbLine
 10
11.75
 20
55.052000000000014
 30
0.0
 11
12.75
 21
55.052000000000014
 31
0.0
  0
LINE
  5
7B
100
AcDbEntity
  8
0
  6
CONTINUOUS
 62
               4
100
AcDbLine
 10
13.75
 20
55.302000000000014
 30
0.0
 11
13.75
 21
53.802000000000014
 31
0.0
  0
LINE
  5
7C
100
AcDbEntity
  8
0
  6
CONTINUOUS
 62
               4
100
AcDbLine
 10
12.75
 20
55.351999999999997
 30
0.0
 11
12.75
 21
55.052000000000014
 31
0.0
  0
LINE
  5
7D
100
AcDbEntity
  8
0
  6
CONTINUOUS
 62
               4
100
AcDbLine
 10
13.70999999999998
 20
57.802000000000014
 30
0.0
 11
13.410000000000025
 21
58.101999999999997
 31
0.0
  0
LINE
  5
7E
100
AcDbEntity
  8
0
  6
CONTINUOUS
 62
               4
100
AcDbLine
 10
13.199999999999989
 20
57.452000000000019
 30
0.0
 11
13.199999999999989
 21
55.351999999999997
 31
0.0
  0
LINE
  5
7F
100
AcDbEntity
  8
0
  6
CONTINUOUS
 62
               4
100
AcDbLine
 10
13.850000000000023
 20
58.702000000000019
 30
0.0
 11
13.850000000000023
 21
57.202000000000019
 31
0.0
  0
LINE
  5
80
100
AcDbEntity
  8
0
  6
CONTINUOUS
 62
               4
100
AcDbLine
 10
13.850000000000023
 20
55.202000000000019
 30
0.0
 11
13.850000000000023
 21
53.702000000000019
 31
0.0
  0
LINE
  5
81
100
AcDbEntity
  8
0
  6
CONTINUOUS
 62
               4
100
AcDbLine
 10
14.850000000000023
 20
57.202000000000019
 30
0.0
 11
14.850000000000023
 21
55.202000000000019
 31
0.0
  0
LINE
  5
82
100
AcDbEntity
  8
0
  6
CONTINUOUS
 62
               4
100
AcDbLine
 10
14.75
 20
55.302000000000014
 30
0.0
 11
14.75
 21
57.101999999999997
 31
0.0
  0
ARC
  5
83
100
AcDbEntity
  8
0
  6
CONTINUOUS
 62
               4
100
AcDbCircle
 10
15.269999084445772
 20
58.201999084445752
 30
0.0
 40
0.5000009155550945
100
AcDbArc
 50
0.0001049145970977
 51
89.999895085402713
  0
LINE
  5
84
100
AcDbEntity
  8
0
  6
CONTINUOUS
 62
               4
100
AcDbLine
 10
11.75
 20
55.351999999999997
 30
0.0
 11
11.75
 21
55.052000000000014
 31
0.0
  0
LINE
  5
85
100
AcDbEntity
  8
0
  6
CONTINUOUS
 62
               4
100
AcDbLine
 10
11.300000000000011
 20
57.452000000000019
 30
0.0
 11
11.300000000000011
 21
55.351999999999997
 31
0.0
  0
LINE
  5
86
100
AcDbEntity
  8
0
  6
CONTINUOUS
 62
               4
100
AcDbLine
 10
13.75
 20
58.702000000000019
 30
0.0
 11
15.5
 21
58.702000000000019
 31
0.0
  0
ARC
  5
87
100
AcDbEntity
  8
0
  6
CONTINUOUS
 62
               4
100
AcDbCircle
 10
15.500004577522645
 20
58.202004577522636
 30
0.0
 40
0.4999954224983215
100
AcDbArc
 50
359.99947544974214
 51
90.000524550256856
  0
LINE
  5
88
100
AcDbEntity
  8
0
  6
CONTINUOUS
 62
               4
100
AcDbLine
 10
8.25
 20
53.802000000000014
 30
0.0
 11
13.75
 21
53.802000000000014
 31
0.0
  0
LINE
  5
89
100
AcDbEntity
  8
0
  6
CONTINUOUS
 62
               4
100
AcDbLine
 10
8.25
 20
58.802000000000014
 30
0.0
 11
13.75
 21
58.802000000000014
 31
0.0
  0
LINE
  5
8A
100
AcDbEntity
  8
0
  6
CONTINUOUS
 62
               4
100
AcDbLine
 10
8.2800000000000296
 20
57.802000000000014
 30
0.0
 11
13.70999999999998
 21
57.802000000000014
 31
0.0
  0
LINE
  5
8B
100
AcDbEntity
  8
0
  6
CONTINUOUS
 62
               4
100
AcDbLine
 10
8.5799999999999841
 20
58.101999999999997
 30
0.0
 11
13.410000000000025
 21
58.101999999999997
 31
0.0
  0
LINE
  5
8C
100
AcDbEntity
  8
0
  6
CONTINUOUS
 62
               4
100
AcDbLine
 10
8.1500000000000341
 20
53.702000000000019
 30
0.0
 11
13.850000000000023
 21
53.702000000000019
 31
0.0
  0
LINE
  5
8D
100
AcDbEntity
  8
0
  6
CONTINUOUS
 62
               4
100
AcDbLine
 10
13.75
 20
60.802000000000014
 30
0.0
 11
13.75
 21
57.101999999999997
 31
0.0
  0
ARC
  5
8E
100
AcDbEntity
  8
0
  6
CONTINUOUS
 62
               4
100
AcDbCircle
 10
13.402911994762974
 20
61.101088005237024
 30
0.0
 40
0.5989129830170392
100
AcDbArc
 50
89.895914524772735
 51
180.10408547522667
  0
ARC
  5
8F
100
AcDbEntity
  8
0
  6
CONTINUOUS
 62
               4
100
AcDbCircle
 10
15.204095146658233
 20
61.10009514665817
 30
0.0
 40
0.5999048608870732
100
AcDbArc
 50
359.99091272245295
 51
90.009087277546172
  0
LINE
  5
90
100
AcDbEntity
  8
0
  6
CONTINUOUS
 62
               4
100
AcDbLine
 10
16.0
 20
61.100000000000001
 30
0.0
 11
12.800000000000011
 21
61.100000000000001
 31
0.0
  0
ARC
  5
91
100
AcDbEntity
  8
0
  6
CONTINUOUS
 62
               4
100
AcDbCircle
 10
6.5
 20
61.100000000000001
 30
0.0
 40
0.5
100
AcDbArc
 50
89.999999999999815
 51
179.99999999999963
  0
LINE
  5
92
100
AcDbEntity
  8
0
  6
CONTINUOUS
 62
               4
100
AcDbLine
 10
12.800000000000011
 20
61.600000000000001
 30
0.0
 11
12.800000000000011
 21
60.802000000000014
 31
0.0
  0
LINE
  5
93
100
AcDbEntity
  8
0
  6
CONTINUOUS
 62
               4
100
AcDbLine
 10
12.800000000000011
 20
61.600000000000001
 30
0.0
 11
6.5
 21
61.600000000000001
 31
0.0
  0
LINE
  5
94
100
AcDbEntity
  8
0
  6
CONTINUOUS
 62
               4
100
AcDbLine
 10
16.0
 20
60.100000000000001
 30
0.0
 11
13.75
 21
60.100000000000001
 31
0.0
  0
LINE
  5
95
100
AcDbEntity
  8
0
  6
CONTINUOUS
 62
               4
100
AcDbLine
 10
16.0
 20
61.700000000000024
 30
0.0
 11
6.0
 21
61.700000000000024
 31
0.0
  0
LINE
  5
96
100
AcDbEntity
  8
0
  6
CONTINUOUS
 62
               4
100
AcDbLine
 10
16.0
 20
61.700000000000024
 30
0.0
 11
16.0
 21
39.199999999999996
 31
0.0
  0
LINE
  5
97
100
AcDbEntity
  8
0
  6
CONTINUOUS
 62
               4
100
AcDbLine
 10
6.0
 20
61.700000000000024
 30
0.0
 11
6.0
 21
39.199999999999996
 31
0.0
  0
LINE
  5
98
100
AcDbEntity
  8
0
  6
CONTINUOUS
 62
               4
100
AcDbLine
 10
15.769999999999982
 20
58.202000000000019
 30
0.0
 11
15.769999999999982
 21
41.902991328348982
 31
0.0
  0
LINE
  5
99
100
AcDbEntity
  8
0
  6
CONTINUOUS
 62
               4
100
AcDbLine
 10
6.2300000000000182
 20
58.202000000000019
 30
0.0
 11
6.2300000000000182
 21
41.902991328348982
 31
0.0
  0
LINE
  5
9A
100
AcDbEntity
  8
0
  6
CONTINUOUS
 62
               7
100
AcDbLine
 10
16.0
 20
28.199999999999996
 30
0.0
 11
6.0
 21
28.199999999999996
 31
0.0
  0
CIRCLE
  5
9B
100
AcDbEntity
  8
0
  6
CONTINUOUS
 62
               7
100
AcDbCircle
 10
11.0
 20
36.900000000000013
 30
0.0
 40
0.75
  0
CIRCLE
  5
9C
100
AcDbEntity
  8
0
  6
CONTINUOUS
 62
               7
100
AcDbCircle
 10
11.0
 20
36.900000000000013
 30
0.0
 40
1.1000000000000001
  0
CIRCLE
  5
9D
100
AcDbEntity
  8
0
  6
CONTINUOUS
 62
               7
100
AcDbCircle
 10
11.0
 20
36.900000000000013
 30
0.0
 40
1.1500000000000001
  0
CIRCLE
  5
9E
100
AcDbEntity
  8
0
  6
CONTINUOUS
 62
               7
100
AcDbCircle
 10
11.0
 20
36.900000000000013
 30
0.0
 40
1.3000000000000012
  0
LINE
  5
9F
100
AcDbEntity
  8
0
  6
CENTER
 62
               2
100
AcDbLine
 10
12.699999999999989
 20
36.900000000000013
 30
0.0
 11
9.3000000000000114
 21
36.900000000000013
 31
0.0
  0
ARC
  5
A0
100
AcDbEntity
  8
0
  6
CONTINUOUS
 62
               7
100
AcDbCircle
 10
11.0
 20
35.199999999999996
 30
0.0
 40
2.0
100
AcDbArc
 50
179.99999999999963
 51
0.0
  0
LINE
  5
A1
100
AcDbEntity
  8
0
  6
CONTINUOUS
 62
               7
100
AcDbLine
 10
13.0
 20
35.199999999999996
 30
0.0
 11
13.0
 21
39.199999999999996
 31
0.0
  0
LINE
  5
A2
100
AcDbEntity
  8
0
  6
CONTINUOUS
 62
               7
100
AcDbLine
 10
9.0
 20
35.199999999999996
 30
0.0
 11
9.0
 21
39.199999999999996
 31
0.0
  0
LINE
  5
A3
100
AcDbEntity
  8
0
  6
CONTINUOUS
 62
               7
100
AcDbLine
 10
16.0
 20
28.199999999999996
 30
0.0
 11
16.0
 21
39.199999999999996
 31
0.0
  0
LINE
  5
A4
100
AcDbEntity
  8
0
  6
CONTINUOUS
 62
               7
100
AcDbLine
 10
6.0
 20
28.199999999999996
 30
0.0
 11
6.0
 21
39.199999999999996
 31
0.0
  0
LINE
  5
A5
100
AcDbEntity
  8
0
  6
CONTINUOUS
 62
               7
100
AcDbLine
 10
16.0
 20
39.199999999999996
 30
0.0
 11
6.0
 21
39.199999999999996
 31
0.0
  0
LINE
  5
A6
100
AcDbEntity
  8
0
  6
CONTINUOUS
 62
               4
100
AcDbLine
 10
-3.0
 20
1.2000000000000028
 30
0.0
 11
4.1000000000000227
 21
1.2000000000000028
 31
0.0
  0
LINE
  5
A7
100
AcDbEntity
  8
0
  6
CONTINUOUS
 62
               4
100
AcDbLine
 10
-3.0
 20
0.0
 30
0.0
 11
4.1000000000000227
 21
0.0
 31
0.0
  0
LINE
  5
A8
100
AcDbEntity
  8
0
  6
CONTINUOUS
 62
               4
100
AcDbLine
 10
-3.0
 20
0.0
 30
0.0
 11
-3.0
 21
1.2000000000000028
 31
0.0
  0
LINE
  5
A9
100
AcDbEntity
  8
0
  6
CONTINUOUS
 62
               4
100
AcDbLine
 10
5.7000000000000171
 20
3.7999999999999972
 30
0.0
 11
16.300000000000011
 21
3.7999999999999972
 31
0.0
  0
LINE
  5
AA
100
AcDbEntity
  8
0
  6
CONTINUOUS
 62
               4
100
AcDbLine
 10
5.5
 20
1.4000000000000057
 30
0.0
 11
5.5
 21
3.5999999999999943
 31
0.0
  0
LINE
  5
AB
100
AcDbEntity
  8
0
  6
CONTINUOUS
 62
               4
100
AcDbLine
 10
4.3000000000000114
 20
1.4000000000000057
 30
0.0
 11
4.3000000000000114
 21
3.5999999999999943
 31
0.0
  0
LINE
  5
AC
100
AcDbEntity
  8
0
  6
CONTINUOUS
 62
               4
100
AcDbLine
 10
5.9700000000000273
 20
3.2660000000000053
 30
0.0
 11
5.9700000000000273
 21
3.7999999999999972
 31
0.0
  0
LINE
  5
AD
100
AcDbEntity
  8
0
  6
CONTINUOUS
 62
               4
100
AcDbLine
 10
9.4300000000000068
 20
3.2660000000000053
 30
0.0
 11
9.4300000000000068
 21
3.7999999999999972
 31
0.0
  0
LINE
  5
AE
100
AcDbEntity
  8
0
  6
CONTINUOUS
 62
               4
100
AcDbLine
 10
12.569999999999993
 20
3.2660000000000053
 30
0.0
 11
12.569999999999993
 21
3.7999999999999972
 31
0.0
  0
LINE
  5
AF
100
AcDbEntity
  8
0
  6
CONTINUOUS
 62
               4
100
AcDbLine
 10
16.03000000000003
 20
3.2660000000000053
 30
0.0
 11
16.03000000000003
 21
3.7999999999999972
 31
0.0
  0
ARC
  5
B0
100
AcDbEntity
  8
0
  6
CONTINUOUS
 62
               4
100
AcDbCircle
 10
4.0999415866173763
 20
1.4000584133826379
 30
0.0
 40
0.2000584219104543
100
AcDbArc
 50
270.01672931490481
 51
359.98327068509366
  0
ARC
  5
B1
100
AcDbEntity
  8
0
  6
CONTINUOUS
 62
               4
100
AcDbCircle
 10
16.299115528302707
 20
3.5991155283026899
 30
0.0
 40
0.2008864188024893
100
AcDbArc
 50
0.2522652321918488
 51
89.747734767807131
  0
ARC
  5
B2
100
AcDbEntity
  8
0
  6
CONTINUOUS
 62
               4
100
AcDbCircle
 10
5.6999333589326397
 20
3.6000666410673574
 30
0.0
 40
0.1999333700389205
100
AcDbArc
 50
89.980902377767208
 51
180.01909762223218
  0
ARC
  5
B3
100
AcDbEntity
  8
0
  6
CONTINUOUS
 62
               4
100
AcDbCircle
 10
4.099943315390135
 20
1.4000566846098934
 30
0.0
 40
1.4000566857574084
100
AcDbArc
 50
270.00231975529556
 51
359.99768024470291
  0
ARC
  5
B4
100
AcDbEntity
  8
0
  6
CONTINUOUS
 62
               4
100
AcDbCircle
 10
7.6990000000000123
 20
7.1068760989089554
 30
0.0
 40
4.6140039015894576
100
AcDbArc
 50
253.80344035273558
 51
286.19655964726314
  0
ARC
  5
B5
100
AcDbEntity
  8
0
  6
CONTINUOUS
 62
               4
100
AcDbCircle
 10
6.5838413187467495
 20
3.265298072688239
 30
0.0
 40
0.613841720073419
100
AcDbArc
 50
179.93448232673219
 51
253.74313632481389
  0
ARC
  5
B6
100
AcDbEntity
  8
0
  6
CONTINUOUS
 62
               4
100
AcDbCircle
 10
8.8152220268359258
 20
3.2665820679404334
 30
0.0
 40
0.6147782487131708
100
AcDbArc
 50
286.12822533946951
 51
359.94575273046883
  0
ARC
  5
B7
100
AcDbEntity
  8
0
  6
CONTINUOUS
 62
               4
100
AcDbCircle
 10
14.299000000000035
 20
7.1068760988772226
 30
0.0
 40
4.6140039015589682
100
AcDbArc
 50
253.80344035262561
 51
286.19655964737319
  0
ARC
  5
B8
100
AcDbEntity
  8
0
  6
CONTINUOUS
 62
               4
100
AcDbCircle
 10
13.183839364596452
 20
3.2652966087315747
 30
0.0
 40
0.6138397676001843
100
AcDbArc
 50
179.93434547259068
 51
253.74327317895529
  0
ARC
  5
B9
100
AcDbEntity
  8
0
  6
CONTINUOUS
 62
               4
100
AcDbCircle
 10
15.415220075966602
 20
3.2665835360522806
 30
0.0
 40
0.6147802009733803
100
AcDbArc
 50
286.12836199114588
 51
359.94561607879228
  0
LINE
  5
BA
100
AcDbEntity
  8
0
  6
CONTINUOUS
 62
               4
100
AcDbLine
 10
25.0
 20
0.0
 30
0.0
 11
25.0
 21
1.2000000000000028
 31
0.0
  0
LINE
  5
BB
100
AcDbEntity
  8
0
  6
CONTINUOUS
 62
               4
100
AcDbLine
 10
17.900000000000034
 20
1.2000000000000028
 30
0.0
 11
25.0
 21
1.2000000000000028
 31
0.0
  0
LINE
  5
BC
100
AcDbEntity
  8
0
  6
CONTINUOUS
 62
               4
100
AcDbLine
 10
17.900000000000034
 20
0.0
 30
0.0
 11
25.0
 21
0.0
 31
0.0
  0
ARC
  5
BD
100
AcDbEntity
  8
0
  6
CONTINUOUS
 62
               4
100
AcDbCircle
 10
17.899103340046224
 20
1.3991033400461959
 30
0.0
 40
0.1991053590856348
100
AcDbArc
 50
179.74197075907335
 51
270.25802924092562
  0
ARC
  5
BE
100
AcDbEntity
  8
0
  6
CONTINUOUS
 62
               4
100
AcDbCircle
 10
17.899103333594837
 20
1.3991033335948089
 30
0.0
 40
1.3991036209254675
100
AcDbArc
 50
179.96327991479848
 51
270.03672008520033
  0
LINE
  5
BF
100
AcDbEntity
  8
0
  6
CONTINUOUS
 62
               4
100
AcDbLine
 10
17.699999999999989
 20
1.4000000000000057
 30
0.0
 11
17.699999999999989
 21
3.5999999999999943
 31
0.0
  0
LINE
  5
C0
100
AcDbEntity
  8
0
  6
CONTINUOUS
 62
               4
100
AcDbLine
 10
16.5
 20
1.4000000000000057
 30
0.0
 11
16.5
 21
3.5999999999999943
 31
0.0
  0
ARC
  5
C1
100
AcDbEntity
  8
0
  6
CONTINUOUS
 62
               4
100
AcDbCircle
 10
5.6999316768315111
 20
3.6000683231685144
 30
0.0
 40
1.3999316784987346
100
AcDbArc
 50
89.997203699822904
 51
180.00279630017653
  0
ARC
  5
C2
100
AcDbEntity
  8
0
  6
CONTINUOUS
 62
               4
100
AcDbCircle
 10
16.299115537943862
 20
3.5991155379438453
 30
0.0
 40
1.4008847412629901
100
AcDbArc
 50
0.0361742439122946
 51
89.963825756087459
  0
LINE
  5
C3
100
AcDbEntity
  8
0
  6
CONTINUOUS
 62
               4
100
AcDbLine
 10
16.300000000000011
 20
5.0
 30
0.0
 11
5.7000000000000171
 21
5.0
 31
0.0
  0
LINE
  5
C4
100
AcDbEntity
  8
0
  6
CONTINUOUS
 62
               4
100
AcDbLine
 10
22.0
 20
0.0
 30
0.0
 11
22.0
 21
1.2000000000000028
 31
0.0
  0
LINE
  5
C5
100
AcDbEntity
  8
0
  6
CONTINUOUS
 62
               4
100
AcDbLine
 10
0.0
 20
0.0
 30
0.0
 11
0.0
 21
1.2000000000000028
 31
0.0
  0
ARC
  5
C6
100
AcDbEntity
  8
0
  6
CONTINUOUS
 62
               7
100
AcDbCircle
 10
11.0
 20
35.199999999999996
 30
0.0
 40
3.090998569384837
100
AcDbArc
 50
179.99999999999963
 51
0.0
  0
LINE
  5
C7
100
AcDbEntity
  8
0
  6
CONTINUOUS
 62
               7
100
AcDbLine
 10
14.090998569384851
 20
35.199999999999996
 30
0.0
 11
14.090998569384851
 21
39.199999999999996
 31
0.0
  0
LINE
  5
C8
100
AcDbEntity
  8
0
  6
CONTINUOUS
 62
               7
100
AcDbLine
 10
7.9090014306151488
 20
35.199999999999996
 30
0.0
 11
7.9090014306151488
 21
39.199999999999996
 31
0.0
  0
LINE
  5
C9
100
AcDbEntity
  8
0
  6
CENTER
 62
               2
100
AcDbLine
 10
16.878166284015236
 20
14.299999999999997
 30
0.0
 11
12.521833715984798
 21
14.299999999999997
 31
0.0
  0
LINE
  5
CA
100
AcDbEntity
  8
0
  6
CENTER
 62
               2
100
AcDbLine
 10
9.4781662840152308
 20
23.899999999999991
 30
0.0
 11
5.121833715984792
 21
23.899999999999963
 31
0.0
  0
ENDBLK
  5
CB
100
AcDbEntity
  8
0
100
AcDbBlockEnd
  0
BLOCK
  5
CC
100
AcDbEntity
  8
0
100
AcDbBlockBegin
  2
EA10F5-2
 70
               0
 10
0.0
 20
0.0
 30
0.0
  3
EA10F5-2
  1

  0
ARC
  5
CD
100
AcDbEntity
  8
0
  6
CONTINUOUS
 62
               4
100
AcDbCircle
 10
9.8869807275629569
 20
39.699995453570864
 30
0.0
 40
0.5
100
AcDbArc
 50
269.7556636029762
 51
295.03102081721903
  0
LINE
  5
CE
100
AcDbEntity
  8
0
  6
CONTINUOUS
 62
               4
100
AcDbLine
 10
7.0000000135181608
 20
39.19999999999991
 30
0.0
 11
9.8848484967181207
 21
39.19999999999991
 31
0.0
  0
LINE
  5
CF
100
AcDbEntity
  8
0
  6
CONTINUOUS
 62
               4
100
AcDbLine
 10
-7.0
 20
0.0000000256359272
 30
0.0
 11
-7.0
 21
5.0000000000000071
 31
0.0
  0
LINE
  5
D0
100
AcDbEntity
  8
0
  6
CONTINUOUS
 62
               4
100
AcDbLine
 10
7.0
 20
0.0000000256359272
 30
0.0
 11
7.0
 21
5.0000000000000071
 31
0.0
  0
LINE
  5
D1
100
AcDbEntity
  8
0
  6
CONTINUOUS
 62
               4
100
AcDbLine
 10
-7.0000000007497221
 20
1.2000000000000099
 30
0.0
 11
6.9999999992502779
 21
1.2000000000000099
 31
0.0
  0
LINE
  5
D2
100
AcDbEntity
  8
0
  6
CONTINUOUS
 62
               4
100
AcDbLine
 10
-7.0000000007497221
 20
3.8000000000000043
 30
0.0
 11
6.9999999992502779
 21
3.8000000000000043
 31
0.0
  0
LINE
  5
D3
100
AcDbEntity
  8
0
  6
CONTINUOUS
 62
               4
100
AcDbLine
 10
-7.0000000007497221
 20
5.0000000000000071
 30
0.0
 11
6.9999999992502779
 21
5.0000000000000071
 31
0.0
  0
LINE
  5
D4
100
AcDbEntity
  8
0
  6
CONTINUOUS
 62
               4
100
AcDbLine
 10
-7.0000000007497221
 20
0.0000000000000071
 30
0.0
 11
7.0
 21
0.0000000000000071
 31
0.0
  0
ARC
  5
D5
100
AcDbEntity
  8
0
  6
CONTINUOUS
 62
               4
100
AcDbCircle
 10
-4.3989118272451435
 20
61.101088005236932
 30
0.0
 40
0.5989129830170392
100
AcDbArc
 50
359.89591452477299
 51
90.104085475226924
  0
LINE
  5
D6
100
AcDbEntity
  8
0
  6
CONTINUOUS
 62
               4
100
AcDbLine
 10
-3.2999998324822286
 20
61.099999999999909
 30
0.0
 11
-3.2999998324822286
 21
61.699999999999932
 31
0.0
  0
LINE
  5
D7
100
AcDbEntity
  8
0
  6
CONTINUOUS
 62
               7
100
AcDbLine
 10
3.5
 20
6.3000000000000114
 30
0.0
 11
3.5
 21
5.2000000000000099
 31
0.0
  0
LINE
  5
D8
100
AcDbEntity
  8
0
  6
CONTINUOUS
 62
               7
100
AcDbLine
 10
3.5499999999999972
 20
5.9700000000000131
 30
0.0
 11
3.5499999999999972
 21
6.4400000000000119
 31
0.0
  0
ARC
  5
D9
100
AcDbEntity
  8
0
  6
CONTINUOUS
 62
               7
100
AcDbCircle
 10
3.2999984741152701
 20
5.200001525884737
 30
0.0
 40
0.200001525890548
100
AcDbArc
 50
270.00043713043902
 51
359.99956286956035
  0
ARC
  5
DA
100
AcDbEntity
  8
0
  6
CONTINUOUS
 62
               7
100
AcDbCircle
 10
3.6999923706112838
 20
6.3000076293887162
 30
0.0
 40
0.1999923707568137
100
AcDbArc
 50
89.997814257754712
 51
180.00218574224468
  0
ARC
  5
DB
100
AcDbEntity
  8
0
  6
CONTINUOUS
 62
               7
100
AcDbCircle
 10
3.9740829724975981
 20
5.9670765359853988
 30
0.0
 40
0.4240930489930741
100
AcDbArc
 50
179.60503130945165
 51
242.76491800802398
  0
ARC
  5
DC
100
AcDbEntity
  8
0
  6
CONTINUOUS
 62
               7
100
AcDbCircle
 10
-6.5999969480559315
 20
5.4000030519440898
 30
0.0
 40
0.4000030519557204
100
AcDbArc
 50
180.00043715545169
 51
269.99956284454754
  0
CIRCLE
  5
DD
100
AcDbEntity
  8
0
  6
CONTINUOUS
 62
               7
100
AcDbCircle
 10
-4.0999999999999943
 20
15.899999999999984
 30
0.0
 40
1.075
  0
CIRCLE
  5
DE
100
AcDbEntity
  8
0
  6
CONTINUOUS
 62
               7
100
AcDbCircle
 10
-4.0999999999999943
 20
22.299999899728654
 30
0.0
 40
1.075
  0
LINE
  5
DF
100
AcDbEntity
  8
0
  6
CENTER
 62
               2
100
AcDbLine
 10
-2.4419261169031472
 20
15.900437783480193
 30
0.0
 11
-5.7010006022055677
 21
15.900437783480193
 31
0.0
  0
LINE
  5
E0
100
AcDbEntity
  8
0
  6
CENTER
 62
               2
100
AcDbLine
 10
-4.0999999999999943
 20
24.905677657573555
 30
0.0
 11
-4.0999999999999943
 21
13.461352515796627
 31
0.0
  0
LINE
  5
E1
100
AcDbEntity
  8
0
  6
CENTER
 62
               2
100
AcDbLine
 10
-2.4419261169031472
 20
22.29999999999999
 30
0.0
 11
-5.7010006022055677
 21
22.29999999999999
 31
0.0
  0
LINE
  5
E2
100
AcDbEntity
  8
0
  6
CONTINUOUS
 62
               7
100
AcDbLine
 10
-7.0000000119209318
 20
10.000000000000007
 30
0.0
 11
6.9999999880790682
 21
10.000000000000007
 31
0.0
  0
ARC
  5
E3
100
AcDbEntity
  8
0
  6
CONTINUOUS
 62
               7
100
AcDbCircle
 10
5.3050000000000068
 20
8.4000186950871623
 30
0.0
 40
3.1971596874005721
100
AcDbArc
 50
241.5112711324667
 51
298.48872886753213
  0
LINE
  5
E4
100
AcDbEntity
  8
0
  6
CONTINUOUS
 62
               7
100
AcDbLine
 10
7.0499999999999972
 20
6.5000000000000071
 30
0.0
 11
3.6999999999999886
 21
6.5000000000000071
 31
0.0
  0
LINE
  5
E5
100
AcDbEntity
  8
0
  6
CONTINUOUS
 62
               7
100
AcDbLine
 10
6.5999999999999943
 20
5.0000000000000071
 30
0.0
 11
-6.6000000000000085
 21
5.0000000000000071
 31
0.0
  0
LINE
  5
E6
100
AcDbEntity
  8
0
  6
CONTINUOUS
 62
               4
100
AcDbLine
 10
30.495959596051165
 20
56.860555545466966
 30
0.0
 11
27.158585860584566
 21
56.860555545466909
 31
0.0
  0
LINE
  5
E7
100
AcDbEntity
  8
0
  6
CONTINUOUS
 62
               4
100
AcDbLine
 10
30.495959596051193
 20
55.559545445200271
 30
0.0
 11
27.90808080965121
 21
55.559545445200214
 31
0.0
  0
LINE
  5
E8
100
AcDbEntity
  8
0
  6
CONTINUOUS
 62
               7
100
AcDbLine
 10
-6.9999999784818101
 20
39.199999999999655
 30
0.0
 11
7.0000000135181608
 21
39.19999999999991
 31
0.0
  0
LINE
  5
E9
100
AcDbEntity
  8
0
  6
CONTINUOUS
 62
               4
100
AcDbLine
 10
7.0000000135178198
 20
58.7010100898666
 30
0.0
 11
14.49494950418449
 21
58.70101008986677
 31
0.0
  0
LINE
  5
EA
100
AcDbEntity
  8
0
  6
CONTINUOUS
 62
               4
100
AcDbLine
 10
14.996969705917849
 20
58.198989888133383
 30
0.0
 11
14.996969705918161
 21
41.851515150000125
 31
0.0
  0
LINE
  5
EB
100
AcDbEntity
  8
0
  6
CONTINUOUS
 62
               4
100
AcDbLine
 10
10.098535171945954
 20
39.246956032480604
 30
0.0
 11
14.707070716184802
 21
41.398989897733372
 31
0.0
  0
LINE
  5
EC
100
AcDbEntity
  8
0
  6
CONTINUOUS
 62
               4
100
AcDbLine
 10
22.993939398317906
 20
53.70202019373346
 30
0.0
 11
22.993939398317821
 21
57.803030292400194
 31
0.0
  0
LINE
  5
ED
100
AcDbEntity
  8
0
  6
CONTINUOUS
 62
               4
100
AcDbLine
 10
16.389898998051166
 20
59.804040392266813
 30
0.0
 11
21.494949500184475
 21
60.70202018973356
 31
0.0
  0
LINE
  5
EE
100
AcDbEntity
  8
0
  6
CONTINUOUS
 62
               4
100
AcDbLine
 10
22.993939398317792
 20
59.705050493333488
 30
0.0
 11
22.993939398317764
 21
60.70202018973356
 31
0.0
  0
LINE
  5
EF
100
AcDbEntity
  8
0
  6
CONTINUOUS
 62
               4
100
AcDbLine
 10
15.329292938051196
 20
58.602020190933331
 30
0.0
 11
21.671717176851132
 21
59.719191907466836
 31
0.0
  0
LINE
  5
F0
100
AcDbEntity
  8
0
  6
CONTINUOUS
 62
               4
100
AcDbLine
 10
13.992929302451159
 20
58.799999988800039
 30
0.0
 11
8.293939406717783
 21
58.799999988799925
 31
0.0
  0
LINE
  5
F1
100
AcDbEntity
  8
0
  6
CONTINUOUS
 62
               4
100
AcDbLine
 10
22.993939398317821
 20
57.803030292400194
 30
0.0
 11
22.696969701517844
 21
58.099999989200171
 31
0.0
  0
LINE
  5
F2
100
AcDbEntity
  8
0
  6
CONTINUOUS
 62
               4
100
AcDbLine
 10
21.996969701917891
 20
53.70202019373346
 30
0.0
 11
21.996969701917891
 21
54.303030294400173
 31
0.0
  0
LINE
  5
F3
100
AcDbEntity
  8
0
  6
CONTINUOUS
 62
               4
100
AcDbLine
 10
21.996969701917891
 20
54.303030294400173
 30
0.0
 11
16.997979805784524
 21
54.303030294400116
 31
0.0
  0
LINE
  5
F4
100
AcDbEntity
  8
0
  6
CONTINUOUS
 62
               4
100
AcDbLine
 10
16.997979805784553
 20
53.702020193733347
 30
0.0
 11
16.997979805784524
 21
54.303030294400116
 31
0.0
  0
LINE
  5
F5
100
AcDbEntity
  8
0
  6
CONTINUOUS
 62
               4
100
AcDbLine
 10
16.495959604051166
 20
57.803030292400081
 30
0.0
 11
16.792929300851142
 21
58.099999989200057
 31
0.0
  0
LINE
  5
F6
100
AcDbEntity
  8
0
  6
CONTINUOUS
 62
               4
100
AcDbLine
 10
16.389898998051166
 20
59.804040392266813
 30
0.0
 11
7.296969710317768
 21
59.804040392266643
 31
0.0
  0
LINE
  5
F7
100
AcDbEntity
  8
0
  6
CONTINUOUS
 62
               4
100
AcDbLine
 10
8.293939406717783
 20
58.701010089866656
 30
0.0
 11
8.293939406717783
 21
58.799999988799925
 31
0.0
  0
LINE
  5
F8
100
AcDbEntity
  8
0
  6
CONTINUOUS
 62
               4
100
AcDbLine
 10
27.561616163384514
 20
55.554545445200233
 30
0.0
 11
22.993939398317877
 21
55.55454544520012
 31
0.0
  0
LINE
  5
F9
100
AcDbEntity
  8
0
  6
CONTINUOUS
 62
             200
100
AcDbLine
 10
26.324242426717831
 20
57.70904039346685
 30
0.0
 11
28.056565658051227
 21
54.703989890133627
 31
0.0
  0
LINE
  5
FA
100
AcDbEntity
  8
0
  6
CONTINUOUS
 62
               4
100
AcDbLine
 10
26.81212121431787
 20
56.855555545466899
 30
0.0
 11
22.993939398317849
 21
56.855555545466842
 31
0.0
  0
LINE
  5
FB
100
AcDbEntity
  8
0
  6
CONTINUOUS
 62
               4
100
AcDbLine
 10
22.993939398317764
 20
60.70202018973356
 30
0.0
 11
21.494949500184475
 21
60.70202018973356
 31
0.0
  0
LINE
  5
FC
100
AcDbEntity
  8
0
  6
CONTINUOUS
 62
               4
100
AcDbLine
 10
22.993939398317792
 20
59.705050493333488
 30
0.0
 11
21.586868692051098
 21
59.705050493333488
 31
0.0
  0
LINE
  5
FD
100
AcDbEntity
  8
0
  6
CONTINUOUS
 62
               4
100
AcDbLine
 10
22.696969701517844
 20
58.099999989200171
 30
0.0
 11
16.792929300851142
 21
58.099999989200057
 31
0.0
  0
LINE
  5
FE
100
AcDbEntity
  8
0
  6
CONTINUOUS
 62
               4
100
AcDbLine
 10
22.993939398317821
 20
57.803030292400194
 30
0.0
 11
15.400000008717882
 21
57.803030292400052
 31
0.0
  0
LINE
  5
FF
100
AcDbEntity
  8
0
  6
CONTINUOUS
 62
               4
100
AcDbLine
 10
22.993939398317849
 20
57.103030292800213
 30
0.0
 11
14.996969705917877
 21
57.103030292800099
 31
0.0
  0
LINE
  5
100
100
AcDbEntity
  8
0
  6
CONTINUOUS
 62
               4
100
AcDbLine
 10
22.993939398317877
 20
55.299999990800217
 30
0.0
 11
14.996969705917905
 21
55.299999990800075
 31
0.0
  0
LINE
  5
101
100
AcDbEntity
  8
0
  6
CONTINUOUS
 62
               4
100
AcDbLine
 10
14.996969705917934
 20
53.702020193733347
 30
0.0
 11
16.997979805784553
 21
53.702020193733347
 31
0.0
  0
LINE
  5
102
100
AcDbEntity
  8
0
  6
CONTINUOUS
 62
               4
100
AcDbLine
 10
21.996969701917891
 20
53.70202019373346
 30
0.0
 11
22.993939398317906
 21
53.70202019373346
 31
0.0
  0
LINE
  5
103
100
AcDbEntity
  8
0
  6
CONTINUOUS
 62
               4
100
AcDbLine
 10
9.8848484967181207
 20
39.199999999999967
 30
0.0
 11
9.8848484967177797
 21
58.701010089866656
 31
0.0
  0
ARC
  5
104
100
AcDbEntity
  8
0
  6
CONTINUOUS
 62
               7
100
AcDbCircle
 10
14.497257383074867
 20
41.852522460539234
 30
0.0
 40
0.4997133381008656
100
AcDbArc
 50
294.82621530980992
 51
359.88450442035736
  0
ARC
  5
105
100
AcDbEntity
  8
0
  6
CONTINUOUS
 62
               4
100
AcDbCircle
 10
14.500332854439165
 20
58.204373238388058
 30
0.0
 40
0.4966660273328702
100
AcDbArc
 50
359.37896036356483
 51
90.621039636434716
  0
ARC
  5
106
100
AcDbEntity
  8
0
  6
CONTINUOUS
 62
               4
100
AcDbCircle
 10
7.2994313052352311
 20
59.504584129418589
 30
0.0
 40
0.2994663800970315
100
AcDbArc
 50
90.47097302846538
 51
180.87710076750685
  0
ARC
  5
107
100
AcDbEntity
  8
0
  6
CONTINUOUS
 62
               4
100
AcDbCircle
 10
13.999912527655027
 20
58.305034325092663
 30
0.0
 40
0.4950149226876426
100
AcDbArc
 50
53.123124741165753
 51
90.808304124579536
  0
ARC
  5
108
100
AcDbEntity
  8
0
  6
CONTINUOUS
 62
               4
100
AcDbCircle
 10
15.399895939896879
 20
58.205327231604571
 30
0.0
 40
0.4029269013737999
100
AcDbArc
 50
100.09177155739695
 51
179.8957164142515
  0
ARC
  5
109
100
AcDbEntity
  8
0
  6
CONTINUOUS
 62
               4
100
AcDbCircle
 10
15.400834052872199
 20
58.206894639354402
 30
0.0
 40
0.403865208170398
100
AcDbArc
 50
180.11832473551567
 51
269.88167526448677
  0
LINE
  5
10A
100
AcDbEntity
  8
0
  6
CONTINUOUS
 62
             200
100
AcDbLine
 10
26.670707072984527
 20
57.709040393466907
 30
0.0
 11
28.403030304317923
 21
54.711060597200245
 31
0.0
  0
LINE
  5
10B
100
AcDbEntity
  8
0
  6
CONTINUOUS
 62
               4
100
AcDbLine
 10
-6.9999999784818101
 20
39.199999999999655
 30
0.0
 11
-6.999999978482208
 21
61.099999999999625
 31
0.0
  0
LINE
  5
10C
100
AcDbEntity
  8
0
  6
CONTINUOUS
 62
               4
100
AcDbLine
 10
4.9999999824822225
 20
60.099999999999625
 30
0.0
 11
-7.0000000135178055
 21
60.099999999999852
 31
0.0
  0
LINE
  5
10D
100
AcDbEntity
  8
0
  6
CONTINUOUS
 62
               4
100
AcDbLine
 10
4.9999999824822794
 20
61.699999999999676
 30
0.0
 11
4.9999999824822225
 21
60.099999999999625
 31
0.0
  0
LINE
  5
10E
100
AcDbEntity
  8
0
  6
CONTINUOUS
 62
               4
100
AcDbLine
 10
6.4999999784822364
 20
61.599999999999682
 30
0.0
 11
4.999999982482251
 21
61.599999999999682
 31
0.0
  0
ARC
  5
10F
100
AcDbEntity
  8
0
  6
CONTINUOUS
 62
               4
100
AcDbCircle
 10
6.4999999784822364
 20
61.099999999999625
 30
0.0
 40
0.5
100
AcDbArc
 50
359.99999999999898
 51
89.999999999998778
  0
LINE
  5
110
100
AcDbEntity
  8
0
  6
CONTINUOUS
 62
               4
100
AcDbLine
 10
7.0000000135177913
 20
61.099999999999881
 30
0.0
 11
7.0000000135181608
 21
39.19999999999991
 31
0.0
  0
LINE
  5
111
100
AcDbEntity
  8
0
  6
CONTINUOUS
 62
               4
100
AcDbLine
 10
6.1999998924822535
 20
61.699999999999676
 30
0.0
 11
-6.1999999275177657
 21
61.699999999999903
 31
0.0
  0
ARC
  5
112
100
AcDbEntity
  8
0
  6
CONTINUOUS
 62
               4
100
AcDbCircle
 10
-6.500000013517834
 20
61.099999999999881
 30
0.0
 40
0.5
100
AcDbArc
 50
93.919585899649775
 51
179.99999999999858
  0
LINE
  5
113
100
AcDbEntity
  8
0
  6
CONTINUOUS
 62
               4
100
AcDbLine
 10
-3.2999998324822286
 20
61.099999999999824
 30
0.0
 11
-7.0000000135178055
 21
61.099999999999881
 31
0.0
  0
ARC
  5
114
100
AcDbEntity
  8
0
  6
CONTINUOUS
 62
               4
100
AcDbCircle
 10
-6.2010879326460469
 20
61.101088005128133
 30
0.0
 40
0.598912923125741
100
AcDbArc
 50
89.895914524771712
 51
180.10408547522565
  0
ARC
  5
115
100
AcDbEntity
  8
0
  6
CONTINUOUS
 62
               4
100
AcDbCircle
 10
6.2000950391309289
 20
61.100095146648329
 30
0.0
 40
0.599904800896587
100
AcDbArc
 50
56.247417870392866
 51
90.009087277545149
  0
LINE
  5
116
100
AcDbEntity
  8
0
  6
CONTINUOUS
 62
               4
100
AcDbLine
 10
30.495959596051193
 20
55.559545445200271
 30
0.0
 11
30.495959596051165
 21
56.860555545466966
 31
0.0
  0
LINE
  5
117
100
AcDbEntity
  8
0
  6
CONTINUOUS
 62
               7
100
AcDbLine
 10
6.0
 20
22.300998569384795
 30
0.0
 11
7.0
 21
22.300998569384795
 31
0.0
  0
LINE
  5
118
100
AcDbEntity
  8
0
  6
CONTINUOUS
 62
               7
100
AcDbLine
 10
6.0
 20
25.500998569384812
 30
0.0
 11
7.0
 21
25.500998569384812
 31
0.0
  0
LINE
  5
119
100
AcDbEntity
  8
0
  6
CONTINUOUS
 62
               7
100
AcDbLine
 10
-6.999999986481896
 20
28.199999999999996
 30
0.0
 11
7.0
 21
28.20000000000001
 31
0.0
  0
LINE
  5
11A
100
AcDbEntity
  8
0
  6
CONTINUOUS
 62
               7
100
AcDbLine
 10
8.1000000135181551
 20
33.199999999999996
 30
0.0
 11
8.1000000135181551
 21
39.199999999999925
 31
0.0
  0
LINE
  5
11B
100
AcDbEntity
  8
0
  6
CONTINUOUS
 62
               7
100
AcDbLine
 10
8.5480000135180916
 20
35.79999999999999
 30
0.0
 11
8.1000000135181551
 21
35.79999999999999
 31
0.0
  0
LINE
  5
11C
100
AcDbEntity
  8
0
  6
CONTINUOUS
 62
               7
100
AcDbLine
 10
8.54800001351812
 20
38.000000000000036
 30
0.0
 11
8.1000000135181409
 21
38.000000000000021
 31
0.0
  0
LINE
  5
11D
100
AcDbEntity
  8
0
  6
CONTINUOUS
 62
               7
100
AcDbLine
 10
8.5480000135180916
 20
35.79999999999999
 30
0.0
 11
8.54800001351812
 21
38.000000000000036
 31
0.0
  0
LINE
  5
11E
100
AcDbEntity
  8
0
  6
CONTINUOUS
 62
               7
100
AcDbLine
 10
-6.9999999864818818
 20
39.199999999999939
 30
0.0
 11
-6.999999986481896
 21
28.199999999999996
 31
0.0
  0
LINE
  5
11F
100
AcDbEntity
  8
0
  6
CONTINUOUS
 62
               7
100
AcDbLine
 10
7.0000000135181608
 20
39.199999999999925
 30
0.0
 11
7.0000000135181608
 21
28.199999999999996
 31
0.0
  0
LINE
  5
120
100
AcDbEntity
  8
0
  6
CONTINUOUS
 62
               7
100
AcDbLine
 10
7.0000000135181466
 20
32.104999999999983
 30
0.0
 11
8.1000000135181551
 21
33.199999999999996
 31
0.0
  0
ARC
  5
121
100
AcDbEntity
  8
0
  6
CONTINUOUS
 62
               7
100
AcDbCircle
 10
6.5999938963796012
 20
5.400006103620413
 30
0.0
 40
0.400006103666966
100
AcDbArc
 50
270.00087426588038
 51
359.99912573411802
  0
ARC
  5
122
100
AcDbEntity
  8
0
  6
CONTINUOUS
 62
               7
100
AcDbCircle
 10
6.6235822871241368
 20
5.9631892021913018
 30
0.0
 40
0.4264721008707071
100
AcDbArc
 50
298.94777670470961
 51
0.9150576515650383
  0
LINE
  5
123
100
AcDbEntity
  8
0
  6
CONTINUOUS
 62
               7
100
AcDbLine
 10
-7.0
 20
28.20000000000001
 30
0.0
 11
-7.0
 21
5.4000030519440898
 31
0.0
  0
LINE
  5
124
100
AcDbEntity
  8
0
  6
CONTINUOUS
 62
               7
100
AcDbLine
 10
7.0
 20
28.20000000000001
 30
0.0
 11
7.0
 21
6.5000000000000142
 31
0.0
  0
LINE
  5
125
100
AcDbEntity
  8
0
  6
CONTINUOUS
 62
               7
100
AcDbLine
 10
7.0
 20
5.7700000000000102
 30
0.0
 11
7.0
 21
5.4000000000000057
 31
0.0
  0
LINE
  5
126
100
AcDbEntity
  8
0
  6
CONTINUOUS
 62
               7
100
AcDbLine
 10
7.0499999999999972
 20
5.9700000000000131
 30
0.0
 11
7.0499999999999972
 21
6.5000000000000071
 31
0.0
  0
LINE
  5
127
100
AcDbEntity
  8
0
  6
CENTER
 62
               2
100
AcDbLine
 10
0.0
 20
64.260444473560455
 30
0.0
 11
0.0
 21
-2.4488717557984714
 31
0.0
  0
LINE
  5
128
100
AcDbEntity
  8
0
  6
CONTINUOUS
 62
               7
100
AcDbLine
 10
6.0
 20
25.500998569384812
 30
0.0
 11
6.0
 21
22.300998569384795
 31
0.0
  0
LINE
  5
129
100
AcDbEntity
  8
0
  6
CENTER
 62
               2
100
AcDbLine
 10
-6.1241534247009071
 20
12.700000000000017
 30
0.0
 11
-20.405931067489945
 21
12.700000000000017
 31
0.0
  0
LINE
  5
12A
100
AcDbEntity
  8
0
  6
CENTER
 62
               2
100
AcDbLine
 10
-6.1241534247009071
 20
25.500000000000014
 30
0.0
 11
-20.405931067489945
 21
25.500000000000014
 31
0.0
  0
LINE
  5
12C
100
AcDbEntity
  8
0
  6
DASHED
 62
             200
100
AcDbLine
 10
-7.0
 20
9.7000000000000171
 30
0.0
 11
-18.5
 21
9.7000000000000171
 31
0.0
  0
LINE
  5
12D
100
AcDbEntity
  8
0
  6
DASHED
 62
             200
100
AcDbLine
 10
-7.0
 20
15.700000000000017
 30
0.0
 11
-18.5
 21
15.700000000000017
 31
0.0
  0
LINE
  5
12E
100
AcDbEntity
  8
0
  6
DASHED
 62
             200
100
AcDbLine
 10
-18.5
 20
9.7000000000000171
 30
0.0
 11
-18.5
 21
15.700000000000017
 31
0.0
  0
LINE
  5
12F
100
AcDbEntity
  8
0
  6
DASHED
 62
             200
100
AcDbLine
 10
-16.5
 20
9.7000000000000171
 30
0.0
 11
-16.5
 21
15.700000000000017
 31
0.0
  0
LINE
  5
130
100
AcDbEntity
  8
0
  6
DASHED
 62
             200
100
AcDbLine
 10
-19.0
 20
10.200000000000017
 30
0.0
 11
-19.0
 21
15.200000000000017
 31
0.0
  0
LINE
  5
131
100
AcDbEntity
  8
0
  6
DASHED
 62
               7
100
AcDbLine
 10
-7.0
 20
9.7000000000000171
 30
0.0
 11
-7.0
 21
15.700000000000017
 31
0.0
  0
ARC
  5
132
100
AcDbEntity
  8
0
  6
DASHED
 62
             200
100
AcDbCircle
 10
-18.5
 20
15.200000000000017
 30
0.0
 40
0.5
100
AcDbArc
 50
89.999999999999815
 51
179.99999999999963
  0
ARC
  5
133
100
AcDbEntity
  8
0
  6
DASHED
 62
             200
100
AcDbCircle
 10
-18.5
 20
10.200000000000017
 30
0.0
 40
0.5
100
AcDbArc
 50
179.99999999999963
 51
269.99999999999937
  0
ARC
  5
134
100
AcDbEntity
  8
0
  6
DASHED
 62
             200
100
AcDbCircle
 10
-18.5
 20
23.000000000000007
 30
0.0
 40
0.5
100
AcDbArc
 50
179.99999999999963
 51
269.99999999999937
  0
ARC
  5
135
100
AcDbEntity
  8
0
  6
DASHED
 62
             200
100
AcDbCircle
 10
-18.5
 20
28.000000000000014
 30
0.0
 40
0.5
100
AcDbArc
 50
89.999999999999815
 51
179.99999999999963
  0
LINE
  5
136
100
AcDbEntity
  8
0
  6
DASHED
 62
               7
100
AcDbLine
 10
-7.0
 20
22.500000000000007
 30
0.0
 11
-7.0
 21
28.500000000000014
 31
0.0
  0
LINE
  5
137
100
AcDbEntity
  8
0
  6
DASHED
 62
             200
100
AcDbLine
 10
-19.0
 20
23.000000000000007
 30
0.0
 11
-19.0
 21
28.000000000000014
 31
0.0
  0
LINE
  5
138
100
AcDbEntity
  8
0
  6
DASHED
 62
             200
100
AcDbLine
 10
-16.5
 20
22.500000000000007
 30
0.0
 11
-16.5
 21
28.500000000000014
 31
0.0
  0
LINE
  5
139
100
AcDbEntity
  8
0
  6
DASHED
 62
             200
100
AcDbLine
 10
-18.5
 20
22.500000000000007
 30
0.0
 11
-18.5
 21
28.500000000000014
 31
0.0
  0
LINE
  5
13A
100
AcDbEntity
  8
0
  6
DASHED
 62
             200
100
AcDbLine
 10
-7.0
 20
28.500000000000014
 30
0.0
 11
-18.5
 21
28.500000000000014
 31
0.0
  0
LINE
  5
13B
100
AcDbEntity
  8
0
  6
DASHED
 62
             200
100
AcDbLine
 10
-7.0
 20
22.500000000000007
 30
0.0
 11
-18.5
 21
22.500000000000007
 31
0.0
  0
LINE
  5
13C
100
AcDbEntity
  8
0
  6
CONTINUOUS
 62
               4
100
AcDbLine
 10
30.495959596051179
 20
55.95923311252109
 30
0.0
 11
33.995959596051236
 21
55.95923311252109
 31
0.0
  0
LINE
  5
13D
100
AcDbEntity
  8
0
  6
CONTINUOUS
 62
               4
100
AcDbLine
 10
33.995959596051236
 20
56.45923311252109
 30
0.0
 11
33.995959596051236
 21
55.95923311252109
 31
0.0
  0
LINE
  5
13E
100
AcDbEntity
  8
0
  6
CONTINUOUS
 62
               4
100
AcDbLine
 10
30.495959596051179
 20
56.45923311252109
 30
0.0
 11
33.995959596051236
 21
56.45923311252109
 31
0.0
  0
ENDBLK
  5
13F
100
AcDbEntity
  8
0
100
AcDbBlockEnd
  0
BLOCK
  5
140
100
AcDbEntity
  8
0
100
AcDbBlockBegin
  2
EA10F5-3
 70
               0
 10
0.0
 20
0.0
 30
0.0
  3
EA10F5-3
  1

  0
LINE
  5
141
100
AcDbEntity
  8
0
  6
DASHED
 62
             200
100
AcDbLine
 10
-20.25
 20
0.0
 30
0.0
 11
-20.25
 21
1.2000000000000028
 31
0.0
  0
LINE
  5
142
100
AcDbEntity
  8
0
  6
DASHED
 62
             200
100
AcDbLine
 10
-23.75
 20
0.0
 30
0.0
 11
-23.75
 21
1.2000000000000028
 31
0.0
  0
LINE
  5
143
100
AcDbEntity
  8
0
  6
DASHED
 62
             200
100
AcDbLine
 10
1.75
 20
0.0
 30
0.0
 11
1.75
 21
1.2000000000000028
 31
0.0
  0
LINE
  5
144
100
AcDbEntity
  8
0
  6
DASHED
 62
             200
100
AcDbLine
 10
-1.75
 20
0.0
 30
0.0
 11
-1.75
 21
1.2000000000000028
 31
0.0
  0
LINE
  5
145
100
AcDbEntity
  8
0
  6
CONTINUOUS
 62
               4
100
AcDbLine
 10
-5.6999999999999886
 20
5.0
 30
0.0
 11
-16.299999999999955
 21
5.0
 31
0.0
  0
LINE
  5
146
100
AcDbEntity
  8
0
  6
CONTINUOUS
 62
               4
100
AcDbLine
 10
-22.0
 20
0.0
 30
0.0
 11
-22.0
 21
1.2000000000000028
 31
0.0
  0
LINE
  5
147
100
AcDbEntity
  8
0
  6
CONTINUOUS
 62
               4
100
AcDbLine
 10
0.0
 20
0.0
 30
0.0
 11
0.0
 21
1.2000000000000028
 31
0.0
  0
LINE
  5
148
100
AcDbEntity
  8
0
  6
CONTINUOUS
 62
               4
100
AcDbLine
 10
-5.5
 20
1.4000000000000057
 30
0.0
 11
-5.5
 21
3.5999999999999943
 31
0.0
  0
LINE
  5
149
100
AcDbEntity
  8
0
  6
CONTINUOUS
 62
               4
100
AcDbLine
 10
-4.3000000000000114
 20
1.4000000000000057
 30
0.0
 11
-4.3000000000000114
 21
3.5999999999999943
 31
0.0
  0
ARC
  5
14A
100
AcDbEntity
  8
0
  6
CONTINUOUS
 62
               4
100
AcDbCircle
 10
-4.1008966664051627
 20
1.3991033335948089
 30
0.0
 40
1.3991036209254675
100
AcDbArc
 50
179.96327991479848
 51
270.03672008520033
  0
ARC
  5
14B
100
AcDbEntity
  8
0
  6
CONTINUOUS
 62
               4
100
AcDbCircle
 10
-4.1008966599537757
 20
1.3991033400461959
 30
0.0
 40
0.1991053590856348
100
AcDbArc
 50
179.74197075907335
 51
270.25802924092562
  0
LINE
  5
14C
100
AcDbEntity
  8
0
  6
CONTINUOUS
 62
               4
100
AcDbLine
 10
-4.0999999999999659
 20
0.0
 30
0.0
 11
3.0
 21
0.0
 31
0.0
  0
LINE
  5
14D
100
AcDbEntity
  8
0
  6
CONTINUOUS
 62
               4
100
AcDbLine
 10
-4.0999999999999659
 20
1.2000000000000028
 30
0.0
 11
3.0
 21
1.2000000000000028
 31
0.0
  0
LINE
  5
14E
100
AcDbEntity
  8
0
  6
CONTINUOUS
 62
               4
100
AcDbLine
 10
3.0
 20
0.0
 30
0.0
 11
3.0
 21
1.2000000000000028
 31
0.0
  0
ARC
  5
14F
100
AcDbEntity
  8
0
  6
CONTINUOUS
 62
               4
100
AcDbCircle
 10
-6.5847799240333984
 20
3.2665835360522806
 30
0.0
 40
0.6147802009733803
100
AcDbArc
 50
286.12836199114588
 51
359.94561607879228
  0
ARC
  5
150
100
AcDbEntity
  8
0
  6
CONTINUOUS
 62
               4
100
AcDbCircle
 10
-8.8161606354035484
 20
3.2652966087315747
 30
0.0
 40
0.6138397676001843
100
AcDbArc
 50
179.93434547259068
 51
253.74327317895529
  0
ARC
  5
151
100
AcDbEntity
  8
0
  6
CONTINUOUS
 62
               4
100
AcDbCircle
 10
-7.700999999999965
 20
7.1068760988772226
 30
0.0
 40
4.6140039015589682
100
AcDbArc
 50
253.80344035262561
 51
286.19655964737319
  0
ARC
  5
152
100
AcDbEntity
  8
0
  6
CONTINUOUS
 62
               4
100
AcDbCircle
 10
-13.184777973164046
 20
3.2665820679404334
 30
0.0
 40
0.6147782487131708
100
AcDbArc
 50
286.12822533946951
 51
359.94575273046883
  0
ARC
  5
153
100
AcDbEntity
  8
0
  6
CONTINUOUS
 62
               4
100
AcDbCircle
 10
-15.416158681253251
 20
3.265298072688239
 30
0.0
 40
0.613841720073419
100
AcDbArc
 50
179.93448232673219
 51
253.74313632481389
  0
ARC
  5
154
100
AcDbEntity
  8
0
  6
CONTINUOUS
 62
               4
100
AcDbCircle
 10
-14.300999999999988
 20
7.1068760989089554
 30
0.0
 40
4.6140039015894576
100
AcDbArc
 50
253.80344035273558
 51
286.19655964726314
  0
ARC
  5
155
100
AcDbEntity
  8
0
  6
CONTINUOUS
 62
               4
100
AcDbCircle
 10
-17.900056684609865
 20
1.4000566846098934
 30
0.0
 40
1.4000566857574084
100
AcDbArc
 50
270.00231975529556
 51
359.99768024470291
  0
ARC
  5
156
100
AcDbEntity
  8
0
  6
CONTINUOUS
 62
               4
100
AcDbCircle
 10
-16.30006664106736
 20
3.6000666410673574
 30
0.0
 40
0.1999333700389205
100
AcDbArc
 50
89.980902377767208
 51
180.01909762223218
  0
ARC
  5
157
100
AcDbEntity
  8
0
  6
CONTINUOUS
 62
               4
100
AcDbCircle
 10
-5.7008844716972931
 20
3.5991155283026899
 30
0.0
 40
0.2008864188024893
100
AcDbArc
 50
0.2522652321918488
 51
89.747734767807131
  0
ARC
  5
158
100
AcDbEntity
  8
0
  6
CONTINUOUS
 62
               4
100
AcDbCircle
 10
-17.900058413382624
 20
1.4000584133826379
 30
0.0
 40
0.2000584219104543
100
AcDbArc
 50
270.01672931490481
 51
359.98327068509366
  0
LINE
  5
159
100
AcDbEntity
  8
0
  6
CONTINUOUS
 62
               4
100
AcDbLine
 10
-5.9699999999999704
 20
3.2660000000000053
 30
0.0
 11
-5.9699999999999704
 21
3.7999999999999972
 31
0.0
  0
LINE
  5
15A
100
AcDbEntity
  8
0
  6
CONTINUOUS
 62
               4
100
AcDbLine
 10
-9.4300000000000068
 20
3.2660000000000053
 30
0.0
 11
-9.4300000000000068
 21
3.7999999999999972
 31
0.0
  0
LINE
  5
15B
100
AcDbEntity
  8
0
  6
CONTINUOUS
 62
               4
100
AcDbLine
 10
-12.569999999999993
 20
3.2660000000000053
 30
0.0
 11
-12.569999999999993
 21
3.7999999999999972
 31
0.0
  0
LINE
  5
15C
100
AcDbEntity
  8
0
  6
CONTINUOUS
 62
               4
100
AcDbLine
 10
-16.029999999999973
 20
3.2660000000000053
 30
0.0
 11
-16.029999999999973
 21
3.7999999999999972
 31
0.0
  0
LINE
  5
15D
100
AcDbEntity
  8
0
  6
CONTINUOUS
 62
               4
100
AcDbLine
 10
-17.699999999999989
 20
1.4000000000000057
 30
0.0
 11
-17.699999999999989
 21
3.5999999999999943
 31
0.0
  0
LINE
  5
15E
100
AcDbEntity
  8
0
  6
CONTINUOUS
 62
               4
100
AcDbLine
 10
-16.5
 20
1.4000000000000057
 30
0.0
 11
-16.5
 21
3.5999999999999943
 31
0.0
  0
LINE
  5
15F
100
AcDbEntity
  8
0
  6
CONTINUOUS
 62
               4
100
AcDbLine
 10
-16.299999999999955
 20
3.7999999999999972
 30
0.0
 11
-5.6999999999999886
 21
3.7999999999999972
 31
0.0
  0
LINE
  5
160
100
AcDbEntity
  8
0
  6
CONTINUOUS
 62
               4
100
AcDbLine
 10
-25.0
 20
0.0
 30
0.0
 11
-25.0
 21
1.2000000000000028
 31
0.0
  0
LINE
  5
161
100
AcDbEntity
  8
0
  6
CONTINUOUS
 62
               4
100
AcDbLine
 10
-25.0
 20
0.0
 30
0.0
 11
-17.899999999999977
 21
0.0
 31
0.0
  0
LINE
  5
162
100
AcDbEntity
  8
0
  6
CONTINUOUS
 62
               4
100
AcDbLine
 10
-25.0
 20
1.2000000000000028
 30
0.0
 11
-17.899999999999977
 21
1.2000000000000028
 31
0.0
  0
LINE
  5
163
100
AcDbEntity
  8
0
  6
CENTER
 62
             200
100
AcDbLine
 10
-22.0
 20
-2.4438717557984795
 30
0.0
 11
-22.0
 21
3.7999999999999972
 31
0.0
  0
LINE
  5
164
100
AcDbEntity
  8
0
  6
CENTER
 62
             200
100
AcDbLine
 10
0.0
 20
-2.4438717557984795
 30
0.0
 11
0.0
 21
3.7999999999999972
 31
0.0
  0
ARC
  5
165
100
AcDbEntity
  8
0
  6
CONTINUOUS
 62
               4
100
AcDbCircle
 10
-16.300068323168489
 20
3.6000683231685144
 30
0.0
 40
1.3999316784987346
100
AcDbArc
 50
89.997203699822904
 51
180.00279630017653
  0
ARC
  5
166
100
AcDbEntity
  8
0
  6
CONTINUOUS
 62
               4
100
AcDbCircle
 10
-5.7008844620561376
 20
3.5991155379438453
 30
0.0
 40
1.4008847412629901
100
AcDbArc
 50
0.0361742439122946
 51
89.963825756087459
  0
LINE
  5
167
100
AcDbEntity
  8
0
  6
CONTINUOUS
 62
               7
100
AcDbLine
 10
-16.0
 20
39.199999999999996
 30
0.0
 11
-16.0
 21
6.5
 31
0.0
  0
LINE
  5
168
100
AcDbEntity
  8
0
  6
CONTINUOUS
 62
               7
100
AcDbLine
 10
-6.0
 20
39.199999999999996
 30
0.0
 11
-6.0
 21
5.3999999999999986
 31
0.0
  0
LINE
  5
169
100
AcDbEntity
  8
0
  6
CENTER
 62
               2
100
AcDbLine
 10
-13.0
 20
32.000000000000007
 30
0.0
 11
-9.0
 21
32.000000000000007
 31
0.0
  0
LINE
  5
16A
100
AcDbEntity
  8
0
  6
CONTINUOUS
 62
               7
100
AcDbLine
 10
-15.599999999999994
 20
5.0
 30
0.0
 11
-6.3999999999999773
 21
5.0
 31
0.0
  0
LINE
  5
16B
100
AcDbEntity
  8
0
  6
CONTINUOUS
 62
               7
100
AcDbLine
 10
-16.049999999999983
 20
6.5
 30
0.0
 11
-12.699999999999989
 21
6.5
 31
0.0
  0
LINE
  5
16C
100
AcDbEntity
  8
0
  6
CONTINUOUS
 62
               7
100
AcDbLine
 10
-12.5
 20
6.2999999999999972
 30
0.0
 11
-12.5
 21
5.2000000000000028
 31
0.0
  0
LINE
  5
16D
100
AcDbEntity
  8
0
  6
CONTINUOUS
 62
               7
100
AcDbLine
 10
-12.549999999999983
 20
5.9699999999999989
 30
0.0
 11
-12.549999999999983
 21
6.4399999999999977
 31
0.0
  0
LINE
  5
16E
100
AcDbEntity
  8
0
  6
CONTINUOUS
 62
               7
100
AcDbLine
 10
-16.049999999999983
 20
5.9699999999999989
 30
0.0
 11
-16.049999999999983
 21
6.5
 31
0.0
  0
LINE
  5
16F
100
AcDbEntity
  8
0
  6
CONTINUOUS
 62
               7
100
AcDbLine
 10
-16.0
 20
5.769999999999996
 30
0.0
 11
-16.0
 21
5.3999999999999986
 31
0.0
  0
ARC
  5
170
100
AcDbEntity
  8
0
  6
CONTINUOUS
 62
               7
100
AcDbCircle
 10
-6.4000289919349598
 20
5.4000289919349598
 30
0.0
 40
0.4000289929855506
100
AcDbArc
 50
270.00415248780246
 51
359.9958475121951
  0
ARC
  5
171
100
AcDbEntity
  8
0
  6
CONTINUOUS
 62
               7
100
AcDbCircle
 10
-14.294999999999987
 20
8.4000340043866331
 30
0.0
 40
3.1971731429200378
100
AcDbArc
 50
241.51140199559862
 51
298.48859800440022
  0
ARC
  5
172
100
AcDbEntity
  8
0
  6
CONTINUOUS
 62
               7
100
AcDbCircle
 10
-12.300016783684242
 20
5.1999832163157365
 30
0.0
 40
0.1999832170200287
100
AcDbArc
 50
179.99519142511818
 51
270.0048085748798
  0
ARC
  5
173
100
AcDbEntity
  8
0
  6
CONTINUOUS
 62
               7
100
AcDbCircle
 10
-12.700010682136053
 20
6.2999893178639468
 30
0.0
 40
0.2000106824213093
100
AcDbArc
 50
0.0030600431187336
 51
89.996939956878265
  0
ARC
  5
174
100
AcDbEntity
  8
0
  6
CONTINUOUS
 62
               7
100
AcDbCircle
 10
-12.976445156839645
 20
5.9632050908019067
 30
0.0
 40
0.4264992879044646
100
AcDbArc
 50
298.94996978217108
 51
0.9128645741037794
  0
ARC
  5
175
100
AcDbEntity
  8
0
  6
CONTINUOUS
 62
               7
100
AcDbCircle
 10
-15.625943992559655
 20
5.9670602150296759
 30
0.0
 40
0.4240661974054504
100
AcDbArc
 50
179.60280111535411
 51
242.76714820211964
  0
ARC
  5
176
100
AcDbEntity
  8
0
  6
CONTINUOUS
 62
               7
100
AcDbCircle
 10
-15.600012206088252
 20
5.3999877939117127
 30
0.0
 40
0.3999877940979543
100
AcDbArc
 50
179.99825155328804
 51
270.00174844670897
  0
LINE
  5
177
100
AcDbEntity
  8
0
  6
CENTER
 62
               2
100
AcDbLine
 10
-13.307660424194353
 20
25.500000000000007
 30
0.0
 11
-8.6923395758056472
 21
25.500000000000007
 31
0.0
  0
LINE
  5
178
100
AcDbEntity
  8
0
  6
CONTINUOUS
 62
               7
100
AcDbLine
 10
-6.0
 20
10.0
 30
0.0
 11
-15.999999999999972
 21
10.0
 31
0.0
  0
LINE
  5
179
100
AcDbEntity
  8
0
  6
CONTINUOUS
 62
               7
100
AcDbLine
 10
-6.0
 20
28.200000000000024
 30
0.0
 11
-15.999999999999972
 21
28.200000000000024
 31
0.0
  0
CIRCLE
  5
17A
100
AcDbEntity
  8
0
  6
CONTINUOUS
 62
               7
100
AcDbCircle
 10
-7.2999999999999829
 20
23.90000000000002
 30
0.0
 40
1.0
  0
LINE
  5
17B
100
AcDbEntity
  8
0
  6
CENTER
 62
               2
100
AcDbLine
 10
-7.2999999999999829
 20
22.241795658711837
 30
0.0
 11
-7.2999999999999829
 21
25.550745803814301
 31
0.0
  0
LINE
  5
17C
100
AcDbEntity
  8
0
  6
CENTER
 62
               2
100
AcDbLine
 10
-5.7858293132156291
 20
23.90000000000002
 30
0.0
 11
-8.7477988131531674
 21
23.90000000000002
 31
0.0
  0
CIRCLE
  5
17D
100
AcDbEntity
  8
0
  6
CONTINUOUS
 62
               7
100
AcDbCircle
 10
-14.699999999999989
 20
14.300000000000011
 30
0.0
 40
1.0
  0
LINE
  5
17E
100
AcDbEntity
  8
0
  6
CENTER
 62
               2
100
AcDbLine
 10
-13.109583850853738
 20
14.300000000000011
 30
0.0
 11
-16.159835173536891
 21
14.300000000000011
 31
0.0
  0
LINE
  5
17F
100
AcDbEntity
  8
0
  6
CENTER
 62
               2
100
AcDbLine
 10
-14.699999999999989
 20
12.799538601437746
 30
0.0
 11
-14.699999999999989
 21
15.781575310886097
 31
0.0
  0
CIRCLE
  5
180
100
AcDbEntity
  8
0
  6
CONTINUOUS
 62
               2
100
AcDbCircle
 10
-11.0
 20
19.100000000000009
 30
0.0
 40
1.5
  0
CIRCLE
  5
181
100
AcDbEntity
  8
0
  6
CONTINUOUS
 62
               7
100
AcDbCircle
 10
-11.0
 20
19.100000000000009
 30
0.0
 40
1.25
  0
CIRCLE
  5
182
100
AcDbEntity
  8
0
  6
CONTINUOUS
 62
               7
100
AcDbCircle
 10
-11.0
 20
25.500000000000007
 30
0.0
 40
1.25
  0
CIRCLE
  5
183
100
AcDbEntity
  8
0
  6
CONTINUOUS
 62
               7
100
AcDbCircle
 10
-11.0
 20
12.700000000000017
 30
0.0
 40
1.25
  0
CIRCLE
  5
184
100
AcDbEntity
  8
0
  6
CONTINUOUS
 62
               2
100
AcDbCircle
 10
-11.0
 20
25.500000000000007
 30
0.0
 40
1.5
  0
CIRCLE
  5
185
100
AcDbEntity
  8
0
  6
CONTINUOUS
 62
               2
100
AcDbCircle
 10
-11.0
 20
12.700000000000017
 30
0.0
 40
1.5
  0
LINE
  5
186
100
AcDbEntity
  8
0
  6
CENTER
 62
               2
100
AcDbLine
 10
-8.6923395758056472
 20
12.700000000000017
 30
0.0
 11
-13.307660424194353
 21
12.700000000000017
 31
0.0
  0
LINE
  5
187
100
AcDbEntity
  8
0
  6
CENTER
 62
               2
100
AcDbLine
 10
-8.6923395758056472
 20
19.100000000000009
 30
0.0
 11
-13.307660424194353
 21
19.100000000000009
 31
0.0
  0
LINE
  5
188
100
AcDbEntity
  8
0
  6
CENTER
 62
               2
100
AcDbLine
 10
-11.0
 20
64.94327081311917
 30
0.0
 11
-11.0
 21
2.7920000000000087
 31
0.0
  0
LINE
  5
189
100
AcDbEntity
  8
0
  6
CONTINUOUS
 62
               4
100
AcDbLine
 10
-6.0
 20
61.699999999999996
 30
0.0
 11
-16.0
 21
61.699999999999996
 31
0.0
  0
LINE
  5
18A
100
AcDbEntity
  8
0
  6
CONTINUOUS
 62
               4
100
AcDbLine
 10
-6.0
 20
60.100000000000001
 30
0.0
 11
-9.1999999999999886
 21
60.100000000000001
 31
0.0
  0
LINE
  5
18B
100
AcDbEntity
  8
0
  6
CONTINUOUS
 62
               4
100
AcDbLine
 10
-9.1999999999999886
 20
61.600000000000001
 30
0.0
 11
-15.5
 21
61.600000000000001
 31
0.0
  0
LINE
  5
18C
100
AcDbEntity
  8
0
  6
CONTINUOUS
 62
               4
100
AcDbLine
 10
-9.1999999999999886
 20
61.600000000000001
 30
0.0
 11
-9.1999999999999886
 21
60.100000000000001
 31
0.0
  0
ARC
  5
18D
100
AcDbEntity
  8
0
  6
CONTINUOUS
 62
               4
100
AcDbCircle
 10
-15.5
 20
61.100000000000001
 30
0.0
 40
0.5
100
AcDbArc
 50
89.999999999999815
 51
179.99999999999963
  0
LINE
  5
18E
100
AcDbEntity
  8
0
  6
CONTINUOUS
 62
               4
100
AcDbLine
 10
-6.0
 20
61.100000000000001
 30
0.0
 11
-9.1999999999999886
 21
61.100000000000001
 31
0.0
  0
ARC
  5
18F
100
AcDbEntity
  8
0
  6
CONTINUOUS
 62
               4
100
AcDbCircle
 10
-6.7959048533417672
 20
61.10009514665817
 30
0.0
 40
0.5999048608870732
100
AcDbArc
 50
359.99091272245295
 51
90.009087277546172
  0
ARC
  5
190
100
AcDbEntity
  8
0
  6
CONTINUOUS
 62
               4
100
AcDbCircle
 10
-8.5970880052370262
 20
61.101088005236996
 30
0.0
 40
0.5989129830170392
100
AcDbArc
 50
89.895914524772735
 51
180.10408547522667
  0
CIRCLE
  5
191
100
AcDbEntity
  8
0
  6
CONTINUOUS
 62
               7
100
AcDbCircle
 10
-11.000018310546864
 20
32.000018310546871
 30
0.0
 40
0.8999999761581421
  0
LINE
  5
192
100
AcDbEntity
  8
0
  6
CONTINUOUS
 62
               4
100
AcDbLine
 10
-16.0
 20
61.699999999999996
 30
0.0
 11
-16.0
 21
39.199999999999996
 31
0.0
  0
LINE
  5
193
100
AcDbEntity
  8
0
  6
CONTINUOUS
 62
               4
100
AcDbLine
 10
-6.0
 20
61.699999999999996
 30
0.0
 11
-6.0
 21
39.199999999999996
 31
0.0
  0
LINE
  5
194
100
AcDbEntity
  8
0
  6
CONTINUOUS
 62
               7
100
AcDbLine
 10
-16.0
 20
39.199999999999996
 30
0.0
 11
-6.0
 21
39.199999999999996
 31
0.0
  0
ENDBLK
  5
195
100
AcDbEntity
  8
0
100
AcDbBlockEnd
  0
BLOCK
  5
196
100
AcDbEntity
  8
0
100
AcDbBlockBegin
  2
EA10F5-4
 70
               0
 10
0.0
 20
0.0
 30
0.0
  3
EA10F5-4
  1

  0
LINE
  5
197
100
AcDbEntity
  8
0
  6
CENTER
 62
             200
100
AcDbLine
 10
1.75
 20
0.0
 30
0.0
 11
1.75
 21
1.2000000000000028
 31
0.0
  0
LINE
  5
198
100
AcDbEntity
  8
0
  6
CENTER
 62
             200
100
AcDbLine
 10
-1.75
 20
0.0
 30
0.0
 11
-1.75
 21
1.2000000000000028
 31
0.0
  0
LINE
  5
199
100
AcDbEntity
  8
0
  6
CENTER
 62
             200
100
AcDbLine
 10
23.75
 20
0.0
 30
0.0
 11
23.75
 21
1.2000000000000028
 31
0.0
  0
LINE
  5
19A
100
AcDbEntity
  8
0
  6
CENTER
 62
             200
100
AcDbLine
 10
20.25
 20
0.0
 30
0.0
 11
20.25
 21
1.2000000000000028
 31
0.0
  0
LINE
  5
19B
100
AcDbEntity
  8
0
  6
CENTER
 62
             200
100
AcDbLine
 10
22.0
 20
-2.443871755798483
 30
0.0
 11
22.0
 21
3.7999999999999972
 31
0.0
  0
LINE
  5
19C
100
AcDbEntity
  8
0
  6
CENTER
 62
             200
100
AcDbLine
 10
0.0
 20
-2.443871755798483
 30
0.0
 11
0.0
 21
3.7999999999999972
 31
0.0
  0
CIRCLE
  5
19D
100
AcDbEntity
  8
0
  6
CONTINUOUS
 62
               7
100
AcDbCircle
 10
7.3000000000000114
 20
23.899999999999991
 30
0.0
 40
1.0
  0
ARC
  5
19E
100
AcDbEntity
  8
0
  6
CONTINUOUS
 62
               7
100
AcDbCircle
 10
7.3000000000000114
 20
23.899999999999991
 30
0.0
 40
1.6499999999999999
100
AcDbArc
 50
269.99999999999937
 51
89.999999999999801
  0
LINE
  5
19F
100
AcDbEntity
  8
0
  6
CONTINUOUS
 62
               7
100
AcDbLine
 10
7.3000000000000114
 20
25.549999999999983
 30
0.0
 11
6.0
 21
25.549999999999983
 31
0.0
  0
LINE
  5
1A0
100
AcDbEntity
  8
0
  6
CONTINUOUS
 62
               7
100
AcDbLine
 10
7.3000000000000114
 20
22.249999999999986
 30
0.0
 11
6.0
 21
22.249999999999986
 31
0.0
  0
LINE
  5
1A1
100
AcDbEntity
  8
0
  6
CENTER
 62
               2
100
AcDbLine
 10
15.178166284015219
 20
22.299999999999997
 30
0.0
 11
10.821833715984781
 21
22.299999999999997
 31
0.0
  0
ARC
  5
1A2
100
AcDbEntity
  8
0
  6
CONTINUOUS
 62
               7
100
AcDbCircle
 10
6.5905539681090772
 20
6.2682512686530458
 30
0.0
 40
0.6105564724372722
100
AcDbArc
 50
179.83589550320582
 51
253.77907243150949
  0
LINE
  5
1A3
100
AcDbEntity
  8
0
  6
CONTINUOUS
 62
               7
100
AcDbLine
 10
15.800000000000011
 20
5.0
 30
0.0
 11
6.1999999999999886
 21
5.0
 31
0.0
  0
LINE
  5
1A4
100
AcDbEntity
  8
0
  6
CONTINUOUS
 62
               7
100
AcDbLine
 10
5.9800000000000182
 20
6.8000000000000114
 30
0.0
 11
9.5
 21
6.8000000000000114
 31
0.0
  0
ARC
  5
1A5
100
AcDbEntity
  8
0
  6
CONTINUOUS
 62
               7
100
AcDbCircle
 10
6.2991048631411104
 20
7.0991048631411218
 30
0.0
 40
0.2991062025847394
100
AcDbArc
 50
179.82853033398985
 51
270.17146966600922
  0
ARC
  5
1A6
100
AcDbEntity
  8
0
  6
CONTINUOUS
 62
               7
100
AcDbCircle
 10
6.1999999999999886
 20
5.1999999999999886
 30
0.0
 40
0.2
100
AcDbArc
 50
179.99999999999963
 51
269.99999999999937
  0
LINE
  5
1A7
100
AcDbEntity
  8
0
  6
CONTINUOUS
 62
               7
100
AcDbLine
 10
9.5
 20
5.0
 30
0.0
 11
9.5
 21
6.8000000000000114
 31
0.0
  0
ARC
  5
1A8
100
AcDbEntity
  8
0
  6
CONTINUOUS
 62
               7
100
AcDbCircle
 10
7.6999999999999886
 20
10.087421236733974
 30
0.0
 40
4.5876068132596712
100
AcDbArc
 50
253.79871892415684
 51
286.20128107584191
  0
ARC
  5
1A9
100
AcDbEntity
  8
0
  6
CONTINUOUS
 62
               7
100
AcDbCircle
 10
8.8082280041660965
 20
6.2691627179709997
 30
0.0
 40
0.6117725687931934
100
AcDbArc
 50
286.30661609184898
 51
0.0784159734340139
  0
LINE
  5
1AA
100
AcDbEntity
  8
0
  6
CONTINUOUS
 62
               7
100
AcDbLine
 10
9.4200000000000159
 20
6.2700000000000387
 30
0.0
 11
9.4200000000000159
 21
6.8000000000000114
 31
0.0
  0
LINE
  5
1AB
100
AcDbEntity
  8
0
  6
CONTINUOUS
 62
               7
100
AcDbLine
 10
6.0
 20
5.1999999999999886
 30
0.0
 11
6.0
 21
6.1132505693459507
 31
0.0
  0
LINE
  5
1AC
100
AcDbEntity
  8
0
  6
CONTINUOUS
 62
               7
100
AcDbLine
 10
5.9800000000000182
 20
6.2700000000000387
 30
0.0
 11
5.9800000000000182
 21
6.8000000000000114
 31
0.0
  0
ARC
  5
1AD
100
AcDbEntity
  8
0
  6
CONTINUOUS
 62
               7
100
AcDbCircle
 10
15.800000000000011
 20
5.1999999999999886
 30
0.0
 40
0.2
100
AcDbArc
 50
269.99999999999937
 51
0.0
  0
LINE
  5
1AE
100
AcDbEntity
  8
0
  6
CONTINUOUS
 62
               7
100
AcDbLine
 10
16.0
 20
10.0
 30
0.0
 11
6.0
 21
10.0
 31
0.0
  0
LINE
  5
1AF
100
AcDbEntity
  8
0
  6
CENTER
 62
               2
100
AcDbLine
 10
14.699999999999989
 20
12.121833715984778
 30
0.0
 11
14.699999999999989
 21
16.478166284015217
 31
0.0
  0
CIRCLE
  5
1B0
100
AcDbEntity
  8
0
  6
CONTINUOUS
 62
               7
100
AcDbCircle
 10
14.699999999999989
 20
14.299999999999997
 30
0.0
 40
1.0
  0
LINE
  5
1B1
100
AcDbEntity
  8
0
  6
CENTER
 62
               2
100
AcDbLine
 10
11.178166284015219
 20
15.899999999999991
 30
0.0
 11
6.8218337159847806
 21
15.899999999999991
 31
0.0
  0
CIRCLE
  5
1B2
100
AcDbEntity
  8
0
  6
CONTINUOUS
 62
               2
100
AcDbCircle
 10
9.0026882635082188
 20
15.89220429755737
 30
0.0
 40
1.5
  0
CIRCLE
  5
1B3
100
AcDbEntity
  8
0
  6
CONTINUOUS
 62
               7
100
AcDbCircle
 10
9.0026882635082188
 20
15.89220429755737
 30
0.0
 40
1.25
  0
LINE
  5
1B4
100
AcDbEntity
  8
0
  6
CENTER
 62
               2
100
AcDbLine
 10
9.0
 20
13.721833715984772
 30
0.0
 11
9.0
 21
18.078166284015211
 31
0.0
  0
ARC
  5
1B5
100
AcDbEntity
  8
0
  6
CONTINUOUS
 62
               7
100
AcDbCircle
 10
14.699999999999989
 20
14.299999999999997
 30
0.0
 40
1.6499999999999999
100
AcDbArc
 50
89.999999999999815
 51
269.99999999999937
  0
LINE
  5
1B6
100
AcDbEntity
  8
0
  6
CONTINUOUS
 62
               7
100
AcDbLine
 10
14.699999999999989
 20
15.949999999999989
 30
0.0
 11
16.0
 21
15.949999999999989
 31
0.0
  0
LINE
  5
1B7
100
AcDbEntity
  8
0
  6
CONTINUOUS
 62
               7
100
AcDbLine
 10
14.699999999999989
 20
12.649999999999991
 30
0.0
 11
16.0
 21
12.649999999999991
 31
0.0
  0
LINE
  5
1B8
100
AcDbEntity
  8
0
  6
CENTER
 62
               2
100
AcDbLine
 10
7.3000000000000114
 20
21.721833715984758
 30
0.0
 11
7.3000000000000114
 21
26.078166284015197
 31
0.0
  0
LINE
  5
1B9
100
AcDbEntity
  8
0
  6
CENTER
 62
               2
100
AcDbLine
 10
13.0
 20
20.121833715984778
 30
0.0
 11
13.0
 21
24.478166284015217
 31
0.0
  0
CIRCLE
  5
1BA
100
AcDbEntity
  8
0
  6
CONTINUOUS
 62
               7
100
AcDbCircle
 10
13.0
 20
22.299999999999997
 30
0.0
 40
1.25
  0
CIRCLE
  5
1BB
100
AcDbEntity
  8
0
  6
CONTINUOUS
 62
               2
100
AcDbCircle
 10
13.0
 20
22.299999999999997
 30
0.0
 40
1.5
  0
LINE
  5
1BC
100
AcDbEntity
  8
0
  6
CONTINUOUS
 62
               7
100
AcDbLine
 10
16.0
 20
5.1999999999999886
 30
0.0
 11
16.0
 21
28.199999999999989
 31
0.0
  0
LINE
  5
1BD
100
AcDbEntity
  8
0
  6
CONTINUOUS
 62
               7
100
AcDbLine
 10
6.0
 20
6.8000000000000114
 30
0.0
 11
6.0
 21
28.199999999999989
 31
0.0
  0
LINE
  5
1BE
100
AcDbEntity
  8
0
  6
CONTINUOUS
 62
               7
100
AcDbLine
 10
16.0
 20
28.199999999999989
 30
0.0
 11
6.0
 21
28.199999999999989
 31
0.0
  0
CIRCLE
  5
1BF
100
AcDbEntity
  8
0
  6
CONTINUOUS
 62
               7
100
AcDbCircle
 10
11.0
 20
36.900000000000006
 30
0.0
 40
0.75
  0
CIRCLE
  5
1C0
100
AcDbEntity
  8
0
  6
CONTINUOUS
 62
               7
100
AcDbCircle
 10
11.0
 20
36.900000000000006
 30
0.0
 40
1.1000000000000001
  0
CIRCLE
  5
1C1
100
AcDbEntity
  8
0
  6
CONTINUOUS
 62
               7
100
AcDbCircle
 10
11.0
 20
36.900000000000006
 30
0.0
 40
1.1500000000000001
  0
CIRCLE
  5
1C2
100
AcDbEntity
  8
0
  6
CONTINUOUS
 62
               7
100
AcDbCircle
 10
11.0
 20
36.900000000000006
 30
0.0
 40
1.3000000000000012
  0
LINE
  5
1C3
100
AcDbEntity
  8
0
  6
CENTER
 62
               2
100
AcDbLine
 10
12.699999999999989
 20
36.900000000000006
 30
0.0
 11
9.3000000000000114
 21
36.900000000000006
 31
0.0
  0
ARC
  5
1C4
100
AcDbEntity
  8
0
  6
CONTINUOUS
 62
               7
100
AcDbCircle
 10
11.0
 20
35.199999999999989
 30
0.0
 40
2.0
100
AcDbArc
 50
179.99999999999963
 51
0.0
  0
LINE
  5
1C5
100
AcDbEntity
  8
0
  6
CONTINUOUS
 62
               7
100
AcDbLine
 10
13.0
 20
35.199999999999989
 30
0.0
 11
13.0
 21
39.199999999999989
 31
0.0
  0
LINE
  5
1C6
100
AcDbEntity
  8
0
  6
CONTINUOUS
 62
               7
100
AcDbLine
 10
9.0
 20
35.199999999999989
 30
0.0
 11
9.0
 21
39.199999999999989
 31
0.0
  0
LINE
  5
1C7
100
AcDbEntity
  8
0
  6
CONTINUOUS
 62
               7
100
AcDbLine
 10
16.0
 20
28.199999999999989
 30
0.0
 11
16.0
 21
39.199999999999989
 31
0.0
  0
LINE
  5
1C8
100
AcDbEntity
  8
0
  6
CONTINUOUS
 62
               7
100
AcDbLine
 10
6.0
 20
28.199999999999989
 30
0.0
 11
6.0
 21
39.199999999999989
 31
0.0
  0
LINE
  5
1C9
100
AcDbEntity
  8
0
  6
CONTINUOUS
 62
               7
100
AcDbLine
 10
16.0
 20
39.199999999999989
 30
0.0
 11
6.0
 21
39.199999999999989
 31
0.0
  0
LINE
  5
1CA
100
AcDbEntity
  8
0
  6
CONTINUOUS
 62
               4
100
AcDbLine
 10
-3.0
 20
1.2000000000000028
 30
0.0
 11
4.1000000000000227
 21
1.2000000000000028
 31
0.0
  0
LINE
  5
1CB
100
AcDbEntity
  8
0
  6
CONTINUOUS
 62
               4
100
AcDbLine
 10
-3.0
 20
0.0
 30
0.0
 11
4.1000000000000227
 21
0.0
 31
0.0
  0
LINE
  5
1CC
100
AcDbEntity
  8
0
  6
CONTINUOUS
 62
               4
100
AcDbLine
 10
-3.0
 20
0.0
 30
0.0
 11
-3.0
 21
1.2000000000000028
 31
0.0
  0
LINE
  5
1CD
100
AcDbEntity
  8
0
  6
CONTINUOUS
 62
               4
100
AcDbLine
 10
5.6999999999999886
 20
3.7999999999999972
 30
0.0
 11
16.300000000000011
 21
3.7999999999999972
 31
0.0
  0
LINE
  5
1CE
100
AcDbEntity
  8
0
  6
CONTINUOUS
 62
               4
100
AcDbLine
 10
5.5
 20
1.4000000000000057
 30
0.0
 11
5.5
 21
3.5999999999999943
 31
0.0
  0
LINE
  5
1CF
100
AcDbEntity
  8
0
  6
CONTINUOUS
 62
               4
100
AcDbLine
 10
4.3000000000000114
 20
1.4000000000000057
 30
0.0
 11
4.3000000000000114
 21
3.5999999999999943
 31
0.0
  0
LINE
  5
1D0
100
AcDbEntity
  8
0
  6
CONTINUOUS
 62
               4
100
AcDbLine
 10
5.9700000000000273
 20
3.2660000000000053
 30
0.0
 11
5.9700000000000273
 21
3.7999999999999972
 31
0.0
  0
LINE
  5
1D1
100
AcDbEntity
  8
0
  6
CONTINUOUS
 62
               4
100
AcDbLine
 10
9.4300000000000068
 20
3.2660000000000053
 30
0.0
 11
9.4300000000000068
 21
3.7999999999999972
 31
0.0
  0
LINE
  5
1D2
100
AcDbEntity
  8
0
  6
CONTINUOUS
 62
               4
100
AcDbLine
 10
12.569999999999993
 20
3.2660000000000053
 30
0.0
 11
12.569999999999993
 21
3.7999999999999972
 31
0.0
  0
LINE
  5
1D3
100
AcDbEntity
  8
0
  6
CONTINUOUS
 62
               4
100
AcDbLine
 10
16.03000000000003
 20
3.2660000000000053
 30
0.0
 11
16.03000000000003
 21
3.7999999999999972
 31
0.0
  0
ARC
  5
1D4
100
AcDbEntity
  8
0
  6
CONTINUOUS
 62
               4
100
AcDbCircle
 10
4.0999415866173763
 20
1.4000584133826379
 30
0.0
 40
0.2000584219104543
100
AcDbArc
 50
270.01672931490481
 51
359.98327068509366
  0
ARC
  5
1D5
100
AcDbEntity
  8
0
  6
CONTINUOUS
 62
               4
100
AcDbCircle
 10
16.299115528302707
 20
3.5991155283026899
 30
0.0
 40
0.2008864188024893
100
AcDbArc
 50
0.2522652321918488
 51
89.747734767807131
  0
ARC
  5
1D6
100
AcDbEntity
  8
0
  6
CONTINUOUS
 62
               4
100
AcDbCircle
 10
5.6999333589326397
 20
3.6000666410673574
 30
0.0
 40
0.1999333700389205
100
AcDbArc
 50
89.980902377767208
 51
180.01909762223218
  0
ARC
  5
1D7
100
AcDbEntity
  8
0
  6
CONTINUOUS
 62
               4
100
AcDbCircle
 10
4.099943315390135
 20
1.4000566846098934
 30
0.0
 40
1.4000566857574084
100
AcDbArc
 50
270.00231975529556
 51
359.99768024470291
  0
ARC
  5
1D8
100
AcDbEntity
  8
0
  6
CONTINUOUS
 62
               4
100
AcDbCircle
 10
7.6990000000000123
 20
7.1068760989089554
 30
0.0
 40
4.6140039015894576
100
AcDbArc
 50
253.80344035273558
 51
286.19655964726314
  0
ARC
  5
1D9
100
AcDbEntity
  8
0
  6
CONTINUOUS
 62
               4
100
AcDbCircle
 10
6.5838413187467495
 20
3.265298072688239
 30
0.0
 40
0.613841720073419
100
AcDbArc
 50
179.93448232673219
 51
253.74313632481389
  0
ARC
  5
1DA
100
AcDbEntity
  8
0
  6
CONTINUOUS
 62
               4
100
AcDbCircle
 10
8.8152220268358974
 20
3.2665820679404334
 30
0.0
 40
0.6147782487131708
100
AcDbArc
 50
286.12822533946951
 51
359.94575273046883
  0
ARC
  5
1DB
100
AcDbEntity
  8
0
  6
CONTINUOUS
 62
               4
100
AcDbCircle
 10
14.299000000000035
 20
7.1068760988772226
 30
0.0
 40
4.6140039015589682
100
AcDbArc
 50
253.80344035262561
 51
286.19655964737319
  0
ARC
  5
1DC
100
AcDbEntity
  8
0
  6
CONTINUOUS
 62
               4
100
AcDbCircle
 10
13.183839364596452
 20
3.2652966087315747
 30
0.0
 40
0.6138397676001843
100
AcDbArc
 50
179.93434547259068
 51
253.74327317895529
  0
ARC
  5
1DD
100
AcDbEntity
  8
0
  6
CONTINUOUS
 62
               4
100
AcDbCircle
 10
15.415220075966602
 20
3.2665835360522806
 30
0.0
 40
0.6147802009733803
100
AcDbArc
 50
286.12836199114588
 51
359.94561607879228
  0
LINE
  5
1DE
100
AcDbEntity
  8
0
  6
CONTINUOUS
 62
               4
100
AcDbLine
 10
25.0
 20
0.0
 30
0.0
 11
25.0
 21
1.2000000000000028
 31
0.0
  0
LINE
  5
1DF
100
AcDbEntity
  8
0
  6
CONTINUOUS
 62
               4
100
AcDbLine
 10
17.900000000000034
 20
1.2000000000000028
 30
0.0
 11
25.0
 21
1.2000000000000028
 31
0.0
  0
LINE
  5
1E0
100
AcDbEntity
  8
0
  6
CONTINUOUS
 62
               4
100
AcDbLine
 10
17.900000000000034
 20
0.0
 30
0.0
 11
25.0
 21
0.0
 31
0.0
  0
ARC
  5
1E1
100
AcDbEntity
  8
0
  6
CONTINUOUS
 62
               4
100
AcDbCircle
 10
17.899103340046224
 20
1.3991033400461959
 30
0.0
 40
0.1991053590856348
100
AcDbArc
 50
179.74197075907335
 51
270.25802924092562
  0
ARC
  5
1E2
100
AcDbEntity
  8
0
  6
CONTINUOUS
 62
               4
100
AcDbCircle
 10
17.899103333594837
 20
1.3991033335948089
 30
0.0
 40
1.3991036209254675
100
AcDbArc
 50
179.96327991479848
 51
270.03672008520033
  0
LINE
  5
1E3
100
AcDbEntity
  8
0
  6
CONTINUOUS
 62
               4
100
AcDbLine
 10
17.699999999999989
 20
1.4000000000000057
 30
0.0
 11
17.699999999999989
 21
3.5999999999999943
 31
0.0
  0
LINE
  5
1E4
100
AcDbEntity
  8
0
  6
CONTINUOUS
 62
               4
100
AcDbLine
 10
16.5
 20
1.4000000000000057
 30
0.0
 11
16.5
 21
3.5999999999999943
 31
0.0
  0
ARC
  5
1E5
100
AcDbEntity
  8
0
  6
CONTINUOUS
 62
               4
100
AcDbCircle
 10
5.6999316768315111
 20
3.6000683231685144
 30
0.0
 40
1.3999316784987346
100
AcDbArc
 50
89.997203699822904
 51
180.00279630017653
  0
ARC
  5
1E6
100
AcDbEntity
  8
0
  6
CONTINUOUS
 62
               4
100
AcDbCircle
 10
16.299115537943862
 20
3.5991155379438453
 30
0.0
 40
1.4008847412629901
100
AcDbArc
 50
0.0361742439122946
 51
89.963825756087459
  0
LINE
  5
1E7
100
AcDbEntity
  8
0
  6
CONTINUOUS
 62
               4
100
AcDbLine
 10
16.300000000000011
 20
5.0
 30
0.0
 11
5.6999999999999886
 21
5.0
 31
0.0
  0
LINE
  5
1E8
100
AcDbEntity
  8
0
  6
CONTINUOUS
 62
               4
100
AcDbLine
 10
22.0
 20
0.0
 30
0.0
 11
22.0
 21
1.2000000000000028
 31
0.0
  0
LINE
  5
1E9
100
AcDbEntity
  8
0
  6
CONTINUOUS
 62
               4
100
AcDbLine
 10
0.0
 20
0.0
 30
0.0
 11
0.0
 21
1.2000000000000028
 31
0.0
  0
ARC
  5
1EA
100
AcDbEntity
  8
0
  6
CONTINUOUS
 62
               7
100
AcDbCircle
 10
11.0
 20
35.199999999999989
 30
0.0
 40
3.090998569384837
100
AcDbArc
 50
179.99999999999963
 51
0.0
  0
LINE
  5
1EB
100
AcDbEntity
  8
0
  6
CONTINUOUS
 62
               7
100
AcDbLine
 10
14.090998569384851
 20
35.199999999999989
 30
0.0
 11
14.090998569384851
 21
39.199999999999989
 31
0.0
  0
LINE
  5
1EC
100
AcDbEntity
  8
0
  6
CONTINUOUS
 62
               7
100
AcDbLine
 10
7.9090014306151488
 20
35.199999999999989
 30
0.0
 11
7.9090014306151488
 21
39.199999999999989
 31
0.0
  0
LINE
  5
1ED
100
AcDbEntity
  8
0
  6
CENTER
 62
               2
100
AcDbLine
 10
16.878166284015208
 20
14.299999999999997
 30
0.0
 11
12.521833715984769
 21
14.299999999999997
 31
0.0
  0
LINE
  5
1EE
100
AcDbEntity
  8
0
  6
CENTER
 62
               2
100
AcDbLine
 10
9.4781662840152308
 20
23.899999999999991
 30
0.0
 11
5.121833715984792
 21
23.899999999999963
 31
0.0
  0
LINE
  5
1EF
100
AcDbEntity
  8
0
  6
CONTINUOUS
 62
               4
100
AcDbLine
 10
11.999981689453108
 20
77.692929270933348
 30
0.0
 11
12.499981689453108
 21
77.692929270933348
 31
0.0
  0
LINE
  5
1F0
100
AcDbEntity
  8
0
  6
CONTINUOUS
 62
               4
100
AcDbLine
 10
9.4999816894531079
 20
77.692929270933348
 30
0.0
 11
9.9999816894531079
 21
77.692929270933348
 31
0.0
  0
ARC
  5
1F1
100
AcDbEntity
  8
0
  6
CONTINUOUS
 62
               4
100
AcDbCircle
 10
15.500296847864178
 20
39.699703152135783
 30
0.0
 40
0.4997032403068001
100
AcDbArc
 50
269.96596353714654
 51
0.0340364628527164
  0
LINE
  5
1F2
100
AcDbEntity
  8
0
  6
CONTINUOUS
 62
               4
100
AcDbLine
 10
5.9999999999999716
 20
39.199999999999989
 30
0.0
 11
15.999999999999972
 21
39.199999999999989
 31
0.0
  0
LINE
  5
1F3
100
AcDbEntity
  8
0
  6
CONTINUOUS
 62
               4
100
AcDbLine
 10
15.999999999999972
 20
61.699999999999989
 30
0.0
 11
15.999999999999972
 21
39.199999999999989
 31
0.0
  0
LINE
  5
1F4
100
AcDbEntity
  8
0
  6
CONTINUOUS
 62
               4
100
AcDbLine
 10
6.0000000290891364
 20
61.700000004269356
 30
0.0
 11
7.2499816894531079
 21
61.700000004269356
 31
0.0
  0
ARC
  5
1F5
100
AcDbEntity
  8
0
  6
CONTINUOUS
 62
               4
100
AcDbCircle
 10
15.204095146658148
 20
61.10009515092753
 30
0.0
 40
0.5999048608870732
100
AcDbArc
 50
359.99091272245295
 51
90.009087277546172
  0
ARC
  5
1F6
100
AcDbEntity
  8
0
  6
CONTINUOUS
 62
               4
100
AcDbCircle
 10
6.4999999999999716
 20
61.100000004269333
 30
0.0
 40
0.5
100
AcDbArc
 50
89.999999999999815
 51
179.99999999999963
  0
LINE
  5
1F7
100
AcDbEntity
  8
0
  6
CONTINUOUS
 62
               4
100
AcDbLine
 10
7.2499816894531079
 20
61.600000004269333
 30
0.0
 11
6.4999999999999716
 21
61.600000004269333
 31
0.0
  0
LINE
  5
1F8
100
AcDbEntity
  8
0
  6
CONTINUOUS
 62
               4
100
AcDbLine
 10
15.999999999999972
 20
60.100000004269333
 30
0.0
 11
14.749981689453108
 21
60.100000004269333
 31
0.0
  0
LINE
  5
1F9
100
AcDbEntity
  8
0
  6
CONTINUOUS
 62
               4
100
AcDbLine
 10
15.999999999999972
 20
61.700000004269356
 30
0.0
 11
14.749981689453108
 21
61.700000004269356
 31
0.0
  0
LINE
  5
1FA
100
AcDbEntity
  8
0
  6
CONTINUOUS
 62
               4
100
AcDbLine
 10
15.999999999999972
 20
61.100000004269333
 30
0.0
 11
14.749981689453108
 21
61.100000004269333
 31
0.0
  0
LINE
  5
1FB
100
AcDbEntity
  8
0
  6
CONTINUOUS
 62
               4
100
AcDbLine
 10
5.9999999999999716
 20
61.700000004269356
 30
0.0
 11
5.9999999999999716
 21
39.199999999999989
 31
0.0
  0
LINE
  5
1FC
100
AcDbEntity
  8
0
  6
CONTINUOUS
 62
               4
100
AcDbLine
 10
5.9999816894531079
 20
58.699999999999875
 30
0.0
 11
6.4999816894531079
 21
58.699999999999875
 31
0.0
  0
LINE
  5
1FD
100
AcDbEntity
  8
0
  6
CONTINUOUS
 62
               4
100
AcDbLine
 10
6.4999816894531079
 20
58.699999999999875
 30
0.0
 11
8.2499816894531079
 21
58.699999999999875
 31
0.0
  0
LINE
  5
1FE
100
AcDbEntity
  8
0
  6
CONTINUOUS
 62
               4
100
AcDbLine
 10
15.76998168945309
 20
58.199999999999875
 30
0.0
 11
15.76998168945309
 21
41.891919190653823
 31
0.0
  0
LINE
  5
1FF
100
AcDbEntity
  8
0
  6
CONTINUOUS
 62
               4
100
AcDbLine
 10
6.2299816894530693
 20
58.199999999999875
 30
0.0
 11
6.2299816894530693
 21
41.891919190673121
 31
0.0
  0
LINE
  5
200
100
AcDbEntity
  8
0
  6
CONTINUOUS
 62
               4
100
AcDbLine
 10
6.7299816894530693
 20
41.391919190669398
 30
0.0
 11
15.26998168945309
 21
41.391919190669398
 31
0.0
  0
LINE
  5
201
100
AcDbEntity
  8
0
  6
CONTINUOUS
 62
               4
100
AcDbLine
 10
15.499981689453108
 20
58.699999999999875
 30
0.0
 11
15.999981689453108
 21
58.699999999999875
 31
0.0
  0
LINE
  5
202
100
AcDbEntity
  8
0
  6
CONTINUOUS
 62
               4
100
AcDbLine
 10
8.2499816894531079
 20
50.699999999999875
 30
0.0
 11
13.749981689453108
 21
50.699999999999875
 31
0.0
  0
LINE
  5
203
100
AcDbEntity
  8
0
  6
CONTINUOUS
 62
               4
100
AcDbLine
 10
13.749981689453108
 20
58.699999999999875
 30
0.0
 11
15.499981689453108
 21
58.699999999999875
 31
0.0
  0
LINE
  5
204
100
AcDbEntity
  8
0
  6
CONTINUOUS
 62
               4
100
AcDbLine
 10
8.2499816894531079
 20
66.699999999999875
 30
0.0
 11
8.2499816894531079
 21
50.699999999999875
 31
0.0
  0
LINE
  5
205
100
AcDbEntity
  8
0
  6
CONTINUOUS
 62
               4
100
AcDbLine
 10
7.2499816894531079
 20
66.699999999999875
 30
0.0
 11
7.2499816894531079
 21
58.699999999999875
 31
0.0
  0
LINE
  5
206
100
AcDbEntity
  8
0
  6
CONTINUOUS
 62
               4
100
AcDbLine
 10
8.2499816894531079
 20
65.199999999999875
 30
0.0
 11
13.749981689453108
 21
65.199999999999875
 31
0.0
  0
LINE
  5
207
100
AcDbEntity
  8
0
  6
CONTINUOUS
 62
               4
100
AcDbLine
 10
13.749981689453108
 20
66.699999999999875
 30
0.0
 11
13.749981689453108
 21
50.699999999999875
 31
0.0
  0
LINE
  5
208
100
AcDbEntity
  8
0
  6
CONTINUOUS
 62
               4
100
AcDbLine
 10
14.749981689453108
 20
66.699999999999875
 30
0.0
 11
14.749981689453108
 21
58.699999999999875
 31
0.0
  0
LINE
  5
209
100
AcDbEntity
  8
0
  6
CONTINUOUS
 62
               4
100
AcDbLine
 10
7.2499816894531079
 20
66.699999999999875
 30
0.0
 11
14.749981689453108
 21
66.699999999999875
 31
0.0
  0
ARC
  5
20A
100
AcDbEntity
  8
0
  6
CONTINUOUS
 62
               4
100
AcDbCircle
 10
6.7311699733583339
 20
41.893107474574663
 30
0.0
 40
0.5011896925741138
100
AcDbArc
 50
180.13584420715239
 51
269.86415579284636
  0
ARC
  5
20B
100
AcDbEntity
  8
0
  6
CONTINUOUS
 62
               4
100
AcDbCircle
 10
15.268778183341368
 20
41.893122696781148
 30
0.0
 40
0.5012049510586274
100
AcDbArc
 50
270.13758021931233
 51
359.86241978068648
  0
ARC
  5
20C
100
AcDbEntity
  8
0
  6
CONTINUOUS
 62
               4
100
AcDbCircle
 10
15.269979247973851
 20
58.199997558520579
 30
0.0
 40
0.500002441485227
100
AcDbArc
 50
0.0002797715494944
 51
89.999720228450514
  0
ARC
  5
20D
100
AcDbEntity
  8
0
  6
CONTINUOUS
 62
               4
100
AcDbCircle
 10
6.7299688721153359
 20
58.200012817337608
 30
0.0
 40
0.4999871828265524
100
AcDbArc
 50
89.998531203634272
 51
180.00146879636483
  0
ARC
  5
20E
100
AcDbEntity
  8
0
  6
CONTINUOUS
 62
               4
100
AcDbCircle
 10
6.4999710083216939
 20
58.200010681131232
 30
0.0
 40
0.4999893189827007
100
AcDbArc
 50
89.998776006354774
 51
180.00122399364432
  0
ARC
  5
20F
100
AcDbEntity
  8
0
  6
CONTINUOUS
 62
               4
100
AcDbCircle
 10
15.499977111702293
 20
58.19999542224906
 30
0.0
 40
0.5000045777717621
100
AcDbArc
 50
0.0005245667992071
 51
89.9994754332008
  0
ARC
  5
210
100
AcDbEntity
  8
0
  6
CONTINUOUS
 62
               4
100
AcDbCircle
 10
6.4999771119304626
 20
39.69999542247723
 30
0.0
 40
0.4999954224983215
100
AcDbArc
 50
179.99947544974256
 51
270.00052455025656
  0
ARC
  5
211
100
AcDbEntity
  8
0
  6
CONTINUOUS
 62
               4
100
AcDbCircle
 10
15.4999710082798
 20
39.700010681173183
 30
0.0
 40
0.5000106812873828
100
AcDbArc
 50
270.00122394615329
 51
359.9987760538454
  0
LINE
  5
212
100
AcDbEntity
  8
0
  6
CONTINUOUS
 62
               4
100
AcDbLine
 10
12.899981689453085
 20
74.192929272933327
 30
0.0
 11
12.899981689453085
 21
70.699999999999875
 31
0.0
  0
LINE
  5
213
100
AcDbEntity
  8
0
  6
CONTINUOUS
 62
               4
100
AcDbLine
 10
11.599981689453074
 20
74.192929272933327
 30
0.0
 11
11.599981689453074
 21
71.049999999999898
 31
0.0
  0
LINE
  5
214
100
AcDbEntity
  8
0
  6
CONTINUOUS
 62
               4
100
AcDbLine
 10
9.9999816894531079
 20
77.692929270933348
 30
0.0
 11
9.9999816894531079
 21
74.192929272933327
 31
0.0
  0
LINE
  5
215
100
AcDbEntity
  8
0
  6
CONTINUOUS
 62
               4
100
AcDbLine
 10
9.4999816894531079
 20
77.692929270933348
 30
0.0
 11
9.4999816894531079
 21
74.192929272933327
 31
0.0
  0
LINE
  5
216
100
AcDbEntity
  8
0
  6
CONTINUOUS
 62
               4
100
AcDbLine
 10
12.899981689453085
 20
69.669999999999845
 30
0.0
 11
12.899981689453085
 21
66.699999999999875
 31
0.0
  0
LINE
  5
217
100
AcDbEntity
  8
0
  6
CONTINUOUS
 62
               4
100
AcDbLine
 10
11.599981689453074
 20
70.019999999999868
 30
0.0
 11
11.599981689453074
 21
66.699999999999875
 31
0.0
  0
LINE
  5
218
100
AcDbEntity
  8
0
  6
CONTINUOUS
 62
               4
100
AcDbLine
 10
9.0999816894530738
 20
70.689999999999884
 30
0.0
 11
9.0999816894530738
 21
66.699999999999875
 31
0.0
  0
LINE
  5
219
100
AcDbEntity
  8
0
  6
CONTINUOUS
 62
               4
100
AcDbLine
 10
10.399981689453085
 20
74.192929272933327
 30
0.0
 11
10.399981689453085
 21
71.369999999999891
 31
0.0
  0
LINE
  5
21A
100
AcDbEntity
  8
0
  6
CONTINUOUS
 62
               4
100
AcDbLine
 10
9.0999816894530738
 20
74.192929272933327
 30
0.0
 11
9.0999816894530738
 21
71.719999999999857
 31
0.0
  0
LINE
  5
21B
100
AcDbEntity
  8
0
  6
CONTINUOUS
 62
               4
100
AcDbLine
 10
12.499981689453108
 20
77.692929270933348
 30
0.0
 11
12.499981689453108
 21
74.192929272933327
 31
0.0
  0
LINE
  5
21C
100
AcDbEntity
  8
0
  6
CONTINUOUS
 62
               4
100
AcDbLine
 10
11.999981689453108
 20
77.692929270933348
 30
0.0
 11
11.999981689453108
 21
74.192929272933327
 31
0.0
  0
LINE
  5
21D
100
AcDbEntity
  8
0
  6
CONTINUOUS
 62
               4
100
AcDbLine
 10
10.399981689453085
 20
70.339999999999861
 30
0.0
 11
10.399981689453085
 21
66.699999999999875
 31
0.0
  0
LINE
  5
21E
100
AcDbEntity
  8
0
  6
CONTINUOUS
 62
               4
100
AcDbLine
 10
9.0999816894530738
 20
74.192929272933327
 30
0.0
 11
10.399981689453085
 21
74.192929272933327
 31
0.0
  0
LINE
  5
21F
100
AcDbEntity
  8
0
  6
CONTINUOUS
 62
             200
100
AcDbLine
 10
7.2499816894531079
 20
71.179999999999893
 30
0.0
 11
14.749981689453108
 21
69.169999999999845
 31
0.0
  0
LINE
  5
220
100
AcDbEntity
  8
0
  6
CONTINUOUS
 62
             200
100
AcDbLine
 10
7.2499816894531079
 20
72.219999999999857
 30
0.0
 11
14.749981689453108
 21
70.209999999999866
 31
0.0
  0
LINE
  5
221
100
AcDbEntity
  8
0
  6
CONTINUOUS
 62
               4
100
AcDbLine
 10
11.599981689453074
 20
74.192929272933327
 30
0.0
 11
12.899981689453085
 21
74.192929272933327
 31
0.0
  0
LINE
  5
222
100
AcDbEntity
  8
0
  6
PHANTOM
 62
             200
100
AcDbLine
 10
12.499981689453108
 20
46.699999999999875
 30
0.0
 11
12.499981689453108
 21
44.699999999999875
 31
0.0
  0
LINE
  5
223
100
AcDbEntity
  8
0
  6
PHANTOM
 62
             200
100
AcDbLine
 10
9.4999816894531079
 20
46.699999999999875
 30
0.0
 11
9.4999816894531079
 21
44.699999999999875
 31
0.0
  0
LINE
  5
224
100
AcDbEntity
  8
0
  6
PHANTOM
 62
             200
100
AcDbLine
 10
9.4999816894531079
 20
44.699999999999875
 30
0.0
 11
12.499981689453108
 21
44.699999999999875
 31
0.0
  0
LINE
  5
225
100
AcDbEntity
  8
0
  6
PHANTOM
 62
             200
100
AcDbLine
 10
9.4999816894531079
 20
46.699999999999875
 30
0.0
 11
12.499981689453108
 21
46.699999999999875
 31
0.0
  0
LINE
  5
226
100
AcDbEntity
  8
0
  6
CENTER
 62
               2
100
AcDbLine
 10
10.999999999999972
 20
67.56968305694835
 30
0.0
 11
11.0
 21
2.2438875818592123
 31
0.0
  0
ENDBLK
  5
227
100
AcDbEntity
  8
0
100
AcDbBlockEnd
  0
BLOCK
  5
228
100
AcDbEntity
  8
0
100
AcDbBlockBegin
  2
EA10F5-5
 70
               0
 10
0.0
 20
0.0
 30
0.0
  3
EA10F5-5
  1

  0
LINE
  5
229
100
AcDbEntity
  8
0
  6
CONTINUOUS
 62
               4
100
AcDbLine
 10
-6.9999999999999858
 20
0.0000000256359414
 30
0.0
 11
-6.9999999999999858
 21
5.0000000000000142
 31
0.0
  0
LINE
  5
22A
100
AcDbEntity
  8
0
  6
CONTINUOUS
 62
               4
100
AcDbLine
 10
7.0
 20
0.0000000256359129
 30
0.0
 11
7.0000000000000284
 21
5.0
 31
0.0
  0
LINE
  5
22B
100
AcDbEntity
  8
0
  6
CONTINUOUS
 62
               4
100
AcDbLine
 10
-7.0000000007497079
 20
1.2000000000000171
 30
0.0
 11
6.9999999992502921
 21
1.2000000000000028
 31
0.0
  0
LINE
  5
22C
100
AcDbEntity
  8
0
  6
CONTINUOUS
 62
               4
100
AcDbLine
 10
-7.0000000007497079
 20
3.8000000000000114
 30
0.0
 11
6.9999999992502921
 21
3.7999999999999972
 31
0.0
  0
LINE
  5
22D
100
AcDbEntity
  8
0
  6
CONTINUOUS
 62
               4
100
AcDbLine
 10
-7.0000000007497079
 20
5.0000000000000142
 30
0.0
 11
6.9999999992502921
 21
5.0
 31
0.0
  0
LINE
  5
22E
100
AcDbEntity
  8
0
  6
CONTINUOUS
 62
               4
100
AcDbLine
 10
-7.0000000007497079
 20
0.0000000000000142
 30
0.0
 11
7.0
 21
0.0
 31
0.0
  0
LINE
  5
22F
100
AcDbEntity
  8
0
  6
CONTINUOUS
 62
               7
100
AcDbLine
 10
3.5000000000000284
 20
6.3000000000000114
 30
0.0
 11
3.5000000000000284
 21
5.2000000000000028
 31
0.0
  0
LINE
  5
230
100
AcDbEntity
  8
0
  6
CONTINUOUS
 62
               7
100
AcDbLine
 10
3.5500000000000114
 20
5.9700000000000131
 30
0.0
 11
3.5500000000000114
 21
6.4400000000000119
 31
0.0
  0
ARC
  5
231
100
AcDbEntity
  8
0
  6
CONTINUOUS
 62
               7
100
AcDbCircle
 10
3.2999984741152844
 20
5.2000015258847299
 30
0.0
 40
0.200001525890548
100
AcDbArc
 50
270.00043713043902
 51
359.99956286956029
  0
ARC
  5
232
100
AcDbEntity
  8
0
  6
CONTINUOUS
 62
               7
100
AcDbCircle
 10
3.6999923706113123
 20
6.3000076293887162
 30
0.0
 40
0.1999923707568137
100
AcDbArc
 50
89.997814257754655
 51
180.00218574224465
  0
ARC
  5
233
100
AcDbEntity
  8
0
  6
CONTINUOUS
 62
               7
100
AcDbCircle
 10
3.9740829724976265
 20
5.9670765359853988
 30
0.0
 40
0.4240930489930741
100
AcDbArc
 50
179.60503130945159
 51
242.76491800802381
  0
ARC
  5
234
100
AcDbEntity
  8
0
  6
CONTINUOUS
 62
               7
100
AcDbCircle
 10
-6.5999969480559173
 20
5.4000030519440969
 30
0.0
 40
0.4000030519557204
100
AcDbArc
 50
180.00043715545164
 51
269.99956284454748
  0
CIRCLE
  5
235
100
AcDbEntity
  8
0
  6
CONTINUOUS
 62
               7
100
AcDbCircle
 10
-4.0999999999999659
 20
15.899999999999991
 30
0.0
 40
1.075
  0
CIRCLE
  5
236
100
AcDbEntity
  8
0
  6
CONTINUOUS
 62
               7
100
AcDbCircle
 10
-4.0999999999999659
 20
22.299999899728661
 30
0.0
 40
1.075
  0
LINE
  5
237
100
AcDbEntity
  8
0
  6
CENTER
 62
               2
100
AcDbLine
 10
-2.4419261169031188
 20
15.9004377834802
 30
0.0
 11
-5.7010006022055393
 21
15.9004377834802
 31
0.0
  0
LINE
  5
238
100
AcDbEntity
  8
0
  6
CENTER
 62
               2
100
AcDbLine
 10
-4.0999999999999659
 20
24.905677657573563
 30
0.0
 11
-4.0999999999999659
 21
13.461352515796634
 31
0.0
  0
LINE
  5
239
100
AcDbEntity
  8
0
  6
CENTER
 62
               2
100
AcDbLine
 10
-2.4419261169031188
 20
22.299999999999997
 30
0.0
 11
-5.7010006022055251
 21
22.299999999999997
 31
0.0
  0
LINE
  5
23A
100
AcDbEntity
  8
0
  6
CONTINUOUS
 62
               7
100
AcDbLine
 10
-7.0000000119209034
 20
10.000000000000014
 30
0.0
 11
6.9999999880790824
 21
10.0
 31
0.0
  0
ARC
  5
23B
100
AcDbEntity
  8
0
  6
CONTINUOUS
 62
               7
100
AcDbCircle
 10
5.3050000000000352
 20
8.4000186950871552
 30
0.0
 40
3.1971596874005721
100
AcDbArc
 50
241.51127113246665
 51
298.48872886753207
  0
LINE
  5
23C
100
AcDbEntity
  8
0
  6
CONTINUOUS
 62
               7
100
AcDbLine
 10
7.0500000000000114
 20
6.5
 30
0.0
 11
3.7000000000000171
 21
6.5
 31
0.0
  0
LINE
  5
23D
100
AcDbEntity
  8
0
  6
CONTINUOUS
 62
               7
100
AcDbLine
 10
6.6000000000000227
 20
5.0
 30
0.0
 11
-6.5999999999999943
 21
5.0000000000000142
 31
0.0
  0
LINE
  5
23E
100
AcDbEntity
  8
0
  6
CONTINUOUS
 62
               7
100
AcDbLine
 10
-6.9999999784817533
 20
39.199999999999662
 30
0.0
 11
7.0000000135182177
 21
39.199999999999903
 31
0.0
  0
LINE
  5
23F
100
AcDbEntity
  8
0
  6
CONTINUOUS
 62
               7
100
AcDbLine
 10
6.0000000000000568
 20
22.300998569384788
 30
0.0
 11
7.0000000000000568
 21
22.300998569384788
 31
0.0
  0
LINE
  5
240
100
AcDbEntity
  8
0
  6
CONTINUOUS
 62
               7
100
AcDbLine
 10
6.0000000000000568
 20
25.500998569384805
 30
0.0
 11
7.0000000000000568
 21
25.500998569384805
 31
0.0
  0
LINE
  5
241
100
AcDbEntity
  8
0
  6
CONTINUOUS
 62
               7
100
AcDbLine
 10
-6.9999999864818534
 20
28.200000000000003
 30
0.0
 11
7.0000000000000568
 21
28.200000000000003
 31
0.0
  0
LINE
  5
242
100
AcDbEntity
  8
0
  6
CONTINUOUS
 62
               7
100
AcDbLine
 10
8.100000013518212
 20
33.199999999999989
 30
0.0
 11
8.100000013518212
 21
39.199999999999918
 31
0.0
  0
LINE
  5
243
100
AcDbEntity
  8
0
  6
CONTINUOUS
 62
               7
100
AcDbLine
 10
8.5480000135181626
 20
35.799999999999983
 30
0.0
 11
8.100000013518212
 21
35.799999999999983
 31
0.0
  0
LINE
  5
244
100
AcDbEntity
  8
0
  6
CONTINUOUS
 62
               7
100
AcDbLine
 10
8.5480000135181626
 20
38.000000000000028
 30
0.0
 11
8.1000000135181836
 21
38.000000000000014
 31
0.0
  0
LINE
  5
245
100
AcDbEntity
  8
0
  6
CONTINUOUS
 62
               7
100
AcDbLine
 10
8.5480000135181626
 20
35.799999999999983
 30
0.0
 11
8.5480000135181626
 21
38.000000000000028
 31
0.0
  0
LINE
  5
246
100
AcDbEntity
  8
0
  6
CONTINUOUS
 62
               7
100
AcDbLine
 10
-6.999999986481825
 20
39.199999999999946
 30
0.0
 11
-6.9999999864818534
 21
28.200000000000003
 31
0.0
  0
LINE
  5
247
100
AcDbEntity
  8
0
  6
CONTINUOUS
 62
               7
100
AcDbLine
 10
7.0000000135182177
 20
39.199999999999918
 30
0.0
 11
7.0000000135182177
 21
28.199999999999989
 31
0.0
  0
LINE
  5
248
100
AcDbEntity
  8
0
  6
CONTINUOUS
 62
               7
100
AcDbLine
 10
7.0000000135181892
 20
32.104999999999976
 30
0.0
 11
8.100000013518212
 21
33.199999999999989
 31
0.0
  0
ARC
  5
249
100
AcDbEntity
  8
0
  6
CONTINUOUS
 62
               7
100
AcDbCircle
 10
6.5999938963796296
 20
5.4000061036203988
 30
0.0
 40
0.400006103666966
100
AcDbArc
 50
270.00087426588038
 51
359.99912573411802
  0
ARC
  5
24A
100
AcDbEntity
  8
0
  6
CONTINUOUS
 62
               7
100
AcDbCircle
 10
6.623582287124151
 20
5.9631892021913018
 30
0.0
 40
0.4264721008707071
100
AcDbArc
 50
298.94777670470955
 51
0.9150576515649365
  0
LINE
  5
24B
100
AcDbEntity
  8
0
  6
CONTINUOUS
 62
               7
100
AcDbLine
 10
-6.9999999999999574
 20
28.200000000000017
 30
0.0
 11
-6.9999999999999858
 21
5.4000030519440969
 31
0.0
  0
LINE
  5
24C
100
AcDbEntity
  8
0
  6
CONTINUOUS
 62
               7
100
AcDbLine
 10
7.0000000000000568
 20
28.200000000000003
 30
0.0
 11
7.0000000000000284
 21
6.5
 31
0.0
  0
LINE
  5
24D
100
AcDbEntity
  8
0
  6
CONTINUOUS
 62
               7
100
AcDbLine
 10
7.0000000000000284
 20
5.769999999999996
 30
0.0
 11
7.0000000000000284
 21
5.3999999999999915
 31
0.0
  0
LINE
  5
24E
100
AcDbEntity
  8
0
  6
CONTINUOUS
 62
               7
100
AcDbLine
 10
7.0500000000000114
 20
5.9699999999999989
 30
0.0
 11
7.0500000000000114
 21
6.5
 31
0.0
  0
LINE
  5
24F
100
AcDbEntity
  8
0
  6
CENTER
 62
               2
100
AcDbLine
 10
0.0000000000000853
 20
64.260444473560455
 30
0.0
 11
0.0
 21
-2.4488717557984785
 31
0.0
  0
LINE
  5
250
100
AcDbEntity
  8
0
  6
CONTINUOUS
 62
               7
100
AcDbLine
 10
6.0000000000000568
 20
25.500998569384805
 30
0.0
 11
6.0000000000000568
 21
22.300998569384788
 31
0.0
  0
LINE
  5
251
100
AcDbEntity
  8
0
  6
CENTER
 62
               2
100
AcDbLine
 10
-6.1241534247008786
 20
12.700000000000017
 30
0.0
 11
-20.405931067489917
 21
12.700000000000045
 31
0.0
  0
LINE
  5
252
100
AcDbEntity
  8
0
  6
CENTER
 62
               2
100
AcDbLine
 10
-6.1241534247008644
 20
25.500000000000028
 30
0.0
 11
-20.405931067489902
 21
25.500000000000043
 31
0.0
  0
LINE
  5
253
100
AcDbEntity
  8
0
  6
DASHED
 62
             200
100
AcDbLine
 10
-6.9999999999999716
 20
9.7000000000000171
 30
0.0
 11
-18.499999999999972
 21
9.7000000000000455
 31
0.0
  0
LINE
  5
254
100
AcDbEntity
  8
0
  6
DASHED
 62
             200
100
AcDbLine
 10
-6.9999999999999716
 20
15.700000000000017
 30
0.0
 11
-18.499999999999972
 21
15.700000000000045
 31
0.0
  0
LINE
  5
255
100
AcDbEntity
  8
0
  6
DASHED
 62
             200
100
AcDbLine
 10
-18.499999999999972
 20
9.7000000000000455
 30
0.0
 11
-18.499999999999972
 21
15.700000000000045
 31
0.0
  0
LINE
  5
256
100
AcDbEntity
  8
0
  6
DASHED
 62
             200
100
AcDbLine
 10
-16.499999999999972
 20
9.7000000000000313
 30
0.0
 11
-16.499999999999972
 21
15.700000000000031
 31
0.0
  0
LINE
  5
257
100
AcDbEntity
  8
0
  6
DASHED
 62
             200
100
AcDbLine
 10
-18.999999999999972
 20
10.200000000000045
 30
0.0
 11
-18.999999999999972
 21
15.200000000000045
 31
0.0
  0
LINE
  5
258
100
AcDbEntity
  8
0
  6
DASHED
 62
               7
100
AcDbLine
 10
-6.9999999999999716
 20
9.7000000000000171
 30
0.0
 11
-6.9999999999999716
 21
15.700000000000017
 31
0.0
  0
ARC
  5
259
100
AcDbEntity
  8
0
  6
DASHED
 62
             200
100
AcDbCircle
 10
-18.499999999999972
 20
15.200000000000045
 30
0.0
 40
0.5
100
AcDbArc
 50
89.999999999999744
 51
179.99999999999955
  0
ARC
  5
25A
100
AcDbEntity
  8
0
  6
DASHED
 62
             200
100
AcDbCircle
 10
-18.499999999999972
 20
10.200000000000045
 30
0.0
 40
0.5
100
AcDbArc
 50
179.99999999999963
 51
269.99999999999937
  0
ARC
  5
25B
100
AcDbEntity
  8
0
  6
DASHED
 62
             200
100
AcDbCircle
 10
-18.499999999999957
 20
23.000000000000028
 30
0.0
 40
0.5
100
AcDbArc
 50
179.99999999999963
 51
269.99999999999937
  0
ARC
  5
25C
100
AcDbEntity
  8
0
  6
DASHED
 62
             200
100
AcDbCircle
 10
-18.499999999999957
 20
28.000000000000028
 30
0.0
 40
0.5
100
AcDbArc
 50
89.999999999999744
 51
179.99999999999955
  0
LINE
  5
25D
100
AcDbEntity
  8
0
  6
DASHED
 62
               7
100
AcDbLine
 10
-6.9999999999999574
 20
22.500000000000014
 30
0.0
 11
-6.9999999999999574
 21
28.500000000000028
 31
0.0
  0
LINE
  5
25E
100
AcDbEntity
  8
0
  6
DASHED
 62
             200
100
AcDbLine
 10
-18.999999999999957
 20
23.000000000000028
 30
0.0
 11
-18.999999999999957
 21
28.000000000000028
 31
0.0
  0
LINE
  5
25F
100
AcDbEntity
  8
0
  6
DASHED
 62
             200
100
AcDbLine
 10
-16.499999999999957
 20
22.500000000000028
 30
0.0
 11
-16.499999999999957
 21
28.500000000000028
 31
0.0
  0
LINE
  5
260
100
AcDbEntity
  8
0
  6
DASHED
 62
             200
100
AcDbLine
 10
-18.499999999999957
 20
22.500000000000028
 30
0.0
 11
-18.499999999999957
 21
28.500000000000028
 31
0.0
  0
LINE
  5
261
100
AcDbEntity
  8
0
  6
DASHED
 62
             200
100
AcDbLine
 10
-6.9999999999999574
 20
28.500000000000028
 30
0.0
 11
-18.499999999999957
 21
28.500000000000028
 31
0.0
  0
LINE
  5
262
100
AcDbEntity
  8
0
  6
DASHED
 62
             200
100
AcDbLine
 10
-6.9999999999999574
 20
22.500000000000014
 30
0.0
 11
-18.499999999999957
 21
22.500000000000028
 31
0.0
  0
LINE
  5
263
100
AcDbEntity
  8
0
  6
CONTINUOUS
 62
               4
100
AcDbLine
 10
12.25353534653334
 20
77.694949488666367
 30
0.0
 11
12.748484841200025
 21
77.694949488666367
 31
0.0
  0
LINE
  5
264
100
AcDbEntity
  8
0
  6
CONTINUOUS
 62
               4
100
AcDbLine
 10
7.0000000000000568
 20
39.19999999999979
 30
0.0
 11
7.0000000000000568
 21
61.099999994932062
 31
0.0
  0
LINE
  5
265
100
AcDbEntity
  8
0
  6
CONTINUOUS
 62
               4
100
AcDbLine
 10
-6.9999999999999432
 20
61.099999999999795
 30
0.0
 11
-6.9999999999999432
 21
39.19999999999979
 31
0.0
  0
LINE
  5
266
100
AcDbEntity
  8
0
  6
CONTINUOUS
 62
               4
100
AcDbLine
 10
-6.9999999999999432
 20
39.19999999999979
 30
0.0
 11
10.005050499333379
 21
39.19999999999979
 31
0.0
  0
LINE
  5
267
100
AcDbEntity
  8
0
  6
CONTINUOUS
 62
               4
100
AcDbLine
 10
-4.2999999999999545
 20
61.699999999999818
 30
0.0
 11
-4.2999999999999545
 21
61.099999999999852
 31
0.0
  0
LINE
  5
268
100
AcDbEntity
  8
0
  6
CONTINUOUS
 62
               4
100
AcDbLine
 10
-4.2999999999999545
 20
61.099999999999852
 30
0.0
 11
-6.9999999959999286
 21
61.099999999999852
 31
0.0
  0
LINE
  5
269
100
AcDbEntity
  8
0
  6
CONTINUOUS
 62
               4
100
AcDbLine
 10
6.4999999960000423
 20
61.599999999999852
 30
0.0
 11
5.0000000000001137
 21
61.599999999999852
 31
0.0
  0
LINE
  5
26A
100
AcDbEntity
  8
0
  6
CONTINUOUS
 62
               4
100
AcDbLine
 10
6.1999999100000878
 20
61.699999999999818
 30
0.0
 11
-6.1999999099999741
 21
61.699999999999818
 31
0.0
  0
ARC
  5
26B
100
AcDbEntity
  8
0
  6
CONTINUOUS
 62
               4
100
AcDbCircle
 10
6.2000950566487063
 20
61.100095146648471
 30
0.0
 40
0.5999048008965869
100
AcDbArc
 50
56.247417870393882
 51
90.009087277546172
  0
ARC
  5
26C
100
AcDbEntity
  8
0
  6
CONTINUOUS
 62
               4
100
AcDbCircle
 10
-6.2010879151281415
 20
61.10108800512802
 30
0.0
 40
0.5989129231257409
100
AcDbArc
 50
89.895914524772735
 51
180.10408547522667
  0
ARC
  5
26D
100
AcDbEntity
  8
0
  6
CONTINUOUS
 62
               4
100
AcDbCircle
 10
-6.4999999959999286
 20
61.099999999999852
 30
0.0
 40
0.5
100
AcDbArc
 50
93.919585899650798
 51
179.99999999999963
  0
ARC
  5
26E
100
AcDbEntity
  8
0
  6
CONTINUOUS
 62
               4
100
AcDbCircle
 10
6.4999999960000423
 20
61.099999999999852
 30
0.0
 40
0.5
100
AcDbArc
 50
0.0
 51
89.999999999999815
  0
LINE
  5
26F
100
AcDbEntity
  8
0
  6
CONTINUOUS
 62
               4
100
AcDbLine
 10
5.0000000000001137
 20
61.699999999999818
 30
0.0
 11
5.0000000000001137
 21
60.099999999999852
 31
0.0
  0
LINE
  5
270
100
AcDbEntity
  8
0
  6
CONTINUOUS
 62
               4
100
AcDbLine
 10
5.0000000000001137
 20
60.099999999999852
 30
0.0
 11
-6.9999999959999286
 21
60.099999999999852
 31
0.0
  0
LINE
  5
271
100
AcDbEntity
  8
0
  6
CONTINUOUS
 62
               4
100
AcDbLine
 10
6.9999999960000423
 20
58.69393938279984
 30
0.0
 11
14.502020193733415
 21
58.69393938279984
 31
0.0
  0
LINE
  5
272
100
AcDbEntity
  8
0
  6
CONTINUOUS
 62
               4
100
AcDbLine
 10
15.004040395466745
 20
58.198989888133156
 30
0.0
 11
15.004040395466745
 21
41.844444442933053
 31
0.0
  0
LINE
  5
273
100
AcDbEntity
  8
0
  6
CONTINUOUS
 62
               4
100
AcDbLine
 10
10.005050499333379
 20
39.199999999999704
 30
0.0
 11
14.714141405733358
 21
41.391919190666442
 31
0.0
  0
LINE
  5
274
100
AcDbEntity
  8
0
  6
CONTINUOUS
 62
               4
100
AcDbLine
 10
10.005050499333379
 20
66.699999999999676
 30
0.0
 11
14.098989890933353
 21
66.699999999999676
 31
0.0
  0
LINE
  5
275
100
AcDbEntity
  8
0
  6
CONTINUOUS
 62
               4
100
AcDbLine
 10
11.603030296399993
 20
66.699999999999676
 30
0.0
 11
11.603030296399993
 21
58.696969692399733
 31
0.0
  0
LINE
  5
276
100
AcDbEntity
  8
0
  6
CONTINUOUS
 62
               4
100
AcDbLine
 10
13.398989891333372
 20
66.699999999999676
 30
0.0
 11
13.398989891333372
 21
58.696969692399733
 31
0.0
  0
LINE
  5
277
100
AcDbEntity
  8
0
  6
CONTINUOUS
 62
               4
100
AcDbLine
 10
16.997979788266662
 20
66.699999999999676
 30
0.0
 11
16.997979788266662
 21
65.202020193733034
 31
0.0
  0
LINE
  5
278
100
AcDbEntity
  8
0
  6
CONTINUOUS
 62
               4
100
AcDbLine
 10
16.099999990800029
 20
60.096969691599696
 30
0.0
 11
16.997979788266662
 21
65.202020193733034
 31
0.0
  0
LINE
  5
279
100
AcDbEntity
  8
0
  6
CONTINUOUS
 62
               4
100
AcDbLine
 10
16.00101009186676
 20
66.699999999999676
 30
0.0
 11
16.00101009186676
 21
65.286868678533011
 31
0.0
  0
LINE
  5
27A
100
AcDbEntity
  8
0
  6
CONTINUOUS
 62
               4
100
AcDbLine
 10
16.00101009186676
 20
66.699999999999676
 30
0.0
 11
16.997979788266662
 21
66.699999999999676
 31
0.0
  0
LINE
  5
27B
100
AcDbEntity
  8
0
  6
CONTINUOUS
 62
               4
100
AcDbLine
 10
14.897979789466717
 20
59.029292924533053
 30
0.0
 11
16.015151506000052
 21
65.371717163333045
 31
0.0
  0
LINE
  5
27C
100
AcDbEntity
  8
0
  6
CONTINUOUS
 62
               4
100
AcDbLine
 10
15.103030294400014
 20
57.699999995999718
 30
0.0
 11
15.103030294400014
 21
52.00101010026637
 31
0.0
  0
LINE
  5
27D
100
AcDbEntity
  8
0
  6
CONTINUOUS
 62
               4
100
AcDbLine
 10
14.098989890933353
 20
66.699999999999676
 30
0.0
 11
14.098989890933353
 21
59.099999995199738
 31
0.0
  0
LINE
  5
27E
100
AcDbEntity
  8
0
  6
CONTINUOUS
 62
               4
100
AcDbLine
 10
14.403030294800033
 20
66.395959596132997
 30
0.0
 11
14.403030294800033
 21
60.499999994399701
 31
0.0
  0
LINE
  5
27F
100
AcDbEntity
  8
0
  6
CONTINUOUS
 62
               4
100
AcDbLine
 10
14.098989890933353
 20
66.699999999999676
 30
0.0
 11
14.403030294800033
 21
66.395959596132997
 31
0.0
  0
LINE
  5
280
100
AcDbEntity
  8
0
  6
CONTINUOUS
 62
               4
100
AcDbLine
 10
10.005050499333379
 20
65.696969688399719
 30
0.0
 11
10.499999994000063
 21
65.696969688399719
 31
0.0
  0
LINE
  5
281
100
AcDbEntity
  8
0
  6
CONTINUOUS
 62
               4
100
AcDbLine
 10
10.005050499333379
 20
60.697979792266352
 30
0.0
 11
10.499999994000063
 21
60.697979792266352
 31
0.0
  0
LINE
  5
282
100
AcDbEntity
  8
0
  6
CONTINUOUS
 62
               4
100
AcDbLine
 10
14.098989890933353
 20
60.195959590533079
 30
0.0
 11
14.403030294800033
 21
60.499999994399701
 31
0.0
  0
LINE
  5
283
100
AcDbEntity
  8
0
  6
CONTINUOUS
 62
               4
100
AcDbLine
 10
16.099999990800029
 20
60.096969691599696
 30
0.0
 11
16.099999990800029
 21
50.996969696799709
 31
0.0
  0
LINE
  5
284
100
AcDbEntity
  8
0
  6
CONTINUOUS
 62
               4
100
AcDbLine
 10
15.103030294400014
 20
50.699999999999676
 30
0.0
 11
15.803030293999996
 21
50.699999999999676
 31
0.0
  0
LINE
  5
285
100
AcDbEntity
  8
0
  6
CONTINUOUS
 62
               4
100
AcDbLine
 10
15.004040395466745
 20
52.00101010026637
 30
0.0
 11
15.103030294400014
 21
52.00101010026637
 31
0.0
  0
LINE
  5
286
100
AcDbEntity
  8
0
  6
CONTINUOUS
 62
               4
100
AcDbLine
 10
15.004040395466745
 20
50.798989898933002
 30
0.0
 11
15.103030294400014
 21
50.699999999999676
 31
0.0
  0
LINE
  5
287
100
AcDbEntity
  8
0
  6
CONTINUOUS
 62
               4
100
AcDbLine
 10
11.850505043733392
 20
71.267676765066341
 30
0.0
 11
11.850505043733392
 21
66.699999999999676
 31
0.0
  0
LINE
  5
288
100
AcDbEntity
  8
0
  6
CONTINUOUS
 62
               4
100
AcDbLine
 10
13.151515144000086
 20
74.194949490666346
 30
0.0
 11
13.151515144000086
 21
70.864646462266336
 31
0.0
  0
LINE
  5
289
100
AcDbEntity
  8
0
  6
CONTINUOUS
 62
               4
100
AcDbLine
 10
11.850505043733392
 20
74.194949490666346
 30
0.0
 11
11.850505043733392
 21
71.614141411333009
 31
0.0
  0
LINE
  5
28A
100
AcDbEntity
  8
0
  6
CONTINUOUS
 62
               4
100
AcDbLine
 10
11.850505043733392
 20
74.194949490666346
 30
0.0
 11
13.151515144000086
 21
74.194949490666346
 31
0.0
  0
LINE
  5
28B
100
AcDbEntity
  8
0
  6
CONTINUOUS
 62
               4
100
AcDbLine
 10
12.25353534653334
 20
77.694949488666367
 30
0.0
 11
12.25353534653334
 21
74.194949490666346
 31
0.0
  0
LINE
  5
28C
100
AcDbEntity
  8
0
  6
CONTINUOUS
 62
               4
100
AcDbLine
 10
12.748484841200025
 20
77.694949488666367
 30
0.0
 11
12.748484841200025
 21
74.194949490666346
 31
0.0
  0
LINE
  5
28D
100
AcDbEntity
  8
0
  6
CONTINUOUS
 62
             200
100
AcDbLine
 10
13.999999992000085
 20
70.369696967599708
 30
0.0
 11
11.002020195733394
 21
72.102020198932991
 31
0.0
  0
LINE
  5
28E
100
AcDbEntity
  8
0
  6
CONTINUOUS
 62
             200
100
AcDbLine
 10
13.999999992000085
 20
70.02323232133304
 30
0.0
 11
11.002020195733394
 21
71.75555555266638
 31
0.0
  0
LINE
  5
28F
100
AcDbEntity
  8
0
  6
CONTINUOUS
 62
               4
100
AcDbLine
 10
13.151515144000086
 20
70.518181815999668
 30
0.0
 11
13.151515144000086
 21
66.699999999999676
 31
0.0
  0
LINE
  5
290
100
AcDbEntity
  8
0
  6
CONTINUOUS
 62
               4
100
AcDbLine
 10
10.005050499333379
 20
66.699999999999676
 30
0.0
 11
10.005050499333379
 21
65.696969688399719
 31
0.0
  0
LINE
  5
291
100
AcDbEntity
  8
0
  6
CONTINUOUS
 62
               4
100
AcDbLine
 10
10.005050499333379
 20
60.697979792266352
 30
0.0
 11
10.005050499333379
 21
58.696969692399733
 31
0.0
  0
LINE
  5
292
100
AcDbEntity
  8
0
  6
CONTINUOUS
 62
               4
100
AcDbLine
 10
10.499999994000063
 20
65.696969688399719
 30
0.0
 11
10.499999994000063
 21
60.697979792266352
 31
0.0
  0
LINE
  5
293
100
AcDbEntity
  8
0
  6
CONTINUOUS
 62
               4
100
AcDbLine
 10
10.005050499333379
 20
39.199999999999704
 30
0.0
 11
10.005050499333379
 21
58.69393938279984
 31
0.0
  0
ARC
  5
294
100
AcDbEntity
  8
0
  6
CONTINUOUS
 62
               4
100
AcDbCircle
 10
14.49803305756916
 20
41.84948449749146
 30
0.0
 40
0.5060324378497572
100
AcDbArc
 50
295.28139190005214
 51
359.42932783011406
  0
ARC
  5
295
100
AcDbEntity
  8
0
  6
CONTINUOUS
 62
               4
100
AcDbCircle
 10
14.503834119278736
 20
58.193708514783452
 30
0.0
 40
0.5002341568128574
100
AcDbArc
 50
0.6049287534634878
 51
90.207763713153867
  0
ARC
  5
296
100
AcDbEntity
  8
0
  6
CONTINUOUS
 62
               4
100
AcDbCircle
 10
15.797896118091899
 20
51.00210387270792
 30
0.0
 40
0.3021474965435785
100
AcDbArc
 50
270.97363298451126
 51
359.02636701548732
  0
ARC
  5
297
100
AcDbEntity
  8
0
  6
CONTINUOUS
 62
               4
100
AcDbCircle
 10
14.59998694086687
 20
57.697302043044232
 30
0.0
 40
0.5030505883944908
100
AcDbArc
 50
0.3072892911898554
 51
36.562608354652731
  0
ARC
  5
298
100
AcDbEntity
  8
0
  6
CONTINUOUS
 62
               4
100
AcDbCircle
 10
14.501921122698036
 20
59.103476452093417
 30
0.0
 40
0.4029462287748787
100
AcDbArc
 50
180.49433091715488
 51
349.39117201772478
  0
ENDBLK
  5
299
100
AcDbEntity
  8
0
100
AcDbBlockEnd
  0
BLOCK
  5
29A
100
AcDbEntity
  8
0
100
AcDbBlockBegin
  2
EA10F5-6
 70
               0
 10
0.0
 20
0.0
 30
0.0
  3
EA10F5-6
  1

  0
LINE
  5
29B
100
AcDbEntity
  8
0
  6
DASHED
 62
             200
100
AcDbLine
 10
-20.25
 20
0.0
 30
0.0
 11
-20.25
 21
1.2000000000000028
 31
0.0
  0
LINE
  5
29C
100
AcDbEntity
  8
0
  6
DASHED
 62
             200
100
AcDbLine
 10
-23.75
 20
0.0
 30
0.0
 11
-23.75
 21
1.2000000000000028
 31
0.0
  0
LINE
  5
29D
100
AcDbEntity
  8
0
  6
DASHED
 62
             200
100
AcDbLine
 10
1.75
 20
0.0
 30
0.0
 11
1.75
 21
1.2000000000000028
 31
0.0
  0
LINE
  5
29E
100
AcDbEntity
  8
0
  6
DASHED
 62
             200
100
AcDbLine
 10
-1.75
 20
0.0
 30
0.0
 11
-1.75
 21
1.2000000000000028
 31
0.0
  0
LINE
  5
29F
100
AcDbEntity
  8
0
  6
CONTINUOUS
 62
               4
100
AcDbLine
 10
-5.6999999999999886
 20
5.0
 30
0.0
 11
-16.299999999999955
 21
5.0
 31
0.0
  0
LINE
  5
2A0
100
AcDbEntity
  8
0
  6
CONTINUOUS
 62
               4
100
AcDbLine
 10
-22.0
 20
0.0
 30
0.0
 11
-22.0
 21
1.2000000000000028
 31
0.0
  0
LINE
  5
2A1
100
AcDbEntity
  8
0
  6
CONTINUOUS
 62
               4
100
AcDbLine
 10
0.0
 20
0.0
 30
0.0
 11
0.0
 21
1.2000000000000028
 31
0.0
  0
LINE
  5
2A2
100
AcDbEntity
  8
0
  6
CONTINUOUS
 62
               4
100
AcDbLine
 10
-5.5
 20
1.4000000000000057
 30
0.0
 11
-5.5
 21
3.5999999999999943
 31
0.0
  0
LINE
  5
2A3
100
AcDbEntity
  8
0
  6
CONTINUOUS
 62
               4
100
AcDbLine
 10
-4.3000000000000114
 20
1.4000000000000057
 30
0.0
 11
-4.3000000000000114
 21
3.5999999999999943
 31
0.0
  0
ARC
  5
2A4
100
AcDbEntity
  8
0
  6
CONTINUOUS
 62
               4
100
AcDbCircle
 10
-4.1008966664051627
 20
1.3991033335948089
 30
0.0
 40
1.3991036209254675
100
AcDbArc
 50
179.96327991479848
 51
270.03672008520033
  0
ARC
  5
2A5
100
AcDbEntity
  8
0
  6
CONTINUOUS
 62
               4
100
AcDbCircle
 10
-4.1008966599537757
 20
1.3991033400461959
 30
0.0
 40
0.1991053590856348
100
AcDbArc
 50
179.74197075907335
 51
270.25802924092562
  0
LINE
  5
2A6
100
AcDbEntity
  8
0
  6
CONTINUOUS
 62
               4
100
AcDbLine
 10
-4.0999999999999659
 20
0.0
 30
0.0
 11
3.0
 21
0.0
 31
0.0
  0
LINE
  5
2A7
100
AcDbEntity
  8
0
  6
CONTINUOUS
 62
               4
100
AcDbLine
 10
-4.0999999999999659
 20
1.2000000000000028
 30
0.0
 11
3.0
 21
1.2000000000000028
 31
0.0
  0
LINE
  5
2A8
100
AcDbEntity
  8
0
  6
CONTINUOUS
 62
               4
100
AcDbLine
 10
3.0
 20
0.0
 30
0.0
 11
3.0
 21
1.2000000000000028
 31
0.0
  0
ARC
  5
2A9
100
AcDbEntity
  8
0
  6
CONTINUOUS
 62
               4
100
AcDbCircle
 10
-6.5847799240333984
 20
3.2665835360522806
 30
0.0
 40
0.6147802009733803
100
AcDbArc
 50
286.12836199114588
 51
359.94561607879228
  0
ARC
  5
2AA
100
AcDbEntity
  8
0
  6
CONTINUOUS
 62
               4
100
AcDbCircle
 10
-8.8161606354035484
 20
3.2652966087315747
 30
0.0
 40
0.6138397676001843
100
AcDbArc
 50
179.93434547259068
 51
253.74327317895529
  0
ARC
  5
2AB
100
AcDbEntity
  8
0
  6
CONTINUOUS
 62
               4
100
AcDbCircle
 10
-7.700999999999965
 20
7.1068760988772226
 30
0.0
 40
4.6140039015589682
100
AcDbArc
 50
253.80344035262561
 51
286.19655964737319
  0
ARC
  5
2AC
100
AcDbEntity
  8
0
  6
CONTINUOUS
 62
               4
100
AcDbCircle
 10
-13.184777973164046
 20
3.2665820679404334
 30
0.0
 40
0.6147782487131708
100
AcDbArc
 50
286.12822533946951
 51
359.94575273046883
  0
ARC
  5
2AD
100
AcDbEntity
  8
0
  6
CONTINUOUS
 62
               4
100
AcDbCircle
 10
-15.416158681253251
 20
3.265298072688239
 30
0.0
 40
0.613841720073419
100
AcDbArc
 50
179.93448232673219
 51
253.74313632481389
  0
ARC
  5
2AE
100
AcDbEntity
  8
0
  6
CONTINUOUS
 62
               4
100
AcDbCircle
 10
-14.300999999999988
 20
7.1068760989089554
 30
0.0
 40
4.6140039015894576
100
AcDbArc
 50
253.80344035273558
 51
286.19655964726314
  0
ARC
  5
2AF
100
AcDbEntity
  8
0
  6
CONTINUOUS
 62
               4
100
AcDbCircle
 10
-17.900056684609865
 20
1.4000566846098934
 30
0.0
 40
1.4000566857574084
100
AcDbArc
 50
270.00231975529556
 51
359.99768024470291
  0
ARC
  5
2B0
100
AcDbEntity
  8
0
  6
CONTINUOUS
 62
               4
100
AcDbCircle
 10
-16.30006664106736
 20
3.6000666410673574
 30
0.0
 40
0.1999333700389205
100
AcDbArc
 50
89.980902377767208
 51
180.01909762223218
  0
ARC
  5
2B1
100
AcDbEntity
  8
0
  6
CONTINUOUS
 62
               4
100
AcDbCircle
 10
-5.7008844716972931
 20
3.5991155283026899
 30
0.0
 40
0.2008864188024893
100
AcDbArc
 50
0.2522652321918488
 51
89.747734767807131
  0
ARC
  5
2B2
100
AcDbEntity
  8
0
  6
CONTINUOUS
 62
               4
100
AcDbCircle
 10
-17.900058413382624
 20
1.4000584133826379
 30
0.0
 40
0.2000584219104543
100
AcDbArc
 50
270.01672931490481
 51
359.98327068509366
  0
LINE
  5
2B3
100
AcDbEntity
  8
0
  6
CONTINUOUS
 62
               4
100
AcDbLine
 10
-5.9699999999999704
 20
3.2660000000000053
 30
0.0
 11
-5.9699999999999704
 21
3.7999999999999972
 31
0.0
  0
LINE
  5
2B4
100
AcDbEntity
  8
0
  6
CONTINUOUS
 62
               4
100
AcDbLine
 10
-9.4300000000000068
 20
3.2660000000000053
 30
0.0
 11
-9.4300000000000068
 21
3.7999999999999972
 31
0.0
  0
LINE
  5
2B5
100
AcDbEntity
  8
0
  6
CONTINUOUS
 62
               4
100
AcDbLine
 10
-12.569999999999993
 20
3.2660000000000053
 30
0.0
 11
-12.569999999999993
 21
3.7999999999999972
 31
0.0
  0
LINE
  5
2B6
100
AcDbEntity
  8
0
  6
CONTINUOUS
 62
               4
100
AcDbLine
 10
-16.029999999999973
 20
3.2660000000000053
 30
0.0
 11
-16.029999999999973
 21
3.7999999999999972
 31
0.0
  0
LINE
  5
2B7
100
AcDbEntity
  8
0
  6
CONTINUOUS
 62
               4
100
AcDbLine
 10
-17.699999999999989
 20
1.4000000000000057
 30
0.0
 11
-17.699999999999989
 21
3.5999999999999943
 31
0.0
  0
LINE
  5
2B8
100
AcDbEntity
  8
0
  6
CONTINUOUS
 62
               4
100
AcDbLine
 10
-16.5
 20
1.4000000000000057
 30
0.0
 11
-16.5
 21
3.5999999999999943
 31
0.0
  0
LINE
  5
2B9
100
AcDbEntity
  8
0
  6
CONTINUOUS
 62
               4
100
AcDbLine
 10
-16.299999999999955
 20
3.7999999999999972
 30
0.0
 11
-5.6999999999999886
 21
3.7999999999999972
 31
0.0
  0
LINE
  5
2BA
100
AcDbEntity
  8
0
  6
CONTINUOUS
 62
               4
100
AcDbLine
 10
-25.0
 20
0.0
 30
0.0
 11
-25.0
 21
1.2000000000000028
 31
0.0
  0
LINE
  5
2BB
100
AcDbEntity
  8
0
  6
CONTINUOUS
 62
               4
100
AcDbLine
 10
-25.0
 20
0.0
 30
0.0
 11
-17.899999999999977
 21
0.0
 31
0.0
  0
LINE
  5
2BC
100
AcDbEntity
  8
0
  6
CONTINUOUS
 62
               4
100
AcDbLine
 10
-25.0
 20
1.2000000000000028
 30
0.0
 11
-17.899999999999977
 21
1.2000000000000028
 31
0.0
  0
LINE
  5
2BD
100
AcDbEntity
  8
0
  6
CENTER
 62
             200
100
AcDbLine
 10
-22.0
 20
-2.443871755798483
 30
0.0
 11
-22.0
 21
3.7999999999999972
 31
0.0
  0
LINE
  5
2BE
100
AcDbEntity
  8
0
  6
CENTER
 62
             200
100
AcDbLine
 10
0.0
 20
-2.443871755798483
 30
0.0
 11
0.0
 21
3.7999999999999972
 31
0.0
  0
ARC
  5
2BF
100
AcDbEntity
  8
0
  6
CONTINUOUS
 62
               4
100
AcDbCircle
 10
-16.300068323168489
 20
3.6000683231685144
 30
0.0
 40
1.3999316784987346
100
AcDbArc
 50
89.997203699822904
 51
180.00279630017653
  0
ARC
  5
2C0
100
AcDbEntity
  8
0
  6
CONTINUOUS
 62
               4
100
AcDbCircle
 10
-5.7008844620561376
 20
3.5991155379438453
 30
0.0
 40
1.4008847412629901
100
AcDbArc
 50
0.0361742439122946
 51
89.963825756087459
  0
LINE
  5
2C1
100
AcDbEntity
  8
0
  6
CONTINUOUS
 62
               7
100
AcDbLine
 10
-16.0
 20
39.199999999999989
 30
0.0
 11
-16.0
 21
6.5
 31
0.0
  0
LINE
  5
2C2
100
AcDbEntity
  8
0
  6
CONTINUOUS
 62
               7
100
AcDbLine
 10
-6.0
 20
39.199999999999989
 30
0.0
 11
-6.0
 21
5.4000000000000057
 31
0.0
  0
LINE
  5
2C3
100
AcDbEntity
  8
0
  6
CENTER
 62
               2
100
AcDbLine
 10
-13.0
 20
32.0
 30
0.0
 11
-9.0
 21
32.0
 31
0.0
  0
LINE
  5
2C4
100
AcDbEntity
  8
0
  6
CONTINUOUS
 62
               7
100
AcDbLine
 10
-15.599999999999994
 20
5.0
 30
0.0
 11
-6.3999999999999773
 21
5.0
 31
0.0
  0
LINE
  5
2C5
100
AcDbEntity
  8
0
  6
CONTINUOUS
 62
               7
100
AcDbLine
 10
-16.049999999999983
 20
6.5
 30
0.0
 11
-12.699999999999989
 21
6.5
 31
0.0
  0
LINE
  5
2C6
100
AcDbEntity
  8
0
  6
CONTINUOUS
 62
               7
100
AcDbLine
 10
-12.5
 20
6.2999999999999972
 30
0.0
 11
-12.5
 21
5.2000000000000028
 31
0.0
  0
LINE
  5
2C7
100
AcDbEntity
  8
0
  6
CONTINUOUS
 62
               7
100
AcDbLine
 10
-12.549999999999983
 20
5.9699999999999989
 30
0.0
 11
-12.549999999999983
 21
6.4399999999999977
 31
0.0
  0
LINE
  5
2C8
100
AcDbEntity
  8
0
  6
CONTINUOUS
 62
               7
100
AcDbLine
 10
-16.049999999999983
 20
5.9699999999999989
 30
0.0
 11
-16.049999999999983
 21
6.5
 31
0.0
  0
LINE
  5
2C9
100
AcDbEntity
  8
0
  6
CONTINUOUS
 62
               7
100
AcDbLine
 10
-16.0
 20
5.769999999999996
 30
0.0
 11
-16.0
 21
5.4000000000000057
 31
0.0
  0
ARC
  5
2CA
100
AcDbEntity
  8
0
  6
CONTINUOUS
 62
               7
100
AcDbCircle
 10
-6.4000289919349598
 20
5.4000289919349598
 30
0.0
 40
0.4000289929855506
100
AcDbArc
 50
270.00415248780246
 51
359.9958475121951
  0
ARC
  5
2CB
100
AcDbEntity
  8
0
  6
CONTINUOUS
 62
               7
100
AcDbCircle
 10
-14.294999999999987
 20
8.4000340043866402
 30
0.0
 40
3.1971731429200378
100
AcDbArc
 50
241.51140199559862
 51
298.48859800440022
  0
ARC
  5
2CC
100
AcDbEntity
  8
0
  6
CONTINUOUS
 62
               7
100
AcDbCircle
 10
-12.300016783684242
 20
5.1999832163157294
 30
0.0
 40
0.1999832170200287
100
AcDbArc
 50
179.99519142511818
 51
270.0048085748798
  0
ARC
  5
2CD
100
AcDbEntity
  8
0
  6
CONTINUOUS
 62
               7
100
AcDbCircle
 10
-12.700010682136053
 20
6.2999893178639468
 30
0.0
 40
0.2000106824213093
100
AcDbArc
 50
0.0030600431187336
 51
89.996939956878265
  0
ARC
  5
2CE
100
AcDbEntity
  8
0
  6
CONTINUOUS
 62
               7
100
AcDbCircle
 10
-12.976445156839645
 20
5.9632050908019067
 30
0.0
 40
0.4264992879044646
100
AcDbArc
 50
298.94996978217108
 51
0.9128645741037794
  0
ARC
  5
2CF
100
AcDbEntity
  8
0
  6
CONTINUOUS
 62
               7
100
AcDbCircle
 10
-15.625943992559655
 20
5.9670602150296759
 30
0.0
 40
0.4240661974054504
100
AcDbArc
 50
179.60280111535411
 51
242.76714820211964
  0
ARC
  5
2D0
100
AcDbEntity
  8
0
  6
CONTINUOUS
 62
               7
100
AcDbCircle
 10
-15.600012206088252
 20
5.3999877939117198
 30
0.0
 40
0.3999877940979543
100
AcDbArc
 50
179.99825155328804
 51
270.00174844670897
  0
LINE
  5
2D1
100
AcDbEntity
  8
0
  6
CENTER
 62
               2
100
AcDbLine
 10
-13.307660424194353
 20
25.5
 30
0.0
 11
-8.6923395758056472
 21
25.5
 31
0.0
  0
LINE
  5
2D2
100
AcDbEntity
  8
0
  6
CONTINUOUS
 62
               7
100
AcDbLine
 10
-6.0
 20
10.0
 30
0.0
 11
-15.999999999999972
 21
10.0
 31
0.0
  0
LINE
  5
2D3
100
AcDbEntity
  8
0
  6
CONTINUOUS
 62
               7
100
AcDbLine
 10
-6.0
 20
28.200000000000017
 30
0.0
 11
-15.999999999999972
 21
28.200000000000017
 31
0.0
  0
CIRCLE
  5
2D4
100
AcDbEntity
  8
0
  6
CONTINUOUS
 62
               7
100
AcDbCircle
 10
-7.2999999999999829
 20
23.90000000000002
 30
0.0
 40
1.0
  0
LINE
  5
2D5
100
AcDbEntity
  8
0
  6
CENTER
 62
               2
100
AcDbLine
 10
-7.2999999999999829
 20
22.241795658711837
 30
0.0
 11
-7.2999999999999829
 21
25.550745803814294
 31
0.0
  0
LINE
  5
2D6
100
AcDbEntity
  8
0
  6
CENTER
 62
               2
100
AcDbLine
 10
-5.7858293132156291
 20
23.90000000000002
 30
0.0
 11
-8.7477988131531674
 21
23.90000000000002
 31
0.0
  0
CIRCLE
  5
2D7
100
AcDbEntity
  8
0
  6
CONTINUOUS
 62
               7
100
AcDbCircle
 10
-14.699999999999989
 20
14.300000000000011
 30
0.0
 40
1.0
  0
LINE
  5
2D8
100
AcDbEntity
  8
0
  6
CENTER
 62
               2
100
AcDbLine
 10
-13.109583850853738
 20
14.300000000000011
 30
0.0
 11
-16.159835173536891
 21
14.300000000000011
 31
0.0
  0
LINE
  5
2D9
100
AcDbEntity
  8
0
  6
CENTER
 62
               2
100
AcDbLine
 10
-14.699999999999989
 20
12.799538601437746
 30
0.0
 11
-14.699999999999989
 21
15.781575310886097
 31
0.0
  0
CIRCLE
  5
2DA
100
AcDbEntity
  8
0
  6
CONTINUOUS
 62
               2
100
AcDbCircle
 10
-11.0
 20
19.100000000000009
 30
0.0
 40
1.5
  0
CIRCLE
  5
2DB
100
AcDbEntity
  8
0
  6
CONTINUOUS
 62
               7
100
AcDbCircle
 10
-11.0
 20
19.100000000000009
 30
0.0
 40
1.25
  0
CIRCLE
  5
2DC
100
AcDbEntity
  8
0
  6
CONTINUOUS
 62
               7
100
AcDbCircle
 10
-11.0
 20
25.5
 30
0.0
 40
1.25
  0
CIRCLE
  5
2DD
100
AcDbEntity
  8
0
  6
CONTINUOUS
 62
               7
100
AcDbCircle
 10
-11.0
 20
12.700000000000017
 30
0.0
 40
1.25
  0
CIRCLE
  5
2DE
100
AcDbEntity
  8
0
  6
CONTINUOUS
 62
               2
100
AcDbCircle
 10
-11.0
 20
25.5
 30
0.0
 40
1.5
  0
CIRCLE
  5
2DF
100
AcDbEntity
  8
0
  6
CONTINUOUS
 62
               2
100
AcDbCircle
 10
-11.0
 20
12.700000000000017
 30
0.0
 40
1.5
  0
LINE
  5
2E0
100
AcDbEntity
  8
0
  6
CENTER
 62
               2
100
AcDbLine
 10
-8.6923395758056472
 20
12.700000000000017
 30
0.0
 11
-13.307660424194353
 21
12.700000000000017
 31
0.0
  0
LINE
  5
2E1
100
AcDbEntity
  8
0
  6
CENTER
 62
               2
100
AcDbLine
 10
-8.6923395758056472
 20
19.100000000000009
 30
0.0
 11
-13.307660424194353
 21
19.100000000000009
 31
0.0
  0
LINE
  5
2E2
100
AcDbEntity
  8
0
  6
CENTER
 62
               2
100
AcDbLine
 10
-11.0
 20
64.94327081311917
 30
0.0
 11
-11.0
 21
2.7920000000000016
 31
0.0
  0
CIRCLE
  5
2E3
100
AcDbEntity
  8
0
  6
CONTINUOUS
 62
               7
100
AcDbCircle
 10
-11.000018310546864
 20
32.000018310546864
 30
0.0
 40
0.8999999761581421
  0
LINE
  5
2E4
100
AcDbEntity
  8
0
  6
CONTINUOUS
 62
               7
100
AcDbLine
 10
-16.0
 20
39.199999999999989
 30
0.0
 11
-6.0
 21
39.199999999999989
 31
0.0
  0
LINE
  5
2E5
100
AcDbEntity
  8
0
  6
CONTINUOUS
 62
               4
100
AcDbLine
 10
-16.0
 20
61.699999999999989
 30
0.0
 11
-16.0
 21
39.199999999999989
 31
0.0
  0
LINE
  5
2E6
100
AcDbEntity
  8
0
  6
CONTINUOUS
 62
               4
100
AcDbLine
 10
-6.0
 20
61.699999999999989
 30
0.0
 11
-6.0
 21
39.199999999999989
 31
0.0
  0
ARC
  5
2E7
100
AcDbEntity
  8
0
  6
CONTINUOUS
 62
               4
100
AcDbCircle
 10
-8.5970880052370262
 20
61.101088005236988
 30
0.0
 40
0.5989129830170392
100
AcDbArc
 50
89.895914524772735
 51
180.10408547522667
  0
ARC
  5
2E8
100
AcDbEntity
  8
0
  6
CONTINUOUS
 62
               4
100
AcDbCircle
 10
-6.7959048533417672
 20
61.100095146658163
 30
0.0
 40
0.5999048608870732
100
AcDbArc
 50
359.99091272245295
 51
90.009087277546172
  0
LINE
  5
2E9
100
AcDbEntity
  8
0
  6
CONTINUOUS
 62
               4
100
AcDbLine
 10
-6.0
 20
61.099999999999994
 30
0.0
 11
-9.1999999999999886
 21
61.099999999999994
 31
0.0
  0
ARC
  5
2EA
100
AcDbEntity
  8
0
  6
CONTINUOUS
 62
               4
100
AcDbCircle
 10
-15.5
 20
61.099999999999994
 30
0.0
 40
0.5
100
AcDbArc
 50
89.999999999999815
 51
179.99999999999963
  0
LINE
  5
2EB
100
AcDbEntity
  8
0
  6
CONTINUOUS
 62
               4
100
AcDbLine
 10
-9.1999999999999886
 20
61.599999999999994
 30
0.0
 11
-9.1999999999999886
 21
60.099999999999994
 31
0.0
  0
LINE
  5
2EC
100
AcDbEntity
  8
0
  6
CONTINUOUS
 62
               4
100
AcDbLine
 10
-9.1999999999999886
 20
61.599999999999994
 30
0.0
 11
-15.5
 21
61.599999999999994
 31
0.0
  0
LINE
  5
2ED
100
AcDbEntity
  8
0
  6
CONTINUOUS
 62
               4
100
AcDbLine
 10
-6.0
 20
60.099999999999994
 30
0.0
 11
-9.1999999999999886
 21
60.099999999999994
 31
0.0
  0
LINE
  5
2EE
100
AcDbEntity
  8
0
  6
CONTINUOUS
 62
               4
100
AcDbLine
 10
-6.0
 20
61.699999999999989
 30
0.0
 11
-16.0
 21
61.699999999999989
 31
0.0
  0
LINE
  5
2EF
100
AcDbEntity
  8
0
  6
CONTINUOUS
 62
               4
100
AcDbLine
 10
-9.1000183105468864
 20
69.669999999999845
 30
0.0
 11
-9.1000183105468864
 21
66.699999999999875
 31
0.0
  0
LINE
  5
2F0
100
AcDbEntity
  8
0
  6
CONTINUOUS
 62
               4
100
AcDbLine
 10
-10.400018310546898
 20
70.019999999999868
 30
0.0
 11
-10.400018310546898
 21
66.699999999999875
 31
0.0
  0
LINE
  5
2F1
100
AcDbEntity
  8
0
  6
CONTINUOUS
 62
               4
100
AcDbLine
 10
-12.900018310546898
 20
70.689999999999884
 30
0.0
 11
-12.900018310546898
 21
66.699999999999875
 31
0.0
  0
LINE
  5
2F2
100
AcDbEntity
  8
0
  6
CONTINUOUS
 62
               4
100
AcDbLine
 10
-11.600018310546886
 20
70.339999999999861
 30
0.0
 11
-11.600018310546886
 21
66.699999999999875
 31
0.0
  0
LINE
  5
2F3
100
AcDbEntity
  8
0
  6
CONTINUOUS
 62
               4
100
AcDbLine
 10
-10.400018310546898
 20
74.192929272933327
 30
0.0
 11
-9.1000183105468864
 21
74.192929272933327
 31
0.0
  0
LINE
  5
2F4
100
AcDbEntity
  8
0
  6
CONTINUOUS
 62
             200
100
AcDbLine
 10
-14.750018310546864
 20
72.219999999999857
 30
0.0
 11
-7.2500183105468636
 21
70.209999999999866
 31
0.0
  0
LINE
  5
2F5
100
AcDbEntity
  8
0
  6
CONTINUOUS
 62
             200
100
AcDbLine
 10
-14.750018310546864
 20
71.179999999999893
 30
0.0
 11
-7.2500183105468636
 21
69.169999999999845
 31
0.0
  0
LINE
  5
2F6
100
AcDbEntity
  8
0
  6
CONTINUOUS
 62
               4
100
AcDbLine
 10
-12.900018310546898
 20
74.192929272933327
 30
0.0
 11
-11.600018310546886
 21
74.192929272933327
 31
0.0
  0
LINE
  5
2F7
100
AcDbEntity
  8
0
  6
CONTINUOUS
 62
               4
100
AcDbLine
 10
-10.000018310546864
 20
77.692929270933348
 30
0.0
 11
-10.000018310546864
 21
74.192929272933327
 31
0.0
  0
LINE
  5
2F8
100
AcDbEntity
  8
0
  6
CONTINUOUS
 62
               4
100
AcDbLine
 10
-9.5000183105468636
 20
77.692929270933348
 30
0.0
 11
-9.5000183105468636
 21
74.192929272933327
 31
0.0
  0
LINE
  5
2F9
100
AcDbEntity
  8
0
  6
CONTINUOUS
 62
               4
100
AcDbLine
 10
-12.900018310546898
 20
74.192929272933327
 30
0.0
 11
-12.900018310546898
 21
71.719999999999857
 31
0.0
  0
LINE
  5
2FA
100
AcDbEntity
  8
0
  6
CONTINUOUS
 62
               4
100
AcDbLine
 10
-11.600018310546886
 20
74.192929272933327
 30
0.0
 11
-11.600018310546886
 21
71.369999999999891
 31
0.0
  0
LINE
  5
2FB
100
AcDbEntity
  8
0
  6
CONTINUOUS
 62
               4
100
AcDbLine
 10
-12.500018310546864
 20
77.692929270933348
 30
0.0
 11
-12.500018310546864
 21
74.192929272933327
 31
0.0
  0
LINE
  5
2FC
100
AcDbEntity
  8
0
  6
CONTINUOUS
 62
               4
100
AcDbLine
 10
-12.000018310546864
 20
77.692929270933348
 30
0.0
 11
-12.000018310546864
 21
74.192929272933327
 31
0.0
  0
LINE
  5
2FD
100
AcDbEntity
  8
0
  6
CONTINUOUS
 62
               4
100
AcDbLine
 10
-10.400018310546898
 20
74.192929272933327
 30
0.0
 11
-10.400018310546898
 21
71.049999999999898
 31
0.0
  0
LINE
  5
2FE
100
AcDbEntity
  8
0
  6
CONTINUOUS
 62
               4
100
AcDbLine
 10
-9.1000183105468864
 20
74.192929272933327
 30
0.0
 11
-9.1000183105468864
 21
70.699999999999875
 31
0.0
  0
LINE
  5
2FF
100
AcDbEntity
  8
0
  6
CONTINUOUS
 62
               4
100
AcDbLine
 10
-12.500018310546864
 20
77.692929270933348
 30
0.0
 11
-12.000018310546864
 21
77.692929270933348
 31
0.0
  0
LINE
  5
300
100
AcDbEntity
  8
0
  6
CONTINUOUS
 62
               4
100
AcDbLine
 10
-10.000018310546864
 20
77.692929270933348
 30
0.0
 11
-9.5000183105468636
 21
77.692929270933348
 31
0.0
  0
LINE
  5
301
100
AcDbEntity
  8
0
  6
CONTINUOUS
 62
               4
100
AcDbLine
 10
-7.2500183105468636
 20
66.699999999999875
 30
0.0
 11
-7.2500183105468636
 21
61.699999999999989
 31
0.0
  0
LINE
  5
302
100
AcDbEntity
  8
0
  6
CONTINUOUS
 62
               4
100
AcDbLine
 10
-14.750018310546864
 20
66.699999999999875
 30
0.0
 11
-7.2500183105468636
 21
66.699999999999875
 31
0.0
  0
LINE
  5
303
100
AcDbEntity
  8
0
  6
CONTINUOUS
 62
               4
100
AcDbLine
 10
-14.750018310546864
 20
66.699999999999875
 30
0.0
 11
-14.750018310546864
 21
61.699999999999989
 31
0.0
  0
LINE
  5
304
100
AcDbEntity
  8
0
  6
CONTINUOUS
 62
               4
100
AcDbLine
 10
-7.2500183105468636
 20
65.696969688399747
 30
0.0
 11
-14.750018310546864
 21
65.696969688399747
 31
0.0
  0
ENDBLK
  5
305
100
AcDbEntity
  8
0
100
AcDbBlockEnd
  0
BLOCK
  5
306
100
AcDbEntity
  8
0
100
AcDbBlockBegin
  2
EA10F5-7
 70
               0
 10
0.0
 20
0.0
 30
0.0
  3
EA10F5-7
  1

  0
LINE
  5
307
100
AcDbEntity
  8
0
  6
CENTER
 62
             200
100
AcDbLine
 10
1.75
 20
0.0
 30
0.0
 11
1.75
 21
1.2000000000000171
 31
0.0
  0
LINE
  5
308
100
AcDbEntity
  8
0
  6
CENTER
 62
             200
100
AcDbLine
 10
-1.75
 20
0.0
 30
0.0
 11
-1.75
 21
1.2000000000000171
 31
0.0
  0
LINE
  5
309
100
AcDbEntity
  8
0
  6
CENTER
 62
             200
100
AcDbLine
 10
23.75
 20
0.0
 30
0.0
 11
23.75
 21
1.2000000000000171
 31
0.0
  0
LINE
  5
30A
100
AcDbEntity
  8
0
  6
CENTER
 62
             200
100
AcDbLine
 10
20.25
 20
0.0
 30
0.0
 11
20.25
 21
1.2000000000000171
 31
0.0
  0
LINE
  5
30B
100
AcDbEntity
  8
0
  6
CENTER
 62
             200
100
AcDbLine
 10
22.0
 20
-2.443871755798483
 30
0.0
 11
22.0
 21
3.7999999999999829
 31
0.0
  0
LINE
  5
30C
100
AcDbEntity
  8
0
  6
CENTER
 62
             200
100
AcDbLine
 10
0.0
 20
-2.443871755798483
 30
0.0
 11
0.0
 21
3.7999999999999829
 31
0.0
  0
CIRCLE
  5
30D
100
AcDbEntity
  8
0
  6
CONTINUOUS
 62
               7
100
AcDbCircle
 10
7.3000000000000114
 20
23.900000000000006
 30
0.0
 40
1.0
  0
ARC
  5
30E
100
AcDbEntity
  8
0
  6
CONTINUOUS
 62
               7
100
AcDbCircle
 10
7.3000000000000114
 20
23.900000000000006
 30
0.0
 40
1.6499999999999999
100
AcDbArc
 50
269.99999999999937
 51
89.999999999999801
  0
LINE
  5
30F
100
AcDbEntity
  8
0
  6
CONTINUOUS
 62
               7
100
AcDbLine
 10
7.3000000000000114
 20
25.549999999999983
 30
0.0
 11
6.0
 21
25.549999999999983
 31
0.0
  0
LINE
  5
310
100
AcDbEntity
  8
0
  6
CONTINUOUS
 62
               7
100
AcDbLine
 10
7.3000000000000114
 20
22.249999999999972
 30
0.0
 11
6.0
 21
22.249999999999972
 31
0.0
  0
LINE
  5
311
100
AcDbEntity
  8
0
  6
CENTER
 62
               2
100
AcDbLine
 10
15.178166284015219
 20
22.299999999999983
 30
0.0
 11
10.821833715984781
 21
22.299999999999983
 31
0.0
  0
ARC
  5
312
100
AcDbEntity
  8
0
  6
CONTINUOUS
 62
               7
100
AcDbCircle
 10
6.5905539681090772
 20
6.2682512686530458
 30
0.0
 40
0.6105564724372722
100
AcDbArc
 50
179.83589550320582
 51
253.77907243150949
  0
LINE
  5
313
100
AcDbEntity
  8
0
  6
CONTINUOUS
 62
               7
100
AcDbLine
 10
15.800000000000011
 20
5.0
 30
0.0
 11
6.1999999999999886
 21
5.0
 31
0.0
  0
LINE
  5
314
100
AcDbEntity
  8
0
  6
CONTINUOUS
 62
               7
100
AcDbLine
 10
5.9800000000000182
 20
6.8000000000000114
 30
0.0
 11
9.5
 21
6.8000000000000114
 31
0.0
  0
ARC
  5
315
100
AcDbEntity
  8
0
  6
CONTINUOUS
 62
               7
100
AcDbCircle
 10
6.2991048631411104
 20
7.0991048631411218
 30
0.0
 40
0.2991062025847394
100
AcDbArc
 50
179.82853033398985
 51
270.17146966600922
  0
ARC
  5
316
100
AcDbEntity
  8
0
  6
CONTINUOUS
 62
               7
100
AcDbCircle
 10
6.1999999999999886
 20
5.1999999999999886
 30
0.0
 40
0.2
100
AcDbArc
 50
179.99999999999963
 51
269.99999999999937
  0
LINE
  5
317
100
AcDbEntity
  8
0
  6
CONTINUOUS
 62
               7
100
AcDbLine
 10
9.5
 20
5.0
 30
0.0
 11
9.5
 21
6.8000000000000114
 31
0.0
  0
ARC
  5
318
100
AcDbEntity
  8
0
  6
CONTINUOUS
 62
               7
100
AcDbCircle
 10
7.6999999999999886
 20
10.087421236733974
 30
0.0
 40
4.5876068132596712
100
AcDbArc
 50
253.79871892415684
 51
286.20128107584191
  0
ARC
  5
319
100
AcDbEntity
  8
0
  6
CONTINUOUS
 62
               7
100
AcDbCircle
 10
8.8082280041660965
 20
6.2691627179709997
 30
0.0
 40
0.6117725687931934
100
AcDbArc
 50
286.30661609184898
 51
0.0784159734340139
  0
LINE
  5
31A
100
AcDbEntity
  8
0
  6
CONTINUOUS
 62
               7
100
AcDbLine
 10
9.4200000000000159
 20
6.2700000000000387
 30
0.0
 11
9.4200000000000159
 21
6.8000000000000114
 31
0.0
  0
LINE
  5
31B
100
AcDbEntity
  8
0
  6
CONTINUOUS
 62
               7
100
AcDbLine
 10
6.0
 20
5.1999999999999886
 30
0.0
 11
6.0
 21
6.1132505693459507
 31
0.0
  0
LINE
  5
31C
100
AcDbEntity
  8
0
  6
CONTINUOUS
 62
               7
100
AcDbLine
 10
5.9800000000000182
 20
6.2700000000000387
 30
0.0
 11
5.9800000000000182
 21
6.8000000000000114
 31
0.0
  0
ARC
  5
31D
100
AcDbEntity
  8
0
  6
CONTINUOUS
 62
               7
100
AcDbCircle
 10
15.800000000000011
 20
5.1999999999999886
 30
0.0
 40
0.2
100
AcDbArc
 50
269.99999999999937
 51
0.0
  0
LINE
  5
31E
100
AcDbEntity
  8
0
  6
CONTINUOUS
 62
               7
100
AcDbLine
 10
16.0
 20
10.0
 30
0.0
 11
6.0
 21
10.0
 31
0.0
  0
LINE
  5
31F
100
AcDbEntity
  8
0
  6
CENTER
 62
               2
100
AcDbLine
 10
14.700000000000017
 20
12.121833715984764
 30
0.0
 11
14.700000000000017
 21
16.478166284015202
 31
0.0
  0
CIRCLE
  5
320
100
AcDbEntity
  8
0
  6
CONTINUOUS
 62
               7
100
AcDbCircle
 10
14.700000000000017
 20
14.299999999999983
 30
0.0
 40
1.0
  0
LINE
  5
321
100
AcDbEntity
  8
0
  6
CENTER
 62
               2
100
AcDbLine
 10
11.178166284015219
 20
15.900000000000006
 30
0.0
 11
6.8218337159847806
 21
15.900000000000006
 31
0.0
  0
CIRCLE
  5
322
100
AcDbEntity
  8
0
  6
CONTINUOUS
 62
               2
100
AcDbCircle
 10
9.0026882635082472
 20
15.892204297557356
 30
0.0
 40
1.5
  0
CIRCLE
  5
323
100
AcDbEntity
  8
0
  6
CONTINUOUS
 62
               7
100
AcDbCircle
 10
9.0026882635082472
 20
15.892204297557356
 30
0.0
 40
1.25
  0
LINE
  5
324
100
AcDbEntity
  8
0
  6
CENTER
 62
               2
100
AcDbLine
 10
9.0
 20
13.721833715984786
 30
0.0
 11
9.0
 21
18.078166284015225
 31
0.0
  0
ARC
  5
325
100
AcDbEntity
  8
0
  6
CONTINUOUS
 62
               7
100
AcDbCircle
 10
14.700000000000017
 20
14.299999999999983
 30
0.0
 40
1.6499999999999999
100
AcDbArc
 50
89.999999999999815
 51
269.99999999999937
  0
LINE
  5
326
100
AcDbEntity
  8
0
  6
CONTINUOUS
 62
               7
100
AcDbLine
 10
14.700000000000017
 20
15.949999999999989
 30
0.0
 11
16.0
 21
15.949999999999989
 31
0.0
  0
LINE
  5
327
100
AcDbEntity
  8
0
  6
CONTINUOUS
 62
               7
100
AcDbLine
 10
14.700000000000017
 20
12.650000000000006
 30
0.0
 11
16.0
 21
12.650000000000006
 31
0.0
  0
LINE
  5
328
100
AcDbEntity
  8
0
  6
CENTER
 62
               2
100
AcDbLine
 10
7.3000000000000114
 20
21.721833715984758
 30
0.0
 11
7.3000000000000114
 21
26.078166284015197
 31
0.0
  0
LINE
  5
329
100
AcDbEntity
  8
0
  6
CENTER
 62
               2
100
AcDbLine
 10
13.0
 20
20.121833715984764
 30
0.0
 11
13.0
 21
24.478166284015202
 31
0.0
  0
CIRCLE
  5
32A
100
AcDbEntity
  8
0
  6
CONTINUOUS
 62
               7
100
AcDbCircle
 10
13.0
 20
22.299999999999983
 30
0.0
 40
1.25
  0
CIRCLE
  5
32B
100
AcDbEntity
  8
0
  6
CONTINUOUS
 62
               2
100
AcDbCircle
 10
13.0
 20
22.299999999999983
 30
0.0
 40
1.5
  0
LINE
  5
32C
100
AcDbEntity
  8
0
  6
CONTINUOUS
 62
               7
100
AcDbLine
 10
16.0
 20
5.1999999999999886
 30
0.0
 11
16.0
 21
28.199999999999989
 31
0.0
  0
LINE
  5
32D
100
AcDbEntity
  8
0
  6
CONTINUOUS
 62
               7
100
AcDbLine
 10
6.0
 20
6.8000000000000114
 30
0.0
 11
6.0
 21
28.199999999999989
 31
0.0
  0
LINE
  5
32E
100
AcDbEntity
  8
0
  6
CONTINUOUS
 62
               7
100
AcDbLine
 10
16.0
 20
28.199999999999989
 30
0.0
 11
6.0
 21
28.199999999999989
 31
0.0
  0
CIRCLE
  5
32F
100
AcDbEntity
  8
0
  6
CONTINUOUS
 62
               7
100
AcDbCircle
 10
11.0
 20
36.900000000000006
 30
0.0
 40
0.75
  0
CIRCLE
  5
330
100
AcDbEntity
  8
0
  6
CONTINUOUS
 62
               7
100
AcDbCircle
 10
11.0
 20
36.900000000000006
 30
0.0
 40
1.1000000000000001
  0
CIRCLE
  5
331
100
AcDbEntity
  8
0
  6
CONTINUOUS
 62
               7
100
AcDbCircle
 10
11.0
 20
36.900000000000006
 30
0.0
 40
1.1500000000000001
  0
CIRCLE
  5
332
100
AcDbEntity
  8
0
  6
CONTINUOUS
 62
               7
100
AcDbCircle
 10
11.0
 20
36.900000000000006
 30
0.0
 40
1.3000000000000012
  0
LINE
  5
333
100
AcDbEntity
  8
0
  6
CENTER
 62
               2
100
AcDbLine
 10
12.699999999999989
 20
36.900000000000006
 30
0.0
 11
9.3000000000000114
 21
36.900000000000006
 31
0.0
  0
ARC
  5
334
100
AcDbEntity
  8
0
  6
CONTINUOUS
 62
               7
100
AcDbCircle
 10
11.0
 20
35.199999999999989
 30
0.0
 40
2.0
100
AcDbArc
 50
179.99999999999963
 51
0.0
  0
LINE
  5
335
100
AcDbEntity
  8
0
  6
CONTINUOUS
 62
               7
100
AcDbLine
 10
13.0
 20
35.199999999999989
 30
0.0
 11
13.0
 21
39.199999999999989
 31
0.0
  0
LINE
  5
336
100
AcDbEntity
  8
0
  6
CONTINUOUS
 62
               7
100
AcDbLine
 10
9.0
 20
35.199999999999989
 30
0.0
 11
9.0
 21
39.199999999999989
 31
0.0
  0
LINE
  5
337
100
AcDbEntity
  8
0
  6
CONTINUOUS
 62
               7
100
AcDbLine
 10
16.0
 20
28.199999999999989
 30
0.0
 11
16.0
 21
39.199999999999989
 31
0.0
  0
LINE
  5
338
100
AcDbEntity
  8
0
  6
CONTINUOUS
 62
               7
100
AcDbLine
 10
6.0
 20
28.199999999999989
 30
0.0
 11
6.0
 21
39.199999999999989
 31
0.0
  0
LINE
  5
339
100
AcDbEntity
  8
0
  6
CONTINUOUS
 62
               7
100
AcDbLine
 10
16.0
 20
39.199999999999989
 30
0.0
 11
6.0
 21
39.199999999999989
 31
0.0
  0
LINE
  5
33A
100
AcDbEntity
  8
0
  6
CONTINUOUS
 62
               4
100
AcDbLine
 10
-3.0
 20
1.2000000000000171
 30
0.0
 11
4.1000000000000227
 21
1.2000000000000171
 31
0.0
  0
LINE
  5
33B
100
AcDbEntity
  8
0
  6
CONTINUOUS
 62
               4
100
AcDbLine
 10
-3.0
 20
0.0
 30
0.0
 11
4.1000000000000227
 21
0.0
 31
0.0
  0
LINE
  5
33C
100
AcDbEntity
  8
0
  6
CONTINUOUS
 62
               4
100
AcDbLine
 10
-3.0
 20
0.0
 30
0.0
 11
-3.0
 21
1.2000000000000171
 31
0.0
  0
LINE
  5
33D
100
AcDbEntity
  8
0
  6
CONTINUOUS
 62
               4
100
AcDbLine
 10
5.7000000000000171
 20
3.7999999999999829
 30
0.0
 11
16.300000000000011
 21
3.7999999999999829
 31
0.0
  0
LINE
  5
33E
100
AcDbEntity
  8
0
  6
CONTINUOUS
 62
               4
100
AcDbLine
 10
5.5
 20
1.4000000000000057
 30
0.0
 11
5.5
 21
3.5999999999999943
 31
0.0
  0
LINE
  5
33F
100
AcDbEntity
  8
0
  6
CONTINUOUS
 62
               4
100
AcDbLine
 10
4.3000000000000114
 20
1.4000000000000057
 30
0.0
 11
4.3000000000000114
 21
3.5999999999999943
 31
0.0
  0
LINE
  5
340
100
AcDbEntity
  8
0
  6
CONTINUOUS
 62
               4
100
AcDbLine
 10
5.9700000000000273
 20
3.2659999999999911
 30
0.0
 11
5.9700000000000273
 21
3.7999999999999829
 31
0.0
  0
LINE
  5
341
100
AcDbEntity
  8
0
  6
CONTINUOUS
 62
               4
100
AcDbLine
 10
9.4300000000000068
 20
3.2659999999999911
 30
0.0
 11
9.4300000000000068
 21
3.7999999999999829
 31
0.0
  0
LINE
  5
342
100
AcDbEntity
  8
0
  6
CONTINUOUS
 62
               4
100
AcDbLine
 10
12.569999999999993
 20
3.2659999999999911
 30
0.0
 11
12.569999999999993
 21
3.7999999999999829
 31
0.0
  0
LINE
  5
343
100
AcDbEntity
  8
0
  6
CONTINUOUS
 62
               4
100
AcDbLine
 10
16.03000000000003
 20
3.2659999999999911
 30
0.0
 11
16.03000000000003
 21
3.7999999999999829
 31
0.0
  0
ARC
  5
344
100
AcDbEntity
  8
0
  6
CONTINUOUS
 62
               4
100
AcDbCircle
 10
4.0999415866173763
 20
1.4000584133826521
 30
0.0
 40
0.2000584219104543
100
AcDbArc
 50
270.01672931490481
 51
359.98327068509366
  0
ARC
  5
345
100
AcDbEntity
  8
0
  6
CONTINUOUS
 62
               4
100
AcDbCircle
 10
16.299115528302707
 20
3.5991155283026899
 30
0.0
 40
0.2008864188024893
100
AcDbArc
 50
0.2522652321918488
 51
89.747734767807131
  0
ARC
  5
346
100
AcDbEntity
  8
0
  6
CONTINUOUS
 62
               4
100
AcDbCircle
 10
5.6999333589326397
 20
3.6000666410673432
 30
0.0
 40
0.1999333700389205
100
AcDbArc
 50
89.980902377767208
 51
180.01909762223218
  0
ARC
  5
347
100
AcDbEntity
  8
0
  6
CONTINUOUS
 62
               4
100
AcDbCircle
 10
4.099943315390135
 20
1.4000566846098934
 30
0.0
 40
1.4000566857574084
100
AcDbArc
 50
270.00231975529556
 51
359.99768024470291
  0
ARC
  5
348
100
AcDbEntity
  8
0
  6
CONTINUOUS
 62
               4
100
AcDbCircle
 10
7.6990000000000123
 20
7.1068760989089412
 30
0.0
 40
4.6140039015894576
100
AcDbArc
 50
253.80344035273558
 51
286.19655964726314
  0
ARC
  5
349
100
AcDbEntity
  8
0
  6
CONTINUOUS
 62
               4
100
AcDbCircle
 10
6.5838413187467495
 20
3.265298072688239
 30
0.0
 40
0.613841720073419
100
AcDbArc
 50
179.93448232673219
 51
253.74313632481389
  0
ARC
  5
34A
100
AcDbEntity
  8
0
  6
CONTINUOUS
 62
               4
100
AcDbCircle
 10
8.8152220268359258
 20
3.2665820679404476
 30
0.0
 40
0.6147782487131708
100
AcDbArc
 50
286.12822533946951
 51
359.94575273046883
  0
ARC
  5
34B
100
AcDbEntity
  8
0
  6
CONTINUOUS
 62
               4
100
AcDbCircle
 10
14.299000000000035
 20
7.1068760988772226
 30
0.0
 40
4.6140039015589682
100
AcDbArc
 50
253.80344035262561
 51
286.19655964737319
  0
ARC
  5
34C
100
AcDbEntity
  8
0
  6
CONTINUOUS
 62
               4
100
AcDbCircle
 10
13.183839364596452
 20
3.2652966087315747
 30
0.0
 40
0.6138397676001843
100
AcDbArc
 50
179.93434547259068
 51
253.74327317895529
  0
ARC
  5
34D
100
AcDbEntity
  8
0
  6
CONTINUOUS
 62
               4
100
AcDbCircle
 10
15.415220075966602
 20
3.2665835360522806
 30
0.0
 40
0.6147802009733803
100
AcDbArc
 50
286.12836199114588
 51
359.94561607879228
  0
LINE
  5
34E
100
AcDbEntity
  8
0
  6
CONTINUOUS
 62
               4
100
AcDbLine
 10
25.0
 20
0.0
 30
0.0
 11
25.0
 21
1.2000000000000171
 31
0.0
  0
LINE
  5
34F
100
AcDbEntity
  8
0
  6
CONTINUOUS
 62
               4
100
AcDbLine
 10
17.900000000000034
 20
1.2000000000000171
 30
0.0
 11
25.0
 21
1.2000000000000171
 31
0.0
  0
LINE
  5
350
100
AcDbEntity
  8
0
  6
CONTINUOUS
 62
               4
100
AcDbLine
 10
17.900000000000034
 20
0.0
 30
0.0
 11
25.0
 21
0.0
 31
0.0
  0
ARC
  5
351
100
AcDbEntity
  8
0
  6
CONTINUOUS
 62
               4
100
AcDbCircle
 10
17.899103340046224
 20
1.3991033400461959
 30
0.0
 40
0.1991053590856348
100
AcDbArc
 50
179.74197075907335
 51
270.25802924092562
  0
ARC
  5
352
100
AcDbEntity
  8
0
  6
CONTINUOUS
 62
               4
100
AcDbCircle
 10
17.899103333594837
 20
1.3991033335948089
 30
0.0
 40
1.3991036209254675
100
AcDbArc
 50
179.96327991479848
 51
270.03672008520033
  0
LINE
  5
353
100
AcDbEntity
  8
0
  6
CONTINUOUS
 62
               4
100
AcDbLine
 10
17.699999999999989
 20
1.4000000000000057
 30
0.0
 11
17.699999999999989
 21
3.5999999999999943
 31
0.0
  0
LINE
  5
354
100
AcDbEntity
  8
0
  6
CONTINUOUS
 62
               4
100
AcDbLine
 10
16.5
 20
1.4000000000000057
 30
0.0
 11
16.5
 21
3.5999999999999943
 31
0.0
  0
ARC
  5
355
100
AcDbEntity
  8
0
  6
CONTINUOUS
 62
               4
100
AcDbCircle
 10
5.6999316768315111
 20
3.6000683231685287
 30
0.0
 40
1.3999316784987346
100
AcDbArc
 50
89.997203699822904
 51
180.00279630017653
  0
ARC
  5
356
100
AcDbEntity
  8
0
  6
CONTINUOUS
 62
               4
100
AcDbCircle
 10
16.299115537943862
 20
3.5991155379438453
 30
0.0
 40
1.4008847412629901
100
AcDbArc
 50
0.0361742439122946
 51
89.963825756087459
  0
LINE
  5
357
100
AcDbEntity
  8
0
  6
CONTINUOUS
 62
               4
100
AcDbLine
 10
16.300000000000011
 20
5.0
 30
0.0
 11
5.7000000000000171
 21
5.0
 31
0.0
  0
LINE
  5
358
100
AcDbEntity
  8
0
  6
CONTINUOUS
 62
               4
100
AcDbLine
 10
22.0
 20
0.0
 30
0.0
 11
22.0
 21
1.2000000000000171
 31
0.0
  0
LINE
  5
359
100
AcDbEntity
  8
0
  6
CONTINUOUS
 62
               4
100
AcDbLine
 10
0.0
 20
0.0
 30
0.0
 11
0.0
 21
1.2000000000000171
 31
0.0
  0
ARC
  5
35A
100
AcDbEntity
  8
0
  6
CONTINUOUS
 62
               7
100
AcDbCircle
 10
11.0
 20
35.199999999999989
 30
0.0
 40
3.090998569384837
100
AcDbArc
 50
179.99999999999963
 51
0.0
  0
LINE
  5
35B
100
AcDbEntity
  8
0
  6
CONTINUOUS
 62
               7
100
AcDbLine
 10
14.090998569384851
 20
35.199999999999989
 30
0.0
 11
14.090998569384851
 21
39.199999999999989
 31
0.0
  0
LINE
  5
35C
100
AcDbEntity
  8
0
  6
CONTINUOUS
 62
               7
100
AcDbLine
 10
7.9090014306151488
 20
35.199999999999989
 30
0.0
 11
7.9090014306151488
 21
39.199999999999989
 31
0.0
  0
LINE
  5
35D
100
AcDbEntity
  8
0
  6
CENTER
 62
               2
100
AcDbLine
 10
16.878166284015236
 20
14.299999999999983
 30
0.0
 11
12.521833715984798
 21
14.299999999999983
 31
0.0
  0
LINE
  5
35E
100
AcDbEntity
  8
0
  6
CENTER
 62
               2
100
AcDbLine
 10
9.4781662840152308
 20
23.900000000000006
 30
0.0
 11
5.121833715984792
 21
23.899999999999949
 31
0.0
  0
LINE
  5
35F
100
AcDbEntity
  8
0
  6
CONTINUOUS
 62
               4
100
AcDbLine
 10
15.061999999999998
 20
40.27799999573412
 30
0.0
 11
6.937999999999974
 21
40.27799999573412
 31
0.0
  0
LINE
  5
360
100
AcDbEntity
  8
0
  6
CONTINUOUS
 62
               4
100
AcDbLine
 10
15.499999999999986
 20
57.700000000000017
 30
0.0
 11
6.4999999999999858
 21
57.700000000000017
 31
0.0
  0
LINE
  5
361
100
AcDbEntity
  8
0
  6
CONTINUOUS
 62
               4
100
AcDbLine
 10
15.999999999999986
 20
60.099999999999994
 30
0.0
 11
12.79999999999994
 21
60.099999999999994
 31
0.0
  0
LINE
  5
362
100
AcDbEntity
  8
0
  6
CONTINUOUS
 62
               4
100
AcDbLine
 10
15.999999999999986
 20
61.700000000000017
 30
0.0
 11
5.9999999999999858
 21
61.700000000000017
 31
0.0
  0
LINE
  5
363
100
AcDbEntity
  8
0
  6
CONTINUOUS
 62
               4
100
AcDbLine
 10
15.999999999999986
 20
61.099999999999994
 30
0.0
 11
12.79999999999994
 21
61.099999999999994
 31
0.0
  0
LINE
  5
364
100
AcDbEntity
  8
0
  6
CONTINUOUS
 62
               4
100
AcDbLine
 10
5.9999999999999858
 20
39.200000000000017
 30
0.0
 11
15.999999999999986
 21
39.200000000000017
 31
0.0
  0
ARC
  5
365
100
AcDbEntity
  8
0
  6
CONTINUOUS
 62
               4
100
AcDbCircle
 10
6.5002970242061195
 20
39.700297024206122
 30
0.0
 40
0.5002971123771115
100
AcDbArc
 50
180.03401625554557
 51
269.96598374445358
  0
LINE
  5
366
100
AcDbEntity
  8
0
  6
PHANTOM
 62
             200
100
AcDbLine
 10
9.4999816894531222
 20
46.699999995730536
 30
0.0
 11
9.4999816894531222
 21
44.699999995730536
 31
0.0
  0
LINE
  5
367
100
AcDbEntity
  8
0
  6
PHANTOM
 62
             200
100
AcDbLine
 10
12.499981689453122
 20
46.699999995730536
 30
0.0
 11
12.499981689453122
 21
44.699999995730536
 31
0.0
  0
LINE
  5
368
100
AcDbEntity
  8
0
  6
PHANTOM
 62
             200
100
AcDbLine
 10
9.4999816894531222
 20
44.699999995730536
 30
0.0
 11
12.499981689453122
 21
44.699999995730536
 31
0.0
  0
LINE
  5
369
100
AcDbEntity
  8
0
  6
PHANTOM
 62
             200
100
AcDbLine
 10
9.4999816894531222
 20
46.699999995730536
 30
0.0
 11
12.499981689453122
 21
46.699999995730536
 31
0.0
  0
LINE
  5
36A
100
AcDbEntity
  8
0
  6
CONTINUOUS
 62
               4
100
AcDbLine
 10
12.79999999999994
 20
61.599999999999994
 30
0.0
 11
6.4999999999999858
 21
61.599999999999994
 31
0.0
  0
LINE
  5
36B
100
AcDbEntity
  8
0
  6
CONTINUOUS
 62
               4
100
AcDbLine
 10
12.79999999999994
 20
61.599999999999994
 30
0.0
 11
12.79999999999994
 21
60.099999999999994
 31
0.0
  0
ARC
  5
36C
100
AcDbEntity
  8
0
  6
CONTINUOUS
 62
               4
100
AcDbCircle
 10
6.4999999999999858
 20
61.099999999999994
 30
0.0
 40
0.5
100
AcDbArc
 50
89.999999999999815
 51
179.99999999999963
  0
CIRCLE
  5
36D
100
AcDbEntity
  8
0
  6
CONTINUOUS
 62
               4
100
AcDbCircle
 10
12.250593872070326
 20
54.200000000000017
 30
0.0
 40
0.25
  0
CIRCLE
  5
36E
100
AcDbEntity
  8
0
  6
CONTINUOUS
 62
               4
100
AcDbCircle
 10
9.7505938720703256
 20
54.200000000000017
 30
0.0
 40
0.25
  0
LINE
  5
36F
100
AcDbEntity
  8
0
  6
CONTINUOUS
 62
               4
100
AcDbLine
 10
6.437999999999974
 20
57.200000000000017
 30
0.0
 11
6.437999999999974
 21
40.77799999573412
 31
0.0
  0
ARC
  5
370
100
AcDbEntity
  8
0
  6
CONTINUOUS
 62
               4
100
AcDbCircle
 10
6.9380179446579149
 20
57.199982055342076
 30
0.0
 40
0.5000179449799356
100
AcDbArc
 50
90.002056232531103
 51
179.99794376746806
  0
ARC
  5
371
100
AcDbEntity
  8
0
  6
CONTINUOUS
 62
               4
100
AcDbCircle
 10
6.5002970242061195
 20
57.199702975793883
 30
0.0
 40
0.5002971123771114
100
AcDbArc
 50
90.034016255545609
 51
179.96598374445358
  0
ARC
  5
372
100
AcDbEntity
  8
0
  6
CONTINUOUS
 62
               4
100
AcDbCircle
 10
6.9377864392091482
 20
40.777786434943295
 30
0.0
 40
0.4997864848369056
100
AcDbArc
 50
179.97551728042748
 51
270.02448271957149
  0
ARC
  5
373
100
AcDbEntity
  8
0
  6
CONTINUOUS
 62
               4
100
AcDbCircle
 10
12.249999999999986
 20
54.200000000000017
 30
0.0
 40
2.0000000881710065
100
AcDbArc
 50
269.99999999999937
 51
89.999999999999801
  0
ARC
  5
374
100
AcDbEntity
  8
0
  6
CONTINUOUS
 62
               4
100
AcDbCircle
 10
9.7499999999999858
 20
54.200000000000017
 30
0.0
 40
2.0000000881710065
100
AcDbArc
 50
89.999999999999815
 51
269.99999999999937
  0
LINE
  5
375
100
AcDbEntity
  8
0
  6
CONTINUOUS
 62
               4
100
AcDbLine
 10
12.249999999999986
 20
56.200000000000017
 30
0.0
 11
9.7499999999999858
 21
56.200000000000017
 31
0.0
  0
LINE
  5
376
100
AcDbEntity
  8
0
  6
CONTINUOUS
 62
               4
100
AcDbLine
 10
12.249999999999986
 20
52.200000000000017
 30
0.0
 11
9.7499999999999858
 21
52.200000000000017
 31
0.0
  0
CIRCLE
  5
377
100
AcDbEntity
  8
0
  6
CONTINUOUS
 62
               4
100
AcDbCircle
 10
12.250593872070326
 20
54.200000000000017
 30
0.0
 40
0.7250000000000001
  0
CIRCLE
  5
378
100
AcDbEntity
  8
0
  6
CONTINUOUS
 62
               4
100
AcDbCircle
 10
9.7505938720703256
 20
54.200000000000017
 30
0.0
 40
0.7250000000000001
  0
ARC
  5
379
100
AcDbEntity
  8
0
  6
CONTINUOUS
 62
               4
100
AcDbCircle
 10
13.402911994762903
 20
61.101088005237017
 30
0.0
 40
0.5989129830170392
100
AcDbArc
 50
89.895914524772735
 51
180.10408547522667
  0
LINE
  5
37A
100
AcDbEntity
  8
0
  6
CONTINUOUS
 62
               4
100
AcDbLine
 10
5.9999999999999858
 20
61.700000000000017
 30
0.0
 11
5.9999999999999858
 21
39.200000000000017
 31
0.0
  0
ARC
  5
37B
100
AcDbEntity
  8
0
  6
CONTINUOUS
 62
               4
100
AcDbCircle
 10
15.500296847864192
 20
39.699703152135811
 30
0.0
 40
0.4997032403068001
100
AcDbArc
 50
269.96596353714654
 51
0.0340364628527164
  0
LINE
  5
37C
100
AcDbEntity
  8
0
  6
CONTINUOUS
 62
               4
100
AcDbLine
 10
15.561999999999998
 20
57.200000000000017
 30
0.0
 11
15.561999999999998
 21
40.77799999573412
 31
0.0
  0
ARC
  5
37D
100
AcDbEntity
  8
0
  6
CONTINUOUS
 62
               4
100
AcDbCircle
 10
15.500296847864192
 20
57.200296847864195
 30
0.0
 40
0.4997032403068001
100
AcDbArc
 50
359.96596353714654
 51
90.034036462852711
  0
ARC
  5
37E
100
AcDbEntity
  8
0
  6
CONTINUOUS
 62
               4
100
AcDbCircle
 10
15.062575596042265
 20
57.200575596042285
 30
0.0
 40
0.499424735650256
100
AcDbArc
 50
359.93396556302804
 51
90.066034436970796
  0
ARC
  5
37F
100
AcDbEntity
  8
0
  6
CONTINUOUS
 62
               4
100
AcDbCircle
 10
15.062807376533655
 20
40.777192619200406
 30
0.0
 40
0.4991932763770037
100
AcDbArc
 50
269.90733190886618
 51
0.0926680911333844
  0
ARC
  5
380
100
AcDbEntity
  8
0
  6
CONTINUOUS
 62
               4
100
AcDbCircle
 10
15.204095146658162
 20
61.100095146658191
 30
0.0
 40
0.5999048608870732
100
AcDbArc
 50
359.99091272245295
 51
90.009087277546172
  0
LINE
  5
381
100
AcDbEntity
  8
0
  6
CONTINUOUS
 62
               4
100
AcDbLine
 10
15.999999999999986
 20
61.700000000000017
 30
0.0
 11
15.999999999999986
 21
39.200000000000017
 31
0.0
  0
LINE
  5
382
100
AcDbEntity
  8
0
  6
CENTER
 62
               2
100
AcDbLine
 10
10.999999999999986
 20
63.065053939201789
 30
0.0
 11
11.0
 21
2.2438875818592123
 31
0.0
  0
ENDBLK
  5
383
100
AcDbEntity
  8
0
100
AcDbBlockEnd
  0
BLOCK
  5
384
100
AcDbEntity
  8
0
100
AcDbBlockBegin
  2
EA10F5-8
 70
               0
 10
0.0
 20
0.0
 30
0.0
  3
EA10F5-8
  1

  0
LINE
  5
385
100
AcDbEntity
  8
0
  6
CONTINUOUS
 62
               4
100
AcDbLine
 10
-7.0000000000000036
 20
0.0000000256359272
 30
0.0
 11
-7.0000000000000036
 21
5.0000000000000284
 31
0.0
  0
LINE
  5
386
100
AcDbEntity
  8
0
  6
CONTINUOUS
 62
               4
100
AcDbLine
 10
6.9999999999999964
 20
0.0000000256359272
 30
0.0
 11
7.0000000000000249
 21
5.0
 31
0.0
  0
LINE
  5
387
100
AcDbEntity
  8
0
  6
CONTINUOUS
 62
               4
100
AcDbLine
 10
-7.0000000007497114
 20
1.2000000000000171
 30
0.0
 11
6.9999999992502886
 21
1.1999999999999886
 31
0.0
  0
LINE
  5
388
100
AcDbEntity
  8
0
  6
CONTINUOUS
 62
               4
100
AcDbLine
 10
-7.0000000007497114
 20
3.8000000000000114
 30
0.0
 11
6.9999999992502886
 21
3.7999999999999829
 31
0.0
  0
LINE
  5
389
100
AcDbEntity
  8
0
  6
CONTINUOUS
 62
               4
100
AcDbLine
 10
-7.0000000007497114
 20
5.0000000000000284
 30
0.0
 11
6.9999999992502886
 21
5.0
 31
0.0
  0
LINE
  5
38A
100
AcDbEntity
  8
0
  6
CONTINUOUS
 62
               4
100
AcDbLine
 10
-7.0000000007497114
 20
0.0000000000000284
 30
0.0
 11
6.9999999999999964
 21
0.0
 31
0.0
  0
LINE
  5
38B
100
AcDbEntity
  8
0
  6
CONTINUOUS
 62
               7
100
AcDbLine
 10
3.5000000000000249
 20
6.3000000000000114
 30
0.0
 11
3.5000000000000249
 21
5.2000000000000171
 31
0.0
  0
LINE
  5
38C
100
AcDbEntity
  8
0
  6
CONTINUOUS
 62
               7
100
AcDbLine
 10
3.5500000000000078
 20
5.9699999999999989
 30
0.0
 11
3.5500000000000078
 21
6.4399999999999977
 31
0.0
  0
ARC
  5
38D
100
AcDbEntity
  8
0
  6
CONTINUOUS
 62
               7
100
AcDbCircle
 10
3.2999984741152808
 20
5.2000015258847441
 30
0.0
 40
0.200001525890548
100
AcDbArc
 50
270.00043713043902
 51
359.99956286956029
  0
ARC
  5
38E
100
AcDbEntity
  8
0
  6
CONTINUOUS
 62
               7
100
AcDbCircle
 10
3.6999923706113087
 20
6.3000076293887162
 30
0.0
 40
0.1999923707568137
100
AcDbArc
 50
89.997814257754655
 51
180.00218574224465
  0
ARC
  5
38F
100
AcDbEntity
  8
0
  6
CONTINUOUS
 62
               7
100
AcDbCircle
 10
3.974082972497623
 20
5.9670765359853988
 30
0.0
 40
0.4240930489930741
100
AcDbArc
 50
179.60503130945159
 51
242.76491800802381
  0
ARC
  5
390
100
AcDbEntity
  8
0
  6
CONTINUOUS
 62
               7
100
AcDbCircle
 10
-6.5999969480559209
 20
5.4000030519440827
 30
0.0
 40
0.4000030519557204
100
AcDbArc
 50
180.00043715545164
 51
269.99956284454748
  0
CIRCLE
  5
391
100
AcDbEntity
  8
0
  6
CONTINUOUS
 62
               7
100
AcDbCircle
 10
-4.0999999999999694
 20
15.899999999999977
 30
0.0
 40
1.075
  0
CIRCLE
  5
392
100
AcDbEntity
  8
0
  6
CONTINUOUS
 62
               7
100
AcDbCircle
 10
-4.0999999999999694
 20
22.299999899728647
 30
0.0
 40
1.075
  0
LINE
  5
393
100
AcDbEntity
  8
0
  6
CENTER
 62
               2
100
AcDbLine
 10
-2.4419261169031223
 20
15.900437783480186
 30
0.0
 11
-5.7010006022055428
 21
15.900437783480214
 31
0.0
  0
LINE
  5
394
100
AcDbEntity
  8
0
  6
CENTER
 62
               2
100
AcDbLine
 10
-4.0999999999999694
 20
24.905677657573563
 30
0.0
 11
-4.0999999999999694
 21
13.461352515796619
 31
0.0
  0
LINE
  5
395
100
AcDbEntity
  8
0
  6
CENTER
 62
               2
100
AcDbLine
 10
-2.4419261169031223
 20
22.299999999999983
 30
0.0
 11
-5.7010006022055144
 21
22.299999999999983
 31
0.0
  0
LINE
  5
396
100
AcDbEntity
  8
0
  6
CONTINUOUS
 62
               7
100
AcDbLine
 10
-7.0000000119209211
 20
10.000000000000028
 30
0.0
 11
6.9999999880790789
 21
10.0
 31
0.0
  0
ARC
  5
397
100
AcDbEntity
  8
0
  6
CONTINUOUS
 62
               7
100
AcDbCircle
 10
5.3050000000000317
 20
8.4000186950871694
 30
0.0
 40
3.1971596874005721
100
AcDbArc
 50
241.51127113246665
 51
298.48872886753207
  0
LINE
  5
398
100
AcDbEntity
  8
0
  6
CONTINUOUS
 62
               7
100
AcDbLine
 10
7.0500000000000078
 20
6.5
 30
0.0
 11
3.7000000000000135
 21
6.5
 31
0.0
  0
LINE
  5
399
100
AcDbEntity
  8
0
  6
CONTINUOUS
 62
               7
100
AcDbLine
 10
6.6000000000000192
 20
5.0
 30
0.0
 11
-6.5999999999999979
 21
5.0000000000000284
 31
0.0
  0
LINE
  5
39A
100
AcDbEntity
  8
0
  6
CONTINUOUS
 62
               7
100
AcDbLine
 10
-6.9999999784817568
 20
39.199999999999676
 30
0.0
 11
7.0000000135182141
 21
39.199999999999903
 31
0.0
  0
LINE
  5
39B
100
AcDbEntity
  8
0
  6
CONTINUOUS
 62
               7
100
AcDbLine
 10
6.0000000000000533
 20
22.300998569384802
 30
0.0
 11
7.0000000000000533
 21
22.300998569384802
 31
0.0
  0
LINE
  5
39C
100
AcDbEntity
  8
0
  6
CONTINUOUS
 62
               7
100
AcDbLine
 10
6.0000000000000533
 20
25.500998569384791
 30
0.0
 11
7.0000000000000533
 21
25.500998569384791
 31
0.0
  0
LINE
  5
39D
100
AcDbEntity
  8
0
  6
CONTINUOUS
 62
               7
100
AcDbLine
 10
-6.9999999864818427
 20
28.200000000000017
 30
0.0
 11
7.0000000000000533
 21
28.200000000000017
 31
0.0
  0
LINE
  5
39E
100
AcDbEntity
  8
0
  6
CONTINUOUS
 62
               7
100
AcDbLine
 10
8.1000000135182084
 20
33.199999999999989
 30
0.0
 11
8.1000000135182084
 21
39.199999999999903
 31
0.0
  0
LINE
  5
39F
100
AcDbEntity
  8
0
  6
CONTINUOUS
 62
               7
100
AcDbLine
 10
8.5480000135181591
 20
35.799999999999983
 30
0.0
 11
8.1000000135182084
 21
35.799999999999983
 31
0.0
  0
LINE
  5
3A0
100
AcDbEntity
  8
0
  6
CONTINUOUS
 62
               7
100
AcDbLine
 10
8.5480000135181591
 20
38.000000000000028
 30
0.0
 11
8.10000001351818
 21
38.000000000000028
 31
0.0
  0
LINE
  5
3A1
100
AcDbEntity
  8
0
  6
CONTINUOUS
 62
               7
100
AcDbLine
 10
8.5480000135181591
 20
35.799999999999983
 30
0.0
 11
8.5480000135181591
 21
38.000000000000028
 31
0.0
  0
LINE
  5
3A2
100
AcDbEntity
  8
0
  6
CONTINUOUS
 62
               7
100
AcDbLine
 10
-6.9999999864818427
 20
39.19999999999996
 30
0.0
 11
-6.9999999864818427
 21
28.200000000000017
 31
0.0
  0
LINE
  5
3A3
100
AcDbEntity
  8
0
  6
CONTINUOUS
 62
               7
100
AcDbLine
 10
7.0000000135182141
 20
39.199999999999903
 30
0.0
 11
7.0000000135182141
 21
28.199999999999989
 31
0.0
  0
LINE
  5
3A4
100
AcDbEntity
  8
0
  6
CONTINUOUS
 62
               7
100
AcDbLine
 10
7.0000000135181857
 20
32.10499999999999
 30
0.0
 11
8.1000000135182084
 21
33.199999999999989
 31
0.0
  0
ARC
  5
3A5
100
AcDbEntity
  8
0
  6
CONTINUOUS
 62
               7
100
AcDbCircle
 10
6.5999938963796261
 20
5.4000061036203988
 30
0.0
 40
0.400006103666966
100
AcDbArc
 50
270.00087426588038
 51
359.99912573411802
  0
ARC
  5
3A6
100
AcDbEntity
  8
0
  6
CONTINUOUS
 62
               7
100
AcDbCircle
 10
6.6235822871241474
 20
5.9631892021913018
 30
0.0
 40
0.4264721008707071
100
AcDbArc
 50
298.94777670470955
 51
0.9150576515649365
  0
LINE
  5
3A7
100
AcDbEntity
  8
0
  6
CONTINUOUS
 62
               7
100
AcDbLine
 10
-6.9999999999999467
 20
28.200000000000017
 30
0.0
 11
-7.0000000000000036
 21
5.4000030519441111
 31
0.0
  0
LINE
  5
3A8
100
AcDbEntity
  8
0
  6
CONTINUOUS
 62
               7
100
AcDbLine
 10
7.0000000000000533
 20
28.200000000000017
 30
0.0
 11
7.0000000000000249
 21
6.5
 31
0.0
  0
LINE
  5
3A9
100
AcDbEntity
  8
0
  6
CONTINUOUS
 62
               7
100
AcDbLine
 10
7.0000000000000249
 20
5.7700000000000102
 30
0.0
 11
7.0000000000000249
 21
5.4000000000000057
 31
0.0
  0
LINE
  5
3AA
100
AcDbEntity
  8
0
  6
CONTINUOUS
 62
               7
100
AcDbLine
 10
7.0500000000000078
 20
5.9699999999999989
 30
0.0
 11
7.0500000000000078
 21
6.5
 31
0.0
  0
LINE
  5
3AB
100
AcDbEntity
  8
0
  6
CENTER
 62
               2
100
AcDbLine
 10
0.0000000000000817
 20
64.260444473560455
 30
0.0
 11
-0.0000000000000036
 21
-2.4488717557984785
 31
0.0
  0
LINE
  5
3AC
100
AcDbEntity
  8
0
  6
CONTINUOUS
 62
               7
100
AcDbLine
 10
6.0000000000000533
 20
25.500998569384791
 30
0.0
 11
6.0000000000000533
 21
22.300998569384802
 31
0.0
  0
LINE
  5
3AD
100
AcDbEntity
  8
0
  6
CENTER
 62
               2
100
AcDbLine
 10
-6.124153424700868
 20
12.700000000000017
 30
0.0
 11
-20.40593106748992
 21
12.700000000000045
 31
0.0
  0
LINE
  5
3AE
100
AcDbEntity
  8
0
  6
CENTER
 62
               2
100
AcDbLine
 10
-6.124153424700868
 20
25.500000000000028
 30
0.0
 11
-20.40593106748992
 21
25.500000000000028
 31
0.0
  0
LINE
  5
3AF
100
AcDbEntity
  8
0
  6
DASHED
 62
             200
100
AcDbLine
 10
-6.9999999999999751
 20
9.7000000000000171
 30
0.0
 11
-18.499999999999975
 21
9.7000000000000455
 31
0.0
  0
LINE
  5
3B0
100
AcDbEntity
  8
0
  6
DASHED
 62
             200
100
AcDbLine
 10
-6.9999999999999751
 20
15.700000000000017
 30
0.0
 11
-18.499999999999975
 21
15.700000000000045
 31
0.0
  0
LINE
  5
3B1
100
AcDbEntity
  8
0
  6
DASHED
 62
             200
100
AcDbLine
 10
-18.499999999999975
 20
9.7000000000000455
 30
0.0
 11
-18.499999999999975
 21
15.700000000000045
 31
0.0
  0
LINE
  5
3B2
100
AcDbEntity
  8
0
  6
DASHED
 62
             200
100
AcDbLine
 10
-16.499999999999975
 20
9.7000000000000455
 30
0.0
 11
-16.499999999999975
 21
15.700000000000045
 31
0.0
  0
LINE
  5
3B3
100
AcDbEntity
  8
0
  6
DASHED
 62
             200
100
AcDbLine
 10
-18.999999999999975
 20
10.200000000000045
 30
0.0
 11
-18.999999999999975
 21
15.200000000000045
 31
0.0
  0
LINE
  5
3B4
100
AcDbEntity
  8
0
  6
DASHED
 62
               7
100
AcDbLine
 10
-6.9999999999999751
 20
9.7000000000000171
 30
0.0
 11
-6.9999999999999751
 21
15.700000000000017
 31
0.0
  0
ARC
  5
3B5
100
AcDbEntity
  8
0
  6
DASHED
 62
             200
100
AcDbCircle
 10
-18.499999999999975
 20
15.200000000000045
 30
0.0
 40
0.5
100
AcDbArc
 50
89.999999999999744
 51
179.99999999999955
  0
ARC
  5
3B6
100
AcDbEntity
  8
0
  6
DASHED
 62
             200
100
AcDbCircle
 10
-18.499999999999975
 20
10.200000000000045
 30
0.0
 40
0.5
100
AcDbArc
 50
179.99999999999963
 51
269.99999999999937
  0
ARC
  5
3B7
100
AcDbEntity
  8
0
  6
DASHED
 62
             200
100
AcDbCircle
 10
-18.499999999999947
 20
23.000000000000028
 30
0.0
 40
0.5
100
AcDbArc
 50
179.99999999999963
 51
269.99999999999937
  0
ARC
  5
3B8
100
AcDbEntity
  8
0
  6
DASHED
 62
             200
100
AcDbCircle
 10
-18.499999999999947
 20
28.000000000000028
 30
0.0
 40
0.5
100
AcDbArc
 50
89.999999999999744
 51
179.99999999999955
  0
LINE
  5
3B9
100
AcDbEntity
  8
0
  6
DASHED
 62
               7
100
AcDbLine
 10
-6.9999999999999467
 20
22.500000000000028
 30
0.0
 11
-6.9999999999999467
 21
28.500000000000028
 31
0.0
  0
LINE
  5
3BA
100
AcDbEntity
  8
0
  6
DASHED
 62
             200
100
AcDbLine
 10
-18.999999999999947
 20
23.000000000000028
 30
0.0
 11
-18.999999999999947
 21
28.000000000000028
 31
0.0
  0
LINE
  5
3BB
100
AcDbEntity
  8
0
  6
DASHED
 62
             200
100
AcDbLine
 10
-16.499999999999947
 20
22.500000000000028
 30
0.0
 11
-16.499999999999947
 21
28.500000000000028
 31
0.0
  0
LINE
  5
3BC
100
AcDbEntity
  8
0
  6
DASHED
 62
             200
100
AcDbLine
 10
-18.499999999999947
 20
22.500000000000028
 30
0.0
 11
-18.499999999999947
 21
28.500000000000028
 31
0.0
  0
LINE
  5
3BD
100
AcDbEntity
  8
0
  6
DASHED
 62
             200
100
AcDbLine
 10
-6.9999999999999467
 20
28.500000000000028
 30
0.0
 11
-18.499999999999947
 21
28.500000000000028
 31
0.0
  0
LINE
  5
3BE
100
AcDbEntity
  8
0
  6
DASHED
 62
             200
100
AcDbLine
 10
-6.9999999999999467
 20
22.500000000000028
 30
0.0
 11
-18.499999999999947
 21
22.500000000000028
 31
0.0
  0
LINE
  5
3BF
100
AcDbEntity
  8
0
  6
CONTINUOUS
 62
               4
100
AcDbLine
 10
-6.9999999999999467
 20
39.19999999999979
 30
0.0
 11
10.000002816526827
 21
39.19999999999979
 31
0.0
  0
LINE
  5
3C0
100
AcDbEntity
  8
0
  6
CONTINUOUS
 62
               4
100
AcDbLine
 10
22.796903939204437
 20
54.447182617187252
 30
0.0
 11
22.796903939204437
 21
53.947182617187252
 31
0.0
  0
ARC
  5
3C1
100
AcDbEntity
  8
0
  6
CONTINUOUS
 62
               4
100
AcDbCircle
 10
-6.3170951466581222
 20
61.100095146657992
 30
0.0
 40
0.5999048608870732
100
AcDbArc
 50
89.99091272245343
 51
123.56005066674096
  0
ARC
  5
3C2
100
AcDbEntity
  8
0
  6
CONTINUOUS
 62
               4
100
AcDbCircle
 10
-6.4999999999998899
 20
61.099999999999795
 30
0.0
 40
0.5
100
AcDbArc
 50
114.73039869686018
 51
179.99999999999963
  0
ARC
  5
3C3
100
AcDbEntity
  8
0
  6
CONTINUOUS
 62
               4
100
AcDbCircle
 10
6.5000000000001101
 20
61.099999999999795
 30
0.0
 40
0.5
100
AcDbArc
 50
0.0
 51
89.999999999999815
  0
LINE
  5
3C4
100
AcDbEntity
  8
0
  6
CONTINUOUS
 62
               4
100
AcDbLine
 10
6.5000000000001101
 20
61.599999999999795
 30
0.0
 11
5.0000000000001101
 21
61.599999999999795
 31
0.0
  0
LINE
  5
3C5
100
AcDbEntity
  8
0
  6
CONTINUOUS
 62
               4
100
AcDbLine
 10
-6.9999999999999467
 20
60.099999999999881
 30
0.0
 11
5.0000028165268269
 21
60.099999999999881
 31
0.0
  0
LINE
  5
3C6
100
AcDbEntity
  8
0
  6
CONTINUOUS
 62
               4
100
AcDbLine
 10
5.0000028165268269
 20
61.699999999999875
 30
0.0
 11
5.0000028165268269
 21
60.099999999999881
 31
0.0
  0
LINE
  5
3C7
100
AcDbEntity
  8
0
  6
CONTINUOUS
 62
               4
100
AcDbLine
 10
-6.9999999999998899
 20
61.099999999999909
 30
0.0
 11
-3.2999999999999581
 21
61.099999999999909
 31
0.0
  0
ARC
  5
3C8
100
AcDbEntity
  8
0
  6
CONTINUOUS
 62
               4
100
AcDbCircle
 10
-6.3170951466581222
 20
61.100095146657992
 30
0.0
 40
0.5999048608870732
100
AcDbArc
 50
123.56005066674096
 51
180.00908727754583
  0
ARC
  5
3C9
100
AcDbEntity
  8
0
  6
CONTINUOUS
 62
               4
100
AcDbCircle
 10
-4.51591199476292
 20
61.101088005236818
 30
0.0
 40
0.5989129830170392
100
AcDbArc
 50
359.89591452477293
 51
90.104085475226867
  0
LINE
  5
3CA
100
AcDbEntity
  8
0
  6
CONTINUOUS
 62
               4
100
AcDbLine
 10
-6.3170951466581791
 20
61.69999999999979
 30
0.0
 11
5.0000028165268269
 21
61.699999999999875
 31
0.0
  0
LINE
  5
3CB
100
AcDbEntity
  8
0
  6
CONTINUOUS
 62
               4
100
AcDbLine
 10
-3.2999999999999581
 20
61.099999999999909
 30
0.0
 11
-3.2999999999999581
 21
61.699999999999818
 31
0.0
  0
LINE
  5
3CC
100
AcDbEntity
  8
0
  6
CONTINUOUS
 62
               4
100
AcDbLine
 10
12.60000281652685
 20
56.697999999999809
 30
0.0
 11
12.60000281652685
 21
40.731999999999772
 31
0.0
  0
LINE
  5
3CD
100
AcDbEntity
  8
0
  6
CONTINUOUS
 62
               4
100
AcDbLine
 10
13.800002816526838
 20
54.847999999999786
 30
0.0
 11
15.276903939204427
 21
54.847999999999786
 31
0.0
  0
LINE
  5
3CE
100
AcDbEntity
  8
0
  6
CONTINUOUS
 62
               4
100
AcDbLine
 10
13.800002816526838
 20
53.547999999999774
 30
0.0
 11
16.026903939204427
 21
53.547999999999774
 31
0.0
  0
LINE
  5
3CF
100
AcDbEntity
  8
0
  6
CONTINUOUS
 62
               4
100
AcDbLine
 10
7.0000028165268269
 20
57.697999999999809
 30
0.0
 11
12.10000281652685
 21
57.697999999999809
 31
0.0
  0
ARC
  5
3D0
100
AcDbEntity
  8
0
  6
CONTINUOUS
 62
               4
100
AcDbCircle
 10
12.100040340532242
 20
57.198037524005201
 30
0.0
 40
0.4999624774027422
100
AcDbArc
 50
359.99569974300096
 51
90.004300256998803
  0
ARC
  5
3D1
100
AcDbEntity
  8
0
  6
CONTINUOUS
 62
               4
100
AcDbCircle
 10
12.099538372008848
 20
40.731127224716062
 30
0.0
 40
0.5004652055472239
100
AcDbArc
 50
295.12116424320402
 51
0.0999197646782735
  0
LINE
  5
3D2
100
AcDbEntity
  8
0
  6
CONTINUOUS
 62
               4
100
AcDbLine
 10
12.60000281652685
 20
57.197999999999809
 30
0.0
 11
12.60000281652685
 21
56.697999999999809
 31
0.0
  0
LINE
  5
3D3
100
AcDbEntity
  8
0
  6
CONTINUOUS
 62
             200
100
AcDbLine
 10
14.930903939204423
 20
55.447999999999809
 30
0.0
 11
16.374903939204383
 21
52.94799999999978
 31
0.0
  0
LINE
  5
3D4
100
AcDbEntity
  8
0
  6
CONTINUOUS
 62
               4
100
AcDbLine
 10
16.526903939204427
 20
53.547999999999774
 30
0.0
 11
19.296903939204409
 21
53.547999999999774
 31
0.0
  0
LINE
  5
3D5
100
AcDbEntity
  8
0
  6
CONTINUOUS
 62
               4
100
AcDbLine
 10
15.776903939204427
 20
54.847999999999786
 30
0.0
 11
19.296903939204409
 21
54.847999999999786
 31
0.0
  0
LINE
  5
3D6
100
AcDbEntity
  8
0
  6
CONTINUOUS
 62
             200
100
AcDbLine
 10
15.430903939204423
 20
55.447999999999809
 30
0.0
 11
16.874903939204383
 21
52.94799999999978
 31
0.0
  0
LINE
  5
3D7
100
AcDbEntity
  8
0
  6
CONTINUOUS
 62
               4
100
AcDbLine
 10
19.296903939204409
 20
54.847182617187229
 30
0.0
 11
19.296903939204409
 21
53.547182617187275
 31
0.0
  0
LINE
  5
3D8
100
AcDbEntity
  8
0
  6
CONTINUOUS
 62
               4
100
AcDbLine
 10
12.60000281652685
 20
51.69799999999978
 30
0.0
 11
13.300002816526838
 21
51.69799999999978
 31
0.0
  0
LINE
  5
3D9
100
AcDbEntity
  8
0
  6
CONTINUOUS
 62
               4
100
AcDbLine
 10
13.800002816526838
 20
52.19799999999978
 30
0.0
 11
13.800002816526838
 21
56.197999999999809
 31
0.0
  0
LINE
  5
3DA
100
AcDbEntity
  8
0
  6
CONTINUOUS
 62
               4
100
AcDbLine
 10
12.60000281652685
 20
56.697999999999809
 30
0.0
 11
13.300002816526838
 21
56.697999999999809
 31
0.0
  0
ARC
  5
3DB
100
AcDbEntity
  8
0
  6
CONTINUOUS
 62
               4
100
AcDbCircle
 10
13.300002816526838
 20
52.19799999999978
 30
0.0
 40
0.5
100
AcDbArc
 50
270.00000000000023
 51
0.0
  0
ARC
  5
3DC
100
AcDbEntity
  8
0
  6
CONTINUOUS
 62
               4
100
AcDbCircle
 10
13.300002816526838
 20
56.197999999999809
 30
0.0
 40
0.5
100
AcDbArc
 50
0.0
 51
89.999999999999815
  0
LINE
  5
3DD
100
AcDbEntity
  8
0
  6
CONTINUOUS
 62
               4
100
AcDbLine
 10
19.296903939204409
 20
53.947182617187252
 30
0.0
 11
22.796903939204437
 21
53.947182617187252
 31
0.0
  0
LINE
  5
3DE
100
AcDbEntity
  8
0
  6
CONTINUOUS
 62
               4
100
AcDbLine
 10
19.296903939204409
 20
54.447182617187252
 30
0.0
 11
22.796903939204437
 21
54.447182617187252
 31
0.0
  0
LINE
  5
3DF
100
AcDbEntity
  8
0
  6
CONTINUOUS
 62
               4
100
AcDbLine
 10
10.000002816526827
 20
39.19999999999979
 30
0.0
 11
12.312002816526839
 21
40.277999999999793
 31
0.0
  0
LINE
  5
3E0
100
AcDbEntity
  8
0
  6
CONTINUOUS
 62
               4
100
AcDbLine
 10
10.000002816526827
 20
39.19999999999979
 30
0.0
 11
10.000002816526827
 21
57.697999999999809
 31
0.0
  0
LINE
  5
3E1
100
AcDbEntity
  8
0
  6
CONTINUOUS
 62
               4
100
AcDbLine
 10
-6.9999999999999467
 20
61.099999999999795
 30
0.0
 11
-6.9999999999999467
 21
39.19999999999979
 31
0.0
  0
LINE
  5
3E2
100
AcDbEntity
  8
0
  6
CONTINUOUS
 62
               4
100
AcDbLine
 10
7.0000000000000533
 20
39.19999999999979
 30
0.0
 11
7.0000000000000533
 21
61.099999994932062
 31
0.0
  0
ENDBLK
  5
3E3
100
AcDbEntity
  8
0
100
AcDbBlockEnd
  0
BLOCK
  5
3E4
100
AcDbEntity
  8
0
100
AcDbBlockBegin
  2
EA10F5-9
 70
               0
 10
0.0
 20
0.0
 30
0.0
  3
EA10F5-9
  1

  0
LINE
  5
3E5
100
AcDbEntity
  8
0
  6
DASHED
 62
             200
100
AcDbLine
 10
-20.25
 20
0.0
 30
0.0
 11
-20.25
 21
1.1999999999999886
 31
0.0
  0
LINE
  5
3E6
100
AcDbEntity
  8
0
  6
DASHED
 62
             200
100
AcDbLine
 10
-23.75
 20
0.0
 30
0.0
 11
-23.75
 21
1.1999999999999886
 31
0.0
  0
LINE
  5
3E7
100
AcDbEntity
  8
0
  6
DASHED
 62
             200
100
AcDbLine
 10
1.75
 20
0.0
 30
0.0
 11
1.75
 21
1.1999999999999886
 31
0.0
  0
LINE
  5
3E8
100
AcDbEntity
  8
0
  6
DASHED
 62
             200
100
AcDbLine
 10
-1.75
 20
0.0
 30
0.0
 11
-1.75
 21
1.1999999999999886
 31
0.0
  0
LINE
  5
3E9
100
AcDbEntity
  8
0
  6
CONTINUOUS
 62
               4
100
AcDbLine
 10
-5.6999999999999886
 20
5.0
 30
0.0
 11
-16.299999999999955
 21
5.0
 31
0.0
  0
LINE
  5
3EA
100
AcDbEntity
  8
0
  6
CONTINUOUS
 62
               4
100
AcDbLine
 10
-22.0
 20
0.0
 30
0.0
 11
-22.0
 21
1.1999999999999886
 31
0.0
  0
LINE
  5
3EB
100
AcDbEntity
  8
0
  6
CONTINUOUS
 62
               4
100
AcDbLine
 10
0.0
 20
0.0
 30
0.0
 11
0.0
 21
1.1999999999999886
 31
0.0
  0
LINE
  5
3EC
100
AcDbEntity
  8
0
  6
CONTINUOUS
 62
               4
100
AcDbLine
 10
-5.5
 20
1.4000000000000057
 30
0.0
 11
-5.5
 21
3.5999999999999943
 31
0.0
  0
LINE
  5
3ED
100
AcDbEntity
  8
0
  6
CONTINUOUS
 62
               4
100
AcDbLine
 10
-4.3000000000000114
 20
1.4000000000000057
 30
0.0
 11
-4.3000000000000114
 21
3.5999999999999943
 31
0.0
  0
ARC
  5
3EE
100
AcDbEntity
  8
0
  6
CONTINUOUS
 62
               4
100
AcDbCircle
 10
-4.1008966664051627
 20
1.3991033335948089
 30
0.0
 40
1.3991036209254675
100
AcDbArc
 50
179.96327991479848
 51
270.03672008520033
  0
ARC
  5
3EF
100
AcDbEntity
  8
0
  6
CONTINUOUS
 62
               4
100
AcDbCircle
 10
-4.1008966599537757
 20
1.3991033400461959
 30
0.0
 40
0.1991053590856348
100
AcDbArc
 50
179.74197075907335
 51
270.25802924092562
  0
LINE
  5
3F0
100
AcDbEntity
  8
0
  6
CONTINUOUS
 62
               4
100
AcDbLine
 10
-4.0999999999999659
 20
0.0
 30
0.0
 11
3.0
 21
0.0
 31
0.0
  0
LINE
  5
3F1
100
AcDbEntity
  8
0
  6
CONTINUOUS
 62
               4
100
AcDbLine
 10
-4.0999999999999659
 20
1.1999999999999886
 30
0.0
 11
3.0
 21
1.1999999999999886
 31
0.0
  0
LINE
  5
3F2
100
AcDbEntity
  8
0
  6
CONTINUOUS
 62
               4
100
AcDbLine
 10
3.0
 20
0.0
 30
0.0
 11
3.0
 21
1.1999999999999886
 31
0.0
  0
ARC
  5
3F3
100
AcDbEntity
  8
0
  6
CONTINUOUS
 62
               4
100
AcDbCircle
 10
-6.5847799240333984
 20
3.2665835360522806
 30
0.0
 40
0.6147802009733803
100
AcDbArc
 50
286.12836199114588
 51
359.94561607879228
  0
ARC
  5
3F4
100
AcDbEntity
  8
0
  6
CONTINUOUS
 62
               4
100
AcDbCircle
 10
-8.8161606354035484
 20
3.2652966087315747
 30
0.0
 40
0.6138397676001843
100
AcDbArc
 50
179.93434547259068
 51
253.74327317895529
  0
ARC
  5
3F5
100
AcDbEntity
  8
0
  6
CONTINUOUS
 62
               4
100
AcDbCircle
 10
-7.700999999999965
 20
7.1068760988772226
 30
0.0
 40
4.6140039015589682
100
AcDbArc
 50
253.80344035262561
 51
286.19655964737319
  0
ARC
  5
3F6
100
AcDbEntity
  8
0
  6
CONTINUOUS
 62
               4
100
AcDbCircle
 10
-13.184777973164046
 20
3.2665820679404192
 30
0.0
 40
0.6147782487131708
100
AcDbArc
 50
286.12822533946951
 51
359.94575273046883
  0
ARC
  5
3F7
100
AcDbEntity
  8
0
  6
CONTINUOUS
 62
               4
100
AcDbCircle
 10
-15.416158681253251
 20
3.265298072688239
 30
0.0
 40
0.613841720073419
100
AcDbArc
 50
179.93448232673219
 51
253.74313632481389
  0
ARC
  5
3F8
100
AcDbEntity
  8
0
  6
CONTINUOUS
 62
               4
100
AcDbCircle
 10
-14.300999999999988
 20
7.1068760989089697
 30
0.0
 40
4.6140039015894576
100
AcDbArc
 50
253.80344035273558
 51
286.19655964726314
  0
ARC
  5
3F9
100
AcDbEntity
  8
0
  6
CONTINUOUS
 62
               4
100
AcDbCircle
 10
-17.900056684609865
 20
1.4000566846098934
 30
0.0
 40
1.4000566857574084
100
AcDbArc
 50
270.00231975529556
 51
359.99768024470291
  0
ARC
  5
3FA
100
AcDbEntity
  8
0
  6
CONTINUOUS
 62
               4
100
AcDbCircle
 10
-16.30006664106736
 20
3.6000666410673716
 30
0.0
 40
0.1999333700389205
100
AcDbArc
 50
89.980902377767208
 51
180.01909762223218
  0
ARC
  5
3FB
100
AcDbEntity
  8
0
  6
CONTINUOUS
 62
               4
100
AcDbCircle
 10
-5.7008844716972931
 20
3.5991155283026899
 30
0.0
 40
0.2008864188024893
100
AcDbArc
 50
0.2522652321918488
 51
89.747734767807131
  0
ARC
  5
3FC
100
AcDbEntity
  8
0
  6
CONTINUOUS
 62
               4
100
AcDbCircle
 10
-17.900058413382624
 20
1.4000584133826237
 30
0.0
 40
0.2000584219104543
100
AcDbArc
 50
270.01672931490481
 51
359.98327068509366
  0
LINE
  5
3FD
100
AcDbEntity
  8
0
  6
CONTINUOUS
 62
               4
100
AcDbLine
 10
-5.9699999999999704
 20
3.2660000000000196
 30
0.0
 11
-5.9699999999999704
 21
3.8000000000000114
 31
0.0
  0
LINE
  5
3FE
100
AcDbEntity
  8
0
  6
CONTINUOUS
 62
               4
100
AcDbLine
 10
-9.4300000000000068
 20
3.2660000000000196
 30
0.0
 11
-9.4300000000000068
 21
3.8000000000000114
 31
0.0
  0
LINE
  5
3FF
100
AcDbEntity
  8
0
  6
CONTINUOUS
 62
               4
100
AcDbLine
 10
-12.569999999999993
 20
3.2660000000000196
 30
0.0
 11
-12.569999999999993
 21
3.8000000000000114
 31
0.0
  0
LINE
  5
400
100
AcDbEntity
  8
0
  6
CONTINUOUS
 62
               4
100
AcDbLine
 10
-16.029999999999973
 20
3.2660000000000196
 30
0.0
 11
-16.029999999999973
 21
3.8000000000000114
 31
0.0
  0
LINE
  5
401
100
AcDbEntity
  8
0
  6
CONTINUOUS
 62
               4
100
AcDbLine
 10
-17.699999999999989
 20
1.4000000000000057
 30
0.0
 11
-17.699999999999989
 21
3.5999999999999943
 31
0.0
  0
LINE
  5
402
100
AcDbEntity
  8
0
  6
CONTINUOUS
 62
               4
100
AcDbLine
 10
-16.5
 20
1.4000000000000057
 30
0.0
 11
-16.5
 21
3.5999999999999943
 31
0.0
  0
LINE
  5
403
100
AcDbEntity
  8
0
  6
CONTINUOUS
 62
               4
100
AcDbLine
 10
-16.299999999999955
 20
3.8000000000000114
 30
0.0
 11
-5.6999999999999886
 21
3.8000000000000114
 31
0.0
  0
LINE
  5
404
100
AcDbEntity
  8
0
  6
CONTINUOUS
 62
               4
100
AcDbLine
 10
-25.0
 20
0.0
 30
0.0
 11
-25.0
 21
1.1999999999999886
 31
0.0
  0
LINE
  5
405
100
AcDbEntity
  8
0
  6
CONTINUOUS
 62
               4
100
AcDbLine
 10
-25.0
 20
0.0
 30
0.0
 11
-17.899999999999977
 21
0.0
 31
0.0
  0
LINE
  5
406
100
AcDbEntity
  8
0
  6
CONTINUOUS
 62
               4
100
AcDbLine
 10
-25.0
 20
1.1999999999999886
 30
0.0
 11
-17.899999999999977
 21
1.1999999999999886
 31
0.0
  0
LINE
  5
407
100
AcDbEntity
  8
0
  6
CENTER
 62
             200
100
AcDbLine
 10
-22.0
 20
-2.443871755798483
 30
0.0
 11
-22.0
 21
3.8000000000000114
 31
0.0
  0
LINE
  5
408
100
AcDbEntity
  8
0
  6
CENTER
 62
             200
100
AcDbLine
 10
0.0
 20
-2.443871755798483
 30
0.0
 11
0.0
 21
3.8000000000000114
 31
0.0
  0
ARC
  5
409
100
AcDbEntity
  8
0
  6
CONTINUOUS
 62
               4
100
AcDbCircle
 10
-16.300068323168489
 20
3.6000683231685002
 30
0.0
 40
1.3999316784987346
100
AcDbArc
 50
89.997203699822904
 51
180.00279630017653
  0
ARC
  5
40A
100
AcDbEntity
  8
0
  6
CONTINUOUS
 62
               4
100
AcDbCircle
 10
-5.7008844620561376
 20
3.5991155379438453
 30
0.0
 40
1.4008847412629901
100
AcDbArc
 50
0.0361742439122946
 51
89.963825756087459
  0
LINE
  5
40B
100
AcDbEntity
  8
0
  6
CONTINUOUS
 62
               7
100
AcDbLine
 10
-16.0
 20
39.199999999999989
 30
0.0
 11
-16.0
 21
6.5
 31
0.0
  0
LINE
  5
40C
100
AcDbEntity
  8
0
  6
CONTINUOUS
 62
               7
100
AcDbLine
 10
-6.0
 20
39.199999999999989
 30
0.0
 11
-6.0
 21
5.4000000000000057
 31
0.0
  0
LINE
  5
40D
100
AcDbEntity
  8
0
  6
CENTER
 62
               2
100
AcDbLine
 10
-13.0
 20
32.0
 30
0.0
 11
-9.0
 21
32.0
 31
0.0
  0
LINE
  5
40E
100
AcDbEntity
  8
0
  6
CONTINUOUS
 62
               7
100
AcDbLine
 10
-15.599999999999994
 20
5.0
 30
0.0
 11
-6.3999999999999773
 21
5.0
 31
0.0
  0
LINE
  5
40F
100
AcDbEntity
  8
0
  6
CONTINUOUS
 62
               7
100
AcDbLine
 10
-16.049999999999983
 20
6.5
 30
0.0
 11
-12.699999999999989
 21
6.5
 31
0.0
  0
LINE
  5
410
100
AcDbEntity
  8
0
  6
CONTINUOUS
 62
               7
100
AcDbLine
 10
-12.5
 20
6.3000000000000114
 30
0.0
 11
-12.5
 21
5.1999999999999886
 31
0.0
  0
LINE
  5
411
100
AcDbEntity
  8
0
  6
CONTINUOUS
 62
               7
100
AcDbLine
 10
-12.549999999999983
 20
5.9699999999999989
 30
0.0
 11
-12.549999999999983
 21
6.4399999999999977
 31
0.0
  0
LINE
  5
412
100
AcDbEntity
  8
0
  6
CONTINUOUS
 62
               7
100
AcDbLine
 10
-16.049999999999983
 20
5.9699999999999989
 30
0.0
 11
-16.049999999999983
 21
6.5
 31
0.0
  0
LINE
  5
413
100
AcDbEntity
  8
0
  6
CONTINUOUS
 62
               7
100
AcDbLine
 10
-16.0
 20
5.7699999999999818
 30
0.0
 11
-16.0
 21
5.4000000000000057
 31
0.0
  0
ARC
  5
414
100
AcDbEntity
  8
0
  6
CONTINUOUS
 62
               7
100
AcDbCircle
 10
-6.4000289919349598
 20
5.4000289919349598
 30
0.0
 40
0.4000289929855506
100
AcDbArc
 50
270.00415248780246
 51
359.9958475121951
  0
ARC
  5
415
100
AcDbEntity
  8
0
  6
CONTINUOUS
 62
               7
100
AcDbCircle
 10
-14.294999999999987
 20
8.4000340043866402
 30
0.0
 40
3.1971731429200378
100
AcDbArc
 50
241.51140199559862
 51
298.48859800440022
  0
ARC
  5
416
100
AcDbEntity
  8
0
  6
CONTINUOUS
 62
               7
100
AcDbCircle
 10
-12.300016783684242
 20
5.1999832163157294
 30
0.0
 40
0.1999832170200287
100
AcDbArc
 50
179.99519142511818
 51
270.0048085748798
  0
ARC
  5
417
100
AcDbEntity
  8
0
  6
CONTINUOUS
 62
               7
100
AcDbCircle
 10
-12.700010682136053
 20
6.2999893178639468
 30
0.0
 40
0.2000106824213093
100
AcDbArc
 50
0.0030600431187336
 51
89.996939956878265
  0
ARC
  5
418
100
AcDbEntity
  8
0
  6
CONTINUOUS
 62
               7
100
AcDbCircle
 10
-12.976445156839645
 20
5.963205090801921
 30
0.0
 40
0.4264992879044646
100
AcDbArc
 50
298.94996978217108
 51
0.9128645741037794
  0
ARC
  5
419
100
AcDbEntity
  8
0
  6
CONTINUOUS
 62
               7
100
AcDbCircle
 10
-15.625943992559655
 20
5.9670602150296759
 30
0.0
 40
0.4240661974054504
100
AcDbArc
 50
179.60280111535411
 51
242.76714820211964
  0
ARC
  5
41A
100
AcDbEntity
  8
0
  6
CONTINUOUS
 62
               7
100
AcDbCircle
 10
-15.600012206088252
 20
5.3999877939117198
 30
0.0
 40
0.3999877940979543
100
AcDbArc
 50
179.99825155328804
 51
270.00174844670897
  0
LINE
  5
41B
100
AcDbEntity
  8
0
  6
CENTER
 62
               2
100
AcDbLine
 10
-13.307660424194353
 20
25.5
 30
0.0
 11
-8.6923395758056472
 21
25.5
 31
0.0
  0
LINE
  5
41C
100
AcDbEntity
  8
0
  6
CONTINUOUS
 62
               7
100
AcDbLine
 10
-6.0
 20
10.0
 30
0.0
 11
-15.999999999999972
 21
10.0
 31
0.0
  0
LINE
  5
41D
100
AcDbEntity
  8
0
  6
CONTINUOUS
 62
               7
100
AcDbLine
 10
-6.0
 20
28.200000000000017
 30
0.0
 11
-15.999999999999972
 21
28.200000000000017
 31
0.0
  0
CIRCLE
  5
41E
100
AcDbEntity
  8
0
  6
CONTINUOUS
 62
               7
100
AcDbCircle
 10
-7.2999999999999829
 20
23.900000000000034
 30
0.0
 40
1.0
  0
LINE
  5
41F
100
AcDbEntity
  8
0
  6
CENTER
 62
               2
100
AcDbLine
 10
-7.2999999999999829
 20
22.241795658711851
 30
0.0
 11
-7.2999999999999829
 21
25.550745803814294
 31
0.0
  0
LINE
  5
420
100
AcDbEntity
  8
0
  6
CENTER
 62
               2
100
AcDbLine
 10
-5.7858293132156291
 20
23.900000000000034
 30
0.0
 11
-8.7477988131531674
 21
23.900000000000034
 31
0.0
  0
CIRCLE
  5
421
100
AcDbEntity
  8
0
  6
CONTINUOUS
 62
               7
100
AcDbCircle
 10
-14.699999999999989
 20
14.300000000000011
 30
0.0
 40
1.0
  0
LINE
  5
422
100
AcDbEntity
  8
0
  6
CENTER
 62
               2
100
AcDbLine
 10
-13.109583850853738
 20
14.300000000000011
 30
0.0
 11
-16.159835173536891
 21
14.300000000000011
 31
0.0
  0
LINE
  5
423
100
AcDbEntity
  8
0
  6
CENTER
 62
               2
100
AcDbLine
 10
-14.699999999999989
 20
12.799538601437746
 30
0.0
 11
-14.699999999999989
 21
15.781575310886097
 31
0.0
  0
CIRCLE
  5
424
100
AcDbEntity
  8
0
  6
CONTINUOUS
 62
               2
100
AcDbCircle
 10
-11.0
 20
19.100000000000023
 30
0.0
 40
1.5
  0
CIRCLE
  5
425
100
AcDbEntity
  8
0
  6
CONTINUOUS
 62
               7
100
AcDbCircle
 10
-11.0
 20
19.100000000000023
 30
0.0
 40
1.25
  0
CIRCLE
  5
426
100
AcDbEntity
  8
0
  6
CONTINUOUS
 62
               7
100
AcDbCircle
 10
-11.0
 20
25.5
 30
0.0
 40
1.25
  0
CIRCLE
  5
427
100
AcDbEntity
  8
0
  6
CONTINUOUS
 62
               7
100
AcDbCircle
 10
-11.0
 20
12.700000000000017
 30
0.0
 40
1.25
  0
CIRCLE
  5
428
100
AcDbEntity
  8
0
  6
CONTINUOUS
 62
               2
100
AcDbCircle
 10
-11.0
 20
25.5
 30
0.0
 40
1.5
  0
CIRCLE
  5
429
100
AcDbEntity
  8
0
  6
CONTINUOUS
 62
               2
100
AcDbCircle
 10
-11.0
 20
12.700000000000017
 30
0.0
 40
1.5
  0
LINE
  5
42A
100
AcDbEntity
  8
0
  6
CENTER
 62
               2
100
AcDbLine
 10
-8.6923395758056472
 20
12.700000000000017
 30
0.0
 11
-13.307660424194353
 21
12.700000000000017
 31
0.0
  0
LINE
  5
42B
100
AcDbEntity
  8
0
  6
CENTER
 62
               2
100
AcDbLine
 10
-8.6923395758056472
 20
19.100000000000023
 30
0.0
 11
-13.307660424194353
 21
19.100000000000023
 31
0.0
  0
LINE
  5
42C
100
AcDbEntity
  8
0
  6
CENTER
 62
               2
100
AcDbLine
 10
-11.0
 20
64.94327081311917
 30
0.0
 11
-11.0
 21
2.7920000000000016
 31
0.0
  0
LINE
  5
42D
100
AcDbEntity
  8
0
  6
CONTINUOUS
 62
               4
100
AcDbLine
 10
-6.0
 20
61.699999999999989
 30
0.0
 11
-16.0
 21
61.699999999999989
 31
0.0
  0
LINE
  5
42E
100
AcDbEntity
  8
0
  6
CONTINUOUS
 62
               4
100
AcDbLine
 10
-6.0
 20
60.099999999999994
 30
0.0
 11
-9.1999999999999886
 21
60.099999999999994
 31
0.0
  0
LINE
  5
42F
100
AcDbEntity
  8
0
  6
CONTINUOUS
 62
               4
100
AcDbLine
 10
-9.1999999999999886
 20
61.599999999999994
 30
0.0
 11
-15.5
 21
61.599999999999994
 31
0.0
  0
LINE
  5
430
100
AcDbEntity
  8
0
  6
CONTINUOUS
 62
               4
100
AcDbLine
 10
-9.1999999999999886
 20
61.599999999999994
 30
0.0
 11
-9.1999999999999886
 21
60.099999999999994
 31
0.0
  0
ARC
  5
431
100
AcDbEntity
  8
0
  6
CONTINUOUS
 62
               4
100
AcDbCircle
 10
-15.5
 20
61.099999999999994
 30
0.0
 40
0.5
100
AcDbArc
 50
89.999999999999815
 51
179.99999999999963
  0
LINE
  5
432
100
AcDbEntity
  8
0
  6
CONTINUOUS
 62
               4
100
AcDbLine
 10
-6.0
 20
61.099999999999994
 30
0.0
 11
-9.1999999999999886
 21
61.099999999999994
 31
0.0
  0
ARC
  5
433
100
AcDbEntity
  8
0
  6
CONTINUOUS
 62
               4
100
AcDbCircle
 10
-6.7959048533417672
 20
61.100095146658163
 30
0.0
 40
0.5999048608870732
100
AcDbArc
 50
359.99091272245295
 51
90.009087277546172
  0
ARC
  5
434
100
AcDbEntity
  8
0
  6
CONTINUOUS
 62
               4
100
AcDbCircle
 10
-8.5970880052370262
 20
61.101088005236988
 30
0.0
 40
0.5989129830170392
100
AcDbArc
 50
89.895914524772735
 51
180.10408547522667
  0
CIRCLE
  5
435
100
AcDbEntity
  8
0
  6
CONTINUOUS
 62
               7
100
AcDbCircle
 10
-11.000018310546864
 20
32.000018310546864
 30
0.0
 40
0.8999999761581421
  0
LINE
  5
436
100
AcDbEntity
  8
0
  6
CONTINUOUS
 62
               4
100
AcDbLine
 10
-16.0
 20
61.699999999999989
 30
0.0
 11
-16.0
 21
39.199999999999989
 31
0.0
  0
LINE
  5
437
100
AcDbEntity
  8
0
  6
CONTINUOUS
 62
               4
100
AcDbLine
 10
-6.0
 20
61.699999999999989
 30
0.0
 11
-6.0
 21
39.199999999999989
 31
0.0
  0
LINE
  5
438
100
AcDbEntity
  8
0
  6
CONTINUOUS
 62
               7
100
AcDbLine
 10
-16.0
 20
39.199999999999989
 30
0.0
 11
-6.0
 21
39.199999999999989
 31
0.0
  0
ENDBLK
  5
439
100
AcDbEntity
  8
0
100
AcDbBlockEnd
  0
ENDSEC
  0
SECTION
  2
ENTITIES
  0
INSERT
  5
43A
100
AcDbEntity
  8
0
  6
ByBlock
100
AcDbBlockReference
  2
EA10F5-1
 10
-66.786642198005964
 20
42.380349644410714
 30
0.0
  0
INSERT
  5
43B
100
AcDbEntity
  8
0
  6
ByBlock
100
AcDbBlockReference
  2
EA10F5-2
 10
-144.58664219800596
 20
42.380349644410707
 30
0.0
 50
359.99999999999915
  0
INSERT
  5
43C
100
AcDbEntity
  8
0
  6
ByBlock
100
AcDbBlockReference
  2
EA10F5-3
 10
-219.58664219800596
 20
42.380349644410686
 30
0.0
  0
INSERT
  5
43D
100
AcDbEntity
  8
0
  6
ByBlock
100
AcDbBlockReference
  2
EA10F5-4
 10
210.9825352914678
 20
42.380349670046627
 30
0.0
  0
INSERT
  5
43E
100
AcDbEntity
  8
0
  6
ByBlock
100
AcDbBlockReference
  2
EA10F5-5
 10
133.18253529146779
 20
42.380349670046627
 30
0.0
  0
INSERT
  5
43F
100
AcDbEntity
  8
0
  6
ByBlock
100
AcDbBlockReference
  2
EA10F5-6
 10
58.182535291467786
 20
42.380349670046598
 30
0.0
  0
INSERT
  5
440
100
AcDbEntity
  8
0
  6
ByBlock
100
AcDbBlockReference
  2
EA10F5-7
 10
78.224926757812412
 20
-156.38145873166164
 30
0.0
  0
INSERT
  5
441
100
AcDbEntity
  8
0
  6
ByBlock
100
AcDbBlockReference
  2
EA10F5-8
 10
0.4249267578124147
 20
-156.38145873166164
 30
0.0
 50
359.99999979016627
  0
INSERT
  5
442
100
AcDbEntity
  8
0
  6
ByBlock
100
AcDbBlockReference
  2
EA10F5-9
 10
-74.575073242187585
 20
-156.38145873166167
 30
0.0
  0
MTEXT
  5
443
100
AcDbEntity
  8
0
  6
CONTINUOUS
 62
               7
100
AcDbMText
 10
-268.22920359288071
 20
160.5
 30
0.0
 40
6.3000001907348633
 41
0.0
 71
               4
 72
               1
  1
\W1.115;\A1;MODEL:EA10(L)F5-21-PL
  0
LINE
  5
444
100
AcDbEntity
  8
0
  6
CONTINUOUS
 62
               7
100
AcDbLine
 10
-281.25
 20
-195.0
 30
0.0
 11
282.099853515625
 21
-195.0
 31
0.0
  0
LINE
  5
445
100
AcDbEntity
  8
0
  6
CONTINUOUS
 62
               7
100
AcDbLine
 10
-281.25
 20
195.5
 30
0.0
 11
-281.25
 21
-195.0
 31
0.0
  0
LINE
  5
446
100
AcDbEntity
  8
0
  6
CONTINUOUS
 62
               7
100
AcDbLine
 10
-281.25
 20
195.5
 30
0.0
 11
282.099853515625
 21
195.5
 31
0.0
  0
LINE
  5
447
100
AcDbEntity
  8
0
  6
CONTINUOUS
 62
               7
100
AcDbLine
 10
282.099853515625
 20
195.5
 30
0.0
 11
282.099853515625
 21
-195.0
 31
0.0
  0
LINE
  5
448
100
AcDbEntity
  8
0
  6
CONTINUOUS
 62
               7
100
AcDbLine
 10
162.0999755859375
 20
195.5
 30
0.0
 11
162.0999755859375
 21
175.5
 31
0.0
  0
LINE
  5
449
100
AcDbEntity
  8
0
  6
CONTINUOUS
 62
               7
100
AcDbLine
 10
162.0999755859375
 20
175.5
 30
0.0
 11
282.099853515625
 21
175.5
 31
0.0
  0
MTEXT
  5
44A
100
AcDbEntity
  8
0
  6
CONTINUOUS
 62
               7
100
AcDbMText
 10
198.27702406779611
 20
185.5
 30
0.0
 40
6.3000001907348633
 41
0.0
 71
               4
 72
               1
  1
\W1.311;\A1;Ver. 1.0
  0
MTEXT
  5
44B
100
AcDbEntity
  8
0
  6
CONTINUOUS
 62
               7
100
AcDbMText
 10
170.28099805280428
 20
-185.0
 30
0.0
 40
9.0
 41
0.0
 71
               4
 72
               1
  1
\W1.121;\A1;KOGANEI CORP.
  0
LINE
  5
44C
100
AcDbEntity
  8
0
  6
CONTINUOUS
 62
               7
100
AcDbLine
 10
162.0999755859375
 20
-175.0
 30
0.0
 11
282.099853515625
 21
-175.0
 31
0.0
  0
LINE
  5
44D
100
AcDbEntity
  8
0
  6
CONTINUOUS
 62
               7
100
AcDbLine
 10
162.0999755859375
 20
-175.0
 30
0.0
 11
162.0999755859375
 21
-195.0
 31
0.0
  0
LINE
  5
44E
100
AcDbEntity
  8
0
  6
CONTINUOUS
 62
               7
100
AcDbLine
 10
-161.25
 20
195.5
 30
0.0
 11
-161.25
 21
175.5
 31
0.0
  0
LINE
  5
44F
100
AcDbEntity
  8
0
  6
CONTINUOUS
 62
               7
100
AcDbLine
 10
-281.25
 20
175.5
 30
0.0
 11
-161.25
 21
175.5
 31
0.0
  0
MTEXT
  5
450
100
AcDbEntity
  8
0
  6
CONTINUOUS
 62
               7
100
AcDbMText
 10
-257.88333446177035
 20
185.5
 30
0.0
 40
6.3000001907348633
 41
0.0
 71
               4
 72
               1
  1
\W1.111;\A1;EA･EB SERIES
  0
LINE
  5
451
100
AcDbEntity
  8
0
  6
CONTINUOUS
 62
               7
100
AcDbLine
 10
-281.25
 20
-38.799999999999983
 30
0.0
 11
282.099853515625
 21
-38.799999999999983
 31
0.0
  0
LINE
  5
452
100
AcDbEntity
  8
0
  6
CONTINUOUS
 62
               7
100
AcDbLine
 10
0.4249267578125
 20
-38.799999999999983
 30
0.0
 11
0.4249267578125
 21
195.5
 31
0.0
  0
MTEXT
  5
453
100
AcDbEntity
  8
0
  6
CONTINUOUS
 62
               7
100
AcDbMText
 10
13.445723164931779
 20
160.5
 30
0.0
 40
6.3000001907348633
 41
0.0
 71
               4
 72
               1
  1
\W1.115;\A1;MODEL:EA10(L)F5-21-PS
  0
MTEXT
  5
454
100
AcDbEntity
  8
0
  6
CONTINUOUS
 62
               7
100
AcDbMText
 10
-268.25454547873522
 20
-53.799999999999983
 30
0.0
 40
6.3000001907348633
 41
0.0
 71
               4
 72
               1
  1
\W1.091;\A1;MODEL:EA10F5-21-GL
  0
ENDSEC
  0
SECTION
  2
OBJECTS
  0
DICTIONARY
  5
19
100
AcDbDictionary
  3
ACAD_GROUP
350
1A
  3
ACAD_MLINESTYLE
350
1B
  0
DICTIONARY
  5
1A
102
{ACAD_REACTORS
330
19
102
}
100
AcDbDictionary
  0
DICTIONARY
  5
1B
102
{ACAD_REACTORS
330
19
102
}
100
AcDbDictionary
  3
STANDARD
350
1C
  0
MLINESTYLE
  5
1C
102
{ACAD_REACTORS
330
1B
102
}
100
AcDbMlineStyle
  2
Standard
 70
               0
  3

 62
               0
 51
90.0
 52
90.0
 71
               2
 49
0.5
 62
             256
  6
ByLayer
 49
-0.5
 62
             256
  6
ByLayer
  0
ENDSEC
  0
EOF
