  0
SECTION
  2
HEADER
  9
$ACADVER
  1
AC1009
  9
$DWGCODEPAGE
  3
dos932
  9
$INSBASE
 10
0.0
 20
0.0
 30
0.0
  9
$EXTMIN
 10
-399.52490234
 20
-276.5
 30
0.0
  9
$EXTMAX
 10
399.52490234
 20
276.5
 30
0.0
  9
$LIMMIN
 10
-420.0
 20
-297.0
  9
$LIMMAX
 10
420.0
 20
297.0
  9
$ORTHOMODE
 70
       0
  9
$REGENMODE
 70
       1
  9
$FILLMODE
 70
       1
  9
$QTEXTMODE
 70
       0
  9
$MIRRTEXT
 70
       1
  9
$DRAGMODE
 70
       2
  9
$LTSCALE
 40
1.0
  9
$OSMODE
 70
       0
  9
$ATTMODE
 70
       1
  9
$TEXTSIZE
 40
3.20000005
  9
$TRACEWID
 40
0.05
  9
$TEXTSTYLE
  7
MX_NOTE_STANDARD
  9
$CLAYER
  8
0
  9
$CELTYPE
  6
CONTINUOUS
  9
$CECOLOR
 62
     256
  9
$DIMSCALE
 40
1.0
  9
$DIMASZ
 40
2.5
  9
$DIMEXO
 40
1.5
  9
$DIMDLI
 40
3.75
  9
$DIMRND
 40
0.0
  9
$DIMDLE
 40
0.0
  9
$DIMEXE
 40
1.5
  9
$DIMTP
 40
0.0
  9
$DIMTM
 40
0.0
  9
$DIMTXT
 40
3.20000005
  9
$DIMCEN
 40
2.5
  9
$DIMTSZ
 40
0.0
  9
$DIMTOL
 70
       0
  9
$DIMLIM
 70
       0
  9
$DIMTIH
 70
       0
  9
$DIMTOH
 70
       0
  9
$DIMSE1
 70
       0
  9
$DIMSE2
 70
       0
  9
$DIMTAD
 70
       1
  9
$DIMZIN
 70
       8
  9
$DIMBLK
  1

  9
$DIMASO
 70
       1
  9
$DIMSHO
 70
       1
  9
$DIMPOST
  1

  9
$DIMAPOST
  1

  9
$DIMALT
 70
       0
  9
$DIMALTD
 70
       4
  9
$DIMALTF
 40
0.03937008
  9
$DIMLFAC
 40
1.0
  9
$DIMTOFL
 70
       1
  9
$DIMTVP
 40
0.0
  9
$DIMTIX
 70
       0
  9
$DIMSOXD
 70
       0
  9
$DIMSAH
 70
       1
  9
$DIMBLK1
  1
_OPEN30
  9
$DIMBLK2
  1
_OPEN30
  9
$DIMSTYLE
  2
MXDIMSTYLE
  9
$DIMCLRD
 70
       0
  9
$DIMCLRE
 70
       0
  9
$DIMCLRT
 70
       0
  9
$DIMTFAC
 40
1.0
  9
$DIMGAP
 40
1.0
  9
$LUNITS
 70
       2
  9
$LUPREC
 70
       4
  9
$AXISMODE
 70
       0
  9
$AXISUNIT
 10
0.0
 20
0.0
  9
$SKETCHINC
 40
0.1
  9
$FILLETRAD
 40
0.0
  9
$AUNITS
 70
       0
  9
$AUPREC
 70
       0
  9
$MENU
  1
acad
  9
$ELEVATION
 40
0.0
  9
$PELEVATION
 40
0.0
  9
$THICKNESS
 40
0.0
  9
$LIMCHECK
 70
       0
  9
$BLIPMODE
 70
       1
  9
$CHAMFERA
 40
0.0
  9
$CHAMFERB
 40
0.0
  9
$SKPOLY
 70
       0
  9
$TDCREATE
 40
2453923.348564815
  9
$TDUPDATE
 40
2453923.348564815
  9
$TDINDWG
 40
0.0000000000
  9
$TDUSRTIMER
 40
0.0000000000
  9
$USRTIMER
 70
       1
  9
$ANGBASE
 50
0.0
  9
$ANGDIR
 70
       0
  9
$PDMODE
 70
       0
  9
$PDSIZE
 40
0.0
  9
$PLINEWID
 40
0.0
  9
$COORDS
 70
       1
  9
$SPLFRAME
 70
       0
  9
$SPLINETYPE
 70
       6
  9
$SPLINESEGS
 70
       8
  9
$ATTDIA
 70
       0
  9
$ATTREQ
 70
       1
  9
$HANDLING
 70
       1
  9
$HANDSEED
  5
557
  9
$SURFTAB1
 70
       6
  9
$SURFTAB2
 70
       6
  9
$SURFTYPE
 70
       6
  9
$SURFU
 70
       6
  9
$SURFV
 70
       6
  9
$UCSNAME
  2

  9
$UCSORG
 10
0.0
 20
0.0
 30
0.0
  9
$UCSXDIR
 10
1.0
 20
0.0
 30
0.0
  9
$UCSYDIR
 10
0.0
 20
1.0
 30
0.0
  9
$PUCSNAME
  2

  9
$PUCSORG
 10
0.0
 20
0.0
 30
0.0
  9
$PUCSXDIR
 10
1.0
 20
0.0
 30
0.0
  9
$PUCSYDIR
 10
0.0
 20
1.0
 30
0.0
  9
$USERI1
 70
       0
  9
$USERI2
 70
       0
  9
$USERI3
 70
       0
  9
$USERI4
 70
       0
  9
$USERI5
 70
       0
  9
$USERR1
 40
0.0
  9
$USERR2
 40
0.0
  9
$USERR3
 40
0.0
  9
$USERR4
 40
0.0
  9
$USERR5
 40
0.0
  9
$WORLDVIEW
 70
       1
  9
$SHADEDGE
 70
       3
  9
$SHADEDIF
 70
      70
  9
$TILEMODE
 70
       1
  9
$MAXACTVP
 70
      16
  9
$PINSBASE
 10
0.0
 20
0.0
 30
0.0
  9
$PLIMCHECK
 70
       0
  9
$PEXTMIN
 10
1.00000000E+20
 20
1.00000000E+20
 30
1.00000000E+20
  9
$PEXTMAX
 10
-1.00000000E+20
 20
-1.00000000E+20
 30
-1.00000000E+20
  9
$PLIMMIN
 10
0.0
 20
0.0
  9
$PLIMMAX
 10
12.0
 20
9.0
  9
$UNITMODE
 70
       0
  9
$VISRETAIN
 70
       0
  9
$PLINEGEN
 70
       1
  9
$PSLTSCALE
 70
       0
  9
$TREEDEPTH
 70
    3020
  0
ENDSEC
  0
SECTION
  2
TABLES
  0
TABLE
  2
VPORT
 70
       1
  0
VPORT
  2
*ACTIVE
 70
       0
 10
0.0
 20
0.0
 11
1.0
 21
1.0
 12
0.0
 22
0.0
 13
0.0
 23
0.0
 14
1.0
 24
1.0
 15
0.0
 25
0.0
 16
0.0
 26
0.0
 36
1.0
 17
0.0
 27
0.0
 37
0.0
 40
599.94
 41
1.73205081
 42
50.0
 43
0.0
 44
0.0
 50
0.0
 51
0.0
 71
       0
 72
     100
 73
       1
 74
       1
 75
       0
 76
       0
 77
       0
 78
       0
  0
ENDTAB
  0
TABLE
  2
LTYPE
 70
       3
  0
LTYPE
  2
CONTINUOUS
 70
      64
  3
Solid line
 72
      65
 73
       0
 40
0.0
  0
LTYPE
  2
DASHED
 70
      64
  3
Dashed __ __ __ __ __ __ __ __ __ __ __ __ __ _
 72
      65
 73
       2
 40
19.05
 49
12.7
 49
-6.35
  0
LTYPE
  2
PHANTOM
 70
      64
  3
Phantom ______  __  __  ______  __  __  ______
 72
      65
 73
       6
 40
63.5
 49
31.75
 49
-6.35
 49
6.35
 49
-6.35
 49
6.35
 49
-6.35
  0
ENDTAB
  0
TABLE
  2
LAYER
 70
       2
  0
LAYER
  2
0
 70
       0
 62
       7
  6
CONTINUOUS
  0
LAYER
  2
DEFPOINTS
 70
       0
 62
       7
  6
CONTINUOUS
  0
ENDTAB
  0
TABLE
  2
STYLE
 70
       1
  0
STYLE
  2
MX_NOTE_STANDARD
 70
       0
 40
0.0
 41
1.0
 50
0.0
 71
       0
 42
3.20000005
  3
txt.shx
  4
extfont.shx
  0
ENDTAB
  0
TABLE
  2
VIEW
 70
       0
  0
ENDTAB
  0
TABLE
  2
UCS
 70
       0
  0
ENDTAB
  0
TABLE
  2
APPID
 70
       1
  0
APPID
  2
ACAD
 70
       0
  0
ENDTAB
  0
TABLE
  2
DIMSTYLE
 70
       1
  0
DIMSTYLE
  2
MXDIMSTYLE
 70
       0
  3

  4

  5

  6
_OPEN30
  7
_OPEN30
 40
1.0
 41
2.5
 42
1.5
 43
3.75
 44
1.5
 45
0.0
 46
0.0
 47
0.0
 48
0.0
 71
       0
 72
       0
 73
       0
 74
       0
 75
       0
 76
       0
 77
       1
 78
       8
140
3.20000005
141
2.5
142
0.0
143
0.03937008
144
1.0
145
0.0
146
1.0
147
1.0
170
       0
171
       4
172
       1
173
       1
174
       0
175
       0
176
       0
177
       0
178
       0
  0
ENDTAB
  0
ENDSEC
  0
SECTION
  2
BLOCKS
  0
BLOCK
  8
0
  6
BYBLOCK
 62
       0
  5
1F
  2
_OPEN30
 70
       2
 10
0.0
 20
0.0
 30
0.0
  3
_OPEN30
  0
LINE
  8
0
  6
BYBLOCK
 62
       0
  5
20
 10
-1.0
 20
0.267949
 30
0.0
 11
0.0
 21
0.0
 31
0.0
  0
LINE
  8
0
  6
BYBLOCK
 62
       0
  5
21
 10
0.0
 20
0.0
 30
0.0
 11
-1.0
 21
-0.267949
 31
0.0
  0
LINE
  8
0
  6
BYBLOCK
 62
       0
  5
22
 10
0.0
 20
0.0
 30
0.0
 11
-1.0
 21
0.0
 31
0.0
  0
ENDBLK
  8
0
  6
BYBLOCK
 62
       0
  5
23
  0
ENDSEC
  0
SECTION
  2
ENTITIES
  0
LINE
  8
0
  6
CONTINUOUS
 62
       7
  5
24
 10
-235.36992029
 20
-179.80267995
 30
0.0
 11
-235.36992029
 21
-163.80267995
 31
0.0
  0
LINE
  8
0
  6
CONTINUOUS
 62
       7
  5
25
 10
-237.86992029
 20
-176.30267995
 30
0.0
 11
-237.86992029
 21
-167.30267995
 31
0.0
  0
LINE
  8
0
  6
CONTINUOUS
 62
       7
  5
26
 10
-236.16992029
 20
-179.80267995
 30
0.0
 11
-236.16992029
 21
-163.80267995
 31
0.0
  0
LINE
  8
0
  6
CONTINUOUS
 62
       7
  5
27
 10
-237.36992029
 20
-176.80267995
 30
0.0
 11
-237.36992029
 21
-166.80267995
 31
0.0
  0
LINE
  8
0
  6
CONTINUOUS
 62
       7
  5
28
 10
-207.86992029
 20
-167.30267995
 30
0.0
 11
-207.86992029
 21
-176.30267995
 31
0.0
  0
LINE
  8
0
  6
CONTINUOUS
 62
       7
  5
29
 10
-208.36992029
 20
-166.80267995
 30
0.0
 11
-208.36992029
 21
-176.80267995
 31
0.0
  0
LINE
  8
0
  6
CONTINUOUS
 62
       7
  5
2A
 10
-209.46992029
 20
-163.80267995
 30
0.0
 11
-209.46992029
 21
-179.80267995
 31
0.0
  0
LINE
  8
0
  6
CONTINUOUS
 62
       7
  5
2B
 10
-210.36992029
 20
-163.80267995
 30
0.0
 11
-210.36992029
 21
-179.80267995
 31
0.0
  0
LINE
  8
0
  6
CONTINUOUS
 62
       7
  5
2C
 10
-213.61992029
 20
-163.51267995
 30
0.0
 11
-213.61992029
 21
-199.66267995
 31
0.0
  0
LINE
  8
0
  6
CONTINUOUS
 62
       2
  5
2D
 10
-222.86992029
 20
-159.69267995
 30
0.0
 11
-222.86992029
 21
-219.80267995
 31
0.0
  0
LINE
  8
0
  6
CONTINUOUS
 62
       7
  5
2E
 10
-230.11992029
 20
-160.79267995
 30
0.0
 11
-230.11992029
 21
-191.80267995
 31
0.0
  0
LINE
  8
0
  6
CONTINUOUS
 62
       7
  5
2F
 10
-215.61992029
 20
-160.72267995
 30
0.0
 11
-215.61992029
 21
-191.80267995
 31
0.0
  0
LINE
  8
0
  6
CONTINUOUS
 62
       7
  5
30
 10
-234.86992029
 20
-162.61267995
 30
0.0
 11
-234.86992029
 21
-200.80267995
 31
0.0
  0
LINE
  8
0
  6
CONTINUOUS
 62
       7
  5
31
 10
-232.11992029
 20
-163.51267995
 30
0.0
 11
-232.11992029
 21
-199.66267995
 31
0.0
  0
LINE
  8
0
  6
CONTINUOUS
 62
       7
  5
32
 10
-210.86992029
 20
-162.61267995
 30
0.0
 11
-210.86992029
 21
-200.80267995
 31
0.0
  0
LINE
  8
0
  6
CONTINUOUS
 62
       7
  5
33
 10
-124.87992029
 20
-162.61267995
 30
0.0
 11
-124.87992029
 21
-200.80267995
 31
0.0
  0
LINE
  8
0
  6
CONTINUOUS
 62
       7
  5
34
 10
-148.86992029
 20
-162.61267995
 30
0.0
 11
-148.86992029
 21
-200.80267995
 31
0.0
  0
LINE
  8
0
  6
CONTINUOUS
 62
       7
  5
35
 10
-127.62992029
 20
-162.93267995
 30
0.0
 11
-127.62992029
 21
-199.66267995
 31
0.0
  0
LINE
  8
0
  6
CONTINUOUS
 62
       2
  5
36
 10
-136.87992029
 20
-158.57267995
 30
0.0
 11
-136.87992029
 21
-219.80267995
 31
0.0
  0
LINE
  8
0
  6
CONTINUOUS
 62
       7
  5
37
 10
-146.12992029
 20
-162.93267995
 30
0.0
 11
-146.12992029
 21
-199.66267995
 31
0.0
  0
CIRCLE
  8
0
  6
CONTINUOUS
 62
       7
  5
38
 10
-136.87049616
 20
-171.80324819
 30
0.0
 40
5.0
  0
ARC
  8
0
  6
CONTINUOUS
 62
       7
  5
39
 10
-136.87030911
 20
-171.79888662
 30
0.0
 40
8.00796253
 50
235.55336468
 51
119.5518176
  0
ARC
  8
0
  6
CONTINUOUS
 62
       7
  5
3A
 10
-136.87492029
 20
-186.80324851
 30
0.0
 40
27.00117835
 50
63.62528379
 51
116.37471621
  0
ARC
  8
0
  6
CONTINUOUS
 62
       7
  5
3B
 10
-136.87992029
 20
-188.30324973
 30
0.0
 40
27.00422765
 50
69.96836319
 51
110.03163681
  0
ARC
  8
0
  6
CONTINUOUS
 62
       7
  5
3C
 10
-136.3680001
 20
-166.1233492
 30
0.0
 40
0.5021153
 50
85.65058191
 51
168.43436764
  0
ARC
  8
0
  6
CONTINUOUS
 62
       7
  5
3D
 10
-142.51779173
 20
-166.85831928
 30
0.0
 40
0.50205897
 50
139.56328662
 51
254.74155686
  0
ARC
  8
0
  6
CONTINUOUS
 62
       7
  5
3E
 10
-131.51526114
 20
-169.85053466
 30
0.0
 40
0.49817106
 50
284.5723322
 51
20.91701105
  0
ARC
  8
0
  6
CONTINUOUS
 62
       7
  5
3F
 10
-136.8773866
 20
-171.79795633
 30
0.0
 40
6.19949657
 50
19.95008157
 51
84.93371416
  0
ARC
  8
0
  6
CONTINUOUS
 62
       7
  5
40
 10
-136.86450858
 20
-171.79852977
 30
0.0
 40
8.00970467
 50
117.63671121
 51
138.89555497
  0
LINE
  8
0
  6
CONTINUOUS
 62
       7
  5
41
 10
-127.62992029
 20
-162.93267995
 30
0.0
 11
-124.87992029
 21
-162.93267995
 31
0.0
  0
LINE
  8
0
  6
CONTINUOUS
 62
       7
  5
42
 10
-148.86992029
 20
-162.93267995
 30
0.0
 11
-146.12992029
 21
-162.93267995
 31
0.0
  0
LINE
  8
0
  6
DASHED
 62
       7
  5
44
 10
-136.86992029
 20
-166.80267995
 30
0.0
 11
-136.86992029
 21
-167.80267995
 31
0.0
  0
LINE
  8
0
  6
CONTINUOUS
 62
       7
  5
45
 10
-142.64992029
 20
-167.34267995
 30
0.0
 11
-140.13992029
 21
-168.01267995
 31
0.0
  0
LINE
  8
0
  6
CONTINUOUS
 62
       7
  5
46
 10
-131.38992029
 20
-170.33267995
 30
0.0
 11
-132.04992029
 21
-170.50267995
 31
0.0
  0
ARC
  8
0
  6
CONTINUOUS
 62
       7
  5
47
 10
-222.86343686
 20
-186.80595122
 30
0.0
 40
27.00294084
 50
63.63065132
 51
74.43989099
  0
ARC
  8
0
  6
CONTINUOUS
 62
       7
  5
48
 10
-222.87654931
 20
-186.80557125
 30
0.0
 40
27.00253576
 50
105.56002769
 51
116.36943
  0
ARC
  8
0
  6
CONTINUOUS
 62
       7
  5
49
 10
-222.77945412
 20
-188.85065279
 30
0.0
 40
27.0047621
 50
105.77266618
 51
110.23565704
  0
ARC
  8
0
  6
CONTINUOUS
 62
       7
  5
4A
 10
-222.96049386
 20
-188.85098324
 30
0.0
 40
27.0051093
 50
69.76437167
 51
74.22730512
  0
LINE
  8
0
  6
CONTINUOUS
 62
       7
  5
4B
 10
-210.86992029
 20
-166.80267995
 30
0.0
 11
-210.36992029
 21
-166.80267995
 31
0.0
  0
LINE
  8
0
  6
CONTINUOUS
 62
       7
  5
4C
 10
-235.36992029
 20
-166.80267995
 30
0.0
 11
-234.86992029
 21
-166.80267995
 31
0.0
  0
LINE
  8
0
  6
CONTINUOUS
 62
       7
  5
4D
 10
-213.61992029
 20
-163.60267995
 30
0.0
 11
-210.86992029
 21
-163.60267995
 31
0.0
  0
LINE
  8
0
  6
CONTINUOUS
 62
       7
  5
4E
 10
-234.86992029
 20
-163.60267995
 30
0.0
 11
-232.11992029
 21
-163.60267995
 31
0.0
  0
LINE
  8
0
  6
CONTINUOUS
 62
       7
  5
4F
 10
-215.61992029
 20
-166.80267995
 30
0.0
 11
-230.11992029
 21
-166.80267995
 31
0.0
  0
LINE
  8
0
  6
CONTINUOUS
 62
       7
  5
50
 10
-235.36992029
 20
-163.80267995
 30
0.0
 11
-236.16992029
 21
-163.80267995
 31
0.0
  0
LINE
  8
0
  6
CONTINUOUS
 62
       7
  5
51
 10
-210.36992029
 20
-163.80267995
 30
0.0
 11
-209.46992029
 21
-163.80267995
 31
0.0
  0
LINE
  8
0
  6
CONTINUOUS
 62
       7
  5
52
 10
-208.36992029
 20
-166.80267995
 30
0.0
 11
-207.86992029
 21
-167.30267995
 31
0.0
  0
LINE
  8
0
  6
CONTINUOUS
 62
       7
  5
53
 10
-209.46992029
 20
-166.80267995
 30
0.0
 11
-208.36992029
 21
-166.80267995
 31
0.0
  0
LINE
  8
0
  6
CONTINUOUS
 62
       7
  5
54
 10
-237.36992029
 20
-166.80267995
 30
0.0
 11
-237.86992029
 21
-167.30267995
 31
0.0
  0
LINE
  8
0
  6
CONTINUOUS
 62
       7
  5
55
 10
-236.16992029
 20
-166.80267995
 30
0.0
 11
-237.36992029
 21
-166.80267995
 31
0.0
  0
ARC
  8
0
  6
CONTINUOUS
 62
       7
  5
56
 10
-136.87992029
 20
-174.30324664
 30
0.0
 40
26.99376516
 50
249.96026633
 51
290.03973367
  0
ARC
  8
0
  6
CONTINUOUS
 62
       7
  5
57
 10
-136.37485915
 20
-177.47760658
 30
0.0
 40
0.49710878
 50
185.20221243
 51
275.18664538
  0
ARC
  8
0
  6
CONTINUOUS
 62
       7
  5
58
 10
-142.51467603
 20
-176.73800225
 30
0.0
 40
0.5038142
 50
105.57150376
 51
220.12365276
  0
ARC
  8
0
  6
CONTINUOUS
 62
       7
  5
59
 10
-136.88440254
 20
-171.791218
 30
0.0
 40
7.99842265
 50
221.22842732
 51
237.17693169
  0
ARC
  8
0
  6
CONTINUOUS
 62
       7
  5
5A
 10
-131.51680437
 20
-173.75333872
 30
0.0
 40
0.49664594
 50
340.0640341
 51
81.09441964
  0
ARC
  8
0
  6
CONTINUOUS
 62
       7
  5
5B
 10
-136.86948366
 20
-171.80247141
 30
0.0
 40
6.19375508
 50
274.99760463
 51
339.98208701
  0
LINE
  8
0
  6
CONTINUOUS
 62
       7
  5
5C
 10
-127.62992029
 20
-199.32267995
 30
0.0
 11
-124.87992029
 21
-199.32267995
 31
0.0
  0
LINE
  8
0
  6
CONTINUOUS
 62
       7
  5
5D
 10
-148.86992029
 20
-199.32267995
 30
0.0
 11
-146.12992029
 21
-199.32267995
 31
0.0
  0
LINE
  8
0
  6
CONTINUOUS
 62
       7
  5
5E
 10
-136.86992029
 20
-176.80267995
 30
0.0
 11
-136.86992029
 21
-177.52267995
 31
0.0
  0
LINE
  8
0
  6
DASHED
 62
       7
  5
5F
 10
-136.86992029
 20
-175.80267995
 30
0.0
 11
-136.86992029
 21
-176.80267995
 31
0.0
  0
LINE
  8
0
  6
CONTINUOUS
 62
       7
  5
60
 10
-132.04992029
 20
-173.09267995
 30
0.0
 11
-131.38992029
 21
-173.27267995
 31
0.0
  0
LINE
  8
0
  6
CONTINUOUS
 62
       7
  5
61
 10
-140.13992029
 20
-175.58267995
 30
0.0
 11
-142.64992029
 21
-176.25267995
 31
0.0
  0
LINE
  8
0
  6
CONTINUOUS
 62
       7
  5
62
 10
-147.86992029
 20
-201.80267995
 30
0.0
 11
-147.86992029
 21
-216.30267995
 31
0.0
  0
LINE
  8
0
  6
CONTINUOUS
 62
       7
  5
63
 10
-125.87992029
 20
-201.80267995
 30
0.0
 11
-125.87992029
 21
-216.30267995
 31
0.0
  0
LINE
  8
0
  6
CONTINUOUS
 62
       7
  5
64
 10
-125.87992029
 20
-201.80267995
 30
0.0
 11
-147.86992029
 21
-201.80267995
 31
0.0
  0
LINE
  8
0
  6
CONTINUOUS
 62
       2
  5
65
 10
-121.87992029
 20
-171.80267995
 30
0.0
 11
-151.86992029
 21
-171.80267995
 31
0.0
  0
LINE
  8
0
  6
CONTINUOUS
 62
       7
  5
66
 10
-148.86992029
 20
-200.80267995
 30
0.0
 11
-147.86992029
 21
-201.80267995
 31
0.0
  0
LINE
  8
0
  6
CONTINUOUS
 62
       7
  5
67
 10
-124.87992029
 20
-200.80267995
 30
0.0
 11
-125.87992029
 21
-201.80267995
 31
0.0
  0
LINE
  8
0
  6
CONTINUOUS
 62
       7
  5
68
 10
-147.86992029
 20
-216.30267995
 30
0.0
 11
-147.36992029
 21
-216.80267995
 31
0.0
  0
LINE
  8
0
  6
CONTINUOUS
 62
       7
  5
69
 10
-125.87992029
 20
-216.30267995
 30
0.0
 11
-126.37992029
 21
-216.80267995
 31
0.0
  0
LINE
  8
0
  6
CONTINUOUS
 62
       7
  5
6A
 10
-125.87992029
 20
-216.30267995
 30
0.0
 11
-147.86992029
 21
-216.30267995
 31
0.0
  0
LINE
  8
0
  6
CONTINUOUS
 62
       7
  5
6B
 10
-126.37992029
 20
-216.80267995
 30
0.0
 11
-147.36992029
 21
-216.80267995
 31
0.0
  0
LINE
  8
0
  6
CONTINUOUS
 62
       7
  5
6C
 10
-210.86992029
 20
-176.80267995
 30
0.0
 11
-210.36992029
 21
-176.80267995
 31
0.0
  0
LINE
  8
0
  6
CONTINUOUS
 62
       7
  5
6D
 10
-235.36992029
 20
-176.80267995
 30
0.0
 11
-234.86992029
 21
-176.80267995
 31
0.0
  0
LINE
  8
0
  6
CONTINUOUS
 62
       2
  5
6E
 10
-240.86992029
 20
-171.80267995
 30
0.0
 11
-204.86992029
 21
-171.80267995
 31
0.0
  0
LINE
  8
0
  6
CONTINUOUS
 62
       7
  5
6F
 10
-215.61992029
 20
-176.80267995
 30
0.0
 11
-230.11992029
 21
-176.80267995
 31
0.0
  0
LINE
  8
0
  6
CONTINUOUS
 62
       7
  5
70
 10
-210.36992029
 20
-179.80267995
 30
0.0
 11
-209.46992029
 21
-179.80267995
 31
0.0
  0
LINE
  8
0
  6
CONTINUOUS
 62
       7
  5
71
 10
-208.36992029
 20
-176.80267995
 30
0.0
 11
-207.86992029
 21
-176.30267995
 31
0.0
  0
LINE
  8
0
  6
CONTINUOUS
 62
       7
  5
72
 10
-209.46992029
 20
-176.80267995
 30
0.0
 11
-208.36992029
 21
-176.80267995
 31
0.0
  0
LINE
  8
0
  6
CONTINUOUS
 62
       7
  5
73
 10
-235.36992029
 20
-179.80267995
 30
0.0
 11
-236.16992029
 21
-179.80267995
 31
0.0
  0
LINE
  8
0
  6
CONTINUOUS
 62
       7
  5
74
 10
-237.36992029
 20
-176.80267995
 30
0.0
 11
-237.86992029
 21
-176.30267995
 31
0.0
  0
LINE
  8
0
  6
CONTINUOUS
 62
       7
  5
75
 10
-236.16992029
 20
-176.80267995
 30
0.0
 11
-237.36992029
 21
-176.80267995
 31
0.0
  0
ARC
  8
0
  6
CONTINUOUS
 62
       7
  5
76
 10
-222.86992029
 20
-174.30324818
 30
0.0
 40
26.99376372
 50
249.96026521
 51
290.03973479
  0
ARC
  8
0
  6
CONTINUOUS
 62
       7
  5
77
 10
-222.59337081
 20
-176.73772771
 30
0.0
 40
26.49863234
 50
282.85037881
 51
283.13885477
  0
LINE
  8
0
  6
CONTINUOUS
 62
       7
  5
78
 10
-213.61992029
 20
-199.32267995
 30
0.0
 11
-210.86992029
 21
-199.32267995
 31
0.0
  0
LINE
  8
0
  6
CONTINUOUS
 62
       7
  5
79
 10
-234.86992029
 20
-199.32267995
 30
0.0
 11
-232.11992029
 21
-199.32267995
 31
0.0
  0
LINE
  8
0
  6
CONTINUOUS
 62
       7
  5
7A
 10
-211.86992029
 20
-201.80267995
 30
0.0
 11
-210.86992029
 21
-200.80267995
 31
0.0
  0
LINE
  8
0
  6
CONTINUOUS
 62
       7
  5
7B
 10
-234.86992029
 20
-200.80267995
 30
0.0
 11
-233.86992029
 21
-201.80267995
 31
0.0
  0
LINE
  8
0
  6
CONTINUOUS
 62
       7
  5
7C
 10
-215.61992029
 20
-191.80267995
 30
0.0
 11
-230.11992029
 21
-191.80267995
 31
0.0
  0
LINE
  8
0
  6
CONTINUOUS
 62
       7
  5
7D
 10
-233.86992029
 20
-201.80267995
 30
0.0
 11
-233.86992029
 21
-216.30267995
 31
0.0
  0
LINE
  8
0
  6
CONTINUOUS
 62
       7
  5
7E
 10
-211.86992029
 20
-201.80267995
 30
0.0
 11
-211.86992029
 21
-216.30267995
 31
0.0
  0
LINE
  8
0
  6
CONTINUOUS
 62
       7
  5
7F
 10
-211.86992029
 20
-201.80267995
 30
0.0
 11
-233.86992029
 21
-201.80267995
 31
0.0
  0
LINE
  8
0
  6
CONTINUOUS
 62
       7
  5
80
 10
-233.86992029
 20
-216.30267995
 30
0.0
 11
-233.36992029
 21
-216.80267995
 31
0.0
  0
LINE
  8
0
  6
CONTINUOUS
 62
       7
  5
81
 10
-211.86992029
 20
-216.30267995
 30
0.0
 11
-212.36992029
 21
-216.80267995
 31
0.0
  0
LINE
  8
0
  6
CONTINUOUS
 62
       7
  5
82
 10
-211.86992029
 20
-216.30267995
 30
0.0
 11
-233.86992029
 21
-216.30267995
 31
0.0
  0
LINE
  8
0
  6
CONTINUOUS
 62
       7
  5
83
 10
-212.36992029
 20
-216.80267995
 30
0.0
 11
-233.36992029
 21
-216.80267995
 31
0.0
  0
TEXT
  8
0
  6
CONTINUOUS
 62
       7
  5
84
 10
-202.40796621
 20
-237.2877475
 30
0.0
 40
6.4000001
  1
Y形ナックルセット
 41
0.79599053
  7
MX_NOTE_STANDARD
 11
-202.40796621
 21
-234.08774746
 31
0.0
 73
       2
  0
LINE
  8
0
  6
CONTINUOUS
 62
       7
  5
85
 10
225.51925147
 20
-10.24482271
 30
0.0
 11
225.51925147
 21
-20.44574913
 31
0.0
  0
LINE
  8
0
  6
CONTINUOUS
 62
       7
  5
86
 10
224.51925147
 20
-10.99704918
 30
0.0
 11
224.51925147
 21
-21.44574913
 31
0.0
  0
LINE
  8
0
  6
CONTINUOUS
 62
       7
  5
87
 10
226.51925147
 20
-9.31375079
 30
0.0
 11
226.51925147
 21
-21.64574913
 31
0.0
  0
LINE
  8
0
  6
CONTINUOUS
 62
       7
  5
88
 10
212.91827123
 20
-0.64574913
 30
0.0
 11
213.51924889
 21
-0.64574913
 31
0.0
  0
LINE
  8
0
  6
CONTINUOUS
 62
       7
  5
89
 10
222.10489369
 20
-0.64574913
 30
0.0
 11
221.51923778
 21
-0.64574913
 31
0.0
  0
TEXT
  8
0
  6
CONTINUOUS
 62
       7
  5
8A
 10
319.64028028
 20
-261.0
 30
0.0
 40
9.0
  1
LFB-104
 41
1.07692308
  7
MX_NOTE_STANDARD
 11
319.64028028
 21
-256.5
 31
0.0
 73
       2
  0
LINE
  8
0
  6
CONTINUOUS
 62
       2
  5
8B
 10
147.02390688
 20
-4.10985075
 30
0.0
 11
151.02390688
 21
2.81835248
 31
0.0
  0
LINE
  8
0
  6
CONTINUOUS
 62
       2
  5
8C
 10
-10.94488982
 20
-4.10985075
 30
0.0
 11
-6.94488982
 21
2.81835248
 31
0.0
  0
LINE
  8
0
  6
CONTINUOUS
 62
       7
  5
8D
 10
-33.99074853
 20
-21.44574913
 30
0.0
 11
-49.48408186
 21
-21.44574913
 31
0.0
  0
LINE
  8
0
  6
CONTINUOUS
 62
       7
  5
8E
 10
-24.99074853
 20
20.15425087
 30
0.0
 11
165.99591801
 21
20.15425087
 31
0.0
  0
LINE
  8
0
  6
CONTINUOUS
 62
       7
  5
8F
 10
207.5056254
 20
-25.02357272
 30
0.0
 11
207.52778743
 21
-23.02556162
 31
0.0
  0
LINE
  8
0
  6
CONTINUOUS
 62
       7
  5
90
 10
224.86283959
 20
6.14079334
 30
0.0
 11
230.0125848
 21
0.56217408
 31
0.0
  0
LINE
  8
0
  6
CONTINUOUS
 62
       7
  5
91
 10
230.0125848
 20
-0.64574913
 30
0.0
 11
230.0125848
 21
0.56217408
 31
0.0
  0
LINE
  8
0
  6
CONTINUOUS
 62
       7
  5
92
 10
210.18057284
 20
6.14956032
 30
0.0
 11
190.0125848
 21
-15.64574913
 31
0.0
  0
LINE
  8
0
  6
CONTINUOUS
 62
       7
  5
93
 10
240.0125848
 20
-35.13908247
 30
0.0
 11
245.0125848
 21
-40.13908247
 31
0.0
  0
LINE
  8
0
  6
CONTINUOUS
 62
       7
  5
94
 10
-24.99074853
 20
-21.44574913
 30
0.0
 11
165.99591801
 21
-21.44574913
 31
0.0
  0
ARC
  8
0
  6
CONTINUOUS
 62
       7
  5
95
 10
-261.1874152
 20
-42.1324158
 30
0.0
 40
8.5
 50
180.0
 51
270.0
  0
ARC
  8
0
  6
CONTINUOUS
 62
       7
  5
96
 10
-327.7874152
 20
-42.1324158
 30
0.0
 40
8.5
 50
270.0
 51
0.0
  0
LINE
  8
0
  6
CONTINUOUS
 62
       7
  5
97
 10
253.0125848
 20
20.35425087
 30
0.0
 11
253.0125848
 21
21.35425087
 31
0.0
  0
LINE
  8
0
  6
CONTINUOUS
 62
       2
  5
98
 10
257.0125848
 20
19.35425087
 30
0.0
 11
257.0125848
 21
26.10091753
 31
0.0
  0
LINE
  8
0
  6
CONTINUOUS
 62
       7
  5
99
 10
261.0125848
 20
20.35425087
 30
0.0
 11
261.0125848
 21
21.35425087
 31
0.0
  0
LINE
  8
0
  6
CONTINUOUS
 62
       7
  5
9A
 10
261.0125848
 20
21.35425087
 30
0.0
 11
253.0125848
 21
21.35425087
 31
0.0
  0
POLYLINE
  8
0
  6
CONTINUOUS
 62
       7
  5
9B
 66
       1
 10
0.0
 20
0.0
 30
0.0
  0
VERTEX
  8
0
  6
CONTINUOUS
 62
       7
  5
2C7
 10
260.51925147
 20
21.35425087
 30
0.0
  0
VERTEX
  8
0
  6
CONTINUOUS
 62
       7
  5
2C8
 10
260.51925147
 20
22.35425087
 30
0.0
  0
VERTEX
  8
0
  6
CONTINUOUS
 62
       7
  5
2C9
 10
260.07980535
 20
23.0821663
 30
0.0
  0
VERTEX
  8
0
  6
CONTINUOUS
 62
       7
  5
2CA
 10
259.2656385
 20
23.54480466
 30
0.0
  0
VERTEX
  8
0
  6
CONTINUOUS
 62
       7
  5
2CB
 10
258.20161147
 20
23.78883279
 30
0.0
  0
VERTEX
  8
0
  6
CONTINUOUS
 62
       7
  5
2CC
 10
257.0125848
 20
23.86091753
 30
0.0
  0
VERTEX
  8
0
  6
CONTINUOUS
 62
       7
  5
2CD
 10
255.81942546
 20
23.79163168
 30
0.0
  0
VERTEX
  8
0
  6
CONTINUOUS
 62
       7
  5
2CE
 10
254.75128418
 20
23.54892567
 30
0.0
  0
VERTEX
  8
0
  6
CONTINUOUS
 62
       7
  5
2CF
 10
253.9337932
 20
23.08554892
 30
0.0
  0
VERTEX
  8
0
  6
CONTINUOUS
 62
       7
  5
2D0
 10
253.4925848
 20
22.35425087
 30
0.0
  0
VERTEX
  8
0
  6
CONTINUOUS
 62
       7
  5
2D1
 10
253.4925848
 20
21.35425087
 30
0.0
  0
SEQEND
  8
0
  6
CONTINUOUS
 62
       7
  5
2D2
  0
LINE
  8
0
  6
CONTINUOUS
 62
       7
  5
9C
 10
270.50591814
 20
20.2875842
 30
0.0
 11
251.0125848
 21
20.2875842
 31
0.0
  0
POLYLINE
  8
0
  6
CONTINUOUS
 62
       7
  5
9D
 66
       1
 10
0.0
 20
0.0
 30
0.0
  0
VERTEX
  8
0
  6
CONTINUOUS
 62
       7
  5
2D3
 10
260.51925147
 20
-22.64574913
 30
0.0
  0
VERTEX
  8
0
  6
CONTINUOUS
 62
       7
  5
2D4
 10
260.56778377
 20
-23.15405291
 30
0.0
  0
VERTEX
  8
0
  6
CONTINUOUS
 62
       7
  5
2D5
 10
260.51925147
 20
-23.64574913
 30
0.0
  0
VERTEX
  8
0
  6
CONTINUOUS
 62
       7
  5
2D6
 10
260.07980071
 20
-24.37158138
 30
0.0
  0
VERTEX
  8
0
  6
CONTINUOUS
 62
       7
  5
2D7
 10
259.26562681
 20
-24.82963671
 30
0.0
  0
VERTEX
  8
0
  6
CONTINUOUS
 62
       7
  5
2D8
 10
258.20159857
 20
-25.06908159
 30
0.0
  0
VERTEX
  8
0
  6
CONTINUOUS
 62
       7
  5
2D9
 10
257.0125848
 20
-25.13908247
 30
0.0
  0
VERTEX
  8
0
  6
CONTINUOUS
 62
       7
  5
2DA
 10
255.81937853
 20
-25.07165577
 30
0.0
  0
VERTEX
  8
0
  6
CONTINUOUS
 62
       7
  5
2DB
 10
254.75114692
 20
-24.83316044
 30
0.0
  0
VERTEX
  8
0
  6
CONTINUOUS
 62
       7
  5
2DC
 10
253.93363425
 20
-24.37429278
 30
0.0
  0
VERTEX
  8
0
  6
CONTINUOUS
 62
       7
  5
2DD
 10
253.4925848
 20
-23.64574913
 30
0.0
  0
VERTEX
  8
0
  6
CONTINUOUS
 62
       7
  5
2DE
 10
253.44414197
 20
-23.15394688
 30
0.0
  0
VERTEX
  8
0
  6
CONTINUOUS
 62
       7
  5
2DF
 10
253.4925848
 20
-22.64574913
 30
0.0
  0
SEQEND
  8
0
  6
CONTINUOUS
 62
       7
  5
2E0
  0
LINE
  8
0
  6
CONTINUOUS
 62
       7
  5
9E
 10
261.0125848
 20
-22.64574913
 30
0.0
 11
253.0125848
 21
-22.64574913
 31
0.0
  0
LINE
  8
0
  6
CONTINUOUS
 62
       7
  5
9F
 10
253.0125848
 20
-22.64574913
 30
0.0
 11
253.0125848
 21
-21.64574913
 31
0.0
  0
LINE
  8
0
  6
CONTINUOUS
 62
       7
  5
A0
 10
261.0125848
 20
-22.64574913
 30
0.0
 11
261.0125848
 21
-21.64574913
 31
0.0
  0
LINE
  8
0
  6
CONTINUOUS
 62
       2
  5
A1
 10
257.0125848
 20
-26.72574913
 30
0.0
 11
257.0125848
 21
-19.49908247
 31
0.0
  0
LINE
  8
0
  6
CONTINUOUS
 62
       7
  5
A2
 10
320.31925147
 20
-21.5924158
 30
0.0
 11
251.0125848
 21
-21.5924158
 31
0.0
  0
ARC
  8
0
  6
CONTINUOUS
 62
       7
  5
A3
 10
320.32155942
 20
-16.60805708
 30
0.0
 40
4.98435925
 50
269.97346987
 51
0.02653013
  0
ARC
  8
0
  6
CONTINUOUS
 62
       7
  5
A4
 10
330.34021362
 20
28.77328688
 30
0.0
 40
6.97904018
 50
269.93736976
 51
359.95318275
  0
ARC
  8
0
  6
CONTINUOUS
 62
       7
  5
A5
 10
336.02924653
 20
62.18424593
 30
0.0
 40
1.49000865
 50
359.87201191
 51
90.12798809
  0
LINE
  8
0
  6
CONTINUOUS
 62
       7
  5
A6
 10
337.51925147
 20
62.18091753
 30
0.0
 11
337.51925147
 21
55.70091753
 31
0.0
  0
LINE
  8
0
  6
CONTINUOUS
 62
       7
  5
A7
 10
337.31925147
 20
55.70091753
 30
0.0
 11
337.31925147
 21
28.7675842
 31
0.0
  0
POLYLINE
  8
0
  6
CONTINUOUS
 62
       7
  5
A8
 66
       1
 10
0.0
 20
0.0
 30
0.0
  0
VERTEX
  8
0
  6
CONTINUOUS
 62
       7
  5
2E1
 10
329.58591814
 20
63.67425087
 30
0.0
  0
VERTEX
  8
0
  6
CONTINUOUS
 62
       7
  5
2E2
 10
330.13744788
 20
64.37973772
 30
0.0
  0
VERTEX
  8
0
  6
CONTINUOUS
 62
       7
  5
2E3
 10
330.80523578
 20
65.02357251
 30
0.0
  0
VERTEX
  8
0
  6
CONTINUOUS
 62
       7
  5
2E4
 10
331.55003153
 20
65.49274648
 30
0.0
  0
VERTEX
  8
0
  6
CONTINUOUS
 62
       7
  5
2E5
 10
332.3325848
 20
65.67425087
 30
0.0
  0
VERTEX
  8
0
  6
CONTINUOUS
 62
       7
  5
2E6
 10
333.1151381
 20
65.49274645
 30
0.0
  0
VERTEX
  8
0
  6
CONTINUOUS
 62
       7
  5
2E7
 10
333.8599339
 20
65.02357241
 30
0.0
  0
VERTEX
  8
0
  6
CONTINUOUS
 62
       7
  5
2E8
 10
334.52772181
 20
64.3797376
 30
0.0
  0
VERTEX
  8
0
  6
CONTINUOUS
 62
       7
  5
2E9
 10
335.07925147
 20
63.67425087
 30
0.0
  0
SEQEND
  8
0
  6
CONTINUOUS
 62
       7
  5
2EA
  0
LINE
  8
0
  6
CONTINUOUS
 62
       7
  5
A9
 10
273.51925147
 20
62.18091753
 30
0.0
 11
273.51925147
 21
55.70091753
 31
0.0
  0
LINE
  8
0
  6
CONTINUOUS
 62
       7
  5
AA
 10
273.71925147
 20
55.70091753
 30
0.0
 11
273.71925147
 21
28.7675842
 31
0.0
  0
ARC
  8
0
  6
CONTINUOUS
 62
       7
  5
AB
 10
275.01647246
 20
62.17705468
 30
0.0
 40
1.49722598
 50
89.63853107
 51
179.85217646
  0
ARC
  8
0
  6
CONTINUOUS
 62
       7
  5
AC
 10
320.32818347
 20
15.30984954
 30
0.0
 40
4.97774268
 50
359.89718906
 51
90.10281094
  0
LINE
  8
0
  6
CONTINUOUS
 62
       7
  5
AD
 10
303.3725848
 20
21.79425087
 30
0.0
 11
310.2925848
 21
20.2875842
 31
0.0
  0
LINE
  8
0
  6
CONTINUOUS
 62
       7
  5
AE
 10
320.31925147
 20
20.2875842
 30
0.0
 11
310.2925848
 21
20.2875842
 31
0.0
  0
LINE
  8
0
  6
CONTINUOUS
 62
       2
  5
AF
 10
269.05303106
 20
42.86091753
 30
0.0
 11
281.90591814
 21
42.86091753
 31
0.0
  0
LINE
  8
0
  6
CONTINUOUS
 62
       7
  5
B0
 10
337.51925147
 20
55.70091753
 30
0.0
 11
273.51925147
 21
55.70091753
 31
0.0
  0
LINE
  8
0
  6
CONTINUOUS
 62
       7
  5
B1
 10
336.02591814
 20
63.67425087
 30
0.0
 11
275.02591814
 21
63.67425087
 31
0.0
  0
POLYLINE
  8
0
  6
CONTINUOUS
 62
       7
  5
B2
 66
       1
 10
0.0
 20
0.0
 30
0.0
  0
VERTEX
  8
0
  6
CONTINUOUS
 62
       7
  5
2EB
 10
275.9725848
 20
63.67425087
 30
0.0
  0
VERTEX
  8
0
  6
CONTINUOUS
 62
       7
  5
2EC
 10
276.5225016
 20
64.37973662
 30
0.0
  0
VERTEX
  8
0
  6
CONTINUOUS
 62
       7
  5
2ED
 10
277.18648956
 20
65.02357167
 30
0.0
  0
VERTEX
  8
0
  6
CONTINUOUS
 62
       7
  5
2EE
 10
277.92685847
 20
65.49274632
 30
0.0
  0
VERTEX
  8
0
  6
CONTINUOUS
 62
       7
  5
2EF
 10
278.70591814
 20
65.67425087
 30
0.0
  0
VERTEX
  8
0
  6
CONTINUOUS
 62
       7
  5
2F0
 10
279.48846685
 20
65.49274626
 30
0.0
  0
VERTEX
  8
0
  6
CONTINUOUS
 62
       7
  5
2F1
 10
280.23326317
 20
65.02357232
 30
0.0
  0
VERTEX
  8
0
  6
CONTINUOUS
 62
       7
  5
2F2
 10
280.90105365
 20
64.37973766
 30
0.0
  0
VERTEX
  8
0
  6
CONTINUOUS
 62
       7
  5
2F3
 10
281.4525848
 20
63.67425087
 30
0.0
  0
SEQEND
  8
0
  6
CONTINUOUS
 62
       7
  5
2F4
  0
ARC
  8
0
  6
CONTINUOUS
 62
       7
  5
B3
 10
290.40523291
 20
21.79177876
 30
0.0
 40
19.9441562
 50
309.7037343
 51
355.67462699
  0
ARC
  8
0
  6
CONTINUOUS
 62
       7
  5
B4
 10
290.40092766
 20
21.80362966
 30
0.0
 40
19.95268899
 50
184.35764849
 51
236.76687432
  0
ARC
  8
0
  6
CONTINUOUS
 62
       7
  5
B5
 10
280.70550472
 20
28.78051607
 30
0.0
 40
6.98626522
 50
180.10605695
 51
270.00339054
  0
LINE
  8
0
  6
CONTINUOUS
 62
       7
  5
B6
 10
277.43925147
 20
21.79425087
 30
0.0
 11
270.50591814
 21
20.2875842
 31
0.0
  0
LINE
  8
0
  6
CONTINUOUS
 62
       7
  5
B7
 10
330.3325848
 20
21.79425087
 30
0.0
 11
277.43925147
 21
21.79425087
 31
0.0
  0
LINE
  8
0
  6
CONTINUOUS
 62
       7
  5
B8
 10
325.30591814
 20
15.30091753
 30
0.0
 11
325.30591814
 21
-16.60574913
 31
0.0
  0
LINE
  8
0
  6
CONTINUOUS
 62
       2
  5
B9
 10
217.51925147
 20
-26.44574913
 30
0.0
 11
217.51925147
 21
37.22091753
 31
0.0
  0
ARC
  8
0
  6
CONTINUOUS
 62
       7
  5
BA
 10
-281.22436086
 20
16.69729723
 30
0.0
 40
5.09695492
 50
13.18938994
 51
89.95939316
  0
LINE
  8
0
  6
CONTINUOUS
 62
       7
  5
BB
 10
-321.53408186
 20
56.47425087
 30
0.0
 11
-267.45408186
 21
56.47425087
 31
0.0
  0
LINE
  8
0
  6
CONTINUOUS
 62
       7
  5
BC
 10
-321.0074152
 20
56.47425087
 30
0.0
 11
-321.0074152
 21
28.9275842
 31
0.0
  0
LINE
  8
0
  6
CONTINUOUS
 62
       7
  5
BD
 10
-321.53408186
 20
63.10091753
 30
0.0
 11
-321.53408186
 21
56.47425087
 31
0.0
  0
ARC
  8
0
  6
CONTINUOUS
 62
       7
  5
BE
 10
-320.00378236
 20
63.10395136
 30
0.0
 40
1.53030251
 50
89.88641101
 51
180.11358899
  0
LINE
  8
0
  6
CONTINUOUS
 62
       7
  5
BF
 10
-320.00681618
 20
64.63425087
 30
0.0
 11
-268.97408186
 21
64.63425087
 31
0.0
  0
LINE
  8
0
  6
CONTINUOUS
 62
       7
  5
C0
 10
-267.9674152
 20
56.47425087
 30
0.0
 11
-267.9674152
 21
28.9275842
 31
0.0
  0
LINE
  8
0
  6
CONTINUOUS
 62
       7
  5
C1
 10
-267.45408186
 20
63.10091753
 30
0.0
 11
-267.45408186
 21
56.47425087
 31
0.0
  0
ARC
  8
0
  6
CONTINUOUS
 62
       7
  5
C2
 10
-268.98380905
 20
63.1045503
 30
0.0
 40
1.5297315
 50
359.86393558
 51
89.63566778
  0
ARC
  8
0
  6
CONTINUOUS
 62
       7
  5
C3
 10
-294.4874152
 20
42.86830634
 30
0.0
 40
11.00016526
 50
318.51071758
 51
221.48928242
  0
LINE
  8
0
  6
CONTINUOUS
 62
       2
  5
C4
 10
-308.39408186
 20
42.86091753
 30
0.0
 11
-279.94074853
 21
42.86091753
 31
0.0
  0
ARC
  8
0
  6
CONTINUOUS
 62
       7
  5
C5
 10
-275.11044525
 20
28.93728658
 30
0.0
 40
7.14303664
 50
269.97082993
 51
359.92217518
  0
LINE
  8
0
  6
CONTINUOUS
 62
       7
  5
C6
 10
-275.11408186
 20
21.79425087
 30
0.0
 11
-285.94732356
 21
21.79425087
 31
0.0
  0
ARC
  8
0
  6
CONTINUOUS
 62
       7
  5
C7
 10
-313.87046183
 20
28.93120423
 30
0.0
 40
7.13695428
 50
180.02906178
 51
269.97093822
  0
LINE
  8
0
  6
CONTINUOUS
 62
       7
  5
C8
 10
-313.87408186
 20
21.79425087
 30
0.0
 11
-303.04212393
 21
21.79425087
 31
0.0
  0
LINE
  8
0
  6
CONTINUOUS
 62
       7
  5
C9
 10
-312.8474152
 20
16.6875842
 30
0.0
 11
-312.8474152
 21
14.83463236
 31
0.0
  0
ARC
  8
0
  6
CONTINUOUS
 62
       7
  5
CA
 10
-307.75046954
 20
16.69729723
 30
0.0
 40
5.09695492
 50
90.04060684
 51
180.10918596
  0
LINE
  8
0
  6
CONTINUOUS
 62
       7
  5
CB
 10
-269.4874152
 20
10.86569518
 30
0.0
 11
-270.45932837
 21
10.30551977
 31
0.0
  0
LINE
  8
0
  6
CONTINUOUS
 62
       7
  5
CC
 10
-273.66034602
 20
11.13356296
 30
0.0
 11
-273.57537138
 21
11.03577086
 31
0.0
  0
LINE
  8
0
  6
CONTINUOUS
 62
       7
  5
CD
 10
174.99591801
 20
20.15425087
 30
0.0
 11
189.51925147
 21
20.15425087
 31
0.0
  0
POLYLINE
  8
0
  6
CONTINUOUS
 62
       7
  5
CE
 66
       1
 10
0.0
 20
0.0
 30
0.0
 70
       1
  0
VERTEX
  8
0
  6
CONTINUOUS
 62
       7
  5
2F5
 10
232.01258366
 20
-0.64575676
 30
0.0
  0
VERTEX
  8
0
  6
CONTINUOUS
 62
       7
  5
2F6
 10
232.04302553
 20
-1.21226895
 30
0.0
  0
VERTEX
  8
0
  6
CONTINUOUS
 62
       7
  5
2F7
 10
232.13412053
 20
-1.7744697
 30
0.0
  0
VERTEX
  8
0
  6
CONTINUOUS
 62
       7
  5
2F8
 10
232.28517538
 20
-2.32808032
 30
0.0
  0
VERTEX
  8
0
  6
CONTINUOUS
 62
       7
  5
2F9
 10
232.49504046
 20
-2.8688875
 30
0.0
  0
VERTEX
  8
0
  6
CONTINUOUS
 62
       7
  5
2FA
 10
232.76211856
 20
-3.39277537
 30
0.0
  0
VERTEX
  8
0
  6
CONTINUOUS
 62
       7
  5
2FB
 10
233.08437707
 20
-3.89575683
 30
0.0
  0
VERTEX
  8
0
  6
CONTINUOUS
 62
       7
  5
2FC
 10
233.4593634
 20
-4.37400388
 30
0.0
  0
VERTEX
  8
0
  6
CONTINUOUS
 62
       7
  5
2FD
 10
233.88422368
 20
-4.82387678
 30
0.0
  0
VERTEX
  8
0
  6
CONTINUOUS
 62
       7
  5
2FE
 10
234.35572447
 20
-5.24195172
 30
0.0
  0
VERTEX
  8
0
  6
CONTINUOUS
 62
       7
  5
2FF
 10
234.87027735
 20
-5.62504691
 30
0.0
  0
VERTEX
  8
0
  6
CONTINUOUS
 62
       7
  5
300
 10
235.42396628
 20
-5.97024674
 30
0.0
  0
VERTEX
  8
0
  6
CONTINUOUS
 62
       7
  5
301
 10
236.01257734
 20
-6.27492405
 30
0.0
  0
VERTEX
  8
0
  6
CONTINUOUS
 62
       7
  5
302
 10
236.63163084
 20
-6.53676005
 30
0.0
  0
VERTEX
  8
0
  6
CONTINUOUS
 62
       7
  5
303
 10
237.27641543
 20
-6.75376202
 30
0.0
  0
VERTEX
  8
0
  6
CONTINUOUS
 62
       7
  5
304
 10
237.9420239
 20
-6.92427844
 30
0.0
  0
VERTEX
  8
0
  6
CONTINUOUS
 62
       7
  5
305
 10
238.62339056
 20
-7.04701158
 30
0.0
  0
VERTEX
  8
0
  6
CONTINUOUS
 62
       7
  5
306
 10
239.3153298
 20
-7.12102736
 30
0.0
  0
VERTEX
  8
0
  6
CONTINUOUS
 62
       7
  5
307
 10
240.01257555
 20
-7.14576248
 30
0.0
  0
VERTEX
  8
0
  6
CONTINUOUS
 62
       7
  5
308
 10
240.70982135
 20
-7.12102869
 30
0.0
  0
VERTEX
  8
0
  6
CONTINUOUS
 62
       7
  5
309
 10
241.40176074
 20
-7.04701423
 30
0.0
  0
VERTEX
  8
0
  6
CONTINUOUS
 62
       7
  5
30A
 10
242.08312763
 20
-6.92428239
 30
0.0
  0
VERTEX
  8
0
  6
CONTINUOUS
 62
       7
  5
30B
 10
242.74873642
 20
-6.75376724
 30
0.0
  0
VERTEX
  8
0
  6
CONTINUOUS
 62
       7
  5
30C
 10
243.39352142
 20
-6.5367665
 30
0.0
  0
VERTEX
  8
0
  6
CONTINUOUS
 62
       7
  5
30D
 10
244.01257543
 20
-6.27493168
 30
0.0
  0
VERTEX
  8
0
  6
CONTINUOUS
 62
       7
  5
30E
 10
244.60118707
 20
-5.97025549
 30
0.0
  0
VERTEX
  8
0
  6
CONTINUOUS
 62
       7
  5
30F
 10
245.15487665
 20
-5.62505671
 30
0.0
  0
VERTEX
  8
0
  6
CONTINUOUS
 62
       7
  5
310
 10
245.66943027
 20
-5.24196251
 30
0.0
  0
VERTEX
  8
0
  6
CONTINUOUS
 62
       7
  5
311
 10
246.14093185
 20
-4.82388847
 30
0.0
  0
VERTEX
  8
0
  6
CONTINUOUS
 62
       7
  5
312
 10
246.56579299
 20
-4.37401638
 30
0.0
  0
VERTEX
  8
0
  6
CONTINUOUS
 62
       7
  5
313
 10
246.94078023
 20
-3.89577004
 30
0.0
  0
VERTEX
  8
0
  6
CONTINUOUS
 62
       7
  5
314
 10
247.2630397
 20
-3.3927892
 30
0.0
  0
VERTEX
  8
0
  6
CONTINUOUS
 62
       7
  5
315
 10
247.5301188
 20
-2.86890184
 30
0.0
  0
VERTEX
  8
0
  6
CONTINUOUS
 62
       7
  5
316
 10
247.73998491
 20
-2.32809506
 30
0.0
  0
VERTEX
  8
0
  6
CONTINUOUS
 62
       7
  5
317
 10
247.89104082
 20
-1.77448473
 30
0.0
  0
VERTEX
  8
0
  6
CONTINUOUS
 62
       7
  5
318
 10
247.98213689
 20
-1.21228415
 30
0.0
  0
VERTEX
  8
0
  6
CONTINUOUS
 62
       7
  5
319
 10
248.01257984
 20
-0.64577202
 30
0.0
  0
VERTEX
  8
0
  6
CONTINUOUS
 62
       7
  5
31A
 10
247.98213798
 20
-0.07925983
 30
0.0
  0
VERTEX
  8
0
  6
CONTINUOUS
 62
       7
  5
31B
 10
247.89104297
 20
0.48294092
 30
0.0
  0
VERTEX
  8
0
  6
CONTINUOUS
 62
       7
  5
31C
 10
247.73998812
 20
1.03655154
 30
0.0
  0
VERTEX
  8
0
  6
CONTINUOUS
 62
       7
  5
31D
 10
247.53012304
 20
1.57735872
 30
0.0
  0
VERTEX
  8
0
  6
CONTINUOUS
 62
       7
  5
31E
 10
247.26304494
 20
2.10124659
 30
0.0
  0
VERTEX
  8
0
  6
CONTINUOUS
 62
       7
  5
31F
 10
246.94078643
 20
2.60422805
 30
0.0
  0
VERTEX
  8
0
  6
CONTINUOUS
 62
       7
  5
320
 10
246.5658001
 20
3.0824751
 30
0.0
  0
VERTEX
  8
0
  6
CONTINUOUS
 62
       7
  5
321
 10
246.14093982
 20
3.532348
 30
0.0
  0
VERTEX
  8
0
  6
CONTINUOUS
 62
       7
  5
322
 10
245.66943903
 20
3.95042294
 30
0.0
  0
VERTEX
  8
0
  6
CONTINUOUS
 62
       7
  5
323
 10
245.15488615
 20
4.33351812
 30
0.0
  0
VERTEX
  8
0
  6
CONTINUOUS
 62
       7
  5
324
 10
244.60119723
 20
4.67871796
 30
0.0
  0
VERTEX
  8
0
  6
CONTINUOUS
 62
       7
  5
325
 10
244.01258617
 20
4.98339527
 30
0.0
  0
VERTEX
  8
0
  6
CONTINUOUS
 62
       7
  5
326
 10
243.39353266
 20
5.24523127
 30
0.0
  0
VERTEX
  8
0
  6
CONTINUOUS
 62
       7
  5
327
 10
242.74874807
 20
5.46223324
 30
0.0
  0
VERTEX
  8
0
  6
CONTINUOUS
 62
       7
  5
328
 10
242.08313961
 20
5.63274966
 30
0.0
  0
VERTEX
  8
0
  6
CONTINUOUS
 62
       7
  5
329
 10
241.40177295
 20
5.7554828
 30
0.0
  0
VERTEX
  8
0
  6
CONTINUOUS
 62
       7
  5
32A
 10
240.7098337
 20
5.82949858
 30
0.0
  0
VERTEX
  8
0
  6
CONTINUOUS
 62
       7
  5
32B
 10
240.01258795
 20
5.8542337
 30
0.0
  0
VERTEX
  8
0
  6
CONTINUOUS
 62
       7
  5
32C
 10
239.31534215
 20
5.82949991
 30
0.0
  0
VERTEX
  8
0
  6
CONTINUOUS
 62
       7
  5
32D
 10
238.62340277
 20
5.75548545
 30
0.0
  0
VERTEX
  8
0
  6
CONTINUOUS
 62
       7
  5
32E
 10
237.94203587
 20
5.63275361
 30
0.0
  0
VERTEX
  8
0
  6
CONTINUOUS
 62
       7
  5
32F
 10
237.27642708
 20
5.46223846
 30
0.0
  0
VERTEX
  8
0
  6
CONTINUOUS
 62
       7
  5
330
 10
236.63164208
 20
5.24523772
 30
0.0
  0
VERTEX
  8
0
  6
CONTINUOUS
 62
       7
  5
331
 10
236.01258807
 20
4.9834029
 30
0.0
  0
VERTEX
  8
0
  6
CONTINUOUS
 62
       7
  5
332
 10
235.42397643
 20
4.67872671
 30
0.0
  0
VERTEX
  8
0
  6
CONTINUOUS
 62
       7
  5
333
 10
234.87028685
 20
4.33352793
 30
0.0
  0
VERTEX
  8
0
  6
CONTINUOUS
 62
       7
  5
334
 10
234.35573323
 20
3.95043373
 30
0.0
  0
VERTEX
  8
0
  6
CONTINUOUS
 62
       7
  5
335
 10
233.88423165
 20
3.53235969
 30
0.0
  0
VERTEX
  8
0
  6
CONTINUOUS
 62
       7
  5
336
 10
233.45937051
 20
3.0824876
 30
0.0
  0
VERTEX
  8
0
  6
CONTINUOUS
 62
       7
  5
337
 10
233.08438327
 20
2.60424126
 30
0.0
  0
VERTEX
  8
0
  6
CONTINUOUS
 62
       7
  5
338
 10
232.7621238
 20
2.10126042
 30
0.0
  0
VERTEX
  8
0
  6
CONTINUOUS
 62
       7
  5
339
 10
232.4950447
 20
1.57737306
 30
0.0
  0
VERTEX
  8
0
  6
CONTINUOUS
 62
       7
  5
33A
 10
232.28517859
 20
1.03656628
 30
0.0
  0
VERTEX
  8
0
  6
CONTINUOUS
 62
       7
  5
33B
 10
232.13412268
 20
0.48295595
 30
0.0
  0
VERTEX
  8
0
  6
CONTINUOUS
 62
       7
  5
33C
 10
232.04302661
 20
-0.07924463
 30
0.0
  0
VERTEX
  8
0
  6
CONTINUOUS
 62
       7
  5
33D
 10
232.01258366
 20
-0.64575676
 30
0.0
  0
SEQEND
  8
0
  6
CONTINUOUS
 62
       7
  5
33E
  0
CIRCLE
  8
0
  6
CONTINUOUS
 62
       2
  5
CF
 10
240.01258175
 20
-0.64576439
 30
0.0
 40
6.5
  0
CIRCLE
  8
0
  6
CONTINUOUS
 62
       7
  5
D0
 10
240.01258175
 20
-0.64576439
 30
0.0
 40
5.75
  0
LINE
  8
0
  6
CONTINUOUS
 62
       7
  5
D1
 10
-67.48408186
 20
20.15425087
 30
0.0
 11
-52.48408186
 21
20.15425087
 31
0.0
  0
LINE
  8
0
  6
CONTINUOUS
 62
       7
  5
D2
 10
-51.48408186
 20
-21.44574913
 30
0.0
 11
-50.48408186
 21
-21.44574913
 31
0.0
  0
LINE
  8
0
  6
CONTINUOUS
 62
       7
  5
D3
 10
-50.48408186
 20
-20.44574913
 30
0.0
 11
-49.48408186
 21
-21.44574913
 31
0.0
  0
LINE
  8
0
  6
CONTINUOUS
 62
       2
  5
D4
 10
-70.48408186
 20
14.86091753
 30
0.0
 11
-69.48408186
 21
14.86091753
 31
0.0
  0
LINE
  8
0
  6
CONTINUOUS
 62
       2
  5
D5
 10
-70.48408186
 20
-16.13908247
 30
0.0
 11
-69.48408186
 21
-16.13908247
 31
0.0
  0
LINE
  8
0
  6
CONTINUOUS
 62
       7
  5
D6
 10
-70.48408186
 20
15.86091753
 30
0.0
 11
-67.48408186
 21
15.86091753
 31
0.0
  0
LINE
  8
0
  6
CONTINUOUS
 62
       7
  5
D7
 10
192.51925147
 20
19.15425087
 30
0.0
 11
191.51925147
 21
20.15425087
 31
0.0
  0
LINE
  8
0
  6
CONTINUOUS
 62
       7
  5
D8
 10
189.51925147
 20
-21.44574913
 30
0.0
 11
174.99591801
 21
-21.44574913
 31
0.0
  0
LINE
  8
0
  6
CONTINUOUS
 62
       7
  5
D9
 10
-52.48408186
 20
-20.44574913
 30
0.0
 11
-51.48408186
 21
-21.44574913
 31
0.0
  0
LINE
  8
0
  6
CONTINUOUS
 62
       7
  5
DA
 10
-51.48408186
 20
20.15425087
 30
0.0
 11
-50.48408186
 21
20.15425087
 31
0.0
  0
LINE
  8
0
  6
CONTINUOUS
 62
       7
  5
DB
 10
-50.48408186
 20
19.15425087
 30
0.0
 11
-49.48408186
 21
20.15425087
 31
0.0
  0
LINE
  8
0
  6
CONTINUOUS
 62
       7
  5
DC
 10
-52.48408186
 20
19.15425087
 30
0.0
 11
-51.48408186
 21
20.15425087
 31
0.0
  0
LINE
  8
0
  6
CONTINUOUS
 62
       7
  5
DD
 10
-50.48408186
 20
20.15425087
 30
0.0
 11
-50.48408186
 21
-21.44574913
 31
0.0
  0
LINE
  8
0
  6
CONTINUOUS
 62
       2
  5
DE
 10
-69.48408186
 20
-16.13908247
 30
0.0
 11
-67.75074853
 21
-17.13908247
 31
0.0
  0
LINE
  8
0
  6
CONTINUOUS
 62
       2
  5
DF
 10
-69.48408186
 20
14.86091753
 30
0.0
 11
-67.75074853
 21
15.86091753
 31
0.0
  0
LINE
  8
0
  6
CONTINUOUS
 62
       7
  5
E0
 10
224.51925147
 20
-21.44574913
 30
0.0
 11
209.51925147
 21
-21.44574913
 31
0.0
  0
LINE
  8
0
  6
CONTINUOUS
 62
       7
  5
E1
 10
190.0125848
 20
-20.9524158
 30
0.0
 11
189.51925147
 21
-21.44574913
 31
0.0
  0
LINE
  8
0
  6
CONTINUOUS
 62
       7
  5
E2
 10
224.51925147
 20
20.15425087
 30
0.0
 11
192.51925147
 21
20.15425087
 31
0.0
  0
LINE
  8
0
  6
CONTINUOUS
 62
       7
  5
E3
 10
190.51925147
 20
19.15425087
 30
0.0
 11
189.51925147
 21
20.15425087
 31
0.0
  0
LINE
  8
0
  6
CONTINUOUS
 62
       7
  5
E4
 10
191.51925147
 20
20.15425087
 30
0.0
 11
190.51925147
 21
20.15425087
 31
0.0
  0
LINE
  8
0
  6
CONTINUOUS
 62
       7
  5
E5
 10
189.51925147
 20
20.15425087
 30
0.0
 11
189.51925147
 21
-21.44574913
 31
0.0
  0
LINE
  8
0
  6
CONTINUOUS
 62
       7
  5
E6
 10
190.51925147
 20
20.15425087
 30
0.0
 11
190.51925147
 21
-15.09820037
 31
0.0
  0
LINE
  8
0
  6
CONTINUOUS
 62
       7
  5
E7
 10
191.51925147
 20
20.15425087
 30
0.0
 11
191.51925147
 21
-14.01751204
 31
0.0
  0
LINE
  8
0
  6
CONTINUOUS
 62
       7
  5
E8
 10
192.51925147
 20
20.15425087
 30
0.0
 11
192.51925147
 21
-12.9368237
 31
0.0
  0
LINE
  8
0
  6
CONTINUOUS
 62
       7
  5
E9
 10
-52.48408186
 20
20.15425087
 30
0.0
 11
-52.48408186
 21
-21.44574913
 31
0.0
  0
LINE
  8
0
  6
CONTINUOUS
 62
       7
  5
EA
 10
-67.48408186
 20
-21.44574913
 30
0.0
 11
-52.48408186
 21
-21.44574913
 31
0.0
  0
LINE
  8
0
  6
CONTINUOUS
 62
       7
  5
EB
 10
-67.48408186
 20
20.15425087
 30
0.0
 11
-67.48408186
 21
-21.44574913
 31
0.0
  0
LINE
  8
0
  6
CONTINUOUS
 62
       7
  5
EC
 10
-70.48408186
 20
-17.13908247
 30
0.0
 11
-67.48408186
 21
-17.13908247
 31
0.0
  0
LINE
  8
0
  6
CONTINUOUS
 62
       7
  5
ED
 10
-69.48408186
 20
15.86091753
 30
0.0
 11
-69.48408186
 21
-17.13908247
 31
0.0
  0
LINE
  8
0
  6
CONTINUOUS
 62
       7
  5
EE
 10
225.51925147
 20
19.35425087
 30
0.0
 11
225.51925147
 21
5.42971506
 31
0.0
  0
LINE
  8
0
  6
CONTINUOUS
 62
       7
  5
EF
 10
224.51925147
 20
20.15425087
 30
0.0
 11
224.51925147
 21
6.49503675
 31
0.0
  0
LINE
  8
0
  6
CONTINUOUS
 62
       7
  5
F0
 10
224.51925147
 20
-21.44574913
 30
0.0
 11
225.51925147
 21
-20.44574913
 31
0.0
  0
LINE
  8
0
  6
CONTINUOUS
 62
       7
  5
F1
 10
224.51925147
 20
20.15425087
 30
0.0
 11
225.51925147
 21
19.15425087
 31
0.0
  0
LINE
  8
0
  6
CONTINUOUS
 62
       7
  5
F2
 10
199.51925147
 20
4.62091753
 30
0.0
 11
199.51925147
 21
-5.37200534
 31
0.0
  0
LINE
  8
0
  6
CONTINUOUS
 62
       7
  5
F3
 10
209.51925147
 20
-17.1478984
 30
0.0
 11
209.51925147
 21
-21.44574913
 31
0.0
  0
LINE
  8
0
  6
CONTINUOUS
 62
       7
  5
F4
 10
209.51925147
 20
-20.44574913
 30
0.0
 11
207.89606631
 21
-20.44574913
 31
0.0
  0
LINE
  8
0
  6
CONTINUOUS
 62
       7
  5
F5
 10
207.51925147
 20
23.4475842
 30
0.0
 11
198.71925147
 21
23.4475842
 31
0.0
  0
LINE
  8
0
  6
CONTINUOUS
 62
       7
  5
F6
 10
207.51925147
 20
27.4875842
 30
0.0
 11
198.71925147
 21
27.4875842
 31
0.0
  0
LINE
  8
0
  6
CONTINUOUS
 62
       7
  5
F7
 10
207.51925147
 20
35.5675842
 30
0.0
 11
198.71925147
 21
35.5675842
 31
0.0
  0
LINE
  8
0
  6
CONTINUOUS
 62
       7
  5
F8
 10
207.51925147
 20
39.6075842
 30
0.0
 11
198.71925147
 21
39.6075842
 31
0.0
  0
LINE
  8
0
  6
CONTINUOUS
 62
       7
  5
F9
 10
208.51925147
 20
25.47425087
 30
0.0
 11
208.51925147
 21
37.59425087
 31
0.0
  0
LINE
  8
0
  6
CONTINUOUS
 62
       7
  5
FA
 10
192.51925147
 20
27.03425087
 30
0.0
 11
192.51925147
 21
36.03425087
 31
0.0
  0
LINE
  8
0
  6
CONTINUOUS
 62
       2
  5
FB
 10
219.18591814
 20
31.5275842
 30
0.0
 11
192.51925147
 21
31.5275842
 31
0.0
  0
LINE
  8
0
  6
CONTINUOUS
 62
       7
  5
FC
 10
198.71925147
 20
23.4475842
 30
0.0
 11
192.51925147
 21
27.03425087
 31
0.0
  0
LINE
  8
0
  6
CONTINUOUS
 62
       7
  5
FD
 10
198.71925147
 20
39.6075842
 30
0.0
 11
192.51925147
 21
36.03425087
 31
0.0
  0
LINE
  8
0
  6
CONTINUOUS
 62
       7
  5
FE
 10
214.0125848
 20
23.95425087
 30
0.0
 11
214.0125848
 21
24.03425087
 31
0.0
  0
LINE
  8
0
  6
CONTINUOUS
 62
       7
  5
FF
 10
208.94591814
 20
24.03425087
 30
0.0
 11
208.94591814
 21
39.03425087
 31
0.0
  0
LINE
  8
0
  6
CONTINUOUS
 62
       7
  5
100
 10
210.0125848
 20
23.03425087
 30
0.0
 11
210.0125848
 21
23.15425087
 31
0.0
  0
LINE
  8
0
  6
CONTINUOUS
 62
       7
  5
101
 10
225.51925147
 20
23.15425087
 30
0.0
 11
210.0125848
 21
23.15425087
 31
0.0
  0
LINE
  8
0
  6
CONTINUOUS
 62
       7
  5
102
 10
220.51925147
 20
39.03425087
 30
0.0
 11
208.94591814
 21
39.03425087
 31
0.0
  0
LINE
  8
0
  6
CONTINUOUS
 62
       7
  5
103
 10
219.51925147
 20
35.03425087
 30
0.0
 11
208.94591814
 21
35.03425087
 31
0.0
  0
LINE
  8
0
  6
CONTINUOUS
 62
       7
  5
104
 10
209.51925147
 20
28.03425087
 30
0.0
 11
208.94591814
 21
28.03425087
 31
0.0
  0
LINE
  8
0
  6
CONTINUOUS
 62
       7
  5
105
 10
209.0125848
 20
24.03425087
 30
0.0
 11
208.94591814
 21
24.03425087
 31
0.0
  0
LINE
  8
0
  6
CONTINUOUS
 62
       7
  5
106
 10
221.0125848
 20
23.15425087
 30
0.0
 11
221.0125848
 21
33.5275842
 31
0.0
  0
LINE
  8
0
  6
CONTINUOUS
 62
       7
  5
107
 10
225.51925147
 20
23.15425087
 30
0.0
 11
225.51925147
 21
34.03425087
 31
0.0
  0
LINE
  8
0
  6
CONTINUOUS
 62
       7
  5
108
 10
214.0125848
 20
23.15425087
 30
0.0
 11
214.0125848
 21
23.5275842
 31
0.0
  0
LINE
  8
0
  6
CONTINUOUS
 62
       7
  5
109
 10
208.94591814
 20
25.47425087
 30
0.0
 11
208.51925147
 21
25.47425087
 31
0.0
  0
LINE
  8
0
  6
CONTINUOUS
 62
       7
  5
10A
 10
208.94591814
 20
37.59425087
 30
0.0
 11
208.51925147
 21
37.59425087
 31
0.0
  0
LINE
  8
0
  6
CONTINUOUS
 62
       7
  5
10B
 10
223.8525848
 20
20.15425087
 30
0.0
 11
224.0125848
 21
23.15425087
 31
0.0
  0
LINE
  8
0
  6
CONTINUOUS
 62
       7
  5
10C
 10
211.0125848
 20
23.15425087
 30
0.0
 11
211.1725848
 21
20.15425087
 31
0.0
  0
LINE
  8
0
  6
CONTINUOUS
 62
       2
  5
10D
 10
222.8525848
 20
20.2075842
 30
0.0
 11
222.95925147
 21
22.15425087
 31
0.0
  0
LINE
  8
0
  6
CONTINUOUS
 62
       2
  5
10E
 10
212.06591814
 20
22.15425087
 30
0.0
 11
212.1725848
 21
20.2075842
 31
0.0
  0
LINE
  8
0
  6
CONTINUOUS
 62
       7
  5
10F
 10
-49.48408186
 20
23.4475842
 30
0.0
 11
-40.6974152
 21
23.4475842
 31
0.0
  0
LINE
  8
0
  6
CONTINUOUS
 62
       7
  5
110
 10
-49.48408186
 20
27.4875842
 30
0.0
 11
-40.6974152
 21
27.4875842
 31
0.0
  0
LINE
  8
0
  6
CONTINUOUS
 62
       7
  5
111
 10
-49.48408186
 20
35.5675842
 30
0.0
 11
-40.6974152
 21
35.5675842
 31
0.0
  0
LINE
  8
0
  6
CONTINUOUS
 62
       7
  5
112
 10
-49.48408186
 20
39.6075842
 30
0.0
 11
-40.6974152
 21
39.6075842
 31
0.0
  0
LINE
  8
0
  6
CONTINUOUS
 62
       7
  5
113
 10
-50.48408186
 20
25.47425087
 30
0.0
 11
-50.48408186
 21
37.59425087
 31
0.0
  0
LINE
  8
0
  6
CONTINUOUS
 62
       7
  5
114
 10
-34.48408186
 20
27.03425087
 30
0.0
 11
-34.48408186
 21
36.03425087
 31
0.0
  0
LINE
  8
0
  6
CONTINUOUS
 62
       7
  5
115
 10
-40.6974152
 20
23.4475842
 30
0.0
 11
-34.48408186
 21
27.03425087
 31
0.0
  0
LINE
  8
0
  6
CONTINUOUS
 62
       7
  5
116
 10
-40.6974152
 20
39.6075842
 30
0.0
 11
-34.48408186
 21
36.03425087
 31
0.0
  0
LINE
  8
0
  6
CONTINUOUS
 62
       7
  5
117
 10
-55.99074853
 20
23.95425087
 30
0.0
 11
-55.99074853
 21
24.03425087
 31
0.0
  0
LINE
  8
0
  6
CONTINUOUS
 62
       7
  5
118
 10
-50.92408186
 20
24.03425087
 30
0.0
 11
-50.92408186
 21
39.03425087
 31
0.0
  0
LINE
  8
0
  6
CONTINUOUS
 62
       7
  5
119
 10
-51.99074853
 20
23.03425087
 30
0.0
 11
-51.99074853
 21
23.15425087
 31
0.0
  0
LINE
  8
0
  6
CONTINUOUS
 62
       7
  5
11A
 10
-66.9774152
 20
23.15425087
 30
0.0
 11
-51.99074853
 21
23.15425087
 31
0.0
  0
LINE
  8
0
  6
CONTINUOUS
 62
       7
  5
11B
 10
-61.99074853
 20
39.03425087
 30
0.0
 11
-50.92408186
 21
39.03425087
 31
0.0
  0
LINE
  8
0
  6
CONTINUOUS
 62
       7
  5
11C
 10
-61.48408186
 20
35.03425087
 30
0.0
 11
-50.92408186
 21
35.03425087
 31
0.0
  0
LINE
  8
0
  6
CONTINUOUS
 62
       7
  5
11D
 10
-51.48408186
 20
28.03425087
 30
0.0
 11
-50.92408186
 21
28.03425087
 31
0.0
  0
LINE
  8
0
  6
CONTINUOUS
 62
       7
  5
11E
 10
-50.99074853
 20
24.03425087
 30
0.0
 11
-50.92408186
 21
24.03425087
 31
0.0
  0
LINE
  8
0
  6
CONTINUOUS
 62
       7
  5
11F
 10
-62.99074853
 20
23.15425087
 30
0.0
 11
-62.99074853
 21
33.5275842
 31
0.0
  0
LINE
  8
0
  6
CONTINUOUS
 62
       7
  5
120
 10
-66.9774152
 20
23.15425087
 30
0.0
 11
-66.9774152
 21
34.03425087
 31
0.0
  0
LINE
  8
0
  6
CONTINUOUS
 62
       7
  5
121
 10
-55.99074853
 20
23.15425087
 30
0.0
 11
-55.99074853
 21
23.5275842
 31
0.0
  0
LINE
  8
0
  6
CONTINUOUS
 62
       7
  5
122
 10
-50.92408186
 20
25.47425087
 30
0.0
 11
-50.48408186
 21
25.47425087
 31
0.0
  0
LINE
  8
0
  6
CONTINUOUS
 62
       7
  5
123
 10
-50.92408186
 20
37.59425087
 30
0.0
 11
-50.48408186
 21
37.59425087
 31
0.0
  0
LINE
  8
0
  6
CONTINUOUS
 62
       2
  5
124
 10
-59.48408186
 20
18.71425087
 30
0.0
 11
-59.48408186
 21
32.51425087
 31
0.0
  0
LINE
  8
0
  6
CONTINUOUS
 62
       7
  5
125
 10
-53.15074853
 20
20.15425087
 30
0.0
 11
-52.99074853
 21
23.15425087
 31
0.0
  0
LINE
  8
0
  6
CONTINUOUS
 62
       2
  5
126
 10
-54.15074853
 20
20.2075842
 30
0.0
 11
-54.04408186
 21
22.15425087
 31
0.0
  0
LINE
  8
0
  6
CONTINUOUS
 62
       7
  5
127
 10
251.0125848
 20
-21.64574913
 30
0.0
 11
248.0125848
 21
-21.64574913
 31
0.0
  0
LINE
  8
0
  6
CONTINUOUS
 62
       7
  5
128
 10
251.0125848
 20
20.35425087
 30
0.0
 11
248.0125848
 21
20.35425087
 31
0.0
  0
LINE
  8
0
  6
CONTINUOUS
 62
       7
  5
129
 10
251.0125848
 20
-21.64574913
 30
0.0
 11
251.0125848
 21
20.35425087
 31
0.0
  0
LINE
  8
0
  6
CONTINUOUS
 62
       7
  5
12A
 10
225.51925147
 20
19.35425087
 30
0.0
 11
226.51925147
 21
20.35425087
 31
0.0
  0
LINE
  8
0
  6
CONTINUOUS
 62
       7
  5
12B
 10
226.51925147
 20
-21.64574913
 30
0.0
 11
225.51925147
 21
-20.64574913
 31
0.0
  0
LINE
  8
0
  6
CONTINUOUS
 62
       7
  5
12C
 10
226.51925147
 20
20.35425087
 30
0.0
 11
226.51925147
 21
4.34643443
 31
0.0
  0
LINE
  8
0
  6
CONTINUOUS
 62
       7
  5
12D
 10
232.0125848
 20
20.35425087
 30
0.0
 11
226.51925147
 21
20.35425087
 31
0.0
  0
LINE
  8
0
  6
CONTINUOUS
 62
       7
  5
12E
 10
232.0125848
 20
-21.64574913
 30
0.0
 11
226.51925147
 21
-21.64574913
 31
0.0
  0
LINE
  8
0
  6
CONTINUOUS
 62
       7
  5
12F
 10
245.51925147
 20
-22.64574913
 30
0.0
 11
234.51925147
 21
-22.64574913
 31
0.0
  0
LINE
  8
0
  6
CONTINUOUS
 62
       7
  5
130
 10
246.51925147
 20
-21.64574913
 30
0.0
 11
246.51925147
 21
-21.3124158
 31
0.0
  0
LINE
  8
0
  6
CONTINUOUS
 62
       7
  5
131
 10
233.51925147
 20
-21.64574913
 30
0.0
 11
233.51925147
 21
-21.3124158
 31
0.0
  0
LINE
  8
0
  6
CONTINUOUS
 62
       7
  5
132
 10
246.51925147
 20
-21.64574913
 30
0.0
 11
245.51925147
 21
-22.64574913
 31
0.0
  0
LINE
  8
0
  6
CONTINUOUS
 62
       7
  5
133
 10
234.51925147
 20
-22.64574913
 30
0.0
 11
233.51925147
 21
-21.64574913
 31
0.0
  0
LINE
  8
0
  6
CONTINUOUS
 62
       7
  5
134
 10
246.51925147
 20
-21.64574913
 30
0.0
 11
233.51925147
 21
-21.64574913
 31
0.0
  0
LINE
  8
0
  6
CONTINUOUS
 62
       2
  5
135
 10
245.51925147
 20
21.35425087
 30
0.0
 11
245.51925147
 21
19.83425087
 31
0.0
  0
LINE
  8
0
  6
CONTINUOUS
 62
       2
  5
136
 10
234.51925147
 20
21.35425087
 30
0.0
 11
234.51925147
 21
19.83425087
 31
0.0
  0
LINE
  8
0
  6
CONTINUOUS
 62
       2
  5
137
 10
240.0125848
 20
-27.64574913
 30
0.0
 11
240.0125848
 21
26.35425087
 31
0.0
  0
LINE
  8
0
  6
CONTINUOUS
 62
       7
  5
138
 10
245.51925147
 20
21.35425087
 30
0.0
 11
234.51925147
 21
21.35425087
 31
0.0
  0
LINE
  8
0
  6
CONTINUOUS
 62
       7
  5
139
 10
246.51925147
 20
20.35425087
 30
0.0
 11
233.51925147
 21
20.35425087
 31
0.0
  0
LINE
  8
0
  6
CONTINUOUS
 62
       7
  5
13A
 10
233.51925147
 20
20.35425087
 30
0.0
 11
233.51925147
 21
20.02091753
 31
0.0
  0
LINE
  8
0
  6
CONTINUOUS
 62
       7
  5
13B
 10
234.51925147
 20
21.35425087
 30
0.0
 11
233.51925147
 21
20.35425087
 31
0.0
  0
LINE
  8
0
  6
CONTINUOUS
 62
       7
  5
13C
 10
246.51925147
 20
20.35425087
 30
0.0
 11
245.51925147
 21
21.35425087
 31
0.0
  0
LINE
  8
0
  6
CONTINUOUS
 62
       7
  5
13D
 10
246.51925147
 20
20.35425087
 30
0.0
 11
246.51925147
 21
20.02091753
 31
0.0
  0
LINE
  8
0
  6
CONTINUOUS
 62
       2
  5
13E
 10
234.51925147
 20
-22.64574913
 30
0.0
 11
234.51925147
 21
-21.1124158
 31
0.0
  0
LINE
  8
0
  6
CONTINUOUS
 62
       2
  5
13F
 10
245.51925147
 20
-22.64574913
 30
0.0
 11
245.51925147
 21
-21.1124158
 31
0.0
  0
LINE
  8
0
  6
CONTINUOUS
 62
       2
  5
140
 10
-285.22074853
 20
31.5275842
 30
0.0
 11
-303.99408186
 21
31.5275842
 31
0.0
  0
LINE
  8
0
  6
CONTINUOUS
 62
       2
  5
141
 10
-64.9374152
 20
22.15425087
 30
0.0
 11
-64.83074853
 21
20.2075842
 31
0.0
  0
LINE
  8
0
  6
CONTINUOUS
 62
       7
  5
142
 10
-65.99074853
 20
23.15425087
 30
0.0
 11
-65.83074853
 21
20.15425087
 31
0.0
  0
LINE
  8
0
  6
CONTINUOUS
 62
       7
  5
143
 10
-301.99408186
 20
35.03425087
 30
0.0
 11
-301.99408186
 21
22.03425087
 31
0.0
  0
LINE
  8
0
  6
CONTINUOUS
 62
       7
  5
144
 10
-294.4874152
 20
39.03425087
 30
0.0
 11
-301.99408186
 21
35.03425087
 31
0.0
  0
LINE
  8
0
  6
CONTINUOUS
 62
       7
  5
145
 10
-302.5674152
 20
36.19425087
 30
0.0
 11
-302.5674152
 21
26.86091753
 31
0.0
  0
LINE
  8
0
  6
CONTINUOUS
 62
       7
  5
146
 10
-302.5674152
 20
36.19425087
 30
0.0
 11
-294.4874152
 21
40.86091753
 31
0.0
  0
LINE
  8
0
  6
CONTINUOUS
 62
       7
  5
147
 10
-302.5674152
 20
26.86091753
 30
0.0
 11
-301.99408186
 21
26.5275842
 31
0.0
  0
LINE
  8
0
  6
CONTINUOUS
 62
       7
  5
148
 10
-65.9374152
 20
22.15425087
 30
0.0
 11
-53.04408186
 21
22.15425087
 31
0.0
  0
LINE
  8
0
  6
CONTINUOUS
 62
       7
  5
149
 10
223.95925147
 20
22.15425087
 30
0.0
 11
211.06591814
 21
22.15425087
 31
0.0
  0
LINE
  8
0
  6
CONTINUOUS
 62
       2
  5
14A
 10
-65.51074853
 20
23.15425087
 30
0.0
 11
-64.9374152
 21
22.15425087
 31
0.0
  0
LINE
  8
0
  6
CONTINUOUS
 62
       2
  5
14B
 10
-54.04408186
 20
22.15425087
 30
0.0
 11
-53.47074853
 21
23.15425087
 31
0.0
  0
LINE
  8
0
  6
CONTINUOUS
 62
       2
  5
14C
 10
222.95925147
 20
22.15425087
 30
0.0
 11
223.5325848
 21
23.15425087
 31
0.0
  0
LINE
  8
0
  6
CONTINUOUS
 62
       2
  5
14D
 10
211.4925848
 20
23.15425087
 30
0.0
 11
212.06591814
 21
22.15425087
 31
0.0
  0
LINE
  8
0
  6
CONTINUOUS
 62
       7
  5
14E
 10
-327.2874152
 20
-4.13908247
 30
0.0
 11
-326.79408186
 21
-4.64574913
 31
0.0
  0
LINE
  8
0
  6
CONTINUOUS
 62
       7
  5
14F
 10
-327.2874152
 20
-4.13908247
 30
0.0
 11
-327.2874152
 21
2.86091753
 31
0.0
  0
LINE
  8
0
  6
CONTINUOUS
 62
       7
  5
150
 10
-326.79408186
 20
-4.64574913
 30
0.0
 11
-324.98074853
 21
-4.64574913
 31
0.0
  0
LINE
  8
0
  6
CONTINUOUS
 62
       7
  5
151
 10
-324.99408186
 20
5.35425087
 30
0.0
 11
-324.99408186
 21
-5.5124158
 31
0.0
  0
LINE
  8
0
  6
CONTINUOUS
 62
       7
  5
152
 10
-323.79408186
 20
9.35425087
 30
0.0
 11
-319.2874152
 21
9.35425087
 31
0.0
  0
LINE
  8
0
  6
CONTINUOUS
 62
       7
  5
153
 10
-324.99408186
 20
-5.5124158
 30
0.0
 11
-324.19408186
 21
-5.5124158
 31
0.0
  0
LINE
  8
0
  6
CONTINUOUS
 62
       7
  5
154
 10
-327.2874152
 20
2.86091753
 30
0.0
 11
-326.79408186
 21
3.35425087
 31
0.0
  0
LINE
  8
0
  6
CONTINUOUS
 62
       7
  5
155
 10
-324.99408186
 20
5.35425087
 30
0.0
 11
-324.19408186
 21
5.35425087
 31
0.0
  0
LINE
  8
0
  6
CONTINUOUS
 62
       7
  5
156
 10
-326.79408186
 20
3.35425087
 30
0.0
 11
-324.99408186
 21
3.35425087
 31
0.0
  0
LINE
  8
0
  6
CONTINUOUS
 62
       7
  5
157
 10
-326.79408186
 20
-4.64574913
 30
0.0
 11
-326.79408186
 21
3.35425087
 31
0.0
  0
LINE
  8
0
  6
CONTINUOUS
 62
       7
  5
158
 10
-34.48408186
 20
34.5275842
 30
0.0
 11
192.51925147
 21
34.5275842
 31
0.0
  0
LINE
  8
0
  6
CONTINUOUS
 62
       7
  5
159
 10
-34.48408186
 20
28.5275842
 30
0.0
 11
192.51925147
 21
28.5275842
 31
0.0
  0
LINE
  8
0
  6
CONTINUOUS
 62
       2
  5
15A
 10
-60.4974152
 20
31.5275842
 30
0.0
 11
192.51925147
 21
31.5275842
 31
0.0
  0
LINE
  8
0
  6
CONTINUOUS
 62
       7
  5
15B
 10
217.51925147
 20
-6.41908247
 30
0.0
 11
220.74738564
 21
-4.55106883
 31
0.0
  0
LINE
  8
0
  6
CONTINUOUS
 62
       7
  5
15C
 10
214.27822545
 20
-4.54360874
 30
0.0
 11
217.51925147
 21
-6.41908247
 31
0.0
  0
LINE
  8
0
  6
CONTINUOUS
 62
       7
  5
15D
 10
190.0125848
 20
-50.6324158
 30
0.0
 11
190.0125848
 21
-15.64574913
 31
0.0
  0
LINE
  8
0
  6
CONTINUOUS
 62
       7
  5
15E
 10
245.0125848
 20
-50.6324158
 30
0.0
 11
245.0125848
 21
-40.13908247
 31
0.0
  0
LINE
  8
0
  6
CONTINUOUS
 62
       7
  5
15F
 10
217.51925147
 20
-35.13908247
 30
0.0
 11
240.0125848
 21
-35.13908247
 31
0.0
  0
LINE
  8
0
  6
CONTINUOUS
 62
       2
  5
160
 10
237.51925147
 20
-44.60574913
 30
0.0
 11
237.51925147
 21
-55.6324158
 31
0.0
  0
LINE
  8
0
  6
CONTINUOUS
 62
       2
  5
161
 10
197.51925147
 20
-44.09908247
 30
0.0
 11
197.51925147
 21
-55.6324158
 31
0.0
  0
LINE
  8
0
  6
CONTINUOUS
 62
       7
  5
162
 10
190.0125848
 20
-46.13908247
 30
0.0
 11
245.0125848
 21
-46.13908247
 31
0.0
  0
LINE
  8
0
  6
CONTINUOUS
 62
       7
  5
163
 10
190.0125848
 20
-50.6324158
 30
0.0
 11
245.0125848
 21
-50.6324158
 31
0.0
  0
LINE
  8
0
  6
CONTINUOUS
 62
       7
  5
164
 10
218.55374487
 20
3.22482832
 30
0.0
 11
218.70591814
 21
3.79425087
 31
0.0
  0
LINE
  8
0
  6
CONTINUOUS
 62
       7
  5
165
 10
216.31925147
 20
3.79425087
 30
0.0
 11
216.47231929
 21
3.22148097
 31
0.0
  0
LINE
  8
0
  6
CONTINUOUS
 62
       7
  5
166
 10
214.0125848
 20
-5.5124158
 30
0.0
 11
214.59923625
 21
-3.37286348
 31
0.0
  0
LINE
  8
0
  6
CONTINUOUS
 62
       7
  5
167
 10
220.42619267
 20
-3.3867443
 30
0.0
 11
221.0125848
 21
-5.5124158
 31
0.0
  0
LINE
  8
0
  6
CONTINUOUS
 62
       7
  5
168
 10
-324.19408186
 20
-5.5124158
 30
0.0
 11
-324.19408186
 21
5.35425087
 31
0.0
  0
LINE
  8
0
  6
CONTINUOUS
 62
       7
  5
169
 10
-319.2874152
 20
-42.1324158
 30
0.0
 11
-319.2874152
 21
9.35425087
 31
0.0
  0
LINE
  8
0
  6
CONTINUOUS
 62
       7
  5
16A
 10
-76.64408186
 20
-24.3124158
 30
0.0
 11
-70.9774152
 21
-24.3124158
 31
0.0
  0
LINE
  8
0
  6
CONTINUOUS
 62
       7
  5
16B
 10
-78.48408186
 20
19.86091753
 30
0.0
 11
-78.48408186
 21
-21.13908247
 31
0.0
  0
LINE
  8
0
  6
CONTINUOUS
 62
       7
  5
16C
 10
-78.48408186
 20
19.86091753
 30
0.0
 11
-76.64408186
 21
23.02091753
 31
0.0
  0
LINE
  8
0
  6
CONTINUOUS
 62
       7
  5
16D
 10
-78.48408186
 20
-21.13908247
 30
0.0
 11
-76.64408186
 21
-24.3124158
 31
0.0
  0
LINE
  8
0
  6
CONTINUOUS
 62
       7
  5
16E
 10
-76.64408186
 20
23.02091753
 30
0.0
 11
-70.9774152
 21
23.02091753
 31
0.0
  0
LINE
  8
0
  6
CONTINUOUS
 62
       7
  5
16F
 10
-76.64408186
 20
-12.48574913
 30
0.0
 11
-70.9774152
 21
-12.48574913
 31
0.0
  0
LINE
  8
0
  6
CONTINUOUS
 62
       7
  5
170
 10
-76.64408186
 20
11.19425087
 30
0.0
 11
-70.9774152
 21
11.19425087
 31
0.0
  0
LINE
  8
0
  6
CONTINUOUS
 62
       7
  5
171
 10
-182.4874152
 20
18.86091753
 30
0.0
 11
-182.4874152
 21
-20.13908247
 31
0.0
  0
LINE
  8
0
  6
CONTINUOUS
 62
       7
  5
172
 10
-181.99408186
 20
19.35425087
 30
0.0
 11
-181.99408186
 21
-20.64574913
 31
0.0
  0
LINE
  8
0
  6
CONTINUOUS
 62
       7
  5
173
 10
-173.4874152
 20
19.35425087
 30
0.0
 11
-173.4874152
 21
-20.64574913
 31
0.0
  0
LINE
  8
0
  6
CONTINUOUS
 62
       7
  5
174
 10
-182.4874152
 20
18.86091753
 30
0.0
 11
-181.99408186
 21
19.35425087
 31
0.0
  0
LINE
  8
0
  6
CONTINUOUS
 62
       7
  5
175
 10
-182.4874152
 20
-20.13908247
 30
0.0
 11
-181.99408186
 21
-20.64574913
 31
0.0
  0
LINE
  8
0
  6
CONTINUOUS
 62
       7
  5
176
 10
-179.4874152
 20
0.22091753
 30
0.0
 11
-179.4874152
 21
-1.5124158
 31
0.0
  0
LINE
  8
0
  6
CONTINUOUS
 62
       7
  5
177
 10
-176.4874152
 20
0.22091753
 30
0.0
 11
-176.4874152
 21
-1.5124158
 31
0.0
  0
LINE
  8
0
  6
CONTINUOUS
 62
       7
  5
178
 10
-179.4874152
 20
0.22091753
 30
0.0
 11
-177.99408186
 21
1.0875842
 31
0.0
  0
LINE
  8
0
  6
CONTINUOUS
 62
       7
  5
179
 10
-177.99408186
 20
-2.37908247
 30
0.0
 11
-176.4874152
 21
-1.5124158
 31
0.0
  0
LINE
  8
0
  6
CONTINUOUS
 62
       7
  5
17A
 10
-177.99408186
 20
1.0875842
 30
0.0
 11
-176.4874152
 21
0.22091753
 31
0.0
  0
LINE
  8
0
  6
CONTINUOUS
 62
       7
  5
17B
 10
-179.4874152
 20
-1.5124158
 30
0.0
 11
-177.99408186
 21
-2.37908247
 31
0.0
  0
LINE
  8
0
  6
CONTINUOUS
 62
       2
  5
17C
 10
-177.99408186
 20
3.23425087
 30
0.0
 11
-177.99408186
 21
-4.13908247
 31
0.0
  0
LINE
  8
0
  6
CONTINUOUS
 62
       7
  5
17D
 10
-162.4874152
 20
22.35425087
 30
0.0
 11
-162.4874152
 21
18.86091753
 31
0.0
  0
LINE
  8
0
  6
CONTINUOUS
 62
       7
  5
17E
 10
-160.4874152
 20
22.35425087
 30
0.0
 11
-160.4874152
 21
-23.64574913
 31
0.0
  0
LINE
  8
0
  6
CONTINUOUS
 62
       7
  5
17F
 10
-158.4874152
 20
22.35425087
 30
0.0
 11
-158.4874152
 21
-23.64574913
 31
0.0
  0
LINE
  8
0
  6
CONTINUOUS
 62
       7
  5
180
 10
-156.4874152
 20
22.35425087
 30
0.0
 11
-156.4874152
 21
-23.64574913
 31
0.0
  0
LINE
  8
0
  6
CONTINUOUS
 62
       7
  5
181
 10
-89.48408186
 20
22.35425087
 30
0.0
 11
-89.48408186
 21
18.86091753
 31
0.0
  0
LINE
  8
0
  6
CONTINUOUS
 62
       7
  5
182
 10
-91.48408186
 20
22.35425087
 30
0.0
 11
-91.48408186
 21
-23.64574913
 31
0.0
  0
LINE
  8
0
  6
CONTINUOUS
 62
       7
  5
183
 10
-93.48408186
 20
22.35425087
 30
0.0
 11
-93.48408186
 21
-23.64574913
 31
0.0
  0
LINE
  8
0
  6
CONTINUOUS
 62
       7
  5
184
 10
-95.48408186
 20
22.35425087
 30
0.0
 11
-95.48408186
 21
-23.64574913
 31
0.0
  0
LINE
  8
0
  6
CONTINUOUS
 62
       7
  5
185
 10
-75.9774152
 20
3.22091753
 30
0.0
 11
-75.9774152
 21
1.4875842
 31
0.0
  0
LINE
  8
0
  6
CONTINUOUS
 62
       7
  5
186
 10
-72.9774152
 20
3.22091753
 30
0.0
 11
-72.9774152
 21
1.4875842
 31
0.0
  0
LINE
  8
0
  6
CONTINUOUS
 62
       7
  5
187
 10
-75.9774152
 20
3.22091753
 30
0.0
 11
-74.48408186
 21
4.0875842
 31
0.0
  0
LINE
  8
0
  6
CONTINUOUS
 62
       7
  5
188
 10
-74.48408186
 20
0.62091753
 30
0.0
 11
-72.9774152
 21
1.4875842
 31
0.0
  0
LINE
  8
0
  6
CONTINUOUS
 62
       7
  5
189
 10
-74.48408186
 20
4.0875842
 30
0.0
 11
-72.9774152
 21
3.22091753
 31
0.0
  0
LINE
  8
0
  6
CONTINUOUS
 62
       7
  5
18A
 10
-75.9774152
 20
1.4875842
 30
0.0
 11
-74.48408186
 21
0.62091753
 31
0.0
  0
LINE
  8
0
  6
CONTINUOUS
 62
       2
  5
18B
 10
-77.80408186
 20
2.35425087
 30
0.0
 11
-71.43074853
 21
2.35425087
 31
0.0
  0
LINE
  8
0
  6
CONTINUOUS
 62
       2
  5
18C
 10
-74.48408186
 20
5.87425087
 30
0.0
 11
-74.48408186
 21
-1.76574913
 31
0.0
  0
LINE
  8
0
  6
CONTINUOUS
 62
       7
  5
18D
 10
-181.99408186
 20
19.35425087
 30
0.0
 11
-173.4874152
 21
19.35425087
 31
0.0
  0
LINE
  8
0
  6
CONTINUOUS
 62
       7
  5
18E
 10
-181.99408186
 20
-20.64574913
 30
0.0
 11
-173.4874152
 21
-20.64574913
 31
0.0
  0
LINE
  8
0
  6
CONTINUOUS
 62
       7
  5
18F
 10
-164.4874152
 20
17.86091753
 30
0.0
 11
-163.4874152
 21
17.86091753
 31
0.0
  0
LINE
  8
0
  6
CONTINUOUS
 62
       7
  5
190
 10
-164.4874152
 20
-19.13908247
 30
0.0
 11
-163.4874152
 21
-19.13908247
 31
0.0
  0
LINE
  8
0
  6
CONTINUOUS
 62
       7
  5
191
 10
-88.48408186
 20
17.86091753
 30
0.0
 11
-87.48408186
 21
17.86091753
 31
0.0
  0
LINE
  8
0
  6
CONTINUOUS
 62
       7
  5
192
 10
-88.48408186
 20
-19.13908247
 30
0.0
 11
-87.48408186
 21
-19.13908247
 31
0.0
  0
LINE
  8
0
  6
CONTINUOUS
 62
       7
  5
193
 10
-204.4874152
 20
6.35425087
 30
0.0
 11
-197.99408186
 21
6.35425087
 31
0.0
  0
LINE
  8
0
  6
CONTINUOUS
 62
       7
  5
194
 10
-204.4874152
 20
-7.64574913
 30
0.0
 11
-197.99408186
 21
-7.64574913
 31
0.0
  0
LINE
  8
0
  6
CONTINUOUS
 62
       7
  5
195
 10
-189.99408186
 20
-7.64574913
 30
0.0
 11
-182.4874152
 21
-7.64574913
 31
0.0
  0
LINE
  8
0
  6
CONTINUOUS
 62
       7
  5
196
 10
-189.99408186
 20
6.35425087
 30
0.0
 11
-182.4874152
 21
6.35425087
 31
0.0
  0
LINE
  8
0
  6
CONTINUOUS
 62
       7
  5
197
 10
-197.14074853
 20
10.3275842
 30
0.0
 11
-190.83408186
 21
10.3275842
 31
0.0
  0
LINE
  8
0
  6
CONTINUOUS
 62
       7
  5
198
 10
-197.14074853
 20
-11.61908247
 30
0.0
 11
-190.83408186
 21
-11.61908247
 31
0.0
  0
LINE
  8
0
  6
CONTINUOUS
 62
       7
  5
199
 10
-197.14074853
 20
10.3275842
 30
0.0
 11
-197.99408186
 21
8.86091753
 31
0.0
  0
LINE
  8
0
  6
CONTINUOUS
 62
       7
  5
19A
 10
-190.83408186
 20
10.3275842
 30
0.0
 11
-189.99408186
 21
8.86091753
 31
0.0
  0
LINE
  8
0
  6
CONTINUOUS
 62
       7
  5
19B
 10
-190.83408186
 20
-11.61908247
 30
0.0
 11
-189.99408186
 21
-10.13908247
 31
0.0
  0
LINE
  8
0
  6
CONTINUOUS
 62
       7
  5
19C
 10
-197.99408186
 20
-10.13908247
 30
0.0
 11
-197.99408186
 21
8.86091753
 31
0.0
  0
LINE
  8
0
  6
CONTINUOUS
 62
       7
  5
19D
 10
-197.99408186
 20
-10.13908247
 30
0.0
 11
-197.14074853
 21
-11.61908247
 31
0.0
  0
LINE
  8
0
  6
CONTINUOUS
 62
       7
  5
19E
 10
-197.14074853
 20
-6.12574913
 30
0.0
 11
-190.83408186
 21
-6.12574913
 31
0.0
  0
LINE
  8
0
  6
CONTINUOUS
 62
       7
  5
19F
 10
-197.14074853
 20
4.83425087
 30
0.0
 11
-190.83408186
 21
4.83425087
 31
0.0
  0
LINE
  8
0
  6
CONTINUOUS
 62
       7
  5
1A0
 10
-189.99408186
 20
-10.13908247
 30
0.0
 11
-189.99408186
 21
8.86091753
 31
0.0
  0
LINE
  8
0
  6
PHANTOM
 62
       2
  5
1A2
 10
-157.4874152
 20
-24.64574913
 30
0.0
 11
-94.48408186
 21
-24.64574913
 31
0.0
  0
LINE
  8
0
  6
PHANTOM
 62
       2
  5
1A3
 10
-157.4874152
 20
23.35425087
 30
0.0
 11
-94.48408186
 21
23.35425087
 31
0.0
  0
LINE
  8
0
  6
CONTINUOUS
 62
       7
  5
1A4
 10
-164.4874152
 20
18.35425087
 30
0.0
 11
-164.4874152
 21
-19.64574913
 31
0.0
  0
LINE
  8
0
  6
CONTINUOUS
 62
       7
  5
1A5
 10
-173.4874152
 20
-19.64574913
 30
0.0
 11
-164.4874152
 21
-19.64574913
 31
0.0
  0
LINE
  8
0
  6
CONTINUOUS
 62
       7
  5
1A6
 10
-173.4874152
 20
18.35425087
 30
0.0
 11
-164.4874152
 21
18.35425087
 31
0.0
  0
LINE
  8
0
  6
CONTINUOUS
 62
       7
  5
1A7
 10
-173.4874152
 20
8.35425087
 30
0.0
 11
-164.4874152
 21
8.35425087
 31
0.0
  0
LINE
  8
0
  6
CONTINUOUS
 62
       7
  5
1A8
 10
-173.4874152
 20
-5.64574913
 30
0.0
 11
-164.4874152
 21
-5.64574913
 31
0.0
  0
LINE
  8
0
  6
CONTINUOUS
 62
       7
  5
1A9
 10
-171.4874152
 20
11.35425087
 30
0.0
 11
-166.4874152
 21
11.35425087
 31
0.0
  0
LINE
  8
0
  6
CONTINUOUS
 62
       7
  5
1AA
 10
-173.4874152
 20
9.35425087
 30
0.0
 11
-164.4874152
 21
9.35425087
 31
0.0
  0
LINE
  8
0
  6
CONTINUOUS
 62
       7
  5
1AB
 10
-171.99408186
 20
9.35425087
 30
0.0
 11
-171.99408186
 21
8.35425087
 31
0.0
  0
LINE
  8
0
  6
CONTINUOUS
 62
       7
  5
1AC
 10
-165.99408186
 20
9.35425087
 30
0.0
 11
-165.99408186
 21
8.35425087
 31
0.0
  0
LINE
  8
0
  6
CONTINUOUS
 62
       2
  5
1AD
 10
-168.99408186
 20
12.7275842
 30
0.0
 11
-168.99408186
 21
-7.3924158
 31
0.0
  0
LINE
  8
0
  6
CONTINUOUS
 62
       7
  5
1AE
 10
-87.48408186
 20
18.35425087
 30
0.0
 11
-87.48408186
 21
-19.64574913
 31
0.0
  0
LINE
  8
0
  6
CONTINUOUS
 62
       7
  5
1AF
 10
-87.48408186
 20
8.35425087
 30
0.0
 11
-78.48408186
 21
8.35425087
 31
0.0
  0
LINE
  8
0
  6
CONTINUOUS
 62
       7
  5
1B0
 10
-87.48408186
 20
-5.64574913
 30
0.0
 11
-78.48408186
 21
-5.64574913
 31
0.0
  0
LINE
  8
0
  6
CONTINUOUS
 62
       7
  5
1B1
 10
-87.48408186
 20
-19.64574913
 30
0.0
 11
-78.48408186
 21
-19.64574913
 31
0.0
  0
LINE
  8
0
  6
CONTINUOUS
 62
       7
  5
1B2
 10
-87.48408186
 20
18.35425087
 30
0.0
 11
-78.48408186
 21
18.35425087
 31
0.0
  0
LINE
  8
0
  6
CONTINUOUS
 62
       7
  5
1B3
 10
-85.48408186
 20
11.35425087
 30
0.0
 11
-80.48408186
 21
11.35425087
 31
0.0
  0
LINE
  8
0
  6
CONTINUOUS
 62
       7
  5
1B4
 10
-87.48408186
 20
9.35425087
 30
0.0
 11
-78.48408186
 21
9.35425087
 31
0.0
  0
LINE
  8
0
  6
CONTINUOUS
 62
       7
  5
1B5
 10
-85.9774152
 20
9.35425087
 30
0.0
 11
-85.9774152
 21
8.35425087
 31
0.0
  0
LINE
  8
0
  6
CONTINUOUS
 62
       7
  5
1B6
 10
-79.9774152
 20
9.35425087
 30
0.0
 11
-79.9774152
 21
8.35425087
 31
0.0
  0
LINE
  8
0
  6
CONTINUOUS
 62
       2
  5
1B7
 10
-82.9774152
 20
13.23425087
 30
0.0
 11
-82.9774152
 21
-6.89908247
 31
0.0
  0
LINE
  8
0
  6
CONTINUOUS
 62
       2
  5
1B8
 10
-205.4874152
 20
5.35425087
 30
0.0
 11
-197.99408186
 21
5.35425087
 31
0.0
  0
LINE
  8
0
  6
CONTINUOUS
 62
       2
  5
1B9
 10
-189.99408186
 20
5.35425087
 30
0.0
 11
-182.4874152
 21
5.35425087
 31
0.0
  0
LINE
  8
0
  6
CONTINUOUS
 62
       2
  5
1BA
 10
-205.4874152
 20
-6.64574913
 30
0.0
 11
-197.99408186
 21
-6.64574913
 31
0.0
  0
LINE
  8
0
  6
CONTINUOUS
 62
       2
  5
1BB
 10
-189.99408186
 20
-6.64574913
 30
0.0
 11
-182.4874152
 21
-6.64574913
 31
0.0
  0
LINE
  8
0
  6
CONTINUOUS
 62
       7
  5
1BC
 10
-162.4874152
 20
18.86091753
 30
0.0
 11
-162.4874152
 21
-20.13908247
 31
0.0
  0
LINE
  8
0
  6
CONTINUOUS
 62
       7
  5
1BD
 10
-89.48408186
 20
18.86091753
 30
0.0
 11
-89.48408186
 21
-20.13908247
 31
0.0
  0
LINE
  8
0
  6
CONTINUOUS
 62
       7
  5
1BE
 10
-162.4874152
 20
-20.13908247
 30
0.0
 11
-162.4874152
 21
-23.64574913
 31
0.0
  0
LINE
  8
0
  6
CONTINUOUS
 62
       7
  5
1BF
 10
-89.48408186
 20
-20.13908247
 30
0.0
 11
-89.48408186
 21
-23.64574913
 31
0.0
  0
LINE
  8
0
  6
CONTINUOUS
 62
       7
  5
1C0
 10
-204.4874152
 20
6.35425087
 30
0.0
 11
-204.4874152
 21
-7.64574913
 31
0.0
  0
LINE
  8
0
  6
CONTINUOUS
 62
       7
  5
1C1
 10
-205.4874152
 20
-6.64574913
 30
0.0
 11
-204.4874152
 21
-7.64574913
 31
0.0
  0
LINE
  8
0
  6
CONTINUOUS
 62
       7
  5
1C2
 10
-204.4874152
 20
6.35425087
 30
0.0
 11
-205.4874152
 21
5.35425087
 31
0.0
  0
LINE
  8
0
  6
CONTINUOUS
 62
       7
  5
1C3
 10
-205.4874152
 20
5.35425087
 30
0.0
 11
-205.4874152
 21
-6.64574913
 31
0.0
  0
LINE
  8
0
  6
CONTINUOUS
 62
       7
  5
1C4
 10
-70.9774152
 20
23.02091753
 30
0.0
 11
-70.9774152
 21
-24.3124158
 31
0.0
  0
LINE
  8
0
  6
CONTINUOUS
 62
       7
  5
1C5
 10
-70.48408186
 20
-21.64574913
 30
0.0
 11
-70.48408186
 21
20.35425087
 31
0.0
  0
LINE
  8
0
  6
CONTINUOUS
 62
       7
  5
1C6
 10
-70.9774152
 20
20.35425087
 30
0.0
 11
-70.48408186
 21
20.35425087
 31
0.0
  0
LINE
  8
0
  6
CONTINUOUS
 62
       7
  5
1C7
 10
-70.9774152
 20
-21.64574913
 30
0.0
 11
-70.48408186
 21
-21.64574913
 31
0.0
  0
LINE
  8
0
  6
CONTINUOUS
 62
       7
  5
1C8
 10
-303.99408186
 20
4.83425087
 30
0.0
 11
-303.99408186
 21
-6.12574913
 31
0.0
  0
LINE
  8
0
  6
CONTINUOUS
 62
       7
  5
1C9
 10
-284.99408186
 20
4.83425087
 30
0.0
 11
-284.99408186
 21
-6.12574913
 31
0.0
  0
LINE
  8
0
  6
CONTINUOUS
 62
       7
  5
1CA
 10
-303.99408186
 20
4.83425087
 30
0.0
 11
-294.4874152
 21
10.3275842
 31
0.0
  0
LINE
  8
0
  6
CONTINUOUS
 62
       7
  5
1CB
 10
-294.4874152
 20
-11.61908247
 30
0.0
 11
-284.99408186
 21
-6.12574913
 31
0.0
  0
LINE
  8
0
  6
CONTINUOUS
 62
       7
  5
1CC
 10
-294.4874152
 20
10.3275842
 30
0.0
 11
-284.99408186
 21
4.83425087
 31
0.0
  0
LINE
  8
0
  6
CONTINUOUS
 62
       7
  5
1CD
 10
-303.99408186
 20
-6.12574913
 30
0.0
 11
-294.4874152
 21
-11.61908247
 31
0.0
  0
LINE
  8
0
  6
CONTINUOUS
 62
       2
  5
1CE
 10
-331.558175
 20
-0.64574913
 30
0.0
 11
-257.41665539
 21
-0.64574913
 31
0.0
  0
LINE
  8
0
  6
CONTINUOUS
 62
       7
  5
1CF
 10
-284.4874152
 20
16.67425087
 30
0.0
 11
-284.19408186
 21
17.18091753
 31
0.0
  0
LINE
  8
0
  6
CONTINUOUS
 62
       7
  5
1D0
 10
-274.4874152
 20
-4.25908247
 30
0.0
 11
-274.4874152
 21
-5.64574913
 31
0.0
  0
LINE
  8
0
  6
CONTINUOUS
 62
       7
  5
1D1
 10
-274.86074853
 20
-4.16574913
 30
0.0
 11
-271.11408186
 21
-5.16574913
 31
0.0
  0
LINE
  8
0
  6
CONTINUOUS
 62
       7
  5
1D2
 10
-274.86074853
 20
2.87425087
 30
0.0
 11
-271.11408186
 21
3.87425087
 31
0.0
  0
LINE
  8
0
  6
CONTINUOUS
 62
       7
  5
1D3
 10
-274.4874152
 20
8.35425087
 30
0.0
 11
-265.4874152
 21
8.35425087
 31
0.0
  0
LINE
  8
0
  6
CONTINUOUS
 62
       7
  5
1D4
 10
-274.4874152
 20
-5.64574913
 30
0.0
 11
-265.4874152
 21
-5.64574913
 31
0.0
  0
LINE
  8
0
  6
CONTINUOUS
 62
       7
  5
1D5
 10
-265.4874152
 20
8.35425087
 30
0.0
 11
-265.4874152
 21
-5.64574913
 31
0.0
  0
LINE
  8
0
  6
CONTINUOUS
 62
       7
  5
1D6
 10
-274.4874152
 20
8.35425087
 30
0.0
 11
-274.4874152
 21
2.9675842
 31
0.0
  0
LINE
  8
0
  6
CONTINUOUS
 62
       7
  5
1D7
 10
-272.4874152
 20
11.35425087
 30
0.0
 11
-270.4874152
 21
11.35425087
 31
0.0
  0
LINE
  8
0
  6
CONTINUOUS
 62
       7
  5
1D8
 10
-270.4874152
 20
10.35425087
 30
0.0
 11
-269.4874152
 21
10.35425087
 31
0.0
  0
LINE
  8
0
  6
CONTINUOUS
 62
       7
  5
1D9
 10
-269.4874152
 20
11.35425087
 30
0.0
 11
-269.4874152
 21
10.35425087
 31
0.0
  0
LINE
  8
0
  6
CONTINUOUS
 62
       7
  5
1DA
 10
-269.4874152
 20
11.35425087
 30
0.0
 11
-267.4874152
 21
11.35425087
 31
0.0
  0
LINE
  8
0
  6
CONTINUOUS
 62
       7
  5
1DB
 10
-274.4874152
 20
9.35425087
 30
0.0
 11
-265.4874152
 21
9.35425087
 31
0.0
  0
LINE
  8
0
  6
CONTINUOUS
 62
       7
  5
1DC
 10
-272.99408186
 20
9.35425087
 30
0.0
 11
-272.99408186
 21
8.35425087
 31
0.0
  0
LINE
  8
0
  6
CONTINUOUS
 62
       7
  5
1DD
 10
-266.99408186
 20
9.35425087
 30
0.0
 11
-266.99408186
 21
8.35425087
 31
0.0
  0
LINE
  8
0
  6
CONTINUOUS
 62
       7
  5
1DE
 10
-270.4874152
 20
11.35425087
 30
0.0
 11
-270.4874152
 21
10.35425087
 31
0.0
  0
LINE
  8
0
  6
CONTINUOUS
 62
       2
  5
1DF
 10
-269.99408186
 20
12.86091753
 30
0.0
 11
-269.99408186
 21
-7.2724158
 31
0.0
  0
LINE
  8
0
  6
CONTINUOUS
 62
       7
  5
1E0
 10
-261.6874152
 20
-4.13908247
 30
0.0
 11
-262.19408186
 21
-4.64574913
 31
0.0
  0
LINE
  8
0
  6
CONTINUOUS
 62
       7
  5
1E1
 10
-261.6874152
 20
-4.13908247
 30
0.0
 11
-261.6874152
 21
2.86091753
 31
0.0
  0
LINE
  8
0
  6
CONTINUOUS
 62
       7
  5
1E2
 10
-262.19408186
 20
-4.64574913
 30
0.0
 11
-263.99408186
 21
-4.64574913
 31
0.0
  0
LINE
  8
0
  6
CONTINUOUS
 62
       7
  5
1E3
 10
-263.99408186
 20
5.35425087
 30
0.0
 11
-263.99408186
 21
-5.5124158
 31
0.0
  0
LINE
  8
0
  6
CONTINUOUS
 62
       2
  5
1E4
 10
-265.19408186
 20
9.35425087
 30
0.0
 11
-266.99408186
 21
9.35425087
 31
0.0
  0
LINE
  8
0
  6
CONTINUOUS
 62
       7
  5
1E5
 10
-263.99408186
 20
-5.5124158
 30
0.0
 11
-264.79408186
 21
-5.5124158
 31
0.0
  0
LINE
  8
0
  6
CONTINUOUS
 62
       7
  5
1E6
 10
-263.8874152
 20
-4.64574913
 30
0.0
 11
-263.8874152
 21
3.35425087
 31
0.0
  0
LINE
  8
0
  6
CONTINUOUS
 62
       7
  5
1E7
 10
-261.6874152
 20
2.86091753
 30
0.0
 11
-262.19408186
 21
3.35425087
 31
0.0
  0
LINE
  8
0
  6
CONTINUOUS
 62
       7
  5
1E8
 10
-265.19408186
 20
-42.13908247
 30
0.0
 11
-265.19408186
 21
9.35425087
 31
0.0
  0
LINE
  8
0
  6
CONTINUOUS
 62
       7
  5
1E9
 10
-269.6874152
 20
-42.1324158
 30
0.0
 11
-269.6874152
 21
-5.64574913
 31
0.0
  0
LINE
  8
0
  6
CONTINUOUS
 62
       7
  5
1EA
 10
-263.99408186
 20
5.35425087
 30
0.0
 11
-264.79408186
 21
5.35425087
 31
0.0
  0
LINE
  8
0
  6
CONTINUOUS
 62
       7
  5
1EB
 10
-262.19408186
 20
3.35425087
 30
0.0
 11
-263.99408186
 21
3.35425087
 31
0.0
  0
LINE
  8
0
  6
CONTINUOUS
 62
       7
  5
1EC
 10
-262.19408186
 20
-4.64574913
 30
0.0
 11
-262.19408186
 21
3.35425087
 31
0.0
  0
LINE
  8
0
  6
CONTINUOUS
 62
       7
  5
1ED
 10
-264.79408186
 20
-5.5124158
 30
0.0
 11
-264.79408186
 21
5.35425087
 31
0.0
  0
LINE
  8
0
  6
CONTINUOUS
 62
       7
  5
1EE
 10
-294.4874152
 20
39.03425087
 30
0.0
 11
-286.99408186
 21
35.03425087
 31
0.0
  0
LINE
  8
0
  6
CONTINUOUS
 62
       7
  5
1EF
 10
-286.4074152
 20
36.19425087
 30
0.0
 11
-294.4874152
 21
40.86091753
 31
0.0
  0
LINE
  8
0
  6
CONTINUOUS
 62
       7
  5
1F0
 10
-286.4074152
 20
36.19425087
 30
0.0
 11
-286.4074152
 21
26.86091753
 31
0.0
  0
LINE
  8
0
  6
CONTINUOUS
 62
       7
  5
1F1
 10
-286.4074152
 20
26.86091753
 30
0.0
 11
-286.99408186
 21
26.5275842
 31
0.0
  0
LINE
  8
0
  6
CONTINUOUS
 62
       7
  5
1F2
 10
-286.99408186
 20
35.03425087
 30
0.0
 11
-286.99408186
 21
22.03425087
 31
0.0
  0
LINE
  8
0
  6
CONTINUOUS
 62
       7
  5
1F3
 10
-261.1874152
 20
-50.6324158
 30
0.0
 11
-239.4874152
 21
-50.6324158
 31
0.0
  0
LINE
  8
0
  6
CONTINUOUS
 62
       7
  5
1F4
 10
-261.19408186
 20
-46.13908247
 30
0.0
 11
-239.4874152
 21
-46.13908247
 31
0.0
  0
LINE
  8
0
  6
CONTINUOUS
 62
       7
  5
1F5
 10
-239.4874152
 20
-46.13908247
 30
0.0
 11
-239.4874152
 21
-50.6324158
 31
0.0
  0
LINE
  8
0
  6
CONTINUOUS
 62
       7
  5
1F6
 10
-327.79408186
 20
-46.13908247
 30
0.0
 11
-349.4874152
 21
-46.13908247
 31
0.0
  0
LINE
  8
0
  6
CONTINUOUS
 62
       7
  5
1F7
 10
-349.4874152
 20
-46.13908247
 30
0.0
 11
-349.4874152
 21
-50.6324158
 31
0.0
  0
LINE
  8
0
  6
CONTINUOUS
 62
       7
  5
1F8
 10
-327.7874152
 20
-50.6324158
 30
0.0
 11
-349.4874152
 21
-50.6324158
 31
0.0
  0
LINE
  8
0
  6
CONTINUOUS
 62
       2
  5
1F9
 10
-249.4874152
 20
-41.13908247
 30
0.0
 11
-249.4874152
 21
-55.6324158
 31
0.0
  0
LINE
  8
0
  6
CONTINUOUS
 62
       2
  5
1FA
 10
-339.4874152
 20
-41.13908247
 30
0.0
 11
-339.4874152
 21
-55.6324158
 31
0.0
  0
LINE
  8
0
  6
CONTINUOUS
 62
       7
  5
1FB
 10
-323.79408186
 20
-42.13908247
 30
0.0
 11
-323.79408186
 21
9.35425087
 31
0.0
  0
LINE
  8
0
  6
CONTINUOUS
 62
       7
  5
1FC
 10
-264.79408186
 20
-4.64574913
 30
0.0
 11
-265.19408186
 21
-4.64574913
 31
0.0
  0
LINE
  8
0
  6
CONTINUOUS
 62
       7
  5
1FD
 10
-265.19408186
 20
3.35425087
 30
0.0
 11
-264.79408186
 21
3.35425087
 31
0.0
  0
LINE
  8
0
  6
CONTINUOUS
 62
       2
  5
1FE
 10
-207.9970745
 20
-0.64574913
 30
0.0
 11
330.70591814
 21
-0.64574913
 31
0.0
  0
LINE
  8
0
  6
CONTINUOUS
 62
       7
  5
1FF
 10
-318.8074152
 20
-6.80574913
 30
0.0
 11
-317.6874152
 21
-6.80574913
 31
0.0
  0
LINE
  8
0
  6
CONTINUOUS
 62
       7
  5
200
 10
-319.2874152
 20
4.6875842
 30
0.0
 11
-318.8074152
 21
5.51425087
 31
0.0
  0
LINE
  8
0
  6
CONTINUOUS
 62
       7
  5
201
 10
-318.8074152
 20
-3.72574913
 30
0.0
 11
-318.2874152
 21
-3.72574913
 31
0.0
  0
LINE
  8
0
  6
CONTINUOUS
 62
       7
  5
202
 10
-318.8074152
 20
2.43425087
 30
0.0
 11
-318.2874152
 21
2.43425087
 31
0.0
  0
LINE
  8
0
  6
CONTINUOUS
 62
       7
  5
203
 10
-318.8074152
 20
5.51425087
 30
0.0
 11
-317.6874152
 21
5.51425087
 31
0.0
  0
LINE
  8
0
  6
CONTINUOUS
 62
       7
  5
204
 10
-319.2874152
 20
-5.97908247
 30
0.0
 11
-318.8074152
 21
-6.80574913
 31
0.0
  0
LINE
  8
0
  6
CONTINUOUS
 62
       7
  5
205
 10
-324.19408186
 20
-4.64574913
 30
0.0
 11
-323.79408186
 21
-4.64574913
 31
0.0
  0
LINE
  8
0
  6
CONTINUOUS
 62
       7
  5
206
 10
-324.19408186
 20
3.35425087
 30
0.0
 11
-323.79408186
 21
3.35425087
 31
0.0
  0
ARC
  8
0
  6
CONTINUOUS
 62
       7
  5
207
 10
220.52009491
 20
34.03509431
 30
0.0
 40
4.99915663
 50
359.99033326
 51
90.00966674
  0
ARC
  8
0
  6
CONTINUOUS
 62
       7
  5
208
 10
209.01673817
 20
23.03840423
 30
0.0
 40
0.9958553
 50
359.76103865
 51
90.23896135
  0
ARC
  8
0
  6
CONTINUOUS
 62
       7
  5
209
 10
219.51678928
 20
33.53841814
 30
0.0
 40
1.49583475
 50
359.58501801
 51
89.90568952
  0
ARC
  8
0
  6
CONTINUOUS
 62
       7
  5
20A
 10
209.51675046
 20
23.53840421
 30
0.0
 40
4.49584736
 50
359.86210805
 51
89.9681268
  0
ARC
  8
0
  6
CONTINUOUS
 62
       7
  5
20B
 10
-61.98157922
 20
34.03842156
 30
0.0
 40
4.99583772
 50
90.10516021
 51
180.04783244
  0
ARC
  8
0
  6
CONTINUOUS
 62
       7
  5
20C
 10
-50.98823786
 20
23.0317402
 30
0.0
 40
1.00251382
 50
90.14349039
 51
179.85650961
  0
ARC
  8
0
  6
CONTINUOUS
 62
       7
  5
20D
 10
-51.48824458
 20
23.53174692
 30
0.0
 40
4.50250588
 50
89.94702815
 51
180.05297185
  0
ARC
  8
0
  6
CONTINUOUS
 62
       7
  5
20E
 10
-61.48824076
 20
33.5317431
 30
0.0
 40
1.50251352
 50
89.84140731
 51
180.15859269
  0
CIRCLE
  8
0
  6
CONTINUOUS
 62
       2
  5
20F
 10
217.51924333
 20
-0.63908247
 30
0.0
 40
4.0
  0
CIRCLE
  8
0
  6
CONTINUOUS
 62
       7
  5
210
 10
217.51924333
 20
-0.63908247
 30
0.0
 40
3.0
  0
ARC
  8
0
  6
CONTINUOUS
 62
       7
  5
211
 10
-294.49888139
 20
31.5288608
 30
0.0
 40
8.07873154
 50
89.91867974
 51
201.91025658
  0
ARC
  8
0
  6
CONTINUOUS
 62
       7
  5
212
 10
-327.79409
 20
-42.13907433
 30
0.0
 40
4.00000814
 50
270.00011657
 51
359.99988343
  0
ARC
  8
0
  6
CONTINUOUS
 62
       7
  5
213
 10
217.51579474
 20
-0.63784773
 30
0.0
 40
4.58910576
 50
359.90134953
 51
74.96929399
  0
ARC
  8
0
  6
CONTINUOUS
 62
       7
  5
214
 10
217.52122155
 20
-0.63523874
 30
0.0
 40
5.99803913
 50
305.59726155
 51
234.23301632
  0
ARC
  8
0
  6
CONTINUOUS
 62
       7
  5
215
 10
217.50956036
 20
-25.13453681
 30
0.0
 40
10.00455035
 50
179.36449873
 51
270.05550072
  0
ARC
  8
0
  6
CONTINUOUS
 62
       7
  5
216
 10
217.51765487
 20
-0.63970702
 30
0.0
 40
9.99634551
 50
42.71077914
 51
137.22079667
  0
ARC
  8
0
  6
CONTINUOUS
 62
       7
  5
217
 10
217.51725383
 20
-0.6478787
 30
0.0
 40
12.49533115
 50
269.03672974
 51
0.0
  0
ARC
  8
0
  6
CONTINUOUS
 62
       7
  5
218
 10
217.54376522
 20
-0.60375734
 30
0.0
 40
12.49791181
 50
320.58505296
 51
329.68344961
  0
ARC
  8
0
  6
CONTINUOUS
 62
       2
  5
219
 10
217.51924333
 20
-0.63908247
 30
0.0
 40
5.0
 50
229.91842038
 51
309.89859604
  0
ARC
  8
0
  6
CONTINUOUS
 62
       7
  5
21A
 10
217.52453743
 20
-23.13644602
 30
0.0
 40
9.99736495
 50
88.79137421
 51
179.36449873
  0
ARC
  8
0
  6
CONTINUOUS
 62
       7
  5
21B
 10
217.51241237
 20
-0.64224687
 30
0.0
 40
4.59414248
 50
105.05306398
 51
180.04367842
  0
CIRCLE
  8
0
  6
CONTINUOUS
 62
       7
  5
21C
 10
-177.99409
 20
-0.63908247
 30
0.0
 40
2.5
  0
ARC
  8
0
  6
CONTINUOUS
 62
       7
  5
21D
 10
-94.48408186
 20
22.36091753
 30
0.0
 40
1.00002222
 50
359.6180338
 51
180.3819662
  0
CIRCLE
  8
0
  6
CONTINUOUS
 62
       7
  5
21E
 10
-177.99409
 20
-0.63908247
 30
0.0
 40
2.0
  0
ARC
  8
0
  6
CONTINUOUS
 62
       7
  5
21F
 10
-157.4874152
 20
22.36091768
 30
0.0
 40
1.00002222
 50
359.61802529
 51
180.38197471
  0
ARC
  8
0
  6
CONTINUOUS
 62
       7
  5
220
 10
-90.48408186
 20
22.36091753
 30
0.0
 40
1.00002222
 50
359.6180338
 51
180.3819662
  0
ARC
  8
0
  6
CONTINUOUS
 62
       7
  5
221
 10
-161.4874152
 20
-23.63908232
 30
0.0
 40
1.00002222
 50
180.38197471
 51
359.61802529
  0
ARC
  8
0
  6
CONTINUOUS
 62
       7
  5
222
 10
-159.4874152
 20
15.86091753
 30
0.0
 40
1.0
 50
180.0
 51
0.0
  0
CIRCLE
  8
0
  6
CONTINUOUS
 62
       7
  5
223
 10
-74.48409
 20
2.36091753
 30
0.0
 40
2.5
  0
CIRCLE
  8
0
  6
CONTINUOUS
 62
       7
  5
224
 10
-74.48409
 20
2.36091753
 30
0.0
 40
2.0
  0
ARC
  8
0
  6
CONTINUOUS
 62
       7
  5
225
 10
-161.4874152
 20
22.36091768
 30
0.0
 40
1.00002222
 50
359.61802529
 51
180.38197471
  0
ARC
  8
0
  6
CONTINUOUS
 62
       7
  5
226
 10
-159.4874152
 20
-17.13908247
 30
0.0
 40
1.0
 50
0.0
 51
180.0
  0
ARC
  8
0
  6
CONTINUOUS
 62
       7
  5
227
 10
-92.48408186
 20
-17.13908247
 30
0.0
 40
1.0
 50
0.0
 51
180.0
  0
ARC
  8
0
  6
CONTINUOUS
 62
       7
  5
228
 10
-92.48408186
 20
15.86091753
 30
0.0
 40
1.0
 50
180.0
 51
0.0
  0
ARC
  8
0
  6
CONTINUOUS
 62
       7
  5
229
 10
-90.48408186
 20
-23.63908247
 30
0.0
 40
1.00002222
 50
180.3819662
 51
359.6180338
  0
ARC
  8
0
  6
CONTINUOUS
 62
       7
  5
22A
 10
-94.48408186
 20
-23.63908247
 30
0.0
 40
1.00002222
 50
180.3819662
 51
359.6180338
  0
ARC
  8
0
  6
CONTINUOUS
 62
       7
  5
22B
 10
-157.4874152
 20
-23.63908232
 30
0.0
 40
1.00002222
 50
180.38197471
 51
359.61802529
  0
ARC
  8
0
  6
CONTINUOUS
 62
       7
  5
22C
 10
-171.49408593
 20
9.3609216
 30
0.0
 40
1.99334043
 50
89.80825869
 51
180.19174131
  0
ARC
  8
0
  6
CONTINUOUS
 62
       7
  5
22D
 10
-166.48743039
 20
9.35423567
 30
0.0
 40
2.00001519
 50
0.00043527
 51
89.99956473
  0
ARC
  8
0
  6
CONTINUOUS
 62
       7
  5
22E
 10
-85.4874165
 20
9.3575855
 30
0.0
 40
1.99666815
 50
89.90431039
 51
180.09568961
  0
ARC
  8
0
  6
CONTINUOUS
 62
       7
  5
22F
 10
-80.48075538
 20
9.35757735
 30
0.0
 40
1.99667629
 50
359.9045447
 51
90.0954553
  0
ARC
  8
0
  6
CONTINUOUS
 62
       7
  5
230
 10
-163.49075817
 20
-20.14242544
 30
0.0
 40
1.00334854
 50
0.19089927
 51
89.80910073
  0
ARC
  8
0
  6
CONTINUOUS
 62
       7
  5
231
 10
-88.48408593
 20
-20.1390784
 30
0.0
 40
0.99999593
 50
89.99976686
 51
180.00023314
  0
ARC
  8
0
  6
CONTINUOUS
 62
       7
  5
232
 10
-163.49075817
 20
18.86426051
 30
0.0
 40
1.00334854
 50
270.19089927
 51
359.80910073
  0
ARC
  8
0
  6
CONTINUOUS
 62
       7
  5
233
 10
-88.48408593
 20
18.86091347
 30
0.0
 40
0.99999593
 50
179.99976686
 51
270.00023314
  0
CIRCLE
  8
0
  6
CONTINUOUS
 62
       7
  5
234
 10
-294.49409
 20
-0.63912316
 30
0.0
 40
9.5
  0
CIRCLE
  8
0
  6
CONTINUOUS
 62
       7
  5
235
 10
-294.49409
 20
-0.63912316
 30
0.0
 40
7.0
  0
ARC
  8
0
  6
CONTINUOUS
 62
       7
  5
236
 10
-294.48718235
 20
-0.64834146
 30
0.0
 40
20.58714147
 50
13.71939952
 51
60.0015112
  0
ARC
  8
0
  6
CONTINUOUS
 62
       7
  5
237
 10
-270.8572517
 20
-4.19320888
 30
0.0
 40
1.00588085
 50
255.20694189
 51
347.80159154
  0
ARC
  8
0
  6
CONTINUOUS
 62
       7
  5
238
 10
-270.85136519
 20
2.91131492
 30
0.0
 40
0.9981311
 50
11.73093249
 51
105.26053407
  0
ARC
  8
0
  6
CONTINUOUS
 62
       7
  5
239
 10
-287.99529152
 20
-0.64574913
 30
0.0
 40
18.50718346
 50
348.27793677
 51
11.72206323
  0
CIRCLE
  8
0
  6
CONTINUOUS
 62
       7
  5
23A
 10
-294.49409
 20
-0.63912316
 30
0.0
 40
19.41059875
  0
CIRCLE
  8
0
  6
CONTINUOUS
 62
       7
  5
23B
 10
-294.49409
 20
-0.63912316
 30
0.0
 40
19.99879837
  0
ARC
  8
0
  6
CONTINUOUS
 62
       7
  5
23C
 10
-272.49466567
 20
9.36150134
 30
0.0
 40
1.99276272
 50
89.79153445
 51
180.20846555
  0
ARC
  8
0
  6
CONTINUOUS
 62
       7
  5
23D
 10
-267.48805293
 20
9.35361313
 30
0.0
 40
2.00063784
 50
0.01826396
 51
89.98173604
  0
ARC
  8
0
  6
CONTINUOUS
 62
       7
  5
23E
 10
-294.49472374
 20
-0.63510522
 30
0.0
 40
24.00279285
 50
29.96681849
 51
347.95074224
  0
CIRCLE
  8
0
  6
CONTINUOUS
 62
       2
  5
23F
 10
-294.49409
 20
-0.63912316
 30
0.0
 40
6.0
  0
ARC
  8
0
  6
CONTINUOUS
 62
       7
  5
240
 10
-261.19408186
 20
-42.13908247
 30
0.0
 40
4.0
 50
180.0
 51
270.0
  0
ARC
  8
0
  6
CONTINUOUS
 62
       7
  5
241
 10
-294.4892967
 20
31.52884534
 30
0.0
 40
8.07873908
 50
338.08988318
 51
89.98665609
  0
POLYLINE
  8
0
  6
CONTINUOUS
 62
       7
  5
242
 66
       1
 10
0.0
 20
0.0
 30
0.0
  0
VERTEX
  8
0
  6
CONTINUOUS
 62
       7
  5
33F
 10
-318.8074152
 20
5.51425087
 30
0.0
  0
VERTEX
  8
0
  6
CONTINUOUS
 62
       7
  5
340
 10
-319.15342232
 20
4.77424319
 30
0.0
  0
VERTEX
  8
0
  6
CONTINUOUS
 62
       7
  5
341
 10
-319.2874152
 20
3.9675842
 30
0.0
  0
VERTEX
  8
0
  6
CONTINUOUS
 62
       7
  5
342
 10
-319.1534213
 20
3.16919944
 30
0.0
  0
VERTEX
  8
0
  6
CONTINUOUS
 62
       7
  5
343
 10
-318.8074152
 20
2.43425087
 30
0.0
  0
SEQEND
  8
0
  6
CONTINUOUS
 62
       7
  5
344
  0
POLYLINE
  8
0
  6
CONTINUOUS
 62
       7
  5
243
 66
       1
 10
0.0
 20
0.0
 30
0.0
  0
VERTEX
  8
0
  6
CONTINUOUS
 62
       7
  5
345
 10
-318.8074152
 20
-3.72574913
 30
0.0
  0
VERTEX
  8
0
  6
CONTINUOUS
 62
       7
  5
346
 10
-319.15341937
 20
-4.46229609
 30
0.0
  0
VERTEX
  8
0
  6
CONTINUOUS
 62
       7
  5
347
 10
-319.2874152
 20
-5.25908247
 30
0.0
  0
VERTEX
  8
0
  6
CONTINUOUS
 62
       7
  5
348
 10
-319.15341835
 20
-6.06413223
 30
0.0
  0
VERTEX
  8
0
  6
CONTINUOUS
 62
       7
  5
349
 10
-318.8074152
 20
-6.80574913
 30
0.0
  0
SEQEND
  8
0
  6
CONTINUOUS
 62
       7
  5
34A
  0
POLYLINE
  8
0
  6
CONTINUOUS
 62
       7
  5
244
 66
       1
 10
0.0
 20
0.0
 30
0.0
  0
VERTEX
  8
0
  6
CONTINUOUS
 62
       7
  5
34B
 10
-318.8074152
 20
2.43425087
 30
0.0
  0
VERTEX
  8
0
  6
CONTINUOUS
 62
       7
  5
34C
 10
-319.01192837
 20
1.68115628
 30
0.0
  0
VERTEX
  8
0
  6
CONTINUOUS
 62
       7
  5
34D
 10
-319.16253747
 20
0.91348525
 30
0.0
  0
VERTEX
  8
0
  6
CONTINUOUS
 62
       7
  5
34E
 10
-319.25558543
 20
0.13619703
 30
0.0
  0
VERTEX
  8
0
  6
CONTINUOUS
 62
       7
  5
34F
 10
-319.2874152
 20
-0.64574913
 30
0.0
  0
VERTEX
  8
0
  6
CONTINUOUS
 62
       7
  5
350
 10
-319.25558642
 20
-1.42769553
 30
0.0
  0
VERTEX
  8
0
  6
CONTINUOUS
 62
       7
  5
351
 10
-319.1625368
 20
-2.20498413
 30
0.0
  0
VERTEX
  8
0
  6
CONTINUOUS
 62
       7
  5
352
 10
-319.01192638
 20
-2.97265523
 30
0.0
  0
VERTEX
  8
0
  6
CONTINUOUS
 62
       7
  5
353
 10
-318.8074152
 20
-3.72574913
 30
0.0
  0
SEQEND
  8
0
  6
CONTINUOUS
 62
       7
  5
354
  0
LINE
  8
0
  6
CONTINUOUS
 62
       7
  5
245
 10
-49.48408186
 20
20.15425087
 30
0.0
 11
-33.99074853
 21
20.15425087
 31
0.0
  0
LINE
  8
0
  6
CONTINUOUS
 62
       7
  5
246
 10
-49.48408186
 20
20.15425087
 30
0.0
 11
-49.48408186
 21
-21.44574913
 31
0.0
  0
LINE
  8
0
  6
CONTINUOUS
 62
       7
  5
247
 10
-51.48408186
 20
20.15425087
 30
0.0
 11
-51.48408186
 21
-21.44574913
 31
0.0
  0
LINE
  8
0
  6
CONTINUOUS
 62
       7
  5
248
 10
199.51925147
 20
4.62091753
 30
0.0
 11
208.76606439
 21
4.62091753
 31
0.0
  0
POLYLINE
  8
0
  6
CONTINUOUS
 62
       7
  5
249
 66
       1
 10
0.0
 20
0.0
 30
0.0
  0
VERTEX
  8
0
  6
CONTINUOUS
 62
       7
  5
355
 10
207.51925147
 20
27.4875842
 30
0.0
  0
VERTEX
  8
0
  6
CONTINUOUS
 62
       7
  5
356
 10
208.01347677
 20
26.89251085
 30
0.0
  0
VERTEX
  8
0
  6
CONTINUOUS
 62
       7
  5
357
 10
208.37747536
 20
26.20613176
 30
0.0
  0
VERTEX
  8
0
  6
CONTINUOUS
 62
       7
  5
358
 10
208.51925147
 20
25.47425087
 30
0.0
  0
VERTEX
  8
0
  6
CONTINUOUS
 62
       7
  5
359
 10
208.37747512
 20
24.73716637
 30
0.0
  0
VERTEX
  8
0
  6
CONTINUOUS
 62
       7
  5
35A
 10
208.0134768
 20
24.04524077
 30
0.0
  0
VERTEX
  8
0
  6
CONTINUOUS
 62
       7
  5
35B
 10
207.51925147
 20
23.4475842
 30
0.0
  0
SEQEND
  8
0
  6
CONTINUOUS
 62
       7
  5
35C
  0
POLYLINE
  8
0
  6
CONTINUOUS
 62
       7
  5
24A
 66
       1
 10
0.0
 20
0.0
 30
0.0
  0
VERTEX
  8
0
  6
CONTINUOUS
 62
       7
  5
35D
 10
198.71925147
 20
23.4475842
 30
0.0
  0
VERTEX
  8
0
  6
CONTINUOUS
 62
       7
  5
35E
 10
197.82478008
 20
23.98530558
 30
0.0
  0
VERTEX
  8
0
  6
CONTINUOUS
 62
       7
  5
35F
 10
197.0497935
 20
24.68851054
 30
0.0
  0
VERTEX
  8
0
  6
CONTINUOUS
 62
       7
  5
360
 10
196.71925147
 20
25.47425087
 30
0.0
  0
VERTEX
  8
0
  6
CONTINUOUS
 62
       7
  5
361
 10
197.04979354
 20
26.25535229
 30
0.0
  0
VERTEX
  8
0
  6
CONTINUOUS
 62
       7
  5
362
 10
197.82477995
 20
26.95272869
 30
0.0
  0
VERTEX
  8
0
  6
CONTINUOUS
 62
       7
  5
363
 10
198.71925147
 20
27.4875842
 30
0.0
  0
SEQEND
  8
0
  6
CONTINUOUS
 62
       7
  5
364
  0
POLYLINE
  8
0
  6
CONTINUOUS
 62
       7
  5
24B
 66
       1
 10
0.0
 20
0.0
 30
0.0
  0
VERTEX
  8
0
  6
CONTINUOUS
 62
       7
  5
365
 10
198.71925147
 20
35.5675842
 30
0.0
  0
VERTEX
  8
0
  6
CONTINUOUS
 62
       7
  5
366
 10
197.82478002
 20
36.10530544
 30
0.0
  0
VERTEX
  8
0
  6
CONTINUOUS
 62
       7
  5
367
 10
197.04979342
 20
36.80851019
 30
0.0
  0
VERTEX
  8
0
  6
CONTINUOUS
 62
       7
  5
368
 10
196.71925147
 20
37.59425087
 30
0.0
  0
VERTEX
  8
0
  6
CONTINUOUS
 62
       7
  5
369
 10
197.04979369
 20
38.37535271
 30
0.0
  0
VERTEX
  8
0
  6
CONTINUOUS
 62
       7
  5
36A
 10
197.82478015
 20
39.07272898
 30
0.0
  0
VERTEX
  8
0
  6
CONTINUOUS
 62
       7
  5
36B
 10
198.71925147
 20
39.6075842
 30
0.0
  0
SEQEND
  8
0
  6
CONTINUOUS
 62
       7
  5
36C
  0
POLYLINE
  8
0
  6
CONTINUOUS
 62
       7
  5
24C
 66
       1
 10
0.0
 20
0.0
 30
0.0
  0
VERTEX
  8
0
  6
CONTINUOUS
 62
       7
  5
36D
 10
207.51925147
 20
39.6075842
 30
0.0
  0
VERTEX
  8
0
  6
CONTINUOUS
 62
       7
  5
36E
 10
208.01347672
 20
39.01250925
 30
0.0
  0
VERTEX
  8
0
  6
CONTINUOUS
 62
       7
  5
36F
 10
208.3774753
 20
38.32612839
 30
0.0
  0
VERTEX
  8
0
  6
CONTINUOUS
 62
       7
  5
370
 10
208.51925147
 20
37.59425087
 30
0.0
  0
VERTEX
  8
0
  6
CONTINUOUS
 62
       7
  5
371
 10
208.37747513
 20
36.85716977
 30
0.0
  0
VERTEX
  8
0
  6
CONTINUOUS
 62
       7
  5
372
 10
208.01347675
 20
36.16524242
 30
0.0
  0
VERTEX
  8
0
  6
CONTINUOUS
 62
       7
  5
373
 10
207.51925147
 20
35.5675842
 30
0.0
  0
SEQEND
  8
0
  6
CONTINUOUS
 62
       7
  5
374
  0
POLYLINE
  8
0
  6
CONTINUOUS
 62
       7
  5
24D
 66
       1
 10
0.0
 20
0.0
 30
0.0
  0
VERTEX
  8
0
  6
CONTINUOUS
 62
       7
  5
375
 10
198.71925147
 20
27.4875842
 30
0.0
  0
VERTEX
  8
0
  6
CONTINUOUS
 62
       7
  5
376
 10
198.10523017
 20
28.17526211
 30
0.0
  0
VERTEX
  8
0
  6
CONTINUOUS
 62
       7
  5
377
 10
197.5584774
 20
28.9430384
 30
0.0
  0
VERTEX
  8
0
  6
CONTINUOUS
 62
       7
  5
378
 10
197.11873529
 20
29.77097573
 30
0.0
  0
VERTEX
  8
0
  6
CONTINUOUS
 62
       7
  5
379
 10
196.82574594
 20
30.63913677
 30
0.0
  0
VERTEX
  8
0
  6
CONTINUOUS
 62
       7
  5
37A
 10
196.71925147
 20
31.5275842
 30
0.0
  0
VERTEX
  8
0
  6
CONTINUOUS
 62
       7
  5
37B
 10
196.82574629
 20
32.41603171
 30
0.0
  0
VERTEX
  8
0
  6
CONTINUOUS
 62
       7
  5
37C
 10
197.11873551
 20
33.2841929
 30
0.0
  0
VERTEX
  8
0
  6
CONTINUOUS
 62
       7
  5
37D
 10
197.55847733
 20
34.11213033
 30
0.0
  0
VERTEX
  8
0
  6
CONTINUOUS
 62
       7
  5
37E
 10
198.10522992
 20
34.87990658
 30
0.0
  0
VERTEX
  8
0
  6
CONTINUOUS
 62
       7
  5
37F
 10
198.71925147
 20
35.5675842
 30
0.0
  0
SEQEND
  8
0
  6
CONTINUOUS
 62
       7
  5
380
  0
POLYLINE
  8
0
  6
CONTINUOUS
 62
       7
  5
24E
 66
       1
 10
0.0
 20
0.0
 30
0.0
  0
VERTEX
  8
0
  6
CONTINUOUS
 62
       7
  5
381
 10
207.51925147
 20
35.5675842
 30
0.0
  0
VERTEX
  8
0
  6
CONTINUOUS
 62
       7
  5
382
 10
207.85961277
 20
34.80408868
 30
0.0
  0
VERTEX
  8
0
  6
CONTINUOUS
 62
       7
  5
383
 10
208.13715803
 20
34.01103862
 30
0.0
  0
VERTEX
  8
0
  6
CONTINUOUS
 62
       7
  5
384
 10
208.34452265
 20
33.19573631
 30
0.0
  0
VERTEX
  8
0
  6
CONTINUOUS
 62
       7
  5
385
 10
208.474342
 20
32.36548407
 30
0.0
  0
VERTEX
  8
0
  6
CONTINUOUS
 62
       7
  5
386
 10
208.51925147
 20
31.5275842
 30
0.0
  0
VERTEX
  8
0
  6
CONTINUOUS
 62
       7
  5
387
 10
208.47434165
 20
30.68968426
 30
0.0
  0
VERTEX
  8
0
  6
CONTINUOUS
 62
       7
  5
388
 10
208.34452241
 20
29.85943187
 30
0.0
  0
VERTEX
  8
0
  6
CONTINUOUS
 62
       7
  5
389
 10
208.13715809
 20
29.04412946
 30
0.0
  0
VERTEX
  8
0
  6
CONTINUOUS
 62
       7
  5
38A
 10
207.859613
 20
28.25107943
 30
0.0
  0
VERTEX
  8
0
  6
CONTINUOUS
 62
       7
  5
38B
 10
207.51925147
 20
27.4875842
 30
0.0
  0
SEQEND
  8
0
  6
CONTINUOUS
 62
       7
  5
38C
  0
POLYLINE
  8
0
  6
CONTINUOUS
 62
       7
  5
24F
 66
       1
 10
0.0
 20
0.0
 30
0.0
  0
VERTEX
  8
0
  6
CONTINUOUS
 62
       7
  5
38D
 10
-49.48408186
 20
27.4875842
 30
0.0
  0
VERTEX
  8
0
  6
CONTINUOUS
 62
       7
  5
38E
 10
-49.97830717
 20
26.89250955
 30
0.0
  0
VERTEX
  8
0
  6
CONTINUOUS
 62
       7
  5
38F
 10
-50.34230575
 20
26.20612916
 30
0.0
  0
VERTEX
  8
0
  6
CONTINUOUS
 62
       7
  5
390
 10
-50.48408186
 20
25.47425087
 30
0.0
  0
VERTEX
  8
0
  6
CONTINUOUS
 62
       7
  5
391
 10
-50.34230552
 20
24.73716899
 30
0.0
  0
VERTEX
  8
0
  6
CONTINUOUS
 62
       7
  5
392
 10
-49.97830721
 20
24.0452421
 30
0.0
  0
VERTEX
  8
0
  6
CONTINUOUS
 62
       7
  5
393
 10
-49.48408186
 20
23.4475842
 30
0.0
  0
SEQEND
  8
0
  6
CONTINUOUS
 62
       7
  5
394
  0
POLYLINE
  8
0
  6
CONTINUOUS
 62
       7
  5
250
 66
       1
 10
0.0
 20
0.0
 30
0.0
  0
VERTEX
  8
0
  6
CONTINUOUS
 62
       7
  5
395
 10
-40.6974152
 20
23.4475842
 30
0.0
  0
VERTEX
  8
0
  6
CONTINUOUS
 62
       7
  5
396
 10
-39.80294381
 20
23.98530558
 30
0.0
  0
VERTEX
  8
0
  6
CONTINUOUS
 62
       7
  5
397
 10
-39.02795723
 20
24.68851054
 30
0.0
  0
VERTEX
  8
0
  6
CONTINUOUS
 62
       7
  5
398
 10
-38.6974152
 20
25.47425087
 30
0.0
  0
VERTEX
  8
0
  6
CONTINUOUS
 62
       7
  5
399
 10
-39.02795726
 20
26.25535229
 30
0.0
  0
VERTEX
  8
0
  6
CONTINUOUS
 62
       7
  5
39A
 10
-39.80294368
 20
26.95272869
 30
0.0
  0
VERTEX
  8
0
  6
CONTINUOUS
 62
       7
  5
39B
 10
-40.6974152
 20
27.4875842
 30
0.0
  0
SEQEND
  8
0
  6
CONTINUOUS
 62
       7
  5
39C
  0
POLYLINE
  8
0
  6
CONTINUOUS
 62
       7
  5
251
 66
       1
 10
0.0
 20
0.0
 30
0.0
  0
VERTEX
  8
0
  6
CONTINUOUS
 62
       7
  5
39D
 10
-40.6974152
 20
35.5675842
 30
0.0
  0
VERTEX
  8
0
  6
CONTINUOUS
 62
       7
  5
39E
 10
-39.80294375
 20
36.10530544
 30
0.0
  0
VERTEX
  8
0
  6
CONTINUOUS
 62
       7
  5
39F
 10
-39.02795715
 20
36.80851019
 30
0.0
  0
VERTEX
  8
0
  6
CONTINUOUS
 62
       7
  5
3A0
 10
-38.6974152
 20
37.59425087
 30
0.0
  0
VERTEX
  8
0
  6
CONTINUOUS
 62
       7
  5
3A1
 10
-39.02795742
 20
38.37535271
 30
0.0
  0
VERTEX
  8
0
  6
CONTINUOUS
 62
       7
  5
3A2
 10
-39.80294388
 20
39.07272898
 30
0.0
  0
VERTEX
  8
0
  6
CONTINUOUS
 62
       7
  5
3A3
 10
-40.6974152
 20
39.6075842
 30
0.0
  0
SEQEND
  8
0
  6
CONTINUOUS
 62
       7
  5
3A4
  0
POLYLINE
  8
0
  6
CONTINUOUS
 62
       7
  5
252
 66
       1
 10
0.0
 20
0.0
 30
0.0
  0
VERTEX
  8
0
  6
CONTINUOUS
 62
       7
  5
3A5
 10
-49.48408186
 20
39.6075842
 30
0.0
  0
VERTEX
  8
0
  6
CONTINUOUS
 62
       7
  5
3A6
 10
-49.97830711
 20
39.01250925
 30
0.0
  0
VERTEX
  8
0
  6
CONTINUOUS
 62
       7
  5
3A7
 10
-50.3423057
 20
38.32612839
 30
0.0
  0
VERTEX
  8
0
  6
CONTINUOUS
 62
       7
  5
3A8
 10
-50.48408186
 20
37.59425087
 30
0.0
  0
VERTEX
  8
0
  6
CONTINUOUS
 62
       7
  5
3A9
 10
-50.34230552
 20
36.85716977
 30
0.0
  0
VERTEX
  8
0
  6
CONTINUOUS
 62
       7
  5
3AA
 10
-49.97830715
 20
36.16524242
 30
0.0
  0
VERTEX
  8
0
  6
CONTINUOUS
 62
       7
  5
3AB
 10
-49.48408186
 20
35.5675842
 30
0.0
  0
SEQEND
  8
0
  6
CONTINUOUS
 62
       7
  5
3AC
  0
POLYLINE
  8
0
  6
CONTINUOUS
 62
       7
  5
253
 66
       1
 10
0.0
 20
0.0
 30
0.0
  0
VERTEX
  8
0
  6
CONTINUOUS
 62
       7
  5
3AD
 10
-40.6974152
 20
27.4875842
 30
0.0
  0
VERTEX
  8
0
  6
CONTINUOUS
 62
       7
  5
3AE
 10
-40.0833939
 20
28.17526211
 30
0.0
  0
VERTEX
  8
0
  6
CONTINUOUS
 62
       7
  5
3AF
 10
-39.53664113
 20
28.9430384
 30
0.0
  0
VERTEX
  8
0
  6
CONTINUOUS
 62
       7
  5
3B0
 10
-39.09689902
 20
29.77097573
 30
0.0
  0
VERTEX
  8
0
  6
CONTINUOUS
 62
       7
  5
3B1
 10
-38.80390967
 20
30.63913677
 30
0.0
  0
VERTEX
  8
0
  6
CONTINUOUS
 62
       7
  5
3B2
 10
-38.6974152
 20
31.5275842
 30
0.0
  0
VERTEX
  8
0
  6
CONTINUOUS
 62
       7
  5
3B3
 10
-38.80391002
 20
32.41603171
 30
0.0
  0
VERTEX
  8
0
  6
CONTINUOUS
 62
       7
  5
3B4
 10
-39.09689924
 20
33.2841929
 30
0.0
  0
VERTEX
  8
0
  6
CONTINUOUS
 62
       7
  5
3B5
 10
-39.53664106
 20
34.11213033
 30
0.0
  0
VERTEX
  8
0
  6
CONTINUOUS
 62
       7
  5
3B6
 10
-40.08339365
 20
34.87990658
 30
0.0
  0
VERTEX
  8
0
  6
CONTINUOUS
 62
       7
  5
3B7
 10
-40.6974152
 20
35.5675842
 30
0.0
  0
SEQEND
  8
0
  6
CONTINUOUS
 62
       7
  5
3B8
  0
POLYLINE
  8
0
  6
CONTINUOUS
 62
       7
  5
254
 66
       1
 10
0.0
 20
0.0
 30
0.0
  0
VERTEX
  8
0
  6
CONTINUOUS
 62
       7
  5
3B9
 10
-49.48408186
 20
35.5675842
 30
0.0
  0
VERTEX
  8
0
  6
CONTINUOUS
 62
       7
  5
3BA
 10
-49.82444316
 20
34.80408868
 30
0.0
  0
VERTEX
  8
0
  6
CONTINUOUS
 62
       7
  5
3BB
 10
-50.10198843
 20
34.01103862
 30
0.0
  0
VERTEX
  8
0
  6
CONTINUOUS
 62
       7
  5
3BC
 10
-50.30935304
 20
33.19573631
 30
0.0
  0
VERTEX
  8
0
  6
CONTINUOUS
 62
       7
  5
3BD
 10
-50.43917239
 20
32.36548407
 30
0.0
  0
VERTEX
  8
0
  6
CONTINUOUS
 62
       7
  5
3BE
 10
-50.48408186
 20
31.5275842
 30
0.0
  0
VERTEX
  8
0
  6
CONTINUOUS
 62
       7
  5
3BF
 10
-50.43917204
 20
30.68968426
 30
0.0
  0
VERTEX
  8
0
  6
CONTINUOUS
 62
       7
  5
3C0
 10
-50.30935281
 20
29.85943187
 30
0.0
  0
VERTEX
  8
0
  6
CONTINUOUS
 62
       7
  5
3C1
 10
-50.10198848
 20
29.04412946
 30
0.0
  0
VERTEX
  8
0
  6
CONTINUOUS
 62
       7
  5
3C2
 10
-49.82444339
 20
28.25107943
 30
0.0
  0
VERTEX
  8
0
  6
CONTINUOUS
 62
       7
  5
3C3
 10
-49.48408186
 20
27.4875842
 30
0.0
  0
SEQEND
  8
0
  6
CONTINUOUS
 62
       7
  5
3C4
  0
POLYLINE
  8
0
  6
CONTINUOUS
 62
       7
  5
255
 66
       1
 10
0.0
 20
0.0
 30
0.0
  0
VERTEX
  8
0
  6
CONTINUOUS
 62
       7
  5
3C5
 10
248.0125848
 20
20.35425087
 30
0.0
  0
VERTEX
  8
0
  6
CONTINUOUS
 62
       7
  5
3C6
 10
247.14034239
 20
20.14829142
 30
0.0
  0
VERTEX
  8
0
  6
CONTINUOUS
 62
       7
  5
3C7
 10
246.26222459
 20
19.96518713
 30
0.0
  0
VERTEX
  8
0
  6
CONTINUOUS
 62
       7
  5
3C8
 10
245.37896589
 20
19.80530524
 30
0.0
  0
VERTEX
  8
0
  6
CONTINUOUS
 62
       7
  5
3C9
 10
244.49130074
 20
19.66901302
 30
0.0
  0
VERTEX
  8
0
  6
CONTINUOUS
 62
       7
  5
3CA
 10
243.59996363
 20
19.55667772
 30
0.0
  0
VERTEX
  8
0
  6
CONTINUOUS
 62
       7
  5
3CB
 10
242.705689
 20
19.46866659
 30
0.0
  0
VERTEX
  8
0
  6
CONTINUOUS
 62
       7
  5
3CC
 10
241.80921135
 20
19.40534691
 30
0.0
  0
VERTEX
  8
0
  6
CONTINUOUS
 62
       7
  5
3CD
 10
240.91126512
 20
19.36708591
 30
0.0
  0
VERTEX
  8
0
  6
CONTINUOUS
 62
       7
  5
3CE
 10
240.0125848
 20
19.35425087
 30
0.0
  0
VERTEX
  8
0
  6
CONTINUOUS
 62
       7
  5
3CF
 10
239.11390446
 20
19.3670864
 30
0.0
  0
VERTEX
  8
0
  6
CONTINUOUS
 62
       7
  5
3D0
 10
238.2159582
 20
19.40534752
 30
0.0
  0
VERTEX
  8
0
  6
CONTINUOUS
 62
       7
  5
3D1
 10
237.31948048
 20
19.46866707
 30
0.0
  0
VERTEX
  8
0
  6
CONTINUOUS
 62
       7
  5
3D2
 10
236.4252058
 20
19.55667791
 30
0.0
  0
VERTEX
  8
0
  6
CONTINUOUS
 62
       7
  5
3D3
 10
235.53386863
 20
19.66901287
 30
0.0
  0
VERTEX
  8
0
  6
CONTINUOUS
 62
       7
  5
3D4
 10
234.64620347
 20
19.80530481
 30
0.0
  0
VERTEX
  8
0
  6
CONTINUOUS
 62
       7
  5
3D5
 10
233.76294479
 20
19.96518655
 30
0.0
  0
VERTEX
  8
0
  6
CONTINUOUS
 62
       7
  5
3D6
 10
232.88482707
 20
20.14829096
 30
0.0
  0
VERTEX
  8
0
  6
CONTINUOUS
 62
       7
  5
3D7
 10
232.0125848
 20
20.35425087
 30
0.0
  0
SEQEND
  8
0
  6
CONTINUOUS
 62
       7
  5
3D8
  0
POLYLINE
  8
0
  6
CONTINUOUS
 62
       7
  5
256
 66
       1
 10
0.0
 20
0.0
 30
0.0
  0
VERTEX
  8
0
  6
CONTINUOUS
 62
       7
  5
3D9
 10
248.0125848
 20
-21.64574913
 30
0.0
  0
VERTEX
  8
0
  6
CONTINUOUS
 62
       7
  5
3DA
 10
247.14034249
 20
-21.43978921
 30
0.0
  0
VERTEX
  8
0
  6
CONTINUOUS
 62
       7
  5
3DB
 10
246.26222469
 20
-21.25668479
 30
0.0
  0
VERTEX
  8
0
  6
CONTINUOUS
 62
       7
  5
3DC
 10
245.37896591
 20
-21.09680305
 30
0.0
  0
VERTEX
  8
0
  6
CONTINUOUS
 62
       7
  5
3DD
 10
244.49130066
 20
-20.96051112
 30
0.0
  0
VERTEX
  8
0
  6
CONTINUOUS
 62
       7
  5
3DE
 10
243.59996343
 20
-20.84817616
 30
0.0
  0
VERTEX
  8
0
  6
CONTINUOUS
 62
       7
  5
3DF
 10
242.70568873
 20
-20.76016533
 30
0.0
  0
VERTEX
  8
0
  6
CONTINUOUS
 62
       7
  5
3E0
 10
241.80921106
 20
-20.69684578
 30
0.0
  0
VERTEX
  8
0
  6
CONTINUOUS
 62
       7
  5
3E1
 10
240.91126491
 20
-20.65858466
 30
0.0
  0
VERTEX
  8
0
  6
CONTINUOUS
 62
       7
  5
3E2
 10
240.0125848
 20
-20.64574913
 30
0.0
  0
VERTEX
  8
0
  6
CONTINUOUS
 62
       7
  5
3E3
 10
239.1139047
 20
-20.65858418
 30
0.0
  0
VERTEX
  8
0
  6
CONTINUOUS
 62
       7
  5
3E4
 10
238.21595859
 20
-20.69684518
 30
0.0
  0
VERTEX
  8
0
  6
CONTINUOUS
 62
       7
  5
3E5
 10
237.31948096
 20
-20.76016488
 30
0.0
  0
VERTEX
  8
0
  6
CONTINUOUS
 62
       7
  5
3E6
 10
236.4252063
 20
-20.84817601
 30
0.0
  0
VERTEX
  8
0
  6
CONTINUOUS
 62
       7
  5
3E7
 10
235.5338691
 20
-20.96051132
 30
0.0
  0
VERTEX
  8
0
  6
CONTINUOUS
 62
       7
  5
3E8
 10
234.64620386
 20
-21.09680355
 30
0.0
  0
VERTEX
  8
0
  6
CONTINUOUS
 62
       7
  5
3E9
 10
233.76294507
 20
-21.25668543
 30
0.0
  0
VERTEX
  8
0
  6
CONTINUOUS
 62
       7
  5
3EA
 10
232.88482722
 20
-21.43978971
 30
0.0
  0
VERTEX
  8
0
  6
CONTINUOUS
 62
       7
  5
3EB
 10
232.0125848
 20
-21.64574913
 30
0.0
  0
SEQEND
  8
0
  6
CONTINUOUS
 62
       7
  5
3EC
  0
POLYLINE
  8
0
  6
CONTINUOUS
 62
       7
  5
257
 66
       1
 10
0.0
 20
0.0
 30
0.0
  0
VERTEX
  8
0
  6
CONTINUOUS
 62
       7
  5
3ED
 10
-76.64408186
 20
11.19425087
 30
0.0
  0
VERTEX
  8
0
  6
CONTINUOUS
 62
       7
  5
3EE
 10
-76.92816509
 20
10.23672654
 30
0.0
  0
VERTEX
  8
0
  6
CONTINUOUS
 62
       7
  5
3EF
 10
-77.19009638
 20
9.27152157
 30
0.0
  0
VERTEX
  8
0
  6
CONTINUOUS
 62
       7
  5
3F0
 10
-77.4293895
 20
8.29935058
 30
0.0
  0
VERTEX
  8
0
  6
CONTINUOUS
 62
       7
  5
3F1
 10
-77.64555822
 20
7.32092818
 30
0.0
  0
VERTEX
  8
0
  6
CONTINUOUS
 62
       7
  5
3F2
 10
-77.83811631
 20
6.33696896
 30
0.0
  0
VERTEX
  8
0
  6
CONTINUOUS
 62
       7
  5
3F3
 10
-78.00657754
 20
5.34818755
 30
0.0
  0
VERTEX
  8
0
  6
CONTINUOUS
 62
       7
  5
3F4
 10
-78.15045567
 20
4.35529854
 30
0.0
  0
VERTEX
  8
0
  6
CONTINUOUS
 62
       7
  5
3F5
 10
-78.26926448
 20
3.35901654
 30
0.0
  0
VERTEX
  8
0
  6
CONTINUOUS
 62
       7
  5
3F6
 10
-78.36251774
 20
2.36005617
 30
0.0
  0
VERTEX
  8
0
  6
CONTINUOUS
 62
       7
  5
3F7
 10
-78.42972921
 20
1.35913203
 30
0.0
  0
VERTEX
  8
0
  6
CONTINUOUS
 62
       7
  5
3F8
 10
-78.47041266
 20
0.35695873
 30
0.0
  0
VERTEX
  8
0
  6
CONTINUOUS
 62
       7
  5
3F9
 10
-78.48408186
 20
-0.64574913
 30
0.0
  0
VERTEX
  8
0
  6
CONTINUOUS
 62
       7
  5
3FA
 10
-78.47041266
 20
-1.64845699
 30
0.0
  0
VERTEX
  8
0
  6
CONTINUOUS
 62
       7
  5
3FB
 10
-78.42972921
 20
-2.65063029
 30
0.0
  0
VERTEX
  8
0
  6
CONTINUOUS
 62
       7
  5
3FC
 10
-78.36251775
 20
-3.65155444
 30
0.0
  0
VERTEX
  8
0
  6
CONTINUOUS
 62
       7
  5
3FD
 10
-78.26926449
 20
-4.65051481
 30
0.0
  0
VERTEX
  8
0
  6
CONTINUOUS
 62
       7
  5
3FE
 10
-78.15045568
 20
-5.6467968
 30
0.0
  0
VERTEX
  8
0
  6
CONTINUOUS
 62
       7
  5
3FF
 10
-78.00657754
 20
-6.63968581
 30
0.0
  0
VERTEX
  8
0
  6
CONTINUOUS
 62
       7
  5
400
 10
-77.83811631
 20
-7.62846723
 30
0.0
  0
VERTEX
  8
0
  6
CONTINUOUS
 62
       7
  5
401
 10
-77.64555822
 20
-8.61242644
 30
0.0
  0
VERTEX
  8
0
  6
CONTINUOUS
 62
       7
  5
402
 10
-77.4293895
 20
-9.59084885
 30
0.0
  0
VERTEX
  8
0
  6
CONTINUOUS
 62
       7
  5
403
 10
-77.19009638
 20
-10.56301984
 30
0.0
  0
VERTEX
  8
0
  6
CONTINUOUS
 62
       7
  5
404
 10
-76.92816509
 20
-11.5282248
 30
0.0
  0
VERTEX
  8
0
  6
CONTINUOUS
 62
       7
  5
405
 10
-76.64408186
 20
-12.48574913
 30
0.0
  0
SEQEND
  8
0
  6
CONTINUOUS
 62
       7
  5
406
  0
POLYLINE
  8
0
  6
CONTINUOUS
 62
       7
  5
258
 66
       1
 10
0.0
 20
0.0
 30
0.0
  0
VERTEX
  8
0
  6
CONTINUOUS
 62
       7
  5
407
 10
-76.64408186
 20
23.02091753
 30
0.0
  0
VERTEX
  8
0
  6
CONTINUOUS
 62
       7
  5
408
 10
-77.08812487
 20
22.24983498
 30
0.0
  0
VERTEX
  8
0
  6
CONTINUOUS
 62
       7
  5
409
 10
-77.48402821
 20
21.4453097
 30
0.0
  0
VERTEX
  8
0
  6
CONTINUOUS
 62
       7
  5
40A
 10
-77.8244385
 20
20.61286195
 30
0.0
  0
VERTEX
  8
0
  6
CONTINUOUS
 62
       7
  5
40B
 10
-78.10200239
 20
19.75801196
 30
0.0
  0
VERTEX
  8
0
  6
CONTINUOUS
 62
       7
  5
40C
 10
-78.30936649
 20
18.88627996
 30
0.0
  0
VERTEX
  8
0
  6
CONTINUOUS
 62
       7
  5
40D
 10
-78.43917744
 20
18.00318618
 30
0.0
  0
VERTEX
  8
0
  6
CONTINUOUS
 62
       7
  5
40E
 10
-78.48408186
 20
17.11425087
 30
0.0
  0
VERTEX
  8
0
  6
CONTINUOUS
 62
       7
  5
40F
 10
-78.43917751
 20
16.22323137
 30
0.0
  0
VERTEX
  8
0
  6
CONTINUOUS
 62
       7
  5
410
 10
-78.30936662
 20
15.33770957
 30
0.0
  0
VERTEX
  8
0
  6
CONTINUOUS
 62
       7
  5
411
 10
-78.10200255
 20
14.46344789
 30
0.0
  0
VERTEX
  8
0
  6
CONTINUOUS
 62
       7
  5
412
 10
-77.82443867
 20
13.60620875
 30
0.0
  0
VERTEX
  8
0
  6
CONTINUOUS
 62
       7
  5
413
 10
-77.48402835
 20
12.77175459
 30
0.0
  0
VERTEX
  8
0
  6
CONTINUOUS
 62
       7
  5
414
 10
-77.08812496
 20
11.96584782
 30
0.0
  0
VERTEX
  8
0
  6
CONTINUOUS
 62
       7
  5
415
 10
-76.64408186
 20
11.19425087
 30
0.0
  0
SEQEND
  8
0
  6
CONTINUOUS
 62
       7
  5
416
  0
POLYLINE
  8
0
  6
CONTINUOUS
 62
       7
  5
259
 66
       1
 10
0.0
 20
0.0
 30
0.0
  0
VERTEX
  8
0
  6
CONTINUOUS
 62
       7
  5
417
 10
-76.64408186
 20
-12.48574913
 30
0.0
  0
VERTEX
  8
0
  6
CONTINUOUS
 62
       7
  5
418
 10
-77.08812496
 20
-13.25683168
 30
0.0
  0
VERTEX
  8
0
  6
CONTINUOUS
 62
       7
  5
419
 10
-77.48402835
 20
-14.06135677
 30
0.0
  0
VERTEX
  8
0
  6
CONTINUOUS
 62
       7
  5
41A
 10
-77.82443866
 20
-14.89380428
 30
0.0
  0
VERTEX
  8
0
  6
CONTINUOUS
 62
       7
  5
41B
 10
-78.10200254
 20
-15.74865407
 30
0.0
  0
VERTEX
  8
0
  6
CONTINUOUS
 62
       7
  5
41C
 10
-78.30936661
 20
-16.62038601
 30
0.0
  0
VERTEX
  8
0
  6
CONTINUOUS
 62
       7
  5
41D
 10
-78.43917751
 20
-17.50347996
 30
0.0
  0
VERTEX
  8
0
  6
CONTINUOUS
 62
       7
  5
41E
 10
-78.48408186
 20
-18.3924158
 30
0.0
  0
VERTEX
  8
0
  6
CONTINUOUS
 62
       7
  5
41F
 10
-78.43917744
 20
-19.28343585
 30
0.0
  0
VERTEX
  8
0
  6
CONTINUOUS
 62
       7
  5
420
 10
-78.3093665
 20
-20.16895789
 30
0.0
  0
VERTEX
  8
0
  6
CONTINUOUS
 62
       7
  5
421
 10
-78.1020024
 20
-21.04321959
 30
0.0
  0
VERTEX
  8
0
  6
CONTINUOUS
 62
       7
  5
422
 10
-77.82443852
 20
-21.90045857
 30
0.0
  0
VERTEX
  8
0
  6
CONTINUOUS
 62
       7
  5
423
 10
-77.48402822
 20
-22.7349125
 30
0.0
  0
VERTEX
  8
0
  6
CONTINUOUS
 62
       7
  5
424
 10
-77.08812488
 20
-23.54081903
 30
0.0
  0
VERTEX
  8
0
  6
CONTINUOUS
 62
       7
  5
425
 10
-76.64408186
 20
-24.3124158
 30
0.0
  0
SEQEND
  8
0
  6
CONTINUOUS
 62
       7
  5
426
  0
POLYLINE
  8
0
  6
CONTINUOUS
 62
       7
  5
25A
 66
       1
 10
0.0
 20
0.0
 30
0.0
  0
VERTEX
  8
0
  6
CONTINUOUS
 62
       7
  5
427
 10
-190.83408186
 20
4.83425087
 30
0.0
  0
VERTEX
  8
0
  6
CONTINUOUS
 62
       7
  5
428
 10
-190.58198998
 20
3.94373572
 30
0.0
  0
VERTEX
  8
0
  6
CONTINUOUS
 62
       7
  5
429
 10
-190.37327091
 20
3.04106658
 30
0.0
  0
VERTEX
  8
0
  6
CONTINUOUS
 62
       7
  5
42A
 10
-190.20902261
 20
2.1285135
 30
0.0
  0
VERTEX
  8
0
  6
CONTINUOUS
 62
       7
  5
42B
 10
-190.09034303
 20
1.20834649
 30
0.0
  0
VERTEX
  8
0
  6
CONTINUOUS
 62
       7
  5
42C
 10
-190.01833013
 20
0.28283561
 30
0.0
  0
VERTEX
  8
0
  6
CONTINUOUS
 62
       7
  5
42D
 10
-189.99408186
 20
-0.64574913
 30
0.0
  0
VERTEX
  8
0
  6
CONTINUOUS
 62
       7
  5
42E
 10
-190.01833019
 20
-1.57433392
 30
0.0
  0
VERTEX
  8
0
  6
CONTINUOUS
 62
       7
  5
42F
 10
-190.09034313
 20
-2.49984491
 30
0.0
  0
VERTEX
  8
0
  6
CONTINUOUS
 62
       7
  5
430
 10
-190.20902272
 20
-3.42001202
 30
0.0
  0
VERTEX
  8
0
  6
CONTINUOUS
 62
       7
  5
431
 10
-190.37327101
 20
-4.33256516
 30
0.0
  0
VERTEX
  8
0
  6
CONTINUOUS
 62
       7
  5
432
 10
-190.58199004
 20
-5.23523422
 30
0.0
  0
VERTEX
  8
0
  6
CONTINUOUS
 62
       7
  5
433
 10
-190.83408186
 20
-6.12574913
 30
0.0
  0
SEQEND
  8
0
  6
CONTINUOUS
 62
       7
  5
434
  0
POLYLINE
  8
0
  6
CONTINUOUS
 62
       7
  5
25B
 66
       1
 10
0.0
 20
0.0
 30
0.0
  0
VERTEX
  8
0
  6
CONTINUOUS
 62
       7
  5
435
 10
-197.14074853
 20
10.3275842
 30
0.0
  0
VERTEX
  8
0
  6
CONTINUOUS
 62
       7
  5
436
 10
-197.58576978
 20
9.46814174
 30
0.0
  0
VERTEX
  8
0
  6
CONTINUOUS
 62
       7
  5
437
 10
-197.88474064
 20
8.54079668
 30
0.0
  0
VERTEX
  8
0
  6
CONTINUOUS
 62
       7
  5
438
 10
-197.99408186
 20
7.58091753
 30
0.0
  0
VERTEX
  8
0
  6
CONTINUOUS
 62
       7
  5
439
 10
-197.88474064
 20
6.62103841
 30
0.0
  0
VERTEX
  8
0
  6
CONTINUOUS
 62
       7
  5
43A
 10
-197.5857698
 20
5.69369336
 30
0.0
  0
VERTEX
  8
0
  6
CONTINUOUS
 62
       7
  5
43B
 10
-197.14074853
 20
4.83425087
 30
0.0
  0
SEQEND
  8
0
  6
CONTINUOUS
 62
       7
  5
43C
  0
POLYLINE
  8
0
  6
CONTINUOUS
 62
       7
  5
25C
 66
       1
 10
0.0
 20
0.0
 30
0.0
  0
VERTEX
  8
0
  6
CONTINUOUS
 62
       7
  5
43D
 10
-197.14074853
 20
4.83425087
 30
0.0
  0
VERTEX
  8
0
  6
CONTINUOUS
 62
       7
  5
43E
 10
-197.39382766
 20
3.94373575
 30
0.0
  0
VERTEX
  8
0
  6
CONTINUOUS
 62
       7
  5
43F
 10
-197.60501575
 20
3.04106681
 30
0.0
  0
VERTEX
  8
0
  6
CONTINUOUS
 62
       7
  5
440
 10
-197.77247401
 20
2.12851395
 30
0.0
  0
VERTEX
  8
0
  6
CONTINUOUS
 62
       7
  5
441
 10
-197.89436365
 20
1.20834708
 30
0.0
  0
VERTEX
  8
0
  6
CONTINUOUS
 62
       7
  5
442
 10
-197.96884586
 20
0.28283608
 30
0.0
  0
VERTEX
  8
0
  6
CONTINUOUS
 62
       7
  5
443
 10
-197.99408186
 20
-0.64574913
 30
0.0
  0
VERTEX
  8
0
  6
CONTINUOUS
 62
       7
  5
444
 10
-197.96884581
 20
-1.57433438
 30
0.0
  0
VERTEX
  8
0
  6
CONTINUOUS
 62
       7
  5
445
 10
-197.89436358
 20
-2.49984545
 30
0.0
  0
VERTEX
  8
0
  6
CONTINUOUS
 62
       7
  5
446
 10
-197.77247395
 20
-3.4200124
 30
0.0
  0
VERTEX
  8
0
  6
CONTINUOUS
 62
       7
  5
447
 10
-197.6050157
 20
-4.33256529
 30
0.0
  0
VERTEX
  8
0
  6
CONTINUOUS
 62
       7
  5
448
 10
-197.39382764
 20
-5.23523418
 30
0.0
  0
VERTEX
  8
0
  6
CONTINUOUS
 62
       7
  5
449
 10
-197.14074853
 20
-6.12574913
 30
0.0
  0
SEQEND
  8
0
  6
CONTINUOUS
 62
       7
  5
44A
  0
POLYLINE
  8
0
  6
CONTINUOUS
 62
       7
  5
25D
 66
       1
 10
0.0
 20
0.0
 30
0.0
  0
VERTEX
  8
0
  6
CONTINUOUS
 62
       7
  5
44B
 10
-190.83408186
 20
-6.12574913
 30
0.0
  0
VERTEX
  8
0
  6
CONTINUOUS
 62
       7
  5
44C
 10
-190.39251695
 20
-6.98519202
 30
0.0
  0
VERTEX
  8
0
  6
CONTINUOUS
 62
       7
  5
44D
 10
-190.09996604
 20
-7.91253739
 30
0.0
  0
VERTEX
  8
0
  6
CONTINUOUS
 62
       7
  5
44E
 10
-189.99408186
 20
-8.8724158
 30
0.0
  0
VERTEX
  8
0
  6
CONTINUOUS
 62
       7
  5
44F
 10
-190.09996615
 20
-9.83229428
 30
0.0
  0
VERTEX
  8
0
  6
CONTINUOUS
 62
       7
  5
450
 10
-190.39251704
 20
-10.75963972
 30
0.0
  0
VERTEX
  8
0
  6
CONTINUOUS
 62
       7
  5
451
 10
-190.83408186
 20
-11.61908247
 30
0.0
  0
SEQEND
  8
0
  6
CONTINUOUS
 62
       7
  5
452
  0
POLYLINE
  8
0
  6
CONTINUOUS
 62
       7
  5
25E
 66
       1
 10
0.0
 20
0.0
 30
0.0
  0
VERTEX
  8
0
  6
CONTINUOUS
 62
       7
  5
453
 10
-197.14074853
 20
-6.12574913
 30
0.0
  0
VERTEX
  8
0
  6
CONTINUOUS
 62
       7
  5
454
 10
-197.58576986
 20
-6.9851923
 30
0.0
  0
VERTEX
  8
0
  6
CONTINUOUS
 62
       7
  5
455
 10
-197.8847407
 20
-7.91253759
 30
0.0
  0
VERTEX
  8
0
  6
CONTINUOUS
 62
       7
  5
456
 10
-197.99408186
 20
-8.8724158
 30
0.0
  0
VERTEX
  8
0
  6
CONTINUOUS
 62
       7
  5
457
 10
-197.88474064
 20
-9.83229409
 30
0.0
  0
VERTEX
  8
0
  6
CONTINUOUS
 62
       7
  5
458
 10
-197.58576982
 20
-10.75963947
 30
0.0
  0
VERTEX
  8
0
  6
CONTINUOUS
 62
       7
  5
459
 10
-197.14074853
 20
-11.61908247
 30
0.0
  0
SEQEND
  8
0
  6
CONTINUOUS
 62
       7
  5
45A
  0
POLYLINE
  8
0
  6
CONTINUOUS
 62
       7
  5
25F
 66
       1
 10
0.0
 20
0.0
 30
0.0
  0
VERTEX
  8
0
  6
CONTINUOUS
 62
       7
  5
45B
 10
-190.83408186
 20
10.3275842
 30
0.0
  0
VERTEX
  8
0
  6
CONTINUOUS
 62
       7
  5
45C
 10
-190.39251702
 20
9.46814201
 30
0.0
  0
VERTEX
  8
0
  6
CONTINUOUS
 62
       7
  5
45D
 10
-190.09996611
 20
8.54079688
 30
0.0
  0
VERTEX
  8
0
  6
CONTINUOUS
 62
       7
  5
45E
 10
-189.99408186
 20
7.58091753
 30
0.0
  0
VERTEX
  8
0
  6
CONTINUOUS
 62
       7
  5
45F
 10
-190.0999661
 20
6.6210382
 30
0.0
  0
VERTEX
  8
0
  6
CONTINUOUS
 62
       7
  5
460
 10
-190.392517
 20
5.69369309
 30
0.0
  0
VERTEX
  8
0
  6
CONTINUOUS
 62
       7
  5
461
 10
-190.83408186
 20
4.83425087
 30
0.0
  0
SEQEND
  8
0
  6
CONTINUOUS
 62
       7
  5
462
  0
POLYLINE
  8
0
  6
CONTINUOUS
 62
       7
  5
260
 66
       1
 10
0.0
 20
0.0
 30
0.0
  0
VERTEX
  8
0
  6
CONTINUOUS
 62
       7
  5
463
 10
-318.8074152
 20
5.51425087
 30
0.0
  0
VERTEX
  8
0
  6
CONTINUOUS
 62
       7
  5
464
 10
-319.15342232
 20
4.77424319
 30
0.0
  0
VERTEX
  8
0
  6
CONTINUOUS
 62
       7
  5
465
 10
-319.2874152
 20
3.9675842
 30
0.0
  0
VERTEX
  8
0
  6
CONTINUOUS
 62
       7
  5
466
 10
-319.1534213
 20
3.16919944
 30
0.0
  0
VERTEX
  8
0
  6
CONTINUOUS
 62
       7
  5
467
 10
-318.8074152
 20
2.43425087
 30
0.0
  0
SEQEND
  8
0
  6
CONTINUOUS
 62
       7
  5
468
  0
POLYLINE
  8
0
  6
CONTINUOUS
 62
       7
  5
261
 66
       1
 10
0.0
 20
0.0
 30
0.0
  0
VERTEX
  8
0
  6
CONTINUOUS
 62
       7
  5
469
 10
-318.8074152
 20
-3.72574913
 30
0.0
  0
VERTEX
  8
0
  6
CONTINUOUS
 62
       7
  5
46A
 10
-319.15341937
 20
-4.46229609
 30
0.0
  0
VERTEX
  8
0
  6
CONTINUOUS
 62
       7
  5
46B
 10
-319.2874152
 20
-5.25908247
 30
0.0
  0
VERTEX
  8
0
  6
CONTINUOUS
 62
       7
  5
46C
 10
-319.15341835
 20
-6.06413223
 30
0.0
  0
VERTEX
  8
0
  6
CONTINUOUS
 62
       7
  5
46D
 10
-318.8074152
 20
-6.80574913
 30
0.0
  0
SEQEND
  8
0
  6
CONTINUOUS
 62
       7
  5
46E
  0
POLYLINE
  8
0
  6
CONTINUOUS
 62
       7
  5
262
 66
       1
 10
0.0
 20
0.0
 30
0.0
  0
VERTEX
  8
0
  6
CONTINUOUS
 62
       7
  5
46F
 10
-318.8074152
 20
2.43425087
 30
0.0
  0
VERTEX
  8
0
  6
CONTINUOUS
 62
       7
  5
470
 10
-319.01192837
 20
1.68115628
 30
0.0
  0
VERTEX
  8
0
  6
CONTINUOUS
 62
       7
  5
471
 10
-319.16253747
 20
0.91348525
 30
0.0
  0
VERTEX
  8
0
  6
CONTINUOUS
 62
       7
  5
472
 10
-319.25558543
 20
0.13619703
 30
0.0
  0
VERTEX
  8
0
  6
CONTINUOUS
 62
       7
  5
473
 10
-319.2874152
 20
-0.64574913
 30
0.0
  0
VERTEX
  8
0
  6
CONTINUOUS
 62
       7
  5
474
 10
-319.25558642
 20
-1.42769553
 30
0.0
  0
VERTEX
  8
0
  6
CONTINUOUS
 62
       7
  5
475
 10
-319.1625368
 20
-2.20498413
 30
0.0
  0
VERTEX
  8
0
  6
CONTINUOUS
 62
       7
  5
476
 10
-319.01192638
 20
-2.97265523
 30
0.0
  0
VERTEX
  8
0
  6
CONTINUOUS
 62
       7
  5
477
 10
-318.8074152
 20
-3.72574913
 30
0.0
  0
SEQEND
  8
0
  6
CONTINUOUS
 62
       7
  5
478
  0
LINE
  8
0
  6
CONTINUOUS
 62
       7
  5
263
 10
-266.76126697
 20
-5.64574913
 30
0.0
 11
-272.40620103
 21
-10.02825322
 31
0.0
  0
LINE
  8
0
  6
CONTINUOUS
 62
       7
  5
264
 10
-267.00916766
 20
-5.64574913
 30
0.0
 11
-272.2872388
 21
-9.74343531
 31
0.0
  0
LINE
  8
0
  6
CONTINUOUS
 62
       2
  5
265
 10
-270.95408186
 20
10.86091753
 30
0.0
 11
-280.99408186
 21
20.23425087
 31
0.0
  0
LINE
  8
0
  6
CONTINUOUS
 62
       7
  5
266
 10
-275.76661225
 20
14.37795258
 30
0.0
 11
-272.79408186
 21
17.46091753
 31
0.0
  0
LINE
  8
0
  6
CONTINUOUS
 62
       7
  5
267
 10
-274.9674152
 20
16.6475842
 30
0.0
 11
-273.8474152
 21
16.3675842
 31
0.0
  0
LINE
  8
0
  6
CONTINUOUS
 62
       7
  5
268
 10
-273.96302901
 20
11.79805913
 30
0.0
 11
-269.90074853
 21
16.14091753
 31
0.0
  0
LINE
  8
0
  6
CONTINUOUS
 62
       7
  5
269
 10
-274.40301909
 20
12.49720108
 30
0.0
 11
-270.4874152
 21
16.6875842
 31
0.0
  0
LINE
  8
0
  6
CONTINUOUS
 62
       7
  5
26A
 10
-274.51656713
 20
12.66930469
 30
0.0
 11
-271.71408186
 21
15.67425087
 31
0.0
  0
LINE
  8
0
  6
CONTINUOUS
 62
       7
  5
26B
 10
-275.26903835
 20
13.73524919
 30
0.0
 11
-272.2074152
 21
16.91425087
 31
0.0
  0
ARC
  8
0
  6
CONTINUOUS
 62
       7
  5
26C
 10
-273.58223284
 20
13.31629577
 30
0.0
 40
2.75106219
 50
314.50449986
 51
30.86370864
  0
LINE
  8
0
  6
CONTINUOUS
 62
       7
  5
26D
 10
-272.79408186
 20
17.46091753
 30
0.0
 11
-272.2074152
 21
16.91425087
 31
0.0
  0
LINE
  8
0
  6
CONTINUOUS
 62
       7
  5
26E
 10
-271.5674152
 20
15.54091753
 30
0.0
 11
-271.71408186
 21
15.67425087
 31
0.0
  0
LINE
  8
0
  6
CONTINUOUS
 62
       2
  5
26F
 10
-272.91408186
 20
14.39425087
 30
0.0
 11
-273.82074853
 21
15.23425087
 31
0.0
  0
LINE
  8
0
  6
CONTINUOUS
 62
       7
  5
270
 10
-272.74074853
 20
14.58091753
 30
0.0
 11
-273.6474152
 21
15.42091753
 31
0.0
  0
LINE
  8
0
  6
CONTINUOUS
 62
       2
  5
271
 10
-275.14074853
 20
16.47425087
 30
0.0
 11
-279.1274152
 21
20.19425087
 31
0.0
  0
LINE
  8
0
  6
CONTINUOUS
 62
       7
  5
272
 10
-274.9674152
 20
16.6475842
 30
0.0
 11
-278.7674152
 21
20.2075842
 31
0.0
  0
LINE
  8
0
  6
CONTINUOUS
 62
       7
  5
273
 10
-276.41112277
 20
15.14834942
 30
0.0
 11
-274.9674152
 21
16.6475842
 31
0.0
  0
LINE
  8
0
  6
CONTINUOUS
 62
       7
  5
274
 10
-269.90074853
 20
16.14091753
 30
0.0
 11
-270.4874152
 21
16.6875842
 31
0.0
  0
LINE
  8
0
  6
CONTINUOUS
 62
       7
  5
275
 10
-278.7674152
 20
20.2075842
 30
0.0
 11
-280.21423255
 21
18.65742276
 31
0.0
  0
LINE
  8
0
  6
CONTINUOUS
 62
       7
  5
276
 10
-279.1274152
 20
20.19425087
 30
0.0
 11
-280.42152327
 21
18.80915082
 31
0.0
  0
LINE
  8
0
  6
CONTINUOUS
 62
       7
  5
277
 10
-278.7674152
 20
20.2075842
 30
0.0
 11
-279.1274152
 21
20.19425087
 31
0.0
  0
LINE
  8
0
  6
CONTINUOUS
 62
       7
  5
278
 10
174.99591801
 20
-21.5924158
 30
0.0
 11
174.99591801
 21
20.30091753
 31
0.0
  0
LINE
  8
0
  6
CONTINUOUS
 62
       7
  5
279
 10
165.99591801
 20
-21.5924158
 30
0.0
 11
165.99591801
 21
20.30091753
 31
0.0
  0
LINE
  8
0
  6
CONTINUOUS
 62
       7
  5
27A
 10
165.99591801
 20
-21.58460627
 30
0.0
 11
174.99591801
 21
-21.58460627
 31
0.0
  0
LINE
  8
0
  6
CONTINUOUS
 62
       7
  5
27B
 10
148.04626043
 20
-2.33908247
 30
0.0
 11
159.48925134
 21
-2.33908247
 31
0.0
  0
LINE
  8
0
  6
CONTINUOUS
 62
       7
  5
27C
 10
150.00925134
 20
1.06091753
 30
0.0
 11
159.48925134
 21
1.06091753
 31
0.0
  0
LINE
  8
0
  6
CONTINUOUS
 62
       7
  5
27D
 10
159.48925134
 20
-4.13908247
 30
0.0
 11
165.99591801
 21
-4.13908247
 31
0.0
  0
LINE
  8
0
  6
CONTINUOUS
 62
       7
  5
27E
 10
159.48925134
 20
2.86091753
 30
0.0
 11
165.99591801
 21
2.86091753
 31
0.0
  0
LINE
  8
0
  6
CONTINUOUS
 62
       7
  5
27F
 10
181.48925134
 20
-4.13908247
 30
0.0
 11
174.99591801
 21
-4.13908247
 31
0.0
  0
LINE
  8
0
  6
CONTINUOUS
 62
       7
  5
280
 10
174.99591801
 20
2.86091753
 30
0.0
 11
181.48925134
 21
2.86091753
 31
0.0
  0
LINE
  8
0
  6
CONTINUOUS
 62
       7
  5
281
 10
165.48925134
 20
-4.13908247
 30
0.0
 11
165.48925134
 21
2.86091753
 31
0.0
  0
LINE
  8
0
  6
CONTINUOUS
 62
       7
  5
282
 10
175.48925134
 20
-4.13908247
 30
0.0
 11
175.48925134
 21
2.86091753
 31
0.0
  0
LINE
  8
0
  6
CONTINUOUS
 62
       7
  5
283
 10
181.48925134
 20
-4.13908247
 30
0.0
 11
181.48925134
 21
2.86091753
 31
0.0
  0
LINE
  8
0
  6
CONTINUOUS
 62
       7
  5
284
 10
159.48925134
 20
-4.13908247
 30
0.0
 11
159.48925134
 21
2.86091753
 31
0.0
  0
LINE
  8
0
  6
CONTINUOUS
 62
       2
  5
285
 10
177.99591801
 20
-3.29908247
 30
0.0
 11
177.99591801
 21
1.9275842
 31
0.0
  0
LINE
  8
0
  6
CONTINUOUS
 62
       7
  5
286
 10
165.99591801
 20
3.8075842
 30
0.0
 11
174.99591801
 21
3.8075842
 31
0.0
  0
LINE
  8
0
  6
CONTINUOUS
 62
       7
  5
287
 10
165.99591801
 20
2.90091753
 30
0.0
 11
174.99591801
 21
2.90091753
 31
0.0
  0
LINE
  8
0
  6
CONTINUOUS
 62
       7
  5
288
 10
167.15591801
 20
-4.60574913
 30
0.0
 11
174.02258468
 21
-4.60574913
 31
0.0
  0
CIRCLE
  8
0
  6
CONTINUOUS
 62
       7
  5
289
 10
177.98925948
 20
-0.63912316
 30
0.0
 40
1.5
  0
CIRCLE
  8
0
  6
CONTINUOUS
 62
       7
  5
28A
 10
177.98925948
 20
-0.63912316
 30
0.0
 40
2.0
  0
LINE
  8
0
  6
CONTINUOUS
 62
       7
  5
28B
 10
170.48925134
 20
11.0475842
 30
0.0
 11
170.48925134
 21
12.95425087
 31
0.0
  0
LINE
  8
0
  6
CONTINUOUS
 62
       7
  5
28C
 10
174.99591801
 20
10.30091753
 30
0.0
 11
165.99591801
 21
10.30091753
 31
0.0
  0
LINE
  8
0
  6
CONTINUOUS
 62
       7
  5
28D
 10
165.99591801
 20
17.46091753
 30
0.0
 11
174.99591801
 21
17.46091753
 31
0.0
  0
LINE
  8
0
  6
CONTINUOUS
 62
       7
  5
28E
 10
165.99591801
 20
16.91425087
 30
0.0
 11
174.99591801
 21
16.91425087
 31
0.0
  0
LINE
  8
0
  6
CONTINUOUS
 62
       7
  5
28F
 10
165.99591801
 20
16.14091753
 30
0.0
 11
174.99591801
 21
16.14091753
 31
0.0
  0
LINE
  8
0
  6
CONTINUOUS
 62
       7
  5
290
 10
165.99591801
 20
16.6875842
 30
0.0
 11
174.99591801
 21
16.6875842
 31
0.0
  0
LINE
  8
0
  6
CONTINUOUS
 62
       7
  5
291
 10
168.99591801
 20
17.46091753
 30
0.0
 11
168.99591801
 21
19.0475842
 31
0.0
  0
LINE
  8
0
  6
CONTINUOUS
 62
       7
  5
292
 10
171.99591801
 20
17.46091753
 30
0.0
 11
171.99591801
 21
19.0475842
 31
0.0
  0
LINE
  8
0
  6
CONTINUOUS
 62
       2
  5
293
 10
169.24925134
 20
17.46091753
 30
0.0
 11
169.24925134
 21
19.6475842
 31
0.0
  0
LINE
  8
0
  6
CONTINUOUS
 62
       2
  5
294
 10
171.74258468
 20
17.46091753
 30
0.0
 11
171.74258468
 21
19.6475842
 31
0.0
  0
LINE
  8
0
  6
CONTINUOUS
 62
       7
  5
295
 10
169.36925134
 20
11.43425087
 30
0.0
 11
171.67591801
 21
11.43425087
 31
0.0
  0
LINE
  8
0
  6
CONTINUOUS
 62
       7
  5
296
 10
165.99591801
 20
20.30091753
 30
0.0
 11
174.99591801
 21
20.30091753
 31
0.0
  0
POLYLINE
  8
0
  6
CONTINUOUS
 62
       7
  5
297
 66
       1
 10
0.0
 20
0.0
 30
0.0
  0
VERTEX
  8
0
  6
CONTINUOUS
 62
       7
  5
479
 10
168.98925948
 20
19.05181516
 30
0.0
  0
VERTEX
  8
0
  6
CONTINUOUS
 62
       7
  5
47A
 10
169.00209219
 20
19.19474149
 30
0.0
  0
VERTEX
  8
0
  6
CONTINUOUS
 62
       7
  5
47B
 10
169.04037074
 20
19.33522231
 30
0.0
  0
VERTEX
  8
0
  6
CONTINUOUS
 62
       7
  5
47C
 10
169.10344018
 20
19.47085395
 30
0.0
  0
VERTEX
  8
0
  6
CONTINUOUS
 62
       7
  5
47D
 10
169.19022137
 20
19.59931573
 30
0.0
  0
VERTEX
  8
0
  6
CONTINUOUS
 62
       7
  5
47E
 10
169.29922947
 20
19.71840962
 30
0.0
  0
VERTEX
  8
0
  6
CONTINUOUS
 62
       7
  5
47F
 10
169.42859931
 20
19.82609789
 30
0.0
  0
VERTEX
  8
0
  6
CONTINUOUS
 62
       7
  5
480
 10
169.57611734
 20
19.92053797
 30
0.0
  0
VERTEX
  8
0
  6
CONTINUOUS
 62
       7
  5
481
 10
169.73925948
 20
20.00011396
 30
0.0
  0
VERTEX
  8
0
  6
CONTINUOUS
 62
       7
  5
482
 10
169.91523433
 20
20.0634643
 30
0.0
  0
VERTEX
  8
0
  6
CONTINUOUS
 62
       7
  5
483
 10
170.10103091
 20
20.10950504
 30
0.0
  0
VERTEX
  8
0
  6
CONTINUOUS
 62
       7
  5
484
 10
170.29347019
 20
20.13744841
 30
0.0
  0
VERTEX
  8
0
  6
CONTINUOUS
 62
       7
  5
485
 10
170.48925948
 20
20.1468163
 30
0.0
  0
VERTEX
  8
0
  6
CONTINUOUS
 62
       7
  5
486
 10
170.68504877
 20
20.13744841
 30
0.0
  0
VERTEX
  8
0
  6
CONTINUOUS
 62
       7
  5
487
 10
170.87748805
 20
20.10950504
 30
0.0
  0
VERTEX
  8
0
  6
CONTINUOUS
 62
       7
  5
488
 10
171.06328463
 20
20.0634643
 30
0.0
  0
VERTEX
  8
0
  6
CONTINUOUS
 62
       7
  5
489
 10
171.23925948
 20
20.00011396
 30
0.0
  0
VERTEX
  8
0
  6
CONTINUOUS
 62
       7
  5
48A
 10
171.40240162
 20
19.92053797
 30
0.0
  0
VERTEX
  8
0
  6
CONTINUOUS
 62
       7
  5
48B
 10
171.54991965
 20
19.82609789
 30
0.0
  0
VERTEX
  8
0
  6
CONTINUOUS
 62
       7
  5
48C
 10
171.67928949
 20
19.71840962
 30
0.0
  0
VERTEX
  8
0
  6
CONTINUOUS
 62
       7
  5
48D
 10
171.78829759
 20
19.59931573
 30
0.0
  0
VERTEX
  8
0
  6
CONTINUOUS
 62
       7
  5
48E
 10
171.87507878
 20
19.47085395
 30
0.0
  0
VERTEX
  8
0
  6
CONTINUOUS
 62
       7
  5
48F
 10
171.93814822
 20
19.33522231
 30
0.0
  0
VERTEX
  8
0
  6
CONTINUOUS
 62
       7
  5
490
 10
171.97642677
 20
19.19474149
 30
0.0
  0
VERTEX
  8
0
  6
CONTINUOUS
 62
       7
  5
491
 10
171.98925948
 20
19.05181516
 30
0.0
  0
VERTEX
  8
0
  6
CONTINUOUS
 62
       7
  5
492
 10
171.98925948
 20
19.05181516
 30
0.0
  0
SEQEND
  8
0
  6
CONTINUOUS
 62
       7
  5
493
  0
POLYLINE
  8
0
  6
CONTINUOUS
 62
       7
  5
298
 66
       1
 10
0.0
 20
0.0
 30
0.0
 70
       1
  0
VERTEX
  8
0
  6
CONTINUOUS
 62
       7
  5
494
 10
167.73925948
 20
12.80232378
 30
0.0
  0
VERTEX
  8
0
  6
CONTINUOUS
 62
       7
  5
495
 10
167.74972406
 20
12.97096993
 30
0.0
  0
VERTEX
  8
0
  6
CONTINUOUS
 62
       7
  5
496
 10
167.78103816
 20
13.13833258
 30
0.0
  0
VERTEX
  8
0
  6
CONTINUOUS
 62
       7
  5
497
 10
167.83296346
 20
13.30313801
 30
0.0
  0
VERTEX
  8
0
  6
CONTINUOUS
 62
       7
  5
498
 10
167.90510477
 20
13.46413193
 30
0.0
  0
VERTEX
  8
0
  6
CONTINUOUS
 62
       7
  5
499
 10
167.99691307
 20
13.62008909
 30
0.0
  0
VERTEX
  8
0
  6
CONTINUOUS
 62
       7
  5
49A
 10
168.10768962
 20
13.76982256
 30
0.0
  0
VERTEX
  8
0
  6
CONTINUOUS
 62
       7
  5
49B
 10
168.23659136
 20
13.91219279
 30
0.0
  0
VERTEX
  8
0
  6
CONTINUOUS
 62
       7
  5
49C
 10
168.38263726
 20
14.04611624
 30
0.0
  0
VERTEX
  8
0
  6
CONTINUOUS
 62
       7
  5
49D
 10
168.54471583
 20
14.17057368
 30
0.0
  0
VERTEX
  8
0
  6
CONTINUOUS
 62
       7
  5
49E
 10
168.72159355
 20
14.28461791
 30
0.0
  0
VERTEX
  8
0
  6
CONTINUOUS
 62
       7
  5
49F
 10
168.91192428
 20
14.38738099
 30
0.0
  0
VERTEX
  8
0
  6
CONTINUOUS
 62
       7
  5
4A0
 10
169.11425948
 20
14.47808083
 30
0.0
  0
VERTEX
  8
0
  6
CONTINUOUS
 62
       7
  5
4A1
 10
169.32705926
 20
14.55602714
 30
0.0
  0
VERTEX
  8
0
  6
CONTINUOUS
 62
       7
  5
4A2
 10
169.54870409
 20
14.62062671
 30
0.0
  0
VERTEX
  8
0
  6
CONTINUOUS
 62
       7
  5
4A3
 10
169.77750711
 20
14.6713879
 30
0.0
  0
VERTEX
  8
0
  6
CONTINUOUS
 62
       7
  5
4A4
 10
170.01172699
 20
14.70792438
 30
0.0
  0
VERTEX
  8
0
  6
CONTINUOUS
 62
       7
  5
4A5
 10
170.24958119
 20
14.72995809
 30
0.0
  0
VERTEX
  8
0
  6
CONTINUOUS
 62
       7
  5
4A6
 10
170.48925948
 20
14.73732134
 30
0.0
  0
VERTEX
  8
0
  6
CONTINUOUS
 62
       7
  5
4A7
 10
170.72893777
 20
14.72995809
 30
0.0
  0
VERTEX
  8
0
  6
CONTINUOUS
 62
       7
  5
4A8
 10
170.96679197
 20
14.70792438
 30
0.0
  0
VERTEX
  8
0
  6
CONTINUOUS
 62
       7
  5
4A9
 10
171.20101185
 20
14.6713879
 30
0.0
  0
VERTEX
  8
0
  6
CONTINUOUS
 62
       7
  5
4AA
 10
171.42981487
 20
14.62062671
 30
0.0
  0
VERTEX
  8
0
  6
CONTINUOUS
 62
       7
  5
4AB
 10
171.6514597
 20
14.55602714
 30
0.0
  0
VERTEX
  8
0
  6
CONTINUOUS
 62
       7
  5
4AC
 10
171.86425948
 20
14.47808083
 30
0.0
  0
VERTEX
  8
0
  6
CONTINUOUS
 62
       7
  5
4AD
 10
172.06659468
 20
14.38738099
 30
0.0
  0
VERTEX
  8
0
  6
CONTINUOUS
 62
       7
  5
4AE
 10
172.25692541
 20
14.28461791
 30
0.0
  0
VERTEX
  8
0
  6
CONTINUOUS
 62
       7
  5
4AF
 10
172.43380313
 20
14.17057368
 30
0.0
  0
VERTEX
  8
0
  6
CONTINUOUS
 62
       7
  5
4B0
 10
172.5958817
 20
14.04611624
 30
0.0
  0
VERTEX
  8
0
  6
CONTINUOUS
 62
       7
  5
4B1
 10
172.7419276
 20
13.91219279
 30
0.0
  0
VERTEX
  8
0
  6
CONTINUOUS
 62
       7
  5
4B2
 10
172.87082934
 20
13.76982256
 30
0.0
  0
VERTEX
  8
0
  6
CONTINUOUS
 62
       7
  5
4B3
 10
172.98160589
 20
13.62008909
 30
0.0
  0
VERTEX
  8
0
  6
CONTINUOUS
 62
       7
  5
4B4
 10
173.07341419
 20
13.46413193
 30
0.0
  0
VERTEX
  8
0
  6
CONTINUOUS
 62
       7
  5
4B5
 10
173.1455555
 20
13.30313801
 30
0.0
  0
VERTEX
  8
0
  6
CONTINUOUS
 62
       7
  5
4B6
 10
173.1974808
 20
13.13833258
 30
0.0
  0
VERTEX
  8
0
  6
CONTINUOUS
 62
       7
  5
4B7
 10
173.2287949
 20
12.97096993
 30
0.0
  0
VERTEX
  8
0
  6
CONTINUOUS
 62
       7
  5
4B8
 10
173.23925948
 20
12.80232378
 30
0.0
  0
VERTEX
  8
0
  6
CONTINUOUS
 62
       7
  5
4B9
 10
173.2287949
 20
12.63367764
 30
0.0
  0
VERTEX
  8
0
  6
CONTINUOUS
 62
       7
  5
4BA
 10
173.1974808
 20
12.46631498
 30
0.0
  0
VERTEX
  8
0
  6
CONTINUOUS
 62
       7
  5
4BB
 10
173.1455555
 20
12.30150956
 30
0.0
  0
VERTEX
  8
0
  6
CONTINUOUS
 62
       7
  5
4BC
 10
173.07341419
 20
12.14051564
 30
0.0
  0
VERTEX
  8
0
  6
CONTINUOUS
 62
       7
  5
4BD
 10
172.98160589
 20
11.98455848
 30
0.0
  0
VERTEX
  8
0
  6
CONTINUOUS
 62
       7
  5
4BE
 10
172.87082934
 20
11.83482501
 30
0.0
  0
VERTEX
  8
0
  6
CONTINUOUS
 62
       7
  5
4BF
 10
172.7419276
 20
11.69245478
 30
0.0
  0
VERTEX
  8
0
  6
CONTINUOUS
 62
       7
  5
4C0
 10
172.5958817
 20
11.55853133
 30
0.0
  0
VERTEX
  8
0
  6
CONTINUOUS
 62
       7
  5
4C1
 10
172.43380313
 20
11.43407389
 30
0.0
  0
VERTEX
  8
0
  6
CONTINUOUS
 62
       7
  5
4C2
 10
172.25692541
 20
11.32002966
 30
0.0
  0
VERTEX
  8
0
  6
CONTINUOUS
 62
       7
  5
4C3
 10
172.06659468
 20
11.21726658
 30
0.0
  0
VERTEX
  8
0
  6
CONTINUOUS
 62
       7
  5
4C4
 10
171.86425948
 20
11.12656674
 30
0.0
  0
VERTEX
  8
0
  6
CONTINUOUS
 62
       7
  5
4C5
 10
171.6514597
 20
11.04862043
 30
0.0
  0
VERTEX
  8
0
  6
CONTINUOUS
 62
       7
  5
4C6
 10
171.42981487
 20
10.98402086
 30
0.0
  0
VERTEX
  8
0
  6
CONTINUOUS
 62
       7
  5
4C7
 10
171.20101185
 20
10.93325967
 30
0.0
  0
VERTEX
  8
0
  6
CONTINUOUS
 62
       7
  5
4C8
 10
170.96679197
 20
10.89672319
 30
0.0
  0
VERTEX
  8
0
  6
CONTINUOUS
 62
       7
  5
4C9
 10
170.72893777
 20
10.87468948
 30
0.0
  0
VERTEX
  8
0
  6
CONTINUOUS
 62
       7
  5
4CA
 10
170.48925948
 20
10.86732623
 30
0.0
  0
VERTEX
  8
0
  6
CONTINUOUS
 62
       7
  5
4CB
 10
170.24958119
 20
10.87468948
 30
0.0
  0
VERTEX
  8
0
  6
CONTINUOUS
 62
       7
  5
4CC
 10
170.01172699
 20
10.89672319
 30
0.0
  0
VERTEX
  8
0
  6
CONTINUOUS
 62
       7
  5
4CD
 10
169.77750711
 20
10.93325967
 30
0.0
  0
VERTEX
  8
0
  6
CONTINUOUS
 62
       7
  5
4CE
 10
169.54870409
 20
10.98402086
 30
0.0
  0
VERTEX
  8
0
  6
CONTINUOUS
 62
       7
  5
4CF
 10
169.32705926
 20
11.04862043
 30
0.0
  0
VERTEX
  8
0
  6
CONTINUOUS
 62
       7
  5
4D0
 10
169.11425948
 20
11.12656674
 30
0.0
  0
VERTEX
  8
0
  6
CONTINUOUS
 62
       7
  5
4D1
 10
168.91192428
 20
11.21726658
 30
0.0
  0
VERTEX
  8
0
  6
CONTINUOUS
 62
       7
  5
4D2
 10
168.72159355
 20
11.32002966
 30
0.0
  0
VERTEX
  8
0
  6
CONTINUOUS
 62
       7
  5
4D3
 10
168.54471583
 20
11.43407389
 30
0.0
  0
VERTEX
  8
0
  6
CONTINUOUS
 62
       7
  5
4D4
 10
168.38263726
 20
11.55853133
 30
0.0
  0
VERTEX
  8
0
  6
CONTINUOUS
 62
       7
  5
4D5
 10
168.23659136
 20
11.69245478
 30
0.0
  0
VERTEX
  8
0
  6
CONTINUOUS
 62
       7
  5
4D6
 10
168.10768962
 20
11.83482501
 30
0.0
  0
VERTEX
  8
0
  6
CONTINUOUS
 62
       7
  5
4D7
 10
167.99691307
 20
11.98455848
 30
0.0
  0
VERTEX
  8
0
  6
CONTINUOUS
 62
       7
  5
4D8
 10
167.90510477
 20
12.14051564
 30
0.0
  0
VERTEX
  8
0
  6
CONTINUOUS
 62
       7
  5
4D9
 10
167.83296346
 20
12.30150956
 30
0.0
  0
VERTEX
  8
0
  6
CONTINUOUS
 62
       7
  5
4DA
 10
167.78103816
 20
12.46631498
 30
0.0
  0
VERTEX
  8
0
  6
CONTINUOUS
 62
       7
  5
4DB
 10
167.74972406
 20
12.63367764
 30
0.0
  0
VERTEX
  8
0
  6
CONTINUOUS
 62
       7
  5
4DC
 10
167.73925948
 20
12.80232378
 30
0.0
  0
SEQEND
  8
0
  6
CONTINUOUS
 62
       7
  5
4DD
  0
LINE
  8
0
  6
CONTINUOUS
 62
       7
  5
299
 10
-33.99074853
 20
-21.5924158
 30
0.0
 11
-33.99074853
 21
20.30091753
 31
0.0
  0
LINE
  8
0
  6
CONTINUOUS
 62
       7
  5
29A
 10
-24.99074853
 20
-21.5924158
 30
0.0
 11
-24.99074853
 21
20.30091753
 31
0.0
  0
POLYLINE
  8
0
  6
CONTINUOUS
 62
       7
  5
29B
 66
       1
 10
0.0
 20
0.0
 30
0.0
  0
VERTEX
  8
0
  6
CONTINUOUS
 62
       7
  5
4DE
 10
-27.98409
 20
19.05181516
 30
0.0
  0
VERTEX
  8
0
  6
CONTINUOUS
 62
       7
  5
4DF
 10
-27.99692271
 20
19.19474149
 30
0.0
  0
VERTEX
  8
0
  6
CONTINUOUS
 62
       7
  5
4E0
 10
-28.03520126
 20
19.33522231
 30
0.0
  0
VERTEX
  8
0
  6
CONTINUOUS
 62
       7
  5
4E1
 10
-28.0982707
 20
19.47085395
 30
0.0
  0
VERTEX
  8
0
  6
CONTINUOUS
 62
       7
  5
4E2
 10
-28.1850519
 20
19.59931573
 30
0.0
  0
VERTEX
  8
0
  6
CONTINUOUS
 62
       7
  5
4E3
 10
-28.29405999
 20
19.71840962
 30
0.0
  0
VERTEX
  8
0
  6
CONTINUOUS
 62
       7
  5
4E4
 10
-28.42342983
 20
19.82609789
 30
0.0
  0
VERTEX
  8
0
  6
CONTINUOUS
 62
       7
  5
4E5
 10
-28.57094786
 20
19.92053797
 30
0.0
  0
VERTEX
  8
0
  6
CONTINUOUS
 62
       7
  5
4E6
 10
-28.73409
 20
20.00011396
 30
0.0
  0
VERTEX
  8
0
  6
CONTINUOUS
 62
       7
  5
4E7
 10
-28.91006485
 20
20.0634643
 30
0.0
  0
VERTEX
  8
0
  6
CONTINUOUS
 62
       7
  5
4E8
 10
-29.09586143
 20
20.10950504
 30
0.0
  0
VERTEX
  8
0
  6
CONTINUOUS
 62
       7
  5
4E9
 10
-29.28830071
 20
20.13744841
 30
0.0
  0
VERTEX
  8
0
  6
CONTINUOUS
 62
       7
  5
4EA
 10
-29.48409
 20
20.1468163
 30
0.0
  0
VERTEX
  8
0
  6
CONTINUOUS
 62
       7
  5
4EB
 10
-29.67987929
 20
20.13744841
 30
0.0
  0
VERTEX
  8
0
  6
CONTINUOUS
 62
       7
  5
4EC
 10
-29.87231857
 20
20.10950504
 30
0.0
  0
VERTEX
  8
0
  6
CONTINUOUS
 62
       7
  5
4ED
 10
-30.05811515
 20
20.0634643
 30
0.0
  0
VERTEX
  8
0
  6
CONTINUOUS
 62
       7
  5
4EE
 10
-30.23409
 20
20.00011396
 30
0.0
  0
VERTEX
  8
0
  6
CONTINUOUS
 62
       7
  5
4EF
 10
-30.39723215
 20
19.92053797
 30
0.0
  0
VERTEX
  8
0
  6
CONTINUOUS
 62
       7
  5
4F0
 10
-30.54475017
 20
19.82609789
 30
0.0
  0
VERTEX
  8
0
  6
CONTINUOUS
 62
       7
  5
4F1
 10
-30.67412001
 20
19.71840962
 30
0.0
  0
VERTEX
  8
0
  6
CONTINUOUS
 62
       7
  5
4F2
 10
-30.78312811
 20
19.59931573
 30
0.0
  0
VERTEX
  8
0
  6
CONTINUOUS
 62
       7
  5
4F3
 10
-30.8699093
 20
19.47085395
 30
0.0
  0
VERTEX
  8
0
  6
CONTINUOUS
 62
       7
  5
4F4
 10
-30.93297874
 20
19.33522231
 30
0.0
  0
VERTEX
  8
0
  6
CONTINUOUS
 62
       7
  5
4F5
 10
-30.97125729
 20
19.19474149
 30
0.0
  0
VERTEX
  8
0
  6
CONTINUOUS
 62
       7
  5
4F6
 10
-30.98409
 20
19.05181516
 30
0.0
  0
SEQEND
  8
0
  6
CONTINUOUS
 62
       7
  5
4F7
  0
POLYLINE
  8
0
  6
CONTINUOUS
 62
       7
  5
29C
 66
       1
 10
0.0
 20
0.0
 30
0.0
 70
       1
  0
VERTEX
  8
0
  6
CONTINUOUS
 62
       7
  5
4F8
 10
-26.73409
 20
12.80232378
 30
0.0
  0
VERTEX
  8
0
  6
CONTINUOUS
 62
       7
  5
4F9
 10
-26.74455458
 20
12.97096993
 30
0.0
  0
VERTEX
  8
0
  6
CONTINUOUS
 62
       7
  5
4FA
 10
-26.77586868
 20
13.13833258
 30
0.0
  0
VERTEX
  8
0
  6
CONTINUOUS
 62
       7
  5
4FB
 10
-26.82779398
 20
13.30313801
 30
0.0
  0
VERTEX
  8
0
  6
CONTINUOUS
 62
       7
  5
4FC
 10
-26.8999353
 20
13.46413193
 30
0.0
  0
VERTEX
  8
0
  6
CONTINUOUS
 62
       7
  5
4FD
 10
-26.99174359
 20
13.62008909
 30
0.0
  0
VERTEX
  8
0
  6
CONTINUOUS
 62
       7
  5
4FE
 10
-27.10252014
 20
13.76982256
 30
0.0
  0
VERTEX
  8
0
  6
CONTINUOUS
 62
       7
  5
4FF
 10
-27.23142188
 20
13.91219279
 30
0.0
  0
VERTEX
  8
0
  6
CONTINUOUS
 62
       7
  5
500
 10
-27.37746778
 20
14.04611624
 30
0.0
  0
VERTEX
  8
0
  6
CONTINUOUS
 62
       7
  5
501
 10
-27.53954635
 20
14.17057368
 30
0.0
  0
VERTEX
  8
0
  6
CONTINUOUS
 62
       7
  5
502
 10
-27.71642408
 20
14.28461791
 30
0.0
  0
VERTEX
  8
0
  6
CONTINUOUS
 62
       7
  5
503
 10
-27.9067548
 20
14.38738099
 30
0.0
  0
VERTEX
  8
0
  6
CONTINUOUS
 62
       7
  5
504
 10
-28.10909
 20
14.47808083
 30
0.0
  0
VERTEX
  8
0
  6
CONTINUOUS
 62
       7
  5
505
 10
-28.32188978
 20
14.55602714
 30
0.0
  0
VERTEX
  8
0
  6
CONTINUOUS
 62
       7
  5
506
 10
-28.54353461
 20
14.62062671
 30
0.0
  0
VERTEX
  8
0
  6
CONTINUOUS
 62
       7
  5
507
 10
-28.77233763
 20
14.6713879
 30
0.0
  0
VERTEX
  8
0
  6
CONTINUOUS
 62
       7
  5
508
 10
-29.00655751
 20
14.70792438
 30
0.0
  0
VERTEX
  8
0
  6
CONTINUOUS
 62
       7
  5
509
 10
-29.24441171
 20
14.72995809
 30
0.0
  0
VERTEX
  8
0
  6
CONTINUOUS
 62
       7
  5
50A
 10
-29.48409
 20
14.73732134
 30
0.0
  0
VERTEX
  8
0
  6
CONTINUOUS
 62
       7
  5
50B
 10
-29.72376829
 20
14.72995809
 30
0.0
  0
VERTEX
  8
0
  6
CONTINUOUS
 62
       7
  5
50C
 10
-29.96162249
 20
14.70792438
 30
0.0
  0
VERTEX
  8
0
  6
CONTINUOUS
 62
       7
  5
50D
 10
-30.19584238
 20
14.6713879
 30
0.0
  0
VERTEX
  8
0
  6
CONTINUOUS
 62
       7
  5
50E
 10
-30.4246454
 20
14.62062671
 30
0.0
  0
VERTEX
  8
0
  6
CONTINUOUS
 62
       7
  5
50F
 10
-30.64629022
 20
14.55602714
 30
0.0
  0
VERTEX
  8
0
  6
CONTINUOUS
 62
       7
  5
510
 10
-30.85909
 20
14.47808083
 30
0.0
  0
VERTEX
  8
0
  6
CONTINUOUS
 62
       7
  5
511
 10
-31.0614252
 20
14.38738099
 30
0.0
  0
VERTEX
  8
0
  6
CONTINUOUS
 62
       7
  5
512
 10
-31.25175593
 20
14.28461791
 30
0.0
  0
VERTEX
  8
0
  6
CONTINUOUS
 62
       7
  5
513
 10
-31.42863365
 20
14.17057368
 30
0.0
  0
VERTEX
  8
0
  6
CONTINUOUS
 62
       7
  5
514
 10
-31.59071222
 20
14.04611624
 30
0.0
  0
VERTEX
  8
0
  6
CONTINUOUS
 62
       7
  5
515
 10
-31.73675812
 20
13.91219279
 30
0.0
  0
VERTEX
  8
0
  6
CONTINUOUS
 62
       7
  5
516
 10
-31.86565986
 20
13.76982256
 30
0.0
  0
VERTEX
  8
0
  6
CONTINUOUS
 62
       7
  5
517
 10
-31.97643642
 20
13.62008909
 30
0.0
  0
VERTEX
  8
0
  6
CONTINUOUS
 62
       7
  5
518
 10
-32.06824471
 20
13.46413193
 30
0.0
  0
VERTEX
  8
0
  6
CONTINUOUS
 62
       7
  5
519
 10
-32.14038602
 20
13.30313801
 30
0.0
  0
VERTEX
  8
0
  6
CONTINUOUS
 62
       7
  5
51A
 10
-32.19231132
 20
13.13833258
 30
0.0
  0
VERTEX
  8
0
  6
CONTINUOUS
 62
       7
  5
51B
 10
-32.22362542
 20
12.97096993
 30
0.0
  0
VERTEX
  8
0
  6
CONTINUOUS
 62
       7
  5
51C
 10
-32.23409
 20
12.80232378
 30
0.0
  0
VERTEX
  8
0
  6
CONTINUOUS
 62
       7
  5
51D
 10
-32.22362542
 20
12.63367764
 30
0.0
  0
VERTEX
  8
0
  6
CONTINUOUS
 62
       7
  5
51E
 10
-32.19231132
 20
12.46631498
 30
0.0
  0
VERTEX
  8
0
  6
CONTINUOUS
 62
       7
  5
51F
 10
-32.14038602
 20
12.30150956
 30
0.0
  0
VERTEX
  8
0
  6
CONTINUOUS
 62
       7
  5
520
 10
-32.06824471
 20
12.14051564
 30
0.0
  0
VERTEX
  8
0
  6
CONTINUOUS
 62
       7
  5
521
 10
-31.97643642
 20
11.98455848
 30
0.0
  0
VERTEX
  8
0
  6
CONTINUOUS
 62
       7
  5
522
 10
-31.86565986
 20
11.83482501
 30
0.0
  0
VERTEX
  8
0
  6
CONTINUOUS
 62
       7
  5
523
 10
-31.73675812
 20
11.69245478
 30
0.0
  0
VERTEX
  8
0
  6
CONTINUOUS
 62
       7
  5
524
 10
-31.59071222
 20
11.55853133
 30
0.0
  0
VERTEX
  8
0
  6
CONTINUOUS
 62
       7
  5
525
 10
-31.42863365
 20
11.43407389
 30
0.0
  0
VERTEX
  8
0
  6
CONTINUOUS
 62
       7
  5
526
 10
-31.25175593
 20
11.32002966
 30
0.0
  0
VERTEX
  8
0
  6
CONTINUOUS
 62
       7
  5
527
 10
-31.0614252
 20
11.21726658
 30
0.0
  0
VERTEX
  8
0
  6
CONTINUOUS
 62
       7
  5
528
 10
-30.85909
 20
11.12656674
 30
0.0
  0
VERTEX
  8
0
  6
CONTINUOUS
 62
       7
  5
529
 10
-30.64629022
 20
11.04862043
 30
0.0
  0
VERTEX
  8
0
  6
CONTINUOUS
 62
       7
  5
52A
 10
-30.4246454
 20
10.98402086
 30
0.0
  0
VERTEX
  8
0
  6
CONTINUOUS
 62
       7
  5
52B
 10
-30.19584238
 20
10.93325967
 30
0.0
  0
VERTEX
  8
0
  6
CONTINUOUS
 62
       7
  5
52C
 10
-29.96162249
 20
10.89672319
 30
0.0
  0
VERTEX
  8
0
  6
CONTINUOUS
 62
       7
  5
52D
 10
-29.72376829
 20
10.87468948
 30
0.0
  0
VERTEX
  8
0
  6
CONTINUOUS
 62
       7
  5
52E
 10
-29.48409
 20
10.86732623
 30
0.0
  0
VERTEX
  8
0
  6
CONTINUOUS
 62
       7
  5
52F
 10
-29.24441171
 20
10.87468948
 30
0.0
  0
VERTEX
  8
0
  6
CONTINUOUS
 62
       7
  5
530
 10
-29.00655751
 20
10.89672319
 30
0.0
  0
VERTEX
  8
0
  6
CONTINUOUS
 62
       7
  5
531
 10
-28.77233763
 20
10.93325967
 30
0.0
  0
VERTEX
  8
0
  6
CONTINUOUS
 62
       7
  5
532
 10
-28.54353461
 20
10.98402086
 30
0.0
  0
VERTEX
  8
0
  6
CONTINUOUS
 62
       7
  5
533
 10
-28.32188978
 20
11.04862043
 30
0.0
  0
VERTEX
  8
0
  6
CONTINUOUS
 62
       7
  5
534
 10
-28.10909
 20
11.12656674
 30
0.0
  0
VERTEX
  8
0
  6
CONTINUOUS
 62
       7
  5
535
 10
-27.9067548
 20
11.21726658
 30
0.0
  0
VERTEX
  8
0
  6
CONTINUOUS
 62
       7
  5
536
 10
-27.71642408
 20
11.32002966
 30
0.0
  0
VERTEX
  8
0
  6
CONTINUOUS
 62
       7
  5
537
 10
-27.53954635
 20
11.43407389
 30
0.0
  0
VERTEX
  8
0
  6
CONTINUOUS
 62
       7
  5
538
 10
-27.37746778
 20
11.55853133
 30
0.0
  0
VERTEX
  8
0
  6
CONTINUOUS
 62
       7
  5
539
 10
-27.23142188
 20
11.69245478
 30
0.0
  0
VERTEX
  8
0
  6
CONTINUOUS
 62
       7
  5
53A
 10
-27.10252014
 20
11.83482501
 30
0.0
  0
VERTEX
  8
0
  6
CONTINUOUS
 62
       7
  5
53B
 10
-26.99174359
 20
11.98455848
 30
0.0
  0
VERTEX
  8
0
  6
CONTINUOUS
 62
       7
  5
53C
 10
-26.8999353
 20
12.14051564
 30
0.0
  0
VERTEX
  8
0
  6
CONTINUOUS
 62
       7
  5
53D
 10
-26.82779398
 20
12.30150956
 30
0.0
  0
VERTEX
  8
0
  6
CONTINUOUS
 62
       7
  5
53E
 10
-26.77586868
 20
12.46631498
 30
0.0
  0
VERTEX
  8
0
  6
CONTINUOUS
 62
       7
  5
53F
 10
-26.74455458
 20
12.63367764
 30
0.0
  0
VERTEX
  8
0
  6
CONTINUOUS
 62
       7
  5
540
 10
-26.73409
 20
12.80232378
 30
0.0
  0
SEQEND
  8
0
  6
CONTINUOUS
 62
       7
  5
541
  0
LINE
  8
0
  6
CONTINUOUS
 62
       7
  5
29D
 10
-28.36408186
 20
11.43425087
 30
0.0
 11
-30.67074853
 21
11.43425087
 31
0.0
  0
LINE
  8
0
  6
CONTINUOUS
 62
       2
  5
29E
 10
-30.7374152
 20
17.46091753
 30
0.0
 11
-30.7374152
 21
19.6475842
 31
0.0
  0
LINE
  8
0
  6
CONTINUOUS
 62
       2
  5
29F
 10
-28.24408186
 20
17.46091753
 30
0.0
 11
-28.24408186
 21
19.6475842
 31
0.0
  0
LINE
  8
0
  6
CONTINUOUS
 62
       7
  5
2A0
 10
-30.99074853
 20
17.46091753
 30
0.0
 11
-30.99074853
 21
19.0475842
 31
0.0
  0
LINE
  8
0
  6
CONTINUOUS
 62
       7
  5
2A1
 10
-27.99074853
 20
17.46091753
 30
0.0
 11
-27.99074853
 21
19.0475842
 31
0.0
  0
LINE
  8
0
  6
CONTINUOUS
 62
       7
  5
2A2
 10
-29.48408186
 20
11.0475842
 30
0.0
 11
-29.48408186
 21
12.95425087
 31
0.0
  0
LINE
  8
0
  6
CONTINUOUS
 62
       7
  5
2A3
 10
-33.99074853
 20
10.30091753
 30
0.0
 11
-24.99074853
 21
10.30091753
 31
0.0
  0
LINE
  8
0
  6
CONTINUOUS
 62
       7
  5
2A4
 10
-24.99074853
 20
17.46091753
 30
0.0
 11
-33.99074853
 21
17.46091753
 31
0.0
  0
LINE
  8
0
  6
CONTINUOUS
 62
       7
  5
2A5
 10
-24.99074853
 20
16.91425087
 30
0.0
 11
-33.99074853
 21
16.91425087
 31
0.0
  0
LINE
  8
0
  6
CONTINUOUS
 62
       7
  5
2A6
 10
-24.99074853
 20
16.14091753
 30
0.0
 11
-33.99074853
 21
16.14091753
 31
0.0
  0
LINE
  8
0
  6
CONTINUOUS
 62
       7
  5
2A7
 10
-24.99074853
 20
16.6875842
 30
0.0
 11
-33.99074853
 21
16.6875842
 31
0.0
  0
LINE
  8
0
  6
CONTINUOUS
 62
       7
  5
2A8
 10
-24.99074853
 20
20.30091753
 30
0.0
 11
-33.99074853
 21
20.30091753
 31
0.0
  0
LINE
  8
0
  6
CONTINUOUS
 62
       7
  5
2A9
 10
-18.48408186
 20
-4.13908247
 30
0.0
 11
-24.99074853
 21
-4.13908247
 31
0.0
  0
LINE
  8
0
  6
CONTINUOUS
 62
       7
  5
2AA
 10
-18.48408186
 20
2.86091753
 30
0.0
 11
-24.99074853
 21
2.86091753
 31
0.0
  0
LINE
  8
0
  6
CONTINUOUS
 62
       7
  5
2AB
 10
-40.48408186
 20
-4.13908247
 30
0.0
 11
-33.99074853
 21
-4.13908247
 31
0.0
  0
LINE
  8
0
  6
CONTINUOUS
 62
       7
  5
2AC
 10
-33.99074853
 20
2.86091753
 30
0.0
 11
-40.48408186
 21
2.86091753
 31
0.0
  0
CIRCLE
  8
0
  6
CONTINUOUS
 62
       7
  5
2AD
 10
-36.98409
 20
-0.63912316
 30
0.0
 40
2.0
  0
LINE
  8
0
  6
CONTINUOUS
 62
       7
  5
2AE
 10
-26.15074853
 20
-4.60574913
 30
0.0
 11
-33.0174152
 21
-4.60574913
 31
0.0
  0
LINE
  8
0
  6
CONTINUOUS
 62
       7
  5
2AF
 10
-24.99074853
 20
2.90091753
 30
0.0
 11
-33.99074853
 21
2.90091753
 31
0.0
  0
LINE
  8
0
  6
CONTINUOUS
 62
       7
  5
2B0
 10
-24.99074853
 20
3.8075842
 30
0.0
 11
-33.99074853
 21
3.8075842
 31
0.0
  0
LINE
  8
0
  6
CONTINUOUS
 62
       7
  5
2B1
 10
-34.48408186
 20
-4.13908247
 30
0.0
 11
-34.48408186
 21
2.86091753
 31
0.0
  0
LINE
  8
0
  6
CONTINUOUS
 62
       7
  5
2B2
 10
-24.48408186
 20
-4.13908247
 30
0.0
 11
-24.48408186
 21
2.86091753
 31
0.0
  0
LINE
  8
0
  6
CONTINUOUS
 62
       7
  5
2B3
 10
-33.99074853
 20
-21.59574913
 30
0.0
 11
-24.99074853
 21
-21.59574913
 31
0.0
  0
LINE
  8
0
  6
CONTINUOUS
 62
       7
  5
2B4
 10
-40.48408186
 20
-4.13908247
 30
0.0
 11
-40.48408186
 21
2.86091753
 31
0.0
  0
CIRCLE
  8
0
  6
CONTINUOUS
 62
       7
  5
2B5
 10
-36.98409
 20
-0.63912316
 30
0.0
 40
1.5
  0
LINE
  8
0
  6
CONTINUOUS
 62
       2
  5
2B6
 10
-36.99074853
 20
-3.29908247
 30
0.0
 11
-36.99074853
 21
1.9275842
 31
0.0
  0
LINE
  8
0
  6
CONTINUOUS
 62
       7
  5
2B7
 10
-18.48408186
 20
-4.13908247
 30
0.0
 11
-18.48408186
 21
2.86091753
 31
0.0
  0
LINE
  8
0
  6
CONTINUOUS
 62
       7
  5
2B8
 10
-7.95954537
 20
1.06091753
 30
0.0
 11
-18.48408186
 21
1.06091753
 31
0.0
  0
LINE
  8
0
  6
CONTINUOUS
 62
       7
  5
2B9
 10
-9.92253628
 20
-2.33908247
 30
0.0
 11
-18.48408186
 21
-2.33908247
 31
0.0
  0
LINE
  8
0
  6
CONTINUOUS
 62
       2
  5
2BA
 10
-294.4874152
 20
69.63425087
 30
0.0
 11
-294.4874152
 21
-29.63789696
 31
0.0
  0
LINE
  8
0
  6
CONTINUOUS
 62
       2
  5
2BB
 10
-279.4874152
 20
67.71425087
 30
0.0
 11
-279.4874152
 21
62.98091753
 31
0.0
  0
POLYLINE
  8
0
  6
CONTINUOUS
 62
       7
  5
2BC
 66
       1
 10
0.0
 20
0.0
 30
0.0
  0
VERTEX
  8
0
  6
CONTINUOUS
 62
       7
  5
542
 10
-282.23408186
 20
64.6075842
 30
0.0
  0
VERTEX
  8
0
  6
CONTINUOUS
 62
       7
  5
543
 10
-281.68255025
 20
65.31306995
 30
0.0
  0
VERTEX
  8
0
  6
CONTINUOUS
 62
       7
  5
544
 10
-281.01475983
 20
65.95690501
 30
0.0
  0
VERTEX
  8
0
  6
CONTINUOUS
 62
       7
  5
545
 10
-280.26996376
 20
66.42607966
 30
0.0
  0
VERTEX
  8
0
  6
CONTINUOUS
 62
       7
  5
546
 10
-279.4874152
 20
66.6075842
 30
0.0
  0
VERTEX
  8
0
  6
CONTINUOUS
 62
       7
  5
547
 10
-278.70486648
 20
66.42607959
 30
0.0
  0
VERTEX
  8
0
  6
CONTINUOUS
 62
       7
  5
548
 10
-277.96007016
 20
65.95690565
 30
0.0
  0
VERTEX
  8
0
  6
CONTINUOUS
 62
       7
  5
549
 10
-277.29227969
 20
65.31307099
 30
0.0
  0
VERTEX
  8
0
  6
CONTINUOUS
 62
       7
  5
54A
 10
-276.74074853
 20
64.6075842
 30
0.0
  0
SEQEND
  8
0
  6
CONTINUOUS
 62
       7
  5
54B
  0
LINE
  8
0
  6
CONTINUOUS
 62
       2
  5
2BD
 10
-309.4874152
 20
67.71425087
 30
0.0
 11
-309.4874152
 21
62.98091753
 31
0.0
  0
POLYLINE
  8
0
  6
CONTINUOUS
 62
       7
  5
2BE
 66
       1
 10
0.0
 20
0.0
 30
0.0
  0
VERTEX
  8
0
  6
CONTINUOUS
 62
       7
  5
54C
 10
-312.23408186
 20
64.6075842
 30
0.0
  0
VERTEX
  8
0
  6
CONTINUOUS
 62
       7
  5
54D
 10
-311.68255025
 20
65.31306995
 30
0.0
  0
VERTEX
  8
0
  6
CONTINUOUS
 62
       7
  5
54E
 10
-311.01475983
 20
65.95690501
 30
0.0
  0
VERTEX
  8
0
  6
CONTINUOUS
 62
       7
  5
54F
 10
-310.26996376
 20
66.42607966
 30
0.0
  0
VERTEX
  8
0
  6
CONTINUOUS
 62
       7
  5
550
 10
-309.4874152
 20
66.6075842
 30
0.0
  0
VERTEX
  8
0
  6
CONTINUOUS
 62
       7
  5
551
 10
-308.70486648
 20
66.42607959
 30
0.0
  0
VERTEX
  8
0
  6
CONTINUOUS
 62
       7
  5
552
 10
-307.96007016
 20
65.95690565
 30
0.0
  0
VERTEX
  8
0
  6
CONTINUOUS
 62
       7
  5
553
 10
-307.29227969
 20
65.31307099
 30
0.0
  0
VERTEX
  8
0
  6
CONTINUOUS
 62
       7
  5
554
 10
-306.74074853
 20
64.6075842
 30
0.0
  0
SEQEND
  8
0
  6
CONTINUOUS
 62
       7
  5
555
  0
LINE
  8
0
  6
CONTINUOUS
 62
       2
  5
2BF
 10
278.70591814
 20
66.6475842
 30
0.0
 11
278.70591814
 21
61.91425087
 31
0.0
  0
LINE
  8
0
  6
CONTINUOUS
 62
       2
  5
2C0
 10
332.3325848
 20
66.4075842
 30
0.0
 11
332.3325848
 21
61.91425087
 31
0.0
  0
TEXT
  8
0
  6
CONTINUOUS
 62
       7
  5
2C1
 10
-382.4499033
 20
247.0
 30
0.0
 40
9.0
  1
MODEL:DVJ40X200-11T-Y-4E2-T-ZG530A2
 41
1.05
  7
MX_NOTE_STANDARD
 11
-382.4499033
 21
251.5
 31
0.0
 73
       2
  0
LINE
  8
0
  6
CONTINUOUS
 62
       7
  5
2C2
 10
-399.52490234
 20
-276.5
 30
0.0
 11
399.52490234
 21
-276.5
 31
0.0
  0
LINE
  8
0
  6
CONTINUOUS
 62
       7
  5
2C3
 10
-399.52490234
 20
276.5
 30
0.0
 11
399.52490234
 21
276.5
 31
0.0
  0
LINE
  8
0
  6
CONTINUOUS
 62
       7
  5
2C4
 10
-399.52490234
 20
276.5
 30
0.0
 11
-399.52490234
 21
-276.5
 31
0.0
  0
LINE
  8
0
  6
CONTINUOUS
 62
       7
  5
2C5
 10
399.52490234
 20
276.5
 30
0.0
 11
399.52490234
 21
-276.5
 31
0.0
  0
ENDSEC
  0
EOF
