  0
SECTION
  2
HEADER
  9
$ACADVER
  1
AC1009
  9
$INSBASE
 10
0.0
 20
0.0
 30
0.0
  9
$EXTMIN
 10
-194.25
 20
-133.5
 30
0.0
  9
$EXTMAX
 10
194.80000305
 20
132.6000061
 30
0.0
  9
$LIMMIN
 10
-194.25
 20
-133.5
  9
$LIMMAX
 10
194.80000305
 20
132.6000061
  9
$ORTHOMODE
 70
       0
  9
$REGENMODE
 70
       1
  9
$FILLMODE
 70
       1
  9
$QTEXTMODE
 70
       0
  9
$MIRRTEXT
 70
       1
  9
$DRAGMODE
 70
       2
  9
$LTSCALE
 40
1.0
  9
$OSMODE
 70
       0
  9
$ATTMODE
 70
       1
  9
$TEXTSIZE
 40
3.20000005
  9
$TRACEWID
 40
0.05
  9
$TEXTSTYLE
  7
MX_NOTE_STANDARD
  9
$CLAYER
  8
0
  9
$CELTYPE
  6
CONTINUOUS
  9
$CECOLOR
 62
     256
  9
$DIMSCALE
 40
1.0
  9
$DIMASZ
 40
2.5
  9
$DIMEXO
 40
1.5
  9
$DIMDLI
 40
3.75
  9
$DIMRND
 40
0.0
  9
$DIMDLE
 40
0.0
  9
$DIMEXE
 40
1.5
  9
$DIMTP
 40
0.0
  9
$DIMTM
 40
0.0
  9
$DIMTXT
 40
3.20000005
  9
$DIMCEN
 40
2.5
  9
$DIMTSZ
 40
0.0
  9
$DIMTOL
 70
       0
  9
$DIMLIM
 70
       0
  9
$DIMTIH
 70
       0
  9
$DIMTOH
 70
       0
  9
$DIMSE1
 70
       0
  9
$DIMSE2
 70
       0
  9
$DIMTAD
 70
       1
  9
$DIMZIN
 70
       8
  9
$DIMBLK
  1

  9
$DIMASO
 70
       1
  9
$DIMSHO
 70
       1
  9
$DIMPOST
  1

  9
$DIMAPOST
  1

  9
$DIMALT
 70
       0
  9
$DIMALTD
 70
       4
  9
$DIMALTF
 40
0.0394
  9
$DIMLFAC
 40
1.0
  9
$DIMTOFL
 70
       1
  9
$DIMTVP
 40
0.0
  9
$DIMTIX
 70
       0
  9
$DIMSOXD
 70
       0
  9
$DIMSAH
 70
       0
  9
$DIMBLK1
  1

  9
$DIMBLK2
  1

  9
$DIMSTYLE
  2
MXDIMSTYLE
  9
$DIMCLRD
 70
       0
  9
$DIMCLRE
 70
       0
  9
$DIMCLRT
 70
       0
  9
$DIMTFAC
 40
1.0
  9
$DIMGAP
 40
1.0
  9
$LUNITS
 70
       2
  9
$LUPREC
 70
       4
  9
$AXISMODE
 70
       0
  9
$AXISUNIT
 10
0.0
 20
0.0
  9
$SKETCHINC
 40
0.1
  9
$FILLETRAD
 40
0.0
  9
$AUNITS
 70
       0
  9
$AUPREC
 70
       0
  9
$MENU
  1
acad
  9
$ELEVATION
 40
0.0
  9
$PELEVATION
 40
0.0
  9
$THICKNESS
 40
0.0
  9
$LIMCHECK
 70
       0
  9
$BLIPMODE
 70
       1
  9
$CHAMFERA
 40
0.0
  9
$CHAMFERB
 40
0.0
  9
$SKPOLY
 70
       0
  9
$TDCREATE
 40
2452905.713888889
  9
$TDUPDATE
 40
2452905.713888889
  9
$TDINDWG
 40
0.0000000000
  9
$TDUSRTIMER
 40
0.0000000000
  9
$USRTIMER
 70
       1
  9
$ANGBASE
 50
0.0
  9
$ANGDIR
 70
       0
  9
$PDMODE
 70
       0
  9
$PDSIZE
 40
0.0
  9
$PLINEWID
 40
0.0
  9
$COORDS
 70
       1
  9
$SPLFRAME
 70
       0
  9
$SPLINETYPE
 70
       6
  9
$SPLINESEGS
 70
       8
  9
$ATTDIA
 70
       0
  9
$ATTREQ
 70
       1
  9
$HANDLING
 70
       1
  9
$HANDSEED
  5
81D
  9
$SURFTAB1
 70
       6
  9
$SURFTAB2
 70
       6
  9
$SURFTYPE
 70
       6
  9
$SURFU
 70
       6
  9
$SURFV
 70
       6
  9
$UCSNAME
  2

  9
$UCSORG
 10
0.0
 20
0.0
 30
0.0
  9
$UCSXDIR
 10
1.0
 20
0.0
 30
0.0
  9
$UCSYDIR
 10
0.0
 20
1.0
 30
0.0
  9
$PUCSNAME
  2

  9
$PUCSORG
 10
0.0
 20
0.0
 30
0.0
  9
$PUCSXDIR
 10
1.0
 20
0.0
 30
0.0
  9
$PUCSYDIR
 10
0.0
 20
1.0
 30
0.0
  9
$USERI1
 70
       0
  9
$USERI2
 70
       0
  9
$USERI3
 70
       0
  9
$USERI4
 70
       0
  9
$USERI5
 70
       0
  9
$USERR1
 40
0.0
  9
$USERR2
 40
0.0
  9
$USERR3
 40
0.0
  9
$USERR4
 40
0.0
  9
$USERR5
 40
0.0
  9
$WORLDVIEW
 70
       1
  9
$SHADEDGE
 70
       3
  9
$SHADEDIF
 70
      70
  9
$TILEMODE
 70
       1
  9
$MAXACTVP
 70
      16
  9
$PINSBASE
 10
0.0
 20
0.0
 30
0.0
  9
$PLIMCHECK
 70
       0
  9
$PEXTMIN
 10
1.00000000E+20
 20
1.00000000E+20
 30
1.00000000E+20
  9
$PEXTMAX
 10
-1.00000000E+20
 20
-1.00000000E+20
 30
-1.00000000E+20
  9
$PLIMMIN
 10
0.0
 20
0.0
  9
$PLIMMAX
 10
12.0
 20
9.0
  9
$UNITMODE
 70
       0
  9
$VISRETAIN
 70
       0
  9
$PLINEGEN
 70
       1
  9
$PSLTSCALE
 70
       0
  9
$TREEDEPTH
 70
    3020
  9
$DWGCODEPAGE
  3
dos932
  0
ENDSEC
  0
SECTION
  2
TABLES
  0
TABLE
  2
VPORT
 70
       1
  0
VPORT
  2
*ACTIVE
 70
       0
 10
0.0
 20
0.0
 11
1.0
 21
1.0
 12
0.27500153
 22
-0.44999695
 13
0.0
 23
0.0
 14
1.0
 24
1.0
 15
0.0
 25
0.0
 16
0.0
 26
0.0
 36
1.0
 17
0.0
 27
0.0
 37
0.0
 40
268.76100616
 41
1.73205081
 42
50.0
 43
0.0
 44
0.0
 50
0.0
 51
0.0
 71
       0
 72
     100
 73
       1
 74
       1
 75
       0
 76
       0
 77
       0
 78
       0
  0
ENDTAB
  0
TABLE
  2
LTYPE
 70
       4
  0
LTYPE
  2
CONTINUOUS
 70
      64
  3
Solid line
 72
      65
 73
       0
 40
0.0
  0
LTYPE
  2
PHANTOM
 70
      64
  3
Phantom ______  __  __  ______  __  __  ______
 72
      65
 73
       6
 40
63.5
 49
31.75
 49
-6.35
 49
6.35
 49
-6.35
 49
6.35
 49
-6.35
  0
LTYPE
  2
CENTER
 70
      64
  3
Center ____ _ ____ _ ____ _ ____ _ ____ _ ____
 72
      65
 73
       4
 40
50.8
 49
31.75
 49
-6.35
 49
6.35
 49
-6.35
  0
LTYPE
  2
DASHED
 70
      64
  3
Dashed __ __ __ __ __ __ __ __ __ __ __ __ __ _
 72
      65
 73
       2
 40
19.05
 49
12.7
 49
-6.35
  0
ENDTAB
  0
TABLE
  2
LAYER
 70
       2
  0
LAYER
  2
0
 70
       0
 62
       7
  6
CONTINUOUS
  0
LAYER
  2
DEFPOINTS
 70
       0
 62
       7
  6
CONTINUOUS
  0
ENDTAB
  0
TABLE
  2
STYLE
 70
       1
  0
STYLE
  2
MX_NOTE_STANDARD
 70
       0
 40
3.20000005
 41
1.0
 50
0.0
 71
       0
 42
3.20000005
  3
txt.shx
  4
extfont.shx
  0
ENDTAB
  0
TABLE
  2
VIEW
 70
       0
  0
ENDTAB
  0
TABLE
  2
UCS
 70
       0
  0
ENDTAB
  0
TABLE
  2
APPID
 70
       1
  0
APPID
  2
ACAD
 70
       0
  0
ENDTAB
  0
TABLE
  2
DIMSTYLE
 70
       1
  0
DIMSTYLE
  2
MXDIMSTYLE
 70
       0
  3

  4

  5

  6

  7

 40
1.0
 41
2.5
 42
1.5
 43
3.75
 44
1.5
 45
0.0
 46
0.0
 47
0.0
 48
0.0
 71
       0
 72
       0
 73
       0
 74
       0
 75
       0
 76
       0
 77
       1
 78
       8
140
3.20000005
141
2.5
142
0.0
143
0.0394
144
1.0
145
0.0
146
1.0
147
1.0
170
       0
171
       4
172
       1
173
       0
174
       0
175
       0
176
       0
177
       0
178
       0
  0
ENDTAB
  0
ENDSEC
  0
SECTION
  2
BLOCKS
  0
ENDSEC
  0
SECTION
  2
ENTITIES
  0
ARC
  8
0
  6
PHANTOM
 62
       2
  5
1F
 10
84.31000305
 20
-1.55608626
 30
0.0
 40
8.80390763
 50
180.0
 51
270.0
  0
LINE
  8
0
  6
CONTINUOUS
 62
       2
  5
20
 10
75.50609542
 20
0.198081
 30
0.0
 11
75.50609542
 21
-1.5599939
 31
0.0
  0
ARC
  8
0
  6
PHANTOM
 62
       2
  5
21
 10
84.30802075
 20
0.198081
 30
0.0
 40
8.80192533
 50
89.98709626
 51
180.0
  0
ARC
  8
0
  6
PHANTOM
 62
       2
  5
22
 10
84.31247983
 20
19.99752932
 30
0.0
 40
10.9975235
 50
269.98709626
 51
0.0
  0
ARC
  8
0
  6
PHANTOM
 62
       2
  5
23
 10
84.3101427
 20
19.99063123
 30
0.0
 40
8.80242692
 50
42.787958
 51
139.1112512
  0
ARC
  8
0
  6
CONTINUOUS
 62
       7
  5
24
 10
6.72902518
 20
60.8700061
 30
0.0
 40
9.0
 50
270.0
 51
275.90869389
  0
ARC
  8
0
  6
CENTER
 62
       2
  5
26
 10
62.01025666
 20
-69.20024751
 30
0.0
 40
4.40025362
 50
90.00330224
 51
179.99669776
  0
LINE
  8
0
  6
CENTER
 62
       2
  5
27
 10
60.39000305
 20
-74.0399939
 30
0.0
 11
67.56000305
 21
-74.0399939
 31
0.0
  0
LINE
  8
0
  6
CENTER
 62
       2
  5
28
 10
57.61000305
 20
-69.20024751
 30
0.0
 11
57.61000305
 21
-91.1999939
 31
0.0
  0
LINE
  8
0
  6
CENTER
 62
       2
  5
29
 10
60.39000305
 20
-73.1599939
 30
0.0
 11
67.65000305
 21
-73.1599939
 31
0.0
  0
LINE
  8
0
  6
CONTINUOUS
 62
       2
  5
2A
 10
60.39000305
 20
-73.5999939
 30
0.0
 11
68.25952931
 21
-73.5999939
 31
0.0
  0
LINE
  8
0
  6
CENTER
 62
       2
  5
2B
 10
104.31000305
 20
-69.27999084
 30
0.0
 11
104.31000305
 21
-77.92999084
 31
0.0
  0
LINE
  8
0
  6
CENTER
 62
       2
  5
2C
 10
64.31000305
 20
-69.2499939
 30
0.0
 11
64.31000305
 21
-77.8899939
 31
0.0
  0
LINE
  8
0
  6
DASHED
 62
       2
  5
2E
 10
57.61000305
 20
-87.2399939
 30
0.0
 11
112.61000305
 21
-87.2399939
 31
0.0
  0
LINE
  8
0
  6
CENTER
 62
       2
  5
2F
 10
112.61000305
 20
-69.79999084
 30
0.0
 11
112.61000305
 21
-91.19999084
 31
0.0
  0
LINE
  8
0
  6
CENTER
 62
       2
  5
30
 10
57.61000305
 20
-91.1999939
 30
0.0
 11
112.61000305
 21
-91.1999939
 31
0.0
  0
LINE
  8
0
  6
CENTER
 62
       2
  5
31
 10
62.00254933
 20
-64.80000064
 30
0.0
 11
107.61000191
 21
-64.79999025
 31
0.0
  0
LINE
  8
0
  6
CENTER
 62
       2
  5
32
 10
100.20969489
 20
-73.59999084
 30
0.0
 11
107.67000305
 21
-73.59999084
 31
0.0
  0
LINE
  8
0
  6
CENTER
 62
       2
  5
33
 10
85.06025818
 20
-62.81999237
 30
0.0
 11
85.06025818
 21
-92.73999237
 31
0.0
  0
ARC
  8
0
  6
CENTER
 62
       2
  5
34
 10
107.61000305
 20
-69.79999084
 30
0.0
 40
5.0
 50
0.0
 51
90.0
  0
ARC
  8
0
  6
CENTER
 62
       2
  5
35
 10
64.31000305
 20
-73.1591651
 30
0.0
 40
3.4
 50
0.0
 51
180.01396671
  0
ARC
  8
0
  6
CENTER
 62
       2
  5
36
 10
64.31056887
 20
-74.0399939
 30
0.0
 40
3.4
 50
180.0
 51
0.0
  0
LINE
  8
0
  6
CENTER
 62
       2
  5
37
 10
60.91000305
 20
-74.03999392
 30
0.0
 11
60.91000305
 21
-73.15999392
 31
0.0
  0
LINE
  8
0
  6
CENTER
 62
       2
  5
38
 10
67.71000305
 20
-74.10202
 30
0.0
 11
67.71000305
 21
-73.1591651
 31
0.0
  0
ARC
  8
0
  6
CENTER
 62
       2
  5
39
 10
104.31000305
 20
-73.15916204
 30
0.0
 40
3.4
 50
0.0
 51
180.01396671
  0
ARC
  8
0
  6
CENTER
 62
       2
  5
3A
 10
104.31056887
 20
-74.03999084
 30
0.0
 40
3.4
 50
180.0
 51
0.0
  0
LINE
  8
0
  6
DASHED
 62
       2
  5
3B
 10
100.91000315
 20
-74.03999082
 30
0.0
 11
100.91000315
 21
-73.15916202
 31
0.0
  0
LINE
  8
0
  6
DASHED
 62
       2
  5
3C
 10
107.71000305
 20
-74.10201696
 30
0.0
 11
107.71000305
 21
-73.15916202
 31
0.0
  0
LINE
  8
0
  6
CONTINUOUS
 62
       7
  5
3D
 10
-157.69999695
 20
30.3900061
 30
0.0
 11
-157.69999695
 21
9.6000061
 31
0.0
  0
LINE
  8
0
  6
CONTINUOUS
 62
       7
  5
3E
 10
-121.69999695
 20
30.3900061
 30
0.0
 11
-121.69999695
 21
9.6000061
 31
0.0
  0
LINE
  8
0
  6
CONTINUOUS
 62
       7
  5
3F
 10
-157.69999695
 20
30.3900061
 30
0.0
 11
-139.69999695
 21
40.7800061
 31
0.0
  0
LINE
  8
0
  6
CONTINUOUS
 62
       7
  5
40
 10
-139.69999695
 20
-0.7799939
 30
0.0
 11
-121.69999695
 21
9.6000061
 31
0.0
  0
LINE
  8
0
  6
CONTINUOUS
 62
       7
  5
41
 10
-139.69999695
 20
40.7800061
 30
0.0
 11
-121.69999695
 21
30.3900061
 31
0.0
  0
LINE
  8
0
  6
CONTINUOUS
 62
       7
  5
42
 10
-157.69999695
 20
9.6000061
 30
0.0
 11
-139.69999695
 21
-0.7799939
 31
0.0
  0
LINE
  8
0
  6
CONTINUOUS
 62
       7
  5
43
 10
-29.68999695
 20
37.5000061
 30
0.0
 11
-29.68999695
 21
2.5000061
 31
0.0
  0
LINE
  8
0
  6
CONTINUOUS
 62
       7
  5
44
 10
-28.68999695
 20
36.8000061
 30
0.0
 11
-28.68999695
 21
3.2000061
 31
0.0
  0
LINE
  8
0
  6
CONTINUOUS
 62
       7
  5
45
 10
-27.68999695
 20
36.8000061
 30
0.0
 11
-27.68999695
 21
3.2000061
 31
0.0
  0
LINE
  8
0
  6
CONTINUOUS
 62
       7
  5
46
 10
-26.68999695
 20
36.8000061
 30
0.0
 11
-26.68999695
 21
3.2000061
 31
0.0
  0
LINE
  8
0
  6
CONTINUOUS
 62
       7
  5
47
 10
-25.68999695
 20
36.8000061
 30
0.0
 11
-25.68999695
 21
3.2000061
 31
0.0
  0
LINE
  8
0
  6
CONTINUOUS
 62
       7
  5
48
 10
-45.68999695
 20
37.5000061
 30
0.0
 11
-29.68999695
 21
37.5000061
 31
0.0
  0
LINE
  8
0
  6
CONTINUOUS
 62
       7
  5
49
 10
-45.68999695
 20
2.5000061
 30
0.0
 11
-29.68999695
 21
2.5000061
 31
0.0
  0
LINE
  8
0
  6
CONTINUOUS
 62
       7
  5
4A
 10
-26.68999695
 20
35.8000061
 30
0.0
 11
-25.68999695
 21
36.8000061
 31
0.0
  0
LINE
  8
0
  6
CONTINUOUS
 62
       7
  5
4B
 10
-28.68999695
 20
35.8000061
 30
0.0
 11
-27.68999695
 21
36.8000061
 31
0.0
  0
LINE
  8
0
  6
CONTINUOUS
 62
       7
  5
4C
 10
-28.68999695
 20
4.2000061
 30
0.0
 11
-27.68999695
 21
3.2000061
 31
0.0
  0
LINE
  8
0
  6
CONTINUOUS
 62
       7
  5
4D
 10
-26.68999695
 20
4.2000061
 30
0.0
 11
-25.68999695
 21
3.2000061
 31
0.0
  0
LINE
  8
0
  6
CONTINUOUS
 62
       7
  5
4E
 10
-29.68999695
 20
36.8000061
 30
0.0
 11
-28.68999695
 21
36.8000061
 31
0.0
  0
LINE
  8
0
  6
CONTINUOUS
 62
       7
  5
4F
 10
-27.68999695
 20
36.8000061
 30
0.0
 11
-26.68999695
 21
36.8000061
 31
0.0
  0
LINE
  8
0
  6
CONTINUOUS
 62
       7
  5
50
 10
-29.68999695
 20
3.2000061
 30
0.0
 11
-28.68999695
 21
3.2000061
 31
0.0
  0
LINE
  8
0
  6
CONTINUOUS
 62
       7
  5
51
 10
-27.68999695
 20
3.2000061
 30
0.0
 11
-26.68999695
 21
3.2000061
 31
0.0
  0
LINE
  8
0
  6
CONTINUOUS
 62
       7
  5
52
 10
60.31000305
 20
36.8000061
 30
0.0
 11
60.31000305
 21
3.2000061
 31
0.0
  0
LINE
  8
0
  6
CONTINUOUS
 62
       7
  5
53
 10
61.31000305
 20
36.8000061
 30
0.0
 11
61.31000305
 21
3.2000061
 31
0.0
  0
LINE
  8
0
  6
CONTINUOUS
 62
       7
  5
54
 10
62.31000305
 20
36.8000061
 30
0.0
 11
62.31000305
 21
3.2000061
 31
0.0
  0
LINE
  8
0
  6
CONTINUOUS
 62
       7
  5
55
 10
63.31000305
 20
36.8000061
 30
0.0
 11
63.31000305
 21
3.2000061
 31
0.0
  0
LINE
  8
0
  6
CONTINUOUS
 62
       7
  5
56
 10
60.31000305
 20
36.8000061
 30
0.0
 11
61.31000305
 21
35.8000061
 31
0.0
  0
LINE
  8
0
  6
CONTINUOUS
 62
       7
  5
57
 10
62.31000305
 20
36.8000061
 30
0.0
 11
63.31000305
 21
35.8000061
 31
0.0
  0
LINE
  8
0
  6
CONTINUOUS
 62
       7
  5
58
 10
60.31000305
 20
3.2000061
 30
0.0
 11
61.31000305
 21
4.2000061
 31
0.0
  0
LINE
  8
0
  6
CONTINUOUS
 62
       7
  5
59
 10
62.31000305
 20
3.2000061
 30
0.0
 11
63.31000305
 21
4.2000061
 31
0.0
  0
LINE
  8
0
  6
CONTINUOUS
 62
       7
  5
5A
 10
61.31000305
 20
36.8000061
 30
0.0
 11
62.31000305
 21
36.8000061
 31
0.0
  0
LINE
  8
0
  6
CONTINUOUS
 62
       7
  5
5B
 10
63.31000305
 20
36.8000061
 30
0.0
 11
67.31000305
 21
36.8000061
 31
0.0
  0
LINE
  8
0
  6
CONTINUOUS
 62
       7
  5
5C
 10
61.31000305
 20
3.2000061
 30
0.0
 11
62.31000305
 21
3.2000061
 31
0.0
  0
LINE
  8
0
  6
CONTINUOUS
 62
       7
  5
5D
 10
63.31000305
 20
3.2000061
 30
0.0
 11
67.31000305
 21
3.2000061
 31
0.0
  0
LINE
  8
0
  6
CENTER
 62
       2
  5
5E
 10
-93.15307849
 20
20.0000061
 30
0.0
 11
169.88349466
 21
20.0000061
 31
0.0
  0
LINE
  8
0
  6
CONTINUOUS
 62
       7
  5
5F
 10
-146.69999695
 20
24.0400061
 30
0.0
 11
-146.69999695
 21
15.9500061
 31
0.0
  0
LINE
  8
0
  6
CONTINUOUS
 62
       7
  5
60
 10
-132.69999695
 20
24.0400061
 30
0.0
 11
-132.69999695
 21
15.9500061
 31
0.0
  0
LINE
  8
0
  6
CONTINUOUS
 62
       7
  5
61
 10
-146.69999695
 20
24.0400061
 30
0.0
 11
-139.69999695
 21
28.0800061
 31
0.0
  0
LINE
  8
0
  6
CONTINUOUS
 62
       7
  5
62
 10
-139.69999695
 20
11.9100061
 30
0.0
 11
-132.69999695
 21
15.9500061
 31
0.0
  0
LINE
  8
0
  6
CONTINUOUS
 62
       7
  5
63
 10
-139.69999695
 20
28.0800061
 30
0.0
 11
-132.69999695
 21
24.0400061
 31
0.0
  0
LINE
  8
0
  6
CONTINUOUS
 62
       7
  5
64
 10
-146.69999695
 20
15.9500061
 30
0.0
 11
-139.69999695
 21
11.9100061
 31
0.0
  0
LINE
  8
0
  6
CONTINUOUS
 62
       7
  5
65
 10
-45.68999695
 20
37.5000061
 30
0.0
 11
-45.68999695
 21
2.5000061
 31
0.0
  0
LINE
  8
0
  6
CENTER
 62
       2
  5
66
 10
-171.84999695
 20
20.0000061
 30
0.0
 11
-105.17109994
 21
20.0000061
 31
0.0
  0
LINE
  8
0
  6
CENTER
 62
       2
  5
67
 10
-139.69999695
 20
62.4100061
 30
0.0
 11
-139.69999695
 21
-6.4499939
 31
0.0
  0
LINE
  8
0
  6
CONTINUOUS
 62
       7
  5
68
 10
-144.96999695
 20
-0.1199939
 30
0.0
 11
-143.45999695
 21
1.3800061
 31
0.0
  0
LINE
  8
0
  6
CONTINUOUS
 62
       7
  5
69
 10
-159.81999695
 20
14.7200061
 30
0.0
 11
-157.69999695
 21
16.8400061
 31
0.0
  0
LINE
  8
0
  6
CONTINUOUS
 62
       7
  5
6A
 10
-121.69999695
 20
23.1500061
 30
0.0
 11
-119.56999695
 21
25.2700061
 31
0.0
  0
LINE
  8
0
  6
CENTER
 62
       2
  5
6B
 10
-128.69999695
 20
10.1000061
 30
0.0
 11
-128.69999695
 21
3.3500061
 31
0.0
  0
LINE
  8
0
  6
CENTER
 62
       2
  5
6C
 10
-150.69999695
 20
36.4200061
 30
0.0
 11
-150.69999695
 21
29.6700061
 31
0.0
  0
LINE
  8
0
  6
CENTER
 62
       2
  5
6D
 10
-130.01999695
 20
9.0000061
 30
0.0
 11
-123.71999695
 21
9.0000061
 31
0.0
  0
LINE
  8
0
  6
CENTER
 62
       2
  5
6E
 10
-155.36999695
 20
31.0000061
 30
0.0
 11
-149.51999695
 21
31.0000061
 31
0.0
  0
LINE
  8
0
  6
CONTINUOUS
 62
       7
  5
6F
 10
-154.69999695
 20
33.3000061
 30
0.0
 11
-150.69999695
 21
35.6100061
 31
0.0
  0
LINE
  8
0
  6
CONTINUOUS
 62
       7
  5
70
 10
-128.69999695
 20
4.3800061
 30
0.0
 11
-124.69999695
 21
6.6900061
 31
0.0
  0
LINE
  8
0
  6
CONTINUOUS
 62
       7
  5
71
 10
-150.69999695
 20
35.6100061
 30
0.0
 11
-149.66999695
 21
35.0200061
 31
0.0
  0
LINE
  8
0
  6
CONTINUOUS
 62
       7
  5
72
 10
-129.71999695
 20
4.9700061
 30
0.0
 11
-128.69999695
 21
4.3800061
 31
0.0
  0
LINE
  8
0
  6
CONTINUOUS
 62
       7
  5
73
 10
-124.69999695
 20
7.8700061
 30
0.0
 11
-124.69999695
 21
6.6900061
 31
0.0
  0
LINE
  8
0
  6
CONTINUOUS
 62
       7
  5
74
 10
-154.69999695
 20
33.3000061
 30
0.0
 11
-154.69999695
 21
32.1200061
 31
0.0
  0
LINE
  8
0
  6
CONTINUOUS
 62
       2
  5
75
 10
-166.69999695
 20
22.0000061
 30
0.0
 11
-171.69999695
 21
22.0000061
 31
0.0
  0
LINE
  8
0
  6
CONTINUOUS
 62
       2
  5
76
 10
-159.69999695
 20
25.7000061
 30
0.0
 11
-161.69999695
 21
25.7000061
 31
0.0
  0
LINE
  8
0
  6
CONTINUOUS
 62
       2
  5
77
 10
-160.06999695
 20
24.2000061
 30
0.0
 11
-161.69999695
 21
24.2000061
 31
0.0
  0
LINE
  8
0
  6
CONTINUOUS
 62
       7
  5
78
 10
-166.69999695
 20
25.5000061
 30
0.0
 11
-166.69999695
 21
14.5000061
 31
0.0
  0
LINE
  8
0
  6
CONTINUOUS
 62
       7
  5
79
 10
-161.69999695
 20
28.5000061
 30
0.0
 11
-161.69999695
 21
11.5000061
 31
0.0
  0
LINE
  8
0
  6
CONTINUOUS
 62
       7
  5
7A
 10
-166.69999695
 20
14.5000061
 30
0.0
 11
-165.69999695
 21
13.5000061
 31
0.0
  0
LINE
  8
0
  6
CONTINUOUS
 62
       7
  5
7B
 10
-166.69999695
 20
25.5000061
 30
0.0
 11
-165.69999695
 21
26.5000061
 31
0.0
  0
LINE
  8
0
  6
CONTINUOUS
 62
       2
  5
7C
 10
-166.69999695
 20
24.0000061
 30
0.0
 11
-171.69999695
 21
24.0000061
 31
0.0
  0
LINE
  8
0
  6
CONTINUOUS
 62
       7
  5
7D
 10
-158.67999695
 20
28.5000061
 30
0.0
 11
-161.69999695
 21
28.5000061
 31
0.0
  0
LINE
  8
0
  6
CONTINUOUS
 62
       2
  5
7E
 10
-159.69999695
 20
14.3000061
 30
0.0
 11
-161.69999695
 21
14.3000061
 31
0.0
  0
LINE
  8
0
  6
CONTINUOUS
 62
       7
  5
7F
 10
-171.69999695
 20
18.0000061
 30
0.0
 11
-171.69999695
 21
16.0000061
 31
0.0
  0
LINE
  8
0
  6
CONTINUOUS
 62
       7
  5
80
 10
-161.69999695
 20
26.5000061
 30
0.0
 11
-165.69999695
 21
26.5000061
 31
0.0
  0
LINE
  8
0
  6
CONTINUOUS
 62
       7
  5
81
 10
-161.69999695
 20
13.5000061
 30
0.0
 11
-165.69999695
 21
13.5000061
 31
0.0
  0
LINE
  8
0
  6
CONTINUOUS
 62
       7
  5
82
 10
-166.69999695
 20
18.5000061
 30
0.0
 11
-171.19999695
 21
18.5000061
 31
0.0
  0
LINE
  8
0
  6
CONTINUOUS
 62
       7
  5
83
 10
-165.69999695
 20
13.5000061
 30
0.0
 11
-165.69999695
 21
26.5000061
 31
0.0
  0
LINE
  8
0
  6
CONTINUOUS
 62
       7
  5
84
 10
-166.69999695
 20
15.5000061
 30
0.0
 11
-171.19999695
 21
15.5000061
 31
0.0
  0
LINE
  8
0
  6
CONTINUOUS
 62
       7
  5
85
 10
-171.69999695
 20
24.0000061
 30
0.0
 11
-171.69999695
 21
22.0000061
 31
0.0
  0
LINE
  8
0
  6
CONTINUOUS
 62
       2
  5
86
 10
-160.06999695
 20
15.8000061
 30
0.0
 11
-161.69999695
 21
15.8000061
 31
0.0
  0
LINE
  8
0
  6
CONTINUOUS
 62
       2
  5
87
 10
-160.37999695
 20
17.8000061
 30
0.0
 11
-161.69999695
 21
17.8000061
 31
0.0
  0
LINE
  8
0
  6
CONTINUOUS
 62
       2
  5
88
 10
-160.37999695
 20
22.2000061
 30
0.0
 11
-161.69999695
 21
22.2000061
 31
0.0
  0
LINE
  8
0
  6
CONTINUOUS
 62
       2
  5
89
 10
-159.38999695
 20
13.3000061
 30
0.0
 11
-161.69999695
 21
13.3000061
 31
0.0
  0
LINE
  8
0
  6
CONTINUOUS
 62
       2
  5
8A
 10
-159.09999695
 20
12.5000061
 30
0.0
 11
-161.69999695
 21
12.5000061
 31
0.0
  0
LINE
  8
0
  6
CONTINUOUS
 62
       2
  5
8B
 10
-159.38999695
 20
26.7000061
 30
0.0
 11
-161.69999695
 21
26.7000061
 31
0.0
  0
LINE
  8
0
  6
CONTINUOUS
 62
       2
  5
8C
 10
-166.69999695
 20
18.0000061
 30
0.0
 11
-171.69999695
 21
18.0000061
 31
0.0
  0
LINE
  8
0
  6
CONTINUOUS
 62
       2
  5
8D
 10
-159.09999695
 20
27.5000061
 30
0.0
 11
-161.69999695
 21
27.5000061
 31
0.0
  0
LINE
  8
0
  6
CONTINUOUS
 62
       2
  5
8E
 10
-161.69999695
 20
25.5000061
 30
0.0
 11
-166.69999695
 21
25.5000061
 31
0.0
  0
LINE
  8
0
  6
CONTINUOUS
 62
       2
  5
8F
 10
-161.69999695
 20
14.5000061
 30
0.0
 11
-166.69999695
 21
14.5000061
 31
0.0
  0
LINE
  8
0
  6
CONTINUOUS
 62
       7
  5
90
 10
-158.67999695
 20
11.5000061
 30
0.0
 11
-161.69999695
 21
11.5000061
 31
0.0
  0
LINE
  8
0
  6
CONTINUOUS
 62
       7
  5
91
 10
-166.69999695
 20
24.5000061
 30
0.0
 11
-171.19999695
 21
24.5000061
 31
0.0
  0
LINE
  8
0
  6
CONTINUOUS
 62
       7
  5
92
 10
-166.69999695
 20
21.5000061
 30
0.0
 11
-171.19999695
 21
21.5000061
 31
0.0
  0
LINE
  8
0
  6
CONTINUOUS
 62
       2
  5
93
 10
-166.69999695
 20
16.0000061
 30
0.0
 11
-171.69999695
 21
16.0000061
 31
0.0
  0
LINE
  8
0
  6
CENTER
 62
       2
  5
94
 10
-159.38999695
 20
23.0000061
 30
0.0
 11
-172.16999695
 21
23.0000061
 31
0.0
  0
LINE
  8
0
  6
CENTER
 62
       2
  5
95
 10
-159.22999695
 20
17.0000061
 30
0.0
 11
-172.12999695
 21
17.0000061
 31
0.0
  0
LINE
  8
0
  6
CONTINUOUS
 62
       7
  5
96
 10
-171.19999695
 20
24.5000061
 30
0.0
 11
-171.69999695
 21
24.0000061
 31
0.0
  0
LINE
  8
0
  6
CONTINUOUS
 62
       7
  5
97
 10
-171.69999695
 20
22.0000061
 30
0.0
 11
-171.19999695
 21
21.5000061
 31
0.0
  0
LINE
  8
0
  6
CONTINUOUS
 62
       7
  5
98
 10
-171.19999695
 20
18.5000061
 30
0.0
 11
-171.69999695
 21
18.0000061
 31
0.0
  0
LINE
  8
0
  6
CONTINUOUS
 62
       7
  5
99
 10
-171.69999695
 20
16.0000061
 30
0.0
 11
-171.19999695
 21
15.5000061
 31
0.0
  0
LINE
  8
0
  6
CONTINUOUS
 62
       7
  5
9A
 10
-171.19999695
 20
21.5000061
 30
0.0
 11
-171.19999695
 21
24.5000061
 31
0.0
  0
LINE
  8
0
  6
CONTINUOUS
 62
       7
  5
9B
 10
-171.19999695
 20
18.5000061
 30
0.0
 11
-171.19999695
 21
15.5000061
 31
0.0
  0
LINE
  8
0
  6
CONTINUOUS
 62
       2
  5
9C
 10
-158.84999695
 20
28.1000061
 30
0.0
 11
-161.69999695
 21
28.1000061
 31
0.0
  0
LINE
  8
0
  6
CONTINUOUS
 62
       2
  5
9D
 10
-158.84999695
 20
11.9000061
 30
0.0
 11
-161.69999695
 21
11.9000061
 31
0.0
  0
LINE
  8
0
  6
CONTINUOUS
 62
       7
  5
9E
 10
67.31000305
 20
37.5000061
 30
0.0
 11
67.31000305
 21
21.4700061
 31
0.0
  0
LINE
  8
0
  6
CONTINUOUS
 62
       7
  5
9F
 10
75.31000305
 20
40.3000061
 30
0.0
 11
75.31000305
 21
22.4700061
 31
0.0
  0
LINE
  8
0
  6
CONTINUOUS
 62
       7
  5
A0
 10
67.31000305
 20
37.5000061
 30
0.0
 11
75.31000305
 21
37.5000061
 31
0.0
  0
LINE
  8
0
  6
CONTINUOUS
 62
       7
  5
A1
 10
67.31000305
 20
2.5000061
 30
0.0
 11
75.31000305
 21
2.5000061
 31
0.0
  0
LINE
  8
0
  6
CONTINUOUS
 62
       7
  5
A2
 10
75.81000305
 20
40.8000061
 30
0.0
 11
75.81000305
 21
25.2700061
 31
0.0
  0
LINE
  8
0
  6
CONTINUOUS
 62
       7
  5
A3
 10
92.31000305
 20
40.0000061
 30
0.0
 11
92.31000305
 21
0.0000061
 31
0.0
  0
LINE
  8
0
  6
CONTINUOUS
 62
       7
  5
A4
 10
91.31000305
 20
40.8000061
 30
0.0
 11
91.31000305
 21
-0.7999939
 31
0.0
  0
LINE
  8
0
  6
CONTINUOUS
 62
       7
  5
A5
 10
75.81000305
 20
40.8000061
 30
0.0
 11
91.31000305
 21
40.8000061
 31
0.0
  0
LINE
  8
0
  6
CONTINUOUS
 62
       7
  5
A6
 10
76.81000305
 20
-0.7999939
 30
0.0
 11
91.31000305
 21
-0.7999939
 31
0.0
  0
LINE
  8
0
  6
CONTINUOUS
 62
       7
  5
A7
 10
91.31000305
 20
-0.7999939
 30
0.0
 11
92.31000305
 21
0.2000061
 31
0.0
  0
LINE
  8
0
  6
CONTINUOUS
 62
       7
  5
A8
 10
91.31000305
 20
40.8000061
 30
0.0
 11
92.31000305
 21
39.8000061
 31
0.0
  0
LINE
  8
0
  6
CONTINUOUS
 62
       7
  5
A9
 10
75.31000305
 20
40.3000061
 30
0.0
 11
75.81000305
 21
40.8000061
 31
0.0
  0
LINE
  8
0
  6
CONTINUOUS
 62
       7
  5
AA
 10
75.31000305
 20
25.2700061
 30
0.0
 11
76.81000305
 21
25.2700061
 31
0.0
  0
LINE
  8
0
  6
CONTINUOUS
 62
       7
  5
AB
 10
67.31000305
 20
22.4700061
 30
0.0
 11
75.31000305
 21
22.4700061
 31
0.0
  0
LINE
  8
0
  6
CONTINUOUS
 62
       7
  5
AC
 10
75.81000305
 20
4.3500061
 30
0.0
 11
75.81000305
 21
-0.1199939
 31
0.0
  0
LINE
  8
0
  6
CONTINUOUS
 62
       7
  5
AD
 10
76.81000305
 20
25.2700061
 30
0.0
 11
76.81000305
 21
-0.7999939
 31
0.0
  0
LINE
  8
0
  6
CONTINUOUS
 62
       7
  5
AE
 10
75.31000305
 20
4.3500061
 30
0.0
 11
75.31000305
 21
0.3700061
 31
0.0
  0
LINE
  8
0
  6
CENTER
 62
       2
  5
AF
 10
69.82000305
 20
9.0000061
 30
0.0
 11
77.52000305
 21
9.0000061
 31
0.0
  0
LINE
  8
0
  6
CONTINUOUS
 62
       7
  5
B0
 10
66.31000305
 20
21.4700061
 30
0.0
 11
66.31000305
 21
3.2000061
 31
0.0
  0
LINE
  8
0
  6
CONTINUOUS
 62
       7
  5
B1
 10
67.31000305
 20
3.2000061
 30
0.0
 11
67.31000305
 21
2.5000061
 31
0.0
  0
LINE
  8
0
  6
CONTINUOUS
 62
       7
  5
B2
 10
66.31000305
 20
21.4700061
 30
0.0
 11
67.31000305
 21
21.4700061
 31
0.0
  0
LINE
  8
0
  6
CONTINUOUS
 62
       7
  5
B3
 10
75.31000305
 20
13.6500061
 30
0.0
 11
75.31000305
 21
4.3500061
 31
0.0
  0
LINE
  8
0
  6
CONTINUOUS
 62
       7
  5
B4
 10
75.31000305
 20
13.6500061
 30
0.0
 11
76.81000305
 21
13.6500061
 31
0.0
  0
LINE
  8
0
  6
CONTINUOUS
 62
       7
  5
B5
 10
75.31000305
 20
4.3500061
 30
0.0
 11
76.81000305
 21
4.3500061
 31
0.0
  0
LINE
  8
0
  6
CONTINUOUS
 62
       7
  5
B6
 10
75.31000305
 20
10.3600061
 30
0.0
 11
76.81000305
 21
9.5000061
 31
0.0
  0
LINE
  8
0
  6
CONTINUOUS
 62
       7
  5
B7
 10
75.31000305
 20
9.3600061
 30
0.0
 11
76.81000305
 21
8.5000061
 31
0.0
  0
LINE
  8
0
  6
CONTINUOUS
 62
       7
  5
B8
 10
71.31000305
 20
13.0000061
 30
0.0
 11
71.31000305
 21
5.0000061
 31
0.0
  0
LINE
  8
0
  6
CONTINUOUS
 62
       7
  5
B9
 10
71.66000305
 20
13.6100061
 30
0.0
 11
74.95000305
 21
13.6100061
 31
0.0
  0
LINE
  8
0
  6
CONTINUOUS
 62
       7
  5
BA
 10
71.66000305
 20
11.3000061
 30
0.0
 11
74.95000305
 21
11.3000061
 31
0.0
  0
LINE
  8
0
  6
CONTINUOUS
 62
       7
  5
BB
 10
71.66000305
 20
6.6900061
 30
0.0
 11
74.95000305
 21
6.6900061
 31
0.0
  0
LINE
  8
0
  6
CONTINUOUS
 62
       7
  5
BC
 10
71.66000305
 20
4.3800061
 30
0.0
 11
74.95000305
 21
4.3800061
 31
0.0
  0
LINE
  8
0
  6
CONTINUOUS
 62
       7
  5
BD
 10
71.31000305
 20
13.0000061
 30
0.0
 11
71.66000305
 21
13.6100061
 31
0.0
  0
LINE
  8
0
  6
CONTINUOUS
 62
       7
  5
BE
 10
74.95000305
 20
4.3800061
 30
0.0
 11
75.31000305
 21
5.0000061
 31
0.0
  0
LINE
  8
0
  6
CONTINUOUS
 62
       7
  5
BF
 10
74.95000305
 20
13.6100061
 30
0.0
 11
75.31000305
 21
13.0000061
 31
0.0
  0
LINE
  8
0
  6
CONTINUOUS
 62
       7
  5
C0
 10
71.31000305
 20
5.0000061
 30
0.0
 11
71.66000305
 21
4.3800061
 31
0.0
  0
LINE
  8
0
  6
CONTINUOUS
 62
       7
  5
C1
 10
70.31000305
 20
11.0000061
 30
0.0
 11
70.31000305
 21
7.0000061
 31
0.0
  0
LINE
  8
0
  6
CONTINUOUS
 62
       7
  5
C2
 10
70.81000305
 20
11.5000061
 30
0.0
 11
71.31000305
 21
11.5000061
 31
0.0
  0
LINE
  8
0
  6
CONTINUOUS
 62
       7
  5
C3
 10
70.81000305
 20
6.5000061
 30
0.0
 11
71.31000305
 21
6.5000061
 31
0.0
  0
LINE
  8
0
  6
CONTINUOUS
 62
       7
  5
C4
 10
70.81000305
 20
11.5000061
 30
0.0
 11
70.81000305
 21
6.5000061
 31
0.0
  0
LINE
  8
0
  6
CONTINUOUS
 62
       7
  5
C5
 10
70.31000305
 20
11.0000061
 30
0.0
 11
70.81000305
 21
11.5000061
 31
0.0
  0
LINE
  8
0
  6
CONTINUOUS
 62
       7
  5
C6
 10
70.31000305
 20
7.0000061
 30
0.0
 11
70.81000305
 21
6.5000061
 31
0.0
  0
LINE
  8
0
  6
CONTINUOUS
 62
       2
  5
C7
 10
70.37000305
 20
11.0600061
 30
0.0
 11
71.31000305
 21
11.0600061
 31
0.0
  0
LINE
  8
0
  6
CONTINUOUS
 62
       2
  5
C8
 10
70.37000305
 20
6.9300061
 30
0.0
 11
71.31000305
 21
6.9300061
 31
0.0
  0
LINE
  8
0
  6
CONTINUOUS
 62
       7
  5
C9
 10
159.31000305
 20
-0.9999939
 30
0.0
 11
114.81000305
 21
-0.9999939
 31
0.0
  0
LINE
  8
0
  6
CONTINUOUS
 62
       7
  5
CA
 10
159.31000305
 20
41.0000061
 30
0.0
 11
114.81000305
 21
41.0000061
 31
0.0
  0
LINE
  8
0
  6
CONTINUOUS
 62
       7
  5
CB
 10
117.81000305
 20
-0.9999939
 30
0.0
 11
117.81000305
 21
41.0000061
 31
0.0
  0
LINE
  8
0
  6
CONTINUOUS
 62
       7
  5
CC
 10
92.31000305
 20
40.0000061
 30
0.0
 11
93.31000305
 21
41.0000061
 31
0.0
  0
LINE
  8
0
  6
CONTINUOUS
 62
       7
  5
CD
 10
93.31000305
 20
-0.9999939
 30
0.0
 11
92.31000305
 21
0.0000061
 31
0.0
  0
LINE
  8
0
  6
CONTINUOUS
 62
       7
  5
CE
 10
93.31000305
 20
41.0000061
 30
0.0
 11
93.31000305
 21
-0.9999939
 31
0.0
  0
LINE
  8
0
  6
CENTER
 62
       2
  5
CF
 10
123.81000305
 20
-5.4999939
 30
0.0
 11
123.81000305
 21
0.6200061
 31
0.0
  0
LINE
  8
0
  6
CONTINUOUS
 62
       7
  5
D0
 10
98.81000305
 20
41.0000061
 30
0.0
 11
93.31000305
 21
41.0000061
 31
0.0
  0
LINE
  8
0
  6
CONTINUOUS
 62
       7
  5
D1
 10
98.81000305
 20
-0.9999939
 30
0.0
 11
93.31000305
 21
-0.9999939
 31
0.0
  0
LINE
  8
0
  6
CONTINUOUS
 62
       7
  5
D2
 10
127.81000305
 20
-1.9999939
 30
0.0
 11
127.81000305
 21
-0.9999939
 31
0.0
  0
LINE
  8
0
  6
CONTINUOUS
 62
       7
  5
D3
 10
119.81000305
 20
-1.9999939
 30
0.0
 11
119.81000305
 21
-0.9999939
 31
0.0
  0
LINE
  8
0
  6
CONTINUOUS
 62
       7
  5
D4
 10
127.81000305
 20
42.0000061
 30
0.0
 11
119.81000305
 21
42.0000061
 31
0.0
  0
LINE
  8
0
  6
CONTINUOUS
 62
       7
  5
D5
 10
127.81000305
 20
-1.9999939
 30
0.0
 11
119.81000305
 21
-1.9999939
 31
0.0
  0
LINE
  8
0
  6
CONTINUOUS
 62
       7
  5
D6
 10
127.81000305
 20
41.0000061
 30
0.0
 11
127.81000305
 21
42.0000061
 31
0.0
  0
LINE
  8
0
  6
CONTINUOUS
 62
       7
  5
D7
 10
119.81000305
 20
41.0000061
 30
0.0
 11
119.81000305
 21
42.0000061
 31
0.0
  0
LINE
  8
0
  6
CENTER
 62
       2
  5
D8
 10
123.81000305
 20
40.0000061
 30
0.0
 11
123.81000305
 21
45.5000061
 31
0.0
  0
LINE
  8
0
  6
CONTINUOUS
 62
       7
  5
D9
 10
112.31000305
 20
-1.9999939
 30
0.0
 11
101.31000305
 21
-1.9999939
 31
0.0
  0
LINE
  8
0
  6
CONTINUOUS
 62
       7
  5
DA
 10
113.31000305
 20
-0.9999939
 30
0.0
 11
113.31000305
 21
-0.6599939
 31
0.0
  0
LINE
  8
0
  6
CONTINUOUS
 62
       7
  5
DB
 10
100.31000305
 20
-0.9999939
 30
0.0
 11
100.31000305
 21
-0.6599939
 31
0.0
  0
LINE
  8
0
  6
CONTINUOUS
 62
       7
  5
DC
 10
113.31000305
 20
-0.9999939
 30
0.0
 11
112.31000305
 21
-1.9999939
 31
0.0
  0
LINE
  8
0
  6
CONTINUOUS
 62
       7
  5
DD
 10
101.31000305
 20
-1.9999939
 30
0.0
 11
100.31000305
 21
-0.9999939
 31
0.0
  0
LINE
  8
0
  6
CONTINUOUS
 62
       7
  5
DE
 10
113.31000305
 20
-0.9999939
 30
0.0
 11
100.31000305
 21
-0.9999939
 31
0.0
  0
LINE
  8
0
  6
CONTINUOUS
 62
       2
  5
DF
 10
112.31000305
 20
-1.9999939
 30
0.0
 11
112.31000305
 21
-0.4699939
 31
0.0
  0
LINE
  8
0
  6
CONTINUOUS
 62
       2
  5
E0
 10
101.31000305
 20
-1.9999939
 30
0.0
 11
101.31000305
 21
-0.4699939
 31
0.0
  0
LINE
  8
0
  6
CONTINUOUS
 62
       7
  5
E1
 10
167.31000305
 20
16.0000061
 30
0.0
 11
167.31000305
 21
24.0000061
 31
0.0
  0
LINE
  8
0
  6
CONTINUOUS
 62
       7
  5
E2
 10
165.41000305
 20
14.0000061
 30
0.0
 11
165.31000305
 21
14.0000061
 31
0.0
  0
LINE
  8
0
  6
CENTER
 62
       2
  5
E3
 10
192.56000305
 20
17.0000061
 30
0.0
 11
167.31000305
 21
17.0000061
 31
0.0
  0
LINE
  8
0
  6
CONTINUOUS
 62
       7
  5
E4
 10
185.18000305
 20
22.0000061
 30
0.0
 11
177.45500305
 21
22.0000061
 31
0.0
  0
LINE
  8
0
  6
CENTER
 62
       2
  5
E5
 10
192.18000305
 20
23.0000061
 30
0.0
 11
167.31000305
 21
23.0000061
 31
0.0
  0
LINE
  8
0
  6
CONTINUOUS
 62
       7
  5
E6
 10
185.18000305
 20
24.0000061
 30
0.0
 11
177.99000305
 21
24.0000061
 31
0.0
  0
LINE
  8
0
  6
CONTINUOUS
 62
       7
  5
E7
 10
185.18000305
 20
16.0000061
 30
0.0
 11
175.85000305
 21
16.0000061
 31
0.0
  0
LINE
  8
0
  6
CONTINUOUS
 62
       7
  5
E8
 10
185.18000305
 20
18.0000061
 30
0.0
 11
185.18000305
 21
16.0000061
 31
0.0
  0
LINE
  8
0
  6
CONTINUOUS
 62
       7
  5
E9
 10
185.18000305
 20
24.0000061
 30
0.0
 11
185.18000305
 21
22.0000061
 31
0.0
  0
LINE
  8
0
  6
CONTINUOUS
 62
       7
  5
EA
 10
175.91968303
 20
24.0000061
 30
0.0
 11
167.31000305
 21
24.0000061
 31
0.0
  0
LINE
  8
0
  6
CONTINUOUS
 62
       7
  5
EB
 10
175.38468303
 20
22.0000061
 30
0.0
 11
167.31000305
 21
22.0000061
 31
0.0
  0
LINE
  8
0
  6
CONTINUOUS
 62
       7
  5
EC
 10
185.18000305
 20
18.0000061
 30
0.0
 11
176.38500305
 21
18.0000061
 31
0.0
  0
LINE
  8
0
  6
CONTINUOUS
 62
       7
  5
ED
 10
190.31000305
 20
22.5000061
 30
0.0
 11
185.18000305
 21
22.5000061
 31
0.0
  0
LINE
  8
0
  6
CONTINUOUS
 62
       7
  5
EE
 10
185.18000305
 20
23.5000061
 30
0.0
 11
190.31000305
 21
23.5000061
 31
0.0
  0
LINE
  8
0
  6
CONTINUOUS
 62
       7
  5
EF
 10
190.31000305
 20
23.5000061
 30
0.0
 11
190.31000305
 21
22.5000061
 31
0.0
  0
LINE
  8
0
  6
CONTINUOUS
 62
       7
  5
F0
 10
190.31000305
 20
17.5000061
 30
0.0
 11
190.31000305
 21
16.5000061
 31
0.0
  0
LINE
  8
0
  6
CONTINUOUS
 62
       7
  5
F1
 10
190.31000305
 20
16.5000061
 30
0.0
 11
185.18000305
 21
16.5000061
 31
0.0
  0
LINE
  8
0
  6
CONTINUOUS
 62
       7
  5
F2
 10
185.18000305
 20
17.5000061
 30
0.0
 11
190.31000305
 21
17.5000061
 31
0.0
  0
LINE
  8
0
  6
CONTINUOUS
 62
       7
  5
F3
 10
165.31000305
 20
5.0000061
 30
0.0
 11
165.31000305
 21
35.0000061
 31
0.0
  0
LINE
  8
0
  6
CENTER
 62
       2
  5
F4
 10
106.81000305
 20
-2.9999939
 30
0.0
 11
106.81000305
 21
48.0000061
 31
0.0
  0
LINE
  8
0
  6
CONTINUOUS
 62
       7
  5
F5
 10
113.31000305
 20
41.0000061
 30
0.0
 11
100.31000305
 21
41.0000061
 31
0.0
  0
LINE
  8
0
  6
CONTINUOUS
 62
       2
  5
F6
 10
101.31000305
 20
42.0000061
 30
0.0
 11
101.31000305
 21
40.4700061
 31
0.0
  0
LINE
  8
0
  6
CONTINUOUS
 62
       7
  5
F7
 10
101.31000305
 20
42.0000061
 30
0.0
 11
100.31000305
 21
41.0000061
 31
0.0
  0
LINE
  8
0
  6
CONTINUOUS
 62
       7
  5
F8
 10
100.31000305
 20
41.0000061
 30
0.0
 11
100.31000305
 21
40.6600061
 31
0.0
  0
LINE
  8
0
  6
CONTINUOUS
 62
       2
  5
F9
 10
112.31000305
 20
42.0000061
 30
0.0
 11
112.31000305
 21
40.4700061
 31
0.0
  0
LINE
  8
0
  6
CONTINUOUS
 62
       7
  5
FA
 10
113.31000305
 20
41.0000061
 30
0.0
 11
113.31000305
 21
40.6600061
 31
0.0
  0
LINE
  8
0
  6
CONTINUOUS
 62
       7
  5
FB
 10
113.31000305
 20
41.0000061
 30
0.0
 11
112.31000305
 21
42.0000061
 31
0.0
  0
LINE
  8
0
  6
CONTINUOUS
 62
       7
  5
FC
 10
112.31000305
 20
42.0000061
 30
0.0
 11
101.31000305
 21
42.0000061
 31
0.0
  0
LINE
  8
0
  6
CONTINUOUS
 62
       2
  5
FD
 10
-32.24999695
 20
39.5000061
 30
0.0
 11
-31.66999695
 21
40.5000061
 31
0.0
  0
LINE
  8
0
  6
CONTINUOUS
 62
       7
  5
FE
 10
-44.13999695
 20
39.5000061
 30
0.0
 11
-31.24999695
 21
39.5000061
 31
0.0
  0
LINE
  8
0
  6
CONTINUOUS
 62
       2
  5
FF
 10
-43.71999695
 20
40.5000061
 30
0.0
 11
-43.13999695
 21
39.5000061
 31
0.0
  0
LINE
  8
0
  6
CONTINUOUS
 62
       7
  5
100
 10
-27.68999695
 20
40.7900061
 30
0.0
 11
-18.89999695
 21
40.7900061
 31
0.0
  0
LINE
  8
0
  6
CONTINUOUS
 62
       7
  5
101
 10
-27.68999695
 20
44.8300061
 30
0.0
 11
-18.89999695
 21
44.8300061
 31
0.0
  0
LINE
  8
0
  6
CONTINUOUS
 62
       7
  5
102
 10
-27.68999695
 20
52.9100061
 30
0.0
 11
-18.89999695
 21
52.9100061
 31
0.0
  0
LINE
  8
0
  6
CONTINUOUS
 62
       7
  5
103
 10
-27.68999695
 20
56.9500061
 30
0.0
 11
-18.89999695
 21
56.9500061
 31
0.0
  0
LINE
  8
0
  6
CONTINUOUS
 62
       7
  5
104
 10
-28.68999695
 20
42.8100061
 30
0.0
 11
-28.68999695
 21
54.9300061
 31
0.0
  0
LINE
  8
0
  6
CONTINUOUS
 62
       7
  5
105
 10
-12.68999695
 20
44.3700061
 30
0.0
 11
-12.68999695
 21
53.3700061
 31
0.0
  0
LINE
  8
0
  6
CENTER
 62
       2
  5
106
 10
-39.57999695
 20
48.8700061
 30
0.0
 11
7.41207852
 21
48.8700061
 31
0.0
  0
LINE
  8
0
  6
CONTINUOUS
 62
       7
  5
107
 10
-18.89999695
 20
40.7900061
 30
0.0
 11
-12.69999695
 21
44.3700061
 31
0.0
  0
LINE
  8
0
  6
CONTINUOUS
 62
       7
  5
108
 10
-18.89999695
 20
56.9500061
 30
0.0
 11
-12.68999695
 21
53.3700061
 31
0.0
  0
LINE
  8
0
  6
CONTINUOUS
 62
       7
  5
109
 10
-34.18999695
 20
41.3000061
 30
0.0
 11
-34.18999695
 21
41.3700061
 31
0.0
  0
LINE
  8
0
  6
CONTINUOUS
 62
       7
  5
10A
 10
-29.12999695
 20
41.3700061
 30
0.0
 11
-29.12999695
 21
56.3700061
 31
0.0
  0
LINE
  8
0
  6
CONTINUOUS
 62
       7
  5
10B
 10
-30.18999695
 20
40.3700061
 30
0.0
 11
-30.18999695
 21
40.5000061
 31
0.0
  0
LINE
  8
0
  6
CONTINUOUS
 62
       7
  5
10C
 10
-45.18999695
 20
40.5000061
 30
0.0
 11
-30.18999695
 21
40.5000061
 31
0.0
  0
LINE
  8
0
  6
CONTINUOUS
 62
       7
  5
10D
 10
-40.18999695
 20
56.3700061
 30
0.0
 11
-29.12999695
 21
56.3700061
 31
0.0
  0
LINE
  8
0
  6
CONTINUOUS
 62
       7
  5
10E
 10
-39.68999695
 20
52.3700061
 30
0.0
 11
-29.12999695
 21
52.3700061
 31
0.0
  0
LINE
  8
0
  6
CONTINUOUS
 62
       7
  5
10F
 10
-29.68999695
 20
45.3700061
 30
0.0
 11
-29.12999695
 21
45.3700061
 31
0.0
  0
LINE
  8
0
  6
CONTINUOUS
 62
       7
  5
110
 10
-29.18999695
 20
41.3700061
 30
0.0
 11
-29.12999695
 21
41.3700061
 31
0.0
  0
LINE
  8
0
  6
CONTINUOUS
 62
       7
  5
111
 10
-41.18999695
 20
40.5000061
 30
0.0
 11
-41.18999695
 21
50.8700061
 31
0.0
  0
LINE
  8
0
  6
CONTINUOUS
 62
       7
  5
112
 10
-45.18999695
 20
40.5000061
 30
0.0
 11
-45.18999695
 21
51.3700061
 31
0.0
  0
LINE
  8
0
  6
CONTINUOUS
 62
       7
  5
113
 10
-34.18999695
 20
40.5000061
 30
0.0
 11
-34.18999695
 21
40.8700061
 31
0.0
  0
LINE
  8
0
  6
CONTINUOUS
 62
       7
  5
114
 10
-29.12999695
 20
42.8100061
 30
0.0
 11
-28.68999695
 21
42.8100061
 31
0.0
  0
LINE
  8
0
  6
CONTINUOUS
 62
       7
  5
115
 10
-29.12999695
 20
54.9300061
 30
0.0
 11
-28.68999695
 21
54.9300061
 31
0.0
  0
LINE
  8
0
  6
CENTER
 62
       2
  5
116
 10
-37.68999695
 20
36.0600061
 30
0.0
 11
-37.68999695
 21
49.8600061
 31
0.0
  0
LINE
  8
0
  6
CONTINUOUS
 62
       7
  5
117
 10
-31.34999695
 20
37.5000061
 30
0.0
 11
-31.18999695
 21
40.5000061
 31
0.0
  0
LINE
  8
0
  6
CONTINUOUS
 62
       2
  5
118
 10
-32.34999695
 20
37.5500061
 30
0.0
 11
-32.24999695
 21
39.5000061
 31
0.0
  0
LINE
  8
0
  6
CONTINUOUS
 62
       7
  5
119
 10
-12.68999695
 20
51.8700061
 30
0.0
 11
6.72902518
 21
51.8700061
 31
0.0
  0
LINE
  8
0
  6
CONTINUOUS
 62
       7
  5
11A
 10
-12.68999695
 20
45.8700061
 30
0.0
 11
7.5303816
 21
45.8700061
 31
0.0
  0
LINE
  8
0
  6
CONTINUOUS
 62
       2
  5
11B
 10
-43.13999695
 20
39.5000061
 30
0.0
 11
-43.03999695
 21
37.5500061
 31
0.0
  0
LINE
  8
0
  6
CONTINUOUS
 62
       7
  5
11C
 10
-44.18999695
 20
40.5000061
 30
0.0
 11
-44.03999695
 21
37.5000061
 31
0.0
  0
LINE
  8
0
  6
CONTINUOUS
 62
       2
  5
11D
 10
78.86000305
 20
42.8000061
 30
0.0
 11
78.28000305
 21
43.8000061
 31
0.0
  0
LINE
  8
0
  6
CONTINUOUS
 62
       7
  5
11E
 10
90.75000305
 20
42.8000061
 30
0.0
 11
77.86000305
 21
42.8000061
 31
0.0
  0
LINE
  8
0
  6
CONTINUOUS
 62
       2
  5
11F
 10
90.33000305
 20
43.8000061
 30
0.0
 11
89.75000305
 21
42.8000061
 31
0.0
  0
LINE
  8
0
  6
CONTINUOUS
 62
       7
  5
120
 10
74.31000305
 20
44.0900061
 30
0.0
 11
65.51000305
 21
44.0900061
 31
0.0
  0
LINE
  8
0
  6
CONTINUOUS
 62
       7
  5
121
 10
74.31000305
 20
48.1300061
 30
0.0
 11
65.51000305
 21
48.1300061
 31
0.0
  0
LINE
  8
0
  6
CONTINUOUS
 62
       7
  5
122
 10
74.31000305
 20
56.2100061
 30
0.0
 11
65.51000305
 21
56.2100061
 31
0.0
  0
LINE
  8
0
  6
CONTINUOUS
 62
       7
  5
123
 10
74.31000305
 20
60.2500061
 30
0.0
 11
65.51000305
 21
60.2500061
 31
0.0
  0
LINE
  8
0
  6
CONTINUOUS
 62
       7
  5
124
 10
75.31000305
 20
46.1100061
 30
0.0
 11
75.31000305
 21
58.2300061
 31
0.0
  0
LINE
  8
0
  6
CONTINUOUS
 62
       7
  5
125
 10
59.31000305
 20
47.6700061
 30
0.0
 11
59.31000305
 21
56.6700061
 31
0.0
  0
LINE
  8
0
  6
CENTER
 62
       2
  5
126
 10
86.19000305
 20
52.1700061
 30
0.0
 11
39.99000305
 21
52.1700061
 31
0.0
  0
LINE
  8
0
  6
CONTINUOUS
 62
       7
  5
127
 10
65.51000305
 20
44.0900061
 30
0.0
 11
59.31000305
 21
47.6700061
 31
0.0
  0
LINE
  8
0
  6
CONTINUOUS
 62
       7
  5
128
 10
65.51000305
 20
60.2500061
 30
0.0
 11
59.31000305
 21
56.6700061
 31
0.0
  0
LINE
  8
0
  6
CONTINUOUS
 62
       7
  5
129
 10
80.81000305
 20
44.6000061
 30
0.0
 11
80.81000305
 21
44.6700061
 31
0.0
  0
LINE
  8
0
  6
CONTINUOUS
 62
       7
  5
12A
 10
75.74000305
 20
44.6700061
 30
0.0
 11
75.74000305
 21
59.6700061
 31
0.0
  0
LINE
  8
0
  6
CONTINUOUS
 62
       7
  5
12B
 10
76.81000305
 20
43.6700061
 30
0.0
 11
76.81000305
 21
43.8000061
 31
0.0
  0
LINE
  8
0
  6
CONTINUOUS
 62
       7
  5
12C
 10
91.81000305
 20
43.8000061
 30
0.0
 11
76.81000305
 21
43.8000061
 31
0.0
  0
LINE
  8
0
  6
CONTINUOUS
 62
       7
  5
12D
 10
86.81000305
 20
59.6700061
 30
0.0
 11
75.74000305
 21
59.6700061
 31
0.0
  0
LINE
  8
0
  6
CONTINUOUS
 62
       7
  5
12E
 10
86.31000305
 20
55.6700061
 30
0.0
 11
75.74000305
 21
55.6700061
 31
0.0
  0
LINE
  8
0
  6
CONTINUOUS
 62
       7
  5
12F
 10
76.31000305
 20
48.6700061
 30
0.0
 11
75.74000305
 21
48.6700061
 31
0.0
  0
LINE
  8
0
  6
CONTINUOUS
 62
       7
  5
130
 10
75.81000305
 20
44.6700061
 30
0.0
 11
75.74000305
 21
44.6700061
 31
0.0
  0
LINE
  8
0
  6
CONTINUOUS
 62
       7
  5
131
 10
87.81000305
 20
43.8000061
 30
0.0
 11
87.81000305
 21
54.1700061
 31
0.0
  0
LINE
  8
0
  6
CONTINUOUS
 62
       7
  5
132
 10
91.81000305
 20
43.8000061
 30
0.0
 11
91.81000305
 21
54.6700061
 31
0.0
  0
LINE
  8
0
  6
CONTINUOUS
 62
       7
  5
133
 10
80.81000305
 20
43.8000061
 30
0.0
 11
80.81000305
 21
44.1700061
 31
0.0
  0
LINE
  8
0
  6
CONTINUOUS
 62
       7
  5
134
 10
75.74000305
 20
46.1100061
 30
0.0
 11
75.31000305
 21
46.1100061
 31
0.0
  0
LINE
  8
0
  6
CONTINUOUS
 62
       7
  5
135
 10
75.74000305
 20
58.2300061
 30
0.0
 11
75.31000305
 21
58.2300061
 31
0.0
  0
LINE
  8
0
  6
CONTINUOUS
 62
       7
  5
136
 10
77.96000305
 20
40.8000061
 30
0.0
 11
77.81000305
 21
43.8000061
 31
0.0
  0
LINE
  8
0
  6
CONTINUOUS
 62
       2
  5
137
 10
78.96000305
 20
40.8500061
 30
0.0
 11
78.86000305
 21
42.8000061
 31
0.0
  0
LINE
  8
0
  6
CONTINUOUS
 62
       7
  5
138
 10
59.31000305
 20
55.1700061
 30
0.0
 11
40.13000305
 21
55.1700061
 31
0.0
  0
LINE
  8
0
  6
CONTINUOUS
 62
       7
  5
139
 10
59.31000305
 20
49.1700061
 30
0.0
 11
39.85000305
 21
49.1700061
 31
0.0
  0
LINE
  8
0
  6
CONTINUOUS
 62
       2
  5
13A
 10
89.75000305
 20
42.8000061
 30
0.0
 11
89.65000305
 21
40.8500061
 31
0.0
  0
LINE
  8
0
  6
CONTINUOUS
 62
       7
  5
13B
 10
90.81000305
 20
43.8000061
 30
0.0
 11
90.65000305
 21
40.8000061
 31
0.0
  0
LINE
  8
0
  6
CENTER
 62
       2
  5
13C
 10
7.41207852
 20
48.8700061
 30
0.0
 11
38.62000305
 21
52.1100061
 31
0.0
  0
LINE
  8
0
  6
CONTINUOUS
 62
       7
  5
13D
 10
7.6555164
 20
51.91782123
 30
0.0
 11
38.21000305
 21
55.0800061
 31
0.0
  0
LINE
  8
0
  6
CONTINUOUS
 62
       7
  5
13E
 10
7.5303816
 20
45.8700061
 30
0.0
 11
39.03000305
 21
49.1300061
 31
0.0
  0
LINE
  8
0
  6
CONTINUOUS
 62
       7
  5
13F
 10
-146.13999695
 20
39.3700061
 30
0.0
 11
-146.01999695
 21
37.1300061
 31
0.0
  0
LINE
  8
0
  6
CONTINUOUS
 62
       2
  5
140
 10
-145.07999695
 20
38.3700061
 30
0.0
 11
-145.04999695
 21
37.6900061
 31
0.0
  0
LINE
  8
0
  6
CONTINUOUS
 62
       7
  5
141
 10
-132.19999695
 20
39.3700061
 30
0.0
 11
-137.24999695
 21
39.3700061
 31
0.0
  0
LINE
  8
0
  6
CONTINUOUS
 62
       7
  5
142
 10
-147.19999695
 20
52.3700061
 30
0.0
 11
-147.19999695
 21
39.3700061
 31
0.0
  0
LINE
  8
0
  6
CONTINUOUS
 62
       7
  5
143
 10
-139.69999695
 20
56.3700061
 30
0.0
 11
-147.19999695
 21
52.3700061
 31
0.0
  0
LINE
  8
0
  6
CONTINUOUS
 62
       7
  5
144
 10
-147.77999695
 20
53.5400061
 30
0.0
 11
-147.77999695
 21
44.2000061
 31
0.0
  0
LINE
  8
0
  6
CONTINUOUS
 62
       7
  5
145
 10
-147.77999695
 20
53.5400061
 30
0.0
 11
-139.69999695
 21
58.2000061
 31
0.0
  0
LINE
  8
0
  6
CONTINUOUS
 62
       7
  5
146
 10
-147.77999695
 20
44.2000061
 30
0.0
 11
-147.19999695
 21
43.8700061
 31
0.0
  0
LINE
  8
0
  6
CONTINUOUS
 62
       7
  5
147
 10
-133.30999695
 20
38.3700061
 30
0.0
 11
-135.51999695
 21
38.3700061
 31
0.0
  0
LINE
  8
0
  6
CONTINUOUS
 62
       2
  5
148
 10
-145.65999695
 20
39.3700061
 30
0.0
 11
-145.07999695
 21
38.3700061
 31
0.0
  0
LINE
  8
0
  6
CONTINUOUS
 62
       7
  5
149
 10
-133.24999695
 20
39.3700061
 30
0.0
 11
-133.36999695
 21
37.1300061
 31
0.0
  0
LINE
  8
0
  6
CONTINUOUS
 62
       2
  5
14A
 10
-134.30999695
 20
38.3700061
 30
0.0
 11
-134.33999695
 21
37.6900061
 31
0.0
  0
LINE
  8
0
  6
CONTINUOUS
 62
       7
  5
14B
 10
-132.19999695
 20
52.3700061
 30
0.0
 11
-132.19999695
 21
39.3700061
 31
0.0
  0
LINE
  8
0
  6
CONTINUOUS
 62
       7
  5
14C
 10
-139.69999695
 20
56.3700061
 30
0.0
 11
-132.19999695
 21
52.3700061
 31
0.0
  0
LINE
  8
0
  6
CONTINUOUS
 62
       7
  5
14D
 10
-131.60999695
 20
53.5400061
 30
0.0
 11
-131.60999695
 21
44.2000061
 31
0.0
  0
LINE
  8
0
  6
CONTINUOUS
 62
       7
  5
14E
 10
-131.60999695
 20
53.5400061
 30
0.0
 11
-139.69999695
 21
58.2000061
 31
0.0
  0
LINE
  8
0
  6
CONTINUOUS
 62
       7
  5
14F
 10
-131.60999695
 20
44.2000061
 30
0.0
 11
-132.19999695
 21
43.8700061
 31
0.0
  0
LINE
  8
0
  6
CONTINUOUS
 62
       2
  5
150
 10
-133.72999695
 20
39.3700061
 30
0.0
 11
-134.30999695
 21
38.3700061
 31
0.0
  0
LINE
  8
0
  6
CONTINUOUS
 62
       7
  5
151
 10
-142.13999695
 20
39.3700061
 30
0.0
 11
-147.19999695
 21
39.3700061
 31
0.0
  0
LINE
  8
0
  6
CONTINUOUS
 62
       7
  5
152
 10
-143.86999695
 20
38.3700061
 30
0.0
 11
-146.07999695
 21
38.3700061
 31
0.0
  0
LINE
  8
0
  6
CONTINUOUS
 62
       7
  5
153
 10
-131.60999695
 20
56.8400061
 30
0.0
 11
-131.60999695
 21
53.5400061
 31
0.0
  0
LINE
  8
0
  6
CONTINUOUS
 62
       7
  5
154
 10
-147.77999695
 20
56.8400061
 30
0.0
 11
-147.77999695
 21
53.5400061
 31
0.0
  0
LINE
  8
0
  6
CONTINUOUS
 62
       7
  5
155
 10
-147.77999695
 20
56.8400061
 30
0.0
 11
-139.69999695
 21
61.5000061
 31
0.0
  0
LINE
  8
0
  6
CONTINUOUS
 62
       7
  5
156
 10
-139.69999695
 20
61.5000061
 30
0.0
 11
-131.60999695
 21
56.8400061
 31
0.0
  0
LINE
  8
0
  6
CONTINUOUS
 62
       7
  5
157
 10
-25.68999695
 20
36.8000061
 30
0.0
 11
60.31000305
 21
36.8000061
 31
0.0
  0
LINE
  8
0
  6
CONTINUOUS
 62
       7
  5
158
 10
75.81000305
 20
-0.1199939
 30
0.0
 11
76.81000305
 21
-0.1199939
 31
0.0
  0
LINE
  8
0
  6
CONTINUOUS
 62
       7
  5
159
 10
75.31000305
 20
0.3700061
 30
0.0
 11
75.81000305
 21
-0.1199939
 31
0.0
  0
LINE
  8
0
  6
CONTINUOUS
 62
       7
  5
15A
 10
-48.70999695
 20
38.0000061
 30
0.0
 11
-48.20999695
 21
38.0000061
 31
0.0
  0
LINE
  8
0
  6
CONTINUOUS
 62
       7
  5
15B
 10
-48.70999695
 20
2.0000061
 30
0.0
 11
-48.20999695
 21
2.0000061
 31
0.0
  0
LINE
  8
0
  6
CONTINUOUS
 62
       7
  5
15C
 10
-56.09999695
 20
-0.7799939
 30
0.0
 11
-48.70999695
 21
-0.7799939
 31
0.0
  0
LINE
  8
0
  6
CONTINUOUS
 62
       7
  5
15D
 10
-57.70999695
 20
38.0000061
 30
0.0
 11
-57.70999695
 21
2.0000061
 31
0.0
  0
LINE
  8
0
  6
CONTINUOUS
 62
       7
  5
15E
 10
-57.70999695
 20
38.0000061
 30
0.0
 11
-56.09999695
 21
40.7800061
 31
0.0
  0
LINE
  8
0
  6
CONTINUOUS
 62
       7
  5
15F
 10
-57.70999695
 20
2.0000061
 30
0.0
 11
-56.09999695
 21
-0.7799939
 31
0.0
  0
LINE
  8
0
  6
CONTINUOUS
 62
       7
  5
160
 10
-56.09999695
 20
30.3900061
 30
0.0
 11
-48.70999695
 21
30.3900061
 31
0.0
  0
LINE
  8
0
  6
CONTINUOUS
 62
       7
  5
161
 10
-56.09999695
 20
9.6000061
 30
0.0
 11
-48.70999695
 21
9.6000061
 31
0.0
  0
LINE
  8
0
  6
CONTINUOUS
 62
       7
  5
162
 10
-56.09999695
 20
40.7800061
 30
0.0
 11
-48.70999695
 21
40.7800061
 31
0.0
  0
LINE
  8
0
  6
CONTINUOUS
 62
       7
  5
163
 10
-89.68999695
 20
25.0000061
 30
0.0
 11
-82.17999695
 21
25.0000061
 31
0.0
  0
LINE
  8
0
  6
CONTINUOUS
 62
       7
  5
164
 10
-89.68999695
 20
15.0000061
 30
0.0
 11
-82.17999695
 21
15.0000061
 31
0.0
  0
LINE
  8
0
  6
CONTINUOUS
 62
       7
  5
165
 10
-67.68999695
 20
25.0000061
 30
0.0
 11
-67.68999695
 21
15.0000061
 31
0.0
  0
LINE
  8
0
  6
CONTINUOUS
 62
       7
  5
166
 10
-65.68999695
 20
25.0000061
 30
0.0
 11
-65.68999695
 21
15.0000061
 31
0.0
  0
LINE
  8
0
  6
CONTINUOUS
 62
       7
  5
167
 10
-64.68999695
 20
26.0000061
 30
0.0
 11
-59.68999695
 21
26.0000061
 31
0.0
  0
LINE
  8
0
  6
CONTINUOUS
 62
       7
  5
168
 10
-64.68999695
 20
14.0000061
 30
0.0
 11
-59.68999695
 21
14.0000061
 31
0.0
  0
LINE
  8
0
  6
CONTINUOUS
 62
       7
  5
169
 10
-65.68999695
 20
25.0000061
 30
0.0
 11
-64.68999695
 21
26.0000061
 31
0.0
  0
LINE
  8
0
  6
CONTINUOUS
 62
       7
  5
16A
 10
-65.68999695
 20
15.0000061
 30
0.0
 11
-64.68999695
 21
14.0000061
 31
0.0
  0
LINE
  8
0
  6
CONTINUOUS
 62
       7
  5
16B
 10
-60.68999695
 20
23.3100061
 30
0.0
 11
-60.68999695
 21
16.6800061
 31
0.0
  0
LINE
  8
0
  6
CONTINUOUS
 62
       7
  5
16C
 10
-89.68999695
 20
25.0000061
 30
0.0
 11
-89.68999695
 21
15.0000061
 31
0.0
  0
LINE
  8
0
  6
CONTINUOUS
 62
       7
  5
16D
 10
-76.17999695
 20
25.0000061
 30
0.0
 11
-65.68999695
 21
25.0000061
 31
0.0
  0
LINE
  8
0
  6
CONTINUOUS
 62
       7
  5
16E
 10
-65.68999695
 20
15.0000061
 30
0.0
 11
-76.17999695
 21
15.0000061
 31
0.0
  0
LINE
  8
0
  6
CONTINUOUS
 62
       2
  5
16F
 10
-59.18999695
 20
32.5000061
 30
0.0
 11
-57.70999695
 21
32.5000061
 31
0.0
  0
LINE
  8
0
  6
CONTINUOUS
 62
       2
  5
170
 10
-59.18999695
 20
7.5000061
 30
0.0
 11
-57.70999695
 21
7.5000061
 31
0.0
  0
LINE
  8
0
  6
CONTINUOUS
 62
       7
  5
171
 10
-59.68999695
 20
32.0000061
 30
0.0
 11
-59.68999695
 21
8.0000061
 31
0.0
  0
LINE
  8
0
  6
CONTINUOUS
 62
       7
  5
172
 10
-81.55999695
 20
28.0800061
 30
0.0
 11
-76.80999695
 21
28.0800061
 31
0.0
  0
LINE
  8
0
  6
CONTINUOUS
 62
       7
  5
173
 10
-81.55999695
 20
15.9500061
 30
0.0
 11
-76.80999695
 21
15.9500061
 31
0.0
  0
LINE
  8
0
  6
CONTINUOUS
 62
       7
  5
174
 10
-81.55999695
 20
24.0400061
 30
0.0
 11
-76.80999695
 21
24.0400061
 31
0.0
  0
LINE
  8
0
  6
CONTINUOUS
 62
       7
  5
175
 10
-76.17999695
 20
27.0000061
 30
0.0
 11
-76.17999695
 21
13.0000061
 31
0.0
  0
LINE
  8
0
  6
CONTINUOUS
 62
       7
  5
176
 10
-82.17999695
 20
27.0000061
 30
0.0
 11
-82.17999695
 21
13.0000061
 31
0.0
  0
LINE
  8
0
  6
CONTINUOUS
 62
       7
  5
177
 10
-82.18999695
 20
27.0000061
 30
0.0
 11
-81.55999695
 21
28.0800061
 31
0.0
  0
LINE
  8
0
  6
CONTINUOUS
 62
       7
  5
178
 10
-76.80999695
 20
11.9100061
 30
0.0
 11
-76.17999695
 21
13.0000061
 31
0.0
  0
LINE
  8
0
  6
CONTINUOUS
 62
       7
  5
179
 10
-76.80999695
 20
28.0800061
 30
0.0
 11
-76.18999695
 21
27.0000061
 31
0.0
  0
LINE
  8
0
  6
CONTINUOUS
 62
       7
  5
17A
 10
-82.18999695
 20
13.0000061
 30
0.0
 11
-81.55999695
 21
11.9100061
 31
0.0
  0
LINE
  8
0
  6
CONTINUOUS
 62
       7
  5
17B
 10
-81.55999695
 20
11.9100061
 30
0.0
 11
-76.80999695
 21
11.9100061
 31
0.0
  0
LINE
  8
0
  6
CONTINUOUS
 62
       7
  5
17C
 10
-48.70999695
 20
40.7800061
 30
0.0
 11
-48.70999695
 21
-0.7799939
 31
0.0
  0
LINE
  8
0
  6
CONTINUOUS
 62
       7
  5
17D
 10
-48.20999695
 20
38.0000061
 30
0.0
 11
-48.20999695
 21
2.0000061
 31
0.0
  0
LINE
  8
0
  6
CONTINUOUS
 62
       7
  5
17E
 10
-64.69999695
 20
26.0000061
 30
0.0
 11
-64.69999695
 21
23.3100061
 31
0.0
  0
LINE
  8
0
  6
CONTINUOUS
 62
       7
  5
17F
 10
-64.68999695
 20
16.6800061
 30
0.0
 11
-64.68999695
 21
14.0000061
 31
0.0
  0
LINE
  8
0
  6
CONTINUOUS
 62
       7
  5
180
 10
-45.68999695
 20
6.5000061
 30
0.0
 11
-48.20999695
 21
6.5000061
 31
0.0
  0
LINE
  8
0
  6
CONTINUOUS
 62
       7
  5
181
 10
-58.18999695
 20
33.5000061
 30
0.0
 11
-57.70999695
 21
33.5000061
 31
0.0
  0
LINE
  8
0
  6
CONTINUOUS
 62
       7
  5
182
 10
-47.68999695
 20
6.5000061
 30
0.0
 11
-47.68999695
 21
33.5000061
 31
0.0
  0
LINE
  8
0
  6
CONTINUOUS
 62
       2
  5
183
 10
-48.20999695
 20
7.5000061
 30
0.0
 11
-47.68999695
 21
7.5000061
 31
0.0
  0
LINE
  8
0
  6
CONTINUOUS
 62
       2
  5
184
 10
-48.20999695
 20
32.5000061
 30
0.0
 11
-47.68999695
 21
32.5000061
 31
0.0
  0
LINE
  8
0
  6
CONTINUOUS
 62
       2
  5
185
 10
-47.68999695
 20
7.5000061
 30
0.0
 11
-45.95999695
 21
6.5000061
 31
0.0
  0
LINE
  8
0
  6
CONTINUOUS
 62
       2
  5
186
 10
-47.68999695
 20
32.5000061
 30
0.0
 11
-45.95999695
 21
33.5000061
 31
0.0
  0
LINE
  8
0
  6
CONTINUOUS
 62
       2
  5
187
 10
-90.68999695
 20
16.0000061
 30
0.0
 11
-82.17999695
 21
16.0000061
 31
0.0
  0
LINE
  8
0
  6
CONTINUOUS
 62
       2
  5
188
 10
-90.68999695
 20
24.0000061
 30
0.0
 11
-82.17999695
 21
24.0000061
 31
0.0
  0
LINE
  8
0
  6
CONTINUOUS
 62
       2
  5
189
 10
-76.17999695
 20
24.0000061
 30
0.0
 11
-67.68999695
 21
24.0000061
 31
0.0
  0
LINE
  8
0
  6
CONTINUOUS
 62
       2
  5
18A
 10
-67.68999695
 20
16.0000061
 30
0.0
 11
-76.17999695
 21
16.0000061
 31
0.0
  0
LINE
  8
0
  6
CONTINUOUS
 62
       2
  5
18B
 10
-67.68999695
 20
24.0000061
 30
0.0
 11
-65.95999695
 21
25.0000061
 31
0.0
  0
LINE
  8
0
  6
CONTINUOUS
 62
       2
  5
18C
 10
-67.68999695
 20
16.0000061
 30
0.0
 11
-65.95999695
 21
15.0000061
 31
0.0
  0
LINE
  8
0
  6
CONTINUOUS
 62
       7
  5
18D
 10
-89.68999695
 20
15.0000061
 30
0.0
 11
-90.68999695
 21
16.0000061
 31
0.0
  0
LINE
  8
0
  6
CONTINUOUS
 62
       7
  5
18E
 10
-90.68999695
 20
16.0000061
 30
0.0
 11
-90.68999695
 21
24.0000061
 31
0.0
  0
LINE
  8
0
  6
CONTINUOUS
 62
       7
  5
18F
 10
-90.68999695
 20
24.0000061
 30
0.0
 11
-89.68999695
 21
25.0000061
 31
0.0
  0
LINE
  8
0
  6
CONTINUOUS
 62
       7
  5
190
 10
-64.68999695
 20
23.3100061
 30
0.0
 11
-60.68999695
 21
23.3100061
 31
0.0
  0
LINE
  8
0
  6
CONTINUOUS
 62
       7
  5
191
 10
-64.68999695
 20
16.6800061
 30
0.0
 11
-60.68999695
 21
16.6800061
 31
0.0
  0
LINE
  8
0
  6
CONTINUOUS
 62
       2
  5
192
 10
-64.68999695
 20
23.3100061
 30
0.0
 11
-60.68999695
 21
16.6800061
 31
0.0
  0
LINE
  8
0
  6
CONTINUOUS
 62
       2
  5
193
 10
-60.68999695
 20
23.3100061
 30
0.0
 11
-64.68999695
 21
16.6800061
 31
0.0
  0
LINE
  8
0
  6
CONTINUOUS
 62
       7
  5
194
 10
-58.18999695
 20
33.5000061
 30
0.0
 11
-59.68999695
 21
32.0000061
 31
0.0
  0
LINE
  8
0
  6
CONTINUOUS
 62
       7
  5
195
 10
-59.68999695
 20
8.0000061
 30
0.0
 11
-58.18999695
 21
6.5000061
 31
0.0
  0
LINE
  8
0
  6
CONTINUOUS
 62
       7
  5
196
 10
-57.70999695
 20
6.5000061
 30
0.0
 11
-58.18999695
 21
6.5000061
 31
0.0
  0
LINE
  8
0
  6
CONTINUOUS
 62
       7
  5
197
 10
-48.20999695
 20
33.5000061
 30
0.0
 11
-45.68999695
 21
33.5000061
 31
0.0
  0
LINE
  8
0
  6
CONTINUOUS
 62
       7
  5
198
 10
-58.18999695
 20
33.5000061
 30
0.0
 11
-58.18999695
 21
6.5000061
 31
0.0
  0
CIRCLE
  8
0
  6
CONTINUOUS
 62
       7
  5
199
 10
-139.69949036
 20
20.0000061
 30
0.0
 40
12.5
  0
CIRCLE
  8
0
  6
CONTINUOUS
 62
       7
  5
19A
 10
-139.69949036
 20
20.0000061
 30
0.0
 40
13.5
  0
CIRCLE
  8
0
  6
CONTINUOUS
 62
       7
  5
19B
 10
-139.69949036
 20
20.0000061
 30
0.0
 40
18.0
  0
CIRCLE
  8
0
  6
CONTINUOUS
 62
       7
  5
19C
 10
-139.69949036
 20
20.0000061
 30
0.0
 40
5.0
  0
CIRCLE
  8
0
  6
CONTINUOUS
 62
       7
  5
19D
 10
-139.69949036
 20
20.0000061
 30
0.0
 40
7.0
  0
CIRCLE
  8
0
  6
CONTINUOUS
 62
       2
  5
19E
 10
-139.69949036
 20
20.0000061
 30
0.0
 40
4.0
  0
ARC
  8
0
  6
CONTINUOUS
 62
       7
  5
19F
 10
-139.69929173
 20
19.99971638
 30
0.0
 40
20.79929479
 50
0.0007981
 51
68.8657007
  0
ARC
  8
0
  6
CONTINUOUS
 62
       7
  5
1A0
 10
-139.69518964
 20
19.9886279
 30
0.0
 40
20.29839759
 50
13.88585063
 51
27.55927319
  0
ARC
  8
0
  6
CONTINUOUS
 62
       7
  5
1A1
 10
-139.70001077
 20
20.00041307
 30
0.0
 40
20.29829081
 50
32.44422334
 51
71.50216799
  0
ARC
  8
0
  6
CONTINUOUS
 62
       7
  5
1A2
 10
-139.69705802
 20
19.99356583
 30
0.0
 40
20.30165026
 50
193.83178599
 51
207.52959679
  0
ARC
  8
0
  6
CONTINUOUS
 62
       7
  5
1A3
 10
-139.69446376
 20
19.99639508
 30
0.0
 40
20.29815706
 50
212.46719725
 51
256.13097637
  0
ARC
  8
0
  6
CONTINUOUS
 62
       7
  5
1A4
 10
-150.69792022
 20
31.0009146
 30
0.0
 40
3.99580447
 50
78.04179327
 51
162.08561575
  0
ARC
  8
0
  6
CONTINUOUS
 62
       7
  5
1A5
 10
-128.69999952
 20
8.99971205
 30
0.0
 40
4.00661833
 50
258.04422651
 51
341.97604877
  0
CIRCLE
  8
0
  6
CONTINUOUS
 62
       2
  5
1A6
 10
84.31050964
 20
20.0000061
 30
0.0
 40
4.0
  0
CIRCLE
  8
0
  6
CONTINUOUS
 62
       7
  5
1A7
 10
84.31050964
 20
20.0000061
 30
0.0
 40
3.32349968
  0
ARC
  8
0
  6
CONTINUOUS
 62
       7
  5
1A8
 10
165.31024107
 20
24.00024412
 30
0.0
 40
1.999762
 50
359.99318044
 51
90.00681956
  0
CIRCLE
  8
0
  6
CONTINUOUS
 62
       7
  5
1A9
 10
106.81050964
 20
19.99999084
 30
0.0
 40
5.75
  0
ARC
  8
0
  6
CONTINUOUS
 62
       7
  5
1AA
 10
165.31027159
 20
15.99973756
 30
0.0
 40
1.99973148
 50
269.99230585
 51
0.00769415
  0
ARC
  8
0
  6
CONTINUOUS
 62
       7
  5
1AB
 10
159.31026969
 20
4.99973946
 30
0.0
 40
5.99973336
 50
269.99745364
 51
0.00254636
  0
ARC
  8
0
  6
CONTINUOUS
 62
       7
  5
1AC
 10
159.31024108
 20
35.00024413
 30
0.0
 40
5.99976197
 50
359.99772688
 51
90.00227312
  0
CIRCLE
  8
0
  6
CONTINUOUS
 62
       2
  5
1AD
 10
106.81050964
 20
19.99999084
 30
0.0
 40
6.5
  0
ARC
  8
0
  6
CONTINUOUS
 62
       7
  5
1AE
 10
-40.19723552
 20
51.37724468
 30
0.0
 40
4.99276667
 50
89.91693186
 51
180.08306814
  0
ARC
  8
0
  6
CONTINUOUS
 62
       7
  5
1AF
 10
-29.19723348
 20
40.37724264
 30
0.0
 40
0.99278984
 50
89.58236224
 51
180.41763776
  0
ARC
  8
0
  6
CONTINUOUS
 62
       7
  5
1B0
 10
-29.69723546
 20
40.87724461
 30
0.0
 40
4.49276732
 50
89.90768802
 51
180.09231198
  0
ARC
  8
0
  6
CONTINUOUS
 62
       7
  5
1B1
 10
-39.69723435
 20
50.87724351
 30
0.0
 40
1.49278014
 50
89.72221341
 51
180.27778659
  0
ARC
  8
0
  6
CONTINUOUS
 62
       7
  5
1B2
 10
86.81275737
 20
54.67276042
 30
0.0
 40
4.99724644
 50
359.96842047
 51
90.03157953
  0
ARC
  8
0
  6
CONTINUOUS
 62
       7
  5
1B3
 10
75.81275535
 20
43.6727584
 30
0.0
 40
0.9972515
 50
359.84187032
 51
90.15812968
  0
ARC
  8
0
  6
CONTINUOUS
 62
       7
  5
1B4
 10
76.31275731
 20
44.17276036
 30
0.0
 40
4.49724658
 50
359.9649102
 51
90.0350898
  0
ARC
  8
0
  6
CONTINUOUS
 62
       7
  5
1B5
 10
86.31275619
 20
54.17275924
 30
0.0
 40
1.49724939
 50
359.89464466
 51
90.10535534
  0
ARC
  8
0
  6
CONTINUOUS
 62
       2
  5
1B6
 10
39.96047371
 20
37.17342607
 30
0.0
 40
14.99660911
 50
89.88718065
 51
95.12822281
  0
ARC
  8
0
  6
CONTINUOUS
 62
       2
  5
1B7
 10
6.64909523
 20
63.87656798
 30
0.0
 40
15.00659008
 50
269.88892479
 51
275.12647867
  0
ARC
  8
0
  6
CONTINUOUS
 62
       7
  5
1B8
 10
40.1519926
 20
34.17589571
 30
0.0
 40
20.99412191
 50
90.06001245
 51
95.30753787
  0
ARC
  8
0
  6
CONTINUOUS
 62
       7
  5
1B9
 10
39.87776291
 20
40.1759291
 30
0.0
 40
8.99411985
 50
90.17684054
 51
95.40856419
  0
ARC
  8
0
  6
CONTINUOUS
 62
       7
  5
1BA
 10
-139.69953221
 20
48.87499567
 30
0.0
 40
8.07501045
 50
90.00329753
 51
153.08730551
  0
ARC
  8
0
  6
CONTINUOUS
 62
       7
  5
1BB
 10
-139.6994918
 20
48.8700061
 30
0.0
 40
8.08099765
 50
338.1314296
 51
21.8685704
  0
ARC
  8
0
  6
CONTINUOUS
 62
       7
  5
1BC
 10
-139.69947441
 20
19.99999517
 30
0.0
 40
20.79947746
 50
111.13773078
 51
0.00003012
  0
ARC
  8
0
  6
CONTINUOUS
 62
       7
  5
1BD
 10
-139.69499695
 20
52.17503945
 30
0.0
 40
8.08338755
 50
10.22536663
 51
169.77463337
  0
ARC
  8
0
  6
CONTINUOUS
 62
       7
  5
1BE
 10
-139.69948891
 20
48.8700061
 30
0.0
 40
8.08193794
 50
158.13410505
 51
201.86589495
  0
ARC
  8
0
  6
CONTINUOUS
 62
       7
  5
1BF
 10
-139.6929227
 20
48.87099147
 30
0.0
 40
8.07901773
 50
26.9301165
 51
90.05017003
  0
POLYLINE
  8
0
  6
CONTINUOUS
 62
       7
  5
1C0
 66
       1
 10
0.0
 20
0.0
 30
0.0
  0
VERTEX
  8
0
  6
CONTINUOUS
 62
       7
  5
268
 10
74.95000305
 20
6.6900061
 30
0.0
  0
VERTEX
  8
0
  6
CONTINUOUS
 62
       7
  5
269
 10
74.98898368
 20
6.62501428
 30
0.0
  0
VERTEX
  8
0
  6
CONTINUOUS
 62
       7
  5
26A
 10
75.02634098
 20
6.55858127
 30
0.0
  0
VERTEX
  8
0
  6
CONTINUOUS
 62
       7
  5
26B
 10
75.06195192
 20
6.49080139
 30
0.0
  0
VERTEX
  8
0
  6
CONTINUOUS
 62
       7
  5
26C
 10
75.09569349
 20
6.42176893
 30
0.0
  0
VERTEX
  8
0
  6
CONTINUOUS
 62
       7
  5
26D
 10
75.12744267
 20
6.35157821
 30
0.0
  0
VERTEX
  8
0
  6
CONTINUOUS
 62
       7
  5
26E
 10
75.15707644
 20
6.28032353
 30
0.0
  0
VERTEX
  8
0
  6
CONTINUOUS
 62
       7
  5
26F
 10
75.1844718
 20
6.20809919
 30
0.0
  0
VERTEX
  8
0
  6
CONTINUOUS
 62
       7
  5
270
 10
75.20950571
 20
6.13499951
 30
0.0
  0
VERTEX
  8
0
  6
CONTINUOUS
 62
       7
  5
271
 10
75.23205516
 20
6.06111877
 30
0.0
  0
VERTEX
  8
0
  6
CONTINUOUS
 62
       7
  5
272
 10
75.25199714
 20
5.98655131
 30
0.0
  0
VERTEX
  8
0
  6
CONTINUOUS
 62
       7
  5
273
 10
75.26920863
 20
5.9113914
 30
0.0
  0
VERTEX
  8
0
  6
CONTINUOUS
 62
       7
  5
274
 10
75.2835666
 20
5.83573338
 30
0.0
  0
VERTEX
  8
0
  6
CONTINUOUS
 62
       7
  5
275
 10
75.29494805
 20
5.75967153
 30
0.0
  0
VERTEX
  8
0
  6
CONTINUOUS
 62
       7
  5
276
 10
75.30322995
 20
5.68330016
 30
0.0
  0
VERTEX
  8
0
  6
CONTINUOUS
 62
       7
  5
277
 10
75.30828929
 20
5.60671358
 30
0.0
  0
VERTEX
  8
0
  6
CONTINUOUS
 62
       7
  5
278
 10
75.31000305
 20
5.5300061
 30
0.0
  0
VERTEX
  8
0
  6
CONTINUOUS
 62
       7
  5
279
 10
75.30828923
 20
5.45394106
 30
0.0
  0
VERTEX
  8
0
  6
CONTINUOUS
 62
       7
  5
27A
 10
75.30322983
 20
5.37806532
 30
0.0
  0
VERTEX
  8
0
  6
CONTINUOUS
 62
       7
  5
27B
 10
75.29494788
 20
5.30245805
 30
0.0
  0
VERTEX
  8
0
  6
CONTINUOUS
 62
       7
  5
27C
 10
75.2835664
 20
5.2271984
 30
0.0
  0
VERTEX
  8
0
  6
CONTINUOUS
 62
       7
  5
27D
 10
75.2692084
 20
5.1523655
 30
0.0
  0
VERTEX
  8
0
  6
CONTINUOUS
 62
       7
  5
27E
 10
75.25199689
 20
5.07803851
 30
0.0
  0
VERTEX
  8
0
  6
CONTINUOUS
 62
       7
  5
27F
 10
75.2320549
 20
5.00429657
 30
0.0
  0
VERTEX
  8
0
  6
CONTINUOUS
 62
       7
  5
280
 10
75.20950545
 20
4.93121884
 30
0.0
  0
VERTEX
  8
0
  6
CONTINUOUS
 62
       7
  5
281
 10
75.18447154
 20
4.85888447
 30
0.0
  0
VERTEX
  8
0
  6
CONTINUOUS
 62
       7
  5
282
 10
75.15707621
 20
4.78737259
 30
0.0
  0
VERTEX
  8
0
  6
CONTINUOUS
 62
       7
  5
283
 10
75.12744245
 20
4.71676236
 30
0.0
  0
VERTEX
  8
0
  6
CONTINUOUS
 62
       7
  5
284
 10
75.0956933
 20
4.64713292
 30
0.0
  0
VERTEX
  8
0
  6
CONTINUOUS
 62
       7
  5
285
 10
75.06195177
 20
4.57856343
 30
0.0
  0
VERTEX
  8
0
  6
CONTINUOUS
 62
       7
  5
286
 10
75.02634087
 20
4.51113303
 30
0.0
  0
VERTEX
  8
0
  6
CONTINUOUS
 62
       7
  5
287
 10
74.98898363
 20
4.44492087
 30
0.0
  0
VERTEX
  8
0
  6
CONTINUOUS
 62
       7
  5
288
 10
74.95000305
 20
4.3800061
 30
0.0
  0
SEQEND
  8
0
  6
CONTINUOUS
 62
       7
  5
289
  0
POLYLINE
  8
0
  6
CONTINUOUS
 62
       7
  5
1C1
 66
       1
 10
0.0
 20
0.0
 30
0.0
  0
VERTEX
  8
0
  6
CONTINUOUS
 62
       7
  5
28A
 10
74.95000305
 20
11.3000061
 30
0.0
  0
VERTEX
  8
0
  6
CONTINUOUS
 62
       7
  5
28B
 10
74.99198828
 20
11.16010512
 30
0.0
  0
VERTEX
  8
0
  6
CONTINUOUS
 62
       7
  5
28C
 10
75.03157564
 20
11.01948866
 30
0.0
  0
VERTEX
  8
0
  6
CONTINUOUS
 62
       7
  5
28D
 10
75.06872226
 20
10.87820006
 30
0.0
  0
VERTEX
  8
0
  6
CONTINUOUS
 62
       7
  5
28E
 10
75.10338523
 20
10.73628268
 30
0.0
  0
VERTEX
  8
0
  6
CONTINUOUS
 62
       7
  5
28F
 10
75.13552165
 20
10.59377985
 30
0.0
  0
VERTEX
  8
0
  6
CONTINUOUS
 62
       7
  5
290
 10
75.16508865
 20
10.45073493
 30
0.0
  0
VERTEX
  8
0
  6
CONTINUOUS
 62
       7
  5
291
 10
75.19204332
 20
10.30719125
 30
0.0
  0
VERTEX
  8
0
  6
CONTINUOUS
 62
       7
  5
292
 10
75.21634276
 20
10.16319216
 30
0.0
  0
VERTEX
  8
0
  6
CONTINUOUS
 62
       7
  5
293
 10
75.23794409
 20
10.018781
 30
0.0
  0
VERTEX
  8
0
  6
CONTINUOUS
 62
       7
  5
294
 10
75.25680441
 20
9.87400113
 30
0.0
  0
VERTEX
  8
0
  6
CONTINUOUS
 62
       7
  5
295
 10
75.27288083
 20
9.72889588
 30
0.0
  0
VERTEX
  8
0
  6
CONTINUOUS
 62
       7
  5
296
 10
75.28613044
 20
9.58350861
 30
0.0
  0
VERTEX
  8
0
  6
CONTINUOUS
 62
       7
  5
297
 10
75.29651037
 20
9.43788265
 30
0.0
  0
VERTEX
  8
0
  6
CONTINUOUS
 62
       7
  5
298
 10
75.30397771
 20
9.29206134
 30
0.0
  0
VERTEX
  8
0
  6
CONTINUOUS
 62
       7
  5
299
 10
75.30848957
 20
9.14608805
 30
0.0
  0
VERTEX
  8
0
  6
CONTINUOUS
 62
       7
  5
29A
 10
75.31000305
 20
9.0000061
 30
0.0
  0
VERTEX
  8
0
  6
CONTINUOUS
 62
       7
  5
29B
 10
75.30848957
 20
8.8532668
 30
0.0
  0
VERTEX
  8
0
  6
CONTINUOUS
 62
       7
  5
29C
 10
75.30397771
 20
8.70657157
 30
0.0
  0
VERTEX
  8
0
  6
CONTINUOUS
 62
       7
  5
29D
 10
75.29651037
 20
8.55997852
 30
0.0
  0
VERTEX
  8
0
  6
CONTINUOUS
 62
       7
  5
29E
 10
75.28613044
 20
8.41354576
 30
0.0
  0
VERTEX
  8
0
  6
CONTINUOUS
 62
       7
  5
29F
 10
75.27288082
 20
8.26733139
 30
0.0
  0
VERTEX
  8
0
  6
CONTINUOUS
 62
       7
  5
2A0
 10
75.25680441
 20
8.12139353
 30
0.0
  0
VERTEX
  8
0
  6
CONTINUOUS
 62
       7
  5
2A1
 10
75.23794409
 20
7.97579028
 30
0.0
  0
VERTEX
  8
0
  6
CONTINUOUS
 62
       7
  5
2A2
 10
75.21634276
 20
7.83057975
 30
0.0
  0
VERTEX
  8
0
  6
CONTINUOUS
 62
       7
  5
2A3
 10
75.19204332
 20
7.68582003
 30
0.0
  0
VERTEX
  8
0
  6
CONTINUOUS
 62
       7
  5
2A4
 10
75.16508865
 20
7.54156925
 30
0.0
  0
VERTEX
  8
0
  6
CONTINUOUS
 62
       7
  5
2A5
 10
75.13552165
 20
7.39788551
 30
0.0
  0
VERTEX
  8
0
  6
CONTINUOUS
 62
       7
  5
2A6
 10
75.10338522
 20
7.25482691
 30
0.0
  0
VERTEX
  8
0
  6
CONTINUOUS
 62
       7
  5
2A7
 10
75.06872226
 20
7.11245156
 30
0.0
  0
VERTEX
  8
0
  6
CONTINUOUS
 62
       7
  5
2A8
 10
75.03157564
 20
6.97081758
 30
0.0
  0
VERTEX
  8
0
  6
CONTINUOUS
 62
       7
  5
2A9
 10
74.99198828
 20
6.82998305
 30
0.0
  0
VERTEX
  8
0
  6
CONTINUOUS
 62
       7
  5
2AA
 10
74.95000305
 20
6.6900061
 30
0.0
  0
SEQEND
  8
0
  6
CONTINUOUS
 62
       7
  5
2AB
  0
POLYLINE
  8
0
  6
CONTINUOUS
 62
       7
  5
1C2
 66
       1
 10
0.0
 20
0.0
 30
0.0
  0
VERTEX
  8
0
  6
CONTINUOUS
 62
       7
  5
2AC
 10
71.66000305
 20
13.6100061
 30
0.0
  0
VERTEX
  8
0
  6
CONTINUOUS
 62
       7
  5
2AD
 10
71.62113481
 20
13.54505621
 30
0.0
  0
VERTEX
  8
0
  6
CONTINUOUS
 62
       7
  5
2AE
 10
71.58409498
 20
13.47874782
 30
0.0
  0
VERTEX
  8
0
  6
CONTINUOUS
 62
       7
  5
2AF
 10
71.54897727
 20
13.41117419
 30
0.0
  0
VERTEX
  8
0
  6
CONTINUOUS
 62
       7
  5
2B0
 10
71.5158754
 20
13.34242856
 30
0.0
  0
VERTEX
  8
0
  6
CONTINUOUS
 62
       7
  5
2B1
 10
71.4848831
 20
13.27260417
 30
0.0
  0
VERTEX
  8
0
  6
CONTINUOUS
 62
       7
  5
2B2
 10
71.45609408
 20
13.20179427
 30
0.0
  0
VERTEX
  8
0
  6
CONTINUOUS
 62
       7
  5
2B3
 10
71.42960207
 20
13.13009211
 30
0.0
  0
VERTEX
  8
0
  6
CONTINUOUS
 62
       7
  5
2B4
 10
71.40550078
 20
13.05759093
 30
0.0
  0
VERTEX
  8
0
  6
CONTINUOUS
 62
       7
  5
2B5
 10
71.38388394
 20
12.98438397
 30
0.0
  0
VERTEX
  8
0
  6
CONTINUOUS
 62
       7
  5
2B6
 10
71.36484527
 20
12.91056448
 30
0.0
  0
VERTEX
  8
0
  6
CONTINUOUS
 62
       7
  5
2B7
 10
71.34847848
 20
12.8362257
 30
0.0
  0
VERTEX
  8
0
  6
CONTINUOUS
 62
       7
  5
2B8
 10
71.3348773
 20
12.76146089
 30
0.0
  0
VERTEX
  8
0
  6
CONTINUOUS
 62
       7
  5
2B9
 10
71.32413544
 20
12.68636327
 30
0.0
  0
VERTEX
  8
0
  6
CONTINUOUS
 62
       7
  5
2BA
 10
71.31634664
 20
12.61102611
 30
0.0
  0
VERTEX
  8
0
  6
CONTINUOUS
 62
       7
  5
2BB
 10
71.3116046
 20
12.53554264
 30
0.0
  0
VERTEX
  8
0
  6
CONTINUOUS
 62
       7
  5
2BC
 10
71.31000305
 20
12.4600061
 30
0.0
  0
VERTEX
  8
0
  6
CONTINUOUS
 62
       7
  5
2BD
 10
71.31160448
 20
12.38382876
 30
0.0
  0
VERTEX
  8
0
  6
CONTINUOUS
 62
       7
  5
2BE
 10
71.31634642
 20
12.30763566
 30
0.0
  0
VERTEX
  8
0
  6
CONTINUOUS
 62
       7
  5
2BF
 10
71.32413514
 20
12.23153525
 30
0.0
  0
VERTEX
  8
0
  6
CONTINUOUS
 62
       7
  5
2C0
 10
71.33487693
 20
12.15563597
 30
0.0
  0
VERTEX
  8
0
  6
CONTINUOUS
 62
       7
  5
2C1
 10
71.34847806
 20
12.08004626
 30
0.0
  0
VERTEX
  8
0
  6
CONTINUOUS
 62
       7
  5
2C2
 10
71.36484481
 20
12.00487458
 30
0.0
  0
VERTEX
  8
0
  6
CONTINUOUS
 62
       7
  5
2C3
 10
71.38388347
 20
11.93022935
 30
0.0
  0
VERTEX
  8
0
  6
CONTINUOUS
 62
       7
  5
2C4
 10
71.40550031
 20
11.85621903
 30
0.0
  0
VERTEX
  8
0
  6
CONTINUOUS
 62
       7
  5
2C5
 10
71.42960161
 20
11.78295206
 30
0.0
  0
VERTEX
  8
0
  6
CONTINUOUS
 62
       7
  5
2C6
 10
71.45609365
 20
11.71053687
 30
0.0
  0
VERTEX
  8
0
  6
CONTINUOUS
 62
       7
  5
2C7
 10
71.48488271
 20
11.63908191
 30
0.0
  0
VERTEX
  8
0
  6
CONTINUOUS
 62
       7
  5
2C8
 10
71.51587506
 20
11.56869563
 30
0.0
  0
VERTEX
  8
0
  6
CONTINUOUS
 62
       7
  5
2C9
 10
71.548977
 20
11.49948647
 30
0.0
  0
VERTEX
  8
0
  6
CONTINUOUS
 62
       7
  5
2CA
 10
71.58409479
 20
11.43156286
 30
0.0
  0
VERTEX
  8
0
  6
CONTINUOUS
 62
       7
  5
2CB
 10
71.62113471
 20
11.36503326
 30
0.0
  0
VERTEX
  8
0
  6
CONTINUOUS
 62
       7
  5
2CC
 10
71.66000305
 20
11.3000061
 30
0.0
  0
SEQEND
  8
0
  6
CONTINUOUS
 62
       7
  5
2CD
  0
POLYLINE
  8
0
  6
CONTINUOUS
 62
       7
  5
1C3
 66
       1
 10
0.0
 20
0.0
 30
0.0
  0
VERTEX
  8
0
  6
CONTINUOUS
 62
       7
  5
2CE
 10
71.66000305
 20
11.3000061
 30
0.0
  0
VERTEX
  8
0
  6
CONTINUOUS
 62
       7
  5
2CF
 10
71.61813013
 20
11.16010507
 30
0.0
  0
VERTEX
  8
0
  6
CONTINUOUS
 62
       7
  5
2D0
 10
71.57886015
 20
11.01948848
 30
0.0
  0
VERTEX
  8
0
  6
CONTINUOUS
 62
       7
  5
2D1
 10
71.5422067
 20
10.8781997
 30
0.0
  0
VERTEX
  8
0
  6
CONTINUOUS
 62
       7
  5
2D2
 10
71.50818338
 20
10.73628207
 30
0.0
  0
VERTEX
  8
0
  6
CONTINUOUS
 62
       7
  5
2D3
 10
71.47680378
 20
10.59377899
 30
0.0
  0
VERTEX
  8
0
  6
CONTINUOUS
 62
       7
  5
2D4
 10
71.44808152
 20
10.45073379
 30
0.0
  0
VERTEX
  8
0
  6
CONTINUOUS
 62
       7
  5
2D5
 10
71.42203017
 20
10.30718985
 30
0.0
  0
VERTEX
  8
0
  6
CONTINUOUS
 62
       7
  5
2D6
 10
71.39866334
 20
10.16319054
 30
0.0
  0
VERTEX
  8
0
  6
CONTINUOUS
 62
       7
  5
2D7
 10
71.37799463
 20
10.01877921
 30
0.0
  0
VERTEX
  8
0
  6
CONTINUOUS
 62
       7
  5
2D8
 10
71.36003763
 20
9.87399924
 30
0.0
  0
VERTEX
  8
0
  6
CONTINUOUS
 62
       7
  5
2D9
 10
71.34480594
 20
9.72889397
 30
0.0
  0
VERTEX
  8
0
  6
CONTINUOUS
 62
       7
  5
2DA
 10
71.33231316
 20
9.58350679
 30
0.0
  0
VERTEX
  8
0
  6
CONTINUOUS
 62
       7
  5
2DB
 10
71.32257288
 20
9.43788104
 30
0.0
  0
VERTEX
  8
0
  6
CONTINUOUS
 62
       7
  5
2DC
 10
71.31559871
 20
9.29206011
 30
0.0
  0
VERTEX
  8
0
  6
CONTINUOUS
 62
       7
  5
2DD
 10
71.31140423
 20
9.14608734
 30
0.0
  0
VERTEX
  8
0
  6
CONTINUOUS
 62
       7
  5
2DE
 10
71.31000305
 20
9.0000061
 30
0.0
  0
VERTEX
  8
0
  6
CONTINUOUS
 62
       7
  5
2DF
 10
71.31140423
 20
8.8532668
 30
0.0
  0
VERTEX
  8
0
  6
CONTINUOUS
 62
       7
  5
2E0
 10
71.31559871
 20
8.70657157
 30
0.0
  0
VERTEX
  8
0
  6
CONTINUOUS
 62
       7
  5
2E1
 10
71.32257288
 20
8.55997852
 30
0.0
  0
VERTEX
  8
0
  6
CONTINUOUS
 62
       7
  5
2E2
 10
71.33231316
 20
8.41354576
 30
0.0
  0
VERTEX
  8
0
  6
CONTINUOUS
 62
       7
  5
2E3
 10
71.34480594
 20
8.26733139
 30
0.0
  0
VERTEX
  8
0
  6
CONTINUOUS
 62
       7
  5
2E4
 10
71.36003763
 20
8.12139353
 30
0.0
  0
VERTEX
  8
0
  6
CONTINUOUS
 62
       7
  5
2E5
 10
71.37799463
 20
7.97579028
 30
0.0
  0
VERTEX
  8
0
  6
CONTINUOUS
 62
       7
  5
2E6
 10
71.39866334
 20
7.83057975
 30
0.0
  0
VERTEX
  8
0
  6
CONTINUOUS
 62
       7
  5
2E7
 10
71.42203017
 20
7.68582003
 30
0.0
  0
VERTEX
  8
0
  6
CONTINUOUS
 62
       7
  5
2E8
 10
71.44808152
 20
7.54156925
 30
0.0
  0
VERTEX
  8
0
  6
CONTINUOUS
 62
       7
  5
2E9
 10
71.47680379
 20
7.39788551
 30
0.0
  0
VERTEX
  8
0
  6
CONTINUOUS
 62
       7
  5
2EA
 10
71.50818338
 20
7.25482691
 30
0.0
  0
VERTEX
  8
0
  6
CONTINUOUS
 62
       7
  5
2EB
 10
71.5422067
 20
7.11245156
 30
0.0
  0
VERTEX
  8
0
  6
CONTINUOUS
 62
       7
  5
2EC
 10
71.57886015
 20
6.97081758
 30
0.0
  0
VERTEX
  8
0
  6
CONTINUOUS
 62
       7
  5
2ED
 10
71.61813013
 20
6.82998305
 30
0.0
  0
VERTEX
  8
0
  6
CONTINUOUS
 62
       7
  5
2EE
 10
71.66000305
 20
6.6900061
 30
0.0
  0
SEQEND
  8
0
  6
CONTINUOUS
 62
       7
  5
2EF
  0
POLYLINE
  8
0
  6
CONTINUOUS
 62
       7
  5
1C4
 66
       1
 10
0.0
 20
0.0
 30
0.0
  0
VERTEX
  8
0
  6
CONTINUOUS
 62
       7
  5
2F0
 10
71.66000305
 20
6.6900061
 30
0.0
  0
VERTEX
  8
0
  6
CONTINUOUS
 62
       7
  5
2F1
 10
71.62113473
 20
6.62501445
 30
0.0
  0
VERTEX
  8
0
  6
CONTINUOUS
 62
       7
  5
2F2
 10
71.58409481
 20
6.55858192
 30
0.0
  0
VERTEX
  8
0
  6
CONTINUOUS
 62
       7
  5
2F3
 10
71.54897704
 20
6.49080274
 30
0.0
  0
VERTEX
  8
0
  6
CONTINUOUS
 62
       7
  5
2F4
 10
71.51587512
 20
6.42177115
 30
0.0
  0
VERTEX
  8
0
  6
CONTINUOUS
 62
       7
  5
2F5
 10
71.48488277
 20
6.35158138
 30
0.0
  0
VERTEX
  8
0
  6
CONTINUOUS
 62
       7
  5
2F6
 10
71.45609372
 20
6.28032768
 30
0.0
  0
VERTEX
  8
0
  6
CONTINUOUS
 62
       7
  5
2F7
 10
71.42960169
 20
6.20810428
 30
0.0
  0
VERTEX
  8
0
  6
CONTINUOUS
 62
       7
  5
2F8
 10
71.40550039
 20
6.13500541
 30
0.0
  0
VERTEX
  8
0
  6
CONTINUOUS
 62
       7
  5
2F9
 10
71.38388356
 20
6.06112531
 30
0.0
  0
VERTEX
  8
0
  6
CONTINUOUS
 62
       7
  5
2FA
 10
71.3648449
 20
5.98655822
 30
0.0
  0
VERTEX
  8
0
  6
CONTINUOUS
 62
       7
  5
2FB
 10
71.34847814
 20
5.91139838
 30
0.0
  0
VERTEX
  8
0
  6
CONTINUOUS
 62
       7
  5
2FC
 10
71.334877
 20
5.83574002
 30
0.0
  0
VERTEX
  8
0
  6
CONTINUOUS
 62
       7
  5
2FD
 10
71.3241352
 20
5.75967737
 30
0.0
  0
VERTEX
  8
0
  6
CONTINUOUS
 62
       7
  5
2FE
 10
71.31634646
 20
5.68330468
 30
0.0
  0
VERTEX
  8
0
  6
CONTINUOUS
 62
       7
  5
2FF
 10
71.31160451
 20
5.60671618
 30
0.0
  0
VERTEX
  8
0
  6
CONTINUOUS
 62
       7
  5
300
 10
71.31000305
 20
5.5300061
 30
0.0
  0
VERTEX
  8
0
  6
CONTINUOUS
 62
       7
  5
301
 10
71.31160457
 20
5.45394106
 30
0.0
  0
VERTEX
  8
0
  6
CONTINUOUS
 62
       7
  5
302
 10
71.31634659
 20
5.37806532
 30
0.0
  0
VERTEX
  8
0
  6
CONTINUOUS
 62
       7
  5
303
 10
71.32413537
 20
5.30245805
 30
0.0
  0
VERTEX
  8
0
  6
CONTINUOUS
 62
       7
  5
304
 10
71.33487721
 20
5.2271984
 30
0.0
  0
VERTEX
  8
0
  6
CONTINUOUS
 62
       7
  5
305
 10
71.34847837
 20
5.1523655
 30
0.0
  0
VERTEX
  8
0
  6
CONTINUOUS
 62
       7
  5
306
 10
71.36484515
 20
5.07803851
 30
0.0
  0
VERTEX
  8
0
  6
CONTINUOUS
 62
       7
  5
307
 10
71.38388382
 20
5.00429657
 30
0.0
  0
VERTEX
  8
0
  6
CONTINUOUS
 62
       7
  5
308
 10
71.40550065
 20
4.93121884
 30
0.0
  0
VERTEX
  8
0
  6
CONTINUOUS
 62
       7
  5
309
 10
71.42960194
 20
4.85888447
 30
0.0
  0
VERTEX
  8
0
  6
CONTINUOUS
 62
       7
  5
30A
 10
71.45609396
 20
4.78737259
 30
0.0
  0
VERTEX
  8
0
  6
CONTINUOUS
 62
       7
  5
30B
 10
71.48488299
 20
4.71676236
 30
0.0
  0
VERTEX
  8
0
  6
CONTINUOUS
 62
       7
  5
30C
 10
71.5158753
 20
4.64713292
 30
0.0
  0
VERTEX
  8
0
  6
CONTINUOUS
 62
       7
  5
30D
 10
71.54897719
 20
4.57856343
 30
0.0
  0
VERTEX
  8
0
  6
CONTINUOUS
 62
       7
  5
30E
 10
71.58409492
 20
4.51113303
 30
0.0
  0
VERTEX
  8
0
  6
CONTINUOUS
 62
       7
  5
30F
 10
71.62113478
 20
4.44492087
 30
0.0
  0
VERTEX
  8
0
  6
CONTINUOUS
 62
       7
  5
310
 10
71.66000305
 20
4.3800061
 30
0.0
  0
SEQEND
  8
0
  6
CONTINUOUS
 62
       7
  5
311
  0
POLYLINE
  8
0
  6
CONTINUOUS
 62
       7
  5
1C5
 66
       1
 10
0.0
 20
0.0
 30
0.0
  0
VERTEX
  8
0
  6
CONTINUOUS
 62
       7
  5
312
 10
74.95000305
 20
13.6100061
 30
0.0
  0
VERTEX
  8
0
  6
CONTINUOUS
 62
       7
  5
313
 10
74.98898359
 20
13.54505638
 30
0.0
  0
VERTEX
  8
0
  6
CONTINUOUS
 62
       7
  5
314
 10
75.02634081
 20
13.47874845
 30
0.0
  0
VERTEX
  8
0
  6
CONTINUOUS
 62
       7
  5
315
 10
75.06195169
 20
13.41117552
 30
0.0
  0
VERTEX
  8
0
  6
CONTINUOUS
 62
       7
  5
316
 10
75.0956932
 20
13.34243074
 30
0.0
  0
VERTEX
  8
0
  6
CONTINUOUS
 62
       7
  5
317
 10
75.12744234
 20
13.27260729
 30
0.0
  0
VERTEX
  8
0
  6
CONTINUOUS
 62
       7
  5
318
 10
75.15707608
 20
13.20179836
 30
0.0
  0
VERTEX
  8
0
  6
CONTINUOUS
 62
       7
  5
319
 10
75.18447142
 20
13.13009712
 30
0.0
  0
VERTEX
  8
0
  6
CONTINUOUS
 62
       7
  5
31A
 10
75.20950532
 20
13.05759674
 30
0.0
  0
VERTEX
  8
0
  6
CONTINUOUS
 62
       7
  5
31B
 10
75.23205478
 20
12.9843904
 30
0.0
  0
VERTEX
  8
0
  6
CONTINUOUS
 62
       7
  5
31C
 10
75.25199677
 20
12.91057129
 30
0.0
  0
VERTEX
  8
0
  6
CONTINUOUS
 62
       7
  5
31D
 10
75.26920829
 20
12.83623257
 30
0.0
  0
VERTEX
  8
0
  6
CONTINUOUS
 62
       7
  5
31E
 10
75.28356631
 20
12.76146743
 30
0.0
  0
VERTEX
  8
0
  6
CONTINUOUS
 62
       7
  5
31F
 10
75.29494781
 20
12.68636903
 30
0.0
  0
VERTEX
  8
0
  6
CONTINUOUS
 62
       7
  5
320
 10
75.30322978
 20
12.61103056
 30
0.0
  0
VERTEX
  8
0
  6
CONTINUOUS
 62
       7
  5
321
 10
75.3082892
 20
12.53554519
 30
0.0
  0
VERTEX
  8
0
  6
CONTINUOUS
 62
       7
  5
322
 10
75.31000305
 20
12.4600061
 30
0.0
  0
VERTEX
  8
0
  6
CONTINUOUS
 62
       7
  5
323
 10
75.30828932
 20
12.38382876
 30
0.0
  0
VERTEX
  8
0
  6
CONTINUOUS
 62
       7
  5
324
 10
75.30323
 20
12.30763566
 30
0.0
  0
VERTEX
  8
0
  6
CONTINUOUS
 62
       7
  5
325
 10
75.29494811
 20
12.23153525
 30
0.0
  0
VERTEX
  8
0
  6
CONTINUOUS
 62
       7
  5
326
 10
75.28356668
 20
12.15563597
 30
0.0
  0
VERTEX
  8
0
  6
CONTINUOUS
 62
       7
  5
327
 10
75.26920871
 20
12.08004626
 30
0.0
  0
VERTEX
  8
0
  6
CONTINUOUS
 62
       7
  5
328
 10
75.25199723
 20
12.00487458
 30
0.0
  0
VERTEX
  8
0
  6
CONTINUOUS
 62
       7
  5
329
 10
75.23205525
 20
11.93022935
 30
0.0
  0
VERTEX
  8
0
  6
CONTINUOUS
 62
       7
  5
32A
 10
75.20950579
 20
11.85621903
 30
0.0
  0
VERTEX
  8
0
  6
CONTINUOUS
 62
       7
  5
32B
 10
75.18447188
 20
11.78295206
 30
0.0
  0
VERTEX
  8
0
  6
CONTINUOUS
 62
       7
  5
32C
 10
75.15707652
 20
11.71053687
 30
0.0
  0
VERTEX
  8
0
  6
CONTINUOUS
 62
       7
  5
32D
 10
75.12744273
 20
11.63908191
 30
0.0
  0
VERTEX
  8
0
  6
CONTINUOUS
 62
       7
  5
32E
 10
75.09569354
 20
11.56869563
 30
0.0
  0
VERTEX
  8
0
  6
CONTINUOUS
 62
       7
  5
32F
 10
75.06195196
 20
11.49948647
 30
0.0
  0
VERTEX
  8
0
  6
CONTINUOUS
 62
       7
  5
330
 10
75.026341
 20
11.43156286
 30
0.0
  0
VERTEX
  8
0
  6
CONTINUOUS
 62
       7
  5
331
 10
74.9889837
 20
11.36503326
 30
0.0
  0
VERTEX
  8
0
  6
CONTINUOUS
 62
       7
  5
332
 10
74.95000305
 20
11.3000061
 30
0.0
  0
SEQEND
  8
0
  6
CONTINUOUS
 62
       7
  5
333
  0
POLYLINE
  8
0
  6
CONTINUOUS
 62
       7
  5
1C6
 66
       1
 10
0.0
 20
0.0
 30
0.0
 70
       1
  0
VERTEX
  8
0
  6
CONTINUOUS
 62
       7
  5
334
 10
89.31050964
 20
20.0000061
 30
0.0
  0
VERTEX
  8
0
  6
CONTINUOUS
 62
       7
  5
335
 10
89.29148313
 20
20.34862874
 30
0.0
  0
VERTEX
  8
0
  6
CONTINUOUS
 62
       7
  5
336
 10
89.23454841
 20
20.69459815
 30
0.0
  0
VERTEX
  8
0
  6
CONTINUOUS
 62
       7
  5
337
 10
89.14013878
 20
21.0352813
 30
0.0
  0
VERTEX
  8
0
  6
CONTINUOUS
 62
       7
  5
338
 10
89.00897275
 20
21.36808537
 30
0.0
  0
VERTEX
  8
0
  6
CONTINUOUS
 62
       7
  5
339
 10
88.84204858
 20
21.69047754
 30
0.0
  0
VERTEX
  8
0
  6
CONTINUOUS
 62
       7
  5
33A
 10
88.64063666
 20
22.0000042
 30
0.0
  0
VERTEX
  8
0
  6
CONTINUOUS
 62
       7
  5
33B
 10
88.40626986
 20
22.29430966
 30
0.0
  0
VERTEX
  8
0
  6
CONTINUOUS
 62
       7
  5
33C
 10
88.14073186
 20
22.57115409
 30
0.0
  0
VERTEX
  8
0
  6
CONTINUOUS
 62
       7
  5
33D
 10
87.84604355
 20
22.82843053
 30
0.0
  0
VERTEX
  8
0
  6
CONTINUOUS
 62
       7
  5
33E
 10
87.52444769
 20
23.06418095
 30
0.0
  0
VERTEX
  8
0
  6
CONTINUOUS
 62
       7
  5
33F
 10
87.17839183
 20
23.27661116
 30
0.0
  0
VERTEX
  8
0
  6
CONTINUOUS
 62
       7
  5
340
 10
86.81050964
 20
23.46410442
 30
0.0
  0
VERTEX
  8
0
  6
CONTINUOUS
 62
       7
  5
341
 10
86.42360095
 20
23.62523379
 30
0.0
  0
VERTEX
  8
0
  6
CONTINUOUS
 62
       7
  5
342
 10
86.02061036
 20
23.758773
 30
0.0
  0
VERTEX
  8
0
  6
CONTINUOUS
 62
       7
  5
343
 10
85.60460487
 20
23.86370572
 30
0.0
  0
VERTEX
  8
0
  6
CONTINUOUS
 62
       7
  5
344
 10
85.17875053
 20
23.93923336
 30
0.0
  0
VERTEX
  8
0
  6
CONTINUOUS
 62
       7
  5
345
 10
84.74628836
 20
23.9847811
 30
0.0
  0
VERTEX
  8
0
  6
CONTINUOUS
 62
       7
  5
346
 10
84.31050964
 20
24.00000229
 30
0.0
  0
VERTEX
  8
0
  6
CONTINUOUS
 62
       7
  5
347
 10
83.87473093
 20
23.9847811
 30
0.0
  0
VERTEX
  8
0
  6
CONTINUOUS
 62
       7
  5
348
 10
83.44226876
 20
23.93923336
 30
0.0
  0
VERTEX
  8
0
  6
CONTINUOUS
 62
       7
  5
349
 10
83.01641442
 20
23.86370572
 30
0.0
  0
VERTEX
  8
0
  6
CONTINUOUS
 62
       7
  5
34A
 10
82.60040893
 20
23.758773
 30
0.0
  0
VERTEX
  8
0
  6
CONTINUOUS
 62
       7
  5
34B
 10
82.19741833
 20
23.62523379
 30
0.0
  0
VERTEX
  8
0
  6
CONTINUOUS
 62
       7
  5
34C
 10
81.81050964
 20
23.46410442
 30
0.0
  0
VERTEX
  8
0
  6
CONTINUOUS
 62
       7
  5
34D
 10
81.44262746
 20
23.27661116
 30
0.0
  0
VERTEX
  8
0
  6
CONTINUOUS
 62
       7
  5
34E
 10
81.0965716
 20
23.06418095
 30
0.0
  0
VERTEX
  8
0
  6
CONTINUOUS
 62
       7
  5
34F
 10
80.77497574
 20
22.82843053
 30
0.0
  0
VERTEX
  8
0
  6
CONTINUOUS
 62
       7
  5
350
 10
80.48028743
 20
22.57115409
 30
0.0
  0
VERTEX
  8
0
  6
CONTINUOUS
 62
       7
  5
351
 10
80.21474942
 20
22.29430966
 30
0.0
  0
VERTEX
  8
0
  6
CONTINUOUS
 62
       7
  5
352
 10
79.98038262
 20
22.0000042
 30
0.0
  0
VERTEX
  8
0
  6
CONTINUOUS
 62
       7
  5
353
 10
79.77897071
 20
21.69047754
 30
0.0
  0
VERTEX
  8
0
  6
CONTINUOUS
 62
       7
  5
354
 10
79.61204654
 20
21.36808537
 30
0.0
  0
VERTEX
  8
0
  6
CONTINUOUS
 62
       7
  5
355
 10
79.48088051
 20
21.0352813
 30
0.0
  0
VERTEX
  8
0
  6
CONTINUOUS
 62
       7
  5
356
 10
79.38647088
 20
20.69459815
 30
0.0
  0
VERTEX
  8
0
  6
CONTINUOUS
 62
       7
  5
357
 10
79.32953615
 20
20.34862874
 30
0.0
  0
VERTEX
  8
0
  6
CONTINUOUS
 62
       7
  5
358
 10
79.31050964
 20
20.0000061
 30
0.0
  0
VERTEX
  8
0
  6
CONTINUOUS
 62
       7
  5
359
 10
79.32953615
 20
19.65138346
 30
0.0
  0
VERTEX
  8
0
  6
CONTINUOUS
 62
       7
  5
35A
 10
79.38647088
 20
19.30541406
 30
0.0
  0
VERTEX
  8
0
  6
CONTINUOUS
 62
       7
  5
35B
 10
79.48088051
 20
18.96473091
 30
0.0
  0
VERTEX
  8
0
  6
CONTINUOUS
 62
       7
  5
35C
 10
79.61204654
 20
18.63192683
 30
0.0
  0
VERTEX
  8
0
  6
CONTINUOUS
 62
       7
  5
35D
 10
79.77897071
 20
18.30953467
 30
0.0
  0
VERTEX
  8
0
  6
CONTINUOUS
 62
       7
  5
35E
 10
79.98038262
 20
18.00000801
 30
0.0
  0
VERTEX
  8
0
  6
CONTINUOUS
 62
       7
  5
35F
 10
80.21474942
 20
17.70570255
 30
0.0
  0
VERTEX
  8
0
  6
CONTINUOUS
 62
       7
  5
360
 10
80.48028743
 20
17.42885812
 30
0.0
  0
VERTEX
  8
0
  6
CONTINUOUS
 62
       7
  5
361
 10
80.77497574
 20
17.17158168
 30
0.0
  0
VERTEX
  8
0
  6
CONTINUOUS
 62
       7
  5
362
 10
81.0965716
 20
16.93583125
 30
0.0
  0
VERTEX
  8
0
  6
CONTINUOUS
 62
       7
  5
363
 10
81.44262746
 20
16.72340105
 30
0.0
  0
VERTEX
  8
0
  6
CONTINUOUS
 62
       7
  5
364
 10
81.81050964
 20
16.53590779
 30
0.0
  0
VERTEX
  8
0
  6
CONTINUOUS
 62
       7
  5
365
 10
82.19741833
 20
16.37477841
 30
0.0
  0
VERTEX
  8
0
  6
CONTINUOUS
 62
       7
  5
366
 10
82.60040893
 20
16.24123921
 30
0.0
  0
VERTEX
  8
0
  6
CONTINUOUS
 62
       7
  5
367
 10
83.01641442
 20
16.13630648
 30
0.0
  0
VERTEX
  8
0
  6
CONTINUOUS
 62
       7
  5
368
 10
83.44226876
 20
16.06077885
 30
0.0
  0
VERTEX
  8
0
  6
CONTINUOUS
 62
       7
  5
369
 10
83.87473093
 20
16.01523111
 30
0.0
  0
VERTEX
  8
0
  6
CONTINUOUS
 62
       7
  5
36A
 10
84.31050964
 20
16.00000992
 30
0.0
  0
VERTEX
  8
0
  6
CONTINUOUS
 62
       7
  5
36B
 10
84.74628836
 20
16.01523111
 30
0.0
  0
VERTEX
  8
0
  6
CONTINUOUS
 62
       7
  5
36C
 10
85.17875053
 20
16.06077885
 30
0.0
  0
VERTEX
  8
0
  6
CONTINUOUS
 62
       7
  5
36D
 10
85.60460487
 20
16.13630648
 30
0.0
  0
VERTEX
  8
0
  6
CONTINUOUS
 62
       7
  5
36E
 10
86.02061036
 20
16.24123921
 30
0.0
  0
VERTEX
  8
0
  6
CONTINUOUS
 62
       7
  5
36F
 10
86.42360095
 20
16.37477841
 30
0.0
  0
VERTEX
  8
0
  6
CONTINUOUS
 62
       7
  5
370
 10
86.81050964
 20
16.53590779
 30
0.0
  0
VERTEX
  8
0
  6
CONTINUOUS
 62
       7
  5
371
 10
87.17839183
 20
16.72340105
 30
0.0
  0
VERTEX
  8
0
  6
CONTINUOUS
 62
       7
  5
372
 10
87.52444769
 20
16.93583125
 30
0.0
  0
VERTEX
  8
0
  6
CONTINUOUS
 62
       7
  5
373
 10
87.84604355
 20
17.17158168
 30
0.0
  0
VERTEX
  8
0
  6
CONTINUOUS
 62
       7
  5
374
 10
88.14073186
 20
17.42885812
 30
0.0
  0
VERTEX
  8
0
  6
CONTINUOUS
 62
       7
  5
375
 10
88.40626986
 20
17.70570255
 30
0.0
  0
VERTEX
  8
0
  6
CONTINUOUS
 62
       7
  5
376
 10
88.64063666
 20
18.00000801
 30
0.0
  0
VERTEX
  8
0
  6
CONTINUOUS
 62
       7
  5
377
 10
88.84204858
 20
18.30953467
 30
0.0
  0
VERTEX
  8
0
  6
CONTINUOUS
 62
       7
  5
378
 10
89.00897275
 20
18.63192683
 30
0.0
  0
VERTEX
  8
0
  6
CONTINUOUS
 62
       7
  5
379
 10
89.14013878
 20
18.96473091
 30
0.0
  0
VERTEX
  8
0
  6
CONTINUOUS
 62
       7
  5
37A
 10
89.23454841
 20
19.30541406
 30
0.0
  0
VERTEX
  8
0
  6
CONTINUOUS
 62
       7
  5
37B
 10
89.29148313
 20
19.65138346
 30
0.0
  0
VERTEX
  8
0
  6
CONTINUOUS
 62
       7
  5
37C
 10
89.31050964
 20
20.0000061
 30
0.0
  0
SEQEND
  8
0
  6
CONTINUOUS
 62
       7
  5
37D
  0
POLYLINE
  8
0
  6
CONTINUOUS
 62
       7
  5
1C7
 66
       1
 10
0.0
 20
0.0
 30
0.0
  0
VERTEX
  8
0
  6
CONTINUOUS
 62
       7
  5
37E
 10
114.81000305
 20
41.0000061
 30
0.0
  0
VERTEX
  8
0
  6
CONTINUOUS
 62
       7
  5
37F
 10
114.32013293
 20
40.88136332
 30
0.0
  0
VERTEX
  8
0
  6
CONTINUOUS
 62
       7
  5
380
 10
113.82830214
 20
40.76990121
 30
0.0
  0
VERTEX
  8
0
  6
CONTINUOUS
 62
       7
  5
381
 10
113.33464138
 20
40.66568513
 30
0.0
  0
VERTEX
  8
0
  6
CONTINUOUS
 62
       7
  5
382
 10
112.83928138
 20
40.56878046
 30
0.0
  0
VERTEX
  8
0
  6
CONTINUOUS
 62
       7
  5
383
 10
112.34235287
 20
40.47925255
 30
0.0
  0
VERTEX
  8
0
  6
CONTINUOUS
 62
       7
  5
384
 10
111.84398656
 20
40.39716676
 30
0.0
  0
VERTEX
  8
0
  6
CONTINUOUS
 62
       7
  5
385
 10
111.34431317
 20
40.32258848
 30
0.0
  0
VERTEX
  8
0
  6
CONTINUOUS
 62
       7
  5
386
 10
110.84346343
 20
40.25558304
 30
0.0
  0
VERTEX
  8
0
  6
CONTINUOUS
 62
       7
  5
387
 10
110.34156804
 20
40.19621583
 30
0.0
  0
VERTEX
  8
0
  6
CONTINUOUS
 62
       7
  5
388
 10
109.83875774
 20
40.14455221
 30
0.0
  0
VERTEX
  8
0
  6
CONTINUOUS
 62
       7
  5
389
 10
109.33516325
 20
40.10065753
 30
0.0
  0
VERTEX
  8
0
  6
CONTINUOUS
 62
       7
  5
38A
 10
108.83091528
 20
40.06459716
 30
0.0
  0
VERTEX
  8
0
  6
CONTINUOUS
 62
       7
  5
38B
 10
108.32614455
 20
40.03643647
 30
0.0
  0
VERTEX
  8
0
  6
CONTINUOUS
 62
       7
  5
38C
 10
107.82098179
 20
40.01624082
 30
0.0
  0
VERTEX
  8
0
  6
CONTINUOUS
 62
       7
  5
38D
 10
107.31555772
 20
40.00407558
 30
0.0
  0
VERTEX
  8
0
  6
CONTINUOUS
 62
       7
  5
38E
 10
106.81000305
 20
40.0000061
 30
0.0
  0
VERTEX
  8
0
  6
CONTINUOUS
 62
       7
  5
38F
 10
106.30444838
 20
40.0040759
 30
0.0
  0
VERTEX
  8
0
  6
CONTINUOUS
 62
       7
  5
390
 10
105.79902428
 20
40.01624134
 30
0.0
  0
VERTEX
  8
0
  6
CONTINUOUS
 62
       7
  5
391
 10
105.29386149
 20
40.03643708
 30
0.0
  0
VERTEX
  8
0
  6
CONTINUOUS
 62
       7
  5
392
 10
104.78909073
 20
40.06459776
 30
0.0
  0
VERTEX
  8
0
  6
CONTINUOUS
 62
       7
  5
393
 10
104.28484272
 20
40.10065805
 30
0.0
  0
VERTEX
  8
0
  6
CONTINUOUS
 62
       7
  5
394
 10
103.78124819
 20
40.1445526
 30
0.0
  0
VERTEX
  8
0
  6
CONTINUOUS
 62
       7
  5
395
 10
103.27843785
 20
40.19621606
 30
0.0
  0
VERTEX
  8
0
  6
CONTINUOUS
 62
       7
  5
396
 10
102.77654243
 20
40.25558308
 30
0.0
  0
VERTEX
  8
0
  6
CONTINUOUS
 62
       7
  5
397
 10
102.27569266
 20
40.32258832
 30
0.0
  0
VERTEX
  8
0
  6
CONTINUOUS
 62
       7
  5
398
 10
101.77601926
 20
40.39716644
 30
0.0
  0
VERTEX
  8
0
  6
CONTINUOUS
 62
       7
  5
399
 10
101.27765294
 20
40.47925208
 30
0.0
  0
VERTEX
  8
0
  6
CONTINUOUS
 62
       7
  5
39A
 10
100.78072444
 20
40.56877991
 30
0.0
  0
VERTEX
  8
0
  6
CONTINUOUS
 62
       7
  5
39B
 10
100.28536448
 20
40.66568457
 30
0.0
  0
VERTEX
  8
0
  6
CONTINUOUS
 62
       7
  5
39C
 10
99.79170378
 20
40.76990072
 30
0.0
  0
VERTEX
  8
0
  6
CONTINUOUS
 62
       7
  5
39D
 10
99.29987306
 20
40.88136301
 30
0.0
  0
VERTEX
  8
0
  6
CONTINUOUS
 62
       7
  5
39E
 10
98.81000305
 20
41.0000061
 30
0.0
  0
SEQEND
  8
0
  6
CONTINUOUS
 62
       7
  5
39F
  0
POLYLINE
  8
0
  6
CONTINUOUS
 62
       7
  5
1C8
 66
       1
 10
0.0
 20
0.0
 30
0.0
  0
VERTEX
  8
0
  6
CONTINUOUS
 62
       7
  5
3A0
 10
127.31000305
 20
42.0000061
 30
0.0
  0
VERTEX
  8
0
  6
CONTINUOUS
 62
       7
  5
3A1
 10
127.32000705
 20
42.062023
 30
0.0
  0
VERTEX
  8
0
  6
CONTINUOUS
 62
       7
  5
3A2
 10
127.32904431
 20
42.12474549
 30
0.0
  0
VERTEX
  8
0
  6
CONTINUOUS
 62
       7
  5
3A3
 10
127.33703616
 20
42.18803619
 30
0.0
  0
VERTEX
  8
0
  6
CONTINUOUS
 62
       7
  5
3A4
 10
127.34390393
 20
42.2517577
 30
0.0
  0
VERTEX
  8
0
  6
CONTINUOUS
 62
       7
  5
3A5
 10
127.34956896
 20
42.31577261
 30
0.0
  0
VERTEX
  8
0
  6
CONTINUOUS
 62
       7
  5
3A6
 10
127.35395256
 20
42.37994354
 30
0.0
  0
VERTEX
  8
0
  6
CONTINUOUS
 62
       7
  5
3A7
 10
127.35697608
 20
42.44413308
 30
0.0
  0
VERTEX
  8
0
  6
CONTINUOUS
 62
       7
  5
3A8
 10
127.35856083
 20
42.50820384
 30
0.0
  0
VERTEX
  8
0
  6
CONTINUOUS
 62
       7
  5
3A9
 10
127.35862815
 20
42.57201842
 30
0.0
  0
VERTEX
  8
0
  6
CONTINUOUS
 62
       7
  5
3AA
 10
127.35709937
 20
42.63543943
 30
0.0
  0
VERTEX
  8
0
  6
CONTINUOUS
 62
       7
  5
3AB
 10
127.35389583
 20
42.69832946
 30
0.0
  0
VERTEX
  8
0
  6
CONTINUOUS
 62
       7
  5
3AC
 10
127.34893884
 20
42.76055112
 30
0.0
  0
VERTEX
  8
0
  6
CONTINUOUS
 62
       7
  5
3AD
 10
127.34214973
 20
42.82196701
 30
0.0
  0
VERTEX
  8
0
  6
CONTINUOUS
 62
       7
  5
3AE
 10
127.33344985
 20
42.88243973
 30
0.0
  0
VERTEX
  8
0
  6
CONTINUOUS
 62
       7
  5
3AF
 10
127.32276051
 20
42.9418319
 30
0.0
  0
VERTEX
  8
0
  6
CONTINUOUS
 62
       7
  5
3B0
 10
127.31000305
 20
43.0000061
 30
0.0
  0
VERTEX
  8
0
  6
CONTINUOUS
 62
       7
  5
3B1
 10
127.24214614
 20
43.209332
 30
0.0
  0
VERTEX
  8
0
  6
CONTINUOUS
 62
       7
  5
3B2
 10
127.14510345
 20
43.3997539
 30
0.0
  0
VERTEX
  8
0
  6
CONTINUOUS
 62
       7
  5
3B3
 10
127.02081784
 20
43.5720205
 30
0.0
  0
VERTEX
  8
0
  6
CONTINUOUS
 62
       7
  5
3B4
 10
126.87123219
 20
43.72688049
 30
0.0
  0
VERTEX
  8
0
  6
CONTINUOUS
 62
       7
  5
3B5
 10
126.69828935
 20
43.86508255
 30
0.0
  0
VERTEX
  8
0
  6
CONTINUOUS
 62
       7
  5
3B6
 10
126.50393219
 20
43.98737536
 30
0.0
  0
VERTEX
  8
0
  6
CONTINUOUS
 62
       7
  5
3B7
 10
126.29010357
 20
44.09450762
 30
0.0
  0
VERTEX
  8
0
  6
CONTINUOUS
 62
       7
  5
3B8
 10
126.05874637
 20
44.18722801
 30
0.0
  0
VERTEX
  8
0
  6
CONTINUOUS
 62
       7
  5
3B9
 10
125.81180343
 20
44.26628521
 30
0.0
  0
VERTEX
  8
0
  6
CONTINUOUS
 62
       7
  5
3BA
 10
125.55121763
 20
44.33242792
 30
0.0
  0
VERTEX
  8
0
  6
CONTINUOUS
 62
       7
  5
3BB
 10
125.27893182
 20
44.38640481
 30
0.0
  0
VERTEX
  8
0
  6
CONTINUOUS
 62
       7
  5
3BC
 10
124.99688889
 20
44.42896457
 30
0.0
  0
VERTEX
  8
0
  6
CONTINUOUS
 62
       7
  5
3BD
 10
124.70703167
 20
44.4608559
 30
0.0
  0
VERTEX
  8
0
  6
CONTINUOUS
 62
       7
  5
3BE
 10
124.41130306
 20
44.48282747
 30
0.0
  0
VERTEX
  8
0
  6
CONTINUOUS
 62
       7
  5
3BF
 10
124.11164589
 20
44.49562798
 30
0.0
  0
VERTEX
  8
0
  6
CONTINUOUS
 62
       7
  5
3C0
 10
123.81000305
 20
44.5000061
 30
0.0
  0
VERTEX
  8
0
  6
CONTINUOUS
 62
       7
  5
3C1
 10
123.5068622
 20
44.49642485
 30
0.0
  0
VERTEX
  8
0
  6
CONTINUOUS
 62
       7
  5
3C2
 10
123.20564206
 20
44.48434122
 30
0.0
  0
VERTEX
  8
0
  6
CONTINUOUS
 62
       7
  5
3C3
 10
122.9083065
 20
44.46300089
 30
0.0
  0
VERTEX
  8
0
  6
CONTINUOUS
 62
       7
  5
3C4
 10
122.61681939
 20
44.43164956
 30
0.0
  0
VERTEX
  8
0
  6
CONTINUOUS
 62
       7
  5
3C5
 10
122.33314461
 20
44.38953291
 30
0.0
  0
VERTEX
  8
0
  6
CONTINUOUS
 62
       7
  5
3C6
 10
122.05924602
 20
44.33589663
 30
0.0
  0
VERTEX
  8
0
  6
CONTINUOUS
 62
       7
  5
3C7
 10
121.7970875
 20
44.26998641
 30
0.0
  0
VERTEX
  8
0
  6
CONTINUOUS
 62
       7
  5
3C8
 10
121.54863293
 20
44.19104795
 30
0.0
  0
VERTEX
  8
0
  6
CONTINUOUS
 62
       7
  5
3C9
 10
121.31584618
 20
44.09832693
 30
0.0
  0
VERTEX
  8
0
  6
CONTINUOUS
 62
       7
  5
3CA
 10
121.10069111
 20
43.99106904
 30
0.0
  0
VERTEX
  8
0
  6
CONTINUOUS
 62
       7
  5
3CB
 10
120.9051316
 20
43.86851998
 30
0.0
  0
VERTEX
  8
0
  6
CONTINUOUS
 62
       7
  5
3CC
 10
120.73113153
 20
43.72992542
 30
0.0
  0
VERTEX
  8
0
  6
CONTINUOUS
 62
       7
  5
3CD
 10
120.58065477
 20
43.57453107
 30
0.0
  0
VERTEX
  8
0
  6
CONTINUOUS
 62
       7
  5
3CE
 10
120.45566519
 20
43.4015826
 30
0.0
  0
VERTEX
  8
0
  6
CONTINUOUS
 62
       7
  5
3CF
 10
120.35812666
 20
43.21032572
 30
0.0
  0
VERTEX
  8
0
  6
CONTINUOUS
 62
       7
  5
3D0
 10
120.29000305
 20
43.0000061
 30
0.0
  0
VERTEX
  8
0
  6
CONTINUOUS
 62
       7
  5
3D1
 10
120.27727234
 20
42.94182825
 30
0.0
  0
VERTEX
  8
0
  6
CONTINUOUS
 62
       7
  5
3D2
 10
120.26660624
 20
42.88243396
 30
0.0
  0
VERTEX
  8
0
  6
CONTINUOUS
 62
       7
  5
3D3
 10
120.25792609
 20
42.8219604
 30
0.0
  0
VERTEX
  8
0
  6
CONTINUOUS
 62
       7
  5
3D4
 10
120.25115318
 20
42.76054474
 30
0.0
  0
VERTEX
  8
0
  6
CONTINUOUS
 62
       7
  5
3D5
 10
120.24620885
 20
42.69832418
 30
0.0
  0
VERTEX
  8
0
  6
CONTINUOUS
 62
       7
  5
3D6
 10
120.2430144
 20
42.63543587
 30
0.0
  0
VERTEX
  8
0
  6
CONTINUOUS
 62
       7
  5
3D7
 10
120.24149116
 20
42.572017
 30
0.0
  0
VERTEX
  8
0
  6
CONTINUOUS
 62
       7
  5
3D8
 10
120.24156043
 20
42.50820475
 30
0.0
  0
VERTEX
  8
0
  6
CONTINUOUS
 62
       7
  5
3D9
 10
120.24314353
 20
42.44413629
 30
0.0
  0
VERTEX
  8
0
  6
CONTINUOUS
 62
       7
  5
3DA
 10
120.24616178
 20
42.3799488
 30
0.0
  0
VERTEX
  8
0
  6
CONTINUOUS
 62
       7
  5
3DB
 10
120.25053649
 20
42.31577946
 30
0.0
  0
VERTEX
  8
0
  6
CONTINUOUS
 62
       7
  5
3DC
 10
120.25618898
 20
42.25176544
 30
0.0
  0
VERTEX
  8
0
  6
CONTINUOUS
 62
       7
  5
3DD
 10
120.26304057
 20
42.18804391
 30
0.0
  0
VERTEX
  8
0
  6
CONTINUOUS
 62
       7
  5
3DE
 10
120.27101256
 20
42.12475207
 30
0.0
  0
VERTEX
  8
0
  6
CONTINUOUS
 62
       7
  5
3DF
 10
120.28002629
 20
42.06202707
 30
0.0
  0
VERTEX
  8
0
  6
CONTINUOUS
 62
       7
  5
3E0
 10
120.29000305
 20
42.0000061
 30
0.0
  0
SEQEND
  8
0
  6
CONTINUOUS
 62
       7
  5
3E1
  0
POLYLINE
  8
0
  6
CONTINUOUS
 62
       7
  5
1C9
 66
       1
 10
0.0
 20
0.0
 30
0.0
 70
       1
  0
VERTEX
  8
0
  6
CONTINUOUS
 62
       7
  5
3E2
 10
98.81051155
 20
19.99999847
 30
0.0
  0
VERTEX
  8
0
  6
CONTINUOUS
 62
       7
  5
3E3
 10
98.84095342
 20
19.43348628
 30
0.0
  0
VERTEX
  8
0
  6
CONTINUOUS
 62
       7
  5
3E4
 10
98.93204842
 20
18.87128553
 30
0.0
  0
VERTEX
  8
0
  6
CONTINUOUS
 62
       7
  5
3E5
 10
99.08310327
 20
18.31767491
 30
0.0
  0
VERTEX
  8
0
  6
CONTINUOUS
 62
       7
  5
3E6
 10
99.29296835
 20
17.77686773
 30
0.0
  0
VERTEX
  8
0
  6
CONTINUOUS
 62
       7
  5
3E7
 10
99.56004646
 20
17.25297986
 30
0.0
  0
VERTEX
  8
0
  6
CONTINUOUS
 62
       7
  5
3E8
 10
99.88230497
 20
16.74999841
 30
0.0
  0
VERTEX
  8
0
  6
CONTINUOUS
 62
       7
  5
3E9
 10
100.2572913
 20
16.27175135
 30
0.0
  0
VERTEX
  8
0
  6
CONTINUOUS
 62
       7
  5
3EA
 10
100.68215158
 20
15.82187845
 30
0.0
  0
VERTEX
  8
0
  6
CONTINUOUS
 62
       7
  5
3EB
 10
101.15365236
 20
15.40380351
 30
0.0
  0
VERTEX
  8
0
  6
CONTINUOUS
 62
       7
  5
3EC
 10
101.66820524
 20
15.02070833
 30
0.0
  0
VERTEX
  8
0
  6
CONTINUOUS
 62
       7
  5
3ED
 10
102.22189417
 20
14.6755085
 30
0.0
  0
VERTEX
  8
0
  6
CONTINUOUS
 62
       7
  5
3EE
 10
102.81050523
 20
14.37083119
 30
0.0
  0
VERTEX
  8
0
  6
CONTINUOUS
 62
       7
  5
3EF
 10
103.42955874
 20
14.10899518
 30
0.0
  0
VERTEX
  8
0
  6
CONTINUOUS
 62
       7
  5
3F0
 10
104.07434332
 20
13.89199321
 30
0.0
  0
VERTEX
  8
0
  6
CONTINUOUS
 62
       7
  5
3F1
 10
104.73995179
 20
13.72147679
 30
0.0
  0
VERTEX
  8
0
  6
CONTINUOUS
 62
       7
  5
3F2
 10
105.42131845
 20
13.59874365
 30
0.0
  0
VERTEX
  8
0
  6
CONTINUOUS
 62
       7
  5
3F3
 10
106.11325769
 20
13.52472787
 30
0.0
  0
VERTEX
  8
0
  6
CONTINUOUS
 62
       7
  5
3F4
 10
106.81050344
 20
13.49999275
 30
0.0
  0
VERTEX
  8
0
  6
CONTINUOUS
 62
       7
  5
3F5
 10
107.50774924
 20
13.52472654
 30
0.0
  0
VERTEX
  8
0
  6
CONTINUOUS
 62
       7
  5
3F6
 10
108.19968863
 20
13.598741
 30
0.0
  0
VERTEX
  8
0
  6
CONTINUOUS
 62
       7
  5
3F7
 10
108.88105552
 20
13.72147284
 30
0.0
  0
VERTEX
  8
0
  6
CONTINUOUS
 62
       7
  5
3F8
 10
109.54666431
 20
13.89198799
 30
0.0
  0
VERTEX
  8
0
  6
CONTINUOUS
 62
       7
  5
3F9
 10
110.19144931
 20
14.10898873
 30
0.0
  0
VERTEX
  8
0
  6
CONTINUOUS
 62
       7
  5
3FA
 10
110.81050332
 20
14.37082356
 30
0.0
  0
VERTEX
  8
0
  6
CONTINUOUS
 62
       7
  5
3FB
 10
111.39911496
 20
14.67549974
 30
0.0
  0
VERTEX
  8
0
  6
CONTINUOUS
 62
       7
  5
3FC
 10
111.95280455
 20
15.02069852
 30
0.0
  0
VERTEX
  8
0
  6
CONTINUOUS
 62
       7
  5
3FD
 10
112.46735816
 20
15.40379272
 30
0.0
  0
VERTEX
  8
0
  6
CONTINUOUS
 62
       7
  5
3FE
 10
112.93885974
 20
15.82186676
 30
0.0
  0
VERTEX
  8
0
  6
CONTINUOUS
 62
       7
  5
3FF
 10
113.36372088
 20
16.27173885
 30
0.0
  0
VERTEX
  8
0
  6
CONTINUOUS
 62
       7
  5
400
 10
113.73870812
 20
16.74998519
 30
0.0
  0
VERTEX
  8
0
  6
CONTINUOUS
 62
       7
  5
401
 10
114.06096759
 20
17.25296603
 30
0.0
  0
VERTEX
  8
0
  6
CONTINUOUS
 62
       7
  5
402
 10
114.3280467
 20
17.7768534
 30
0.0
  0
VERTEX
  8
0
  6
CONTINUOUS
 62
       7
  5
403
 10
114.53791281
 20
18.31766018
 30
0.0
  0
VERTEX
  8
0
  6
CONTINUOUS
 62
       7
  5
404
 10
114.68896871
 20
18.87127051
 30
0.0
  0
VERTEX
  8
0
  6
CONTINUOUS
 62
       7
  5
405
 10
114.78006479
 20
19.43347108
 30
0.0
  0
VERTEX
  8
0
  6
CONTINUOUS
 62
       7
  5
406
 10
114.81050774
 20
19.99998322
 30
0.0
  0
VERTEX
  8
0
  6
CONTINUOUS
 62
       7
  5
407
 10
114.78006587
 20
20.56649541
 30
0.0
  0
VERTEX
  8
0
  6
CONTINUOUS
 62
       7
  5
408
 10
114.68897087
 20
21.12869615
 30
0.0
  0
VERTEX
  8
0
  6
CONTINUOUS
 62
       7
  5
409
 10
114.53791602
 20
21.68230677
 30
0.0
  0
VERTEX
  8
0
  6
CONTINUOUS
 62
       7
  5
40A
 10
114.32805094
 20
22.22311395
 30
0.0
  0
VERTEX
  8
0
  6
CONTINUOUS
 62
       7
  5
40B
 10
114.06097283
 20
22.74700183
 30
0.0
  0
VERTEX
  8
0
  6
CONTINUOUS
 62
       7
  5
40C
 10
113.73871432
 20
23.24998328
 30
0.0
  0
VERTEX
  8
0
  6
CONTINUOUS
 62
       7
  5
40D
 10
113.36372799
 20
23.72823034
 30
0.0
  0
VERTEX
  8
0
  6
CONTINUOUS
 62
       7
  5
40E
 10
112.93886771
 20
24.17810324
 30
0.0
  0
VERTEX
  8
0
  6
CONTINUOUS
 62
       7
  5
40F
 10
112.46736693
 20
24.59617818
 30
0.0
  0
VERTEX
  8
0
  6
CONTINUOUS
 62
       7
  5
410
 10
111.95281404
 20
24.97927336
 30
0.0
  0
VERTEX
  8
0
  6
CONTINUOUS
 62
       7
  5
411
 10
111.39912512
 20
25.32447319
 30
0.0
  0
VERTEX
  8
0
  6
CONTINUOUS
 62
       7
  5
412
 10
110.81051406
 20
25.6291505
 30
0.0
  0
VERTEX
  8
0
  6
CONTINUOUS
 62
       7
  5
413
 10
110.19146055
 20
25.89098651
 30
0.0
  0
VERTEX
  8
0
  6
CONTINUOUS
 62
       7
  5
414
 10
109.54667596
 20
26.10798848
 30
0.0
  0
VERTEX
  8
0
  6
CONTINUOUS
 62
       7
  5
415
 10
108.8810675
 20
26.2785049
 30
0.0
  0
VERTEX
  8
0
  6
CONTINUOUS
 62
       7
  5
416
 10
108.19970084
 20
26.40123804
 30
0.0
  0
VERTEX
  8
0
  6
CONTINUOUS
 62
       7
  5
417
 10
107.50776159
 20
26.47525382
 30
0.0
  0
VERTEX
  8
0
  6
CONTINUOUS
 62
       7
  5
418
 10
106.81051584
 20
26.49998894
 30
0.0
  0
VERTEX
  8
0
  6
CONTINUOUS
 62
       7
  5
419
 10
106.11327004
 20
26.47525515
 30
0.0
  0
VERTEX
  8
0
  6
CONTINUOUS
 62
       7
  5
41A
 10
105.42133066
 20
26.40124069
 30
0.0
  0
VERTEX
  8
0
  6
CONTINUOUS
 62
       7
  5
41B
 10
104.73996376
 20
26.27850885
 30
0.0
  0
VERTEX
  8
0
  6
CONTINUOUS
 62
       7
  5
41C
 10
104.07435497
 20
26.1079937
 30
0.0
  0
VERTEX
  8
0
  6
CONTINUOUS
 62
       7
  5
41D
 10
103.42956997
 20
25.89099296
 30
0.0
  0
VERTEX
  8
0
  6
CONTINUOUS
 62
       7
  5
41E
 10
102.81051597
 20
25.62915813
 30
0.0
  0
VERTEX
  8
0
  6
CONTINUOUS
 62
       7
  5
41F
 10
102.22190432
 20
25.32448195
 30
0.0
  0
VERTEX
  8
0
  6
CONTINUOUS
 62
       7
  5
420
 10
101.66821474
 20
24.97928317
 30
0.0
  0
VERTEX
  8
0
  6
CONTINUOUS
 62
       7
  5
421
 10
101.15366113
 20
24.59618897
 30
0.0
  0
VERTEX
  8
0
  6
CONTINUOUS
 62
       7
  5
422
 10
100.68215954
 20
24.17811493
 30
0.0
  0
VERTEX
  8
0
  6
CONTINUOUS
 62
       7
  5
423
 10
100.25729841
 20
23.72824284
 30
0.0
  0
VERTEX
  8
0
  6
CONTINUOUS
 62
       7
  5
424
 10
99.88231116
 20
23.2499965
 30
0.0
  0
VERTEX
  8
0
  6
CONTINUOUS
 62
       7
  5
425
 10
99.5600517
 20
22.74701565
 30
0.0
  0
VERTEX
  8
0
  6
CONTINUOUS
 62
       7
  5
426
 10
99.29297259
 20
22.22312829
 30
0.0
  0
VERTEX
  8
0
  6
CONTINUOUS
 62
       7
  5
427
 10
99.08310648
 20
21.68232151
 30
0.0
  0
VERTEX
  8
0
  6
CONTINUOUS
 62
       7
  5
428
 10
98.93205057
 20
21.12871118
 30
0.0
  0
VERTEX
  8
0
  6
CONTINUOUS
 62
       7
  5
429
 10
98.8409545
 20
20.56651061
 30
0.0
  0
VERTEX
  8
0
  6
CONTINUOUS
 62
       7
  5
42A
 10
98.81051155
 20
19.99999847
 30
0.0
  0
SEQEND
  8
0
  6
CONTINUOUS
 62
       7
  5
42B
  0
POLYLINE
  8
0
  6
CONTINUOUS
 62
       7
  5
1CA
 66
       1
 10
0.0
 20
0.0
 30
0.0
  0
VERTEX
  8
0
  6
CONTINUOUS
 62
       7
  5
42C
 10
127.31000305
 20
-1.9999939
 30
0.0
  0
VERTEX
  8
0
  6
CONTINUOUS
 62
       7
  5
42D
 10
127.32000701
 20
-2.0620108
 30
0.0
  0
VERTEX
  8
0
  6
CONTINUOUS
 62
       7
  5
42E
 10
127.32904425
 20
-2.1247333
 30
0.0
  0
VERTEX
  8
0
  6
CONTINUOUS
 62
       7
  5
42F
 10
127.33703608
 20
-2.18802401
 30
0.0
  0
VERTEX
  8
0
  6
CONTINUOUS
 62
       7
  5
430
 10
127.34390386
 20
-2.25174552
 30
0.0
  0
VERTEX
  8
0
  6
CONTINUOUS
 62
       7
  5
431
 10
127.34956889
 20
-2.31576045
 30
0.0
  0
VERTEX
  8
0
  6
CONTINUOUS
 62
       7
  5
432
 10
127.35395251
 20
-2.37993138
 30
0.0
  0
VERTEX
  8
0
  6
CONTINUOUS
 62
       7
  5
433
 10
127.35697604
 20
-2.44412093
 30
0.0
  0
VERTEX
  8
0
  6
CONTINUOUS
 62
       7
  5
434
 10
127.35856081
 20
-2.50819169
 30
0.0
  0
VERTEX
  8
0
  6
CONTINUOUS
 62
       7
  5
435
 10
127.35862816
 20
-2.57200628
 30
0.0
  0
VERTEX
  8
0
  6
CONTINUOUS
 62
       7
  5
436
 10
127.3570994
 20
-2.63542728
 30
0.0
  0
VERTEX
  8
0
  6
CONTINUOUS
 62
       7
  5
437
 10
127.35389587
 20
-2.69831731
 30
0.0
  0
VERTEX
  8
0
  6
CONTINUOUS
 62
       7
  5
438
 10
127.34893889
 20
-2.76053896
 30
0.0
  0
VERTEX
  8
0
  6
CONTINUOUS
 62
       7
  5
439
 10
127.34214979
 20
-2.82195485
 30
0.0
  0
VERTEX
  8
0
  6
CONTINUOUS
 62
       7
  5
43A
 10
127.3334499
 20
-2.88242756
 30
0.0
  0
VERTEX
  8
0
  6
CONTINUOUS
 62
       7
  5
43B
 10
127.32276054
 20
-2.94181971
 30
0.0
  0
VERTEX
  8
0
  6
CONTINUOUS
 62
       7
  5
43C
 10
127.31000305
 20
-2.9999939
 30
0.0
  0
VERTEX
  8
0
  6
CONTINUOUS
 62
       7
  5
43D
 10
127.242146
 20
-3.20931973
 30
0.0
  0
VERTEX
  8
0
  6
CONTINUOUS
 62
       7
  5
43E
 10
127.14510321
 20
-3.39974162
 30
0.0
  0
VERTEX
  8
0
  6
CONTINUOUS
 62
       7
  5
43F
 10
127.02081753
 20
-3.57200824
 30
0.0
  0
VERTEX
  8
0
  6
CONTINUOUS
 62
       7
  5
440
 10
126.87123183
 20
-3.72686827
 30
0.0
  0
VERTEX
  8
0
  6
CONTINUOUS
 62
       7
  5
441
 10
126.69828898
 20
-3.8650704
 30
0.0
  0
VERTEX
  8
0
  6
CONTINUOUS
 62
       7
  5
442
 10
126.50393182
 20
-3.98736329
 30
0.0
  0
VERTEX
  8
0
  6
CONTINUOUS
 62
       7
  5
443
 10
126.29010323
 20
-4.09449563
 30
0.0
  0
VERTEX
  8
0
  6
CONTINUOUS
 62
       7
  5
444
 10
126.05874605
 20
-4.1872161
 30
0.0
  0
VERTEX
  8
0
  6
CONTINUOUS
 62
       7
  5
445
 10
125.81180316
 20
-4.26627338
 30
0.0
  0
VERTEX
  8
0
  6
CONTINUOUS
 62
       7
  5
446
 10
125.5512174
 20
-4.33241614
 30
0.0
  0
VERTEX
  8
0
  6
CONTINUOUS
 62
       7
  5
447
 10
125.27893165
 20
-4.38639307
 30
0.0
  0
VERTEX
  8
0
  6
CONTINUOUS
 62
       7
  5
448
 10
124.99688877
 20
-4.42895283
 30
0.0
  0
VERTEX
  8
0
  6
CONTINUOUS
 62
       7
  5
449
 10
124.7070316
 20
-4.46084412
 30
0.0
  0
VERTEX
  8
0
  6
CONTINUOUS
 62
       7
  5
44A
 10
124.41130302
 20
-4.48281561
 30
0.0
  0
VERTEX
  8
0
  6
CONTINUOUS
 62
       7
  5
44B
 10
124.11164588
 20
-4.49561597
 30
0.0
  0
VERTEX
  8
0
  6
CONTINUOUS
 62
       7
  5
44C
 10
123.81000305
 20
-4.4999939
 30
0.0
  0
VERTEX
  8
0
  6
CONTINUOUS
 62
       7
  5
44D
 10
123.50686219
 20
-4.49641244
 30
0.0
  0
VERTEX
  8
0
  6
CONTINUOUS
 62
       7
  5
44E
 10
123.20564202
 20
-4.48432866
 30
0.0
  0
VERTEX
  8
0
  6
CONTINUOUS
 62
       7
  5
44F
 10
122.90830642
 20
-4.46298823
 30
0.0
  0
VERTEX
  8
0
  6
CONTINUOUS
 62
       7
  5
450
 10
122.61681926
 20
-4.43163684
 30
0.0
  0
VERTEX
  8
0
  6
CONTINUOUS
 62
       7
  5
451
 10
122.33314442
 20
-4.38952017
 30
0.0
  0
VERTEX
  8
0
  6
CONTINUOUS
 62
       7
  5
452
 10
122.05924578
 20
-4.33588391
 30
0.0
  0
VERTEX
  8
0
  6
CONTINUOUS
 62
       7
  5
453
 10
121.79708721
 20
-4.26997373
 30
0.0
  0
VERTEX
  8
0
  6
CONTINUOUS
 62
       7
  5
454
 10
121.54863259
 20
-4.19103533
 30
0.0
  0
VERTEX
  8
0
  6
CONTINUOUS
 62
       7
  5
455
 10
121.3158458
 20
-4.09831438
 30
0.0
  0
VERTEX
  8
0
  6
CONTINUOUS
 62
       7
  5
456
 10
121.10069071
 20
-3.99105657
 30
0.0
  0
VERTEX
  8
0
  6
CONTINUOUS
 62
       7
  5
457
 10
120.9051312
 20
-3.86850759
 30
0.0
  0
VERTEX
  8
0
  6
CONTINUOUS
 62
       7
  5
458
 10
120.73113115
 20
-3.7299131
 30
0.0
  0
VERTEX
  8
0
  6
CONTINUOUS
 62
       7
  5
459
 10
120.58065443
 20
-3.57451881
 30
0.0
  0
VERTEX
  8
0
  6
CONTINUOUS
 62
       7
  5
45A
 10
120.45566493
 20
-3.40157039
 30
0.0
  0
VERTEX
  8
0
  6
CONTINUOUS
 62
       7
  5
45B
 10
120.35812651
 20
-3.21031352
 30
0.0
  0
VERTEX
  8
0
  6
CONTINUOUS
 62
       7
  5
45C
 10
120.29000305
 20
-2.9999939
 30
0.0
  0
VERTEX
  8
0
  6
CONTINUOUS
 62
       7
  5
45D
 10
120.27727237
 20
-2.94181604
 30
0.0
  0
VERTEX
  8
0
  6
CONTINUOUS
 62
       7
  5
45E
 10
120.2666063
 20
-2.88242174
 30
0.0
  0
VERTEX
  8
0
  6
CONTINUOUS
 62
       7
  5
45F
 10
120.25792615
 20
-2.82194817
 30
0.0
  0
VERTEX
  8
0
  6
CONTINUOUS
 62
       7
  5
460
 10
120.25115325
 20
-2.76053251
 30
0.0
  0
VERTEX
  8
0
  6
CONTINUOUS
 62
       7
  5
461
 10
120.24620891
 20
-2.69831194
 30
0.0
  0
VERTEX
  8
0
  6
CONTINUOUS
 62
       7
  5
462
 10
120.24301444
 20
-2.63542363
 30
0.0
  0
VERTEX
  8
0
  6
CONTINUOUS
 62
       7
  5
463
 10
120.24149117
 20
-2.57200477
 30
0.0
  0
VERTEX
  8
0
  6
CONTINUOUS
 62
       7
  5
464
 10
120.24156042
 20
-2.50819252
 30
0.0
  0
VERTEX
  8
0
  6
CONTINUOUS
 62
       7
  5
465
 10
120.2431435
 20
-2.44412406
 30
0.0
  0
VERTEX
  8
0
  6
CONTINUOUS
 62
       7
  5
466
 10
120.24616173
 20
-2.37993657
 30
0.0
  0
VERTEX
  8
0
  6
CONTINUOUS
 62
       7
  5
467
 10
120.25053642
 20
-2.31576723
 30
0.0
  0
VERTEX
  8
0
  6
CONTINUOUS
 62
       7
  5
468
 10
120.25618891
 20
-2.25175321
 30
0.0
  0
VERTEX
  8
0
  6
CONTINUOUS
 62
       7
  5
469
 10
120.26304049
 20
-2.18803169
 30
0.0
  0
VERTEX
  8
0
  6
CONTINUOUS
 62
       7
  5
46A
 10
120.2710125
 20
-2.12473985
 30
0.0
  0
VERTEX
  8
0
  6
CONTINUOUS
 62
       7
  5
46B
 10
120.28002625
 20
-2.06201486
 30
0.0
  0
VERTEX
  8
0
  6
CONTINUOUS
 62
       7
  5
46C
 10
120.29000305
 20
-1.9999939
 30
0.0
  0
SEQEND
  8
0
  6
CONTINUOUS
 62
       7
  5
46D
  0
POLYLINE
  8
0
  6
CONTINUOUS
 62
       7
  5
1CB
 66
       1
 10
0.0
 20
0.0
 30
0.0
  0
VERTEX
  8
0
  6
CONTINUOUS
 62
       7
  5
46E
 10
114.81000305
 20
-0.9999939
 30
0.0
  0
VERTEX
  8
0
  6
CONTINUOUS
 62
       7
  5
46F
 10
114.32013301
 20
-0.88135078
 30
0.0
  0
VERTEX
  8
0
  6
CONTINUOUS
 62
       7
  5
470
 10
113.82830226
 20
-0.76988846
 30
0.0
  0
VERTEX
  8
0
  6
CONTINUOUS
 62
       7
  5
471
 10
113.33464153
 20
-0.6656723
 30
0.0
  0
VERTEX
  8
0
  6
CONTINUOUS
 62
       7
  5
472
 10
112.83928155
 20
-0.56876763
 30
0.0
  0
VERTEX
  8
0
  6
CONTINUOUS
 62
       7
  5
473
 10
112.34235302
 20
-0.4792398
 30
0.0
  0
VERTEX
  8
0
  6
CONTINUOUS
 62
       7
  5
474
 10
111.84398669
 20
-0.39715416
 30
0.0
  0
VERTEX
  8
0
  6
CONTINUOUS
 62
       7
  5
475
 10
111.34431327
 20
-0.32257605
 30
0.0
  0
VERTEX
  8
0
  6
CONTINUOUS
 62
       7
  5
476
 10
110.84346349
 20
-0.25557081
 30
0.0
  0
VERTEX
  8
0
  6
CONTINUOUS
 62
       7
  5
477
 10
110.34156807
 20
-0.1962038
 30
0.0
  0
VERTEX
  8
0
  6
CONTINUOUS
 62
       7
  5
478
 10
109.83875773
 20
-0.14454035
 30
0.0
  0
VERTEX
  8
0
  6
CONTINUOUS
 62
       7
  5
479
 10
109.33516321
 20
-0.10064582
 30
0.0
  0
VERTEX
  8
0
  6
CONTINUOUS
 62
       7
  5
47A
 10
108.83091521
 20
-0.06458554
 30
0.0
  0
VERTEX
  8
0
  6
CONTINUOUS
 62
       7
  5
47B
 10
108.32614448
 20
-0.03642486
 30
0.0
  0
VERTEX
  8
0
  6
CONTINUOUS
 62
       7
  5
47C
 10
107.82098172
 20
-0.01622913
 30
0.0
  0
VERTEX
  8
0
  6
CONTINUOUS
 62
       7
  5
47D
 10
107.31555767
 20
-0.00406369
 30
0.0
  0
VERTEX
  8
0
  6
CONTINUOUS
 62
       7
  5
47E
 10
106.81000305
 20
0.0000061
 30
0.0
  0
VERTEX
  8
0
  6
CONTINUOUS
 62
       7
  5
47F
 10
106.30444844
 20
-0.00406337
 30
0.0
  0
VERTEX
  8
0
  6
CONTINUOUS
 62
       7
  5
480
 10
105.79902441
 20
-0.01622861
 30
0.0
  0
VERTEX
  8
0
  6
CONTINUOUS
 62
       7
  5
481
 10
105.29386168
 20
-0.03642426
 30
0.0
  0
VERTEX
  8
0
  6
CONTINUOUS
 62
       7
  5
482
 10
104.78909098
 20
-0.06458495
 30
0.0
  0
VERTEX
  8
0
  6
CONTINUOUS
 62
       7
  5
483
 10
104.28484303
 20
-0.10064532
 30
0.0
  0
VERTEX
  8
0
  6
CONTINUOUS
 62
       7
  5
484
 10
103.78124854
 20
-0.14454
 30
0.0
  0
VERTEX
  8
0
  6
CONTINUOUS
 62
       7
  5
485
 10
103.27843824
 20
-0.19620362
 30
0.0
  0
VERTEX
  8
0
  6
CONTINUOUS
 62
       7
  5
486
 10
102.77654286
 20
-0.25557083
 30
0.0
  0
VERTEX
  8
0
  6
CONTINUOUS
 62
       7
  5
487
 10
102.2756931
 20
-0.32257627
 30
0.0
  0
VERTEX
  8
0
  6
CONTINUOUS
 62
       7
  5
488
 10
101.7760197
 20
-0.39715456
 30
0.0
  0
VERTEX
  8
0
  6
CONTINUOUS
 62
       7
  5
489
 10
101.27765337
 20
-0.47924034
 30
0.0
  0
VERTEX
  8
0
  6
CONTINUOUS
 62
       7
  5
48A
 10
100.78072483
 20
-0.56876825
 30
0.0
  0
VERTEX
  8
0
  6
CONTINUOUS
 62
       7
  5
48B
 10
100.28536481
 20
-0.66567292
 30
0.0
  0
VERTEX
  8
0
  6
CONTINUOUS
 62
       7
  5
48C
 10
99.79170403
 20
-0.769889
 30
0.0
  0
VERTEX
  8
0
  6
CONTINUOUS
 62
       7
  5
48D
 10
99.2998732
 20
-0.88135111
 30
0.0
  0
VERTEX
  8
0
  6
CONTINUOUS
 62
       7
  5
48E
 10
98.81000305
 20
-0.9999939
 30
0.0
  0
SEQEND
  8
0
  6
CONTINUOUS
 62
       7
  5
48F
  0
POLYLINE
  8
0
  6
CONTINUOUS
 62
       7
  5
1CC
 66
       1
 10
0.0
 20
0.0
 30
0.0
  0
VERTEX
  8
0
  6
CONTINUOUS
 62
       7
  5
490
 10
-27.68999695
 20
44.8300061
 30
0.0
  0
VERTEX
  8
0
  6
CONTINUOUS
 62
       7
  5
491
 10
-27.78835022
 20
44.72746102
 30
0.0
  0
VERTEX
  8
0
  6
CONTINUOUS
 62
       7
  5
492
 10
-27.88475297
 20
44.62033561
 30
0.0
  0
VERTEX
  8
0
  6
CONTINUOUS
 62
       7
  5
493
 10
-27.97859879
 20
44.50893409
 30
0.0
  0
VERTEX
  8
0
  6
CONTINUOUS
 62
       7
  5
494
 10
-28.06928127
 20
44.39356067
 30
0.0
  0
VERTEX
  8
0
  6
CONTINUOUS
 62
       7
  5
495
 10
-28.156194
 20
44.27451957
 30
0.0
  0
VERTEX
  8
0
  6
CONTINUOUS
 62
       7
  5
496
 10
-28.23873057
 20
44.152115
 30
0.0
  0
VERTEX
  8
0
  6
CONTINUOUS
 62
       7
  5
497
 10
-28.31628456
 20
44.02665118
 30
0.0
  0
VERTEX
  8
0
  6
CONTINUOUS
 62
       7
  5
498
 10
-28.38824957
 20
43.89843233
 30
0.0
  0
VERTEX
  8
0
  6
CONTINUOUS
 62
       7
  5
499
 10
-28.45401918
 20
43.76776266
 30
0.0
  0
VERTEX
  8
0
  6
CONTINUOUS
 62
       7
  5
49A
 10
-28.51298699
 20
43.63494638
 30
0.0
  0
VERTEX
  8
0
  6
CONTINUOUS
 62
       7
  5
49B
 10
-28.56454659
 20
43.50028772
 30
0.0
  0
VERTEX
  8
0
  6
CONTINUOUS
 62
       7
  5
49C
 10
-28.60809156
 20
43.36409088
 30
0.0
  0
VERTEX
  8
0
  6
CONTINUOUS
 62
       7
  5
49D
 10
-28.64301549
 20
43.22666008
 30
0.0
  0
VERTEX
  8
0
  6
CONTINUOUS
 62
       7
  5
49E
 10
-28.66871197
 20
43.08829954
 30
0.0
  0
VERTEX
  8
0
  6
CONTINUOUS
 62
       7
  5
49F
 10
-28.68457459
 20
42.94931348
 30
0.0
  0
VERTEX
  8
0
  6
CONTINUOUS
 62
       7
  5
4A0
 10
-28.68999695
 20
42.8100061
 30
0.0
  0
VERTEX
  8
0
  6
CONTINUOUS
 62
       7
  5
4A1
 10
-28.68457473
 20
42.67069873
 30
0.0
  0
VERTEX
  8
0
  6
CONTINUOUS
 62
       7
  5
4A2
 10
-28.66871219
 20
42.53171268
 30
0.0
  0
VERTEX
  8
0
  6
CONTINUOUS
 62
       7
  5
4A3
 10
-28.64301575
 20
42.39335216
 30
0.0
  0
VERTEX
  8
0
  6
CONTINUOUS
 62
       7
  5
4A4
 10
-28.60809182
 20
42.25592139
 30
0.0
  0
VERTEX
  8
0
  6
CONTINUOUS
 62
       7
  5
4A5
 10
-28.56454682
 20
42.11972458
 30
0.0
  0
VERTEX
  8
0
  6
CONTINUOUS
 62
       7
  5
4A6
 10
-28.51298717
 20
41.98506595
 30
0.0
  0
VERTEX
  8
0
  6
CONTINUOUS
 62
       7
  5
4A7
 10
-28.45401929
 20
41.8522497
 30
0.0
  0
VERTEX
  8
0
  6
CONTINUOUS
 62
       7
  5
4A8
 10
-28.3882496
 20
41.72158005
 30
0.0
  0
VERTEX
  8
0
  6
CONTINUOUS
 62
       7
  5
4A9
 10
-28.31628451
 20
41.59336121
 30
0.0
  0
VERTEX
  8
0
  6
CONTINUOUS
 62
       7
  5
4AA
 10
-28.23873044
 20
41.46789741
 30
0.0
  0
VERTEX
  8
0
  6
CONTINUOUS
 62
       7
  5
4AB
 10
-28.15619382
 20
41.34549284
 30
0.0
  0
VERTEX
  8
0
  6
CONTINUOUS
 62
       7
  5
4AC
 10
-28.06928105
 20
41.22645173
 30
0.0
  0
VERTEX
  8
0
  6
CONTINUOUS
 62
       7
  5
4AD
 10
-27.97859857
 20
41.11107829
 30
0.0
  0
VERTEX
  8
0
  6
CONTINUOUS
 62
       7
  5
4AE
 10
-27.88475277
 20
40.99967673
 30
0.0
  0
VERTEX
  8
0
  6
CONTINUOUS
 62
       7
  5
4AF
 10
-27.78835009
 20
40.89255126
 30
0.0
  0
VERTEX
  8
0
  6
CONTINUOUS
 62
       7
  5
4B0
 10
-27.68999695
 20
40.7900061
 30
0.0
  0
SEQEND
  8
0
  6
CONTINUOUS
 62
       7
  5
4B1
  0
POLYLINE
  8
0
  6
CONTINUOUS
 62
       7
  5
1CD
 66
       1
 10
0.0
 20
0.0
 30
0.0
  0
VERTEX
  8
0
  6
CONTINUOUS
 62
       7
  5
4B2
 10
-18.89999695
 20
44.8300061
 30
0.0
  0
VERTEX
  8
0
  6
CONTINUOUS
 62
       7
  5
4B3
 10
-18.70329042
 20
45.03509625
 30
0.0
  0
VERTEX
  8
0
  6
CONTINUOUS
 62
       7
  5
4B4
 10
-18.51048493
 20
45.24934715
 30
0.0
  0
VERTEX
  8
0
  6
CONTINUOUS
 62
       7
  5
4B5
 10
-18.3227933
 20
45.47215035
 30
0.0
  0
VERTEX
  8
0
  6
CONTINUOUS
 62
       7
  5
4B6
 10
-18.14142835
 20
45.70289741
 30
0.0
  0
VERTEX
  8
0
  6
CONTINUOUS
 62
       7
  5
4B7
 10
-17.96760291
 20
45.94097986
 30
0.0
  0
VERTEX
  8
0
  6
CONTINUOUS
 62
       7
  5
4B8
 10
-17.80252978
 20
46.18578926
 30
0.0
  0
VERTEX
  8
0
  6
CONTINUOUS
 62
       7
  5
4B9
 10
-17.64742181
 20
46.43671716
 30
0.0
  0
VERTEX
  8
0
  6
CONTINUOUS
 62
       7
  5
4BA
 10
-17.5034918
 20
46.6931551
 30
0.0
  0
VERTEX
  8
0
  6
CONTINUOUS
 62
       7
  5
4BB
 10
-17.37195257
 20
46.95449464
 30
0.0
  0
VERTEX
  8
0
  6
CONTINUOUS
 62
       7
  5
4BC
 10
-17.25401695
 20
47.22012732
 30
0.0
  0
VERTEX
  8
0
  6
CONTINUOUS
 62
       7
  5
4BD
 10
-17.15089776
 20
47.48944469
 30
0.0
  0
VERTEX
  8
0
  6
CONTINUOUS
 62
       7
  5
4BE
 10
-17.06380782
 20
47.7618383
 30
0.0
  0
VERTEX
  8
0
  6
CONTINUOUS
 62
       7
  5
4BF
 10
-16.99395994
 20
48.03669969
 30
0.0
  0
VERTEX
  8
0
  6
CONTINUOUS
 62
       7
  5
4C0
 10
-16.94256696
 20
48.31342043
 30
0.0
  0
VERTEX
  8
0
  6
CONTINUOUS
 62
       7
  5
4C1
 10
-16.91084169
 20
48.59139205
 30
0.0
  0
VERTEX
  8
0
  6
CONTINUOUS
 62
       7
  5
4C2
 10
-16.89999695
 20
48.8700061
 30
0.0
  0
VERTEX
  8
0
  6
CONTINUOUS
 62
       7
  5
4C3
 10
-16.91084135
 20
49.14862014
 30
0.0
  0
VERTEX
  8
0
  6
CONTINUOUS
 62
       7
  5
4C4
 10
-16.9425664
 20
49.42659172
 30
0.0
  0
VERTEX
  8
0
  6
CONTINUOUS
 62
       7
  5
4C5
 10
-16.99395927
 20
49.70331239
 30
0.0
  0
VERTEX
  8
0
  6
CONTINUOUS
 62
       7
  5
4C6
 10
-17.06380711
 20
49.97817371
 30
0.0
  0
VERTEX
  8
0
  6
CONTINUOUS
 62
       7
  5
4C7
 10
-17.1508971
 20
50.25056723
 30
0.0
  0
VERTEX
  8
0
  6
CONTINUOUS
 62
       7
  5
4C8
 10
-17.25401639
 20
50.51988451
 30
0.0
  0
VERTEX
  8
0
  6
CONTINUOUS
 62
       7
  5
4C9
 10
-17.37195214
 20
50.78551711
 30
0.0
  0
VERTEX
  8
0
  6
CONTINUOUS
 62
       7
  5
4CA
 10
-17.50349153
 20
51.04685657
 30
0.0
  0
VERTEX
  8
0
  6
CONTINUOUS
 62
       7
  5
4CB
 10
-17.64742171
 20
51.30329445
 30
0.0
  0
VERTEX
  8
0
  6
CONTINUOUS
 62
       7
  5
4CC
 10
-17.80252985
 20
51.55422232
 30
0.0
  0
VERTEX
  8
0
  6
CONTINUOUS
 62
       7
  5
4CD
 10
-17.96760311
 20
51.79903171
 30
0.0
  0
VERTEX
  8
0
  6
CONTINUOUS
 62
       7
  5
4CE
 10
-18.14142865
 20
52.0371142
 30
0.0
  0
VERTEX
  8
0
  6
CONTINUOUS
 62
       7
  5
4CF
 10
-18.32279365
 20
52.26786132
 30
0.0
  0
VERTEX
  8
0
  6
CONTINUOUS
 62
       7
  5
4D0
 10
-18.51048525
 20
52.49066465
 30
0.0
  0
VERTEX
  8
0
  6
CONTINUOUS
 62
       7
  5
4D1
 10
-18.70329063
 20
52.70491572
 30
0.0
  0
VERTEX
  8
0
  6
CONTINUOUS
 62
       7
  5
4D2
 10
-18.89999695
 20
52.9100061
 30
0.0
  0
SEQEND
  8
0
  6
CONTINUOUS
 62
       7
  5
4D3
  0
POLYLINE
  8
0
  6
CONTINUOUS
 62
       7
  5
1CE
 66
       1
 10
0.0
 20
0.0
 30
0.0
  0
VERTEX
  8
0
  6
CONTINUOUS
 62
       7
  5
4D4
 10
-27.68999695
 20
52.9100061
 30
0.0
  0
VERTEX
  8
0
  6
CONTINUOUS
 62
       7
  5
4D5
 10
-27.80266287
 20
52.67502997
 30
0.0
  0
VERTEX
  8
0
  6
CONTINUOUS
 62
       7
  5
4D6
 10
-27.90968877
 20
52.43667744
 30
0.0
  0
VERTEX
  8
0
  6
CONTINUOUS
 62
       7
  5
4D7
 10
-28.01084993
 20
52.19517135
 30
0.0
  0
VERTEX
  8
0
  6
CONTINUOUS
 62
       7
  5
4D8
 10
-28.10592159
 20
51.95073452
 30
0.0
  0
VERTEX
  8
0
  6
CONTINUOUS
 62
       7
  5
4D9
 10
-28.19467903
 20
51.70358979
 30
0.0
  0
VERTEX
  8
0
  6
CONTINUOUS
 62
       7
  5
4DA
 10
-28.2768975
 20
51.45395999
 30
0.0
  0
VERTEX
  8
0
  6
CONTINUOUS
 62
       7
  5
4DB
 10
-28.35235227
 20
51.20206795
 30
0.0
  0
VERTEX
  8
0
  6
CONTINUOUS
 62
       7
  5
4DC
 10
-28.42081861
 20
50.9481365
 30
0.0
  0
VERTEX
  8
0
  6
CONTINUOUS
 62
       7
  5
4DD
 10
-28.48207176
 20
50.69238848
 30
0.0
  0
VERTEX
  8
0
  6
CONTINUOUS
 62
       7
  5
4DE
 10
-28.53588701
 20
50.43504671
 30
0.0
  0
VERTEX
  8
0
  6
CONTINUOUS
 62
       7
  5
4DF
 10
-28.5820396
 20
50.17633404
 30
0.0
  0
VERTEX
  8
0
  6
CONTINUOUS
 62
       7
  5
4E0
 10
-28.6203048
 20
49.91647328
 30
0.0
  0
VERTEX
  8
0
  6
CONTINUOUS
 62
       7
  5
4E1
 10
-28.65045787
 20
49.65568728
 30
0.0
  0
VERTEX
  8
0
  6
CONTINUOUS
 62
       7
  5
4E2
 10
-28.67227408
 20
49.39419886
 30
0.0
  0
VERTEX
  8
0
  6
CONTINUOUS
 62
       7
  5
4E3
 10
-28.68552868
 20
49.13223086
 30
0.0
  0
VERTEX
  8
0
  6
CONTINUOUS
 62
       7
  5
4E4
 10
-28.68999695
 20
48.8700061
 30
0.0
  0
VERTEX
  8
0
  6
CONTINUOUS
 62
       7
  5
4E5
 10
-28.68552899
 20
48.60778136
 30
0.0
  0
VERTEX
  8
0
  6
CONTINUOUS
 62
       7
  5
4E6
 10
-28.67227457
 20
48.34581337
 30
0.0
  0
VERTEX
  8
0
  6
CONTINUOUS
 62
       7
  5
4E7
 10
-28.65045844
 20
48.08432498
 30
0.0
  0
VERTEX
  8
0
  6
CONTINUOUS
 62
       7
  5
4E8
 10
-28.62030537
 20
47.82353901
 30
0.0
  0
VERTEX
  8
0
  6
CONTINUOUS
 62
       7
  5
4E9
 10
-28.58204011
 20
47.5636783
 30
0.0
  0
VERTEX
  8
0
  6
CONTINUOUS
 62
       7
  5
4EA
 10
-28.5358874
 20
47.30496566
 30
0.0
  0
VERTEX
  8
0
  6
CONTINUOUS
 62
       7
  5
4EB
 10
-28.48207201
 20
47.04762393
 30
0.0
  0
VERTEX
  8
0
  6
CONTINUOUS
 62
       7
  5
4EC
 10
-28.42081868
 20
46.79187594
 30
0.0
  0
VERTEX
  8
0
  6
CONTINUOUS
 62
       7
  5
4ED
 10
-28.35235218
 20
46.53794452
 30
0.0
  0
VERTEX
  8
0
  6
CONTINUOUS
 62
       7
  5
4EE
 10
-28.27689725
 20
46.2860525
 30
0.0
  0
VERTEX
  8
0
  6
CONTINUOUS
 62
       7
  5
4EF
 10
-28.19467865
 20
46.0364227
 30
0.0
  0
VERTEX
  8
0
  6
CONTINUOUS
 62
       7
  5
4F0
 10
-28.10592113
 20
45.78927796
 30
0.0
  0
VERTEX
  8
0
  6
CONTINUOUS
 62
       7
  5
4F1
 10
-28.01084944
 20
45.54484109
 30
0.0
  0
VERTEX
  8
0
  6
CONTINUOUS
 62
       7
  5
4F2
 10
-27.90968835
 20
45.30333495
 30
0.0
  0
VERTEX
  8
0
  6
CONTINUOUS
 62
       7
  5
4F3
 10
-27.8026626
 20
45.06498234
 30
0.0
  0
VERTEX
  8
0
  6
CONTINUOUS
 62
       7
  5
4F4
 10
-27.68999695
 20
44.8300061
 30
0.0
  0
SEQEND
  8
0
  6
CONTINUOUS
 62
       7
  5
4F5
  0
POLYLINE
  8
0
  6
CONTINUOUS
 62
       7
  5
1CF
 66
       1
 10
0.0
 20
0.0
 30
0.0
  0
VERTEX
  8
0
  6
CONTINUOUS
 62
       7
  5
4F6
 10
-18.89999695
 20
40.7900061
 30
0.0
  0
VERTEX
  8
0
  6
CONTINUOUS
 62
       7
  5
4F7
 10
-18.73813693
 20
40.87436054
 30
0.0
  0
VERTEX
  8
0
  6
CONTINUOUS
 62
       7
  5
4F8
 10
-18.57119529
 20
40.96681609
 30
0.0
  0
VERTEX
  8
0
  6
CONTINUOUS
 62
       7
  5
4F9
 10
-18.40131408
 20
41.06683383
 30
0.0
  0
VERTEX
  8
0
  6
CONTINUOUS
 62
       7
  5
4FA
 10
-18.23063538
 20
41.1738748
 30
0.0
  0
VERTEX
  8
0
  6
CONTINUOUS
 62
       7
  5
4FB
 10
-18.06130124
 20
41.28740009
 30
0.0
  0
VERTEX
  8
0
  6
CONTINUOUS
 62
       7
  5
4FC
 10
-17.89545373
 20
41.40687073
 30
0.0
  0
VERTEX
  8
0
  6
CONTINUOUS
 62
       7
  5
4FD
 10
-17.73523492
 20
41.53174781
 30
0.0
  0
VERTEX
  8
0
  6
CONTINUOUS
 62
       7
  5
4FE
 10
-17.58278685
 20
41.66149239
 30
0.0
  0
VERTEX
  8
0
  6
CONTINUOUS
 62
       7
  5
4FF
 10
-17.4402516
 20
41.79556551
 30
0.0
  0
VERTEX
  8
0
  6
CONTINUOUS
 62
       7
  5
500
 10
-17.30977123
 20
41.93342825
 30
0.0
  0
VERTEX
  8
0
  6
CONTINUOUS
 62
       7
  5
501
 10
-17.19348779
 20
42.07454167
 30
0.0
  0
VERTEX
  8
0
  6
CONTINUOUS
 62
       7
  5
502
 10
-17.09354337
 20
42.21836683
 30
0.0
  0
VERTEX
  8
0
  6
CONTINUOUS
 62
       7
  5
503
 10
-17.01208001
 20
42.36436479
 30
0.0
  0
VERTEX
  8
0
  6
CONTINUOUS
 62
       7
  5
504
 10
-16.95123977
 20
42.51199661
 30
0.0
  0
VERTEX
  8
0
  6
CONTINUOUS
 62
       7
  5
505
 10
-16.91316473
 20
42.66072336
 30
0.0
  0
VERTEX
  8
0
  6
CONTINUOUS
 62
       7
  5
506
 10
-16.89999695
 20
42.8100061
 30
0.0
  0
VERTEX
  8
0
  6
CONTINUOUS
 62
       7
  5
507
 10
-16.9131645
 20
42.95928883
 30
0.0
  0
VERTEX
  8
0
  6
CONTINUOUS
 62
       7
  5
508
 10
-16.95123937
 20
43.10801553
 30
0.0
  0
VERTEX
  8
0
  6
CONTINUOUS
 62
       7
  5
509
 10
-17.0120795
 20
43.25564729
 30
0.0
  0
VERTEX
  8
0
  6
CONTINUOUS
 62
       7
  5
50A
 10
-17.09354281
 20
43.40164516
 30
0.0
  0
VERTEX
  8
0
  6
CONTINUOUS
 62
       7
  5
50B
 10
-17.19348724
 20
43.54547023
 30
0.0
  0
VERTEX
  8
0
  6
CONTINUOUS
 62
       7
  5
50C
 10
-17.3097707
 20
43.68658355
 30
0.0
  0
VERTEX
  8
0
  6
CONTINUOUS
 62
       7
  5
50D
 10
-17.44025114
 20
43.8244462
 30
0.0
  0
VERTEX
  8
0
  6
CONTINUOUS
 62
       7
  5
50E
 10
-17.58278647
 20
43.95851925
 30
0.0
  0
VERTEX
  8
0
  6
CONTINUOUS
 62
       7
  5
50F
 10
-17.73523463
 20
44.08826375
 30
0.0
  0
VERTEX
  8
0
  6
CONTINUOUS
 62
       7
  5
510
 10
-17.89545355
 20
44.2131408
 30
0.0
  0
VERTEX
  8
0
  6
CONTINUOUS
 62
       7
  5
511
 10
-18.06130115
 20
44.33261144
 30
0.0
  0
VERTEX
  8
0
  6
CONTINUOUS
 62
       7
  5
512
 10
-18.23063536
 20
44.44613676
 30
0.0
  0
VERTEX
  8
0
  6
CONTINUOUS
 62
       7
  5
513
 10
-18.40131412
 20
44.55317781
 30
0.0
  0
VERTEX
  8
0
  6
CONTINUOUS
 62
       7
  5
514
 10
-18.57119535
 20
44.65319567
 30
0.0
  0
VERTEX
  8
0
  6
CONTINUOUS
 62
       7
  5
515
 10
-18.73813699
 20
44.74565142
 30
0.0
  0
VERTEX
  8
0
  6
CONTINUOUS
 62
       7
  5
516
 10
-18.89999695
 20
44.8300061
 30
0.0
  0
SEQEND
  8
0
  6
CONTINUOUS
 62
       7
  5
517
  0
POLYLINE
  8
0
  6
CONTINUOUS
 62
       7
  5
1D0
 66
       1
 10
0.0
 20
0.0
 30
0.0
  0
VERTEX
  8
0
  6
CONTINUOUS
 62
       7
  5
518
 10
-18.89999695
 20
52.9100061
 30
0.0
  0
VERTEX
  8
0
  6
CONTINUOUS
 62
       7
  5
519
 10
-18.73813691
 20
52.99436057
 30
0.0
  0
VERTEX
  8
0
  6
CONTINUOUS
 62
       7
  5
51A
 10
-18.57119525
 20
53.08681618
 30
0.0
  0
VERTEX
  8
0
  6
CONTINUOUS
 62
       7
  5
51B
 10
-18.40131403
 20
53.18683399
 30
0.0
  0
VERTEX
  8
0
  6
CONTINUOUS
 62
       7
  5
51C
 10
-18.23063531
 20
53.29387505
 30
0.0
  0
VERTEX
  8
0
  6
CONTINUOUS
 62
       7
  5
51D
 10
-18.06130116
 20
53.40740042
 30
0.0
  0
VERTEX
  8
0
  6
CONTINUOUS
 62
       7
  5
51E
 10
-17.89545364
 20
53.52687116
 30
0.0
  0
VERTEX
  8
0
  6
CONTINUOUS
 62
       7
  5
51F
 10
-17.73523482
 20
53.65174832
 30
0.0
  0
VERTEX
  8
0
  6
CONTINUOUS
 62
       7
  5
520
 10
-17.58278675
 20
53.78149297
 30
0.0
  0
VERTEX
  8
0
  6
CONTINUOUS
 62
       7
  5
521
 10
-17.4402515
 20
53.91556614
 30
0.0
  0
VERTEX
  8
0
  6
CONTINUOUS
 62
       7
  5
522
 10
-17.30977113
 20
54.05342891
 30
0.0
  0
VERTEX
  8
0
  6
CONTINUOUS
 62
       7
  5
523
 10
-17.1934877
 20
54.19454233
 30
0.0
  0
VERTEX
  8
0
  6
CONTINUOUS
 62
       7
  5
524
 10
-17.09354328
 20
54.33836745
 30
0.0
  0
VERTEX
  8
0
  6
CONTINUOUS
 62
       7
  5
525
 10
-17.01207994
 20
54.48436533
 30
0.0
  0
VERTEX
  8
0
  6
CONTINUOUS
 62
       7
  5
526
 10
-16.95123972
 20
54.63199703
 30
0.0
  0
VERTEX
  8
0
  6
CONTINUOUS
 62
       7
  5
527
 10
-16.91316471
 20
54.7807236
 30
0.0
  0
VERTEX
  8
0
  6
CONTINUOUS
 62
       7
  5
528
 10
-16.89999695
 20
54.9300061
 30
0.0
  0
VERTEX
  8
0
  6
CONTINUOUS
 62
       7
  5
529
 10
-16.91316452
 20
55.07928859
 30
0.0
  0
VERTEX
  8
0
  6
CONTINUOUS
 62
       7
  5
52A
 10
-16.95123942
 20
55.22801513
 30
0.0
  0
VERTEX
  8
0
  6
CONTINUOUS
 62
       7
  5
52B
 10
-17.01207957
 20
55.37564677
 30
0.0
  0
VERTEX
  8
0
  6
CONTINUOUS
 62
       7
  5
52C
 10
-17.0935429
 20
55.52164458
 30
0.0
  0
VERTEX
  8
0
  6
CONTINUOUS
 62
       7
  5
52D
 10
-17.19348733
 20
55.66546963
 30
0.0
  0
VERTEX
  8
0
  6
CONTINUOUS
 62
       7
  5
52E
 10
-17.3097708
 20
55.80658297
 30
0.0
  0
VERTEX
  8
0
  6
CONTINUOUS
 62
       7
  5
52F
 10
-17.44025124
 20
55.94444566
 30
0.0
  0
VERTEX
  8
0
  6
CONTINUOUS
 62
       7
  5
530
 10
-17.58278657
 20
56.07851878
 30
0.0
  0
VERTEX
  8
0
  6
CONTINUOUS
 62
       7
  5
531
 10
-17.73523473
 20
56.20826337
 30
0.0
  0
VERTEX
  8
0
  6
CONTINUOUS
 62
       7
  5
532
 10
-17.89545364
 20
56.3331405
 30
0.0
  0
VERTEX
  8
0
  6
CONTINUOUS
 62
       7
  5
533
 10
-18.06130123
 20
56.45261123
 30
0.0
  0
VERTEX
  8
0
  6
CONTINUOUS
 62
       7
  5
534
 10
-18.23063544
 20
56.56613663
 30
0.0
  0
VERTEX
  8
0
  6
CONTINUOUS
 62
       7
  5
535
 10
-18.40131418
 20
56.67317776
 30
0.0
  0
VERTEX
  8
0
  6
CONTINUOUS
 62
       7
  5
536
 10
-18.5711954
 20
56.77319567
 30
0.0
  0
VERTEX
  8
0
  6
CONTINUOUS
 62
       7
  5
537
 10
-18.73813701
 20
56.86565143
 30
0.0
  0
VERTEX
  8
0
  6
CONTINUOUS
 62
       7
  5
538
 10
-18.89999695
 20
56.9500061
 30
0.0
  0
SEQEND
  8
0
  6
CONTINUOUS
 62
       7
  5
539
  0
POLYLINE
  8
0
  6
CONTINUOUS
 62
       7
  5
1D1
 66
       1
 10
0.0
 20
0.0
 30
0.0
  0
VERTEX
  8
0
  6
CONTINUOUS
 62
       7
  5
53A
 10
-27.68999695
 20
56.9500061
 30
0.0
  0
VERTEX
  8
0
  6
CONTINUOUS
 62
       7
  5
53B
 10
-27.78835022
 20
56.84746102
 30
0.0
  0
VERTEX
  8
0
  6
CONTINUOUS
 62
       7
  5
53C
 10
-27.88475297
 20
56.74033555
 30
0.0
  0
VERTEX
  8
0
  6
CONTINUOUS
 62
       7
  5
53D
 10
-27.97859878
 20
56.62893391
 30
0.0
  0
VERTEX
  8
0
  6
CONTINUOUS
 62
       7
  5
53E
 10
-28.06928126
 20
56.51356035
 30
0.0
  0
VERTEX
  8
0
  6
CONTINUOUS
 62
       7
  5
53F
 10
-28.15619398
 20
56.39451908
 30
0.0
  0
VERTEX
  8
0
  6
CONTINUOUS
 62
       7
  5
540
 10
-28.23873054
 20
56.27211433
 30
0.0
  0
VERTEX
  8
0
  6
CONTINUOUS
 62
       7
  5
541
 10
-28.31628453
 20
56.14665034
 30
0.0
  0
VERTEX
  8
0
  6
CONTINUOUS
 62
       7
  5
542
 10
-28.38824953
 20
56.01843134
 30
0.0
  0
VERTEX
  8
0
  6
CONTINUOUS
 62
       7
  5
543
 10
-28.45401915
 20
55.88776154
 30
0.0
  0
VERTEX
  8
0
  6
CONTINUOUS
 62
       7
  5
544
 10
-28.51298695
 20
55.75494519
 30
0.0
  0
VERTEX
  8
0
  6
CONTINUOUS
 62
       7
  5
545
 10
-28.56454655
 20
55.6202865
 30
0.0
  0
VERTEX
  8
0
  6
CONTINUOUS
 62
       7
  5
546
 10
-28.60809152
 20
55.48408971
 30
0.0
  0
VERTEX
  8
0
  6
CONTINUOUS
 62
       7
  5
547
 10
-28.64301545
 20
55.34665905
 30
0.0
  0
VERTEX
  8
0
  6
CONTINUOUS
 62
       7
  5
548
 10
-28.66871194
 20
55.20829874
 30
0.0
  0
VERTEX
  8
0
  6
CONTINUOUS
 62
       7
  5
549
 10
-28.68457458
 20
55.06931302
 30
0.0
  0
VERTEX
  8
0
  6
CONTINUOUS
 62
       7
  5
54A
 10
-28.68999695
 20
54.9300061
 30
0.0
  0
VERTEX
  8
0
  6
CONTINUOUS
 62
       7
  5
54B
 10
-28.68457475
 20
54.7906992
 30
0.0
  0
VERTEX
  8
0
  6
CONTINUOUS
 62
       7
  5
54C
 10
-28.66871222
 20
54.6517135
 30
0.0
  0
VERTEX
  8
0
  6
CONTINUOUS
 62
       7
  5
54D
 10
-28.64301578
 20
54.51335322
 30
0.0
  0
VERTEX
  8
0
  6
CONTINUOUS
 62
       7
  5
54E
 10
-28.60809186
 20
54.37592259
 30
0.0
  0
VERTEX
  8
0
  6
CONTINUOUS
 62
       7
  5
54F
 10
-28.56454687
 20
54.23972584
 30
0.0
  0
VERTEX
  8
0
  6
CONTINUOUS
 62
       7
  5
550
 10
-28.51298722
 20
54.1050672
 30
0.0
  0
VERTEX
  8
0
  6
CONTINUOUS
 62
       7
  5
551
 10
-28.45401934
 20
53.97225088
 30
0.0
  0
VERTEX
  8
0
  6
CONTINUOUS
 62
       7
  5
552
 10
-28.38824965
 20
53.84158112
 30
0.0
  0
VERTEX
  8
0
  6
CONTINUOUS
 62
       7
  5
553
 10
-28.31628456
 20
53.71336214
 30
0.0
  0
VERTEX
  8
0
  6
CONTINUOUS
 62
       7
  5
554
 10
-28.23873049
 20
53.58789817
 30
0.0
  0
VERTEX
  8
0
  6
CONTINUOUS
 62
       7
  5
555
 10
-28.15619386
 20
53.46549342
 30
0.0
  0
VERTEX
  8
0
  6
CONTINUOUS
 62
       7
  5
556
 10
-28.06928109
 20
53.34645214
 30
0.0
  0
VERTEX
  8
0
  6
CONTINUOUS
 62
       7
  5
557
 10
-27.97859859
 20
53.23107854
 30
0.0
  0
VERTEX
  8
0
  6
CONTINUOUS
 62
       7
  5
558
 10
-27.88475279
 20
53.11967685
 30
0.0
  0
VERTEX
  8
0
  6
CONTINUOUS
 62
       7
  5
559
 10
-27.7883501
 20
53.0125513
 30
0.0
  0
VERTEX
  8
0
  6
CONTINUOUS
 62
       7
  5
55A
 10
-27.68999695
 20
52.9100061
 30
0.0
  0
SEQEND
  8
0
  6
CONTINUOUS
 62
       7
  5
55B
  0
POLYLINE
  8
0
  6
CONTINUOUS
 62
       7
  5
1D2
 66
       1
 10
0.0
 20
0.0
 30
0.0
  0
VERTEX
  8
0
  6
CONTINUOUS
 62
       7
  5
55C
 10
74.31000305
 20
48.1300061
 30
0.0
  0
VERTEX
  8
0
  6
CONTINUOUS
 62
       7
  5
55D
 10
74.40835623
 20
48.02746091
 30
0.0
  0
VERTEX
  8
0
  6
CONTINUOUS
 62
       7
  5
55E
 10
74.50475893
 20
47.92033537
 30
0.0
  0
VERTEX
  8
0
  6
CONTINUOUS
 62
       7
  5
55F
 10
74.59860473
 20
47.80893371
 30
0.0
  0
VERTEX
  8
0
  6
CONTINUOUS
 62
       7
  5
560
 10
74.68928722
 20
47.69356014
 30
0.0
  0
VERTEX
  8
0
  6
CONTINUOUS
 62
       7
  5
561
 10
74.77619999
 20
47.57451889
 30
0.0
  0
VERTEX
  8
0
  6
CONTINUOUS
 62
       7
  5
562
 10
74.85873661
 20
47.45211419
 30
0.0
  0
VERTEX
  8
0
  6
CONTINUOUS
 62
       7
  5
563
 10
74.93629067
 20
47.32665025
 30
0.0
  0
VERTEX
  8
0
  6
CONTINUOUS
 62
       7
  5
564
 10
75.00825574
 20
47.1984313
 30
0.0
  0
VERTEX
  8
0
  6
CONTINUOUS
 62
       7
  5
565
 10
75.07402543
 20
47.06776157
 30
0.0
  0
VERTEX
  8
0
  6
CONTINUOUS
 62
       7
  5
566
 10
75.13299329
 20
46.93494526
 30
0.0
  0
VERTEX
  8
0
  6
CONTINUOUS
 62
       7
  5
567
 10
75.18455293
 20
46.80028662
 30
0.0
  0
VERTEX
  8
0
  6
CONTINUOUS
 62
       7
  5
568
 10
75.22809792
 20
46.66408986
 30
0.0
  0
VERTEX
  8
0
  6
CONTINUOUS
 62
       7
  5
569
 10
75.26302184
 20
46.52665921
 30
0.0
  0
VERTEX
  8
0
  6
CONTINUOUS
 62
       7
  5
56A
 10
75.28871828
 20
46.38829888
 30
0.0
  0
VERTEX
  8
0
  6
CONTINUOUS
 62
       7
  5
56B
 10
75.30458083
 20
46.2493131
 30
0.0
  0
VERTEX
  8
0
  6
CONTINUOUS
 62
       7
  5
56C
 10
75.31000305
 20
46.1100061
 30
0.0
  0
VERTEX
  8
0
  6
CONTINUOUS
 62
       7
  5
56D
 10
75.3045807
 20
45.9706991
 30
0.0
  0
VERTEX
  8
0
  6
CONTINUOUS
 62
       7
  5
56E
 10
75.28871808
 20
45.8317133
 30
0.0
  0
VERTEX
  8
0
  6
CONTINUOUS
 62
       7
  5
56F
 10
75.26302159
 20
45.69335295
 30
0.0
  0
VERTEX
  8
0
  6
CONTINUOUS
 62
       7
  5
570
 10
75.22809765
 20
45.55592226
 30
0.0
  0
VERTEX
  8
0
  6
CONTINUOUS
 62
       7
  5
571
 10
75.18455266
 20
45.41972547
 30
0.0
  0
VERTEX
  8
0
  6
CONTINUOUS
 62
       7
  5
572
 10
75.13299305
 20
45.28506679
 30
0.0
  0
VERTEX
  8
0
  6
CONTINUOUS
 62
       7
  5
573
 10
75.07402523
 20
45.15225045
 30
0.0
  0
VERTEX
  8
0
  6
CONTINUOUS
 62
       7
  5
574
 10
75.00825559
 20
45.02158069
 30
0.0
  0
VERTEX
  8
0
  6
CONTINUOUS
 62
       7
  5
575
 10
74.93629057
 20
44.89336171
 30
0.0
  0
VERTEX
  8
0
  6
CONTINUOUS
 62
       7
  5
576
 10
74.85873657
 20
44.76789776
 30
0.0
  0
VERTEX
  8
0
  6
CONTINUOUS
 62
       7
  5
577
 10
74.77619999
 20
44.64549306
 30
0.0
  0
VERTEX
  8
0
  6
CONTINUOUS
 62
       7
  5
578
 10
74.68928727
 20
44.52645182
 30
0.0
  0
VERTEX
  8
0
  6
CONTINUOUS
 62
       7
  5
579
 10
74.5986048
 20
44.41107828
 30
0.0
  0
VERTEX
  8
0
  6
CONTINUOUS
 62
       7
  5
57A
 10
74.504759
 20
44.29967667
 30
0.0
  0
VERTEX
  8
0
  6
CONTINUOUS
 62
       7
  5
57B
 10
74.40835628
 20
44.1925512
 30
0.0
  0
VERTEX
  8
0
  6
CONTINUOUS
 62
       7
  5
57C
 10
74.31000305
 20
44.0900061
 30
0.0
  0
SEQEND
  8
0
  6
CONTINUOUS
 62
       7
  5
57D
  0
POLYLINE
  8
0
  6
CONTINUOUS
 62
       7
  5
1D3
 66
       1
 10
0.0
 20
0.0
 30
0.0
  0
VERTEX
  8
0
  6
CONTINUOUS
 62
       7
  5
57E
 10
65.51000305
 20
48.1300061
 30
0.0
  0
VERTEX
  8
0
  6
CONTINUOUS
 62
       7
  5
57F
 10
65.31329669
 20
48.33509644
 30
0.0
  0
VERTEX
  8
0
  6
CONTINUOUS
 62
       7
  5
580
 10
65.1204913
 20
48.54934748
 30
0.0
  0
VERTEX
  8
0
  6
CONTINUOUS
 62
       7
  5
581
 10
64.93279969
 20
48.77215078
 30
0.0
  0
VERTEX
  8
0
  6
CONTINUOUS
 62
       7
  5
582
 10
64.75143471
 20
49.0028979
 30
0.0
  0
VERTEX
  8
0
  6
CONTINUOUS
 62
       7
  5
583
 10
64.57760919
 20
49.24098037
 30
0.0
  0
VERTEX
  8
0
  6
CONTINUOUS
 62
       7
  5
584
 10
64.41253597
 20
49.48578977
 30
0.0
  0
VERTEX
  8
0
  6
CONTINUOUS
 62
       7
  5
585
 10
64.25742786
 20
49.73671764
 30
0.0
  0
VERTEX
  8
0
  6
CONTINUOUS
 62
       7
  5
586
 10
64.11349772
 20
49.99315554
 30
0.0
  0
VERTEX
  8
0
  6
CONTINUOUS
 62
       7
  5
587
 10
63.98195837
 20
50.25449501
 30
0.0
  0
VERTEX
  8
0
  6
CONTINUOUS
 62
       7
  5
588
 10
63.86402264
 20
50.52012762
 30
0.0
  0
VERTEX
  8
0
  6
CONTINUOUS
 62
       7
  5
589
 10
63.76090337
 20
50.78944492
 30
0.0
  0
VERTEX
  8
0
  6
CONTINUOUS
 62
       7
  5
58A
 10
63.67381339
 20
51.06183846
 30
0.0
  0
VERTEX
  8
0
  6
CONTINUOUS
 62
       7
  5
58B
 10
63.60396554
 20
51.33669979
 30
0.0
  0
VERTEX
  8
0
  6
CONTINUOUS
 62
       7
  5
58C
 10
63.55257264
 20
51.61342048
 30
0.0
  0
VERTEX
  8
0
  6
CONTINUOUS
 62
       7
  5
58D
 10
63.52084753
 20
51.89139206
 30
0.0
  0
VERTEX
  8
0
  6
CONTINUOUS
 62
       7
  5
58E
 10
63.51000305
 20
52.1700061
 30
0.0
  0
VERTEX
  8
0
  6
CONTINUOUS
 62
       7
  5
58F
 10
63.52084771
 20
52.44862015
 30
0.0
  0
VERTEX
  8
0
  6
CONTINUOUS
 62
       7
  5
590
 10
63.55257294
 20
52.72659176
 30
0.0
  0
VERTEX
  8
0
  6
CONTINUOUS
 62
       7
  5
591
 10
63.60396589
 20
53.00331248
 30
0.0
  0
VERTEX
  8
0
  6
CONTINUOUS
 62
       7
  5
592
 10
63.67381376
 20
53.27817386
 30
0.0
  0
VERTEX
  8
0
  6
CONTINUOUS
 62
       7
  5
593
 10
63.76090371
 20
53.55056745
 30
0.0
  0
VERTEX
  8
0
  6
CONTINUOUS
 62
       7
  5
594
 10
63.86402293
 20
53.8198848
 30
0.0
  0
VERTEX
  8
0
  6
CONTINUOUS
 62
       7
  5
595
 10
63.98195858
 20
54.08551745
 30
0.0
  0
VERTEX
  8
0
  6
CONTINUOUS
 62
       7
  5
596
 10
64.11349785
 20
54.34685697
 30
0.0
  0
VERTEX
  8
0
  6
CONTINUOUS
 62
       7
  5
597
 10
64.2574279
 20
54.6032949
 30
0.0
  0
VERTEX
  8
0
  6
CONTINUOUS
 62
       7
  5
598
 10
64.41253591
 20
54.85422279
 30
0.0
  0
VERTEX
  8
0
  6
CONTINUOUS
 62
       7
  5
599
 10
64.57760907
 20
55.09903219
 30
0.0
  0
VERTEX
  8
0
  6
CONTINUOUS
 62
       7
  5
59A
 10
64.75143453
 20
55.33711465
 30
0.0
  0
VERTEX
  8
0
  6
CONTINUOUS
 62
       7
  5
59B
 10
64.93279949
 20
55.56786172
 30
0.0
  0
VERTEX
  8
0
  6
CONTINUOUS
 62
       7
  5
59C
 10
65.12049111
 20
55.79066495
 30
0.0
  0
VERTEX
  8
0
  6
CONTINUOUS
 62
       7
  5
59D
 10
65.31329657
 20
56.0049159
 30
0.0
  0
VERTEX
  8
0
  6
CONTINUOUS
 62
       7
  5
59E
 10
65.51000305
 20
56.2100061
 30
0.0
  0
SEQEND
  8
0
  6
CONTINUOUS
 62
       7
  5
59F
  0
POLYLINE
  8
0
  6
CONTINUOUS
 62
       7
  5
1D4
 66
       1
 10
0.0
 20
0.0
 30
0.0
  0
VERTEX
  8
0
  6
CONTINUOUS
 62
       7
  5
5A0
 10
74.31000305
 20
56.2100061
 30
0.0
  0
VERTEX
  8
0
  6
CONTINUOUS
 62
       7
  5
5A1
 10
74.42266878
 20
55.97502981
 30
0.0
  0
VERTEX
  8
0
  6
CONTINUOUS
 62
       7
  5
5A2
 10
74.52969458
 20
55.73667706
 30
0.0
  0
VERTEX
  8
0
  6
CONTINUOUS
 62
       7
  5
5A3
 10
74.6308557
 20
55.49517071
 30
0.0
  0
VERTEX
  8
0
  6
CONTINUOUS
 62
       7
  5
5A4
 10
74.72592739
 20
55.25073359
 30
0.0
  0
VERTEX
  8
0
  6
CONTINUOUS
 62
       7
  5
5A5
 10
74.81468489
 20
55.00358857
 30
0.0
  0
VERTEX
  8
0
  6
CONTINUOUS
 62
       7
  5
5A6
 10
74.89690347
 20
54.75395849
 30
0.0
  0
VERTEX
  8
0
  6
CONTINUOUS
 62
       7
  5
5A7
 10
74.97235836
 20
54.50206619
 30
0.0
  0
VERTEX
  8
0
  6
CONTINUOUS
 62
       7
  5
5A8
 10
75.04082482
 20
54.24813453
 30
0.0
  0
VERTEX
  8
0
  6
CONTINUOUS
 62
       7
  5
5A9
 10
75.10207811
 20
53.99238636
 30
0.0
  0
VERTEX
  8
0
  6
CONTINUOUS
 62
       7
  5
5AA
 10
75.15589346
 20
53.73504453
 30
0.0
  0
VERTEX
  8
0
  6
CONTINUOUS
 62
       7
  5
5AB
 10
75.20204613
 20
53.47633188
 30
0.0
  0
VERTEX
  8
0
  6
CONTINUOUS
 62
       7
  5
5AC
 10
75.24031138
 20
53.21647126
 30
0.0
  0
VERTEX
  8
0
  6
CONTINUOUS
 62
       7
  5
5AD
 10
75.27046444
 20
52.95568552
 30
0.0
  0
VERTEX
  8
0
  6
CONTINUOUS
 62
       7
  5
5AE
 10
75.29228057
 20
52.69419752
 30
0.0
  0
VERTEX
  8
0
  6
CONTINUOUS
 62
       7
  5
5AF
 10
75.30553503
 20
52.4322301
 30
0.0
  0
VERTEX
  8
0
  6
CONTINUOUS
 62
       7
  5
5B0
 10
75.31000305
 20
52.1700061
 30
0.0
  0
VERTEX
  8
0
  6
CONTINUOUS
 62
       7
  5
5B1
 10
75.30553485
 20
51.9077821
 30
0.0
  0
VERTEX
  8
0
  6
CONTINUOUS
 62
       7
  5
5B2
 10
75.29228028
 20
51.64581466
 30
0.0
  0
VERTEX
  8
0
  6
CONTINUOUS
 62
       7
  5
5B3
 10
75.27046409
 20
51.38432662
 30
0.0
  0
VERTEX
  8
0
  6
CONTINUOUS
 62
       7
  5
5B4
 10
75.24031101
 20
51.12354084
 30
0.0
  0
VERTEX
  8
0
  6
CONTINUOUS
 62
       7
  5
5B5
 10
75.20204579
 20
50.86368018
 30
0.0
  0
VERTEX
  8
0
  6
CONTINUOUS
 62
       7
  5
5B6
 10
75.15589317
 20
50.60496748
 30
0.0
  0
VERTEX
  8
0
  6
CONTINUOUS
 62
       7
  5
5B7
 10
75.10207789
 20
50.3476256
 30
0.0
  0
VERTEX
  8
0
  6
CONTINUOUS
 62
       7
  5
5B8
 10
75.0408247
 20
50.09187739
 30
0.0
  0
VERTEX
  8
0
  6
CONTINUOUS
 62
       7
  5
5B9
 10
74.97235833
 20
49.8379457
 30
0.0
  0
VERTEX
  8
0
  6
CONTINUOUS
 62
       7
  5
5BA
 10
74.89690352
 20
49.58605339
 30
0.0
  0
VERTEX
  8
0
  6
CONTINUOUS
 62
       7
  5
5BB
 10
74.81468502
 20
49.3364233
 30
0.0
  0
VERTEX
  8
0
  6
CONTINUOUS
 62
       7
  5
5BC
 10
74.72592756
 20
49.0892783
 30
0.0
  0
VERTEX
  8
0
  6
CONTINUOUS
 62
       7
  5
5BD
 10
74.6308559
 20
48.84484122
 30
0.0
  0
VERTEX
  8
0
  6
CONTINUOUS
 62
       7
  5
5BE
 10
74.52969476
 20
48.60333493
 30
0.0
  0
VERTEX
  8
0
  6
CONTINUOUS
 62
       7
  5
5BF
 10
74.4226689
 20
48.36498227
 30
0.0
  0
VERTEX
  8
0
  6
CONTINUOUS
 62
       7
  5
5C0
 10
74.31000305
 20
48.1300061
 30
0.0
  0
SEQEND
  8
0
  6
CONTINUOUS
 62
       7
  5
5C1
  0
POLYLINE
  8
0
  6
CONTINUOUS
 62
       7
  5
1D5
 66
       1
 10
0.0
 20
0.0
 30
0.0
  0
VERTEX
  8
0
  6
CONTINUOUS
 62
       7
  5
5C2
 10
65.51000305
 20
44.0900061
 30
0.0
  0
VERTEX
  8
0
  6
CONTINUOUS
 62
       7
  5
5C3
 10
65.3481431
 20
44.1743607
 30
0.0
  0
VERTEX
  8
0
  6
CONTINUOUS
 62
       7
  5
5C4
 10
65.18120148
 20
44.26681637
 30
0.0
  0
VERTEX
  8
0
  6
CONTINUOUS
 62
       7
  5
5C5
 10
65.01132028
 20
44.36683418
 30
0.0
  0
VERTEX
  8
0
  6
CONTINUOUS
 62
       7
  5
5C6
 10
64.84064155
 20
44.47387521
 30
0.0
  0
VERTEX
  8
0
  6
CONTINUOUS
 62
       7
  5
5C7
 10
64.67130737
 20
44.58740051
 30
0.0
  0
VERTEX
  8
0
  6
CONTINUOUS
 62
       7
  5
5C8
 10
64.5054598
 20
44.70687116
 30
0.0
  0
VERTEX
  8
0
  6
CONTINUOUS
 62
       7
  5
5C9
 10
64.34524092
 20
44.83174821
 30
0.0
  0
VERTEX
  8
0
  6
CONTINUOUS
 62
       7
  5
5CA
 10
64.19279279
 20
44.96149275
 30
0.0
  0
VERTEX
  8
0
  6
CONTINUOUS
 62
       7
  5
5CB
 10
64.05025748
 20
45.09556582
 30
0.0
  0
VERTEX
  8
0
  6
CONTINUOUS
 62
       7
  5
5CC
 10
63.91977706
 20
45.2334285
 30
0.0
  0
VERTEX
  8
0
  6
CONTINUOUS
 62
       7
  5
5CD
 10
63.8034936
 20
45.37454186
 30
0.0
  0
VERTEX
  8
0
  6
CONTINUOUS
 62
       7
  5
5CE
 10
63.70354916
 20
45.51836696
 30
0.0
  0
VERTEX
  8
0
  6
CONTINUOUS
 62
       7
  5
5CF
 10
63.62208582
 20
45.66436487
 30
0.0
  0
VERTEX
  8
0
  6
CONTINUOUS
 62
       7
  5
5D0
 10
63.56124564
 20
45.81199665
 30
0.0
  0
VERTEX
  8
0
  6
CONTINUOUS
 62
       7
  5
5D1
 10
63.5231707
 20
45.96072337
 30
0.0
  0
VERTEX
  8
0
  6
CONTINUOUS
 62
       7
  5
5D2
 10
63.51000305
 20
46.1100061
 30
0.0
  0
VERTEX
  8
0
  6
CONTINUOUS
 62
       7
  5
5D3
 10
63.52317074
 20
46.25928884
 30
0.0
  0
VERTEX
  8
0
  6
CONTINUOUS
 62
       7
  5
5D4
 10
63.56124571
 20
46.40801557
 30
0.0
  0
VERTEX
  8
0
  6
CONTINUOUS
 62
       7
  5
5D5
 10
63.62208589
 20
46.55564737
 30
0.0
  0
VERTEX
  8
0
  6
CONTINUOUS
 62
       7
  5
5D6
 10
63.70354922
 20
46.7016453
 30
0.0
  0
VERTEX
  8
0
  6
CONTINUOUS
 62
       7
  5
5D7
 10
63.80349364
 20
46.84547042
 30
0.0
  0
VERTEX
  8
0
  6
CONTINUOUS
 62
       7
  5
5D8
 10
63.91977707
 20
46.9865838
 30
0.0
  0
VERTEX
  8
0
  6
CONTINUOUS
 62
       7
  5
5D9
 10
64.05025746
 20
47.12444651
 30
0.0
  0
VERTEX
  8
0
  6
CONTINUOUS
 62
       7
  5
5DA
 10
64.19279273
 20
47.25851961
 30
0.0
  0
VERTEX
  8
0
  6
CONTINUOUS
 62
       7
  5
5DB
 10
64.34524083
 20
47.38826415
 30
0.0
  0
VERTEX
  8
0
  6
CONTINUOUS
 62
       7
  5
5DC
 10
64.50545968
 20
47.51314122
 30
0.0
  0
VERTEX
  8
0
  6
CONTINUOUS
 62
       7
  5
5DD
 10
64.67130723
 20
47.63261187
 30
0.0
  0
VERTEX
  8
0
  6
CONTINUOUS
 62
       7
  5
5DE
 10
64.8406414
 20
47.74613716
 30
0.0
  0
VERTEX
  8
0
  6
CONTINUOUS
 62
       7
  5
5DF
 10
65.01132013
 20
47.85317817
 30
0.0
  0
VERTEX
  8
0
  6
CONTINUOUS
 62
       7
  5
5E0
 10
65.18120136
 20
47.95319595
 30
0.0
  0
VERTEX
  8
0
  6
CONTINUOUS
 62
       7
  5
5E1
 10
65.34814302
 20
48.04565157
 30
0.0
  0
VERTEX
  8
0
  6
CONTINUOUS
 62
       7
  5
5E2
 10
65.51000305
 20
48.1300061
 30
0.0
  0
SEQEND
  8
0
  6
CONTINUOUS
 62
       7
  5
5E3
  0
POLYLINE
  8
0
  6
CONTINUOUS
 62
       7
  5
1D6
 66
       1
 10
0.0
 20
0.0
 30
0.0
  0
VERTEX
  8
0
  6
CONTINUOUS
 62
       7
  5
5E4
 10
65.51000305
 20
56.2100061
 30
0.0
  0
VERTEX
  8
0
  6
CONTINUOUS
 62
       7
  5
5E5
 10
65.34814309
 20
56.29436071
 30
0.0
  0
VERTEX
  8
0
  6
CONTINUOUS
 62
       7
  5
5E6
 10
65.18120146
 20
56.38681639
 30
0.0
  0
VERTEX
  8
0
  6
CONTINUOUS
 62
       7
  5
5E7
 10
65.01132024
 20
56.48683421
 30
0.0
  0
VERTEX
  8
0
  6
CONTINUOUS
 62
       7
  5
5E8
 10
64.84064151
 20
56.59387523
 30
0.0
  0
VERTEX
  8
0
  6
CONTINUOUS
 62
       7
  5
5E9
 10
64.67130731
 20
56.70740053
 30
0.0
  0
VERTEX
  8
0
  6
CONTINUOUS
 62
       7
  5
5EA
 10
64.50545974
 20
56.82687116
 30
0.0
  0
VERTEX
  8
0
  6
CONTINUOUS
 62
       7
  5
5EB
 10
64.34524085
 20
56.95174821
 30
0.0
  0
VERTEX
  8
0
  6
CONTINUOUS
 62
       7
  5
5EC
 10
64.19279271
 20
57.08149272
 30
0.0
  0
VERTEX
  8
0
  6
CONTINUOUS
 62
       7
  5
5ED
 10
64.0502574
 20
57.21556579
 30
0.0
  0
VERTEX
  8
0
  6
CONTINUOUS
 62
       7
  5
5EE
 10
63.91977698
 20
57.35342846
 30
0.0
  0
VERTEX
  8
0
  6
CONTINUOUS
 62
       7
  5
5EF
 10
63.80349352
 20
57.49454181
 30
0.0
  0
VERTEX
  8
0
  6
CONTINUOUS
 62
       7
  5
5F0
 10
63.70354909
 20
57.63836691
 30
0.0
  0
VERTEX
  8
0
  6
CONTINUOUS
 62
       7
  5
5F1
 10
63.62208576
 20
57.78436482
 30
0.0
  0
VERTEX
  8
0
  6
CONTINUOUS
 62
       7
  5
5F2
 10
63.5612456
 20
57.93199661
 30
0.0
  0
VERTEX
  8
0
  6
CONTINUOUS
 62
       7
  5
5F3
 10
63.52317067
 20
58.08072335
 30
0.0
  0
VERTEX
  8
0
  6
CONTINUOUS
 62
       7
  5
5F4
 10
63.51000305
 20
58.2300061
 30
0.0
  0
VERTEX
  8
0
  6
CONTINUOUS
 62
       7
  5
5F5
 10
63.52317077
 20
58.37928887
 30
0.0
  0
VERTEX
  8
0
  6
CONTINUOUS
 62
       7
  5
5F6
 10
63.56124576
 20
58.52801562
 30
0.0
  0
VERTEX
  8
0
  6
CONTINUOUS
 62
       7
  5
5F7
 10
63.62208595
 20
58.67564744
 30
0.0
  0
VERTEX
  8
0
  6
CONTINUOUS
 62
       7
  5
5F8
 10
63.70354929
 20
58.82164539
 30
0.0
  0
VERTEX
  8
0
  6
CONTINUOUS
 62
       7
  5
5F9
 10
63.80349371
 20
58.96547052
 30
0.0
  0
VERTEX
  8
0
  6
CONTINUOUS
 62
       7
  5
5FA
 10
63.91977714
 20
59.10658391
 30
0.0
  0
VERTEX
  8
0
  6
CONTINUOUS
 62
       7
  5
5FB
 10
64.05025752
 20
59.24444662
 30
0.0
  0
VERTEX
  8
0
  6
CONTINUOUS
 62
       7
  5
5FC
 10
64.19279279
 20
59.37851971
 30
0.0
  0
VERTEX
  8
0
  6
CONTINUOUS
 62
       7
  5
5FD
 10
64.34524088
 20
59.50826425
 30
0.0
  0
VERTEX
  8
0
  6
CONTINUOUS
 62
       7
  5
5FE
 10
64.50545972
 20
59.63314131
 30
0.0
  0
VERTEX
  8
0
  6
CONTINUOUS
 62
       7
  5
5FF
 10
64.67130726
 20
59.75261195
 30
0.0
  0
VERTEX
  8
0
  6
CONTINUOUS
 62
       7
  5
600
 10
64.84064142
 20
59.86613723
 30
0.0
  0
VERTEX
  8
0
  6
CONTINUOUS
 62
       7
  5
601
 10
65.01132015
 20
59.97317822
 30
0.0
  0
VERTEX
  8
0
  6
CONTINUOUS
 62
       7
  5
602
 10
65.18120137
 20
60.07319599
 30
0.0
  0
VERTEX
  8
0
  6
CONTINUOUS
 62
       7
  5
603
 10
65.34814303
 20
60.16565159
 30
0.0
  0
VERTEX
  8
0
  6
CONTINUOUS
 62
       7
  5
604
 10
65.51000305
 20
60.2500061
 30
0.0
  0
SEQEND
  8
0
  6
CONTINUOUS
 62
       7
  5
605
  0
POLYLINE
  8
0
  6
CONTINUOUS
 62
       7
  5
1D7
 66
       1
 10
0.0
 20
0.0
 30
0.0
  0
VERTEX
  8
0
  6
CONTINUOUS
 62
       7
  5
606
 10
74.31000305
 20
60.2500061
 30
0.0
  0
VERTEX
  8
0
  6
CONTINUOUS
 62
       7
  5
607
 10
74.40835624
 20
60.14746093
 30
0.0
  0
VERTEX
  8
0
  6
CONTINUOUS
 62
       7
  5
608
 10
74.50475895
 20
60.04033541
 30
0.0
  0
VERTEX
  8
0
  6
CONTINUOUS
 62
       7
  5
609
 10
74.59860476
 20
59.92893375
 30
0.0
  0
VERTEX
  8
0
  6
CONTINUOUS
 62
       7
  5
60A
 10
74.68928725
 20
59.81356019
 30
0.0
  0
VERTEX
  8
0
  6
CONTINUOUS
 62
       7
  5
60B
 10
74.77620001
 20
59.69451895
 30
0.0
  0
VERTEX
  8
0
  6
CONTINUOUS
 62
       7
  5
60C
 10
74.85873662
 20
59.57211424
 30
0.0
  0
VERTEX
  8
0
  6
CONTINUOUS
 62
       7
  5
60D
 10
74.93629067
 20
59.44665031
 30
0.0
  0
VERTEX
  8
0
  6
CONTINUOUS
 62
       7
  5
60E
 10
75.00825574
 20
59.31843135
 30
0.0
  0
VERTEX
  8
0
  6
CONTINUOUS
 62
       7
  5
60F
 10
75.07402542
 20
59.18776161
 30
0.0
  0
VERTEX
  8
0
  6
CONTINUOUS
 62
       7
  5
610
 10
75.13299328
 20
59.05494531
 30
0.0
  0
VERTEX
  8
0
  6
CONTINUOUS
 62
       7
  5
611
 10
75.18455291
 20
58.92028666
 30
0.0
  0
VERTEX
  8
0
  6
CONTINUOUS
 62
       7
  5
612
 10
75.22809789
 20
58.78408989
 30
0.0
  0
VERTEX
  8
0
  6
CONTINUOUS
 62
       7
  5
613
 10
75.26302182
 20
58.64665923
 30
0.0
  0
VERTEX
  8
0
  6
CONTINUOUS
 62
       7
  5
614
 10
75.28871826
 20
58.5082989
 30
0.0
  0
VERTEX
  8
0
  6
CONTINUOUS
 62
       7
  5
615
 10
75.30458081
 20
58.36931311
 30
0.0
  0
VERTEX
  8
0
  6
CONTINUOUS
 62
       7
  5
616
 10
75.31000305
 20
58.2300061
 30
0.0
  0
VERTEX
  8
0
  6
CONTINUOUS
 62
       7
  5
617
 10
75.30458072
 20
58.09069909
 30
0.0
  0
VERTEX
  8
0
  6
CONTINUOUS
 62
       7
  5
618
 10
75.28871811
 20
57.95171329
 30
0.0
  0
VERTEX
  8
0
  6
CONTINUOUS
 62
       7
  5
619
 10
75.26302164
 20
57.81335294
 30
0.0
  0
VERTEX
  8
0
  6
CONTINUOUS
 62
       7
  5
61A
 10
75.22809771
 20
57.67592226
 30
0.0
  0
VERTEX
  8
0
  6
CONTINUOUS
 62
       7
  5
61B
 10
75.18455273
 20
57.53972547
 30
0.0
  0
VERTEX
  8
0
  6
CONTINUOUS
 62
       7
  5
61C
 10
75.13299313
 20
57.40506679
 30
0.0
  0
VERTEX
  8
0
  6
CONTINUOUS
 62
       7
  5
61D
 10
75.07402531
 20
57.27225046
 30
0.0
  0
VERTEX
  8
0
  6
CONTINUOUS
 62
       7
  5
61E
 10
75.00825568
 20
57.1415807
 30
0.0
  0
VERTEX
  8
0
  6
CONTINUOUS
 62
       7
  5
61F
 10
74.93629066
 20
57.01336173
 30
0.0
  0
VERTEX
  8
0
  6
CONTINUOUS
 62
       7
  5
620
 10
74.85873665
 20
56.88789779
 30
0.0
  0
VERTEX
  8
0
  6
CONTINUOUS
 62
       7
  5
621
 10
74.77620007
 20
56.76549308
 30
0.0
  0
VERTEX
  8
0
  6
CONTINUOUS
 62
       7
  5
622
 10
74.68928734
 20
56.64645185
 30
0.0
  0
VERTEX
  8
0
  6
CONTINUOUS
 62
       7
  5
623
 10
74.59860486
 20
56.53107831
 30
0.0
  0
VERTEX
  8
0
  6
CONTINUOUS
 62
       7
  5
624
 10
74.50475904
 20
56.41967669
 30
0.0
  0
VERTEX
  8
0
  6
CONTINUOUS
 62
       7
  5
625
 10
74.4083563
 20
56.31255121
 30
0.0
  0
VERTEX
  8
0
  6
CONTINUOUS
 62
       7
  5
626
 10
74.31000305
 20
56.2100061
 30
0.0
  0
SEQEND
  8
0
  6
CONTINUOUS
 62
       7
  5
627
  0
POLYLINE
  8
0
  6
CONTINUOUS
 62
       7
  5
1D8
 66
       1
 10
0.0
 20
0.0
 30
0.0
  0
VERTEX
  8
0
  6
CONTINUOUS
 62
       7
  5
628
 10
-56.09999695
 20
9.6000061
 30
0.0
  0
VERTEX
  8
0
  6
CONTINUOUS
 62
       7
  5
629
 10
-56.27529857
 20
9.30772132
 30
0.0
  0
VERTEX
  8
0
  6
CONTINUOUS
 62
       7
  5
62A
 10
-56.44308981
 20
9.00929059
 30
0.0
  0
VERTEX
  8
0
  6
CONTINUOUS
 62
       7
  5
62B
 10
-56.60284641
 20
8.70511405
 30
0.0
  0
VERTEX
  8
0
  6
CONTINUOUS
 62
       7
  5
62C
 10
-56.75404413
 20
8.39559181
 30
0.0
  0
VERTEX
  8
0
  6
CONTINUOUS
 62
       7
  5
62D
 10
-56.89615871
 20
8.081124
 30
0.0
  0
VERTEX
  8
0
  6
CONTINUOUS
 62
       7
  5
62E
 10
-57.02866591
 20
7.76211074
 30
0.0
  0
VERTEX
  8
0
  6
CONTINUOUS
 62
       7
  5
62F
 10
-57.15104148
 20
7.43895216
 30
0.0
  0
VERTEX
  8
0
  6
CONTINUOUS
 62
       7
  5
630
 10
-57.26276116
 20
7.11204839
 30
0.0
  0
VERTEX
  8
0
  6
CONTINUOUS
 62
       7
  5
631
 10
-57.36330071
 20
6.78179955
 30
0.0
  0
VERTEX
  8
0
  6
CONTINUOUS
 62
       7
  5
632
 10
-57.45213588
 20
6.44860576
 30
0.0
  0
VERTEX
  8
0
  6
CONTINUOUS
 62
       7
  5
633
 10
-57.52874242
 20
6.11286714
 30
0.0
  0
VERTEX
  8
0
  6
CONTINUOUS
 62
       7
  5
634
 10
-57.59259608
 20
5.77498383
 30
0.0
  0
VERTEX
  8
0
  6
CONTINUOUS
 62
       7
  5
635
 10
-57.64317261
 20
5.43535595
 30
0.0
  0
VERTEX
  8
0
  6
CONTINUOUS
 62
       7
  5
636
 10
-57.67994777
 20
5.09438361
 30
0.0
  0
VERTEX
  8
0
  6
CONTINUOUS
 62
       7
  5
637
 10
-57.7023973
 20
4.75246696
 30
0.0
  0
VERTEX
  8
0
  6
CONTINUOUS
 62
       7
  5
638
 10
-57.70999695
 20
4.4100061
 30
0.0
  0
VERTEX
  8
0
  6
CONTINUOUS
 62
       7
  5
639
 10
-57.70239723
 20
4.06754524
 30
0.0
  0
VERTEX
  8
0
  6
CONTINUOUS
 62
       7
  5
63A
 10
-57.67994764
 20
3.72562856
 30
0.0
  0
VERTEX
  8
0
  6
CONTINUOUS
 62
       7
  5
63B
 10
-57.64317244
 20
3.38465619
 30
0.0
  0
VERTEX
  8
0
  6
CONTINUOUS
 62
       7
  5
63C
 10
-57.59259587
 20
3.04502825
 30
0.0
  0
VERTEX
  8
0
  6
CONTINUOUS
 62
       7
  5
63D
 10
-57.52874218
 20
2.70714489
 30
0.0
  0
VERTEX
  8
0
  6
CONTINUOUS
 62
       7
  5
63E
 10
-57.45213562
 20
2.37140622
 30
0.0
  0
VERTEX
  8
0
  6
CONTINUOUS
 62
       7
  5
63F
 10
-57.36330044
 20
2.03821238
 30
0.0
  0
VERTEX
  8
0
  6
CONTINUOUS
 62
       7
  5
640
 10
-57.26276088
 20
1.70796349
 30
0.0
  0
VERTEX
  8
0
  6
CONTINUOUS
 62
       7
  5
641
 10
-57.15104121
 20
1.38105968
 30
0.0
  0
VERTEX
  8
0
  6
CONTINUOUS
 62
       7
  5
642
 10
-57.02866565
 20
1.05790109
 30
0.0
  0
VERTEX
  8
0
  6
CONTINUOUS
 62
       7
  5
643
 10
-56.89615848
 20
0.73888783
 30
0.0
  0
VERTEX
  8
0
  6
CONTINUOUS
 62
       7
  5
644
 10
-56.75404393
 20
0.42442003
 30
0.0
  0
VERTEX
  8
0
  6
CONTINUOUS
 62
       7
  5
645
 10
-56.60284625
 20
0.11489784
 30
0.0
  0
VERTEX
  8
0
  6
CONTINUOUS
 62
       7
  5
646
 10
-56.44308969
 20
-0.18927864
 30
0.0
  0
VERTEX
  8
0
  6
CONTINUOUS
 62
       7
  5
647
 10
-56.27529851
 20
-0.48770926
 30
0.0
  0
VERTEX
  8
0
  6
CONTINUOUS
 62
       7
  5
648
 10
-56.09999695
 20
-0.7799939
 30
0.0
  0
SEQEND
  8
0
  6
CONTINUOUS
 62
       7
  5
649
  0
POLYLINE
  8
0
  6
CONTINUOUS
 62
       7
  5
1D9
 66
       1
 10
0.0
 20
0.0
 30
0.0
  0
VERTEX
  8
0
  6
CONTINUOUS
 62
       7
  5
64A
 10
-56.09999695
 20
30.3900061
 30
0.0
  0
VERTEX
  8
0
  6
CONTINUOUS
 62
       7
  5
64B
 10
-56.28881972
 20
29.7601301
 30
0.0
  0
VERTEX
  8
0
  6
CONTINUOUS
 62
       7
  5
64C
 10
-56.46664665
 20
29.12643442
 30
0.0
  0
VERTEX
  8
0
  6
CONTINUOUS
 62
       7
  5
64D
 10
-56.63331405
 20
28.48918045
 30
0.0
  0
VERTEX
  8
0
  6
CONTINUOUS
 62
       7
  5
64E
 10
-56.78865825
 20
27.84862957
 30
0.0
  0
VERTEX
  8
0
  6
CONTINUOUS
 62
       7
  5
64F
 10
-56.93251554
 20
27.20504319
 30
0.0
  0
VERTEX
  8
0
  6
CONTINUOUS
 62
       7
  5
650
 10
-57.06472226
 20
26.55868267
 30
0.0
  0
VERTEX
  8
0
  6
CONTINUOUS
 62
       7
  5
651
 10
-57.18511471
 20
25.90980942
 30
0.0
  0
VERTEX
  8
0
  6
CONTINUOUS
 62
       7
  5
652
 10
-57.29352922
 20
25.25868482
 30
0.0
  0
VERTEX
  8
0
  6
CONTINUOUS
 62
       7
  5
653
 10
-57.38980209
 20
24.60557027
 30
0.0
  0
VERTEX
  8
0
  6
CONTINUOUS
 62
       7
  5
654
 10
-57.47376964
 20
23.95072713
 30
0.0
  0
VERTEX
  8
0
  6
CONTINUOUS
 62
       7
  5
655
 10
-57.54526819
 20
23.29441682
 30
0.0
  0
VERTEX
  8
0
  6
CONTINUOUS
 62
       7
  5
656
 10
-57.60413405
 20
22.63690071
 30
0.0
  0
VERTEX
  8
0
  6
CONTINUOUS
 62
       7
  5
657
 10
-57.65020354
 20
21.9784402
 30
0.0
  0
VERTEX
  8
0
  6
CONTINUOUS
 62
       7
  5
658
 10
-57.68331298
 20
21.31929667
 30
0.0
  0
VERTEX
  8
0
  6
CONTINUOUS
 62
       7
  5
659
 10
-57.70329868
 20
20.65973151
 30
0.0
  0
VERTEX
  8
0
  6
CONTINUOUS
 62
       7
  5
65A
 10
-57.70999695
 20
20.0000061
 30
0.0
  0
VERTEX
  8
0
  6
CONTINUOUS
 62
       7
  5
65B
 10
-57.70329867
 20
19.33962341
 30
0.0
  0
VERTEX
  8
0
  6
CONTINUOUS
 62
       7
  5
65C
 10
-57.68331297
 20
18.67933637
 30
0.0
  0
VERTEX
  8
0
  6
CONTINUOUS
 62
       7
  5
65D
 10
-57.65020354
 20
18.01942112
 30
0.0
  0
VERTEX
  8
0
  6
CONTINUOUS
 62
       7
  5
65E
 10
-57.60413404
 20
17.36015383
 30
0.0
  0
VERTEX
  8
0
  6
CONTINUOUS
 62
       7
  5
65F
 10
-57.54526818
 20
16.70181064
 30
0.0
  0
VERTEX
  8
0
  6
CONTINUOUS
 62
       7
  5
660
 10
-57.47376963
 20
16.04466771
 30
0.0
  0
VERTEX
  8
0
  6
CONTINUOUS
 62
       7
  5
661
 10
-57.38980208
 20
15.38900119
 30
0.0
  0
VERTEX
  8
0
  6
CONTINUOUS
 62
       7
  5
662
 10
-57.29352921
 20
14.73508724
 30
0.0
  0
VERTEX
  8
0
  6
CONTINUOUS
 62
       7
  5
663
 10
-57.18511471
 20
14.08320199
 30
0.0
  0
VERTEX
  8
0
  6
CONTINUOUS
 62
       7
  5
664
 10
-57.06472226
 20
13.43362162
 30
0.0
  0
VERTEX
  8
0
  6
CONTINUOUS
 62
       7
  5
665
 10
-56.93251554
 20
12.78662226
 30
0.0
  0
VERTEX
  8
0
  6
CONTINUOUS
 62
       7
  5
666
 10
-56.78865824
 20
12.14248008
 30
0.0
  0
VERTEX
  8
0
  6
CONTINUOUS
 62
       7
  5
667
 10
-56.63331405
 20
11.50147122
 30
0.0
  0
VERTEX
  8
0
  6
CONTINUOUS
 62
       7
  5
668
 10
-56.46664665
 20
10.86387183
 30
0.0
  0
VERTEX
  8
0
  6
CONTINUOUS
 62
       7
  5
669
 10
-56.28881972
 20
10.22995808
 30
0.0
  0
VERTEX
  8
0
  6
CONTINUOUS
 62
       7
  5
66A
 10
-56.09999695
 20
9.6000061
 30
0.0
  0
SEQEND
  8
0
  6
CONTINUOUS
 62
       7
  5
66B
  0
POLYLINE
  8
0
  6
CONTINUOUS
 62
       7
  5
1DA
 66
       1
 10
0.0
 20
0.0
 30
0.0
  0
VERTEX
  8
0
  6
CONTINUOUS
 62
       7
  5
66C
 10
-56.09999695
 20
40.7800061
 30
0.0
  0
VERTEX
  8
0
  6
CONTINUOUS
 62
       7
  5
66D
 10
-56.27529851
 20
40.48764445
 30
0.0
  0
VERTEX
  8
0
  6
CONTINUOUS
 62
       7
  5
66E
 10
-56.4430897
 20
40.18899292
 30
0.0
  0
VERTEX
  8
0
  6
CONTINUOUS
 62
       7
  5
66F
 10
-56.60284625
 20
39.88446681
 30
0.0
  0
VERTEX
  8
0
  6
CONTINUOUS
 62
       7
  5
670
 10
-56.75404393
 20
39.57448143
 30
0.0
  0
VERTEX
  8
0
  6
CONTINUOUS
 62
       7
  5
671
 10
-56.89615848
 20
39.25945209
 30
0.0
  0
VERTEX
  8
0
  6
CONTINUOUS
 62
       7
  5
672
 10
-57.02866566
 20
38.9397941
 30
0.0
  0
VERTEX
  8
0
  6
CONTINUOUS
 62
       7
  5
673
 10
-57.15104121
 20
38.61592276
 30
0.0
  0
VERTEX
  8
0
  6
CONTINUOUS
 62
       7
  5
674
 10
-57.26276089
 20
38.28825339
 30
0.0
  0
VERTEX
  8
0
  6
CONTINUOUS
 62
       7
  5
675
 10
-57.36330044
 20
37.9572013
 30
0.0
  0
VERTEX
  8
0
  6
CONTINUOUS
 62
       7
  5
676
 10
-57.45213562
 20
37.62318178
 30
0.0
  0
VERTEX
  8
0
  6
CONTINUOUS
 62
       7
  5
677
 10
-57.52874218
 20
37.28661015
 30
0.0
  0
VERTEX
  8
0
  6
CONTINUOUS
 62
       7
  5
678
 10
-57.59259587
 20
36.94790171
 30
0.0
  0
VERTEX
  8
0
  6
CONTINUOUS
 62
       7
  5
679
 10
-57.64317244
 20
36.60747179
 30
0.0
  0
VERTEX
  8
0
  6
CONTINUOUS
 62
       7
  5
67A
 10
-57.67994764
 20
36.26573567
 30
0.0
  0
VERTEX
  8
0
  6
CONTINUOUS
 62
       7
  5
67B
 10
-57.70239723
 20
35.92310867
 30
0.0
  0
VERTEX
  8
0
  6
CONTINUOUS
 62
       7
  5
67C
 10
-57.70999695
 20
35.5800061
 30
0.0
  0
VERTEX
  8
0
  6
CONTINUOUS
 62
       7
  5
67D
 10
-57.7023973
 20
35.23754514
 30
0.0
  0
VERTEX
  8
0
  6
CONTINUOUS
 62
       7
  5
67E
 10
-57.67994777
 20
34.8956284
 30
0.0
  0
VERTEX
  8
0
  6
CONTINUOUS
 62
       7
  5
67F
 10
-57.64317261
 20
34.55465601
 30
0.0
  0
VERTEX
  8
0
  6
CONTINUOUS
 62
       7
  5
680
 10
-57.59259608
 20
34.21502809
 30
0.0
  0
VERTEX
  8
0
  6
CONTINUOUS
 62
       7
  5
681
 10
-57.52874242
 20
33.87714476
 30
0.0
  0
VERTEX
  8
0
  6
CONTINUOUS
 62
       7
  5
682
 10
-57.45213587
 20
33.54140614
 30
0.0
  0
VERTEX
  8
0
  6
CONTINUOUS
 62
       7
  5
683
 10
-57.3633007
 20
33.20821236
 30
0.0
  0
VERTEX
  8
0
  6
CONTINUOUS
 62
       7
  5
684
 10
-57.26276115
 20
32.87796353
 30
0.0
  0
VERTEX
  8
0
  6
CONTINUOUS
 62
       7
  5
685
 10
-57.15104147
 20
32.55105979
 30
0.0
  0
VERTEX
  8
0
  6
CONTINUOUS
 62
       7
  5
686
 10
-57.0286659
 20
32.22790125
 30
0.0
  0
VERTEX
  8
0
  6
CONTINUOUS
 62
       7
  5
687
 10
-56.8961587
 20
31.90888803
 30
0.0
  0
VERTEX
  8
0
  6
CONTINUOUS
 62
       7
  5
688
 10
-56.75404412
 20
31.59442026
 30
0.0
  0
VERTEX
  8
0
  6
CONTINUOUS
 62
       7
  5
689
 10
-56.60284641
 20
31.28489806
 30
0.0
  0
VERTEX
  8
0
  6
CONTINUOUS
 62
       7
  5
68A
 10
-56.44308981
 20
30.98072156
 30
0.0
  0
VERTEX
  8
0
  6
CONTINUOUS
 62
       7
  5
68B
 10
-56.27529857
 20
30.68229086
 30
0.0
  0
VERTEX
  8
0
  6
CONTINUOUS
 62
       7
  5
68C
 10
-56.09999695
 20
30.3900061
 30
0.0
  0
SEQEND
  8
0
  6
CONTINUOUS
 62
       7
  5
68D
  0
POLYLINE
  8
0
  6
CONTINUOUS
 62
       7
  5
1DB
 66
       1
 10
0.0
 20
0.0
 30
0.0
  0
VERTEX
  8
0
  6
CONTINUOUS
 62
       7
  5
68E
 10
-81.55999695
 20
28.0800061
 30
0.0
  0
VERTEX
  8
0
  6
CONTINUOUS
 62
       7
  5
68F
 10
-81.62810114
 20
27.96632113
 30
0.0
  0
VERTEX
  8
0
  6
CONTINUOUS
 62
       7
  5
690
 10
-81.69315931
 20
27.85021188
 30
0.0
  0
VERTEX
  8
0
  6
CONTINUOUS
 62
       7
  5
691
 10
-81.75498549
 20
27.73183885
 30
0.0
  0
VERTEX
  8
0
  6
CONTINUOUS
 62
       7
  5
692
 10
-81.81339369
 20
27.61136252
 30
0.0
  0
VERTEX
  8
0
  6
CONTINUOUS
 62
       7
  5
693
 10
-81.86819795
 20
27.48894339
 30
0.0
  0
VERTEX
  8
0
  6
CONTINUOUS
 62
       7
  5
694
 10
-81.9192123
 20
27.36474192
 30
0.0
  0
VERTEX
  8
0
  6
CONTINUOUS
 62
       7
  5
695
 10
-81.96625077
 20
27.23891861
 30
0.0
  0
VERTEX
  8
0
  6
CONTINUOUS
 62
       7
  5
696
 10
-82.00912739
 20
27.11163395
 30
0.0
  0
VERTEX
  8
0
  6
CONTINUOUS
 62
       7
  5
697
 10
-82.04765617
 20
26.98304842
 30
0.0
  0
VERTEX
  8
0
  6
CONTINUOUS
 62
       7
  5
698
 10
-82.08165116
 20
26.8533225
 30
0.0
  0
VERTEX
  8
0
  6
CONTINUOUS
 62
       7
  5
699
 10
-82.11092638
 20
26.72261669
 30
0.0
  0
VERTEX
  8
0
  6
CONTINUOUS
 62
       7
  5
69A
 10
-82.13529586
 20
26.59109146
 30
0.0
  0
VERTEX
  8
0
  6
CONTINUOUS
 62
       7
  5
69B
 10
-82.15457363
 20
26.4589073
 30
0.0
  0
VERTEX
  8
0
  6
CONTINUOUS
 62
       7
  5
69C
 10
-82.16857371
 20
26.32622469
 30
0.0
  0
VERTEX
  8
0
  6
CONTINUOUS
 62
       7
  5
69D
 10
-82.17711014
 20
26.19320414
 30
0.0
  0
VERTEX
  8
0
  6
CONTINUOUS
 62
       7
  5
69E
 10
-82.17999695
 20
26.0600061
 30
0.0
  0
VERTEX
  8
0
  6
CONTINUOUS
 62
       7
  5
69F
 10
-82.17711015
 20
25.92680807
 30
0.0
  0
VERTEX
  8
0
  6
CONTINUOUS
 62
       7
  5
6A0
 10
-82.16857372
 20
25.79378751
 30
0.0
  0
VERTEX
  8
0
  6
CONTINUOUS
 62
       7
  5
6A1
 10
-82.15457363
 20
25.66110491
 30
0.0
  0
VERTEX
  8
0
  6
CONTINUOUS
 62
       7
  5
6A2
 10
-82.13529586
 20
25.52892075
 30
0.0
  0
VERTEX
  8
0
  6
CONTINUOUS
 62
       7
  5
6A3
 10
-82.11092638
 20
25.39739552
 30
0.0
  0
VERTEX
  8
0
  6
CONTINUOUS
 62
       7
  5
6A4
 10
-82.08165116
 20
25.2666897
 30
0.0
  0
VERTEX
  8
0
  6
CONTINUOUS
 62
       7
  5
6A5
 10
-82.04765617
 20
25.13696379
 30
0.0
  0
VERTEX
  8
0
  6
CONTINUOUS
 62
       7
  5
6A6
 10
-82.00912739
 20
25.00837825
 30
0.0
  0
VERTEX
  8
0
  6
CONTINUOUS
 62
       7
  5
6A7
 10
-81.96625077
 20
24.88109359
 30
0.0
  0
VERTEX
  8
0
  6
CONTINUOUS
 62
       7
  5
6A8
 10
-81.91921231
 20
24.75527029
 30
0.0
  0
VERTEX
  8
0
  6
CONTINUOUS
 62
       7
  5
6A9
 10
-81.86819795
 20
24.63106882
 30
0.0
  0
VERTEX
  8
0
  6
CONTINUOUS
 62
       7
  5
6AA
 10
-81.81339369
 20
24.50864968
 30
0.0
  0
VERTEX
  8
0
  6
CONTINUOUS
 62
       7
  5
6AB
 10
-81.75498549
 20
24.38817336
 30
0.0
  0
VERTEX
  8
0
  6
CONTINUOUS
 62
       7
  5
6AC
 10
-81.69315931
 20
24.26980033
 30
0.0
  0
VERTEX
  8
0
  6
CONTINUOUS
 62
       7
  5
6AD
 10
-81.62810114
 20
24.15369108
 30
0.0
  0
VERTEX
  8
0
  6
CONTINUOUS
 62
       7
  5
6AE
 10
-81.55999695
 20
24.0400061
 30
0.0
  0
SEQEND
  8
0
  6
CONTINUOUS
 62
       7
  5
6AF
  0
POLYLINE
  8
0
  6
CONTINUOUS
 62
       7
  5
1DC
 66
       1
 10
0.0
 20
0.0
 30
0.0
  0
VERTEX
  8
0
  6
CONTINUOUS
 62
       7
  5
6B0
 10
-76.80999695
 20
28.0800061
 30
0.0
  0
VERTEX
  8
0
  6
CONTINUOUS
 62
       7
  5
6B1
 10
-76.74178045
 20
27.96632113
 30
0.0
  0
VERTEX
  8
0
  6
CONTINUOUS
 62
       7
  5
6B2
 10
-76.67640489
 20
27.85021188
 30
0.0
  0
VERTEX
  8
0
  6
CONTINUOUS
 62
       7
  5
6B3
 10
-76.61408556
 20
27.73183885
 30
0.0
  0
VERTEX
  8
0
  6
CONTINUOUS
 62
       7
  5
6B4
 10
-76.55503771
 20
27.61136252
 30
0.0
  0
VERTEX
  8
0
  6
CONTINUOUS
 62
       7
  5
6B5
 10
-76.49947661
 20
27.48894339
 30
0.0
  0
VERTEX
  8
0
  6
CONTINUOUS
 62
       7
  5
6B6
 10
-76.44761753
 20
27.36474192
 30
0.0
  0
VERTEX
  8
0
  6
CONTINUOUS
 62
       7
  5
6B7
 10
-76.39967574
 20
27.23891861
 30
0.0
  0
VERTEX
  8
0
  6
CONTINUOUS
 62
       7
  5
6B8
 10
-76.35586651
 20
27.11163395
 30
0.0
  0
VERTEX
  8
0
  6
CONTINUOUS
 62
       7
  5
6B9
 10
-76.31640511
 20
26.98304842
 30
0.0
  0
VERTEX
  8
0
  6
CONTINUOUS
 62
       7
  5
6BA
 10
-76.2815068
 20
26.8533225
 30
0.0
  0
VERTEX
  8
0
  6
CONTINUOUS
 62
       7
  5
6BB
 10
-76.25138685
 20
26.72261669
 30
0.0
  0
VERTEX
  8
0
  6
CONTINUOUS
 62
       7
  5
6BC
 10
-76.22626054
 20
26.59109146
 30
0.0
  0
VERTEX
  8
0
  6
CONTINUOUS
 62
       7
  5
6BD
 10
-76.20634312
 20
26.4589073
 30
0.0
  0
VERTEX
  8
0
  6
CONTINUOUS
 62
       7
  5
6BE
 10
-76.19184987
 20
26.32622469
 30
0.0
  0
VERTEX
  8
0
  6
CONTINUOUS
 62
       7
  5
6BF
 10
-76.18299606
 20
26.19320414
 30
0.0
  0
VERTEX
  8
0
  6
CONTINUOUS
 62
       7
  5
6C0
 10
-76.17999695
 20
26.0600061
 30
0.0
  0
VERTEX
  8
0
  6
CONTINUOUS
 62
       7
  5
6C1
 10
-76.18299606
 20
25.92680807
 30
0.0
  0
VERTEX
  8
0
  6
CONTINUOUS
 62
       7
  5
6C2
 10
-76.19184987
 20
25.79378751
 30
0.0
  0
VERTEX
  8
0
  6
CONTINUOUS
 62
       7
  5
6C3
 10
-76.20634312
 20
25.66110491
 30
0.0
  0
VERTEX
  8
0
  6
CONTINUOUS
 62
       7
  5
6C4
 10
-76.22626053
 20
25.52892075
 30
0.0
  0
VERTEX
  8
0
  6
CONTINUOUS
 62
       7
  5
6C5
 10
-76.25138685
 20
25.39739552
 30
0.0
  0
VERTEX
  8
0
  6
CONTINUOUS
 62
       7
  5
6C6
 10
-76.2815068
 20
25.2666897
 30
0.0
  0
VERTEX
  8
0
  6
CONTINUOUS
 62
       7
  5
6C7
 10
-76.31640511
 20
25.13696379
 30
0.0
  0
VERTEX
  8
0
  6
CONTINUOUS
 62
       7
  5
6C8
 10
-76.35586651
 20
25.00837825
 30
0.0
  0
VERTEX
  8
0
  6
CONTINUOUS
 62
       7
  5
6C9
 10
-76.39967574
 20
24.88109359
 30
0.0
  0
VERTEX
  8
0
  6
CONTINUOUS
 62
       7
  5
6CA
 10
-76.44761753
 20
24.75527029
 30
0.0
  0
VERTEX
  8
0
  6
CONTINUOUS
 62
       7
  5
6CB
 10
-76.49947661
 20
24.63106882
 30
0.0
  0
VERTEX
  8
0
  6
CONTINUOUS
 62
       7
  5
6CC
 10
-76.55503771
 20
24.50864968
 30
0.0
  0
VERTEX
  8
0
  6
CONTINUOUS
 62
       7
  5
6CD
 10
-76.61408556
 20
24.38817336
 30
0.0
  0
VERTEX
  8
0
  6
CONTINUOUS
 62
       7
  5
6CE
 10
-76.67640489
 20
24.26980033
 30
0.0
  0
VERTEX
  8
0
  6
CONTINUOUS
 62
       7
  5
6CF
 10
-76.74178045
 20
24.15369108
 30
0.0
  0
VERTEX
  8
0
  6
CONTINUOUS
 62
       7
  5
6D0
 10
-76.80999695
 20
24.0400061
 30
0.0
  0
SEQEND
  8
0
  6
CONTINUOUS
 62
       7
  5
6D1
  0
POLYLINE
  8
0
  6
CONTINUOUS
 62
       7
  5
1DD
 66
       1
 10
0.0
 20
0.0
 30
0.0
  0
VERTEX
  8
0
  6
CONTINUOUS
 62
       7
  5
6D2
 10
-76.80999695
 20
24.0400061
 30
0.0
  0
VERTEX
  8
0
  6
CONTINUOUS
 62
       7
  5
6D3
 10
-76.73652223
 20
23.79503851
 30
0.0
  0
VERTEX
  8
0
  6
CONTINUOUS
 62
       7
  5
6D4
 10
-76.66724392
 20
23.54855849
 30
0.0
  0
VERTEX
  8
0
  6
CONTINUOUS
 62
       7
  5
6D5
 10
-76.60223705
 20
23.30067492
 30
0.0
  0
VERTEX
  8
0
  6
CONTINUOUS
 62
       7
  5
6D6
 10
-76.54157668
 20
23.05149668
 30
0.0
  0
VERTEX
  8
0
  6
CONTINUOUS
 62
       7
  5
6D7
 10
-76.48533786
 20
22.80113266
 30
0.0
  0
VERTEX
  8
0
  6
CONTINUOUS
 62
       7
  5
6D8
 10
-76.43359563
 20
22.54969173
 30
0.0
  0
VERTEX
  8
0
  6
CONTINUOUS
 62
       7
  5
6D9
 10
-76.38642505
 20
22.29728277
 30
0.0
  0
VERTEX
  8
0
  6
CONTINUOUS
 62
       7
  5
6DA
 10
-76.34390116
 20
22.04401466
 30
0.0
  0
VERTEX
  8
0
  6
CONTINUOUS
 62
       7
  5
6DB
 10
-76.30609901
 20
21.78999629
 30
0.0
  0
VERTEX
  8
0
  6
CONTINUOUS
 62
       7
  5
6DC
 10
-76.27309366
 20
21.53533653
 30
0.0
  0
VERTEX
  8
0
  6
CONTINUOUS
 62
       7
  5
6DD
 10
-76.24496015
 20
21.28014426
 30
0.0
  0
VERTEX
  8
0
  6
CONTINUOUS
 62
       7
  5
6DE
 10
-76.22177353
 20
21.02452837
 30
0.0
  0
VERTEX
  8
0
  6
CONTINUOUS
 62
       7
  5
6DF
 10
-76.20360885
 20
20.76859772
 30
0.0
  0
VERTEX
  8
0
  6
CONTINUOUS
 62
       7
  5
6E0
 10
-76.19054116
 20
20.51246121
 30
0.0
  0
VERTEX
  8
0
  6
CONTINUOUS
 62
       7
  5
6E1
 10
-76.18264551
 20
20.25622771
 30
0.0
  0
VERTEX
  8
0
  6
CONTINUOUS
 62
       7
  5
6E2
 10
-76.17999695
 20
20.0000061
 30
0.0
  0
VERTEX
  8
0
  6
CONTINUOUS
 62
       7
  5
6E3
 10
-76.18264551
 20
19.74312809
 30
0.0
  0
VERTEX
  8
0
  6
CONTINUOUS
 62
       7
  5
6E4
 10
-76.19054116
 20
19.48617336
 30
0.0
  0
VERTEX
  8
0
  6
CONTINUOUS
 62
       7
  5
6E5
 10
-76.20360885
 20
19.22926558
 30
0.0
  0
VERTEX
  8
0
  6
CONTINUOUS
 62
       7
  5
6E6
 10
-76.22177352
 20
18.97252843
 30
0.0
  0
VERTEX
  8
0
  6
CONTINUOUS
 62
       7
  5
6E7
 10
-76.24496014
 20
18.71608557
 30
0.0
  0
VERTEX
  8
0
  6
CONTINUOUS
 62
       7
  5
6E8
 10
-76.27309365
 20
18.46006066
 30
0.0
  0
VERTEX
  8
0
  6
CONTINUOUS
 62
       7
  5
6E9
 10
-76.30609901
 20
18.20457739
 30
0.0
  0
VERTEX
  8
0
  6
CONTINUOUS
 62
       7
  5
6EA
 10
-76.34390115
 20
17.9497594
 30
0.0
  0
VERTEX
  8
0
  6
CONTINUOUS
 62
       7
  5
6EB
 10
-76.38642504
 20
17.69573037
 30
0.0
  0
VERTEX
  8
0
  6
CONTINUOUS
 62
       7
  5
6EC
 10
-76.43359563
 20
17.44261397
 30
0.0
  0
VERTEX
  8
0
  6
CONTINUOUS
 62
       7
  5
6ED
 10
-76.48533786
 20
17.19053387
 30
0.0
  0
VERTEX
  8
0
  6
CONTINUOUS
 62
       7
  5
6EE
 10
-76.54157668
 20
16.93961372
 30
0.0
  0
VERTEX
  8
0
  6
CONTINUOUS
 62
       7
  5
6EF
 10
-76.60223705
 20
16.68997721
 30
0.0
  0
VERTEX
  8
0
  6
CONTINUOUS
 62
       7
  5
6F0
 10
-76.66724392
 20
16.44174799
 30
0.0
  0
VERTEX
  8
0
  6
CONTINUOUS
 62
       7
  5
6F1
 10
-76.73652223
 20
16.19504973
 30
0.0
  0
VERTEX
  8
0
  6
CONTINUOUS
 62
       7
  5
6F2
 10
-76.80999695
 20
15.9500061
 30
0.0
  0
SEQEND
  8
0
  6
CONTINUOUS
 62
       7
  5
6F3
  0
POLYLINE
  8
0
  6
CONTINUOUS
 62
       7
  5
1DE
 66
       1
 10
0.0
 20
0.0
 30
0.0
  0
VERTEX
  8
0
  6
CONTINUOUS
 62
       7
  5
6F4
 10
-81.55999695
 20
24.0400061
 30
0.0
  0
VERTEX
  8
0
  6
CONTINUOUS
 62
       7
  5
6F5
 10
-81.63335936
 20
23.79503848
 30
0.0
  0
VERTEX
  8
0
  6
CONTINUOUS
 62
       7
  5
6F6
 10
-81.70232029
 20
23.54855839
 30
0.0
  0
VERTEX
  8
0
  6
CONTINUOUS
 62
       7
  5
6F7
 10
-81.76683399
 20
23.30067471
 30
0.0
  0
VERTEX
  8
0
  6
CONTINUOUS
 62
       7
  5
6F8
 10
-81.82685472
 20
23.05149634
 30
0.0
  0
VERTEX
  8
0
  6
CONTINUOUS
 62
       7
  5
6F9
 10
-81.8823367
 20
22.80113216
 30
0.0
  0
VERTEX
  8
0
  6
CONTINUOUS
 62
       7
  5
6FA
 10
-81.93323421
 20
22.54969108
 30
0.0
  0
VERTEX
  8
0
  6
CONTINUOUS
 62
       7
  5
6FB
 10
-81.97950147
 20
22.29728197
 30
0.0
  0
VERTEX
  8
0
  6
CONTINUOUS
 62
       7
  5
6FC
 10
-82.02109274
 20
22.04401374
 30
0.0
  0
VERTEX
  8
0
  6
CONTINUOUS
 62
       7
  5
6FD
 10
-82.05796227
 20
21.78999527
 30
0.0
  0
VERTEX
  8
0
  6
CONTINUOUS
 62
       7
  5
6FE
 10
-82.0900643
 20
21.53533545
 30
0.0
  0
VERTEX
  8
0
  6
CONTINUOUS
 62
       7
  5
6FF
 10
-82.11735309
 20
21.28014317
 30
0.0
  0
VERTEX
  8
0
  6
CONTINUOUS
 62
       7
  5
700
 10
-82.13978287
 20
21.02452733
 30
0.0
  0
VERTEX
  8
0
  6
CONTINUOUS
 62
       7
  5
701
 10
-82.1573079
 20
20.76859681
 30
0.0
  0
VERTEX
  8
0
  6
CONTINUOUS
 62
       7
  5
702
 10
-82.16988242
 20
20.5124605
 30
0.0
  0
VERTEX
  8
0
  6
CONTINUOUS
 62
       7
  5
703
 10
-82.17746069
 20
20.25622731
 30
0.0
  0
VERTEX
  8
0
  6
CONTINUOUS
 62
       7
  5
704
 10
-82.17999695
 20
20.0000061
 30
0.0
  0
VERTEX
  8
0
  6
CONTINUOUS
 62
       7
  5
705
 10
-82.17746069
 20
19.74312809
 30
0.0
  0
VERTEX
  8
0
  6
CONTINUOUS
 62
       7
  5
706
 10
-82.16988243
 20
19.48617336
 30
0.0
  0
VERTEX
  8
0
  6
CONTINUOUS
 62
       7
  5
707
 10
-82.1573079
 20
19.22926558
 30
0.0
  0
VERTEX
  8
0
  6
CONTINUOUS
 62
       7
  5
708
 10
-82.13978287
 20
18.97252843
 30
0.0
  0
VERTEX
  8
0
  6
CONTINUOUS
 62
       7
  5
709
 10
-82.11735309
 20
18.71608557
 30
0.0
  0
VERTEX
  8
0
  6
CONTINUOUS
 62
       7
  5
70A
 10
-82.0900643
 20
18.46006066
 30
0.0
  0
VERTEX
  8
0
  6
CONTINUOUS
 62
       7
  5
70B
 10
-82.05796227
 20
18.20457739
 30
0.0
  0
VERTEX
  8
0
  6
CONTINUOUS
 62
       7
  5
70C
 10
-82.02109274
 20
17.9497594
 30
0.0
  0
VERTEX
  8
0
  6
CONTINUOUS
 62
       7
  5
70D
 10
-81.97950147
 20
17.69573037
 30
0.0
  0
VERTEX
  8
0
  6
CONTINUOUS
 62
       7
  5
70E
 10
-81.93323421
 20
17.44261397
 30
0.0
  0
VERTEX
  8
0
  6
CONTINUOUS
 62
       7
  5
70F
 10
-81.88233671
 20
17.19053387
 30
0.0
  0
VERTEX
  8
0
  6
CONTINUOUS
 62
       7
  5
710
 10
-81.82685472
 20
16.93961372
 30
0.0
  0
VERTEX
  8
0
  6
CONTINUOUS
 62
       7
  5
711
 10
-81.76683399
 20
16.68997721
 30
0.0
  0
VERTEX
  8
0
  6
CONTINUOUS
 62
       7
  5
712
 10
-81.70232029
 20
16.44174799
 30
0.0
  0
VERTEX
  8
0
  6
CONTINUOUS
 62
       7
  5
713
 10
-81.63335936
 20
16.19504973
 30
0.0
  0
VERTEX
  8
0
  6
CONTINUOUS
 62
       7
  5
714
 10
-81.55999695
 20
15.9500061
 30
0.0
  0
SEQEND
  8
0
  6
CONTINUOUS
 62
       7
  5
715
  0
POLYLINE
  8
0
  6
CONTINUOUS
 62
       7
  5
1DF
 66
       1
 10
0.0
 20
0.0
 30
0.0
  0
VERTEX
  8
0
  6
CONTINUOUS
 62
       7
  5
716
 10
-81.55999695
 20
15.9500061
 30
0.0
  0
VERTEX
  8
0
  6
CONTINUOUS
 62
       7
  5
717
 10
-81.62810114
 20
15.83632113
 30
0.0
  0
VERTEX
  8
0
  6
CONTINUOUS
 62
       7
  5
718
 10
-81.69315931
 20
15.72021188
 30
0.0
  0
VERTEX
  8
0
  6
CONTINUOUS
 62
       7
  5
719
 10
-81.75498549
 20
15.60183885
 30
0.0
  0
VERTEX
  8
0
  6
CONTINUOUS
 62
       7
  5
71A
 10
-81.81339369
 20
15.48136252
 30
0.0
  0
VERTEX
  8
0
  6
CONTINUOUS
 62
       7
  5
71B
 10
-81.86819795
 20
15.35894339
 30
0.0
  0
VERTEX
  8
0
  6
CONTINUOUS
 62
       7
  5
71C
 10
-81.9192123
 20
15.23474192
 30
0.0
  0
VERTEX
  8
0
  6
CONTINUOUS
 62
       7
  5
71D
 10
-81.96625077
 20
15.10891861
 30
0.0
  0
VERTEX
  8
0
  6
CONTINUOUS
 62
       7
  5
71E
 10
-82.00912739
 20
14.98163395
 30
0.0
  0
VERTEX
  8
0
  6
CONTINUOUS
 62
       7
  5
71F
 10
-82.04765617
 20
14.85304842
 30
0.0
  0
VERTEX
  8
0
  6
CONTINUOUS
 62
       7
  5
720
 10
-82.08165116
 20
14.7233225
 30
0.0
  0
VERTEX
  8
0
  6
CONTINUOUS
 62
       7
  5
721
 10
-82.11092638
 20
14.59261669
 30
0.0
  0
VERTEX
  8
0
  6
CONTINUOUS
 62
       7
  5
722
 10
-82.13529586
 20
14.46109146
 30
0.0
  0
VERTEX
  8
0
  6
CONTINUOUS
 62
       7
  5
723
 10
-82.15457363
 20
14.3289073
 30
0.0
  0
VERTEX
  8
0
  6
CONTINUOUS
 62
       7
  5
724
 10
-82.16857371
 20
14.19622469
 30
0.0
  0
VERTEX
  8
0
  6
CONTINUOUS
 62
       7
  5
725
 10
-82.17711014
 20
14.06320414
 30
0.0
  0
VERTEX
  8
0
  6
CONTINUOUS
 62
       7
  5
726
 10
-82.17999695
 20
13.9300061
 30
0.0
  0
VERTEX
  8
0
  6
CONTINUOUS
 62
       7
  5
727
 10
-82.17711015
 20
13.79680807
 30
0.0
  0
VERTEX
  8
0
  6
CONTINUOUS
 62
       7
  5
728
 10
-82.16857372
 20
13.66378751
 30
0.0
  0
VERTEX
  8
0
  6
CONTINUOUS
 62
       7
  5
729
 10
-82.15457363
 20
13.53110491
 30
0.0
  0
VERTEX
  8
0
  6
CONTINUOUS
 62
       7
  5
72A
 10
-82.13529586
 20
13.39892075
 30
0.0
  0
VERTEX
  8
0
  6
CONTINUOUS
 62
       7
  5
72B
 10
-82.11092638
 20
13.26739552
 30
0.0
  0
VERTEX
  8
0
  6
CONTINUOUS
 62
       7
  5
72C
 10
-82.08165116
 20
13.1366897
 30
0.0
  0
VERTEX
  8
0
  6
CONTINUOUS
 62
       7
  5
72D
 10
-82.04765617
 20
13.00696379
 30
0.0
  0
VERTEX
  8
0
  6
CONTINUOUS
 62
       7
  5
72E
 10
-82.00912739
 20
12.87837825
 30
0.0
  0
VERTEX
  8
0
  6
CONTINUOUS
 62
       7
  5
72F
 10
-81.96625077
 20
12.75109359
 30
0.0
  0
VERTEX
  8
0
  6
CONTINUOUS
 62
       7
  5
730
 10
-81.91921231
 20
12.62527029
 30
0.0
  0
VERTEX
  8
0
  6
CONTINUOUS
 62
       7
  5
731
 10
-81.86819795
 20
12.50106882
 30
0.0
  0
VERTEX
  8
0
  6
CONTINUOUS
 62
       7
  5
732
 10
-81.81339369
 20
12.37864968
 30
0.0
  0
VERTEX
  8
0
  6
CONTINUOUS
 62
       7
  5
733
 10
-81.75498549
 20
12.25817336
 30
0.0
  0
VERTEX
  8
0
  6
CONTINUOUS
 62
       7
  5
734
 10
-81.69315931
 20
12.13980033
 30
0.0
  0
VERTEX
  8
0
  6
CONTINUOUS
 62
       7
  5
735
 10
-81.62810114
 20
12.02369108
 30
0.0
  0
VERTEX
  8
0
  6
CONTINUOUS
 62
       7
  5
736
 10
-81.55999695
 20
11.9100061
 30
0.0
  0
SEQEND
  8
0
  6
CONTINUOUS
 62
       7
  5
737
  0
POLYLINE
  8
0
  6
CONTINUOUS
 62
       7
  5
1E0
 66
       1
 10
0.0
 20
0.0
 30
0.0
  0
VERTEX
  8
0
  6
CONTINUOUS
 62
       7
  5
738
 10
-76.80999695
 20
15.9500061
 30
0.0
  0
VERTEX
  8
0
  6
CONTINUOUS
 62
       7
  5
739
 10
-76.74178045
 20
15.83632113
 30
0.0
  0
VERTEX
  8
0
  6
CONTINUOUS
 62
       7
  5
73A
 10
-76.67640489
 20
15.72021188
 30
0.0
  0
VERTEX
  8
0
  6
CONTINUOUS
 62
       7
  5
73B
 10
-76.61408556
 20
15.60183885
 30
0.0
  0
VERTEX
  8
0
  6
CONTINUOUS
 62
       7
  5
73C
 10
-76.55503771
 20
15.48136252
 30
0.0
  0
VERTEX
  8
0
  6
CONTINUOUS
 62
       7
  5
73D
 10
-76.49947661
 20
15.35894339
 30
0.0
  0
VERTEX
  8
0
  6
CONTINUOUS
 62
       7
  5
73E
 10
-76.44761753
 20
15.23474192
 30
0.0
  0
VERTEX
  8
0
  6
CONTINUOUS
 62
       7
  5
73F
 10
-76.39967574
 20
15.10891861
 30
0.0
  0
VERTEX
  8
0
  6
CONTINUOUS
 62
       7
  5
740
 10
-76.35586651
 20
14.98163395
 30
0.0
  0
VERTEX
  8
0
  6
CONTINUOUS
 62
       7
  5
741
 10
-76.31640511
 20
14.85304842
 30
0.0
  0
VERTEX
  8
0
  6
CONTINUOUS
 62
       7
  5
742
 10
-76.2815068
 20
14.7233225
 30
0.0
  0
VERTEX
  8
0
  6
CONTINUOUS
 62
       7
  5
743
 10
-76.25138685
 20
14.59261669
 30
0.0
  0
VERTEX
  8
0
  6
CONTINUOUS
 62
       7
  5
744
 10
-76.22626054
 20
14.46109146
 30
0.0
  0
VERTEX
  8
0
  6
CONTINUOUS
 62
       7
  5
745
 10
-76.20634312
 20
14.3289073
 30
0.0
  0
VERTEX
  8
0
  6
CONTINUOUS
 62
       7
  5
746
 10
-76.19184987
 20
14.19622469
 30
0.0
  0
VERTEX
  8
0
  6
CONTINUOUS
 62
       7
  5
747
 10
-76.18299606
 20
14.06320414
 30
0.0
  0
VERTEX
  8
0
  6
CONTINUOUS
 62
       7
  5
748
 10
-76.17999695
 20
13.9300061
 30
0.0
  0
VERTEX
  8
0
  6
CONTINUOUS
 62
       7
  5
749
 10
-76.18299606
 20
13.79680807
 30
0.0
  0
VERTEX
  8
0
  6
CONTINUOUS
 62
       7
  5
74A
 10
-76.19184987
 20
13.66378751
 30
0.0
  0
VERTEX
  8
0
  6
CONTINUOUS
 62
       7
  5
74B
 10
-76.20634312
 20
13.53110491
 30
0.0
  0
VERTEX
  8
0
  6
CONTINUOUS
 62
       7
  5
74C
 10
-76.22626053
 20
13.39892075
 30
0.0
  0
VERTEX
  8
0
  6
CONTINUOUS
 62
       7
  5
74D
 10
-76.25138685
 20
13.26739552
 30
0.0
  0
VERTEX
  8
0
  6
CONTINUOUS
 62
       7
  5
74E
 10
-76.2815068
 20
13.1366897
 30
0.0
  0
VERTEX
  8
0
  6
CONTINUOUS
 62
       7
  5
74F
 10
-76.31640511
 20
13.00696379
 30
0.0
  0
VERTEX
  8
0
  6
CONTINUOUS
 62
       7
  5
750
 10
-76.35586651
 20
12.87837825
 30
0.0
  0
VERTEX
  8
0
  6
CONTINUOUS
 62
       7
  5
751
 10
-76.39967574
 20
12.75109359
 30
0.0
  0
VERTEX
  8
0
  6
CONTINUOUS
 62
       7
  5
752
 10
-76.44761753
 20
12.62527029
 30
0.0
  0
VERTEX
  8
0
  6
CONTINUOUS
 62
       7
  5
753
 10
-76.49947661
 20
12.50106882
 30
0.0
  0
VERTEX
  8
0
  6
CONTINUOUS
 62
       7
  5
754
 10
-76.55503771
 20
12.37864968
 30
0.0
  0
VERTEX
  8
0
  6
CONTINUOUS
 62
       7
  5
755
 10
-76.61408556
 20
12.25817336
 30
0.0
  0
VERTEX
  8
0
  6
CONTINUOUS
 62
       7
  5
756
 10
-76.67640489
 20
12.13980033
 30
0.0
  0
VERTEX
  8
0
  6
CONTINUOUS
 62
       7
  5
757
 10
-76.74178045
 20
12.02369108
 30
0.0
  0
VERTEX
  8
0
  6
CONTINUOUS
 62
       7
  5
758
 10
-76.80999695
 20
11.9100061
 30
0.0
  0
SEQEND
  8
0
  6
CONTINUOUS
 62
       7
  5
759
  0
POLYLINE
  8
0
  6
CONTINUOUS
 62
       7
  5
1E1
 66
       1
 10
0.0
 20
0.0
 30
0.0
  0
VERTEX
  8
0
  6
CONTINUOUS
 62
       7
  5
75A
 10
-60.68999695
 20
23.3100061
 30
0.0
  0
VERTEX
  8
0
  6
CONTINUOUS
 62
       7
  5
75B
 10
-60.58050179
 20
23.12263143
 30
0.0
  0
VERTEX
  8
0
  6
CONTINUOUS
 62
       7
  5
75C
 10
-60.47582927
 20
22.93148457
 30
0.0
  0
VERTEX
  8
0
  6
CONTINUOUS
 62
       7
  5
75D
 10
-60.37628869
 20
22.73681669
 30
0.0
  0
VERTEX
  8
0
  6
CONTINUOUS
 62
       7
  5
75E
 10
-60.28218934
 20
22.53887897
 30
0.0
  0
VERTEX
  8
0
  6
CONTINUOUS
 62
       7
  5
75F
 10
-60.19384052
 20
22.33792257
 30
0.0
  0
VERTEX
  8
0
  6
CONTINUOUS
 62
       7
  5
760
 10
-60.11155153
 20
22.13419869
 30
0.0
  0
VERTEX
  8
0
  6
CONTINUOUS
 62
       7
  5
761
 10
-60.03563165
 20
21.92795849
 30
0.0
  0
VERTEX
  8
0
  6
CONTINUOUS
 62
       7
  5
762
 10
-59.96639019
 20
21.71945314
 30
0.0
  0
VERTEX
  8
0
  6
CONTINUOUS
 62
       7
  5
763
 10
-59.90413644
 20
21.50893382
 30
0.0
  0
VERTEX
  8
0
  6
CONTINUOUS
 62
       7
  5
764
 10
-59.8491797
 20
21.29665171
 30
0.0
  0
VERTEX
  8
0
  6
CONTINUOUS
 62
       7
  5
765
 10
-59.80182926
 20
21.08285798
 30
0.0
  0
VERTEX
  8
0
  6
CONTINUOUS
 62
       7
  5
766
 10
-59.76239441
 20
20.8678038
 30
0.0
  0
VERTEX
  8
0
  6
CONTINUOUS
 62
       7
  5
767
 10
-59.73118447
 20
20.65174034
 30
0.0
  0
VERTEX
  8
0
  6
CONTINUOUS
 62
       7
  5
768
 10
-59.70850871
 20
20.43491879
 30
0.0
  0
VERTEX
  8
0
  6
CONTINUOUS
 62
       7
  5
769
 10
-59.69467644
 20
20.21759032
 30
0.0
  0
VERTEX
  8
0
  6
CONTINUOUS
 62
       7
  5
76A
 10
-59.68999695
 20
20.0000061
 30
0.0
  0
VERTEX
  8
0
  6
CONTINUOUS
 62
       7
  5
76B
 10
-59.69467644
 20
19.78177998
 30
0.0
  0
VERTEX
  8
0
  6
CONTINUOUS
 62
       7
  5
76C
 10
-59.70850871
 20
19.56374104
 30
0.0
  0
VERTEX
  8
0
  6
CONTINUOUS
 62
       7
  5
76D
 10
-59.73118447
 20
19.34615564
 30
0.0
  0
VERTEX
  8
0
  6
CONTINUOUS
 62
       7
  5
76E
 10
-59.76239441
 20
19.12929013
 30
0.0
  0
VERTEX
  8
0
  6
CONTINUOUS
 62
       7
  5
76F
 10
-59.80182925
 20
18.91341085
 30
0.0
  0
VERTEX
  8
0
  6
CONTINUOUS
 62
       7
  5
770
 10
-59.84917969
 20
18.69878416
 30
0.0
  0
VERTEX
  8
0
  6
CONTINUOUS
 62
       7
  5
771
 10
-59.90413644
 20
18.4856764
 30
0.0
  0
VERTEX
  8
0
  6
CONTINUOUS
 62
       7
  5
772
 10
-59.96639019
 20
18.27435392
 30
0.0
  0
VERTEX
  8
0
  6
CONTINUOUS
 62
       7
  5
773
 10
-60.03563165
 20
18.06508308
 30
0.0
  0
VERTEX
  8
0
  6
CONTINUOUS
 62
       7
  5
774
 10
-60.11155152
 20
17.85813021
 30
0.0
  0
VERTEX
  8
0
  6
CONTINUOUS
 62
       7
  5
775
 10
-60.19384052
 20
17.65376167
 30
0.0
  0
VERTEX
  8
0
  6
CONTINUOUS
 62
       7
  5
776
 10
-60.28218934
 20
17.45224381
 30
0.0
  0
VERTEX
  8
0
  6
CONTINUOUS
 62
       7
  5
777
 10
-60.37628869
 20
17.25384298
 30
0.0
  0
VERTEX
  8
0
  6
CONTINUOUS
 62
       7
  5
778
 10
-60.47582927
 20
17.05882551
 30
0.0
  0
VERTEX
  8
0
  6
CONTINUOUS
 62
       7
  5
779
 10
-60.58050179
 20
16.86745777
 30
0.0
  0
VERTEX
  8
0
  6
CONTINUOUS
 62
       7
  5
77A
 10
-60.68999695
 20
16.6800061
 30
0.0
  0
SEQEND
  8
0
  6
CONTINUOUS
 62
       7
  5
77B
  0
POLYLINE
  8
0
  6
CONTINUOUS
 62
       7
  5
1E2
 66
       1
 10
0.0
 20
0.0
 30
0.0
  0
VERTEX
  8
0
  6
CONTINUOUS
 62
       7
  5
77C
 10
-64.68999695
 20
23.3100061
 30
0.0
  0
VERTEX
  8
0
  6
CONTINUOUS
 62
       7
  5
77D
 10
-64.79949158
 20
23.12263125
 30
0.0
  0
VERTEX
  8
0
  6
CONTINUOUS
 62
       7
  5
77E
 10
-64.90416372
 20
22.93148425
 30
0.0
  0
VERTEX
  8
0
  6
CONTINUOUS
 62
       7
  5
77F
 10
-65.00370408
 20
22.73681628
 30
0.0
  0
VERTEX
  8
0
  6
CONTINUOUS
 62
       7
  5
780
 10
-65.09780332
 20
22.5388785
 30
0.0
  0
VERTEX
  8
0
  6
CONTINUOUS
 62
       7
  5
781
 10
-65.18615213
 20
22.33792208
 30
0.0
  0
VERTEX
  8
0
  6
CONTINUOUS
 62
       7
  5
782
 10
-65.26844121
 20
22.1341982
 30
0.0
  0
VERTEX
  8
0
  6
CONTINUOUS
 62
       7
  5
783
 10
-65.34436123
 20
21.92795803
 30
0.0
  0
VERTEX
  8
0
  6
CONTINUOUS
 62
       7
  5
784
 10
-65.41360288
 20
21.71945272
 30
0.0
  0
VERTEX
  8
0
  6
CONTINUOUS
 62
       7
  5
785
 10
-65.47585684
 20
21.50893346
 30
0.0
  0
VERTEX
  8
0
  6
CONTINUOUS
 62
       7
  5
786
 10
-65.5308138
 20
21.29665142
 30
0.0
  0
VERTEX
  8
0
  6
CONTINUOUS
 62
       7
  5
787
 10
-65.57816445
 20
21.08285775
 30
0.0
  0
VERTEX
  8
0
  6
CONTINUOUS
 62
       7
  5
788
 10
-65.61759947
 20
20.86780364
 30
0.0
  0
VERTEX
  8
0
  6
CONTINUOUS
 62
       7
  5
789
 10
-65.64880955
 20
20.65174025
 30
0.0
  0
VERTEX
  8
0
  6
CONTINUOUS
 62
       7
  5
78A
 10
-65.67148536
 20
20.43491875
 30
0.0
  0
VERTEX
  8
0
  6
CONTINUOUS
 62
       7
  5
78B
 10
-65.6853176
 20
20.21759031
 30
0.0
  0
VERTEX
  8
0
  6
CONTINUOUS
 62
       7
  5
78C
 10
-65.68999695
 20
20.0000061
 30
0.0
  0
VERTEX
  8
0
  6
CONTINUOUS
 62
       7
  5
78D
 10
-65.68531728
 20
19.78177998
 30
0.0
  0
VERTEX
  8
0
  6
CONTINUOUS
 62
       7
  5
78E
 10
-65.67148486
 20
19.56374105
 30
0.0
  0
VERTEX
  8
0
  6
CONTINUOUS
 62
       7
  5
78F
 10
-65.64880899
 20
19.34615566
 30
0.0
  0
VERTEX
  8
0
  6
CONTINUOUS
 62
       7
  5
790
 10
-65.61759895
 20
19.12929016
 30
0.0
  0
VERTEX
  8
0
  6
CONTINUOUS
 62
       7
  5
791
 10
-65.57816406
 20
18.91341091
 30
0.0
  0
VERTEX
  8
0
  6
CONTINUOUS
 62
       7
  5
792
 10
-65.53081359
 20
18.69878423
 30
0.0
  0
VERTEX
  8
0
  6
CONTINUOUS
 62
       7
  5
793
 10
-65.47585684
 20
18.48567649
 30
0.0
  0
VERTEX
  8
0
  6
CONTINUOUS
 62
       7
  5
794
 10
-65.4136031
 20
18.27435403
 30
0.0
  0
VERTEX
  8
0
  6
CONTINUOUS
 62
       7
  5
795
 10
-65.34436167
 20
18.06508319
 30
0.0
  0
VERTEX
  8
0
  6
CONTINUOUS
 62
       7
  5
796
 10
-65.26844185
 20
17.85813033
 30
0.0
  0
VERTEX
  8
0
  6
CONTINUOUS
 62
       7
  5
797
 10
-65.18615292
 20
17.6537618
 30
0.0
  0
VERTEX
  8
0
  6
CONTINUOUS
 62
       7
  5
798
 10
-65.09780417
 20
17.45224393
 30
0.0
  0
VERTEX
  8
0
  6
CONTINUOUS
 62
       7
  5
799
 10
-65.00370491
 20
17.25384308
 30
0.0
  0
VERTEX
  8
0
  6
CONTINUOUS
 62
       7
  5
79A
 10
-64.90416442
 20
17.05882559
 30
0.0
  0
VERTEX
  8
0
  6
CONTINUOUS
 62
       7
  5
79B
 10
-64.799492
 20
16.86745782
 30
0.0
  0
VERTEX
  8
0
  6
CONTINUOUS
 62
       7
  5
79C
 10
-64.68999695
 20
16.6800061
 30
0.0
  0
SEQEND
  8
0
  6
CONTINUOUS
 62
       7
  5
79D
  0
LINE
  8
0
  6
CONTINUOUS
 62
       7
  5
1E3
 10
174.31468303
 20
18.0000061
 30
0.0
 11
167.31000305
 21
18.0000061
 31
0.0
  0
LINE
  8
0
  6
CONTINUOUS
 62
       7
  5
1E4
 10
173.77968303
 20
16.0000061
 30
0.0
 11
167.31000305
 21
16.0000061
 31
0.0
  0
LINE
  8
0
  6
CENTER
 62
       2
  5
1E5
 10
177.99000305
 20
24.0000061
 30
0.0
 11
175.85000305
 21
16.0000061
 31
0.0
  0
LINE
  8
0
  6
CENTER
 62
       2
  5
1E6
 10
175.91968303
 20
24.0000061
 30
0.0
 11
173.77968303
 21
16.0000061
 31
0.0
  0
ARC
  8
0
  6
CONTINUOUS
 62
       2
  5
1E7
 10
84.30590264
 20
19.99938287
 30
0.0
 40
5.27879052
 50
55.31329256
 51
140.03566648
  0
ARC
  8
0
  6
CONTINUOUS
 62
       2
  5
1E8
 10
84.31394563
 20
20.00159537
 30
0.0
 40
4.04802043
 50
105.09142405
 51
124.6911762
  0
ARC
  8
0
  6
CONTINUOUS
 62
       2
  5
1E9
 10
84.30500305
 20
20.00000054
 30
0.0
 40
2.6404078
 50
74.96377931
 51
105.03622069
  0
CIRCLE
  8
0
  6
CONTINUOUS
 62
       2
  5
1EA
 10
84.31051636
 20
20.0000061
 30
0.0
 40
4.39999962
  0
ARC
  8
0
  6
CONTINUOUS
 62
       2
  5
1EB
 10
84.31128614
 20
19.99742549
 30
0.0
 40
4.03871774
 50
0.03661024
 51
33.21911474
  0
ARC
  8
0
  6
CONTINUOUS
 62
       2
  5
1EC
 10
84.31454547
 20
19.98564627
 30
0.0
 40
5.27547713
 50
0.15595912
 51
31.34638821
  0
ARC
  8
0
  6
CONTINUOUS
 62
       2
  5
1ED
 10
84.32459127
 20
20.02976719
 30
0.0
 40
5.28182912
 50
150.00846268
 51
159.72562734
  0
ARC
  8
0
  6
CONTINUOUS
 62
       2
  5
1EE
 10
84.31232981
 20
19.99807834
 30
0.0
 40
5.27524957
 50
40.72788381
 51
45.80070701
  0
ARC
  8
0
  6
CONTINUOUS
 62
       2
  5
1EF
 10
84.31090048
 20
20.00211566
 30
0.0
 40
4.05089798
 50
159.36046953
 51
180.02983753
  0
ARC
  8
0
  6
CONTINUOUS
 62
       2
  5
1F0
 10
84.31355603
 20
20.00390934
 30
0.0
 40
4.04759987
 50
137.27731039
 51
146.97272231
  0
ARC
  8
0
  6
CONTINUOUS
 62
       2
  5
1F1
 10
84.31323098
 20
20.01003485
 30
0.0
 40
2.63679114
 50
329.70768135
 51
359.78208124
  0
ARC
  8
0
  6
CONTINUOUS
 62
       2
  5
1F2
 10
84.312075
 20
19.99415397
 30
0.0
 40
2.64207843
 50
179.87309122
 51
209.82758538
  0
ARC
  8
0
  6
CONTINUOUS
 62
       2
  5
1F3
 10
84.30983669
 20
19.99868116
 30
0.0
 40
5.28016653
 50
305.68625948
 51
0.01437713
  0
ARC
  8
0
  6
CONTINUOUS
 62
       2
  5
1F4
 10
84.31299888
 20
19.99370879
 30
0.0
 40
5.28362867
 50
168.79961173
 51
234.16928709
  0
ARC
  8
0
  6
CONTINUOUS
 62
       2
  5
1F5
 10
84.28313566
 20
20.00989106
 30
0.0
 40
4.04340245
 50
65.18667139
 51
74.70113914
  0
ARC
  8
0
  6
CONTINUOUS
 62
       2
  5
1F6
 10
84.32123295
 20
19.99086481
 30
0.0
 40
4.03660869
 50
45.90706654
 51
53.36386032
  0
CIRCLE
  8
0
  6
CONTINUOUS
 62
       2
  5
1F7
 10
84.31051636
 20
20.0000061
 30
0.0
 40
3.5199995
  0
LINE
  8
0
  6
CONTINUOUS
 62
       2
  5
1F8
 10
81.65000305
 20
17.3000061
 30
0.0
 11
81.77000305
 21
17.7600061
 31
0.0
  0
LINE
  8
0
  6
CONTINUOUS
 62
       2
  5
1F9
 10
82.00000305
 20
18.6100061
 30
0.0
 11
82.02000305
 21
18.6800061
 31
0.0
  0
LINE
  8
0
  6
CONTINUOUS
 62
       2
  5
1FA
 10
87.30000305
 20
16.0600061
 30
0.0
 11
87.39000305
 21
15.7100061
 31
0.0
  0
LINE
  8
0
  6
CONTINUOUS
 62
       2
  5
1FB
 10
86.91000305
 20
17.5000061
 30
0.0
 11
87.07000305
 21
16.9100061
 31
0.0
  0
LINE
  8
0
  6
CONTINUOUS
 62
       2
  5
1FC
 10
86.59000305
 20
18.6800061
 30
0.0
 11
86.68000305
 21
18.3500061
 31
0.0
  0
LINE
  8
0
  6
CONTINUOUS
 62
       2
  5
1FD
 10
81.22000305
 20
15.7100061
 30
0.0
 11
81.42000305
 21
16.4500061
 31
0.0
  0
LINE
  8
0
  6
CONTINUOUS
 62
       2
  5
1FE
 10
83.26000305
 20
23.9100061
 30
0.0
 11
83.62000305
 21
22.5500061
 31
0.0
  0
LINE
  8
0
  6
CONTINUOUS
 62
       2
  5
1FF
 10
84.99000305
 20
22.5500061
 30
0.0
 11
85.35000305
 21
23.9100061
 31
0.0
  0
LINE
  8
0
  6
CONTINUOUS
 62
       2
  5
200
 10
79.91000305
 20
17.4600061
 30
0.0
 11
84.31000305
 21
14.9100061
 31
0.0
  0
LINE
  8
0
  6
CONTINUOUS
 62
       2
  5
201
 10
84.31000305
 20
25.0800061
 30
0.0
 11
88.71000305
 21
22.5400061
 31
0.0
  0
LINE
  8
0
  6
CONTINUOUS
 62
       2
  5
202
 10
84.31000305
 20
14.9100061
 30
0.0
 11
88.71000305
 21
17.4600061
 31
0.0
  0
LINE
  8
0
  6
CONTINUOUS
 62
       2
  5
203
 10
79.91000305
 20
22.5400061
 30
0.0
 11
84.31000305
 21
25.0800061
 31
0.0
  0
LINE
  8
0
  6
CONTINUOUS
 62
       2
  5
204
 10
79.91000305
 20
22.5400061
 30
0.0
 11
79.91000305
 21
17.4600061
 31
0.0
  0
LINE
  8
0
  6
CONTINUOUS
 62
       2
  5
205
 10
88.71000305
 20
22.5400061
 30
0.0
 11
88.71000305
 21
17.4600061
 31
0.0
  0
LINE
  8
0
  6
CENTER
 62
       2
  5
206
 10
95.25000305
 20
21.1300061
 30
0.0
 11
90.77000305
 21
25.9700061
 31
0.0
  0
ARC
  8
0
  6
CONTINUOUS
 62
       2
  5
207
 10
84.31142657
 20
19.98260381
 30
0.0
 40
10.99859025
 50
0.0906551
 51
5.98814404
  0
LINE
  8
0
  6
CONTINUOUS
 62
       2
  5
208
 10
57.61000305
 20
4.09953441
 30
0.0
 11
77.65566616
 21
25.75263276
 31
0.0
  0
LINE
  8
0
  6
CENTER
 62
       2
  5
209
 10
57.61000305
 20
-29.9999939
 30
0.0
 11
112.61000305
 21
-29.9999939
 31
0.0
  0
LINE
  8
0
  6
CENTER
 62
       2
  5
20A
 10
67.30000305
 20
-25.4999939
 30
0.0
 11
67.30000305
 21
-29.9999939
 31
0.0
  0
LINE
  8
0
  6
CENTER
 62
       2
  5
20B
 10
61.31000305
 20
-25.4999939
 30
0.0
 11
61.31000305
 21
-29.9999939
 31
0.0
  0
LINE
  8
0
  6
CENTER
 62
       2
  5
20C
 10
84.31000305
 20
-10.3599939
 30
0.0
 11
108.21000305
 21
-10.3599939
 31
0.0
  0
LINE
  8
0
  6
CENTER
 62
       2
  5
20D
 10
112.61000305
 20
-14.7599939
 30
0.0
 11
108.17333639
 21
-10.3599939
 31
0.0
  0
LINE
  8
0
  6
CENTER
 62
       2
  5
20E
 10
107.30000305
 20
-25.4999939
 30
0.0
 11
107.30000305
 21
-29.9999939
 31
0.0
  0
LINE
  8
0
  6
CENTER
 62
       2
  5
20F
 10
101.31000305
 20
-25.4999939
 30
0.0
 11
101.31000305
 21
-29.9999939
 31
0.0
  0
LINE
  8
0
  6
CENTER
 62
       2
  5
210
 10
112.61000305
 20
-14.7599939
 30
0.0
 11
112.61000305
 21
-29.9999939
 31
0.0
  0
LINE
  8
0
  6
CONTINUOUS
 62
       7
  5
211
 10
-25.68999695
 20
3.2000061
 30
0.0
 11
60.31000305
 21
3.2000061
 31
0.0
  0
LINE
  8
0
  6
CONTINUOUS
 62
       2
  5
212
 10
-119.05999695
 20
25.1700061
 30
0.0
 11
-119.65999695
 21
25.1700061
 31
0.0
  0
LINE
  8
0
  6
CONTINUOUS
 62
       2
  5
213
 10
-118.90999695
 20
14.8200061
 30
0.0
 11
-119.65999695
 21
14.8200061
 31
0.0
  0
LINE
  8
0
  6
CONTINUOUS
 62
       2
  5
214
 10
-119.20999695
 20
17.0700061
 30
0.0
 11
-119.65999695
 21
17.0700061
 31
0.0
  0
LINE
  8
0
  6
CONTINUOUS
 62
       2
  5
215
 10
-118.75999695
 20
22.9200061
 30
0.0
 11
-119.80999695
 21
22.9200061
 31
0.0
  0
POLYLINE
  8
0
  6
CONTINUOUS
 62
       2
  5
216
 66
       1
 10
0.0
 20
0.0
 30
0.0
  0
VERTEX
  8
0
  6
CONTINUOUS
 62
       2
  5
79E
 10
-117.71154052
 20
22.07855821
 30
0.0
  0
VERTEX
  8
0
  6
CONTINUOUS
 62
       2
  5
79F
 10
-117.70227177
 20
22.04887634
 30
0.0
  0
VERTEX
  8
0
  6
CONTINUOUS
 62
       2
  5
7A0
 10
-117.69312204
 20
22.01915446
 30
0.0
  0
VERTEX
  8
0
  6
CONTINUOUS
 62
       2
  5
7A1
 10
-117.68409187
 20
21.98939319
 30
0.0
  0
VERTEX
  8
0
  6
CONTINUOUS
 62
       2
  5
7A2
 10
-117.67518182
 20
21.95959312
 30
0.0
  0
VERTEX
  8
0
  6
CONTINUOUS
 62
       2
  5
7A3
 10
-117.66639244
 20
21.92975488
 30
0.0
  0
VERTEX
  8
0
  6
CONTINUOUS
 62
       2
  5
7A4
 10
-117.65772427
 20
21.89987908
 30
0.0
  0
VERTEX
  8
0
  6
CONTINUOUS
 62
       2
  5
7A5
 10
-117.64917788
 20
21.86996633
 30
0.0
  0
VERTEX
  8
0
  6
CONTINUOUS
 62
       2
  5
7A6
 10
-117.64075381
 20
21.84001723
 30
0.0
  0
VERTEX
  8
0
  6
CONTINUOUS
 62
       2
  5
7A7
 10
-117.6324526
 20
21.81003241
 30
0.0
  0
VERTEX
  8
0
  6
CONTINUOUS
 62
       2
  5
7A8
 10
-117.62427482
 20
21.78001247
 30
0.0
  0
VERTEX
  8
0
  6
CONTINUOUS
 62
       2
  5
7A9
 10
-117.61622102
 20
21.74995803
 30
0.0
  0
VERTEX
  8
0
  6
CONTINUOUS
 62
       2
  5
7AA
 10
-117.60829174
 20
21.7198697
 30
0.0
  0
VERTEX
  8
0
  6
CONTINUOUS
 62
       2
  5
7AB
 10
-117.60048753
 20
21.68974809
 30
0.0
  0
VERTEX
  8
0
  6
CONTINUOUS
 62
       2
  5
7AC
 10
-117.59280896
 20
21.65959381
 30
0.0
  0
VERTEX
  8
0
  6
CONTINUOUS
 62
       2
  5
7AD
 10
-117.58525656
 20
21.62940747
 30
0.0
  0
VERTEX
  8
0
  6
CONTINUOUS
 62
       2
  5
7AE
 10
-117.57783089
 20
21.5991897
 30
0.0
  0
SEQEND
  8
0
  6
CONTINUOUS
 62
       2
  5
7AF
  0
POLYLINE
  8
0
  6
CONTINUOUS
 62
       2
  5
217
 66
       1
 10
0.0
 20
0.0
 30
0.0
  0
VERTEX
  8
0
  6
CONTINUOUS
 62
       2
  5
7B0
 10
-117.54866955
 20
18.51787266
 30
0.0
  0
VERTEX
  8
0
  6
CONTINUOUS
 62
       2
  5
7B1
 10
-117.52879821
 20
18.60916321
 30
0.0
  0
VERTEX
  8
0
  6
CONTINUOUS
 62
       2
  5
7B2
 10
-117.51010186
 20
18.70070962
 30
0.0
  0
VERTEX
  8
0
  6
CONTINUOUS
 62
       2
  5
7B3
 10
-117.49259525
 20
18.79249543
 30
0.0
  0
VERTEX
  8
0
  6
CONTINUOUS
 62
       2
  5
7B4
 10
-117.47629317
 20
18.88450418
 30
0.0
  0
VERTEX
  8
0
  6
CONTINUOUS
 62
       2
  5
7B5
 10
-117.46121038
 20
18.97671939
 30
0.0
  0
VERTEX
  8
0
  6
CONTINUOUS
 62
       2
  5
7B6
 10
-117.44736164
 20
19.06912463
 30
0.0
  0
VERTEX
  8
0
  6
CONTINUOUS
 62
       2
  5
7B7
 10
-117.43476174
 20
19.16170341
 30
0.0
  0
VERTEX
  8
0
  6
CONTINUOUS
 62
       2
  5
7B8
 10
-117.42342544
 20
19.25443928
 30
0.0
  0
VERTEX
  8
0
  6
CONTINUOUS
 62
       2
  5
7B9
 10
-117.41336751
 20
19.34731578
 30
0.0
  0
VERTEX
  8
0
  6
CONTINUOUS
 62
       2
  5
7BA
 10
-117.40460271
 20
19.44031644
 30
0.0
  0
VERTEX
  8
0
  6
CONTINUOUS
 62
       2
  5
7BB
 10
-117.39714582
 20
19.53342482
 30
0.0
  0
VERTEX
  8
0
  6
CONTINUOUS
 62
       2
  5
7BC
 10
-117.39101161
 20
19.62662443
 30
0.0
  0
VERTEX
  8
0
  6
CONTINUOUS
 62
       2
  5
7BD
 10
-117.38621485
 20
19.71989883
 30
0.0
  0
VERTEX
  8
0
  6
CONTINUOUS
 62
       2
  5
7BE
 10
-117.38277031
 20
19.81323155
 30
0.0
  0
VERTEX
  8
0
  6
CONTINUOUS
 62
       2
  5
7BF
 10
-117.38069275
 20
19.90660613
 30
0.0
  0
VERTEX
  8
0
  6
CONTINUOUS
 62
       2
  5
7C0
 10
-117.37999695
 20
20.0000061
 30
0.0
  0
SEQEND
  8
0
  6
CONTINUOUS
 62
       2
  5
7C1
  0
POLYLINE
  8
0
  6
CONTINUOUS
 62
       2
  5
218
 66
       1
 10
0.0
 20
0.0
 30
0.0
  0
VERTEX
  8
0
  6
CONTINUOUS
 62
       2
  5
7C2
 10
-117.51278741
 20
21.30605524
 30
0.0
  0
VERTEX
  8
0
  6
CONTINUOUS
 62
       2
  5
7C3
 10
-117.49709022
 20
21.22525425
 30
0.0
  0
VERTEX
  8
0
  6
CONTINUOUS
 62
       2
  5
7C4
 10
-117.48233175
 20
21.14429008
 30
0.0
  0
VERTEX
  8
0
  6
CONTINUOUS
 62
       2
  5
7C5
 10
-117.46852221
 20
21.06317404
 30
0.0
  0
VERTEX
  8
0
  6
CONTINUOUS
 62
       2
  5
7C6
 10
-117.45567182
 20
20.98191748
 30
0.0
  0
VERTEX
  8
0
  6
CONTINUOUS
 62
       2
  5
7C7
 10
-117.44379078
 20
20.90053175
 30
0.0
  0
VERTEX
  8
0
  6
CONTINUOUS
 62
       2
  5
7C8
 10
-117.4328893
 20
20.81902817
 30
0.0
  0
VERTEX
  8
0
  6
CONTINUOUS
 62
       2
  5
7C9
 10
-117.4229776
 20
20.7374181
 30
0.0
  0
VERTEX
  8
0
  6
CONTINUOUS
 62
       2
  5
7CA
 10
-117.41406589
 20
20.65571287
 30
0.0
  0
VERTEX
  8
0
  6
CONTINUOUS
 62
       2
  5
7CB
 10
-117.40616437
 20
20.57392382
 30
0.0
  0
VERTEX
  8
0
  6
CONTINUOUS
 62
       2
  5
7CC
 10
-117.39928326
 20
20.4920623
 30
0.0
  0
VERTEX
  8
0
  6
CONTINUOUS
 62
       2
  5
7CD
 10
-117.39343276
 20
20.41013963
 30
0.0
  0
VERTEX
  8
0
  6
CONTINUOUS
 62
       2
  5
7CE
 10
-117.3886231
 20
20.32816716
 30
0.0
  0
VERTEX
  8
0
  6
CONTINUOUS
 62
       2
  5
7CF
 10
-117.38486447
 20
20.24615624
 30
0.0
  0
VERTEX
  8
0
  6
CONTINUOUS
 62
       2
  5
7D0
 10
-117.3821671
 20
20.16411819
 30
0.0
  0
VERTEX
  8
0
  6
CONTINUOUS
 62
       2
  5
7D1
 10
-117.38054119
 20
20.08206437
 30
0.0
  0
VERTEX
  8
0
  6
CONTINUOUS
 62
       2
  5
7D2
 10
-117.37999695
 20
20.0000061
 30
0.0
  0
SEQEND
  8
0
  6
CONTINUOUS
 62
       2
  5
7D3
  0
POLYLINE
  8
0
  6
CONTINUOUS
 62
       2
  5
219
 66
       1
 10
0.0
 20
0.0
 30
0.0
  0
VERTEX
  8
0
  6
CONTINUOUS
 62
       2
  5
7D4
 10
-118.02999695
 20
22.9200061
 30
0.0
  0
VERTEX
  8
0
  6
CONTINUOUS
 62
       2
  5
7D5
 10
-118.01625248
 20
22.88888229
 30
0.0
  0
VERTEX
  8
0
  6
CONTINUOUS
 62
       2
  5
7D6
 10
-118.00263307
 20
22.85768845
 30
0.0
  0
VERTEX
  8
0
  6
CONTINUOUS
 62
       2
  5
7D7
 10
-117.98913945
 20
22.82642541
 30
0.0
  0
VERTEX
  8
0
  6
CONTINUOUS
 62
       2
  5
7D8
 10
-117.97577236
 20
22.79509398
 30
0.0
  0
VERTEX
  8
0
  6
CONTINUOUS
 62
       2
  5
7D9
 10
-117.96253253
 20
22.76369498
 30
0.0
  0
VERTEX
  8
0
  6
CONTINUOUS
 62
       2
  5
7DA
 10
-117.94942069
 20
22.73222923
 30
0.0
  0
VERTEX
  8
0
  6
CONTINUOUS
 62
       2
  5
7DB
 10
-117.9364376
 20
22.70069755
 30
0.0
  0
VERTEX
  8
0
  6
CONTINUOUS
 62
       2
  5
7DC
 10
-117.92358397
 20
22.66910076
 30
0.0
  0
VERTEX
  8
0
  6
CONTINUOUS
 62
       2
  5
7DD
 10
-117.91086056
 20
22.63743967
 30
0.0
  0
VERTEX
  8
0
  6
CONTINUOUS
 62
       2
  5
7DE
 10
-117.89826808
 20
22.6057151
 30
0.0
  0
VERTEX
  8
0
  6
CONTINUOUS
 62
       2
  5
7DF
 10
-117.88580729
 20
22.57392786
 30
0.0
  0
VERTEX
  8
0
  6
CONTINUOUS
 62
       2
  5
7E0
 10
-117.87347892
 20
22.54207879
 30
0.0
  0
VERTEX
  8
0
  6
CONTINUOUS
 62
       2
  5
7E1
 10
-117.8612837
 20
22.51016868
 30
0.0
  0
VERTEX
  8
0
  6
CONTINUOUS
 62
       2
  5
7E2
 10
-117.84922237
 20
22.47819837
 30
0.0
  0
VERTEX
  8
0
  6
CONTINUOUS
 62
       2
  5
7E3
 10
-117.83729566
 20
22.44616867
 30
0.0
  0
VERTEX
  8
0
  6
CONTINUOUS
 62
       2
  5
7E4
 10
-117.82550432
 20
22.4140804
 30
0.0
  0
SEQEND
  8
0
  6
CONTINUOUS
 62
       2
  5
7E5
  0
POLYLINE
  8
0
  6
CONTINUOUS
 62
       2
  5
21A
 66
       1
 10
0.0
 20
0.0
 30
0.0
  0
VERTEX
  8
0
  6
CONTINUOUS
 62
       2
  5
7E6
 10
-117.37999695
 20
24.0500061
 30
0.0
  0
VERTEX
  8
0
  6
CONTINUOUS
 62
       2
  5
7E7
 10
-117.38370066
 20
23.97109046
 30
0.0
  0
VERTEX
  8
0
  6
CONTINUOUS
 62
       2
  5
7E8
 10
-117.39450122
 20
23.89227337
 30
0.0
  0
VERTEX
  8
0
  6
CONTINUOUS
 62
       2
  5
7E9
 10
-117.41193278
 20
23.8137706
 30
0.0
  0
VERTEX
  8
0
  6
CONTINUOUS
 62
       2
  5
7EA
 10
-117.43552947
 20
23.73579791
 30
0.0
  0
VERTEX
  8
0
  6
CONTINUOUS
 62
       2
  5
7EB
 10
-117.46482542
 20
23.65857105
 30
0.0
  0
VERTEX
  8
0
  6
CONTINUOUS
 62
       2
  5
7EC
 10
-117.49935479
 20
23.58230577
 30
0.0
  0
VERTEX
  8
0
  6
CONTINUOUS
 62
       2
  5
7ED
 10
-117.53865172
 20
23.50721782
 30
0.0
  0
VERTEX
  8
0
  6
CONTINUOUS
 62
       2
  5
7EE
 10
-117.58225033
 20
23.43352297
 30
0.0
  0
VERTEX
  8
0
  6
CONTINUOUS
 62
       2
  5
7EF
 10
-117.62968477
 20
23.36143697
 30
0.0
  0
VERTEX
  8
0
  6
CONTINUOUS
 62
       2
  5
7F0
 10
-117.68048919
 20
23.29117557
 30
0.0
  0
VERTEX
  8
0
  6
CONTINUOUS
 62
       2
  5
7F1
 10
-117.73419772
 20
23.22295453
 30
0.0
  0
VERTEX
  8
0
  6
CONTINUOUS
 62
       2
  5
7F2
 10
-117.7903445
 20
23.1569896
 30
0.0
  0
VERTEX
  8
0
  6
CONTINUOUS
 62
       2
  5
7F3
 10
-117.84846368
 20
23.09349654
 30
0.0
  0
VERTEX
  8
0
  6
CONTINUOUS
 62
       2
  5
7F4
 10
-117.90808938
 20
23.0326911
 30
0.0
  0
VERTEX
  8
0
  6
CONTINUOUS
 62
       2
  5
7F5
 10
-117.96875576
 20
22.97478903
 30
0.0
  0
VERTEX
  8
0
  6
CONTINUOUS
 62
       2
  5
7F6
 10
-118.02999695
 20
22.9200061
 30
0.0
  0
SEQEND
  8
0
  6
CONTINUOUS
 62
       2
  5
7F7
  0
POLYLINE
  8
0
  6
CONTINUOUS
 62
       2
  5
21B
 66
       1
 10
0.0
 20
0.0
 30
0.0
  0
VERTEX
  8
0
  6
CONTINUOUS
 62
       2
  5
7F8
 10
-118.02999695
 20
17.0700061
 30
0.0
  0
VERTEX
  8
0
  6
CONTINUOUS
 62
       2
  5
7F9
 10
-117.99937833
 20
17.13983831
 30
0.0
  0
VERTEX
  8
0
  6
CONTINUOUS
 62
       2
  5
7FA
 10
-117.96939197
 20
17.2100302
 30
0.0
  0
VERTEX
  8
0
  6
CONTINUOUS
 62
       2
  5
7FB
 10
-117.94004614
 20
17.28057257
 30
0.0
  0
VERTEX
  8
0
  6
CONTINUOUS
 62
       2
  5
7FC
 10
-117.91134912
 20
17.35145618
 30
0.0
  0
VERTEX
  8
0
  6
CONTINUOUS
 62
       2
  5
7FD
 10
-117.88330919
 20
17.4226718
 30
0.0
  0
VERTEX
  8
0
  6
CONTINUOUS
 62
       2
  5
7FE
 10
-117.85593464
 20
17.4942102
 30
0.0
  0
VERTEX
  8
0
  6
CONTINUOUS
 62
       2
  5
7FF
 10
-117.82923373
 20
17.56606215
 30
0.0
  0
VERTEX
  8
0
  6
CONTINUOUS
 62
       2
  5
800
 10
-117.80321477
 20
17.63821842
 30
0.0
  0
VERTEX
  8
0
  6
CONTINUOUS
 62
       2
  5
801
 10
-117.77788601
 20
17.71066979
 30
0.0
  0
VERTEX
  8
0
  6
CONTINUOUS
 62
       2
  5
802
 10
-117.75325575
 20
17.78340703
 30
0.0
  0
VERTEX
  8
0
  6
CONTINUOUS
 62
       2
  5
803
 10
-117.72933227
 20
17.8564209
 30
0.0
  0
VERTEX
  8
0
  6
CONTINUOUS
 62
       2
  5
804
 10
-117.70612384
 20
17.92970218
 30
0.0
  0
VERTEX
  8
0
  6
CONTINUOUS
 62
       2
  5
805
 10
-117.68363874
 20
18.00324163
 30
0.0
  0
VERTEX
  8
0
  6
CONTINUOUS
 62
       2
  5
806
 10
-117.66188527
 20
18.07703004
 30
0.0
  0
VERTEX
  8
0
  6
CONTINUOUS
 62
       2
  5
807
 10
-117.64087169
 20
18.15105816
 30
0.0
  0
VERTEX
  8
0
  6
CONTINUOUS
 62
       2
  5
808
 10
-117.62060629
 20
18.22531678
 30
0.0
  0
SEQEND
  8
0
  6
CONTINUOUS
 62
       2
  5
809
  0
POLYLINE
  8
0
  6
CONTINUOUS
 62
       2
  5
21C
 66
       1
 10
0.0
 20
0.0
 30
0.0
  0
VERTEX
  8
0
  6
CONTINUOUS
 62
       2
  5
80A
 10
-117.37999695
 20
15.9500061
 30
0.0
  0
VERTEX
  8
0
  6
CONTINUOUS
 62
       2
  5
80B
 10
-117.38370066
 20
16.02880945
 30
0.0
  0
VERTEX
  8
0
  6
CONTINUOUS
 62
       2
  5
80C
 10
-117.39450122
 20
16.10730915
 30
0.0
  0
VERTEX
  8
0
  6
CONTINUOUS
 62
       2
  5
80D
 10
-117.41193278
 20
16.18531875
 30
0.0
  0
VERTEX
  8
0
  6
CONTINUOUS
 62
       2
  5
80E
 10
-117.43552947
 20
16.26265179
 30
0.0
  0
VERTEX
  8
0
  6
CONTINUOUS
 62
       2
  5
80F
 10
-117.46482542
 20
16.33912182
 30
0.0
  0
VERTEX
  8
0
  6
CONTINUOUS
 62
       2
  5
810
 10
-117.49935479
 20
16.41454238
 30
0.0
  0
VERTEX
  8
0
  6
CONTINUOUS
 62
       2
  5
811
 10
-117.53865172
 20
16.488727
 30
0.0
  0
VERTEX
  8
0
  6
CONTINUOUS
 62
       2
  5
812
 10
-117.58225033
 20
16.56148924
 30
0.0
  0
VERTEX
  8
0
  6
CONTINUOUS
 62
       2
  5
813
 10
-117.62968477
 20
16.63264262
 30
0.0
  0
VERTEX
  8
0
  6
CONTINUOUS
 62
       2
  5
814
 10
-117.68048919
 20
16.7020007
 30
0.0
  0
VERTEX
  8
0
  6
CONTINUOUS
 62
       2
  5
815
 10
-117.73419772
 20
16.76937702
 30
0.0
  0
VERTEX
  8
0
  6
CONTINUOUS
 62
       2
  5
816
 10
-117.7903445
 20
16.83458511
 30
0.0
  0
VERTEX
  8
0
  6
CONTINUOUS
 62
       2
  5
817
 10
-117.84846368
 20
16.89743852
 30
0.0
  0
VERTEX
  8
0
  6
CONTINUOUS
 62
       2
  5
818
 10
-117.90808938
 20
16.9577508
 30
0.0
  0
VERTEX
  8
0
  6
CONTINUOUS
 62
       2
  5
819
 10
-117.96875576
 20
17.01533548
 30
0.0
  0
VERTEX
  8
0
  6
CONTINUOUS
 62
       2
  5
81A
 10
-118.02999695
 20
17.0700061
 30
0.0
  0
SEQEND
  8
0
  6
CONTINUOUS
 62
       2
  5
81B
  0
LINE
  8
0
  6
CONTINUOUS
 62
       2
  5
21D
 10
-118.02999695
 20
25.1700061
 30
0.0
 11
-117.37999695
 21
24.0500061
 31
0.0
  0
LINE
  8
0
  6
CONTINUOUS
 62
       2
  5
21E
 10
-118.01999695
 20
14.8200061
 30
0.0
 11
-117.37999695
 21
15.9500061
 31
0.0
  0
LINE
  8
0
  6
CONTINUOUS
 62
       2
  5
21F
 10
-118.02999695
 20
17.0700061
 30
0.0
 11
-118.60999695
 21
17.0700061
 31
0.0
  0
LINE
  8
0
  6
CONTINUOUS
 62
       2
  5
220
 10
-118.02999695
 20
22.9200061
 30
0.0
 11
-118.15999695
 21
22.9200061
 31
0.0
  0
LINE
  8
0
  6
CONTINUOUS
 62
       2
  5
221
 10
-118.02999695
 20
14.8200061
 30
0.0
 11
-118.30999695
 21
14.8200061
 31
0.0
  0
LINE
  8
0
  6
CONTINUOUS
 62
       2
  5
222
 10
-118.01999695
 20
25.1700061
 30
0.0
 11
-118.45999695
 21
25.1700061
 31
0.0
  0
LINE
  8
0
  6
CONTINUOUS
 62
       2
  5
223
 10
-109.56999695
 20
17.6300061
 30
0.0
 11
-109.56999695
 21
16.4000061
 31
0.0
  0
LINE
  8
0
  6
CENTER
 62
       2
  5
224
 10
-106.89999695
 20
16.4500061
 30
0.0
 11
-107.34999695
 21
16.0000061
 31
0.0
  0
LINE
  8
0
  6
CENTER
 62
       2
  5
225
 10
-107.34999695
 20
16.0000061
 30
0.0
 11
-107.34999695
 21
24.0000061
 31
0.0
  0
LINE
  8
0
  6
CENTER
 62
       2
  5
226
 10
-106.89999695
 20
16.4500061
 30
0.0
 11
-106.89999695
 21
23.5500061
 31
0.0
  0
LINE
  8
0
  6
CONTINUOUS
 62
       2
  5
227
 10
-106.89999695
 20
23.5500061
 30
0.0
 11
-107.34999695
 21
24.0000061
 31
0.0
  0
LINE
  8
0
  6
CENTER
 62
       2
  5
228
 10
-109.56999695
 20
25.4000061
 30
0.0
 11
-110.28999695
 21
25.4000061
 31
0.0
  0
LINE
  8
0
  6
CENTER
 62
       2
  5
229
 10
-109.56999695
 20
25.4000061
 30
0.0
 11
-109.56999695
 21
15.6100061
 31
0.0
  0
LINE
  8
0
  6
CONTINUOUS
 62
       2
  5
22A
 10
-109.56999695
 20
23.6000061
 30
0.0
 11
-109.56999695
 21
23.5300061
 31
0.0
  0
LINE
  8
0
  6
CENTER
 62
       2
  5
22B
 10
-109.56999695
 20
15.6100061
 30
0.0
 11
-110.28999695
 21
15.6100061
 31
0.0
  0
LINE
  8
0
  6
CENTER
 62
       2
  5
22C
 10
-110.19999695
 20
29.0000061
 30
0.0
 11
-114.69999695
 21
29.0000061
 31
0.0
  0
LINE
  8
0
  6
CONTINUOUS
 62
       2
  5
22D
 10
-120.25999695
 20
25.1700061
 30
0.0
 11
-120.97999695
 21
25.1700061
 31
0.0
  0
LINE
  8
0
  6
CONTINUOUS
 62
       2
  5
22E
 10
-120.97999695
 20
25.1700061
 30
0.0
 11
-120.97999695
 21
24.0800061
 31
0.0
  0
LINE
  8
0
  6
CONTINUOUS
 62
       2
  5
22F
 10
-120.40999695
 20
22.9200061
 30
0.0
 11
-120.97999695
 21
22.9200061
 31
0.0
  0
LINE
  8
0
  6
CONTINUOUS
 62
       2
  5
230
 10
-120.25999695
 20
17.0700061
 30
0.0
 11
-120.97999695
 21
17.0700061
 31
0.0
  0
LINE
  8
0
  6
CONTINUOUS
 62
       2
  5
231
 10
-120.25999695
 20
14.8200061
 30
0.0
 11
-120.97999695
 21
14.8200061
 31
0.0
  0
LINE
  8
0
  6
CONTINUOUS
 62
       2
  5
232
 10
-120.97999695
 20
15.0000061
 30
0.0
 11
-120.97999695
 21
14.8200061
 31
0.0
  0
LINE
  8
0
  6
CONTINUOUS
 62
       2
  5
233
 10
-120.97999695
 20
16.1300061
 30
0.0
 11
-120.97999695
 21
15.6000061
 31
0.0
  0
LINE
  8
0
  6
CONTINUOUS
 62
       2
  5
234
 10
-120.97999695
 20
21.9000061
 30
0.0
 11
-120.97999695
 21
16.7300061
 31
0.0
  0
LINE
  8
0
  6
CONTINUOUS
 62
       2
  5
235
 10
-120.97999695
 20
23.4800061
 30
0.0
 11
-120.97999695
 21
22.5000061
 31
0.0
  0
LINE
  8
0
  6
CENTER
 62
       2
  5
236
 10
-89.69999695
 20
-29.9999939
 30
0.0
 11
-107.04999695
 21
-29.9999939
 31
0.0
  0
ARC
  8
0
  6
CENTER
 62
       2
  5
237
 10
-107.03845751
 20
-22.35476184
 30
0.0
 40
7.64524077
 50
179.96434362
 51
269.91351989
  0
LINE
  8
0
  6
CENTER
 62
       2
  5
238
 10
-114.69999695
 20
29.0000061
 30
0.0
 11
-114.69999695
 21
-22.3499939
 31
0.0
  0
LINE
  8
0
  6
CENTER
 62
       2
  5
239
 10
-91.19999695
 20
-25.4999939
 30
0.0
 11
-91.19999695
 21
-29.9999939
 31
0.0
  0
LINE
  8
0
  6
CENTER
 62
       2
  5
23A
 10
-98.20999695
 20
-25.4999939
 30
0.0
 11
-98.20999695
 21
-29.9999939
 31
0.0
  0
LINE
  8
0
  6
CENTER
 62
       2
  5
23B
 10
-94.69999695
 20
-23.6999939
 30
0.0
 11
-94.69999695
 21
-32.02938499
 31
0.0
  0
ARC
  8
0
  6
CENTER
 62
       2
  5
23C
 10
-172.35294603
 20
-22.35147673
 30
0.0
 40
7.64851774
 50
270.02209185
 51
0.01110159
  0
LINE
  8
0
  6
CENTER
 62
       2
  5
23D
 10
-181.18999695
 20
-25.4999939
 30
0.0
 11
-181.18999695
 21
-29.9999939
 31
0.0
  0
LINE
  8
0
  6
CENTER
 62
       2
  5
23E
 10
-188.20999695
 20
-25.4999939
 30
0.0
 11
-188.20999695
 21
-29.9999939
 31
0.0
  0
LINE
  8
0
  6
CENTER
 62
       2
  5
23F
 10
-184.69999695
 20
-23.6999939
 30
0.0
 11
-184.69999695
 21
-32.02938499
 31
0.0
  0
LINE
  8
0
  6
CENTER
 62
       2
  5
240
 10
-189.69999695
 20
-29.9999939
 30
0.0
 11
-172.35294603
 21
-29.9999939
 31
0.0
  0
LINE
  8
0
  6
CENTER
 62
       2
  5
241
 10
-164.69999695
 20
29.0000061
 30
0.0
 11
-164.69999695
 21
26.5000061
 31
0.0
  0
LINE
  8
0
  6
CENTER
 62
       2
  5
242
 10
-169.19999695
 20
29.0000061
 30
0.0
 11
-164.69999695
 21
29.0000061
 31
0.0
  0
LINE
  8
0
  6
CONTINUOUS
 62
       2
  5
243
 10
-169.82999695
 20
25.4000061
 30
0.0
 11
-169.82999695
 21
24.5000061
 31
0.0
  0
LINE
  8
0
  6
CONTINUOUS
 62
       2
  5
244
 10
-169.82999695
 20
25.4000061
 30
0.0
 11
-169.19999695
 21
25.4000061
 31
0.0
  0
LINE
  8
0
  6
CENTER
 62
       2
  5
245
 10
-172.49999695
 20
16.4500061
 30
0.0
 11
-172.49999695
 21
23.5500061
 31
0.0
  0
LINE
  8
0
  6
CONTINUOUS
 62
       2
  5
246
 10
-169.82999695
 20
21.3500061
 30
0.0
 11
-169.82999695
 21
18.6500061
 31
0.0
  0
LINE
  8
0
  6
CENTER
 62
       2
  5
247
 10
-172.49999695
 20
23.5500061
 30
0.0
 11
-172.04999695
 21
24.0000061
 31
0.0
  0
LINE
  8
0
  6
CENTER
 62
       2
  5
248
 10
-172.04999695
 20
16.0000061
 30
0.0
 11
-172.04999695
 21
24.0000061
 31
0.0
  0
LINE
  8
0
  6
CENTER
 62
       2
  5
249
 10
-172.49999695
 20
16.4500061
 30
0.0
 11
-172.04999695
 21
16.0000061
 31
0.0
  0
LINE
  8
0
  6
CONTINUOUS
 62
       7
  5
24A
 10
-117.37999695
 20
24.0500061
 30
0.0
 11
-117.37999695
 21
15.9500061
 31
0.0
  0
LINE
  8
0
  6
CENTER
 62
       2
  5
24B
 10
-164.69999695
 20
13.5000061
 30
0.0
 11
-164.69999695
 21
-22.3499939
 31
0.0
  0
LINE
  8
0
  6
CENTER
 62
       2
  5
24C
 10
-89.69999695
 20
-25.4999939
 30
0.0
 11
-89.69999695
 21
-29.9999939
 31
0.0
  0
LINE
  8
0
  6
CENTER
 62
       2
  5
24D
 10
-189.69999695
 20
-25.4999939
 30
0.0
 11
-189.69999695
 21
-29.9999939
 31
0.0
  0
LINE
  8
0
  6
CONTINUOUS
 62
       2
  5
24E
 10
-172.04999695
 20
24.0000061
 30
0.0
 11
-171.69999695
 21
24.0000061
 31
0.0
  0
LINE
  8
0
  6
CONTINUOUS
 62
       2
  5
24F
 10
-172.04999695
 20
16.0000061
 30
0.0
 11
-171.69999695
 21
16.0000061
 31
0.0
  0
LINE
  8
0
  6
CENTER
 62
       2
  5
250
 10
-109.56999695
 20
24.0000061
 30
0.0
 11
-107.34999695
 21
24.0000061
 31
0.0
  0
LINE
  8
0
  6
CENTER
 62
       2
  5
251
 10
-109.56999695
 20
16.0000061
 30
0.0
 11
-107.34999695
 21
16.0000061
 31
0.0
  0
LINE
  8
0
  6
CENTER
 62
       2
  5
252
 10
-117.37999695
 20
24.0000061
 30
0.0
 11
-114.69999695
 21
24.0000061
 31
0.0
  0
LINE
  8
0
  6
CENTER
 62
       2
  5
253
 10
-117.37999695
 20
16.0000061
 30
0.0
 11
-114.69999695
 21
16.0000061
 31
0.0
  0
LINE
  8
0
  6
CENTER
 62
       2
  5
254
 10
64.31000305
 20
-23.05044071
 30
0.0
 11
64.31000305
 21
-33.3399939
 31
0.0
  0
LINE
  8
0
  6
CENTER
 62
       2
  5
255
 10
104.31000305
 20
-23.05044071
 30
0.0
 11
104.31000305
 21
-33.2599939
 31
0.0
  0
LINE
  8
0
  6
CENTER
 62
       2
  5
256
 10
84.31000305
 20
53.1600061
 30
0.0
 11
84.31000305
 21
-31.62074302
 31
0.0
  0
LINE
  8
0
  6
CENTER
 62
       2
  5
257
 10
-149.19999695
 20
48.8700061
 30
0.0
 11
-130.19999695
 21
48.8700061
 31
0.0
  0
LINE
  8
0
  6
CENTER
 62
       2
  5
258
 10
57.61000305
 20
-29.9999939
 30
0.0
 11
57.61000305
 21
4.09953442
 31
0.0
  0
LINE
  8
0
  6
CENTER
 62
       2
  5
259
 10
-189.69999695
 20
-25.4999939
 30
0.0
 11
-172.35294603
 21
-25.4999939
 31
0.0
  0
LINE
  8
0
  6
CENTER
 62
       2
  5
25A
 10
-169.19999695
 20
29.0000061
 30
0.0
 11
-169.19999695
 21
24.5000061
 31
0.0
  0
ARC
  8
0
  6
CENTER
 62
       2
  5
25B
 10
-172.35294603
 20
-22.35147673
 30
0.0
 40
3.14851774
 50
270.02209185
 51
0.01110159
  0
LINE
  8
0
  6
CENTER
 62
       2
  5
25C
 10
-169.19999695
 20
15.5000061
 30
0.0
 11
-169.19999695
 21
-22.3499939
 31
0.0
  0
LINE
  8
0
  6
CENTER
 62
       2
  5
25D
 10
-110.19999695
 20
29.0000061
 30
0.0
 11
-110.19999695
 21
-22.3499939
 31
0.0
  0
LINE
  8
0
  6
CENTER
 62
       2
  5
25E
 10
-89.69999695
 20
-25.4999939
 30
0.0
 11
-107.04999695
 21
-25.4999939
 31
0.0
  0
ARC
  8
0
  6
CENTER
 62
       2
  5
25F
 10
-107.03845751
 20
-22.35476184
 30
0.0
 40
3.14524077
 50
179.96434362
 51
269.91351989
  0
LINE
  8
0
  6
CENTER
 62
       2
  5
260
 10
57.61000305
 20
-25.4999939
 30
0.0
 11
112.61000305
 21
-25.4999939
 31
0.0
  0
LINE
  8
0
  6
CENTER
 62
       2
  5
261
 10
-169.19999695
 20
21.5000061
 30
0.0
 11
-169.19999695
 21
18.5000061
 31
0.0
  0
TEXT
  8
0
  6
CONTINUOUS
 62
       7
  5
262
 10
-185.70478171
 20
105.3500061
 30
0.0
 40
4.5
  1
MODEL:DV32×50-11T
 41
1.06029105
  7
MX_NOTE_STANDARD
 11
-185.70478171
 21
107.6000061
 31
0.0
 73
       2
  0
LINE
  8
0
  6
CONTINUOUS
 62
       7
  5
263
 10
-194.25
 20
132.6000061
 30
0.0
 11
194.80000305
 21
132.6000061
 31
0.0
  0
LINE
  8
0
  6
CONTINUOUS
 62
       7
  5
264
 10
194.80000305
 20
132.6000061
 30
0.0
 11
194.80000305
 21
-133.5
 31
0.0
  0
LINE
  8
0
  6
CONTINUOUS
 62
       7
  5
265
 10
-194.25
 20
132.6000061
 30
0.0
 11
-194.25
 21
-133.5
 31
0.0
  0
LINE
  8
0
  6
CONTINUOUS
 62
       7
  5
266
 10
-194.25
 20
-133.5
 30
0.0
 11
194.80000305
 21
-133.5
 31
0.0
  0
ENDSEC
  0
EOF
