  0
SECTION
  2
HEADER
  9
$ACADVER
  1
AC1012
  9
$DWGCODEPAGE
  3
dos932
  9
$INSBASE
 10
0.0
 20
0.0
 30
0.0
  9
$EXTMIN
 10
-194.25
 20
-133.5
 30
0.0
  9
$EXTMAX
 10
196.24998569488525
 20
132.60000610351562
 30
0.0
  9
$LIMMIN
 10
-210.0
 20
-148.5
  9
$LIMMAX
 10
210.0
 20
148.5
  9
$ORTHOMODE
 70
               0
  9
$REGENMODE
 70
               1
  9
$FILLMODE
 70
               1
  9
$QTEXTMODE
 70
               0
  9
$MIRRTEXT
 70
               1
  9
$DRAGMODE
 70
               2
  9
$LTSCALE
 40
1.0
  9
$OSMODE
 70
               0
  9
$ATTMODE
 70
               1
  9
$TEXTSIZE
 40
3.2000000476837158
  9
$TRACEWID
 40
0.05
  9
$TEXTSTYLE
  7
MX_NOTE_STANDARD
  9
$CLAYER
  8
0
  9
$CELTYPE
  6
CONTINUOUS
  9
$CECOLOR
 62
             256
  9
$CELTSCALE
 40
1.0
  9
$DELOBJ
 70
               1
  9
$DISPSILH
 70
               0
  9
$DIMSCALE
 40
1.0
  9
$DIMASZ
 40
2.5
  9
$DIMEXO
 40
1.5
  9
$DIMDLI
 40
3.75
  9
$DIMRND
 40
0.0
  9
$DIMDLE
 40
0.0
  9
$DIMEXE
 40
1.5
  9
$DIMTP
 40
0.0
  9
$DIMTM
 40
0.0
  9
$DIMTXT
 40
3.2000000476837158
  9
$DIMCEN
 40
2.5
  9
$DIMTSZ
 40
0.0
  9
$DIMTOL
 70
               0
  9
$DIMLIM
 70
               0
  9
$DIMTIH
 70
               0
  9
$DIMTOH
 70
               0
  9
$DIMSE1
 70
               0
  9
$DIMSE2
 70
               0
  9
$DIMTAD
 70
               1
  9
$DIMZIN
 70
               8
  9
$DIMBLK
  1

  9
$DIMASO
 70
               1
  9
$DIMSHO
 70
               1
  9
$DIMPOST
  1

  9
$DIMAPOST
  1

  9
$DIMALT
 70
               0
  9
$DIMALTD
 70
               4
  9
$DIMALTF
 40
0.03937007874016
  9
$DIMLFAC
 40
1.0
  9
$DIMTOFL
 70
               1
  9
$DIMTVP
 40
0.0
  9
$DIMTIX
 70
               0
  9
$DIMSOXD
 70
               0
  9
$DIMSAH
 70
               1
  9
$DIMBLK1
  1
_OPEN30
  9
$DIMBLK2
  1
_OPEN30
  9
$DIMSTYLE
  2
MXDIMSTYLE
  9
$DIMCLRD
 70
               0
  9
$DIMCLRE
 70
               0
  9
$DIMCLRT
 70
               0
  9
$DIMTFAC
 40
1.0
  9
$DIMGAP
 40
1.0
  9
$DIMJUST
 70
               0
  9
$DIMSD1
 70
               0
  9
$DIMSD2
 70
               0
  9
$DIMTOLJ
 70
               0
  9
$DIMTZIN
 70
               0
  9
$DIMALTZ
 70
               0
  9
$DIMALTTZ
 70
               0
  9
$DIMFIT
 70
               3
  9
$DIMUPT
 70
               1
  9
$DIMUNIT
 70
               2
  9
$DIMDEC
 70
               2
  9
$DIMTDEC
 70
               2
  9
$DIMALTU
 70
               2
  9
$DIMALTTD
 70
               4
  9
$DIMTXSTY
  7
MX_NOTE_STANDARD
  9
$DIMAUNIT
 70
               0
  9
$LUNITS
 70
               2
  9
$LUPREC
 70
               4
  9
$SKETCHINC
 40
0.1
  9
$FILLETRAD
 40
0.0
  9
$AUNITS
 70
               0
  9
$AUPREC
 70
               0
  9
$MENU
  1
acad
  9
$ELEVATION
 40
0.0
  9
$PELEVATION
 40
0.0
  9
$THICKNESS
 40
0.0
  9
$LIMCHECK
 70
               0
  9
$BLIPMODE
 70
               1
  9
$CHAMFERA
 40
0.0
  9
$CHAMFERB
 40
0.0
  9
$CHAMFERC
 40
0.0
  9
$CHAMFERD
 40
0.0
  9
$SKPOLY
 70
               0
  9
$TDCREATE
 40
2454057.468761574
  9
$TDUPDATE
 40
2454057.468761574
  9
$TDINDWG
 40
0.0000000000
  9
$TDUSRTIMER
 40
0.0000000000
  9
$USRTIMER
 70
               1
  9
$ANGBASE
 50
0.0
  9
$ANGDIR
 70
               0
  9
$PDMODE
 70
               0
  9
$PDSIZE
 40
0.0
  9
$PLINEWID
 40
0.0
  9
$COORDS
 70
               1
  9
$SPLFRAME
 70
               0
  9
$SPLINETYPE
 70
               6
  9
$SPLINESEGS
 70
               8
  9
$ATTDIA
 70
               0
  9
$ATTREQ
 70
               1
  9
$HANDLING
 70
               1
  9
$HANDSEED
  5
291
  9
$SURFTAB1
 70
               6
  9
$SURFTAB2
 70
               6
  9
$SURFTYPE
 70
               6
  9
$SURFU
 70
               6
  9
$SURFV
 70
               6
  9
$UCSNAME
  2

  9
$UCSORG
 10
0.0
 20
0.0
 30
0.0
  9
$UCSXDIR
 10
1.0
 20
0.0
 30
0.0
  9
$UCSYDIR
 10
0.0
 20
1.0
 30
0.0
  9
$PUCSNAME
  2

  9
$PUCSORG
 10
0.0
 20
0.0
 30
0.0
  9
$PUCSXDIR
 10
1.0
 20
0.0
 30
0.0
  9
$PUCSYDIR
 10
0.0
 20
1.0
 30
0.0
  9
$USERI1
 70
               0
  9
$USERI2
 70
               0
  9
$USERI3
 70
               0
  9
$USERI4
 70
               0
  9
$USERI5
 70
               0
  9
$USERR1
 40
0.0
  9
$USERR2
 40
0.0
  9
$USERR3
 40
0.0
  9
$USERR4
 40
0.0
  9
$USERR5
 40
0.0
  9
$WORLDVIEW
 70
               1
  9
$SHADEDGE
 70
               3
  9
$SHADEDIF
 70
              70
  9
$TILEMODE
 70
               1
  9
$MAXACTVP
 70
              16
  9
$PINSBASE
 10
0.0
 20
0.0
 30
0.0
  9
$PLIMCHECK
 70
               0
  9
$PEXTMIN
 10
1.0000000000000000E+20
 20
1.0000000000000000E+20
 30
1.0000000000000000E+20
  9
$PEXTMAX
 10
-1.0000000000000000E+20
 20
-1.0000000000000000E+20
 30
-1.0000000000000000E+20
  9
$PLIMMIN
 10
0.0
 20
0.0
  9
$PLIMMAX
 10
12.0
 20
9.0
  9
$UNITMODE
 70
               0
  9
$VISRETAIN
 70
               0
  9
$PLINEGEN
 70
               1
  9
$PSLTSCALE
 70
               0
  9
$TREEDEPTH
 70
            3020
  9
$PICKSTYLE
 70
               1
  9
$CMLSTYLE
  2
Standard
  9
$CMLJUST
 70
               0
  9
$CMLSCALE
 40
1.0
  9
$SAVEIMAGES
 70
               0
  0
ENDSEC
  0
SECTION
  2
CLASSES
  0
CLASS
  1
LWPOLYLINE
  2
AcDbPolyline
  3
"AutoCAD"
 90
    32768
280
               0
281
               1
  0
CLASS
  1
IMAGE
  2
AcDbRasterImage
  3
ISM
 90
    32895
280
               0
281
               1
  0
CLASS
  1
OLE2FRAME
  2
AcDbOle2Frame
  3
""
 90
    32768
280
               0
281
               1
  0
CLASS
  1
HATCH
  2
AcDbHatch
  3
"ACAD_SEDONA"
 90
    32768
280
               0
281
               1
  0
CLASS
  1
DICTIONARYVAR
  2
AcDbDictionaryVar
  3
"AutoCAD"
 90
    32768
280
               0
281
               0
  0
CLASS
  1
RASTERVARIABLES
  2
AcDbRasterVariables
  3
ISM
 90
    32768
280
               0
281
               0
  0
CLASS
  1
IMAGEDEF
  2
AcDbRasterImageDef
  3
ISM
 90
    32768
280
               0
281
               0
  0
CLASS
  1
IMAGEDEF_REACTOR
  2
AcDbRasterImageDefReactor
  3
ISM
 90
    32769
280
               0
281
               0
  0
CLASS
  1
IDBUFFER
  2
AcDbIdBuffer
  3
"Acad"
 90
    32768
280
               0
281
               0
  0
CLASS
  1
SPATIAL_FILTER
  2
AcDbSpatialFilter
  3
"Acad"
 90
    32768
280
               0
281
               0
  0
CLASS
  1
XRECORD
  2
AcDbXrecord
  3
"<Built In>"
 90
    32768
280
               0
281
               0
  0
CLASS
  1
SORTENTSTABLE
  2
AcDbSortentsTable
  3
"AutoCAD"
 90
    32768
280
               0
281
               0
  0
CLASS
  1
LAYER_INDEX
  2
AcDbLayerIndex
  3
"Acad"
 90
    32768
280
               0
281
               0
  0
CLASS
  1
SPATIAL_INDEX
  2
AcDbSpatialIndex
  3
"Acad"
 90
    32768
280
               0
281
               0
  0
CLASS
  1
OBJECT_PTR
  2
CAseDLPNTableRecord
  3
"ASE-LPNTableRecord"
 90
    32769
280
               0
281
               0
  0
CLASS
  1
LAYOUT
  2
AcDbLayout
  3
"AutoCAD 2000"
 90
    32768
280
               0
281
               0
  0
CLASS
  1
PLOTSETTINGS
  2
AcDbPlotSettings
  3
"AutoCAD 2000"
 90
    32768
280
               0
281
               0
  0
CLASS
  1
ACDBDICTIONARYWDFLT
  2
AcDbDictionaryWithDefault
  3
"AutoCAD 2000"
 90
    32768
280
               0
281
               0
  0
CLASS
  1
ACDBPLACEHOLDER
  2
AcDbPlaceHolder
  3
"AutoCAD 2000"
 90
    32768
280
               0
281
               0
  0
ENDSEC
  0
SECTION
  2
TABLES
  0
TABLE
  2
VPORT
  5
7
100
AcDbSymbolTable
 70
               1
  0
VPORT
  5
15
100
AcDbSymbolTableRecord
100
AcDbViewportTableRecord
  2
*ACTIVE
 70
               0
 10
0.0
 20
0.0
 11
1.0
 21
1.0
 12
0.0
 22
0.0
 13
0.0
 23
0.0
 14
1.0
 24
1.0
 15
0.0
 25
0.0
 16
0.0
 26
0.0
 36
1.0
 17
0.0
 27
0.0
 37
0.0
 40
299.97000000000003
 41
1.7320508075688772
 42
50.0
 43
0.0
 44
0.0
 50
0.0
 51
0.0
 71
               0
 72
             100
 73
               1
 74
               1
 75
               0
 76
               0
 77
               0
 78
               0
  0
ENDTAB
  0
TABLE
  2
LTYPE
  5
4
100
AcDbSymbolTable
 70
               4
  0
LTYPE
  5
11
100
AcDbSymbolTableRecord
100
AcDbLinetypeTableRecord
  2
BYBLOCK
 70
              64
  3

 72
              65
 73
               0
 40
0.0
  0
LTYPE
  5
12
100
AcDbSymbolTableRecord
100
AcDbLinetypeTableRecord
  2
BYLAYER
 70
              64
  3

 72
              65
 73
               0
 40
0.0
  0
LTYPE
  5
13
100
AcDbSymbolTableRecord
100
AcDbLinetypeTableRecord
  2
CONTINUOUS
 70
              64
  3
Solid line
 72
              65
 73
               0
 40
0.0
  0
LTYPE
  5
1C1
100
AcDbSymbolTableRecord
100
AcDbLinetypeTableRecord
  2
CENTER
 70
              64
  3
Center ____ _ ____ _ ____ _ ____ _ ____ _ ____
 72
              65
 73
               4
 40
50.800000000000004
 49
31.75
 74
               0
 49
-6.3499999999999996
 74
               0
 49
6.3499999999999996
 74
               0
 49
-6.3499999999999996
 74
               0
  0
ENDTAB
  0
TABLE
  2
LAYER
  5
2
100
AcDbSymbolTable
 70
               2
  0
LAYER
  5
14
100
AcDbSymbolTableRecord
100
AcDbLayerTableRecord
  2
0
 70
               0
 62
               7
  6
CONTINUOUS
  0
LAYER
  5
1D
100
AcDbSymbolTableRecord
100
AcDbLayerTableRecord
  2
DEFPOINTS
 70
               0
 62
               7
  6
CONTINUOUS
  0
ENDTAB
  0
TABLE
  2
STYLE
  5
3
100
AcDbSymbolTable
 70
               1
  0
STYLE
  5
17
100
AcDbSymbolTableRecord
100
AcDbTextStyleTableRecord
  2
MX_NOTE_STANDARD
 70
               0
 40
0.0
 41
1.0
 50
0.0
 71
               0
 42
3.2000000476837158
  3
txt.shx
  4
extfont.shx
  0
ENDTAB
  0
TABLE
  2
VIEW
  5
5
100
AcDbSymbolTable
 70
               0
  0
ENDTAB
  0
TABLE
  2
UCS
  5
6
100
AcDbSymbolTable
 70
               0
  0
ENDTAB
  0
TABLE
  2
APPID
  5
8
100
AcDbSymbolTable
 70
               1
  0
APPID
  5
16
100
AcDbSymbolTableRecord
100
AcDbRegAppTableRecord
  2
ACAD
 70
               0
  0
ENDTAB
  0
TABLE
  2
DIMSTYLE
  5
9
100
AcDbSymbolTable
 70
               1
  0
DIMSTYLE
105
18
100
AcDbSymbolTableRecord
100
AcDbDimStyleTableRecord
  2
MXDIMSTYLE
 70
               0
  3

  4

  5

  6
_OPEN30
  7
_OPEN30
 40
1.0
 41
2.5
 42
1.5
 43
3.75
 44
1.5
 45
0.0
 46
0.0
 47
0.0
 48
0.0
 71
               0
 72
               0
 73
               0
 74
               0
 75
               0
 76
               0
 77
               1
 78
               8
140
3.2000000476837158
141
2.5
142
0.0
143
0.03937007874016
144
1.0
145
0.0
146
1.0
147
1.0
170
               0
171
               4
172
               1
173
               1
174
               0
175
               0
176
               0
177
               0
178
               0
270
               2
271
               2
272
               2
273
               2
274
               4
275
               0
280
               0
281
               0
282
               0
283
               0
284
               0
285
               0
286
               0
287
               3
288
               1
340
17
  0
ENDTAB
  0
TABLE
  2
BLOCK_RECORD
  5
1
100
AcDbSymbolTable
 70
               4
  0
BLOCK_RECORD
  5
A
100
AcDbSymbolTableRecord
100
AcDbBlockTableRecord
  2
*MODEL_SPACE
  0
BLOCK_RECORD
  5
B
100
AcDbSymbolTableRecord
100
AcDbBlockTableRecord
  2
*PAPER_SPACE
  0
BLOCK_RECORD
  5
1E
100
AcDbSymbolTableRecord
100
AcDbBlockTableRecord
  2
DTY-EPU-P-C-1
  0
BLOCK_RECORD
  5
1F
100
AcDbSymbolTableRecord
100
AcDbBlockTableRecord
  2
DTY-EPU-P-C-2
  0
BLOCK_RECORD
  5
20
100
AcDbSymbolTableRecord
100
AcDbBlockTableRecord
  2
DTY-EPU-P-C-3
  0
BLOCK_RECORD
  5
21
100
AcDbSymbolTableRecord
100
AcDbBlockTableRecord
  2
_OPEN30
  0
ENDTAB
  0
ENDSEC
  0
SECTION
  2
BLOCKS
  0
BLOCK
  5
D
100
AcDbEntity
  8
0
100
AcDbBlockBegin
  2
*MODEL_SPACE
 70
               0
 10
0.0
 20
0.0
 30
0.0
  3
*MODEL_SPACE
  1

  0
ENDBLK
  5
E
100
AcDbEntity
  8
0
100
AcDbBlockEnd
  0
BLOCK
  5
F
100
AcDbEntity
 67
               1
  8
0
100
AcDbBlockBegin
  2
*PAPER_SPACE
 70
               0
 10
0.0
 20
0.0
 30
0.0
  3
*PAPER_SPACE
  1

  0
ENDBLK
  5
10
100
AcDbEntity
 67
               1
  8
0
100
AcDbBlockEnd
  0
BLOCK
  5
27
100
AcDbEntity
  8
0
100
AcDbBlockBegin
  2
DTY-EPU-P-C-1
 70
               0
 10
0.0
 20
0.0
 30
0.0
  3
DTY-EPU-P-C-1
  1

  0
LINE
  5
28
100
AcDbEntity
  8
0
  6
CONTINUOUS
 62
               7
100
AcDbLine
 10
-24.100000000000009
 20
25.599999973286444
 30
0.0
 11
24.100000000000009
 21
25.599999973286444
 31
0.0
  0
LINE
  5
29
100
AcDbEntity
  8
0
  6
CONTINUOUS
 62
               7
100
AcDbLine
 10
-24.100000000000009
 20
-25.600000026713573
 30
0.0
 11
24.100000000000009
 21
-25.600000026713573
 31
0.0
  0
LINE
  5
2A
100
AcDbEntity
  8
0
  6
CONTINUOUS
 62
               7
100
AcDbLine
 10
-25.600000000000009
 20
-24.100000026713573
 30
0.0
 11
-25.600000000000009
 21
24.099999973286444
 31
0.0
  0
LINE
  5
2B
100
AcDbEntity
  8
0
  6
CONTINUOUS
 62
               7
100
AcDbLine
 10
25.600000000000009
 20
-24.100000026713573
 30
0.0
 11
25.600000000000009
 21
24.099999973286444
 31
0.0
  0
ARC
  5
2C
100
AcDbEntity
  8
0
  6
CONTINUOUS
 62
               7
100
AcDbCircle
 10
24.100000000000009
 20
24.099999973286444
 30
0.0
 40
1.5
100
AcDbArc
 50
0.0
 51
90.0
  0
ARC
  5
2D
100
AcDbEntity
  8
0
  6
CONTINUOUS
 62
               7
100
AcDbCircle
 10
-24.100000000000009
 20
24.099999973286444
 30
0.0
 40
1.5
100
AcDbArc
 50
90.0
 51
180.0
  0
ARC
  5
2E
100
AcDbEntity
  8
0
  6
CONTINUOUS
 62
               7
100
AcDbCircle
 10
-24.100000000000009
 20
-24.100000026713573
 30
0.0
 40
1.5
100
AcDbArc
 50
180.0
 51
270.0
  0
ARC
  5
2F
100
AcDbEntity
  8
0
  6
CONTINUOUS
 62
               7
100
AcDbCircle
 10
24.100000000000009
 20
-24.100000026713573
 30
0.0
 40
1.5
100
AcDbArc
 50
270.0
 51
0.0
  0
LINE
  5
30
100
AcDbEntity
  8
0
  6
CONTINUOUS
 62
               7
100
AcDbLine
 10
22.499999980280265
 20
16.999999973286421
 30
0.0
 11
24.600000000000009
 21
16.999999973286421
 31
0.0
  0
LINE
  5
31
100
AcDbEntity
  8
0
  6
CONTINUOUS
 62
               7
100
AcDbLine
 10
22.499999980280265
 20
10.999999973286421
 30
0.0
 11
24.600000000000009
 21
10.999999973286421
 31
0.0
  0
LINE
  5
32
100
AcDbEntity
  8
0
  6
CONTINUOUS
 62
               7
100
AcDbLine
 10
22.499999999999986
 20
16.999999973286421
 30
0.0
 11
22.499999999999986
 21
10.999999973286421
 31
0.0
  0
LINE
  5
33
100
AcDbEntity
  8
0
  6
CONTINUOUS
 62
               7
100
AcDbLine
 10
23.499999980280265
 20
15.999999973286421
 30
0.0
 11
24.600000000000009
 21
15.999999973286421
 31
0.0
  0
LINE
  5
34
100
AcDbEntity
  8
0
  6
CONTINUOUS
 62
               7
100
AcDbLine
 10
23.499999980280265
 20
11.999999973286421
 30
0.0
 11
24.600000000000009
 21
11.999999973286421
 31
0.0
  0
LINE
  5
35
100
AcDbEntity
  8
0
  6
CONTINUOUS
 62
               7
100
AcDbLine
 10
23.499999999999986
 20
15.999999973286421
 30
0.0
 11
23.499999999999986
 21
11.999999973286421
 31
0.0
  0
LINE
  5
36
100
AcDbEntity
  8
0
  6
CONTINUOUS
 62
               7
100
AcDbLine
 10
24.600000000000009
 20
10.999999973286421
 30
0.0
 11
24.600000000000009
 21
16.999999973286421
 31
0.0
  0
LINE
  5
37
100
AcDbEntity
  8
0
  6
CONTINUOUS
 62
               7
100
AcDbLine
 10
24.600000000000009
 20
-11.000000026713579
 30
0.0
 11
24.600000000000009
 21
-17.000000026713579
 31
0.0
  0
LINE
  5
38
100
AcDbEntity
  8
0
  6
CONTINUOUS
 62
               7
100
AcDbLine
 10
23.499999999999986
 20
-16.000000026713579
 30
0.0
 11
23.499999999999986
 21
-12.000000026713579
 31
0.0
  0
LINE
  5
39
100
AcDbEntity
  8
0
  6
CONTINUOUS
 62
               7
100
AcDbLine
 10
23.499999980280265
 20
-12.000000026713579
 30
0.0
 11
24.600000000000009
 21
-12.000000026713579
 31
0.0
  0
LINE
  5
3A
100
AcDbEntity
  8
0
  6
CONTINUOUS
 62
               7
100
AcDbLine
 10
23.499999980280265
 20
-16.000000026713579
 30
0.0
 11
24.600000000000009
 21
-16.000000026713579
 31
0.0
  0
LINE
  5
3B
100
AcDbEntity
  8
0
  6
CONTINUOUS
 62
               7
100
AcDbLine
 10
22.499999999999986
 20
-17.000000026713579
 30
0.0
 11
22.499999999999986
 21
-11.000000026713579
 31
0.0
  0
LINE
  5
3C
100
AcDbEntity
  8
0
  6
CONTINUOUS
 62
               7
100
AcDbLine
 10
22.499999980280265
 20
-11.000000026713579
 30
0.0
 11
24.600000000000009
 21
-11.000000026713579
 31
0.0
  0
LINE
  5
3D
100
AcDbEntity
  8
0
  6
CONTINUOUS
 62
               7
100
AcDbLine
 10
22.499999980280265
 20
-17.000000026713579
 30
0.0
 11
24.600000000000009
 21
-17.000000026713579
 31
0.0
  0
LINE
  5
3E
100
AcDbEntity
  8
0
  6
CONTINUOUS
 62
               7
100
AcDbLine
 10
-24.600000000000037
 20
10.999999973286421
 30
0.0
 11
-24.600000000000037
 21
16.999999973286421
 31
0.0
  0
LINE
  5
3F
100
AcDbEntity
  8
0
  6
CONTINUOUS
 62
               7
100
AcDbLine
 10
-23.500000000000014
 20
15.999999973286421
 30
0.0
 11
-23.500000000000014
 21
11.999999973286421
 31
0.0
  0
LINE
  5
40
100
AcDbEntity
  8
0
  6
CONTINUOUS
 62
               7
100
AcDbLine
 10
-23.499999980280293
 20
11.999999973286421
 30
0.0
 11
-24.600000000000037
 21
11.999999973286421
 31
0.0
  0
LINE
  5
41
100
AcDbEntity
  8
0
  6
CONTINUOUS
 62
               7
100
AcDbLine
 10
-23.499999980280293
 20
15.999999973286421
 30
0.0
 11
-24.600000000000037
 21
15.999999973286421
 31
0.0
  0
LINE
  5
42
100
AcDbEntity
  8
0
  6
CONTINUOUS
 62
               7
100
AcDbLine
 10
-22.500000000000014
 20
16.999999973286421
 30
0.0
 11
-22.500000000000014
 21
10.999999973286421
 31
0.0
  0
LINE
  5
43
100
AcDbEntity
  8
0
  6
CONTINUOUS
 62
               7
100
AcDbLine
 10
-22.499999980280293
 20
10.999999973286421
 30
0.0
 11
-24.600000000000037
 21
10.999999973286421
 31
0.0
  0
LINE
  5
44
100
AcDbEntity
  8
0
  6
CONTINUOUS
 62
               7
100
AcDbLine
 10
-22.499999980280293
 20
16.999999973286421
 30
0.0
 11
-24.600000000000037
 21
16.999999973286421
 31
0.0
  0
LINE
  5
45
100
AcDbEntity
  8
0
  6
CONTINUOUS
 62
               7
100
AcDbLine
 10
-22.499999980280293
 20
-17.000000026713579
 30
0.0
 11
-24.600000000000037
 21
-17.000000026713579
 31
0.0
  0
LINE
  5
46
100
AcDbEntity
  8
0
  6
CONTINUOUS
 62
               7
100
AcDbLine
 10
-22.499999980280293
 20
-11.000000026713579
 30
0.0
 11
-24.600000000000037
 21
-11.000000026713579
 31
0.0
  0
LINE
  5
47
100
AcDbEntity
  8
0
  6
CONTINUOUS
 62
               7
100
AcDbLine
 10
-22.500000000000014
 20
-17.000000026713579
 30
0.0
 11
-22.500000000000014
 21
-11.000000026713579
 31
0.0
  0
LINE
  5
48
100
AcDbEntity
  8
0
  6
CONTINUOUS
 62
               7
100
AcDbLine
 10
-23.499999980280293
 20
-16.000000026713579
 30
0.0
 11
-24.600000000000037
 21
-16.000000026713579
 31
0.0
  0
LINE
  5
49
100
AcDbEntity
  8
0
  6
CONTINUOUS
 62
               7
100
AcDbLine
 10
-23.499999980280293
 20
-12.000000026713579
 30
0.0
 11
-24.600000000000037
 21
-12.000000026713579
 31
0.0
  0
LINE
  5
4A
100
AcDbEntity
  8
0
  6
CONTINUOUS
 62
               7
100
AcDbLine
 10
-23.500000000000014
 20
-16.000000026713579
 30
0.0
 11
-23.500000000000014
 21
-12.000000026713579
 31
0.0
  0
LINE
  5
4B
100
AcDbEntity
  8
0
  6
CONTINUOUS
 62
               7
100
AcDbLine
 10
-24.600000000000037
 20
-11.000000026713579
 30
0.0
 11
-24.600000000000037
 21
-17.000000026713579
 31
0.0
  0
LINE
  5
4C
100
AcDbEntity
  8
0
  6
CONTINUOUS
 62
               7
100
AcDbLine
 10
-24.700000000000045
 20
-22.5
 30
0.0
 11
-24.700000000000045
 21
22.5
 31
0.0
  0
LINE
  5
4D
100
AcDbEntity
  8
0
  6
CONTINUOUS
 62
               7
100
AcDbLine
 10
-27.700000000000045
 20
-22.5
 30
0.0
 11
-27.700000000000045
 21
22.5
 31
0.0
  0
LINE
  5
4E
100
AcDbEntity
  8
0
  6
CONTINUOUS
 62
               7
100
AcDbLine
 10
-24.699999998916795
 20
-17.500000026713579
 30
0.0
 11
-27.699999998916795
 21
-17.500000026713579
 31
0.0
  0
LINE
  5
4F
100
AcDbEntity
  8
0
  6
CONTINUOUS
 62
               7
100
AcDbLine
 10
-24.699999998916795
 20
17.499999973286421
 30
0.0
 11
-27.699999998916795
 21
17.499999973286421
 31
0.0
  0
LINE
  5
50
100
AcDbEntity
  8
0
  6
CONTINUOUS
 62
               7
100
AcDbLine
 10
-24.699999998916795
 20
-22.500000026713579
 30
0.0
 11
-27.699999998916795
 21
-22.500000026713579
 31
0.0
  0
LINE
  5
51
100
AcDbEntity
  8
0
  6
CONTINUOUS
 62
               7
100
AcDbLine
 10
-24.699999998916795
 20
22.499999973286421
 30
0.0
 11
-27.700000000000045
 21
22.499999973286421
 31
0.0
  0
LINE
  5
52
100
AcDbEntity
  8
0
  6
CONTINUOUS
 62
               7
100
AcDbLine
 10
24.699999998916709
 20
-17.500000026713579
 30
0.0
 11
27.699999998916709
 21
-17.500000026713579
 31
0.0
  0
LINE
  5
53
100
AcDbEntity
  8
0
  6
CONTINUOUS
 62
               7
100
AcDbLine
 10
24.699999998916709
 20
17.499999973286421
 30
0.0
 11
27.699999998916709
 21
17.499999973286421
 31
0.0
  0
LINE
  5
54
100
AcDbEntity
  8
0
  6
CONTINUOUS
 62
               7
100
AcDbLine
 10
24.699999998916709
 20
-22.500000026713579
 30
0.0
 11
27.699999998916709
 21
-22.500000026713579
 31
0.0
  0
LINE
  5
55
100
AcDbEntity
  8
0
  6
CONTINUOUS
 62
               7
100
AcDbLine
 10
24.699999998916709
 20
22.499999973286421
 30
0.0
 11
27.69999999999996
 21
22.499999973286421
 31
0.0
  0
LINE
  5
56
100
AcDbEntity
  8
0
  6
CONTINUOUS
 62
               7
100
AcDbLine
 10
27.69999999999996
 20
-22.5
 30
0.0
 11
27.69999999999996
 21
22.5
 31
0.0
  0
LINE
  5
57
100
AcDbEntity
  8
0
  6
CONTINUOUS
 62
               7
100
AcDbLine
 10
24.69999999999996
 20
-22.5
 30
0.0
 11
24.69999999999996
 21
22.5
 31
0.0
  0
LINE
  5
58
100
AcDbEntity
  8
0
  6
CONTINUOUS
 62
               2
100
AcDbLine
 10
-23.000000000000043
 20
-23.000000026713579
 30
0.0
 11
-24.000000000000043
 21
-24.000000026713579
 31
0.0
  0
LINE
  5
59
100
AcDbEntity
  8
0
  6
CONTINUOUS
 62
               2
100
AcDbLine
 10
-23.000000000000043
 20
22.999999973286421
 30
0.0
 11
-24.000000000000043
 21
23.999999973286421
 31
0.0
  0
LINE
  5
5A
100
AcDbEntity
  8
0
  6
CONTINUOUS
 62
               2
100
AcDbLine
 10
22.999999999999957
 20
22.999999973286421
 30
0.0
 11
23.999999999999957
 21
23.999999973286421
 31
0.0
  0
LINE
  5
5B
100
AcDbEntity
  8
0
  6
CONTINUOUS
 62
               2
100
AcDbLine
 10
22.999999999999957
 20
-23.000000026713579
 30
0.0
 11
23.999999999999957
 21
-24.000000026713579
 31
0.0
  0
LINE
  5
5C
100
AcDbEntity
  8
0
  6
CONTINUOUS
 62
               2
100
AcDbLine
 10
-23.000000000000043
 20
-23.000000026713579
 30
0.0
 11
22.999999999999957
 21
-23.000000026713579
 31
0.0
  0
LINE
  5
5D
100
AcDbEntity
  8
0
  6
CONTINUOUS
 62
               2
100
AcDbLine
 10
-23.000000000000043
 20
-23.000000026713579
 30
0.0
 11
-23.000000000000043
 21
22.999999973286421
 31
0.0
  0
LINE
  5
5E
100
AcDbEntity
  8
0
  6
CONTINUOUS
 62
               2
100
AcDbLine
 10
-23.000000000000043
 20
22.999999973286421
 30
0.0
 11
22.999999999999957
 21
22.999999973286421
 31
0.0
  0
LINE
  5
5F
100
AcDbEntity
  8
0
  6
CONTINUOUS
 62
               2
100
AcDbLine
 10
22.999999999999957
 20
-23.000000026713579
 30
0.0
 11
22.999999999999957
 21
22.999999973286421
 31
0.0
  0
LINE
  5
60
100
AcDbEntity
  8
0
  6
CONTINUOUS
 62
               7
100
AcDbLine
 10
23.999999999999957
 20
-24.000000026713579
 30
0.0
 11
23.999999999999957
 21
23.999999973286421
 31
0.0
  0
LINE
  5
61
100
AcDbEntity
  8
0
  6
CONTINUOUS
 62
               7
100
AcDbLine
 10
-24.000000000000043
 20
-24.000000026713579
 30
0.0
 11
-24.000000000000043
 21
23.999999973286421
 31
0.0
  0
LINE
  5
62
100
AcDbEntity
  8
0
  6
CONTINUOUS
 62
               7
100
AcDbLine
 10
-24.000000000000043
 20
-24.000000026713579
 30
0.0
 11
23.999999999999957
 21
-24.000000026713579
 31
0.0
  0
LINE
  5
63
100
AcDbEntity
  8
0
  6
CONTINUOUS
 62
               7
100
AcDbLine
 10
-24.000000000000043
 20
23.999999973286421
 30
0.0
 11
23.999999999999957
 21
23.999999973286421
 31
0.0
  0
LINE
  5
64
100
AcDbEntity
  8
0
  6
CONTINUOUS
 62
               7
100
AcDbLine
 10
-18.500000000000043
 20
-18.000000026713579
 30
0.0
 11
-18.500000000000043
 21
17.999999973286421
 31
0.0
  0
LINE
  5
65
100
AcDbEntity
  8
0
  6
CONTINUOUS
 62
               7
100
AcDbLine
 10
14.999999999999957
 20
14.249999973286421
 30
0.0
 11
14.999999999999957
 21
2.7499999732864211
 31
0.0
  0
LINE
  5
66
100
AcDbEntity
  8
0
  6
CONTINUOUS
 62
               7
100
AcDbLine
 10
-15.000000000000043
 20
14.249999973286421
 30
0.0
 11
-15.000000000000043
 21
2.7499999732864211
 31
0.0
  0
LINE
  5
67
100
AcDbEntity
  8
0
  6
CONTINUOUS
 62
               7
100
AcDbLine
 10
14.999999999999957
 20
2.7499999732864211
 30
0.0
 11
-15.000000000000043
 21
2.7499999732864211
 31
0.0
  0
LINE
  5
68
100
AcDbEntity
  8
0
  6
CONTINUOUS
 62
               7
100
AcDbLine
 10
14.999999999999957
 20
14.249999973286421
 30
0.0
 11
-15.000000000000043
 21
14.249999973286421
 31
0.0
  0
CIRCLE
  5
69
100
AcDbEntity
  8
0
  6
CONTINUOUS
 62
               7
100
AcDbCircle
 10
-8.5000000000000426
 20
-8.5000000267135789
 30
0.0
 40
2.0
  0
CIRCLE
  5
6A
100
AcDbEntity
  8
0
  6
CONTINUOUS
 62
               7
100
AcDbCircle
 10
-3.5000000000000426
 20
-8.5000000267135789
 30
0.0
 40
2.0
  0
CIRCLE
  5
6B
100
AcDbEntity
  8
0
  6
CONTINUOUS
 62
               7
100
AcDbCircle
 10
1.4999999999999574
 20
-8.5000000267135789
 30
0.0
 40
2.0
  0
CIRCLE
  5
6C
100
AcDbEntity
  8
0
  6
CONTINUOUS
 62
               7
100
AcDbCircle
 10
1.4999999999999574
 20
-15.000000026713579
 30
0.0
 40
2.0
  0
CIRCLE
  5
6D
100
AcDbEntity
  8
0
  6
CONTINUOUS
 62
               7
100
AcDbCircle
 10
-3.5000000000000426
 20
-15.000000026713579
 30
0.0
 40
2.0
  0
CIRCLE
  5
6E
100
AcDbEntity
  8
0
  6
CONTINUOUS
 62
               7
100
AcDbCircle
 10
-8.5000000000000426
 20
-15.000000026713579
 30
0.0
 40
2.0
  0
CIRCLE
  5
6F
100
AcDbEntity
  8
0
  6
CONTINUOUS
 62
               7
100
AcDbCircle
 10
-13.500000000000043
 20
-15.000000026713579
 30
0.0
 40
2.0
  0
CIRCLE
  5
70
100
AcDbEntity
  8
0
  6
CONTINUOUS
 62
               7
100
AcDbCircle
 10
-13.500000000000043
 20
-8.5000000267135789
 30
0.0
 40
2.0
  0
LINE
  5
71
100
AcDbEntity
  8
0
  6
CONTINUOUS
 62
               7
100
AcDbLine
 10
-8.0000000000000426
 20
0.9999999732864211
 30
0.0
 11
-8.0000000000000426
 21
-5.0000000267135789
 31
0.0
  0
LINE
  5
72
100
AcDbEntity
  8
0
  6
CONTINUOUS
 62
               7
100
AcDbLine
 10
-14.000000000000043
 20
-5.0000000267135789
 30
0.0
 11
-8.0000000000000426
 21
-5.0000000267135789
 31
0.0
  0
LINE
  5
73
100
AcDbEntity
  8
0
  6
CONTINUOUS
 62
               7
100
AcDbLine
 10
-14.000000000000043
 20
0.9999999732864211
 30
0.0
 11
-8.0000000000000426
 21
0.9999999732864211
 31
0.0
  0
LINE
  5
74
100
AcDbEntity
  8
0
  6
CONTINUOUS
 62
               7
100
AcDbLine
 10
17.999999999999957
 20
18.499999973286421
 30
0.0
 11
-18.000000000000043
 21
18.499999973286421
 31
0.0
  0
LINE
  5
75
100
AcDbEntity
  8
0
  6
CONTINUOUS
 62
               7
100
AcDbLine
 10
17.999999999999957
 20
-18.500000026713579
 30
0.0
 11
-18.000000000000043
 21
-18.500000026713579
 31
0.0
  0
LINE
  5
76
100
AcDbEntity
  8
0
  6
CONTINUOUS
 62
               7
100
AcDbLine
 10
18.499999999999957
 20
-18.000000026713579
 30
0.0
 11
18.499999999999957
 21
17.999999973286421
 31
0.0
  0
LINE
  5
77
100
AcDbEntity
  8
0
  6
CONTINUOUS
 62
               7
100
AcDbLine
 10
-14.000000000000043
 20
0.9999999732864211
 30
0.0
 11
-14.000000000000043
 21
-5.0000000267135789
 31
0.0
  0
LINE
  5
78
100
AcDbEntity
  8
0
  6
CONTINUOUS
 62
               7
100
AcDbLine
 10
2.9999999999999574
 20
-5.0000000267135789
 30
0.0
 11
2.9999999999999574
 21
0.9999999732864211
 31
0.0
  0
LINE
  5
79
100
AcDbEntity
  8
0
  6
CONTINUOUS
 62
               7
100
AcDbLine
 10
2.9999999999999574
 20
-5.0000000267135789
 30
0.0
 11
-3.0000000000000426
 21
-5.0000000267135789
 31
0.0
  0
LINE
  5
7A
100
AcDbEntity
  8
0
  6
CONTINUOUS
 62
               7
100
AcDbLine
 10
2.9999999999999574
 20
0.9999999732864211
 30
0.0
 11
-3.0000000000000426
 21
0.9999999732864211
 31
0.0
  0
LINE
  5
7B
100
AcDbEntity
  8
0
  6
CONTINUOUS
 62
               7
100
AcDbLine
 10
-3.0000000000000426
 20
-5.0000000267135789
 30
0.0
 11
-3.0000000000000426
 21
0.9999999732864211
 31
0.0
  0
LINE
  5
7C
100
AcDbEntity
  8
0
  6
CONTINUOUS
 62
               7
100
AcDbLine
 10
7.9999999999999574
 20
0.9999999732864211
 30
0.0
 11
7.9999999999999574
 21
-5.0000000267135789
 31
0.0
  0
LINE
  5
7D
100
AcDbEntity
  8
0
  6
CONTINUOUS
 62
               7
100
AcDbLine
 10
7.9999999999999574
 20
0.9999999732864211
 30
0.0
 11
13.999999999999957
 21
0.9999999732864211
 31
0.0
  0
LINE
  5
7E
100
AcDbEntity
  8
0
  6
CONTINUOUS
 62
               7
100
AcDbLine
 10
7.9999999999999574
 20
-5.0000000267135789
 30
0.0
 11
13.999999999999957
 21
-5.0000000267135789
 31
0.0
  0
LINE
  5
7F
100
AcDbEntity
  8
0
  6
CONTINUOUS
 62
               7
100
AcDbLine
 10
13.999999999999957
 20
0.9999999732864211
 30
0.0
 11
13.999999999999957
 21
-5.0000000267135789
 31
0.0
  0
ARC
  5
80
100
AcDbEntity
  8
0
  6
CONTINUOUS
 62
               7
100
AcDbCircle
 10
-18.000000000000043
 20
17.999999973286421
 30
0.0
 40
0.5
100
AcDbArc
 50
90.0
 51
180.0
  0
ARC
  5
81
100
AcDbEntity
  8
0
  6
CONTINUOUS
 62
               7
100
AcDbCircle
 10
17.999999999999957
 20
-18.000000026713579
 30
0.0
 40
0.5
100
AcDbArc
 50
270.0
 51
0.0
  0
LINE
  5
82
100
AcDbEntity
  8
0
  6
CONTINUOUS
 62
               7
100
AcDbLine
 10
18.499999999999957
 20
2.2499999732864211
 30
0.0
 11
-18.500000000000043
 21
2.2499999732864211
 31
0.0
  0
LINE
  5
83
100
AcDbEntity
  8
0
  6
CONTINUOUS
 62
               7
100
AcDbLine
 10
-11.000000000000043
 20
0.2499999732864211
 30
0.0
 11
-8.4019237886467266
 21
-4.2500000267135789
 31
0.0
  0
LINE
  5
84
100
AcDbEntity
  8
0
  6
CONTINUOUS
 62
               7
100
AcDbLine
 10
-8.4019237886467266
 20
-4.2500000267135789
 30
0.0
 11
-13.598076211353359
 21
-4.2500000267135789
 31
0.0
  0
LINE
  5
85
100
AcDbEntity
  8
0
  6
CONTINUOUS
 62
               7
100
AcDbLine
 10
-13.598076211353359
 20
-4.2500000267135789
 30
0.0
 11
-11.000000000000043
 21
0.2499999732864211
 31
0.0
  0
LINE
  5
86
100
AcDbEntity
  8
0
  6
CONTINUOUS
 62
               7
100
AcDbLine
 10
-0.0000000000000426
 20
-4.2500000267135789
 30
0.0
 11
-2.5980762113533586
 21
0.2499999732864211
 31
0.0
  0
LINE
  5
87
100
AcDbEntity
  8
0
  6
CONTINUOUS
 62
               7
100
AcDbLine
 10
-2.5980762113533586
 20
0.2499999732864211
 30
0.0
 11
2.5980762113532734
 21
0.2499999732864211
 31
0.0
  0
LINE
  5
88
100
AcDbEntity
  8
0
  6
CONTINUOUS
 62
               7
100
AcDbLine
 10
2.5980762113532734
 20
0.2499999732864211
 30
0.0
 11
-0.0000000000000426
 21
-4.2500000267135789
 31
0.0
  0
ARC
  5
89
100
AcDbEntity
  8
0
  6
CONTINUOUS
 62
               7
100
AcDbCircle
 10
10.999999999999957
 20
-1.4000000267135775
 30
0.0
 40
0.5
100
AcDbArc
 50
180.0
 51
270.0
  0
ARC
  5
8A
100
AcDbEntity
  8
0
  6
CONTINUOUS
 62
               7
100
AcDbCircle
 10
10.999999999999957
 20
-1.4000000267135775
 30
0.0
 40
2.5
100
AcDbArc
 50
180.0
 51
270.0
  0
LINE
  5
8B
100
AcDbEntity
  8
0
  6
CONTINUOUS
 62
               7
100
AcDbLine
 10
10.999999999999957
 20
-1.9000000267135775
 30
0.0
 11
11.499999999999957
 21
-1.9000000267135775
 31
0.0
  0
LINE
  5
8C
100
AcDbEntity
  8
0
  6
CONTINUOUS
 62
               7
100
AcDbLine
 10
10.999999999999957
 20
-3.9000000267135775
 30
0.0
 11
11.499999999999957
 21
-3.9000000267135775
 31
0.0
  0
LINE
  5
8D
100
AcDbEntity
  8
0
  6
CONTINUOUS
 62
               7
100
AcDbLine
 10
10.499999999999957
 20
-1.4000000267135775
 30
0.0
 11
10.499999999999957
 21
0.0999999732864225
 31
0.0
  0
LINE
  5
8E
100
AcDbEntity
  8
0
  6
CONTINUOUS
 62
               7
100
AcDbLine
 10
8.4999999999999574
 20
-1.4000000267135775
 30
0.0
 11
8.4999999999999574
 21
0.0999999732864225
 31
0.0
  0
LINE
  5
8F
100
AcDbEntity
  8
0
  6
CONTINUOUS
 62
               7
100
AcDbLine
 10
11.499999999999957
 20
-3.9000000267135775
 30
0.0
 11
11.499999999999957
 21
-4.4000000267135775
 31
0.0
  0
LINE
  5
90
100
AcDbEntity
  8
0
  6
CONTINUOUS
 62
               7
100
AcDbLine
 10
11.499999999999957
 20
-1.4000000267135775
 30
0.0
 11
13.665063509461064
 21
-2.9000000267135846
 31
0.0
  0
LINE
  5
91
100
AcDbEntity
  8
0
  6
CONTINUOUS
 62
               7
100
AcDbLine
 10
11.499999999999957
 20
-4.4000000267135775
 30
0.0
 11
13.665063509461007
 21
-2.9000000267135846
 31
0.0
  0
LINE
  5
92
100
AcDbEntity
  8
0
  6
CONTINUOUS
 62
               7
100
AcDbLine
 10
11.499999999999957
 20
-1.9000000267135775
 30
0.0
 11
11.499999999999957
 21
-1.4000000267135775
 31
0.0
  0
LINE
  5
93
100
AcDbEntity
  8
0
  6
CONTINUOUS
 62
               7
100
AcDbLine
 10
8.4999999999999574
 20
0.0999999732864225
 30
0.0
 11
10.499999999999957
 21
0.0999999732864225
 31
0.0
  0
ARC
  5
94
100
AcDbEntity
  8
0
  6
CONTINUOUS
 62
               7
100
AcDbCircle
 10
17.999999999999957
 20
17.999999973286421
 30
0.0
 40
0.5
100
AcDbArc
 50
0.0
 51
90.0
  0
ARC
  5
95
100
AcDbEntity
  8
0
  6
CONTINUOUS
 62
               7
100
AcDbCircle
 10
-18.000000000000043
 20
-18.000000026713579
 30
0.0
 40
0.5
100
AcDbArc
 50
180.0
 51
270.0
  0
LINE
  5
96
100
AcDbEntity
  8
0
  6
CONTINUOUS
 62
               7
100
AcDbLine
 10
-19.000000000000043
 20
18.999999973286421
 30
0.0
 11
-19.707106781186596
 21
19.707106754472967
 31
0.0
  0
LINE
  5
97
100
AcDbEntity
  8
0
  6
CONTINUOUS
 62
               7
100
AcDbLine
 10
18.999999999999957
 20
-19.000000026713579
 30
0.0
 11
19.707106781186511
 21
-19.707106807900118
 31
0.0
  0
LINE
  5
98
100
AcDbEntity
  8
0
  6
CONTINUOUS
 62
               7
100
AcDbLine
 10
-19.000000000000043
 20
-19.000000026713579
 30
0.0
 11
-19.707106781186596
 21
-19.707106807900132
 31
0.0
  0
LINE
  5
99
100
AcDbEntity
  8
0
  6
CONTINUOUS
 62
               7
100
AcDbLine
 10
18.999999999999957
 20
18.999999973286421
 30
0.0
 11
19.707106781186511
 21
19.707106754472967
 31
0.0
  0
LINE
  5
9A
100
AcDbEntity
  8
0
  6
CONTINUOUS
 62
               7
100
AcDbLine
 10
-19.000000000000043
 20
18.999999973286421
 30
0.0
 11
-19.000000000000043
 21
-19.000000026713579
 31
0.0
  0
LINE
  5
9B
100
AcDbEntity
  8
0
  6
CONTINUOUS
 62
               7
100
AcDbLine
 10
18.999999999999957
 20
-19.000000026713579
 30
0.0
 11
-19.000000000000043
 21
-19.000000026713579
 31
0.0
  0
LINE
  5
9C
100
AcDbEntity
  8
0
  6
CONTINUOUS
 62
               7
100
AcDbLine
 10
18.999999999999957
 20
-19.000000026713579
 30
0.0
 11
18.999999999999957
 21
18.999999973286421
 31
0.0
  0
LINE
  5
9D
100
AcDbEntity
  8
0
  6
CONTINUOUS
 62
               7
100
AcDbLine
 10
18.999999999999957
 20
18.999999973286421
 30
0.0
 11
-19.000000000000043
 21
18.999999973286421
 31
0.0
  0
LINE
  5
9E
100
AcDbEntity
  8
0
  6
CONTINUOUS
 62
               7
100
AcDbLine
 10
19.999999999999957
 20
-19.000000026713579
 30
0.0
 11
19.999999999999957
 21
18.999999973286421
 31
0.0
  0
LINE
  5
9F
100
AcDbEntity
  8
0
  6
CONTINUOUS
 62
               7
100
AcDbLine
 10
-20.000000000000043
 20
18.999999973286421
 30
0.0
 11
-20.000000000000043
 21
-19.000000026713579
 31
0.0
  0
LINE
  5
A0
100
AcDbEntity
  8
0
  6
CONTINUOUS
 62
               7
100
AcDbLine
 10
18.999999999999957
 20
-20.000000026713579
 30
0.0
 11
-19.000000000000043
 21
-20.000000026713579
 31
0.0
  0
LINE
  5
A1
100
AcDbEntity
  8
0
  6
CONTINUOUS
 62
               7
100
AcDbLine
 10
18.999999999999957
 20
19.999999973286421
 30
0.0
 11
-19.000000000000043
 21
19.999999973286421
 31
0.0
  0
ARC
  5
A2
100
AcDbEntity
  8
0
  6
CONTINUOUS
 62
               7
100
AcDbCircle
 10
18.999999999999957
 20
18.999999973286421
 30
0.0
 40
1.0
100
AcDbArc
 50
0.0
 51
90.0
  0
ARC
  5
A3
100
AcDbEntity
  8
0
  6
CONTINUOUS
 62
               7
100
AcDbCircle
 10
-19.000000000000043
 20
-19.000000026713579
 30
0.0
 40
1.0
100
AcDbArc
 50
180.0
 51
270.0
  0
ARC
  5
A4
100
AcDbEntity
  8
0
  6
CONTINUOUS
 62
               7
100
AcDbCircle
 10
18.999999999999957
 20
-19.000000026713579
 30
0.0
 40
1.0
100
AcDbArc
 50
270.0
 51
0.0
  0
ARC
  5
A5
100
AcDbEntity
  8
0
  6
CONTINUOUS
 62
               7
100
AcDbCircle
 10
-19.000000000000043
 20
18.999999973286421
 30
0.0
 40
1.0
100
AcDbArc
 50
90.0
 51
180.0
  0
LINE
  5
A6
100
AcDbEntity
  8
0
  6
CONTINUOUS
 62
               7
100
AcDbLine
 10
-24.699999987256334
 20
2.9999999732864211
 30
0.0
 11
-24.000000000000043
 21
2.9999999732864211
 31
0.0
  0
LINE
  5
A7
100
AcDbEntity
  8
0
  6
CONTINUOUS
 62
               7
100
AcDbLine
 10
-24.699999987256334
 20
-3.0000000267135789
 30
0.0
 11
-24.000000000000043
 21
-3.0000000267135789
 31
0.0
  0
LINE
  5
A8
100
AcDbEntity
  8
0
  6
CONTINUOUS
 62
               7
100
AcDbLine
 10
-24.699999987256334
 20
6.9999999732864211
 30
0.0
 11
-24.000000000000043
 21
6.9999999732864211
 31
0.0
  0
LINE
  5
A9
100
AcDbEntity
  8
0
  6
CONTINUOUS
 62
               7
100
AcDbLine
 10
-24.699999987256334
 20
-7.0000000267135789
 30
0.0
 11
-24.000000000000043
 21
-7.0000000267135789
 31
0.0
  0
LINE
  5
AA
100
AcDbEntity
  8
0
  6
CONTINUOUS
 62
               7
100
AcDbLine
 10
23.999999999999957
 20
6.9999999732864211
 30
0.0
 11
24.699999988901808
 21
6.9999999732864211
 31
0.0
  0
LINE
  5
AB
100
AcDbEntity
  8
0
  6
CONTINUOUS
 62
               7
100
AcDbLine
 10
23.999999999999957
 20
2.9999999732864211
 30
0.0
 11
24.699999988901808
 21
2.9999999732864211
 31
0.0
  0
LINE
  5
AC
100
AcDbEntity
  8
0
  6
CONTINUOUS
 62
               7
100
AcDbLine
 10
23.999999999999957
 20
-3.0000000267135789
 30
0.0
 11
24.699999988901808
 21
-3.0000000267135789
 31
0.0
  0
LINE
  5
AD
100
AcDbEntity
  8
0
  6
CONTINUOUS
 62
               7
100
AcDbLine
 10
23.999999999999957
 20
-7.0000000267135789
 30
0.0
 11
24.699999988901808
 21
-7.0000000267135789
 31
0.0
  0
ARC
  5
AE
100
AcDbEntity
  8
0
  6
CONTINUOUS
 62
               7
100
AcDbCircle
 10
11.775735931287159
 20
13.149999973286548
 30
0.0
 40
0.3000000000000007
100
AcDbArc
 50
315.00000000000409
 51
90.000000000003411
  0
ARC
  5
AF
100
AcDbEntity
  8
0
  6
CONTINUOUS
 62
               7
100
AcDbCircle
 10
9.2762946380906328
 20
13.149999973286398
 30
0.0
 40
0.3000000000000007
100
AcDbArc
 50
90.0
 51
215.00000000000026
  0
ARC
  5
B0
100
AcDbEntity
  8
0
  6
CONTINUOUS
 62
               7
100
AcDbCircle
 10
4.9757359312871614
 20
13.149999973286548
 30
0.0
 40
0.3000000000000007
100
AcDbArc
 50
315.00000000000409
 51
90.000000000003411
  0
ARC
  5
B1
100
AcDbEntity
  8
0
  6
CONTINUOUS
 62
               7
100
AcDbCircle
 10
2.4762946380906357
 20
13.149999973286398
 30
0.0
 40
0.3000000000000007
100
AcDbArc
 50
90.0
 51
215.00000000000026
  0
ARC
  5
B2
100
AcDbEntity
  8
0
  6
CONTINUOUS
 62
               7
100
AcDbCircle
 10
-1.8242640687128358
 20
13.149999973286548
 30
0.0
 40
0.3000000000000007
100
AcDbArc
 50
315.00000000000409
 51
90.000000000003411
  0
ARC
  5
B3
100
AcDbEntity
  8
0
  6
CONTINUOUS
 62
               7
100
AcDbCircle
 10
-4.3237053619093615
 20
13.149999973286398
 30
0.0
 40
0.3000000000000007
100
AcDbArc
 50
90.0
 51
215.00000000000026
  0
ARC
  5
B4
100
AcDbEntity
  8
0
  6
CONTINUOUS
 62
               7
100
AcDbCircle
 10
-11.123705361909359
 20
13.149999973286398
 30
0.0
 40
0.3000000000000007
100
AcDbArc
 50
90.0
 51
215.00000000000026
  0
ARC
  5
B5
100
AcDbEntity
  8
0
  6
CONTINUOUS
 62
               7
100
AcDbCircle
 10
-8.6242640687128329
 20
13.149999973286548
 30
0.0
 40
0.3000000000000007
100
AcDbArc
 50
315.00000000000409
 51
90.000000000003411
  0
CIRCLE
  5
B6
100
AcDbEntity
  8
0
  6
CONTINUOUS
 62
               7
100
AcDbCircle
 10
-7.1749773270519626
 20
4.5999999732864367
 30
0.0
 40
0.3999999999999986
  0
CIRCLE
  5
B7
100
AcDbEntity
  8
0
  6
CONTINUOUS
 62
               7
100
AcDbCircle
 10
-0.374977327052008
 20
4.5999999732864367
 30
0.0
 40
0.3999999999999986
  0
CIRCLE
  5
B8
100
AcDbEntity
  8
0
  6
CONTINUOUS
 62
               7
100
AcDbCircle
 10
6.4250226729480602
 20
4.5999999732864367
 30
0.0
 40
0.3999999999999986
  0
ARC
  5
B9
100
AcDbEntity
  8
0
  6
CONTINUOUS
 62
               7
100
AcDbCircle
 10
-11.775735931288054
 20
4.0499999732865248
 30
0.0
 40
0.3000000000000007
100
AcDbArc
 50
135.00000000000199
 51
270.00000000000006
  0
ARC
  5
BA
100
AcDbEntity
  8
0
  6
CONTINUOUS
 62
               7
100
AcDbCircle
 10
-11.175735931287974
 20
4.6499999732866044
 30
0.0
 40
0.3000000000000007
100
AcDbArc
 50
90.000000000005443
 51
134.9999999999998
  0
ARC
  5
BB
100
AcDbEntity
  8
0
  6
CONTINUOUS
 62
               7
100
AcDbCircle
 10
-9.6964191610174311
 20
4.6499999732867821
 30
0.0
 40
0.2999999999999996
100
AcDbArc
 50
34.99999999999838
 51
90.0
  0
ARC
  5
BC
100
AcDbEntity
  8
0
  6
CONTINUOUS
 62
               7
100
AcDbCircle
 10
-9.2762946380915281
 20
4.0499999732866527
 30
0.0
 40
0.3000000000000007
100
AcDbArc
 50
270.00000000000341
 51
35.000000000000213
  0
ARC
  5
BD
100
AcDbEntity
  8
0
  6
CONTINUOUS
 62
               7
100
AcDbCircle
 10
-11.934917179806988
 20
7.8724550684715808
 30
0.0
 40
0.3000000000000007
100
AcDbArc
 50
45.0
 51
135.0
  0
ARC
  5
BE
100
AcDbEntity
  8
0
  6
CONTINUOUS
 62
               7
100
AcDbCircle
 10
-11.692130598424868
 20
7.6296684870894609
 30
0.0
 40
0.300000000000006
100
AcDbArc
 50
354.99999999999534
 51
45.0000000000027
  0
ARC
  5
BF
100
AcDbEntity
  8
0
  6
CONTINUOUS
 62
               7
100
AcDbCircle
 10
-11.869266339443996
 20
5.6049977025544564
 30
0.0
 40
0.300000000000001
100
AcDbArc
 50
314.99999999999812
 51
354.99999999999545
  0
ARC
  5
C0
100
AcDbEntity
  8
0
  6
CONTINUOUS
 62
               7
100
AcDbCircle
 10
-12.529304060019953
 20
4.9449599819784851
 30
0.0
 40
0.2999999999999954
100
AcDbArc
 50
174.99999999999523
 51
315.00000000000006
  0
ARC
  5
C1
100
AcDbEntity
  8
0
  6
CONTINUOUS
 62
               7
100
AcDbCircle
 10
-12.305613119787083
 20
7.5017591284914857
 30
0.0
 40
0.3000000000000007
100
AcDbArc
 50
134.99999999999994
 51
174.99999999999528
  0
ARC
  5
C2
100
AcDbEntity
  8
0
  6
CONTINUOUS
 62
               7
100
AcDbCircle
 10
-9.6242640687126055
 20
8.8999999732864268
 30
0.0
 40
0.3
100
AcDbArc
 50
44.999999999994252
 51
90.0
  0
ARC
  5
C3
100
AcDbEntity
  8
0
  6
CONTINUOUS
 62
               7
100
AcDbCircle
 10
-9.3492640687125146
 20
8.6249999732863643
 30
0.0
 40
0.3000000000000013
100
AcDbArc
 50
314.99999999999619
 51
45.000000000004583
  0
ARC
  5
C4
100
AcDbEntity
  8
0
  6
CONTINUOUS
 62
               7
100
AcDbCircle
 10
-9.6742640687124748
 20
8.2999999732864183
 30
0.0
 40
0.3000000000000007
100
AcDbArc
 50
270.00000000001091
 51
314.99999999999977
  0
ARC
  5
C5
100
AcDbEntity
  8
0
  6
CONTINUOUS
 62
               7
100
AcDbCircle
 10
-10.775735931288622
 20
8.2999999732863188
 30
0.0
 40
0.3
100
AcDbArc
 50
225.0
 51
270.0
  0
ARC
  5
C6
100
AcDbEntity
  8
0
  6
CONTINUOUS
 62
               7
100
AcDbCircle
 10
-11.050735931288713
 20
8.5749999732864097
 30
0.0
 40
0.3000000000000013
100
AcDbArc
 50
134.99999999999994
 51
224.99999999999923
  0
ARC
  5
C7
100
AcDbEntity
  8
0
  6
CONTINUOUS
 62
               7
100
AcDbCircle
 10
-10.725735931288725
 20
8.8999999732864268
 30
0.0
 40
0.3000000000000007
100
AcDbArc
 50
90.0
 51
134.99999999999974
  0
ARC
  5
C8
100
AcDbEntity
  8
0
  6
CONTINUOUS
 62
               7
100
AcDbCircle
 10
-8.5288255375501336
 20
7.8724550684715808
 30
0.0
 40
0.3000000000000013
100
AcDbArc
 50
45.000000000003361
 51
134.99999999999974
  0
ARC
  5
C9
100
AcDbEntity
  8
0
  6
CONTINUOUS
 62
               7
100
AcDbCircle
 10
-8.2860389561679852
 20
7.6296684870894609
 30
0.0
 40
0.300000000000006
100
AcDbArc
 50
354.99999999999511
 51
45.000000000000455
  0
ARC
  5
CA
100
AcDbEntity
  8
0
  6
CONTINUOUS
 62
               7
100
AcDbCircle
 10
-8.5176248308780913
 20
4.9826298265747084
 30
0.0
 40
0.3000000000000004
100
AcDbArc
 50
214.99999999998639
 51
354.99999999999523
  0
ARC
  5
CB
100
AcDbEntity
  8
0
  6
CONTINUOUS
 62
               7
100
AcDbCircle
 10
-9.0530207480122584
 20
5.7472544384479676
 30
0.0
 40
0.2999999999999954
100
AcDbArc
 50
174.99999999999511
 51
214.99999999999019
  0
ARC
  5
CC
100
AcDbEntity
  8
0
  6
CONTINUOUS
 62
               7
100
AcDbCircle
 10
-8.8995214775302571
 20
7.5017591284914857
 30
0.0
 40
0.3000000000000007
100
AcDbArc
 50
134.99999999999974
 51
174.99999999999511
  0
ARC
  5
CD
100
AcDbEntity
  8
0
  6
CONTINUOUS
 62
               7
100
AcDbCircle
 10
-7.8811734285032031
 20
12.257302643876685
 30
0.0
 40
0.300000000000006
100
AcDbArc
 50
354.99999999999881
 51
134.99999999999955
  0
ARC
  5
CE
100
AcDbEntity
  8
0
  6
CONTINUOUS
 62
               7
100
AcDbCircle
 10
-8.1048643687359885
 20
9.7005034973636981
 30
0.0
 40
0.3000000000000013
100
AcDbArc
 50
314.99999999999619
 51
354.99999999999523
  0
ARC
  5
CF
100
AcDbEntity
  8
0
  6
CONTINUOUS
 62
               7
100
AcDbCircle
 10
-8.475560308716112
 20
9.329807557383603
 30
0.0
 40
0.3000000000000007
100
AcDbArc
 50
225.0
 51
314.99999999999977
  0
ARC
  5
D0
100
AcDbEntity
  8
0
  6
CONTINUOUS
 62
               7
100
AcDbCircle
 10
-8.7183468900982604
 20
9.572594138765723
 30
0.0
 40
0.300000000000006
100
AcDbArc
 50
174.99999999999238
 51
224.99999999999949
  0
ARC
  5
D1
100
AcDbEntity
  8
0
  6
CONTINUOUS
 62
               7
100
AcDbCircle
 10
-8.5412111490791318
 20
11.597264923300742
 30
0.0
 40
0.300000000000002
100
AcDbArc
 50
135.00000000000045
 51
174.99999999999531
  0
ARC
  5
D2
100
AcDbEntity
  8
0
  6
CONTINUOUS
 62
               7
100
AcDbCircle
 10
-11.346979251988628
 20
11.452745508125091
 30
0.0
 40
0.300000000000006
100
AcDbArc
 50
354.99999999999267
 51
34.999999999990294
  0
ARC
  5
D3
100
AcDbEntity
  8
0
  6
CONTINUOUS
 62
               7
100
AcDbCircle
 10
-11.500280563684257
 20
9.7005034973636981
 30
0.0
 40
0.3000000000000007
100
AcDbArc
 50
315.00000000000193
 51
354.99999999999494
  0
ARC
  5
D4
100
AcDbEntity
  8
0
  6
CONTINUOUS
 62
               7
100
AcDbCircle
 10
-11.87097650366438
 20
9.329807557383603
 30
0.0
 40
0.3000000000000007
100
AcDbArc
 50
225.0
 51
314.99999999999977
  0
ARC
  5
D5
100
AcDbEntity
  8
0
  6
CONTINUOUS
 62
               7
100
AcDbCircle
 10
-12.1137630850465
 20
9.5725941387657514
 30
0.0
 40
0.299999999999999
100
AcDbArc
 50
174.99999999999787
 51
224.99999999999909
  0
ARC
  5
D6
100
AcDbEntity
  8
0
  6
CONTINUOUS
 62
               7
100
AcDbCircle
 10
-11.882375169122767
 20
12.217370119998336
 30
0.0
 40
0.2999999999999996
100
AcDbArc
 50
34.999999999990493
 51
174.99999999999528
  0
ARC
  5
D7
100
AcDbEntity
  8
0
  6
CONTINUOUS
 62
               7
100
AcDbCircle
 10
-9.2242640687128841
 20
12.549999973286468
 30
0.0
 40
0.3000000000000007
100
AcDbArc
 50
270.0
 51
315.00000000000045
  0
ARC
  5
D8
100
AcDbEntity
  8
0
  6
CONTINUOUS
 62
               7
100
AcDbCircle
 10
-10.703580838983456
 20
12.549999973286262
 30
0.0
 40
0.3000000000000008
100
AcDbArc
 50
214.99999999999926
 51
270.0000000000075
  0
LINE
  5
D9
100
AcDbEntity
  8
0
  6
CONTINUOUS
 62
               7
100
AcDbLine
 10
-11.775735931288054
 20
3.7499999732865206
 30
0.0
 11
-9.2762946380915281
 21
3.7499999732866556
 31
0.0
  0
LINE
  5
DA
100
AcDbEntity
  8
0
  6
CONTINUOUS
 62
               7
100
AcDbLine
 10
-11.387867965643935
 20
4.8621320076425647
 30
0.0
 11
-11.987867965644043
 21
4.2621320076424709
 31
0.0
  0
LINE
  5
DB
100
AcDbEntity
  8
0
  6
CONTINUOUS
 62
               7
100
AcDbLine
 10
-9.6964191610174311
 20
4.9499999732867863
 30
0.0
 11
-11.175735931288003
 21
4.9499999732866158
 31
0.0
  0
LINE
  5
DC
100
AcDbEntity
  8
0
  6
CONTINUOUS
 62
               7
100
AcDbLine
 10
-9.0305490248048415
 20
4.2220729041919753
 30
0.0
 11
-9.4506735477307444
 21
4.8220729041920904
 31
0.0
  0
LINE
  5
DD
100
AcDbEntity
  8
0
  6
CONTINUOUS
 62
               7
100
AcDbLine
 10
-11.479998564068907
 20
7.8418005214454283
 30
0.0
 11
-11.722785145451027
 21
8.0845871028275411
 31
0.0
  0
LINE
  5
DE
100
AcDbEntity
  8
0
  6
CONTINUOUS
 62
               7
100
AcDbLine
 10
-11.570407930016486
 20
5.5788509797301344
 30
0.0
 11
-11.393272188997358
 21
7.6035217642651389
 31
0.0
  0
LINE
  5
DF
100
AcDbEntity
  8
0
  6
CONTINUOUS
 62
               7
100
AcDbLine
 10
-12.317172025663993
 20
4.7328279476225248
 30
0.0
 11
-11.657134305088036
 21
5.3928656681984819
 31
0.0
  0
LINE
  5
E0
100
AcDbEntity
  8
0
  6
CONTINUOUS
 62
               7
100
AcDbLine
 10
-12.604471529214592
 20
7.5279058513158077
 30
0.0
 11
-12.828162469447463
 21
4.9711067048027999
 31
0.0
  0
LINE
  5
E1
100
AcDbEntity
  8
0
  6
CONTINUOUS
 62
               7
100
AcDbLine
 10
-12.147049214162948
 20
8.0845871028275411
 30
0.0
 11
-12.517745154143043
 21
7.713891162847446
 31
0.0
  0
LINE
  5
E2
100
AcDbEntity
  8
0
  6
CONTINUOUS
 62
               7
100
AcDbLine
 10
-9.1371320343565543
 20
8.8371320076423316
 30
0.0
 11
-9.4121320343565884
 21
9.1121320076423729
 31
0.0
  0
LINE
  5
E3
100
AcDbEntity
  8
0
  6
CONTINUOUS
 62
               7
100
AcDbLine
 10
-9.4621320343565429
 20
8.0878679389304509
 30
0.0
 11
-9.1371320343565543
 21
8.412867938930404
 31
0.0
  0
LINE
  5
E4
100
AcDbEntity
  8
0
  6
CONTINUOUS
 62
               7
100
AcDbLine
 10
-10.775735931288622
 20
7.9999999732863145
 30
0.0
 11
-9.674264068712418
 21
7.9999999732864211
 31
0.0
  0
LINE
  5
E5
100
AcDbEntity
  8
0
  6
CONTINUOUS
 62
               7
100
AcDbLine
 10
-11.262867965644674
 20
8.3628679389304494
 30
0.0
 11
-10.987867965644583
 21
8.0878679389303585
 31
0.0
  0
LINE
  5
E6
100
AcDbEntity
  8
0
  6
CONTINUOUS
 62
               7
100
AcDbLine
 10
-10.937867965644656
 20
9.1121320076423942
 30
0.0
 11
-11.262867965644674
 21
8.78713200764237
 31
0.0
  0
LINE
  5
E7
100
AcDbEntity
  8
0
  6
CONTINUOUS
 62
               7
100
AcDbLine
 10
-9.6242640687126055
 20
9.1999999732864097
 30
0.0
 11
-10.725735931288725
 21
9.1999999732864097
 31
0.0
  0
LINE
  5
E8
100
AcDbEntity
  8
0
  6
CONTINUOUS
 62
               7
100
AcDbLine
 10
-8.7409575719060939
 20
8.0845871028275482
 30
0.0
 11
-9.1116535118862174
 21
7.7138911628474531
 31
0.0
  0
LINE
  5
E9
100
AcDbEntity
  8
0
  6
CONTINUOUS
 62
               7
100
AcDbLine
 10
-8.073906921812025
 20
7.8418005214454354
 30
0.0
 11
-8.3166935031941733
 21
8.0845871028275553
 31
0.0
  0
LINE
  5
EA
100
AcDbEntity
  8
0
  6
CONTINUOUS
 62
               7
100
AcDbLine
 10
-8.2187664214505816
 20
4.9564831037503936
 30
0.0
 11
-7.9871805467404755
 21
7.6035217642651389
 31
0.0
  0
LINE
  5
EB
100
AcDbEntity
  8
0
  6
CONTINUOUS
 62
               7
100
AcDbLine
 10
-9.2987663612989735
 20
5.5751815075426947
 30
0.0
 11
-8.7633704441648632
 21
4.8105568956694569
 31
0.0
  0
LINE
  5
EC
100
AcDbEntity
  8
0
  6
CONTINUOUS
 62
               7
100
AcDbLine
 10
-9.1983798869577669
 20
7.5279058513158077
 30
0.0
 11
-9.3518791574397682
 21
5.7734011612722895
 31
0.0
  0
LINE
  5
ED
100
AcDbEntity
  8
0
  6
CONTINUOUS
 62
               7
100
AcDbLine
 10
-8.0933054628591634
 20
12.469434678232659
 30
0.0
 11
-8.7533431834350921
 21
11.809396957656709
 31
0.0
  0
LINE
  5
EE
100
AcDbEntity
  8
0
  6
CONTINUOUS
 62
               7
100
AcDbLine
 10
-7.8060059593084787
 20
9.6743567745393761
 30
0.0
 11
-7.582315019075665
 21
12.231155921052384
 31
0.0
  0
LINE
  5
EF
100
AcDbEntity
  8
0
  6
CONTINUOUS
 62
               7
100
AcDbLine
 10
-8.2634282743601517
 20
9.1176755230276356
 30
0.0
 11
-7.892732334380085
 21
9.4883714630077378
 31
0.0
  0
LINE
  5
F0
100
AcDbEntity
  8
0
  6
CONTINUOUS
 62
               7
100
AcDbLine
 10
-8.9304789244542206
 20
9.3604621044097556
 30
0.0
 11
-8.6876923430721007
 21
9.1176755230276427
 31
0.0
  0
LINE
  5
F1
100
AcDbEntity
  8
0
  6
CONTINUOUS
 62
               7
100
AcDbLine
 10
-8.8400695585066416
 20
11.623411646125064
 30
0.0
 11
-9.0172052995257417
 21
9.5987408615900591
 31
0.0
  0
LINE
  5
F2
100
AcDbEntity
  8
0
  6
CONTINUOUS
 62
               7
100
AcDbLine
 10
-11.101233638701885
 20
11.624818439030363
 30
0.0
 11
-11.636629555836024
 21
12.389443050903616
 31
0.0
  0
LINE
  5
F3
100
AcDbEntity
  8
0
  6
CONTINUOUS
 62
               7
100
AcDbLine
 10
-11.201422154256747
 20
9.6743567745393761
 30
0.0
 11
-11.04812084256109
 21
11.426598785300754
 31
0.0
  0
LINE
  5
F4
100
AcDbEntity
  8
0
  6
CONTINUOUS
 62
               7
100
AcDbLine
 10
-11.658844469308391
 20
9.1176755230276356
 30
0.0
 11
-11.288148529328296
 21
9.4883714630077378
 31
0.0
  0
LINE
  5
F5
100
AcDbEntity
  8
0
  6
CONTINUOUS
 62
               7
100
AcDbLine
 10
-12.32589511940246
 20
9.3604621044097911
 30
0.0
 11
-12.083108538020312
 21
9.1176755230276427
 31
0.0
  0
LINE
  5
F6
100
AcDbEntity
  8
0
  6
CONTINUOUS
 62
               7
100
AcDbLine
 10
-12.181233578550277
 20
12.243516842822658
 30
0.0
 11
-12.41262149447401
 21
9.5987408615900591
 31
0.0
  0
LINE
  5
F7
100
AcDbEntity
  8
0
  6
CONTINUOUS
 62
               7
100
AcDbLine
 10
-9.0121320343569238
 20
12.337867938930501
 30
0.0
 11
-8.4121320343568158
 21
12.937867938930587
 31
0.0
  0
LINE
  5
F8
100
AcDbEntity
  8
0
  6
CONTINUOUS
 62
               7
100
AcDbLine
 10
-10.703580838983427
 20
12.249999973286258
 30
0.0
 11
-9.2242640687128841
 21
12.249999973286457
 31
0.0
  0
LINE
  5
F9
100
AcDbEntity
  8
0
  6
CONTINUOUS
 62
               7
100
AcDbLine
 10
-11.369450975196045
 20
12.977927042381083
 30
0.0
 11
-10.949326452270142
 21
12.377927042380961
 31
0.0
  0
LINE
  5
FA
100
AcDbEntity
  8
0
  6
CONTINUOUS
 62
               7
100
AcDbLine
 10
-4.5694509751960481
 20
12.977927042381083
 30
0.0
 11
-4.1493264522701452
 21
12.377927042380961
 31
0.0
  0
LINE
  5
FB
100
AcDbEntity
  8
0
  6
CONTINUOUS
 62
               7
100
AcDbLine
 10
-3.9035808389834301
 20
12.249999973286258
 30
0.0
 11
-2.4242640687128869
 21
12.249999973286457
 31
0.0
  0
LINE
  5
FC
100
AcDbEntity
  8
0
  6
CONTINUOUS
 62
               7
100
AcDbLine
 10
-2.2121320343569266
 20
12.337867938930501
 30
0.0
 11
-1.6121320343568186
 21
12.937867938930587
 31
0.0
  0
LINE
  5
FD
100
AcDbEntity
  8
0
  6
CONTINUOUS
 62
               7
100
AcDbLine
 10
-5.3812335785502796
 20
12.243516842822658
 30
0.0
 11
-5.6126214944740127
 21
9.5987408615900591
 31
0.0
  0
LINE
  5
FE
100
AcDbEntity
  8
0
  6
CONTINUOUS
 62
               7
100
AcDbLine
 10
-5.5258951194024633
 20
9.3604621044097911
 30
0.0
 11
-5.2831085380203149
 21
9.1176755230276427
 31
0.0
  0
LINE
  5
FF
100
AcDbEntity
  8
0
  6
CONTINUOUS
 62
               7
100
AcDbLine
 10
-4.8588444693083943
 20
9.1176755230276356
 30
0.0
 11
-4.4881485293282992
 21
9.4883714630077378
 31
0.0
  0
LINE
  5
100
100
AcDbEntity
  8
0
  6
CONTINUOUS
 62
               7
100
AcDbLine
 10
-4.4014221542567498
 20
9.6743567745393761
 30
0.0
 11
-4.248120842561093
 21
11.426598785300754
 31
0.0
  0
LINE
  5
101
100
AcDbEntity
  8
0
  6
CONTINUOUS
 62
               7
100
AcDbLine
 10
-4.3012336387018877
 20
11.624818439030363
 30
0.0
 11
-4.8366295558360264
 21
12.389443050903616
 31
0.0
  0
LINE
  5
102
100
AcDbEntity
  8
0
  6
CONTINUOUS
 62
               7
100
AcDbLine
 10
-2.0400695585066444
 20
11.623411646125064
 30
0.0
 11
-2.2172052995257445
 21
9.5987408615900591
 31
0.0
  0
LINE
  5
103
100
AcDbEntity
  8
0
  6
CONTINUOUS
 62
               7
100
AcDbLine
 10
-2.1304789244542235
 20
9.3604621044097556
 30
0.0
 11
-1.8876923430721035
 21
9.1176755230276427
 31
0.0
  0
LINE
  5
104
100
AcDbEntity
  8
0
  6
CONTINUOUS
 62
               7
100
AcDbLine
 10
-1.4634282743601545
 20
9.1176755230276356
 30
0.0
 11
-1.0927323343800879
 21
9.4883714630077378
 31
0.0
  0
LINE
  5
105
100
AcDbEntity
  8
0
  6
CONTINUOUS
 62
               7
100
AcDbLine
 10
-1.0060059593084816
 20
9.6743567745393761
 30
0.0
 11
-0.7823150190756678
 21
12.231155921052384
 31
0.0
  0
LINE
  5
106
100
AcDbEntity
  8
0
  6
CONTINUOUS
 62
               7
100
AcDbLine
 10
-1.2933054628591663
 20
12.469434678232659
 30
0.0
 11
-1.9533431834350949
 21
11.809396957656709
 31
0.0
  0
LINE
  5
107
100
AcDbEntity
  8
0
  6
CONTINUOUS
 62
               7
100
AcDbLine
 10
-2.3983798869577697
 20
7.5279058513158077
 30
0.0
 11
-2.551879157439771
 21
5.7734011612722895
 31
0.0
  0
LINE
  5
108
100
AcDbEntity
  8
0
  6
CONTINUOUS
 62
               7
100
AcDbLine
 10
-2.4987663612989763
 20
5.5751815075426947
 30
0.0
 11
-1.9633704441648661
 21
4.8105568956694569
 31
0.0
  0
LINE
  5
109
100
AcDbEntity
  8
0
  6
CONTINUOUS
 62
               7
100
AcDbLine
 10
-1.4187664214505844
 20
4.9564831037503936
 30
0.0
 11
-1.1871805467404783
 21
7.6035217642651389
 31
0.0
  0
LINE
  5
10A
100
AcDbEntity
  8
0
  6
CONTINUOUS
 62
               7
100
AcDbLine
 10
-1.2739069218120278
 20
7.8418005214454354
 30
0.0
 11
-1.5166935031941762
 21
8.0845871028275553
 31
0.0
  0
LINE
  5
10B
100
AcDbEntity
  8
0
  6
CONTINUOUS
 62
               7
100
AcDbLine
 10
-1.9409575719060967
 20
8.0845871028275482
 30
0.0
 11
-2.3116535118862203
 21
7.7138911628474531
 31
0.0
  0
LINE
  5
10C
100
AcDbEntity
  8
0
  6
CONTINUOUS
 62
               7
100
AcDbLine
 10
-2.8242640687126084
 20
9.1999999732864097
 30
0.0
 11
-3.9257359312887274
 21
9.1999999732864097
 31
0.0
  0
LINE
  5
10D
100
AcDbEntity
  8
0
  6
CONTINUOUS
 62
               7
100
AcDbLine
 10
-4.1378679656446593
 20
9.1121320076423942
 30
0.0
 11
-4.4628679656446764
 21
8.78713200764237
 31
0.0
  0
LINE
  5
10E
100
AcDbEntity
  8
0
  6
CONTINUOUS
 62
               7
100
AcDbLine
 10
-4.4628679656446764
 20
8.3628679389304494
 30
0.0
 11
-4.1878679656445854
 21
8.0878679389303585
 31
0.0
  0
LINE
  5
10F
100
AcDbEntity
  8
0
  6
CONTINUOUS
 62
               7
100
AcDbLine
 10
-3.9757359312886251
 20
7.9999999732863145
 30
0.0
 11
-2.8742640687124208
 21
7.9999999732864211
 31
0.0
  0
LINE
  5
110
100
AcDbEntity
  8
0
  6
CONTINUOUS
 62
               7
100
AcDbLine
 10
-2.6621320343565458
 20
8.0878679389304509
 30
0.0
 11
-2.3371320343565571
 21
8.412867938930404
 31
0.0
  0
LINE
  5
111
100
AcDbEntity
  8
0
  6
CONTINUOUS
 62
               7
100
AcDbLine
 10
-2.3371320343565571
 20
8.8371320076423316
 30
0.0
 11
-2.6121320343565912
 21
9.1121320076423729
 31
0.0
  0
LINE
  5
112
100
AcDbEntity
  8
0
  6
CONTINUOUS
 62
               7
100
AcDbLine
 10
-5.3470492141629506
 20
8.0845871028275411
 30
0.0
 11
-5.7177451541430457
 21
7.713891162847446
 31
0.0
  0
LINE
  5
113
100
AcDbEntity
  8
0
  6
CONTINUOUS
 62
               7
100
AcDbLine
 10
-5.8044715292145952
 20
7.5279058513158077
 30
0.0
 11
-6.0281624694474658
 21
4.9711067048027999
 31
0.0
  0
LINE
  5
114
100
AcDbEntity
  8
0
  6
CONTINUOUS
 62
               7
100
AcDbLine
 10
-5.5171720256639958
 20
4.7328279476225248
 30
0.0
 11
-4.8571343050880387
 21
5.3928656681984819
 31
0.0
  0
LINE
  5
115
100
AcDbEntity
  8
0
  6
CONTINUOUS
 62
               7
100
AcDbLine
 10
-4.7704079300164892
 20
5.5788509797301344
 30
0.0
 11
-4.5932721889973607
 21
7.6035217642651389
 31
0.0
  0
LINE
  5
116
100
AcDbEntity
  8
0
  6
CONTINUOUS
 62
               7
100
AcDbLine
 10
-4.6799985640689101
 20
7.8418005214454283
 30
0.0
 11
-4.9227851454510301
 21
8.0845871028275411
 31
0.0
  0
LINE
  5
117
100
AcDbEntity
  8
0
  6
CONTINUOUS
 62
               7
100
AcDbLine
 10
-2.2305490248048443
 20
4.2220729041919753
 30
0.0
 11
-2.6506735477307473
 21
4.8220729041920904
 31
0.0
  0
LINE
  5
118
100
AcDbEntity
  8
0
  6
CONTINUOUS
 62
               7
100
AcDbLine
 10
-2.8964191610174339
 20
4.9499999732867863
 30
0.0
 11
-4.3757359312880055
 21
4.9499999732866158
 31
0.0
  0
LINE
  5
119
100
AcDbEntity
  8
0
  6
CONTINUOUS
 62
               7
100
AcDbLine
 10
-4.5878679656439374
 20
4.8621320076425647
 30
0.0
 11
-5.1878679656440454
 21
4.2621320076424709
 31
0.0
  0
LINE
  5
11A
100
AcDbEntity
  8
0
  6
CONTINUOUS
 62
               7
100
AcDbLine
 10
-4.9757359312880567
 20
3.7499999732865206
 30
0.0
 11
-2.4762946380915309
 21
3.7499999732866556
 31
0.0
  0
ARC
  5
11B
100
AcDbEntity
  8
0
  6
CONTINUOUS
 62
               7
100
AcDbCircle
 10
-3.9035808389834585
 20
12.549999973286262
 30
0.0
 40
0.3000000000000008
100
AcDbArc
 50
214.99999999999926
 51
270.0000000000075
  0
ARC
  5
11C
100
AcDbEntity
  8
0
  6
CONTINUOUS
 62
               7
100
AcDbCircle
 10
-2.4242640687128869
 20
12.549999973286468
 30
0.0
 40
0.3000000000000007
100
AcDbArc
 50
270.0
 51
315.00000000000045
  0
ARC
  5
11D
100
AcDbEntity
  8
0
  6
CONTINUOUS
 62
               7
100
AcDbCircle
 10
-5.0823751691227699
 20
12.217370119998336
 30
0.0
 40
0.2999999999999996
100
AcDbArc
 50
34.999999999990493
 51
174.99999999999528
  0
ARC
  5
11E
100
AcDbEntity
  8
0
  6
CONTINUOUS
 62
               7
100
AcDbCircle
 10
-5.313763085046503
 20
9.5725941387657514
 30
0.0
 40
0.299999999999999
100
AcDbArc
 50
174.99999999999787
 51
224.99999999999909
  0
ARC
  5
11F
100
AcDbEntity
  8
0
  6
CONTINUOUS
 62
               7
100
AcDbCircle
 10
-5.070976503664383
 20
9.329807557383603
 30
0.0
 40
0.3000000000000007
100
AcDbArc
 50
225.0
 51
314.99999999999977
  0
ARC
  5
120
100
AcDbEntity
  8
0
  6
CONTINUOUS
 62
               7
100
AcDbCircle
 10
-4.7002805636842595
 20
9.7005034973636981
 30
0.0
 40
0.3000000000000007
100
AcDbArc
 50
315.00000000000193
 51
354.99999999999494
  0
ARC
  5
121
100
AcDbEntity
  8
0
  6
CONTINUOUS
 62
               7
100
AcDbCircle
 10
-4.5469792519886312
 20
11.452745508125091
 30
0.0
 40
0.300000000000006
100
AcDbArc
 50
354.99999999999267
 51
34.999999999990294
  0
ARC
  5
122
100
AcDbEntity
  8
0
  6
CONTINUOUS
 62
               7
100
AcDbCircle
 10
-1.7412111490791347
 20
11.597264923300742
 30
0.0
 40
0.300000000000002
100
AcDbArc
 50
135.00000000000045
 51
174.99999999999531
  0
ARC
  5
123
100
AcDbEntity
  8
0
  6
CONTINUOUS
 62
               7
100
AcDbCircle
 10
-1.9183468900982632
 20
9.572594138765723
 30
0.0
 40
0.300000000000006
100
AcDbArc
 50
174.99999999999238
 51
224.99999999999949
  0
ARC
  5
124
100
AcDbEntity
  8
0
  6
CONTINUOUS
 62
               7
100
AcDbCircle
 10
-1.6755603087161148
 20
9.329807557383603
 30
0.0
 40
0.3000000000000007
100
AcDbArc
 50
225.0
 51
314.99999999999977
  0
ARC
  5
125
100
AcDbEntity
  8
0
  6
CONTINUOUS
 62
               7
100
AcDbCircle
 10
-1.3048643687359913
 20
9.7005034973636981
 30
0.0
 40
0.3000000000000013
100
AcDbArc
 50
314.99999999999619
 51
354.99999999999523
  0
ARC
  5
126
100
AcDbEntity
  8
0
  6
CONTINUOUS
 62
               7
100
AcDbCircle
 10
-1.081173428503206
 20
12.257302643876685
 30
0.0
 40
0.300000000000006
100
AcDbArc
 50
354.99999999999881
 51
134.99999999999955
  0
ARC
  5
127
100
AcDbEntity
  8
0
  6
CONTINUOUS
 62
               7
100
AcDbCircle
 10
-2.09952147753026
 20
7.5017591284914857
 30
0.0
 40
0.3000000000000007
100
AcDbArc
 50
134.99999999999974
 51
174.99999999999511
  0
ARC
  5
128
100
AcDbEntity
  8
0
  6
CONTINUOUS
 62
               7
100
AcDbCircle
 10
-2.2530207480122613
 20
5.7472544384479676
 30
0.0
 40
0.2999999999999954
100
AcDbArc
 50
174.99999999999511
 51
214.99999999999019
  0
ARC
  5
129
100
AcDbEntity
  8
0
  6
CONTINUOUS
 62
               7
100
AcDbCircle
 10
-1.7176248308780941
 20
4.9826298265747084
 30
0.0
 40
0.3000000000000004
100
AcDbArc
 50
214.99999999998639
 51
354.99999999999523
  0
ARC
  5
12A
100
AcDbEntity
  8
0
  6
CONTINUOUS
 62
               7
100
AcDbCircle
 10
-1.4860389561679881
 20
7.6296684870894609
 30
0.0
 40
0.300000000000006
100
AcDbArc
 50
354.99999999999511
 51
45.000000000000455
  0
ARC
  5
12B
100
AcDbEntity
  8
0
  6
CONTINUOUS
 62
               7
100
AcDbCircle
 10
-1.7288255375501365
 20
7.8724550684715808
 30
0.0
 40
0.3000000000000013
100
AcDbArc
 50
45.000000000003361
 51
134.99999999999974
  0
ARC
  5
12C
100
AcDbEntity
  8
0
  6
CONTINUOUS
 62
               7
100
AcDbCircle
 10
-3.9257359312887274
 20
8.8999999732864268
 30
0.0
 40
0.3000000000000007
100
AcDbArc
 50
90.0
 51
134.99999999999974
  0
ARC
  5
12D
100
AcDbEntity
  8
0
  6
CONTINUOUS
 62
               7
100
AcDbCircle
 10
-4.2507359312887161
 20
8.5749999732864097
 30
0.0
 40
0.3000000000000013
100
AcDbArc
 50
134.99999999999994
 51
224.99999999999923
  0
ARC
  5
12E
100
AcDbEntity
  8
0
  6
CONTINUOUS
 62
               7
100
AcDbCircle
 10
-3.9757359312886251
 20
8.2999999732863188
 30
0.0
 40
0.3
100
AcDbArc
 50
225.0
 51
270.0
  0
ARC
  5
12F
100
AcDbEntity
  8
0
  6
CONTINUOUS
 62
               7
100
AcDbCircle
 10
-2.8742640687124776
 20
8.2999999732864183
 30
0.0
 40
0.3000000000000007
100
AcDbArc
 50
270.00000000001091
 51
314.99999999999977
  0
ARC
  5
130
100
AcDbEntity
  8
0
  6
CONTINUOUS
 62
               7
100
AcDbCircle
 10
-2.5492640687125174
 20
8.6249999732863643
 30
0.0
 40
0.3000000000000013
100
AcDbArc
 50
314.99999999999619
 51
45.000000000004583
  0
ARC
  5
131
100
AcDbEntity
  8
0
  6
CONTINUOUS
 62
               7
100
AcDbCircle
 10
-2.8242640687126084
 20
8.8999999732864268
 30
0.0
 40
0.3
100
AcDbArc
 50
44.999999999994252
 51
90.0
  0
ARC
  5
132
100
AcDbEntity
  8
0
  6
CONTINUOUS
 62
               7
100
AcDbCircle
 10
-5.5056131197870855
 20
7.5017591284914857
 30
0.0
 40
0.3000000000000007
100
AcDbArc
 50
134.99999999999994
 51
174.99999999999528
  0
ARC
  5
133
100
AcDbEntity
  8
0
  6
CONTINUOUS
 62
               7
100
AcDbCircle
 10
-5.7293040600199561
 20
4.9449599819784851
 30
0.0
 40
0.2999999999999954
100
AcDbArc
 50
174.99999999999523
 51
315.00000000000006
  0
ARC
  5
134
100
AcDbEntity
  8
0
  6
CONTINUOUS
 62
               7
100
AcDbCircle
 10
-5.069266339443999
 20
5.6049977025544564
 30
0.0
 40
0.300000000000001
100
AcDbArc
 50
314.99999999999812
 51
354.99999999999545
  0
ARC
  5
135
100
AcDbEntity
  8
0
  6
CONTINUOUS
 62
               7
100
AcDbCircle
 10
-4.8921305984248704
 20
7.6296684870894609
 30
0.0
 40
0.300000000000006
100
AcDbArc
 50
354.99999999999534
 51
45.0000000000027
  0
ARC
  5
136
100
AcDbEntity
  8
0
  6
CONTINUOUS
 62
               7
100
AcDbCircle
 10
-5.1349171798069904
 20
7.8724550684715808
 30
0.0
 40
0.3000000000000007
100
AcDbArc
 50
45.0
 51
135.0
  0
ARC
  5
137
100
AcDbEntity
  8
0
  6
CONTINUOUS
 62
               7
100
AcDbCircle
 10
-2.4762946380915309
 20
4.0499999732866527
 30
0.0
 40
0.3000000000000007
100
AcDbArc
 50
270.00000000000341
 51
35.000000000000213
  0
ARC
  5
138
100
AcDbEntity
  8
0
  6
CONTINUOUS
 62
               7
100
AcDbCircle
 10
-2.8964191610174339
 20
4.6499999732867821
 30
0.0
 40
0.2999999999999996
100
AcDbArc
 50
34.99999999999838
 51
90.0
  0
ARC
  5
139
100
AcDbEntity
  8
0
  6
CONTINUOUS
 62
               7
100
AcDbCircle
 10
-4.3757359312879771
 20
4.6499999732866044
 30
0.0
 40
0.3000000000000007
100
AcDbArc
 50
90.000000000005443
 51
134.9999999999998
  0
ARC
  5
13A
100
AcDbEntity
  8
0
  6
CONTINUOUS
 62
               7
100
AcDbCircle
 10
-4.9757359312880567
 20
4.0499999732865248
 30
0.0
 40
0.3000000000000007
100
AcDbArc
 50
135.00000000000199
 51
270.00000000000006
  0
LINE
  5
13B
100
AcDbEntity
  8
0
  6
CONTINUOUS
 62
               7
100
AcDbLine
 10
2.230549024803949
 20
12.977927042381083
 30
0.0
 11
2.650673547729852
 21
12.377927042380961
 31
0.0
  0
LINE
  5
13C
100
AcDbEntity
  8
0
  6
CONTINUOUS
 62
               7
100
AcDbLine
 10
2.896419161016567
 20
12.249999973286258
 30
0.0
 11
4.3757359312871102
 21
12.249999973286457
 31
0.0
  0
LINE
  5
13D
100
AcDbEntity
  8
0
  6
CONTINUOUS
 62
               7
100
AcDbLine
 10
4.5878679656430705
 20
12.337867938930501
 30
0.0
 11
5.1878679656431785
 21
12.937867938930587
 31
0.0
  0
LINE
  5
13E
100
AcDbEntity
  8
0
  6
CONTINUOUS
 62
               7
100
AcDbLine
 10
1.4187664214497175
 20
12.243516842822658
 30
0.0
 11
1.1873785055259845
 21
9.5987408615900591
 31
0.0
  0
LINE
  5
13F
100
AcDbEntity
  8
0
  6
CONTINUOUS
 62
               7
100
AcDbLine
 10
1.2741048805975339
 20
9.3604621044097911
 30
0.0
 11
1.5168914619796823
 21
9.1176755230276427
 31
0.0
  0
LINE
  5
140
100
AcDbEntity
  8
0
  6
CONTINUOUS
 62
               7
100
AcDbLine
 10
1.9411555306916028
 20
9.1176755230276356
 30
0.0
 11
2.3118514706716979
 21
9.4883714630077378
 31
0.0
  0
LINE
  5
141
100
AcDbEntity
  8
0
  6
CONTINUOUS
 62
               7
100
AcDbLine
 10
2.3985778457432474
 20
9.6743567745393761
 30
0.0
 11
2.5518791574389041
 21
11.426598785300754
 31
0.0
  0
LINE
  5
142
100
AcDbEntity
  8
0
  6
CONTINUOUS
 62
               7
100
AcDbLine
 10
2.4987663612981095
 20
11.624818439030363
 30
0.0
 11
1.9633704441639708
 21
12.389443050903616
 31
0.0
  0
LINE
  5
143
100
AcDbEntity
  8
0
  6
CONTINUOUS
 62
               7
100
AcDbLine
 10
4.7599304414933528
 20
11.623411646125064
 30
0.0
 11
4.5827947004742526
 21
9.5987408615900591
 31
0.0
  0
LINE
  5
144
100
AcDbEntity
  8
0
  6
CONTINUOUS
 62
               7
100
AcDbLine
 10
4.6695210755457737
 20
9.3604621044097556
 30
0.0
 11
4.9123076569278936
 21
9.1176755230276427
 31
0.0
  0
LINE
  5
145
100
AcDbEntity
  8
0
  6
CONTINUOUS
 62
               7
100
AcDbLine
 10
5.3365717256398426
 20
9.1176755230276356
 30
0.0
 11
5.7072676656199093
 21
9.4883714630077378
 31
0.0
  0
LINE
  5
146
100
AcDbEntity
  8
0
  6
CONTINUOUS
 62
               7
100
AcDbLine
 10
5.7939940406915156
 20
9.6743567745393761
 30
0.0
 11
6.0176849809243294
 21
12.231155921052384
 31
0.0
  0
LINE
  5
147
100
AcDbEntity
  8
0
  6
CONTINUOUS
 62
               7
100
AcDbLine
 10
5.5066945371408309
 20
12.469434678232659
 30
0.0
 11
4.8466568165649022
 21
11.809396957656709
 31
0.0
  0
LINE
  5
148
100
AcDbEntity
  8
0
  6
CONTINUOUS
 62
               7
100
AcDbLine
 10
4.4016201130422274
 20
7.5279058513158077
 30
0.0
 11
4.2481208425602262
 21
5.7734011612722895
 31
0.0
  0
LINE
  5
149
100
AcDbEntity
  8
0
  6
CONTINUOUS
 62
               7
100
AcDbLine
 10
4.3012336387010208
 20
5.5751815075426947
 30
0.0
 11
4.8366295558351311
 21
4.8105568956694569
 31
0.0
  0
LINE
  5
14A
100
AcDbEntity
  8
0
  6
CONTINUOUS
 62
               7
100
AcDbLine
 10
5.3812335785494128
 20
4.9564831037503936
 30
0.0
 11
5.6128194532595188
 21
7.6035217642651389
 31
0.0
  0
LINE
  5
14B
100
AcDbEntity
  8
0
  6
CONTINUOUS
 62
               7
100
AcDbLine
 10
5.5260930781879694
 20
7.8418005214454354
 30
0.0
 11
5.283306496805821
 21
8.0845871028275553
 31
0.0
  0
LINE
  5
14C
100
AcDbEntity
  8
0
  6
CONTINUOUS
 62
               7
100
AcDbLine
 10
4.8590424280939004
 20
8.0845871028275482
 30
0.0
 11
4.4883464881137769
 21
7.7138911628474531
 31
0.0
  0
LINE
  5
14D
100
AcDbEntity
  8
0
  6
CONTINUOUS
 62
               7
100
AcDbLine
 10
3.9757359312873888
 20
9.1999999732864097
 30
0.0
 11
2.8742640687112697
 21
9.1999999732864097
 31
0.0
  0
LINE
  5
14E
100
AcDbEntity
  8
0
  6
CONTINUOUS
 62
               7
100
AcDbLine
 10
2.6621320343553379
 20
9.1121320076423942
 30
0.0
 11
2.3371320343553208
 21
8.78713200764237
 31
0.0
  0
LINE
  5
14F
100
AcDbEntity
  8
0
  6
CONTINUOUS
 62
               7
100
AcDbLine
 10
2.3371320343553208
 20
8.3628679389304494
 30
0.0
 11
2.6121320343554117
 21
8.0878679389303585
 31
0.0
  0
LINE
  5
150
100
AcDbEntity
  8
0
  6
CONTINUOUS
 62
               7
100
AcDbLine
 10
2.824264068711372
 20
7.9999999732863145
 30
0.0
 11
3.9257359312875764
 21
7.9999999732864211
 31
0.0
  0
LINE
  5
151
100
AcDbEntity
  8
0
  6
CONTINUOUS
 62
               7
100
AcDbLine
 10
4.1378679656434514
 20
8.0878679389304509
 30
0.0
 11
4.46286796564344
 21
8.412867938930404
 31
0.0
  0
LINE
  5
152
100
AcDbEntity
  8
0
  6
CONTINUOUS
 62
               7
100
AcDbLine
 10
4.46286796564344
 20
8.8371320076423316
 30
0.0
 11
4.1878679656434059
 21
9.1121320076423729
 31
0.0
  0
LINE
  5
153
100
AcDbEntity
  8
0
  6
CONTINUOUS
 62
               7
100
AcDbLine
 10
1.4529507858370465
 20
8.0845871028275411
 30
0.0
 11
1.0822548458569514
 21
7.713891162847446
 31
0.0
  0
LINE
  5
154
100
AcDbEntity
  8
0
  6
CONTINUOUS
 62
               7
100
AcDbLine
 10
0.995528470785402
 20
7.5279058513158077
 30
0.0
 11
0.7718375305525314
 21
4.9711067048027999
 31
0.0
  0
LINE
  5
155
100
AcDbEntity
  8
0
  6
CONTINUOUS
 62
               7
100
AcDbLine
 10
1.2828279743360014
 20
4.7328279476225248
 30
0.0
 11
1.9428656949119585
 21
5.3928656681984819
 31
0.0
  0
LINE
  5
156
100
AcDbEntity
  8
0
  6
CONTINUOUS
 62
               7
100
AcDbLine
 10
2.0295920699835079
 20
5.5788509797301344
 30
0.0
 11
2.2067278110026365
 21
7.6035217642651389
 31
0.0
  0
LINE
  5
157
100
AcDbEntity
  8
0
  6
CONTINUOUS
 62
               7
100
AcDbLine
 10
2.120001435931087
 20
7.8418005214454283
 30
0.0
 11
1.8772148545489671
 21
8.0845871028275411
 31
0.0
  0
LINE
  5
158
100
AcDbEntity
  8
0
  6
CONTINUOUS
 62
               7
100
AcDbLine
 10
4.5694509751951529
 20
4.2220729041919753
 30
0.0
 11
4.1493264522692499
 21
4.8220729041920904
 31
0.0
  0
LINE
  5
159
100
AcDbEntity
  8
0
  6
CONTINUOUS
 62
               7
100
AcDbLine
 10
3.9035808389825633
 20
4.9499999732867863
 30
0.0
 11
2.4242640687119916
 21
4.9499999732866158
 31
0.0
  0
LINE
  5
15A
100
AcDbEntity
  8
0
  6
CONTINUOUS
 62
               7
100
AcDbLine
 10
2.2121320343560598
 20
4.8621320076425647
 30
0.0
 11
1.6121320343559518
 21
4.2621320076424709
 31
0.0
  0
LINE
  5
15B
100
AcDbEntity
  8
0
  6
CONTINUOUS
 62
               7
100
AcDbLine
 10
1.8242640687119405
 20
3.7499999732865206
 30
0.0
 11
4.3237053619084662
 21
3.7499999732866556
 31
0.0
  0
ARC
  5
15C
100
AcDbEntity
  8
0
  6
CONTINUOUS
 62
               7
100
AcDbCircle
 10
2.8964191610165386
 20
12.549999973286262
 30
0.0
 40
0.3000000000000008
100
AcDbArc
 50
214.99999999999926
 51
270.0000000000075
  0
ARC
  5
15D
100
AcDbEntity
  8
0
  6
CONTINUOUS
 62
               7
100
AcDbCircle
 10
4.3757359312871102
 20
12.549999973286468
 30
0.0
 40
0.3000000000000007
100
AcDbArc
 50
270.0
 51
315.00000000000045
  0
ARC
  5
15E
100
AcDbEntity
  8
0
  6
CONTINUOUS
 62
               7
100
AcDbCircle
 10
1.7176248308772273
 20
12.217370119998336
 30
0.0
 40
0.2999999999999996
100
AcDbArc
 50
34.999999999990493
 51
174.99999999999528
  0
ARC
  5
15F
100
AcDbEntity
  8
0
  6
CONTINUOUS
 62
               7
100
AcDbCircle
 10
1.4862369149534942
 20
9.5725941387657514
 30
0.0
 40
0.299999999999999
100
AcDbArc
 50
174.99999999999787
 51
224.99999999999909
  0
ARC
  5
160
100
AcDbEntity
  8
0
  6
CONTINUOUS
 62
               7
100
AcDbCircle
 10
1.7290234963356141
 20
9.329807557383603
 30
0.0
 40
0.3000000000000007
100
AcDbArc
 50
225.0
 51
314.99999999999977
  0
ARC
  5
161
100
AcDbEntity
  8
0
  6
CONTINUOUS
 62
               7
100
AcDbCircle
 10
2.0997194363157377
 20
9.7005034973636981
 30
0.0
 40
0.3000000000000007
100
AcDbArc
 50
315.00000000000193
 51
354.99999999999494
  0
ARC
  5
162
100
AcDbEntity
  8
0
  6
CONTINUOUS
 62
               7
100
AcDbCircle
 10
2.253020748011366
 20
11.452745508125091
 30
0.0
 40
0.300000000000006
100
AcDbArc
 50
354.99999999999267
 51
34.999999999990294
  0
ARC
  5
163
100
AcDbEntity
  8
0
  6
CONTINUOUS
 62
               7
100
AcDbCircle
 10
5.0587888509208625
 20
11.597264923300742
 30
0.0
 40
0.300000000000002
100
AcDbArc
 50
135.00000000000045
 51
174.99999999999531
  0
ARC
  5
164
100
AcDbEntity
  8
0
  6
CONTINUOUS
 62
               7
100
AcDbCircle
 10
4.881653109901734
 20
9.572594138765723
 30
0.0
 40
0.300000000000006
100
AcDbArc
 50
174.99999999999238
 51
224.99999999999949
  0
ARC
  5
165
100
AcDbEntity
  8
0
  6
CONTINUOUS
 62
               7
100
AcDbCircle
 10
5.1244396912838823
 20
9.329807557383603
 30
0.0
 40
0.3000000000000007
100
AcDbArc
 50
225.0
 51
314.99999999999977
  0
ARC
  5
166
100
AcDbEntity
  8
0
  6
CONTINUOUS
 62
               7
100
AcDbCircle
 10
5.4951356312640058
 20
9.7005034973636981
 30
0.0
 40
0.3000000000000013
100
AcDbArc
 50
314.99999999999619
 51
354.99999999999523
  0
ARC
  5
167
100
AcDbEntity
  8
0
  6
CONTINUOUS
 62
               7
100
AcDbCircle
 10
5.7188265714967912
 20
12.257302643876685
 30
0.0
 40
0.300000000000006
100
AcDbArc
 50
354.99999999999881
 51
134.99999999999955
  0
ARC
  5
168
100
AcDbEntity
  8
0
  6
CONTINUOUS
 62
               7
100
AcDbCircle
 10
4.7004785224697372
 20
7.5017591284914857
 30
0.0
 40
0.3000000000000007
100
AcDbArc
 50
134.99999999999974
 51
174.99999999999511
  0
ARC
  5
169
100
AcDbEntity
  8
0
  6
CONTINUOUS
 62
               7
100
AcDbCircle
 10
4.5469792519877359
 20
5.7472544384479676
 30
0.0
 40
0.2999999999999954
100
AcDbArc
 50
174.99999999999511
 51
214.99999999999019
  0
ARC
  5
16A
100
AcDbEntity
  8
0
  6
CONTINUOUS
 62
               7
100
AcDbCircle
 10
5.082375169121903
 20
4.9826298265747084
 30
0.0
 40
0.3000000000000004
100
AcDbArc
 50
214.99999999998639
 51
354.99999999999523
  0
ARC
  5
16B
100
AcDbEntity
  8
0
  6
CONTINUOUS
 62
               7
100
AcDbCircle
 10
5.3139610438320091
 20
7.6296684870894609
 30
0.0
 40
0.300000000000006
100
AcDbArc
 50
354.99999999999511
 51
45.000000000000455
  0
ARC
  5
16C
100
AcDbEntity
  8
0
  6
CONTINUOUS
 62
               7
100
AcDbCircle
 10
5.0711744624498607
 20
7.8724550684715808
 30
0.0
 40
0.3000000000000013
100
AcDbArc
 50
45.000000000003361
 51
134.99999999999974
  0
ARC
  5
16D
100
AcDbEntity
  8
0
  6
CONTINUOUS
 62
               7
100
AcDbCircle
 10
2.8742640687112697
 20
8.8999999732864268
 30
0.0
 40
0.3000000000000007
100
AcDbArc
 50
90.0
 51
134.99999999999974
  0
ARC
  5
16E
100
AcDbEntity
  8
0
  6
CONTINUOUS
 62
               7
100
AcDbCircle
 10
2.5492640687112811
 20
8.5749999732864097
 30
0.0
 40
0.3000000000000013
100
AcDbArc
 50
134.99999999999994
 51
224.99999999999923
  0
ARC
  5
16F
100
AcDbEntity
  8
0
  6
CONTINUOUS
 62
               7
100
AcDbCircle
 10
2.824264068711372
 20
8.2999999732863188
 30
0.0
 40
0.3
100
AcDbArc
 50
225.0
 51
270.0
  0
ARC
  5
170
100
AcDbEntity
  8
0
  6
CONTINUOUS
 62
               7
100
AcDbCircle
 10
3.9257359312875195
 20
8.2999999732864183
 30
0.0
 40
0.3000000000000007
100
AcDbArc
 50
270.00000000001091
 51
314.99999999999977
  0
ARC
  5
171
100
AcDbEntity
  8
0
  6
CONTINUOUS
 62
               7
100
AcDbCircle
 10
4.2507359312874797
 20
8.6249999732863643
 30
0.0
 40
0.3000000000000013
100
AcDbArc
 50
314.99999999999619
 51
45.000000000004583
  0
ARC
  5
172
100
AcDbEntity
  8
0
  6
CONTINUOUS
 62
               7
100
AcDbCircle
 10
3.9757359312873888
 20
8.8999999732864268
 30
0.0
 40
0.3
100
AcDbArc
 50
44.999999999994252
 51
90.0
  0
ARC
  5
173
100
AcDbEntity
  8
0
  6
CONTINUOUS
 62
               7
100
AcDbCircle
 10
1.2943868802129117
 20
7.5017591284914857
 30
0.0
 40
0.3000000000000007
100
AcDbArc
 50
134.99999999999994
 51
174.99999999999528
  0
ARC
  5
174
100
AcDbEntity
  8
0
  6
CONTINUOUS
 62
               7
100
AcDbCircle
 10
1.0706959399800411
 20
4.9449599819784851
 30
0.0
 40
0.2999999999999954
100
AcDbArc
 50
174.99999999999523
 51
315.00000000000006
  0
ARC
  5
175
100
AcDbEntity
  8
0
  6
CONTINUOUS
 62
               7
100
AcDbCircle
 10
1.7307336605559982
 20
5.6049977025544564
 30
0.0
 40
0.300000000000001
100
AcDbArc
 50
314.99999999999812
 51
354.99999999999545
  0
ARC
  5
176
100
AcDbEntity
  8
0
  6
CONTINUOUS
 62
               7
100
AcDbCircle
 10
1.9078694015751267
 20
7.6296684870894609
 30
0.0
 40
0.300000000000006
100
AcDbArc
 50
354.99999999999534
 51
45.0000000000027
  0
ARC
  5
177
100
AcDbEntity
  8
0
  6
CONTINUOUS
 62
               7
100
AcDbCircle
 10
1.6650828201930068
 20
7.8724550684715808
 30
0.0
 40
0.3000000000000007
100
AcDbArc
 50
45.0
 51
135.0
  0
ARC
  5
178
100
AcDbEntity
  8
0
  6
CONTINUOUS
 62
               7
100
AcDbCircle
 10
4.3237053619084662
 20
4.0499999732866527
 30
0.0
 40
0.3000000000000007
100
AcDbArc
 50
270.00000000000341
 51
35.000000000000213
  0
ARC
  5
179
100
AcDbEntity
  8
0
  6
CONTINUOUS
 62
               7
100
AcDbCircle
 10
3.9035808389825633
 20
4.6499999732867821
 30
0.0
 40
0.2999999999999996
100
AcDbArc
 50
34.99999999999838
 51
90.0
  0
ARC
  5
17A
100
AcDbEntity
  8
0
  6
CONTINUOUS
 62
               7
100
AcDbCircle
 10
2.42426406871202
 20
4.6499999732866044
 30
0.0
 40
0.3000000000000007
100
AcDbArc
 50
90.000000000005443
 51
134.9999999999998
  0
ARC
  5
17B
100
AcDbEntity
  8
0
  6
CONTINUOUS
 62
               7
100
AcDbCircle
 10
1.8242640687119405
 20
4.0499999732865248
 30
0.0
 40
0.3000000000000007
100
AcDbArc
 50
135.00000000000199
 51
270.00000000000006
  0
LINE
  5
17C
100
AcDbEntity
  8
0
  6
CONTINUOUS
 62
               7
100
AcDbLine
 10
9.0305490248039462
 20
12.977927042381083
 30
0.0
 11
9.4506735477298491
 21
12.377927042380961
 31
0.0
  0
LINE
  5
17D
100
AcDbEntity
  8
0
  6
CONTINUOUS
 62
               7
100
AcDbLine
 10
9.6964191610165642
 20
12.249999973286258
 30
0.0
 11
11.175735931287107
 21
12.249999973286457
 31
0.0
  0
LINE
  5
17E
100
AcDbEntity
  8
0
  6
CONTINUOUS
 62
               7
100
AcDbLine
 10
11.387867965643068
 20
12.337867938930501
 30
0.0
 11
11.987867965643176
 21
12.937867938930587
 31
0.0
  0
LINE
  5
17F
100
AcDbEntity
  8
0
  6
CONTINUOUS
 62
               7
100
AcDbLine
 10
8.2187664214497147
 20
12.243516842822658
 30
0.0
 11
7.9873785055259816
 21
9.5987408615900591
 31
0.0
  0
LINE
  5
180
100
AcDbEntity
  8
0
  6
CONTINUOUS
 62
               7
100
AcDbLine
 10
8.0741048805975311
 20
9.3604621044097911
 30
0.0
 11
8.3168914619796794
 21
9.1176755230276427
 31
0.0
  0
LINE
  5
181
100
AcDbEntity
  8
0
  6
CONTINUOUS
 62
               7
100
AcDbLine
 10
8.7411555306916
 20
9.1176755230276356
 30
0.0
 11
9.1118514706716951
 21
9.4883714630077378
 31
0.0
  0
LINE
  5
182
100
AcDbEntity
  8
0
  6
CONTINUOUS
 62
               7
100
AcDbLine
 10
9.1985778457432446
 20
9.6743567745393761
 30
0.0
 11
9.3518791574389013
 21
11.426598785300754
 31
0.0
  0
LINE
  5
183
100
AcDbEntity
  8
0
  6
CONTINUOUS
 62
               7
100
AcDbLine
 10
9.2987663612981066
 20
11.624818439030363
 30
0.0
 11
8.7633704441639679
 21
12.389443050903616
 31
0.0
  0
LINE
  5
184
100
AcDbEntity
  8
0
  6
CONTINUOUS
 62
               7
100
AcDbLine
 10
11.55993044149335
 20
11.623411646125064
 30
0.0
 11
11.38279470047425
 21
9.5987408615900591
 31
0.0
  0
LINE
  5
185
100
AcDbEntity
  8
0
  6
CONTINUOUS
 62
               7
100
AcDbLine
 10
11.469521075545771
 20
9.3604621044097556
 30
0.0
 11
11.712307656927891
 21
9.1176755230276427
 31
0.0
  0
LINE
  5
186
100
AcDbEntity
  8
0
  6
CONTINUOUS
 62
               7
100
AcDbLine
 10
12.13657172563984
 20
9.1176755230276356
 30
0.0
 11
12.507267665619906
 21
9.4883714630077378
 31
0.0
  0
LINE
  5
187
100
AcDbEntity
  8
0
  6
CONTINUOUS
 62
               7
100
AcDbLine
 10
12.593994040691513
 20
9.6743567745393761
 30
0.0
 11
12.817684980924327
 21
12.231155921052384
 31
0.0
  0
LINE
  5
188
100
AcDbEntity
  8
0
  6
CONTINUOUS
 62
               7
100
AcDbLine
 10
12.306694537140828
 20
12.469434678232659
 30
0.0
 11
11.646656816564899
 21
11.809396957656709
 31
0.0
  0
LINE
  5
189
100
AcDbEntity
  8
0
  6
CONTINUOUS
 62
               7
100
AcDbLine
 10
11.201620113042225
 20
7.5279058513158077
 30
0.0
 11
11.048120842560223
 21
5.7734011612722895
 31
0.0
  0
LINE
  5
18A
100
AcDbEntity
  8
0
  6
CONTINUOUS
 62
               7
100
AcDbLine
 10
11.101233638701018
 20
5.5751815075426947
 30
0.0
 11
11.636629555835128
 21
4.8105568956694569
 31
0.0
  0
LINE
  5
18B
100
AcDbEntity
  8
0
  6
CONTINUOUS
 62
               7
100
AcDbLine
 10
12.18123357854941
 20
4.9564831037503936
 30
0.0
 11
12.412819453259516
 21
7.6035217642651389
 31
0.0
  0
LINE
  5
18C
100
AcDbEntity
  8
0
  6
CONTINUOUS
 62
               7
100
AcDbLine
 10
12.326093078187967
 20
7.8418005214454354
 30
0.0
 11
12.083306496805818
 21
8.0845871028275553
 31
0.0
  0
LINE
  5
18D
100
AcDbEntity
  8
0
  6
CONTINUOUS
 62
               7
100
AcDbLine
 10
11.659042428093898
 20
8.0845871028275482
 30
0.0
 11
11.288346488113774
 21
7.7138911628474531
 31
0.0
  0
LINE
  5
18E
100
AcDbEntity
  8
0
  6
CONTINUOUS
 62
               7
100
AcDbLine
 10
10.775735931287386
 20
9.1999999732864097
 30
0.0
 11
9.6742640687112669
 21
9.1999999732864097
 31
0.0
  0
LINE
  5
18F
100
AcDbEntity
  8
0
  6
CONTINUOUS
 62
               7
100
AcDbLine
 10
9.462132034355335
 20
9.1121320076423942
 30
0.0
 11
9.137132034355318
 21
8.78713200764237
 31
0.0
  0
LINE
  5
190
100
AcDbEntity
  8
0
  6
CONTINUOUS
 62
               7
100
AcDbLine
 10
9.137132034355318
 20
8.3628679389304494
 30
0.0
 11
9.4121320343554089
 21
8.0878679389303585
 31
0.0
  0
LINE
  5
191
100
AcDbEntity
  8
0
  6
CONTINUOUS
 62
               7
100
AcDbLine
 10
9.6242640687113692
 20
7.9999999732863145
 30
0.0
 11
10.725735931287574
 21
7.9999999732864211
 31
0.0
  0
LINE
  5
192
100
AcDbEntity
  8
0
  6
CONTINUOUS
 62
               7
100
AcDbLine
 10
10.937867965643449
 20
8.0878679389304509
 30
0.0
 11
11.262867965643437
 21
8.412867938930404
 31
0.0
  0
LINE
  5
193
100
AcDbEntity
  8
0
  6
CONTINUOUS
 62
               7
100
AcDbLine
 10
11.262867965643437
 20
8.8371320076423316
 30
0.0
 11
10.987867965643403
 21
9.1121320076423729
 31
0.0
  0
LINE
  5
194
100
AcDbEntity
  8
0
  6
CONTINUOUS
 62
               7
100
AcDbLine
 10
8.2529507858370437
 20
8.0845871028275411
 30
0.0
 11
7.8822548458569486
 21
7.713891162847446
 31
0.0
  0
LINE
  5
195
100
AcDbEntity
  8
0
  6
CONTINUOUS
 62
               7
100
AcDbLine
 10
7.7955284707853991
 20
7.5279058513158077
 30
0.0
 11
7.5718375305525285
 21
4.9711067048027999
 31
0.0
  0
LINE
  5
196
100
AcDbEntity
  8
0
  6
CONTINUOUS
 62
               7
100
AcDbLine
 10
8.0828279743359985
 20
4.7328279476225248
 30
0.0
 11
8.7428656949119556
 21
5.3928656681984819
 31
0.0
  0
LINE
  5
197
100
AcDbEntity
  8
0
  6
CONTINUOUS
 62
               7
100
AcDbLine
 10
8.8295920699835051
 20
5.5788509797301344
 30
0.0
 11
9.0067278110026336
 21
7.6035217642651389
 31
0.0
  0
LINE
  5
198
100
AcDbEntity
  8
0
  6
CONTINUOUS
 62
               7
100
AcDbLine
 10
8.9200014359310842
 20
7.8418005214454283
 30
0.0
 11
8.6772148545489642
 21
8.0845871028275411
 31
0.0
  0
LINE
  5
199
100
AcDbEntity
  8
0
  6
CONTINUOUS
 62
               7
100
AcDbLine
 10
11.36945097519515
 20
4.2220729041919753
 30
0.0
 11
10.949326452269247
 21
4.8220729041920904
 31
0.0
  0
LINE
  5
19A
100
AcDbEntity
  8
0
  6
CONTINUOUS
 62
               7
100
AcDbLine
 10
10.70358083898256
 20
4.9499999732867863
 30
0.0
 11
9.2242640687119888
 21
4.9499999732866158
 31
0.0
  0
LINE
  5
19B
100
AcDbEntity
  8
0
  6
CONTINUOUS
 62
               7
100
AcDbLine
 10
9.0121320343560569
 20
4.8621320076425647
 30
0.0
 11
8.4121320343559489
 21
4.2621320076424709
 31
0.0
  0
LINE
  5
19C
100
AcDbEntity
  8
0
  6
CONTINUOUS
 62
               7
100
AcDbLine
 10
8.6242640687119376
 20
3.7499999732865206
 30
0.0
 11
11.123705361908463
 21
3.7499999732866556
 31
0.0
  0
ARC
  5
19D
100
AcDbEntity
  8
0
  6
CONTINUOUS
 62
               7
100
AcDbCircle
 10
9.6964191610165358
 20
12.549999973286262
 30
0.0
 40
0.3000000000000008
100
AcDbArc
 50
214.99999999999926
 51
270.0000000000075
  0
ARC
  5
19E
100
AcDbEntity
  8
0
  6
CONTINUOUS
 62
               7
100
AcDbCircle
 10
11.175735931287107
 20
12.549999973286468
 30
0.0
 40
0.3000000000000007
100
AcDbArc
 50
270.0
 51
315.00000000000045
  0
ARC
  5
19F
100
AcDbEntity
  8
0
  6
CONTINUOUS
 62
               7
100
AcDbCircle
 10
8.5176248308772244
 20
12.217370119998336
 30
0.0
 40
0.2999999999999996
100
AcDbArc
 50
34.999999999990493
 51
174.99999999999528
  0
ARC
  5
1A0
100
AcDbEntity
  8
0
  6
CONTINUOUS
 62
               7
100
AcDbCircle
 10
8.2862369149534914
 20
9.5725941387657514
 30
0.0
 40
0.299999999999999
100
AcDbArc
 50
174.99999999999787
 51
224.99999999999909
  0
ARC
  5
1A1
100
AcDbEntity
  8
0
  6
CONTINUOUS
 62
               7
100
AcDbCircle
 10
8.5290234963356113
 20
9.329807557383603
 30
0.0
 40
0.3000000000000007
100
AcDbArc
 50
225.0
 51
314.99999999999977
  0
ARC
  5
1A2
100
AcDbEntity
  8
0
  6
CONTINUOUS
 62
               7
100
AcDbCircle
 10
8.8997194363157348
 20
9.7005034973636981
 30
0.0
 40
0.3000000000000007
100
AcDbArc
 50
315.00000000000193
 51
354.99999999999494
  0
ARC
  5
1A3
100
AcDbEntity
  8
0
  6
CONTINUOUS
 62
               7
100
AcDbCircle
 10
9.0530207480113631
 20
11.452745508125091
 30
0.0
 40
0.300000000000006
100
AcDbArc
 50
354.99999999999267
 51
34.999999999990294
  0
ARC
  5
1A4
100
AcDbEntity
  8
0
  6
CONTINUOUS
 62
               7
100
AcDbCircle
 10
11.85878885092086
 20
11.597264923300742
 30
0.0
 40
0.300000000000002
100
AcDbArc
 50
135.00000000000045
 51
174.99999999999531
  0
ARC
  5
1A5
100
AcDbEntity
  8
0
  6
CONTINUOUS
 62
               7
100
AcDbCircle
 10
11.681653109901731
 20
9.572594138765723
 30
0.0
 40
0.300000000000006
100
AcDbArc
 50
174.99999999999238
 51
224.99999999999949
  0
ARC
  5
1A6
100
AcDbEntity
  8
0
  6
CONTINUOUS
 62
               7
100
AcDbCircle
 10
11.924439691283879
 20
9.329807557383603
 30
0.0
 40
0.3000000000000007
100
AcDbArc
 50
225.0
 51
314.99999999999977
  0
ARC
  5
1A7
100
AcDbEntity
  8
0
  6
CONTINUOUS
 62
               7
100
AcDbCircle
 10
12.295135631264003
 20
9.7005034973636981
 30
0.0
 40
0.3000000000000013
100
AcDbArc
 50
314.99999999999619
 51
354.99999999999523
  0
ARC
  5
1A8
100
AcDbEntity
  8
0
  6
CONTINUOUS
 62
               7
100
AcDbCircle
 10
12.518826571496788
 20
12.257302643876685
 30
0.0
 40
0.300000000000006
100
AcDbArc
 50
354.99999999999881
 51
134.99999999999955
  0
ARC
  5
1A9
100
AcDbEntity
  8
0
  6
CONTINUOUS
 62
               7
100
AcDbCircle
 10
11.500478522469734
 20
7.5017591284914857
 30
0.0
 40
0.3000000000000007
100
AcDbArc
 50
134.99999999999974
 51
174.99999999999511
  0
ARC
  5
1AA
100
AcDbEntity
  8
0
  6
CONTINUOUS
 62
               7
100
AcDbCircle
 10
11.346979251987733
 20
5.7472544384479676
 30
0.0
 40
0.2999999999999954
100
AcDbArc
 50
174.99999999999511
 51
214.99999999999019
  0
ARC
  5
1AB
100
AcDbEntity
  8
0
  6
CONTINUOUS
 62
               7
100
AcDbCircle
 10
11.8823751691219
 20
4.9826298265747084
 30
0.0
 40
0.3000000000000004
100
AcDbArc
 50
214.99999999998639
 51
354.99999999999523
  0
ARC
  5
1AC
100
AcDbEntity
  8
0
  6
CONTINUOUS
 62
               7
100
AcDbCircle
 10
12.113961043832006
 20
7.6296684870894609
 30
0.0
 40
0.300000000000006
100
AcDbArc
 50
354.99999999999511
 51
45.000000000000455
  0
ARC
  5
1AD
100
AcDbEntity
  8
0
  6
CONTINUOUS
 62
               7
100
AcDbCircle
 10
11.871174462449858
 20
7.8724550684715808
 30
0.0
 40
0.3000000000000013
100
AcDbArc
 50
45.000000000003361
 51
134.99999999999974
  0
ARC
  5
1AE
100
AcDbEntity
  8
0
  6
CONTINUOUS
 62
               7
100
AcDbCircle
 10
9.6742640687112669
 20
8.8999999732864268
 30
0.0
 40
0.3000000000000007
100
AcDbArc
 50
90.0
 51
134.99999999999974
  0
ARC
  5
1AF
100
AcDbEntity
  8
0
  6
CONTINUOUS
 62
               7
100
AcDbCircle
 10
9.3492640687112782
 20
8.5749999732864097
 30
0.0
 40
0.3000000000000013
100
AcDbArc
 50
134.99999999999994
 51
224.99999999999923
  0
ARC
  5
1B0
100
AcDbEntity
  8
0
  6
CONTINUOUS
 62
               7
100
AcDbCircle
 10
9.6242640687113692
 20
8.2999999732863188
 30
0.0
 40
0.3
100
AcDbArc
 50
225.0
 51
270.0
  0
ARC
  5
1B1
100
AcDbEntity
  8
0
  6
CONTINUOUS
 62
               7
100
AcDbCircle
 10
10.725735931287517
 20
8.2999999732864183
 30
0.0
 40
0.3000000000000007
100
AcDbArc
 50
270.00000000001091
 51
314.99999999999977
  0
ARC
  5
1B2
100
AcDbEntity
  8
0
  6
CONTINUOUS
 62
               7
100
AcDbCircle
 10
11.050735931287477
 20
8.6249999732863643
 30
0.0
 40
0.3000000000000013
100
AcDbArc
 50
314.99999999999619
 51
45.000000000004583
  0
ARC
  5
1B3
100
AcDbEntity
  8
0
  6
CONTINUOUS
 62
               7
100
AcDbCircle
 10
10.775735931287386
 20
8.8999999732864268
 30
0.0
 40
0.3
100
AcDbArc
 50
44.999999999994252
 51
90.0
  0
ARC
  5
1B4
100
AcDbEntity
  8
0
  6
CONTINUOUS
 62
               7
100
AcDbCircle
 10
8.0943868802129089
 20
7.5017591284914857
 30
0.0
 40
0.3000000000000007
100
AcDbArc
 50
134.99999999999994
 51
174.99999999999528
  0
ARC
  5
1B5
100
AcDbEntity
  8
0
  6
CONTINUOUS
 62
               7
100
AcDbCircle
 10
7.8706959399800382
 20
4.9449599819784851
 30
0.0
 40
0.2999999999999954
100
AcDbArc
 50
174.99999999999523
 51
315.00000000000006
  0
ARC
  5
1B6
100
AcDbEntity
  8
0
  6
CONTINUOUS
 62
               7
100
AcDbCircle
 10
8.5307336605559954
 20
5.6049977025544564
 30
0.0
 40
0.300000000000001
100
AcDbArc
 50
314.99999999999812
 51
354.99999999999545
  0
ARC
  5
1B7
100
AcDbEntity
  8
0
  6
CONTINUOUS
 62
               7
100
AcDbCircle
 10
8.7078694015751239
 20
7.6296684870894609
 30
0.0
 40
0.300000000000006
100
AcDbArc
 50
354.99999999999534
 51
45.0000000000027
  0
ARC
  5
1B8
100
AcDbEntity
  8
0
  6
CONTINUOUS
 62
               7
100
AcDbCircle
 10
8.465082820193004
 20
7.8724550684715808
 30
0.0
 40
0.3000000000000007
100
AcDbArc
 50
45.0
 51
135.0
  0
ARC
  5
1B9
100
AcDbEntity
  8
0
  6
CONTINUOUS
 62
               7
100
AcDbCircle
 10
11.123705361908463
 20
4.0499999732866527
 30
0.0
 40
0.3000000000000007
100
AcDbArc
 50
270.00000000000341
 51
35.000000000000213
  0
ARC
  5
1BA
100
AcDbEntity
  8
0
  6
CONTINUOUS
 62
               7
100
AcDbCircle
 10
10.70358083898256
 20
4.6499999732867821
 30
0.0
 40
0.2999999999999996
100
AcDbArc
 50
34.99999999999838
 51
90.0
  0
ARC
  5
1BB
100
AcDbEntity
  8
0
  6
CONTINUOUS
 62
               7
100
AcDbCircle
 10
9.2242640687120172
 20
4.6499999732866044
 30
0.0
 40
0.3000000000000007
100
AcDbArc
 50
90.000000000005443
 51
134.9999999999998
  0
ARC
  5
1BC
100
AcDbEntity
  8
0
  6
CONTINUOUS
 62
               7
100
AcDbCircle
 10
8.6242640687119376
 20
4.0499999732865248
 30
0.0
 40
0.3000000000000007
100
AcDbArc
 50
135.00000000000199
 51
270.00000000000006
  0
LINE
  5
1BD
100
AcDbEntity
  8
0
  6
CONTINUOUS
 62
               7
100
AcDbLine
 10
11.775735931287159
 20
13.449999973286545
 30
0.0
 11
9.2762946380906328
 21
13.449999973286396
 31
0.0
  0
LINE
  5
1BE
100
AcDbEntity
  8
0
  6
CONTINUOUS
 62
               7
100
AcDbLine
 10
4.9757359312871614
 20
13.449999973286545
 30
0.0
 11
2.4762946380906357
 21
13.449999973286396
 31
0.0
  0
LINE
  5
1BF
100
AcDbEntity
  8
0
  6
CONTINUOUS
 62
               7
100
AcDbLine
 10
-1.8242640687128358
 20
13.449999973286545
 30
0.0
 11
-4.3237053619093615
 21
13.449999973286396
 31
0.0
  0
LINE
  5
1C0
100
AcDbEntity
  8
0
  6
CONTINUOUS
 62
               7
100
AcDbLine
 10
-8.6242640687128329
 20
13.449999973286545
 30
0.0
 11
-11.123705361909359
 21
13.449999973286396
 31
0.0
  0
LINE
  5
1C2
100
AcDbEntity
  8
0
  6
CENTER
 62
               2
100
AcDbLine
 10
0.0
 20
30.45209738963996
 30
0.0
 11
-0.0000000000000071
 21
-32.735401989343544
 31
0.0
  0
LINE
  5
1C3
100
AcDbEntity
  8
0
  6
CENTER
 62
               2
100
AcDbLine
 10
-31.979529850704921
 20
0.0
 30
0.0
 11
33.04491352712418
 21
0.0
 31
0.0
  0
ENDBLK
  5
1C4
100
AcDbEntity
  8
0
100
AcDbBlockEnd
  0
BLOCK
  5
1C5
100
AcDbEntity
  8
0
100
AcDbBlockBegin
  2
DTY-EPU-P-C-2
 70
               0
 10
0.0
 20
0.0
 30
0.0
  3
DTY-EPU-P-C-2
  1

  0
LINE
  5
1C6
100
AcDbEntity
  8
0
  6
CONTINUOUS
 62
               7
100
AcDbLine
 10
-8.0000000000000284
 20
25.599999973286444
 30
0.0
 11
-0.0000000000000284
 21
25.599999973286444
 31
0.0
  0
LINE
  5
1C7
100
AcDbEntity
  8
0
  6
CONTINUOUS
 62
               7
100
AcDbLine
 10
-8.0000000000000284
 20
-25.600000026713573
 30
0.0
 11
-0.0000000000000284
 21
-25.600000026713573
 31
0.0
  0
LINE
  5
1C8
100
AcDbEntity
  8
0
  6
CONTINUOUS
 62
               7
100
AcDbLine
 10
-9.5000000000000284
 20
24.099999973286444
 30
0.0
 11
-9.5000000000000284
 21
-24.100000026713573
 31
0.0
  0
ARC
  5
1C9
100
AcDbEntity
  8
0
  6
CONTINUOUS
 62
               7
100
AcDbCircle
 10
-8.0000000000000284
 20
24.099999973286444
 30
0.0
 40
1.5
100
AcDbArc
 50
90.0
 51
180.0
  0
ARC
  5
1CA
100
AcDbEntity
  8
0
  6
CONTINUOUS
 62
               7
100
AcDbCircle
 10
-8.0000000000000284
 20
-24.100000026713573
 30
0.0
 40
1.5
100
AcDbArc
 50
180.0
 51
270.0
  0
LINE
  5
1CB
100
AcDbEntity
  8
0
  6
CONTINUOUS
 62
               7
100
AcDbLine
 10
-6.0000000000000284
 20
10.999999973286421
 30
0.0
 11
-0.0000000000000284
 21
10.999999973286421
 31
0.0
  0
LINE
  5
1CC
100
AcDbEntity
  8
0
  6
CONTINUOUS
 62
               7
100
AcDbLine
 10
-6.0000000000000284
 20
16.999999973286421
 30
0.0
 11
-0.0000000000000284
 21
16.999999973286421
 31
0.0
  0
LINE
  5
1CD
100
AcDbEntity
  8
0
  6
CONTINUOUS
 62
               7
100
AcDbLine
 10
-6.0000000000000284
 20
15.999999973286421
 30
0.0
 11
-0.0000000000000284
 21
15.999999973286421
 31
0.0
  0
LINE
  5
1CE
100
AcDbEntity
  8
0
  6
CONTINUOUS
 62
               7
100
AcDbLine
 10
-6.0000000000000284
 20
11.999999973286421
 30
0.0
 11
-0.0000000000000284
 21
11.999999973286421
 31
0.0
  0
LINE
  5
1CF
100
AcDbEntity
  8
0
  6
CONTINUOUS
 62
               7
100
AcDbLine
 10
-6.0000000000000284
 20
16.999999973286421
 30
0.0
 11
-6.0000000000000284
 21
10.999999973286421
 31
0.0
  0
LINE
  5
1D0
100
AcDbEntity
  8
0
  6
CONTINUOUS
 62
               7
100
AcDbLine
 10
-6.0000000000000284
 20
-11.000000026713579
 30
0.0
 11
-0.0000000000000284
 21
-11.000000026713579
 31
0.0
  0
LINE
  5
1D1
100
AcDbEntity
  8
0
  6
CONTINUOUS
 62
               7
100
AcDbLine
 10
-6.0000000000000284
 20
-17.000000026713579
 30
0.0
 11
-0.0000000000000284
 21
-17.000000026713579
 31
0.0
  0
LINE
  5
1D2
100
AcDbEntity
  8
0
  6
CONTINUOUS
 62
               7
100
AcDbLine
 10
-6.0000000000000284
 20
-16.000000026713579
 30
0.0
 11
-0.0000000000000284
 21
-16.000000026713579
 31
0.0
  0
LINE
  5
1D3
100
AcDbEntity
  8
0
  6
CONTINUOUS
 62
               7
100
AcDbLine
 10
-6.0000000000000284
 20
-12.000000026713579
 30
0.0
 11
-0.0000000000000284
 21
-12.000000026713579
 31
0.0
  0
LINE
  5
1D4
100
AcDbEntity
  8
0
  6
CONTINUOUS
 62
               7
100
AcDbLine
 10
-6.0000000000000284
 20
-17.000000026713579
 30
0.0
 11
-6.0000000000000284
 21
-11.000000026713579
 31
0.0
  0
LINE
  5
1D5
100
AcDbEntity
  8
0
  6
CONTINUOUS
 62
               7
100
AcDbLine
 10
-0.0000000000000284
 20
15.999999973286421
 30
0.0
 11
-0.0000000000000284
 21
11.999999973286421
 31
0.0
  0
LINE
  5
1D6
100
AcDbEntity
  8
0
  6
CONTINUOUS
 62
               7
100
AcDbLine
 10
-0.0000000000000284
 20
-12.000000026713579
 30
0.0
 11
-0.0000000000000284
 21
-16.000000026713579
 31
0.0
  0
ARC
  5
1D7
100
AcDbEntity
  8
0
  6
CONTINUOUS
 62
               7
100
AcDbCircle
 10
-48.499999988455194
 20
-0.0000000267135647
 30
0.0
 40
58.500000000000121
100
AcDbArc
 50
337.3801350519596
 51
357.06046551356565
  0
LINE
  5
1D8
100
AcDbEntity
  8
0
  6
CONTINUOUS
 62
               7
100
AcDbLine
 10
27.500000011544941
 20
-19.699772909948194
 30
0.0
 11
29.300000011544896
 21
-19.668353793077401
 31
0.0
  0
LINE
  5
1D9
100
AcDbEntity
  8
0
  6
CONTINUOUS
 62
               2
100
AcDbLine
 10
20.000000011544941
 20
-2.0000000267135789
 30
0.0
 11
20.000000011544941
 21
-3.0000000267135789
 31
0.0
  0
LINE
  5
1DA
100
AcDbEntity
  8
0
  6
CONTINUOUS
 62
               2
100
AcDbLine
 10
20.000000011544941
 20
1.9999999732864211
 30
0.0
 11
20.000000011544941
 21
2.9999999732864211
 31
0.0
  0
LINE
  5
1DB
100
AcDbEntity
  8
0
  6
CONTINUOUS
 62
               2
100
AcDbLine
 10
15.000000011544941
 20
-2.0000000267135789
 30
0.0
 11
20.000000011544941
 21
-2.0000000267135789
 31
0.0
  0
LINE
  5
1DC
100
AcDbEntity
  8
0
  6
CONTINUOUS
 62
               2
100
AcDbLine
 10
15.000000011544941
 20
1.9999999732864211
 30
0.0
 11
20.000000011544941
 21
1.9999999732864211
 31
0.0
  0
LINE
  5
1DD
100
AcDbEntity
  8
0
  6
CONTINUOUS
 62
               2
100
AcDbLine
 10
15.000000011544941
 20
-3.0000000267135789
 30
0.0
 11
15.000000011544941
 21
2.9999999732864211
 31
0.0
  0
LINE
  5
1DE
100
AcDbEntity
  8
0
  6
CONTINUOUS
 62
               2
100
AcDbLine
 10
17.000000011544941
 20
-2.0000000267135789
 30
0.0
 11
17.000000011544941
 21
1.9999999732864211
 31
0.0
  0
ARC
  5
1DF
100
AcDbEntity
  8
0
  6
CONTINUOUS
 62
               7
100
AcDbCircle
 10
11.062500011544941
 20
-6.8125000267135789
 30
0.0
 40
1.0625
100
AcDbArc
 50
90.0
 51
270.0
  0
LINE
  5
1E0
100
AcDbEntity
  8
0
  6
CONTINUOUS
 62
               7
100
AcDbLine
 10
11.062500011544941
 20
-7.8750000267135789
 30
0.0
 11
15.500000011544941
 21
-7.8750000267135789
 31
0.0
  0
LINE
  5
1E1
100
AcDbEntity
  8
0
  6
CONTINUOUS
 62
               7
100
AcDbLine
 10
11.062500011544941
 20
-5.7500000267135789
 30
0.0
 11
15.500000011544941
 21
-5.7500000267135789
 31
0.0
  0
LINE
  5
1E2
100
AcDbEntity
  8
0
  6
CONTINUOUS
 62
               2
100
AcDbLine
 10
10.000000011544941
 20
-6.8125000267135789
 30
0.0
 11
10.000000011544941
 21
-15.437500026713579
 31
0.0
  0
ARC
  5
1E3
100
AcDbEntity
  8
0
  6
CONTINUOUS
 62
               7
100
AcDbCircle
 10
11.062500011544941
 20
-15.437500026713579
 30
0.0
 40
1.0625
100
AcDbArc
 50
90.0
 51
270.0
  0
LINE
  5
1E4
100
AcDbEntity
  8
0
  6
CONTINUOUS
 62
               7
100
AcDbLine
 10
11.062500011544941
 20
-14.375000026713579
 30
0.0
 11
15.500000011544941
 21
-14.375000026713579
 31
0.0
  0
LINE
  5
1E5
100
AcDbEntity
  8
0
  6
CONTINUOUS
 62
               7
100
AcDbLine
 10
11.062500011544941
 20
-16.500000026713579
 30
0.0
 11
15.500000011544941
 21
-16.500000026713579
 31
0.0
  0
LINE
  5
1E6
100
AcDbEntity
  8
0
  6
CONTINUOUS
 62
               7
100
AcDbLine
 10
25.500000011544941
 20
-7.8750000267135789
 30
0.0
 11
30.000000011544941
 21
-7.8750000267135789
 31
0.0
  0
LINE
  5
1E7
100
AcDbEntity
  8
0
  6
CONTINUOUS
 62
               7
100
AcDbLine
 10
25.500000011544941
 20
-14.375000026713579
 30
0.0
 11
30.000000011544941
 21
-14.375000026713579
 31
0.0
  0
LINE
  5
1E8
100
AcDbEntity
  8
0
  6
CONTINUOUS
 62
               7
100
AcDbLine
 10
30.000000011544941
 20
-7.8750000267135789
 30
0.0
 11
30.000000011544941
 21
-14.375000026713579
 31
0.0
  0
LINE
  5
1E9
100
AcDbEntity
  8
0
  6
CONTINUOUS
 62
               7
100
AcDbLine
 10
25.500000011544941
 20
-16.500000026713579
 30
0.0
 11
27.500000011544941
 21
-16.500000026713579
 31
0.0
  0
LINE
  5
1EA
100
AcDbEntity
  8
0
  6
CONTINUOUS
 62
               7
100
AcDbLine
 10
27.500000011544941
 20
-16.500000026713579
 30
0.0
 11
27.500000011544941
 21
-22.500000026713579
 31
0.0
  0
LINE
  5
1EB
100
AcDbEntity
  8
0
  6
CONTINUOUS
 62
               7
100
AcDbLine
 10
25.500000011544941
 20
7.8749999732864211
 30
0.0
 11
30.000000011544941
 21
7.8749999732864211
 31
0.0
  0
LINE
  5
1EC
100
AcDbEntity
  8
0
  6
CONTINUOUS
 62
               7
100
AcDbLine
 10
25.500000011544941
 20
14.374999973286421
 30
0.0
 11
30.000000011544941
 21
14.374999973286421
 31
0.0
  0
LINE
  5
1ED
100
AcDbEntity
  8
0
  6
CONTINUOUS
 62
               7
100
AcDbLine
 10
25.500000011544941
 20
16.499999973286421
 30
0.0
 11
27.500000011544941
 21
16.499999973286421
 31
0.0
  0
ARC
  5
1EE
100
AcDbEntity
  8
0
  6
CONTINUOUS
 62
               7
100
AcDbCircle
 10
11.062500011544941
 20
6.8124999732864211
 30
0.0
 40
1.0625
100
AcDbArc
 50
90.0
 51
270.0
  0
LINE
  5
1EF
100
AcDbEntity
  8
0
  6
CONTINUOUS
 62
               7
100
AcDbLine
 10
27.500000011544941
 20
16.499999973286421
 30
0.0
 11
27.500000011544941
 21
22.499999973286421
 31
0.0
  0
ARC
  5
1F0
100
AcDbEntity
  8
0
  6
CONTINUOUS
 62
               7
100
AcDbCircle
 10
11.062500011544941
 20
15.437499973286421
 30
0.0
 40
1.0625
100
AcDbArc
 50
90.0
 51
270.0
  0
LINE
  5
1F1
100
AcDbEntity
  8
0
  6
CONTINUOUS
 62
               7
100
AcDbLine
 10
11.062500011544941
 20
7.8749999732864211
 30
0.0
 11
15.500000011544941
 21
7.8749999732864211
 31
0.0
  0
LINE
  5
1F2
100
AcDbEntity
  8
0
  6
CONTINUOUS
 62
               7
100
AcDbLine
 10
11.062500011544941
 20
14.374999973286421
 30
0.0
 11
15.500000011544941
 21
14.374999973286421
 31
0.0
  0
LINE
  5
1F3
100
AcDbEntity
  8
0
  6
CONTINUOUS
 62
               7
100
AcDbLine
 10
11.062500011544941
 20
5.7499999732864211
 30
0.0
 11
15.500000011544941
 21
5.7499999732864211
 31
0.0
  0
LINE
  5
1F4
100
AcDbEntity
  8
0
  6
CONTINUOUS
 62
               7
100
AcDbLine
 10
11.062500011544941
 20
16.499999973286421
 30
0.0
 11
15.500000011544941
 21
16.499999973286421
 31
0.0
  0
LINE
  5
1F5
100
AcDbEntity
  8
0
  6
CONTINUOUS
 62
               2
100
AcDbLine
 10
10.000000011544941
 20
6.8124999732864211
 30
0.0
 11
10.000000011544941
 21
15.437499973286421
 31
0.0
  0
LINE
  5
1F6
100
AcDbEntity
  8
0
  6
CONTINUOUS
 62
               7
100
AcDbLine
 10
25.500000011544941
 20
6.9999999732864211
 30
0.0
 11
25.500000011544941
 21
23.999999973286421
 31
0.0
  0
LINE
  5
1F7
100
AcDbEntity
  8
0
  6
CONTINUOUS
 62
               7
100
AcDbLine
 10
15.500000011544941
 20
2.9999999732864211
 30
0.0
 11
15.500000011544941
 21
23.999999973286421
 31
0.0
  0
LINE
  5
1F8
100
AcDbEntity
  8
0
  6
CONTINUOUS
 62
               7
100
AcDbLine
 10
25.500000011544941
 20
-22.500000026713579
 30
0.0
 11
27.500000011544941
 21
-22.500000026713579
 31
0.0
  0
LINE
  5
1F9
100
AcDbEntity
  8
0
  6
CONTINUOUS
 62
               7
100
AcDbLine
 10
25.500000011544941
 20
22.499999973286421
 30
0.0
 11
27.500000011544941
 21
22.499999973286421
 31
0.0
  0
LINE
  5
1FA
100
AcDbEntity
  8
0
  6
CONTINUOUS
 62
               7
100
AcDbLine
 10
30.000000011544941
 20
7.8749999732864211
 30
0.0
 11
30.000000011544941
 21
14.374999973286421
 31
0.0
  0
LINE
  5
1FB
100
AcDbEntity
  8
0
  6
CONTINUOUS
 62
               7
100
AcDbLine
 10
15.500000011544941
 20
-24.000000026713579
 30
0.0
 11
25.500000011544941
 21
-24.000000026713579
 31
0.0
  0
LINE
  5
1FC
100
AcDbEntity
  8
0
  6
CONTINUOUS
 62
               7
100
AcDbLine
 10
15.500000011544941
 20
23.999999973286421
 30
0.0
 11
25.500000011544941
 21
23.999999973286421
 31
0.0
  0
LINE
  5
1FD
100
AcDbEntity
  8
0
  6
CONTINUOUS
 62
               7
100
AcDbLine
 10
0.0
 20
-22.500000026713579
 30
0.0
 11
15.500000011544941
 21
-22.500000026713579
 31
0.0
  0
LINE
  5
1FE
100
AcDbEntity
  8
0
  6
CONTINUOUS
 62
               7
100
AcDbLine
 10
0.0
 20
22.499999973286421
 30
0.0
 11
15.500000011544941
 21
22.499999973286421
 31
0.0
  0
LINE
  5
1FF
100
AcDbEntity
  8
0
  6
CONTINUOUS
 62
               7
100
AcDbLine
 10
20.000000011544941
 20
-3.0000000267135789
 30
0.0
 11
24.000000011544941
 21
-7.0000000267135789
 31
0.0
  0
LINE
  5
200
100
AcDbEntity
  8
0
  6
CONTINUOUS
 62
               7
100
AcDbLine
 10
20.000000011544941
 20
2.9999999732864211
 30
0.0
 11
24.000000011544941
 21
6.9999999732864211
 31
0.0
  0
LINE
  5
201
100
AcDbEntity
  8
0
  6
CONTINUOUS
 62
               7
100
AcDbLine
 10
9.9230262939962728
 20
-3.0000000267135789
 30
0.0
 11
20.000000011544941
 21
-3.0000000267135789
 31
0.0
  0
LINE
  5
202
100
AcDbEntity
  8
0
  6
CONTINUOUS
 62
               7
100
AcDbLine
 10
9.9230262939962728
 20
2.9999999732864211
 30
0.0
 11
20.000000011544941
 21
2.9999999732864211
 31
0.0
  0
LINE
  5
203
100
AcDbEntity
  8
0
  6
CONTINUOUS
 62
               7
100
AcDbLine
 10
30.000000011544941
 20
-7.0000000267135789
 30
0.0
 11
24.000000011544941
 21
-7.0000000267135789
 31
0.0
  0
LINE
  5
204
100
AcDbEntity
  8
0
  6
CONTINUOUS
 62
               7
100
AcDbLine
 10
30.000000011544941
 20
6.9999999732864211
 30
0.0
 11
24.000000011544941
 21
6.9999999732864211
 31
0.0
  0
LINE
  5
205
100
AcDbEntity
  8
0
  6
CONTINUOUS
 62
               7
100
AcDbLine
 10
15.500000011544941
 20
-24.000000026713579
 30
0.0
 11
15.500000011544941
 21
-3.0000000267135789
 31
0.0
  0
LINE
  5
206
100
AcDbEntity
  8
0
  6
CONTINUOUS
 62
               7
100
AcDbLine
 10
25.500000011544941
 20
-24.000000026713579
 30
0.0
 11
25.500000011544941
 21
-7.0000000267135789
 31
0.0
  0
LINE
  5
207
100
AcDbEntity
  8
0
  6
CONTINUOUS
 62
               7
100
AcDbLine
 10
30.000000011544941
 20
-7.0000000267135789
 30
0.0
 11
30.000000011544941
 21
6.9999999732864211
 31
0.0
  0
CIRCLE
  5
208
100
AcDbEntity
  8
0
  6
CONTINUOUS
 62
               7
100
AcDbCircle
 10
3.5000000057725131
 20
-20.000000026713579
 30
0.0
 40
0.9
  0
CIRCLE
  5
209
100
AcDbEntity
  8
0
  6
CONTINUOUS
 62
               7
100
AcDbCircle
 10
3.5000000057724705
 20
19.999999973286421
 30
0.0
 40
0.9
  0
ARC
  5
20A
100
AcDbEntity
  8
0
  6
CONTINUOUS
 62
               7
100
AcDbCircle
 10
-48.499999988455194
 20
-0.0000000267135647
 30
0.0
 40
58.500000000000121
100
AcDbArc
 50
2.93953448643432
 51
22.619864948040362
  0
ARC
  5
20B
100
AcDbEntity
  8
0
  6
CONTINUOUS
 62
               7
100
AcDbCircle
 10
-45.041666655121595
 20
-0.0000000267135647
 30
0.0
 40
52.541666666666536
100
AcDbArc
 50
340.5448428971967
 51
19.455157102803241
  0
LINE
  5
20C
100
AcDbEntity
  8
0
  6
CONTINUOUS
 62
               7
100
AcDbLine
 10
1.500000011544941
 20
-17.500000026713579
 30
0.0
 11
1.500000011544941
 21
-22.500000026713579
 31
0.0
  0
LINE
  5
20D
100
AcDbEntity
  8
0
  6
CONTINUOUS
 62
               7
100
AcDbLine
 10
1.5
 20
-17.500000026713579
 30
0.0
 11
4.500000011544941
 21
-17.500000026713579
 31
0.0
  0
LINE
  5
20E
100
AcDbEntity
  8
0
  6
CONTINUOUS
 62
               7
100
AcDbLine
 10
1.5
 20
17.499999973286421
 30
0.0
 11
4.500000011544941
 21
17.499999973286421
 31
0.0
  0
LINE
  5
20F
100
AcDbEntity
  8
0
  6
CONTINUOUS
 62
               7
100
AcDbLine
 10
1.500000011544941
 20
17.499999973286421
 30
0.0
 11
1.500000011544941
 21
22.499999973286421
 31
0.0
  0
LINE
  5
210
100
AcDbEntity
  8
0
  6
CONTINUOUS
 62
               7
100
AcDbLine
 10
-2.499999988455059
 20
-11.500000026713579
 30
0.0
 11
-2.499999988455059
 21
-16.500000026713579
 31
0.0
  0
LINE
  5
211
100
AcDbEntity
  8
0
  6
CONTINUOUS
 62
               7
100
AcDbLine
 10
-2.499999988455059
 20
-11.500000026713579
 30
0.0
 11
0.0
 21
-11.500000026713579
 31
0.0
  0
LINE
  5
212
100
AcDbEntity
  8
0
  6
CONTINUOUS
 62
               7
100
AcDbLine
 10
-2.499999988455059
 20
-16.500000026713579
 30
0.0
 11
0.0
 21
-16.500000026713579
 31
0.0
  0
LINE
  5
213
100
AcDbEntity
  8
0
  6
CONTINUOUS
 62
               7
100
AcDbLine
 10
0.0
 20
11.499999973286421
 30
0.0
 11
0.0
 21
-11.500000026713579
 31
0.0
  0
LINE
  5
214
100
AcDbEntity
  8
0
  6
CONTINUOUS
 62
               7
100
AcDbLine
 10
-2.499999988455059
 20
11.499999973286421
 30
0.0
 11
0.0
 21
11.499999973286421
 31
0.0
  0
LINE
  5
215
100
AcDbEntity
  8
0
  6
CONTINUOUS
 62
               7
100
AcDbLine
 10
-2.499999988455059
 20
16.499999973286421
 30
0.0
 11
0.0
 21
16.499999973286421
 31
0.0
  0
LINE
  5
216
100
AcDbEntity
  8
0
  6
CONTINUOUS
 62
               7
100
AcDbLine
 10
-2.499999988455059
 20
11.499999973286421
 30
0.0
 11
-2.499999988455059
 21
16.499999973286421
 31
0.0
  0
LINE
  5
217
100
AcDbEntity
  8
0
  6
CONTINUOUS
 62
               7
100
AcDbLine
 10
-3.0
 20
23.999999973286421
 30
0.0
 11
-3.0
 21
-24.000000026713579
 31
0.0
  0
LINE
  5
218
100
AcDbEntity
  8
0
  6
CONTINUOUS
 62
               7
100
AcDbLine
 10
-3.999999988455059
 20
-23.000000021392253
 30
0.0
 11
-2.9999999831337334
 21
-24.000000026713579
 31
0.0
  0
LINE
  5
219
100
AcDbEntity
  8
0
  6
CONTINUOUS
 62
               7
100
AcDbLine
 10
-3.0
 20
23.999999973286421
 30
0.0
 11
-3.9999999884550732
 21
22.999999984831206
 31
0.0
  0
LINE
  5
21A
100
AcDbEntity
  8
0
  6
CONTINUOUS
 62
               7
100
AcDbLine
 10
-3.999999988455059
 20
-23.000000021392253
 30
0.0
 11
-3.999999988455059
 21
22.999999978607747
 31
0.0
  0
LINE
  5
21B
100
AcDbEntity
  8
0
  6
CONTINUOUS
 62
               7
100
AcDbLine
 10
-3.0
 20
-24.000000026713579
 30
0.0
 11
0.0
 21
-24.000000026713579
 31
0.0
  0
LINE
  5
21C
100
AcDbEntity
  8
0
  6
CONTINUOUS
 62
               7
100
AcDbLine
 10
-3.0
 20
23.999999973286421
 30
0.0
 11
0.0
 21
23.999999973286421
 31
0.0
  0
LINE
  5
21D
100
AcDbEntity
  8
0
  6
CONTINUOUS
 62
               7
100
AcDbLine
 10
32.700000011544944
 20
-2.2000000267136031
 30
0.0
 11
30.000000011544941
 21
-2.2000000267136031
 31
0.0
  0
LINE
  5
21E
100
AcDbEntity
  8
0
  6
CONTINUOUS
 62
               7
100
AcDbLine
 10
32.700000011544944
 20
13.599999973286394
 30
0.0
 11
30.000000011544941
 21
13.599999973286394
 31
0.0
  0
LINE
  5
21F
100
AcDbEntity
  8
0
  6
CONTINUOUS
 62
               7
100
AcDbLine
 10
31.700000011544944
 20
-1.0000000267136002
 30
0.0
 11
31.700000011544944
 21
0.1999999732863884
 31
0.0
  0
LINE
  5
220
100
AcDbEntity
  8
0
  6
CONTINUOUS
 62
               7
100
AcDbLine
 10
32.700000011544944
 20
11.899999973286391
 30
0.0
 11
32.700000011544944
 21
13.599999973286394
 31
0.0
  0
LINE
  5
221
100
AcDbEntity
  8
0
  6
CONTINUOUS
 62
               7
100
AcDbLine
 10
30.000000011544941
 20
0.1999999732863884
 30
0.0
 11
31.700000011544944
 21
0.1999999732863884
 31
0.0
  0
LINE
  5
222
100
AcDbEntity
  8
0
  6
CONTINUOUS
 62
               7
100
AcDbLine
 10
30.000000011544941
 20
10.199999973286388
 30
0.0
 11
31.700000011544944
 21
10.199999973286388
 31
0.0
  0
LINE
  5
223
100
AcDbEntity
  8
0
  6
CONTINUOUS
 62
               7
100
AcDbLine
 10
31.700000011544944
 20
11.899999973286391
 30
0.0
 11
32.700000011544944
 21
11.899999973286391
 31
0.0
  0
LINE
  5
224
100
AcDbEntity
  8
0
  6
CONTINUOUS
 62
               7
100
AcDbLine
 10
31.700000011544944
 20
-1.0000000267136002
 30
0.0
 11
32.700000011544944
 21
-1.0000000267136002
 31
0.0
  0
LINE
  5
225
100
AcDbEntity
  8
0
  6
CONTINUOUS
 62
               7
100
AcDbLine
 10
27.758926355208018
 20
6.9999999732864211
 30
0.0
 11
27.758926355208018
 21
7.8749999732864211
 31
0.0
  0
LINE
  5
226
100
AcDbEntity
  8
0
  6
CONTINUOUS
 62
               7
100
AcDbLine
 10
31.700000011544944
 20
10.199999973286388
 30
0.0
 11
31.700000011544944
 21
11.899999973286391
 31
0.0
  0
LINE
  5
227
100
AcDbEntity
  8
0
  6
CONTINUOUS
 62
               7
100
AcDbLine
 10
32.700000011544944
 20
-2.2000000267136031
 30
0.0
 11
32.700000011544944
 21
-1.0000000267136002
 31
0.0
  0
LINE
  5
228
100
AcDbEntity
  8
0
  6
CONTINUOUS
 62
               7
100
AcDbLine
 10
28.500000011544955
 20
-7.8000000267136045
 30
0.0
 11
25.500000011544941
 21
-7.8000000267136045
 31
0.0
  0
LINE
  5
229
100
AcDbEntity
  8
0
  6
CONTINUOUS
 62
               7
100
AcDbLine
 10
28.500000011544955
 20
-7.8000000267136045
 30
0.0
 11
28.500000011544955
 21
-7.8750000267135789
 31
0.0
  0
LINE
  5
22A
100
AcDbEntity
  8
0
  6
CONTINUOUS
 62
               7
100
AcDbLine
 10
28.30000001154491
 20
-19.684063351512805
 30
0.0
 11
28.30000001154491
 21
-15.000000026713565
 31
0.0
  0
LINE
  5
22B
100
AcDbEntity
  8
0
  6
CONTINUOUS
 62
               7
100
AcDbLine
 10
29.30000001154491
 20
-19.666608286584591
 30
0.0
 11
29.30000001154491
 21
-14.700000026713582
 31
0.0
  0
LINE
  5
22C
100
AcDbEntity
  8
0
  6
CONTINUOUS
 62
               7
100
AcDbLine
 10
29.30000001154491
 20
-15.000000026713565
 30
0.0
 11
25.500000011544941
 21
-15.000000026713565
 31
0.0
  0
LINE
  5
22D
100
AcDbEntity
  8
0
  6
CONTINUOUS
 62
               7
100
AcDbLine
 10
29.30000001154491
 20
-14.700000026713582
 30
0.0
 11
25.500000011544941
 21
-14.700000026713582
 31
0.0
  0
LINE
  5
22E
100
AcDbEntity
  8
0
  6
CONTINUOUS
 62
               7
100
AcDbLine
 10
-0.0000000000000284
 20
25.599999973286444
 30
0.0
 11
0.0
 21
16.499999973286421
 31
0.0
  0
LINE
  5
22F
100
AcDbEntity
  8
0
  6
CONTINUOUS
 62
               7
100
AcDbLine
 10
0.0
 20
-16.500000026713579
 30
0.0
 11
-0.0000000000000284
 21
-25.600000026713573
 31
0.0
  0
LINE
  5
230
100
AcDbEntity
  8
0
  6
CENTER
 62
               2
100
AcDbLine
 10
-13.900820172143725
 20
0.0
 30
0.0
 11
34.777699594131647
 21
0.0
 31
0.0
  0
ENDBLK
  5
231
100
AcDbEntity
  8
0
100
AcDbBlockEnd
  0
BLOCK
  5
232
100
AcDbEntity
  8
0
100
AcDbBlockBegin
  2
DTY-EPU-P-C-3
 70
               0
 10
0.0
 20
0.0
 30
0.0
  3
DTY-EPU-P-C-3
  1

  0
LINE
  5
233
100
AcDbEntity
  8
0
  6
CENTER
 62
               2
100
AcDbLine
 10
0.0
 20
-11.5
 30
0.0
 11
0.0
 21
34.576663965411484
 31
0.0
  0
ARC
  5
234
100
AcDbEntity
  8
0
  6
CONTINUOUS
 62
               7
100
AcDbCircle
 10
24.100000000000051
 20
-8.0
 30
0.0
 40
1.5
100
AcDbArc
 50
270.0
 51
0.0
  0
ARC
  5
235
100
AcDbEntity
  8
0
  6
CONTINUOUS
 62
               7
100
AcDbCircle
 10
-24.099999999999966
 20
-8.0
 30
0.0
 40
1.5
100
AcDbArc
 50
180.0
 51
270.0
  0
LINE
  5
236
100
AcDbEntity
  8
0
  6
CONTINUOUS
 62
               7
100
AcDbLine
 10
-25.599999999999966
 20
0.0
 30
0.0
 11
25.600000000000051
 21
0.0
 31
0.0
  0
LINE
  5
237
100
AcDbEntity
  8
0
  6
CONTINUOUS
 62
               7
100
AcDbLine
 10
-24.099999999999966
 20
-9.5
 30
0.0
 11
24.100000000000051
 21
-9.5
 31
0.0
  0
LINE
  5
238
100
AcDbEntity
  8
0
  6
CONTINUOUS
 62
               7
100
AcDbLine
 10
25.600000000000051
 20
-8.0
 30
0.0
 11
25.600000000000051
 21
0.0
 31
0.0
  0
LINE
  5
239
100
AcDbEntity
  8
0
  6
CONTINUOUS
 62
               7
100
AcDbLine
 10
-25.599999999999966
 20
-8.0
 30
0.0
 11
-25.599999999999966
 21
0.0
 31
0.0
  0
LINE
  5
23A
100
AcDbEntity
  8
0
  6
CONTINUOUS
 62
               7
100
AcDbLine
 10
-6.0
 20
6.5000000000000142
 30
0.0
 11
6.0
 21
6.4999999999999858
 31
0.0
  0
LINE
  5
23B
100
AcDbEntity
  8
0
  6
CONTINUOUS
 62
               7
100
AcDbLine
 10
13.5
 20
32.700000000000003
 30
0.0
 11
-13.5
 21
32.700000000000003
 31
0.0
  0
LINE
  5
23C
100
AcDbEntity
  8
0
  6
CONTINUOUS
 62
               7
100
AcDbLine
 10
13.5
 20
27.500000011544941
 30
0.0
 11
13.5
 21
32.700000000000003
 31
0.0
  0
LINE
  5
23D
100
AcDbEntity
  8
0
  6
CONTINUOUS
 62
               7
100
AcDbLine
 10
-13.5
 20
27.500000011544941
 30
0.0
 11
-13.5
 21
32.700000000000003
 31
0.0
  0
LINE
  5
23E
100
AcDbEntity
  8
0
  6
CONTINUOUS
 62
               7
100
AcDbLine
 10
-17.0
 20
29.300000000000011
 30
0.0
 11
-17.0
 21
27.500000011544941
 31
0.0
  0
LINE
  5
23F
100
AcDbEntity
  8
0
  6
CONTINUOUS
 62
               7
100
AcDbLine
 10
17.0
 20
29.300000000000011
 30
0.0
 11
17.0
 21
27.500000011544941
 31
0.0
  0
LINE
  5
240
100
AcDbEntity
  8
0
  6
CONTINUOUS
 62
               7
100
AcDbLine
 10
19.0
 20
29.300000000000011
 30
0.0
 11
13.5
 21
29.300000000000011
 31
0.0
  0
LINE
  5
241
100
AcDbEntity
  8
0
  6
CONTINUOUS
 62
               7
100
AcDbLine
 10
-13.5
 20
29.300000000000011
 30
0.0
 11
-19.000000000000512
 21
29.300000000000011
 31
0.0
  0
LINE
  5
242
100
AcDbEntity
  8
0
  6
CONTINUOUS
 62
               7
100
AcDbLine
 10
19.739999994612361
 20
28.56000000538765
 30
0.0
 11
19.0
 21
29.300000000000011
 31
0.0
  0
LINE
  5
243
100
AcDbEntity
  8
0
  6
CONTINUOUS
 62
               7
100
AcDbLine
 10
-19.739999994612432
 20
28.560000005387721
 30
0.0
 11
-19.000000000000512
 21
29.300000000000011
 31
0.0
  0
ARC
  5
244
100
AcDbEntity
  8
0
  6
CONTINUOUS
 62
               7
100
AcDbCircle
 10
-7.0
 20
12.399999999999991
 30
0.0
 40
1.0
100
AcDbArc
 50
0.0
 51
180.0
  0
LINE
  5
245
100
AcDbEntity
  8
0
  6
CONTINUOUS
 62
               7
100
AcDbLine
 10
-8.0
 20
-0.0000000000000142
 30
0.0
 11
-8.0
 21
12.399999999999991
 31
0.0
  0
LINE
  5
246
100
AcDbEntity
  8
0
  6
CONTINUOUS
 62
               7
100
AcDbLine
 10
-6.0
 20
2.9999999999999858
 30
0.0
 11
-6.0
 21
12.399999999999991
 31
0.0
  0
ARC
  5
247
100
AcDbEntity
  8
0
  6
CONTINUOUS
 62
               7
100
AcDbCircle
 10
7.0
 20
12.399999999999991
 30
0.0
 40
1.0
100
AcDbArc
 50
0.0
 51
180.0
  0
LINE
  5
248
100
AcDbEntity
  8
0
  6
CONTINUOUS
 62
               7
100
AcDbLine
 10
-6.0
 20
3.0000000000000142
 30
0.0
 11
6.0
 21
2.9999999999999858
 31
0.0
  0
LINE
  5
249
100
AcDbEntity
  8
0
  6
CONTINUOUS
 62
               7
100
AcDbLine
 10
8.0
 20
-0.0000000000000142
 30
0.0
 11
8.0
 21
12.399999999999991
 31
0.0
  0
LINE
  5
24A
100
AcDbEntity
  8
0
  6
CONTINUOUS
 62
               7
100
AcDbLine
 10
-22.0
 20
27.500000011544941
 30
0.0
 11
-22.0
 21
30.000000011544941
 31
0.0
  0
LINE
  5
24B
100
AcDbEntity
  8
0
  6
CONTINUOUS
 62
               7
100
AcDbLine
 10
-22.0
 20
30.000000011544941
 30
0.0
 11
-21.0
 21
30.000000011544941
 31
0.0
  0
LINE
  5
24C
100
AcDbEntity
  8
0
  6
CONTINUOUS
 62
               7
100
AcDbLine
 10
-21.0
 20
30.000000011544941
 30
0.0
 11
-18.8125
 21
27.500000011544941
 31
0.0
  0
LINE
  5
24D
100
AcDbEntity
  8
0
  6
CONTINUOUS
 62
               7
100
AcDbLine
 10
-23.500000014483987
 20
30.000000011544941
 30
0.0
 11
-22.5
 21
25.500000011544941
 31
0.0
  0
LINE
  5
24E
100
AcDbEntity
  8
0
  6
CONTINUOUS
 62
               7
100
AcDbLine
 10
-22.5
 20
25.500000011544941
 30
0.0
 11
-22.5
 21
27.500000011544941
 31
0.0
  0
LINE
  5
24F
100
AcDbEntity
  8
0
  6
CONTINUOUS
 62
               7
100
AcDbLine
 10
-24.700000000000003
 20
1.5000000139176137
 30
0.0
 11
-24.700000000000003
 21
15.500000011544941
 31
0.0
  0
LINE
  5
250
100
AcDbEntity
  8
0
  6
CONTINUOUS
 62
               7
100
AcDbLine
 10
-27.700000000000003
 20
1.5000000139176137
 30
0.0
 11
-27.700000000000003
 21
16.500000011544941
 31
0.0
  0
LINE
  5
251
100
AcDbEntity
  8
0
  6
CONTINUOUS
 62
               7
100
AcDbLine
 10
-25.0
 20
20.000000011544941
 30
0.0
 11
-25.0
 21
30.000000011544941
 31
0.0
  0
LINE
  5
252
100
AcDbEntity
  8
0
  6
CONTINUOUS
 62
               7
100
AcDbLine
 10
-25.0
 20
20.000000011544941
 30
0.0
 11
-27.700000000000003
 21
16.500000011544941
 31
0.0
  0
LINE
  5
253
100
AcDbEntity
  8
0
  6
CONTINUOUS
 62
               7
100
AcDbLine
 10
-25.000000014483987
 20
30.000000011544941
 30
0.0
 11
-23.500000014483987
 21
30.000000011544941
 31
0.0
  0
LINE
  5
254
100
AcDbEntity
  8
0
  6
CONTINUOUS
 62
               7
100
AcDbLine
 10
-24.700000002563058
 20
9.9230262939962728
 30
0.0
 11
-27.700000002563058
 21
9.9230262939962728
 31
0.0
  0
LINE
  5
255
100
AcDbEntity
  8
0
  6
CONTINUOUS
 62
               7
100
AcDbLine
 10
-24.700000002563058
 20
5.500000011544941
 30
0.0
 11
-27.700000002563058
 21
5.500000011544941
 31
0.0
  0
LINE
  5
256
100
AcDbEntity
  8
0
  6
CONTINUOUS
 62
               7
100
AcDbLine
 10
-24.700000002563058
 20
1.500000011544941
 30
0.0
 11
-27.700000002563058
 21
1.500000011544941
 31
0.0
  0
LINE
  5
257
100
AcDbEntity
  8
0
  6
CONTINUOUS
 62
               7
100
AcDbLine
 10
21.0
 20
30.000000011544941
 30
0.0
 11
18.8125
 21
27.500000011544941
 31
0.0
  0
LINE
  5
258
100
AcDbEntity
  8
0
  6
CONTINUOUS
 62
               7
100
AcDbLine
 10
22.0
 20
30.000000011544941
 30
0.0
 11
21.0
 21
30.000000011544941
 31
0.0
  0
LINE
  5
259
100
AcDbEntity
  8
0
  6
CONTINUOUS
 62
               7
100
AcDbLine
 10
22.0
 20
27.500000011544941
 30
0.0
 11
22.0
 21
30.000000011544941
 31
0.0
  0
LINE
  5
25A
100
AcDbEntity
  8
0
  6
CONTINUOUS
 62
               7
100
AcDbLine
 10
-5.0
 20
16.000000011544941
 30
0.0
 11
5.0
 21
16.000000011544941
 31
0.0
  0
LINE
  5
25B
100
AcDbEntity
  8
0
  6
CONTINUOUS
 62
               7
100
AcDbLine
 10
5.0
 20
15.500000011544941
 30
0.0
 11
24.700000000000003
 21
15.500000011544941
 31
0.0
  0
LINE
  5
25C
100
AcDbEntity
  8
0
  6
CONTINUOUS
 62
               7
100
AcDbLine
 10
5.0
 20
15.500000011544941
 30
0.0
 11
5.0
 21
16.000000011544941
 31
0.0
  0
LINE
  5
25D
100
AcDbEntity
  8
0
  6
CONTINUOUS
 62
               7
100
AcDbLine
 10
-5.0
 20
15.500000011544941
 30
0.0
 11
-5.0
 21
16.000000011544941
 31
0.0
  0
LINE
  5
25E
100
AcDbEntity
  8
0
  6
CONTINUOUS
 62
               7
100
AcDbLine
 10
6.0
 20
2.9999999999999858
 30
0.0
 11
6.0
 21
12.399999999999991
 31
0.0
  0
LINE
  5
25F
100
AcDbEntity
  8
0
  6
CONTINUOUS
 62
               7
100
AcDbLine
 10
23.500000014483987
 20
30.000000011544941
 30
0.0
 11
22.5
 21
25.500000011544941
 31
0.0
  0
LINE
  5
260
100
AcDbEntity
  8
0
  6
CONTINUOUS
 62
               7
100
AcDbLine
 10
25.000000014483987
 20
30.000000011544941
 30
0.0
 11
23.500000014483987
 21
30.000000011544941
 31
0.0
  0
LINE
  5
261
100
AcDbEntity
  8
0
  6
CONTINUOUS
 62
               7
100
AcDbLine
 10
25.0
 20
20.000000011544941
 30
0.0
 11
27.700000000000003
 21
16.500000011544941
 31
0.0
  0
LINE
  5
262
100
AcDbEntity
  8
0
  6
CONTINUOUS
 62
               7
100
AcDbLine
 10
25.0
 20
20.000000011544941
 30
0.0
 11
25.0
 21
30.000000011544941
 31
0.0
  0
LINE
  5
263
100
AcDbEntity
  8
0
  6
CONTINUOUS
 62
               7
100
AcDbLine
 10
24.700000002563058
 20
9.9230262939962728
 30
0.0
 11
27.700000002563058
 21
9.9230262939962728
 31
0.0
  0
LINE
  5
264
100
AcDbEntity
  8
0
  6
CONTINUOUS
 62
               7
100
AcDbLine
 10
24.700000002563058
 20
5.500000011544941
 30
0.0
 11
27.700000002563058
 21
5.500000011544941
 31
0.0
  0
LINE
  5
265
100
AcDbEntity
  8
0
  6
CONTINUOUS
 62
               7
100
AcDbLine
 10
24.700000002563058
 20
1.500000011544941
 30
0.0
 11
27.700000002563058
 21
1.500000011544941
 31
0.0
  0
LINE
  5
266
100
AcDbEntity
  8
0
  6
CONTINUOUS
 62
               7
100
AcDbLine
 10
27.700000000000003
 20
1.5000000139176137
 30
0.0
 11
27.700000000000003
 21
16.500000011544941
 31
0.0
  0
LINE
  5
267
100
AcDbEntity
  8
0
  6
CONTINUOUS
 62
               7
100
AcDbLine
 10
-24.0
 20
-2.9999999999999858
 30
0.0
 11
-24.0
 21
0.0000000000000142
 31
0.0
  0
LINE
  5
268
100
AcDbEntity
  8
0
  6
CONTINUOUS
 62
               7
100
AcDbLine
 10
24.0
 20
-3.0000000000000142
 30
0.0
 11
24.0
 21
-0.0000000000000142
 31
0.0
  0
LINE
  5
269
100
AcDbEntity
  8
0
  6
CONTINUOUS
 62
               7
100
AcDbLine
 10
22.99999999467866
 20
-3.999999988455059
 30
0.0
 11
-23.00000000532134
 21
-3.999999988455059
 31
0.0
  0
LINE
  5
26A
100
AcDbEntity
  8
0
  6
CONTINUOUS
 62
               7
100
AcDbLine
 10
-24.0
 20
-2.9999999999999858
 30
0.0
 11
-23.000000011544785
 21
-3.999999988455059
 31
0.0
  0
LINE
  5
26B
100
AcDbEntity
  8
0
  6
CONTINUOUS
 62
               7
100
AcDbLine
 10
22.99999999467866
 20
-3.999999988455059
 30
0.0
 11
24.0
 21
-2.9999999831337192
 31
0.0
  0
LINE
  5
26C
100
AcDbEntity
  8
0
  6
CONTINUOUS
 62
               7
100
AcDbLine
 10
-24.0
 20
-2.9999999999999858
 30
0.0
 11
24.0
 21
-3.0000000000000142
 31
0.0
  0
LINE
  5
26D
100
AcDbEntity
  8
0
  6
CONTINUOUS
 62
               7
100
AcDbLine
 10
-11.5
 20
-2.499999988455059
 30
0.0
 11
-16.5
 21
-2.499999988455059
 31
0.0
  0
LINE
  5
26E
100
AcDbEntity
  8
0
  6
CONTINUOUS
 62
               7
100
AcDbLine
 10
-16.5
 20
-2.499999988455059
 30
0.0
 11
-16.5
 21
0.0000000000000142
 31
0.0
  0
LINE
  5
26F
100
AcDbEntity
  8
0
  6
CONTINUOUS
 62
               7
100
AcDbLine
 10
-11.5
 20
-2.499999988455059
 30
0.0
 11
-11.5
 21
0.0000000000000142
 31
0.0
  0
LINE
  5
270
100
AcDbEntity
  8
0
  6
CONTINUOUS
 62
               7
100
AcDbLine
 10
16.5
 20
-2.499999988455059
 30
0.0
 11
16.5
 21
-0.0000000000000142
 31
0.0
  0
LINE
  5
271
100
AcDbEntity
  8
0
  6
CONTINUOUS
 62
               7
100
AcDbLine
 10
11.5
 20
-2.499999988455059
 30
0.0
 11
11.5
 21
-0.0000000000000142
 31
0.0
  0
LINE
  5
272
100
AcDbEntity
  8
0
  6
CONTINUOUS
 62
               7
100
AcDbLine
 10
11.5
 20
-2.499999988455059
 30
0.0
 11
16.5
 21
-2.499999988455059
 31
0.0
  0
LINE
  5
273
100
AcDbEntity
  8
0
  6
CONTINUOUS
 62
               7
100
AcDbLine
 10
-22.5
 20
0.0000000000000142
 30
0.0
 11
-22.5
 21
15.500000011544941
 31
0.0
  0
LINE
  5
274
100
AcDbEntity
  8
0
  6
CONTINUOUS
 62
               7
100
AcDbLine
 10
22.5
 20
-0.0000000000000142
 30
0.0
 11
22.5
 21
15.500000011544941
 31
0.0
  0
LINE
  5
275
100
AcDbEntity
  8
0
  6
CONTINUOUS
 62
               7
100
AcDbLine
 10
-24.0
 20
15.500000011544941
 30
0.0
 11
-24.0
 21
25.500000011544941
 31
0.0
  0
LINE
  5
276
100
AcDbEntity
  8
0
  6
CONTINUOUS
 62
               7
100
AcDbLine
 10
24.0
 20
15.500000011544941
 30
0.0
 11
24.0
 21
25.500000011544941
 31
0.0
  0
LINE
  5
277
100
AcDbEntity
  8
0
  6
CONTINUOUS
 62
               7
100
AcDbLine
 10
22.5
 20
25.500000011544941
 30
0.0
 11
22.5
 21
27.500000011544941
 31
0.0
  0
LINE
  5
278
100
AcDbEntity
  8
0
  6
CONTINUOUS
 62
               7
100
AcDbLine
 10
-24.700000000000003
 20
15.500000011544941
 30
0.0
 11
-5.0
 21
15.500000011544941
 31
0.0
  0
LINE
  5
279
100
AcDbEntity
  8
0
  6
CONTINUOUS
 62
               7
100
AcDbLine
 10
-24.0
 20
25.500000011544941
 30
0.0
 11
24.0
 21
25.500000011544941
 31
0.0
  0
LINE
  5
27A
100
AcDbEntity
  8
0
  6
CONTINUOUS
 62
               7
100
AcDbLine
 10
-22.5
 20
27.500000011544941
 30
0.0
 11
22.5
 21
27.500000011544941
 31
0.0
  0
LINE
  5
27B
100
AcDbEntity
  8
0
  6
CONTINUOUS
 62
               7
100
AcDbLine
 10
24.700000000000003
 20
1.5000000139176137
 30
0.0
 11
24.700000000000003
 21
15.500000011544941
 31
0.0
  0
ENDBLK
  5
27C
100
AcDbEntity
  8
0
100
AcDbBlockEnd
  0
BLOCK
  5
22
100
AcDbEntity
  8
0
  6
ByBlock
 62
               0
100
AcDbBlockBegin
  2
_OPEN30
 70
               2
 10
0.0
 20
0.0
 30
0.0
  3
_OPEN30
  1

  0
LINE
  5
23
100
AcDbEntity
  8
0
  6
ByBlock
 62
               0
100
AcDbLine
 10
-1.0
 20
0.267949
 30
0.0
 11
0.0
 21
0.0
 31
0.0
  0
LINE
  5
24
100
AcDbEntity
  8
0
  6
ByBlock
 62
               0
100
AcDbLine
 10
0.0
 20
0.0
 30
0.0
 11
-1.0
 21
-0.267949
 31
0.0
  0
LINE
  5
25
100
AcDbEntity
  8
0
  6
ByBlock
 62
               0
100
AcDbLine
 10
0.0
 20
0.0
 30
0.0
 11
-1.0
 21
0.0
 31
0.0
  0
ENDBLK
  5
26
100
AcDbEntity
  8
0
  6
ByBlock
 62
               0
100
AcDbBlockEnd
  0
ENDSEC
  0
SECTION
  2
ENTITIES
  0
INSERT
  5
27D
100
AcDbEntity
  8
0
  6
ByBlock
100
AcDbBlockReference
  2
DTY-EPU-P-C-3
 10
-50.0
 20
50.0
 30
0.0
  0
INSERT
  5
27E
100
AcDbEntity
  8
0
  6
ByBlock
100
AcDbBlockReference
  2
DTY-EPU-P-C-2
 10
50.0
 20
-30.0
 30
0.0
  0
INSERT
  5
27F
100
AcDbEntity
  8
0
  6
ByBlock
100
AcDbBlockReference
  2
DTY-EPU-P-C-1
 10
-49.999999999999957
 20
-29.781803075445879
 30
0.0
  0
MTEXT
  5
280
100
AcDbEntity
  8
0
  6
CONTINUOUS
 62
               7
100
AcDbMText
 10
-173.44064748374967
 20
128.85000610351562
 30
0.0
 40
4.5
 41
0.0
 71
               4
 72
               1
  1
\W1.079;\A1;EP MONITER
  0
MTEXT
  5
281
100
AcDbEntity
  8
0
  6
CONTINUOUS
 62
               7
100
AcDbMText
 10
-175.75
 20
121.35000610351562
 30
0.0
 40
4.5
 41
0.0
 71
               4
 72
               1
  1
\A1;DTY-EPU-P-C
  0
MTEXT
  5
282
100
AcDbEntity
  8
0
  6
CONTINUOUS
 62
               7
100
AcDbMText
 10
-185.7193877555768
 20
107.60000610351562
 30
0.0
 40
4.5
 41
0.0
 71
               4
 72
               1
  1
\W1.041;\A1;MODEL:DTY-EPU-P-C
  0
LINE
  5
283
100
AcDbEntity
  8
0
  6
CONTINUOUS
 62
               7
100
AcDbLine
 10
-194.25
 20
132.60000610351562
 30
0.0
 11
194.80000305175781
 21
132.60000610351562
 31
0.0
  0
LINE
  5
284
100
AcDbEntity
  8
0
  6
CONTINUOUS
 62
               7
100
AcDbLine
 10
194.80000305175781
 20
132.60000610351562
 30
0.0
 11
194.80000305175781
 21
-133.5
 31
0.0
  0
LINE
  5
285
100
AcDbEntity
  8
0
  6
CONTINUOUS
 62
               7
100
AcDbLine
 10
-194.25
 20
132.60000610351562
 30
0.0
 11
-194.25
 21
-133.5
 31
0.0
  0
LINE
  5
286
100
AcDbEntity
  8
0
  6
CONTINUOUS
 62
               7
100
AcDbLine
 10
-194.25
 20
-133.5
 30
0.0
 11
194.80000305175781
 21
-133.5
 31
0.0
  0
LINE
  5
287
100
AcDbEntity
  8
0
  6
CONTINUOUS
 62
               7
100
AcDbLine
 10
109.80000305175781
 20
-118.5
 30
0.0
 11
109.80000305175781
 21
-133.5
 31
0.0
  0
LINE
  5
288
100
AcDbEntity
  8
0
  6
CONTINUOUS
 62
               7
100
AcDbLine
 10
109.80000305175781
 20
-118.5
 30
0.0
 11
194.80000305175781
 21
-118.5
 31
0.0
  0
LINE
  5
289
100
AcDbEntity
  8
0
  6
CONTINUOUS
 62
               7
100
AcDbLine
 10
109.80000305175781
 20
132.60000610351562
 30
0.0
 11
109.80000305175781
 21
117.60000610351562
 31
0.0
  0
LINE
  5
28A
100
AcDbEntity
  8
0
  6
CONTINUOUS
 62
               7
100
AcDbLine
 10
109.80000305175781
 20
117.60000610351562
 30
0.0
 11
194.80000305175781
 21
117.60000610351562
 31
0.0
  0
LINE
  5
28B
100
AcDbEntity
  8
0
  6
CONTINUOUS
 62
               7
100
AcDbLine
 10
-194.25
 20
117.60000610351562
 30
0.0
 11
-109.25
 21
117.60000610351562
 31
0.0
  0
LINE
  5
28C
100
AcDbEntity
  8
0
  6
CONTINUOUS
 62
               7
100
AcDbLine
 10
-109.25
 20
132.60000610351562
 30
0.0
 11
-109.25
 21
117.60000610351562
 31
0.0
  0
MTEXT
  5
28D
100
AcDbEntity
  8
0
  6
CONTINUOUS
 62
               7
100
AcDbMText
 10
135.2836095995238
 20
125.10000610351562
 30
0.0
 40
4.5
 41
0.0
 71
               4
 72
               1
  1
\W1.311;\A1;Ver. 1.0
  0
MTEXT
  5
28E
100
AcDbEntity
  8
0
  6
CONTINUOUS
 62
               7
100
AcDbMText
 10
115.5267440447775
 20
-126.0
 30
0.0
 40
6.2999992370605469
 41
0.0
 71
               4
 72
               1
  1
\W1.121;\A1;KOGANEI CORP.
  0
ENDSEC
  0
SECTION
  2
OBJECTS
  0
DICTIONARY
  5
19
100
AcDbDictionary
  3
ACAD_GROUP
350
1A
  3
ACAD_MLINESTYLE
350
1B
  0
DICTIONARY
  5
1A
102
{ACAD_REACTORS
330
19
102
}
100
AcDbDictionary
  0
DICTIONARY
  5
1B
102
{ACAD_REACTORS
330
19
102
}
100
AcDbDictionary
  3
STANDARD
350
1C
  0
MLINESTYLE
  5
1C
102
{ACAD_REACTORS
330
1B
102
}
100
AcDbMlineStyle
  2
Standard
 70
               0
  3

 62
               0
 51
90.0
 52
90.0
 71
               2
 49
0.5
 62
             256
  6
ByLayer
 49
-0.5
 62
             256
  6
ByLayer
  0
ENDSEC
  0
EOF
