  0
SECTION
  2
HEADER
  9
$ACADVER
  1
AC1012
  9
$DWGCODEPAGE
  3
dos932
  9
$INSBASE
 10
0.0
 20
0.0
 30
0.0
  9
$EXTMIN
 10
-194.25
 20
-133.5
 30
0.0
  9
$EXTMAX
 10
196.24998569488525
 20
132.60000610351562
 30
0.0
  9
$LIMMIN
 10
-210.0
 20
-148.5
  9
$LIMMAX
 10
210.0
 20
148.5
  9
$ORTHOMODE
 70
               0
  9
$REGENMODE
 70
               1
  9
$FILLMODE
 70
               1
  9
$QTEXTMODE
 70
               0
  9
$MIRRTEXT
 70
               1
  9
$DRAGMODE
 70
               2
  9
$LTSCALE
 40
1.0
  9
$OSMODE
 70
               0
  9
$ATTMODE
 70
               1
  9
$TEXTSIZE
 40
3.2000000476837158
  9
$TRACEWID
 40
0.05
  9
$TEXTSTYLE
  7
MX_NOTE_STANDARD
  9
$CLAYER
  8
0
  9
$CELTYPE
  6
CONTINUOUS
  9
$CECOLOR
 62
             256
  9
$CELTSCALE
 40
1.0
  9
$DELOBJ
 70
               1
  9
$DISPSILH
 70
               0
  9
$DIMSCALE
 40
1.0
  9
$DIMASZ
 40
2.5
  9
$DIMEXO
 40
1.5
  9
$DIMDLI
 40
3.75
  9
$DIMRND
 40
0.0
  9
$DIMDLE
 40
0.0
  9
$DIMEXE
 40
1.5
  9
$DIMTP
 40
0.0
  9
$DIMTM
 40
0.0
  9
$DIMTXT
 40
3.2000000476837158
  9
$DIMCEN
 40
2.5
  9
$DIMTSZ
 40
0.0
  9
$DIMTOL
 70
               0
  9
$DIMLIM
 70
               0
  9
$DIMTIH
 70
               0
  9
$DIMTOH
 70
               0
  9
$DIMSE1
 70
               0
  9
$DIMSE2
 70
               0
  9
$DIMTAD
 70
               1
  9
$DIMZIN
 70
               8
  9
$DIMBLK
  1

  9
$DIMASO
 70
               1
  9
$DIMSHO
 70
               1
  9
$DIMPOST
  1

  9
$DIMAPOST
  1

  9
$DIMALT
 70
               0
  9
$DIMALTD
 70
               4
  9
$DIMALTF
 40
0.03937007874016
  9
$DIMLFAC
 40
1.0
  9
$DIMTOFL
 70
               1
  9
$DIMTVP
 40
0.0
  9
$DIMTIX
 70
               0
  9
$DIMSOXD
 70
               0
  9
$DIMSAH
 70
               1
  9
$DIMBLK1
  1
_OPEN30
  9
$DIMBLK2
  1
_OPEN30
  9
$DIMSTYLE
  2
MXDIMSTYLE
  9
$DIMCLRD
 70
               0
  9
$DIMCLRE
 70
               0
  9
$DIMCLRT
 70
               0
  9
$DIMTFAC
 40
1.0
  9
$DIMGAP
 40
1.0
  9
$DIMJUST
 70
               0
  9
$DIMSD1
 70
               0
  9
$DIMSD2
 70
               0
  9
$DIMTOLJ
 70
               0
  9
$DIMTZIN
 70
               0
  9
$DIMALTZ
 70
               0
  9
$DIMALTTZ
 70
               0
  9
$DIMFIT
 70
               3
  9
$DIMUPT
 70
               1
  9
$DIMUNIT
 70
               2
  9
$DIMDEC
 70
               2
  9
$DIMTDEC
 70
               2
  9
$DIMALTU
 70
               2
  9
$DIMALTTD
 70
               4
  9
$DIMTXSTY
  7
MX_NOTE_STANDARD
  9
$DIMAUNIT
 70
               0
  9
$LUNITS
 70
               2
  9
$LUPREC
 70
               4
  9
$SKETCHINC
 40
0.1
  9
$FILLETRAD
 40
0.0
  9
$AUNITS
 70
               0
  9
$AUPREC
 70
               0
  9
$MENU
  1
acad
  9
$ELEVATION
 40
0.0
  9
$PELEVATION
 40
0.0
  9
$THICKNESS
 40
0.0
  9
$LIMCHECK
 70
               0
  9
$BLIPMODE
 70
               1
  9
$CHAMFERA
 40
0.0
  9
$CHAMFERB
 40
0.0
  9
$CHAMFERC
 40
0.0
  9
$CHAMFERD
 40
0.0
  9
$SKPOLY
 70
               0
  9
$TDCREATE
 40
2454057.468761574
  9
$TDUPDATE
 40
2454057.468761574
  9
$TDINDWG
 40
0.0000000000
  9
$TDUSRTIMER
 40
0.0000000000
  9
$USRTIMER
 70
               1
  9
$ANGBASE
 50
0.0
  9
$ANGDIR
 70
               0
  9
$PDMODE
 70
               0
  9
$PDSIZE
 40
0.0
  9
$PLINEWID
 40
0.0
  9
$COORDS
 70
               1
  9
$SPLFRAME
 70
               0
  9
$SPLINETYPE
 70
               6
  9
$SPLINESEGS
 70
               8
  9
$ATTDIA
 70
               0
  9
$ATTREQ
 70
               1
  9
$HANDLING
 70
               1
  9
$HANDSEED
  5
25B
  9
$SURFTAB1
 70
               6
  9
$SURFTAB2
 70
               6
  9
$SURFTYPE
 70
               6
  9
$SURFU
 70
               6
  9
$SURFV
 70
               6
  9
$UCSNAME
  2

  9
$UCSORG
 10
0.0
 20
0.0
 30
0.0
  9
$UCSXDIR
 10
1.0
 20
0.0
 30
0.0
  9
$UCSYDIR
 10
0.0
 20
1.0
 30
0.0
  9
$PUCSNAME
  2

  9
$PUCSORG
 10
0.0
 20
0.0
 30
0.0
  9
$PUCSXDIR
 10
1.0
 20
0.0
 30
0.0
  9
$PUCSYDIR
 10
0.0
 20
1.0
 30
0.0
  9
$USERI1
 70
               0
  9
$USERI2
 70
               0
  9
$USERI3
 70
               0
  9
$USERI4
 70
               0
  9
$USERI5
 70
               0
  9
$USERR1
 40
0.0
  9
$USERR2
 40
0.0
  9
$USERR3
 40
0.0
  9
$USERR4
 40
0.0
  9
$USERR5
 40
0.0
  9
$WORLDVIEW
 70
               1
  9
$SHADEDGE
 70
               3
  9
$SHADEDIF
 70
              70
  9
$TILEMODE
 70
               1
  9
$MAXACTVP
 70
              16
  9
$PINSBASE
 10
0.0
 20
0.0
 30
0.0
  9
$PLIMCHECK
 70
               0
  9
$PEXTMIN
 10
1.0000000000000000E+20
 20
1.0000000000000000E+20
 30
1.0000000000000000E+20
  9
$PEXTMAX
 10
-1.0000000000000000E+20
 20
-1.0000000000000000E+20
 30
-1.0000000000000000E+20
  9
$PLIMMIN
 10
0.0
 20
0.0
  9
$PLIMMAX
 10
12.0
 20
9.0
  9
$UNITMODE
 70
               0
  9
$VISRETAIN
 70
               0
  9
$PLINEGEN
 70
               1
  9
$PSLTSCALE
 70
               0
  9
$TREEDEPTH
 70
            3020
  9
$PICKSTYLE
 70
               1
  9
$CMLSTYLE
  2
Standard
  9
$CMLJUST
 70
               0
  9
$CMLSCALE
 40
1.0
  9
$SAVEIMAGES
 70
               0
  0
ENDSEC
  0
SECTION
  2
CLASSES
  0
CLASS
  1
LWPOLYLINE
  2
AcDbPolyline
  3
"AutoCAD"
 90
    32768
280
               0
281
               1
  0
CLASS
  1
IMAGE
  2
AcDbRasterImage
  3
ISM
 90
    32895
280
               0
281
               1
  0
CLASS
  1
OLE2FRAME
  2
AcDbOle2Frame
  3
""
 90
    32768
280
               0
281
               1
  0
CLASS
  1
HATCH
  2
AcDbHatch
  3
"ACAD_SEDONA"
 90
    32768
280
               0
281
               1
  0
CLASS
  1
DICTIONARYVAR
  2
AcDbDictionaryVar
  3
"AutoCAD"
 90
    32768
280
               0
281
               0
  0
CLASS
  1
RASTERVARIABLES
  2
AcDbRasterVariables
  3
ISM
 90
    32768
280
               0
281
               0
  0
CLASS
  1
IMAGEDEF
  2
AcDbRasterImageDef
  3
ISM
 90
    32768
280
               0
281
               0
  0
CLASS
  1
IMAGEDEF_REACTOR
  2
AcDbRasterImageDefReactor
  3
ISM
 90
    32769
280
               0
281
               0
  0
CLASS
  1
IDBUFFER
  2
AcDbIdBuffer
  3
"Acad"
 90
    32768
280
               0
281
               0
  0
CLASS
  1
SPATIAL_FILTER
  2
AcDbSpatialFilter
  3
"Acad"
 90
    32768
280
               0
281
               0
  0
CLASS
  1
XRECORD
  2
AcDbXrecord
  3
"<Built In>"
 90
    32768
280
               0
281
               0
  0
CLASS
  1
SORTENTSTABLE
  2
AcDbSortentsTable
  3
"AutoCAD"
 90
    32768
280
               0
281
               0
  0
CLASS
  1
LAYER_INDEX
  2
AcDbLayerIndex
  3
"Acad"
 90
    32768
280
               0
281
               0
  0
CLASS
  1
SPATIAL_INDEX
  2
AcDbSpatialIndex
  3
"Acad"
 90
    32768
280
               0
281
               0
  0
CLASS
  1
OBJECT_PTR
  2
CAseDLPNTableRecord
  3
"ASE-LPNTableRecord"
 90
    32769
280
               0
281
               0
  0
CLASS
  1
LAYOUT
  2
AcDbLayout
  3
"AutoCAD 2000"
 90
    32768
280
               0
281
               0
  0
CLASS
  1
PLOTSETTINGS
  2
AcDbPlotSettings
  3
"AutoCAD 2000"
 90
    32768
280
               0
281
               0
  0
CLASS
  1
ACDBDICTIONARYWDFLT
  2
AcDbDictionaryWithDefault
  3
"AutoCAD 2000"
 90
    32768
280
               0
281
               0
  0
CLASS
  1
ACDBPLACEHOLDER
  2
AcDbPlaceHolder
  3
"AutoCAD 2000"
 90
    32768
280
               0
281
               0
  0
ENDSEC
  0
SECTION
  2
TABLES
  0
TABLE
  2
VPORT
  5
7
100
AcDbSymbolTable
 70
               1
  0
VPORT
  5
15
100
AcDbSymbolTableRecord
100
AcDbViewportTableRecord
  2
*ACTIVE
 70
               0
 10
0.0
 20
0.0
 11
1.0
 21
1.0
 12
0.0
 22
0.0
 13
0.0
 23
0.0
 14
1.0
 24
1.0
 15
0.0
 25
0.0
 16
0.0
 26
0.0
 36
1.0
 17
0.0
 27
0.0
 37
0.0
 40
299.97000000000003
 41
1.7320508075688772
 42
50.0
 43
0.0
 44
0.0
 50
0.0
 51
0.0
 71
               0
 72
             100
 73
               1
 74
               1
 75
               0
 76
               0
 77
               0
 78
               0
  0
ENDTAB
  0
TABLE
  2
LTYPE
  5
4
100
AcDbSymbolTable
 70
               3
  0
LTYPE
  5
11
100
AcDbSymbolTableRecord
100
AcDbLinetypeTableRecord
  2
BYBLOCK
 70
              64
  3

 72
              65
 73
               0
 40
0.0
  0
LTYPE
  5
12
100
AcDbSymbolTableRecord
100
AcDbLinetypeTableRecord
  2
BYLAYER
 70
              64
  3

 72
              65
 73
               0
 40
0.0
  0
LTYPE
  5
13
100
AcDbSymbolTableRecord
100
AcDbLinetypeTableRecord
  2
CONTINUOUS
 70
              64
  3
Solid line
 72
              65
 73
               0
 40
0.0
  0
ENDTAB
  0
TABLE
  2
LAYER
  5
2
100
AcDbSymbolTable
 70
               2
  0
LAYER
  5
14
100
AcDbSymbolTableRecord
100
AcDbLayerTableRecord
  2
0
 70
               0
 62
               7
  6
CONTINUOUS
  0
LAYER
  5
1D
100
AcDbSymbolTableRecord
100
AcDbLayerTableRecord
  2
DEFPOINTS
 70
               0
 62
               7
  6
CONTINUOUS
  0
ENDTAB
  0
TABLE
  2
STYLE
  5
3
100
AcDbSymbolTable
 70
               1
  0
STYLE
  5
17
100
AcDbSymbolTableRecord
100
AcDbTextStyleTableRecord
  2
MX_NOTE_STANDARD
 70
               0
 40
0.0
 41
1.0
 50
0.0
 71
               0
 42
3.2000000476837158
  3
txt.shx
  4
extfont.shx
  0
ENDTAB
  0
TABLE
  2
VIEW
  5
5
100
AcDbSymbolTable
 70
               0
  0
ENDTAB
  0
TABLE
  2
UCS
  5
6
100
AcDbSymbolTable
 70
               0
  0
ENDTAB
  0
TABLE
  2
APPID
  5
8
100
AcDbSymbolTable
 70
               1
  0
APPID
  5
16
100
AcDbSymbolTableRecord
100
AcDbRegAppTableRecord
  2
ACAD
 70
               0
  0
ENDTAB
  0
TABLE
  2
DIMSTYLE
  5
9
100
AcDbSymbolTable
 70
               1
  0
DIMSTYLE
105
18
100
AcDbSymbolTableRecord
100
AcDbDimStyleTableRecord
  2
MXDIMSTYLE
 70
               0
  3

  4

  5

  6
_OPEN30
  7
_OPEN30
 40
1.0
 41
2.5
 42
1.5
 43
3.75
 44
1.5
 45
0.0
 46
0.0
 47
0.0
 48
0.0
 71
               0
 72
               0
 73
               0
 74
               0
 75
               0
 76
               0
 77
               1
 78
               8
140
3.2000000476837158
141
2.5
142
0.0
143
0.03937007874016
144
1.0
145
0.0
146
1.0
147
1.0
170
               0
171
               4
172
               1
173
               1
174
               0
175
               0
176
               0
177
               0
178
               0
270
               2
271
               2
272
               2
273
               2
274
               4
275
               0
280
               0
281
               0
282
               0
283
               0
284
               0
285
               0
286
               0
287
               3
288
               1
340
17
  0
ENDTAB
  0
TABLE
  2
BLOCK_RECORD
  5
1
100
AcDbSymbolTable
 70
               4
  0
BLOCK_RECORD
  5
A
100
AcDbSymbolTableRecord
100
AcDbBlockTableRecord
  2
*MODEL_SPACE
  0
BLOCK_RECORD
  5
B
100
AcDbSymbolTableRecord
100
AcDbBlockTableRecord
  2
*PAPER_SPACE
  0
BLOCK_RECORD
  5
1E
100
AcDbSymbolTableRecord
100
AcDbBlockTableRecord
  2
DTY-EPU-B-1
  0
BLOCK_RECORD
  5
1F
100
AcDbSymbolTableRecord
100
AcDbBlockTableRecord
  2
DTY-EPU-B-2
  0
BLOCK_RECORD
  5
20
100
AcDbSymbolTableRecord
100
AcDbBlockTableRecord
  2
DTY-EPU-B-3
  0
BLOCK_RECORD
  5
21
100
AcDbSymbolTableRecord
100
AcDbBlockTableRecord
  2
_OPEN30
  0
ENDTAB
  0
ENDSEC
  0
SECTION
  2
BLOCKS
  0
BLOCK
  5
D
100
AcDbEntity
  8
0
100
AcDbBlockBegin
  2
*MODEL_SPACE
 70
               0
 10
0.0
 20
0.0
 30
0.0
  3
*MODEL_SPACE
  1

  0
ENDBLK
  5
E
100
AcDbEntity
  8
0
100
AcDbBlockEnd
  0
BLOCK
  5
F
100
AcDbEntity
 67
               1
  8
0
100
AcDbBlockBegin
  2
*PAPER_SPACE
 70
               0
 10
0.0
 20
0.0
 30
0.0
  3
*PAPER_SPACE
  1

  0
ENDBLK
  5
10
100
AcDbEntity
 67
               1
  8
0
100
AcDbBlockEnd
  0
BLOCK
  5
27
100
AcDbEntity
  8
0
100
AcDbBlockBegin
  2
DTY-EPU-B-1
 70
               0
 10
0.0
 20
0.0
 30
0.0
  3
DTY-EPU-B-1
  1

  0
ARC
  5
28
100
AcDbEntity
  8
0
  6
CONTINUOUS
 62
               7
100
AcDbCircle
 10
-11.0
 20
45.950000000000003
 30
0.0
 40
1.0
100
AcDbArc
 50
90.0
 51
180.0
  0
ARC
  5
29
100
AcDbEntity
  8
0
  6
CONTINUOUS
 62
               7
100
AcDbCircle
 10
27.0
 20
7.9500000000000028
 30
0.0
 40
1.0
100
AcDbArc
 50
270.0
 51
0.0
  0
ARC
  5
2A
100
AcDbEntity
  8
0
  6
CONTINUOUS
 62
               7
100
AcDbCircle
 10
-11.0
 20
7.9500000000000028
 30
0.0
 40
1.0
100
AcDbArc
 50
180.0
 51
270.0
  0
ARC
  5
2B
100
AcDbEntity
  8
0
  6
CONTINUOUS
 62
               7
100
AcDbCircle
 10
27.0
 20
45.950000000000003
 30
0.0
 40
1.0
100
AcDbArc
 50
0.0
 51
90.0
  0
LINE
  5
2C
100
AcDbEntity
  8
0
  6
CONTINUOUS
 62
               7
100
AcDbLine
 10
27.0
 20
46.950000000000003
 30
0.0
 11
-11.0
 21
46.950000000000003
 31
0.0
  0
LINE
  5
2D
100
AcDbEntity
  8
0
  6
CONTINUOUS
 62
               7
100
AcDbLine
 10
27.0
 20
6.9500000000000028
 30
0.0
 11
-11.0
 21
6.9500000000000028
 31
0.0
  0
LINE
  5
2E
100
AcDbEntity
  8
0
  6
CONTINUOUS
 62
               7
100
AcDbLine
 10
-12.0
 20
45.950000000000003
 30
0.0
 11
-12.0
 21
7.9500000000000028
 31
0.0
  0
LINE
  5
2F
100
AcDbEntity
  8
0
  6
CONTINUOUS
 62
               7
100
AcDbLine
 10
28.0
 20
7.9500000000000028
 30
0.0
 11
28.0
 21
45.950000000000003
 31
0.0
  0
LINE
  5
30
100
AcDbEntity
  8
0
  6
CONTINUOUS
 62
               7
100
AcDbLine
 10
27.0
 20
45.950000000000003
 30
0.0
 11
-11.0
 21
45.950000000000003
 31
0.0
  0
LINE
  5
31
100
AcDbEntity
  8
0
  6
CONTINUOUS
 62
               7
100
AcDbLine
 10
27.0
 20
7.9500000000000028
 30
0.0
 11
27.0
 21
45.950000000000003
 31
0.0
  0
LINE
  5
32
100
AcDbEntity
  8
0
  6
CONTINUOUS
 62
               7
100
AcDbLine
 10
27.0
 20
7.9500000000000028
 30
0.0
 11
-11.0
 21
7.9500000000000028
 31
0.0
  0
LINE
  5
33
100
AcDbEntity
  8
0
  6
CONTINUOUS
 62
               7
100
AcDbLine
 10
-11.0
 20
45.950000000000003
 30
0.0
 11
-11.0
 21
7.9500000000000028
 31
0.0
  0
LINE
  5
34
100
AcDbEntity
  8
0
  6
CONTINUOUS
 62
               7
100
AcDbLine
 10
27.0
 20
45.950000000000003
 30
0.0
 11
27.707106781186553
 21
46.657106781186549
 31
0.0
  0
LINE
  5
35
100
AcDbEntity
  8
0
  6
CONTINUOUS
 62
               7
100
AcDbLine
 10
-11.0
 20
7.9500000000000028
 30
0.0
 11
-11.707106781186553
 21
7.2428932188134496
 31
0.0
  0
LINE
  5
36
100
AcDbEntity
  8
0
  6
CONTINUOUS
 62
               7
100
AcDbLine
 10
27.0
 20
7.9500000000000028
 30
0.0
 11
27.707106781186553
 21
7.2428932188134638
 31
0.0
  0
LINE
  5
37
100
AcDbEntity
  8
0
  6
CONTINUOUS
 62
               7
100
AcDbLine
 10
-11.0
 20
45.950000000000003
 30
0.0
 11
-11.707106781186553
 21
46.657106781186549
 31
0.0
  0
ARC
  5
38
100
AcDbEntity
  8
0
  6
CONTINUOUS
 62
               7
100
AcDbCircle
 10
-10.0
 20
8.9500000000000028
 30
0.0
 40
0.5
100
AcDbArc
 50
180.0
 51
270.0
  0
ARC
  5
39
100
AcDbEntity
  8
0
  6
CONTINUOUS
 62
               7
100
AcDbCircle
 10
26.0
 20
44.950000000000003
 30
0.0
 40
0.5
100
AcDbArc
 50
0.0
 51
90.0
  0
LINE
  5
3A
100
AcDbEntity
  8
0
  6
CONTINUOUS
 62
               7
100
AcDbLine
 10
16.5
 20
27.050000000000004
 30
0.0
 11
18.5
 21
27.050000000000004
 31
0.0
  0
LINE
  5
3B
100
AcDbEntity
  8
0
  6
CONTINUOUS
 62
               7
100
AcDbLine
 10
19.5
 20
25.050000000000004
 30
0.0
 11
19.5
 21
25.550000000000004
 31
0.0
  0
LINE
  5
3C
100
AcDbEntity
  8
0
  6
CONTINUOUS
 62
               7
100
AcDbLine
 10
19.5
 20
22.550000000000004
 30
0.0
 11
21.665063509461049
 21
24.049999999999997
 31
0.0
  0
LINE
  5
3D
100
AcDbEntity
  8
0
  6
CONTINUOUS
 62
               7
100
AcDbLine
 10
19.5
 20
25.550000000000004
 30
0.0
 11
21.665063509461106
 21
24.049999999999997
 31
0.0
  0
LINE
  5
3E
100
AcDbEntity
  8
0
  6
CONTINUOUS
 62
               7
100
AcDbLine
 10
19.5
 20
23.050000000000004
 30
0.0
 11
19.5
 21
22.550000000000004
 31
0.0
  0
LINE
  5
3F
100
AcDbEntity
  8
0
  6
CONTINUOUS
 62
               7
100
AcDbLine
 10
16.5
 20
25.550000000000004
 30
0.0
 11
16.5
 21
27.050000000000004
 31
0.0
  0
LINE
  5
40
100
AcDbEntity
  8
0
  6
CONTINUOUS
 62
               7
100
AcDbLine
 10
18.5
 20
25.550000000000004
 30
0.0
 11
18.5
 21
27.050000000000004
 31
0.0
  0
LINE
  5
41
100
AcDbEntity
  8
0
  6
CONTINUOUS
 62
               7
100
AcDbLine
 10
19.0
 20
23.050000000000004
 30
0.0
 11
19.5
 21
23.050000000000004
 31
0.0
  0
LINE
  5
42
100
AcDbEntity
  8
0
  6
CONTINUOUS
 62
               7
100
AcDbLine
 10
19.0
 20
25.050000000000004
 30
0.0
 11
19.5
 21
25.050000000000004
 31
0.0
  0
ARC
  5
43
100
AcDbEntity
  8
0
  6
CONTINUOUS
 62
               7
100
AcDbCircle
 10
19.0
 20
25.550000000000004
 30
0.0
 40
2.5
100
AcDbArc
 50
180.0
 51
270.0
  0
ARC
  5
44
100
AcDbEntity
  8
0
  6
CONTINUOUS
 62
               7
100
AcDbCircle
 10
19.0
 20
25.550000000000004
 30
0.0
 40
0.5
100
AcDbArc
 50
180.0
 51
270.0
  0
LINE
  5
45
100
AcDbEntity
  8
0
  6
CONTINUOUS
 62
               7
100
AcDbLine
 10
10.598076211353316
 20
27.200000000000003
 30
0.0
 11
8.0
 21
22.700000000000003
 31
0.0
  0
LINE
  5
46
100
AcDbEntity
  8
0
  6
CONTINUOUS
 62
               7
100
AcDbLine
 10
5.401923788646684
 20
27.200000000000003
 30
0.0
 11
10.598076211353316
 21
27.200000000000003
 31
0.0
  0
LINE
  5
47
100
AcDbEntity
  8
0
  6
CONTINUOUS
 62
               7
100
AcDbLine
 10
8.0
 20
22.700000000000003
 30
0.0
 11
5.401923788646684
 21
27.200000000000003
 31
0.0
  0
LINE
  5
48
100
AcDbEntity
  8
0
  6
CONTINUOUS
 62
               7
100
AcDbLine
 10
-5.598076211353316
 20
22.700000000000003
 30
0.0
 11
-3.0
 21
27.200000000000003
 31
0.0
  0
LINE
  5
49
100
AcDbEntity
  8
0
  6
CONTINUOUS
 62
               7
100
AcDbLine
 10
-0.401923788646684
 20
22.700000000000003
 30
0.0
 11
-5.598076211353316
 21
22.700000000000003
 31
0.0
  0
LINE
  5
4A
100
AcDbEntity
  8
0
  6
CONTINUOUS
 62
               7
100
AcDbLine
 10
-3.0
 20
27.200000000000003
 30
0.0
 11
-0.401923788646684
 21
22.700000000000003
 31
0.0
  0
LINE
  5
4B
100
AcDbEntity
  8
0
  6
CONTINUOUS
 62
               7
100
AcDbLine
 10
26.5
 20
29.200000000000003
 30
0.0
 11
-10.5
 21
29.200000000000003
 31
0.0
  0
ARC
  5
4C
100
AcDbEntity
  8
0
  6
CONTINUOUS
 62
               7
100
AcDbCircle
 10
26.0
 20
8.9500000000000028
 30
0.0
 40
0.5
100
AcDbArc
 50
270.0
 51
0.0
  0
ARC
  5
4D
100
AcDbEntity
  8
0
  6
CONTINUOUS
 62
               7
100
AcDbCircle
 10
-10.0
 20
44.950000000000003
 30
0.0
 40
0.5
100
AcDbArc
 50
90.0
 51
180.0
  0
LINE
  5
4E
100
AcDbEntity
  8
0
  6
CONTINUOUS
 62
               7
100
AcDbLine
 10
22.0
 20
27.950000000000003
 30
0.0
 11
22.0
 21
21.950000000000003
 31
0.0
  0
LINE
  5
4F
100
AcDbEntity
  8
0
  6
CONTINUOUS
 62
               7
100
AcDbLine
 10
16.0
 20
21.950000000000003
 30
0.0
 11
22.0
 21
21.950000000000003
 31
0.0
  0
LINE
  5
50
100
AcDbEntity
  8
0
  6
CONTINUOUS
 62
               7
100
AcDbLine
 10
16.0
 20
27.950000000000003
 30
0.0
 11
22.0
 21
27.950000000000003
 31
0.0
  0
LINE
  5
51
100
AcDbEntity
  8
0
  6
CONTINUOUS
 62
               7
100
AcDbLine
 10
16.0
 20
27.950000000000003
 30
0.0
 11
16.0
 21
21.950000000000003
 31
0.0
  0
LINE
  5
52
100
AcDbEntity
  8
0
  6
CONTINUOUS
 62
               7
100
AcDbLine
 10
5.0
 20
21.950000000000003
 30
0.0
 11
5.0
 21
27.950000000000003
 31
0.0
  0
LINE
  5
53
100
AcDbEntity
  8
0
  6
CONTINUOUS
 62
               7
100
AcDbLine
 10
11.0
 20
27.950000000000003
 30
0.0
 11
5.0
 21
27.950000000000003
 31
0.0
  0
LINE
  5
54
100
AcDbEntity
  8
0
  6
CONTINUOUS
 62
               7
100
AcDbLine
 10
11.0
 20
21.950000000000003
 30
0.0
 11
5.0
 21
21.950000000000003
 31
0.0
  0
LINE
  5
55
100
AcDbEntity
  8
0
  6
CONTINUOUS
 62
               7
100
AcDbLine
 10
11.0
 20
21.950000000000003
 30
0.0
 11
11.0
 21
27.950000000000003
 31
0.0
  0
LINE
  5
56
100
AcDbEntity
  8
0
  6
CONTINUOUS
 62
               7
100
AcDbLine
 10
-6.0
 20
27.950000000000003
 30
0.0
 11
-6.0
 21
21.950000000000003
 31
0.0
  0
LINE
  5
57
100
AcDbEntity
  8
0
  6
CONTINUOUS
 62
               7
100
AcDbLine
 10
26.5
 20
8.9500000000000028
 30
0.0
 11
26.5
 21
44.950000000000003
 31
0.0
  0
LINE
  5
58
100
AcDbEntity
  8
0
  6
CONTINUOUS
 62
               7
100
AcDbLine
 10
26.0
 20
8.4500000000000028
 30
0.0
 11
-10.0
 21
8.4500000000000028
 31
0.0
  0
LINE
  5
59
100
AcDbEntity
  8
0
  6
CONTINUOUS
 62
               7
100
AcDbLine
 10
26.0
 20
45.450000000000003
 30
0.0
 11
-10.0
 21
45.450000000000003
 31
0.0
  0
LINE
  5
5A
100
AcDbEntity
  8
0
  6
CONTINUOUS
 62
               7
100
AcDbLine
 10
-6.0
 20
27.950000000000003
 30
0.0
 11
0.0
 21
27.950000000000003
 31
0.0
  0
LINE
  5
5B
100
AcDbEntity
  8
0
  6
CONTINUOUS
 62
               7
100
AcDbLine
 10
-6.0
 20
21.950000000000003
 30
0.0
 11
0.0
 21
21.950000000000003
 31
0.0
  0
LINE
  5
5C
100
AcDbEntity
  8
0
  6
CONTINUOUS
 62
               7
100
AcDbLine
 10
0.0
 20
27.950000000000003
 30
0.0
 11
0.0
 21
21.950000000000003
 31
0.0
  0
CIRCLE
  5
5D
100
AcDbEntity
  8
0
  6
CONTINUOUS
 62
               7
100
AcDbCircle
 10
-5.5
 20
18.450000000000003
 30
0.0
 40
2.0
  0
CIRCLE
  5
5E
100
AcDbEntity
  8
0
  6
CONTINUOUS
 62
               7
100
AcDbCircle
 10
-5.5
 20
11.950000000000003
 30
0.0
 40
2.0
  0
CIRCLE
  5
5F
100
AcDbEntity
  8
0
  6
CONTINUOUS
 62
               7
100
AcDbCircle
 10
-0.5
 20
11.950000000000003
 30
0.0
 40
2.0
  0
CIRCLE
  5
60
100
AcDbEntity
  8
0
  6
CONTINUOUS
 62
               7
100
AcDbCircle
 10
4.5
 20
11.950000000000003
 30
0.0
 40
2.0
  0
CIRCLE
  5
61
100
AcDbEntity
  8
0
  6
CONTINUOUS
 62
               7
100
AcDbCircle
 10
9.5
 20
11.950000000000003
 30
0.0
 40
2.0
  0
CIRCLE
  5
62
100
AcDbEntity
  8
0
  6
CONTINUOUS
 62
               7
100
AcDbCircle
 10
9.5
 20
18.450000000000003
 30
0.0
 40
2.0
  0
CIRCLE
  5
63
100
AcDbEntity
  8
0
  6
CONTINUOUS
 62
               7
100
AcDbCircle
 10
4.5
 20
18.450000000000003
 30
0.0
 40
2.0
  0
CIRCLE
  5
64
100
AcDbEntity
  8
0
  6
CONTINUOUS
 62
               7
100
AcDbCircle
 10
-0.5
 20
18.450000000000003
 30
0.0
 40
2.0
  0
LINE
  5
65
100
AcDbEntity
  8
0
  6
CONTINUOUS
 62
               7
100
AcDbLine
 10
23.0
 20
41.200000000000003
 30
0.0
 11
-7.0
 21
41.200000000000003
 31
0.0
  0
LINE
  5
66
100
AcDbEntity
  8
0
  6
CONTINUOUS
 62
               7
100
AcDbLine
 10
23.0
 20
29.700000000000003
 30
0.0
 11
-7.0
 21
29.700000000000003
 31
0.0
  0
LINE
  5
67
100
AcDbEntity
  8
0
  6
CONTINUOUS
 62
               7
100
AcDbLine
 10
-7.0
 20
41.200000000000003
 30
0.0
 11
-7.0
 21
29.700000000000003
 31
0.0
  0
LINE
  5
68
100
AcDbEntity
  8
0
  6
CONTINUOUS
 62
               7
100
AcDbLine
 10
23.0
 20
41.200000000000003
 30
0.0
 11
23.0
 21
29.700000000000003
 31
0.0
  0
LINE
  5
69
100
AcDbEntity
  8
0
  6
CONTINUOUS
 62
               7
100
AcDbLine
 10
-10.5
 20
8.9500000000000028
 30
0.0
 11
-10.5
 21
44.950000000000003
 31
0.0
  0
LINE
  5
6A
100
AcDbEntity
  8
0
  6
CONTINUOUS
 62
               7
100
AcDbLine
 10
20.0
 20
6.9500000000000028
 30
0.0
 11
20.0
 21
1.6000000000000085
 31
0.0
  0
LINE
  5
6B
100
AcDbEntity
  8
0
  6
CONTINUOUS
 62
               7
100
AcDbLine
 10
-4.0
 20
6.9500000000000028
 30
0.0
 11
-4.0
 21
1.6000000000000085
 31
0.0
  0
LINE
  5
6C
100
AcDbEntity
  8
0
  6
CONTINUOUS
 62
               7
100
AcDbLine
 10
20.0
 20
1.6000000000000085
 30
0.0
 11
-4.0
 21
1.6000000000000085
 31
0.0
  0
LINE
  5
6D
100
AcDbEntity
  8
0
  6
CONTINUOUS
 62
               7
100
AcDbLine
 10
27.0
 20
0.0
 30
0.0
 11
-11.0
 21
0.0
 31
0.0
  0
LINE
  5
6E
100
AcDbEntity
  8
0
  6
CONTINUOUS
 62
               7
100
AcDbLine
 10
-11.0
 20
6.9500000000000028
 30
0.0
 11
-11.0
 21
0.0
 31
0.0
  0
LINE
  5
6F
100
AcDbEntity
  8
0
  6
CONTINUOUS
 62
               7
100
AcDbLine
 10
27.0
 20
6.9500000000000028
 30
0.0
 11
27.0
 21
0.0
 31
0.0
  0
LINE
  5
70
100
AcDbEntity
  8
0
  6
CONTINUOUS
 62
               2
100
AcDbLine
 10
0.0
 20
2.2985487801036868
 30
0.0
 11
0.0
 21
-1.1805052231287476
 31
0.0
  0
LINE
  5
71
100
AcDbEntity
  8
0
  6
CONTINUOUS
 62
               2
100
AcDbLine
 10
16.0
 20
2.2985487801036868
 30
0.0
 11
16.0
 21
-1.1805052231287476
 31
0.0
  0
CIRCLE
  5
72
100
AcDbEntity
  8
0
  6
CONTINUOUS
 62
               7
100
AcDbCircle
 10
0.8250226729480801
 20
31.550000000000018
 30
0.0
 40
0.3999999999999986
  0
CIRCLE
  5
73
100
AcDbEntity
  8
0
  6
CONTINUOUS
 62
               7
100
AcDbCircle
 10
7.6250226729480346
 20
31.550000000000018
 30
0.0
 40
0.3999999999999986
  0
CIRCLE
  5
74
100
AcDbEntity
  8
0
  6
CONTINUOUS
 62
               7
100
AcDbCircle
 10
14.425022672948103
 20
31.550000000000018
 30
0.0
 40
0.3999999999999986
  0
ARC
  5
75
100
AcDbEntity
  8
0
  6
CONTINUOUS
 62
               7
100
AcDbCircle
 10
-3.7757359312880112
 20
31.000000000000107
 30
0.0
 40
0.3000000000000007
100
AcDbArc
 50
135.00000000000199
 51
270.00000000000006
  0
ARC
  5
76
100
AcDbEntity
  8
0
  6
CONTINUOUS
 62
               7
100
AcDbCircle
 10
-3.1757359312879316
 20
31.600000000000186
 30
0.0
 40
0.3000000000000007
100
AcDbArc
 50
90.000000000005443
 51
134.9999999999998
  0
ARC
  5
77
100
AcDbEntity
  8
0
  6
CONTINUOUS
 62
               7
100
AcDbCircle
 10
-1.6964191610173884
 20
31.600000000000364
 30
0.0
 40
0.2999999999999996
100
AcDbArc
 50
34.99999999999838
 51
90.0
  0
ARC
  5
78
100
AcDbEntity
  8
0
  6
CONTINUOUS
 62
               7
100
AcDbCircle
 10
-1.2762946380914855
 20
31.000000000000234
 30
0.0
 40
0.3000000000000007
100
AcDbArc
 50
270.00000000000341
 51
35.000000000000213
  0
ARC
  5
79
100
AcDbEntity
  8
0
  6
CONTINUOUS
 62
               7
100
AcDbCircle
 10
-3.9349171798069449
 20
34.822455095185163
 30
0.0
 40
0.3000000000000007
100
AcDbArc
 50
45.0
 51
135.0
  0
ARC
  5
7A
100
AcDbEntity
  8
0
  6
CONTINUOUS
 62
               7
100
AcDbCircle
 10
-3.6921305984248249
 20
34.579668513803043
 30
0.0
 40
0.300000000000006
100
AcDbArc
 50
354.99999999999534
 51
45.0000000000027
  0
ARC
  5
7B
100
AcDbEntity
  8
0
  6
CONTINUOUS
 62
               7
100
AcDbCircle
 10
-3.8692663394439535
 20
32.554997729268038
 30
0.0
 40
0.300000000000001
100
AcDbArc
 50
314.99999999999812
 51
354.99999999999545
  0
ARC
  5
7C
100
AcDbEntity
  8
0
  6
CONTINUOUS
 62
               7
100
AcDbCircle
 10
-4.5293040600199106
 20
31.894960008692067
 30
0.0
 40
0.2999999999999954
100
AcDbArc
 50
174.99999999999523
 51
315.00000000000006
  0
ARC
  5
7D
100
AcDbEntity
  8
0
  6
CONTINUOUS
 62
               7
100
AcDbCircle
 10
-4.30561311978704
 20
34.451759155205067
 30
0.0
 40
0.3000000000000007
100
AcDbArc
 50
134.99999999999994
 51
174.99999999999528
  0
ARC
  5
7E
100
AcDbEntity
  8
0
  6
CONTINUOUS
 62
               7
100
AcDbCircle
 10
-1.6242640687125629
 20
35.850000000000009
 30
0.0
 40
0.3
100
AcDbArc
 50
44.999999999994252
 51
90.0
  0
ARC
  5
7F
100
AcDbEntity
  8
0
  6
CONTINUOUS
 62
               7
100
AcDbCircle
 10
-1.349264068712472
 20
35.574999999999946
 30
0.0
 40
0.3000000000000013
100
AcDbArc
 50
314.99999999999619
 51
45.000000000004583
  0
ARC
  5
80
100
AcDbEntity
  8
0
  6
CONTINUOUS
 62
               7
100
AcDbCircle
 10
-1.6742640687124322
 20
35.25
 30
0.0
 40
0.3000000000000007
100
AcDbArc
 50
270.00000000001091
 51
314.99999999999977
  0
ARC
  5
81
100
AcDbEntity
  8
0
  6
CONTINUOUS
 62
               7
100
AcDbCircle
 10
-2.7757359312885796
 20
35.249999999999901
 30
0.0
 40
0.3
100
AcDbArc
 50
225.0
 51
270.0
  0
ARC
  5
82
100
AcDbEntity
  8
0
  6
CONTINUOUS
 62
               7
100
AcDbCircle
 10
-3.0507359312886706
 20
35.524999999999991
 30
0.0
 40
0.3000000000000013
100
AcDbArc
 50
134.99999999999994
 51
224.99999999999923
  0
ARC
  5
83
100
AcDbEntity
  8
0
  6
CONTINUOUS
 62
               7
100
AcDbCircle
 10
-2.725735931288682
 20
35.850000000000009
 30
0.0
 40
0.3000000000000007
100
AcDbArc
 50
90.0
 51
134.99999999999974
  0
ARC
  5
84
100
AcDbEntity
  8
0
  6
CONTINUOUS
 62
               7
100
AcDbCircle
 10
-0.528825537550091
 20
34.822455095185163
 30
0.0
 40
0.3000000000000013
100
AcDbArc
 50
45.000000000003361
 51
134.99999999999974
  0
ARC
  5
85
100
AcDbEntity
  8
0
  6
CONTINUOUS
 62
               7
100
AcDbCircle
 10
-0.2860389561679426
 20
34.579668513803043
 30
0.0
 40
0.300000000000006
100
AcDbArc
 50
354.99999999999511
 51
45.000000000000455
  0
ARC
  5
86
100
AcDbEntity
  8
0
  6
CONTINUOUS
 62
               7
100
AcDbCircle
 10
-0.5176248308780487
 20
31.93262985328829
 30
0.0
 40
0.3000000000000004
100
AcDbArc
 50
214.99999999998639
 51
354.99999999999523
  0
ARC
  5
87
100
AcDbEntity
  8
0
  6
CONTINUOUS
 62
               7
100
AcDbCircle
 10
-1.0530207480122158
 20
32.697254465161549
 30
0.0
 40
0.2999999999999954
100
AcDbArc
 50
174.99999999999511
 51
214.99999999999019
  0
ARC
  5
88
100
AcDbEntity
  8
0
  6
CONTINUOUS
 62
               7
100
AcDbCircle
 10
-0.8995214775302145
 20
34.451759155205067
 30
0.0
 40
0.3000000000000007
100
AcDbArc
 50
134.99999999999974
 51
174.99999999999511
  0
ARC
  5
89
100
AcDbEntity
  8
0
  6
CONTINUOUS
 62
               7
100
AcDbCircle
 10
0.1188265714968395
 20
39.207302670590266
 30
0.0
 40
0.300000000000006
100
AcDbArc
 50
354.99999999999881
 51
134.99999999999955
  0
ARC
  5
8A
100
AcDbEntity
  8
0
  6
CONTINUOUS
 62
               7
100
AcDbCircle
 10
-0.1048643687359459
 20
36.65050352407728
 30
0.0
 40
0.3000000000000013
100
AcDbArc
 50
314.99999999999619
 51
354.99999999999523
  0
ARC
  5
8B
100
AcDbEntity
  8
0
  6
CONTINUOUS
 62
               7
100
AcDbCircle
 10
-0.4755603087160694
 20
36.279807584097185
 30
0.0
 40
0.3000000000000007
100
AcDbArc
 50
225.0
 51
314.99999999999977
  0
ARC
  5
8C
100
AcDbEntity
  8
0
  6
CONTINUOUS
 62
               7
100
AcDbCircle
 10
-0.7183468900982177
 20
36.522594165479305
 30
0.0
 40
0.300000000000006
100
AcDbArc
 50
174.99999999999238
 51
224.99999999999949
  0
ARC
  5
8D
100
AcDbEntity
  8
0
  6
CONTINUOUS
 62
               7
100
AcDbCircle
 10
-0.5412111490790892
 20
38.547264950014323
 30
0.0
 40
0.300000000000002
100
AcDbArc
 50
135.00000000000045
 51
174.99999999999531
  0
ARC
  5
8E
100
AcDbEntity
  8
0
  6
CONTINUOUS
 62
               7
100
AcDbCircle
 10
-3.3469792519885857
 20
38.402745534838672
 30
0.0
 40
0.300000000000006
100
AcDbArc
 50
354.99999999999267
 51
34.999999999990294
  0
ARC
  5
8F
100
AcDbEntity
  8
0
  6
CONTINUOUS
 62
               7
100
AcDbCircle
 10
-3.500280563684214
 20
36.65050352407728
 30
0.0
 40
0.3000000000000007
100
AcDbArc
 50
315.00000000000193
 51
354.99999999999494
  0
ARC
  5
90
100
AcDbEntity
  8
0
  6
CONTINUOUS
 62
               7
100
AcDbCircle
 10
-3.8709765036643375
 20
36.279807584097185
 30
0.0
 40
0.3000000000000007
100
AcDbArc
 50
225.0
 51
314.99999999999977
  0
ARC
  5
91
100
AcDbEntity
  8
0
  6
CONTINUOUS
 62
               7
100
AcDbCircle
 10
-4.1137630850464575
 20
36.522594165479333
 30
0.0
 40
0.299999999999999
100
AcDbArc
 50
174.99999999999787
 51
224.99999999999909
  0
ARC
  5
92
100
AcDbEntity
  8
0
  6
CONTINUOUS
 62
               7
100
AcDbCircle
 10
-3.8823751691227244
 20
39.167370146711917
 30
0.0
 40
0.2999999999999996
100
AcDbArc
 50
34.999999999990493
 51
174.99999999999528
  0
ARC
  5
93
100
AcDbEntity
  8
0
  6
CONTINUOUS
 62
               7
100
AcDbCircle
 10
-0.6242640687127903
 20
40.100000000000129
 30
0.0
 40
0.3000000000000007
100
AcDbArc
 50
315.00000000000409
 51
90.000000000003411
  0
ARC
  5
94
100
AcDbEntity
  8
0
  6
CONTINUOUS
 62
               7
100
AcDbCircle
 10
-1.2242640687128414
 20
39.50000000000005
 30
0.0
 40
0.3000000000000007
100
AcDbArc
 50
270.0
 51
315.00000000000045
  0
ARC
  5
95
100
AcDbEntity
  8
0
  6
CONTINUOUS
 62
               7
100
AcDbCircle
 10
-2.7035808389834131
 20
39.499999999999844
 30
0.0
 40
0.3000000000000008
100
AcDbArc
 50
214.99999999999926
 51
270.0000000000075
  0
ARC
  5
96
100
AcDbEntity
  8
0
  6
CONTINUOUS
 62
               7
100
AcDbCircle
 10
-3.123705361909316
 20
40.09999999999998
 30
0.0
 40
0.3000000000000007
100
AcDbArc
 50
90.0
 51
215.00000000000026
  0
LINE
  5
97
100
AcDbEntity
  8
0
  6
CONTINUOUS
 62
               7
100
AcDbLine
 10
-3.7757359312880112
 20
30.700000000000102
 30
0.0
 11
-1.2762946380914855
 21
30.700000000000237
 31
0.0
  0
LINE
  5
98
100
AcDbEntity
  8
0
  6
CONTINUOUS
 62
               7
100
AcDbLine
 10
-3.3878679656438919
 20
31.812132034356146
 30
0.0
 11
-3.9878679656439999
 21
31.212132034356053
 31
0.0
  0
LINE
  5
99
100
AcDbEntity
  8
0
  6
CONTINUOUS
 62
               7
100
AcDbLine
 10
-1.6964191610173884
 20
31.900000000000368
 30
0.0
 11
-3.1757359312879601
 21
31.900000000000198
 31
0.0
  0
LINE
  5
9A
100
AcDbEntity
  8
0
  6
CONTINUOUS
 62
               7
100
AcDbLine
 10
-1.0305490248047988
 20
31.172072930905557
 30
0.0
 11
-1.4506735477307018
 21
31.772072930905672
 31
0.0
  0
LINE
  5
9B
100
AcDbEntity
  8
0
  6
CONTINUOUS
 62
               7
100
AcDbLine
 10
-3.4799985640688647
 20
34.79180054815901
 30
0.0
 11
-3.7227851454509846
 21
35.034587129541123
 31
0.0
  0
LINE
  5
9C
100
AcDbEntity
  8
0
  6
CONTINUOUS
 62
               7
100
AcDbLine
 10
-3.5704079300164437
 20
32.528851006443716
 30
0.0
 11
-3.3932721889973152
 21
34.553521790978721
 31
0.0
  0
LINE
  5
9D
100
AcDbEntity
  8
0
  6
CONTINUOUS
 62
               7
100
AcDbLine
 10
-4.3171720256639503
 20
31.682827974336107
 30
0.0
 11
-3.6571343050879932
 21
32.342865694912064
 31
0.0
  0
LINE
  5
9E
100
AcDbEntity
  8
0
  6
CONTINUOUS
 62
               7
100
AcDbLine
 10
-4.6044715292145497
 20
34.477905878029389
 30
0.0
 11
-4.8281624694474203
 21
31.921106731516382
 31
0.0
  0
LINE
  5
9F
100
AcDbEntity
  8
0
  6
CONTINUOUS
 62
               7
100
AcDbLine
 10
-4.1470492141629052
 20
35.034587129541123
 30
0.0
 11
-4.5177451541430003
 21
34.663891189561028
 31
0.0
  0
LINE
  5
A0
100
AcDbEntity
  8
0
  6
CONTINUOUS
 62
               7
100
AcDbLine
 10
-1.1371320343565117
 20
35.787132034355913
 30
0.0
 11
-1.4121320343565458
 21
36.062132034355955
 31
0.0
  0
LINE
  5
A1
100
AcDbEntity
  8
0
  6
CONTINUOUS
 62
               7
100
AcDbLine
 10
-1.4621320343565003
 20
35.037867965644033
 30
0.0
 11
-1.1371320343565117
 21
35.362867965643986
 31
0.0
  0
LINE
  5
A2
100
AcDbEntity
  8
0
  6
CONTINUOUS
 62
               7
100
AcDbLine
 10
-2.7757359312885796
 20
34.949999999999896
 30
0.0
 11
-1.6742640687123753
 21
34.950000000000003
 31
0.0
  0
LINE
  5
A3
100
AcDbEntity
  8
0
  6
CONTINUOUS
 62
               7
100
AcDbLine
 10
-3.2628679656446309
 20
35.312867965644031
 30
0.0
 11
-2.9878679656445399
 21
35.03786796564394
 31
0.0
  0
LINE
  5
A4
100
AcDbEntity
  8
0
  6
CONTINUOUS
 62
               7
100
AcDbLine
 10
-2.9378679656446138
 20
36.062132034355976
 30
0.0
 11
-3.2628679656446309
 21
35.737132034355952
 31
0.0
  0
LINE
  5
A5
100
AcDbEntity
  8
0
  6
CONTINUOUS
 62
               7
100
AcDbLine
 10
-1.6242640687125629
 20
36.149999999999991
 30
0.0
 11
-2.725735931288682
 21
36.149999999999991
 31
0.0
  0
LINE
  5
A6
100
AcDbEntity
  8
0
  6
CONTINUOUS
 62
               7
100
AcDbLine
 10
-0.7409575719060513
 20
35.03458712954113
 30
0.0
 11
-1.1116535118861748
 21
34.663891189561035
 31
0.0
  0
LINE
  5
A7
100
AcDbEntity
  8
0
  6
CONTINUOUS
 62
               7
100
AcDbLine
 10
-0.0739069218119823
 20
34.791800548159017
 30
0.0
 11
-0.3166935031941307
 21
35.034587129541137
 31
0.0
  0
LINE
  5
A8
100
AcDbEntity
  8
0
  6
CONTINUOUS
 62
               7
100
AcDbLine
 10
-0.2187664214505389
 20
31.906483130463975
 30
0.0
 11
0.0128194532595671
 21
34.553521790978721
 31
0.0
  0
LINE
  5
A9
100
AcDbEntity
  8
0
  6
CONTINUOUS
 62
               7
100
AcDbLine
 10
-1.2987663612989309
 20
32.525181534256276
 30
0.0
 11
-0.7633704441648206
 21
31.760556922383039
 31
0.0
  0
LINE
  5
AA
100
AcDbEntity
  8
0
  6
CONTINUOUS
 62
               7
100
AcDbLine
 10
-1.1983798869577242
 20
34.477905878029389
 30
0.0
 11
-1.3518791574397255
 21
32.723401187985871
 31
0.0
  0
LINE
  5
AB
100
AcDbEntity
  8
0
  6
CONTINUOUS
 62
               7
100
AcDbLine
 10
-0.0933054628591208
 20
39.419434704946241
 30
0.0
 11
-0.7533431834350495
 21
38.759396984370291
 31
0.0
  0
LINE
  5
AC
100
AcDbEntity
  8
0
  6
CONTINUOUS
 62
               7
100
AcDbLine
 10
0.1939940406915639
 20
36.624356801252958
 30
0.0
 11
0.4176849809243777
 21
39.181155947765966
 31
0.0
  0
LINE
  5
AD
100
AcDbEntity
  8
0
  6
CONTINUOUS
 62
               7
100
AcDbLine
 10
-0.2634282743601091
 20
36.067675549741217
 30
0.0
 11
0.1072676656199576
 21
36.43837148972132
 31
0.0
  0
LINE
  5
AE
100
AcDbEntity
  8
0
  6
CONTINUOUS
 62
               7
100
AcDbLine
 10
-0.930478924454178
 20
36.310462131123337
 30
0.0
 11
-0.6876923430720581
 21
36.067675549741224
 31
0.0
  0
LINE
  5
AF
100
AcDbEntity
  8
0
  6
CONTINUOUS
 62
               7
100
AcDbLine
 10
-0.8400695585065989
 20
38.573411672838645
 30
0.0
 11
-1.017205299525699
 21
36.548740888303641
 31
0.0
  0
LINE
  5
B0
100
AcDbEntity
  8
0
  6
CONTINUOUS
 62
               7
100
AcDbLine
 10
-3.1012336387018422
 20
38.574818465743945
 30
0.0
 11
-3.6366295558359809
 21
39.339443077617197
 31
0.0
  0
LINE
  5
B1
100
AcDbEntity
  8
0
  6
CONTINUOUS
 62
               7
100
AcDbLine
 10
-3.2014221542567043
 20
36.624356801252958
 30
0.0
 11
-3.0481208425610475
 21
38.376598812014336
 31
0.0
  0
LINE
  5
B2
100
AcDbEntity
  8
0
  6
CONTINUOUS
 62
               7
100
AcDbLine
 10
-3.6588444693083488
 20
36.067675549741217
 30
0.0
 11
-3.2881485293282537
 21
36.43837148972132
 31
0.0
  0
LINE
  5
B3
100
AcDbEntity
  8
0
  6
CONTINUOUS
 62
               7
100
AcDbLine
 10
-4.3258951194024178
 20
36.310462131123373
 30
0.0
 11
-4.0831085380202694
 21
36.067675549741224
 31
0.0
  0
LINE
  5
B4
100
AcDbEntity
  8
0
  6
CONTINUOUS
 62
               7
100
AcDbLine
 10
-4.1812335785502341
 20
39.193516869536239
 30
0.0
 11
-4.4126214944739672
 21
36.548740888303641
 31
0.0
  0
LINE
  5
B5
100
AcDbEntity
  8
0
  6
CONTINUOUS
 62
               7
100
AcDbLine
 10
-0.6242640687127903
 20
40.400000000000126
 30
0.0
 11
-3.123705361909316
 21
40.399999999999977
 31
0.0
  0
LINE
  5
B6
100
AcDbEntity
  8
0
  6
CONTINUOUS
 62
               7
100
AcDbLine
 10
-1.0121320343568811
 20
39.287867965644082
 30
0.0
 11
-0.4121320343567732
 21
39.887867965644169
 31
0.0
  0
LINE
  5
B7
100
AcDbEntity
  8
0
  6
CONTINUOUS
 62
               7
100
AcDbLine
 10
-2.7035808389833846
 20
39.199999999999839
 30
0.0
 11
-1.2242640687128414
 21
39.200000000000038
 31
0.0
  0
LINE
  5
B8
100
AcDbEntity
  8
0
  6
CONTINUOUS
 62
               7
100
AcDbLine
 10
-3.3694509751960027
 20
39.927927069094665
 30
0.0
 11
-2.9493264522700997
 21
39.327927069094542
 31
0.0
  0
LINE
  5
B9
100
AcDbEntity
  8
0
  6
CONTINUOUS
 62
               7
100
AcDbLine
 10
3.4305490248039945
 20
39.927927069094665
 30
0.0
 11
3.8506735477298975
 21
39.327927069094542
 31
0.0
  0
LINE
  5
BA
100
AcDbEntity
  8
0
  6
CONTINUOUS
 62
               7
100
AcDbLine
 10
4.0964191610166125
 20
39.199999999999839
 30
0.0
 11
5.5757359312871557
 21
39.200000000000038
 31
0.0
  0
LINE
  5
BB
100
AcDbEntity
  8
0
  6
CONTINUOUS
 62
               7
100
AcDbLine
 10
5.787867965643116
 20
39.287867965644082
 30
0.0
 11
6.387867965643224
 21
39.887867965644169
 31
0.0
  0
LINE
  5
BC
100
AcDbEntity
  8
0
  6
CONTINUOUS
 62
               7
100
AcDbLine
 10
6.1757359312872069
 20
40.400000000000126
 30
0.0
 11
3.6762946380906811
 21
40.399999999999977
 31
0.0
  0
LINE
  5
BD
100
AcDbEntity
  8
0
  6
CONTINUOUS
 62
               7
100
AcDbLine
 10
2.618766421449763
 20
39.193516869536239
 30
0.0
 11
2.3873785055260299
 21
36.548740888303641
 31
0.0
  0
LINE
  5
BE
100
AcDbEntity
  8
0
  6
CONTINUOUS
 62
               7
100
AcDbLine
 10
2.4741048805975794
 20
36.310462131123373
 30
0.0
 11
2.7168914619797278
 21
36.067675549741224
 31
0.0
  0
LINE
  5
BF
100
AcDbEntity
  8
0
  6
CONTINUOUS
 62
               7
100
AcDbLine
 10
3.1411555306916483
 20
36.067675549741217
 30
0.0
 11
3.5118514706717434
 21
36.43837148972132
 31
0.0
  0
LINE
  5
C0
100
AcDbEntity
  8
0
  6
CONTINUOUS
 62
               7
100
AcDbLine
 10
3.5985778457432929
 20
36.624356801252958
 30
0.0
 11
3.7518791574389496
 21
38.376598812014336
 31
0.0
  0
LINE
  5
C1
100
AcDbEntity
  8
0
  6
CONTINUOUS
 62
               7
100
AcDbLine
 10
3.6987663612981549
 20
38.574818465743945
 30
0.0
 11
3.1633704441640162
 21
39.339443077617197
 31
0.0
  0
LINE
  5
C2
100
AcDbEntity
  8
0
  6
CONTINUOUS
 62
               7
100
AcDbLine
 10
5.9599304414933982
 20
38.573411672838645
 30
0.0
 11
5.7827947004742981
 21
36.548740888303641
 31
0.0
  0
LINE
  5
C3
100
AcDbEntity
  8
0
  6
CONTINUOUS
 62
               7
100
AcDbLine
 10
5.8695210755458191
 20
36.310462131123337
 30
0.0
 11
6.1123076569279391
 21
36.067675549741224
 31
0.0
  0
LINE
  5
C4
100
AcDbEntity
  8
0
  6
CONTINUOUS
 62
               7
100
AcDbLine
 10
6.5365717256398881
 20
36.067675549741217
 30
0.0
 11
6.9072676656199548
 21
36.43837148972132
 31
0.0
  0
LINE
  5
C5
100
AcDbEntity
  8
0
  6
CONTINUOUS
 62
               7
100
AcDbLine
 10
6.9939940406915611
 20
36.624356801252958
 30
0.0
 11
7.2176849809243748
 21
39.181155947765966
 31
0.0
  0
LINE
  5
C6
100
AcDbEntity
  8
0
  6
CONTINUOUS
 62
               7
100
AcDbLine
 10
6.7066945371408764
 20
39.419434704946241
 30
0.0
 11
6.0466568165649477
 21
38.759396984370291
 31
0.0
  0
LINE
  5
C7
100
AcDbEntity
  8
0
  6
CONTINUOUS
 62
               7
100
AcDbLine
 10
5.6016201130422729
 20
34.477905878029389
 30
0.0
 11
5.4481208425602716
 21
32.723401187985871
 31
0.0
  0
LINE
  5
C8
100
AcDbEntity
  8
0
  6
CONTINUOUS
 62
               7
100
AcDbLine
 10
5.5012336387010663
 20
32.525181534256276
 30
0.0
 11
6.0366295558351766
 21
31.760556922383039
 31
0.0
  0
LINE
  5
C9
100
AcDbEntity
  8
0
  6
CONTINUOUS
 62
               7
100
AcDbLine
 10
6.5812335785494582
 20
31.906483130463975
 30
0.0
 11
6.8128194532595643
 21
34.553521790978721
 31
0.0
  0
LINE
  5
CA
100
AcDbEntity
  8
0
  6
CONTINUOUS
 62
               7
100
AcDbLine
 10
6.7260930781880148
 20
34.791800548159017
 30
0.0
 11
6.4833064968058665
 21
35.034587129541137
 31
0.0
  0
LINE
  5
CB
100
AcDbEntity
  8
0
  6
CONTINUOUS
 62
               7
100
AcDbLine
 10
6.0590424280939459
 20
35.03458712954113
 30
0.0
 11
5.6883464881138224
 21
34.663891189561035
 31
0.0
  0
LINE
  5
CC
100
AcDbEntity
  8
0
  6
CONTINUOUS
 62
               7
100
AcDbLine
 10
5.1757359312874343
 20
36.149999999999991
 30
0.0
 11
4.0742640687113152
 21
36.149999999999991
 31
0.0
  0
LINE
  5
CD
100
AcDbEntity
  8
0
  6
CONTINUOUS
 62
               7
100
AcDbLine
 10
3.8621320343553833
 20
36.062132034355976
 30
0.0
 11
3.5371320343553663
 21
35.737132034355952
 31
0.0
  0
LINE
  5
CE
100
AcDbEntity
  8
0
  6
CONTINUOUS
 62
               7
100
AcDbLine
 10
3.5371320343553663
 20
35.312867965644031
 30
0.0
 11
3.8121320343554572
 21
35.03786796564394
 31
0.0
  0
LINE
  5
CF
100
AcDbEntity
  8
0
  6
CONTINUOUS
 62
               7
100
AcDbLine
 10
4.0242640687114175
 20
34.949999999999896
 30
0.0
 11
5.1257359312876218
 21
34.950000000000003
 31
0.0
  0
LINE
  5
D0
100
AcDbEntity
  8
0
  6
CONTINUOUS
 62
               7
100
AcDbLine
 10
5.3378679656434969
 20
35.037867965644033
 30
0.0
 11
5.6628679656434855
 21
35.362867965643986
 31
0.0
  0
LINE
  5
D1
100
AcDbEntity
  8
0
  6
CONTINUOUS
 62
               7
100
AcDbLine
 10
5.6628679656434855
 20
35.787132034355913
 30
0.0
 11
5.3878679656434514
 21
36.062132034355955
 31
0.0
  0
LINE
  5
D2
100
AcDbEntity
  8
0
  6
CONTINUOUS
 62
               7
100
AcDbLine
 10
2.652950785837092
 20
35.034587129541123
 30
0.0
 11
2.2822548458569969
 21
34.663891189561028
 31
0.0
  0
LINE
  5
D3
100
AcDbEntity
  8
0
  6
CONTINUOUS
 62
               7
100
AcDbLine
 10
2.1955284707854474
 20
34.477905878029389
 30
0.0
 11
1.9718375305525768
 21
31.921106731516382
 31
0.0
  0
LINE
  5
D4
100
AcDbEntity
  8
0
  6
CONTINUOUS
 62
               7
100
AcDbLine
 10
2.4828279743360469
 20
31.682827974336107
 30
0.0
 11
3.142865694912004
 21
32.342865694912064
 31
0.0
  0
LINE
  5
D5
100
AcDbEntity
  8
0
  6
CONTINUOUS
 62
               7
100
AcDbLine
 10
3.2295920699835534
 20
32.528851006443716
 30
0.0
 11
3.406727811002682
 21
34.553521790978721
 31
0.0
  0
LINE
  5
D6
100
AcDbEntity
  8
0
  6
CONTINUOUS
 62
               7
100
AcDbLine
 10
3.3200014359311325
 20
34.79180054815901
 30
0.0
 11
3.0772148545490126
 21
35.034587129541123
 31
0.0
  0
LINE
  5
D7
100
AcDbEntity
  8
0
  6
CONTINUOUS
 62
               7
100
AcDbLine
 10
5.7694509751951983
 20
31.172072930905557
 30
0.0
 11
5.3493264522692954
 21
31.772072930905672
 31
0.0
  0
LINE
  5
D8
100
AcDbEntity
  8
0
  6
CONTINUOUS
 62
               7
100
AcDbLine
 10
5.1035808389826087
 20
31.900000000000368
 30
0.0
 11
3.6242640687120371
 21
31.900000000000198
 31
0.0
  0
LINE
  5
D9
100
AcDbEntity
  8
0
  6
CONTINUOUS
 62
               7
100
AcDbLine
 10
3.4121320343561052
 20
31.812132034356146
 30
0.0
 11
2.8121320343559972
 21
31.212132034356053
 31
0.0
  0
LINE
  5
DA
100
AcDbEntity
  8
0
  6
CONTINUOUS
 62
               7
100
AcDbLine
 10
3.0242640687119859
 20
30.700000000000102
 30
0.0
 11
5.5237053619085117
 21
30.700000000000237
 31
0.0
  0
ARC
  5
DB
100
AcDbEntity
  8
0
  6
CONTINUOUS
 62
               7
100
AcDbCircle
 10
3.6762946380906811
 20
40.09999999999998
 30
0.0
 40
0.3000000000000007
100
AcDbArc
 50
90.0
 51
215.00000000000026
  0
ARC
  5
DC
100
AcDbEntity
  8
0
  6
CONTINUOUS
 62
               7
100
AcDbCircle
 10
4.0964191610165841
 20
39.499999999999844
 30
0.0
 40
0.3000000000000008
100
AcDbArc
 50
214.99999999999926
 51
270.0000000000075
  0
ARC
  5
DD
100
AcDbEntity
  8
0
  6
CONTINUOUS
 62
               7
100
AcDbCircle
 10
5.5757359312871557
 20
39.50000000000005
 30
0.0
 40
0.3000000000000007
100
AcDbArc
 50
270.0
 51
315.00000000000045
  0
ARC
  5
DE
100
AcDbEntity
  8
0
  6
CONTINUOUS
 62
               7
100
AcDbCircle
 10
6.1757359312872069
 20
40.100000000000129
 30
0.0
 40
0.3000000000000007
100
AcDbArc
 50
315.00000000000409
 51
90.000000000003411
  0
ARC
  5
DF
100
AcDbEntity
  8
0
  6
CONTINUOUS
 62
               7
100
AcDbCircle
 10
2.9176248308772728
 20
39.167370146711917
 30
0.0
 40
0.2999999999999996
100
AcDbArc
 50
34.999999999990493
 51
174.99999999999528
  0
ARC
  5
E0
100
AcDbEntity
  8
0
  6
CONTINUOUS
 62
               7
100
AcDbCircle
 10
2.6862369149535397
 20
36.522594165479333
 30
0.0
 40
0.299999999999999
100
AcDbArc
 50
174.99999999999787
 51
224.99999999999909
  0
ARC
  5
E1
100
AcDbEntity
  8
0
  6
CONTINUOUS
 62
               7
100
AcDbCircle
 10
2.9290234963356596
 20
36.279807584097185
 30
0.0
 40
0.3000000000000007
100
AcDbArc
 50
225.0
 51
314.99999999999977
  0
ARC
  5
E2
100
AcDbEntity
  8
0
  6
CONTINUOUS
 62
               7
100
AcDbCircle
 10
3.2997194363157831
 20
36.65050352407728
 30
0.0
 40
0.3000000000000007
100
AcDbArc
 50
315.00000000000193
 51
354.99999999999494
  0
ARC
  5
E3
100
AcDbEntity
  8
0
  6
CONTINUOUS
 62
               7
100
AcDbCircle
 10
3.4530207480114115
 20
38.402745534838672
 30
0.0
 40
0.300000000000006
100
AcDbArc
 50
354.99999999999267
 51
34.999999999990294
  0
ARC
  5
E4
100
AcDbEntity
  8
0
  6
CONTINUOUS
 62
               7
100
AcDbCircle
 10
6.258788850920908
 20
38.547264950014323
 30
0.0
 40
0.300000000000002
100
AcDbArc
 50
135.00000000000045
 51
174.99999999999531
  0
ARC
  5
E5
100
AcDbEntity
  8
0
  6
CONTINUOUS
 62
               7
100
AcDbCircle
 10
6.0816531099017794
 20
36.522594165479305
 30
0.0
 40
0.300000000000006
100
AcDbArc
 50
174.99999999999238
 51
224.99999999999949
  0
ARC
  5
E6
100
AcDbEntity
  8
0
  6
CONTINUOUS
 62
               7
100
AcDbCircle
 10
6.3244396912839278
 20
36.279807584097185
 30
0.0
 40
0.3000000000000007
100
AcDbArc
 50
225.0
 51
314.99999999999977
  0
ARC
  5
E7
100
AcDbEntity
  8
0
  6
CONTINUOUS
 62
               7
100
AcDbCircle
 10
6.6951356312640513
 20
36.65050352407728
 30
0.0
 40
0.3000000000000013
100
AcDbArc
 50
314.99999999999619
 51
354.99999999999523
  0
ARC
  5
E8
100
AcDbEntity
  8
0
  6
CONTINUOUS
 62
               7
100
AcDbCircle
 10
6.9188265714968367
 20
39.207302670590266
 30
0.0
 40
0.300000000000006
100
AcDbArc
 50
354.99999999999881
 51
134.99999999999955
  0
ARC
  5
E9
100
AcDbEntity
  8
0
  6
CONTINUOUS
 62
               7
100
AcDbCircle
 10
5.9004785224697827
 20
34.451759155205067
 30
0.0
 40
0.3000000000000007
100
AcDbArc
 50
134.99999999999974
 51
174.99999999999511
  0
ARC
  5
EA
100
AcDbEntity
  8
0
  6
CONTINUOUS
 62
               7
100
AcDbCircle
 10
5.7469792519877814
 20
32.697254465161549
 30
0.0
 40
0.2999999999999954
100
AcDbArc
 50
174.99999999999511
 51
214.99999999999019
  0
ARC
  5
EB
100
AcDbEntity
  8
0
  6
CONTINUOUS
 62
               7
100
AcDbCircle
 10
6.2823751691219485
 20
31.93262985328829
 30
0.0
 40
0.3000000000000004
100
AcDbArc
 50
214.99999999998639
 51
354.99999999999523
  0
ARC
  5
EC
100
AcDbEntity
  8
0
  6
CONTINUOUS
 62
               7
100
AcDbCircle
 10
6.5139610438320545
 20
34.579668513803043
 30
0.0
 40
0.300000000000006
100
AcDbArc
 50
354.99999999999511
 51
45.000000000000455
  0
ARC
  5
ED
100
AcDbEntity
  8
0
  6
CONTINUOUS
 62
               7
100
AcDbCircle
 10
6.2711744624499062
 20
34.822455095185163
 30
0.0
 40
0.3000000000000013
100
AcDbArc
 50
45.000000000003361
 51
134.99999999999974
  0
ARC
  5
EE
100
AcDbEntity
  8
0
  6
CONTINUOUS
 62
               7
100
AcDbCircle
 10
4.0742640687113152
 20
35.850000000000009
 30
0.0
 40
0.3000000000000007
100
AcDbArc
 50
90.0
 51
134.99999999999974
  0
ARC
  5
EF
100
AcDbEntity
  8
0
  6
CONTINUOUS
 62
               7
100
AcDbCircle
 10
3.7492640687113266
 20
35.524999999999991
 30
0.0
 40
0.3000000000000013
100
AcDbArc
 50
134.99999999999994
 51
224.99999999999923
  0
ARC
  5
F0
100
AcDbEntity
  8
0
  6
CONTINUOUS
 62
               7
100
AcDbCircle
 10
4.0242640687114175
 20
35.249999999999901
 30
0.0
 40
0.3
100
AcDbArc
 50
225.0
 51
270.0
  0
ARC
  5
F1
100
AcDbEntity
  8
0
  6
CONTINUOUS
 62
               7
100
AcDbCircle
 10
5.125735931287565
 20
35.25
 30
0.0
 40
0.3000000000000007
100
AcDbArc
 50
270.00000000001091
 51
314.99999999999977
  0
ARC
  5
F2
100
AcDbEntity
  8
0
  6
CONTINUOUS
 62
               7
100
AcDbCircle
 10
5.4507359312875252
 20
35.574999999999946
 30
0.0
 40
0.3000000000000013
100
AcDbArc
 50
314.99999999999619
 51
45.000000000004583
  0
ARC
  5
F3
100
AcDbEntity
  8
0
  6
CONTINUOUS
 62
               7
100
AcDbCircle
 10
5.1757359312874343
 20
35.850000000000009
 30
0.0
 40
0.3
100
AcDbArc
 50
44.999999999994252
 51
90.0
  0
ARC
  5
F4
100
AcDbEntity
  8
0
  6
CONTINUOUS
 62
               7
100
AcDbCircle
 10
2.4943868802129572
 20
34.451759155205067
 30
0.0
 40
0.3000000000000007
100
AcDbArc
 50
134.99999999999994
 51
174.99999999999528
  0
ARC
  5
F5
100
AcDbEntity
  8
0
  6
CONTINUOUS
 62
               7
100
AcDbCircle
 10
2.2706959399800866
 20
31.894960008692067
 30
0.0
 40
0.2999999999999954
100
AcDbArc
 50
174.99999999999523
 51
315.00000000000006
  0
ARC
  5
F6
100
AcDbEntity
  8
0
  6
CONTINUOUS
 62
               7
100
AcDbCircle
 10
2.9307336605560437
 20
32.554997729268038
 30
0.0
 40
0.300000000000001
100
AcDbArc
 50
314.99999999999812
 51
354.99999999999545
  0
ARC
  5
F7
100
AcDbEntity
  8
0
  6
CONTINUOUS
 62
               7
100
AcDbCircle
 10
3.1078694015751722
 20
34.579668513803043
 30
0.0
 40
0.300000000000006
100
AcDbArc
 50
354.99999999999534
 51
45.0000000000027
  0
ARC
  5
F8
100
AcDbEntity
  8
0
  6
CONTINUOUS
 62
               7
100
AcDbCircle
 10
2.8650828201930523
 20
34.822455095185163
 30
0.0
 40
0.3000000000000007
100
AcDbArc
 50
45.0
 51
135.0
  0
ARC
  5
F9
100
AcDbEntity
  8
0
  6
CONTINUOUS
 62
               7
100
AcDbCircle
 10
5.5237053619085117
 20
31.000000000000234
 30
0.0
 40
0.3000000000000007
100
AcDbArc
 50
270.00000000000341
 51
35.000000000000213
  0
ARC
  5
FA
100
AcDbEntity
  8
0
  6
CONTINUOUS
 62
               7
100
AcDbCircle
 10
5.1035808389826087
 20
31.600000000000364
 30
0.0
 40
0.2999999999999996
100
AcDbArc
 50
34.99999999999838
 51
90.0
  0
ARC
  5
FB
100
AcDbEntity
  8
0
  6
CONTINUOUS
 62
               7
100
AcDbCircle
 10
3.6242640687120655
 20
31.600000000000186
 30
0.0
 40
0.3000000000000007
100
AcDbArc
 50
90.000000000005443
 51
134.9999999999998
  0
ARC
  5
FC
100
AcDbEntity
  8
0
  6
CONTINUOUS
 62
               7
100
AcDbCircle
 10
3.0242640687119859
 20
31.000000000000107
 30
0.0
 40
0.3000000000000007
100
AcDbArc
 50
135.00000000000199
 51
270.00000000000006
  0
LINE
  5
FD
100
AcDbEntity
  8
0
  6
CONTINUOUS
 62
               7
100
AcDbLine
 10
10.230549024803992
 20
39.927927069094665
 30
0.0
 11
10.650673547729895
 21
39.327927069094542
 31
0.0
  0
LINE
  5
FE
100
AcDbEntity
  8
0
  6
CONTINUOUS
 62
               7
100
AcDbLine
 10
10.89641916101661
 20
39.199999999999839
 30
0.0
 11
12.375735931287153
 21
39.200000000000038
 31
0.0
  0
LINE
  5
FF
100
AcDbEntity
  8
0
  6
CONTINUOUS
 62
               7
100
AcDbLine
 10
12.587867965643113
 20
39.287867965644082
 30
0.0
 11
13.187867965643221
 21
39.887867965644169
 31
0.0
  0
LINE
  5
100
100
AcDbEntity
  8
0
  6
CONTINUOUS
 62
               7
100
AcDbLine
 10
12.975735931287204
 20
40.400000000000126
 30
0.0
 11
10.476294638090678
 21
40.399999999999977
 31
0.0
  0
LINE
  5
101
100
AcDbEntity
  8
0
  6
CONTINUOUS
 62
               7
100
AcDbLine
 10
9.4187664214497602
 20
39.193516869536239
 30
0.0
 11
9.1873785055260271
 21
36.548740888303641
 31
0.0
  0
LINE
  5
102
100
AcDbEntity
  8
0
  6
CONTINUOUS
 62
               7
100
AcDbLine
 10
9.2741048805975765
 20
36.310462131123373
 30
0.0
 11
9.5168914619797249
 21
36.067675549741224
 31
0.0
  0
LINE
  5
103
100
AcDbEntity
  8
0
  6
CONTINUOUS
 62
               7
100
AcDbLine
 10
9.9411555306916455
 20
36.067675549741217
 30
0.0
 11
10.311851470671741
 21
36.43837148972132
 31
0.0
  0
LINE
  5
104
100
AcDbEntity
  8
0
  6
CONTINUOUS
 62
               7
100
AcDbLine
 10
10.39857784574329
 20
36.624356801252958
 30
0.0
 11
10.551879157438947
 21
38.376598812014336
 31
0.0
  0
LINE
  5
105
100
AcDbEntity
  8
0
  6
CONTINUOUS
 62
               7
100
AcDbLine
 10
10.498766361298152
 20
38.574818465743945
 30
0.0
 11
9.9633704441640134
 21
39.339443077617197
 31
0.0
  0
LINE
  5
106
100
AcDbEntity
  8
0
  6
CONTINUOUS
 62
               7
100
AcDbLine
 10
12.759930441493395
 20
38.573411672838645
 30
0.0
 11
12.582794700474295
 21
36.548740888303641
 31
0.0
  0
LINE
  5
107
100
AcDbEntity
  8
0
  6
CONTINUOUS
 62
               7
100
AcDbLine
 10
12.669521075545816
 20
36.310462131123337
 30
0.0
 11
12.912307656927936
 21
36.067675549741224
 31
0.0
  0
LINE
  5
108
100
AcDbEntity
  8
0
  6
CONTINUOUS
 62
               7
100
AcDbLine
 10
13.336571725639885
 20
36.067675549741217
 30
0.0
 11
13.707267665619952
 21
36.43837148972132
 31
0.0
  0
LINE
  5
109
100
AcDbEntity
  8
0
  6
CONTINUOUS
 62
               7
100
AcDbLine
 10
13.793994040691558
 20
36.624356801252958
 30
0.0
 11
14.017684980924372
 21
39.181155947765966
 31
0.0
  0
LINE
  5
10A
100
AcDbEntity
  8
0
  6
CONTINUOUS
 62
               7
100
AcDbLine
 10
13.506694537140874
 20
39.419434704946241
 30
0.0
 11
12.846656816564945
 21
38.759396984370291
 31
0.0
  0
LINE
  5
10B
100
AcDbEntity
  8
0
  6
CONTINUOUS
 62
               7
100
AcDbLine
 10
12.40162011304227
 20
34.477905878029389
 30
0.0
 11
12.248120842560269
 21
32.723401187985871
 31
0.0
  0
LINE
  5
10C
100
AcDbEntity
  8
0
  6
CONTINUOUS
 62
               7
100
AcDbLine
 10
12.301233638701063
 20
32.525181534256276
 30
0.0
 11
12.836629555835174
 21
31.760556922383039
 31
0.0
  0
LINE
  5
10D
100
AcDbEntity
  8
0
  6
CONTINUOUS
 62
               7
100
AcDbLine
 10
13.381233578549455
 20
31.906483130463975
 30
0.0
 11
13.612819453259561
 21
34.553521790978721
 31
0.0
  0
LINE
  5
10E
100
AcDbEntity
  8
0
  6
CONTINUOUS
 62
               7
100
AcDbLine
 10
13.526093078188012
 20
34.791800548159017
 30
0.0
 11
13.283306496805864
 21
35.034587129541137
 31
0.0
  0
LINE
  5
10F
100
AcDbEntity
  8
0
  6
CONTINUOUS
 62
               7
100
AcDbLine
 10
12.859042428093943
 20
35.03458712954113
 30
0.0
 11
12.48834648811382
 21
34.663891189561035
 31
0.0
  0
LINE
  5
110
100
AcDbEntity
  8
0
  6
CONTINUOUS
 62
               7
100
AcDbLine
 10
11.975735931287431
 20
36.149999999999991
 30
0.0
 11
10.874264068711312
 21
36.149999999999991
 31
0.0
  0
LINE
  5
111
100
AcDbEntity
  8
0
  6
CONTINUOUS
 62
               7
100
AcDbLine
 10
10.66213203435538
 20
36.062132034355976
 30
0.0
 11
10.337132034355363
 21
35.737132034355952
 31
0.0
  0
LINE
  5
112
100
AcDbEntity
  8
0
  6
CONTINUOUS
 62
               7
100
AcDbLine
 10
10.337132034355363
 20
35.312867965644031
 30
0.0
 11
10.612132034355454
 21
35.03786796564394
 31
0.0
  0
LINE
  5
113
100
AcDbEntity
  8
0
  6
CONTINUOUS
 62
               7
100
AcDbLine
 10
10.824264068711415
 20
34.949999999999896
 30
0.0
 11
11.925735931287619
 21
34.950000000000003
 31
0.0
  0
LINE
  5
114
100
AcDbEntity
  8
0
  6
CONTINUOUS
 62
               7
100
AcDbLine
 10
12.137867965643494
 20
35.037867965644033
 30
0.0
 11
12.462867965643483
 21
35.362867965643986
 31
0.0
  0
LINE
  5
115
100
AcDbEntity
  8
0
  6
CONTINUOUS
 62
               7
100
AcDbLine
 10
12.462867965643483
 20
35.787132034355913
 30
0.0
 11
12.187867965643449
 21
36.062132034355955
 31
0.0
  0
LINE
  5
116
100
AcDbEntity
  8
0
  6
CONTINUOUS
 62
               7
100
AcDbLine
 10
9.4529507858370891
 20
35.034587129541123
 30
0.0
 11
9.0822548458569941
 21
34.663891189561028
 31
0.0
  0
LINE
  5
117
100
AcDbEntity
  8
0
  6
CONTINUOUS
 62
               7
100
AcDbLine
 10
8.9955284707854446
 20
34.477905878029389
 30
0.0
 11
8.771837530552574
 21
31.921106731516382
 31
0.0
  0
LINE
  5
118
100
AcDbEntity
  8
0
  6
CONTINUOUS
 62
               7
100
AcDbLine
 10
9.282827974336044
 20
31.682827974336107
 30
0.0
 11
9.9428656949120011
 21
32.342865694912064
 31
0.0
  0
LINE
  5
119
100
AcDbEntity
  8
0
  6
CONTINUOUS
 62
               7
100
AcDbLine
 10
10.029592069983551
 20
32.528851006443716
 30
0.0
 11
10.206727811002679
 21
34.553521790978721
 31
0.0
  0
LINE
  5
11A
100
AcDbEntity
  8
0
  6
CONTINUOUS
 62
               7
100
AcDbLine
 10
10.12000143593113
 20
34.79180054815901
 30
0.0
 11
9.8772148545490097
 21
35.034587129541123
 31
0.0
  0
LINE
  5
11B
100
AcDbEntity
  8
0
  6
CONTINUOUS
 62
               7
100
AcDbLine
 10
12.569450975195195
 20
31.172072930905557
 30
0.0
 11
12.149326452269293
 21
31.772072930905672
 31
0.0
  0
LINE
  5
11C
100
AcDbEntity
  8
0
  6
CONTINUOUS
 62
               7
100
AcDbLine
 10
11.903580838982606
 20
31.900000000000368
 30
0.0
 11
10.424264068712034
 21
31.900000000000198
 31
0.0
  0
LINE
  5
11D
100
AcDbEntity
  8
0
  6
CONTINUOUS
 62
               7
100
AcDbLine
 10
10.212132034356102
 20
31.812132034356146
 30
0.0
 11
9.6121320343559944
 21
31.212132034356053
 31
0.0
  0
LINE
  5
11E
100
AcDbEntity
  8
0
  6
CONTINUOUS
 62
               7
100
AcDbLine
 10
9.8242640687119831
 20
30.700000000000102
 30
0.0
 11
12.323705361908509
 21
30.700000000000237
 31
0.0
  0
ARC
  5
11F
100
AcDbEntity
  8
0
  6
CONTINUOUS
 62
               7
100
AcDbCircle
 10
10.476294638090678
 20
40.09999999999998
 30
0.0
 40
0.3000000000000007
100
AcDbArc
 50
90.0
 51
215.00000000000026
  0
ARC
  5
120
100
AcDbEntity
  8
0
  6
CONTINUOUS
 62
               7
100
AcDbCircle
 10
10.896419161016581
 20
39.499999999999844
 30
0.0
 40
0.3000000000000008
100
AcDbArc
 50
214.99999999999926
 51
270.0000000000075
  0
ARC
  5
121
100
AcDbEntity
  8
0
  6
CONTINUOUS
 62
               7
100
AcDbCircle
 10
12.375735931287153
 20
39.50000000000005
 30
0.0
 40
0.3000000000000007
100
AcDbArc
 50
270.0
 51
315.00000000000045
  0
ARC
  5
122
100
AcDbEntity
  8
0
  6
CONTINUOUS
 62
               7
100
AcDbCircle
 10
12.975735931287204
 20
40.100000000000129
 30
0.0
 40
0.3000000000000007
100
AcDbArc
 50
315.00000000000409
 51
90.000000000003411
  0
ARC
  5
123
100
AcDbEntity
  8
0
  6
CONTINUOUS
 62
               7
100
AcDbCircle
 10
9.7176248308772699
 20
39.167370146711917
 30
0.0
 40
0.2999999999999996
100
AcDbArc
 50
34.999999999990493
 51
174.99999999999528
  0
ARC
  5
124
100
AcDbEntity
  8
0
  6
CONTINUOUS
 62
               7
100
AcDbCircle
 10
9.4862369149535368
 20
36.522594165479333
 30
0.0
 40
0.299999999999999
100
AcDbArc
 50
174.99999999999787
 51
224.99999999999909
  0
ARC
  5
125
100
AcDbEntity
  8
0
  6
CONTINUOUS
 62
               7
100
AcDbCircle
 10
9.7290234963356568
 20
36.279807584097185
 30
0.0
 40
0.3000000000000007
100
AcDbArc
 50
225.0
 51
314.99999999999977
  0
ARC
  5
126
100
AcDbEntity
  8
0
  6
CONTINUOUS
 62
               7
100
AcDbCircle
 10
10.09971943631578
 20
36.65050352407728
 30
0.0
 40
0.3000000000000007
100
AcDbArc
 50
315.00000000000193
 51
354.99999999999494
  0
ARC
  5
127
100
AcDbEntity
  8
0
  6
CONTINUOUS
 62
               7
100
AcDbCircle
 10
10.253020748011409
 20
38.402745534838672
 30
0.0
 40
0.300000000000006
100
AcDbArc
 50
354.99999999999267
 51
34.999999999990294
  0
ARC
  5
128
100
AcDbEntity
  8
0
  6
CONTINUOUS
 62
               7
100
AcDbCircle
 10
13.058788850920905
 20
38.547264950014323
 30
0.0
 40
0.300000000000002
100
AcDbArc
 50
135.00000000000045
 51
174.99999999999531
  0
ARC
  5
129
100
AcDbEntity
  8
0
  6
CONTINUOUS
 62
               7
100
AcDbCircle
 10
12.881653109901777
 20
36.522594165479305
 30
0.0
 40
0.300000000000006
100
AcDbArc
 50
174.99999999999238
 51
224.99999999999949
  0
ARC
  5
12A
100
AcDbEntity
  8
0
  6
CONTINUOUS
 62
               7
100
AcDbCircle
 10
13.124439691283925
 20
36.279807584097185
 30
0.0
 40
0.3000000000000007
100
AcDbArc
 50
225.0
 51
314.99999999999977
  0
ARC
  5
12B
100
AcDbEntity
  8
0
  6
CONTINUOUS
 62
               7
100
AcDbCircle
 10
13.495135631264048
 20
36.65050352407728
 30
0.0
 40
0.3000000000000013
100
AcDbArc
 50
314.99999999999619
 51
354.99999999999523
  0
ARC
  5
12C
100
AcDbEntity
  8
0
  6
CONTINUOUS
 62
               7
100
AcDbCircle
 10
13.718826571496834
 20
39.207302670590266
 30
0.0
 40
0.300000000000006
100
AcDbArc
 50
354.99999999999881
 51
134.99999999999955
  0
ARC
  5
12D
100
AcDbEntity
  8
0
  6
CONTINUOUS
 62
               7
100
AcDbCircle
 10
12.70047852246978
 20
34.451759155205067
 30
0.0
 40
0.3000000000000007
100
AcDbArc
 50
134.99999999999974
 51
174.99999999999511
  0
ARC
  5
12E
100
AcDbEntity
  8
0
  6
CONTINUOUS
 62
               7
100
AcDbCircle
 10
12.546979251987779
 20
32.697254465161549
 30
0.0
 40
0.2999999999999954
100
AcDbArc
 50
174.99999999999511
 51
214.99999999999019
  0
ARC
  5
12F
100
AcDbEntity
  8
0
  6
CONTINUOUS
 62
               7
100
AcDbCircle
 10
13.082375169121946
 20
31.93262985328829
 30
0.0
 40
0.3000000000000004
100
AcDbArc
 50
214.99999999998639
 51
354.99999999999523
  0
ARC
  5
130
100
AcDbEntity
  8
0
  6
CONTINUOUS
 62
               7
100
AcDbCircle
 10
13.313961043832052
 20
34.579668513803043
 30
0.0
 40
0.300000000000006
100
AcDbArc
 50
354.99999999999511
 51
45.000000000000455
  0
ARC
  5
131
100
AcDbEntity
  8
0
  6
CONTINUOUS
 62
               7
100
AcDbCircle
 10
13.071174462449903
 20
34.822455095185163
 30
0.0
 40
0.3000000000000013
100
AcDbArc
 50
45.000000000003361
 51
134.99999999999974
  0
ARC
  5
132
100
AcDbEntity
  8
0
  6
CONTINUOUS
 62
               7
100
AcDbCircle
 10
10.874264068711312
 20
35.850000000000009
 30
0.0
 40
0.3000000000000007
100
AcDbArc
 50
90.0
 51
134.99999999999974
  0
ARC
  5
133
100
AcDbEntity
  8
0
  6
CONTINUOUS
 62
               7
100
AcDbCircle
 10
10.549264068711324
 20
35.524999999999991
 30
0.0
 40
0.3000000000000013
100
AcDbArc
 50
134.99999999999994
 51
224.99999999999923
  0
ARC
  5
134
100
AcDbEntity
  8
0
  6
CONTINUOUS
 62
               7
100
AcDbCircle
 10
10.824264068711415
 20
35.249999999999901
 30
0.0
 40
0.3
100
AcDbArc
 50
225.0
 51
270.0
  0
ARC
  5
135
100
AcDbEntity
  8
0
  6
CONTINUOUS
 62
               7
100
AcDbCircle
 10
11.925735931287562
 20
35.25
 30
0.0
 40
0.3000000000000007
100
AcDbArc
 50
270.00000000001091
 51
314.99999999999977
  0
ARC
  5
136
100
AcDbEntity
  8
0
  6
CONTINUOUS
 62
               7
100
AcDbCircle
 10
12.250735931287522
 20
35.574999999999946
 30
0.0
 40
0.3000000000000013
100
AcDbArc
 50
314.99999999999619
 51
45.000000000004583
  0
ARC
  5
137
100
AcDbEntity
  8
0
  6
CONTINUOUS
 62
               7
100
AcDbCircle
 10
11.975735931287431
 20
35.850000000000009
 30
0.0
 40
0.3
100
AcDbArc
 50
44.999999999994252
 51
90.0
  0
ARC
  5
138
100
AcDbEntity
  8
0
  6
CONTINUOUS
 62
               7
100
AcDbCircle
 10
9.2943868802129543
 20
34.451759155205067
 30
0.0
 40
0.3000000000000007
100
AcDbArc
 50
134.99999999999994
 51
174.99999999999528
  0
ARC
  5
139
100
AcDbEntity
  8
0
  6
CONTINUOUS
 62
               7
100
AcDbCircle
 10
9.0706959399800837
 20
31.894960008692067
 30
0.0
 40
0.2999999999999954
100
AcDbArc
 50
174.99999999999523
 51
315.00000000000006
  0
ARC
  5
13A
100
AcDbEntity
  8
0
  6
CONTINUOUS
 62
               7
100
AcDbCircle
 10
9.7307336605560408
 20
32.554997729268038
 30
0.0
 40
0.300000000000001
100
AcDbArc
 50
314.99999999999812
 51
354.99999999999545
  0
ARC
  5
13B
100
AcDbEntity
  8
0
  6
CONTINUOUS
 62
               7
100
AcDbCircle
 10
9.9078694015751694
 20
34.579668513803043
 30
0.0
 40
0.300000000000006
100
AcDbArc
 50
354.99999999999534
 51
45.0000000000027
  0
ARC
  5
13C
100
AcDbEntity
  8
0
  6
CONTINUOUS
 62
               7
100
AcDbCircle
 10
9.6650828201930494
 20
34.822455095185163
 30
0.0
 40
0.3000000000000007
100
AcDbArc
 50
45.0
 51
135.0
  0
ARC
  5
13D
100
AcDbEntity
  8
0
  6
CONTINUOUS
 62
               7
100
AcDbCircle
 10
12.323705361908509
 20
31.000000000000234
 30
0.0
 40
0.3000000000000007
100
AcDbArc
 50
270.00000000000341
 51
35.000000000000213
  0
ARC
  5
13E
100
AcDbEntity
  8
0
  6
CONTINUOUS
 62
               7
100
AcDbCircle
 10
11.903580838982606
 20
31.600000000000364
 30
0.0
 40
0.2999999999999996
100
AcDbArc
 50
34.99999999999838
 51
90.0
  0
ARC
  5
13F
100
AcDbEntity
  8
0
  6
CONTINUOUS
 62
               7
100
AcDbCircle
 10
10.424264068712063
 20
31.600000000000186
 30
0.0
 40
0.3000000000000007
100
AcDbArc
 50
90.000000000005443
 51
134.9999999999998
  0
ARC
  5
140
100
AcDbEntity
  8
0
  6
CONTINUOUS
 62
               7
100
AcDbCircle
 10
9.8242640687119831
 20
31.000000000000107
 30
0.0
 40
0.3000000000000007
100
AcDbArc
 50
135.00000000000199
 51
270.00000000000006
  0
LINE
  5
141
100
AcDbEntity
  8
0
  6
CONTINUOUS
 62
               7
100
AcDbLine
 10
17.030549024803989
 20
39.927927069094665
 30
0.0
 11
17.450673547729892
 21
39.327927069094542
 31
0.0
  0
LINE
  5
142
100
AcDbEntity
  8
0
  6
CONTINUOUS
 62
               7
100
AcDbLine
 10
17.696419161016607
 20
39.199999999999839
 30
0.0
 11
19.17573593128715
 21
39.200000000000038
 31
0.0
  0
LINE
  5
143
100
AcDbEntity
  8
0
  6
CONTINUOUS
 62
               7
100
AcDbLine
 10
19.38786796564311
 20
39.287867965644082
 30
0.0
 11
19.987867965643218
 21
39.887867965644169
 31
0.0
  0
LINE
  5
144
100
AcDbEntity
  8
0
  6
CONTINUOUS
 62
               7
100
AcDbLine
 10
19.775735931287201
 20
40.400000000000126
 30
0.0
 11
17.276294638090675
 21
40.399999999999977
 31
0.0
  0
LINE
  5
145
100
AcDbEntity
  8
0
  6
CONTINUOUS
 62
               7
100
AcDbLine
 10
16.218766421449757
 20
39.193516869536239
 30
0.0
 11
15.987378505526024
 21
36.548740888303641
 31
0.0
  0
LINE
  5
146
100
AcDbEntity
  8
0
  6
CONTINUOUS
 62
               7
100
AcDbLine
 10
16.074104880597574
 20
36.310462131123373
 30
0.0
 11
16.316891461979722
 21
36.067675549741224
 31
0.0
  0
LINE
  5
147
100
AcDbEntity
  8
0
  6
CONTINUOUS
 62
               7
100
AcDbLine
 10
16.741155530691643
 20
36.067675549741217
 30
0.0
 11
17.111851470671738
 21
36.43837148972132
 31
0.0
  0
LINE
  5
148
100
AcDbEntity
  8
0
  6
CONTINUOUS
 62
               7
100
AcDbLine
 10
17.198577845743287
 20
36.624356801252958
 30
0.0
 11
17.351879157438944
 21
38.376598812014336
 31
0.0
  0
LINE
  5
149
100
AcDbEntity
  8
0
  6
CONTINUOUS
 62
               7
100
AcDbLine
 10
17.298766361298149
 20
38.574818465743945
 30
0.0
 11
16.763370444164011
 21
39.339443077617197
 31
0.0
  0
LINE
  5
14A
100
AcDbEntity
  8
0
  6
CONTINUOUS
 62
               7
100
AcDbLine
 10
19.559930441493393
 20
38.573411672838645
 30
0.0
 11
19.382794700474292
 21
36.548740888303641
 31
0.0
  0
LINE
  5
14B
100
AcDbEntity
  8
0
  6
CONTINUOUS
 62
               7
100
AcDbLine
 10
19.469521075545813
 20
36.310462131123337
 30
0.0
 11
19.712307656927933
 21
36.067675549741224
 31
0.0
  0
LINE
  5
14C
100
AcDbEntity
  8
0
  6
CONTINUOUS
 62
               7
100
AcDbLine
 10
20.136571725639882
 20
36.067675549741217
 30
0.0
 11
20.507267665619949
 21
36.43837148972132
 31
0.0
  0
LINE
  5
14D
100
AcDbEntity
  8
0
  6
CONTINUOUS
 62
               7
100
AcDbLine
 10
20.593994040691555
 20
36.624356801252958
 30
0.0
 11
20.817684980924369
 21
39.181155947765966
 31
0.0
  0
LINE
  5
14E
100
AcDbEntity
  8
0
  6
CONTINUOUS
 62
               7
100
AcDbLine
 10
20.306694537140871
 20
39.419434704946241
 30
0.0
 11
19.646656816564942
 21
38.759396984370291
 31
0.0
  0
LINE
  5
14F
100
AcDbEntity
  8
0
  6
CONTINUOUS
 62
               7
100
AcDbLine
 10
19.201620113042267
 20
34.477905878029389
 30
0.0
 11
19.048120842560266
 21
32.723401187985871
 31
0.0
  0
LINE
  5
150
100
AcDbEntity
  8
0
  6
CONTINUOUS
 62
               7
100
AcDbLine
 10
19.101233638701061
 20
32.525181534256276
 30
0.0
 11
19.636629555835171
 21
31.760556922383039
 31
0.0
  0
LINE
  5
151
100
AcDbEntity
  8
0
  6
CONTINUOUS
 62
               7
100
AcDbLine
 10
20.181233578549453
 20
31.906483130463975
 30
0.0
 11
20.412819453259559
 21
34.553521790978721
 31
0.0
  0
LINE
  5
152
100
AcDbEntity
  8
0
  6
CONTINUOUS
 62
               7
100
AcDbLine
 10
20.326093078188009
 20
34.791800548159017
 30
0.0
 11
20.083306496805861
 21
35.034587129541137
 31
0.0
  0
LINE
  5
153
100
AcDbEntity
  8
0
  6
CONTINUOUS
 62
               7
100
AcDbLine
 10
19.65904242809394
 20
35.03458712954113
 30
0.0
 11
19.288346488113817
 21
34.663891189561035
 31
0.0
  0
LINE
  5
154
100
AcDbEntity
  8
0
  6
CONTINUOUS
 62
               7
100
AcDbLine
 10
18.775735931287429
 20
36.149999999999991
 30
0.0
 11
17.67426406871131
 21
36.149999999999991
 31
0.0
  0
LINE
  5
155
100
AcDbEntity
  8
0
  6
CONTINUOUS
 62
               7
100
AcDbLine
 10
17.462132034355378
 20
36.062132034355976
 30
0.0
 11
17.137132034355361
 21
35.737132034355952
 31
0.0
  0
LINE
  5
156
100
AcDbEntity
  8
0
  6
CONTINUOUS
 62
               7
100
AcDbLine
 10
17.137132034355361
 20
35.312867965644031
 30
0.0
 11
17.412132034355452
 21
35.03786796564394
 31
0.0
  0
LINE
  5
157
100
AcDbEntity
  8
0
  6
CONTINUOUS
 62
               7
100
AcDbLine
 10
17.624264068711412
 20
34.949999999999896
 30
0.0
 11
18.725735931287616
 21
34.950000000000003
 31
0.0
  0
LINE
  5
158
100
AcDbEntity
  8
0
  6
CONTINUOUS
 62
               7
100
AcDbLine
 10
18.937867965643491
 20
35.037867965644033
 30
0.0
 11
19.26286796564348
 21
35.362867965643986
 31
0.0
  0
LINE
  5
159
100
AcDbEntity
  8
0
  6
CONTINUOUS
 62
               7
100
AcDbLine
 10
19.26286796564348
 20
35.787132034355913
 30
0.0
 11
18.987867965643446
 21
36.062132034355955
 31
0.0
  0
LINE
  5
15A
100
AcDbEntity
  8
0
  6
CONTINUOUS
 62
               7
100
AcDbLine
 10
16.252950785837086
 20
35.034587129541123
 30
0.0
 11
15.882254845856991
 21
34.663891189561028
 31
0.0
  0
LINE
  5
15B
100
AcDbEntity
  8
0
  6
CONTINUOUS
 62
               7
100
AcDbLine
 10
15.795528470785442
 20
34.477905878029389
 30
0.0
 11
15.571837530552571
 21
31.921106731516382
 31
0.0
  0
LINE
  5
15C
100
AcDbEntity
  8
0
  6
CONTINUOUS
 62
               7
100
AcDbLine
 10
16.082827974336041
 20
31.682827974336107
 30
0.0
 11
16.742865694911998
 21
32.342865694912064
 31
0.0
  0
LINE
  5
15D
100
AcDbEntity
  8
0
  6
CONTINUOUS
 62
               7
100
AcDbLine
 10
16.829592069983548
 20
32.528851006443716
 30
0.0
 11
17.006727811002676
 21
34.553521790978721
 31
0.0
  0
LINE
  5
15E
100
AcDbEntity
  8
0
  6
CONTINUOUS
 62
               7
100
AcDbLine
 10
16.920001435931127
 20
34.79180054815901
 30
0.0
 11
16.677214854549007
 21
35.034587129541123
 31
0.0
  0
LINE
  5
15F
100
AcDbEntity
  8
0
  6
CONTINUOUS
 62
               7
100
AcDbLine
 10
19.369450975195193
 20
31.172072930905557
 30
0.0
 11
18.94932645226929
 21
31.772072930905672
 31
0.0
  0
LINE
  5
160
100
AcDbEntity
  8
0
  6
CONTINUOUS
 62
               7
100
AcDbLine
 10
18.703580838982603
 20
31.900000000000368
 30
0.0
 11
17.224264068712031
 21
31.900000000000198
 31
0.0
  0
LINE
  5
161
100
AcDbEntity
  8
0
  6
CONTINUOUS
 62
               7
100
AcDbLine
 10
17.0121320343561
 20
31.812132034356146
 30
0.0
 11
16.412132034355992
 21
31.212132034356053
 31
0.0
  0
LINE
  5
162
100
AcDbEntity
  8
0
  6
CONTINUOUS
 62
               7
100
AcDbLine
 10
16.62426406871198
 20
30.700000000000102
 30
0.0
 11
19.123705361908506
 21
30.700000000000237
 31
0.0
  0
ARC
  5
163
100
AcDbEntity
  8
0
  6
CONTINUOUS
 62
               7
100
AcDbCircle
 10
17.276294638090675
 20
40.09999999999998
 30
0.0
 40
0.3000000000000007
100
AcDbArc
 50
90.0
 51
215.00000000000026
  0
ARC
  5
164
100
AcDbEntity
  8
0
  6
CONTINUOUS
 62
               7
100
AcDbCircle
 10
17.696419161016578
 20
39.499999999999844
 30
0.0
 40
0.3000000000000008
100
AcDbArc
 50
214.99999999999926
 51
270.0000000000075
  0
ARC
  5
165
100
AcDbEntity
  8
0
  6
CONTINUOUS
 62
               7
100
AcDbCircle
 10
19.17573593128715
 20
39.50000000000005
 30
0.0
 40
0.3000000000000007
100
AcDbArc
 50
270.0
 51
315.00000000000045
  0
ARC
  5
166
100
AcDbEntity
  8
0
  6
CONTINUOUS
 62
               7
100
AcDbCircle
 10
19.775735931287201
 20
40.100000000000129
 30
0.0
 40
0.3000000000000007
100
AcDbArc
 50
315.00000000000409
 51
90.000000000003411
  0
ARC
  5
167
100
AcDbEntity
  8
0
  6
CONTINUOUS
 62
               7
100
AcDbCircle
 10
16.517624830877267
 20
39.167370146711917
 30
0.0
 40
0.2999999999999996
100
AcDbArc
 50
34.999999999990493
 51
174.99999999999528
  0
ARC
  5
168
100
AcDbEntity
  8
0
  6
CONTINUOUS
 62
               7
100
AcDbCircle
 10
16.286236914953534
 20
36.522594165479333
 30
0.0
 40
0.299999999999999
100
AcDbArc
 50
174.99999999999787
 51
224.99999999999909
  0
ARC
  5
169
100
AcDbEntity
  8
0
  6
CONTINUOUS
 62
               7
100
AcDbCircle
 10
16.529023496335654
 20
36.279807584097185
 30
0.0
 40
0.3000000000000007
100
AcDbArc
 50
225.0
 51
314.99999999999977
  0
ARC
  5
16A
100
AcDbEntity
  8
0
  6
CONTINUOUS
 62
               7
100
AcDbCircle
 10
16.899719436315777
 20
36.65050352407728
 30
0.0
 40
0.3000000000000007
100
AcDbArc
 50
315.00000000000193
 51
354.99999999999494
  0
ARC
  5
16B
100
AcDbEntity
  8
0
  6
CONTINUOUS
 62
               7
100
AcDbCircle
 10
17.053020748011406
 20
38.402745534838672
 30
0.0
 40
0.300000000000006
100
AcDbArc
 50
354.99999999999267
 51
34.999999999990294
  0
ARC
  5
16C
100
AcDbEntity
  8
0
  6
CONTINUOUS
 62
               7
100
AcDbCircle
 10
19.858788850920902
 20
38.547264950014323
 30
0.0
 40
0.300000000000002
100
AcDbArc
 50
135.00000000000045
 51
174.99999999999531
  0
ARC
  5
16D
100
AcDbEntity
  8
0
  6
CONTINUOUS
 62
               7
100
AcDbCircle
 10
19.681653109901774
 20
36.522594165479305
 30
0.0
 40
0.300000000000006
100
AcDbArc
 50
174.99999999999238
 51
224.99999999999949
  0
ARC
  5
16E
100
AcDbEntity
  8
0
  6
CONTINUOUS
 62
               7
100
AcDbCircle
 10
19.924439691283922
 20
36.279807584097185
 30
0.0
 40
0.3000000000000007
100
AcDbArc
 50
225.0
 51
314.99999999999977
  0
ARC
  5
16F
100
AcDbEntity
  8
0
  6
CONTINUOUS
 62
               7
100
AcDbCircle
 10
20.295135631264046
 20
36.65050352407728
 30
0.0
 40
0.3000000000000013
100
AcDbArc
 50
314.99999999999619
 51
354.99999999999523
  0
ARC
  5
170
100
AcDbEntity
  8
0
  6
CONTINUOUS
 62
               7
100
AcDbCircle
 10
20.518826571496831
 20
39.207302670590266
 30
0.0
 40
0.300000000000006
100
AcDbArc
 50
354.99999999999881
 51
134.99999999999955
  0
ARC
  5
171
100
AcDbEntity
  8
0
  6
CONTINUOUS
 62
               7
100
AcDbCircle
 10
19.500478522469777
 20
34.451759155205067
 30
0.0
 40
0.3000000000000007
100
AcDbArc
 50
134.99999999999974
 51
174.99999999999511
  0
ARC
  5
172
100
AcDbEntity
  8
0
  6
CONTINUOUS
 62
               7
100
AcDbCircle
 10
19.346979251987776
 20
32.697254465161549
 30
0.0
 40
0.2999999999999954
100
AcDbArc
 50
174.99999999999511
 51
214.99999999999019
  0
ARC
  5
173
100
AcDbEntity
  8
0
  6
CONTINUOUS
 62
               7
100
AcDbCircle
 10
19.882375169121943
 20
31.93262985328829
 30
0.0
 40
0.3000000000000004
100
AcDbArc
 50
214.99999999998639
 51
354.99999999999523
  0
ARC
  5
174
100
AcDbEntity
  8
0
  6
CONTINUOUS
 62
               7
100
AcDbCircle
 10
20.113961043832049
 20
34.579668513803043
 30
0.0
 40
0.300000000000006
100
AcDbArc
 50
354.99999999999511
 51
45.000000000000455
  0
ARC
  5
175
100
AcDbEntity
  8
0
  6
CONTINUOUS
 62
               7
100
AcDbCircle
 10
19.8711744624499
 20
34.822455095185163
 30
0.0
 40
0.3000000000000013
100
AcDbArc
 50
45.000000000003361
 51
134.99999999999974
  0
ARC
  5
176
100
AcDbEntity
  8
0
  6
CONTINUOUS
 62
               7
100
AcDbCircle
 10
17.67426406871131
 20
35.850000000000009
 30
0.0
 40
0.3000000000000007
100
AcDbArc
 50
90.0
 51
134.99999999999974
  0
ARC
  5
177
100
AcDbEntity
  8
0
  6
CONTINUOUS
 62
               7
100
AcDbCircle
 10
17.349264068711321
 20
35.524999999999991
 30
0.0
 40
0.3000000000000013
100
AcDbArc
 50
134.99999999999994
 51
224.99999999999923
  0
ARC
  5
178
100
AcDbEntity
  8
0
  6
CONTINUOUS
 62
               7
100
AcDbCircle
 10
17.624264068711412
 20
35.249999999999901
 30
0.0
 40
0.3
100
AcDbArc
 50
225.0
 51
270.0
  0
ARC
  5
179
100
AcDbEntity
  8
0
  6
CONTINUOUS
 62
               7
100
AcDbCircle
 10
18.725735931287559
 20
35.25
 30
0.0
 40
0.3000000000000007
100
AcDbArc
 50
270.00000000001091
 51
314.99999999999977
  0
ARC
  5
17A
100
AcDbEntity
  8
0
  6
CONTINUOUS
 62
               7
100
AcDbCircle
 10
19.05073593128752
 20
35.574999999999946
 30
0.0
 40
0.3000000000000013
100
AcDbArc
 50
314.99999999999619
 51
45.000000000004583
  0
ARC
  5
17B
100
AcDbEntity
  8
0
  6
CONTINUOUS
 62
               7
100
AcDbCircle
 10
18.775735931287429
 20
35.850000000000009
 30
0.0
 40
0.3
100
AcDbArc
 50
44.999999999994252
 51
90.0
  0
ARC
  5
17C
100
AcDbEntity
  8
0
  6
CONTINUOUS
 62
               7
100
AcDbCircle
 10
16.094386880212951
 20
34.451759155205067
 30
0.0
 40
0.3000000000000007
100
AcDbArc
 50
134.99999999999994
 51
174.99999999999528
  0
ARC
  5
17D
100
AcDbEntity
  8
0
  6
CONTINUOUS
 62
               7
100
AcDbCircle
 10
15.870695939980081
 20
31.894960008692067
 30
0.0
 40
0.2999999999999954
100
AcDbArc
 50
174.99999999999523
 51
315.00000000000006
  0
ARC
  5
17E
100
AcDbEntity
  8
0
  6
CONTINUOUS
 62
               7
100
AcDbCircle
 10
16.530733660556038
 20
32.554997729268038
 30
0.0
 40
0.300000000000001
100
AcDbArc
 50
314.99999999999812
 51
354.99999999999545
  0
ARC
  5
17F
100
AcDbEntity
  8
0
  6
CONTINUOUS
 62
               7
100
AcDbCircle
 10
16.707869401575167
 20
34.579668513803043
 30
0.0
 40
0.300000000000006
100
AcDbArc
 50
354.99999999999534
 51
45.0000000000027
  0
ARC
  5
180
100
AcDbEntity
  8
0
  6
CONTINUOUS
 62
               7
100
AcDbCircle
 10
16.465082820193047
 20
34.822455095185163
 30
0.0
 40
0.3000000000000007
100
AcDbArc
 50
45.0
 51
135.0
  0
ARC
  5
181
100
AcDbEntity
  8
0
  6
CONTINUOUS
 62
               7
100
AcDbCircle
 10
19.123705361908506
 20
31.000000000000234
 30
0.0
 40
0.3000000000000007
100
AcDbArc
 50
270.00000000000341
 51
35.000000000000213
  0
ARC
  5
182
100
AcDbEntity
  8
0
  6
CONTINUOUS
 62
               7
100
AcDbCircle
 10
18.703580838982603
 20
31.600000000000364
 30
0.0
 40
0.2999999999999996
100
AcDbArc
 50
34.99999999999838
 51
90.0
  0
ARC
  5
183
100
AcDbEntity
  8
0
  6
CONTINUOUS
 62
               7
100
AcDbCircle
 10
17.22426406871206
 20
31.600000000000186
 30
0.0
 40
0.3000000000000007
100
AcDbArc
 50
90.000000000005443
 51
134.9999999999998
  0
ARC
  5
184
100
AcDbEntity
  8
0
  6
CONTINUOUS
 62
               7
100
AcDbCircle
 10
16.62426406871198
 20
31.000000000000107
 30
0.0
 40
0.3000000000000007
100
AcDbArc
 50
135.00000000000199
 51
270.00000000000006
  0
ENDBLK
  5
185
100
AcDbEntity
  8
0
100
AcDbBlockEnd
  0
BLOCK
  5
186
100
AcDbEntity
  8
0
100
AcDbBlockBegin
  2
DTY-EPU-B-2
 70
               0
 10
0.0
 20
0.0
 30
0.0
  3
DTY-EPU-B-2
  1

  0
LINE
  5
187
100
AcDbEntity
  8
0
  6
CONTINUOUS
 62
               7
100
AcDbLine
 10
-25.5
 20
6.9500000000000171
 30
0.0
 11
-37.499999999999886
 21
7.1594607791386409
 31
0.0
  0
LINE
  5
188
100
AcDbEntity
  8
0
  6
CONTINUOUS
 62
               7
100
AcDbLine
 10
-25.5
 20
46.95000000000001
 30
0.0
 11
-37.499999999999886
 21
46.7405392208614
 31
0.0
  0
ARC
  5
189
100
AcDbEntity
  8
0
  6
CONTINUOUS
 62
               7
100
AcDbCircle
 10
-28.0
 20
14.650000000000034
 30
0.0
 40
0.5
100
AcDbArc
 50
180.0
 51
270.0
  0
ARC
  5
18A
100
AcDbEntity
  8
0
  6
CONTINUOUS
 62
               7
100
AcDbCircle
 10
-28.0
 20
14.650000000000034
 30
0.0
 40
0.5
100
AcDbArc
 50
90.0
 51
180.0
  0
ARC
  5
18B
100
AcDbEntity
  8
0
  6
CONTINUOUS
 62
               7
100
AcDbCircle
 10
-28.0
 20
20.050000000000033
 30
0.0
 40
0.5
100
AcDbArc
 50
180.0
 51
270.0
  0
ARC
  5
18C
100
AcDbEntity
  8
0
  6
CONTINUOUS
 62
               7
100
AcDbCircle
 10
-28.0
 20
20.050000000000033
 30
0.0
 40
0.5
100
AcDbArc
 50
90.0
 51
180.0
  0
ARC
  5
18D
100
AcDbEntity
  8
0
  6
CONTINUOUS
 62
               7
100
AcDbCircle
 10
-28.0
 20
33.850000000000016
 30
0.0
 40
0.5
100
AcDbArc
 50
180.0
 51
270.0
  0
ARC
  5
18E
100
AcDbEntity
  8
0
  6
CONTINUOUS
 62
               7
100
AcDbCircle
 10
-28.0
 20
33.850000000000016
 30
0.0
 40
0.5
100
AcDbArc
 50
90.0
 51
180.0
  0
ARC
  5
18F
100
AcDbEntity
  8
0
  6
CONTINUOUS
 62
               7
100
AcDbCircle
 10
-28.0
 20
39.250000000000021
 30
0.0
 40
0.5
100
AcDbArc
 50
90.0
 51
180.0
  0
ARC
  5
190
100
AcDbEntity
  8
0
  6
CONTINUOUS
 62
               7
100
AcDbCircle
 10
-28.0
 20
39.250000000000021
 30
0.0
 40
0.5
100
AcDbArc
 50
180.0
 51
270.0
  0
LINE
  5
191
100
AcDbEntity
  8
0
  6
CONTINUOUS
 62
               7
100
AcDbLine
 10
-26.5
 20
37.750000000000021
 30
0.0
 11
-28.5
 21
37.750000000000021
 31
0.0
  0
LINE
  5
192
100
AcDbEntity
  8
0
  6
CONTINUOUS
 62
               7
100
AcDbLine
 10
-26.5
 20
35.350000000000016
 30
0.0
 11
-28.5
 21
35.350000000000016
 31
0.0
  0
LINE
  5
193
100
AcDbEntity
  8
0
  6
CONTINUOUS
 62
               7
100
AcDbLine
 10
-25.5
 20
38.750000000000021
 30
0.0
 11
-28.0
 21
38.750000000000021
 31
0.0
  0
LINE
  5
194
100
AcDbEntity
  8
0
  6
CONTINUOUS
 62
               7
100
AcDbLine
 10
-25.5
 20
34.350000000000016
 30
0.0
 11
-28.0
 21
34.350000000000016
 31
0.0
  0
LINE
  5
195
100
AcDbEntity
  8
0
  6
CONTINUOUS
 62
               7
100
AcDbLine
 10
-25.5
 20
39.750000000000021
 30
0.0
 11
-28.0
 21
39.750000000000021
 31
0.0
  0
LINE
  5
196
100
AcDbEntity
  8
0
  6
CONTINUOUS
 62
               7
100
AcDbLine
 10
-25.5
 20
33.350000000000016
 30
0.0
 11
-28.0
 21
33.350000000000016
 31
0.0
  0
LINE
  5
197
100
AcDbEntity
  8
0
  6
CONTINUOUS
 62
               7
100
AcDbLine
 10
-26.5
 20
18.550000000000033
 30
0.0
 11
-28.5
 21
18.550000000000033
 31
0.0
  0
LINE
  5
198
100
AcDbEntity
  8
0
  6
CONTINUOUS
 62
               7
100
AcDbLine
 10
-26.5
 20
16.150000000000027
 30
0.0
 11
-28.5
 21
16.150000000000027
 31
0.0
  0
LINE
  5
199
100
AcDbEntity
  8
0
  6
CONTINUOUS
 62
               7
100
AcDbLine
 10
-25.5
 20
19.550000000000033
 30
0.0
 11
-28.0
 21
19.550000000000033
 31
0.0
  0
LINE
  5
19A
100
AcDbEntity
  8
0
  6
CONTINUOUS
 62
               7
100
AcDbLine
 10
-25.5
 20
15.150000000000034
 30
0.0
 11
-28.0
 21
15.150000000000034
 31
0.0
  0
LINE
  5
19B
100
AcDbEntity
  8
0
  6
CONTINUOUS
 62
               7
100
AcDbLine
 10
-25.5
 20
20.550000000000033
 30
0.0
 11
-28.0
 21
20.550000000000033
 31
0.0
  0
LINE
  5
19C
100
AcDbEntity
  8
0
  6
CONTINUOUS
 62
               7
100
AcDbLine
 10
-25.5
 20
14.150000000000034
 30
0.0
 11
-28.0
 21
14.150000000000034
 31
0.0
  0
LINE
  5
19D
100
AcDbEntity
  8
0
  6
CONTINUOUS
 62
               7
100
AcDbLine
 10
-38.5
 20
8.1594607791387546
 30
0.0
 11
-37.5
 21
7.1594607791387546
 31
0.0
  0
LINE
  5
19E
100
AcDbEntity
  8
0
  6
CONTINUOUS
 62
               7
100
AcDbLine
 10
-38.5
 20
45.7405392208614
 30
0.0
 11
-37.499999999999886
 21
46.7405392208614
 31
0.0
  0
LINE
  5
19F
100
AcDbEntity
  8
0
  6
CONTINUOUS
 62
               7
100
AcDbLine
 10
-38.5
 20
8.1594607791387546
 30
0.0
 11
-38.5
 21
45.740539220861415
 31
0.0
  0
LINE
  5
1A0
100
AcDbEntity
  8
0
  6
CONTINUOUS
 62
               7
100
AcDbLine
 10
-37.499999999999886
 20
46.7405392208614
 30
0.0
 11
-37.499999999999886
 21
7.1594607791386409
 31
0.0
  0
LINE
  5
1A1
100
AcDbEntity
  8
0
  6
CONTINUOUS
 62
               7
100
AcDbLine
 10
-27.0
 20
18.350000000000001
 30
0.0
 11
-27.0
 21
16.350000000000001
 31
0.0
  0
LINE
  5
1A2
100
AcDbEntity
  8
0
  6
CONTINUOUS
 62
               7
100
AcDbLine
 10
-27.0
 20
37.550000000000018
 30
0.0
 11
-27.0
 21
35.550000000000018
 31
0.0
  0
LINE
  5
1A3
100
AcDbEntity
  8
0
  6
CONTINUOUS
 62
               7
100
AcDbLine
 10
-11.900000000000091
 20
46.712611116976255
 30
0.0
 11
-11.900000000000091
 21
11.950000000000017
 31
0.0
  0
LINE
  5
1A4
100
AcDbEntity
  8
0
  6
CONTINUOUS
 62
               7
100
AcDbLine
 10
-6.5
 20
12.25
 30
0.0
 11
-10.900000000000006
 21
12.25
 31
0.0
  0
LINE
  5
1A5
100
AcDbEntity
  8
0
  6
CONTINUOUS
 62
               7
100
AcDbLine
 10
-6.5
 20
11.950000000000017
 30
0.0
 11
-11.900000000000091
 21
11.950000000000017
 31
0.0
  0
LINE
  5
1A6
100
AcDbEntity
  8
0
  6
CONTINUOUS
 62
               7
100
AcDbLine
 10
-25.5
 20
6.9499999999999886
 30
0.0
 11
-25.5
 21
46.95000000000001
 31
0.0
  0
LINE
  5
1A7
100
AcDbEntity
  8
0
  6
CONTINUOUS
 62
               7
100
AcDbLine
 10
-26.5
 20
18.550000000000033
 30
0.0
 11
-26.5
 21
16.150000000000027
 31
0.0
  0
LINE
  5
1A8
100
AcDbEntity
  8
0
  6
CONTINUOUS
 62
               7
100
AcDbLine
 10
-26.5
 20
37.750000000000021
 30
0.0
 11
-26.5
 21
35.350000000000016
 31
0.0
  0
LINE
  5
1A9
100
AcDbEntity
  8
0
  6
CONTINUOUS
 62
               7
100
AcDbLine
 10
-28.5
 20
37.550000000000018
 30
0.0
 11
-26.5
 21
37.550000000000018
 31
0.0
  0
LINE
  5
1AA
100
AcDbEntity
  8
0
  6
CONTINUOUS
 62
               7
100
AcDbLine
 10
-28.5
 20
35.550000000000018
 30
0.0
 11
-26.5
 21
35.550000000000018
 31
0.0
  0
LINE
  5
1AB
100
AcDbEntity
  8
0
  6
CONTINUOUS
 62
               7
100
AcDbLine
 10
-28.5
 20
18.350000000000001
 30
0.0
 11
-26.5
 21
18.350000000000001
 31
0.0
  0
LINE
  5
1AC
100
AcDbEntity
  8
0
  6
CONTINUOUS
 62
               7
100
AcDbLine
 10
-28.5
 20
16.350000000000001
 30
0.0
 11
-26.5
 21
16.350000000000001
 31
0.0
  0
LINE
  5
1AD
100
AcDbEntity
  8
0
  6
CONTINUOUS
 62
               7
100
AcDbLine
 10
-10.900000000000006
 20
45.712611116976255
 30
0.0
 11
-11.900000000000091
 21
46.712611116976255
 31
0.0
  0
LINE
  5
1AE
100
AcDbEntity
  8
0
  6
CONTINUOUS
 62
               7
100
AcDbLine
 10
-10.900000000000006
 20
11.950000000000017
 30
0.0
 11
-10.900000000000006
 21
45.712611116976255
 31
0.0
  0
LINE
  5
1AF
100
AcDbEntity
  8
0
  6
CONTINUOUS
 62
               7
100
AcDbLine
 10
-28.5
 20
37.750000000000021
 30
0.0
 11
-28.5
 21
35.350000000000016
 31
0.0
  0
LINE
  5
1B0
100
AcDbEntity
  8
0
  6
CONTINUOUS
 62
               7
100
AcDbLine
 10
-28.5
 20
18.550000000000033
 30
0.0
 11
-28.5
 21
16.150000000000027
 31
0.0
  0
LINE
  5
1B1
100
AcDbEntity
  8
0
  6
CONTINUOUS
 62
               7
100
AcDbLine
 10
-7.4000000000000057
 20
7.265936675200777
 30
0.0
 11
-7.4000000000000057
 21
11.950000000000017
 31
0.0
  0
LINE
  5
1B2
100
AcDbEntity
  8
0
  6
CONTINUOUS
 62
               7
100
AcDbLine
 10
-25.5
 20
46.95000000000001
 30
0.0
 11
-11.900000000000091
 21
46.712611116976255
 31
0.0
  0
LINE
  5
1B3
100
AcDbEntity
  8
0
  6
CONTINUOUS
 62
               7
100
AcDbLine
 10
-25.5
 20
6.9499999999999886
 30
0.0
 11
-6.5000000000000142
 21
7.2816462336361809
 31
0.0
  0
LINE
  5
1B4
100
AcDbEntity
  8
0
  6
CONTINUOUS
 62
               7
100
AcDbLine
 10
-9.2999999999999545
 20
16.213056717831407
 30
0.0
 11
-9.2999999999999545
 21
12.749999999999972
 31
0.0
  0
LINE
  5
1B5
100
AcDbEntity
  8
0
  6
CONTINUOUS
 62
               7
100
AcDbLine
 10
-7.2999999999999545
 20
16.213056717831407
 30
0.0
 11
-9.2999999999999545
 21
16.213056717831407
 31
0.0
  0
LINE
  5
1B6
100
AcDbEntity
  8
0
  6
CONTINUOUS
 62
               7
100
AcDbLine
 10
-7.2999999999999545
 20
19.149999999999977
 30
0.0
 11
-7.2999999999999545
 21
16.213056717831407
 31
0.0
  0
LINE
  5
1B7
100
AcDbEntity
  8
0
  6
CONTINUOUS
 62
               7
100
AcDbLine
 10
-9.2999999999999545
 20
12.749999999999972
 30
0.0
 11
-10.899999999999977
 21
12.749999999999972
 31
0.0
  0
LINE
  5
1B8
100
AcDbEntity
  8
0
  6
CONTINUOUS
 62
               7
100
AcDbLine
 10
-7.2999999999999545
 20
19.149999999999977
 30
0.0
 11
-10.899999999999977
 21
19.149999999999977
 31
0.0
  0
LINE
  5
1B9
100
AcDbEntity
  8
0
  6
CONTINUOUS
 62
               7
100
AcDbLine
 10
-3.0999999999999659
 20
24.749999999999979
 30
0.0
 11
-3.0999999999999659
 21
25.949999999999982
 31
0.0
  0
LINE
  5
1BA
100
AcDbEntity
  8
0
  6
CONTINUOUS
 62
               7
100
AcDbLine
 10
-4.0999999999999659
 20
37.14999999999997
 30
0.0
 11
-4.0999999999999659
 21
38.849999999999973
 31
0.0
  0
LINE
  5
1BB
100
AcDbEntity
  8
0
  6
CONTINUOUS
 62
               7
100
AcDbLine
 10
-8.0410736563368914
 20
27.14999999999997
 30
0.0
 11
-8.0410736563368914
 21
37.14999999999997
 31
0.0
  0
LINE
  5
1BC
100
AcDbEntity
  8
0
  6
CONTINUOUS
 62
               7
100
AcDbLine
 10
-4.0999999999999659
 20
25.949999999999982
 30
0.0
 11
-3.0999999999999659
 21
25.949999999999982
 31
0.0
  0
LINE
  5
1BD
100
AcDbEntity
  8
0
  6
CONTINUOUS
 62
               7
100
AcDbLine
 10
-4.0999999999999659
 20
38.849999999999973
 30
0.0
 11
-3.0999999999999659
 21
38.849999999999973
 31
0.0
  0
LINE
  5
1BE
100
AcDbEntity
  8
0
  6
CONTINUOUS
 62
               7
100
AcDbLine
 10
-8.0410736563368914
 20
37.14999999999997
 30
0.0
 11
-4.0999999999999659
 21
37.14999999999997
 31
0.0
  0
LINE
  5
1BF
100
AcDbEntity
  8
0
  6
CONTINUOUS
 62
               7
100
AcDbLine
 10
-8.0410736563368914
 20
27.14999999999997
 30
0.0
 11
-4.0999999999999659
 21
27.14999999999997
 31
0.0
  0
LINE
  5
1C0
100
AcDbEntity
  8
0
  6
CONTINUOUS
 62
               7
100
AcDbLine
 10
-3.0999999999999659
 20
38.849999999999973
 30
0.0
 11
-3.0999999999999659
 21
40.549999999999976
 31
0.0
  0
LINE
  5
1C1
100
AcDbEntity
  8
0
  6
CONTINUOUS
 62
               7
100
AcDbLine
 10
-4.0999999999999659
 20
25.949999999999982
 30
0.0
 11
-4.0999999999999659
 21
27.14999999999997
 31
0.0
  0
LINE
  5
1C2
100
AcDbEntity
  8
0
  6
CONTINUOUS
 62
               7
100
AcDbLine
 10
-3.0999999999999659
 20
40.549999999999976
 30
0.0
 11
-10.899999999999977
 21
40.549999999999976
 31
0.0
  0
LINE
  5
1C3
100
AcDbEntity
  8
0
  6
CONTINUOUS
 62
               7
100
AcDbLine
 10
-3.0999999999999659
 20
24.749999999999979
 30
0.0
 11
-10.899999999999977
 21
24.749999999999979
 31
0.0
  0
LINE
  5
1C4
100
AcDbEntity
  8
0
  6
CONTINUOUS
 62
               7
100
AcDbLine
 10
-4.9000000000000057
 20
12.599999999999994
 30
0.0
 11
-6.5
 21
12.599999999999994
 31
0.0
  0
LINE
  5
1C5
100
AcDbEntity
  8
0
  6
CONTINUOUS
 62
               2
100
AcDbLine
 10
0.0
 20
2.2985487801036868
 30
0.0
 11
0.0
 21
-1.1805052231287476
 31
0.0
  0
ARC
  5
1C6
100
AcDbEntity
  8
0
  6
CONTINUOUS
 62
               7
100
AcDbCircle
 10
-4.5
 20
2.0
 30
0.0
 40
2.0
100
AcDbArc
 50
180.0
 51
270.0
  0
ARC
  5
1C7
100
AcDbEntity
  8
0
  6
CONTINUOUS
 62
               7
100
AcDbCircle
 10
-4.5
 20
2.0
 30
0.0
 40
0.4
100
AcDbArc
 50
180.0
 51
270.0
  0
LINE
  5
1C8
100
AcDbEntity
  8
0
  6
CONTINUOUS
 62
               7
100
AcDbLine
 10
-4.9000000000000057
 20
12.599999999999994
 30
0.0
 11
-4.9000000000000057
 21
2.0
 31
0.0
  0
LINE
  5
1C9
100
AcDbEntity
  8
0
  6
CONTINUOUS
 62
               7
100
AcDbLine
 10
4.5
 20
0.0
 30
0.0
 11
-4.5
 21
0.0
 31
0.0
  0
LINE
  5
1CA
100
AcDbEntity
  8
0
  6
CONTINUOUS
 62
               7
100
AcDbLine
 10
4.5
 20
1.5999999999999943
 30
0.0
 11
4.5
 21
0.0
 31
0.0
  0
LINE
  5
1CB
100
AcDbEntity
  8
0
  6
CONTINUOUS
 62
               7
100
AcDbLine
 10
-6.5
 20
12.599999999999994
 30
0.0
 11
-6.5
 21
2.0
 31
0.0
  0
LINE
  5
1CC
100
AcDbEntity
  8
0
  6
CONTINUOUS
 62
               7
100
AcDbLine
 10
4.5
 20
1.5999999999999943
 30
0.0
 11
-4.5
 21
1.5999999999999943
 31
0.0
  0
LINE
  5
1CD
100
AcDbEntity
  8
0
  6
CONTINUOUS
 62
               7
100
AcDbLine
 10
-4.8999999909261334
 20
11.849999999999994
 30
0.0
 11
-2.8000000000000114
 21
11.849999999999994
 31
0.0
  0
LINE
  5
1CE
100
AcDbEntity
  8
0
  6
CONTINUOUS
 62
               7
100
AcDbLine
 10
-4.8999999909261334
 20
7.3499999999999943
 30
0.0
 11
-2.8000000000000114
 21
7.3499999999999943
 31
0.0
  0
LINE
  5
1CF
100
AcDbEntity
  8
0
  6
CONTINUOUS
 62
               7
100
AcDbLine
 10
-2.3000000000000114
 20
7.8499999715116076
 30
0.0
 11
-2.3000000000000114
 21
11.349999999999994
 31
0.0
  0
LINE
  5
1D0
100
AcDbEntity
  8
0
  6
CONTINUOUS
 62
               7
100
AcDbLine
 10
-2.8000000000000114
 20
7.3499999999999943
 30
0.0
 11
-2.3000000000000114
 21
7.8500000000000085
 31
0.0
  0
LINE
  5
1D1
100
AcDbEntity
  8
0
  6
CONTINUOUS
 62
               7
100
AcDbLine
 10
-2.3000000000000114
 20
11.349999999999994
 30
0.0
 11
-2.8000000000000114
 21
11.849999999999994
 31
0.0
  0
LINE
  5
1D2
100
AcDbEntity
  8
0
  6
CONTINUOUS
 62
               7
100
AcDbLine
 10
-2.8000000000000114
 20
7.3499999999999943
 30
0.0
 11
-2.8000000000000114
 21
11.849999999999994
 31
0.0
  0
LINE
  5
1D3
100
AcDbEntity
  8
0
  6
CONTINUOUS
 62
               2
100
AcDbLine
 10
-6.9000000000000057
 20
9.5999999999999943
 30
0.0
 11
-0.3000000000000114
 21
9.5999999999999943
 31
0.0
  0
ENDBLK
  5
1D4
100
AcDbEntity
  8
0
100
AcDbBlockEnd
  0
BLOCK
  5
1D5
100
AcDbEntity
  8
0
100
AcDbBlockBegin
  2
DTY-EPU-B-3
 70
               0
 10
0.0
 20
0.0
 30
0.0
  3
DTY-EPU-B-3
  1

  0
LINE
  5
1D6
100
AcDbEntity
  8
0
  6
CONTINUOUS
 62
               2
100
AcDbLine
 10
0.0
 20
-4.0
 30
0.0
 11
0.0
 21
4.0
 31
0.0
  0
LINE
  5
1D7
100
AcDbEntity
  8
0
  6
CONTINUOUS
 62
               2
100
AcDbLine
 10
4.0
 20
0.0
 30
0.0
 11
-4.0
 21
0.0
 31
0.0
  0
LINE
  5
1D8
100
AcDbEntity
  8
0
  6
CONTINUOUS
 62
               7
100
AcDbLine
 10
23.0
 20
-9.5
 30
0.0
 11
21.5
 21
-9.5
 31
0.0
  0
LINE
  5
1D9
100
AcDbEntity
  8
0
  6
CONTINUOUS
 62
               7
100
AcDbLine
 10
-7.0
 20
-9.5
 30
0.0
 11
-5.5
 21
-9.5
 31
0.0
  0
LINE
  5
1DA
100
AcDbEntity
  8
0
  6
CONTINUOUS
 62
               7
100
AcDbLine
 10
-7.0
 20
-10.900000000000006
 30
0.0
 11
-7.0
 21
-9.5
 31
0.0
  0
LINE
  5
1DB
100
AcDbEntity
  8
0
  6
CONTINUOUS
 62
               7
100
AcDbLine
 10
23.0
 20
-10.900000000000006
 30
0.0
 11
23.0
 21
-9.5
 31
0.0
  0
LINE
  5
1DC
100
AcDbEntity
  8
0
  6
CONTINUOUS
 62
               7
100
AcDbLine
 10
21.5
 20
-3.1000000000000227
 30
0.0
 11
-5.5
 21
-3.1000000000000227
 31
0.0
  0
LINE
  5
1DD
100
AcDbEntity
  8
0
  6
CONTINUOUS
 62
               7
100
AcDbLine
 10
21.5
 20
-10.900000000000006
 30
0.0
 11
21.5
 21
-3.1000000000000227
 31
0.0
  0
LINE
  5
1DE
100
AcDbEntity
  8
0
  6
CONTINUOUS
 62
               7
100
AcDbLine
 10
-5.5
 20
-10.900000000000006
 30
0.0
 11
-5.5
 21
-3.1000000000000227
 31
0.0
  0
LINE
  5
1DF
100
AcDbEntity
  8
0
  6
CONTINUOUS
 62
               7
100
AcDbLine
 10
28.0
 20
-37.500000000000028
 30
0.0
 11
-12.0
 21
-37.500000000000028
 31
0.0
  0
LINE
  5
1E0
100
AcDbEntity
  8
0
  6
CONTINUOUS
 62
               7
100
AcDbLine
 10
-11.0
 20
-38.500000000000028
 30
0.0
 11
-12.0
 21
-37.500000000000028
 31
0.0
  0
LINE
  5
1E1
100
AcDbEntity
  8
0
  6
CONTINUOUS
 62
               7
100
AcDbLine
 10
-9.0
 20
-6.5
 30
0.0
 11
-9.0
 21
-10.900000000000006
 31
0.0
  0
LINE
  5
1E2
100
AcDbEntity
  8
0
  6
CONTINUOUS
 62
               7
100
AcDbLine
 10
25.0
 20
-6.5
 30
0.0
 11
25.0
 21
-10.900000000000006
 31
0.0
  0
LINE
  5
1E3
100
AcDbEntity
  8
0
  6
CONTINUOUS
 62
               7
100
AcDbLine
 10
-12.0
 20
-11.900000000000006
 30
0.0
 11
-11.0
 21
-10.900000000000006
 31
0.0
  0
LINE
  5
1E4
100
AcDbEntity
  8
0
  6
CONTINUOUS
 62
               7
100
AcDbLine
 10
28.0
 20
-11.900000000000006
 30
0.0
 11
27.0
 21
-10.900000000000006
 31
0.0
  0
LINE
  5
1E5
100
AcDbEntity
  8
0
  6
CONTINUOUS
 62
               7
100
AcDbLine
 10
27.0
 20
-10.900000000000006
 30
0.0
 11
-11.0
 21
-10.900000000000006
 31
0.0
  0
LINE
  5
1E6
100
AcDbEntity
  8
0
  6
CONTINUOUS
 62
               7
100
AcDbLine
 10
-12.0
 20
-25.500000000000028
 30
0.0
 11
-12.0
 21
-7.5
 31
0.0
  0
LINE
  5
1E7
100
AcDbEntity
  8
0
  6
CONTINUOUS
 62
               7
100
AcDbLine
 10
28.0
 20
-25.500000000000028
 30
0.0
 11
28.0
 21
-7.5
 31
0.0
  0
LINE
  5
1E8
100
AcDbEntity
  8
0
  6
CONTINUOUS
 62
               7
100
AcDbLine
 10
28.0
 20
-11.900000000000006
 30
0.0
 11
-12.0
 21
-11.900000000000006
 31
0.0
  0
LINE
  5
1E9
100
AcDbEntity
  8
0
  6
CONTINUOUS
 62
               7
100
AcDbLine
 10
28.0
 20
-7.5
 30
0.0
 11
27.0
 21
-6.5
 31
0.0
  0
LINE
  5
1EA
100
AcDbEntity
  8
0
  6
CONTINUOUS
 62
               7
100
AcDbLine
 10
-12.0
 20
-7.5
 30
0.0
 11
-11.000000000000512
 21
-6.5
 31
0.0
  0
LINE
  5
1EB
100
AcDbEntity
  8
0
  6
CONTINUOUS
 62
               7
100
AcDbLine
 10
28.0
 20
-37.500000000000028
 30
0.0
 11
27.0
 21
-38.500000000000028
 31
0.0
  0
LINE
  5
1EC
100
AcDbEntity
  8
0
  6
CONTINUOUS
 62
               7
100
AcDbLine
 10
28.0
 20
-37.500000000000028
 30
0.0
 11
28.0
 21
-25.500000000000028
 31
0.0
  0
LINE
  5
1ED
100
AcDbEntity
  8
0
  6
CONTINUOUS
 62
               7
100
AcDbLine
 10
-12.0
 20
-37.500000000000028
 30
0.0
 11
-12.0
 21
-25.500000000000028
 31
0.0
  0
LINE
  5
1EE
100
AcDbEntity
  8
0
  6
CONTINUOUS
 62
               7
100
AcDbLine
 10
-12.0
 20
-25.500000000000028
 30
0.0
 11
-10.5
 21
-25.500000000000028
 31
0.0
  0
LINE
  5
1EF
100
AcDbEntity
  8
0
  6
CONTINUOUS
 62
               7
100
AcDbLine
 10
-11.0
 20
-38.500000000000028
 30
0.0
 11
27.0
 21
-38.500000000000028
 31
0.0
  0
LINE
  5
1F0
100
AcDbEntity
  8
0
  6
CONTINUOUS
 62
               7
100
AcDbLine
 10
26.5
 20
-25.500000000000028
 30
0.0
 11
28.0
 21
-25.500000000000028
 31
0.0
  0
LINE
  5
1F1
100
AcDbEntity
  8
0
  6
CONTINUOUS
 62
               7
100
AcDbLine
 10
21.504666666666651
 20
-27.629333333333335
 30
0.0
 11
21.504666666666651
 21
-21.629333333333335
 31
0.0
  0
LINE
  5
1F2
100
AcDbEntity
  8
0
  6
CONTINUOUS
 62
               7
100
AcDbLine
 10
5.8046666666666624
 20
-27.629333333333335
 30
0.0
 11
21.504666666666651
 21
-27.629333333333335
 31
0.0
  0
LINE
  5
1F3
100
AcDbEntity
  8
0
  6
CONTINUOUS
 62
               7
100
AcDbLine
 10
5.8046666666666624
 20
-21.629333333333335
 30
0.0
 11
21.504666666666651
 21
-21.629333333333335
 31
0.0
  0
LINE
  5
1F4
100
AcDbEntity
  8
0
  6
CONTINUOUS
 62
               7
100
AcDbLine
 10
5.8046666666666624
 20
-27.629333333333335
 30
0.0
 11
5.8046666666666624
 21
-21.629333333333335
 31
0.0
  0
LINE
  5
1F5
100
AcDbEntity
  8
0
  6
CONTINUOUS
 62
               7
100
AcDbLine
 10
26.0
 20
-28.400000000000006
 30
0.0
 11
-10.0
 21
-28.400000000000006
 31
0.0
  0
LINE
  5
1F6
100
AcDbEntity
  8
0
  6
CONTINUOUS
 62
               7
100
AcDbLine
 10
26.0
 20
-12.400000000000006
 30
0.0
 11
-10.0
 21
-12.400000000000006
 31
0.0
  0
LINE
  5
1F7
100
AcDbEntity
  8
0
  6
CONTINUOUS
 62
               7
100
AcDbLine
 10
-10.5
 20
-27.900000000000006
 30
0.0
 11
-10.5
 21
-12.900000000000006
 31
0.0
  0
LINE
  5
1F8
100
AcDbEntity
  8
0
  6
CONTINUOUS
 62
               7
100
AcDbLine
 10
26.5
 20
-27.900000000000006
 30
0.0
 11
26.5
 21
-12.900000000000006
 31
0.0
  0
LINE
  5
1F9
100
AcDbEntity
  8
0
  6
CONTINUOUS
 62
               7
100
AcDbLine
 10
21.004666666666651
 20
-27.129333333333335
 30
0.0
 11
21.004666666666651
 21
-22.129333333333335
 31
0.0
  0
LINE
  5
1FA
100
AcDbEntity
  8
0
  6
CONTINUOUS
 62
               7
100
AcDbLine
 10
19.504666666666651
 20
-27.129333333333335
 30
0.0
 11
19.504666666666651
 21
-22.129333333333335
 31
0.0
  0
LINE
  5
1FB
100
AcDbEntity
  8
0
  6
CONTINUOUS
 62
               7
100
AcDbLine
 10
21.004666666666651
 20
-27.129333333333335
 30
0.0
 11
19.504666666666651
 21
-27.129333333333335
 31
0.0
  0
LINE
  5
1FC
100
AcDbEntity
  8
0
  6
CONTINUOUS
 62
               7
100
AcDbLine
 10
21.004666666666651
 20
-22.129333333333335
 30
0.0
 11
19.504666666666651
 21
-22.129333333333335
 31
0.0
  0
LINE
  5
1FD
100
AcDbEntity
  8
0
  6
CONTINUOUS
 62
               7
100
AcDbLine
 10
16.604666666666674
 20
-22.129333333333335
 30
0.0
 11
15.104666666666674
 21
-22.129333333333335
 31
0.0
  0
LINE
  5
1FE
100
AcDbEntity
  8
0
  6
CONTINUOUS
 62
               7
100
AcDbLine
 10
16.604666666666674
 20
-27.129333333333335
 30
0.0
 11
15.104666666666674
 21
-27.129333333333335
 31
0.0
  0
LINE
  5
1FF
100
AcDbEntity
  8
0
  6
CONTINUOUS
 62
               7
100
AcDbLine
 10
15.104666666666674
 20
-27.129333333333335
 30
0.0
 11
15.104666666666674
 21
-22.129333333333335
 31
0.0
  0
LINE
  5
200
100
AcDbEntity
  8
0
  6
CONTINUOUS
 62
               7
100
AcDbLine
 10
16.604666666666674
 20
-27.129333333333335
 30
0.0
 11
16.604666666666674
 21
-22.129333333333335
 31
0.0
  0
LINE
  5
201
100
AcDbEntity
  8
0
  6
CONTINUOUS
 62
               7
100
AcDbLine
 10
12.20466666666664
 20
-22.129333333333335
 30
0.0
 11
10.70466666666664
 21
-22.129333333333335
 31
0.0
  0
LINE
  5
202
100
AcDbEntity
  8
0
  6
CONTINUOUS
 62
               7
100
AcDbLine
 10
12.20466666666664
 20
-27.129333333333335
 30
0.0
 11
10.70466666666664
 21
-27.129333333333335
 31
0.0
  0
LINE
  5
203
100
AcDbEntity
  8
0
  6
CONTINUOUS
 62
               7
100
AcDbLine
 10
10.70466666666664
 20
-27.129333333333335
 30
0.0
 11
10.70466666666664
 21
-22.129333333333335
 31
0.0
  0
LINE
  5
204
100
AcDbEntity
  8
0
  6
CONTINUOUS
 62
               7
100
AcDbLine
 10
12.20466666666664
 20
-27.129333333333335
 30
0.0
 11
12.20466666666664
 21
-22.129333333333335
 31
0.0
  0
LINE
  5
205
100
AcDbEntity
  8
0
  6
CONTINUOUS
 62
               7
100
AcDbLine
 10
7.8046666666666624
 20
-22.129333333333335
 30
0.0
 11
6.3046666666666624
 21
-22.129333333333335
 31
0.0
  0
LINE
  5
206
100
AcDbEntity
  8
0
  6
CONTINUOUS
 62
               7
100
AcDbLine
 10
7.8046666666666624
 20
-27.129333333333335
 30
0.0
 11
6.3046666666666624
 21
-27.129333333333335
 31
0.0
  0
LINE
  5
207
100
AcDbEntity
  8
0
  6
CONTINUOUS
 62
               7
100
AcDbLine
 10
6.3046666666666624
 20
-27.129333333333335
 30
0.0
 11
6.3046666666666624
 21
-22.129333333333335
 31
0.0
  0
LINE
  5
208
100
AcDbEntity
  8
0
  6
CONTINUOUS
 62
               7
100
AcDbLine
 10
7.8046666666666624
 20
-27.129333333333335
 30
0.0
 11
7.8046666666666624
 21
-22.129333333333335
 31
0.0
  0
LINE
  5
209
100
AcDbEntity
  8
0
  6
CONTINUOUS
 62
               7
100
AcDbLine
 10
24.504666666666651
 20
-21.129333333333335
 30
0.0
 11
2.5046666666666511
 21
-21.129333333333335
 31
0.0
  0
LINE
  5
20A
100
AcDbEntity
  8
0
  6
CONTINUOUS
 62
               7
100
AcDbLine
 10
24.504666666666651
 20
-13.129333333333335
 30
0.0
 11
2.5046666666666511
 21
-13.129333333333335
 31
0.0
  0
LINE
  5
20B
100
AcDbEntity
  8
0
  6
CONTINUOUS
 62
               7
100
AcDbLine
 10
20.504666666666651
 20
-21.129333333333335
 30
0.0
 11
20.504666666666651
 21
-13.129333333333335
 31
0.0
  0
LINE
  5
20C
100
AcDbEntity
  8
0
  6
CONTINUOUS
 62
               7
100
AcDbLine
 10
18.504666666666651
 20
-21.129333333333335
 30
0.0
 11
18.504666666666651
 21
-13.129333333333335
 31
0.0
  0
LINE
  5
20D
100
AcDbEntity
  8
0
  6
CONTINUOUS
 62
               7
100
AcDbLine
 10
16.504666666666651
 20
-21.129333333333335
 30
0.0
 11
16.504666666666651
 21
-13.129333333333335
 31
0.0
  0
LINE
  5
20E
100
AcDbEntity
  8
0
  6
CONTINUOUS
 62
               7
100
AcDbLine
 10
14.504666666666651
 20
-21.129333333333335
 30
0.0
 11
14.504666666666651
 21
-13.129333333333335
 31
0.0
  0
LINE
  5
20F
100
AcDbEntity
  8
0
  6
CONTINUOUS
 62
               7
100
AcDbLine
 10
12.504666666666651
 20
-21.129333333333335
 30
0.0
 11
12.504666666666651
 21
-13.129333333333335
 31
0.0
  0
LINE
  5
210
100
AcDbEntity
  8
0
  6
CONTINUOUS
 62
               7
100
AcDbLine
 10
10.504666666666651
 20
-21.129333333333335
 30
0.0
 11
10.504666666666651
 21
-13.129333333333335
 31
0.0
  0
LINE
  5
211
100
AcDbEntity
  8
0
  6
CONTINUOUS
 62
               7
100
AcDbLine
 10
8.5046666666666511
 20
-21.129333333333335
 30
0.0
 11
8.5046666666666511
 21
-13.129333333333335
 31
0.0
  0
LINE
  5
212
100
AcDbEntity
  8
0
  6
CONTINUOUS
 62
               7
100
AcDbLine
 10
6.5046666666666511
 20
-21.129333333333335
 30
0.0
 11
6.5046666666666511
 21
-13.129333333333335
 31
0.0
  0
LINE
  5
213
100
AcDbEntity
  8
0
  6
CONTINUOUS
 62
               7
100
AcDbLine
 10
4.5046666666666511
 20
-21.129333333333335
 30
0.0
 11
4.5046666666666511
 21
-13.129333333333335
 31
0.0
  0
LINE
  5
214
100
AcDbEntity
  8
0
  6
CONTINUOUS
 62
               7
100
AcDbLine
 10
2.5046666666666511
 20
-21.129333333333335
 30
0.0
 11
2.5046666666666511
 21
-13.129333333333335
 31
0.0
  0
LINE
  5
215
100
AcDbEntity
  8
0
  6
CONTINUOUS
 62
               7
100
AcDbLine
 10
22.504666666666651
 20
-21.129333333333335
 30
0.0
 11
22.504666666666651
 21
-13.129333333333335
 31
0.0
  0
LINE
  5
216
100
AcDbEntity
  8
0
  6
CONTINUOUS
 62
               7
100
AcDbLine
 10
24.504666666666651
 20
-21.129333333333335
 30
0.0
 11
24.504666666666651
 21
-13.129333333333335
 31
0.0
  0
LINE
  5
217
100
AcDbEntity
  8
0
  6
CONTINUOUS
 62
               7
100
AcDbLine
 10
24.504666666666651
 20
-19.129333333333335
 30
0.0
 11
2.5046666666666511
 21
-19.129333333333335
 31
0.0
  0
ARC
  5
218
100
AcDbEntity
  8
0
  6
CONTINUOUS
 62
               7
100
AcDbCircle
 10
-10.0
 20
-27.900000000000006
 30
0.0
 40
0.5
100
AcDbArc
 50
180.0
 51
270.0
  0
ARC
  5
219
100
AcDbEntity
  8
0
  6
CONTINUOUS
 62
               7
100
AcDbCircle
 10
-10.0
 20
-12.900000000000006
 30
0.0
 40
0.5
100
AcDbArc
 50
90.0
 51
180.0
  0
ARC
  5
21A
100
AcDbEntity
  8
0
  6
CONTINUOUS
 62
               7
100
AcDbCircle
 10
26.0
 20
-12.900000000000006
 30
0.0
 40
0.5
100
AcDbArc
 50
0.0
 51
90.0
  0
ARC
  5
21B
100
AcDbEntity
  8
0
  6
CONTINUOUS
 62
               7
100
AcDbCircle
 10
26.0
 20
-27.900000000000006
 30
0.0
 40
0.5
100
AcDbArc
 50
270.0
 51
0.0
  0
LINE
  5
21C
100
AcDbEntity
  8
0
  6
CONTINUOUS
 62
               7
100
AcDbLine
 10
2.0046666666666511
 20
-12.400000000000006
 30
0.0
 11
2.0046666666666511
 21
-28.400000000000006
 31
0.0
  0
LINE
  5
21D
100
AcDbEntity
  8
0
  6
CONTINUOUS
 62
               7
100
AcDbLine
 10
25.004666666666651
 20
-12.400000000000006
 30
0.0
 11
25.004666666666651
 21
-28.400000000000006
 31
0.0
  0
LINE
  5
21E
100
AcDbEntity
  8
0
  6
CONTINUOUS
 62
               7
100
AcDbLine
 10
0.1508941686041112
 20
-23.150000000000006
 30
0.0
 11
0.1508941686041112
 21
-17.150000000000006
 31
0.0
  0
LINE
  5
21F
100
AcDbEntity
  8
0
  6
CONTINUOUS
 62
               7
100
AcDbLine
 10
-1.3491058313958888
 20
-23.150000000000006
 30
0.0
 11
-1.3491058313958888
 21
-17.150000000000006
 31
0.0
  0
LINE
  5
220
100
AcDbEntity
  8
0
  6
CONTINUOUS
 62
               7
100
AcDbLine
 10
0.1508941686041112
 20
-23.150000000000006
 30
0.0
 11
-1.3491058313958888
 21
-23.150000000000006
 31
0.0
  0
LINE
  5
221
100
AcDbEntity
  8
0
  6
CONTINUOUS
 62
               7
100
AcDbLine
 10
0.1508941686041112
 20
-17.150000000000006
 30
0.0
 11
-1.3491058313958888
 21
-17.150000000000006
 31
0.0
  0
ARC
  5
222
100
AcDbEntity
  8
0
  6
CONTINUOUS
 62
               7
100
AcDbCircle
 10
11.5
 20
-29.900000000000006
 30
0.0
 40
1.0
100
AcDbArc
 50
90.0
 51
180.0
  0
ARC
  5
223
100
AcDbEntity
  8
0
  6
CONTINUOUS
 62
               7
100
AcDbCircle
 10
25.5
 20
-29.900000000000006
 30
0.0
 40
1.0
100
AcDbArc
 50
0.0
 51
90.0
  0
ARC
  5
224
100
AcDbEntity
  8
0
  6
CONTINUOUS
 62
               7
100
AcDbCircle
 10
25.5
 20
-35.900000000000006
 30
0.0
 40
1.0
100
AcDbArc
 50
270.0
 51
0.0
  0
ARC
  5
225
100
AcDbEntity
  8
0
  6
CONTINUOUS
 62
               7
100
AcDbCircle
 10
11.5
 20
-35.900000000000006
 30
0.0
 40
1.0
100
AcDbArc
 50
180.0
 51
270.0
  0
LINE
  5
226
100
AcDbEntity
  8
0
  6
CONTINUOUS
 62
               7
100
AcDbLine
 10
26.5
 20
-34.400000000000006
 30
0.0
 11
10.5
 21
-34.400000000000006
 31
0.0
  0
LINE
  5
227
100
AcDbEntity
  8
0
  6
CONTINUOUS
 62
               7
100
AcDbLine
 10
26.5
 20
-35.900000000000006
 30
0.0
 11
26.5
 21
-29.900000000000006
 31
0.0
  0
LINE
  5
228
100
AcDbEntity
  8
0
  6
CONTINUOUS
 62
               7
100
AcDbLine
 10
10.5
 20
-35.900000000000006
 30
0.0
 11
10.5
 21
-29.900000000000006
 31
0.0
  0
LINE
  5
229
100
AcDbEntity
  8
0
  6
CONTINUOUS
 62
               7
100
AcDbLine
 10
25.5
 20
-28.900000000000006
 30
0.0
 11
11.5
 21
-28.900000000000006
 31
0.0
  0
LINE
  5
22A
100
AcDbEntity
  8
0
  6
CONTINUOUS
 62
               7
100
AcDbLine
 10
25.5
 20
-36.900000000000006
 30
0.0
 11
11.5
 21
-36.900000000000006
 31
0.0
  0
ARC
  5
22B
100
AcDbEntity
  8
0
  6
CONTINUOUS
 62
               7
100
AcDbCircle
 10
-10.0
 20
3.5
 30
0.0
 40
1.0
100
AcDbArc
 50
90.0
 51
180.0
  0
ARC
  5
22C
100
AcDbEntity
  8
0
  6
CONTINUOUS
 62
               7
100
AcDbCircle
 10
26.0
 20
3.5
 30
0.0
 40
1.0
100
AcDbArc
 50
0.0
 51
90.0
  0
CIRCLE
  5
22D
100
AcDbEntity
  8
0
  6
CONTINUOUS
 62
               7
100
AcDbCircle
 10
16.0
 20
0.0
 30
0.0
 40
2.25
  0
CIRCLE
  5
22E
100
AcDbEntity
  8
0
  6
CONTINUOUS
 62
               7
100
AcDbCircle
 10
0.0
 20
0.0
 30
0.0
 40
2.25
  0
LINE
  5
22F
100
AcDbEntity
  8
0
  6
CONTINUOUS
 62
               2
100
AcDbLine
 10
16.0
 20
-4.0
 30
0.0
 11
16.0
 21
4.0
 31
0.0
  0
LINE
  5
230
100
AcDbEntity
  8
0
  6
CONTINUOUS
 62
               2
100
AcDbLine
 10
20.0
 20
0.0
 30
0.0
 11
12.0
 21
0.0
 31
0.0
  0
LINE
  5
231
100
AcDbEntity
  8
0
  6
CONTINUOUS
 62
               7
100
AcDbLine
 10
-5.5
 20
-4.8999999999999915
 30
0.0
 11
-11.0
 21
-4.8999999999999915
 31
0.0
  0
LINE
  5
232
100
AcDbEntity
  8
0
  6
CONTINUOUS
 62
               7
100
AcDbLine
 10
-5.5
 20
-6.5
 30
0.0
 11
-11.0
 21
-6.5
 31
0.0
  0
LINE
  5
233
100
AcDbEntity
  8
0
  6
CONTINUOUS
 62
               7
100
AcDbLine
 10
27.0
 20
-4.8999999999999915
 30
0.0
 11
21.5
 21
-4.8999999999999915
 31
0.0
  0
LINE
  5
234
100
AcDbEntity
  8
0
  6
CONTINUOUS
 62
               7
100
AcDbLine
 10
27.0
 20
3.5
 30
0.0
 11
27.0
 21
-6.5
 31
0.0
  0
LINE
  5
235
100
AcDbEntity
  8
0
  6
CONTINUOUS
 62
               7
100
AcDbLine
 10
-11.0
 20
3.5
 30
0.0
 11
-11.0
 21
-6.5
 31
0.0
  0
LINE
  5
236
100
AcDbEntity
  8
0
  6
CONTINUOUS
 62
               7
100
AcDbLine
 10
27.0
 20
-6.5
 30
0.0
 11
21.5
 21
-6.5
 31
0.0
  0
LINE
  5
237
100
AcDbEntity
  8
0
  6
CONTINUOUS
 62
               7
100
AcDbLine
 10
26.0
 20
4.5
 30
0.0
 11
-10.0
 21
4.5
 31
0.0
  0
LINE
  5
238
100
AcDbEntity
  8
0
  6
CONTINUOUS
 62
               7
100
AcDbLine
 10
-9.25
 20
-4.8999999909261192
 30
0.0
 11
-9.25
 21
-2.7999999999999972
 31
0.0
  0
LINE
  5
239
100
AcDbEntity
  8
0
  6
CONTINUOUS
 62
               7
100
AcDbLine
 10
-4.75
 20
-3.1000000000000227
 30
0.0
 11
-4.75
 21
-2.7999999999999972
 31
0.0
  0
LINE
  5
23A
100
AcDbEntity
  8
0
  6
CONTINUOUS
 62
               7
100
AcDbLine
 10
-5.2499999715116132
 20
-2.2999999999999972
 30
0.0
 11
-8.75
 21
-2.2999999999999972
 31
0.0
  0
LINE
  5
23B
100
AcDbEntity
  8
0
  6
CONTINUOUS
 62
               7
100
AcDbLine
 10
-4.75
 20
-2.7999999999999972
 30
0.0
 11
-5.2500000000000142
 21
-2.2999999999999972
 31
0.0
  0
LINE
  5
23C
100
AcDbEntity
  8
0
  6
CONTINUOUS
 62
               7
100
AcDbLine
 10
-8.75
 20
-2.2999999999999972
 30
0.0
 11
-9.25
 21
-2.7999999999999972
 31
0.0
  0
LINE
  5
23D
100
AcDbEntity
  8
0
  6
CONTINUOUS
 62
               7
100
AcDbLine
 10
-4.75
 20
-2.7999999999999972
 30
0.0
 11
-9.25
 21
-2.7999999999999972
 31
0.0
  0
LINE
  5
23E
100
AcDbEntity
  8
0
  6
CONTINUOUS
 62
               2
100
AcDbLine
 10
-7.0
 20
-6.8999999999999915
 30
0.0
 11
-7.0
 21
-0.2999999999999972
 31
0.0
  0
LINE
  5
23F
100
AcDbEntity
  8
0
  6
CONTINUOUS
 62
               7
100
AcDbLine
 10
25.25
 20
-2.7999999999999972
 30
0.0
 11
20.75
 21
-2.7999999999999972
 31
0.0
  0
LINE
  5
240
100
AcDbEntity
  8
0
  6
CONTINUOUS
 62
               7
100
AcDbLine
 10
21.25
 20
-2.2999999999999972
 30
0.0
 11
20.75
 21
-2.7999999999999972
 31
0.0
  0
LINE
  5
241
100
AcDbEntity
  8
0
  6
CONTINUOUS
 62
               7
100
AcDbLine
 10
25.25
 20
-2.7999999999999972
 30
0.0
 11
24.749999999999986
 21
-2.2999999999999972
 31
0.0
  0
LINE
  5
242
100
AcDbEntity
  8
0
  6
CONTINUOUS
 62
               7
100
AcDbLine
 10
24.750000028488387
 20
-2.2999999999999972
 30
0.0
 11
21.25
 21
-2.2999999999999972
 31
0.0
  0
LINE
  5
243
100
AcDbEntity
  8
0
  6
CONTINUOUS
 62
               7
100
AcDbLine
 10
25.25
 20
-4.8999999909261192
 30
0.0
 11
25.25
 21
-2.7999999999999972
 31
0.0
  0
LINE
  5
244
100
AcDbEntity
  8
0
  6
CONTINUOUS
 62
               7
100
AcDbLine
 10
20.75
 20
-3.1000000000000227
 30
0.0
 11
20.75
 21
-2.7999999999999972
 31
0.0
  0
LINE
  5
245
100
AcDbEntity
  8
0
  6
CONTINUOUS
 62
               2
100
AcDbLine
 10
23.0
 20
-6.8999999999999915
 30
0.0
 11
23.0
 21
-0.2999999999999972
 31
0.0
  0
ENDBLK
  5
246
100
AcDbEntity
  8
0
100
AcDbBlockEnd
  0
BLOCK
  5
22
100
AcDbEntity
  8
0
  6
ByBlock
 62
               0
100
AcDbBlockBegin
  2
_OPEN30
 70
               2
 10
0.0
 20
0.0
 30
0.0
  3
_OPEN30
  1

  0
LINE
  5
23
100
AcDbEntity
  8
0
  6
ByBlock
 62
               0
100
AcDbLine
 10
-1.0
 20
0.267949
 30
0.0
 11
0.0
 21
0.0
 31
0.0
  0
LINE
  5
24
100
AcDbEntity
  8
0
  6
ByBlock
 62
               0
100
AcDbLine
 10
0.0
 20
0.0
 30
0.0
 11
-1.0
 21
-0.267949
 31
0.0
  0
LINE
  5
25
100
AcDbEntity
  8
0
  6
ByBlock
 62
               0
100
AcDbLine
 10
0.0
 20
0.0
 30
0.0
 11
-1.0
 21
0.0
 31
0.0
  0
ENDBLK
  5
26
100
AcDbEntity
  8
0
  6
ByBlock
 62
               0
100
AcDbBlockEnd
  0
ENDSEC
  0
SECTION
  2
ENTITIES
  0
INSERT
  5
247
100
AcDbEntity
  8
0
  6
ByBlock
100
AcDbBlockReference
  2
DTY-EPU-B-3
 10
-30.0
 20
70.0
 30
0.0
  0
INSERT
  5
248
100
AcDbEntity
  8
0
  6
ByBlock
100
AcDbBlockReference
  2
DTY-EPU-B-2
 10
90.0
 20
-70.0
 30
0.0
  0
INSERT
  5
249
100
AcDbEntity
  8
0
  6
ByBlock
100
AcDbBlockReference
  2
DTY-EPU-B-1
 10
-30.0
 20
-70.0
 30
0.0
  0
MTEXT
  5
24A
100
AcDbEntity
  8
0
  6
CONTINUOUS
 62
               7
100
AcDbMText
 10
-173.44064748374967
 20
128.85000610351562
 30
0.0
 40
4.5
 41
0.0
 71
               4
 72
               1
  1
\W1.079;\A1;EP MONITER
  0
MTEXT
  5
24B
100
AcDbEntity
  8
0
  6
CONTINUOUS
 62
               7
100
AcDbMText
 10
-171.25
 20
121.35000610351562
 30
0.0
 40
4.5
 41
0.0
 71
               4
 72
               1
  1
\A1;DTY-EPU-B
  0
MTEXT
  5
24C
100
AcDbEntity
  8
0
  6
CONTINUOUS
 62
               7
100
AcDbMText
 10
-185.71511627961377
 20
107.60000610351562
 30
0.0
 40
4.5
 41
0.0
 71
               4
 72
               1
  1
\W1.047;\A1;MODEL:DTY-EPU-B
  0
LINE
  5
24D
100
AcDbEntity
  8
0
  6
CONTINUOUS
 62
               7
100
AcDbLine
 10
-194.25
 20
132.60000610351562
 30
0.0
 11
194.80000305175781
 21
132.60000610351562
 31
0.0
  0
LINE
  5
24E
100
AcDbEntity
  8
0
  6
CONTINUOUS
 62
               7
100
AcDbLine
 10
194.80000305175781
 20
132.60000610351562
 30
0.0
 11
194.80000305175781
 21
-133.5
 31
0.0
  0
LINE
  5
24F
100
AcDbEntity
  8
0
  6
CONTINUOUS
 62
               7
100
AcDbLine
 10
-194.25
 20
132.60000610351562
 30
0.0
 11
-194.25
 21
-133.5
 31
0.0
  0
LINE
  5
250
100
AcDbEntity
  8
0
  6
CONTINUOUS
 62
               7
100
AcDbLine
 10
-194.25
 20
-133.5
 30
0.0
 11
194.80000305175781
 21
-133.5
 31
0.0
  0
LINE
  5
251
100
AcDbEntity
  8
0
  6
CONTINUOUS
 62
               7
100
AcDbLine
 10
109.80000305175781
 20
-118.5
 30
0.0
 11
109.80000305175781
 21
-133.5
 31
0.0
  0
LINE
  5
252
100
AcDbEntity
  8
0
  6
CONTINUOUS
 62
               7
100
AcDbLine
 10
109.80000305175781
 20
-118.5
 30
0.0
 11
194.80000305175781
 21
-118.5
 31
0.0
  0
LINE
  5
253
100
AcDbEntity
  8
0
  6
CONTINUOUS
 62
               7
100
AcDbLine
 10
109.80000305175781
 20
132.60000610351562
 30
0.0
 11
109.80000305175781
 21
117.60000610351562
 31
0.0
  0
LINE
  5
254
100
AcDbEntity
  8
0
  6
CONTINUOUS
 62
               7
100
AcDbLine
 10
109.80000305175781
 20
117.60000610351562
 30
0.0
 11
194.80000305175781
 21
117.60000610351562
 31
0.0
  0
LINE
  5
255
100
AcDbEntity
  8
0
  6
CONTINUOUS
 62
               7
100
AcDbLine
 10
-194.25
 20
117.60000610351562
 30
0.0
 11
-109.25
 21
117.60000610351562
 31
0.0
  0
LINE
  5
256
100
AcDbEntity
  8
0
  6
CONTINUOUS
 62
               7
100
AcDbLine
 10
-109.25
 20
132.60000610351562
 30
0.0
 11
-109.25
 21
117.60000610351562
 31
0.0
  0
MTEXT
  5
257
100
AcDbEntity
  8
0
  6
CONTINUOUS
 62
               7
100
AcDbMText
 10
135.2836095995238
 20
125.10000610351562
 30
0.0
 40
4.5
 41
0.0
 71
               4
 72
               1
  1
\W1.311;\A1;Ver. 1.0
  0
MTEXT
  5
258
100
AcDbEntity
  8
0
  6
CONTINUOUS
 62
               7
100
AcDbMText
 10
115.5267440447775
 20
-126.0
 30
0.0
 40
6.2999992370605469
 41
0.0
 71
               4
 72
               1
  1
\W1.121;\A1;KOGANEI CORP.
  0
ENDSEC
  0
SECTION
  2
OBJECTS
  0
DICTIONARY
  5
19
100
AcDbDictionary
  3
ACAD_GROUP
350
1A
  3
ACAD_MLINESTYLE
350
1B
  0
DICTIONARY
  5
1A
102
{ACAD_REACTORS
330
19
102
}
100
AcDbDictionary
  0
DICTIONARY
  5
1B
102
{ACAD_REACTORS
330
19
102
}
100
AcDbDictionary
  3
STANDARD
350
1C
  0
MLINESTYLE
  5
1C
102
{ACAD_REACTORS
330
1B
102
}
100
AcDbMlineStyle
  2
Standard
 70
               0
  3

 62
               0
 51
90.0
 52
90.0
 71
               2
 49
0.5
 62
             256
  6
ByLayer
 49
-0.5
 62
             256
  6
ByLayer
  0
ENDSEC
  0
EOF
