  0
SECTION
  2
HEADER
  9
$ACADVER
  1
AC1012
  9
$DWGCODEPAGE
  3
dos932
  9
$INSBASE
 10
0.0
 20
0.0
 30
0.0
  9
$EXTMIN
 10
-194.25
 20
-133.5
 30
0.0
  9
$EXTMAX
 10
196.24998569488525
 20
132.60000610351562
 30
0.0
  9
$LIMMIN
 10
-210.0
 20
-148.5
  9
$LIMMAX
 10
210.0
 20
148.5
  9
$ORTHOMODE
 70
               0
  9
$REGENMODE
 70
               1
  9
$FILLMODE
 70
               1
  9
$QTEXTMODE
 70
               0
  9
$MIRRTEXT
 70
               1
  9
$DRAGMODE
 70
               2
  9
$LTSCALE
 40
1.0
  9
$OSMODE
 70
               0
  9
$ATTMODE
 70
               1
  9
$TEXTSIZE
 40
3.2000000476837158
  9
$TRACEWID
 40
0.05
  9
$TEXTSTYLE
  7
MX_NOTE_STANDARD
  9
$CLAYER
  8
0
  9
$CELTYPE
  6
CONTINUOUS
  9
$CECOLOR
 62
             256
  9
$CELTSCALE
 40
1.0
  9
$DELOBJ
 70
               1
  9
$DISPSILH
 70
               0
  9
$DIMSCALE
 40
1.0
  9
$DIMASZ
 40
2.5
  9
$DIMEXO
 40
1.5
  9
$DIMDLI
 40
3.75
  9
$DIMRND
 40
0.0
  9
$DIMDLE
 40
0.0
  9
$DIMEXE
 40
1.5
  9
$DIMTP
 40
0.0
  9
$DIMTM
 40
0.0
  9
$DIMTXT
 40
3.2000000476837158
  9
$DIMCEN
 40
2.5
  9
$DIMTSZ
 40
0.0
  9
$DIMTOL
 70
               0
  9
$DIMLIM
 70
               0
  9
$DIMTIH
 70
               0
  9
$DIMTOH
 70
               0
  9
$DIMSE1
 70
               0
  9
$DIMSE2
 70
               0
  9
$DIMTAD
 70
               1
  9
$DIMZIN
 70
               8
  9
$DIMBLK
  1

  9
$DIMASO
 70
               1
  9
$DIMSHO
 70
               1
  9
$DIMPOST
  1

  9
$DIMAPOST
  1

  9
$DIMALT
 70
               0
  9
$DIMALTD
 70
               4
  9
$DIMALTF
 40
0.03937007874016
  9
$DIMLFAC
 40
1.0
  9
$DIMTOFL
 70
               1
  9
$DIMTVP
 40
0.0
  9
$DIMTIX
 70
               0
  9
$DIMSOXD
 70
               0
  9
$DIMSAH
 70
               1
  9
$DIMBLK1
  1
_OPEN30
  9
$DIMBLK2
  1
_OPEN30
  9
$DIMSTYLE
  2
MXDIMSTYLE
  9
$DIMCLRD
 70
               0
  9
$DIMCLRE
 70
               0
  9
$DIMCLRT
 70
               0
  9
$DIMTFAC
 40
1.0
  9
$DIMGAP
 40
1.0
  9
$DIMJUST
 70
               0
  9
$DIMSD1
 70
               0
  9
$DIMSD2
 70
               0
  9
$DIMTOLJ
 70
               0
  9
$DIMTZIN
 70
               0
  9
$DIMALTZ
 70
               0
  9
$DIMALTTZ
 70
               0
  9
$DIMFIT
 70
               3
  9
$DIMUPT
 70
               1
  9
$DIMUNIT
 70
               2
  9
$DIMDEC
 70
               2
  9
$DIMTDEC
 70
               2
  9
$DIMALTU
 70
               2
  9
$DIMALTTD
 70
               4
  9
$DIMTXSTY
  7
MX_NOTE_STANDARD
  9
$DIMAUNIT
 70
               0
  9
$LUNITS
 70
               2
  9
$LUPREC
 70
               4
  9
$SKETCHINC
 40
0.1
  9
$FILLETRAD
 40
0.0
  9
$AUNITS
 70
               0
  9
$AUPREC
 70
               0
  9
$MENU
  1
acad
  9
$ELEVATION
 40
0.0
  9
$PELEVATION
 40
0.0
  9
$THICKNESS
 40
0.0
  9
$LIMCHECK
 70
               0
  9
$BLIPMODE
 70
               1
  9
$CHAMFERA
 40
0.0
  9
$CHAMFERB
 40
0.0
  9
$CHAMFERC
 40
0.0
  9
$CHAMFERD
 40
0.0
  9
$SKPOLY
 70
               0
  9
$TDCREATE
 40
2454057.468761574
  9
$TDUPDATE
 40
2454057.468761574
  9
$TDINDWG
 40
0.0000000000
  9
$TDUSRTIMER
 40
0.0000000000
  9
$USRTIMER
 70
               1
  9
$ANGBASE
 50
0.0
  9
$ANGDIR
 70
               0
  9
$PDMODE
 70
               0
  9
$PDSIZE
 40
0.0
  9
$PLINEWID
 40
0.0
  9
$COORDS
 70
               1
  9
$SPLFRAME
 70
               0
  9
$SPLINETYPE
 70
               6
  9
$SPLINESEGS
 70
               8
  9
$ATTDIA
 70
               0
  9
$ATTREQ
 70
               1
  9
$HANDLING
 70
               1
  9
$HANDSEED
  5
1D2
  9
$SURFTAB1
 70
               6
  9
$SURFTAB2
 70
               6
  9
$SURFTYPE
 70
               6
  9
$SURFU
 70
               6
  9
$SURFV
 70
               6
  9
$UCSNAME
  2

  9
$UCSORG
 10
0.0
 20
0.0
 30
0.0
  9
$UCSXDIR
 10
1.0
 20
0.0
 30
0.0
  9
$UCSYDIR
 10
0.0
 20
1.0
 30
0.0
  9
$PUCSNAME
  2

  9
$PUCSORG
 10
0.0
 20
0.0
 30
0.0
  9
$PUCSXDIR
 10
1.0
 20
0.0
 30
0.0
  9
$PUCSYDIR
 10
0.0
 20
1.0
 30
0.0
  9
$USERI1
 70
               0
  9
$USERI2
 70
               0
  9
$USERI3
 70
               0
  9
$USERI4
 70
               0
  9
$USERI5
 70
               0
  9
$USERR1
 40
0.0
  9
$USERR2
 40
0.0
  9
$USERR3
 40
0.0
  9
$USERR4
 40
0.0
  9
$USERR5
 40
0.0
  9
$WORLDVIEW
 70
               1
  9
$SHADEDGE
 70
               3
  9
$SHADEDIF
 70
              70
  9
$TILEMODE
 70
               1
  9
$MAXACTVP
 70
              16
  9
$PINSBASE
 10
0.0
 20
0.0
 30
0.0
  9
$PLIMCHECK
 70
               0
  9
$PEXTMIN
 10
1.0000000000000000E+20
 20
1.0000000000000000E+20
 30
1.0000000000000000E+20
  9
$PEXTMAX
 10
-1.0000000000000000E+20
 20
-1.0000000000000000E+20
 30
-1.0000000000000000E+20
  9
$PLIMMIN
 10
0.0
 20
0.0
  9
$PLIMMAX
 10
12.0
 20
9.0
  9
$UNITMODE
 70
               0
  9
$VISRETAIN
 70
               0
  9
$PLINEGEN
 70
               1
  9
$PSLTSCALE
 70
               0
  9
$TREEDEPTH
 70
            3020
  9
$PICKSTYLE
 70
               1
  9
$CMLSTYLE
  2
Standard
  9
$CMLJUST
 70
               0
  9
$CMLSCALE
 40
1.0
  9
$SAVEIMAGES
 70
               0
  0
ENDSEC
  0
SECTION
  2
CLASSES
  0
CLASS
  1
LWPOLYLINE
  2
AcDbPolyline
  3
"AutoCAD"
 90
    32768
280
               0
281
               1
  0
CLASS
  1
IMAGE
  2
AcDbRasterImage
  3
ISM
 90
    32895
280
               0
281
               1
  0
CLASS
  1
OLE2FRAME
  2
AcDbOle2Frame
  3
""
 90
    32768
280
               0
281
               1
  0
CLASS
  1
HATCH
  2
AcDbHatch
  3
"ACAD_SEDONA"
 90
    32768
280
               0
281
               1
  0
CLASS
  1
DICTIONARYVAR
  2
AcDbDictionaryVar
  3
"AutoCAD"
 90
    32768
280
               0
281
               0
  0
CLASS
  1
RASTERVARIABLES
  2
AcDbRasterVariables
  3
ISM
 90
    32768
280
               0
281
               0
  0
CLASS
  1
IMAGEDEF
  2
AcDbRasterImageDef
  3
ISM
 90
    32768
280
               0
281
               0
  0
CLASS
  1
IMAGEDEF_REACTOR
  2
AcDbRasterImageDefReactor
  3
ISM
 90
    32769
280
               0
281
               0
  0
CLASS
  1
IDBUFFER
  2
AcDbIdBuffer
  3
"Acad"
 90
    32768
280
               0
281
               0
  0
CLASS
  1
SPATIAL_FILTER
  2
AcDbSpatialFilter
  3
"Acad"
 90
    32768
280
               0
281
               0
  0
CLASS
  1
XRECORD
  2
AcDbXrecord
  3
"<Built In>"
 90
    32768
280
               0
281
               0
  0
CLASS
  1
SORTENTSTABLE
  2
AcDbSortentsTable
  3
"AutoCAD"
 90
    32768
280
               0
281
               0
  0
CLASS
  1
LAYER_INDEX
  2
AcDbLayerIndex
  3
"Acad"
 90
    32768
280
               0
281
               0
  0
CLASS
  1
SPATIAL_INDEX
  2
AcDbSpatialIndex
  3
"Acad"
 90
    32768
280
               0
281
               0
  0
CLASS
  1
OBJECT_PTR
  2
CAseDLPNTableRecord
  3
"ASE-LPNTableRecord"
 90
    32769
280
               0
281
               0
  0
CLASS
  1
LAYOUT
  2
AcDbLayout
  3
"AutoCAD 2000"
 90
    32768
280
               0
281
               0
  0
CLASS
  1
PLOTSETTINGS
  2
AcDbPlotSettings
  3
"AutoCAD 2000"
 90
    32768
280
               0
281
               0
  0
CLASS
  1
ACDBDICTIONARYWDFLT
  2
AcDbDictionaryWithDefault
  3
"AutoCAD 2000"
 90
    32768
280
               0
281
               0
  0
CLASS
  1
ACDBPLACEHOLDER
  2
AcDbPlaceHolder
  3
"AutoCAD 2000"
 90
    32768
280
               0
281
               0
  0
ENDSEC
  0
SECTION
  2
TABLES
  0
TABLE
  2
VPORT
  5
7
100
AcDbSymbolTable
 70
               1
  0
VPORT
  5
15
100
AcDbSymbolTableRecord
100
AcDbViewportTableRecord
  2
*ACTIVE
 70
               0
 10
0.0
 20
0.0
 11
1.0
 21
1.0
 12
0.0
 22
0.0
 13
0.0
 23
0.0
 14
1.0
 24
1.0
 15
0.0
 25
0.0
 16
0.0
 26
0.0
 36
1.0
 17
0.0
 27
0.0
 37
0.0
 40
299.97000000000003
 41
1.7320508075688772
 42
50.0
 43
0.0
 44
0.0
 50
0.0
 51
0.0
 71
               0
 72
             100
 73
               1
 74
               1
 75
               0
 76
               0
 77
               0
 78
               0
  0
ENDTAB
  0
TABLE
  2
LTYPE
  5
4
100
AcDbSymbolTable
 70
               3
  0
LTYPE
  5
11
100
AcDbSymbolTableRecord
100
AcDbLinetypeTableRecord
  2
BYBLOCK
 70
              64
  3

 72
              65
 73
               0
 40
0.0
  0
LTYPE
  5
12
100
AcDbSymbolTableRecord
100
AcDbLinetypeTableRecord
  2
BYLAYER
 70
              64
  3

 72
              65
 73
               0
 40
0.0
  0
LTYPE
  5
13
100
AcDbSymbolTableRecord
100
AcDbLinetypeTableRecord
  2
CONTINUOUS
 70
              64
  3
Solid line
 72
              65
 73
               0
 40
0.0
  0
ENDTAB
  0
TABLE
  2
LAYER
  5
2
100
AcDbSymbolTable
 70
               2
  0
LAYER
  5
14
100
AcDbSymbolTableRecord
100
AcDbLayerTableRecord
  2
0
 70
               0
 62
               7
  6
CONTINUOUS
  0
LAYER
  5
1D
100
AcDbSymbolTableRecord
100
AcDbLayerTableRecord
  2
DEFPOINTS
 70
               0
 62
               7
  6
CONTINUOUS
  0
ENDTAB
  0
TABLE
  2
STYLE
  5
3
100
AcDbSymbolTable
 70
               1
  0
STYLE
  5
17
100
AcDbSymbolTableRecord
100
AcDbTextStyleTableRecord
  2
MX_NOTE_STANDARD
 70
               0
 40
0.0
 41
1.0
 50
0.0
 71
               0
 42
3.2000000476837158
  3
txt.shx
  4
extfont.shx
  0
ENDTAB
  0
TABLE
  2
VIEW
  5
5
100
AcDbSymbolTable
 70
               0
  0
ENDTAB
  0
TABLE
  2
UCS
  5
6
100
AcDbSymbolTable
 70
               0
  0
ENDTAB
  0
TABLE
  2
APPID
  5
8
100
AcDbSymbolTable
 70
               1
  0
APPID
  5
16
100
AcDbSymbolTableRecord
100
AcDbRegAppTableRecord
  2
ACAD
 70
               0
  0
ENDTAB
  0
TABLE
  2
DIMSTYLE
  5
9
100
AcDbSymbolTable
 70
               1
  0
DIMSTYLE
105
18
100
AcDbSymbolTableRecord
100
AcDbDimStyleTableRecord
  2
MXDIMSTYLE
 70
               0
  3

  4

  5

  6
_OPEN30
  7
_OPEN30
 40
1.0
 41
2.5
 42
1.5
 43
3.75
 44
1.5
 45
0.0
 46
0.0
 47
0.0
 48
0.0
 71
               0
 72
               0
 73
               0
 74
               0
 75
               0
 76
               0
 77
               1
 78
               8
140
3.2000000476837158
141
2.5
142
0.0
143
0.03937007874016
144
1.0
145
0.0
146
1.0
147
1.0
170
               0
171
               4
172
               1
173
               1
174
               0
175
               0
176
               0
177
               0
178
               0
270
               2
271
               2
272
               2
273
               2
274
               4
275
               0
280
               0
281
               0
282
               0
283
               0
284
               0
285
               0
286
               0
287
               3
288
               1
340
17
  0
ENDTAB
  0
TABLE
  2
BLOCK_RECORD
  5
1
100
AcDbSymbolTable
 70
               5
  0
BLOCK_RECORD
  5
A
100
AcDbSymbolTableRecord
100
AcDbBlockTableRecord
  2
*MODEL_SPACE
  0
BLOCK_RECORD
  5
B
100
AcDbSymbolTableRecord
100
AcDbBlockTableRecord
  2
*PAPER_SPACE
  0
BLOCK_RECORD
  5
1E
100
AcDbSymbolTableRecord
100
AcDbBlockTableRecord
  2
DTY-EPS-1
  0
BLOCK_RECORD
  5
1F
100
AcDbSymbolTableRecord
100
AcDbBlockTableRecord
  2
DTY-EPS-2
  0
BLOCK_RECORD
  5
20
100
AcDbSymbolTableRecord
100
AcDbBlockTableRecord
  2
DTY-EPS-3
  0
BLOCK_RECORD
  5
21
100
AcDbSymbolTableRecord
100
AcDbBlockTableRecord
  2
DTY-EPS-4
  0
BLOCK_RECORD
  5
22
100
AcDbSymbolTableRecord
100
AcDbBlockTableRecord
  2
_OPEN30
  0
ENDTAB
  0
ENDSEC
  0
SECTION
  2
BLOCKS
  0
BLOCK
  5
D
100
AcDbEntity
  8
0
100
AcDbBlockBegin
  2
*MODEL_SPACE
 70
               0
 10
0.0
 20
0.0
 30
0.0
  3
*MODEL_SPACE
  1

  0
ENDBLK
  5
E
100
AcDbEntity
  8
0
100
AcDbBlockEnd
  0
BLOCK
  5
F
100
AcDbEntity
 67
               1
  8
0
100
AcDbBlockBegin
  2
*PAPER_SPACE
 70
               0
 10
0.0
 20
0.0
 30
0.0
  3
*PAPER_SPACE
  1

  0
ENDBLK
  5
10
100
AcDbEntity
 67
               1
  8
0
100
AcDbBlockEnd
  0
BLOCK
  5
28
100
AcDbEntity
  8
0
100
AcDbBlockBegin
  2
DTY-EPS-1
 70
               0
 10
0.0
 20
0.0
 30
0.0
  3
DTY-EPS-1
  1

  0
ARC
  5
29
100
AcDbEntity
  8
0
  6
CONTINUOUS
 62
               7
100
AcDbCircle
 10
-67.197877060873651
 20
-50.954983933359422
 30
0.0
 40
10.0
100
AcDbArc
 50
345.98381588250339
 51
0.0
  0
ARC
  5
2A
100
AcDbEntity
  8
0
  6
CONTINUOUS
 62
               7
100
AcDbCircle
 10
-45.69787706087368
 20
-51.269445393364599
 30
0.0
 40
10.0
100
AcDbArc
 50
180.0
 51
190.45394183625214
  0
ARC
  5
2B
100
AcDbEntity
  8
0
  6
CONTINUOUS
 62
               7
100
AcDbCircle
 10
-67.69787706087368
 20
-50.447472039634697
 30
0.0
 40
10.0
100
AcDbArc
 50
340.29440639055446
 51
0.0
  0
ARC
  5
2C
100
AcDbEntity
  8
0
  6
CONTINUOUS
 62
               7
100
AcDbCircle
 10
-68.19787706087368
 20
-49.811457865627872
 30
0.0
 40
10.0
100
AcDbArc
 50
333.30337058718709
 51
0.0
  0
ARC
  5
2D
100
AcDbEntity
  8
0
  6
CONTINUOUS
 62
               7
100
AcDbCircle
 10
-45.197877060873665
 20
-51.269445393364677
 30
0.0
 40
10.0
100
AcDbArc
 50
180.0
 51
190.45394183625211
  0
ARC
  5
2E
100
AcDbEntity
  8
0
  6
CONTINUOUS
 62
               7
100
AcDbCircle
 10
-45.197877060873665
 20
-50.58050356343945
 30
0.0
 40
10.0
100
AcDbArc
 50
180.0
 51
198.22255815305132
  0
ARC
  5
2F
100
AcDbEntity
  8
0
  6
CONTINUOUS
 62
               7
100
AcDbCircle
 10
-66.69787706087368
 20
-51.482269143954952
 30
0.0
 40
10.0
100
AcDbArc
 50
351.96891576614564
 51
0.0
  0
ARC
  5
30
100
AcDbEntity
  8
0
  6
CONTINUOUS
 62
               7
100
AcDbCircle
 10
-67.19787706087368
 20
-51.482269143954895
 30
0.0
 40
10.0
100
AcDbArc
 50
351.96891576614564
 51
0.0
  0
ARC
  5
31
100
AcDbEntity
  8
0
  6
CONTINUOUS
 62
               7
100
AcDbCircle
 10
-67.69787706087368
 20
-50.954983933359543
 30
0.0
 40
10.0
100
AcDbArc
 50
345.98381588250339
 51
0.0
  0
ARC
  5
32
100
AcDbEntity
  8
0
  6
CONTINUOUS
 62
               7
100
AcDbCircle
 10
-68.19787706087368
 20
-50.44747203963469
 30
0.0
 40
10.0
100
AcDbArc
 50
340.29440639055446
 51
0.0
  0
ARC
  5
33
100
AcDbEntity
  8
0
  6
CONTINUOUS
 62
               7
100
AcDbCircle
 10
-69.997877060873634
 20
-47.246037604152562
 30
0.0
 40
10.0
100
AcDbArc
 50
314.99999999999994
 51
0.0
  0
ARC
  5
34
100
AcDbEntity
  8
0
  6
CONTINUOUS
 62
               7
100
AcDbCircle
 10
-69.997877060873662
 20
-47.246037604152562
 30
0.0
 40
11.800000000000001
100
AcDbArc
 50
315.0
 51
0.0
  0
ARC
  5
35
100
AcDbEntity
  8
0
  6
CONTINUOUS
 62
               7
100
AcDbCircle
 10
-59.997877060873691
 20
-68.075893263886044
 30
0.0
 40
11.800000000000001
100
AcDbArc
 50
134.99999999999997
 51
180.0
  0
ARC
  5
36
100
AcDbEntity
  8
0
  6
CONTINUOUS
 62
               7
100
AcDbCircle
 10
-59.997877060873662
 20
-68.075893263886044
 30
0.0
 40
10.0
100
AcDbArc
 50
135.00000000000003
 51
180.0
  0
ARC
  5
37
100
AcDbEntity
  8
0
  6
CONTINUOUS
 62
               7
100
AcDbCircle
 10
-73.147877060873668
 20
-66.687605403936345
 30
0.0
 40
18.0
100
AcDbArc
 50
0.0000000000000215
 51
4.3446292132529489
  0
ARC
  5
38
100
AcDbEntity
  8
0
  6
CONTINUOUS
 62
               7
100
AcDbCircle
 10
-40.647877060873682
 20
-67.268414735458407
 30
0.0
 40
18.0
100
AcDbArc
 50
171.96891576614564
 51
180.0
  0
ARC
  5
39
100
AcDbEntity
  8
0
  6
CONTINUOUS
 62
               7
100
AcDbCircle
 10
-73.147877060873668
 20
-66.706571513711978
 30
0.0
 40
18.5
100
AcDbArc
 50
0.0000000000000183
 51
4.3446292132529454
  0
ARC
  5
3A
100
AcDbEntity
  8
0
  6
CONTINUOUS
 62
               7
100
AcDbCircle
 10
-40.647877060873668
 20
-67.303514437776045
 30
0.0
 40
18.5
100
AcDbArc
 50
171.96891576614564
 51
180.0
  0
ARC
  5
3B
100
AcDbEntity
  8
0
  6
CONTINUOUS
 62
               7
100
AcDbCircle
 10
-71.147877060873668
 20
-67.697238376368176
 30
0.0
 40
18.5
100
AcDbArc
 50
0.0000000000000191
 51
10.453941836252165
  0
ARC
  5
3C
100
AcDbEntity
  8
0
  6
CONTINUOUS
 62
               7
100
AcDbCircle
 10
-42.647877060873668
 20
-68.278992077377666
 30
0.0
 40
18.5
100
AcDbArc
 50
165.98381588250336
 51
180.0
  0
ARC
  5
3D
100
AcDbEntity
  8
0
  6
CONTINUOUS
 62
               7
100
AcDbCircle
 10
-44.647877060873668
 20
-69.217889080768543
 30
0.0
 40
18.5
100
AcDbArc
 50
160.29440639055449
 51
180.0
  0
ARC
  5
3E
100
AcDbEntity
  8
0
  6
CONTINUOUS
 62
               7
100
AcDbCircle
 10
-71.147877060873668
 20
-67.651497486520938
 30
0.0
 40
18.0
100
AcDbArc
 50
0.0000000000000064
 51
10.453941836252152
  0
ARC
  5
3F
100
AcDbEntity
  8
0
  6
CONTINUOUS
 62
               7
100
AcDbCircle
 10
-42.647877060873668
 20
-68.217528114530182
 30
0.0
 40
18.0
100
AcDbArc
 50
165.98381588250339
 51
180.0
  0
ARC
  5
40
100
AcDbEntity
  8
0
  6
CONTINUOUS
 62
               7
100
AcDbCircle
 10
-44.647877060873668
 20
-69.131049523234793
 30
0.0
 40
18.0
100
AcDbArc
 50
160.29440639055446
 51
180.0
  0
ARC
  5
41
100
AcDbEntity
  8
0
  6
CONTINUOUS
 62
               7
100
AcDbCircle
 10
-71.147877060873668
 20
-69.212344705760188
 30
0.0
 40
20.0
100
AcDbArc
 50
360.0
 51
18.222558153051256
  0
ARC
  5
42
100
AcDbEntity
  8
0
  6
CONTINUOUS
 62
               7
100
AcDbCircle
 10
-71.147877060873668
 20
-69.292532687103645
 30
0.0
 40
20.5
100
AcDbArc
 50
360.0
 51
18.222558153051292
  0
ARC
  5
43
100
AcDbEntity
  8
0
  6
CONTINUOUS
 62
               7
100
AcDbCircle
 10
-44.647877060873668
 20
-70.869076367617453
 30
0.0
 40
20.5
100
AcDbArc
 50
153.30337058718712
 51
180.0
  0
ARC
  5
44
100
AcDbEntity
  8
0
  6
CONTINUOUS
 62
               7
100
AcDbCircle
 10
-44.647877060873668
 20
-70.750436101383372
 30
0.0
 40
20.0
100
AcDbArc
 50
153.30337058718712
 51
180.0
  0
LINE
  5
45
100
AcDbEntity
  8
0
  6
CONTINUOUS
 62
               7
100
AcDbLine
 10
-54.747877060873662
 20
-41.454101966249695
 30
0.0
 11
-54.747877060873662
 21
-45.100000000000001
 31
0.0
  0
ARC
  5
46
100
AcDbEntity
  8
0
  6
CONTINUOUS
 62
               7
100
AcDbCircle
 10
-56.247877060873662
 20
-41.454101966249695
 30
0.0
 40
1.5
100
AcDbArc
 50
0.0
 51
26.565051177077994
  0
LINE
  5
47
100
AcDbEntity
  8
0
  6
CONTINUOUS
 62
               7
100
AcDbLine
 10
-55.586710399728133
 20
-39.422333322291038
 30
0.0
 11
-54.906236274373782
 21
-40.783281572999755
 31
0.0
  0
ARC
  5
48
100
AcDbEntity
  8
0
  6
CONTINUOUS
 62
               7
100
AcDbCircle
 10
-55.139496804228145
 20
-39.198726524541051
 30
0.0
 40
0.5
100
AcDbArc
 50
135.0
 51
206.56505117707763
  0
LINE
  5
49
100
AcDbEntity
  8
0
  6
CONTINUOUS
 62
               7
100
AcDbLine
 10
-55.040770279687109
 20
-38.392893218813448
 30
0.0
 11
-55.493050194821421
 21
-38.845173133947775
 31
0.0
  0
ARC
  5
4A
100
AcDbEntity
  8
0
  6
CONTINUOUS
 62
               7
100
AcDbCircle
 10
-55.747877060873662
 20
-37.685786437626902
 30
0.0
 40
1.0
100
AcDbArc
 50
315.00000000000017
 51
0.0
  0
ARC
  5
4B
100
AcDbEntity
  8
0
  6
CONTINUOUS
 62
               7
100
AcDbCircle
 10
-58.747877060873662
 20
-41.454101966249695
 30
0.0
 40
1.5
100
AcDbArc
 50
153.434948822922
 51
180.0
  0
ARC
  5
4C
100
AcDbEntity
  8
0
  6
CONTINUOUS
 62
               7
100
AcDbCircle
 10
-59.247877060873662
 20
-37.685786437626902
 30
0.0
 40
1.0
100
AcDbArc
 50
180.00000000000003
 51
224.99999999999986
  0
LINE
  5
4D
100
AcDbEntity
  8
0
  6
CONTINUOUS
 62
               7
100
AcDbLine
 10
-60.247877060873662
 20
-41.454101966249695
 30
0.0
 11
-60.247877060873662
 21
-45.100000000000001
 31
0.0
  0
ARC
  5
4E
100
AcDbEntity
  8
0
  6
CONTINUOUS
 62
               7
100
AcDbCircle
 10
-59.85625731751918
 20
-39.198726524541051
 30
0.0
 40
0.5
100
AcDbArc
 50
333.43494882292237
 51
45.000000000000007
  0
LINE
  5
4F
100
AcDbEntity
  8
0
  6
CONTINUOUS
 62
               7
100
AcDbLine
 10
-59.409043722019192
 20
-39.422333322291038
 30
0.0
 11
-60.089517847373543
 21
-40.783281572999755
 31
0.0
  0
LINE
  5
50
100
AcDbEntity
  8
0
  6
CONTINUOUS
 62
               7
100
AcDbLine
 10
-59.954983842060216
 20
-38.392893218813448
 30
0.0
 11
-59.502703926925903
 21
-38.845173133947775
 31
0.0
  0
ARC
  5
51
100
AcDbEntity
  8
0
  6
CONTINUOUS
 62
               7
100
AcDbCircle
 10
-51.647877060873668
 20
-66.094342228665951
 30
0.0
 40
5.5
100
AcDbArc
 50
178.135097933482
 51
180.0
  0
ARC
  5
52
100
AcDbEntity
  8
0
  6
CONTINUOUS
 62
               7
100
AcDbCircle
 10
-51.647877060873668
 20
-66.086204339879998
 30
0.0
 40
5.0
100
AcDbArc
 50
178.135097933482
 51
180.0
  0
ARC
  5
53
100
AcDbEntity
  8
0
  6
CONTINUOUS
 62
               7
100
AcDbCircle
 10
-50.697877060873665
 20
-51.994602092554871
 30
0.0
 40
5.0
100
AcDbArc
 50
180.0
 51
184.34462921325292
  0
ARC
  5
54
100
AcDbEntity
  8
0
  6
CONTINUOUS
 62
               7
100
AcDbCircle
 10
-51.197877060873665
 20
-51.994602092554857
 30
0.0
 40
5.0
100
AcDbArc
 50
180.0
 51
184.34462921325292
  0
LINE
  5
55
100
AcDbEntity
  8
0
  6
CONTINUOUS
 62
               7
100
AcDbLine
 10
-54.560377060873662
 20
-55.639403755737092
 30
0.0
 11
-52.150896915752298
 21
-62.958166473101272
 31
0.0
  0
LINE
  5
56
100
AcDbEntity
  8
0
  6
CONTINUOUS
 62
               7
100
AcDbLine
 10
-54.696367133434364
 20
-53.707592679768922
 30
0.0
 11
-51.675972412124281
 21
-62.881999998628253
 31
0.0
  0
LINE
  5
57
100
AcDbEntity
  8
0
  6
CONTINUOUS
 62
               7
100
AcDbLine
 10
-55.031887889983068
 20
-53.083896002490889
 30
0.0
 11
-52.954957027021237
 21
-64.340504749484666
 31
0.0
  0
LINE
  5
58
100
AcDbEntity
  8
0
  6
CONTINUOUS
 62
               7
100
AcDbLine
 10
-55.531887889983096
 20
-53.083896002490818
 30
0.0
 11
-53.446657568476709
 21
-64.385486390093746
 31
0.0
  0
LINE
  5
59
100
AcDbEntity
  8
0
  6
CONTINUOUS
 62
               7
100
AcDbLine
 10
-55.683509201314962
 20
-52.373379283260505
 30
0.0
 11
-54.701038141240929
 21
-65.305095908101123
 31
0.0
  0
LINE
  5
5A
100
AcDbEntity
  8
0
  6
CONTINUOUS
 62
               7
100
AcDbLine
 10
-56.183509201314962
 20
-52.373379283260491
 30
0.0
 11
-55.19960135528504
 21
-65.324007517396055
 31
0.0
  0
LINE
  5
5B
100
AcDbEntity
  8
0
  6
CONTINUOUS
 62
               7
100
AcDbLine
 10
-56.19787706087368
 20
-52.184263190309267
 30
0.0
 11
-56.645228753057211
 21
-65.923489667430474
 31
0.0
  0
LINE
  5
5C
100
AcDbEntity
  8
0
  6
CONTINUOUS
 62
               7
100
AcDbLine
 10
-56.69787706087368
 20
-52.184263190309181
 30
0.0
 11
-57.144963922275565
 21
-65.915356088971478
 31
0.0
  0
LINE
  5
5D
100
AcDbEntity
  8
0
  6
CONTINUOUS
 62
               7
100
AcDbLine
 10
-57.295952875756313
 20
-52.879372372849723
 30
0.0
 11
-58.966436803340741
 21
-64.718873464320609
 31
0.0
  0
LINE
  5
5E
100
AcDbEntity
  8
0
  6
CONTINUOUS
 62
               7
100
AcDbLine
 10
-56.795952875756313
 20
-52.879372372849787
 30
0.0
 11
-58.471340594084893
 21
-64.753628923447707
 31
0.0
  0
LINE
  5
5F
100
AcDbEntity
  8
0
  6
CONTINUOUS
 62
               7
100
AcDbLine
 10
-57.995603532622795
 20
-53.376943549662514
 30
0.0
 11
-60.597083088137765
 21
-63.798366787217184
 31
0.0
  0
LINE
  5
60
100
AcDbEntity
  8
0
  6
CONTINUOUS
 62
               7
100
AcDbLine
 10
-57.495603532622795
 20
-53.376943549662386
 30
0.0
 11
-60.111969411725227
 21
-63.858000805184844
 31
0.0
  0
LINE
  5
61
100
AcDbEntity
  8
0
  6
CONTINUOUS
 62
               7
100
AcDbLine
 10
-58.783500753275831
 20
-53.819343736324917
 30
0.0
 11
-62.064473229929661
 21
-62.979926441891642
 31
0.0
  0
LINE
  5
62
100
AcDbEntity
  8
0
  6
CONTINUOUS
 62
               7
100
AcDbLine
 10
-58.283500753275831
 20
-53.819343736324917
 30
0.0
 11
-61.593754414549778
 21
-63.061680469192389
 31
0.0
  0
LINE
  5
63
100
AcDbEntity
  8
0
  6
CONTINUOUS
 62
               7
100
AcDbLine
 10
-59.435377060873662
 20
-55.639403755737092
 30
0.0
 11
-62.515833445873454
 21
-61.765107246870329
 31
0.0
  0
LINE
  5
64
100
AcDbEntity
  8
0
  6
CONTINUOUS
 62
               7
100
AcDbLine
 10
-59.263898868373758
 20
-54.304122292884401
 30
0.0
 11
-62.962532355498467
 21
-61.659114291741574
 31
0.0
  0
LINE
  5
65
100
AcDbEntity
  8
0
  6
CONTINUOUS
 62
               7
100
AcDbLine
 10
-51.147877060873668
 20
-69.212344705760188
 30
0.0
 11
-51.147877060873668
 21
-84.709498661875898
 31
0.0
  0
LINE
  5
66
100
AcDbEntity
  8
0
  6
CONTINUOUS
 62
               7
100
AcDbLine
 10
-50.647877060873668
 20
-69.292532687103645
 30
0.0
 11
-50.647877060873668
 21
-84.709498661875898
 31
0.0
  0
LINE
  5
67
100
AcDbEntity
  8
0
  6
CONTINUOUS
 62
               7
100
AcDbLine
 10
-51.047877060873674
 20
-88.709498661875898
 30
0.0
 11
-50.747877060873662
 21
-88.709498661875898
 31
0.0
  0
LINE
  5
68
100
AcDbEntity
  8
0
  6
CONTINUOUS
 62
               7
100
AcDbLine
 10
-51.147877060873668
 20
-84.709498661875898
 30
0.0
 11
-50.647877060873668
 21
-84.709498661875898
 31
0.0
  0
LINE
  5
69
100
AcDbEntity
  8
0
  6
CONTINUOUS
 62
               7
100
AcDbLine
 10
-51.047877060873674
 20
-84.709498661875898
 30
0.0
 11
-51.047877060873674
 21
-88.709498661875898
 31
0.0
  0
LINE
  5
6A
100
AcDbEntity
  8
0
  6
CONTINUOUS
 62
               7
100
AcDbLine
 10
-50.747877060873662
 20
-84.709498661875898
 30
0.0
 11
-50.747877060873662
 21
-88.709498661875898
 31
0.0
  0
LINE
  5
6B
100
AcDbEntity
  8
0
  6
CONTINUOUS
 62
               7
100
AcDbLine
 10
-53.147877060873668
 20
-67.651497486520938
 30
0.0
 11
-53.147877060873668
 21
-84.709498661875898
 31
0.0
  0
LINE
  5
6C
100
AcDbEntity
  8
0
  6
CONTINUOUS
 62
               7
100
AcDbLine
 10
-52.647877060873668
 20
-67.697238376368176
 30
0.0
 11
-52.647877060873668
 21
-84.709498661875898
 31
0.0
  0
LINE
  5
6D
100
AcDbEntity
  8
0
  6
CONTINUOUS
 62
               7
100
AcDbLine
 10
-53.047877060873674
 20
-88.709498661875898
 30
0.0
 11
-52.747877060873662
 21
-88.709498661875898
 31
0.0
  0
LINE
  5
6E
100
AcDbEntity
  8
0
  6
CONTINUOUS
 62
               7
100
AcDbLine
 10
-53.147877060873668
 20
-84.709498661875898
 30
0.0
 11
-52.647877060873668
 21
-84.709498661875898
 31
0.0
  0
LINE
  5
6F
100
AcDbEntity
  8
0
  6
CONTINUOUS
 62
               7
100
AcDbLine
 10
-53.047877060873674
 20
-84.709498661875898
 30
0.0
 11
-53.047877060873674
 21
-88.709498661875898
 31
0.0
  0
LINE
  5
70
100
AcDbEntity
  8
0
  6
CONTINUOUS
 62
               7
100
AcDbLine
 10
-52.747877060873662
 20
-84.709498661875898
 30
0.0
 11
-52.747877060873662
 21
-88.709498661875898
 31
0.0
  0
LINE
  5
71
100
AcDbEntity
  8
0
  6
CONTINUOUS
 62
               7
100
AcDbLine
 10
-55.147877060873668
 20
-66.687605403936345
 30
0.0
 11
-55.147877060873668
 21
-84.709498661875898
 31
0.0
  0
LINE
  5
72
100
AcDbEntity
  8
0
  6
CONTINUOUS
 62
               7
100
AcDbLine
 10
-54.647877060873668
 20
-66.706571513711978
 30
0.0
 11
-54.647877060873668
 21
-84.709498661875898
 31
0.0
  0
LINE
  5
73
100
AcDbEntity
  8
0
  6
CONTINUOUS
 62
               7
100
AcDbLine
 10
-55.047877060873674
 20
-88.709498661875898
 30
0.0
 11
-54.747877060873662
 21
-88.709498661875898
 31
0.0
  0
LINE
  5
74
100
AcDbEntity
  8
0
  6
CONTINUOUS
 62
               7
100
AcDbLine
 10
-55.147877060873668
 20
-84.709498661875898
 30
0.0
 11
-54.647877060873668
 21
-84.709498661875898
 31
0.0
  0
LINE
  5
75
100
AcDbEntity
  8
0
  6
CONTINUOUS
 62
               7
100
AcDbLine
 10
-55.047877060873674
 20
-84.709498661875898
 30
0.0
 11
-55.047877060873674
 21
-88.709498661875898
 31
0.0
  0
LINE
  5
76
100
AcDbEntity
  8
0
  6
CONTINUOUS
 62
               7
100
AcDbLine
 10
-54.747877060873662
 20
-84.709498661875898
 30
0.0
 11
-54.747877060873662
 21
-88.709498661875898
 31
0.0
  0
LINE
  5
77
100
AcDbEntity
  8
0
  6
CONTINUOUS
 62
               7
100
AcDbLine
 10
-57.147877060873668
 20
-66.094342228665951
 30
0.0
 11
-57.147877060873668
 21
-84.709498661875898
 31
0.0
  0
LINE
  5
78
100
AcDbEntity
  8
0
  6
CONTINUOUS
 62
               7
100
AcDbLine
 10
-56.647877060873668
 20
-66.086204339879998
 30
0.0
 11
-56.647877060873668
 21
-84.709498661875898
 31
0.0
  0
LINE
  5
79
100
AcDbEntity
  8
0
  6
CONTINUOUS
 62
               7
100
AcDbLine
 10
-57.047877060873674
 20
-88.709498661875898
 30
0.0
 11
-56.747877060873662
 21
-88.709498661875898
 31
0.0
  0
LINE
  5
7A
100
AcDbEntity
  8
0
  6
CONTINUOUS
 62
               7
100
AcDbLine
 10
-57.147877060873668
 20
-84.709498661875898
 30
0.0
 11
-56.647877060873668
 21
-84.709498661875898
 31
0.0
  0
LINE
  5
7B
100
AcDbEntity
  8
0
  6
CONTINUOUS
 62
               7
100
AcDbLine
 10
-57.047877060873674
 20
-84.709498661875898
 30
0.0
 11
-57.047877060873674
 21
-88.709498661875898
 31
0.0
  0
LINE
  5
7C
100
AcDbEntity
  8
0
  6
CONTINUOUS
 62
               7
100
AcDbLine
 10
-56.747877060873662
 20
-84.709498661875898
 30
0.0
 11
-56.747877060873662
 21
-88.709498661875898
 31
0.0
  0
LINE
  5
7D
100
AcDbEntity
  8
0
  6
CONTINUOUS
 62
               7
100
AcDbLine
 10
-59.147877060873668
 20
-67.303514437776045
 30
0.0
 11
-59.147877060873668
 21
-84.709498661875898
 31
0.0
  0
LINE
  5
7E
100
AcDbEntity
  8
0
  6
CONTINUOUS
 62
               7
100
AcDbLine
 10
-58.647877060873668
 20
-67.268414735458407
 30
0.0
 11
-58.647877060873668
 21
-84.709498661875898
 31
0.0
  0
LINE
  5
7F
100
AcDbEntity
  8
0
  6
CONTINUOUS
 62
               7
100
AcDbLine
 10
-59.047877060873674
 20
-88.709498661875898
 30
0.0
 11
-58.747877060873662
 21
-88.709498661875898
 31
0.0
  0
LINE
  5
80
100
AcDbEntity
  8
0
  6
CONTINUOUS
 62
               7
100
AcDbLine
 10
-59.147877060873668
 20
-84.709498661875898
 30
0.0
 11
-58.647877060873668
 21
-84.709498661875898
 31
0.0
  0
LINE
  5
81
100
AcDbEntity
  8
0
  6
CONTINUOUS
 62
               7
100
AcDbLine
 10
-59.047877060873674
 20
-84.709498661875898
 30
0.0
 11
-59.047877060873674
 21
-88.709498661875898
 31
0.0
  0
LINE
  5
82
100
AcDbEntity
  8
0
  6
CONTINUOUS
 62
               7
100
AcDbLine
 10
-58.747877060873662
 20
-84.709498661875898
 30
0.0
 11
-58.747877060873662
 21
-88.709498661875898
 31
0.0
  0
LINE
  5
83
100
AcDbEntity
  8
0
  6
CONTINUOUS
 62
               7
100
AcDbLine
 10
-61.147877060873668
 20
-68.278992077377666
 30
0.0
 11
-61.147877060873668
 21
-84.709498661875898
 31
0.0
  0
LINE
  5
84
100
AcDbEntity
  8
0
  6
CONTINUOUS
 62
               7
100
AcDbLine
 10
-60.647877060873668
 20
-68.217528114530182
 30
0.0
 11
-60.647877060873668
 21
-84.709498661875898
 31
0.0
  0
LINE
  5
85
100
AcDbEntity
  8
0
  6
CONTINUOUS
 62
               7
100
AcDbLine
 10
-61.047877060873674
 20
-88.709498661875898
 30
0.0
 11
-60.747877060873662
 21
-88.709498661875898
 31
0.0
  0
LINE
  5
86
100
AcDbEntity
  8
0
  6
CONTINUOUS
 62
               7
100
AcDbLine
 10
-61.147877060873668
 20
-84.709498661875898
 30
0.0
 11
-60.647877060873668
 21
-84.709498661875898
 31
0.0
  0
LINE
  5
87
100
AcDbEntity
  8
0
  6
CONTINUOUS
 62
               7
100
AcDbLine
 10
-61.047877060873674
 20
-84.709498661875898
 30
0.0
 11
-61.047877060873674
 21
-88.709498661875898
 31
0.0
  0
LINE
  5
88
100
AcDbEntity
  8
0
  6
CONTINUOUS
 62
               7
100
AcDbLine
 10
-60.747877060873662
 20
-84.709498661875898
 30
0.0
 11
-60.747877060873662
 21
-88.709498661875898
 31
0.0
  0
LINE
  5
89
100
AcDbEntity
  8
0
  6
CONTINUOUS
 62
               7
100
AcDbLine
 10
-63.147877060873668
 20
-69.217889080768543
 30
0.0
 11
-63.147877060873668
 21
-84.709498661875898
 31
0.0
  0
LINE
  5
8A
100
AcDbEntity
  8
0
  6
CONTINUOUS
 62
               7
100
AcDbLine
 10
-62.647877060873668
 20
-69.131049523234793
 30
0.0
 11
-62.647877060873668
 21
-84.709498661875898
 31
0.0
  0
LINE
  5
8B
100
AcDbEntity
  8
0
  6
CONTINUOUS
 62
               7
100
AcDbLine
 10
-63.047877060873674
 20
-88.709498661875898
 30
0.0
 11
-62.747877060873662
 21
-88.709498661875898
 31
0.0
  0
LINE
  5
8C
100
AcDbEntity
  8
0
  6
CONTINUOUS
 62
               7
100
AcDbLine
 10
-63.147877060873668
 20
-84.709498661875898
 30
0.0
 11
-62.647877060873668
 21
-84.709498661875898
 31
0.0
  0
LINE
  5
8D
100
AcDbEntity
  8
0
  6
CONTINUOUS
 62
               7
100
AcDbLine
 10
-63.047877060873674
 20
-84.709498661875898
 30
0.0
 11
-63.047877060873674
 21
-88.709498661875898
 31
0.0
  0
LINE
  5
8E
100
AcDbEntity
  8
0
  6
CONTINUOUS
 62
               7
100
AcDbLine
 10
-62.747877060873662
 20
-84.709498661875898
 30
0.0
 11
-62.747877060873662
 21
-88.709498661875898
 31
0.0
  0
LINE
  5
8F
100
AcDbEntity
  8
0
  6
CONTINUOUS
 62
               7
100
AcDbLine
 10
-64.747877060873662
 20
-84.709498661875898
 30
0.0
 11
-64.747877060873662
 21
-88.709498661875898
 31
0.0
  0
LINE
  5
90
100
AcDbEntity
  8
0
  6
CONTINUOUS
 62
               7
100
AcDbLine
 10
-65.047877060873674
 20
-84.709498661875898
 30
0.0
 11
-65.047877060873674
 21
-88.709498661875898
 31
0.0
  0
LINE
  5
91
100
AcDbEntity
  8
0
  6
CONTINUOUS
 62
               7
100
AcDbLine
 10
-65.147877060873668
 20
-84.709498661875898
 30
0.0
 11
-64.647877060873668
 21
-84.709498661875898
 31
0.0
  0
LINE
  5
92
100
AcDbEntity
  8
0
  6
CONTINUOUS
 62
               7
100
AcDbLine
 10
-65.047877060873674
 20
-88.709498661875898
 30
0.0
 11
-64.747877060873662
 21
-88.709498661875898
 31
0.0
  0
LINE
  5
93
100
AcDbEntity
  8
0
  6
CONTINUOUS
 62
               7
100
AcDbLine
 10
-64.647877060873668
 20
-70.750436101383372
 30
0.0
 11
-64.647877060873668
 21
-84.709498661875898
 31
0.0
  0
LINE
  5
94
100
AcDbEntity
  8
0
  6
CONTINUOUS
 62
               7
100
AcDbLine
 10
-65.147877060873668
 20
-70.869076367617453
 30
0.0
 11
-65.147877060873668
 21
-84.709498661875898
 31
0.0
  0
LINE
  5
95
100
AcDbEntity
  8
0
  6
CONTINUOUS
 62
               7
100
AcDbLine
 10
-69.097877060873657
 20
-88.709498661875898
 30
0.0
 11
-67.762478935885184
 21
-93.60405807491577
 31
0.0
  0
LINE
  5
96
100
AcDbEntity
  8
0
  6
CONTINUOUS
 62
               7
100
AcDbLine
 10
-72.697877060873651
 20
-88.709498661875898
 30
0.0
 11
-74.033275185862152
 21
-93.60405807491577
 31
0.0
  0
CIRCLE
  5
97
100
AcDbEntity
  8
0
  6
CONTINUOUS
 62
               7
100
AcDbCircle
 10
-70.897877060873668
 20
-94.459498661875898
 30
0.0
 40
1.8
  0
ARC
  5
98
100
AcDbEntity
  8
0
  6
CONTINUOUS
 62
               7
100
AcDbCircle
 10
-70.897877060873668
 20
-94.459498661875898
 30
0.0
 40
3.25
100
AcDbArc
 50
164.73923442332244
 51
15.260765576677528
  0
LINE
  5
99
100
AcDbEntity
  8
0
  6
CONTINUOUS
 62
               7
100
AcDbLine
 10
-73.647877060873668
 20
-77.709498661875898
 30
0.0
 11
-73.647877060873668
 21
-88.709498661875898
 31
0.0
  0
LINE
  5
9A
100
AcDbEntity
  8
0
  6
CONTINUOUS
 62
               7
100
AcDbLine
 10
-68.147877060873668
 20
-77.709498661875898
 30
0.0
 11
-68.147877060873668
 21
-88.709498661875898
 31
0.0
  0
LINE
  5
9B
100
AcDbEntity
  8
0
  6
CONTINUOUS
 62
               7
100
AcDbLine
 10
-73.647877060873668
 20
-88.709498661875898
 30
0.0
 11
-68.147877060873668
 21
-88.709498661875898
 31
0.0
  0
LINE
  5
9C
100
AcDbEntity
  8
0
  6
CONTINUOUS
 62
               7
100
AcDbLine
 10
-73.647877060873668
 20
-77.709498661875898
 30
0.0
 11
-68.147877060873668
 21
-77.709498661875898
 31
0.0
  0
LINE
  5
9D
100
AcDbEntity
  8
0
  6
CONTINUOUS
 62
               7
100
AcDbLine
 10
-69.997877060873662
 20
-68.075893263886044
 30
0.0
 11
-69.997877060873662
 21
-77.709498661875898
 31
0.0
  0
LINE
  5
9E
100
AcDbEntity
  8
0
  6
CONTINUOUS
 62
               7
100
AcDbLine
 10
-71.797877060873674
 20
-68.075893263886044
 30
0.0
 11
-71.797877060873674
 21
-77.709498661875898
 31
0.0
  0
LINE
  5
9F
100
AcDbEntity
  8
0
  6
CONTINUOUS
 62
               7
100
AcDbLine
 10
-62.926809249008187
 20
-54.317105416018038
 30
0.0
 11
-68.341737078874928
 21
-59.732033245884779
 31
0.0
  0
LINE
  5
A0
100
AcDbEntity
  8
0
  6
CONTINUOUS
 62
               7
100
AcDbLine
 10
-61.654017042872397
 20
-55.589897622153828
 30
0.0
 11
-67.068944872739138
 21
-61.004825452020576
 31
0.0
  0
LINE
  5
A1
100
AcDbEntity
  8
0
  6
CONTINUOUS
 62
               7
100
AcDbLine
 10
-55.19787706087368
 20
-45.100000000000001
 30
0.0
 11
-55.19787706087368
 21
-51.269445393364677
 31
0.0
  0
LINE
  5
A2
100
AcDbEntity
  8
0
  6
CONTINUOUS
 62
               7
100
AcDbLine
 10
-55.69787706087368
 20
-45.100000000000001
 30
0.0
 11
-55.69787706087368
 21
-52.184263190309288
 31
0.0
  0
LINE
  5
A3
100
AcDbEntity
  8
0
  6
CONTINUOUS
 62
               7
100
AcDbLine
 10
-56.19787706087368
 20
-45.100000000000001
 30
0.0
 11
-56.19787706087368
 21
-51.994602092554857
 31
0.0
  0
LINE
  5
A4
100
AcDbEntity
  8
0
  6
CONTINUOUS
 62
               7
100
AcDbLine
 10
-56.69787706087368
 20
-45.100000000000001
 30
0.0
 11
-56.69787706087368
 21
-52.184263190309181
 31
0.0
  0
LINE
  5
A5
100
AcDbEntity
  8
0
  6
CONTINUOUS
 62
               7
100
AcDbLine
 10
-57.19787706087368
 20
-45.100000000000001
 30
0.0
 11
-57.19787706087368
 21
-51.482269143954895
 31
0.0
  0
LINE
  5
A6
100
AcDbEntity
  8
0
  6
CONTINUOUS
 62
               7
100
AcDbLine
 10
-57.69787706087368
 20
-45.100000000000001
 30
0.0
 11
-57.69787706087368
 21
-50.954983933359543
 31
0.0
  0
LINE
  5
A7
100
AcDbEntity
  8
0
  6
CONTINUOUS
 62
               7
100
AcDbLine
 10
-58.19787706087368
 20
-45.100000000000001
 30
0.0
 11
-58.19787706087368
 21
-50.44747203963469
 31
0.0
  0
LINE
  5
A8
100
AcDbEntity
  8
0
  6
CONTINUOUS
 62
               7
100
AcDbLine
 10
-59.997877060873662
 20
-45.100000000000001
 30
0.0
 11
-59.997877060873662
 21
-47.246037604152562
 31
0.0
  0
LINE
  5
A9
100
AcDbEntity
  8
0
  6
CONTINUOUS
 62
               7
100
AcDbLine
 10
-60.247877060873662
 20
-45.100000000000001
 30
0.0
 11
-54.747877060873662
 21
-45.100000000000001
 31
0.0
  0
LINE
  5
AA
100
AcDbEntity
  8
0
  6
CONTINUOUS
 62
               7
100
AcDbLine
 10
-54.747877060873662
 20
-23.100000000000001
 30
0.0
 11
-54.747877060873662
 21
-37.685786437626902
 31
0.0
  0
LINE
  5
AB
100
AcDbEntity
  8
0
  6
CONTINUOUS
 62
               7
100
AcDbLine
 10
-60.247877060873662
 20
-23.100000000000001
 30
0.0
 11
-60.247877060873662
 21
-37.685786437626902
 31
0.0
  0
LINE
  5
AC
100
AcDbEntity
  8
0
  6
CONTINUOUS
 62
               7
100
AcDbLine
 10
-60.247877060873662
 20
-23.100000000000001
 30
0.0
 11
-54.747877060873662
 21
-23.100000000000001
 31
0.0
  0
LINE
  5
AD
100
AcDbEntity
  8
0
  6
CONTINUOUS
 62
               7
100
AcDbLine
 10
-54.997877060873662
 20
-22.100000000000001
 30
0.0
 11
-54.997877060873662
 21
-23.100000000000001
 31
0.0
  0
LINE
  5
AE
100
AcDbEntity
  8
0
  6
CONTINUOUS
 62
               7
100
AcDbLine
 10
-59.997877060873662
 20
-22.100000000000001
 30
0.0
 11
-59.997877060873662
 21
-23.100000000000001
 31
0.0
  0
ARC
  5
AF
100
AcDbEntity
  8
0
  6
CONTINUOUS
 62
               7
100
AcDbCircle
 10
-44.997877060873662
 20
-22.100000000000001
 30
0.0
 40
15.0
100
AcDbArc
 50
90.802972238423237
 51
180.0
  0
ARC
  5
B0
100
AcDbEntity
  8
0
  6
CONTINUOUS
 62
               7
100
AcDbCircle
 10
-44.997877060873662
 20
-22.100000000000001
 30
0.0
 40
10.0
100
AcDbArc
 50
91.204507650998991
 51
180.0
  0
LINE
  5
B1
100
AcDbEntity
  8
0
  6
CONTINUOUS
 62
               7
100
AcDbLine
 10
-44.997877060873662
 20
-12.100000000000001
 30
0.0
 11
-34.994969096305724
 21
-12.100000000000001
 31
0.0
  0
LINE
  5
B2
100
AcDbEntity
  8
0
  6
CONTINUOUS
 62
               7
100
AcDbLine
 10
-44.997877060873662
 20
-7.1000000000000014
 30
0.0
 11
-32.782648841896602
 21
-7.1000000000000014
 31
0.0
  0
LINE
  5
B3
100
AcDbEntity
  8
0
  6
CONTINUOUS
 62
               7
100
AcDbLine
 10
-30.782648841896602
 20
-7.1000000000000014
 30
0.0
 11
-12.600000000000009
 21
-7.1000000000000014
 31
0.0
  0
LINE
  5
B4
100
AcDbEntity
  8
0
  6
CONTINUOUS
 62
               7
100
AcDbLine
 10
-32.994969096305724
 20
-12.100000000000001
 30
0.0
 11
-12.600000000000009
 21
-12.100000000000001
 31
0.0
  0
LINE
  5
B5
100
AcDbEntity
  8
0
  6
CONTINUOUS
 62
               7
100
AcDbLine
 10
-11.100000000000009
 20
-12.100000000000001
 30
0.0
 11
-10.600000000000009
 21
-12.100000000000001
 31
0.0
  0
LINE
  5
B6
100
AcDbEntity
  8
0
  6
CONTINUOUS
 62
               7
100
AcDbLine
 10
-11.100000000000009
 20
-7.1000000000000014
 30
0.0
 11
-10.600000000000009
 21
-7.1000000000000014
 31
0.0
  0
LINE
  5
B7
100
AcDbEntity
  8
0
  6
CONTINUOUS
 62
               7
100
AcDbLine
 10
-12.600000000000009
 20
-18.100000000000001
 30
0.0
 11
-10.600000000000009
 21
-18.100000000000001
 31
0.0
  0
LINE
  5
B8
100
AcDbEntity
  8
0
  6
CONTINUOUS
 62
               7
100
AcDbLine
 10
-12.600000000000009
 20
-28.100000000000001
 30
0.0
 11
-10.600000000000009
 21
-28.100000000000001
 31
0.0
  0
LINE
  5
B9
100
AcDbEntity
  8
0
  6
CONTINUOUS
 62
               7
100
AcDbLine
 10
-12.600000000000009
 20
-4.6000000000000014
 30
0.0
 11
-11.100000000000009
 21
-4.6000000000000014
 31
0.0
  0
LINE
  5
BA
100
AcDbEntity
  8
0
  6
CONTINUOUS
 62
               7
100
AcDbLine
 10
-11.100000000000009
 20
-4.6000000000000014
 30
0.0
 11
-11.100000000000009
 21
-18.100000000000001
 31
0.0
  0
LINE
  5
BB
100
AcDbEntity
  8
0
  6
CONTINUOUS
 62
               7
100
AcDbLine
 10
-12.600000000000009
 20
-4.6000000000000014
 30
0.0
 11
-12.600000000000009
 21
-28.100000000000001
 31
0.0
  0
ARC
  5
BC
100
AcDbEntity
  8
0
  6
CONTINUOUS
 62
               7
100
AcDbCircle
 10
41.999999999999993
 20
-12.0
 30
0.0
 40
3.0
100
AcDbArc
 50
270.0
 51
0.0
  0
ARC
  5
BD
100
AcDbEntity
  8
0
  6
CONTINUOUS
 62
               7
100
AcDbCircle
 10
-2.0
 20
-12.0
 30
0.0
 40
3.0
100
AcDbArc
 50
180.0
 51
270.0
  0
LINE
  5
BE
100
AcDbEntity
  8
0
  6
CONTINUOUS
 62
               7
100
AcDbLine
 10
44.999999999999993
 20
0.0
 30
0.0
 11
44.999999999999993
 21
-12.0
 31
0.0
  0
LINE
  5
BF
100
AcDbEntity
  8
0
  6
CONTINUOUS
 62
               7
100
AcDbLine
 10
-5.0
 20
0.0
 30
0.0
 11
-5.0
 21
-12.0
 31
0.0
  0
LINE
  5
C0
100
AcDbEntity
  8
0
  6
CONTINUOUS
 62
               7
100
AcDbLine
 10
-2.0
 20
-15.0
 30
0.0
 11
41.999999999999993
 21
-15.0
 31
0.0
  0
LINE
  5
C1
100
AcDbEntity
  8
0
  6
CONTINUOUS
 62
               7
100
AcDbLine
 10
-5.0
 20
0.0
 30
0.0
 11
44.999999999999993
 21
0.0
 31
0.0
  0
LINE
  5
C2
100
AcDbEntity
  8
0
  6
CONTINUOUS
 62
               7
100
AcDbLine
 10
51.399999999999991
 20
-11.200000000000003
 30
0.0
 11
51.399999999999991
 21
-14.200000000000003
 31
0.0
  0
LINE
  5
C3
100
AcDbEntity
  8
0
  6
CONTINUOUS
 62
               7
100
AcDbLine
 10
50.599999999999994
 20
-14.200000000000003
 30
0.0
 11
51.399999999999991
 21
-14.200000000000003
 31
0.0
  0
LINE
  5
C4
100
AcDbEntity
  8
0
  6
CONTINUOUS
 62
               7
100
AcDbLine
 10
50.599999999999994
 20
-11.200000000000003
 30
0.0
 11
51.399999999999991
 21
-11.200000000000003
 31
0.0
  0
LINE
  5
C5
100
AcDbEntity
  8
0
  6
CONTINUOUS
 62
               7
100
AcDbLine
 10
50.599999999999994
 20
-10.200000000000003
 30
0.0
 11
51.399999999999991
 21
-10.200000000000003
 31
0.0
  0
LINE
  5
C6
100
AcDbEntity
  8
0
  6
CONTINUOUS
 62
               7
100
AcDbLine
 10
50.599999999999994
 20
-7.2000000000000028
 30
0.0
 11
51.399999999999991
 21
-7.2000000000000028
 31
0.0
  0
LINE
  5
C7
100
AcDbEntity
  8
0
  6
CONTINUOUS
 62
               7
100
AcDbLine
 10
51.399999999999991
 20
-7.2000000000000028
 30
0.0
 11
51.399999999999991
 21
-10.200000000000003
 31
0.0
  0
LINE
  5
C8
100
AcDbEntity
  8
0
  6
CONTINUOUS
 62
               2
100
AcDbLine
 10
27.999999999999993
 20
-5.0999999999999943
 30
0.0
 11
33.999999999999993
 21
-5.0999999999999943
 31
0.0
  0
CIRCLE
  5
C9
100
AcDbEntity
  8
0
  6
CONTINUOUS
 62
               7
100
AcDbCircle
 10
30.999999999999993
 20
-5.0999999999999943
 30
0.0
 40
1.6000000000000001
  0
CIRCLE
  5
CA
100
AcDbEntity
  8
0
  6
CONTINUOUS
 62
               7
100
AcDbCircle
 10
9.0
 20
-5.0999999999999943
 30
0.0
 40
1.6000000000000001
  0
LINE
  5
CB
100
AcDbEntity
  8
0
  6
CONTINUOUS
 62
               2
100
AcDbLine
 10
6.0
 20
-5.0999999999999943
 30
0.0
 11
12.0
 21
-5.0999999999999943
 31
0.0
  0
LINE
  5
CC
100
AcDbEntity
  8
0
  6
CONTINUOUS
 62
               2
100
AcDbLine
 10
30.999999999999993
 20
-2.0999999999999943
 30
0.0
 11
30.999999999999993
 21
-8.0999999999999943
 31
0.0
  0
LINE
  5
CD
100
AcDbEntity
  8
0
  6
CONTINUOUS
 62
               2
100
AcDbLine
 10
9.0
 20
-2.0999999999999943
 30
0.0
 11
9.0
 21
-8.0999999999999943
 31
0.0
  0
ARC
  5
CE
100
AcDbEntity
  8
0
  6
CONTINUOUS
 62
               7
100
AcDbCircle
 10
-7.6000000000000085
 20
-32.200000000000003
 30
0.0
 40
3.0
100
AcDbArc
 50
180.0
 51
270.0
  0
ARC
  5
CF
100
AcDbEntity
  8
0
  6
CONTINUOUS
 62
               7
100
AcDbCircle
 10
47.599999999999994
 20
-32.200000000000003
 30
0.0
 40
3.0
100
AcDbArc
 50
270.0
 51
0.0
  0
ARC
  5
D0
100
AcDbEntity
  8
0
  6
CONTINUOUS
 62
               7
100
AcDbCircle
 10
45.599999999999994
 20
-6.0
 30
0.0
 40
5.0
100
AcDbArc
 50
0.0
 51
90.0
  0
ARC
  5
D1
100
AcDbEntity
  8
0
  6
CONTINUOUS
 62
               7
100
AcDbCircle
 10
-5.6000000000000085
 20
-6.0
 30
0.0
 40
5.0
100
AcDbArc
 50
90.0
 51
180.0
  0
LINE
  5
D2
100
AcDbEntity
  8
0
  6
CONTINUOUS
 62
               7
100
AcDbLine
 10
50.599999999999994
 20
-6.0
 30
0.0
 11
50.599999999999994
 21
-32.200000000000003
 31
0.0
  0
LINE
  5
D3
100
AcDbEntity
  8
0
  6
CONTINUOUS
 62
               7
100
AcDbLine
 10
-7.6000000000000085
 20
-35.200000000000003
 30
0.0
 11
47.599999999999994
 21
-35.200000000000003
 31
0.0
  0
LINE
  5
D4
100
AcDbEntity
  8
0
  6
CONTINUOUS
 62
               7
100
AcDbLine
 10
-5.6000000000000085
 20
-1.0
 30
0.0
 11
-5.0
 21
-1.0
 31
0.0
  0
LINE
  5
D5
100
AcDbEntity
  8
0
  6
CONTINUOUS
 62
               7
100
AcDbLine
 10
-10.600000000000009
 20
-6.0
 30
0.0
 11
-10.600000000000009
 21
-32.200000000000003
 31
0.0
  0
LINE
  5
D6
100
AcDbEntity
  8
0
  6
CONTINUOUS
 62
               2
100
AcDbLine
 10
-32.782648841896602
 20
-7.1000000000000014
 30
0.0
 11
-34.994969096305724
 21
-12.100000000000001
 31
0.0
  0
LINE
  5
D7
100
AcDbEntity
  8
0
  6
CONTINUOUS
 62
               2
100
AcDbLine
 10
-30.782648841896602
 20
-7.1000000000000014
 30
0.0
 11
-32.994969096305724
 21
-12.100000000000001
 31
0.0
  0
LINE
  5
D8
100
AcDbEntity
  8
0
  6
CONTINUOUS
 62
               7
100
AcDbLine
 10
44.999999999999993
 20
-1.0
 30
0.0
 11
45.599999999999994
 21
-1.0
 31
0.0
  0
LINE
  5
D9
100
AcDbEntity
  8
0
  6
CONTINUOUS
 62
               2
100
AcDbLine
 10
39.999999999999993
 20
3.5
 30
0.0
 11
39.999999999999993
 21
-3.5
 31
0.0
  0
LINE
  5
DA
100
AcDbEntity
  8
0
  6
CONTINUOUS
 62
               2
100
AcDbLine
 10
0.0
 20
3.5
 30
0.0
 11
0.0
 21
-3.5
 31
0.0
  0
ENDBLK
  5
DB
100
AcDbEntity
  8
0
100
AcDbBlockEnd
  0
BLOCK
  5
DC
100
AcDbEntity
  8
0
100
AcDbBlockBegin
  2
DTY-EPS-2
 70
               0
 10
0.0
 20
0.0
 30
0.0
  3
DTY-EPS-2
  1

  0
LINE
  5
DD
100
AcDbEntity
  8
0
  6
CONTINUOUS
 62
               7
100
AcDbLine
 10
-20.999999999999993
 20
-7.0999999999999872
 30
0.0
 11
-20.999999999999993
 21
-3.0999999999999943
 31
0.0
  0
LINE
  5
DE
100
AcDbEntity
  8
0
  6
CONTINUOUS
 62
               7
100
AcDbLine
 10
-21.499999999999993
 20
-6.2999999999999972
 30
0.0
 11
-21.499999999999993
 21
-3.8999999999999915
 31
0.0
  0
LINE
  5
DF
100
AcDbEntity
  8
0
  6
CONTINUOUS
 62
               7
100
AcDbLine
 10
-21.199999999999992
 20
-3.5999999999999943
 30
0.0
 11
-20.999999999999993
 21
-3.5999999999999943
 31
0.0
  0
LINE
  5
E0
100
AcDbEntity
  8
0
  6
CONTINUOUS
 62
               7
100
AcDbLine
 10
-21.199999999999992
 20
-6.5999999999999872
 30
0.0
 11
-20.999999999999993
 21
-6.5999999999999872
 31
0.0
  0
LINE
  5
E1
100
AcDbEntity
  8
0
  6
CONTINUOUS
 62
               7
100
AcDbLine
 10
-21.499999999999993
 20
-6.2999999999999972
 30
0.0
 11
-21.199999999999992
 21
-6.5999999999999872
 31
0.0
  0
LINE
  5
E2
100
AcDbEntity
  8
0
  6
CONTINUOUS
 62
               7
100
AcDbLine
 10
-21.499999999999993
 20
-3.8999999999999915
 30
0.0
 11
-21.199999999999992
 21
-3.5999999999999943
 31
0.0
  0
ARC
  5
E3
100
AcDbEntity
  8
0
  6
CONTINUOUS
 62
               7
100
AcDbCircle
 10
-20.799999999999994
 20
-2.2999999999999972
 30
0.0
 40
0.8
100
AcDbArc
 50
270.0
 51
0.0
  0
LINE
  5
E4
100
AcDbEntity
  8
0
  6
CONTINUOUS
 62
               7
100
AcDbLine
 10
-20.999999999999993
 20
-3.0999999999999943
 30
0.0
 11
-20.799999999999994
 21
-3.0999999999999943
 31
0.0
  0
ARC
  5
E5
100
AcDbEntity
  8
0
  6
CONTINUOUS
 62
               7
100
AcDbCircle
 10
-20.799999999999994
 20
-7.8999999999999844
 30
0.0
 40
0.8
100
AcDbArc
 50
0.0
 51
90.0
  0
LINE
  5
E6
100
AcDbEntity
  8
0
  6
CONTINUOUS
 62
               7
100
AcDbLine
 10
-20.999999999999993
 20
-7.0999999999999872
 30
0.0
 11
-20.799999999999994
 21
-7.0999999999999872
 31
0.0
  0
LINE
  5
E7
100
AcDbEntity
  8
0
  6
CONTINUOUS
 62
               7
100
AcDbLine
 10
-3.8999999999999915
 20
-8.0999999999999872
 30
0.0
 11
-3.3999999999999915
 21
-8.0999999999999872
 31
0.0
  0
LINE
  5
E8
100
AcDbEntity
  8
0
  6
CONTINUOUS
 62
               7
100
AcDbLine
 10
-3.3999999999999915
 20
-7.8499999999999872
 30
0.0
 11
-2.9633014137977511
 21
-7.8499999999999872
 31
0.0
  0
LINE
  5
E9
100
AcDbEntity
  8
0
  6
CONTINUOUS
 62
               7
100
AcDbLine
 10
-3.8999999999999915
 20
-2.0999999999999943
 30
0.0
 11
-3.3999999999999915
 21
-2.0999999999999943
 31
0.0
  0
LINE
  5
EA
100
AcDbEntity
  8
0
  6
CONTINUOUS
 62
               7
100
AcDbLine
 10
-3.3999999999999915
 20
-2.3499999999999943
 30
0.0
 11
-2.9633014137977511
 21
-2.3499999999999943
 31
0.0
  0
ARC
  5
EB
100
AcDbEntity
  8
0
  6
CONTINUOUS
 62
               7
100
AcDbCircle
 10
-5.3999999999999915
 20
-5.0999999999999943
 30
0.0
 40
4.0
100
AcDbArc
 50
324.31466528734785
 51
35.685334712652072
  0
ARC
  5
EC
100
AcDbEntity
  8
0
  6
CONTINUOUS
 62
               7
100
AcDbCircle
 10
-2.9633014137977511
 20
-3.3499999999999943
 30
0.0
 40
1.0
100
AcDbArc
 50
35.685334712652121
 51
90.0
  0
ARC
  5
ED
100
AcDbEntity
  8
0
  6
CONTINUOUS
 62
               7
100
AcDbCircle
 10
-2.9633014137977511
 20
-6.8499999999999872
 30
0.0
 40
1.0
100
AcDbArc
 50
270.0
 51
324.31466528734785
  0
LINE
  5
EE
100
AcDbEntity
  8
0
  6
CONTINUOUS
 62
               7
100
AcDbLine
 10
-3.3999999999999915
 20
-8.0999999999999872
 30
0.0
 11
-3.3999999999999915
 21
-2.0999999999999943
 31
0.0
  0
LINE
  5
EF
100
AcDbEntity
  8
0
  6
CONTINUOUS
 62
               7
100
AcDbLine
 10
-4.9999999999999929
 20
-1.0
 30
0.0
 11
4.0000000000000071
 21
-1.0
 31
0.0
  0
ARC
  5
F0
100
AcDbEntity
  8
0
  6
CONTINUOUS
 62
               7
100
AcDbCircle
 10
-18.999999999999993
 20
-1.0
 30
0.0
 40
1.0
100
AcDbArc
 50
90.0
 51
180.0
  0
LINE
  5
F1
100
AcDbEntity
  8
0
  6
CONTINUOUS
 62
               7
100
AcDbLine
 10
4.0000000000000071
 20
0.0
 30
0.0
 11
4.0000000000000071
 21
-1.0
 31
0.0
  0
LINE
  5
F2
100
AcDbEntity
  8
0
  6
CONTINUOUS
 62
               7
100
AcDbLine
 10
-19.999999999999993
 20
-15.0
 30
0.0
 11
-18.999999999999993
 21
-15.0
 31
0.0
  0
LINE
  5
F3
100
AcDbEntity
  8
0
  6
CONTINUOUS
 62
               7
100
AcDbLine
 10
-18.999999999999993
 20
0.0
 30
0.0
 11
4.0000000000000071
 21
0.0
 31
0.0
  0
LINE
  5
F4
100
AcDbEntity
  8
0
  6
CONTINUOUS
 62
               7
100
AcDbLine
 10
-19.999999999999993
 20
-1.0
 30
0.0
 11
-19.999999999999993
 21
-15.0
 31
0.0
  0
LINE
  5
F5
100
AcDbEntity
  8
0
  6
CONTINUOUS
 62
               7
100
AcDbLine
 10
-3.8999999999999915
 20
-1.7999999999999972
 30
0.0
 11
-3.8999999999999915
 21
-8.3999999999999915
 31
0.0
  0
LINE
  5
F6
100
AcDbEntity
  8
0
  6
CONTINUOUS
 62
               7
100
AcDbLine
 10
-3.8999999999999915
 20
-1.7999999999999972
 30
0.0
 11
-4.0202041028867228
 21
-1.7999999999999972
 31
0.0
  0
LINE
  5
F7
100
AcDbEntity
  8
0
  6
CONTINUOUS
 62
               7
100
AcDbLine
 10
-3.8999999999999915
 20
-8.3999999999999915
 30
0.0
 11
-3.9999999999999929
 21
-8.3999999999999915
 31
0.0
  0
LINE
  5
F8
100
AcDbEntity
  8
0
  6
CONTINUOUS
 62
               2
100
AcDbLine
 10
-0.5873011394881544
 20
-5.0999999999999943
 30
0.0
 11
-22.289334854368494
 21
-5.0999999999999943
 31
0.0
  0
CIRCLE
  5
F9
100
AcDbEntity
  8
0
  6
CONTINUOUS
 62
               7
100
AcDbCircle
 10
-11.499999999999993
 20
-12.700000000000003
 30
0.0
 40
1.5
  0
CIRCLE
  5
FA
100
AcDbEntity
  8
0
  6
CONTINUOUS
 62
               7
100
AcDbCircle
 10
-11.499999999999993
 20
-8.7000000000000028
 30
0.0
 40
1.5
  0
LINE
  5
FB
100
AcDbEntity
  8
0
  6
CONTINUOUS
 62
               7
100
AcDbLine
 10
-13.199999999999996
 20
-18.600000000000001
 30
0.0
 11
-11.499999999999993
 21
-18.600000000000001
 31
0.0
  0
LINE
  5
FC
100
AcDbEntity
  8
0
  6
CONTINUOUS
 62
               7
100
AcDbLine
 10
-13.199999999999996
 20
-21.200000000000003
 30
0.0
 11
-11.499999999999993
 21
-21.200000000000003
 31
0.0
  0
LINE
  5
FD
100
AcDbEntity
  8
0
  6
CONTINUOUS
 62
               7
100
AcDbLine
 10
-13.199999999999996
 20
-18.600000000000001
 30
0.0
 11
-13.199999999999996
 21
-21.200000000000003
 31
0.0
  0
LINE
  5
FE
100
AcDbEntity
  8
0
  6
CONTINUOUS
 62
               7
100
AcDbLine
 10
-11.499999999999993
 20
-14.300000000000004
 30
0.0
 11
-11.499999999999993
 21
-35.200000000000003
 31
0.0
  0
LINE
  5
FF
100
AcDbEntity
  8
0
  6
CONTINUOUS
 62
               7
100
AcDbLine
 10
-10.999999999999993
 20
-14.21986841535707
 30
0.0
 11
-10.999999999999993
 21
-35.200000000000003
 31
0.0
  0
LINE
  5
100
100
AcDbEntity
  8
0
  6
CONTINUOUS
 62
               7
100
AcDbLine
 10
-11.499999999999993
 20
-10.300000000000004
 30
0.0
 11
-11.499999999999993
 21
-11.100000000000001
 31
0.0
  0
LINE
  5
101
100
AcDbEntity
  8
0
  6
CONTINUOUS
 62
               7
100
AcDbLine
 10
-10.999999999999993
 20
-10.21986841535707
 30
0.0
 11
-10.999999999999993
 21
-11.180131584642936
 31
0.0
  0
CIRCLE
  5
102
100
AcDbEntity
  8
0
  6
CONTINUOUS
 62
               7
100
AcDbCircle
 10
-11.499999999999993
 20
-12.700000000000003
 30
0.0
 40
1.6000000000000001
  0
CIRCLE
  5
103
100
AcDbEntity
  8
0
  6
CONTINUOUS
 62
               7
100
AcDbCircle
 10
-11.499999999999993
 20
-8.7000000000000028
 30
0.0
 40
1.6000000000000001
  0
LINE
  5
104
100
AcDbEntity
  8
0
  6
CONTINUOUS
 62
               7
100
AcDbLine
 10
-10.999999999999993
 20
-35.200000000000003
 30
0.0
 11
-4.9999999999999929
 21
-35.200000000000003
 31
0.0
  0
LINE
  5
105
100
AcDbEntity
  8
0
  6
CONTINUOUS
 62
               7
100
AcDbLine
 10
-10.999999999999993
 20
-1.0
 30
0.0
 11
-4.9999999999999929
 21
-1.0
 31
0.0
  0
LINE
  5
106
100
AcDbEntity
  8
0
  6
CONTINUOUS
 62
               7
100
AcDbLine
 10
-11.499999999999993
 20
-34.700000000000003
 30
0.0
 11
-10.999999999999993
 21
-34.700000000000003
 31
0.0
  0
LINE
  5
107
100
AcDbEntity
  8
0
  6
CONTINUOUS
 62
               7
100
AcDbLine
 10
-11.499999999999993
 20
-1.5
 30
0.0
 11
-10.999999999999993
 21
-1.5
 31
0.0
  0
LINE
  5
108
100
AcDbEntity
  8
0
  6
CONTINUOUS
 62
               7
100
AcDbLine
 10
-11.499999999999993
 20
-1.0
 30
0.0
 11
-11.499999999999993
 21
-7.1000000000000014
 31
0.0
  0
LINE
  5
109
100
AcDbEntity
  8
0
  6
CONTINUOUS
 62
               7
100
AcDbLine
 10
-10.999999999999993
 20
-1.0
 30
0.0
 11
-10.999999999999993
 21
-7.1801315846429361
 31
0.0
  0
ARC
  5
10A
100
AcDbEntity
  8
0
  6
CONTINUOUS
 62
               7
100
AcDbCircle
 10
-4.9999999999999929
 20
-34.200000000000003
 30
0.0
 40
1.0
100
AcDbArc
 50
270.0
 51
0.0
  0
ARC
  5
10B
100
AcDbEntity
  8
0
  6
CONTINUOUS
 62
               7
100
AcDbCircle
 10
-17.999999999999993
 20
-34.200000000000003
 30
0.0
 40
1.0
100
AcDbArc
 50
180.0
 51
270.0
  0
ARC
  5
10C
100
AcDbEntity
  8
0
  6
CONTINUOUS
 62
               7
100
AcDbCircle
 10
-4.9999999999999929
 20
-2.0
 30
0.0
 40
1.0
100
AcDbArc
 50
0.0
 51
90.0
  0
ARC
  5
10D
100
AcDbEntity
  8
0
  6
CONTINUOUS
 62
               7
100
AcDbCircle
 10
-17.999999999999993
 20
-2.0
 30
0.0
 40
1.0
100
AcDbArc
 50
90.0
 51
180.0
  0
LINE
  5
10E
100
AcDbEntity
  8
0
  6
CONTINUOUS
 62
               7
100
AcDbLine
 10
-17.999999999999993
 20
-35.200000000000003
 30
0.0
 11
-11.499999999999993
 21
-35.200000000000003
 31
0.0
  0
LINE
  5
10F
100
AcDbEntity
  8
0
  6
CONTINUOUS
 62
               7
100
AcDbLine
 10
-17.999999999999993
 20
-1.0
 30
0.0
 11
-11.499999999999993
 21
-1.0
 31
0.0
  0
LINE
  5
110
100
AcDbEntity
  8
0
  6
CONTINUOUS
 62
               7
100
AcDbLine
 10
-3.9999999999999929
 20
-2.0
 30
0.0
 11
-3.9999999999999929
 21
-34.200000000000003
 31
0.0
  0
LINE
  5
111
100
AcDbEntity
  8
0
  6
CONTINUOUS
 62
               7
100
AcDbLine
 10
-18.999999999999993
 20
-2.0
 30
0.0
 11
-18.999999999999993
 21
-34.200000000000003
 31
0.0
  0
LINE
  5
112
100
AcDbEntity
  8
0
  6
CONTINUOUS
 62
               2
100
AcDbLine
 10
0.0
 20
3.5
 30
0.0
 11
0.0
 21
-3.5
 31
0.0
  0
ENDBLK
  5
113
100
AcDbEntity
  8
0
100
AcDbBlockEnd
  0
BLOCK
  5
114
100
AcDbEntity
  8
0
100
AcDbBlockBegin
  2
DTY-EPS-3
 70
               0
 10
0.0
 20
0.0
 30
0.0
  3
DTY-EPS-3
  1

  0
LINE
  5
115
100
AcDbEntity
  8
0
  6
CONTINUOUS
 62
               7
100
AcDbLine
 10
-12.600000000000009
 20
6.5
 30
0.0
 11
-10.600000000000009
 21
6.5
 31
0.0
  0
LINE
  5
116
100
AcDbEntity
  8
0
  6
CONTINUOUS
 62
               7
100
AcDbLine
 10
-12.600000000000009
 20
16.5
 30
0.0
 11
-10.600000000000009
 21
16.5
 31
0.0
  0
LINE
  5
117
100
AcDbEntity
  8
0
  6
CONTINUOUS
 62
               7
100
AcDbLine
 10
-12.600000000000009
 20
16.5
 30
0.0
 11
-12.600000000000009
 21
6.5
 31
0.0
  0
LINE
  5
118
100
AcDbEntity
  8
0
  6
CONTINUOUS
 62
               7
100
AcDbLine
 10
35.999999999999993
 20
12.0
 30
0.0
 11
39.999999999999986
 21
12.0
 31
0.0
  0
LINE
  5
119
100
AcDbEntity
  8
0
  6
CONTINUOUS
 62
               7
100
AcDbLine
 10
35.999999999999993
 20
11.0
 30
0.0
 11
39.999999999999986
 21
11.0
 31
0.0
  0
LINE
  5
11A
100
AcDbEntity
  8
0
  6
CONTINUOUS
 62
               7
100
AcDbLine
 10
35.999999999999993
 20
10.5
 30
0.0
 11
39.999999999999986
 21
10.5
 31
0.0
  0
LINE
  5
11B
100
AcDbEntity
  8
0
  6
CONTINUOUS
 62
               7
100
AcDbLine
 10
35.999999999999993
 20
12.5
 30
0.0
 11
39.999999999999986
 21
12.5
 31
0.0
  0
LINE
  5
11C
100
AcDbEntity
  8
0
  6
CONTINUOUS
 62
               7
100
AcDbLine
 10
35.999999999999993
 20
12.5
 30
0.0
 11
35.999999999999993
 21
10.5
 31
0.0
  0
LINE
  5
11D
100
AcDbEntity
  8
0
  6
CONTINUOUS
 62
               7
100
AcDbLine
 10
39.999999999999986
 20
12.5
 30
0.0
 11
39.999999999999986
 21
10.5
 31
0.0
  0
LINE
  5
11E
100
AcDbEntity
  8
0
  6
CONTINUOUS
 62
               7
100
AcDbLine
 10
7.7999999999999829
 20
21.5
 30
0.0
 11
10.199999999999996
 21
21.5
 31
0.0
  0
LINE
  5
11F
100
AcDbEntity
  8
0
  6
CONTINUOUS
 62
               7
100
AcDbLine
 10
10.499999999999993
 20
21.200000000000003
 30
0.0
 11
10.499999999999993
 21
21.0
 31
0.0
  0
LINE
  5
120
100
AcDbEntity
  8
0
  6
CONTINUOUS
 62
               7
100
AcDbLine
 10
7.5
 20
21.200000000000003
 30
0.0
 11
7.5
 21
21.0
 31
0.0
  0
LINE
  5
121
100
AcDbEntity
  8
0
  6
CONTINUOUS
 62
               7
100
AcDbLine
 10
7.7999999999999829
 20
21.5
 30
0.0
 11
7.5
 21
21.200000000000003
 31
0.0
  0
LINE
  5
122
100
AcDbEntity
  8
0
  6
CONTINUOUS
 62
               7
100
AcDbLine
 10
10.199999999999996
 20
21.5
 30
0.0
 11
10.499999999999993
 21
21.200000000000003
 31
0.0
  0
LINE
  5
123
100
AcDbEntity
  8
0
  6
CONTINUOUS
 62
               7
100
AcDbLine
 10
32.199999999999996
 20
21.5
 30
0.0
 11
32.499999999999993
 21
21.200000000000003
 31
0.0
  0
LINE
  5
124
100
AcDbEntity
  8
0
  6
CONTINUOUS
 62
               7
100
AcDbLine
 10
29.79999999999999
 20
21.5
 30
0.0
 11
29.499999999999993
 21
21.200000000000003
 31
0.0
  0
LINE
  5
125
100
AcDbEntity
  8
0
  6
CONTINUOUS
 62
               7
100
AcDbLine
 10
29.499999999999993
 20
21.200000000000003
 30
0.0
 11
29.499999999999993
 21
21.0
 31
0.0
  0
LINE
  5
126
100
AcDbEntity
  8
0
  6
CONTINUOUS
 62
               7
100
AcDbLine
 10
32.499999999999993
 20
21.200000000000003
 30
0.0
 11
32.499999999999993
 21
21.0
 31
0.0
  0
LINE
  5
127
100
AcDbEntity
  8
0
  6
CONTINUOUS
 62
               7
100
AcDbLine
 10
29.79999999999999
 20
21.5
 30
0.0
 11
32.199999999999996
 21
21.5
 31
0.0
  0
LINE
  5
128
100
AcDbEntity
  8
0
  6
CONTINUOUS
 62
               7
100
AcDbLine
 10
6.0
 20
3.8999999999999915
 30
0.0
 11
6.0
 21
3.3999999999999915
 31
0.0
  0
LINE
  5
129
100
AcDbEntity
  8
0
  6
CONTINUOUS
 62
               7
100
AcDbLine
 10
6.25
 20
3.3999999999999915
 30
0.0
 11
6.25
 21
2.9633014137977653
 31
0.0
  0
LINE
  5
12A
100
AcDbEntity
  8
0
  6
CONTINUOUS
 62
               7
100
AcDbLine
 10
11.999999999999993
 20
3.8999999999999915
 30
0.0
 11
11.999999999999993
 21
3.3999999999999915
 31
0.0
  0
LINE
  5
12B
100
AcDbEntity
  8
0
  6
CONTINUOUS
 62
               7
100
AcDbLine
 10
11.749999999999993
 20
3.3999999999999915
 30
0.0
 11
11.749999999999993
 21
2.9633014137977653
 31
0.0
  0
ARC
  5
12C
100
AcDbEntity
  8
0
  6
CONTINUOUS
 62
               7
100
AcDbCircle
 10
9.0
 20
5.3999999999999915
 30
0.0
 40
4.0
100
AcDbArc
 50
234.31466528734788
 51
305.68533471265209
  0
ARC
  5
12D
100
AcDbEntity
  8
0
  6
CONTINUOUS
 62
               7
100
AcDbCircle
 10
10.749999999999993
 20
2.9633014137977653
 30
0.0
 40
1.0
100
AcDbArc
 50
305.68533471265209
 51
0.0
  0
ARC
  5
12E
100
AcDbEntity
  8
0
  6
CONTINUOUS
 62
               7
100
AcDbCircle
 10
7.25
 20
2.9633014137977653
 30
0.0
 40
1.0
100
AcDbArc
 50
180.0
 51
234.31466528734782
  0
LINE
  5
12F
100
AcDbEntity
  8
0
  6
CONTINUOUS
 62
               7
100
AcDbLine
 10
6.0
 20
3.3999999999999915
 30
0.0
 11
11.999999999999993
 21
3.3999999999999915
 31
0.0
  0
ARC
  5
130
100
AcDbEntity
  8
0
  6
CONTINUOUS
 62
               7
100
AcDbCircle
 10
32.749999999999993
 20
3.0633014137977597
 30
0.0
 40
1.0
100
AcDbArc
 50
305.68533471265209
 51
0.0
  0
ARC
  5
131
100
AcDbEntity
  8
0
  6
CONTINUOUS
 62
               7
100
AcDbCircle
 10
29.249999999999993
 20
3.0633014137977597
 30
0.0
 40
1.0
100
AcDbArc
 50
180.0
 51
234.31466528734782
  0
ARC
  5
132
100
AcDbEntity
  8
0
  6
CONTINUOUS
 62
               7
100
AcDbCircle
 10
30.999999999999993
 20
5.5
 30
0.0
 40
4.0
100
AcDbArc
 50
234.31466528734788
 51
305.68533471265209
  0
LINE
  5
133
100
AcDbEntity
  8
0
  6
CONTINUOUS
 62
               7
100
AcDbLine
 10
28.249999999999993
 20
3.5
 30
0.0
 11
28.249999999999993
 21
3.0633014137977597
 31
0.0
  0
LINE
  5
134
100
AcDbEntity
  8
0
  6
CONTINUOUS
 62
               7
100
AcDbLine
 10
33.749999999999993
 20
3.5
 30
0.0
 11
33.749999999999993
 21
3.0633014137977597
 31
0.0
  0
LINE
  5
135
100
AcDbEntity
  8
0
  6
CONTINUOUS
 62
               7
100
AcDbLine
 10
27.999999999999993
 20
4.0
 30
0.0
 11
27.999999999999993
 21
3.5
 31
0.0
  0
LINE
  5
136
100
AcDbEntity
  8
0
  6
CONTINUOUS
 62
               7
100
AcDbLine
 10
33.999999999999993
 20
4.0
 30
0.0
 11
33.999999999999993
 21
3.5
 31
0.0
  0
LINE
  5
137
100
AcDbEntity
  8
0
  6
CONTINUOUS
 62
               7
100
AcDbLine
 10
27.999999999999993
 20
3.5
 30
0.0
 11
33.999999999999993
 21
3.5
 31
0.0
  0
ARC
  5
138
100
AcDbEntity
  8
0
  6
CONTINUOUS
 62
               7
100
AcDbCircle
 10
33.79999999999999
 20
20.799999999999997
 30
0.0
 40
0.8
100
AcDbArc
 50
180.0
 51
270.0
  0
ARC
  5
139
100
AcDbEntity
  8
0
  6
CONTINUOUS
 62
               7
100
AcDbCircle
 10
28.199999999999996
 20
20.799999999999997
 30
0.0
 40
0.8
100
AcDbArc
 50
270.0
 51
0.0
  0
ARC
  5
13A
100
AcDbEntity
  8
0
  6
CONTINUOUS
 62
               7
100
AcDbCircle
 10
11.79999999999999
 20
20.799999999999997
 30
0.0
 40
0.8
100
AcDbArc
 50
180.0
 51
270.0
  0
ARC
  5
13B
100
AcDbEntity
  8
0
  6
CONTINUOUS
 62
               7
100
AcDbCircle
 10
6.2000000000000028
 20
20.799999999999997
 30
0.0
 40
0.8
100
AcDbArc
 50
270.0
 51
0.0
  0
LINE
  5
13C
100
AcDbEntity
  8
0
  6
CONTINUOUS
 62
               7
100
AcDbLine
 10
-5.0
 20
20.0
 30
0.0
 11
44.999999999999993
 21
20.0
 31
0.0
  0
LINE
  5
13D
100
AcDbEntity
  8
0
  6
CONTINUOUS
 62
               7
100
AcDbLine
 10
28.999999999999993
 20
21.0
 30
0.0
 11
32.999999999999993
 21
21.0
 31
0.0
  0
LINE
  5
13E
100
AcDbEntity
  8
0
  6
CONTINUOUS
 62
               7
100
AcDbLine
 10
7.0
 20
21.0
 30
0.0
 11
7.0
 21
20.799999999999997
 31
0.0
  0
LINE
  5
13F
100
AcDbEntity
  8
0
  6
CONTINUOUS
 62
               7
100
AcDbLine
 10
10.999999999999993
 20
21.0
 30
0.0
 11
10.999999999999993
 21
20.799999999999997
 31
0.0
  0
LINE
  5
140
100
AcDbEntity
  8
0
  6
CONTINUOUS
 62
               7
100
AcDbLine
 10
28.999999999999993
 20
21.0
 30
0.0
 11
28.999999999999993
 21
20.799999999999997
 31
0.0
  0
LINE
  5
141
100
AcDbEntity
  8
0
  6
CONTINUOUS
 62
               7
100
AcDbLine
 10
32.999999999999993
 20
21.0
 30
0.0
 11
32.999999999999993
 21
20.799999999999997
 31
0.0
  0
LINE
  5
142
100
AcDbEntity
  8
0
  6
CONTINUOUS
 62
               7
100
AcDbLine
 10
7.0
 20
21.0
 30
0.0
 11
10.999999999999993
 21
21.0
 31
0.0
  0
LINE
  5
143
100
AcDbEntity
  8
0
  6
CONTINUOUS
 62
               2
100
AcDbLine
 10
30.999999999999993
 20
22.473634166610609
 30
0.0
 11
30.999999999999993
 21
0.5780521939876877
 31
0.0
  0
CIRCLE
  5
144
100
AcDbEntity
  8
0
  6
CONTINUOUS
 62
               7
100
AcDbCircle
 10
0.0
 20
0.0
 30
0.0
 40
1.75
  0
CIRCLE
  5
145
100
AcDbEntity
  8
0
  6
CONTINUOUS
 62
               7
100
AcDbCircle
 10
39.999999999999993
 20
0.0
 30
0.0
 40
1.75
  0
LINE
  5
146
100
AcDbEntity
  8
0
  6
CONTINUOUS
 62
               2
100
AcDbLine
 10
36.999999999999993
 20
0.0
 30
0.0
 11
42.999999999999993
 21
0.0
 31
0.0
  0
LINE
  5
147
100
AcDbEntity
  8
0
  6
CONTINUOUS
 62
               2
100
AcDbLine
 10
0.0
 20
3.0
 30
0.0
 11
0.0
 21
-3.0
 31
0.0
  0
LINE
  5
148
100
AcDbEntity
  8
0
  6
CONTINUOUS
 62
               2
100
AcDbLine
 10
39.999999999999993
 20
3.0
 30
0.0
 11
39.999999999999993
 21
-3.0
 31
0.0
  0
LINE
  5
149
100
AcDbEntity
  8
0
  6
CONTINUOUS
 62
               2
100
AcDbLine
 10
-3.0
 20
0.0
 30
0.0
 11
3.0
 21
0.0
 31
0.0
  0
LINE
  5
14A
100
AcDbEntity
  8
0
  6
CONTINUOUS
 62
               7
100
AcDbLine
 10
44.999999999999993
 20
4.0
 30
0.0
 11
44.999999999999993
 21
-1.0
 31
0.0
  0
LINE
  5
14B
100
AcDbEntity
  8
0
  6
CONTINUOUS
 62
               7
100
AcDbLine
 10
-5.0
 20
4.0
 30
0.0
 11
-5.0
 21
-1.0
 31
0.0
  0
LINE
  5
14C
100
AcDbEntity
  8
0
  6
CONTINUOUS
 62
               7
100
AcDbLine
 10
44.999999999999993
 20
20.0
 30
0.0
 11
44.999999999999993
 21
19.0
 31
0.0
  0
LINE
  5
14D
100
AcDbEntity
  8
0
  6
CONTINUOUS
 62
               7
100
AcDbLine
 10
-5.0
 20
20.0
 30
0.0
 11
-5.0
 21
19.0
 31
0.0
  0
ARC
  5
14E
100
AcDbEntity
  8
0
  6
CONTINUOUS
 62
               7
100
AcDbCircle
 10
41.999999999999993
 20
-1.0
 30
0.0
 40
3.0
100
AcDbArc
 50
270.0
 51
0.0
  0
ARC
  5
14F
100
AcDbEntity
  8
0
  6
CONTINUOUS
 62
               7
100
AcDbCircle
 10
-2.0
 20
-1.0
 30
0.0
 40
3.0
100
AcDbArc
 50
180.0
 51
270.0
  0
LINE
  5
150
100
AcDbEntity
  8
0
  6
CONTINUOUS
 62
               7
100
AcDbLine
 10
-2.0
 20
-4.0
 30
0.0
 11
41.999999999999993
 21
-4.0
 31
0.0
  0
LINE
  5
151
100
AcDbEntity
  8
0
  6
CONTINUOUS
 62
               7
100
AcDbLine
 10
4.5
 20
3.8999999999999915
 30
0.0
 11
13.499999999999993
 21
3.8999999999999915
 31
0.0
  0
LINE
  5
152
100
AcDbEntity
  8
0
  6
CONTINUOUS
 62
               7
100
AcDbLine
 10
4.5
 20
4.0
 30
0.0
 11
4.5
 21
3.8999999999999915
 31
0.0
  0
LINE
  5
153
100
AcDbEntity
  8
0
  6
CONTINUOUS
 62
               7
100
AcDbLine
 10
13.499999999999993
 20
4.0
 30
0.0
 11
13.499999999999993
 21
3.8999999999999915
 31
0.0
  0
LINE
  5
154
100
AcDbEntity
  8
0
  6
CONTINUOUS
 62
               2
100
AcDbLine
 10
9.0
 20
22.183856018847862
 30
0.0
 11
9.0
 21
0.6823174548520257
 31
0.0
  0
LINE
  5
155
100
AcDbEntity
  8
0
  6
CONTINUOUS
 62
               7
100
AcDbLine
 10
50.599999999999994
 20
10.0
 30
0.0
 11
51.399999999999991
 21
10.0
 31
0.0
  0
LINE
  5
156
100
AcDbEntity
  8
0
  6
CONTINUOUS
 62
               7
100
AcDbLine
 10
50.599999999999994
 20
13.0
 30
0.0
 11
51.399999999999991
 21
13.0
 31
0.0
  0
LINE
  5
157
100
AcDbEntity
  8
0
  6
CONTINUOUS
 62
               7
100
AcDbLine
 10
51.399999999999991
 20
13.0
 30
0.0
 11
51.399999999999991
 21
10.0
 31
0.0
  0
LINE
  5
158
100
AcDbEntity
  8
0
  6
CONTINUOUS
 62
               7
100
AcDbLine
 10
-22.895928417164797
 20
9.0
 30
0.0
 11
-12.600000000000009
 21
9.0
 31
0.0
  0
LINE
  5
159
100
AcDbEntity
  8
0
  6
CONTINUOUS
 62
               7
100
AcDbLine
 10
-20.782648841896602
 20
14.0
 30
0.0
 11
-12.600000000000009
 21
14.0
 31
0.0
  0
LINE
  5
15A
100
AcDbEntity
  8
0
  6
CONTINUOUS
 62
               7
100
AcDbLine
 10
34.999999999999993
 20
9.5
 30
0.0
 11
40.999999999999986
 21
9.5
 31
0.0
  0
LINE
  5
15B
100
AcDbEntity
  8
0
  6
CONTINUOUS
 62
               7
100
AcDbLine
 10
34.999999999999993
 20
13.5
 30
0.0
 11
40.999999999999986
 21
13.5
 31
0.0
  0
LINE
  5
15C
100
AcDbEntity
  8
0
  6
CONTINUOUS
 62
               2
100
AcDbLine
 10
34.299348233566853
 20
11.5
 30
0.0
 11
42.249999999999986
 21
11.5
 31
0.0
  0
LINE
  5
15D
100
AcDbEntity
  8
0
  6
CONTINUOUS
 62
               7
100
AcDbLine
 10
34.999999999999993
 20
13.5
 30
0.0
 11
34.999999999999993
 21
9.5
 31
0.0
  0
LINE
  5
15E
100
AcDbEntity
  8
0
  6
CONTINUOUS
 62
               7
100
AcDbLine
 10
40.999999999999986
 20
13.5
 30
0.0
 11
40.999999999999986
 21
9.5
 31
0.0
  0
LINE
  5
15F
100
AcDbEntity
  8
0
  6
CONTINUOUS
 62
               2
100
AcDbLine
 10
37.999999999999993
 20
14.600000000000001
 30
0.0
 11
37.999999999999993
 21
8.3999999999999915
 31
0.0
  0
LINE
  5
160
100
AcDbEntity
  8
0
  6
CONTINUOUS
 62
               7
100
AcDbLine
 10
44.29999999999999
 20
11.0
 30
0.0
 11
50.599999999999994
 21
11.0
 31
0.0
  0
LINE
  5
161
100
AcDbEntity
  8
0
  6
CONTINUOUS
 62
               7
100
AcDbLine
 10
44.29999999999999
 20
11.5
 30
0.0
 11
50.599999999999994
 21
11.5
 31
0.0
  0
ARC
  5
162
100
AcDbEntity
  8
0
  6
CONTINUOUS
 62
               7
100
AcDbCircle
 10
5.7999999999999829
 20
14.600000000000001
 30
0.0
 40
2.0
100
AcDbArc
 50
90.0
 51
180.0
  0
ARC
  5
163
100
AcDbEntity
  8
0
  6
CONTINUOUS
 62
               7
100
AcDbCircle
 10
5.7999999999999829
 20
8.3999999999999915
 30
0.0
 40
2.0
100
AcDbArc
 50
180.0
 51
270.0
  0
ARC
  5
164
100
AcDbEntity
  8
0
  6
CONTINUOUS
 62
               7
100
AcDbCircle
 10
42.29999999999999
 20
8.3999999999999915
 30
0.0
 40
2.0
100
AcDbArc
 50
270.0
 51
0.0
  0
ARC
  5
165
100
AcDbEntity
  8
0
  6
CONTINUOUS
 62
               7
100
AcDbCircle
 10
42.29999999999999
 20
14.600000000000001
 30
0.0
 40
2.0
100
AcDbArc
 50
0.0
 51
90.0
  0
LINE
  5
166
100
AcDbEntity
  8
0
  6
CONTINUOUS
 62
               7
100
AcDbLine
 10
5.7999999999999829
 20
16.600000000000001
 30
0.0
 11
42.29999999999999
 21
16.600000000000001
 31
0.0
  0
LINE
  5
167
100
AcDbEntity
  8
0
  6
CONTINUOUS
 62
               7
100
AcDbLine
 10
5.7999999999999829
 20
6.3999999999999915
 30
0.0
 11
42.29999999999999
 21
6.3999999999999915
 31
0.0
  0
LINE
  5
168
100
AcDbEntity
  8
0
  6
CONTINUOUS
 62
               7
100
AcDbLine
 10
3.7999999999999829
 20
14.600000000000001
 30
0.0
 11
3.7999999999999829
 21
8.3999999999999915
 31
0.0
  0
LINE
  5
169
100
AcDbEntity
  8
0
  6
CONTINUOUS
 62
               7
100
AcDbLine
 10
44.29999999999999
 20
14.600000000000001
 30
0.0
 11
44.29999999999999
 21
8.3999999999999915
 31
0.0
  0
LINE
  5
16A
100
AcDbEntity
  8
0
  6
CONTINUOUS
 62
               7
100
AcDbLine
 10
-10.600000000000009
 20
11.0
 30
0.0
 11
-10.600000000000009
 21
6.5
 31
0.0
  0
LINE
  5
16B
100
AcDbEntity
  8
0
  6
CONTINUOUS
 62
               7
100
AcDbLine
 10
50.599999999999994
 20
11.0
 30
0.0
 11
50.599999999999994
 21
8.0
 31
0.0
  0
LINE
  5
16C
100
AcDbEntity
  8
0
  6
CONTINUOUS
 62
               7
100
AcDbLine
 10
-10.100000000000009
 20
11.5
 30
0.0
 11
-10.100000000000009
 21
11.0
 31
0.0
  0
LINE
  5
16D
100
AcDbEntity
  8
0
  6
CONTINUOUS
 62
               7
100
AcDbLine
 10
50.099999999999994
 20
11.5
 30
0.0
 11
50.099999999999994
 21
11.0
 31
0.0
  0
LINE
  5
16E
100
AcDbEntity
  8
0
  6
CONTINUOUS
 62
               7
100
AcDbLine
 10
-10.600000000000009
 20
11.5
 30
0.0
 11
3.7999999999999829
 21
11.5
 31
0.0
  0
LINE
  5
16F
100
AcDbEntity
  8
0
  6
CONTINUOUS
 62
               7
100
AcDbLine
 10
-10.600000000000009
 20
11.0
 30
0.0
 11
3.7999999999999829
 21
11.0
 31
0.0
  0
ARC
  5
170
100
AcDbEntity
  8
0
  6
CONTINUOUS
 62
               7
100
AcDbCircle
 10
-6.6000000000000085
 20
15.0
 30
0.0
 40
4.0
100
AcDbArc
 50
90.0
 51
180.0
  0
ARC
  5
171
100
AcDbEntity
  8
0
  6
CONTINUOUS
 62
               7
100
AcDbCircle
 10
-6.6000000000000085
 20
8.0
 30
0.0
 40
4.0
100
AcDbArc
 50
180.0
 51
270.0
  0
ARC
  5
172
100
AcDbEntity
  8
0
  6
CONTINUOUS
 62
               7
100
AcDbCircle
 10
46.599999999999994
 20
8.0
 30
0.0
 40
4.0
100
AcDbArc
 50
270.0
 51
0.0
  0
ARC
  5
173
100
AcDbEntity
  8
0
  6
CONTINUOUS
 62
               7
100
AcDbCircle
 10
46.599999999999994
 20
15.0
 30
0.0
 40
4.0
100
AcDbArc
 50
0.0
 51
90.0
  0
LINE
  5
174
100
AcDbEntity
  8
0
  6
CONTINUOUS
 62
               7
100
AcDbLine
 10
50.599999999999994
 20
15.0
 30
0.0
 11
50.599999999999994
 21
11.5
 31
0.0
  0
LINE
  5
175
100
AcDbEntity
  8
0
  6
CONTINUOUS
 62
               7
100
AcDbLine
 10
-10.600000000000009
 20
16.5
 30
0.0
 11
-10.600000000000009
 21
11.5
 31
0.0
  0
LINE
  5
176
100
AcDbEntity
  8
0
  6
CONTINUOUS
 62
               7
100
AcDbLine
 10
-6.6000000000000085
 20
4.0
 30
0.0
 11
46.599999999999994
 21
4.0
 31
0.0
  0
LINE
  5
177
100
AcDbEntity
  8
0
  6
CONTINUOUS
 62
               7
100
AcDbLine
 10
-6.6000000000000085
 20
19.0
 30
0.0
 11
46.599999999999994
 21
19.0
 31
0.0
  0
LINE
  5
178
100
AcDbEntity
  8
0
  6
CONTINUOUS
 62
               2
100
AcDbLine
 10
-20.782648841896602
 20
14.0
 30
0.0
 11
-22.895928417164797
 21
9.0
 31
0.0
  0
ENDBLK
  5
179
100
AcDbEntity
  8
0
100
AcDbBlockEnd
  0
BLOCK
  5
17A
100
AcDbEntity
  8
0
100
AcDbBlockBegin
  2
DTY-EPS-4
 70
               0
 10
0.0
 20
0.0
 30
0.0
  3
DTY-EPS-4
  1

  0
LINE
  5
17B
100
AcDbEntity
  8
0
  6
CONTINUOUS
 62
               7
100
AcDbLine
 10
51.099999999999994
 20
-12.100000000000001
 30
0.0
 11
50.599999999999966
 21
-12.100000000000001
 31
0.0
  0
LINE
  5
17C
100
AcDbEntity
  8
0
  6
CONTINUOUS
 62
               7
100
AcDbLine
 10
51.099999999999994
 20
-7.1000000000000014
 30
0.0
 11
50.599999999999966
 21
-7.1000000000000014
 31
0.0
  0
LINE
  5
17D
100
AcDbEntity
  8
0
  6
CONTINUOUS
 62
               7
100
AcDbLine
 10
52.599999999999994
 20
-28.100000000000101
 30
0.0
 11
50.599999999999994
 21
-28.100000000000101
 31
0.0
  0
LINE
  5
17E
100
AcDbEntity
  8
0
  6
CONTINUOUS
 62
               7
100
AcDbLine
 10
51.099999999999994
 20
-18.100000000000101
 30
0.0
 11
50.599999999999994
 21
-18.100000000000101
 31
0.0
  0
LINE
  5
17F
100
AcDbEntity
  8
0
  6
CONTINUOUS
 62
               7
100
AcDbLine
 10
52.599999999999994
 20
-4.6000000000001151
 30
0.0
 11
52.599999999999994
 21
-28.100000000000101
 31
0.0
  0
LINE
  5
180
100
AcDbEntity
  8
0
  6
CONTINUOUS
 62
               7
100
AcDbLine
 10
51.099999999999994
 20
-4.6000000000001009
 30
0.0
 11
51.099999999999994
 21
-18.100000000000101
 31
0.0
  0
LINE
  5
181
100
AcDbEntity
  8
0
  6
CONTINUOUS
 62
               7
100
AcDbLine
 10
52.599999999999994
 20
-4.6000000000001151
 30
0.0
 11
51.099999999999994
 21
-4.6000000000001009
 31
0.0
  0
LINE
  5
182
100
AcDbEntity
  8
0
  6
CONTINUOUS
 62
               7
100
AcDbLine
 10
45.0
 20
0.0
 30
0.0
 11
45.0
 21
-1.0
 31
0.0
  0
LINE
  5
183
100
AcDbEntity
  8
0
  6
CONTINUOUS
 62
               7
100
AcDbLine
 10
-5.0
 20
0.0
 30
0.0
 11
-5.0
 21
-1.0
 31
0.0
  0
LINE
  5
184
100
AcDbEntity
  8
0
  6
CONTINUOUS
 62
               7
100
AcDbLine
 10
45.0
 20
0.0
 30
0.0
 11
-5.0
 21
0.0
 31
0.0
  0
ARC
  5
185
100
AcDbEntity
  8
0
  6
CONTINUOUS
 62
               7
100
AcDbCircle
 10
-0.5999999999999943
 20
-29.200000000000003
 30
0.0
 40
1.0
100
AcDbArc
 50
180.0
 51
270.0
  0
ARC
  5
186
100
AcDbEntity
  8
0
  6
CONTINUOUS
 62
               7
100
AcDbCircle
 10
12.400000000000006
 20
-29.20000000000001
 30
0.0
 40
1.0
100
AcDbArc
 50
270.0
 51
0.0
  0
ARC
  5
187
100
AcDbEntity
  8
0
  6
CONTINUOUS
 62
               7
100
AcDbCircle
 10
12.400000000000006
 20
-26.20000000000001
 30
0.0
 40
1.0
100
AcDbArc
 50
0.0
 51
90.0
  0
ARC
  5
188
100
AcDbEntity
  8
0
  6
CONTINUOUS
 62
               7
100
AcDbCircle
 10
-0.5999999999999943
 20
-26.200000000000003
 30
0.0
 40
1.0
100
AcDbArc
 50
90.0
 51
180.0
  0
LINE
  5
189
100
AcDbEntity
  8
0
  6
CONTINUOUS
 62
               7
100
AcDbLine
 10
13.400000000000006
 20
-26.20000000000001
 30
0.0
 11
13.400000000000006
 21
-29.20000000000001
 31
0.0
  0
CIRCLE
  5
18A
100
AcDbEntity
  8
0
  6
CONTINUOUS
 62
               7
100
AcDbCircle
 10
9.8000000000000114
 20
-16.20000000000001
 30
0.0
 40
2.2000000000000002
  0
LINE
  5
18B
100
AcDbEntity
  8
0
  6
CONTINUOUS
 62
               7
100
AcDbLine
 10
12.400000000000006
 20
-25.20000000000001
 30
0.0
 11
-0.5999999999999943
 21
-25.200000000000003
 31
0.0
  0
LINE
  5
18C
100
AcDbEntity
  8
0
  6
CONTINUOUS
 62
               7
100
AcDbLine
 10
-1.5999999999999943
 20
-26.200000000000003
 30
0.0
 11
-1.5999999999999943
 21
-29.200000000000003
 31
0.0
  0
LINE
  5
18D
100
AcDbEntity
  8
0
  6
CONTINUOUS
 62
               7
100
AcDbLine
 10
12.400000000000006
 20
-30.20000000000001
 30
0.0
 11
-0.5999999999999943
 21
-30.200000000000003
 31
0.0
  0
LINE
  5
18E
100
AcDbEntity
  8
0
  6
CONTINUOUS
 62
               7
100
AcDbLine
 10
-11.399999999999977
 20
-7.2000000000000028
 30
0.0
 11
-11.399999999999977
 21
-10.200000000000003
 31
0.0
  0
LINE
  5
18F
100
AcDbEntity
  8
0
  6
CONTINUOUS
 62
               7
100
AcDbLine
 10
-10.599999999999994
 20
-7.2000000000000028
 30
0.0
 11
-11.399999999999977
 21
-7.2000000000000028
 31
0.0
  0
LINE
  5
190
100
AcDbEntity
  8
0
  6
CONTINUOUS
 62
               7
100
AcDbLine
 10
-10.599999999999994
 20
-10.200000000000003
 30
0.0
 11
-11.399999999999977
 21
-10.200000000000003
 31
0.0
  0
LINE
  5
191
100
AcDbEntity
  8
0
  6
CONTINUOUS
 62
               7
100
AcDbLine
 10
-10.599999999999994
 20
-11.200000000000003
 30
0.0
 11
-11.399999999999977
 21
-11.200000000000003
 31
0.0
  0
LINE
  5
192
100
AcDbEntity
  8
0
  6
CONTINUOUS
 62
               7
100
AcDbLine
 10
-10.599999999999994
 20
-14.200000000000003
 30
0.0
 11
-11.399999999999977
 21
-14.200000000000003
 31
0.0
  0
LINE
  5
193
100
AcDbEntity
  8
0
  6
CONTINUOUS
 62
               7
100
AcDbLine
 10
-11.399999999999977
 20
-11.200000000000003
 30
0.0
 11
-11.399999999999977
 21
-14.200000000000003
 31
0.0
  0
LINE
  5
194
100
AcDbEntity
  8
0
  6
CONTINUOUS
 62
               7
100
AcDbLine
 10
57.994969096305681
 20
-12.100000000000001
 30
0.0
 11
52.599999999999994
 21
-12.100000000000001
 31
0.0
  0
LINE
  5
195
100
AcDbEntity
  8
0
  6
CONTINUOUS
 62
               7
100
AcDbLine
 10
60.207289350714802
 20
-7.1000000000000014
 30
0.0
 11
52.599999999999994
 21
-7.1000000000000014
 31
0.0
  0
CIRCLE
  5
196
100
AcDbEntity
  8
0
  6
CONTINUOUS
 62
               7
100
AcDbCircle
 10
9.8000000000000114
 20
-16.20000000000001
 30
0.0
 40
2.2999999999999998
  0
LINE
  5
197
100
AcDbEntity
  8
0
  6
CONTINUOUS
 62
               2
100
AcDbLine
 10
13.800000000000011
 20
-16.20000000000001
 30
0.0
 11
5.8000000000000114
 21
-16.20000000000001
 31
0.0
  0
LINE
  5
198
100
AcDbEntity
  8
0
  6
CONTINUOUS
 62
               2
100
AcDbLine
 10
9.8000000000000114
 20
-12.20000000000001
 30
0.0
 11
9.8000000000000114
 21
-20.20000000000001
 31
0.0
  0
ARC
  5
199
100
AcDbEntity
  8
0
  6
CONTINUOUS
 62
               7
100
AcDbCircle
 10
31.0
 20
-5.1000000000000085
 30
0.0
 40
3.3999999999999999
100
AcDbArc
 50
200.66731649351266
 51
339.33268350648729
  0
ARC
  5
19A
100
AcDbEntity
  8
0
  6
CONTINUOUS
 62
               7
100
AcDbCircle
 10
31.0
 20
-5.1000000000000085
 30
0.0
 40
3.2999999999999998
100
AcDbArc
 50
196.7310046829694
 51
343.2689953170306
  0
LINE
  5
19B
100
AcDbEntity
  8
0
  6
CONTINUOUS
 62
               7
100
AcDbLine
 10
27.839699381387902
 20
-6.0500000000000114
 30
0.0
 11
26.5
 21
-6.0500000000000114
 31
0.0
  0
LINE
  5
19C
100
AcDbEntity
  8
0
  6
CONTINUOUS
 62
               7
100
AcDbLine
 10
27.839699381387902
 20
-4.1500000000000057
 30
0.0
 11
26.5
 21
-4.1500000000000057
 31
0.0
  0
LINE
  5
19D
100
AcDbEntity
  8
0
  6
CONTINUOUS
 62
               7
100
AcDbLine
 10
26.5
 20
-4.1500000000000057
 30
0.0
 11
26.5
 21
-6.0500000000000114
 31
0.0
  0
LINE
  5
19E
100
AcDbEntity
  8
0
  6
CONTINUOUS
 62
               7
100
AcDbLine
 10
35.5
 20
-4.1500000000000057
 30
0.0
 11
35.5
 21
-6.0500000000000114
 31
0.0
  0
LINE
  5
19F
100
AcDbEntity
  8
0
  6
CONTINUOUS
 62
               7
100
AcDbLine
 10
35.5
 20
-4.1500000000000057
 30
0.0
 11
34.160300618612098
 21
-4.1500000000000057
 31
0.0
  0
LINE
  5
1A0
100
AcDbEntity
  8
0
  6
CONTINUOUS
 62
               7
100
AcDbLine
 10
35.5
 20
-6.0500000000000114
 30
0.0
 11
34.160300618612098
 21
-6.0500000000000114
 31
0.0
  0
ARC
  5
1A1
100
AcDbEntity
  8
0
  6
CONTINUOUS
 62
               7
100
AcDbCircle
 10
31.0
 20
-5.1000000000000085
 30
0.0
 40
3.2999999999999998
100
AcDbArc
 50
16.731004682969399
 51
163.2689953170306
  0
LINE
  5
1A2
100
AcDbEntity
  8
0
  6
CONTINUOUS
 62
               7
100
AcDbLine
 10
27.818805255882637
 20
-6.3000000000000114
 30
0.0
 11
26.300000000000011
 21
-6.3000000000000114
 31
0.0
  0
LINE
  5
1A3
100
AcDbEntity
  8
0
  6
CONTINUOUS
 62
               7
100
AcDbLine
 10
27.818805255882637
 20
-3.9000000000000057
 30
0.0
 11
26.300000000000011
 21
-3.9000000000000057
 31
0.0
  0
LINE
  5
1A4
100
AcDbEntity
  8
0
  6
CONTINUOUS
 62
               7
100
AcDbLine
 10
26.300000000000011
 20
-3.9000000000000057
 30
0.0
 11
26.300000000000011
 21
-6.3000000000000114
 31
0.0
  0
LINE
  5
1A5
100
AcDbEntity
  8
0
  6
CONTINUOUS
 62
               7
100
AcDbLine
 10
35.699999999999989
 20
-3.9000000000000057
 30
0.0
 11
35.699999999999989
 21
-6.3000000000000114
 31
0.0
  0
LINE
  5
1A6
100
AcDbEntity
  8
0
  6
CONTINUOUS
 62
               7
100
AcDbLine
 10
35.699999999999989
 20
-6.3000000000000114
 30
0.0
 11
34.181194744117391
 21
-6.3000000000000114
 31
0.0
  0
LINE
  5
1A7
100
AcDbEntity
  8
0
  6
CONTINUOUS
 62
               7
100
AcDbLine
 10
35.699999999999989
 20
-3.9000000000000057
 30
0.0
 11
34.181194744117391
 21
-3.9000000000000057
 31
0.0
  0
ARC
  5
1A8
100
AcDbEntity
  8
0
  6
CONTINUOUS
 62
               7
100
AcDbCircle
 10
31.0
 20
-5.1000000000000085
 30
0.0
 40
3.3999999999999999
100
AcDbArc
 50
20.667316493512665
 51
159.33268350648734
  0
LINE
  5
1A9
100
AcDbEntity
  8
0
  6
CONTINUOUS
 62
               7
100
AcDbLine
 10
50.600000000000023
 20
-6.0000000000000142
 30
0.0
 11
50.599999999999994
 21
-32.200000000000017
 31
0.0
  0
LINE
  5
1AA
100
AcDbEntity
  8
0
  6
CONTINUOUS
 62
               7
100
AcDbLine
 10
45.600000000000023
 20
-1.0
 30
0.0
 11
-5.5999999999999943
 21
-1.0
 31
0.0
  0
LINE
  5
1AB
100
AcDbEntity
  8
0
  6
CONTINUOUS
 62
               7
100
AcDbLine
 10
47.599999999999994
 20
-35.200000000000017
 30
0.0
 11
-7.5999999999999943
 21
-35.200000000000003
 31
0.0
  0
LINE
  5
1AC
100
AcDbEntity
  8
0
  6
CONTINUOUS
 62
               7
100
AcDbLine
 10
-10.599999999999994
 20
-6.0
 30
0.0
 11
-10.599999999999994
 21
-32.200000000000003
 31
0.0
  0
ARC
  5
1AD
100
AcDbEntity
  8
0
  6
CONTINUOUS
 62
               7
100
AcDbCircle
 10
45.600000000000023
 20
-6.0000000000000142
 30
0.0
 40
5.0
100
AcDbArc
 50
0.0
 51
90.0
  0
ARC
  5
1AE
100
AcDbEntity
  8
0
  6
CONTINUOUS
 62
               7
100
AcDbCircle
 10
-5.5999999999999943
 20
-6.0
 30
0.0
 40
5.0
100
AcDbArc
 50
90.0
 51
180.0
  0
ARC
  5
1AF
100
AcDbEntity
  8
0
  6
CONTINUOUS
 62
               7
100
AcDbCircle
 10
-7.5999999999999943
 20
-32.200000000000003
 30
0.0
 40
3.0
100
AcDbArc
 50
180.0
 51
270.0
  0
ARC
  5
1B0
100
AcDbEntity
  8
0
  6
CONTINUOUS
 62
               7
100
AcDbCircle
 10
47.599999999999994
 20
-32.200000000000017
 30
0.0
 40
3.0
100
AcDbArc
 50
270.0
 51
0.0
  0
LINE
  5
1B1
100
AcDbEntity
  8
0
  6
CONTINUOUS
 62
               2
100
AcDbLine
 10
31.0
 20
-2.1000000000000085
 30
0.0
 11
31.0
 21
-8.1000000000000085
 31
0.0
  0
LINE
  5
1B2
100
AcDbEntity
  8
0
  6
CONTINUOUS
 62
               2
100
AcDbLine
 10
9.0
 20
-2.0999999999999943
 30
0.0
 11
9.0
 21
-8.0999999999999943
 31
0.0
  0
LINE
  5
1B3
100
AcDbEntity
  8
0
  6
CONTINUOUS
 62
               2
100
AcDbLine
 10
37.0
 20
-5.1000000000000085
 30
0.0
 11
25.0
 21
-5.1000000000000085
 31
0.0
  0
CIRCLE
  5
1B4
100
AcDbEntity
  8
0
  6
CONTINUOUS
 62
               7
100
AcDbCircle
 10
31.0
 20
-5.1000000000000085
 30
0.0
 40
1.6000000000000001
  0
CIRCLE
  5
1B5
100
AcDbEntity
  8
0
  6
CONTINUOUS
 62
               7
100
AcDbCircle
 10
9.0
 20
-5.0999999999999943
 30
0.0
 40
1.6000000000000001
  0
LINE
  5
1B6
100
AcDbEntity
  8
0
  6
CONTINUOUS
 62
               2
100
AcDbLine
 10
12.0
 20
-5.0999999999999943
 30
0.0
 11
6.0
 21
-5.0999999999999943
 31
0.0
  0
LINE
  5
1B7
100
AcDbEntity
  8
0
  6
CONTINUOUS
 62
               7
100
AcDbLine
 10
8.7393398282201815
 20
-17.260660171779833
 30
0.0
 11
10.860660171779813
 21
-15.139339828220187
 31
0.0
  0
LINE
  5
1B8
100
AcDbEntity
  8
0
  6
CONTINUOUS
 62
               7
100
AcDbLine
 10
10.860660171779813
 20
-17.260660171779833
 30
0.0
 11
8.7393398282201815
 21
-15.139339828220187
 31
0.0
  0
LINE
  5
1B9
100
AcDbEntity
  8
0
  6
CONTINUOUS
 62
               2
100
AcDbLine
 10
60.207289350714802
 20
-7.1000000000000014
 30
0.0
 11
57.994969096305681
 21
-12.100000000000001
 31
0.0
  0
LINE
  5
1BA
100
AcDbEntity
  8
0
  6
CONTINUOUS
 62
               2
100
AcDbLine
 10
0.0
 20
3.5
 30
0.0
 11
0.0
 21
-3.5
 31
0.0
  0
LINE
  5
1BB
100
AcDbEntity
  8
0
  6
CONTINUOUS
 62
               2
100
AcDbLine
 10
40.0
 20
3.5
 30
0.0
 11
40.0
 21
-3.5
 31
0.0
  0
ENDBLK
  5
1BC
100
AcDbEntity
  8
0
100
AcDbBlockEnd
  0
BLOCK
  5
23
100
AcDbEntity
  8
0
  6
ByBlock
 62
               0
100
AcDbBlockBegin
  2
_OPEN30
 70
               2
 10
0.0
 20
0.0
 30
0.0
  3
_OPEN30
  1

  0
LINE
  5
24
100
AcDbEntity
  8
0
  6
ByBlock
 62
               0
100
AcDbLine
 10
-1.0
 20
0.267949
 30
0.0
 11
0.0
 21
0.0
 31
0.0
  0
LINE
  5
25
100
AcDbEntity
  8
0
  6
ByBlock
 62
               0
100
AcDbLine
 10
0.0
 20
0.0
 30
0.0
 11
-1.0
 21
-0.267949
 31
0.0
  0
LINE
  5
26
100
AcDbEntity
  8
0
  6
ByBlock
 62
               0
100
AcDbLine
 10
0.0
 20
0.0
 30
0.0
 11
-1.0
 21
0.0
 31
0.0
  0
ENDBLK
  5
27
100
AcDbEntity
  8
0
  6
ByBlock
 62
               0
100
AcDbBlockEnd
  0
ENDSEC
  0
SECTION
  2
ENTITIES
  0
INSERT
  5
1BD
100
AcDbEntity
  8
0
  6
ByBlock
100
AcDbBlockReference
  2
DTY-EPS-4
 10
90.0
 20
60.0
 30
0.0
  0
INSERT
  5
1BE
100
AcDbEntity
  8
0
  6
ByBlock
100
AcDbBlockReference
  2
DTY-EPS-3
 10
-70.0
 20
-70.0
 30
0.0
  0
INSERT
  5
1BF
100
AcDbEntity
  8
0
  6
ByBlock
100
AcDbBlockReference
  2
DTY-EPS-2
 10
40.0
 20
60.0
 30
0.0
  0
INSERT
  5
1C0
100
AcDbEntity
  8
0
  6
ByBlock
100
AcDbBlockReference
  2
DTY-EPS-1
 10
-70.0
 20
60.0
 30
0.0
  0
MTEXT
  5
1C1
100
AcDbEntity
  8
0
  6
CONTINUOUS
 62
               7
100
AcDbMText
 10
-171.21511627906978
 20
128.85000610351562
 30
0.0
 40
4.5
 41
0.0
 71
               4
 72
               1
  1
\W1.047;\A1;EP SENSOR
  0
MTEXT
  5
1C2
100
AcDbEntity
  8
0
  6
CONTINUOUS
 62
               7
100
AcDbMText
 10
-166.75
 20
121.35000610351562
 30
0.0
 40
4.5
 41
0.0
 71
               4
 72
               1
  1
\A1;DTY-EPS
  0
MTEXT
  5
1C3
100
AcDbEntity
  8
0
  6
CONTINUOUS
 62
               7
100
AcDbMText
 10
-185.70945946009621
 20
107.60000610351562
 30
0.0
 40
4.5
 41
0.0
 71
               4
 72
               1
  1
\W1.054;\A1;MODEL:DTY-EPS
  0
LINE
  5
1C4
100
AcDbEntity
  8
0
  6
CONTINUOUS
 62
               7
100
AcDbLine
 10
-194.25
 20
132.60000610351562
 30
0.0
 11
194.80000305175781
 21
132.60000610351562
 31
0.0
  0
LINE
  5
1C5
100
AcDbEntity
  8
0
  6
CONTINUOUS
 62
               7
100
AcDbLine
 10
194.80000305175781
 20
132.60000610351562
 30
0.0
 11
194.80000305175781
 21
-133.5
 31
0.0
  0
LINE
  5
1C6
100
AcDbEntity
  8
0
  6
CONTINUOUS
 62
               7
100
AcDbLine
 10
-194.25
 20
132.60000610351562
 30
0.0
 11
-194.25
 21
-133.5
 31
0.0
  0
LINE
  5
1C7
100
AcDbEntity
  8
0
  6
CONTINUOUS
 62
               7
100
AcDbLine
 10
-194.25
 20
-133.5
 30
0.0
 11
194.80000305175781
 21
-133.5
 31
0.0
  0
LINE
  5
1C8
100
AcDbEntity
  8
0
  6
CONTINUOUS
 62
               7
100
AcDbLine
 10
109.80000305175781
 20
-118.5
 30
0.0
 11
109.80000305175781
 21
-133.5
 31
0.0
  0
LINE
  5
1C9
100
AcDbEntity
  8
0
  6
CONTINUOUS
 62
               7
100
AcDbLine
 10
109.80000305175781
 20
-118.5
 30
0.0
 11
194.80000305175781
 21
-118.5
 31
0.0
  0
LINE
  5
1CA
100
AcDbEntity
  8
0
  6
CONTINUOUS
 62
               7
100
AcDbLine
 10
109.80000305175781
 20
132.60000610351562
 30
0.0
 11
109.80000305175781
 21
117.60000610351562
 31
0.0
  0
LINE
  5
1CB
100
AcDbEntity
  8
0
  6
CONTINUOUS
 62
               7
100
AcDbLine
 10
109.80000305175781
 20
117.60000610351562
 30
0.0
 11
194.80000305175781
 21
117.60000610351562
 31
0.0
  0
LINE
  5
1CC
100
AcDbEntity
  8
0
  6
CONTINUOUS
 62
               7
100
AcDbLine
 10
-194.25
 20
117.60000610351562
 30
0.0
 11
-109.25
 21
117.60000610351562
 31
0.0
  0
LINE
  5
1CD
100
AcDbEntity
  8
0
  6
CONTINUOUS
 62
               7
100
AcDbLine
 10
-109.25
 20
132.60000610351562
 30
0.0
 11
-109.25
 21
117.60000610351562
 31
0.0
  0
MTEXT
  5
1CE
100
AcDbEntity
  8
0
  6
CONTINUOUS
 62
               7
100
AcDbMText
 10
135.2836095995238
 20
125.10000610351562
 30
0.0
 40
4.5
 41
0.0
 71
               4
 72
               1
  1
\W1.311;\A1;Ver. 1.0
  0
MTEXT
  5
1CF
100
AcDbEntity
  8
0
  6
CONTINUOUS
 62
               7
100
AcDbMText
 10
115.5267440447775
 20
-126.0
 30
0.0
 40
6.2999992370605469
 41
0.0
 71
               4
 72
               1
  1
\W1.121;\A1;KOGANEI CORP.
  0
ENDSEC
  0
SECTION
  2
OBJECTS
  0
DICTIONARY
  5
19
100
AcDbDictionary
  3
ACAD_GROUP
350
1A
  3
ACAD_MLINESTYLE
350
1B
  0
DICTIONARY
  5
1A
102
{ACAD_REACTORS
330
19
102
}
100
AcDbDictionary
  0
DICTIONARY
  5
1B
102
{ACAD_REACTORS
330
19
102
}
100
AcDbDictionary
  3
STANDARD
350
1C
  0
MLINESTYLE
  5
1C
102
{ACAD_REACTORS
330
1B
102
}
100
AcDbMlineStyle
  2
Standard
 70
               0
  3

 62
               0
 51
90.0
 52
90.0
 71
               2
 49
0.5
 62
             256
  6
ByLayer
 49
-0.5
 62
             256
  6
ByLayer
  0
ENDSEC
  0
EOF
