  0
SECTION
  2
HEADER
  9
$ACADVER
  1
AC1012
  9
$DWGCODEPAGE
  3
dos932
  9
$INSBASE
 10
0.0
 20
0.0
 30
0.0
  9
$EXTMIN
 10
-564.5
 20
-400.5
 30
0.0
  9
$EXTMAX
 10
581.5
 20
402.375
 30
0.0
  9
$LIMMIN
 10
-599.50000000000011
 20
-415.50000000000006
  9
$LIMMAX
 10
589.50000000000011
 20
425.50000000000006
  9
$ORTHOMODE
 70
               0
  9
$REGENMODE
 70
               1
  9
$FILLMODE
 70
               1
  9
$QTEXTMODE
 70
               0
  9
$MIRRTEXT
 70
               1
  9
$DRAGMODE
 70
               2
  9
$LTSCALE
 40
1.0
  9
$OSMODE
 70
               0
  9
$ATTMODE
 70
               1
  9
$TEXTSIZE
 40
3.2000000476837158
  9
$TRACEWID
 40
0.05
  9
$TEXTSTYLE
  7
MX_NOTE_STANDARD
  9
$CLAYER
  8
0
  9
$CELTYPE
  6
CONTINUOUS
  9
$CECOLOR
 62
             256
  9
$CELTSCALE
 40
1.0
  9
$DELOBJ
 70
               1
  9
$DISPSILH
 70
               0
  9
$DIMSCALE
 40
1.0
  9
$DIMASZ
 40
2.5
  9
$DIMEXO
 40
1.5
  9
$DIMDLI
 40
3.75
  9
$DIMRND
 40
0.0
  9
$DIMDLE
 40
0.0
  9
$DIMEXE
 40
1.5
  9
$DIMTP
 40
0.0
  9
$DIMTM
 40
0.0
  9
$DIMTXT
 40
3.2000000476837158
  9
$DIMCEN
 40
2.5
  9
$DIMTSZ
 40
0.0
  9
$DIMTOL
 70
               0
  9
$DIMLIM
 70
               0
  9
$DIMTIH
 70
               0
  9
$DIMTOH
 70
               0
  9
$DIMSE1
 70
               0
  9
$DIMSE2
 70
               0
  9
$DIMTAD
 70
               1
  9
$DIMZIN
 70
               8
  9
$DIMBLK
  1

  9
$DIMASO
 70
               1
  9
$DIMSHO
 70
               1
  9
$DIMPOST
  1

  9
$DIMAPOST
  1

  9
$DIMALT
 70
               0
  9
$DIMALTD
 70
               4
  9
$DIMALTF
 40
0.03937007874016
  9
$DIMLFAC
 40
1.0
  9
$DIMTOFL
 70
               1
  9
$DIMTVP
 40
0.0
  9
$DIMTIX
 70
               0
  9
$DIMSOXD
 70
               0
  9
$DIMSAH
 70
               1
  9
$DIMBLK1
  1
_OPEN30
  9
$DIMBLK2
  1
_OPEN30
  9
$DIMSTYLE
  2
MXDIMSTYLE
  9
$DIMCLRD
 70
               0
  9
$DIMCLRE
 70
               0
  9
$DIMCLRT
 70
               0
  9
$DIMTFAC
 40
1.0
  9
$DIMGAP
 40
1.0
  9
$DIMJUST
 70
               0
  9
$DIMSD1
 70
               0
  9
$DIMSD2
 70
               0
  9
$DIMTOLJ
 70
               0
  9
$DIMTZIN
 70
               0
  9
$DIMALTZ
 70
               0
  9
$DIMALTTZ
 70
               0
  9
$DIMFIT
 70
               3
  9
$DIMUPT
 70
               1
  9
$DIMUNIT
 70
               2
  9
$DIMDEC
 70
               2
  9
$DIMTDEC
 70
               2
  9
$DIMALTU
 70
               2
  9
$DIMALTTD
 70
               4
  9
$DIMTXSTY
  7
MX_NOTE_STANDARD
  9
$DIMAUNIT
 70
               0
  9
$LUNITS
 70
               2
  9
$LUPREC
 70
               4
  9
$SKETCHINC
 40
0.1
  9
$FILLETRAD
 40
0.0
  9
$AUNITS
 70
               0
  9
$AUPREC
 70
               0
  9
$MENU
  1
acad
  9
$ELEVATION
 40
0.0
  9
$PELEVATION
 40
0.0
  9
$THICKNESS
 40
0.0
  9
$LIMCHECK
 70
               0
  9
$BLIPMODE
 70
               1
  9
$CHAMFERA
 40
0.0
  9
$CHAMFERB
 40
0.0
  9
$CHAMFERC
 40
0.0
  9
$CHAMFERD
 40
0.0
  9
$SKPOLY
 70
               0
  9
$TDCREATE
 40
2453984.744699074
  9
$TDUPDATE
 40
2453984.744699074
  9
$TDINDWG
 40
0.0000000000
  9
$TDUSRTIMER
 40
0.0000000000
  9
$USRTIMER
 70
               1
  9
$ANGBASE
 50
0.0
  9
$ANGDIR
 70
               0
  9
$PDMODE
 70
               0
  9
$PDSIZE
 40
0.0
  9
$PLINEWID
 40
0.0
  9
$COORDS
 70
               1
  9
$SPLFRAME
 70
               0
  9
$SPLINETYPE
 70
               6
  9
$SPLINESEGS
 70
               8
  9
$ATTDIA
 70
               0
  9
$ATTREQ
 70
               1
  9
$HANDLING
 70
               1
  9
$HANDSEED
  5
348
  9
$SURFTAB1
 70
               6
  9
$SURFTAB2
 70
               6
  9
$SURFTYPE
 70
               6
  9
$SURFU
 70
               6
  9
$SURFV
 70
               6
  9
$UCSNAME
  2

  9
$UCSORG
 10
0.0
 20
0.0
 30
0.0
  9
$UCSXDIR
 10
1.0
 20
0.0
 30
0.0
  9
$UCSYDIR
 10
0.0
 20
1.0
 30
0.0
  9
$PUCSNAME
  2

  9
$PUCSORG
 10
0.0
 20
0.0
 30
0.0
  9
$PUCSXDIR
 10
1.0
 20
0.0
 30
0.0
  9
$PUCSYDIR
 10
0.0
 20
1.0
 30
0.0
  9
$USERI1
 70
               0
  9
$USERI2
 70
               0
  9
$USERI3
 70
               0
  9
$USERI4
 70
               0
  9
$USERI5
 70
               0
  9
$USERR1
 40
0.0
  9
$USERR2
 40
0.0
  9
$USERR3
 40
0.0
  9
$USERR4
 40
0.0
  9
$USERR5
 40
0.0
  9
$WORLDVIEW
 70
               1
  9
$SHADEDGE
 70
               3
  9
$SHADEDIF
 70
              70
  9
$TILEMODE
 70
               1
  9
$MAXACTVP
 70
              16
  9
$PINSBASE
 10
0.0
 20
0.0
 30
0.0
  9
$PLIMCHECK
 70
               0
  9
$PEXTMIN
 10
1.0000000000000000E+20
 20
1.0000000000000000E+20
 30
1.0000000000000000E+20
  9
$PEXTMAX
 10
-1.0000000000000000E+20
 20
-1.0000000000000000E+20
 30
-1.0000000000000000E+20
  9
$PLIMMIN
 10
0.0
 20
0.0
  9
$PLIMMAX
 10
12.0
 20
9.0
  9
$UNITMODE
 70
               0
  9
$VISRETAIN
 70
               0
  9
$PLINEGEN
 70
               1
  9
$PSLTSCALE
 70
               0
  9
$TREEDEPTH
 70
            3020
  9
$PICKSTYLE
 70
               1
  9
$CMLSTYLE
  2
Standard
  9
$CMLJUST
 70
               0
  9
$CMLSCALE
 40
1.0
  9
$SAVEIMAGES
 70
               0
  0
ENDSEC
  0
SECTION
  2
CLASSES
  0
CLASS
  1
LWPOLYLINE
  2
AcDbPolyline
  3
"AutoCAD"
 90
    32768
280
               0
281
               1
  0
CLASS
  1
IMAGE
  2
AcDbRasterImage
  3
ISM
 90
    32895
280
               0
281
               1
  0
CLASS
  1
OLE2FRAME
  2
AcDbOle2Frame
  3
""
 90
    32768
280
               0
281
               1
  0
CLASS
  1
HATCH
  2
AcDbHatch
  3
"ACAD_SEDONA"
 90
    32768
280
               0
281
               1
  0
CLASS
  1
DICTIONARYVAR
  2
AcDbDictionaryVar
  3
"AutoCAD"
 90
    32768
280
               0
281
               0
  0
CLASS
  1
RASTERVARIABLES
  2
AcDbRasterVariables
  3
ISM
 90
    32768
280
               0
281
               0
  0
CLASS
  1
IMAGEDEF
  2
AcDbRasterImageDef
  3
ISM
 90
    32768
280
               0
281
               0
  0
CLASS
  1
IMAGEDEF_REACTOR
  2
AcDbRasterImageDefReactor
  3
ISM
 90
    32769
280
               0
281
               0
  0
CLASS
  1
IDBUFFER
  2
AcDbIdBuffer
  3
"Acad"
 90
    32768
280
               0
281
               0
  0
CLASS
  1
SPATIAL_FILTER
  2
AcDbSpatialFilter
  3
"Acad"
 90
    32768
280
               0
281
               0
  0
CLASS
  1
XRECORD
  2
AcDbXrecord
  3
"<Built In>"
 90
    32768
280
               0
281
               0
  0
CLASS
  1
SORTENTSTABLE
  2
AcDbSortentsTable
  3
"AutoCAD"
 90
    32768
280
               0
281
               0
  0
CLASS
  1
LAYER_INDEX
  2
AcDbLayerIndex
  3
"Acad"
 90
    32768
280
               0
281
               0
  0
CLASS
  1
SPATIAL_INDEX
  2
AcDbSpatialIndex
  3
"Acad"
 90
    32768
280
               0
281
               0
  0
CLASS
  1
OBJECT_PTR
  2
CAseDLPNTableRecord
  3
"ASE-LPNTableRecord"
 90
    32769
280
               0
281
               0
  0
CLASS
  1
LAYOUT
  2
AcDbLayout
  3
"AutoCAD 2000"
 90
    32768
280
               0
281
               0
  0
CLASS
  1
PLOTSETTINGS
  2
AcDbPlotSettings
  3
"AutoCAD 2000"
 90
    32768
280
               0
281
               0
  0
CLASS
  1
ACDBDICTIONARYWDFLT
  2
AcDbDictionaryWithDefault
  3
"AutoCAD 2000"
 90
    32768
280
               0
281
               0
  0
CLASS
  1
ACDBPLACEHOLDER
  2
AcDbPlaceHolder
  3
"AutoCAD 2000"
 90
    32768
280
               0
281
               0
  0
ENDSEC
  0
SECTION
  2
TABLES
  0
TABLE
  2
VPORT
  5
7
100
AcDbSymbolTable
 70
               1
  0
VPORT
  5
15
100
AcDbSymbolTableRecord
100
AcDbViewportTableRecord
  2
*ACTIVE
 70
               0
 10
0.0
 20
0.0
 11
1.0
 21
1.0
 12
-5.0
 22
5.0
 13
0.0
 23
0.0
 14
1.0
 24
1.0
 15
0.0
 25
0.0
 16
0.0
 26
0.0
 36
1.0
 17
0.0
 27
0.0
 37
0.0
 40
849.41000000000008
 41
1.7320508075688772
 42
50.0
 43
0.0
 44
0.0
 50
0.0
 51
0.0
 71
               0
 72
             100
 73
               1
 74
               1
 75
               0
 76
               0
 77
               0
 78
               0
  0
ENDTAB
  0
TABLE
  2
LTYPE
  5
4
100
AcDbSymbolTable
 70
               5
  0
LTYPE
  5
11
100
AcDbSymbolTableRecord
100
AcDbLinetypeTableRecord
  2
BYBLOCK
 70
              64
  3

 72
              65
 73
               0
 40
0.0
  0
LTYPE
  5
12
100
AcDbSymbolTableRecord
100
AcDbLinetypeTableRecord
  2
BYLAYER
 70
              64
  3

 72
              65
 73
               0
 40
0.0
  0
LTYPE
  5
13
100
AcDbSymbolTableRecord
100
AcDbLinetypeTableRecord
  2
CONTINUOUS
 70
              64
  3
Solid line
 72
              65
 73
               0
 40
0.0
  0
LTYPE
  5
1E8
100
AcDbSymbolTableRecord
100
AcDbLinetypeTableRecord
  2
CENTER
 70
              64
  3
Center ____ _ ____ _ ____ _ ____ _ ____ _ ____
 72
              65
 73
               4
 40
50.800000000000004
 49
31.75
 74
               0
 49
-6.3499999999999996
 74
               0
 49
6.3499999999999996
 74
               0
 49
-6.3499999999999996
 74
               0
  0
LTYPE
  5
253
100
AcDbSymbolTableRecord
100
AcDbLinetypeTableRecord
  2
DASHED
 70
              64
  3
Dashed __ __ __ __ __ __ __ __ __ __ __ __ __ _
 72
              65
 73
               2
 40
19.049999999999997
 49
12.699999999999999
 74
               0
 49
-6.3499999999999996
 74
               0
  0
ENDTAB
  0
TABLE
  2
LAYER
  5
2
100
AcDbSymbolTable
 70
               2
  0
LAYER
  5
14
100
AcDbSymbolTableRecord
100
AcDbLayerTableRecord
  2
0
 70
               0
 62
               7
  6
CONTINUOUS
  0
LAYER
  5
1D
100
AcDbSymbolTableRecord
100
AcDbLayerTableRecord
  2
DEFPOINTS
 70
               0
 62
               7
  6
CONTINUOUS
  0
ENDTAB
  0
TABLE
  2
STYLE
  5
3
100
AcDbSymbolTable
 70
               1
  0
STYLE
  5
17
100
AcDbSymbolTableRecord
100
AcDbTextStyleTableRecord
  2
MX_NOTE_STANDARD
 70
               0
 40
0.0
 41
1.0
 50
0.0
 71
               0
 42
3.2000000476837158
  3
txt.shx
  4
extfont.shx
  0
ENDTAB
  0
TABLE
  2
VIEW
  5
5
100
AcDbSymbolTable
 70
               0
  0
ENDTAB
  0
TABLE
  2
UCS
  5
6
100
AcDbSymbolTable
 70
               0
  0
ENDTAB
  0
TABLE
  2
APPID
  5
8
100
AcDbSymbolTable
 70
               1
  0
APPID
  5
16
100
AcDbSymbolTableRecord
100
AcDbRegAppTableRecord
  2
ACAD
 70
               0
  0
ENDTAB
  0
TABLE
  2
DIMSTYLE
  5
9
100
AcDbSymbolTable
 70
               1
  0
DIMSTYLE
105
18
100
AcDbSymbolTableRecord
100
AcDbDimStyleTableRecord
  2
MXDIMSTYLE
 70
               0
  3

  4

  5

  6
_OPEN30
  7
_OPEN30
 40
1.0
 41
2.5
 42
1.5
 43
3.75
 44
1.5
 45
0.0
 46
0.0
 47
0.0
 48
0.0
 71
               0
 72
               0
 73
               0
 74
               0
 75
               0
 76
               0
 77
               1
 78
               8
140
3.2000000476837158
141
2.5
142
0.0
143
0.03937007874016
144
1.0
145
0.0
146
1.0
147
1.0
170
               0
171
               4
172
               1
173
               1
174
               0
175
               0
176
               0
177
               0
178
               0
270
               2
271
               2
272
               2
273
               2
274
               4
275
               0
280
               0
281
               0
282
               0
283
               0
284
               0
285
               0
286
               0
287
               3
288
               1
340
17
  0
ENDTAB
  0
TABLE
  2
BLOCK_RECORD
  5
1
100
AcDbSymbolTable
 70
               5
  0
BLOCK_RECORD
  5
A
100
AcDbSymbolTableRecord
100
AcDbBlockTableRecord
  2
*MODEL_SPACE
  0
BLOCK_RECORD
  5
B
100
AcDbSymbolTableRecord
100
AcDbBlockTableRecord
  2
*PAPER_SPACE
  0
BLOCK_RECORD
  5
1E
100
AcDbSymbolTableRecord
100
AcDbBlockTableRecord
  2
MS_1
  0
BLOCK_RECORD
  5
1F
100
AcDbSymbolTableRecord
100
AcDbBlockTableRecord
  2
MS_2
  0
BLOCK_RECORD
  5
20
100
AcDbSymbolTableRecord
100
AcDbBlockTableRecord
  2
MS_3
  0
BLOCK_RECORD
  5
21
100
AcDbSymbolTableRecord
100
AcDbBlockTableRecord
  2
MS_4
  0
BLOCK_RECORD
  5
22
100
AcDbSymbolTableRecord
100
AcDbBlockTableRecord
  2
_OPEN30
  0
ENDTAB
  0
ENDSEC
  0
SECTION
  2
BLOCKS
  0
BLOCK
  5
D
100
AcDbEntity
  8
0
100
AcDbBlockBegin
  2
*MODEL_SPACE
 70
               0
 10
0.0
 20
0.0
 30
0.0
  3
*MODEL_SPACE
  1

  0
ENDBLK
  5
E
100
AcDbEntity
  8
0
100
AcDbBlockEnd
  0
BLOCK
  5
F
100
AcDbEntity
 67
               1
  8
0
100
AcDbBlockBegin
  2
*PAPER_SPACE
 70
               0
 10
0.0
 20
0.0
 30
0.0
  3
*PAPER_SPACE
  1

  0
ENDBLK
  5
10
100
AcDbEntity
 67
               1
  8
0
100
AcDbBlockEnd
  0
BLOCK
  5
28
100
AcDbEntity
  8
0
100
AcDbBlockBegin
  2
MS_1
 70
               0
 10
0.0
 20
0.0
 30
0.0
  3
MS_1
  1

  0
LINE
  5
29
100
AcDbEntity
  8
0
  6
CONTINUOUS
 62
               2
100
AcDbLine
 10
60.0
 20
5.2863412555309992
 30
0.0
 11
60.0
 21
-4.7136587444690008
 31
0.0
  0
LINE
  5
2A
100
AcDbEntity
  8
0
  6
CONTINUOUS
 62
               2
100
AcDbLine
 10
0.0
 20
5.2863412555309992
 30
0.0
 11
0.0
 21
-4.7136587444690008
 31
0.0
  0
LINE
  5
2B
100
AcDbEntity
  8
0
  6
CONTINUOUS
 62
               2
100
AcDbLine
 10
240.0
 20
5.2863412555309992
 30
0.0
 11
240.0
 21
-4.7136587444690008
 31
0.0
  0
LINE
  5
2C
100
AcDbEntity
  8
0
  6
CONTINUOUS
 62
               2
100
AcDbLine
 10
300.0
 20
5.2863412555309992
 30
0.0
 11
300.0
 21
-4.7136587444690008
 31
0.0
  0
LINE
  5
2D
100
AcDbEntity
  8
0
  6
CONTINUOUS
 62
               2
100
AcDbLine
 10
120.0
 20
5.2863412555309992
 30
0.0
 11
120.0
 21
-4.7136587444690008
 31
0.0
  0
LINE
  5
2E
100
AcDbEntity
  8
0
  6
CONTINUOUS
 62
               2
100
AcDbLine
 10
180.0
 20
5.2863412555309992
 30
0.0
 11
180.0
 21
-4.7136587444690008
 31
0.0
  0
LINE
  5
2F
100
AcDbEntity
  8
0
  6
CONTINUOUS
 62
               7
100
AcDbLine
 10
-54.000000000000455
 20
10.000000000000057
 30
0.0
 11
-52.000000000000455
 21
10.000000000000057
 31
0.0
  0
LINE
  5
30
100
AcDbEntity
  8
0
  6
CONTINUOUS
 62
               7
100
AcDbLine
 10
351.99999999999955
 20
10.000000000000284
 30
0.0
 11
353.99999999999955
 21
10.000000000000284
 31
0.0
  0
LINE
  5
31
100
AcDbEntity
  8
0
  6
CONTINUOUS
 62
               7
100
AcDbLine
 10
-52.000000000000455
 20
2.0
 30
0.0
 11
351.99999999999955
 21
2.0
 31
0.0
  0
LINE
  5
32
100
AcDbEntity
  8
0
  6
CONTINUOUS
 62
               7
100
AcDbLine
 10
-54.000000000000455
 20
0.0
 30
0.0
 11
353.99999999999955
 21
0.0
 31
0.0
  0
LINE
  5
33
100
AcDbEntity
  8
0
  6
CONTINUOUS
 62
               2
100
AcDbLine
 10
-25.075823322900305
 20
97.598828462547317
 30
0.0
 11
-25.075192693807594
 21
97.575950411640179
 31
0.0
  0
LINE
  5
34
100
AcDbEntity
  8
0
  6
CONTINUOUS
 62
               2
100
AcDbLine
 10
-25.529284930028098
 20
99.347338315512218
 30
0.0
 11
-25.507910070424032
 21
99.305100441542095
 31
0.0
  0
LINE
  5
35
100
AcDbEntity
  8
0
  6
CONTINUOUS
 62
               2
100
AcDbLine
 10
-40.470715069972812
 20
99.347338315512218
 30
0.0
 11
-40.492089929576878
 21
99.305100441542095
 31
0.0
  0
LINE
  5
36
100
AcDbEntity
  8
0
  6
CONTINUOUS
 62
               2
100
AcDbLine
 10
-41.065358196170564
 20
99.347338315512218
 30
0.0
 11
-41.072866196954465
 21
99.305100441542095
 31
0.0
  0
LINE
  5
37
100
AcDbEntity
  8
0
  6
CONTINUOUS
 62
               2
100
AcDbLine
 10
-39.585774859348476
 20
101.01104139730768
 30
0.0
 11
-39.697331826100708
 21
100.87558526497952
 31
0.0
  0
LINE
  5
38
100
AcDbEntity
  8
0
  6
CONTINUOUS
 62
               2
100
AcDbLine
 10
-28.810616688097298
 20
103.31535527070668
 30
0.0
 11
-28.781606684173084
 21
103.29277587832559
 31
0.0
  0
LINE
  5
39
100
AcDbEntity
  8
0
  6
CONTINUOUS
 62
               2
100
AcDbLine
 10
-37.189383311903384
 20
103.31535527070668
 30
0.0
 11
-37.218393315827598
 21
103.29277587832559
 31
0.0
  0
LINE
  5
3A
100
AcDbEntity
  8
0
  6
CONTINUOUS
 62
               2
100
AcDbLine
 10
-28.891560497960882
 20
104.45144541854359
 30
0.0
 11
-28.867527678830356
 21
104.44290663899369
 31
0.0
  0
LINE
  5
3B
100
AcDbEntity
  8
0
  6
CONTINUOUS
 62
               2
100
AcDbLine
 10
344.99999999999943
 20
80.000000000000284
 30
0.0
 11
374.06345542663507
 21
80.000000000000284
 31
0.0
  0
LINE
  5
3C
100
AcDbEntity
  8
0
  6
CONTINUOUS
 62
               2
100
AcDbLine
 10
-45.500000000000455
 20
96.500000000000057
 30
0.0
 11
-20.500000000000455
 21
96.500000000000057
 31
0.0
  0
LINE
  5
3D
100
AcDbEntity
  8
0
  6
CONTINUOUS
 62
               2
100
AcDbLine
 10
-33.000000000000455
 20
84.000000000000057
 30
0.0
 11
-33.000000000000455
 21
109.00000000000006
 31
0.0
  0
LINE
  5
3E
100
AcDbEntity
  8
0
  6
CONTINUOUS
 62
               2
100
AcDbLine
 10
-73.917391389667728
 20
80.000000000000057
 30
0.0
 11
-44.99443433096485
 21
80.000000000000057
 31
0.0
  0
LINE
  5
3F
100
AcDbEntity
  8
0
  6
CONTINUOUS
 62
               7
100
AcDbLine
 10
349.00000000000045
 20
46.499999999999091
 30
0.0
 11
-49.000000000000455
 21
46.500000000000114
 31
0.0
  0
CIRCLE
  5
40
100
AcDbEntity
  8
0
  6
CONTINUOUS
 62
               7
100
AcDbCircle
 10
327.25000000000045
 20
106.0861321541334
 30
0.0
 40
1.6000000000000001
  0
CIRCLE
  5
41
100
AcDbEntity
  8
0
  6
CONTINUOUS
 62
               7
100
AcDbCircle
 10
317.25000000000045
 20
106.0861321541334
 30
0.0
 40
1.6000000000000001
  0
LINE
  5
42
100
AcDbEntity
  8
0
  6
CONTINUOUS
 62
               7
100
AcDbLine
 10
330.90000000000055
 20
108.7404757939301
 30
0.0
 11
343.60000000000059
 21
108.7404757939301
 31
0.0
  0
LINE
  5
43
100
AcDbEntity
  8
0
  6
CONTINUOUS
 62
               7
100
AcDbLine
 10
332.80000000000041
 20
106.84047579393001
 30
0.0
 11
341.7000000000005
 21
106.84047579393001
 31
0.0
  0
LINE
  5
44
100
AcDbEntity
  8
0
  6
CONTINUOUS
 62
               7
100
AcDbLine
 10
330.90000000000055
 20
96.040475793930057
 30
0.0
 11
330.90000000000055
 21
108.7404757939301
 31
0.0
  0
LINE
  5
45
100
AcDbEntity
  8
0
  6
CONTINUOUS
 62
               7
100
AcDbLine
 10
332.80000000000041
 20
97.94047579392992
 30
0.0
 11
332.80000000000041
 21
106.84047579393001
 31
0.0
  0
LINE
  5
46
100
AcDbEntity
  8
0
  6
CONTINUOUS
 62
               7
100
AcDbLine
 10
343.60000000000059
 20
96.040475793930057
 30
0.0
 11
330.90000000000055
 21
96.040475793930057
 31
0.0
  0
LINE
  5
47
100
AcDbEntity
  8
0
  6
CONTINUOUS
 62
               7
100
AcDbLine
 10
341.7000000000005
 20
97.94047579392992
 30
0.0
 11
332.80000000000041
 21
97.94047579392992
 31
0.0
  0
LINE
  5
48
100
AcDbEntity
  8
0
  6
CONTINUOUS
 62
               7
100
AcDbLine
 10
343.60000000000059
 20
108.7404757939301
 30
0.0
 11
343.60000000000059
 21
96.040475793930057
 31
0.0
  0
LINE
  5
49
100
AcDbEntity
  8
0
  6
CONTINUOUS
 62
               7
100
AcDbLine
 10
341.7000000000005
 20
106.84047579393001
 30
0.0
 11
341.7000000000005
 21
97.94047579392992
 31
0.0
  0
LINE
  5
4A
100
AcDbEntity
  8
0
  6
CONTINUOUS
 62
               7
100
AcDbLine
 10
4.4999999999995453
 20
107.25000000000188
 30
0.0
 11
4.4999999999995453
 21
89.500000000000966
 31
0.0
  0
LINE
  5
4B
100
AcDbEntity
  8
0
  6
CONTINUOUS
 62
               7
100
AcDbLine
 10
305.49999999999955
 20
87.500000000000966
 30
0.0
 11
305.49999999999955
 21
107.25000000000097
 31
0.0
  0
LINE
  5
4C
100
AcDbEntity
  8
0
  6
CONTINUOUS
 62
               7
100
AcDbLine
 10
305.49999999999955
 20
107.25000000000097
 30
0.0
 11
4.4999999999995453
 21
107.25000000000188
 31
0.0
  0
LINE
  5
4D
100
AcDbEntity
  8
0
  6
CONTINUOUS
 62
               7
100
AcDbLine
 10
349.00000000000045
 20
75.011284448634854
 30
0.0
 11
-49.000000000000455
 21
75.011284448634854
 31
0.0
  0
ARC
  5
4E
100
AcDbEntity
  8
0
  6
CONTINUOUS
 62
               7
100
AcDbCircle
 10
-33.000000000000455
 20
96.500000000000057
 30
0.0
 40
8.0
100
AcDbArc
 50
329.99999999999989
 51
210.00000000000017
  0
ARC
  5
4F
100
AcDbEntity
  8
0
  6
CONTINUOUS
 62
               7
100
AcDbCircle
 10
-33.000000000000455
 20
97.000000000000057
 30
0.0
 40
8.4000000000000004
100
AcDbArc
 50
90.0
 51
212.95485730410911
  0
ARC
  5
50
100
AcDbEntity
  8
0
  6
CONTINUOUS
 62
               7
100
AcDbCircle
 10
-33.000000000000455
 20
96.000000000000057
 30
0.0
 40
9.4000000000000004
100
AcDbArc
 50
332.64027479642652
 51
90.0
  0
LINE
  5
51
100
AcDbEntity
  8
0
  6
CONTINUOUS
 62
               7
100
AcDbLine
 10
-26.07179676972487
 20
92.500000000000057
 30
0.0
 11
-24.651496661843794
 21
91.679989350384915
 31
0.0
  0
LINE
  5
52
100
AcDbEntity
  8
0
  6
CONTINUOUS
 62
               7
100
AcDbLine
 10
-39.92820323027604
 20
92.500000000000057
 30
0.0
 11
-40.04843514916297
 21
92.430584069265535
 31
0.0
  0
LINE
  5
53
100
AcDbEntity
  8
0
  6
CONTINUOUS
 62
               7
100
AcDbLine
 10
-33.000000000000227
 20
104.50000000000006
 30
0.0
 11
-33.000000000000227
 21
106.50000000000006
 31
0.0
  0
LINE
  5
54
100
AcDbEntity
  8
0
  6
CONTINUOUS
 62
               7
100
AcDbLine
 10
-39.928203230275813
 20
100.50000000000006
 30
0.0
 11
-41.660254037844652
 21
101.50000000000006
 31
0.0
  0
LINE
  5
55
100
AcDbEntity
  8
0
  6
CONTINUOUS
 62
               7
100
AcDbLine
 10
-26.07179676972487
 20
100.50000000000006
 30
0.0
 11
-24.339745962155803
 21
101.50000000000006
 31
0.0
  0
LINE
  5
56
100
AcDbEntity
  8
0
  6
CONTINUOUS
 62
               7
100
AcDbLine
 10
349.00000000000045
 20
114.43048204118992
 30
0.0
 11
-49.000000000000455
 21
114.43048204118992
 31
0.0
  0
LINE
  5
57
100
AcDbEntity
  8
0
  6
CONTINUOUS
 62
               7
100
AcDbLine
 10
350.00000000000045
 20
118.00000000000006
 30
0.0
 11
-50.000000000000455
 21
118.00000000000006
 31
0.0
  0
LINE
  5
58
100
AcDbEntity
  8
0
  6
CONTINUOUS
 62
               7
100
AcDbLine
 10
349.00000000000045
 20
46.500000000000114
 30
0.0
 11
349.00000000000045
 21
114.43048204118992
 31
0.0
  0
LINE
  5
59
100
AcDbEntity
  8
0
  6
CONTINUOUS
 62
               7
100
AcDbLine
 10
350.00000000000045
 20
46.500000000000114
 30
0.0
 11
350.00000000000045
 21
118.00000000000006
 31
0.0
  0
LINE
  5
5A
100
AcDbEntity
  8
0
  6
CONTINUOUS
 62
               7
100
AcDbLine
 10
-50.000000000000455
 20
46.500000000000114
 30
0.0
 11
-50.000000000000455
 21
118.00000000000006
 31
0.0
  0
LINE
  5
5B
100
AcDbEntity
  8
0
  6
CONTINUOUS
 62
               7
100
AcDbLine
 10
-49.000000000000455
 20
46.500000000000114
 30
0.0
 11
-49.000000000000455
 21
114.43048204118992
 31
0.0
  0
LINE
  5
5C
100
AcDbEntity
  8
0
  6
CONTINUOUS
 62
               7
100
AcDbLine
 10
-49.000000000000455
 20
46.500000000000114
 30
0.0
 11
-50.000000000000455
 21
46.500000000000114
 31
0.0
  0
LINE
  5
5D
100
AcDbEntity
  8
0
  6
CONTINUOUS
 62
               7
100
AcDbLine
 10
350.00000000000045
 20
46.500000000000114
 30
0.0
 11
349.00000000000045
 21
46.500000000000114
 31
0.0
  0
LINE
  5
5E
100
AcDbEntity
  8
0
  6
CONTINUOUS
 62
               7
100
AcDbLine
 10
-54.000000000000455
 20
95.000000000000057
 30
0.0
 11
-52.000000000000455
 21
95.000000000000057
 31
0.0
  0
LINE
  5
5F
100
AcDbEntity
  8
0
  6
CONTINUOUS
 62
               7
100
AcDbLine
 10
351.99999999999955
 20
95.000000000000057
 30
0.0
 11
353.99999999999955
 21
95.000000000000057
 31
0.0
  0
LINE
  5
60
100
AcDbEntity
  8
0
  6
CONTINUOUS
 62
               7
100
AcDbLine
 10
-50.0
 20
87.500000000000057
 30
0.0
 11
-52.000000000000455
 21
87.500000000000057
 31
0.0
  0
LINE
  5
61
100
AcDbEntity
  8
0
  6
CONTINUOUS
 62
               7
100
AcDbLine
 10
-52.000000000000455
 20
72.500000000000057
 30
0.0
 11
-50.0
 21
72.500000000000057
 31
0.0
  0
LINE
  5
62
100
AcDbEntity
  8
0
  6
CONTINUOUS
 62
               7
100
AcDbLine
 10
351.99999999999955
 20
87.495932910215572
 30
0.0
 11
350.00000000000045
 21
87.495932910215572
 31
0.0
  0
LINE
  5
63
100
AcDbEntity
  8
0
  6
CONTINUOUS
 62
               7
100
AcDbLine
 10
350.00000000000045
 20
72.495932910215572
 30
0.0
 11
351.99999999999955
 21
72.495932910215572
 31
0.0
  0
ARC
  5
64
100
AcDbEntity
  8
0
  6
CONTINUOUS
 62
               7
100
AcDbCircle
 10
268.47631166222868
 20
80.199605286032977
 30
0.0
 40
100.44127806377109
100
AcDbArc
 50
352.81667546741988
 51
6.9555943754055081
  0
LINE
  5
65
100
AcDbEntity
  8
0
  6
CONTINUOUS
 62
               7
100
AcDbLine
 10
361.99999999999955
 20
92.300000000000011
 30
0.0
 11
361.99999999999955
 21
67.700000000000102
 31
0.0
  0
LINE
  5
66
100
AcDbEntity
  8
0
  6
CONTINUOUS
 62
               7
100
AcDbLine
 10
353.99999999999955
 20
73.600000000000193
 30
0.0
 11
361.99999999999955
 21
73.600000000000193
 31
0.0
  0
ARC
  5
67
100
AcDbEntity
  8
0
  6
CONTINUOUS
 62
               7
100
AcDbCircle
 10
367.63316427711266
 20
67.702500000000157
 30
0.0
 40
0.5
100
AcDbArc
 50
270.0
 51
352.81667546741988
  0
LINE
  5
68
100
AcDbEntity
  8
0
  6
CONTINUOUS
 62
               7
100
AcDbLine
 10
362.49999999999955
 20
67.200000000000102
 30
0.0
 11
367.63316427711266
 21
67.202500000000157
 31
0.0
  0
ARC
  5
69
100
AcDbEntity
  8
0
  6
CONTINUOUS
 62
               7
100
AcDbCircle
 10
362.49999999999955
 20
67.700000000000102
 30
0.0
 40
0.5
100
AcDbArc
 50
180.0
 51
270.0
  0
LINE
  5
6A
100
AcDbEntity
  8
0
  6
CONTINUOUS
 62
               7
100
AcDbLine
 10
361.99999999999955
 20
86.400000000000148
 30
0.0
 11
353.99999999999955
 21
86.400000000000148
 31
0.0
  0
ARC
  5
6B
100
AcDbEntity
  8
0
  6
CONTINUOUS
 62
               7
100
AcDbCircle
 10
367.68205242637328
 20
92.302500000000066
 30
0.0
 40
0.5
100
AcDbArc
 50
6.9555943754055196
 51
90.0
  0
LINE
  5
6C
100
AcDbEntity
  8
0
  6
CONTINUOUS
 62
               7
100
AcDbLine
 10
367.68205242637328
 20
92.802500000000066
 30
0.0
 11
362.49999999999955
 21
92.800000000000011
 31
0.0
  0
ARC
  5
6D
100
AcDbEntity
  8
0
  6
CONTINUOUS
 62
               7
100
AcDbCircle
 10
362.49999999999955
 20
92.300000000000011
 30
0.0
 40
0.5
100
AcDbArc
 50
90.0
 51
180.0
  0
ARC
  5
6E
100
AcDbEntity
  8
0
  6
CONTINUOUS
 62
               7
100
AcDbCircle
 10
31.523688337770409
 20
80.199605286032977
 30
0.0
 40
100.44127806377109
100
AcDbArc
 50
173.0444056245945
 51
187.18332453258009
  0
LINE
  5
6F
100
AcDbEntity
  8
0
  6
CONTINUOUS
 62
               7
100
AcDbLine
 10
-62.000000000000455
 20
92.300000000000011
 30
0.0
 11
-62.000000000000455
 21
67.700000000000102
 31
0.0
  0
LINE
  5
70
100
AcDbEntity
  8
0
  6
CONTINUOUS
 62
               7
100
AcDbLine
 10
-54.000000000000455
 20
73.600000000000193
 30
0.0
 11
-62.000000000000455
 21
73.600000000000193
 31
0.0
  0
ARC
  5
71
100
AcDbEntity
  8
0
  6
CONTINUOUS
 62
               7
100
AcDbCircle
 10
-67.633164277113565
 20
67.702500000000157
 30
0.0
 40
0.5
100
AcDbArc
 50
187.18332453258009
 51
270.0
  0
LINE
  5
72
100
AcDbEntity
  8
0
  6
CONTINUOUS
 62
               7
100
AcDbLine
 10
-62.500000000000455
 20
67.200000000000102
 30
0.0
 11
-67.633164277113565
 21
67.202500000000157
 31
0.0
  0
ARC
  5
73
100
AcDbEntity
  8
0
  6
CONTINUOUS
 62
               7
100
AcDbCircle
 10
-62.500000000000455
 20
67.700000000000102
 30
0.0
 40
0.5
100
AcDbArc
 50
270.0
 51
0.0
  0
LINE
  5
74
100
AcDbEntity
  8
0
  6
CONTINUOUS
 62
               7
100
AcDbLine
 10
-62.000000000000455
 20
86.39999999999992
 30
0.0
 11
-54.000000000000455
 21
86.39999999999992
 31
0.0
  0
ARC
  5
75
100
AcDbEntity
  8
0
  6
CONTINUOUS
 62
               7
100
AcDbCircle
 10
-67.682052426374185
 20
92.302500000000066
 30
0.0
 40
0.5
100
AcDbArc
 50
90.0
 51
173.0444056245945
  0
LINE
  5
76
100
AcDbEntity
  8
0
  6
CONTINUOUS
 62
               7
100
AcDbLine
 10
-67.682052426374185
 20
92.802500000000066
 30
0.0
 11
-62.500000000000455
 21
92.800000000000011
 31
0.0
  0
ARC
  5
77
100
AcDbEntity
  8
0
  6
CONTINUOUS
 62
               7
100
AcDbCircle
 10
-62.500000000000455
 20
92.300000000000011
 30
0.0
 40
0.5
100
AcDbArc
 50
0.0
 51
90.0
  0
LINE
  5
78
100
AcDbEntity
  8
0
  6
CONTINUOUS
 62
               7
100
AcDbLine
 10
323.50000000000114
 20
41.999999999999773
 30
0.0
 11
323.50000000000114
 21
45.999999999999773
 31
0.0
  0
LINE
  5
79
100
AcDbEntity
  8
0
  6
CONTINUOUS
 62
               7
100
AcDbLine
 10
323.50000000000114
 20
45.999999999999773
 30
0.0
 11
157.50000000000068
 21
45.999999999999773
 31
0.0
  0
LINE
  5
7A
100
AcDbEntity
  8
0
  6
CONTINUOUS
 62
               7
100
AcDbLine
 10
152.50000000000068
 20
45.999999999999773
 30
0.0
 11
-13.499999999999773
 21
45.999999999999773
 31
0.0
  0
LINE
  5
7B
100
AcDbEntity
  8
0
  6
CONTINUOUS
 62
               7
100
AcDbLine
 10
323.50000000000114
 20
41.999999999999773
 30
0.0
 11
-13.499999999999773
 21
41.999999999999773
 31
0.0
  0
LINE
  5
7C
100
AcDbEntity
  8
0
  6
CONTINUOUS
 62
               7
100
AcDbLine
 10
322.50000000000114
 20
41.999999999999773
 30
0.0
 11
322.50000000000114
 21
45.999999999999773
 31
0.0
  0
LINE
  5
7D
100
AcDbEntity
  8
0
  6
CONTINUOUS
 62
               7
100
AcDbLine
 10
-13.499999999999773
 20
41.999999999999773
 30
0.0
 11
-13.499999999999773
 21
45.999999999999773
 31
0.0
  0
LINE
  5
7E
100
AcDbEntity
  8
0
  6
CONTINUOUS
 62
               7
100
AcDbLine
 10
-12.499999999999773
 20
41.999999999999773
 30
0.0
 11
-12.499999999999773
 21
45.999999999999773
 31
0.0
  0
LINE
  5
7F
100
AcDbEntity
  8
0
  6
CONTINUOUS
 62
               7
100
AcDbLine
 10
152.50000000000068
 20
46.499999999999773
 30
0.0
 11
152.50000000000068
 21
45.999999999999773
 31
0.0
  0
LINE
  5
80
100
AcDbEntity
  8
0
  6
CONTINUOUS
 62
               7
100
AcDbLine
 10
157.50000000000068
 20
46.499999999999773
 30
0.0
 11
157.50000000000068
 21
45.999999999999773
 31
0.0
  0
LINE
  5
81
100
AcDbEntity
  8
0
  6
CONTINUOUS
 62
               7
100
AcDbLine
 10
154.28000000000065
 20
40.599999999999795
 30
0.0
 11
154.28000000000065
 21
39.015958605448589
 31
0.0
  0
LINE
  5
82
100
AcDbEntity
  8
0
  6
CONTINUOUS
 62
               7
100
AcDbLine
 10
155.72000000000071
 20
39.015958605448589
 30
0.0
 11
155.72000000000071
 21
40.599999999999795
 31
0.0
  0
LINE
  5
83
100
AcDbEntity
  8
0
  6
CONTINUOUS
 62
               7
100
AcDbLine
 10
155.72000000000071
 20
40.599999999999795
 30
0.0
 11
154.28000000000065
 21
40.599999999999795
 31
0.0
  0
LINE
  5
84
100
AcDbEntity
  8
0
  6
CONTINUOUS
 62
               7
100
AcDbLine
 10
159.00000000000068
 20
41.999999999999773
 30
0.0
 11
159.00000000000068
 21
39.499999999999829
 31
0.0
  0
LINE
  5
85
100
AcDbEntity
  8
0
  6
CONTINUOUS
 62
               7
100
AcDbLine
 10
151.00000000000068
 20
39.499999999999829
 30
0.0
 11
154.28000000000065
 21
39.499999999999829
 31
0.0
  0
LINE
  5
86
100
AcDbEntity
  8
0
  6
CONTINUOUS
 62
               7
100
AcDbLine
 10
155.72000000000071
 20
39.499999999999829
 30
0.0
 11
159.00000000000068
 21
39.499999999999829
 31
0.0
  0
LINE
  5
87
100
AcDbEntity
  8
0
  6
CONTINUOUS
 62
               7
100
AcDbLine
 10
151.00000000000068
 20
41.999999999999602
 30
0.0
 11
151.00000000000068
 21
39.499999999999602
 31
0.0
  0
ARC
  5
88
100
AcDbEntity
  8
0
  6
CONTINUOUS
 62
               7
100
AcDbCircle
 10
155.00000000000068
 20
55.249999999999829
 30
0.0
 40
16.25
100
AcDbArc
 50
255.74996730219323
 51
267.46052486391812
  0
ARC
  5
89
100
AcDbEntity
  8
0
  6
CONTINUOUS
 62
               7
100
AcDbCircle
 10
155.00000000000068
 20
55.249999999999829
 30
0.0
 40
16.25
100
AcDbArc
 50
272.53947513608188
 51
284.25003269780638
  0
LINE
  5
8A
100
AcDbEntity
  8
0
  6
CONTINUOUS
 62
               7
100
AcDbLine
 10
-10.000000000000455
 20
81.500000000000966
 30
0.0
 11
-0.0000000000013642
 21
81.500000000000966
 31
0.0
  0
LINE
  5
8B
100
AcDbEntity
  8
0
  6
CONTINUOUS
 62
               7
100
AcDbLine
 10
-10.000000000000455
 20
79.900000000001057
 30
0.0
 11
-0.0000000000013642
 21
79.900000000001057
 31
0.0
  0
LINE
  5
8C
100
AcDbEntity
  8
0
  6
CONTINUOUS
 62
               7
100
AcDbLine
 10
154.99999999999727
 20
81.500000000000966
 30
0.0
 11
164.99999999999773
 21
81.500000000000966
 31
0.0
  0
LINE
  5
8D
100
AcDbEntity
  8
0
  6
CONTINUOUS
 62
               7
100
AcDbLine
 10
154.99999999999727
 20
79.900000000001057
 30
0.0
 11
164.99999999999773
 21
79.900000000001057
 31
0.0
  0
LINE
  5
8E
100
AcDbEntity
  8
0
  6
CONTINUOUS
 62
               7
100
AcDbLine
 10
319.99999999999977
 20
77.500000000000966
 30
0.0
 11
165.0
 21
77.500000000021885
 31
0.0
  0
LINE
  5
8F
100
AcDbEntity
  8
0
  6
CONTINUOUS
 62
               7
100
AcDbLine
 10
-20.000000000000455
 20
77.500000000000966
 30
0.0
 11
-20.000000000000455
 21
86.500000000000966
 31
0.0
  0
LINE
  5
90
100
AcDbEntity
  8
0
  6
CONTINUOUS
 62
               7
100
AcDbLine
 10
-17.000000000000455
 20
89.500000000000966
 30
0.0
 11
-20.000000000000455
 21
86.500000000000966
 31
0.0
  0
LINE
  5
91
100
AcDbEntity
  8
0
  6
CONTINUOUS
 62
               7
100
AcDbLine
 10
-17.000000000000455
 20
89.500000000000966
 30
0.0
 11
4.4999999999995453
 21
89.500000000000966
 31
0.0
  0
LINE
  5
92
100
AcDbEntity
  8
0
  6
CONTINUOUS
 62
               7
100
AcDbLine
 10
339.99999999999955
 20
77.500000000000966
 30
0.0
 11
339.99999999999955
 21
89.500000000000966
 31
0.0
  0
LINE
  5
93
100
AcDbEntity
  8
0
  6
CONTINUOUS
 62
               7
100
AcDbLine
 10
4.4999999999995453
 20
87.500000000000966
 30
0.0
 11
305.49999999999955
 21
87.499999999999829
 31
0.0
  0
LINE
  5
94
100
AcDbEntity
  8
0
  6
CONTINUOUS
 62
               7
100
AcDbLine
 10
-10.000000000000455
 20
77.500000000000966
 30
0.0
 11
-10.000000000000455
 21
81.500000000000966
 31
0.0
  0
LINE
  5
95
100
AcDbEntity
  8
0
  6
CONTINUOUS
 62
               7
100
AcDbLine
 10
0.0000000000004547
 20
77.500000000000966
 30
0.0
 11
0.0000000000004547
 21
81.500000000000966
 31
0.0
  0
LINE
  5
96
100
AcDbEntity
  8
0
  6
CONTINUOUS
 62
               7
100
AcDbLine
 10
305.49999999999955
 20
89.500000000002785
 30
0.0
 11
339.99999999999932
 21
89.500000000000966
 31
0.0
  0
LINE
  5
97
100
AcDbEntity
  8
0
  6
CONTINUOUS
 62
               7
100
AcDbLine
 10
4.4999999999995453
 20
89.500000000000966
 30
0.0
 11
4.4999999999995453
 21
87.500000000000966
 31
0.0
  0
LINE
  5
98
100
AcDbEntity
  8
0
  6
CONTINUOUS
 62
               7
100
AcDbLine
 10
-20.0
 20
77.500000000000966
 30
0.0
 11
-10.000000000000455
 21
77.500000000000966
 31
0.0
  0
LINE
  5
99
100
AcDbEntity
  8
0
  6
CONTINUOUS
 62
               7
100
AcDbLine
 10
154.99999999999909
 20
77.500000000000966
 30
0.0
 11
154.99999999999909
 21
81.500000000001648
 31
0.0
  0
LINE
  5
9A
100
AcDbEntity
  8
0
  6
CONTINUOUS
 62
               7
100
AcDbLine
 10
165.0
 20
77.500000000000966
 30
0.0
 11
165.0
 21
81.500000000001648
 31
0.0
  0
LINE
  5
9B
100
AcDbEntity
  8
0
  6
CONTINUOUS
 62
               7
100
AcDbLine
 10
0.0000000000004547
 20
77.500000000000966
 30
0.0
 11
154.99999999999909
 21
77.500000000000966
 31
0.0
  0
LINE
  5
9C
100
AcDbEntity
  8
0
  6
CONTINUOUS
 62
               7
100
AcDbLine
 10
319.99999999999977
 20
77.500000000000966
 30
0.0
 11
319.99999999999977
 21
81.500000000001648
 31
0.0
  0
LINE
  5
9D
100
AcDbEntity
  8
0
  6
CONTINUOUS
 62
               7
100
AcDbLine
 10
330.00000000000045
 20
77.500000000000966
 30
0.0
 11
330.00000000000159
 21
81.500000000001648
 31
0.0
  0
LINE
  5
9E
100
AcDbEntity
  8
0
  6
CONTINUOUS
 62
               7
100
AcDbLine
 10
319.99999999999977
 20
81.500000000001648
 30
0.0
 11
330.00000000000045
 21
81.500000000001648
 31
0.0
  0
LINE
  5
9F
100
AcDbEntity
  8
0
  6
CONTINUOUS
 62
               7
100
AcDbLine
 10
330.00000000000045
 20
77.500000000000966
 30
0.0
 11
339.99999999999955
 21
77.500000000000966
 31
0.0
  0
CIRCLE
  5
A0
100
AcDbEntity
  8
0
  6
CONTINUOUS
 62
               7
100
AcDbCircle
 10
335.99999999999977
 20
83.000000000000966
 30
0.0
 40
2.75
  0
CIRCLE
  5
A1
100
AcDbEntity
  8
0
  6
CONTINUOUS
 62
               7
100
AcDbCircle
 10
-16.000000000000455
 20
83.00000000000108
 30
0.0
 40
2.75
  0
CIRCLE
  5
A2
100
AcDbEntity
  8
0
  6
CONTINUOUS
 62
               7
100
AcDbCircle
 10
-37.070807654441069
 20
93.819350483855999
 30
0.0
 40
0.6409174099044322
  0
CIRCLE
  5
A3
100
AcDbEntity
  8
0
  6
CONTINUOUS
 62
               7
100
AcDbCircle
 10
-33.000000000000455
 20
96.500000000000057
 30
0.0
 40
7.0
  0
CIRCLE
  5
A4
100
AcDbEntity
  8
0
  6
CONTINUOUS
 62
               7
100
AcDbCircle
 10
-33.000000000000455
 20
96.500000000000057
 30
0.0
 40
6.75
  0
CIRCLE
  5
A5
100
AcDbEntity
  8
0
  6
CONTINUOUS
 62
               7
100
AcDbCircle
 10
-33.000000000000455
 20
96.500000000000057
 30
0.0
 40
6.25
  0
CIRCLE
  5
A6
100
AcDbEntity
  8
0
  6
CONTINUOUS
 62
               7
100
AcDbCircle
 10
317.25000000000045
 20
106.0861321541334
 30
0.0
 40
1.5
  0
CIRCLE
  5
A7
100
AcDbEntity
  8
0
  6
CONTINUOUS
 62
               7
100
AcDbCircle
 10
327.25000000000045
 20
106.0861321541334
 30
0.0
 40
1.5
  0
LINE
  5
A8
100
AcDbEntity
  8
0
  6
CONTINUOUS
 62
               7
100
AcDbLine
 10
319.99999999999773
 20
79.900000000001057
 30
0.0
 11
329.99999999999841
 21
79.900000000001057
 31
0.0
  0
LINE
  5
A9
100
AcDbEntity
  8
0
  6
CONTINUOUS
 62
               7
100
AcDbLine
 10
56.249999999999091
 20
96.499999999995964
 30
0.0
 11
79.749999999999091
 21
96.499999999995964
 31
0.0
  0
LINE
  5
AA
100
AcDbEntity
  8
0
  6
CONTINUOUS
 62
               7
100
AcDbLine
 10
56.249999999999091
 20
97.999999999995964
 30
0.0
 11
79.749999999999091
 21
97.999999999997783
 31
0.0
  0
LINE
  5
AB
100
AcDbEntity
  8
0
  6
CONTINUOUS
 62
               7
100
AcDbLine
 10
7.2499999999990905
 20
96.499999999997783
 30
0.0
 11
29.749999999999091
 21
96.499999999997783
 31
0.0
  0
LINE
  5
AC
100
AcDbEntity
  8
0
  6
CONTINUOUS
 62
               7
100
AcDbLine
 10
7.2499999999990905
 20
97.999999999997783
 30
0.0
 11
29.749999999999091
 21
97.999999999997783
 31
0.0
  0
LINE
  5
AD
100
AcDbEntity
  8
0
  6
CONTINUOUS
 62
               7
100
AcDbLine
 10
56.249999999999091
 20
89.749999999997783
 30
0.0
 11
67.531250000000227
 21
89.749999999997783
 31
0.0
  0
LINE
  5
AE
100
AcDbEntity
  8
0
  6
CONTINUOUS
 62
               7
100
AcDbLine
 10
68.468750000000909
 20
89.749999999997783
 30
0.0
 11
79.749999999999091
 21
89.749999999997783
 31
0.0
  0
LINE
  5
AF
100
AcDbEntity
  8
0
  6
CONTINUOUS
 62
               7
100
AcDbLine
 10
7.2499999999990905
 20
89.749999999997783
 30
0.0
 11
17.531250000000227
 21
89.749999999997783
 31
0.0
  0
LINE
  5
B0
100
AcDbEntity
  8
0
  6
CONTINUOUS
 62
               7
100
AcDbLine
 10
18.468750000000682
 20
89.749999999997783
 30
0.0
 11
29.749999999999091
 21
89.749999999997783
 31
0.0
  0
LINE
  5
B1
100
AcDbEntity
  8
0
  6
CONTINUOUS
 62
               7
100
AcDbLine
 10
18.500000000000455
 20
88.249999999997783
 30
0.0
 11
42.500000000000398
 21
88.249999999997783
 31
0.0
  0
LINE
  5
B2
100
AcDbEntity
  8
0
  6
CONTINUOUS
 62
               7
100
AcDbLine
 10
43.500000000000455
 20
88.249999999997783
 30
0.0
 11
67.500000000000455
 21
88.249999999997783
 31
0.0
  0
LINE
  5
B3
100
AcDbEntity
  8
0
  6
CONTINUOUS
 62
               7
100
AcDbLine
 10
68.500000000000455
 20
88.249999999997783
 30
0.0
 11
92.500000000000455
 21
88.249999999997783
 31
0.0
  0
LINE
  5
B4
100
AcDbEntity
  8
0
  6
CONTINUOUS
 62
               7
100
AcDbLine
 10
56.249999999999091
 20
104.74999999999778
 30
0.0
 11
79.749999999999091
 21
104.7499999999996
 31
0.0
  0
LINE
  5
B5
100
AcDbEntity
  8
0
  6
CONTINUOUS
 62
               7
100
AcDbLine
 10
56.249999999999091
 20
104.74999999999778
 30
0.0
 11
56.249999999999091
 21
97.999999999995964
 31
0.0
  0
LINE
  5
B6
100
AcDbEntity
  8
0
  6
CONTINUOUS
 62
               7
100
AcDbLine
 10
54.749999999999091
 20
104.74999999999778
 30
0.0
 11
54.749999999999318
 21
97.999999999995964
 31
0.0
  0
LINE
  5
B7
100
AcDbEntity
  8
0
  6
CONTINUOUS
 62
               7
100
AcDbLine
 10
7.2499999999990905
 20
104.74999999999778
 30
0.0
 11
29.749999999999091
 21
104.7499999999996
 31
0.0
  0
LINE
  5
B8
100
AcDbEntity
  8
0
  6
CONTINUOUS
 62
               7
100
AcDbLine
 10
5.7499999999990905
 20
107.25000000000165
 30
0.0
 11
5.7499999999990905
 21
88.249999999997783
 31
0.0
  0
LINE
  5
B9
100
AcDbEntity
  8
0
  6
CONTINUOUS
 62
               7
100
AcDbLine
 10
103.74999999999909
 20
89.749999999997783
 30
0.0
 11
103.74999999999909
 21
96.499999999995964
 31
0.0
  0
LINE
  5
BA
100
AcDbEntity
  8
0
  6
CONTINUOUS
 62
               7
100
AcDbLine
 10
81.249999999999091
 20
104.74999999999778
 30
0.0
 11
81.249999999999091
 21
97.999999999997783
 31
0.0
  0
LINE
  5
BB
100
AcDbEntity
  8
0
  6
CONTINUOUS
 62
               7
100
AcDbLine
 10
79.749999999999091
 20
104.74999999999778
 30
0.0
 11
79.749999999999318
 21
97.999999999995964
 31
0.0
  0
LINE
  5
BC
100
AcDbEntity
  8
0
  6
CONTINUOUS
 62
               7
100
AcDbLine
 10
31.249999999999091
 20
104.74999999999778
 30
0.0
 11
31.249999999999318
 21
97.999999999997783
 31
0.0
  0
LINE
  5
BD
100
AcDbEntity
  8
0
  6
CONTINUOUS
 62
               7
100
AcDbLine
 10
29.749999999999091
 20
104.74999999999778
 30
0.0
 11
29.749999999999091
 21
97.999999999997783
 31
0.0
  0
LINE
  5
BE
100
AcDbEntity
  8
0
  6
CONTINUOUS
 62
               7
100
AcDbLine
 10
7.2499999999990905
 20
104.74999999999778
 30
0.0
 11
7.2499999999990905
 21
97.999999999997783
 31
0.0
  0
LINE
  5
BF
100
AcDbEntity
  8
0
  6
CONTINUOUS
 62
               7
100
AcDbLine
 10
81.249999999999091
 20
104.7499999999996
 30
0.0
 11
103.74999999999909
 21
104.74999999999778
 31
0.0
  0
LINE
  5
C0
100
AcDbEntity
  8
0
  6
CONTINUOUS
 62
               7
100
AcDbLine
 10
81.249999999999091
 20
97.999999999997783
 30
0.0
 11
103.74999999999932
 21
97.999999999997783
 31
0.0
  0
LINE
  5
C1
100
AcDbEntity
  8
0
  6
CONTINUOUS
 62
               7
100
AcDbLine
 10
81.249999999999091
 20
96.499999999995964
 30
0.0
 11
103.74999999999909
 21
96.499999999995964
 31
0.0
  0
LINE
  5
C2
100
AcDbEntity
  8
0
  6
CONTINUOUS
 62
               7
100
AcDbLine
 10
81.249999999999091
 20
89.749999999997783
 30
0.0
 11
92.53125
 21
89.749999999997783
 31
0.0
  0
LINE
  5
C3
100
AcDbEntity
  8
0
  6
CONTINUOUS
 62
               7
100
AcDbLine
 10
93.468750000000682
 20
89.749999999997783
 30
0.0
 11
103.74999999999909
 21
89.749999999997783
 31
0.0
  0
LINE
  5
C4
100
AcDbEntity
  8
0
  6
CONTINUOUS
 62
               7
100
AcDbLine
 10
31.249999999999091
 20
104.7499999999996
 30
0.0
 11
54.749999999999091
 21
104.74999999999778
 31
0.0
  0
LINE
  5
C5
100
AcDbEntity
  8
0
  6
CONTINUOUS
 62
               7
100
AcDbLine
 10
31.249999999999091
 20
97.999999999997783
 30
0.0
 11
54.749999999999091
 21
97.999999999995964
 31
0.0
  0
LINE
  5
C6
100
AcDbEntity
  8
0
  6
CONTINUOUS
 62
               7
100
AcDbLine
 10
31.249999999999091
 20
96.499999999997783
 30
0.0
 11
54.749999999999091
 21
96.499999999995964
 31
0.0
  0
LINE
  5
C7
100
AcDbEntity
  8
0
  6
CONTINUOUS
 62
               7
100
AcDbLine
 10
31.249999999999091
 20
89.749999999997783
 30
0.0
 11
42.531250000000171
 21
89.749999999997783
 31
0.0
  0
LINE
  5
C8
100
AcDbEntity
  8
0
  6
CONTINUOUS
 62
               7
100
AcDbLine
 10
43.468750000000909
 20
89.749999999997783
 30
0.0
 11
54.749999999999091
 21
89.749999999997783
 31
0.0
  0
LINE
  5
C9
100
AcDbEntity
  8
0
  6
CONTINUOUS
 62
               7
100
AcDbLine
 10
102.74999999999909
 20
107.25000000000119
 30
0.0
 11
102.74999999999909
 21
106.24999999999778
 31
0.0
  0
LINE
  5
CA
100
AcDbEntity
  8
0
  6
CONTINUOUS
 62
               7
100
AcDbLine
 10
115.24999999999909
 20
107.25000000000119
 30
0.0
 11
115.24999999999909
 21
106.24999999999778
 31
0.0
  0
LINE
  5
CB
100
AcDbEntity
  8
0
  6
CONTINUOUS
 62
               7
100
AcDbLine
 10
93.749999999999318
 20
88.249999999997783
 30
0.0
 11
93.749999999999318
 21
89.749999999997783
 31
0.0
  0
LINE
  5
CC
100
AcDbEntity
  8
0
  6
CONTINUOUS
 62
               7
100
AcDbLine
 10
92.249999999999318
 20
88.249999999997783
 30
0.0
 11
92.249999999999318
 21
89.749999999997783
 31
0.0
  0
LINE
  5
CD
100
AcDbEntity
  8
0
  6
CONTINUOUS
 62
               7
100
AcDbLine
 10
91.249999999998863
 20
88.249999999997783
 30
0.0
 11
91.249999999998863
 21
89.749999999997783
 31
0.0
  0
LINE
  5
CE
100
AcDbEntity
  8
0
  6
CONTINUOUS
 62
               7
100
AcDbLine
 10
94.750000000000227
 20
88.249999999997783
 30
0.0
 11
94.750000000000227
 21
89.749999999997783
 31
0.0
  0
LINE
  5
CF
100
AcDbEntity
  8
0
  6
CONTINUOUS
 62
               7
100
AcDbLine
 10
68.749999999999318
 20
88.249999999997783
 30
0.0
 11
68.749999999999318
 21
89.749999999997783
 31
0.0
  0
LINE
  5
D0
100
AcDbEntity
  8
0
  6
CONTINUOUS
 62
               7
100
AcDbLine
 10
67.249999999999318
 20
88.249999999997783
 30
0.0
 11
67.249999999999318
 21
89.749999999997783
 31
0.0
  0
LINE
  5
D1
100
AcDbEntity
  8
0
  6
CONTINUOUS
 62
               7
100
AcDbLine
 10
66.249999999998863
 20
88.249999999997783
 30
0.0
 11
66.249999999998863
 21
89.749999999997783
 31
0.0
  0
LINE
  5
D2
100
AcDbEntity
  8
0
  6
CONTINUOUS
 62
               7
100
AcDbLine
 10
69.750000000000227
 20
88.249999999997783
 30
0.0
 11
69.750000000000227
 21
89.749999999997783
 31
0.0
  0
LINE
  5
D3
100
AcDbEntity
  8
0
  6
CONTINUOUS
 62
               7
100
AcDbLine
 10
43.749999999999318
 20
88.249999999997783
 30
0.0
 11
43.749999999999318
 21
89.749999999997783
 31
0.0
  0
LINE
  5
D4
100
AcDbEntity
  8
0
  6
CONTINUOUS
 62
               7
100
AcDbLine
 10
42.249999999999261
 20
88.249999999997783
 30
0.0
 11
42.249999999999261
 21
89.749999999997783
 31
0.0
  0
LINE
  5
D5
100
AcDbEntity
  8
0
  6
CONTINUOUS
 62
               7
100
AcDbLine
 10
41.249999999998806
 20
88.249999999997783
 30
0.0
 11
41.249999999998806
 21
89.749999999997783
 31
0.0
  0
LINE
  5
D6
100
AcDbEntity
  8
0
  6
CONTINUOUS
 62
               7
100
AcDbLine
 10
44.750000000000227
 20
88.249999999997783
 30
0.0
 11
44.750000000000227
 21
89.749999999997783
 31
0.0
  0
LINE
  5
D7
100
AcDbEntity
  8
0
  6
CONTINUOUS
 62
               7
100
AcDbLine
 10
18.749999999999318
 20
88.249999999997783
 30
0.0
 11
18.749999999999318
 21
89.749999999997783
 31
0.0
  0
LINE
  5
D8
100
AcDbEntity
  8
0
  6
CONTINUOUS
 62
               7
100
AcDbLine
 10
17.249999999999318
 20
88.249999999997783
 30
0.0
 11
17.249999999999318
 21
89.749999999997783
 31
0.0
  0
LINE
  5
D9
100
AcDbEntity
  8
0
  6
CONTINUOUS
 62
               7
100
AcDbLine
 10
16.249999999998863
 20
88.249999999997783
 30
0.0
 11
16.249999999998863
 21
89.749999999997783
 31
0.0
  0
LINE
  5
DA
100
AcDbEntity
  8
0
  6
CONTINUOUS
 62
               7
100
AcDbLine
 10
19.750000000000227
 20
88.249999999997783
 30
0.0
 11
19.750000000000227
 21
89.749999999997783
 31
0.0
  0
LINE
  5
DB
100
AcDbEntity
  8
0
  6
CONTINUOUS
 62
               7
100
AcDbLine
 10
81.249999999999091
 20
96.499999999995964
 30
0.0
 11
81.249999999999091
 21
89.749999999997783
 31
0.0
  0
LINE
  5
DC
100
AcDbEntity
  8
0
  6
CONTINUOUS
 62
               7
100
AcDbLine
 10
79.749999999999318
 20
96.499999999995964
 30
0.0
 11
79.749999999999091
 21
89.749999999997783
 31
0.0
  0
LINE
  5
DD
100
AcDbEntity
  8
0
  6
CONTINUOUS
 62
               7
100
AcDbLine
 10
56.249999999999091
 20
96.499999999995964
 30
0.0
 11
56.249999999999091
 21
89.749999999997783
 31
0.0
  0
LINE
  5
DE
100
AcDbEntity
  8
0
  6
CONTINUOUS
 62
               7
100
AcDbLine
 10
54.749999999999318
 20
96.499999999995964
 30
0.0
 11
54.749999999999091
 21
89.749999999997783
 31
0.0
  0
LINE
  5
DF
100
AcDbEntity
  8
0
  6
CONTINUOUS
 62
               7
100
AcDbLine
 10
31.249999999999318
 20
96.499999999997783
 30
0.0
 11
31.249999999999091
 21
89.749999999997783
 31
0.0
  0
LINE
  5
E0
100
AcDbEntity
  8
0
  6
CONTINUOUS
 62
               7
100
AcDbLine
 10
29.749999999999091
 20
96.499999999997783
 30
0.0
 11
29.749999999999091
 21
89.749999999997783
 31
0.0
  0
LINE
  5
E1
100
AcDbEntity
  8
0
  6
CONTINUOUS
 62
               7
100
AcDbLine
 10
7.2499999999990905
 20
96.499999999997783
 30
0.0
 11
7.2499999999990905
 21
89.749999999997783
 31
0.0
  0
LINE
  5
E2
100
AcDbEntity
  8
0
  6
CONTINUOUS
 62
               7
100
AcDbLine
 10
103.74999999999909
 20
97.999999999995964
 30
0.0
 11
103.74999999999909
 21
104.74999999999778
 31
0.0
  0
LINE
  5
E3
100
AcDbEntity
  8
0
  6
CONTINUOUS
 62
               7
100
AcDbLine
 10
155.74999999999932
 20
96.499999999997783
 30
0.0
 11
179.24999999999932
 21
96.499999999997783
 31
0.0
  0
LINE
  5
E4
100
AcDbEntity
  8
0
  6
CONTINUOUS
 62
               7
100
AcDbLine
 10
155.74999999999932
 20
97.999999999997783
 30
0.0
 11
179.24999999999932
 21
97.999999999999602
 31
0.0
  0
LINE
  5
E5
100
AcDbEntity
  8
0
  6
CONTINUOUS
 62
               7
100
AcDbLine
 10
106.74999999999932
 20
96.499999999999602
 30
0.0
 11
129.24999999999932
 21
96.499999999999602
 31
0.0
  0
LINE
  5
E6
100
AcDbEntity
  8
0
  6
CONTINUOUS
 62
               7
100
AcDbLine
 10
106.74999999999932
 20
97.999999999999602
 30
0.0
 11
129.24999999999932
 21
97.999999999999602
 31
0.0
  0
LINE
  5
E7
100
AcDbEntity
  8
0
  6
CONTINUOUS
 62
               7
100
AcDbLine
 10
155.74999999999932
 20
89.749999999999602
 30
0.0
 11
167.03125000000023
 21
89.749999999999602
 31
0.0
  0
LINE
  5
E8
100
AcDbEntity
  8
0
  6
CONTINUOUS
 62
               7
100
AcDbLine
 10
167.96875000000045
 20
89.749999999999602
 30
0.0
 11
179.24999999999932
 21
89.749999999999602
 31
0.0
  0
LINE
  5
E9
100
AcDbEntity
  8
0
  6
CONTINUOUS
 62
               7
100
AcDbLine
 10
106.74999999999932
 20
89.749999999999602
 30
0.0
 11
117.03125000000023
 21
89.749999999999602
 31
0.0
  0
LINE
  5
EA
100
AcDbEntity
  8
0
  6
CONTINUOUS
 62
               7
100
AcDbLine
 10
117.96875000000068
 20
89.749999999999602
 30
0.0
 11
129.24999999999932
 21
89.749999999999602
 31
0.0
  0
LINE
  5
EB
100
AcDbEntity
  8
0
  6
CONTINUOUS
 62
               7
100
AcDbLine
 10
118.00000000000045
 20
88.249999999999602
 30
0.0
 11
142.00000000000045
 21
88.249999999999602
 31
0.0
  0
LINE
  5
EC
100
AcDbEntity
  8
0
  6
CONTINUOUS
 62
               7
100
AcDbLine
 10
143.00000000000045
 20
88.249999999999602
 30
0.0
 11
167.00000000000045
 21
88.249999999999602
 31
0.0
  0
LINE
  5
ED
100
AcDbEntity
  8
0
  6
CONTINUOUS
 62
               7
100
AcDbLine
 10
168.00000000000045
 20
88.249999999999602
 30
0.0
 11
192.00000000000045
 21
88.249999999999602
 31
0.0
  0
LINE
  5
EE
100
AcDbEntity
  8
0
  6
CONTINUOUS
 62
               7
100
AcDbLine
 10
155.74999999999932
 20
104.7499999999996
 30
0.0
 11
179.24999999999932
 21
104.75000000000142
 31
0.0
  0
LINE
  5
EF
100
AcDbEntity
  8
0
  6
CONTINUOUS
 62
               7
100
AcDbLine
 10
155.74999999999932
 20
104.7499999999996
 30
0.0
 11
155.74999999999932
 21
97.999999999997783
 31
0.0
  0
LINE
  5
F0
100
AcDbEntity
  8
0
  6
CONTINUOUS
 62
               7
100
AcDbLine
 10
154.24999999999932
 20
104.7499999999996
 30
0.0
 11
154.24999999999955
 21
97.999999999997783
 31
0.0
  0
LINE
  5
F1
100
AcDbEntity
  8
0
  6
CONTINUOUS
 62
               7
100
AcDbLine
 10
106.74999999999932
 20
104.7499999999996
 30
0.0
 11
129.24999999999932
 21
104.75000000000142
 31
0.0
  0
LINE
  5
F2
100
AcDbEntity
  8
0
  6
CONTINUOUS
 62
               7
100
AcDbLine
 10
105.24999999999932
 20
106.2499999999996
 30
0.0
 11
105.24999999999932
 21
88.249999999999602
 31
0.0
  0
LINE
  5
F3
100
AcDbEntity
  8
0
  6
CONTINUOUS
 62
               7
100
AcDbLine
 10
203.24999999999932
 20
89.749999999999602
 30
0.0
 11
203.24999999999932
 21
96.499999999997783
 31
0.0
  0
LINE
  5
F4
100
AcDbEntity
  8
0
  6
CONTINUOUS
 62
               7
100
AcDbLine
 10
180.74999999999932
 20
104.7499999999996
 30
0.0
 11
180.74999999999932
 21
97.999999999999602
 31
0.0
  0
LINE
  5
F5
100
AcDbEntity
  8
0
  6
CONTINUOUS
 62
               7
100
AcDbLine
 10
179.24999999999932
 20
104.7499999999996
 30
0.0
 11
179.24999999999955
 21
97.999999999997783
 31
0.0
  0
LINE
  5
F6
100
AcDbEntity
  8
0
  6
CONTINUOUS
 62
               7
100
AcDbLine
 10
130.74999999999932
 20
104.7499999999996
 30
0.0
 11
130.74999999999955
 21
97.999999999999602
 31
0.0
  0
LINE
  5
F7
100
AcDbEntity
  8
0
  6
CONTINUOUS
 62
               7
100
AcDbLine
 10
129.24999999999932
 20
104.7499999999996
 30
0.0
 11
129.24999999999932
 21
97.999999999999602
 31
0.0
  0
LINE
  5
F8
100
AcDbEntity
  8
0
  6
CONTINUOUS
 62
               7
100
AcDbLine
 10
106.74999999999932
 20
104.7499999999996
 30
0.0
 11
106.74999999999932
 21
97.999999999999602
 31
0.0
  0
LINE
  5
F9
100
AcDbEntity
  8
0
  6
CONTINUOUS
 62
               7
100
AcDbLine
 10
180.74999999999932
 20
104.75000000000142
 30
0.0
 11
203.24999999999932
 21
104.7499999999996
 31
0.0
  0
LINE
  5
FA
100
AcDbEntity
  8
0
  6
CONTINUOUS
 62
               7
100
AcDbLine
 10
180.74999999999932
 20
97.999999999999602
 30
0.0
 11
203.24999999999955
 21
97.999999999999602
 31
0.0
  0
LINE
  5
FB
100
AcDbEntity
  8
0
  6
CONTINUOUS
 62
               7
100
AcDbLine
 10
180.74999999999932
 20
96.499999999997783
 30
0.0
 11
203.24999999999932
 21
96.499999999997783
 31
0.0
  0
LINE
  5
FC
100
AcDbEntity
  8
0
  6
CONTINUOUS
 62
               7
100
AcDbLine
 10
180.74999999999932
 20
89.749999999999602
 30
0.0
 11
192.03125000000023
 21
89.749999999999602
 31
0.0
  0
LINE
  5
FD
100
AcDbEntity
  8
0
  6
CONTINUOUS
 62
               7
100
AcDbLine
 10
192.96875000000068
 20
89.749999999999602
 30
0.0
 11
203.24999999999932
 21
89.749999999999602
 31
0.0
  0
LINE
  5
FE
100
AcDbEntity
  8
0
  6
CONTINUOUS
 62
               7
100
AcDbLine
 10
130.74999999999932
 20
104.75000000000142
 30
0.0
 11
154.24999999999932
 21
104.7499999999996
 31
0.0
  0
LINE
  5
FF
100
AcDbEntity
  8
0
  6
CONTINUOUS
 62
               7
100
AcDbLine
 10
130.74999999999932
 20
97.999999999999602
 30
0.0
 11
154.24999999999932
 21
97.999999999997783
 31
0.0
  0
LINE
  5
100
100
AcDbEntity
  8
0
  6
CONTINUOUS
 62
               7
100
AcDbLine
 10
130.74999999999932
 20
96.499999999999602
 30
0.0
 11
154.24999999999932
 21
96.499999999997783
 31
0.0
  0
LINE
  5
101
100
AcDbEntity
  8
0
  6
CONTINUOUS
 62
               7
100
AcDbLine
 10
130.74999999999932
 20
89.749999999999602
 30
0.0
 11
142.03125000000023
 21
89.749999999999602
 31
0.0
  0
LINE
  5
102
100
AcDbEntity
  8
0
  6
CONTINUOUS
 62
               7
100
AcDbLine
 10
142.96875000000068
 20
89.749999999999602
 30
0.0
 11
154.24999999999932
 21
89.749999999999602
 31
0.0
  0
LINE
  5
103
100
AcDbEntity
  8
0
  6
CONTINUOUS
 62
               7
100
AcDbLine
 10
107.74999999999932
 20
88.249999999999602
 30
0.0
 11
107.74999999999932
 21
87.500000000000739
 31
0.0
  0
LINE
  5
104
100
AcDbEntity
  8
0
  6
CONTINUOUS
 62
               7
100
AcDbLine
 10
95.249999999999545
 20
87.500000000000739
 30
0.0
 11
95.249999999999545
 21
88.249999999999602
 31
0.0
  0
LINE
  5
105
100
AcDbEntity
  8
0
  6
CONTINUOUS
 62
               7
100
AcDbLine
 10
193.24999999999955
 20
88.249999999999602
 30
0.0
 11
193.24999999999955
 21
89.749999999999602
 31
0.0
  0
LINE
  5
106
100
AcDbEntity
  8
0
  6
CONTINUOUS
 62
               7
100
AcDbLine
 10
191.74999999999955
 20
88.249999999999602
 30
0.0
 11
191.74999999999955
 21
89.749999999999602
 31
0.0
  0
LINE
  5
107
100
AcDbEntity
  8
0
  6
CONTINUOUS
 62
               7
100
AcDbLine
 10
190.74999999999909
 20
88.249999999999602
 30
0.0
 11
190.74999999999909
 21
89.749999999999602
 31
0.0
  0
LINE
  5
108
100
AcDbEntity
  8
0
  6
CONTINUOUS
 62
               7
100
AcDbLine
 10
194.25000000000045
 20
88.249999999999602
 30
0.0
 11
194.25000000000045
 21
89.749999999999602
 31
0.0
  0
LINE
  5
109
100
AcDbEntity
  8
0
  6
CONTINUOUS
 62
               7
100
AcDbLine
 10
168.24999999999955
 20
88.249999999999602
 30
0.0
 11
168.24999999999955
 21
89.749999999999602
 31
0.0
  0
LINE
  5
10A
100
AcDbEntity
  8
0
  6
CONTINUOUS
 62
               7
100
AcDbLine
 10
166.74999999999955
 20
88.249999999999602
 30
0.0
 11
166.74999999999955
 21
89.749999999999602
 31
0.0
  0
LINE
  5
10B
100
AcDbEntity
  8
0
  6
CONTINUOUS
 62
               7
100
AcDbLine
 10
165.74999999999909
 20
88.249999999999602
 30
0.0
 11
165.74999999999909
 21
89.749999999999602
 31
0.0
  0
LINE
  5
10C
100
AcDbEntity
  8
0
  6
CONTINUOUS
 62
               7
100
AcDbLine
 10
169.25000000000045
 20
88.249999999999602
 30
0.0
 11
169.25000000000045
 21
89.749999999999602
 31
0.0
  0
LINE
  5
10D
100
AcDbEntity
  8
0
  6
CONTINUOUS
 62
               7
100
AcDbLine
 10
143.24999999999955
 20
88.249999999999602
 30
0.0
 11
143.24999999999955
 21
89.749999999999602
 31
0.0
  0
LINE
  5
10E
100
AcDbEntity
  8
0
  6
CONTINUOUS
 62
               7
100
AcDbLine
 10
141.74999999999955
 20
88.249999999999602
 30
0.0
 11
141.74999999999955
 21
89.749999999999602
 31
0.0
  0
LINE
  5
10F
100
AcDbEntity
  8
0
  6
CONTINUOUS
 62
               7
100
AcDbLine
 10
140.74999999999909
 20
88.249999999999602
 30
0.0
 11
140.74999999999909
 21
89.749999999999602
 31
0.0
  0
LINE
  5
110
100
AcDbEntity
  8
0
  6
CONTINUOUS
 62
               7
100
AcDbLine
 10
144.25000000000045
 20
88.249999999999602
 30
0.0
 11
144.25000000000045
 21
89.749999999999602
 31
0.0
  0
LINE
  5
111
100
AcDbEntity
  8
0
  6
CONTINUOUS
 62
               7
100
AcDbLine
 10
118.24999999999955
 20
88.249999999999602
 30
0.0
 11
118.24999999999955
 21
89.749999999999602
 31
0.0
  0
LINE
  5
112
100
AcDbEntity
  8
0
  6
CONTINUOUS
 62
               7
100
AcDbLine
 10
116.74999999999955
 20
88.249999999999602
 30
0.0
 11
116.74999999999955
 21
89.749999999999602
 31
0.0
  0
LINE
  5
113
100
AcDbEntity
  8
0
  6
CONTINUOUS
 62
               7
100
AcDbLine
 10
115.74999999999909
 20
88.249999999999602
 30
0.0
 11
115.74999999999909
 21
89.749999999999602
 31
0.0
  0
LINE
  5
114
100
AcDbEntity
  8
0
  6
CONTINUOUS
 62
               7
100
AcDbLine
 10
119.25000000000045
 20
88.249999999999602
 30
0.0
 11
119.25000000000045
 21
89.749999999999602
 31
0.0
  0
LINE
  5
115
100
AcDbEntity
  8
0
  6
CONTINUOUS
 62
               7
100
AcDbLine
 10
180.74999999999932
 20
96.499999999997783
 30
0.0
 11
180.74999999999932
 21
89.749999999999602
 31
0.0
  0
LINE
  5
116
100
AcDbEntity
  8
0
  6
CONTINUOUS
 62
               7
100
AcDbLine
 10
179.24999999999955
 20
96.499999999997783
 30
0.0
 11
179.24999999999932
 21
89.749999999999602
 31
0.0
  0
LINE
  5
117
100
AcDbEntity
  8
0
  6
CONTINUOUS
 62
               7
100
AcDbLine
 10
155.74999999999932
 20
96.499999999997783
 30
0.0
 11
155.74999999999932
 21
89.749999999999602
 31
0.0
  0
LINE
  5
118
100
AcDbEntity
  8
0
  6
CONTINUOUS
 62
               7
100
AcDbLine
 10
154.24999999999955
 20
96.499999999997783
 30
0.0
 11
154.24999999999932
 21
89.749999999999602
 31
0.0
  0
LINE
  5
119
100
AcDbEntity
  8
0
  6
CONTINUOUS
 62
               7
100
AcDbLine
 10
130.74999999999955
 20
96.499999999999602
 30
0.0
 11
130.74999999999932
 21
89.749999999999602
 31
0.0
  0
LINE
  5
11A
100
AcDbEntity
  8
0
  6
CONTINUOUS
 62
               7
100
AcDbLine
 10
129.24999999999932
 20
96.499999999999602
 30
0.0
 11
129.24999999999932
 21
89.749999999999602
 31
0.0
  0
LINE
  5
11B
100
AcDbEntity
  8
0
  6
CONTINUOUS
 62
               7
100
AcDbLine
 10
106.74999999999932
 20
96.499999999999602
 30
0.0
 11
106.74999999999932
 21
89.749999999999602
 31
0.0
  0
LINE
  5
11C
100
AcDbEntity
  8
0
  6
CONTINUOUS
 62
               7
100
AcDbLine
 10
203.24999999999932
 20
97.999999999997783
 30
0.0
 11
203.24999999999932
 21
104.7499999999996
 31
0.0
  0
LINE
  5
11D
100
AcDbEntity
  8
0
  6
CONTINUOUS
 62
               7
100
AcDbLine
 10
193.00000000000045
 20
89.500000000000739
 30
0.0
 11
193.00000000000045
 21
87.500000000000739
 31
0.0
  0
LINE
  5
11E
100
AcDbEntity
  8
0
  6
CONTINUOUS
 62
               7
100
AcDbLine
 10
192.00000000000045
 20
89.500000000000512
 30
0.0
 11
192.00000000000045
 21
87.500000000000739
 31
0.0
  0
LINE
  5
11F
100
AcDbEntity
  8
0
  6
CONTINUOUS
 62
               7
100
AcDbLine
 10
193.00000000000045
 20
89.500000000000739
 30
0.0
 11
192.50000000000045
 21
93.500000000000739
 31
0.0
  0
LINE
  5
120
100
AcDbEntity
  8
0
  6
CONTINUOUS
 62
               7
100
AcDbLine
 10
192.00000000000045
 20
89.500000000000739
 30
0.0
 11
192.50000000000045
 21
93.500000000000739
 31
0.0
  0
LINE
  5
121
100
AcDbEntity
  8
0
  6
CONTINUOUS
 62
               7
100
AcDbLine
 10
168.00000000000045
 20
89.500000000000512
 30
0.0
 11
168.00000000000045
 21
87.500000000000739
 31
0.0
  0
LINE
  5
122
100
AcDbEntity
  8
0
  6
CONTINUOUS
 62
               7
100
AcDbLine
 10
167.00000000000045
 20
89.500000000000512
 30
0.0
 11
167.00000000000045
 21
87.500000000000739
 31
0.0
  0
LINE
  5
123
100
AcDbEntity
  8
0
  6
CONTINUOUS
 62
               7
100
AcDbLine
 10
168.00000000000045
 20
89.500000000000512
 30
0.0
 11
167.50000000000045
 21
93.500000000000512
 31
0.0
  0
LINE
  5
124
100
AcDbEntity
  8
0
  6
CONTINUOUS
 62
               7
100
AcDbLine
 10
167.00000000000045
 20
89.500000000000512
 30
0.0
 11
167.50000000000045
 21
93.500000000000512
 31
0.0
  0
LINE
  5
125
100
AcDbEntity
  8
0
  6
CONTINUOUS
 62
               7
100
AcDbLine
 10
143.00000000000045
 20
89.500000000000739
 30
0.0
 11
143.00000000000045
 21
87.500000000000739
 31
0.0
  0
LINE
  5
126
100
AcDbEntity
  8
0
  6
CONTINUOUS
 62
               7
100
AcDbLine
 10
142.00000000000045
 20
89.500000000000512
 30
0.0
 11
142.00000000000045
 21
87.500000000000739
 31
0.0
  0
LINE
  5
127
100
AcDbEntity
  8
0
  6
CONTINUOUS
 62
               7
100
AcDbLine
 10
143.00000000000045
 20
89.500000000000739
 30
0.0
 11
142.50000000000045
 21
93.500000000000739
 31
0.0
  0
LINE
  5
128
100
AcDbEntity
  8
0
  6
CONTINUOUS
 62
               7
100
AcDbLine
 10
142.00000000000045
 20
89.500000000000739
 30
0.0
 11
142.50000000000045
 21
93.500000000000739
 31
0.0
  0
LINE
  5
129
100
AcDbEntity
  8
0
  6
CONTINUOUS
 62
               7
100
AcDbLine
 10
118.00000000000045
 20
89.500000000000739
 30
0.0
 11
118.00000000000045
 21
87.500000000000739
 31
0.0
  0
LINE
  5
12A
100
AcDbEntity
  8
0
  6
CONTINUOUS
 62
               7
100
AcDbLine
 10
117.00000000000045
 20
89.500000000000512
 30
0.0
 11
117.00000000000045
 21
87.500000000000739
 31
0.0
  0
LINE
  5
12B
100
AcDbEntity
  8
0
  6
CONTINUOUS
 62
               7
100
AcDbLine
 10
118.00000000000045
 20
89.500000000000739
 30
0.0
 11
117.50000000000045
 21
93.500000000000739
 31
0.0
  0
LINE
  5
12C
100
AcDbEntity
  8
0
  6
CONTINUOUS
 62
               7
100
AcDbLine
 10
117.00000000000045
 20
89.500000000000739
 30
0.0
 11
117.50000000000045
 21
93.500000000000739
 31
0.0
  0
LINE
  5
12D
100
AcDbEntity
  8
0
  6
CONTINUOUS
 62
               7
100
AcDbLine
 10
93.500000000000455
 20
89.500000000000739
 30
0.0
 11
93.500000000000455
 21
87.500000000000739
 31
0.0
  0
LINE
  5
12E
100
AcDbEntity
  8
0
  6
CONTINUOUS
 62
               7
100
AcDbLine
 10
92.500000000000455
 20
89.500000000000512
 30
0.0
 11
92.500000000000455
 21
87.500000000000739
 31
0.0
  0
LINE
  5
12F
100
AcDbEntity
  8
0
  6
CONTINUOUS
 62
               7
100
AcDbLine
 10
93.500000000000455
 20
89.500000000000739
 30
0.0
 11
93.000000000000455
 21
93.500000000000739
 31
0.0
  0
LINE
  5
130
100
AcDbEntity
  8
0
  6
CONTINUOUS
 62
               7
100
AcDbLine
 10
92.500000000000455
 20
89.500000000000739
 30
0.0
 11
93.000000000000455
 21
93.500000000000739
 31
0.0
  0
LINE
  5
131
100
AcDbEntity
  8
0
  6
CONTINUOUS
 62
               7
100
AcDbLine
 10
68.500000000000455
 20
89.500000000000739
 30
0.0
 11
68.500000000000455
 21
87.500000000000739
 31
0.0
  0
LINE
  5
132
100
AcDbEntity
  8
0
  6
CONTINUOUS
 62
               7
100
AcDbLine
 10
67.500000000000455
 20
89.500000000000512
 30
0.0
 11
67.500000000000455
 21
87.500000000000739
 31
0.0
  0
LINE
  5
133
100
AcDbEntity
  8
0
  6
CONTINUOUS
 62
               7
100
AcDbLine
 10
68.500000000000455
 20
89.500000000000739
 30
0.0
 11
68.000000000000455
 21
93.500000000000739
 31
0.0
  0
LINE
  5
134
100
AcDbEntity
  8
0
  6
CONTINUOUS
 62
               7
100
AcDbLine
 10
67.500000000000455
 20
89.500000000000739
 30
0.0
 11
68.000000000000455
 21
93.500000000000739
 31
0.0
  0
LINE
  5
135
100
AcDbEntity
  8
0
  6
CONTINUOUS
 62
               7
100
AcDbLine
 10
43.500000000000455
 20
89.500000000000739
 30
0.0
 11
43.500000000000455
 21
87.500000000000739
 31
0.0
  0
LINE
  5
136
100
AcDbEntity
  8
0
  6
CONTINUOUS
 62
               7
100
AcDbLine
 10
42.500000000000398
 20
89.500000000000512
 30
0.0
 11
42.500000000000398
 21
87.500000000000739
 31
0.0
  0
LINE
  5
137
100
AcDbEntity
  8
0
  6
CONTINUOUS
 62
               7
100
AcDbLine
 10
43.500000000000455
 20
89.500000000000739
 30
0.0
 11
43.000000000000398
 21
93.500000000000739
 31
0.0
  0
LINE
  5
138
100
AcDbEntity
  8
0
  6
CONTINUOUS
 62
               7
100
AcDbLine
 10
42.500000000000398
 20
89.500000000000739
 30
0.0
 11
43.000000000000398
 21
93.500000000000739
 31
0.0
  0
LINE
  5
139
100
AcDbEntity
  8
0
  6
CONTINUOUS
 62
               7
100
AcDbLine
 10
18.500000000000455
 20
89.500000000000739
 30
0.0
 11
18.500000000000455
 21
87.500000000000739
 31
0.0
  0
LINE
  5
13A
100
AcDbEntity
  8
0
  6
CONTINUOUS
 62
               7
100
AcDbLine
 10
17.500000000000455
 20
89.500000000000512
 30
0.0
 11
17.500000000000455
 21
87.500000000000739
 31
0.0
  0
LINE
  5
13B
100
AcDbEntity
  8
0
  6
CONTINUOUS
 62
               7
100
AcDbLine
 10
18.500000000000455
 20
89.500000000000739
 30
0.0
 11
18.000000000000455
 21
93.500000000000739
 31
0.0
  0
LINE
  5
13C
100
AcDbEntity
  8
0
  6
CONTINUOUS
 62
               7
100
AcDbLine
 10
17.500000000000455
 20
89.500000000000739
 30
0.0
 11
18.000000000000455
 21
93.500000000000739
 31
0.0
  0
LINE
  5
13D
100
AcDbEntity
  8
0
  6
CONTINUOUS
 62
               7
100
AcDbLine
 10
255.24999999999909
 20
96.499999999997783
 30
0.0
 11
278.74999999999909
 21
96.499999999997783
 31
0.0
  0
LINE
  5
13E
100
AcDbEntity
  8
0
  6
CONTINUOUS
 62
               7
100
AcDbLine
 10
255.24999999999909
 20
97.999999999997783
 30
0.0
 11
278.74999999999909
 21
97.999999999999602
 31
0.0
  0
LINE
  5
13F
100
AcDbEntity
  8
0
  6
CONTINUOUS
 62
               7
100
AcDbLine
 10
206.24999999999909
 20
96.499999999999602
 30
0.0
 11
228.74999999999909
 21
96.499999999999602
 31
0.0
  0
LINE
  5
140
100
AcDbEntity
  8
0
  6
CONTINUOUS
 62
               7
100
AcDbLine
 10
206.24999999999909
 20
97.999999999999602
 30
0.0
 11
228.74999999999909
 21
97.999999999999602
 31
0.0
  0
LINE
  5
141
100
AcDbEntity
  8
0
  6
CONTINUOUS
 62
               7
100
AcDbLine
 10
255.24999999999909
 20
89.749999999999602
 30
0.0
 11
266.53125
 21
89.749999999999602
 31
0.0
  0
LINE
  5
142
100
AcDbEntity
  8
0
  6
CONTINUOUS
 62
               7
100
AcDbLine
 10
267.46875000000023
 20
89.749999999999602
 30
0.0
 11
278.74999999999909
 21
89.749999999999602
 31
0.0
  0
LINE
  5
143
100
AcDbEntity
  8
0
  6
CONTINUOUS
 62
               7
100
AcDbLine
 10
206.24999999999909
 20
89.749999999999602
 30
0.0
 11
216.53125
 21
89.749999999999602
 31
0.0
  0
LINE
  5
144
100
AcDbEntity
  8
0
  6
CONTINUOUS
 62
               7
100
AcDbLine
 10
217.46875000000045
 20
89.749999999999602
 30
0.0
 11
228.74999999999909
 21
89.749999999999602
 31
0.0
  0
LINE
  5
145
100
AcDbEntity
  8
0
  6
CONTINUOUS
 62
               7
100
AcDbLine
 10
217.50000000000023
 20
88.249999999999602
 30
0.0
 11
241.50000000000023
 21
88.249999999999602
 31
0.0
  0
LINE
  5
146
100
AcDbEntity
  8
0
  6
CONTINUOUS
 62
               7
100
AcDbLine
 10
242.50000000000023
 20
88.249999999999602
 30
0.0
 11
266.50000000000023
 21
88.249999999999602
 31
0.0
  0
LINE
  5
147
100
AcDbEntity
  8
0
  6
CONTINUOUS
 62
               7
100
AcDbLine
 10
267.50000000000023
 20
88.249999999999602
 30
0.0
 11
291.50000000000023
 21
88.249999999999602
 31
0.0
  0
LINE
  5
148
100
AcDbEntity
  8
0
  6
CONTINUOUS
 62
               7
100
AcDbLine
 10
292.50000000000023
 20
88.249999999999602
 30
0.0
 11
304.24999999999909
 21
88.249999999999602
 31
0.0
  0
LINE
  5
149
100
AcDbEntity
  8
0
  6
CONTINUOUS
 62
               7
100
AcDbLine
 10
255.24999999999909
 20
104.7499999999996
 30
0.0
 11
278.74999999999909
 21
104.75000000000142
 31
0.0
  0
LINE
  5
14A
100
AcDbEntity
  8
0
  6
CONTINUOUS
 62
               7
100
AcDbLine
 10
255.24999999999909
 20
104.7499999999996
 30
0.0
 11
255.24999999999909
 21
97.999999999997783
 31
0.0
  0
LINE
  5
14B
100
AcDbEntity
  8
0
  6
CONTINUOUS
 62
               7
100
AcDbLine
 10
253.74999999999909
 20
104.7499999999996
 30
0.0
 11
253.74999999999932
 21
97.999999999997783
 31
0.0
  0
LINE
  5
14C
100
AcDbEntity
  8
0
  6
CONTINUOUS
 62
               7
100
AcDbLine
 10
206.24999999999909
 20
104.7499999999996
 30
0.0
 11
228.74999999999909
 21
104.75000000000142
 31
0.0
  0
LINE
  5
14D
100
AcDbEntity
  8
0
  6
CONTINUOUS
 62
               7
100
AcDbLine
 10
204.74999999999909
 20
106.2499999999996
 30
0.0
 11
204.74999999999909
 21
88.249999999999602
 31
0.0
  0
LINE
  5
14E
100
AcDbEntity
  8
0
  6
CONTINUOUS
 62
               7
100
AcDbLine
 10
304.24999999999909
 20
88.249999999999602
 30
0.0
 11
304.24999999999909
 21
106.2499999999996
 31
0.0
  0
LINE
  5
14F
100
AcDbEntity
  8
0
  6
CONTINUOUS
 62
               7
100
AcDbLine
 10
302.74999999999909
 20
89.749999999999602
 30
0.0
 11
302.74999999999909
 21
96.499999999997783
 31
0.0
  0
LINE
  5
150
100
AcDbEntity
  8
0
  6
CONTINUOUS
 62
               7
100
AcDbLine
 10
280.24999999999909
 20
104.7499999999996
 30
0.0
 11
280.24999999999909
 21
97.999999999999602
 31
0.0
  0
LINE
  5
151
100
AcDbEntity
  8
0
  6
CONTINUOUS
 62
               7
100
AcDbLine
 10
278.74999999999909
 20
104.7499999999996
 30
0.0
 11
278.74999999999932
 21
97.999999999997783
 31
0.0
  0
LINE
  5
152
100
AcDbEntity
  8
0
  6
CONTINUOUS
 62
               7
100
AcDbLine
 10
230.24999999999909
 20
104.7499999999996
 30
0.0
 11
230.24999999999932
 21
97.999999999999602
 31
0.0
  0
LINE
  5
153
100
AcDbEntity
  8
0
  6
CONTINUOUS
 62
               7
100
AcDbLine
 10
228.74999999999909
 20
104.7499999999996
 30
0.0
 11
228.74999999999909
 21
97.999999999999602
 31
0.0
  0
LINE
  5
154
100
AcDbEntity
  8
0
  6
CONTINUOUS
 62
               7
100
AcDbLine
 10
206.24999999999909
 20
104.7499999999996
 30
0.0
 11
206.24999999999909
 21
97.999999999999602
 31
0.0
  0
LINE
  5
155
100
AcDbEntity
  8
0
  6
CONTINUOUS
 62
               7
100
AcDbLine
 10
280.24999999999909
 20
104.75000000000142
 30
0.0
 11
302.74999999999909
 21
104.7499999999996
 31
0.0
  0
LINE
  5
156
100
AcDbEntity
  8
0
  6
CONTINUOUS
 62
               7
100
AcDbLine
 10
280.24999999999909
 20
97.999999999999602
 30
0.0
 11
302.74999999999932
 21
97.999999999999602
 31
0.0
  0
LINE
  5
157
100
AcDbEntity
  8
0
  6
CONTINUOUS
 62
               7
100
AcDbLine
 10
280.24999999999909
 20
96.499999999997783
 30
0.0
 11
302.74999999999909
 21
96.499999999997783
 31
0.0
  0
LINE
  5
158
100
AcDbEntity
  8
0
  6
CONTINUOUS
 62
               7
100
AcDbLine
 10
280.24999999999909
 20
89.749999999999602
 30
0.0
 11
291.53125
 21
89.749999999999602
 31
0.0
  0
LINE
  5
159
100
AcDbEntity
  8
0
  6
CONTINUOUS
 62
               7
100
AcDbLine
 10
292.46875000000045
 20
89.749999999999602
 30
0.0
 11
302.74999999999909
 21
89.749999999999602
 31
0.0
  0
LINE
  5
15A
100
AcDbEntity
  8
0
  6
CONTINUOUS
 62
               7
100
AcDbLine
 10
230.24999999999909
 20
104.75000000000142
 30
0.0
 11
253.74999999999909
 21
104.7499999999996
 31
0.0
  0
LINE
  5
15B
100
AcDbEntity
  8
0
  6
CONTINUOUS
 62
               7
100
AcDbLine
 10
230.24999999999909
 20
97.999999999999602
 30
0.0
 11
253.74999999999909
 21
97.999999999997783
 31
0.0
  0
LINE
  5
15C
100
AcDbEntity
  8
0
  6
CONTINUOUS
 62
               7
100
AcDbLine
 10
230.24999999999909
 20
96.499999999999602
 30
0.0
 11
253.74999999999909
 21
96.499999999997783
 31
0.0
  0
LINE
  5
15D
100
AcDbEntity
  8
0
  6
CONTINUOUS
 62
               7
100
AcDbLine
 10
230.24999999999909
 20
89.749999999999602
 30
0.0
 11
241.53125
 21
89.749999999999602
 31
0.0
  0
LINE
  5
15E
100
AcDbEntity
  8
0
  6
CONTINUOUS
 62
               7
100
AcDbLine
 10
242.46875000000045
 20
89.749999999999602
 30
0.0
 11
253.74999999999909
 21
89.749999999999602
 31
0.0
  0
LINE
  5
15F
100
AcDbEntity
  8
0
  6
CONTINUOUS
 62
               7
100
AcDbLine
 10
207.24999999999909
 20
88.249999999999602
 30
0.0
 11
207.24999999999909
 21
87.500000000000739
 31
0.0
  0
LINE
  5
160
100
AcDbEntity
  8
0
  6
CONTINUOUS
 62
               7
100
AcDbLine
 10
301.74999999999909
 20
107.25000000000074
 30
0.0
 11
301.74999999999909
 21
106.2499999999996
 31
0.0
  0
LINE
  5
161
100
AcDbEntity
  8
0
  6
CONTINUOUS
 62
               7
100
AcDbLine
 10
292.74999999999932
 20
88.249999999999602
 30
0.0
 11
292.74999999999932
 21
89.749999999999602
 31
0.0
  0
LINE
  5
162
100
AcDbEntity
  8
0
  6
CONTINUOUS
 62
               7
100
AcDbLine
 10
291.24999999999932
 20
88.249999999999602
 30
0.0
 11
291.24999999999932
 21
89.749999999999602
 31
0.0
  0
LINE
  5
163
100
AcDbEntity
  8
0
  6
CONTINUOUS
 62
               7
100
AcDbLine
 10
290.24999999999886
 20
88.249999999999602
 30
0.0
 11
290.24999999999886
 21
89.749999999999602
 31
0.0
  0
LINE
  5
164
100
AcDbEntity
  8
0
  6
CONTINUOUS
 62
               7
100
AcDbLine
 10
293.75000000000023
 20
88.249999999999602
 30
0.0
 11
293.75000000000023
 21
89.749999999999602
 31
0.0
  0
LINE
  5
165
100
AcDbEntity
  8
0
  6
CONTINUOUS
 62
               7
100
AcDbLine
 10
267.74999999999932
 20
88.249999999999602
 30
0.0
 11
267.74999999999932
 21
89.749999999999602
 31
0.0
  0
LINE
  5
166
100
AcDbEntity
  8
0
  6
CONTINUOUS
 62
               7
100
AcDbLine
 10
266.24999999999932
 20
88.249999999999602
 30
0.0
 11
266.24999999999932
 21
89.749999999999602
 31
0.0
  0
LINE
  5
167
100
AcDbEntity
  8
0
  6
CONTINUOUS
 62
               7
100
AcDbLine
 10
265.24999999999886
 20
88.249999999999602
 30
0.0
 11
265.24999999999886
 21
89.749999999999602
 31
0.0
  0
LINE
  5
168
100
AcDbEntity
  8
0
  6
CONTINUOUS
 62
               7
100
AcDbLine
 10
268.75000000000023
 20
88.249999999999602
 30
0.0
 11
268.75000000000023
 21
89.749999999999602
 31
0.0
  0
LINE
  5
169
100
AcDbEntity
  8
0
  6
CONTINUOUS
 62
               7
100
AcDbLine
 10
242.74999999999932
 20
88.249999999999602
 30
0.0
 11
242.74999999999932
 21
89.749999999999602
 31
0.0
  0
LINE
  5
16A
100
AcDbEntity
  8
0
  6
CONTINUOUS
 62
               7
100
AcDbLine
 10
241.24999999999932
 20
88.249999999999602
 30
0.0
 11
241.24999999999932
 21
89.749999999999602
 31
0.0
  0
LINE
  5
16B
100
AcDbEntity
  8
0
  6
CONTINUOUS
 62
               7
100
AcDbLine
 10
240.24999999999886
 20
88.249999999999602
 30
0.0
 11
240.24999999999886
 21
89.749999999999602
 31
0.0
  0
LINE
  5
16C
100
AcDbEntity
  8
0
  6
CONTINUOUS
 62
               7
100
AcDbLine
 10
243.75000000000023
 20
88.249999999999602
 30
0.0
 11
243.75000000000023
 21
89.749999999999602
 31
0.0
  0
LINE
  5
16D
100
AcDbEntity
  8
0
  6
CONTINUOUS
 62
               7
100
AcDbLine
 10
217.74999999999932
 20
88.249999999999602
 30
0.0
 11
217.74999999999932
 21
89.749999999999602
 31
0.0
  0
LINE
  5
16E
100
AcDbEntity
  8
0
  6
CONTINUOUS
 62
               7
100
AcDbLine
 10
216.24999999999932
 20
88.249999999999602
 30
0.0
 11
216.24999999999932
 21
89.749999999999602
 31
0.0
  0
LINE
  5
16F
100
AcDbEntity
  8
0
  6
CONTINUOUS
 62
               7
100
AcDbLine
 10
215.24999999999886
 20
88.249999999999602
 30
0.0
 11
215.24999999999886
 21
89.749999999999602
 31
0.0
  0
LINE
  5
170
100
AcDbEntity
  8
0
  6
CONTINUOUS
 62
               7
100
AcDbLine
 10
218.75000000000023
 20
88.249999999999602
 30
0.0
 11
218.75000000000023
 21
89.749999999999602
 31
0.0
  0
LINE
  5
171
100
AcDbEntity
  8
0
  6
CONTINUOUS
 62
               7
100
AcDbLine
 10
280.24999999999909
 20
96.499999999997783
 30
0.0
 11
280.24999999999909
 21
89.749999999999602
 31
0.0
  0
LINE
  5
172
100
AcDbEntity
  8
0
  6
CONTINUOUS
 62
               7
100
AcDbLine
 10
278.74999999999932
 20
96.499999999997783
 30
0.0
 11
278.74999999999909
 21
89.749999999999602
 31
0.0
  0
LINE
  5
173
100
AcDbEntity
  8
0
  6
CONTINUOUS
 62
               7
100
AcDbLine
 10
255.24999999999909
 20
96.499999999997783
 30
0.0
 11
255.24999999999909
 21
89.749999999999602
 31
0.0
  0
LINE
  5
174
100
AcDbEntity
  8
0
  6
CONTINUOUS
 62
               7
100
AcDbLine
 10
253.74999999999932
 20
96.499999999997783
 30
0.0
 11
253.74999999999909
 21
89.749999999999602
 31
0.0
  0
LINE
  5
175
100
AcDbEntity
  8
0
  6
CONTINUOUS
 62
               7
100
AcDbLine
 10
230.24999999999932
 20
96.499999999999602
 30
0.0
 11
230.24999999999909
 21
89.749999999999602
 31
0.0
  0
LINE
  5
176
100
AcDbEntity
  8
0
  6
CONTINUOUS
 62
               7
100
AcDbLine
 10
228.74999999999909
 20
96.499999999999602
 30
0.0
 11
228.74999999999909
 21
89.749999999999602
 31
0.0
  0
LINE
  5
177
100
AcDbEntity
  8
0
  6
CONTINUOUS
 62
               7
100
AcDbLine
 10
206.24999999999909
 20
96.499999999999602
 30
0.0
 11
206.24999999999909
 21
89.749999999999602
 31
0.0
  0
LINE
  5
178
100
AcDbEntity
  8
0
  6
CONTINUOUS
 62
               7
100
AcDbLine
 10
302.74999999999909
 20
97.999999999997783
 30
0.0
 11
302.74999999999909
 21
104.7499999999996
 31
0.0
  0
LINE
  5
179
100
AcDbEntity
  8
0
  6
CONTINUOUS
 62
               7
100
AcDbLine
 10
303.44999999999914
 20
87.500000000000739
 30
0.0
 11
303.44999999999914
 21
88.249999999999602
 31
0.0
  0
LINE
  5
17A
100
AcDbEntity
  8
0
  6
CONTINUOUS
 62
               7
100
AcDbLine
 10
305.49999999999955
 20
93.749999999999602
 30
0.0
 11
304.24999999999909
 21
93.749999999999602
 31
0.0
  0
LINE
  5
17B
100
AcDbEntity
  8
0
  6
CONTINUOUS
 62
               7
100
AcDbLine
 10
292.50000000000023
 20
89.500000000000739
 30
0.0
 11
292.50000000000023
 21
87.500000000000739
 31
0.0
  0
LINE
  5
17C
100
AcDbEntity
  8
0
  6
CONTINUOUS
 62
               7
100
AcDbLine
 10
291.50000000000023
 20
89.500000000000512
 30
0.0
 11
291.50000000000023
 21
87.500000000000739
 31
0.0
  0
LINE
  5
17D
100
AcDbEntity
  8
0
  6
CONTINUOUS
 62
               7
100
AcDbLine
 10
292.50000000000023
 20
89.500000000000739
 30
0.0
 11
292.00000000000023
 21
93.500000000000739
 31
0.0
  0
LINE
  5
17E
100
AcDbEntity
  8
0
  6
CONTINUOUS
 62
               7
100
AcDbLine
 10
291.50000000000023
 20
89.500000000000739
 30
0.0
 11
292.00000000000023
 21
93.500000000000739
 31
0.0
  0
LINE
  5
17F
100
AcDbEntity
  8
0
  6
CONTINUOUS
 62
               7
100
AcDbLine
 10
267.50000000000023
 20
89.500000000000512
 30
0.0
 11
267.50000000000023
 21
87.500000000000739
 31
0.0
  0
LINE
  5
180
100
AcDbEntity
  8
0
  6
CONTINUOUS
 62
               7
100
AcDbLine
 10
266.50000000000023
 20
89.500000000000512
 30
0.0
 11
266.50000000000023
 21
87.500000000000739
 31
0.0
  0
LINE
  5
181
100
AcDbEntity
  8
0
  6
CONTINUOUS
 62
               7
100
AcDbLine
 10
267.50000000000023
 20
89.500000000000512
 30
0.0
 11
267.00000000000023
 21
93.500000000000512
 31
0.0
  0
LINE
  5
182
100
AcDbEntity
  8
0
  6
CONTINUOUS
 62
               7
100
AcDbLine
 10
266.50000000000023
 20
89.500000000000512
 30
0.0
 11
267.00000000000023
 21
93.500000000000512
 31
0.0
  0
LINE
  5
183
100
AcDbEntity
  8
0
  6
CONTINUOUS
 62
               7
100
AcDbLine
 10
242.50000000000023
 20
89.500000000000739
 30
0.0
 11
242.50000000000023
 21
87.500000000000739
 31
0.0
  0
LINE
  5
184
100
AcDbEntity
  8
0
  6
CONTINUOUS
 62
               7
100
AcDbLine
 10
241.50000000000023
 20
89.500000000000512
 30
0.0
 11
241.50000000000023
 21
87.500000000000739
 31
0.0
  0
LINE
  5
185
100
AcDbEntity
  8
0
  6
CONTINUOUS
 62
               7
100
AcDbLine
 10
242.50000000000023
 20
89.500000000000739
 30
0.0
 11
242.00000000000023
 21
93.500000000000739
 31
0.0
  0
LINE
  5
186
100
AcDbEntity
  8
0
  6
CONTINUOUS
 62
               7
100
AcDbLine
 10
241.50000000000023
 20
89.500000000000739
 30
0.0
 11
242.00000000000023
 21
93.500000000000739
 31
0.0
  0
LINE
  5
187
100
AcDbEntity
  8
0
  6
CONTINUOUS
 62
               7
100
AcDbLine
 10
217.50000000000023
 20
89.500000000000739
 30
0.0
 11
217.50000000000023
 21
87.500000000000739
 31
0.0
  0
LINE
  5
188
100
AcDbEntity
  8
0
  6
CONTINUOUS
 62
               7
100
AcDbLine
 10
216.50000000000023
 20
89.500000000000512
 30
0.0
 11
216.50000000000023
 21
87.500000000000739
 31
0.0
  0
LINE
  5
189
100
AcDbEntity
  8
0
  6
CONTINUOUS
 62
               7
100
AcDbLine
 10
217.50000000000023
 20
89.500000000000739
 30
0.0
 11
217.00000000000023
 21
93.500000000000739
 31
0.0
  0
LINE
  5
18A
100
AcDbEntity
  8
0
  6
CONTINUOUS
 62
               7
100
AcDbLine
 10
216.50000000000023
 20
89.500000000000739
 30
0.0
 11
217.00000000000023
 21
93.500000000000739
 31
0.0
  0
LINE
  5
18B
100
AcDbEntity
  8
0
  6
CONTINUOUS
 62
               7
100
AcDbLine
 10
202.24999999999886
 20
107.25000000000119
 30
0.0
 11
202.24999999999886
 21
106.24999999999778
 31
0.0
  0
LINE
  5
18C
100
AcDbEntity
  8
0
  6
CONTINUOUS
 62
               7
100
AcDbLine
 10
214.74999999999886
 20
107.25000000000119
 30
0.0
 11
214.74999999999886
 21
106.24999999999778
 31
0.0
  0
LINE
  5
18D
100
AcDbEntity
  8
0
  6
CONTINUOUS
 62
               7
100
AcDbLine
 10
193.00000000000045
 20
88.249999999999602
 30
0.0
 11
216.50000000000023
 21
88.249999999999602
 31
0.0
  0
LINE
  5
18E
100
AcDbEntity
  8
0
  6
CONTINUOUS
 62
               7
100
AcDbLine
 10
4.4999999999995453
 20
88.249999999997783
 30
0.0
 11
17.500000000000455
 21
88.249999999997783
 31
0.0
  0
LINE
  5
18F
100
AcDbEntity
  8
0
  6
CONTINUOUS
 62
               7
100
AcDbLine
 10
93.500000000000455
 20
88.249999999997783
 30
0.0
 11
117.00000000000045
 21
88.249999999999602
 31
0.0
  0
LINE
  5
190
100
AcDbEntity
  8
0
  6
CONTINUOUS
 62
               7
100
AcDbLine
 10
305.49999999999955
 20
106.24999999999983
 30
0.0
 11
5.7499999999990905
 21
106.24999999999778
 31
0.0
  0
LINE
  5
191
100
AcDbEntity
  8
0
  6
CONTINUOUS
 62
               7
100
AcDbLine
 10
334.58578643762667
 20
81.58578643762786
 30
0.0
 11
337.41421356237288
 21
84.414213562374073
 31
0.0
  0
LINE
  5
192
100
AcDbEntity
  8
0
  6
CONTINUOUS
 62
               7
100
AcDbLine
 10
337.41421356237288
 20
81.58578643762786
 30
0.0
 11
334.58578643762667
 21
84.414213562374073
 31
0.0
  0
LINE
  5
193
100
AcDbEntity
  8
0
  6
CONTINUOUS
 62
               7
100
AcDbLine
 10
-17.414213562373561
 20
81.585786437627974
 30
0.0
 11
-14.585786437627348
 21
84.414213562374186
 31
0.0
  0
LINE
  5
194
100
AcDbEntity
  8
0
  6
CONTINUOUS
 62
               7
100
AcDbLine
 10
-14.585786437627348
 20
81.585786437627974
 30
0.0
 11
-17.414213562373561
 21
84.414213562374186
 31
0.0
  0
LINE
  5
195
100
AcDbEntity
  8
0
  6
CONTINUOUS
 62
               7
100
AcDbLine
 10
351.99999999999955
 20
95.000000000000057
 30
0.0
 11
351.99999999999955
 21
2.0
 31
0.0
  0
LINE
  5
196
100
AcDbEntity
  8
0
  6
CONTINUOUS
 62
               7
100
AcDbLine
 10
353.99999999999955
 20
95.000000000000057
 30
0.0
 11
353.99999999999955
 21
0.0
 31
0.0
  0
LINE
  5
197
100
AcDbEntity
  8
0
  6
CONTINUOUS
 62
               7
100
AcDbLine
 10
-52.000000000000455
 20
95.000000000000057
 30
0.0
 11
-52.000000000000455
 21
2.0
 31
0.0
  0
LINE
  5
198
100
AcDbEntity
  8
0
  6
CONTINUOUS
 62
               7
100
AcDbLine
 10
-54.000000000000455
 20
95.000000000000057
 30
0.0
 11
-54.000000000000455
 21
0.0
 31
0.0
  0
ENDBLK
  5
199
100
AcDbEntity
  8
0
100
AcDbBlockEnd
  0
BLOCK
  5
19A
100
AcDbEntity
  8
0
100
AcDbBlockBegin
  2
MS_2
 70
               0
 10
0.0
 20
0.0
 30
0.0
  3
MS_2
  1

  0
LINE
  5
19B
100
AcDbEntity
  8
0
  6
CONTINUOUS
 62
               7
100
AcDbLine
 10
-35.000000000000057
 20
0.0
 30
0.0
 11
35.0
 21
0.0
 31
0.0
  0
LINE
  5
19C
100
AcDbEntity
  8
0
  6
CONTINUOUS
 62
               7
100
AcDbLine
 10
35.0
 20
0.0
 30
0.0
 11
35.0
 21
10.0
 31
0.0
  0
LINE
  5
19D
100
AcDbEntity
  8
0
  6
CONTINUOUS
 62
               7
100
AcDbLine
 10
-35.000000000000057
 20
0.0
 30
0.0
 11
-35.000000000000057
 21
10.0
 31
0.0
  0
LINE
  5
19E
100
AcDbEntity
  8
0
  6
CONTINUOUS
 62
               7
100
AcDbLine
 10
54.700000000001864
 20
73.499999999999773
 30
0.0
 11
54.700000000001864
 21
68.499999999999773
 31
0.0
  0
LINE
  5
19F
100
AcDbEntity
  8
0
  6
CONTINUOUS
 62
               7
100
AcDbLine
 10
64.800000000002001
 20
72.999999999999773
 30
0.0
 11
64.800000000002001
 21
68.999999999999773
 31
0.0
  0
LINE
  5
1A0
100
AcDbEntity
  8
0
  6
CONTINUOUS
 62
               7
100
AcDbLine
 10
64.300000000002001
 20
68.499999999999773
 30
0.0
 11
58.800000000002001
 21
68.499999999999773
 31
0.0
  0
LINE
  5
1A1
100
AcDbEntity
  8
0
  6
CONTINUOUS
 62
               7
100
AcDbLine
 10
58.800000000002001
 20
68.499999999999773
 30
0.0
 11
58.800000000002001
 21
73.499999999999773
 31
0.0
  0
LINE
  5
1A2
100
AcDbEntity
  8
0
  6
CONTINUOUS
 62
               7
100
AcDbLine
 10
58.800000000002001
 20
73.499999999999773
 30
0.0
 11
64.300000000002001
 21
73.499999999999773
 31
0.0
  0
LINE
  5
1A3
100
AcDbEntity
  8
0
  6
CONTINUOUS
 62
               7
100
AcDbLine
 10
59.300000000002001
 20
68.499999999999773
 30
0.0
 11
59.300000000002001
 21
73.499999999999773
 31
0.0
  0
LINE
  5
1A4
100
AcDbEntity
  8
0
  6
CONTINUOUS
 62
               7
100
AcDbLine
 10
58.800000000002001
 20
72.999999999999773
 30
0.0
 11
54.700000000001864
 21
72.999999999999773
 31
0.0
  0
LINE
  5
1A5
100
AcDbEntity
  8
0
  6
CONTINUOUS
 62
               7
100
AcDbLine
 10
58.800000000002001
 20
68.999999999999773
 30
0.0
 11
54.700000000001864
 21
68.999999999999773
 31
0.0
  0
LINE
  5
1A6
100
AcDbEntity
  8
0
  6
CONTINUOUS
 62
               7
100
AcDbLine
 10
64.300000000002001
 20
68.499999999999773
 30
0.0
 11
64.800000000002001
 21
68.999999999999773
 31
0.0
  0
LINE
  5
1A7
100
AcDbEntity
  8
0
  6
CONTINUOUS
 62
               7
100
AcDbLine
 10
64.800000000002001
 20
72.999999999999773
 30
0.0
 11
64.300000000002001
 21
73.499999999999773
 31
0.0
  0
LINE
  5
1A8
100
AcDbEntity
  8
0
  6
CONTINUOUS
 62
               7
100
AcDbLine
 10
64.300000000002001
 20
73.499999999999773
 30
0.0
 11
64.300000000002001
 21
68.499999999999773
 31
0.0
  0
LINE
  5
1A9
100
AcDbEntity
  8
0
  6
CONTINUOUS
 62
               7
100
AcDbLine
 10
55.587060689499936
 20
62.446851990108826
 30
0.0
 11
55.587060689499936
 21
62.049999999999727
 31
0.0
  0
LINE
  5
1AA
100
AcDbEntity
  8
0
  6
CONTINUOUS
 62
               7
100
AcDbLine
 10
55.988365138582026
 20
62.446851990108826
 30
0.0
 11
55.587060689499936
 21
62.446851990108826
 31
0.0
  0
LINE
  5
1AB
100
AcDbEntity
  8
0
  6
CONTINUOUS
 62
               7
100
AcDbLine
 10
57.300000000002001
 20
62.049999999999727
 30
0.0
 11
55.988365138582026
 21
62.446851990108826
 31
0.0
  0
LINE
  5
1AC
100
AcDbEntity
  8
0
  6
CONTINUOUS
 62
               7
100
AcDbLine
 10
57.300000000002001
 20
62.049999999999727
 30
0.0
 11
57.300000000002001
 21
52.449999999999591
 31
0.0
  0
LINE
  5
1AD
100
AcDbEntity
  8
0
  6
CONTINUOUS
 62
               7
100
AcDbLine
 10
43.5
 20
117.99999999999977
 30
0.0
 11
-21.730034291992638
 21
117.99999999999977
 31
0.0
  0
ARC
  5
1AE
100
AcDbEntity
  8
0
  6
CONTINUOUS
 62
               7
100
AcDbCircle
 10
23.500000000002444
 20
51.500000000000909
 30
0.0
 40
3.0
100
AcDbArc
 50
284.0183153291913
 51
107.17883326594871
  0
LINE
  5
1AF
100
AcDbEntity
  8
0
  6
CONTINUOUS
 62
               7
100
AcDbLine
 10
-57.999999999998806
 20
77.500000000000909
 30
0.0
 11
-56.999999999999091
 21
77.500000000000909
 31
0.0
  0
LINE
  5
1B0
100
AcDbEntity
  8
0
  6
CONTINUOUS
 62
               7
100
AcDbLine
 10
-57.999999999998806
 20
89.499999999992383
 30
0.0
 11
-56.999999999998806
 21
89.499999999992383
 31
0.0
  0
LINE
  5
1B1
100
AcDbEntity
  8
0
  6
CONTINUOUS
 62
               7
100
AcDbLine
 10
-57.999999999998806
 20
89.499999999992383
 30
0.0
 11
-57.999999999998806
 21
77.500000000000909
 31
0.0
  0
CIRCLE
  5
1B2
100
AcDbEntity
  8
0
  6
CONTINUOUS
 62
               7
100
AcDbCircle
 10
0.0000000000004547
 20
80.000000000000568
 30
0.0
 40
2.5
  0
LINE
  5
1B3
100
AcDbEntity
  8
0
  6
CONTINUOUS
 62
               2
100
AcDbLine
 10
-12.699999999999534
 20
59.999999999999773
 30
0.0
 11
12.700000000000443
 21
59.999999999999773
 31
0.0
  0
LINE
  5
1B4
100
AcDbEntity
  8
0
  6
CONTINUOUS
 62
               2
100
AcDbLine
 10
-12.699999999999534
 20
69.999999999999773
 30
0.0
 11
12.700000000000443
 21
69.999999999999773
 31
0.0
  0
LINE
  5
1B5
100
AcDbEntity
  8
0
  6
CONTINUOUS
 62
               2
100
AcDbLine
 10
-12.540320656405697
 20
80.000000000000568
 30
0.0
 11
12.799999999999898
 21
80.000000000000568
 31
0.0
  0
LINE
  5
1B6
100
AcDbEntity
  8
0
  6
CONTINUOUS
 62
               2
100
AcDbLine
 10
0.0000000000004547
 20
52.375657047723962
 30
0.0
 11
0.0000000000004547
 21
98.088551449388888
 31
0.0
  0
LINE
  5
1B7
100
AcDbEntity
  8
0
  6
CONTINUOUS
 62
               7
100
AcDbLine
 10
52.500000025653378
 20
45.999999999999545
 30
0.0
 11
52.500000025653378
 21
41.999999999999545
 31
0.0
  0
LINE
  5
1B8
100
AcDbEntity
  8
0
  6
CONTINUOUS
 62
               7
100
AcDbLine
 10
53.500000000001819
 20
41.999999999999545
 30
0.0
 11
53.500000000001819
 21
45.999999999999545
 31
0.0
  0
LINE
  5
1B9
100
AcDbEntity
  8
0
  6
CONTINUOUS
 62
               7
100
AcDbLine
 10
24.949584831471384
 20
45.999999999999545
 30
0.0
 11
53.500000000001819
 21
45.999999999999545
 31
0.0
  0
LINE
  5
1BA
100
AcDbEntity
  8
0
  6
CONTINUOUS
 62
               7
100
AcDbLine
 10
26.066297627974564
 20
41.999999999999545
 30
0.0
 11
53.500000000001819
 21
41.999999999999545
 31
0.0
  0
LINE
  5
1BB
100
AcDbEntity
  8
0
  6
CONTINUOUS
 62
               7
100
AcDbLine
 10
53.5
 20
76.499999999999773
 30
0.0
 11
53.5
 21
107.99999999999977
 31
0.0
  0
LINE
  5
1BC
100
AcDbEntity
  8
0
  6
CONTINUOUS
 62
               7
100
AcDbLine
 10
-23.646551576134925
 20
50.667388998914134
 30
0.0
 11
-56.17559151818034
 21
74.301765380201573
 31
0.0
  0
LINE
  5
1BD
100
AcDbEntity
  8
0
  6
CONTINUOUS
 62
               7
100
AcDbLine
 10
52.500000000001819
 20
46.499999999999773
 30
0.0
 11
24.80999573190843
 21
46.499999999999773
 31
0.0
  0
ARC
  5
1BE
100
AcDbEntity
  8
0
  6
CONTINUOUS
 62
               7
100
AcDbCircle
 10
52.500000000001819
 20
47.5
 30
0.0
 40
1.0
100
AcDbArc
 50
270.0
 51
0.0
  0
LINE
  5
1BF
100
AcDbEntity
  8
0
  6
CONTINUOUS
 62
               7
100
AcDbLine
 10
-56.999999999998238
 20
113.99794666358389
 30
0.0
 11
-56.999999999999147
 21
75.919784101471805
 31
0.0
  0
ARC
  5
1C0
100
AcDbEntity
  8
0
  6
CONTINUOUS
 62
               7
100
AcDbCircle
 10
-55.999999999998238
 20
113.99794666358389
 30
0.0
 40
1.0
100
AcDbArc
 50
94.999999999999815
 51
180.0
  0
ARC
  5
1C1
100
AcDbEntity
  8
0
  6
CONTINUOUS
 62
               7
100
AcDbCircle
 10
-54.999999999999147
 20
75.919784101471919
 30
0.0
 40
2.0
100
AcDbArc
 50
180.0
 51
233.99925588951618
  0
LINE
  5
1C2
100
AcDbEntity
  8
0
  6
CONTINUOUS
 62
               7
100
AcDbLine
 10
53.500000000001819
 20
76.499999999999773
 30
0.0
 11
53.500000000001819
 21
47.499999999999773
 31
0.0
  0
LINE
  5
1C3
100
AcDbEntity
  8
0
  6
CONTINUOUS
 62
               7
100
AcDbLine
 10
-66.999999999998238
 20
88.25
 30
0.0
 11
-57.999999999998806
 21
88.25
 31
0.0
  0
LINE
  5
1C4
100
AcDbEntity
  8
0
  6
CONTINUOUS
 62
               7
100
AcDbLine
 10
-66.999999999998238
 20
89.75
 30
0.0
 11
-66.999999999998238
 21
88.25
 31
0.0
  0
LINE
  5
1C5
100
AcDbEntity
  8
0
  6
CONTINUOUS
 62
               7
100
AcDbLine
 10
-66.999999999998238
 20
89.75
 30
0.0
 11
-66.999999999998238
 21
106.25
 31
0.0
  0
LINE
  5
1C6
100
AcDbEntity
  8
0
  6
CONTINUOUS
 62
               7
100
AcDbLine
 10
-60.499999999998408
 20
106.24999999999977
 30
0.0
 11
-66.999999999998238
 21
106.25
 31
0.0
  0
ARC
  5
1C7
100
AcDbEntity
  8
0
  6
CONTINUOUS
 62
               7
100
AcDbCircle
 10
-0.0000000000000568
 20
79.999999999999773
 30
0.0
 40
15.0
100
AcDbArc
 50
8.5992520369641419
 51
171.4007479630358
  0
ARC
  5
1C8
100
AcDbEntity
  8
0
  6
CONTINUOUS
 62
               7
100
AcDbCircle
 10
0.0000000000004547
 20
69.999999999999773
 30
0.0
 40
2.6000000000000001
100
AcDbArc
 50
146.81452223974901
 51
33.185477760251011
  0
CIRCLE
  5
1C9
100
AcDbEntity
  8
0
  6
CONTINUOUS
 62
               7
100
AcDbCircle
 10
0.0000000000004547
 20
59.999999999999773
 30
0.0
 40
2.6000000000000001
  0
ARC
  5
1CA
100
AcDbEntity
  8
0
  6
CONTINUOUS
 62
               7
100
AcDbCircle
 10
-0.0000000000000568
 20
80.000000000000568
 30
0.0
 40
12.800000000000001
100
AcDbArc
 50
311.56081153224773
 51
348.4391884677546
  0
ARC
  5
1CB
100
AcDbEntity
  8
0
  6
CONTINUOUS
 62
               7
100
AcDbCircle
 10
-0.0000000000000568
 20
37.260445231809399
 30
0.0
 40
34.23189466673896
100
AcDbArc
 50
75.637010426652594
 51
104.36298957334741
  0
ARC
  5
1CC
100
AcDbEntity
  8
0
  6
CONTINUOUS
 62
               7
100
AcDbCircle
 10
-0.0000000000000568
 20
80.000000000000568
 30
0.0
 40
12.800000000000001
100
AcDbArc
 50
71.560811532243903
 51
108.43918846775611
  0
ARC
  5
1CD
100
AcDbEntity
  8
0
  6
CONTINUOUS
 62
               7
100
AcDbCircle
 10
37.013540175689513
 20
101.3697773840961
 30
0.0
 40
34.23189466673896
100
AcDbArc
 50
195.63701042665451
 51
224.36298957334839
  0
ARC
  5
1CE
100
AcDbEntity
  8
0
  6
CONTINUOUS
 62
               7
100
AcDbCircle
 10
-37.013540175689855
 20
101.36977738409576
 30
0.0
 40
34.23189466673896
100
AcDbArc
 50
315.63701042665252
 51
344.36298957334884
  0
ARC
  5
1CF
100
AcDbEntity
  8
0
  6
CONTINUOUS
 62
               7
100
AcDbCircle
 10
-0.0000000000000568
 20
80.000000000000568
 30
0.0
 40
12.800000000000001
100
AcDbArc
 50
191.56081153225031
 51
228.4391884677523
  0
CIRCLE
  5
1D0
100
AcDbEntity
  8
0
  6
CONTINUOUS
 62
               7
100
AcDbCircle
 10
-51.999999999995623
 20
104.50000000000091
 30
0.0
 40
3.0
  0
LINE
  5
1D1
100
AcDbEntity
  8
0
  6
CONTINUOUS
 62
               7
100
AcDbLine
 10
-57.999999999998522
 20
108.74047579392834
 30
0.0
 11
-57.999999999998522
 21
96.040475793928181
 31
0.0
  0
LINE
  5
1D2
100
AcDbEntity
  8
0
  6
CONTINUOUS
 62
               7
100
AcDbLine
 10
-60.499999999998408
 20
106.84047579392836
 30
0.0
 11
-60.499999999998408
 21
97.940475793928272
 31
0.0
  0
LINE
  5
1D3
100
AcDbEntity
  8
0
  6
CONTINUOUS
 62
               7
100
AcDbLine
 10
-57.999999999998522
 20
108.74047579392834
 30
0.0
 11
-56.999999999998408
 21
108.74047579392834
 31
0.0
  0
LINE
  5
1D4
100
AcDbEntity
  8
0
  6
CONTINUOUS
 62
               7
100
AcDbLine
 10
-57.999999999998522
 20
96.040475793928181
 30
0.0
 11
-56.999999999998408
 21
96.040475793928181
 31
0.0
  0
LINE
  5
1D5
100
AcDbEntity
  8
0
  6
CONTINUOUS
 62
               7
100
AcDbLine
 10
-60.499999999998408
 20
106.84047579392836
 30
0.0
 11
-57.999999999998522
 21
106.84047579392836
 31
0.0
  0
LINE
  5
1D6
100
AcDbEntity
  8
0
  6
CONTINUOUS
 62
               7
100
AcDbLine
 10
-60.499999999998408
 20
97.940475793928272
 30
0.0
 11
-57.999999999998522
 21
97.940475793928272
 31
0.0
  0
LINE
  5
1D7
100
AcDbEntity
  8
0
  6
CONTINUOUS
 62
               7
100
AcDbLine
 10
-58.299999999998875
 20
86.100000000000819
 30
0.0
 11
-57.999999999998636
 21
86.100000000000819
 31
0.0
  0
LINE
  5
1D8
100
AcDbEntity
  8
0
  6
CONTINUOUS
 62
               7
100
AcDbLine
 10
-57.999999999998636
 20
79.900000000001
 30
0.0
 11
-58.299999999998875
 21
79.900000000000091
 31
0.0
  0
LINE
  5
1D9
100
AcDbEntity
  8
0
  6
CONTINUOUS
 62
               7
100
AcDbLine
 10
23.43285121355342
 20
51.432851213551885
 30
0.0
 11
24.914213562375551
 21
52.914213562374016
 31
0.0
  0
LINE
  5
1DA
100
AcDbEntity
  8
0
  6
CONTINUOUS
 62
               7
100
AcDbLine
 10
24.914213562375551
 20
50.085786437627803
 30
0.0
 11
23.380837034038905
 21
51.619162965964449
 31
0.0
  0
LINE
  5
1DB
100
AcDbEntity
  8
0
  6
CONTINUOUS
 62
               7
100
AcDbLine
 10
-53.41421356236873
 20
103.0857864376278
 30
0.0
 11
-50.585786437622517
 21
105.91421356237402
 31
0.0
  0
LINE
  5
1DC
100
AcDbEntity
  8
0
  6
CONTINUOUS
 62
               7
100
AcDbLine
 10
-50.585786437622517
 20
103.0857864376278
 30
0.0
 11
-53.41421356236873
 21
105.91421356237402
 31
0.0
  0
LINE
  5
1DD
100
AcDbEntity
  8
0
  6
CONTINUOUS
 62
               7
100
AcDbLine
 10
54.700000000001864
 20
73.499999999999773
 30
0.0
 11
53.500000000001819
 21
73.499999999999773
 31
0.0
  0
LINE
  5
1DE
100
AcDbEntity
  8
0
  6
CONTINUOUS
 62
               7
100
AcDbLine
 10
54.700000000001864
 20
68.499999999999773
 30
0.0
 11
53.500000000001819
 21
68.499999999999773
 31
0.0
  0
LINE
  5
1DF
100
AcDbEntity
  8
0
  6
CONTINUOUS
 62
               7
100
AcDbLine
 10
57.300000000002001
 20
52.449999999999591
 30
0.0
 11
53.500000000001819
 21
52.449999999999591
 31
0.0
  0
LINE
  5
1E0
100
AcDbEntity
  8
0
  6
CONTINUOUS
 62
               7
100
AcDbLine
 10
53.500000000001819
 20
62.0499999999995
 30
0.0
 11
57.300000000002001
 21
62.049999999999727
 31
0.0
  0
LINE
  5
1E1
100
AcDbEntity
  8
0
  6
CONTINUOUS
 62
               7
100
AcDbLine
 10
35.0
 20
10.0
 30
0.0
 11
14.831374995893782
 21
82.242836536882123
 31
0.0
  0
LINE
  5
1E2
100
AcDbEntity
  8
0
  6
CONTINUOUS
 62
               7
100
AcDbLine
 10
-35.000000000000057
 20
10.0
 30
0.0
 11
-14.831374995893952
 21
82.242836536882123
 31
0.0
  0
LINE
  5
1E3
100
AcDbEntity
  8
0
  6
CONTINUOUS
 62
               7
100
AcDbLine
 10
-56.087155742745438
 20
114.99414136167604
 30
0.0
 11
-21.730034291992638
 21
117.99999999999977
 31
0.0
  0
ARC
  5
1E4
100
AcDbEntity
  8
0
  6
CONTINUOUS
 62
               7
100
AcDbCircle
 10
43.500000000000909
 20
107.99999999999977
 30
0.0
 40
10.0
100
AcDbArc
 50
0.0
 51
90.0
  0
LINE
  5
1E5
100
AcDbEntity
  8
0
  6
CONTINUOUS
 62
               2
100
AcDbLine
 10
0.0
 20
5.2863412555309992
 30
0.0
 11
0.0
 21
-4.7136587444690008
 31
0.0
  0
ENDBLK
  5
1E6
100
AcDbEntity
  8
0
100
AcDbBlockEnd
  0
BLOCK
  5
1E7
100
AcDbEntity
  8
0
100
AcDbBlockBegin
  2
MS_3
 70
               0
 10
0.0
 20
0.0
 30
0.0
  3
MS_3
  1

  0
LINE
  5
1E9
100
AcDbEntity
  8
0
  6
CENTER
 62
               2
100
AcDbLine
 10
292.0
 20
0.0
 30
0.0
 11
308.0
 21
0.0
 31
0.0
  0
LINE
  5
1EA
100
AcDbEntity
  8
0
  6
CENTER
 62
               2
100
AcDbLine
 10
300.0
 20
8.0
 30
0.0
 11
300.0
 21
-8.0
 31
0.0
  0
LINE
  5
1EB
100
AcDbEntity
  8
0
  6
CENTER
 62
               2
100
AcDbLine
 10
232.0
 20
0.0
 30
0.0
 11
248.0
 21
0.0
 31
0.0
  0
LINE
  5
1EC
100
AcDbEntity
  8
0
  6
CENTER
 62
               2
100
AcDbLine
 10
240.0
 20
8.0
 30
0.0
 11
240.0
 21
-8.0
 31
0.0
  0
LINE
  5
1ED
100
AcDbEntity
  8
0
  6
CENTER
 62
               2
100
AcDbLine
 10
172.0
 20
0.0
 30
0.0
 11
188.0
 21
0.0
 31
0.0
  0
LINE
  5
1EE
100
AcDbEntity
  8
0
  6
CENTER
 62
               2
100
AcDbLine
 10
180.0
 20
8.0
 30
0.0
 11
180.0
 21
-8.0
 31
0.0
  0
LINE
  5
1EF
100
AcDbEntity
  8
0
  6
CENTER
 62
               2
100
AcDbLine
 10
112.0
 20
0.0
 30
0.0
 11
128.0
 21
0.0
 31
0.0
  0
LINE
  5
1F0
100
AcDbEntity
  8
0
  6
CENTER
 62
               2
100
AcDbLine
 10
120.0
 20
8.0
 30
0.0
 11
120.0
 21
-8.0
 31
0.0
  0
LINE
  5
1F1
100
AcDbEntity
  8
0
  6
CENTER
 62
               2
100
AcDbLine
 10
52.0
 20
0.0
 30
0.0
 11
68.0
 21
0.0
 31
0.0
  0
LINE
  5
1F2
100
AcDbEntity
  8
0
  6
CENTER
 62
               2
100
AcDbLine
 10
60.0
 20
8.0
 30
0.0
 11
60.0
 21
-8.0
 31
0.0
  0
LINE
  5
1F3
100
AcDbEntity
  8
0
  6
CONTINUOUS
 62
               7
100
AcDbLine
 10
-62.005565669036514
 20
12.299999999999955
 30
0.0
 11
-62.005565669036514
 21
-12.299999999999955
 31
0.0
  0
ARC
  5
1F4
100
AcDbEntity
  8
0
  6
CONTINUOUS
 62
               7
100
AcDbCircle
 10
31.51812266873435
 20
0.1996052860326927
 30
0.0
 40
100.44127806377109
100
AcDbArc
 50
173.0444056245945
 51
187.18332453258009
  0
LINE
  5
1F5
100
AcDbEntity
  8
0
  6
CONTINUOUS
 62
               7
100
AcDbLine
 10
362.00374803624618
 20
12.299999999999955
 30
0.0
 11
362.00374803624618
 21
-12.300000000000182
 31
0.0
  0
ARC
  5
1F6
100
AcDbEntity
  8
0
  6
CONTINUOUS
 62
               7
100
AcDbCircle
 10
268.48005969847532
 20
0.1996052860326927
 30
0.0
 40
100.44127806377109
100
AcDbArc
 50
352.81667546741988
 51
6.9555943754055081
  0
LINE
  5
1F7
100
AcDbEntity
  8
0
  6
CONTINUOUS
 62
               7
100
AcDbLine
 10
351.99818236721012
 20
30.0
 30
0.0
 11
351.99818236721012
 21
-30.0
 31
0.0
  0
LINE
  5
1F8
100
AcDbEntity
  8
0
  6
CONTINUOUS
 62
               7
100
AcDbLine
 10
353.99818236721012
 20
30.0
 30
0.0
 11
353.99818236721012
 21
-30.0
 31
0.0
  0
LINE
  5
1F9
100
AcDbEntity
  8
0
  6
CONTINUOUS
 62
               7
100
AcDbLine
 10
-52.000000000000455
 20
30.0
 30
0.0
 11
-52.000000000000455
 21
-30.0
 31
0.0
  0
LINE
  5
1FA
100
AcDbEntity
  8
0
  6
CONTINUOUS
 62
               7
100
AcDbLine
 10
-54.000000000000455
 20
30.0
 30
0.0
 11
-54.000000000000455
 21
-30.0
 31
0.0
  0
LINE
  5
1FB
100
AcDbEntity
  8
0
  6
CONTINUOUS
 62
               7
100
AcDbLine
 10
-50.000000000000909
 20
53.500000000000909
 30
0.0
 11
-50.000000000000909
 21
-56.999999999999091
 31
0.0
  0
LINE
  5
1FC
100
AcDbEntity
  8
0
  6
CONTINUOUS
 62
               7
100
AcDbLine
 10
350.0
 20
-56.999999999999091
 30
0.0
 11
350.0
 21
53.500000000000909
 31
0.0
  0
LINE
  5
1FD
100
AcDbEntity
  8
0
  6
CONTINUOUS
 62
               2
100
AcDbLine
 10
345.00374803624607
 20
-0.0000000000001137
 30
0.0
 11
374.06720346288171
 21
-0.0000000000001137
 31
0.0
  0
LINE
  5
1FE
100
AcDbEntity
  8
0
  6
CONTINUOUS
 62
               7
100
AcDbLine
 10
332.29999999999995
 20
-57.999999999999091
 30
0.0
 11
332.29999999999905
 21
-58.2999999999995
 31
0.0
  0
ARC
  5
1FF
100
AcDbEntity
  8
0
  6
CONTINUOUS
 62
               7
100
AcDbCircle
 10
333.31259642529113
 20
-58.262046271217741
 30
0.0
 40
1.0133074587916275
100
AcDbArc
 50
182.14653236098235
 51
239.4920165918227
  0
LINE
  5
200
100
AcDbEntity
  8
0
  6
CONTINUOUS
 62
               7
100
AcDbLine
 10
304.24999999999864
 20
-57.999999999999091
 30
0.0
 11
330.89818236721067
 21
-57.999999999999091
 31
0.0
  0
LINE
  5
201
100
AcDbEntity
  8
0
  6
CONTINUOUS
 62
               7
100
AcDbLine
 10
-18.850000000000136
 20
-57.999999999999091
 30
0.0
 11
-18.850000000001046
 21
-58.299999999999272
 31
0.0
  0
LINE
  5
202
100
AcDbEntity
  8
0
  6
CONTINUOUS
 62
               7
100
AcDbLine
 10
-12.650000000000318
 20
-58.299999999999272
 30
0.0
 11
-12.650000000000318
 21
-57.999999999999091
 31
0.0
  0
LINE
  5
203
100
AcDbEntity
  8
0
  6
CONTINUOUS
 62
               7
100
AcDbLine
 10
-16.75
 20
-57.999999999999091
 30
0.0
 11
-16.75
 21
-56.999999999999091
 31
0.0
  0
LINE
  5
204
100
AcDbEntity
  8
0
  6
CONTINUOUS
 62
               7
100
AcDbLine
 10
-19.749999999998181
 20
-57.999999999999091
 30
0.0
 11
5.7499999999986358
 21
-57.999999999999091
 31
0.0
  0
LINE
  5
205
100
AcDbEntity
  8
0
  6
CONTINUOUS
 62
               7
100
AcDbLine
 10
-19.749999999998181
 20
-56.999999999999091
 30
0.0
 11
-19.749999999998181
 21
-57.999999999999091
 31
0.0
  0
LINE
  5
206
100
AcDbEntity
  8
0
  6
CONTINUOUS
 62
               2
100
AcDbLine
 10
-73.922957058703787
 20
0.0
 30
0.0
 11
-45.000000000000568
 21
0.0
 31
0.0
  0
LINE
  5
207
100
AcDbEntity
  8
0
  6
CONTINUOUS
 62
               7
100
AcDbLine
 10
-49.000000000000909
 20
-51.999999999999091
 30
0.0
 11
349.0
 21
-51.999999999999091
 31
0.0
  0
LINE
  5
208
100
AcDbEntity
  8
0
  6
CONTINUOUS
 62
               7
100
AcDbLine
 10
-50.000000000000909
 20
-56.999999999999091
 30
0.0
 11
-49.000000000000909
 21
-56.999999999999091
 31
0.0
  0
LINE
  5
209
100
AcDbEntity
  8
0
  6
CONTINUOUS
 62
               7
100
AcDbLine
 10
-49.000000000000909
 20
-51.999999999999091
 30
0.0
 11
-49.000000000000909
 21
-56.999999999999091
 31
0.0
  0
LINE
  5
20A
100
AcDbEntity
  8
0
  6
CONTINUOUS
 62
               7
100
AcDbLine
 10
349.0
 20
-56.999999999999091
 30
0.0
 11
349.0
 21
-51.999999999999091
 31
0.0
  0
LINE
  5
20B
100
AcDbEntity
  8
0
  6
CONTINUOUS
 62
               7
100
AcDbLine
 10
-49.000000000000909
 20
-56.999999999999091
 30
0.0
 11
350.0
 21
-56.999999999999091
 31
0.0
  0
LINE
  5
20C
100
AcDbEntity
  8
0
  6
CONTINUOUS
 62
               7
100
AcDbLine
 10
330.89818236721067
 20
-57.999999999999091
 30
0.0
 11
343.59818236721048
 21
-57.999999999999091
 31
0.0
  0
LINE
  5
20D
100
AcDbEntity
  8
0
  6
CONTINUOUS
 62
               7
100
AcDbLine
 10
332.79818236721053
 20
-60.499999999999091
 30
0.0
 11
341.69818236721062
 21
-60.499999999999091
 31
0.0
  0
LINE
  5
20E
100
AcDbEntity
  8
0
  6
CONTINUOUS
 62
               7
100
AcDbLine
 10
5.7499999999984084
 20
-66.999999999999318
 30
0.0
 11
5.7499999999986358
 21
-56.999999999999091
 31
0.0
  0
LINE
  5
20F
100
AcDbEntity
  8
0
  6
CONTINUOUS
 62
               7
100
AcDbLine
 10
105.24999999999841
 20
-66.999999999999318
 30
0.0
 11
105.24999999999841
 21
-56.999999999998863
 31
0.0
  0
LINE
  5
210
100
AcDbEntity
  8
0
  6
CONTINUOUS
 62
               7
100
AcDbLine
 10
105.24999999999864
 20
-67.000000000000227
 30
0.0
 11
5.7499999999984084
 21
-66.999999999999318
 31
0.0
  0
LINE
  5
211
100
AcDbEntity
  8
0
  6
CONTINUOUS
 62
               7
100
AcDbLine
 10
204.74999999999841
 20
-66.999999999999318
 30
0.0
 11
204.74999999999864
 21
-56.999999999998408
 31
0.0
  0
LINE
  5
212
100
AcDbEntity
  8
0
  6
CONTINUOUS
 62
               7
100
AcDbLine
 10
204.74999999999864
 20
-67.000000000000227
 30
0.0
 11
105.24999999999841
 21
-66.999999999999318
 31
0.0
  0
LINE
  5
213
100
AcDbEntity
  8
0
  6
CONTINUOUS
 62
               7
100
AcDbLine
 10
330.89818236721067
 20
-57.999999999999091
 30
0.0
 11
330.89818236721067
 21
-56.999999999999091
 31
0.0
  0
LINE
  5
214
100
AcDbEntity
  8
0
  6
CONTINUOUS
 62
               7
100
AcDbLine
 10
343.59818236721048
 20
-57.999999999999091
 30
0.0
 11
343.59818236721048
 21
-56.999999999999091
 31
0.0
  0
LINE
  5
215
100
AcDbEntity
  8
0
  6
CONTINUOUS
 62
               7
100
AcDbLine
 10
332.79818236721053
 20
-60.499999999999091
 30
0.0
 11
332.79818236721053
 21
-57.999999999999091
 31
0.0
  0
LINE
  5
216
100
AcDbEntity
  8
0
  6
CONTINUOUS
 62
               7
100
AcDbLine
 10
341.69818236721062
 20
-60.499999999999091
 30
0.0
 11
341.69818236721062
 21
-57.999999999999091
 31
0.0
  0
ARC
  5
217
100
AcDbEntity
  8
0
  6
CONTINUOUS
 62
               7
100
AcDbCircle
 10
317.24818236721057
 20
-56.499999999999091
 30
0.0
 40
1.5
100
AcDbArc
 50
199.4712206344887
 51
340.5287793655113
  0
ARC
  5
218
100
AcDbEntity
  8
0
  6
CONTINUOUS
 62
               7
100
AcDbCircle
 10
327.24818236721057
 20
-56.499999999999091
 30
0.0
 40
1.5
100
AcDbArc
 50
199.4712206344887
 51
340.5287793655113
  0
LINE
  5
219
100
AcDbEntity
  8
0
  6
CONTINUOUS
 62
               7
100
AcDbLine
 10
-54.000000000000455
 20
-30.0
 30
0.0
 11
-50.000000000000909
 21
-30.0
 31
0.0
  0
LINE
  5
21A
100
AcDbEntity
  8
0
  6
CONTINUOUS
 62
               7
100
AcDbLine
 10
350.0
 20
-30.0
 30
0.0
 11
353.99818236721012
 21
-30.0
 31
0.0
  0
LINE
  5
21B
100
AcDbEntity
  8
0
  6
CONTINUOUS
 62
               7
100
AcDbLine
 10
354.00374803624618
 20
6.3999999999997499
 30
0.0
 11
354.00374803624618
 21
-6.4000000000000909
 31
0.0
  0
LINE
  5
21C
100
AcDbEntity
  8
0
  6
CONTINUOUS
 62
               7
100
AcDbLine
 10
354.00374803624618
 20
-6.4000000000000909
 30
0.0
 11
362.00374803624618
 21
-6.4000000000000909
 31
0.0
  0
ARC
  5
21D
100
AcDbEntity
  8
0
  6
CONTINUOUS
 62
               7
100
AcDbCircle
 10
367.63691231335906
 20
-12.297500000000127
 30
0.0
 40
0.5
100
AcDbArc
 50
270.0
 51
352.81667546741988
  0
LINE
  5
21E
100
AcDbEntity
  8
0
  6
CONTINUOUS
 62
               7
100
AcDbLine
 10
362.50374803624618
 20
-12.800000000000182
 30
0.0
 11
367.63691231335906
 21
-12.797500000000127
 31
0.0
  0
ARC
  5
21F
100
AcDbEntity
  8
0
  6
CONTINUOUS
 62
               7
100
AcDbCircle
 10
362.50374803624618
 20
-12.300000000000182
 30
0.0
 40
0.5
100
AcDbArc
 50
180.0
 51
270.0
  0
LINE
  5
220
100
AcDbEntity
  8
0
  6
CONTINUOUS
 62
               7
100
AcDbLine
 10
362.00374803624618
 20
6.3999999999997499
 30
0.0
 11
354.00374803624618
 21
6.3999999999997499
 31
0.0
  0
LINE
  5
221
100
AcDbEntity
  8
0
  6
CONTINUOUS
 62
               7
100
AcDbLine
 10
-54.005565669036514
 20
6.4000000000000909
 30
0.0
 11
-54.005565669036514
 21
-6.3999999999998636
 31
0.0
  0
LINE
  5
222
100
AcDbEntity
  8
0
  6
CONTINUOUS
 62
               7
100
AcDbLine
 10
-54.005565669036514
 20
-6.3999999999998636
 30
0.0
 11
-62.005565669036514
 21
-6.3999999999998636
 31
0.0
  0
ARC
  5
223
100
AcDbEntity
  8
0
  6
CONTINUOUS
 62
               7
100
AcDbCircle
 10
-67.638729946149624
 20
-12.297500000000014
 30
0.0
 40
0.5
100
AcDbArc
 50
187.18332453258009
 51
270.0
  0
LINE
  5
224
100
AcDbEntity
  8
0
  6
CONTINUOUS
 62
               7
100
AcDbLine
 10
-62.505565669036514
 20
-12.799999999999955
 30
0.0
 11
-67.638729946149624
 21
-12.7974999999999
 31
0.0
  0
ARC
  5
225
100
AcDbEntity
  8
0
  6
CONTINUOUS
 62
               7
100
AcDbCircle
 10
-62.505565669036514
 20
-12.299999999999955
 30
0.0
 40
0.5
100
AcDbArc
 50
270.0
 51
0.0
  0
LINE
  5
226
100
AcDbEntity
  8
0
  6
CONTINUOUS
 62
               7
100
AcDbLine
 10
-62.005565669036514
 20
6.4000000000000909
 30
0.0
 11
-54.005565669036514
 21
6.4000000000000909
 31
0.0
  0
LINE
  5
227
100
AcDbEntity
  8
0
  6
CONTINUOUS
 62
               7
100
AcDbLine
 10
-50.005565669036059
 20
7.5
 30
0.0
 11
-52.005565669036514
 21
7.5
 31
0.0
  0
LINE
  5
228
100
AcDbEntity
  8
0
  6
CONTINUOUS
 62
               7
100
AcDbLine
 10
-52.005565669036514
 20
-7.5
 30
0.0
 11
-50.005565669036059
 21
-7.5
 31
0.0
  0
LINE
  5
229
100
AcDbEntity
  8
0
  6
CONTINUOUS
 62
               7
100
AcDbLine
 10
350.0
 20
-21.730034291991615
 30
0.0
 11
-50.000000000000909
 21
-21.730034291991615
 31
0.0
  0
LINE
  5
22A
100
AcDbEntity
  8
0
  6
CONTINUOUS
 62
               7
100
AcDbLine
 10
-26.750000000000909
 20
-70.499999999999091
 30
0.0
 11
-39.250000000000909
 21
-70.499999999999091
 31
0.0
  0
LINE
  5
22B
100
AcDbEntity
  8
0
  6
CONTINUOUS
 62
               7
100
AcDbLine
 10
-26.250000000000909
 20
-69.999999999999091
 30
0.0
 11
-39.750000000000909
 21
-69.999999999999091
 31
0.0
  0
LINE
  5
22C
100
AcDbEntity
  8
0
  6
CONTINUOUS
 62
               7
100
AcDbLine
 10
-26.000000000000909
 20
-58.499999999999091
 30
0.0
 11
-40.000000000000909
 21
-58.499999999999091
 31
0.0
  0
LINE
  5
22D
100
AcDbEntity
  8
0
  6
CONTINUOUS
 62
               7
100
AcDbLine
 10
-26.750000000000909
 20
-70.499999999999091
 30
0.0
 11
-26.750000000000909
 21
-69.999999999999091
 31
0.0
  0
LINE
  5
22E
100
AcDbEntity
  8
0
  6
CONTINUOUS
 62
               7
100
AcDbLine
 10
-39.250000000000909
 20
-70.499999999999091
 30
0.0
 11
-39.250000000000909
 21
-69.999999999999091
 31
0.0
  0
LINE
  5
22F
100
AcDbEntity
  8
0
  6
CONTINUOUS
 62
               7
100
AcDbLine
 10
-39.750000000000909
 20
-69.999999999999091
 30
0.0
 11
-40.000000000000909
 21
-58.499999999999091
 31
0.0
  0
LINE
  5
230
100
AcDbEntity
  8
0
  6
CONTINUOUS
 62
               7
100
AcDbLine
 10
-40.000000000000909
 20
-58.499999999999091
 30
0.0
 11
-40.000000000000909
 21
-56.999999999999091
 31
0.0
  0
LINE
  5
231
100
AcDbEntity
  8
0
  6
CONTINUOUS
 62
               7
100
AcDbLine
 10
-26.250000000000909
 20
-69.999999999999091
 30
0.0
 11
-26.000000000000909
 21
-58.499999999999091
 31
0.0
  0
LINE
  5
232
100
AcDbEntity
  8
0
  6
CONTINUOUS
 62
               7
100
AcDbLine
 10
-26.000000000000909
 20
-58.499999999999091
 30
0.0
 11
-26.000000000000909
 21
-56.999999999999091
 31
0.0
  0
LINE
  5
233
100
AcDbEntity
  8
0
  6
CONTINUOUS
 62
               7
100
AcDbLine
 10
304.24999999999818
 20
-67.000000000001592
 30
0.0
 11
304.24999999999864
 21
-57.000000000000682
 31
0.0
  0
LINE
  5
234
100
AcDbEntity
  8
0
  6
CONTINUOUS
 62
               7
100
AcDbLine
 10
304.24999999999864
 20
-67.000000000002501
 30
0.0
 11
204.74999999999829
 21
-67.000000000001592
 31
0.0
  0
LINE
  5
235
100
AcDbEntity
  8
0
  6
CONTINUOUS
 62
               7
100
AcDbLine
 10
-50.000000000000909
 20
53.500000000000909
 30
0.0
 11
350.0
 21
53.500000000000909
 31
0.0
  0
LINE
  5
236
100
AcDbEntity
  8
0
  6
CONTINUOUS
 62
               7
100
AcDbLine
 10
-54.000000000000455
 20
30.0
 30
0.0
 11
-50.000000000000909
 21
30.0
 31
0.0
  0
LINE
  5
237
100
AcDbEntity
  8
0
  6
CONTINUOUS
 62
               7
100
AcDbLine
 10
350.0
 20
30.0
 30
0.0
 11
353.99818236721012
 21
30.0
 31
0.0
  0
ARC
  5
238
100
AcDbEntity
  8
0
  6
CONTINUOUS
 62
               7
100
AcDbCircle
 10
367.68580046261991
 20
12.302500000000009
 30
0.0
 40
0.5
100
AcDbArc
 50
6.9555943754054939
 51
90.0
  0
LINE
  5
239
100
AcDbEntity
  8
0
  6
CONTINUOUS
 62
               7
100
AcDbLine
 10
367.68580046261991
 20
12.802500000000009
 30
0.0
 11
362.50374803624618
 21
12.799999999999955
 31
0.0
  0
ARC
  5
23A
100
AcDbEntity
  8
0
  6
CONTINUOUS
 62
               7
100
AcDbCircle
 10
362.50374803624618
 20
12.299999999999955
 30
0.0
 40
0.5
100
AcDbArc
 50
90.0
 51
180.0
  0
ARC
  5
23B
100
AcDbEntity
  8
0
  6
CONTINUOUS
 62
               7
100
AcDbCircle
 10
-67.687618095410244
 20
12.302500000000009
 30
0.0
 40
0.5
100
AcDbArc
 50
90.0
 51
173.0444056245945
  0
LINE
  5
23C
100
AcDbEntity
  8
0
  6
CONTINUOUS
 62
               7
100
AcDbLine
 10
-67.687618095410244
 20
12.802500000000009
 30
0.0
 11
-62.505565669036514
 21
12.799999999999955
 31
0.0
  0
ARC
  5
23D
100
AcDbEntity
  8
0
  6
CONTINUOUS
 62
               7
100
AcDbCircle
 10
-62.505565669036514
 20
12.299999999999955
 30
0.0
 40
0.5
100
AcDbArc
 50
0.0
 51
90.0
  0
LINE
  5
23E
100
AcDbEntity
  8
0
  6
CONTINUOUS
 62
               7
100
AcDbLine
 10
341.09503435731926
 20
55.58706068949914
 30
0.0
 11
340.69818236721017
 21
55.58706068949914
 31
0.0
  0
LINE
  5
23F
100
AcDbEntity
  8
0
  6
CONTINUOUS
 62
               7
100
AcDbLine
 10
341.09503435731926
 20
55.98836513858123
 30
0.0
 11
341.09503435731926
 21
55.58706068949914
 31
0.0
  0
LINE
  5
240
100
AcDbEntity
  8
0
  6
CONTINUOUS
 62
               7
100
AcDbLine
 10
340.69818236721017
 20
57.300000000001091
 30
0.0
 11
341.09503435731926
 21
55.98836513858123
 31
0.0
  0
LINE
  5
241
100
AcDbEntity
  8
0
  6
CONTINUOUS
 62
               7
100
AcDbLine
 10
340.69818236720994
 20
53.500000000000909
 30
0.0
 11
340.69818236721017
 21
57.300000000001091
 31
0.0
  0
LINE
  5
242
100
AcDbEntity
  8
0
  6
CONTINUOUS
 62
               7
100
AcDbLine
 10
340.69818236721017
 20
57.300000000001091
 30
0.0
 11
336.09818236721003
 21
57.300000000001091
 31
0.0
  0
LINE
  5
243
100
AcDbEntity
  8
0
  6
CONTINUOUS
 62
               7
100
AcDbLine
 10
331.09818236721003
 20
57.300000000001091
 30
0.0
 11
331.09818236721003
 21
53.500000000000909
 31
0.0
  0
LINE
  5
244
100
AcDbEntity
  8
0
  6
CONTINUOUS
 62
               7
100
AcDbLine
 10
331.59818236721003
 20
54.700000000000841
 30
0.0
 11
336.59818236721003
 21
54.700000000000841
 31
0.0
  0
LINE
  5
245
100
AcDbEntity
  8
0
  6
CONTINUOUS
 62
               7
100
AcDbLine
 10
332.09818236721003
 20
64.800000000001091
 30
0.0
 11
336.09818236721003
 21
64.800000000001091
 31
0.0
  0
LINE
  5
246
100
AcDbEntity
  8
0
  6
CONTINUOUS
 62
               7
100
AcDbLine
 10
336.59818236721003
 20
64.300000000001091
 30
0.0
 11
336.59818236721003
 21
58.800000000001091
 31
0.0
  0
LINE
  5
247
100
AcDbEntity
  8
0
  6
CONTINUOUS
 62
               7
100
AcDbLine
 10
336.59818236721003
 20
58.800000000001091
 30
0.0
 11
331.59818236721003
 21
58.800000000001091
 31
0.0
  0
LINE
  5
248
100
AcDbEntity
  8
0
  6
CONTINUOUS
 62
               7
100
AcDbLine
 10
331.59818236721003
 20
58.800000000001091
 30
0.0
 11
331.59818236721003
 21
64.300000000001091
 31
0.0
  0
LINE
  5
249
100
AcDbEntity
  8
0
  6
CONTINUOUS
 62
               7
100
AcDbLine
 10
336.59818236721003
 20
59.300000000000978
 30
0.0
 11
331.59818236721003
 21
59.300000000000978
 31
0.0
  0
LINE
  5
24A
100
AcDbEntity
  8
0
  6
CONTINUOUS
 62
               7
100
AcDbLine
 10
332.09818236721003
 20
58.800000000001091
 30
0.0
 11
332.09818236721003
 21
54.700000000000841
 31
0.0
  0
LINE
  5
24B
100
AcDbEntity
  8
0
  6
CONTINUOUS
 62
               7
100
AcDbLine
 10
336.09818236721003
 20
58.800000000001091
 30
0.0
 11
336.09818236721003
 21
54.700000000000841
 31
0.0
  0
LINE
  5
24C
100
AcDbEntity
  8
0
  6
CONTINUOUS
 62
               7
100
AcDbLine
 10
336.59818236721003
 20
64.300000000001091
 30
0.0
 11
336.09818236721003
 21
64.800000000001091
 31
0.0
  0
LINE
  5
24D
100
AcDbEntity
  8
0
  6
CONTINUOUS
 62
               7
100
AcDbLine
 10
332.09818236721003
 20
64.800000000001091
 30
0.0
 11
331.59818236721003
 21
64.300000000001091
 31
0.0
  0
LINE
  5
24E
100
AcDbEntity
  8
0
  6
CONTINUOUS
 62
               7
100
AcDbLine
 10
331.59818236721003
 20
64.300000000001091
 30
0.0
 11
336.59818236721003
 21
64.300000000001091
 31
0.0
  0
LINE
  5
24F
100
AcDbEntity
  8
0
  6
CONTINUOUS
 62
               7
100
AcDbLine
 10
336.59818236721003
 20
54.700000000000841
 30
0.0
 11
336.59818236721003
 21
53.500000000000909
 31
0.0
  0
LINE
  5
250
100
AcDbEntity
  8
0
  6
CONTINUOUS
 62
               7
100
AcDbLine
 10
331.59818236721003
 20
54.700000000000841
 30
0.0
 11
331.59818236721003
 21
53.500000000000909
 31
0.0
  0
LINE
  5
251
100
AcDbEntity
  8
0
  6
CONTINUOUS
 62
               7
100
AcDbLine
 10
332.09818236721003
 20
57.300000000001091
 30
0.0
 11
331.09818236721003
 21
57.300000000001091
 31
0.0
  0
LINE
  5
252
100
AcDbEntity
  8
0
  6
CENTER
 62
               2
100
AcDbLine
 10
0.0
 20
8.0
 30
0.0
 11
0.0
 21
-8.0
 31
0.0
  0
CIRCLE
  5
254
100
AcDbEntity
  8
0
  6
DASHED
 62
               2
100
AcDbCircle
 10
0.0
 20
0.0
 30
0.0
 40
2.25
  0
LINE
  5
255
100
AcDbEntity
  8
0
  6
CENTER
 62
               2
100
AcDbLine
 10
-8.0
 20
0.0
 30
0.0
 11
8.0
 21
0.0
 31
0.0
  0
CIRCLE
  5
256
100
AcDbEntity
  8
0
  6
DASHED
 62
               2
100
AcDbCircle
 10
60.0
 20
0.0
 30
0.0
 40
2.25
  0
CIRCLE
  5
257
100
AcDbEntity
  8
0
  6
DASHED
 62
               2
100
AcDbCircle
 10
120.0
 20
0.0
 30
0.0
 40
2.25
  0
CIRCLE
  5
258
100
AcDbEntity
  8
0
  6
DASHED
 62
               2
100
AcDbCircle
 10
180.0
 20
0.0
 30
0.0
 40
2.25
  0
CIRCLE
  5
259
100
AcDbEntity
  8
0
  6
DASHED
 62
               2
100
AcDbCircle
 10
240.0
 20
0.0
 30
0.0
 40
2.25
  0
CIRCLE
  5
25A
100
AcDbEntity
  8
0
  6
DASHED
 62
               2
100
AcDbCircle
 10
300.0
 20
0.0
 30
0.0
 40
2.25
  0
LINE
  5
25B
100
AcDbEntity
  8
0
  6
DASHED
 62
               2
100
AcDbLine
 10
-50.000000000000909
 20
30.0
 30
0.0
 11
350.0
 21
30.0
 31
0.0
  0
LINE
  5
25C
100
AcDbEntity
  8
0
  6
DASHED
 62
               2
100
AcDbLine
 10
-50.000000000000909
 20
-30.0
 30
0.0
 11
350.0
 21
-30.0
 31
0.0
  0
ENDBLK
  5
25D
100
AcDbEntity
  8
0
100
AcDbBlockEnd
  0
BLOCK
  5
25E
100
AcDbEntity
  8
0
100
AcDbBlockBegin
  2
MS_4
 70
               0
 10
0.0
 20
0.0
 30
0.0
  3
MS_4
  1

  0
LINE
  5
25F
100
AcDbEntity
  8
0
  6
CONTINUOUS
 62
               2
100
AcDbLine
 10
-45.000000000001137
 20
-79.999999999999716
 30
0.0
 11
-74.063455426636892
 21
-79.999999999999375
 31
0.0
  0
LINE
  5
260
100
AcDbEntity
  8
0
  6
CONTINUOUS
 62
               7
100
AcDbLine
 10
362.49999999999898
 20
-67.200000000003513
 30
0.0
 11
367.63316427711209
 21
-67.202500000003567
 31
0.0
  0
LINE
  5
261
100
AcDbEntity
  8
0
  6
CONTINUOUS
 62
               7
100
AcDbLine
 10
367.68205242637271
 20
-92.802500000003704
 30
0.0
 11
362.49999999999875
 21
-92.800000000003649
 31
0.0
  0
LINE
  5
262
100
AcDbEntity
  8
0
  6
CONTINUOUS
 62
               2
100
AcDbLine
 10
373.91739138966614
 20
-80.000000000004036
 30
0.0
 11
344.99443433096326
 21
-80.000000000003695
 31
0.0
  0
LINE
  5
263
100
AcDbEntity
  8
0
  6
CONTINUOUS
 62
               7
100
AcDbLine
 10
353.99999999999869
 20
-95.000000000003354
 30
0.0
 11
353.99999999999955
 21
-0.0000000000033538
 31
0.0
  0
LINE
  5
264
100
AcDbEntity
  8
0
  6
CONTINUOUS
 62
               7
100
AcDbLine
 10
351.99999999999869
 20
-95.000000000003354
 30
0.0
 11
351.99999999999955
 21
-2.0000000000033538
 31
0.0
  0
LINE
  5
265
100
AcDbEntity
  8
0
  6
CONTINUOUS
 62
               7
100
AcDbLine
 10
349.00000000000006
 20
-46.500000000003524
 30
0.0
 11
-49.000000000001933
 21
-46.500000000000568
 31
0.0
  0
LINE
  5
266
100
AcDbEntity
  8
0
  6
CONTINUOUS
 62
               7
100
AcDbLine
 10
348.99999999999977
 20
-76.500000000003581
 30
0.0
 11
-49.001817632790306
 21
-76.499999999999716
 31
0.0
  0
LINE
  5
267
100
AcDbEntity
  8
0
  6
CONTINUOUS
 62
               7
100
AcDbLine
 10
323.50000000000074
 20
-46.000000000002956
 30
0.0
 11
-13.499999999999886
 21
-45.999999999999943
 31
0.0
  0
LINE
  5
268
100
AcDbEntity
  8
0
  6
CONTINUOUS
 62
               7
100
AcDbLine
 10
323.5000000000008
 20
-42.000000000002956
 30
0.0
 11
-13.499999999999858
 21
-41.999999999999943
 31
0.0
  0
LINE
  5
269
100
AcDbEntity
  8
0
  6
CONTINUOUS
 62
               7
100
AcDbLine
 10
350.00000000000006
 20
-46.500000000003524
 30
0.0
 11
349.99999999999943
 21
-118.00000000000358
 31
0.0
  0
LINE
  5
26A
100
AcDbEntity
  8
0
  6
CONTINUOUS
 62
               7
100
AcDbLine
 10
319.58578643762587
 20
-65.585786437631953
 30
0.0
 11
322.41421356237208
 21
-68.414213562378166
 31
0.0
  0
LINE
  5
26B
100
AcDbEntity
  8
0
  6
CONTINUOUS
 62
               7
100
AcDbLine
 10
322.41421356237208
 20
-65.585786437631953
 30
0.0
 11
319.58578643762587
 21
-68.414213562378166
 31
0.0
  0
LINE
  5
26C
100
AcDbEntity
  8
0
  6
CONTINUOUS
 62
               7
100
AcDbLine
 10
319.58396880483616
 20
-95.585786437630134
 30
0.0
 11
322.41239592958232
 21
-98.414213562376347
 31
0.0
  0
LINE
  5
26D
100
AcDbEntity
  8
0
  6
CONTINUOUS
 62
               7
100
AcDbLine
 10
322.41239592958237
 20
-95.585786437630134
 30
0.0
 11
319.5839688048361
 21
-98.414213562376347
 31
0.0
  0
LINE
  5
26E
100
AcDbEntity
  8
0
  6
CONTINUOUS
 62
               7
100
AcDbLine
 10
317.69701005092611
 20
-57.095255430666214
 30
0.0
 11
318.89701005092616
 21
-57.095255430666214
 31
0.0
  0
LINE
  5
26F
100
AcDbEntity
  8
0
  6
CONTINUOUS
 62
               7
100
AcDbLine
 10
348.99999999999977
 20
-76.500000000003581
 30
0.0
 11
349.00000000000006
 21
-46.500000000003524
 31
0.0
  0
LINE
  5
270
100
AcDbEntity
  8
0
  6
CONTINUOUS
 62
               7
100
AcDbLine
 10
341.69999999999914
 20
-55.75000000000324
 30
0.0
 11
340.69999999999914
 21
-55.75000000000324
 31
0.0
  0
LINE
  5
271
100
AcDbEntity
  8
0
  6
CONTINUOUS
 62
               7
100
AcDbLine
 10
341.69999999999914
 20
-58.75000000000324
 30
0.0
 11
340.69999999999914
 21
-58.75000000000324
 31
0.0
  0
LINE
  5
272
100
AcDbEntity
  8
0
  6
CONTINUOUS
 62
               7
100
AcDbLine
 10
341.69999999999914
 20
-55.75000000000324
 30
0.0
 11
341.69999999999914
 21
-58.75000000000324
 31
0.0
  0
LINE
  5
273
100
AcDbEntity
  8
0
  6
CONTINUOUS
 62
               7
100
AcDbLine
 10
331.89999999999895
 20
-54.050000000003308
 30
0.0
 11
332.69999999999914
 21
-53.250000000003411
 31
0.0
  0
LINE
  5
274
100
AcDbEntity
  8
0
  6
CONTINUOUS
 62
               7
100
AcDbLine
 10
332.69999999999914
 20
-57.000000000003354
 30
0.0
 11
331.89999999999895
 21
-56.200000000003399
 31
0.0
  0
LINE
  5
275
100
AcDbEntity
  8
0
  6
CONTINUOUS
 62
               7
100
AcDbLine
 10
336.14999999999895
 20
-58.300000000003422
 30
0.0
 11
336.94999999999914
 21
-57.500000000003467
 31
0.0
  0
LINE
  5
276
100
AcDbEntity
  8
0
  6
CONTINUOUS
 62
               7
100
AcDbLine
 10
336.94999999999908
 20
-61.25000000000324
 30
0.0
 11
336.1499999999989
 21
-60.450000000003286
 31
0.0
  0
LINE
  5
277
100
AcDbEntity
  8
0
  6
CONTINUOUS
 62
               7
100
AcDbLine
 10
335.64999999999895
 20
-57.000000000003126
 30
0.0
 11
335.64999999999895
 21
-53.250000000003183
 31
0.0
  0
LINE
  5
278
100
AcDbEntity
  8
0
  6
CONTINUOUS
 62
               7
100
AcDbLine
 10
331.89999999999895
 20
-57.500000000003126
 30
0.0
 11
331.8999999999989
 21
-61.250000000003126
 31
0.0
  0
LINE
  5
279
100
AcDbEntity
  8
0
  6
CONTINUOUS
 62
               7
100
AcDbLine
 10
335.64999999999895
 20
-53.250000000003183
 30
0.0
 11
332.69999999999914
 21
-53.250000000003411
 31
0.0
  0
LINE
  5
27A
100
AcDbEntity
  8
0
  6
CONTINUOUS
 62
               7
100
AcDbLine
 10
335.64999999999895
 20
-57.000000000003126
 30
0.0
 11
332.69999999999914
 21
-57.000000000003354
 31
0.0
  0
LINE
  5
27B
100
AcDbEntity
  8
0
  6
CONTINUOUS
 62
               7
100
AcDbLine
 10
336.14999999999895
 20
-57.00000000000324
 30
0.0
 11
336.14999999999895
 21
-53.250000000003524
 31
0.0
  0
LINE
  5
27C
100
AcDbEntity
  8
0
  6
CONTINUOUS
 62
               7
100
AcDbLine
 10
335.64999999999895
 20
-57.500000000003126
 30
0.0
 11
331.89999999999895
 21
-57.500000000003126
 31
0.0
  0
LINE
  5
27D
100
AcDbEntity
  8
0
  6
CONTINUOUS
 62
               7
100
AcDbLine
 10
336.94999999999908
 20
-61.25000000000324
 30
0.0
 11
339.8999999999989
 21
-61.25000000000324
 31
0.0
  0
LINE
  5
27E
100
AcDbEntity
  8
0
  6
CONTINUOUS
 62
               7
100
AcDbLine
 10
339.89999999999895
 20
-57.00000000000324
 30
0.0
 11
339.89999999999895
 21
-53.250000000003183
 31
0.0
  0
LINE
  5
27F
100
AcDbEntity
  8
0
  6
CONTINUOUS
 62
               7
100
AcDbLine
 10
335.6499999999989
 20
-61.250000000003126
 30
0.0
 11
335.64999999999895
 21
-57.500000000003126
 31
0.0
  0
LINE
  5
280
100
AcDbEntity
  8
0
  6
CONTINUOUS
 62
               7
100
AcDbLine
 10
336.1499999999989
 20
-60.450000000003286
 30
0.0
 11
336.14999999999895
 21
-58.300000000003422
 31
0.0
  0
LINE
  5
281
100
AcDbEntity
  8
0
  6
CONTINUOUS
 62
               7
100
AcDbLine
 10
339.89999999999895
 20
-57.50000000000324
 30
0.0
 11
336.94999999999914
 21
-57.500000000003467
 31
0.0
  0
LINE
  5
282
100
AcDbEntity
  8
0
  6
CONTINUOUS
 62
               7
100
AcDbLine
 10
339.89999999999895
 20
-57.00000000000324
 30
0.0
 11
336.14999999999895
 21
-57.00000000000324
 31
0.0
  0
LINE
  5
283
100
AcDbEntity
  8
0
  6
CONTINUOUS
 62
               7
100
AcDbLine
 10
339.89999999999895
 20
-53.250000000003183
 30
0.0
 11
336.14999999999895
 21
-53.250000000003183
 31
0.0
  0
LINE
  5
284
100
AcDbEntity
  8
0
  6
CONTINUOUS
 62
               7
100
AcDbLine
 10
331.89999999999895
 20
-54.050000000003308
 30
0.0
 11
331.89999999999895
 21
-56.200000000003399
 31
0.0
  0
LINE
  5
285
100
AcDbEntity
  8
0
  6
CONTINUOUS
 62
               7
100
AcDbLine
 10
331.8999999999989
 20
-61.250000000003126
 30
0.0
 11
335.6499999999989
 21
-61.250000000003126
 31
0.0
  0
LINE
  5
286
100
AcDbEntity
  8
0
  6
CONTINUOUS
 62
               7
100
AcDbLine
 10
339.8999999999989
 20
-61.25000000000324
 30
0.0
 11
339.89999999999895
 21
-57.50000000000324
 31
0.0
  0
LINE
  5
287
100
AcDbEntity
  8
0
  6
CONTINUOUS
 62
               7
100
AcDbLine
 10
340.69999999999908
 20
-62.050000000003422
 30
0.0
 11
340.69999999999919
 21
-52.450000000003286
 31
0.0
  0
LINE
  5
288
100
AcDbEntity
  8
0
  6
CONTINUOUS
 62
               7
100
AcDbLine
 10
331.09999999999894
 20
-62.050000000003308
 30
0.0
 11
340.69999999999908
 21
-62.050000000003422
 31
0.0
  0
LINE
  5
289
100
AcDbEntity
  8
0
  6
CONTINUOUS
 62
               7
100
AcDbLine
 10
331.09999999999906
 20
-52.450000000003172
 30
0.0
 11
331.09999999999894
 21
-62.050000000003308
 31
0.0
  0
LINE
  5
28A
100
AcDbEntity
  8
0
  6
CONTINUOUS
 62
               7
100
AcDbLine
 10
340.69999999999919
 20
-52.450000000003286
 30
0.0
 11
331.09999999999906
 21
-52.450000000003172
 31
0.0
  0
CIRCLE
  5
28B
100
AcDbEntity
  8
0
  6
CONTINUOUS
 62
               7
100
AcDbCircle
 10
333.99999999999847
 20
-71.000000000003354
 30
0.0
 40
2.5
  0
CIRCLE
  5
28C
100
AcDbEntity
  8
0
  6
CONTINUOUS
 62
               7
100
AcDbCircle
 10
333.99999999999847
 20
-71.000000000003354
 30
0.0
 40
2.0
  0
CIRCLE
  5
28D
100
AcDbEntity
  8
0
  6
CONTINUOUS
 62
               7
100
AcDbCircle
 10
320.99818236720927
 20
-97.00000000000324
 30
0.0
 40
3.0
  0
CIRCLE
  5
28E
100
AcDbEntity
  8
0
  6
CONTINUOUS
 62
               7
100
AcDbCircle
 10
320.99999999999898
 20
-67.000000000005059
 30
0.0
 40
3.0
  0
LINE
  5
28F
100
AcDbEntity
  8
0
  6
CONTINUOUS
 62
               7
100
AcDbLine
 10
322.5000000000008
 20
-42.000000000002956
 30
0.0
 11
322.50000000000074
 21
-46.000000000002956
 31
0.0
  0
LINE
  5
290
100
AcDbEntity
  8
0
  6
CONTINUOUS
 62
               7
100
AcDbLine
 10
323.5000000000008
 20
-42.000000000002956
 30
0.0
 11
323.50000000000074
 21
-46.000000000002956
 31
0.0
  0
LINE
  5
291
100
AcDbEntity
  8
0
  6
CONTINUOUS
 62
               7
100
AcDbLine
 10
328.36637135967072
 20
-71.000000000003581
 30
0.0
 11
330.39398871138934
 21
-71.000000000003581
 31
0.0
  0
LINE
  5
292
100
AcDbEntity
  8
0
  6
CONTINUOUS
 62
               7
100
AcDbLine
 10
327.11637135967101
 20
-68.000000000003581
 30
0.0
 11
329.61637135967078
 21
-68.000000000003581
 31
0.0
  0
LINE
  5
293
100
AcDbEntity
  8
0
  6
CONTINUOUS
 62
               7
100
AcDbLine
 10
325.86637135967078
 20
-69.000000000003581
 30
0.0
 11
330.86637135967078
 21
-69.000000000003581
 31
0.0
  0
LINE
  5
294
100
AcDbEntity
  8
0
  6
CONTINUOUS
 62
               7
100
AcDbLine
 10
328.36637135967072
 20
-71.000000000003581
 30
0.0
 11
328.36637135967078
 21
-69.000000000003581
 31
0.0
  0
LINE
  5
295
100
AcDbEntity
  8
0
  6
CONTINUOUS
 62
               7
100
AcDbLine
 10
327.74137135967078
 20
-67.000000000003581
 30
0.0
 11
328.99137135967078
 21
-67.000000000003581
 31
0.0
  0
LINE
  5
296
100
AcDbEntity
  8
0
  6
CONTINUOUS
 62
               7
100
AcDbLine
 10
299.44324365381681
 20
-55.364292738249844
 30
0.0
 11
299.0
 21
-55.364292738249958
 31
0.0
  0
LINE
  5
297
100
AcDbEntity
  8
0
  6
CONTINUOUS
 62
               7
100
AcDbLine
 10
300.48523963105504
 20
-55.364292738249844
 30
0.0
 11
300.04199597723846
 21
-55.364292738249844
 31
0.0
  0
LINE
  5
298
100
AcDbEntity
  8
0
  6
CONTINUOUS
 62
               7
100
AcDbLine
 10
301.52723560829327
 20
-55.364292738249958
 30
0.0
 11
301.08399195447646
 21
-55.364292738249958
 31
0.0
  0
LINE
  5
299
100
AcDbEntity
  8
0
  6
CONTINUOUS
 62
               7
100
AcDbLine
 10
301.52723560829327
 20
-56.607192291659146
 30
0.0
 11
299.0
 21
-56.607192291659146
 31
0.0
  0
LINE
  5
29A
100
AcDbEntity
  8
0
  6
CONTINUOUS
 62
               7
100
AcDbLine
 10
317.69847975361148
 20
-62.295961097595921
 30
0.0
 11
309.69847975361148
 21
-62.295961097595807
 31
0.0
  0
LINE
  5
29B
100
AcDbEntity
  8
0
  6
CONTINUOUS
 62
               7
100
AcDbLine
 10
309.69847975361148
 20
-62.295961097595807
 30
0.0
 11
309.69847975361154
 21
-54.295961097595807
 31
0.0
  0
LINE
  5
29C
100
AcDbEntity
  8
0
  6
CONTINUOUS
 62
               7
100
AcDbLine
 10
309.69847975361154
 20
-54.295961097595807
 30
0.0
 11
317.69847975361154
 21
-54.295961097595921
 31
0.0
  0
LINE
  5
29D
100
AcDbEntity
  8
0
  6
CONTINUOUS
 62
               7
100
AcDbLine
 10
317.69701005092605
 20
-62.295255430666259
 30
0.0
 11
309.69701005092605
 21
-62.295255430666145
 31
0.0
  0
LINE
  5
29E
100
AcDbEntity
  8
0
  6
CONTINUOUS
 62
               7
100
AcDbLine
 10
309.69701005092605
 20
-62.295255430666145
 30
0.0
 11
309.69701005092611
 21
-54.295255430666145
 31
0.0
  0
LINE
  5
29F
100
AcDbEntity
  8
0
  6
CONTINUOUS
 62
               7
100
AcDbLine
 10
309.69701005092611
 20
-54.295255430666145
 30
0.0
 11
317.69701005092611
 21
-54.295255430666259
 31
0.0
  0
LINE
  5
2A0
100
AcDbEntity
  8
0
  6
CONTINUOUS
 62
               7
100
AcDbLine
 10
317.69701005092611
 20
-54.295255430666259
 30
0.0
 11
317.69701005092605
 21
-62.295255430666259
 31
0.0
  0
LINE
  5
2A1
100
AcDbEntity
  8
0
  6
CONTINUOUS
 62
               7
100
AcDbLine
 10
317.89482625730534
 20
-59.295255430666259
 30
0.0
 11
318.69701005092611
 21
-59.295255430666259
 31
0.0
  0
LINE
  5
2A2
100
AcDbEntity
  8
0
  6
CONTINUOUS
 62
               7
100
AcDbLine
 10
318.69701005092611
 20
-59.295255430666259
 30
0.0
 11
318.69701005092611
 21
-57.295255430666259
 31
0.0
  0
LINE
  5
2A3
100
AcDbEntity
  8
0
  6
CONTINUOUS
 62
               7
100
AcDbLine
 10
318.69701005092611
 20
-57.295255430666259
 30
0.0
 11
317.89443461500355
 21
-57.295821781609959
 31
0.0
  0
LINE
  5
2A4
100
AcDbEntity
  8
0
  6
CONTINUOUS
 62
               7
100
AcDbLine
 10
317.39701005092616
 20
-57.995255430666305
 30
0.0
 11
317.39701005092616
 21
-54.595255430666214
 31
0.0
  0
LINE
  5
2A5
100
AcDbEntity
  8
0
  6
CONTINUOUS
 62
               7
100
AcDbLine
 10
317.39701005092616
 20
-54.595255430666214
 30
0.0
 11
313.99701005092606
 21
-54.595255430666441
 31
0.0
  0
LINE
  5
2A6
100
AcDbEntity
  8
0
  6
CONTINUOUS
 62
               7
100
AcDbLine
 10
313.99701005092606
 20
-54.595255430666441
 30
0.0
 11
313.99701005092606
 21
-57.995255430666305
 31
0.0
  0
LINE
  5
2A7
100
AcDbEntity
  8
0
  6
CONTINUOUS
 62
               7
100
AcDbLine
 10
313.99701005092606
 20
-57.995255430666305
 30
0.0
 11
317.39701005092616
 21
-57.995255430666305
 31
0.0
  0
LINE
  5
2A8
100
AcDbEntity
  8
0
  6
CONTINUOUS
 62
               7
100
AcDbLine
 10
317.19701005092611
 20
-57.795255430666487
 30
0.0
 11
314.19701005092611
 21
-57.795255430666487
 31
0.0
  0
LINE
  5
2A9
100
AcDbEntity
  8
0
  6
CONTINUOUS
 62
               7
100
AcDbLine
 10
314.19701005092611
 20
-57.795255430666487
 30
0.0
 11
314.19701005092611
 21
-54.795255430666259
 31
0.0
  0
LINE
  5
2AA
100
AcDbEntity
  8
0
  6
CONTINUOUS
 62
               7
100
AcDbLine
 10
314.19701005092611
 20
-54.795255430666259
 30
0.0
 11
317.19701005092611
 21
-54.795255430666259
 31
0.0
  0
LINE
  5
2AB
100
AcDbEntity
  8
0
  6
CONTINUOUS
 62
               7
100
AcDbLine
 10
317.19701005092611
 20
-54.795255430666259
 30
0.0
 11
317.19701005092611
 21
-57.795255430666487
 31
0.0
  0
LINE
  5
2AC
100
AcDbEntity
  8
0
  6
CONTINUOUS
 62
               7
100
AcDbLine
 10
317.19701005092611
 20
-58.795255430666259
 30
0.0
 11
317.19701005092605
 21
-61.795255430666259
 31
0.0
  0
LINE
  5
2AD
100
AcDbEntity
  8
0
  6
CONTINUOUS
 62
               7
100
AcDbLine
 10
317.19701005092605
 20
-61.795255430666259
 30
0.0
 11
315.1384314071633
 21
-61.795255430666487
 31
0.0
  0
LINE
  5
2AE
100
AcDbEntity
  8
0
  6
CONTINUOUS
 62
               7
100
AcDbLine
 10
315.1384314071633
 20
-61.795255430666487
 30
0.0
 11
314.19701005092605
 21
-60.853834074429017
 31
0.0
  0
LINE
  5
2AF
100
AcDbEntity
  8
0
  6
CONTINUOUS
 62
               7
100
AcDbLine
 10
314.19701005092605
 20
-60.853834074429017
 30
0.0
 11
314.19701005092605
 21
-59.736676786903729
 31
0.0
  0
LINE
  5
2B0
100
AcDbEntity
  8
0
  6
CONTINUOUS
 62
               7
100
AcDbLine
 10
314.19701005092605
 20
-59.736676786903729
 30
0.0
 11
315.13843140716335
 21
-58.795255430666259
 31
0.0
  0
LINE
  5
2B1
100
AcDbEntity
  8
0
  6
CONTINUOUS
 62
               7
100
AcDbLine
 10
315.13843140716335
 20
-58.795255430666259
 30
0.0
 11
317.19701005092611
 21
-58.795255430666259
 31
0.0
  0
LINE
  5
2B2
100
AcDbEntity
  8
0
  6
CONTINUOUS
 62
               7
100
AcDbLine
 10
317.3970100509261
 20
-61.995255430666305
 30
0.0
 11
317.39701005092616
 21
-58.595255430666214
 31
0.0
  0
LINE
  5
2B3
100
AcDbEntity
  8
0
  6
CONTINUOUS
 62
               7
100
AcDbLine
 10
317.39701005092616
 20
-58.595255430666214
 30
0.0
 11
315.05558869468882
 21
-58.595255430666214
 31
0.0
  0
LINE
  5
2B4
100
AcDbEntity
  8
0
  6
CONTINUOUS
 62
               7
100
AcDbLine
 10
315.05558869468882
 20
-58.595255430666214
 30
0.0
 11
313.99701005092606
 21
-59.653834074428971
 31
0.0
  0
LINE
  5
2B5
100
AcDbEntity
  8
0
  6
CONTINUOUS
 62
               7
100
AcDbLine
 10
313.99701005092606
 20
-59.653834074428971
 30
0.0
 11
313.99701005092601
 21
-60.936676786903774
 31
0.0
  0
LINE
  5
2B6
100
AcDbEntity
  8
0
  6
CONTINUOUS
 62
               7
100
AcDbLine
 10
313.99701005092601
 20
-60.936676786903774
 30
0.0
 11
315.05558869468877
 21
-61.995255430666305
 31
0.0
  0
LINE
  5
2B7
100
AcDbEntity
  8
0
  6
CONTINUOUS
 62
               7
100
AcDbLine
 10
315.05558869468877
 20
-61.995255430666305
 30
0.0
 11
317.3970100509261
 21
-61.995255430666305
 31
0.0
  0
LINE
  5
2B8
100
AcDbEntity
  8
0
  6
CONTINUOUS
 62
               7
100
AcDbLine
 10
301.52723560829327
 20
-56.707192291659283
 30
0.0
 11
299.0
 21
-56.707192291659283
 31
0.0
  0
LINE
  5
2B9
100
AcDbEntity
  8
0
  6
CONTINUOUS
 62
               7
100
AcDbLine
 10
301.52723560829327
 20
-56.507192291659237
 30
0.0
 11
299.0
 21
-56.507192291659237
 31
0.0
  0
LINE
  5
2BA
100
AcDbEntity
  8
0
  6
CONTINUOUS
 62
               7
100
AcDbLine
 10
301.52723560829327
 20
-55.464292738250094
 30
0.0
 11
301.08399195447646
 21
-55.464292738250094
 31
0.0
  0
LINE
  5
2BB
100
AcDbEntity
  8
0
  6
CONTINUOUS
 62
               7
100
AcDbLine
 10
301.52723560829327
 20
-55.264292738250049
 30
0.0
 11
301.08399195447646
 21
-55.264292738250049
 31
0.0
  0
LINE
  5
2BC
100
AcDbEntity
  8
0
  6
CONTINUOUS
 62
               7
100
AcDbLine
 10
300.48523963105504
 20
-55.464292738249981
 30
0.0
 11
300.04199597723846
 21
-55.464292738249981
 31
0.0
  0
LINE
  5
2BD
100
AcDbEntity
  8
0
  6
CONTINUOUS
 62
               7
100
AcDbLine
 10
300.48523963105504
 20
-55.264292738249935
 30
0.0
 11
300.04199597723846
 21
-55.264292738249935
 31
0.0
  0
LINE
  5
2BE
100
AcDbEntity
  8
0
  6
CONTINUOUS
 62
               7
100
AcDbLine
 10
299.44324365381681
 20
-55.464292738249981
 30
0.0
 11
299.0
 21
-55.464292738250094
 31
0.0
  0
LINE
  5
2BF
100
AcDbEntity
  8
0
  6
CONTINUOUS
 62
               7
100
AcDbLine
 10
299.44324365381681
 20
-55.264292738249935
 30
0.0
 11
299.0
 21
-55.264292738250049
 31
0.0
  0
LINE
  5
2C0
100
AcDbEntity
  8
0
  6
CONTINUOUS
 62
               7
100
AcDbLine
 10
301.52723560829327
 20
-56.707192291659283
 30
0.0
 11
301.52723560829327
 21
-56.507192291659237
 31
0.0
  0
LINE
  5
2C1
100
AcDbEntity
  8
0
  6
CONTINUOUS
 62
               7
100
AcDbLine
 10
299.0
 20
-56.507192291659237
 30
0.0
 11
299.0
 21
-56.707192291659283
 31
0.0
  0
LINE
  5
2C2
100
AcDbEntity
  8
0
  6
CONTINUOUS
 62
               7
100
AcDbLine
 10
301.52723560829327
 20
-55.464292738250094
 30
0.0
 11
301.52723560829327
 21
-55.264292738250049
 31
0.0
  0
LINE
  5
2C3
100
AcDbEntity
  8
0
  6
CONTINUOUS
 62
               7
100
AcDbLine
 10
301.08399195447646
 20
-55.464292738250094
 30
0.0
 11
301.08399195447646
 21
-55.264292738250049
 31
0.0
  0
LINE
  5
2C4
100
AcDbEntity
  8
0
  6
CONTINUOUS
 62
               7
100
AcDbLine
 10
299.0
 20
-55.464292738250094
 30
0.0
 11
299.0
 21
-55.264292738250049
 31
0.0
  0
LINE
  5
2C5
100
AcDbEntity
  8
0
  6
CONTINUOUS
 62
               7
100
AcDbLine
 10
299.44324365381681
 20
-55.464292738249981
 30
0.0
 11
299.44324365381681
 21
-55.264292738249935
 31
0.0
  0
LINE
  5
2C6
100
AcDbEntity
  8
0
  6
CONTINUOUS
 62
               7
100
AcDbLine
 10
300.04199597723846
 20
-55.464292738249981
 30
0.0
 11
300.04199597723846
 21
-55.264292738249935
 31
0.0
  0
LINE
  5
2C7
100
AcDbEntity
  8
0
  6
CONTINUOUS
 62
               7
100
AcDbLine
 10
300.48523963105504
 20
-55.464292738249981
 30
0.0
 11
300.48523963105504
 21
-55.264292738249935
 31
0.0
  0
LINE
  5
2C8
100
AcDbEntity
  8
0
  6
CONTINUOUS
 62
               7
100
AcDbLine
 10
309.49701005092606
 20
-54.095280764139204
 30
0.0
 11
317.89381788724313
 21
-54.095596561449895
 31
0.0
  0
LINE
  5
2C9
100
AcDbEntity
  8
0
  6
CONTINUOUS
 62
               7
100
AcDbLine
 10
317.89381788724313
 20
-54.095596561449895
 30
0.0
 11
317.89549419732879
 21
-62.495255430666305
 31
0.0
  0
LINE
  5
2CA
100
AcDbEntity
  8
0
  6
CONTINUOUS
 62
               7
100
AcDbLine
 10
318.89701005092616
 20
-59.495255430666305
 30
0.0
 11
318.89701005092616
 21
-57.095255430666214
 31
0.0
  0
LINE
  5
2CB
100
AcDbEntity
  8
0
  6
CONTINUOUS
 62
               7
100
AcDbLine
 10
317.69701005092611
 20
-59.495255430666305
 30
0.0
 11
318.89701005092616
 21
-59.495255430666305
 31
0.0
  0
LINE
  5
2CC
100
AcDbEntity
  8
0
  6
CONTINUOUS
 62
               7
100
AcDbLine
 10
317.89549419732879
 20
-62.495255430666305
 30
0.0
 11
309.49701005092601
 21
-62.495255430666191
 31
0.0
  0
LINE
  5
2CD
100
AcDbEntity
  8
0
  6
CONTINUOUS
 62
               7
100
AcDbLine
 10
309.49701005092601
 20
-62.495255430666191
 30
0.0
 11
309.49701005092606
 21
-54.095280764139204
 31
0.0
  0
LINE
  5
2CE
100
AcDbEntity
  8
0
  6
CONTINUOUS
 62
               7
100
AcDbLine
 10
330.99999999999903
 20
-63.000000000003354
 30
0.0
 11
341.49999999999903
 21
-63.000000000003467
 31
0.0
  0
LINE
  5
2CF
100
AcDbEntity
  8
0
  6
CONTINUOUS
 62
               7
100
AcDbLine
 10
341.49999999999915
 20
-51.500000000003524
 30
0.0
 11
330.99999999999915
 21
-51.500000000003411
 31
0.0
  0
LINE
  5
2D0
100
AcDbEntity
  8
0
  6
CONTINUOUS
 62
               7
100
AcDbLine
 10
346.99999999999903
 20
-59.750000000003581
 30
0.0
 11
341.49999999999903
 21
-59.750000000003467
 31
0.0
  0
LINE
  5
2D1
100
AcDbEntity
  8
0
  6
CONTINUOUS
 62
               7
100
AcDbLine
 10
341.49999999999903
 20
-63.000000000003467
 30
0.0
 11
341.49999999999903
 21
-59.750000000003467
 31
0.0
  0
LINE
  5
2D2
100
AcDbEntity
  8
0
  6
CONTINUOUS
 62
               7
100
AcDbLine
 10
346.99999999999909
 20
-54.750000000003581
 30
0.0
 11
346.99999999999903
 21
-59.750000000003581
 31
0.0
  0
LINE
  5
2D3
100
AcDbEntity
  8
0
  6
CONTINUOUS
 62
               7
100
AcDbLine
 10
346.99999999999909
 20
-54.750000000003581
 30
0.0
 11
341.49999999999909
 21
-54.750000000003467
 31
0.0
  0
LINE
  5
2D4
100
AcDbEntity
  8
0
  6
CONTINUOUS
 62
               7
100
AcDbLine
 10
341.49999999999909
 20
-54.750000000003467
 30
0.0
 11
341.49999999999915
 21
-51.500000000003524
 31
0.0
  0
LINE
  5
2D5
100
AcDbEntity
  8
0
  6
CONTINUOUS
 62
               7
100
AcDbLine
 10
330.99999999999915
 20
-51.500000000003411
 30
0.0
 11
330.99999999999903
 21
-63.000000000003354
 31
0.0
  0
LINE
  5
2D6
100
AcDbEntity
  8
0
  6
CONTINUOUS
 62
               7
100
AcDbLine
 10
350.00000000000006
 20
-46.500000000003524
 30
0.0
 11
349.00000000000006
 21
-46.500000000003524
 31
0.0
  0
ARC
  5
2D7
100
AcDbEntity
  8
0
  6
CONTINUOUS
 62
               7
100
AcDbCircle
 10
362.49999999999875
 20
-92.300000000003649
 30
0.0
 40
0.5
100
AcDbArc
 50
179.99999999999949
 51
269.99999999999949
  0
LINE
  5
2D8
100
AcDbEntity
  8
0
  6
CONTINUOUS
 62
               7
100
AcDbLine
 10
361.99999999999875
 20
-86.400000000003558
 30
0.0
 11
353.99999999999875
 21
-86.400000000003445
 31
0.0
  0
ARC
  5
2D9
100
AcDbEntity
  8
0
  6
CONTINUOUS
 62
               7
100
AcDbCircle
 10
362.49999999999898
 20
-67.700000000003513
 30
0.0
 40
0.5
100
AcDbArc
 50
89.999999999999488
 51
179.99999999999949
  0
LINE
  5
2DA
100
AcDbEntity
  8
0
  6
CONTINUOUS
 62
               7
100
AcDbLine
 10
353.99999999999892
 20
-73.60000000000349
 30
0.0
 11
361.99999999999892
 21
-73.600000000003604
 31
0.0
  0
LINE
  5
2DB
100
AcDbEntity
  8
0
  6
CONTINUOUS
 62
               7
100
AcDbLine
 10
361.99999999999875
 20
-92.300000000003649
 30
0.0
 11
361.99999999999898
 21
-67.700000000003513
 31
0.0
  0
LINE
  5
2DC
100
AcDbEntity
  8
0
  6
CONTINUOUS
 62
               7
100
AcDbLine
 10
349.99999999999983
 20
-72.495932910218869
 30
0.0
 11
351.99999999999937
 21
-72.495932910219096
 31
0.0
  0
LINE
  5
2DD
100
AcDbEntity
  8
0
  6
CONTINUOUS
 62
               7
100
AcDbLine
 10
351.9999999999992
 20
-87.495932910219096
 30
0.0
 11
349.99999999999966
 21
-87.495932910218869
 31
0.0
  0
LINE
  5
2DE
100
AcDbEntity
  8
0
  6
CONTINUOUS
 62
               7
100
AcDbLine
 10
351.99999999999869
 20
-95.000000000003354
 30
0.0
 11
353.99999999999869
 21
-95.000000000003354
 31
0.0
  0
LINE
  5
2DF
100
AcDbEntity
  8
0
  6
CONTINUOUS
 62
               2
100
AcDbLine
 10
333.99999999999852
 20
-67.000000000003354
 30
0.0
 11
333.99999999999847
 21
-75.000000000003354
 31
0.0
  0
LINE
  5
2E0
100
AcDbEntity
  8
0
  6
CONTINUOUS
 62
               2
100
AcDbLine
 10
337.99999999999847
 20
-71.000000000003467
 30
0.0
 11
329.99999999999847
 21
-71.000000000003354
 31
0.0
  0
SOLID
  5
2E1
100
AcDbEntity
  8
0
  6
CONTINUOUS
 62
               7
100
AcDbTrace
 10
317.89381788724313
 20
-54.095596561449895
 30
0.0
 11
309.49701005092606
 21
-54.095596561449781
 31
0.0
 12
309.49701005092606
 22
-54.095280764139147
 32
0.0
 13
309.49701005092606
 23
-54.095280764139147
 33
0.0
  0
LINE
  5
2E2
100
AcDbEntity
  8
0
  6
CONTINUOUS
 62
               7
100
AcDbLine
 10
313.3970100509261
 20
-61.995255430666191
 30
0.0
 11
309.99701005092601
 21
-61.995255430666191
 31
0.0
  0
LINE
  5
2E3
100
AcDbEntity
  8
0
  6
CONTINUOUS
 62
               7
100
AcDbLine
 10
313.3970100509261
 20
-61.995255430666191
 30
0.0
 11
313.3970100509261
 21
-61.795255430666373
 31
0.0
  0
LINE
  5
2E4
100
AcDbEntity
  8
0
  6
CONTINUOUS
 62
               7
100
AcDbLine
 10
309.99701005092601
 20
-61.995255430666191
 30
0.0
 11
309.99701005092601
 21
-61.795255430666373
 31
0.0
  0
LINE
  5
2E5
100
AcDbEntity
  8
0
  6
CONTINUOUS
 62
               7
100
AcDbLine
 10
313.19701005092617
 20
-61.795255430666373
 30
0.0
 11
310.19701005092605
 21
-61.795255430666373
 31
0.0
  0
LINE
  5
2E6
100
AcDbEntity
  8
0
  6
CONTINUOUS
 62
               7
100
AcDbLine
 10
313.3970100509261
 20
-61.795255430666373
 30
0.0
 11
313.39701005092616
 21
-58.795255430666145
 31
0.0
  0
LINE
  5
2E7
100
AcDbEntity
  8
0
  6
CONTINUOUS
 62
               7
100
AcDbLine
 10
313.19701005092617
 20
-61.795255430666373
 30
0.0
 11
313.19701005092622
 21
-58.795255430666145
 31
0.0
  0
LINE
  5
2E8
100
AcDbEntity
  8
0
  6
CONTINUOUS
 62
               7
100
AcDbLine
 10
310.19701005092605
 20
-61.795255430666373
 30
0.0
 11
310.19701005092611
 21
-58.795255430666145
 31
0.0
  0
LINE
  5
2E9
100
AcDbEntity
  8
0
  6
CONTINUOUS
 62
               7
100
AcDbLine
 10
309.99701005092601
 20
-61.795255430666373
 30
0.0
 11
309.99701005092606
 21
-58.795255430666145
 31
0.0
  0
LINE
  5
2EA
100
AcDbEntity
  8
0
  6
CONTINUOUS
 62
               7
100
AcDbLine
 10
313.19701005092622
 20
-58.795255430666145
 30
0.0
 11
310.19701005092611
 21
-58.795255430666145
 31
0.0
  0
LINE
  5
2EB
100
AcDbEntity
  8
0
  6
CONTINUOUS
 62
               7
100
AcDbLine
 10
313.39701005092616
 20
-58.795255430666145
 30
0.0
 11
313.39701005092616
 21
-58.595255430666327
 31
0.0
  0
LINE
  5
2EC
100
AcDbEntity
  8
0
  6
CONTINUOUS
 62
               7
100
AcDbLine
 10
309.99701005092606
 20
-58.795255430666145
 30
0.0
 11
309.99701005092606
 21
-58.595255430666327
 31
0.0
  0
LINE
  5
2ED
100
AcDbEntity
  8
0
  6
CONTINUOUS
 62
               7
100
AcDbLine
 10
313.39701005092616
 20
-58.595255430666327
 30
0.0
 11
309.99701005092606
 21
-58.595255430666327
 31
0.0
  0
LINE
  5
2EE
100
AcDbEntity
  8
0
  6
CONTINUOUS
 62
               7
100
AcDbLine
 10
313.39701005092616
 20
-57.995255430666191
 30
0.0
 11
311.05558869468882
 21
-57.995255430666191
 31
0.0
  0
LINE
  5
2EF
100
AcDbEntity
  8
0
  6
CONTINUOUS
 62
               7
100
AcDbLine
 10
313.39701005092616
 20
-57.995255430666191
 30
0.0
 11
313.39701005092616
 21
-57.795255430666373
 31
0.0
  0
LINE
  5
2F0
100
AcDbEntity
  8
0
  6
CONTINUOUS
 62
               7
100
AcDbLine
 10
313.19701005092622
 20
-57.795255430666373
 30
0.0
 11
311.13843140716335
 21
-57.795255430666373
 31
0.0
  0
LINE
  5
2F1
100
AcDbEntity
  8
0
  6
CONTINUOUS
 62
               7
100
AcDbLine
 10
313.39701005092616
 20
-57.795255430666373
 30
0.0
 11
313.39701005092616
 21
-56.936676786903661
 31
0.0
  0
LINE
  5
2F2
100
AcDbEntity
  8
0
  6
CONTINUOUS
 62
               7
100
AcDbLine
 10
313.19701005092622
 20
-57.795255430666373
 30
0.0
 11
313.19701005092622
 21
-56.936676786903661
 31
0.0
  0
LINE
  5
2F3
100
AcDbEntity
  8
0
  6
CONTINUOUS
 62
               7
100
AcDbLine
 10
313.39701005092616
 20
-56.936676786903661
 30
0.0
 11
313.39701005092616
 21
-56.853834074428903
 31
0.0
  0
LINE
  5
2F4
100
AcDbEntity
  8
0
  6
CONTINUOUS
 62
               7
100
AcDbLine
 10
313.19701005092622
 20
-56.936676786903661
 30
0.0
 11
313.19701005092622
 21
-56.853834074428903
 31
0.0
  0
LINE
  5
2F5
100
AcDbEntity
  8
0
  6
CONTINUOUS
 62
               7
100
AcDbLine
 10
309.99701005092606
 20
-56.936676786903661
 30
0.0
 11
309.99701005092606
 21
-56.853834074428903
 31
0.0
  0
LINE
  5
2F6
100
AcDbEntity
  8
0
  6
CONTINUOUS
 62
               7
100
AcDbLine
 10
313.39701005092616
 20
-56.853834074428903
 30
0.0
 11
313.39701005092616
 21
-55.736676786903672
 31
0.0
  0
LINE
  5
2F7
100
AcDbEntity
  8
0
  6
CONTINUOUS
 62
               7
100
AcDbLine
 10
313.19701005092622
 20
-56.853834074428903
 30
0.0
 11
313.19701005092622
 21
-55.736676786903672
 31
0.0
  0
LINE
  5
2F8
100
AcDbEntity
  8
0
  6
CONTINUOUS
 62
               7
100
AcDbLine
 10
309.99701005092606
 20
-56.853834074428903
 30
0.0
 11
309.99701005092606
 21
-55.736676786903558
 31
0.0
  0
LINE
  5
2F9
100
AcDbEntity
  8
0
  6
CONTINUOUS
 62
               7
100
AcDbLine
 10
313.39701005092616
 20
-55.736676786903672
 30
0.0
 11
313.39701005092616
 21
-55.653834074428858
 31
0.0
  0
LINE
  5
2FA
100
AcDbEntity
  8
0
  6
CONTINUOUS
 62
               7
100
AcDbLine
 10
313.19701005092622
 20
-55.736676786903672
 30
0.0
 11
313.19701005092622
 21
-55.653834074428858
 31
0.0
  0
LINE
  5
2FB
100
AcDbEntity
  8
0
  6
CONTINUOUS
 62
               7
100
AcDbLine
 10
309.99701005092606
 20
-55.736676786903558
 30
0.0
 11
309.99701005092606
 21
-55.653834074428858
 31
0.0
  0
LINE
  5
2FC
100
AcDbEntity
  8
0
  6
CONTINUOUS
 62
               7
100
AcDbLine
 10
313.39701005092616
 20
-55.653834074428858
 30
0.0
 11
313.39701005092616
 21
-54.795255430666145
 31
0.0
  0
LINE
  5
2FD
100
AcDbEntity
  8
0
  6
CONTINUOUS
 62
               7
100
AcDbLine
 10
313.19701005092622
 20
-55.653834074428858
 30
0.0
 11
313.19701005092622
 21
-54.795255430666145
 31
0.0
  0
LINE
  5
2FE
100
AcDbEntity
  8
0
  6
CONTINUOUS
 62
               7
100
AcDbLine
 10
313.19701005092622
 20
-54.795255430666145
 30
0.0
 11
311.13843140716358
 21
-54.795255430666145
 31
0.0
  0
LINE
  5
2FF
100
AcDbEntity
  8
0
  6
CONTINUOUS
 62
               7
100
AcDbLine
 10
313.39701005092616
 20
-54.795255430666145
 30
0.0
 11
313.39701005092616
 21
-54.595255430666384
 31
0.0
  0
LINE
  5
300
100
AcDbEntity
  8
0
  6
CONTINUOUS
 62
               7
100
AcDbLine
 10
313.39701005092616
 20
-54.595255430666384
 30
0.0
 11
311.05558869468882
 21
-54.595255430666271
 31
0.0
  0
LINE
  5
301
100
AcDbEntity
  8
0
  6
CONTINUOUS
 62
               7
100
AcDbLine
 10
349.99999999999943
 20
-118.00000000000335
 30
0.0
 11
-50.000000000001535
 21
-117.99999999999949
 31
0.0
  0
LINE
  5
302
100
AcDbEntity
  8
0
  6
CONTINUOUS
 62
               7
100
AcDbLine
 10
-52.000000000000455
 20
-1.9999999999994884
 30
0.0
 11
351.99999999999955
 21
-2.0000000000033538
 31
0.0
  0
LINE
  5
303
100
AcDbEntity
  8
0
  6
CONTINUOUS
 62
               7
100
AcDbLine
 10
-54.000000000000455
 20
0.0000000000005116
 30
0.0
 11
353.99999999999955
 21
-0.0000000000033538
 31
0.0
  0
LINE
  5
304
100
AcDbEntity
  8
0
  6
CONTINUOUS
 62
               7
100
AcDbLine
 10
-12.41421356237413
 20
-65.585786437627974
 30
0.0
 11
-9.5857864376279167
 21
-68.414213562374186
 31
0.0
  0
LINE
  5
305
100
AcDbEntity
  8
0
  6
CONTINUOUS
 62
               7
100
AcDbLine
 10
-9.5857864376279167
 20
-65.585786437627974
 30
0.0
 11
-12.41421356237413
 21
-68.414213562374186
 31
0.0
  0
LINE
  5
306
100
AcDbEntity
  8
0
  6
CONTINUOUS
 62
               7
100
AcDbLine
 10
-12.416031195163612
 20
-95.585786437627007
 30
0.0
 11
-9.5876040704174272
 21
-98.414213562373277
 31
0.0
  0
LINE
  5
307
100
AcDbEntity
  8
0
  6
CONTINUOUS
 62
               7
100
AcDbLine
 10
-9.5876040704173988
 20
-95.585786437627064
 30
0.0
 11
-12.41603119516364
 21
-98.41421356237322
 31
0.0
  0
LINE
  5
308
100
AcDbEntity
  8
0
  6
CONTINUOUS
 62
               7
100
AcDbLine
 10
-50.000000000000796
 20
-46.500000000000568
 30
0.0
 11
-50.000000000001535
 21
-117.99999999999949
 31
0.0
  0
LINE
  5
309
100
AcDbEntity
  8
0
  6
CONTINUOUS
 62
               7
100
AcDbLine
 10
-49.001817632790306
 20
-76.499999999999716
 30
0.0
 11
-49.001817632789994
 21
-46.499999999999659
 31
0.0
  0
CIRCLE
  5
30A
100
AcDbEntity
  8
0
  6
CONTINUOUS
 62
               7
100
AcDbCircle
 10
-11.001817632790505
 20
-97.000000000000171
 30
0.0
 40
3.0
  0
CIRCLE
  5
30B
100
AcDbEntity
  8
0
  6
CONTINUOUS
 62
               7
100
AcDbCircle
 10
-11.000000000001023
 20
-67.00000000000108
 30
0.0
 40
3.0
  0
LINE
  5
30C
100
AcDbEntity
  8
0
  6
CONTINUOUS
 62
               7
100
AcDbLine
 10
-12.499999999999858
 20
-41.999999999999943
 30
0.0
 11
-12.499999999999886
 21
-45.999999999999943
 31
0.0
  0
LINE
  5
30D
100
AcDbEntity
  8
0
  6
CONTINUOUS
 62
               7
100
AcDbLine
 10
-13.499999999999858
 20
-41.999999999999943
 30
0.0
 11
-13.499999999999886
 21
-45.999999999999943
 31
0.0
  0
LINE
  5
30E
100
AcDbEntity
  8
0
  6
CONTINUOUS
 62
               7
100
AcDbLine
 10
-49.000000000001933
 20
-46.500000000000568
 30
0.0
 11
-50.000000000000796
 21
-46.500000000000568
 31
0.0
  0
ARC
  5
30F
100
AcDbEntity
  8
0
  6
CONTINUOUS
 62
               7
100
AcDbCircle
 10
-62.500000000001251
 20
-92.299999999999329
 30
0.0
 40
0.5
100
AcDbArc
 50
269.99999999999949
 51
359.99999999999949
  0
LINE
  5
310
100
AcDbEntity
  8
0
  6
CONTINUOUS
 62
               7
100
AcDbLine
 10
-67.682052426374298
 20
-92.802499999999384
 30
0.0
 11
-62.500000000001251
 21
-92.799999999999329
 31
0.0
  0
ARC
  5
311
100
AcDbEntity
  8
0
  6
CONTINUOUS
 62
               7
100
AcDbCircle
 10
-67.682052426374298
 20
-92.302499999999384
 30
0.0
 40
0.5
100
AcDbArc
 50
186.95559437540498
 51
269.99999999999949
  0
LINE
  5
312
100
AcDbEntity
  8
0
  6
CONTINUOUS
 62
               7
100
AcDbLine
 10
-62.000000000001251
 20
-86.399999999999466
 30
0.0
 11
-54.000000000001222
 21
-86.399999999999579
 31
0.0
  0
ARC
  5
313
100
AcDbEntity
  8
0
  6
CONTINUOUS
 62
               7
100
AcDbCircle
 10
-62.500000000001023
 20
-67.699999999999193
 30
0.0
 40
0.5
100
AcDbArc
 50
359.99999999999949
 51
89.999999999999488
  0
LINE
  5
314
100
AcDbEntity
  8
0
  6
CONTINUOUS
 62
               7
100
AcDbLine
 10
-62.500000000001023
 20
-67.19999999999942
 30
0.0
 11
-67.633164277114133
 21
-67.202499999999475
 31
0.0
  0
ARC
  5
315
100
AcDbEntity
  8
0
  6
CONTINUOUS
 62
               7
100
AcDbCircle
 10
-67.633164277113224
 20
-67.702499999999247
 30
0.0
 40
0.5
100
AcDbArc
 50
89.999999999999488
 51
172.8166754674194
  0
LINE
  5
316
100
AcDbEntity
  8
0
  6
CONTINUOUS
 62
               7
100
AcDbLine
 10
-54.00000000000108
 20
-73.599999999999625
 30
0.0
 11
-62.00000000000108
 21
-73.599999999999511
 31
0.0
  0
LINE
  5
317
100
AcDbEntity
  8
0
  6
CONTINUOUS
 62
               7
100
AcDbLine
 10
-62.000000000001251
 20
-92.299999999999329
 30
0.0
 11
-62.000000000001023
 21
-67.69999999999942
 31
0.0
  0
ARC
  5
318
100
AcDbEntity
  8
0
  6
CONTINUOUS
 62
               7
100
AcDbCircle
 10
31.523688337769727
 20
-80.199605286032977
 30
0.0
 40
100.44127806377109
100
AcDbArc
 50
172.81667546741934
 51
186.95559437540496
  0
LINE
  5
319
100
AcDbEntity
  8
0
  6
CONTINUOUS
 62
               7
100
AcDbLine
 10
-52.00000000000108
 20
-72.500000000000398
 30
0.0
 11
-50.00000000000108
 21
-72.500000000000398
 31
0.0
  0
LINE
  5
31A
100
AcDbEntity
  8
0
  6
CONTINUOUS
 62
               7
100
AcDbLine
 10
-50.000000000001222
 20
-87.500000000000398
 30
0.0
 11
-52.000000000001222
 21
-87.500000000000398
 31
0.0
  0
LINE
  5
31B
100
AcDbEntity
  8
0
  6
CONTINUOUS
 62
               7
100
AcDbLine
 10
-54.000000000000568
 20
-9.9999999999994884
 30
0.0
 11
-52.000000000000568
 21
-9.9999999999994884
 31
0.0
  0
LINE
  5
31C
100
AcDbEntity
  8
0
  6
CONTINUOUS
 62
               7
100
AcDbLine
 10
-54.000000000001307
 20
-94.999999999999375
 30
0.0
 11
-52.000000000001307
 21
-94.999999999999375
 31
0.0
  0
LINE
  5
31D
100
AcDbEntity
  8
0
  6
CONTINUOUS
 62
               7
100
AcDbLine
 10
-52.000000000001307
 20
-94.999999999999375
 30
0.0
 11
-52.000000000000455
 21
-1.9999999999994884
 31
0.0
  0
LINE
  5
31E
100
AcDbEntity
  8
0
  6
CONTINUOUS
 62
               7
100
AcDbLine
 10
-54.000000000001307
 20
-94.999999999999375
 30
0.0
 11
-54.000000000000455
 21
0.0000000000005116
 31
0.0
  0
ARC
  5
31F
100
AcDbEntity
  8
0
  6
CONTINUOUS
 62
               7
100
AcDbCircle
 10
155.00000000000045
 20
-55.250000000001307
 30
0.0
 40
16.25
100
AcDbArc
 50
75.749967302192715
 51
87.460524863917627
  0
ARC
  5
320
100
AcDbEntity
  8
0
  6
CONTINUOUS
 62
               7
100
AcDbCircle
 10
155.00000000000045
 20
-55.250000000001307
 30
0.0
 40
16.25
100
AcDbArc
 50
92.539475136081364
 51
104.25003269780628
  0
LINE
  5
321
100
AcDbEntity
  8
0
  6
CONTINUOUS
 62
               7
100
AcDbLine
 10
151.00000000000031
 20
-42.00000000000108
 30
0.0
 11
151.00000000000034
 21
-39.50000000000108
 31
0.0
  0
LINE
  5
322
100
AcDbEntity
  8
0
  6
CONTINUOUS
 62
               7
100
AcDbLine
 10
155.72000000000037
 20
-39.500000000001307
 30
0.0
 11
159.00000000000034
 21
-39.500000000001421
 31
0.0
  0
LINE
  5
323
100
AcDbEntity
  8
0
  6
CONTINUOUS
 62
               7
100
AcDbLine
 10
151.00000000000034
 20
-39.500000000001307
 30
0.0
 11
154.28000000000031
 21
-39.500000000001307
 31
0.0
  0
LINE
  5
324
100
AcDbEntity
  8
0
  6
CONTINUOUS
 62
               7
100
AcDbLine
 10
159.00000000000031
 20
-42.000000000001421
 30
0.0
 11
159.00000000000034
 21
-39.500000000001421
 31
0.0
  0
LINE
  5
325
100
AcDbEntity
  8
0
  6
CONTINUOUS
 62
               7
100
AcDbLine
 10
155.72000000000037
 20
-40.60000000000133
 30
0.0
 11
154.28000000000031
 21
-40.60000000000133
 31
0.0
  0
LINE
  5
326
100
AcDbEntity
  8
0
  6
CONTINUOUS
 62
               7
100
AcDbLine
 10
155.72000000000037
 20
-39.015958605450066
 30
0.0
 11
155.72000000000037
 21
-40.60000000000133
 31
0.0
  0
LINE
  5
327
100
AcDbEntity
  8
0
  6
CONTINUOUS
 62
               7
100
AcDbLine
 10
154.28000000000031
 20
-40.60000000000133
 30
0.0
 11
154.28000000000031
 21
-39.015958605450066
 31
0.0
  0
LINE
  5
328
100
AcDbEntity
  8
0
  6
CONTINUOUS
 62
               7
100
AcDbLine
 10
351.99999999999949
 20
-10.000000000003581
 30
0.0
 11
353.99999999999949
 21
-10.000000000003581
 31
0.0
  0
ARC
  5
329
100
AcDbEntity
  8
0
  6
CONTINUOUS
 62
               7
100
AcDbCircle
 10
367.68205242637271
 20
-92.302500000003704
 30
0.0
 40
0.5
100
AcDbArc
 50
269.99999999999949
 51
353.04440562459399
  0
ARC
  5
32A
100
AcDbEntity
  8
0
  6
CONTINUOUS
 62
               7
100
AcDbCircle
 10
367.63316427711209
 20
-67.702500000003567
 30
0.0
 40
0.5
100
AcDbArc
 50
7.1833245325796318
 51
89.999999999999545
  0
ARC
  5
32B
100
AcDbEntity
  8
0
  6
CONTINUOUS
 62
               7
100
AcDbCircle
 10
268.476311662228
 20
-80.199605286035251
 30
0.0
 40
100.44127806377109
100
AcDbArc
 50
353.04440562459399
 51
7.1833245325795305
  0
LINE
  5
32C
100
AcDbEntity
  8
0
  6
CONTINUOUS
 62
               2
100
AcDbLine
 10
60.0
 20
5.286341255531454
 30
0.0
 11
60.0
 21
-4.713658744468546
 31
0.0
  0
LINE
  5
32D
100
AcDbEntity
  8
0
  6
CONTINUOUS
 62
               2
100
AcDbLine
 10
0.0
 20
5.286341255531454
 30
0.0
 11
0.0
 21
-4.713658744468546
 31
0.0
  0
LINE
  5
32E
100
AcDbEntity
  8
0
  6
CONTINUOUS
 62
               2
100
AcDbLine
 10
240.0
 20
5.286341255531454
 30
0.0
 11
240.0
 21
-4.713658744468546
 31
0.0
  0
LINE
  5
32F
100
AcDbEntity
  8
0
  6
CONTINUOUS
 62
               2
100
AcDbLine
 10
300.0
 20
5.286341255531454
 30
0.0
 11
300.0
 21
-4.713658744468546
 31
0.0
  0
LINE
  5
330
100
AcDbEntity
  8
0
  6
CONTINUOUS
 62
               2
100
AcDbLine
 10
120.0
 20
5.286341255531454
 30
0.0
 11
120.0
 21
-4.713658744468546
 31
0.0
  0
LINE
  5
331
100
AcDbEntity
  8
0
  6
CONTINUOUS
 62
               2
100
AcDbLine
 10
180.0
 20
5.286341255531454
 30
0.0
 11
180.0
 21
-4.713658744468546
 31
0.0
  0
ENDBLK
  5
332
100
AcDbEntity
  8
0
100
AcDbBlockEnd
  0
BLOCK
  5
23
100
AcDbEntity
  8
0
  6
ByBlock
 62
               0
100
AcDbBlockBegin
  2
_OPEN30
 70
               2
 10
0.0
 20
0.0
 30
0.0
  3
_OPEN30
  1

  0
LINE
  5
24
100
AcDbEntity
  8
0
  6
ByBlock
 62
               0
100
AcDbLine
 10
-1.0
 20
0.267949
 30
0.0
 11
0.0
 21
0.0
 31
0.0
  0
LINE
  5
25
100
AcDbEntity
  8
0
  6
ByBlock
 62
               0
100
AcDbLine
 10
0.0
 20
0.0
 30
0.0
 11
-1.0
 21
-0.267949
 31
0.0
  0
LINE
  5
26
100
AcDbEntity
  8
0
  6
ByBlock
 62
               0
100
AcDbLine
 10
0.0
 20
0.0
 30
0.0
 11
-1.0
 21
0.0
 31
0.0
  0
ENDBLK
  5
27
100
AcDbEntity
  8
0
  6
ByBlock
 62
               0
100
AcDbBlockEnd
  0
ENDSEC
  0
SECTION
  2
ENTITIES
  0
INSERT
  5
333
100
AcDbEntity
  8
0
  6
ByBlock
100
AcDbBlockReference
  2
MS_3
 10
-199.99999999999909
 20
60.0
 30
0.0
  0
INSERT
  5
334
100
AcDbEntity
  8
0
  6
ByBlock
100
AcDbBlockReference
  2
MS_4
 10
-199.99999999999852
 20
340.00000000000176
 30
0.0
  0
INSERT
  5
335
100
AcDbEntity
  8
0
  6
ByBlock
100
AcDbBlockReference
  2
MS_2
 10
360.0
 20
-240.0
 30
0.0
  0
INSERT
  5
336
100
AcDbEntity
  8
0
  6
ByBlock
100
AcDbBlockReference
  2
MS_1
 10
-199.99999999999955
 20
-239.61253514638912
 30
0.0
  0
LINE
  5
337
100
AcDbEntity
  8
0
  6
CONTINUOUS
 62
               7
100
AcDbLine
 10
344.5
 20
-370.5
 30
0.0
 11
574.5
 21
-370.5
 31
0.0
  0
LINE
  5
338
100
AcDbEntity
  8
0
  6
CONTINUOUS
 62
               7
100
AcDbLine
 10
344.5
 20
-370.5
 30
0.0
 11
344.5
 21
-400.5
 31
0.0
  0
MTEXT
  5
339
100
AcDbEntity
  8
0
  6
CONTINUOUS
 62
               7
100
AcDbMText
 10
350.86206895687951
 20
-385.5
 30
0.0
 40
18.0
 41
0.0
 71
               4
 72
               1
  1
\W1.121;\A1;KOGANEI CORP.
  0
LINE
  5
33A
100
AcDbEntity
  8
0
  6
CONTINUOUS
 62
               7
100
AcDbLine
 10
344.5
 20
370.5
 30
0.0
 11
574.5
 21
370.5
 31
0.0
  0
LINE
  5
33B
100
AcDbEntity
  8
0
  6
CONTINUOUS
 62
               7
100
AcDbLine
 10
344.5
 20
400.5
 30
0.0
 11
344.5
 21
370.5
 31
0.0
  0
MTEXT
  5
33C
100
AcDbEntity
  8
0
  6
CONTINUOUS
 62
               7
100
AcDbMText
 10
412.2322331979733
 20
385.5
 30
0.0
 40
12.5
 41
0.0
 71
               4
 72
               1
  1
\W1.311;\A1;Ver. 1.0
  0
MTEXT
  5
33D
100
AcDbEntity
  8
0
  6
CONTINUOUS
 62
               7
100
AcDbMText
 10
-538.62234106129677
 20
340.5
 30
0.0
 40
12.5
 41
0.0
 71
               4
 72
               1
  1
\W1.021;\A1;MODEL:DTRY-ELW23
  0
MTEXT
  5
33E
100
AcDbEntity
  8
0
  6
CONTINUOUS
 62
               7
100
AcDbMText
 10
-509.98388020460118
 20
378.0
 30
0.0
 40
12.5
 41
0.0
 71
               4
 72
               1
  1
\W0.968;\A1;DTRY-ELW23
  0
MTEXT
  5
33F
100
AcDbEntity
  8
0
  6
CONTINUOUS
 62
               7
100
AcDbMText
 10
-503.50000825047493
 20
393.0
 30
0.0
 40
12.5
 41
0.0
 71
               4
 72
               1
  1
\W1.080;\A1;IONAIZEER
  0
LINE
  5
340
100
AcDbEntity
  8
0
  6
CONTINUOUS
 62
               7
100
AcDbLine
 10
-564.5
 20
370.5
 30
0.0
 11
-334.5
 21
370.5
 31
0.0
  0
LINE
  5
341
100
AcDbEntity
  8
0
  6
CONTINUOUS
 62
               7
100
AcDbLine
 10
-334.5
 20
400.5
 30
0.0
 11
-334.5
 21
370.5
 31
0.0
  0
LINE
  5
342
100
AcDbEntity
  8
0
  6
CONTINUOUS
 62
               7
100
AcDbLine
 10
574.5
 20
400.5
 30
0.0
 11
574.5
 21
-400.5
 31
0.0
  0
LINE
  5
343
100
AcDbEntity
  8
0
  6
CONTINUOUS
 62
               7
100
AcDbLine
 10
-564.5
 20
400.5
 30
0.0
 11
574.5
 21
400.5
 31
0.0
  0
LINE
  5
344
100
AcDbEntity
  8
0
  6
CONTINUOUS
 62
               7
100
AcDbLine
 10
-564.5
 20
-400.5
 30
0.0
 11
574.5
 21
-400.5
 31
0.0
  0
LINE
  5
345
100
AcDbEntity
  8
0
  6
CONTINUOUS
 62
               7
100
AcDbLine
 10
-564.5
 20
400.5
 30
0.0
 11
-564.5
 21
-400.5
 31
0.0
  0
ENDSEC
  0
SECTION
  2
OBJECTS
  0
DICTIONARY
  5
19
100
AcDbDictionary
  3
ACAD_GROUP
350
1A
  3
ACAD_MLINESTYLE
350
1B
  0
DICTIONARY
  5
1A
102
{ACAD_REACTORS
330
19
102
}
100
AcDbDictionary
  0
DICTIONARY
  5
1B
102
{ACAD_REACTORS
330
19
102
}
100
AcDbDictionary
  3
STANDARD
350
1C
  0
MLINESTYLE
  5
1C
102
{ACAD_REACTORS
330
1B
102
}
100
AcDbMlineStyle
  2
Standard
 70
               0
  3

 62
               0
 51
90.0
 52
90.0
 71
               2
 49
0.5
 62
             256
  6
ByLayer
 49
-0.5
 62
             256
  6
ByLayer
  0
ENDSEC
  0
EOF
