  0
SECTION
  2
HEADER
  9
$ACADVER
  1
AC1012
  9
$DWGCODEPAGE
  3
dos932
  9
$INSBASE
 10
0.0
 20
0.0
 30
0.0
  9
$EXTMIN
 10
-564.5
 20
-400.5
 30
0.0
  9
$EXTMAX
 10
581.5
 20
402.375
 30
0.0
  9
$LIMMIN
 10
-599.50000000000011
 20
-415.50000000000006
  9
$LIMMAX
 10
589.50000000000011
 20
425.50000000000006
  9
$ORTHOMODE
 70
               0
  9
$REGENMODE
 70
               1
  9
$FILLMODE
 70
               1
  9
$QTEXTMODE
 70
               0
  9
$MIRRTEXT
 70
               1
  9
$DRAGMODE
 70
               2
  9
$LTSCALE
 40
1.0
  9
$OSMODE
 70
               0
  9
$ATTMODE
 70
               1
  9
$TEXTSIZE
 40
3.2000000476837158
  9
$TRACEWID
 40
0.05
  9
$TEXTSTYLE
  7
MX_NOTE_STANDARD
  9
$CLAYER
  8
0
  9
$CELTYPE
  6
CONTINUOUS
  9
$CECOLOR
 62
             256
  9
$CELTSCALE
 40
1.0
  9
$DELOBJ
 70
               1
  9
$DISPSILH
 70
               0
  9
$DIMSCALE
 40
1.0
  9
$DIMASZ
 40
2.5
  9
$DIMEXO
 40
1.5
  9
$DIMDLI
 40
3.75
  9
$DIMRND
 40
0.0
  9
$DIMDLE
 40
0.0
  9
$DIMEXE
 40
1.5
  9
$DIMTP
 40
0.0
  9
$DIMTM
 40
0.0
  9
$DIMTXT
 40
3.2000000476837158
  9
$DIMCEN
 40
2.5
  9
$DIMTSZ
 40
0.0
  9
$DIMTOL
 70
               0
  9
$DIMLIM
 70
               0
  9
$DIMTIH
 70
               0
  9
$DIMTOH
 70
               0
  9
$DIMSE1
 70
               0
  9
$DIMSE2
 70
               0
  9
$DIMTAD
 70
               1
  9
$DIMZIN
 70
               8
  9
$DIMBLK
  1

  9
$DIMASO
 70
               1
  9
$DIMSHO
 70
               1
  9
$DIMPOST
  1

  9
$DIMAPOST
  1

  9
$DIMALT
 70
               0
  9
$DIMALTD
 70
               4
  9
$DIMALTF
 40
0.03937007874016
  9
$DIMLFAC
 40
1.0
  9
$DIMTOFL
 70
               1
  9
$DIMTVP
 40
0.0
  9
$DIMTIX
 70
               0
  9
$DIMSOXD
 70
               0
  9
$DIMSAH
 70
               1
  9
$DIMBLK1
  1
_OPEN30
  9
$DIMBLK2
  1
_OPEN30
  9
$DIMSTYLE
  2
MXDIMSTYLE
  9
$DIMCLRD
 70
               0
  9
$DIMCLRE
 70
               0
  9
$DIMCLRT
 70
               0
  9
$DIMTFAC
 40
1.0
  9
$DIMGAP
 40
1.0
  9
$DIMJUST
 70
               0
  9
$DIMSD1
 70
               0
  9
$DIMSD2
 70
               0
  9
$DIMTOLJ
 70
               0
  9
$DIMTZIN
 70
               0
  9
$DIMALTZ
 70
               0
  9
$DIMALTTZ
 70
               0
  9
$DIMFIT
 70
               3
  9
$DIMUPT
 70
               1
  9
$DIMUNIT
 70
               2
  9
$DIMDEC
 70
               2
  9
$DIMTDEC
 70
               2
  9
$DIMALTU
 70
               2
  9
$DIMALTTD
 70
               4
  9
$DIMTXSTY
  7
MX_NOTE_STANDARD
  9
$DIMAUNIT
 70
               0
  9
$LUNITS
 70
               2
  9
$LUPREC
 70
               4
  9
$SKETCHINC
 40
0.1
  9
$FILLETRAD
 40
0.0
  9
$AUNITS
 70
               0
  9
$AUPREC
 70
               0
  9
$MENU
  1
acad
  9
$ELEVATION
 40
0.0
  9
$PELEVATION
 40
0.0
  9
$THICKNESS
 40
0.0
  9
$LIMCHECK
 70
               0
  9
$BLIPMODE
 70
               1
  9
$CHAMFERA
 40
0.0
  9
$CHAMFERB
 40
0.0
  9
$CHAMFERC
 40
0.0
  9
$CHAMFERD
 40
0.0
  9
$SKPOLY
 70
               0
  9
$TDCREATE
 40
2453984.744699074
  9
$TDUPDATE
 40
2453984.744699074
  9
$TDINDWG
 40
0.0000000000
  9
$TDUSRTIMER
 40
0.0000000000
  9
$USRTIMER
 70
               1
  9
$ANGBASE
 50
0.0
  9
$ANGDIR
 70
               0
  9
$PDMODE
 70
               0
  9
$PDSIZE
 40
0.0
  9
$PLINEWID
 40
0.0
  9
$COORDS
 70
               1
  9
$SPLFRAME
 70
               0
  9
$SPLINETYPE
 70
               6
  9
$SPLINESEGS
 70
               8
  9
$ATTDIA
 70
               0
  9
$ATTREQ
 70
               1
  9
$HANDLING
 70
               1
  9
$HANDSEED
  5
29B
  9
$SURFTAB1
 70
               6
  9
$SURFTAB2
 70
               6
  9
$SURFTYPE
 70
               6
  9
$SURFU
 70
               6
  9
$SURFV
 70
               6
  9
$UCSNAME
  2

  9
$UCSORG
 10
0.0
 20
0.0
 30
0.0
  9
$UCSXDIR
 10
1.0
 20
0.0
 30
0.0
  9
$UCSYDIR
 10
0.0
 20
1.0
 30
0.0
  9
$PUCSNAME
  2

  9
$PUCSORG
 10
0.0
 20
0.0
 30
0.0
  9
$PUCSXDIR
 10
1.0
 20
0.0
 30
0.0
  9
$PUCSYDIR
 10
0.0
 20
1.0
 30
0.0
  9
$USERI1
 70
               0
  9
$USERI2
 70
               0
  9
$USERI3
 70
               0
  9
$USERI4
 70
               0
  9
$USERI5
 70
               0
  9
$USERR1
 40
0.0
  9
$USERR2
 40
0.0
  9
$USERR3
 40
0.0
  9
$USERR4
 40
0.0
  9
$USERR5
 40
0.0
  9
$WORLDVIEW
 70
               1
  9
$SHADEDGE
 70
               3
  9
$SHADEDIF
 70
              70
  9
$TILEMODE
 70
               1
  9
$MAXACTVP
 70
              16
  9
$PINSBASE
 10
0.0
 20
0.0
 30
0.0
  9
$PLIMCHECK
 70
               0
  9
$PEXTMIN
 10
1.0000000000000000E+20
 20
1.0000000000000000E+20
 30
1.0000000000000000E+20
  9
$PEXTMAX
 10
-1.0000000000000000E+20
 20
-1.0000000000000000E+20
 30
-1.0000000000000000E+20
  9
$PLIMMIN
 10
0.0
 20
0.0
  9
$PLIMMAX
 10
12.0
 20
9.0
  9
$UNITMODE
 70
               0
  9
$VISRETAIN
 70
               0
  9
$PLINEGEN
 70
               1
  9
$PSLTSCALE
 70
               0
  9
$TREEDEPTH
 70
            3020
  9
$PICKSTYLE
 70
               1
  9
$CMLSTYLE
  2
Standard
  9
$CMLJUST
 70
               0
  9
$CMLSCALE
 40
1.0
  9
$SAVEIMAGES
 70
               0
  0
ENDSEC
  0
SECTION
  2
CLASSES
  0
CLASS
  1
LWPOLYLINE
  2
AcDbPolyline
  3
"AutoCAD"
 90
    32768
280
               0
281
               1
  0
CLASS
  1
IMAGE
  2
AcDbRasterImage
  3
ISM
 90
    32895
280
               0
281
               1
  0
CLASS
  1
OLE2FRAME
  2
AcDbOle2Frame
  3
""
 90
    32768
280
               0
281
               1
  0
CLASS
  1
HATCH
  2
AcDbHatch
  3
"ACAD_SEDONA"
 90
    32768
280
               0
281
               1
  0
CLASS
  1
DICTIONARYVAR
  2
AcDbDictionaryVar
  3
"AutoCAD"
 90
    32768
280
               0
281
               0
  0
CLASS
  1
RASTERVARIABLES
  2
AcDbRasterVariables
  3
ISM
 90
    32768
280
               0
281
               0
  0
CLASS
  1
IMAGEDEF
  2
AcDbRasterImageDef
  3
ISM
 90
    32768
280
               0
281
               0
  0
CLASS
  1
IMAGEDEF_REACTOR
  2
AcDbRasterImageDefReactor
  3
ISM
 90
    32769
280
               0
281
               0
  0
CLASS
  1
IDBUFFER
  2
AcDbIdBuffer
  3
"Acad"
 90
    32768
280
               0
281
               0
  0
CLASS
  1
SPATIAL_FILTER
  2
AcDbSpatialFilter
  3
"Acad"
 90
    32768
280
               0
281
               0
  0
CLASS
  1
XRECORD
  2
AcDbXrecord
  3
"<Built In>"
 90
    32768
280
               0
281
               0
  0
CLASS
  1
SORTENTSTABLE
  2
AcDbSortentsTable
  3
"AutoCAD"
 90
    32768
280
               0
281
               0
  0
CLASS
  1
LAYER_INDEX
  2
AcDbLayerIndex
  3
"Acad"
 90
    32768
280
               0
281
               0
  0
CLASS
  1
SPATIAL_INDEX
  2
AcDbSpatialIndex
  3
"Acad"
 90
    32768
280
               0
281
               0
  0
CLASS
  1
OBJECT_PTR
  2
CAseDLPNTableRecord
  3
"ASE-LPNTableRecord"
 90
    32769
280
               0
281
               0
  0
CLASS
  1
LAYOUT
  2
AcDbLayout
  3
"AutoCAD 2000"
 90
    32768
280
               0
281
               0
  0
CLASS
  1
PLOTSETTINGS
  2
AcDbPlotSettings
  3
"AutoCAD 2000"
 90
    32768
280
               0
281
               0
  0
CLASS
  1
ACDBDICTIONARYWDFLT
  2
AcDbDictionaryWithDefault
  3
"AutoCAD 2000"
 90
    32768
280
               0
281
               0
  0
CLASS
  1
ACDBPLACEHOLDER
  2
AcDbPlaceHolder
  3
"AutoCAD 2000"
 90
    32768
280
               0
281
               0
  0
ENDSEC
  0
SECTION
  2
TABLES
  0
TABLE
  2
VPORT
  5
7
100
AcDbSymbolTable
 70
               1
  0
VPORT
  5
15
100
AcDbSymbolTableRecord
100
AcDbViewportTableRecord
  2
*ACTIVE
 70
               0
 10
0.0
 20
0.0
 11
1.0
 21
1.0
 12
-5.0
 22
5.0
 13
0.0
 23
0.0
 14
1.0
 24
1.0
 15
0.0
 25
0.0
 16
0.0
 26
0.0
 36
1.0
 17
0.0
 27
0.0
 37
0.0
 40
849.41000000000008
 41
1.7320508075688772
 42
50.0
 43
0.0
 44
0.0
 50
0.0
 51
0.0
 71
               0
 72
             100
 73
               1
 74
               1
 75
               0
 76
               0
 77
               0
 78
               0
  0
ENDTAB
  0
TABLE
  2
LTYPE
  5
4
100
AcDbSymbolTable
 70
               5
  0
LTYPE
  5
11
100
AcDbSymbolTableRecord
100
AcDbLinetypeTableRecord
  2
BYBLOCK
 70
              64
  3

 72
              65
 73
               0
 40
0.0
  0
LTYPE
  5
12
100
AcDbSymbolTableRecord
100
AcDbLinetypeTableRecord
  2
BYLAYER
 70
              64
  3

 72
              65
 73
               0
 40
0.0
  0
LTYPE
  5
13
100
AcDbSymbolTableRecord
100
AcDbLinetypeTableRecord
  2
CONTINUOUS
 70
              64
  3
Solid line
 72
              65
 73
               0
 40
0.0
  0
LTYPE
  5
19D
100
AcDbSymbolTableRecord
100
AcDbLinetypeTableRecord
  2
DASHED
 70
              64
  3
Dashed __ __ __ __ __ __ __ __ __ __ __ __ __ _
 72
              65
 73
               2
 40
19.049999999999997
 49
12.699999999999999
 74
               0
 49
-6.3499999999999996
 74
               0
  0
LTYPE
  5
1A0
100
AcDbSymbolTableRecord
100
AcDbLinetypeTableRecord
  2
CENTER
 70
              64
  3
Center ____ _ ____ _ ____ _ ____ _ ____ _ ____
 72
              65
 73
               4
 40
50.800000000000004
 49
31.75
 74
               0
 49
-6.3499999999999996
 74
               0
 49
6.3499999999999996
 74
               0
 49
-6.3499999999999996
 74
               0
  0
ENDTAB
  0
TABLE
  2
LAYER
  5
2
100
AcDbSymbolTable
 70
               2
  0
LAYER
  5
14
100
AcDbSymbolTableRecord
100
AcDbLayerTableRecord
  2
0
 70
               0
 62
               7
  6
CONTINUOUS
  0
LAYER
  5
1D
100
AcDbSymbolTableRecord
100
AcDbLayerTableRecord
  2
DEFPOINTS
 70
               0
 62
               7
  6
CONTINUOUS
  0
ENDTAB
  0
TABLE
  2
STYLE
  5
3
100
AcDbSymbolTable
 70
               1
  0
STYLE
  5
17
100
AcDbSymbolTableRecord
100
AcDbTextStyleTableRecord
  2
MX_NOTE_STANDARD
 70
               0
 40
0.0
 41
1.0
 50
0.0
 71
               0
 42
3.2000000476837158
  3
txt.shx
  4
extfont.shx
  0
ENDTAB
  0
TABLE
  2
VIEW
  5
5
100
AcDbSymbolTable
 70
               0
  0
ENDTAB
  0
TABLE
  2
UCS
  5
6
100
AcDbSymbolTable
 70
               0
  0
ENDTAB
  0
TABLE
  2
APPID
  5
8
100
AcDbSymbolTable
 70
               1
  0
APPID
  5
16
100
AcDbSymbolTableRecord
100
AcDbRegAppTableRecord
  2
ACAD
 70
               0
  0
ENDTAB
  0
TABLE
  2
DIMSTYLE
  5
9
100
AcDbSymbolTable
 70
               1
  0
DIMSTYLE
105
18
100
AcDbSymbolTableRecord
100
AcDbDimStyleTableRecord
  2
MXDIMSTYLE
 70
               0
  3

  4

  5

  6
_OPEN30
  7
_OPEN30
 40
1.0
 41
2.5
 42
1.5
 43
3.75
 44
1.5
 45
0.0
 46
0.0
 47
0.0
 48
0.0
 71
               0
 72
               0
 73
               0
 74
               0
 75
               0
 76
               0
 77
               1
 78
               8
140
3.2000000476837158
141
2.5
142
0.0
143
0.03937007874016
144
1.0
145
0.0
146
1.0
147
1.0
170
               0
171
               4
172
               1
173
               1
174
               0
175
               0
176
               0
177
               0
178
               0
270
               2
271
               2
272
               2
273
               2
274
               4
275
               0
280
               0
281
               0
282
               0
283
               0
284
               0
285
               0
286
               0
287
               3
288
               1
340
17
  0
ENDTAB
  0
TABLE
  2
BLOCK_RECORD
  5
1
100
AcDbSymbolTable
 70
               5
  0
BLOCK_RECORD
  5
A
100
AcDbSymbolTableRecord
100
AcDbBlockTableRecord
  2
*MODEL_SPACE
  0
BLOCK_RECORD
  5
B
100
AcDbSymbolTableRecord
100
AcDbBlockTableRecord
  2
*PAPER_SPACE
  0
BLOCK_RECORD
  5
1E
100
AcDbSymbolTableRecord
100
AcDbBlockTableRecord
  2
MS_1
  0
BLOCK_RECORD
  5
1F
100
AcDbSymbolTableRecord
100
AcDbBlockTableRecord
  2
MS_2
  0
BLOCK_RECORD
  5
20
100
AcDbSymbolTableRecord
100
AcDbBlockTableRecord
  2
MS_3
  0
BLOCK_RECORD
  5
21
100
AcDbSymbolTableRecord
100
AcDbBlockTableRecord
  2
MS_4
  0
BLOCK_RECORD
  5
22
100
AcDbSymbolTableRecord
100
AcDbBlockTableRecord
  2
_OPEN30
  0
ENDTAB
  0
ENDSEC
  0
SECTION
  2
BLOCKS
  0
BLOCK
  5
D
100
AcDbEntity
  8
0
100
AcDbBlockBegin
  2
*MODEL_SPACE
 70
               0
 10
0.0
 20
0.0
 30
0.0
  3
*MODEL_SPACE
  1

  0
ENDBLK
  5
E
100
AcDbEntity
  8
0
100
AcDbBlockEnd
  0
BLOCK
  5
F
100
AcDbEntity
 67
               1
  8
0
100
AcDbBlockBegin
  2
*PAPER_SPACE
 70
               0
 10
0.0
 20
0.0
 30
0.0
  3
*PAPER_SPACE
  1

  0
ENDBLK
  5
10
100
AcDbEntity
 67
               1
  8
0
100
AcDbBlockEnd
  0
BLOCK
  5
28
100
AcDbEntity
  8
0
100
AcDbBlockBegin
  2
MS_1
 70
               0
 10
0.0
 20
0.0
 30
0.0
  3
MS_1
  1

  0
LINE
  5
29
100
AcDbEntity
  8
0
  6
CONTINUOUS
 62
               2
100
AcDbLine
 10
-83.917391720631201
 20
79.999999999999886
 30
0.0
 11
-54.994434661928324
 21
79.999999999999886
 31
0.0
  0
LINE
  5
2A
100
AcDbEntity
  8
0
  6
CONTINUOUS
 62
               2
100
AcDbLine
 10
235.00181730182538
 20
80.000000000000114
 30
0.0
 11
264.06527272846103
 21
80.000000000000114
 31
0.0
  0
LINE
  5
2B
100
AcDbEntity
  8
0
  6
CONTINUOUS
 62
               7
100
AcDbLine
 10
238.99999966903709
 20
46.499999999999091
 30
0.0
 11
-60.000000330963928
 21
46.5
 31
0.0
  0
LINE
  5
2C
100
AcDbEntity
  8
0
  6
CONTINUOUS
 62
               7
100
AcDbLine
 10
238.99999966903709
 20
114.43048204118986
 30
0.0
 11
238.99999966903709
 21
46.499999999999091
 31
0.0
  0
CIRCLE
  5
2D
100
AcDbEntity
  8
0
  6
CONTINUOUS
 62
               7
100
AcDbCircle
 10
217.24999966903698
 20
106.0861321541334
 30
0.0
 40
1.6000000000000001
  0
CIRCLE
  5
2E
100
AcDbEntity
  8
0
  6
CONTINUOUS
 62
               7
100
AcDbCircle
 10
207.24999966903709
 20
106.0861321541334
 30
0.0
 40
1.6000000000000001
  0
LINE
  5
2F
100
AcDbEntity
  8
0
  6
CONTINUOUS
 62
               7
100
AcDbLine
 10
220.89999966903719
 20
108.74047579392987
 30
0.0
 11
233.59999966903712
 21
108.74047579392987
 31
0.0
  0
LINE
  5
30
100
AcDbEntity
  8
0
  6
CONTINUOUS
 62
               7
100
AcDbLine
 10
222.79999966903716
 20
106.8404757939299
 30
0.0
 11
231.69999966903703
 21
106.8404757939299
 31
0.0
  0
LINE
  5
31
100
AcDbEntity
  8
0
  6
CONTINUOUS
 62
               7
100
AcDbLine
 10
220.89999966903719
 20
96.040475793929886
 30
0.0
 11
220.89999966903719
 21
108.74047579392987
 31
0.0
  0
LINE
  5
32
100
AcDbEntity
  8
0
  6
CONTINUOUS
 62
               7
100
AcDbLine
 10
222.79999966903716
 20
97.940475793929863
 30
0.0
 11
222.79999966903716
 21
106.8404757939299
 31
0.0
  0
LINE
  5
33
100
AcDbEntity
  8
0
  6
CONTINUOUS
 62
               7
100
AcDbLine
 10
233.59999966903712
 20
96.040475793929886
 30
0.0
 11
220.89999966903719
 21
96.040475793929886
 31
0.0
  0
LINE
  5
34
100
AcDbEntity
  8
0
  6
CONTINUOUS
 62
               7
100
AcDbLine
 10
231.69999966903703
 20
97.940475793929863
 30
0.0
 11
222.79999966903716
 21
97.940475793929863
 31
0.0
  0
LINE
  5
35
100
AcDbEntity
  8
0
  6
CONTINUOUS
 62
               7
100
AcDbLine
 10
233.59999966903712
 20
108.74047579392987
 30
0.0
 11
233.59999966903712
 21
96.040475793929886
 31
0.0
  0
LINE
  5
36
100
AcDbEntity
  8
0
  6
CONTINUOUS
 62
               7
100
AcDbLine
 10
231.69999966903703
 20
106.8404757939299
 30
0.0
 11
231.69999966903703
 21
97.940475793929863
 31
0.0
  0
LINE
  5
37
100
AcDbEntity
  8
0
  6
CONTINUOUS
 62
               7
100
AcDbLine
 10
-5.5000003309639283
 20
107.25000000000176
 30
0.0
 11
-5.5000003309639283
 21
89.500000000000909
 31
0.0
  0
LINE
  5
38
100
AcDbEntity
  8
0
  6
CONTINUOUS
 62
               7
100
AcDbLine
 10
195.49999966903607
 20
87.500000000000909
 30
0.0
 11
195.49999966903607
 21
107.25000000000091
 31
0.0
  0
LINE
  5
39
100
AcDbEntity
  8
0
  6
CONTINUOUS
 62
               7
100
AcDbLine
 10
195.49999966903607
 20
107.25000000000091
 30
0.0
 11
-5.5000003309639283
 21
107.25000000000176
 31
0.0
  0
LINE
  5
3A
100
AcDbEntity
  8
0
  6
CONTINUOUS
 62
               7
100
AcDbLine
 10
238.99999966903709
 20
75.011284448634797
 30
0.0
 11
-59.000000330963928
 21
75.011284448634797
 31
0.0
  0
ARC
  5
3B
100
AcDbEntity
  8
0
  6
CONTINUOUS
 62
               7
100
AcDbCircle
 10
-43.000000330963928
 20
96.5
 30
0.0
 40
8.0
100
AcDbArc
 50
329.99999999999909
 51
210.00000000000077
  0
ARC
  5
3C
100
AcDbEntity
  8
0
  6
CONTINUOUS
 62
               7
100
AcDbCircle
 10
-43.000000330963928
 20
97.0
 30
0.0
 40
8.4000000000000004
100
AcDbArc
 50
90.0
 51
212.9548573041117
  0
ARC
  5
3D
100
AcDbEntity
  8
0
  6
CONTINUOUS
 62
               7
100
AcDbCircle
 10
-43.000000330963928
 20
96.0
 30
0.0
 40
9.4000000000000004
100
AcDbArc
 50
332.64027479642471
 51
90.0
  0
LINE
  5
3E
100
AcDbEntity
  8
0
  6
CONTINUOUS
 62
               7
100
AcDbLine
 10
-36.071797100688343
 20
92.5
 30
0.0
 11
-34.651496992807267
 21
91.679989350384915
 31
0.0
  0
LINE
  5
3F
100
AcDbEntity
  8
0
  6
CONTINUOUS
 62
               7
100
AcDbLine
 10
239.00181730182641
 20
114.43048204118986
 30
0.0
 11
-59.000000330963928
 21
114.43048204118986
 31
0.0
  0
LINE
  5
40
100
AcDbEntity
  8
0
  6
CONTINUOUS
 62
               7
100
AcDbLine
 10
240.00181730182641
 20
118.0
 30
0.0
 11
-60.000000330963928
 21
118.0
 31
0.0
  0
LINE
  5
41
100
AcDbEntity
  8
0
  6
CONTINUOUS
 62
               7
100
AcDbLine
 10
239.00181730182641
 20
46.5
 30
0.0
 11
239.00181730182641
 21
114.43048204118986
 31
0.0
  0
LINE
  5
42
100
AcDbEntity
  8
0
  6
CONTINUOUS
 62
               7
100
AcDbLine
 10
240.00181730182641
 20
46.5
 30
0.0
 11
240.00181730182641
 21
118.0
 31
0.0
  0
LINE
  5
43
100
AcDbEntity
  8
0
  6
CONTINUOUS
 62
               7
100
AcDbLine
 10
-60.000000330963928
 20
46.5
 30
0.0
 11
-60.000000330963928
 21
118.0
 31
0.0
  0
LINE
  5
44
100
AcDbEntity
  8
0
  6
CONTINUOUS
 62
               7
100
AcDbLine
 10
-59.000000330963928
 20
46.5
 30
0.0
 11
-59.000000330963928
 21
114.43048204118986
 31
0.0
  0
LINE
  5
45
100
AcDbEntity
  8
0
  6
CONTINUOUS
 62
               7
100
AcDbLine
 10
240.00181730182641
 20
46.5
 30
0.0
 11
239.00181730182641
 21
46.5
 31
0.0
  0
LINE
  5
46
100
AcDbEntity
  8
0
  6
CONTINUOUS
 62
               7
100
AcDbLine
 10
45.999999669034707
 20
96.499999999996191
 30
0.0
 11
69.499999669034707
 21
96.499999999996191
 31
0.0
  0
LINE
  5
47
100
AcDbEntity
  8
0
  6
CONTINUOUS
 62
               7
100
AcDbLine
 10
45.999999669034707
 20
97.999999999996078
 30
0.0
 11
69.499999669034707
 21
97.99999999999801
 31
0.0
  0
LINE
  5
48
100
AcDbEntity
  8
0
  6
CONTINUOUS
 62
               7
100
AcDbLine
 10
-3.0000003309652925
 20
96.49999999999801
 30
0.0
 11
19.499999669034707
 21
96.49999999999801
 31
0.0
  0
LINE
  5
49
100
AcDbEntity
  8
0
  6
CONTINUOUS
 62
               7
100
AcDbLine
 10
-3.0000003309652925
 20
97.99999999999801
 30
0.0
 11
19.499999669034707
 21
97.99999999999801
 31
0.0
  0
LINE
  5
4A
100
AcDbEntity
  8
0
  6
CONTINUOUS
 62
               7
100
AcDbLine
 10
45.999999669034707
 20
89.749999999997897
 30
0.0
 11
57.281249669035844
 21
89.749999999997897
 31
0.0
  0
LINE
  5
4B
100
AcDbEntity
  8
0
  6
CONTINUOUS
 62
               7
100
AcDbLine
 10
58.218749669036526
 20
89.749999999997897
 30
0.0
 11
69.499999669034707
 21
89.749999999997897
 31
0.0
  0
LINE
  5
4C
100
AcDbEntity
  8
0
  6
CONTINUOUS
 62
               7
100
AcDbLine
 10
-3.0000003309652925
 20
89.749999999997897
 30
0.0
 11
7.2812496690358444
 21
89.749999999997897
 31
0.0
  0
LINE
  5
4D
100
AcDbEntity
  8
0
  6
CONTINUOUS
 62
               7
100
AcDbLine
 10
8.2187496690365265
 20
89.749999999997897
 30
0.0
 11
19.499999669034707
 21
89.749999999997897
 31
0.0
  0
LINE
  5
4E
100
AcDbEntity
  8
0
  6
CONTINUOUS
 62
               7
100
AcDbLine
 10
-5.5000003309652925
 20
88.24999999999801
 30
0.0
 11
7.2499996690360717
 21
88.24999999999801
 31
0.0
  0
LINE
  5
4F
100
AcDbEntity
  8
0
  6
CONTINUOUS
 62
               7
100
AcDbLine
 10
8.2499996690360717
 20
88.24999999999801
 30
0.0
 11
32.249999669036072
 21
88.24999999999801
 31
0.0
  0
LINE
  5
50
100
AcDbEntity
  8
0
  6
CONTINUOUS
 62
               7
100
AcDbLine
 10
33.249999669036072
 20
88.24999999999801
 30
0.0
 11
57.249999669036072
 21
88.24999999999801
 31
0.0
  0
LINE
  5
51
100
AcDbEntity
  8
0
  6
CONTINUOUS
 62
               7
100
AcDbLine
 10
58.249999669036072
 20
88.24999999999801
 30
0.0
 11
82.249999669036072
 21
88.24999999999801
 31
0.0
  0
LINE
  5
52
100
AcDbEntity
  8
0
  6
CONTINUOUS
 62
               7
100
AcDbLine
 10
45.999999669034707
 20
104.74999999999801
 30
0.0
 11
69.499999669034707
 21
104.74999999999977
 31
0.0
  0
LINE
  5
53
100
AcDbEntity
  8
0
  6
CONTINUOUS
 62
               7
100
AcDbLine
 10
45.999999669034707
 20
104.74999999999801
 30
0.0
 11
45.999999669034707
 21
97.999999999996078
 31
0.0
  0
LINE
  5
54
100
AcDbEntity
  8
0
  6
CONTINUOUS
 62
               7
100
AcDbLine
 10
44.499999669034707
 20
104.74999999999801
 30
0.0
 11
44.499999669034935
 21
97.999999999996078
 31
0.0
  0
LINE
  5
55
100
AcDbEntity
  8
0
  6
CONTINUOUS
 62
               7
100
AcDbLine
 10
-3.0000003309652925
 20
104.74999999999801
 30
0.0
 11
19.499999669034707
 21
104.74999999999977
 31
0.0
  0
LINE
  5
56
100
AcDbEntity
  8
0
  6
CONTINUOUS
 62
               7
100
AcDbLine
 10
-4.5000003309652925
 20
107.25000000000176
 30
0.0
 11
-4.5000003309652925
 21
88.24999999999801
 31
0.0
  0
LINE
  5
57
100
AcDbEntity
  8
0
  6
CONTINUOUS
 62
               7
100
AcDbLine
 10
96.499999669034707
 20
88.24999999999801
 30
0.0
 11
96.499999669034707
 21
89.749999999998863
 31
0.0
  0
LINE
  5
58
100
AcDbEntity
  8
0
  6
CONTINUOUS
 62
               7
100
AcDbLine
 10
93.499999669034707
 20
89.749999999997897
 30
0.0
 11
93.499999669034707
 21
96.499999999996191
 31
0.0
  0
LINE
  5
59
100
AcDbEntity
  8
0
  6
CONTINUOUS
 62
               7
100
AcDbLine
 10
70.999999669034707
 20
104.74999999999801
 30
0.0
 11
70.999999669034707
 21
97.99999999999801
 31
0.0
  0
LINE
  5
5A
100
AcDbEntity
  8
0
  6
CONTINUOUS
 62
               7
100
AcDbLine
 10
69.499999669034707
 20
104.74999999999801
 30
0.0
 11
69.499999669034935
 21
97.999999999996078
 31
0.0
  0
LINE
  5
5B
100
AcDbEntity
  8
0
  6
CONTINUOUS
 62
               7
100
AcDbLine
 10
20.999999669034707
 20
104.74999999999801
 30
0.0
 11
20.999999669034935
 21
97.99999999999801
 31
0.0
  0
LINE
  5
5C
100
AcDbEntity
  8
0
  6
CONTINUOUS
 62
               7
100
AcDbLine
 10
19.499999669034707
 20
104.74999999999801
 30
0.0
 11
19.499999669034707
 21
97.99999999999801
 31
0.0
  0
LINE
  5
5D
100
AcDbEntity
  8
0
  6
CONTINUOUS
 62
               7
100
AcDbLine
 10
-3.0000003309652925
 20
104.74999999999801
 30
0.0
 11
-3.0000003309652925
 21
97.99999999999801
 31
0.0
  0
LINE
  5
5E
100
AcDbEntity
  8
0
  6
CONTINUOUS
 62
               7
100
AcDbLine
 10
70.999999669034707
 20
104.74999999999977
 30
0.0
 11
93.499999669034707
 21
104.74999999999801
 31
0.0
  0
LINE
  5
5F
100
AcDbEntity
  8
0
  6
CONTINUOUS
 62
               7
100
AcDbLine
 10
70.999999669034707
 20
97.99999999999801
 30
0.0
 11
93.499999669034935
 21
97.99999999999801
 31
0.0
  0
LINE
  5
60
100
AcDbEntity
  8
0
  6
CONTINUOUS
 62
               7
100
AcDbLine
 10
70.999999669034707
 20
96.499999999996191
 30
0.0
 11
93.499999669034707
 21
96.499999999996191
 31
0.0
  0
LINE
  5
61
100
AcDbEntity
  8
0
  6
CONTINUOUS
 62
               7
100
AcDbLine
 10
70.999999669034707
 20
89.749999999997897
 30
0.0
 11
82.281249669035617
 21
89.749999999997897
 31
0.0
  0
LINE
  5
62
100
AcDbEntity
  8
0
  6
CONTINUOUS
 62
               7
100
AcDbLine
 10
83.218749669036526
 20
89.749999999997897
 30
0.0
 11
93.499999669034707
 21
89.749999999997897
 31
0.0
  0
LINE
  5
63
100
AcDbEntity
  8
0
  6
CONTINUOUS
 62
               7
100
AcDbLine
 10
20.999999669034707
 20
104.74999999999977
 30
0.0
 11
44.499999669034707
 21
104.74999999999801
 31
0.0
  0
LINE
  5
64
100
AcDbEntity
  8
0
  6
CONTINUOUS
 62
               7
100
AcDbLine
 10
20.999999669034707
 20
97.99999999999801
 30
0.0
 11
44.499999669034707
 21
97.999999999996078
 31
0.0
  0
LINE
  5
65
100
AcDbEntity
  8
0
  6
CONTINUOUS
 62
               7
100
AcDbLine
 10
20.999999669034707
 20
96.49999999999801
 30
0.0
 11
44.499999669034707
 21
96.499999999996191
 31
0.0
  0
LINE
  5
66
100
AcDbEntity
  8
0
  6
CONTINUOUS
 62
               7
100
AcDbLine
 10
20.999999669034707
 20
89.749999999997897
 30
0.0
 11
32.281249669035844
 21
89.749999999997897
 31
0.0
  0
LINE
  5
67
100
AcDbEntity
  8
0
  6
CONTINUOUS
 62
               7
100
AcDbLine
 10
33.218749669036526
 20
89.749999999997897
 30
0.0
 11
44.499999669034707
 21
89.749999999997897
 31
0.0
  0
LINE
  5
68
100
AcDbEntity
  8
0
  6
CONTINUOUS
 62
               7
100
AcDbLine
 10
92.499999669034707
 20
107.25000000000136
 30
0.0
 11
92.499999669034707
 21
106.24999999999801
 31
0.0
  0
LINE
  5
69
100
AcDbEntity
  8
0
  6
CONTINUOUS
 62
               7
100
AcDbLine
 10
104.99999966903471
 20
107.25000000000136
 30
0.0
 11
104.99999966903471
 21
106.24999999999801
 31
0.0
  0
LINE
  5
6A
100
AcDbEntity
  8
0
  6
CONTINUOUS
 62
               7
100
AcDbLine
 10
83.499999669034935
 20
88.24999999999801
 30
0.0
 11
83.499999669034935
 21
89.749999999997897
 31
0.0
  0
LINE
  5
6B
100
AcDbEntity
  8
0
  6
CONTINUOUS
 62
               7
100
AcDbLine
 10
81.999999669034935
 20
88.24999999999801
 30
0.0
 11
81.999999669034935
 21
89.749999999997897
 31
0.0
  0
LINE
  5
6C
100
AcDbEntity
  8
0
  6
CONTINUOUS
 62
               7
100
AcDbLine
 10
80.999999669034594
 20
88.24999999999801
 30
0.0
 11
80.999999669034594
 21
89.749999999997897
 31
0.0
  0
LINE
  5
6D
100
AcDbEntity
  8
0
  6
CONTINUOUS
 62
               7
100
AcDbLine
 10
84.499999669035844
 20
88.24999999999801
 30
0.0
 11
84.499999669035844
 21
89.749999999997897
 31
0.0
  0
LINE
  5
6E
100
AcDbEntity
  8
0
  6
CONTINUOUS
 62
               7
100
AcDbLine
 10
58.499999669034935
 20
88.24999999999801
 30
0.0
 11
58.499999669034935
 21
89.749999999997897
 31
0.0
  0
LINE
  5
6F
100
AcDbEntity
  8
0
  6
CONTINUOUS
 62
               7
100
AcDbLine
 10
56.999999669034935
 20
88.24999999999801
 30
0.0
 11
56.999999669034935
 21
89.749999999997897
 31
0.0
  0
LINE
  5
70
100
AcDbEntity
  8
0
  6
CONTINUOUS
 62
               7
100
AcDbLine
 10
55.99999966903448
 20
88.24999999999801
 30
0.0
 11
55.99999966903448
 21
89.749999999997897
 31
0.0
  0
LINE
  5
71
100
AcDbEntity
  8
0
  6
CONTINUOUS
 62
               7
100
AcDbLine
 10
59.499999669035844
 20
88.24999999999801
 30
0.0
 11
59.499999669035844
 21
89.749999999997897
 31
0.0
  0
LINE
  5
72
100
AcDbEntity
  8
0
  6
CONTINUOUS
 62
               7
100
AcDbLine
 10
33.499999669034935
 20
88.24999999999801
 30
0.0
 11
33.499999669034935
 21
89.749999999997897
 31
0.0
  0
LINE
  5
73
100
AcDbEntity
  8
0
  6
CONTINUOUS
 62
               7
100
AcDbLine
 10
31.999999669034935
 20
88.24999999999801
 30
0.0
 11
31.999999669034935
 21
89.749999999997897
 31
0.0
  0
LINE
  5
74
100
AcDbEntity
  8
0
  6
CONTINUOUS
 62
               7
100
AcDbLine
 10
30.99999966903448
 20
88.24999999999801
 30
0.0
 11
30.99999966903448
 21
89.749999999997897
 31
0.0
  0
LINE
  5
75
100
AcDbEntity
  8
0
  6
CONTINUOUS
 62
               7
100
AcDbLine
 10
34.499999669035844
 20
88.24999999999801
 30
0.0
 11
34.499999669035844
 21
89.749999999997897
 31
0.0
  0
LINE
  5
76
100
AcDbEntity
  8
0
  6
CONTINUOUS
 62
               7
100
AcDbLine
 10
8.4999996690349349
 20
88.24999999999801
 30
0.0
 11
8.4999996690349349
 21
89.749999999997897
 31
0.0
  0
LINE
  5
77
100
AcDbEntity
  8
0
  6
CONTINUOUS
 62
               7
100
AcDbLine
 10
6.9999996690349349
 20
88.24999999999801
 30
0.0
 11
6.9999996690349349
 21
89.749999999997897
 31
0.0
  0
LINE
  5
78
100
AcDbEntity
  8
0
  6
CONTINUOUS
 62
               7
100
AcDbLine
 10
5.9999996690344801
 20
88.24999999999801
 30
0.0
 11
5.9999996690344801
 21
89.749999999997897
 31
0.0
  0
LINE
  5
79
100
AcDbEntity
  8
0
  6
CONTINUOUS
 62
               7
100
AcDbLine
 10
9.4999996690358444
 20
88.24999999999801
 30
0.0
 11
9.4999996690358444
 21
89.749999999997897
 31
0.0
  0
LINE
  5
7A
100
AcDbEntity
  8
0
  6
CONTINUOUS
 62
               7
100
AcDbLine
 10
70.999999669034707
 20
96.499999999996191
 30
0.0
 11
70.999999669034707
 21
89.749999999997897
 31
0.0
  0
LINE
  5
7B
100
AcDbEntity
  8
0
  6
CONTINUOUS
 62
               7
100
AcDbLine
 10
69.499999669034935
 20
96.499999999996191
 30
0.0
 11
69.499999669034707
 21
89.749999999997897
 31
0.0
  0
LINE
  5
7C
100
AcDbEntity
  8
0
  6
CONTINUOUS
 62
               7
100
AcDbLine
 10
45.999999669034707
 20
96.499999999996191
 30
0.0
 11
45.999999669034707
 21
89.749999999997897
 31
0.0
  0
LINE
  5
7D
100
AcDbEntity
  8
0
  6
CONTINUOUS
 62
               7
100
AcDbLine
 10
44.499999669034935
 20
96.499999999996191
 30
0.0
 11
44.499999669034707
 21
89.749999999997897
 31
0.0
  0
LINE
  5
7E
100
AcDbEntity
  8
0
  6
CONTINUOUS
 62
               7
100
AcDbLine
 10
20.999999669034935
 20
96.49999999999801
 30
0.0
 11
20.999999669034707
 21
89.749999999997897
 31
0.0
  0
LINE
  5
7F
100
AcDbEntity
  8
0
  6
CONTINUOUS
 62
               7
100
AcDbLine
 10
19.499999669034707
 20
96.49999999999801
 30
0.0
 11
19.499999669034707
 21
89.749999999997897
 31
0.0
  0
LINE
  5
80
100
AcDbEntity
  8
0
  6
CONTINUOUS
 62
               7
100
AcDbLine
 10
-3.0000003309652925
 20
96.49999999999801
 30
0.0
 11
-3.0000003309652925
 21
89.749999999997897
 31
0.0
  0
LINE
  5
81
100
AcDbEntity
  8
0
  6
CONTINUOUS
 62
               7
100
AcDbLine
 10
93.499999669034707
 20
97.999999999996078
 30
0.0
 11
93.499999669034707
 21
104.74999999999801
 31
0.0
  0
LINE
  5
82
100
AcDbEntity
  8
0
  6
CONTINUOUS
 62
               7
100
AcDbLine
 10
96.499999669034707
 20
89.749999999998863
 30
0.0
 11
94.999999669034707
 21
89.749999999998863
 31
0.0
  0
LINE
  5
83
100
AcDbEntity
  8
0
  6
CONTINUOUS
 62
               7
100
AcDbLine
 10
145.49999966903493
 20
96.49999999999801
 30
0.0
 11
168.99999966903493
 21
96.49999999999801
 31
0.0
  0
LINE
  5
84
100
AcDbEntity
  8
0
  6
CONTINUOUS
 62
               7
100
AcDbLine
 10
145.49999966903493
 20
97.99999999999801
 30
0.0
 11
168.99999966903493
 21
97.999999999999773
 31
0.0
  0
LINE
  5
85
100
AcDbEntity
  8
0
  6
CONTINUOUS
 62
               7
100
AcDbLine
 10
96.499999669034935
 20
96.499999999999773
 30
0.0
 11
118.99999966903493
 21
96.499999999999773
 31
0.0
  0
LINE
  5
86
100
AcDbEntity
  8
0
  6
CONTINUOUS
 62
               7
100
AcDbLine
 10
96.499999669034935
 20
97.999999999999773
 30
0.0
 11
118.99999966903493
 21
97.999999999999773
 31
0.0
  0
LINE
  5
87
100
AcDbEntity
  8
0
  6
CONTINUOUS
 62
               7
100
AcDbLine
 10
145.49999966903493
 20
89.749999999999773
 30
0.0
 11
156.78124966903584
 21
89.749999999999773
 31
0.0
  0
LINE
  5
88
100
AcDbEntity
  8
0
  6
CONTINUOUS
 62
               7
100
AcDbLine
 10
157.71874966903619
 20
89.749999999999773
 30
0.0
 11
168.99999966903493
 21
89.749999999999773
 31
0.0
  0
LINE
  5
89
100
AcDbEntity
  8
0
  6
CONTINUOUS
 62
               7
100
AcDbLine
 10
96.499999669034935
 20
89.749999999999773
 30
0.0
 11
106.78124966903584
 21
89.749999999999773
 31
0.0
  0
LINE
  5
8A
100
AcDbEntity
  8
0
  6
CONTINUOUS
 62
               7
100
AcDbLine
 10
107.7187496690363
 20
89.749999999999773
 30
0.0
 11
118.99999966903493
 21
89.749999999999773
 31
0.0
  0
LINE
  5
8B
100
AcDbEntity
  8
0
  6
CONTINUOUS
 62
               7
100
AcDbLine
 10
107.74999966903607
 20
88.249999999999773
 30
0.0
 11
131.74999966903619
 21
88.249999999999773
 31
0.0
  0
LINE
  5
8C
100
AcDbEntity
  8
0
  6
CONTINUOUS
 62
               7
100
AcDbLine
 10
132.74999966903607
 20
88.249999999999773
 30
0.0
 11
156.74999966903619
 21
88.249999999999773
 31
0.0
  0
LINE
  5
8D
100
AcDbEntity
  8
0
  6
CONTINUOUS
 62
               7
100
AcDbLine
 10
157.74999966903607
 20
88.249999999999773
 30
0.0
 11
181.74999966903619
 21
88.249999999999773
 31
0.0
  0
LINE
  5
8E
100
AcDbEntity
  8
0
  6
CONTINUOUS
 62
               7
100
AcDbLine
 10
182.74999966903607
 20
88.249999999999773
 30
0.0
 11
194.49999966903493
 21
88.249999999999773
 31
0.0
  0
LINE
  5
8F
100
AcDbEntity
  8
0
  6
CONTINUOUS
 62
               7
100
AcDbLine
 10
145.49999966903493
 20
104.74999999999977
 30
0.0
 11
168.99999966903493
 21
104.75000000000159
 31
0.0
  0
LINE
  5
90
100
AcDbEntity
  8
0
  6
CONTINUOUS
 62
               7
100
AcDbLine
 10
145.49999966903493
 20
104.74999999999977
 30
0.0
 11
145.49999966903493
 21
97.99999999999801
 31
0.0
  0
LINE
  5
91
100
AcDbEntity
  8
0
  6
CONTINUOUS
 62
               7
100
AcDbLine
 10
143.99999966903493
 20
104.74999999999977
 30
0.0
 11
143.99999966903516
 21
97.99999999999801
 31
0.0
  0
LINE
  5
92
100
AcDbEntity
  8
0
  6
CONTINUOUS
 62
               7
100
AcDbLine
 10
96.499999669034935
 20
104.74999999999977
 30
0.0
 11
118.99999966903493
 21
104.75000000000159
 31
0.0
  0
LINE
  5
93
100
AcDbEntity
  8
0
  6
CONTINUOUS
 62
               7
100
AcDbLine
 10
94.999999669034935
 20
106.24999999999977
 30
0.0
 11
94.999999669034935
 21
88.249999999999773
 31
0.0
  0
LINE
  5
94
100
AcDbEntity
  8
0
  6
CONTINUOUS
 62
               7
100
AcDbLine
 10
194.49999966903493
 20
88.249999999999773
 30
0.0
 11
194.49999966903493
 21
106.24999999999977
 31
0.0
  0
LINE
  5
95
100
AcDbEntity
  8
0
  6
CONTINUOUS
 62
               7
100
AcDbLine
 10
192.99999966903493
 20
89.749999999999773
 30
0.0
 11
192.99999966903493
 21
96.49999999999801
 31
0.0
  0
LINE
  5
96
100
AcDbEntity
  8
0
  6
CONTINUOUS
 62
               7
100
AcDbLine
 10
170.49999966903493
 20
104.74999999999977
 30
0.0
 11
170.49999966903493
 21
97.999999999999773
 31
0.0
  0
LINE
  5
97
100
AcDbEntity
  8
0
  6
CONTINUOUS
 62
               7
100
AcDbLine
 10
168.99999966903493
 20
104.74999999999977
 30
0.0
 11
168.99999966903516
 21
97.99999999999801
 31
0.0
  0
LINE
  5
98
100
AcDbEntity
  8
0
  6
CONTINUOUS
 62
               7
100
AcDbLine
 10
120.49999966903493
 20
104.74999999999977
 30
0.0
 11
120.49999966903516
 21
97.999999999999773
 31
0.0
  0
LINE
  5
99
100
AcDbEntity
  8
0
  6
CONTINUOUS
 62
               7
100
AcDbLine
 10
118.99999966903493
 20
104.74999999999977
 30
0.0
 11
118.99999966903493
 21
97.999999999999773
 31
0.0
  0
LINE
  5
9A
100
AcDbEntity
  8
0
  6
CONTINUOUS
 62
               7
100
AcDbLine
 10
96.499999669034935
 20
104.74999999999977
 30
0.0
 11
96.499999669034935
 21
97.999999999999773
 31
0.0
  0
LINE
  5
9B
100
AcDbEntity
  8
0
  6
CONTINUOUS
 62
               7
100
AcDbLine
 10
170.49999966903493
 20
104.75000000000159
 30
0.0
 11
192.99999966903493
 21
104.74999999999977
 31
0.0
  0
LINE
  5
9C
100
AcDbEntity
  8
0
  6
CONTINUOUS
 62
               7
100
AcDbLine
 10
170.49999966903493
 20
97.999999999999773
 30
0.0
 11
192.99999966903528
 21
97.999999999999773
 31
0.0
  0
LINE
  5
9D
100
AcDbEntity
  8
0
  6
CONTINUOUS
 62
               7
100
AcDbLine
 10
170.49999966903493
 20
96.49999999999801
 30
0.0
 11
192.99999966903493
 21
96.49999999999801
 31
0.0
  0
LINE
  5
9E
100
AcDbEntity
  8
0
  6
CONTINUOUS
 62
               7
100
AcDbLine
 10
170.49999966903493
 20
89.749999999999773
 30
0.0
 11
181.78124966903584
 21
89.749999999999773
 31
0.0
  0
LINE
  5
9F
100
AcDbEntity
  8
0
  6
CONTINUOUS
 62
               7
100
AcDbLine
 10
182.7187496690363
 20
89.749999999999773
 30
0.0
 11
192.99999966903493
 21
89.749999999999773
 31
0.0
  0
LINE
  5
A0
100
AcDbEntity
  8
0
  6
CONTINUOUS
 62
               7
100
AcDbLine
 10
120.49999966903493
 20
104.75000000000159
 30
0.0
 11
143.99999966903493
 21
104.74999999999977
 31
0.0
  0
LINE
  5
A1
100
AcDbEntity
  8
0
  6
CONTINUOUS
 62
               7
100
AcDbLine
 10
120.49999966903493
 20
97.999999999999773
 30
0.0
 11
143.99999966903493
 21
97.99999999999801
 31
0.0
  0
LINE
  5
A2
100
AcDbEntity
  8
0
  6
CONTINUOUS
 62
               7
100
AcDbLine
 10
120.49999966903493
 20
96.499999999999773
 30
0.0
 11
143.99999966903493
 21
96.49999999999801
 31
0.0
  0
LINE
  5
A3
100
AcDbEntity
  8
0
  6
CONTINUOUS
 62
               7
100
AcDbLine
 10
120.49999966903493
 20
89.749999999999773
 30
0.0
 11
131.78124966903584
 21
89.749999999999773
 31
0.0
  0
LINE
  5
A4
100
AcDbEntity
  8
0
  6
CONTINUOUS
 62
               7
100
AcDbLine
 10
132.7187496690363
 20
89.749999999999773
 30
0.0
 11
143.99999966903493
 21
89.749999999999773
 31
0.0
  0
LINE
  5
A5
100
AcDbEntity
  8
0
  6
CONTINUOUS
 62
               7
100
AcDbLine
 10
97.499999669034935
 20
88.249999999999773
 30
0.0
 11
97.499999669034935
 21
87.500000000000909
 31
0.0
  0
LINE
  5
A6
100
AcDbEntity
  8
0
  6
CONTINUOUS
 62
               7
100
AcDbLine
 10
84.999999669035162
 20
87.500000000000909
 30
0.0
 11
84.999999669035162
 21
88.249999999999773
 31
0.0
  0
LINE
  5
A7
100
AcDbEntity
  8
0
  6
CONTINUOUS
 62
               7
100
AcDbLine
 10
191.99999966903493
 20
107.25000000000091
 30
0.0
 11
191.99999966903493
 21
106.24999999999977
 31
0.0
  0
LINE
  5
A8
100
AcDbEntity
  8
0
  6
CONTINUOUS
 62
               7
100
AcDbLine
 10
182.99999966903516
 20
88.249999999999773
 30
0.0
 11
182.99999966903516
 21
89.749999999999773
 31
0.0
  0
LINE
  5
A9
100
AcDbEntity
  8
0
  6
CONTINUOUS
 62
               7
100
AcDbLine
 10
181.49999966903516
 20
88.249999999999773
 30
0.0
 11
181.49999966903516
 21
89.749999999999773
 31
0.0
  0
LINE
  5
AA
100
AcDbEntity
  8
0
  6
CONTINUOUS
 62
               7
100
AcDbLine
 10
180.49999966903471
 20
88.249999999999773
 30
0.0
 11
180.49999966903471
 21
89.749999999999773
 31
0.0
  0
LINE
  5
AB
100
AcDbEntity
  8
0
  6
CONTINUOUS
 62
               7
100
AcDbLine
 10
183.99999966903619
 20
88.249999999999773
 30
0.0
 11
183.99999966903619
 21
89.749999999999773
 31
0.0
  0
LINE
  5
AC
100
AcDbEntity
  8
0
  6
CONTINUOUS
 62
               7
100
AcDbLine
 10
157.99999966903528
 20
88.249999999999773
 30
0.0
 11
157.99999966903528
 21
89.749999999999773
 31
0.0
  0
LINE
  5
AD
100
AcDbEntity
  8
0
  6
CONTINUOUS
 62
               7
100
AcDbLine
 10
156.49999966903516
 20
88.249999999999773
 30
0.0
 11
156.49999966903516
 21
89.749999999999773
 31
0.0
  0
LINE
  5
AE
100
AcDbEntity
  8
0
  6
CONTINUOUS
 62
               7
100
AcDbLine
 10
155.49999966903471
 20
88.249999999999773
 30
0.0
 11
155.49999966903471
 21
89.749999999999773
 31
0.0
  0
LINE
  5
AF
100
AcDbEntity
  8
0
  6
CONTINUOUS
 62
               7
100
AcDbLine
 10
158.99999966903619
 20
88.249999999999773
 30
0.0
 11
158.99999966903619
 21
89.749999999999773
 31
0.0
  0
LINE
  5
B0
100
AcDbEntity
  8
0
  6
CONTINUOUS
 62
               7
100
AcDbLine
 10
132.99999966903516
 20
88.249999999999773
 30
0.0
 11
132.99999966903516
 21
89.749999999999773
 31
0.0
  0
LINE
  5
B1
100
AcDbEntity
  8
0
  6
CONTINUOUS
 62
               7
100
AcDbLine
 10
131.49999966903516
 20
88.249999999999773
 30
0.0
 11
131.49999966903516
 21
89.749999999999773
 31
0.0
  0
LINE
  5
B2
100
AcDbEntity
  8
0
  6
CONTINUOUS
 62
               7
100
AcDbLine
 10
130.49999966903471
 20
88.249999999999773
 30
0.0
 11
130.49999966903471
 21
89.749999999999773
 31
0.0
  0
LINE
  5
B3
100
AcDbEntity
  8
0
  6
CONTINUOUS
 62
               7
100
AcDbLine
 10
133.99999966903619
 20
88.249999999999773
 30
0.0
 11
133.99999966903619
 21
89.749999999999773
 31
0.0
  0
LINE
  5
B4
100
AcDbEntity
  8
0
  6
CONTINUOUS
 62
               7
100
AcDbLine
 10
107.99999966903516
 20
88.249999999999773
 30
0.0
 11
107.99999966903516
 21
89.749999999999773
 31
0.0
  0
LINE
  5
B5
100
AcDbEntity
  8
0
  6
CONTINUOUS
 62
               7
100
AcDbLine
 10
106.49999966903516
 20
88.249999999999773
 30
0.0
 11
106.49999966903516
 21
89.749999999999773
 31
0.0
  0
LINE
  5
B6
100
AcDbEntity
  8
0
  6
CONTINUOUS
 62
               7
100
AcDbLine
 10
105.49999966903471
 20
88.249999999999773
 30
0.0
 11
105.49999966903471
 21
89.749999999999773
 31
0.0
  0
LINE
  5
B7
100
AcDbEntity
  8
0
  6
CONTINUOUS
 62
               7
100
AcDbLine
 10
108.99999966903619
 20
88.249999999999773
 30
0.0
 11
108.99999966903619
 21
89.749999999999773
 31
0.0
  0
LINE
  5
B8
100
AcDbEntity
  8
0
  6
CONTINUOUS
 62
               7
100
AcDbLine
 10
170.49999966903493
 20
96.49999999999801
 30
0.0
 11
170.49999966903493
 21
89.749999999999773
 31
0.0
  0
LINE
  5
B9
100
AcDbEntity
  8
0
  6
CONTINUOUS
 62
               7
100
AcDbLine
 10
168.99999966903516
 20
96.49999999999801
 30
0.0
 11
168.99999966903493
 21
89.749999999999773
 31
0.0
  0
LINE
  5
BA
100
AcDbEntity
  8
0
  6
CONTINUOUS
 62
               7
100
AcDbLine
 10
145.49999966903493
 20
96.49999999999801
 30
0.0
 11
145.49999966903493
 21
89.749999999999773
 31
0.0
  0
LINE
  5
BB
100
AcDbEntity
  8
0
  6
CONTINUOUS
 62
               7
100
AcDbLine
 10
143.99999966903516
 20
96.49999999999801
 30
0.0
 11
143.99999966903493
 21
89.749999999999773
 31
0.0
  0
LINE
  5
BC
100
AcDbEntity
  8
0
  6
CONTINUOUS
 62
               7
100
AcDbLine
 10
120.49999966903516
 20
96.499999999999773
 30
0.0
 11
120.49999966903493
 21
89.749999999999773
 31
0.0
  0
LINE
  5
BD
100
AcDbEntity
  8
0
  6
CONTINUOUS
 62
               7
100
AcDbLine
 10
118.99999966903493
 20
96.499999999999773
 30
0.0
 11
118.99999966903493
 21
89.749999999999773
 31
0.0
  0
LINE
  5
BE
100
AcDbEntity
  8
0
  6
CONTINUOUS
 62
               7
100
AcDbLine
 10
96.499999669034935
 20
96.499999999999773
 30
0.0
 11
96.499999669034935
 21
89.749999999999773
 31
0.0
  0
LINE
  5
BF
100
AcDbEntity
  8
0
  6
CONTINUOUS
 62
               7
100
AcDbLine
 10
192.99999966903493
 20
97.99999999999801
 30
0.0
 11
192.99999966903493
 21
104.74999999999977
 31
0.0
  0
LINE
  5
C0
100
AcDbEntity
  8
0
  6
CONTINUOUS
 62
               7
100
AcDbLine
 10
193.69999966903498
 20
87.500000000000909
 30
0.0
 11
193.69999966903498
 21
88.249999999999773
 31
0.0
  0
LINE
  5
C1
100
AcDbEntity
  8
0
  6
CONTINUOUS
 62
               7
100
AcDbLine
 10
195.49999966903607
 20
93.749999999999773
 30
0.0
 11
194.49999966903493
 21
93.749999999999773
 31
0.0
  0
LINE
  5
C2
100
AcDbEntity
  8
0
  6
CONTINUOUS
 62
               7
100
AcDbLine
 10
-64.000000330963928
 20
95.0
 30
0.0
 11
-64.000000330963928
 21
0.0
 31
0.0
  0
LINE
  5
C3
100
AcDbEntity
  8
0
  6
CONTINUOUS
 62
               7
100
AcDbLine
 10
-62.000000330963928
 20
95.0
 30
0.0
 11
-62.000000330963928
 21
2.0
 31
0.0
  0
LINE
  5
C4
100
AcDbEntity
  8
0
  6
CONTINUOUS
 62
               7
100
AcDbLine
 10
243.99999966903619
 20
95.0
 30
0.0
 11
243.99999966903619
 21
0.0
 31
0.0
  0
LINE
  5
C5
100
AcDbEntity
  8
0
  6
CONTINUOUS
 62
               7
100
AcDbLine
 10
241.99999966903619
 20
95.0
 30
0.0
 11
241.99999966903619
 21
2.0
 31
0.0
  0
LINE
  5
C6
100
AcDbEntity
  8
0
  6
CONTINUOUS
 62
               7
100
AcDbLine
 10
-64.000000330963928
 20
95.0
 30
0.0
 11
-62.000000330963928
 21
95.0
 31
0.0
  0
LINE
  5
C7
100
AcDbEntity
  8
0
  6
CONTINUOUS
 62
               7
100
AcDbLine
 10
241.99999966903619
 20
95.0
 30
0.0
 11
243.99999966903619
 21
95.0
 31
0.0
  0
LINE
  5
C8
100
AcDbEntity
  8
0
  6
CONTINUOUS
 62
               7
100
AcDbLine
 10
-62.000000330963928
 20
2.0
 30
0.0
 11
241.99999966903619
 21
2.0
 31
0.0
  0
LINE
  5
C9
100
AcDbEntity
  8
0
  6
CONTINUOUS
 62
               7
100
AcDbLine
 10
-64.000000330963928
 20
0.0
 30
0.0
 11
243.99999966903619
 21
0.0
 31
0.0
  0
LINE
  5
CA
100
AcDbEntity
  8
0
  6
CONTINUOUS
 62
               7
100
AcDbLine
 10
-60.000000330963474
 20
87.5
 30
0.0
 11
-62.000000330963928
 21
87.5
 31
0.0
  0
LINE
  5
CB
100
AcDbEntity
  8
0
  6
CONTINUOUS
 62
               7
100
AcDbLine
 10
-62.000000330963928
 20
72.5
 30
0.0
 11
-60.000000330963474
 21
72.5
 31
0.0
  0
LINE
  5
CC
100
AcDbEntity
  8
0
  6
CONTINUOUS
 62
               7
100
AcDbLine
 10
241.9999996690363
 20
87.495932910215515
 30
0.0
 11
240.00181730182641
 21
87.495932910215515
 31
0.0
  0
LINE
  5
CD
100
AcDbEntity
  8
0
  6
CONTINUOUS
 62
               7
100
AcDbLine
 10
240.00181730182641
 20
72.495932910215515
 30
0.0
 11
241.9999996690363
 21
72.495932910215515
 31
0.0
  0
ARC
  5
CE
100
AcDbEntity
  8
0
  6
CONTINUOUS
 62
               7
100
AcDbCircle
 10
158.47631133126521
 20
80.199605286032863
 30
0.0
 40
100.44127806377109
100
AcDbArc
 50
352.81667546741988
 51
6.9555943754055081
  0
LINE
  5
CF
100
AcDbEntity
  8
0
  6
CONTINUOUS
 62
               7
100
AcDbLine
 10
251.99999966903619
 20
92.300000000000011
 30
0.0
 11
251.99999966903619
 21
67.699999999999989
 31
0.0
  0
LINE
  5
D0
100
AcDbEntity
  8
0
  6
CONTINUOUS
 62
               7
100
AcDbLine
 10
243.99999966903619
 20
73.60000000000008
 30
0.0
 11
251.99999966903619
 21
73.60000000000008
 31
0.0
  0
ARC
  5
D1
100
AcDbEntity
  8
0
  6
CONTINUOUS
 62
               7
100
AcDbCircle
 10
257.6331639461493
 20
67.7025000000001
 30
0.0
 40
0.5
100
AcDbArc
 50
270.0
 51
352.81667546741988
  0
LINE
  5
D2
100
AcDbEntity
  8
0
  6
CONTINUOUS
 62
               7
100
AcDbLine
 10
252.49999966903619
 20
67.200000000000045
 30
0.0
 11
257.6331639461493
 21
67.2025000000001
 31
0.0
  0
ARC
  5
D3
100
AcDbEntity
  8
0
  6
CONTINUOUS
 62
               7
100
AcDbCircle
 10
252.49999966903619
 20
67.699999999999989
 30
0.0
 40
0.5
100
AcDbArc
 50
180.0
 51
270.0
  0
LINE
  5
D4
100
AcDbEntity
  8
0
  6
CONTINUOUS
 62
               7
100
AcDbLine
 10
251.99999966903619
 20
86.400000000000091
 30
0.0
 11
243.99999966903619
 21
86.400000000000091
 31
0.0
  0
ARC
  5
D5
100
AcDbEntity
  8
0
  6
CONTINUOUS
 62
               7
100
AcDbCircle
 10
257.6820520954098
 20
92.302500000000009
 30
0.0
 40
0.5
100
AcDbArc
 50
6.9555943754054939
 51
90.0
  0
LINE
  5
D6
100
AcDbEntity
  8
0
  6
CONTINUOUS
 62
               7
100
AcDbLine
 10
257.6820520954098
 20
92.802500000000009
 30
0.0
 11
252.49999966903619
 21
92.800000000000011
 31
0.0
  0
ARC
  5
D7
100
AcDbEntity
  8
0
  6
CONTINUOUS
 62
               7
100
AcDbCircle
 10
252.49999966903619
 20
92.300000000000011
 30
0.0
 40
0.5
100
AcDbArc
 50
90.0
 51
180.0
  0
ARC
  5
D8
100
AcDbEntity
  8
0
  6
CONTINUOUS
 62
               7
100
AcDbCircle
 10
21.523688006806935
 20
80.199605286032863
 30
0.0
 40
100.44127806377109
100
AcDbArc
 50
173.0444056245945
 51
187.18332453258009
  0
LINE
  5
D9
100
AcDbEntity
  8
0
  6
CONTINUOUS
 62
               7
100
AcDbLine
 10
-72.000000330963928
 20
92.300000000000011
 30
0.0
 11
-72.000000330963928
 21
67.699999999999989
 31
0.0
  0
LINE
  5
DA
100
AcDbEntity
  8
0
  6
CONTINUOUS
 62
               7
100
AcDbLine
 10
-64.000000330963928
 20
73.60000000000008
 30
0.0
 11
-72.000000330963928
 21
73.60000000000008
 31
0.0
  0
ARC
  5
DB
100
AcDbEntity
  8
0
  6
CONTINUOUS
 62
               7
100
AcDbCircle
 10
-77.633164608077038
 20
67.7025000000001
 30
0.0
 40
0.5
100
AcDbArc
 50
187.18332453258009
 51
270.0
  0
LINE
  5
DC
100
AcDbEntity
  8
0
  6
CONTINUOUS
 62
               7
100
AcDbLine
 10
-72.500000330963928
 20
67.200000000000045
 30
0.0
 11
-77.633164608077038
 21
67.2025000000001
 31
0.0
  0
ARC
  5
DD
100
AcDbEntity
  8
0
  6
CONTINUOUS
 62
               7
100
AcDbCircle
 10
-72.500000330963928
 20
67.699999999999989
 30
0.0
 40
0.5
100
AcDbArc
 50
270.0
 51
0.0
  0
LINE
  5
DE
100
AcDbEntity
  8
0
  6
CONTINUOUS
 62
               7
100
AcDbLine
 10
-72.000000330963928
 20
86.399999999999864
 30
0.0
 11
-64.000000330963928
 21
86.399999999999864
 31
0.0
  0
ARC
  5
DF
100
AcDbEntity
  8
0
  6
CONTINUOUS
 62
               7
100
AcDbCircle
 10
-77.682052757337658
 20
92.302500000000009
 30
0.0
 40
0.5
100
AcDbArc
 50
90.0
 51
173.0444056245945
  0
LINE
  5
E0
100
AcDbEntity
  8
0
  6
CONTINUOUS
 62
               7
100
AcDbLine
 10
-77.682052757337658
 20
92.802500000000009
 30
0.0
 11
-72.500000330963928
 21
92.800000000000011
 31
0.0
  0
ARC
  5
E1
100
AcDbEntity
  8
0
  6
CONTINUOUS
 62
               7
100
AcDbCircle
 10
-72.500000330963928
 20
92.300000000000011
 30
0.0
 40
0.5
100
AcDbArc
 50
0.0
 51
90.0
  0
LINE
  5
E2
100
AcDbEntity
  8
0
  6
CONTINUOUS
 62
               7
100
AcDbLine
 10
213.49999966903766
 20
41.999999999999773
 30
0.0
 11
213.49999966903766
 21
45.999999999999773
 31
0.0
  0
LINE
  5
E3
100
AcDbEntity
  8
0
  6
CONTINUOUS
 62
               7
100
AcDbLine
 10
213.49999966903766
 20
45.999999999999773
 30
0.0
 11
97.499999669037209
 21
45.999999999999773
 31
0.0
  0
LINE
  5
E4
100
AcDbEntity
  8
0
  6
CONTINUOUS
 62
               7
100
AcDbLine
 10
92.499999669037209
 20
45.999999999999773
 30
0.0
 11
-23.500000330963246
 21
45.999999999999773
 31
0.0
  0
LINE
  5
E5
100
AcDbEntity
  8
0
  6
CONTINUOUS
 62
               7
100
AcDbLine
 10
213.49999966903766
 20
41.999999999999773
 30
0.0
 11
-23.500000330963246
 21
41.999999999999773
 31
0.0
  0
LINE
  5
E6
100
AcDbEntity
  8
0
  6
CONTINUOUS
 62
               7
100
AcDbLine
 10
212.49999966903766
 20
41.999999999999773
 30
0.0
 11
212.49999966903766
 21
45.999999999999773
 31
0.0
  0
LINE
  5
E7
100
AcDbEntity
  8
0
  6
CONTINUOUS
 62
               7
100
AcDbLine
 10
-23.500000330963246
 20
41.999999999999773
 30
0.0
 11
-23.500000330963246
 21
45.999999999999773
 31
0.0
  0
LINE
  5
E8
100
AcDbEntity
  8
0
  6
CONTINUOUS
 62
               7
100
AcDbLine
 10
-22.500000330963246
 20
41.999999999999773
 30
0.0
 11
-22.500000330963246
 21
45.999999999999773
 31
0.0
  0
LINE
  5
E9
100
AcDbEntity
  8
0
  6
CONTINUOUS
 62
               7
100
AcDbLine
 10
92.499999669037209
 20
46.499999999999773
 30
0.0
 11
92.499999669037209
 21
45.999999999999773
 31
0.0
  0
LINE
  5
EA
100
AcDbEntity
  8
0
  6
CONTINUOUS
 62
               7
100
AcDbLine
 10
97.499999669037209
 20
46.499999999999773
 30
0.0
 11
97.499999669037209
 21
45.999999999999773
 31
0.0
  0
LINE
  5
EB
100
AcDbEntity
  8
0
  6
CONTINUOUS
 62
               7
100
AcDbLine
 10
94.279999669037181
 20
40.599999999999682
 30
0.0
 11
94.279999669037181
 21
39.015958605448475
 31
0.0
  0
LINE
  5
EC
100
AcDbEntity
  8
0
  6
CONTINUOUS
 62
               7
100
AcDbLine
 10
95.719999669037236
 20
39.015958605448475
 30
0.0
 11
95.719999669037236
 21
40.599999999999682
 31
0.0
  0
LINE
  5
ED
100
AcDbEntity
  8
0
  6
CONTINUOUS
 62
               7
100
AcDbLine
 10
95.719999669037236
 20
40.599999999999682
 30
0.0
 11
94.279999669037181
 21
40.599999999999682
 31
0.0
  0
LINE
  5
EE
100
AcDbEntity
  8
0
  6
CONTINUOUS
 62
               7
100
AcDbLine
 10
98.999999669037209
 20
41.999999999999773
 30
0.0
 11
98.999999669037209
 21
39.499999999999773
 31
0.0
  0
LINE
  5
EF
100
AcDbEntity
  8
0
  6
CONTINUOUS
 62
               7
100
AcDbLine
 10
90.999999669037209
 20
39.499999999999773
 30
0.0
 11
94.279999669037181
 21
39.499999999999773
 31
0.0
  0
LINE
  5
F0
100
AcDbEntity
  8
0
  6
CONTINUOUS
 62
               7
100
AcDbLine
 10
95.719999669037236
 20
39.499999999999773
 30
0.0
 11
98.999999669037209
 21
39.499999999999773
 31
0.0
  0
LINE
  5
F1
100
AcDbEntity
  8
0
  6
CONTINUOUS
 62
               7
100
AcDbLine
 10
90.999999669037209
 20
41.999999999999488
 30
0.0
 11
90.999999669037209
 21
39.499999999999602
 31
0.0
  0
ARC
  5
F2
100
AcDbEntity
  8
0
  6
CONTINUOUS
 62
               7
100
AcDbCircle
 10
94.999999669037209
 20
55.249999999999773
 30
0.0
 40
16.25
100
AcDbArc
 50
255.74996730219343
 51
267.46052486391812
  0
ARC
  5
F3
100
AcDbEntity
  8
0
  6
CONTINUOUS
 62
               7
100
AcDbCircle
 10
94.999999669037209
 20
55.249999999999773
 30
0.0
 40
16.25
100
AcDbArc
 50
272.53947513608188
 51
284.2500326978066
  0
LINE
  5
F4
100
AcDbEntity
  8
0
  6
CONTINUOUS
 62
               7
100
AcDbLine
 10
-20.000000330963928
 20
81.500000000000909
 30
0.0
 11
-10.000000330964838
 21
81.500000000000909
 31
0.0
  0
LINE
  5
F5
100
AcDbEntity
  8
0
  6
CONTINUOUS
 62
               7
100
AcDbLine
 10
-20.000000330963928
 20
79.900000000000887
 30
0.0
 11
-10.000000330964838
 21
79.900000000000887
 31
0.0
  0
LINE
  5
F6
100
AcDbEntity
  8
0
  6
CONTINUOUS
 62
               7
100
AcDbLine
 10
94.999999669033798
 20
81.500000000000909
 30
0.0
 11
104.99999966903425
 21
81.500000000000909
 31
0.0
  0
LINE
  5
F7
100
AcDbEntity
  8
0
  6
CONTINUOUS
 62
               7
100
AcDbLine
 10
94.999999669033798
 20
79.900000000000887
 30
0.0
 11
104.99999966903425
 21
79.900000000000887
 31
0.0
  0
LINE
  5
F8
100
AcDbEntity
  8
0
  6
CONTINUOUS
 62
               7
100
AcDbLine
 10
182.74999966903607
 20
89.500000000000909
 30
0.0
 11
182.74999966903607
 21
87.500000000000909
 31
0.0
  0
LINE
  5
F9
100
AcDbEntity
  8
0
  6
CONTINUOUS
 62
               7
100
AcDbLine
 10
181.74999966903619
 20
89.500000000000682
 30
0.0
 11
181.74999966903619
 21
87.500000000000909
 31
0.0
  0
LINE
  5
FA
100
AcDbEntity
  8
0
  6
CONTINUOUS
 62
               7
100
AcDbLine
 10
182.74999966903607
 20
89.500000000000909
 30
0.0
 11
182.24999966903607
 21
93.500000000000909
 31
0.0
  0
LINE
  5
FB
100
AcDbEntity
  8
0
  6
CONTINUOUS
 62
               7
100
AcDbLine
 10
181.74999966903619
 20
89.500000000000909
 30
0.0
 11
182.24999966903607
 21
93.500000000000909
 31
0.0
  0
LINE
  5
FC
100
AcDbEntity
  8
0
  6
CONTINUOUS
 62
               7
100
AcDbLine
 10
157.74999966903607
 20
89.500000000000682
 30
0.0
 11
157.74999966903607
 21
87.500000000000909
 31
0.0
  0
LINE
  5
FD
100
AcDbEntity
  8
0
  6
CONTINUOUS
 62
               7
100
AcDbLine
 10
156.74999966903619
 20
89.500000000000682
 30
0.0
 11
156.74999966903619
 21
87.500000000000909
 31
0.0
  0
LINE
  5
FE
100
AcDbEntity
  8
0
  6
CONTINUOUS
 62
               7
100
AcDbLine
 10
157.74999966903607
 20
89.500000000000682
 30
0.0
 11
157.24999966903607
 21
93.500000000000682
 31
0.0
  0
LINE
  5
FF
100
AcDbEntity
  8
0
  6
CONTINUOUS
 62
               7
100
AcDbLine
 10
156.74999966903619
 20
89.500000000000682
 30
0.0
 11
157.24999966903607
 21
93.500000000000682
 31
0.0
  0
LINE
  5
100
100
AcDbEntity
  8
0
  6
CONTINUOUS
 62
               7
100
AcDbLine
 10
132.74999966903607
 20
89.500000000000909
 30
0.0
 11
132.74999966903607
 21
87.500000000000909
 31
0.0
  0
LINE
  5
101
100
AcDbEntity
  8
0
  6
CONTINUOUS
 62
               7
100
AcDbLine
 10
131.74999966903619
 20
89.500000000000682
 30
0.0
 11
131.74999966903619
 21
87.500000000000909
 31
0.0
  0
LINE
  5
102
100
AcDbEntity
  8
0
  6
CONTINUOUS
 62
               7
100
AcDbLine
 10
132.74999966903607
 20
89.500000000000909
 30
0.0
 11
132.24999966903607
 21
93.500000000000909
 31
0.0
  0
LINE
  5
103
100
AcDbEntity
  8
0
  6
CONTINUOUS
 62
               7
100
AcDbLine
 10
131.74999966903619
 20
89.500000000000909
 30
0.0
 11
132.24999966903607
 21
93.500000000000909
 31
0.0
  0
LINE
  5
104
100
AcDbEntity
  8
0
  6
CONTINUOUS
 62
               7
100
AcDbLine
 10
107.74999966903607
 20
89.500000000000909
 30
0.0
 11
107.74999966903607
 21
87.500000000000909
 31
0.0
  0
LINE
  5
105
100
AcDbEntity
  8
0
  6
CONTINUOUS
 62
               7
100
AcDbLine
 10
106.74999966903619
 20
89.500000000000682
 30
0.0
 11
106.74999966903619
 21
87.500000000000909
 31
0.0
  0
LINE
  5
106
100
AcDbEntity
  8
0
  6
CONTINUOUS
 62
               7
100
AcDbLine
 10
107.74999966903607
 20
89.500000000000909
 30
0.0
 11
107.24999966903607
 21
93.500000000000909
 31
0.0
  0
LINE
  5
107
100
AcDbEntity
  8
0
  6
CONTINUOUS
 62
               7
100
AcDbLine
 10
106.74999966903619
 20
89.500000000000909
 30
0.0
 11
107.24999966903607
 21
93.500000000000909
 31
0.0
  0
LINE
  5
108
100
AcDbEntity
  8
0
  6
CONTINUOUS
 62
               7
100
AcDbLine
 10
83.249999669036072
 20
89.500000000000909
 30
0.0
 11
83.249999669036072
 21
87.500000000000909
 31
0.0
  0
LINE
  5
109
100
AcDbEntity
  8
0
  6
CONTINUOUS
 62
               7
100
AcDbLine
 10
82.249999669036072
 20
89.500000000000682
 30
0.0
 11
82.249999669036072
 21
87.500000000000909
 31
0.0
  0
LINE
  5
10A
100
AcDbEntity
  8
0
  6
CONTINUOUS
 62
               7
100
AcDbLine
 10
83.249999669036072
 20
89.500000000000909
 30
0.0
 11
82.749999669036072
 21
93.500000000000909
 31
0.0
  0
LINE
  5
10B
100
AcDbEntity
  8
0
  6
CONTINUOUS
 62
               7
100
AcDbLine
 10
82.249999669036072
 20
89.500000000000909
 30
0.0
 11
82.749999669036072
 21
93.500000000000909
 31
0.0
  0
LINE
  5
10C
100
AcDbEntity
  8
0
  6
CONTINUOUS
 62
               7
100
AcDbLine
 10
58.249999669036072
 20
89.500000000000909
 30
0.0
 11
58.249999669036072
 21
87.500000000000909
 31
0.0
  0
LINE
  5
10D
100
AcDbEntity
  8
0
  6
CONTINUOUS
 62
               7
100
AcDbLine
 10
57.249999669036072
 20
89.500000000000682
 30
0.0
 11
57.249999669036072
 21
87.500000000000909
 31
0.0
  0
LINE
  5
10E
100
AcDbEntity
  8
0
  6
CONTINUOUS
 62
               7
100
AcDbLine
 10
58.249999669036072
 20
89.500000000000909
 30
0.0
 11
57.749999669036072
 21
93.500000000000909
 31
0.0
  0
LINE
  5
10F
100
AcDbEntity
  8
0
  6
CONTINUOUS
 62
               7
100
AcDbLine
 10
57.249999669036072
 20
89.500000000000909
 30
0.0
 11
57.749999669036072
 21
93.500000000000909
 31
0.0
  0
LINE
  5
110
100
AcDbEntity
  8
0
  6
CONTINUOUS
 62
               7
100
AcDbLine
 10
33.249999669036072
 20
89.500000000000909
 30
0.0
 11
33.249999669036072
 21
87.500000000000909
 31
0.0
  0
LINE
  5
111
100
AcDbEntity
  8
0
  6
CONTINUOUS
 62
               7
100
AcDbLine
 10
32.249999669036072
 20
89.500000000000682
 30
0.0
 11
32.249999669036072
 21
87.500000000000909
 31
0.0
  0
LINE
  5
112
100
AcDbEntity
  8
0
  6
CONTINUOUS
 62
               7
100
AcDbLine
 10
33.249999669036072
 20
89.500000000000909
 30
0.0
 11
32.749999669036072
 21
93.500000000000909
 31
0.0
  0
LINE
  5
113
100
AcDbEntity
  8
0
  6
CONTINUOUS
 62
               7
100
AcDbLine
 10
32.249999669036072
 20
89.500000000000909
 30
0.0
 11
32.749999669036072
 21
93.500000000000909
 31
0.0
  0
LINE
  5
114
100
AcDbEntity
  8
0
  6
CONTINUOUS
 62
               7
100
AcDbLine
 10
8.2499996690360717
 20
89.500000000000909
 30
0.0
 11
8.2499996690360717
 21
87.500000000000909
 31
0.0
  0
LINE
  5
115
100
AcDbEntity
  8
0
  6
CONTINUOUS
 62
               7
100
AcDbLine
 10
7.2499996690360717
 20
89.500000000000682
 30
0.0
 11
7.2499996690360717
 21
87.500000000000909
 31
0.0
  0
LINE
  5
116
100
AcDbEntity
  8
0
  6
CONTINUOUS
 62
               7
100
AcDbLine
 10
8.2499996690360717
 20
89.500000000000909
 30
0.0
 11
7.7499996690360717
 21
93.500000000000909
 31
0.0
  0
LINE
  5
117
100
AcDbEntity
  8
0
  6
CONTINUOUS
 62
               7
100
AcDbLine
 10
7.2499996690360717
 20
89.500000000000909
 30
0.0
 11
7.7499996690360717
 21
93.500000000000909
 31
0.0
  0
LINE
  5
118
100
AcDbEntity
  8
0
  6
CONTINUOUS
 62
               7
100
AcDbLine
 10
209.9999996690363
 20
77.500000000000909
 30
0.0
 11
104.99999966903653
 21
77.500000000021771
 31
0.0
  0
LINE
  5
119
100
AcDbEntity
  8
0
  6
CONTINUOUS
 62
               7
100
AcDbLine
 10
-30.000000330963928
 20
77.500000000000909
 30
0.0
 11
-30.000000330963815
 21
86.500000000000909
 31
0.0
  0
LINE
  5
11A
100
AcDbEntity
  8
0
  6
CONTINUOUS
 62
               7
100
AcDbLine
 10
-27.000000330963815
 20
89.500000000000909
 30
0.0
 11
-30.000000330963815
 21
86.500000000000909
 31
0.0
  0
LINE
  5
11B
100
AcDbEntity
  8
0
  6
CONTINUOUS
 62
               7
100
AcDbLine
 10
-27.000000330963815
 20
89.500000000000909
 30
0.0
 11
-5.5000003309639283
 21
89.500000000000909
 31
0.0
  0
LINE
  5
11C
100
AcDbEntity
  8
0
  6
CONTINUOUS
 62
               7
100
AcDbLine
 10
229.99999966903607
 20
77.500000000000909
 30
0.0
 11
229.99999966903607
 21
89.500000000000909
 31
0.0
  0
LINE
  5
11D
100
AcDbEntity
  8
0
  6
CONTINUOUS
 62
               7
100
AcDbLine
 10
-5.5000003309639283
 20
87.500000000000909
 30
0.0
 11
195.49999966903607
 21
87.500000000000909
 31
0.0
  0
LINE
  5
11E
100
AcDbEntity
  8
0
  6
CONTINUOUS
 62
               7
100
AcDbLine
 10
-20.000000330963928
 20
77.500000000000909
 30
0.0
 11
-20.000000330963928
 21
81.500000000000909
 31
0.0
  0
LINE
  5
11F
100
AcDbEntity
  8
0
  6
CONTINUOUS
 62
               7
100
AcDbLine
 10
-10.000000330963019
 20
77.500000000000909
 30
0.0
 11
-10.000000330963019
 21
81.500000000000909
 31
0.0
  0
LINE
  5
120
100
AcDbEntity
  8
0
  6
CONTINUOUS
 62
               7
100
AcDbLine
 10
195.49999966903607
 20
89.500000000002672
 30
0.0
 11
229.99999966903607
 21
89.500000000000909
 31
0.0
  0
LINE
  5
121
100
AcDbEntity
  8
0
  6
CONTINUOUS
 62
               7
100
AcDbLine
 10
-5.5000003309639283
 20
89.500000000000909
 30
0.0
 11
-5.5000003309639283
 21
87.500000000000909
 31
0.0
  0
LINE
  5
122
100
AcDbEntity
  8
0
  6
CONTINUOUS
 62
               7
100
AcDbLine
 10
-30.000000330963474
 20
77.500000000000909
 30
0.0
 11
-20.000000330963928
 21
77.500000000000909
 31
0.0
  0
LINE
  5
123
100
AcDbEntity
  8
0
  6
CONTINUOUS
 62
               7
100
AcDbLine
 10
94.999999669035617
 20
77.500000000000909
 30
0.0
 11
94.999999669035617
 21
81.500000000001592
 31
0.0
  0
LINE
  5
124
100
AcDbEntity
  8
0
  6
CONTINUOUS
 62
               7
100
AcDbLine
 10
104.99999966903653
 20
77.500000000000909
 30
0.0
 11
104.99999966903653
 21
81.500000000001592
 31
0.0
  0
LINE
  5
125
100
AcDbEntity
  8
0
  6
CONTINUOUS
 62
               7
100
AcDbLine
 10
-10.000000330963019
 20
77.500000000000909
 30
0.0
 11
94.999999669035617
 21
77.500000000000909
 31
0.0
  0
LINE
  5
126
100
AcDbEntity
  8
0
  6
CONTINUOUS
 62
               7
100
AcDbLine
 10
209.9999996690363
 20
77.500000000000909
 30
0.0
 11
209.9999996690363
 21
81.500000000001592
 31
0.0
  0
LINE
  5
127
100
AcDbEntity
  8
0
  6
CONTINUOUS
 62
               7
100
AcDbLine
 10
219.99999966903721
 20
77.500000000000909
 30
0.0
 11
219.99999966903812
 21
81.500000000001592
 31
0.0
  0
LINE
  5
128
100
AcDbEntity
  8
0
  6
CONTINUOUS
 62
               7
100
AcDbLine
 10
209.9999996690363
 20
81.500000000001592
 30
0.0
 11
219.99999966903721
 21
81.500000000001592
 31
0.0
  0
LINE
  5
129
100
AcDbEntity
  8
0
  6
CONTINUOUS
 62
               7
100
AcDbLine
 10
219.99999966903721
 20
77.500000000000909
 30
0.0
 11
229.99999966903607
 21
77.500000000000909
 31
0.0
  0
CIRCLE
  5
12A
100
AcDbEntity
  8
0
  6
CONTINUOUS
 62
               7
100
AcDbCircle
 10
225.99999966903607
 20
83.000000000000909
 30
0.0
 40
2.75
  0
CIRCLE
  5
12B
100
AcDbEntity
  8
0
  6
CONTINUOUS
 62
               7
100
AcDbCircle
 10
-26.000000330963928
 20
83.000000000000909
 30
0.0
 40
2.75
  0
CIRCLE
  5
12C
100
AcDbEntity
  8
0
  6
CONTINUOUS
 62
               7
100
AcDbCircle
 10
-47.070807985404542
 20
93.819350483855885
 30
0.0
 40
0.6409174099044322
  0
CIRCLE
  5
12D
100
AcDbEntity
  8
0
  6
CONTINUOUS
 62
               7
100
AcDbCircle
 10
-43.000000330963928
 20
96.5
 30
0.0
 40
7.0
  0
CIRCLE
  5
12E
100
AcDbEntity
  8
0
  6
CONTINUOUS
 62
               7
100
AcDbCircle
 10
-43.000000330963928
 20
96.5
 30
0.0
 40
6.75
  0
CIRCLE
  5
12F
100
AcDbEntity
  8
0
  6
CONTINUOUS
 62
               7
100
AcDbCircle
 10
-43.000000330963928
 20
96.5
 30
0.0
 40
6.25
  0
CIRCLE
  5
130
100
AcDbEntity
  8
0
  6
CONTINUOUS
 62
               7
100
AcDbCircle
 10
207.24999966903709
 20
106.0861321541334
 30
0.0
 40
1.5
  0
CIRCLE
  5
131
100
AcDbEntity
  8
0
  6
CONTINUOUS
 62
               7
100
AcDbCircle
 10
217.24999966903698
 20
106.0861321541334
 30
0.0
 40
1.5
  0
LINE
  5
132
100
AcDbEntity
  8
0
  6
CONTINUOUS
 62
               7
100
AcDbLine
 10
209.99999966903459
 20
79.900000000000887
 30
0.0
 11
219.99999966903493
 21
79.900000000000887
 31
0.0
  0
LINE
  5
133
100
AcDbEntity
  8
0
  6
CONTINUOUS
 62
               7
100
AcDbLine
 10
-34.341054861104624
 20
92.430584069265478
 30
0.0
 11
-34.651496992807154
 21
91.679989350385085
 31
0.0
  0
LINE
  5
134
100
AcDbEntity
  8
0
  6
CONTINUOUS
 62
               7
100
AcDbLine
 10
-34.312344787653217
 20
92.499999999999886
 30
0.0
 11
-34.341054861104624
 21
92.430584069265478
 31
0.0
  0
LINE
  5
135
100
AcDbEntity
  8
0
  6
CONTINUOUS
 62
               7
100
AcDbLine
 10
-49.928203561239286
 20
92.499999999999886
 30
0.0
 11
-50.048435480126443
 21
92.430584069265478
 31
0.0
  0
LINE
  5
136
100
AcDbEntity
  8
0
  6
CONTINUOUS
 62
               7
100
AcDbLine
 10
-34.039003975749608
 20
93.160890223708066
 30
0.0
 11
-34.312344787653217
 21
92.499999999999886
 31
0.0
  0
LINE
  5
137
100
AcDbEntity
  8
0
  6
CONTINUOUS
 62
               7
100
AcDbLine
 10
-35.416581561626856
 20
93.952106797986403
 30
0.0
 11
-35.44748317156774
 21
93.883621795435602
 31
0.0
  0
LINE
  5
138
100
AcDbEntity
  8
0
  6
CONTINUOUS
 62
               7
100
AcDbLine
 10
-50.583419100300887
 20
93.952106797986403
 30
0.0
 11
-50.552517490360003
 21
93.883621795435602
 31
0.0
  0
LINE
  5
139
100
AcDbEntity
  8
0
  6
CONTINUOUS
 62
               7
100
AcDbLine
 10
-50.820406663507526
 20
93.952106797986403
 30
0.0
 11
-50.800525113702349
 21
93.883621795435602
 31
0.0
  0
LINE
  5
13A
100
AcDbEntity
  8
0
  6
CONTINUOUS
 62
               7
100
AcDbLine
 10
-35.06208667816253
 20
95.505250362820107
 30
0.0
 11
-35.073580878182327
 21
95.454890982116467
 31
0.0
  0
LINE
  5
13B
100
AcDbEntity
  8
0
  6
CONTINUOUS
 62
               7
100
AcDbLine
 10
-50.937913983765327
 20
95.505250362820107
 30
0.0
 11
-50.926419783745303
 21
95.454890982116467
 31
0.0
  0
LINE
  5
13C
100
AcDbEntity
  8
0
  6
CONTINUOUS
 62
               7
100
AcDbLine
 10
-51.261087908439492
 20
95.505250362820107
 30
0.0
 11
-51.256672670523869
 21
95.454890982116467
 31
0.0
  0
LINE
  5
13D
100
AcDbEntity
  8
0
  6
CONTINUOUS
 62
               7
100
AcDbLine
 10
-35.022369953514442
 20
97.097840748691397
 30
0.0
 11
-35.022695676802357
 21
97.084779657139507
 31
0.0
  0
LINE
  5
13E
100
AcDbEntity
  8
0
  6
CONTINUOUS
 62
               7
100
AcDbLine
 10
-50.977630708413301
 20
97.097840748691397
 30
0.0
 11
-50.9773049851255
 21
97.084779657139507
 31
0.0
  0
LINE
  5
13F
100
AcDbEntity
  8
0
  6
CONTINUOUS
 62
               7
100
AcDbLine
 10
-51.398161176742803
 20
97.097840748691397
 30
0.0
 11
-51.399572487314174
 21
97.084779657139507
 31
0.0
  0
LINE
  5
140
100
AcDbEntity
  8
0
  6
CONTINUOUS
 62
               7
100
AcDbLine
 10
-35.316560862100175
 20
98.71145189884561
 30
0.0
 11
-35.299006355363815
 21
98.666723745143997
 31
0.0
  0
LINE
  5
141
100
AcDbEntity
  8
0
  6
CONTINUOUS
 62
               7
100
AcDbLine
 10
-51.223803125166739
 20
98.71145189884561
 30
0.0
 11
-51.228636206376621
 21
98.666723745143997
 31
0.0
  0
LINE
  5
142
100
AcDbEntity
  8
0
  6
CONTINUOUS
 62
               7
100
AcDbLine
 10
-50.039204519638304
 20
100.27319381300117
 30
0.0
 11
-50.118974801455636
 21
100.14968525882517
 31
0.0
  0
LINE
  5
143
100
AcDbEntity
  8
0
  6
CONTINUOUS
 62
               7
100
AcDbLine
 10
-50.736033052102755
 20
100.27319381300117
 30
0.0
 11
-50.774607784552643
 21
100.14968525882517
 31
0.0
  0
LINE
  5
144
100
AcDbEntity
  8
0
  6
CONTINUOUS
 62
               7
100
AcDbLine
 10
224.93933949725624
 20
81.93933982822108
 30
0.0
 11
227.06065984081584
 21
84.060660171780739
 31
0.0
  0
LINE
  5
145
100
AcDbEntity
  8
0
  6
CONTINUOUS
 62
               7
100
AcDbLine
 10
227.06065984081584
 20
81.93933982822108
 30
0.0
 11
224.93933949725624
 21
84.060660171780683
 31
0.0
  0
LINE
  5
146
100
AcDbEntity
  8
0
  6
CONTINUOUS
 62
               7
100
AcDbLine
 10
-27.060660502743758
 20
81.93933982822108
 30
0.0
 11
-24.939340159184155
 21
84.060660171780739
 31
0.0
  0
LINE
  5
147
100
AcDbEntity
  8
0
  6
CONTINUOUS
 62
               7
100
AcDbLine
 10
-24.939340159184155
 20
81.93933982822108
 30
0.0
 11
-27.060660502743758
 21
84.060660171780683
 31
0.0
  0
LINE
  5
148
100
AcDbEntity
  8
0
  6
CONTINUOUS
 62
               7
100
AcDbLine
 10
-4.5000003309652925
 20
106.24999999999801
 30
0.0
 11
195.49999966903493
 21
106.24999999999977
 31
0.0
  0
LINE
  5
149
100
AcDbEntity
  8
0
  6
CONTINUOUS
 62
               7
100
AcDbLine
 10
83.249999669036072
 20
88.24999999999801
 30
0.0
 11
106.74999966903619
 21
88.249999999999773
 31
0.0
  0
LINE
  5
14A
100
AcDbEntity
  8
0
  6
CONTINUOUS
 62
               2
100
AcDbLine
 10
180.0
 20
4.0
 30
0.0
 11
180.0
 21
-4.0
 31
0.0
  0
LINE
  5
14B
100
AcDbEntity
  8
0
  6
CONTINUOUS
 62
               2
100
AcDbLine
 10
120.0
 20
4.0
 30
0.0
 11
120.0
 21
-4.0
 31
0.0
  0
LINE
  5
14C
100
AcDbEntity
  8
0
  6
CONTINUOUS
 62
               2
100
AcDbLine
 10
60.0
 20
4.0
 30
0.0
 11
60.0
 21
-4.0
 31
0.0
  0
LINE
  5
14D
100
AcDbEntity
  8
0
  6
CONTINUOUS
 62
               2
100
AcDbLine
 10
0.0
 20
4.0
 30
0.0
 11
0.0
 21
-4.0
 31
0.0
  0
ENDBLK
  5
14E
100
AcDbEntity
  8
0
100
AcDbBlockEnd
  0
BLOCK
  5
14F
100
AcDbEntity
  8
0
100
AcDbBlockBegin
  2
MS_2
 70
               0
 10
0.0
 20
0.0
 30
0.0
  3
MS_2
  1

  0
LINE
  5
150
100
AcDbEntity
  8
0
  6
CONTINUOUS
 62
               7
100
AcDbLine
 10
-35.0
 20
0.0
 30
0.0
 11
35.000000000000057
 21
0.0
 31
0.0
  0
LINE
  5
151
100
AcDbEntity
  8
0
  6
CONTINUOUS
 62
               7
100
AcDbLine
 10
35.000000000000057
 20
0.0
 30
0.0
 11
35.000000000000057
 21
10.0
 31
0.0
  0
LINE
  5
152
100
AcDbEntity
  8
0
  6
CONTINUOUS
 62
               7
100
AcDbLine
 10
-35.0
 20
0.0
 30
0.0
 11
-35.0
 21
10.0
 31
0.0
  0
ARC
  5
153
100
AcDbEntity
  8
0
  6
CONTINUOUS
 62
               7
100
AcDbCircle
 10
23.500000000002501
 20
51.500000000000796
 30
0.0
 40
3.0
100
AcDbArc
 50
284.01831558194101
 51
107.17883356085238
  0
LINE
  5
154
100
AcDbEntity
  8
0
  6
CONTINUOUS
 62
               7
100
AcDbLine
 10
-57.999999999998749
 20
77.500000000000909
 30
0.0
 11
-56.999999999999062
 21
77.500000000000909
 31
0.0
  0
LINE
  5
155
100
AcDbEntity
  8
0
  6
CONTINUOUS
 62
               7
100
AcDbLine
 10
-57.999999999998749
 20
89.499999999992383
 30
0.0
 11
-56.999999999998749
 21
89.499999999992383
 31
0.0
  0
LINE
  5
156
100
AcDbEntity
  8
0
  6
CONTINUOUS
 62
               7
100
AcDbLine
 10
-57.999999999998749
 20
89.499999999992383
 30
0.0
 11
-57.999999999998749
 21
77.500000000000909
 31
0.0
  0
CIRCLE
  5
157
100
AcDbEntity
  8
0
  6
CONTINUOUS
 62
               7
100
AcDbCircle
 10
0.0000000000005116
 20
80.000000000000512
 30
0.0
 40
2.5
  0
LINE
  5
158
100
AcDbEntity
  8
0
  6
CONTINUOUS
 62
               2
100
AcDbLine
 10
-12.699999999999477
 20
59.999999999999773
 30
0.0
 11
12.7000000000005
 21
59.999999999999773
 31
0.0
  0
LINE
  5
159
100
AcDbEntity
  8
0
  6
CONTINUOUS
 62
               2
100
AcDbLine
 10
-12.699999999999477
 20
69.999999999999773
 30
0.0
 11
12.7000000000005
 21
69.999999999999773
 31
0.0
  0
LINE
  5
15A
100
AcDbEntity
  8
0
  6
CONTINUOUS
 62
               2
100
AcDbLine
 10
-12.54032065640564
 20
80.000000000000512
 30
0.0
 11
12.799999999999955
 21
80.000000000000512
 31
0.0
  0
LINE
  5
15B
100
AcDbEntity
  8
0
  6
CONTINUOUS
 62
               2
100
AcDbLine
 10
0.0000000000005116
 20
52.375657047723905
 30
0.0
 11
0.0000000000005116
 21
98.088551449388859
 31
0.0
  0
LINE
  5
15C
100
AcDbEntity
  8
0
  6
CONTINUOUS
 62
               7
100
AcDbLine
 10
52.500000025653435
 20
45.999999999999488
 30
0.0
 11
52.500000025653435
 21
41.999999999999488
 31
0.0
  0
LINE
  5
15D
100
AcDbEntity
  8
0
  6
CONTINUOUS
 62
               7
100
AcDbLine
 10
53.500000000001876
 20
41.999999999999488
 30
0.0
 11
53.500000000001876
 21
45.999999999999488
 31
0.0
  0
LINE
  5
15E
100
AcDbEntity
  8
0
  6
CONTINUOUS
 62
               7
100
AcDbLine
 10
24.949584831471441
 20
45.999999999999488
 30
0.0
 11
53.500000000001876
 21
45.999999999999488
 31
0.0
  0
LINE
  5
15F
100
AcDbEntity
  8
0
  6
CONTINUOUS
 62
               7
100
AcDbLine
 10
26.06629762797462
 20
41.999999999999488
 30
0.0
 11
53.500000000001876
 21
41.999999999999488
 31
0.0
  0
LINE
  5
160
100
AcDbEntity
  8
0
  6
CONTINUOUS
 62
               7
100
AcDbLine
 10
53.500000000000057
 20
76.499999999999773
 30
0.0
 11
53.500000000000057
 21
107.99999999999977
 31
0.0
  0
ARC
  5
161
100
AcDbEntity
  8
0
  6
CONTINUOUS
 62
               7
100
AcDbCircle
 10
43.500000000000966
 20
107.99999999999977
 30
0.0
 40
10.0
100
AcDbArc
 50
0.0
 51
90.0
  0
LINE
  5
162
100
AcDbEntity
  8
0
  6
CONTINUOUS
 62
               7
100
AcDbLine
 10
-23.646551576134868
 20
50.667388998914134
 30
0.0
 11
-56.175591518180283
 21
74.301765380201516
 31
0.0
  0
LINE
  5
163
100
AcDbEntity
  8
0
  6
CONTINUOUS
 62
               7
100
AcDbLine
 10
52.500000000001876
 20
46.499999999999773
 30
0.0
 11
24.809995731908487
 21
46.499999999999773
 31
0.0
  0
ARC
  5
164
100
AcDbEntity
  8
0
  6
CONTINUOUS
 62
               7
100
AcDbCircle
 10
52.500000000001876
 20
47.499999999999886
 30
0.0
 40
1.0
100
AcDbArc
 50
270.0
 51
0.0
  0
LINE
  5
165
100
AcDbEntity
  8
0
  6
CONTINUOUS
 62
               7
100
AcDbLine
 10
-56.999999999998181
 20
113.99794666358389
 30
0.0
 11
-56.999999999999091
 21
75.919784101471805
 31
0.0
  0
ARC
  5
166
100
AcDbEntity
  8
0
  6
CONTINUOUS
 62
               7
100
AcDbCircle
 10
-55.999999999998181
 20
113.99794666358389
 30
0.0
 40
1.0
100
AcDbArc
 50
94.999999999999815
 51
180.0
  0
ARC
  5
167
100
AcDbEntity
  8
0
  6
CONTINUOUS
 62
               7
100
AcDbCircle
 10
-54.999999999999091
 20
75.919784101471862
 30
0.0
 40
2.0
100
AcDbArc
 50
180.0
 51
233.99925588951618
  0
LINE
  5
168
100
AcDbEntity
  8
0
  6
CONTINUOUS
 62
               7
100
AcDbLine
 10
53.500000000001876
 20
76.499999999999773
 30
0.0
 11
53.500000000001876
 21
47.499999999999773
 31
0.0
  0
LINE
  5
169
100
AcDbEntity
  8
0
  6
CONTINUOUS
 62
               7
100
AcDbLine
 10
54.700000000001921
 20
73.499999999999773
 30
0.0
 11
54.700000000001921
 21
68.499999999999773
 31
0.0
  0
LINE
  5
16A
100
AcDbEntity
  8
0
  6
CONTINUOUS
 62
               7
100
AcDbLine
 10
43.500000000000057
 20
117.99999999999977
 30
0.0
 11
-21.730034291992581
 21
117.99999999999977
 31
0.0
  0
LINE
  5
16B
100
AcDbEntity
  8
0
  6
CONTINUOUS
 62
               7
100
AcDbLine
 10
-56.087155742745381
 20
114.99414136167599
 30
0.0
 11
-21.730034291992581
 21
117.99999999999977
 31
0.0
  0
LINE
  5
16C
100
AcDbEntity
  8
0
  6
CONTINUOUS
 62
               7
100
AcDbLine
 10
-66.999999999998181
 20
88.25
 30
0.0
 11
-57.999999999998749
 21
88.25
 31
0.0
  0
LINE
  5
16D
100
AcDbEntity
  8
0
  6
CONTINUOUS
 62
               7
100
AcDbLine
 10
-66.999999999998181
 20
89.75
 30
0.0
 11
-66.999999999998181
 21
88.25
 31
0.0
  0
LINE
  5
16E
100
AcDbEntity
  8
0
  6
CONTINUOUS
 62
               7
100
AcDbLine
 10
-66.999999999998181
 20
89.75
 30
0.0
 11
-66.999999999998181
 21
106.25
 31
0.0
  0
LINE
  5
16F
100
AcDbEntity
  8
0
  6
CONTINUOUS
 62
               7
100
AcDbLine
 10
-60.499999999998352
 20
106.24999999999977
 30
0.0
 11
-66.999999999998181
 21
106.25
 31
0.0
  0
ARC
  5
170
100
AcDbEntity
  8
0
  6
CONTINUOUS
 62
               7
100
AcDbCircle
 10
0.0
 20
79.999999999999773
 30
0.0
 40
15.0
100
AcDbArc
 50
8.5992520369641419
 51
171.4007479630358
  0
ARC
  5
171
100
AcDbEntity
  8
0
  6
CONTINUOUS
 62
               7
100
AcDbCircle
 10
0.0000000000005116
 20
69.999999999999773
 30
0.0
 40
2.6000000000000001
100
AcDbArc
 50
146.81452223974901
 51
33.185477760251011
  0
CIRCLE
  5
172
100
AcDbEntity
  8
0
  6
CONTINUOUS
 62
               7
100
AcDbCircle
 10
0.0000000000005116
 20
59.999999999999773
 30
0.0
 40
2.6000000000000001
  0
ARC
  5
173
100
AcDbEntity
  8
0
  6
CONTINUOUS
 62
               7
100
AcDbCircle
 10
0.0
 20
80.000000000000512
 30
0.0
 40
12.800000000000001
100
AcDbArc
 50
311.56081153224773
 51
348.4391884677546
  0
ARC
  5
174
100
AcDbEntity
  8
0
  6
CONTINUOUS
 62
               7
100
AcDbCircle
 10
0.0
 20
37.260445231809399
 30
0.0
 40
34.23189466673896
100
AcDbArc
 50
75.637010426652594
 51
104.36298957334741
  0
ARC
  5
175
100
AcDbEntity
  8
0
  6
CONTINUOUS
 62
               7
100
AcDbCircle
 10
0.0
 20
80.000000000000512
 30
0.0
 40
12.800000000000001
100
AcDbArc
 50
71.560811532243903
 51
108.43918846775611
  0
ARC
  5
176
100
AcDbEntity
  8
0
  6
CONTINUOUS
 62
               7
100
AcDbCircle
 10
37.01354017568957
 20
101.3697773840961
 30
0.0
 40
34.23189466673896
100
AcDbArc
 50
195.63701042665451
 51
224.36298957334839
  0
ARC
  5
177
100
AcDbEntity
  8
0
  6
CONTINUOUS
 62
               7
100
AcDbCircle
 10
-37.013540175689798
 20
101.3697773840957
 30
0.0
 40
34.23189466673896
100
AcDbArc
 50
315.63701042665252
 51
344.36298957334884
  0
ARC
  5
178
100
AcDbEntity
  8
0
  6
CONTINUOUS
 62
               7
100
AcDbCircle
 10
0.0
 20
80.000000000000512
 30
0.0
 40
12.800000000000001
100
AcDbArc
 50
191.56081153225031
 51
228.4391884677523
  0
CIRCLE
  5
179
100
AcDbEntity
  8
0
  6
CONTINUOUS
 62
               7
100
AcDbCircle
 10
-51.999999999995566
 20
104.50000000000091
 30
0.0
 40
3.0
  0
LINE
  5
17A
100
AcDbEntity
  8
0
  6
CONTINUOUS
 62
               7
100
AcDbLine
 10
64.800000000002058
 20
72.999999999999773
 30
0.0
 11
64.800000000002058
 21
68.999999999999773
 31
0.0
  0
LINE
  5
17B
100
AcDbEntity
  8
0
  6
CONTINUOUS
 62
               7
100
AcDbLine
 10
64.300000000002058
 20
68.499999999999773
 30
0.0
 11
58.800000000002058
 21
68.499999999999773
 31
0.0
  0
LINE
  5
17C
100
AcDbEntity
  8
0
  6
CONTINUOUS
 62
               7
100
AcDbLine
 10
58.800000000002058
 20
68.499999999999773
 30
0.0
 11
58.800000000002058
 21
73.499999999999773
 31
0.0
  0
LINE
  5
17D
100
AcDbEntity
  8
0
  6
CONTINUOUS
 62
               7
100
AcDbLine
 10
58.800000000002058
 20
73.499999999999773
 30
0.0
 11
64.300000000002058
 21
73.499999999999773
 31
0.0
  0
LINE
  5
17E
100
AcDbEntity
  8
0
  6
CONTINUOUS
 62
               7
100
AcDbLine
 10
59.300000000002058
 20
68.499999999999773
 30
0.0
 11
59.300000000002058
 21
73.499999999999773
 31
0.0
  0
LINE
  5
17F
100
AcDbEntity
  8
0
  6
CONTINUOUS
 62
               7
100
AcDbLine
 10
58.800000000002058
 20
72.999999999999773
 30
0.0
 11
54.700000000001921
 21
72.999999999999773
 31
0.0
  0
LINE
  5
180
100
AcDbEntity
  8
0
  6
CONTINUOUS
 62
               7
100
AcDbLine
 10
58.800000000002058
 20
68.999999999999773
 30
0.0
 11
54.700000000001921
 21
68.999999999999773
 31
0.0
  0
LINE
  5
181
100
AcDbEntity
  8
0
  6
CONTINUOUS
 62
               7
100
AcDbLine
 10
64.300000000002058
 20
68.499999999999773
 30
0.0
 11
64.800000000002058
 21
68.999999999999773
 31
0.0
  0
LINE
  5
182
100
AcDbEntity
  8
0
  6
CONTINUOUS
 62
               7
100
AcDbLine
 10
64.800000000002058
 20
72.999999999999773
 30
0.0
 11
64.300000000002058
 21
73.499999999999773
 31
0.0
  0
LINE
  5
183
100
AcDbEntity
  8
0
  6
CONTINUOUS
 62
               7
100
AcDbLine
 10
64.300000000002058
 20
73.499999999999773
 30
0.0
 11
64.300000000002058
 21
68.499999999999773
 31
0.0
  0
LINE
  5
184
100
AcDbEntity
  8
0
  6
CONTINUOUS
 62
               7
100
AcDbLine
 10
55.587060689499992
 20
62.446851990108712
 30
0.0
 11
55.587060689499992
 21
62.049999999999613
 31
0.0
  0
LINE
  5
185
100
AcDbEntity
  8
0
  6
CONTINUOUS
 62
               7
100
AcDbLine
 10
55.988365138582083
 20
62.446851990108712
 30
0.0
 11
55.587060689499992
 21
62.446851990108712
 31
0.0
  0
LINE
  5
186
100
AcDbEntity
  8
0
  6
CONTINUOUS
 62
               7
100
AcDbLine
 10
57.300000000002058
 20
62.049999999999613
 30
0.0
 11
55.988365138582083
 21
62.446851990108712
 31
0.0
  0
LINE
  5
187
100
AcDbEntity
  8
0
  6
CONTINUOUS
 62
               7
100
AcDbLine
 10
53.500000000001876
 20
62.0499999999995
 30
0.0
 11
57.300000000002058
 21
62.049999999999613
 31
0.0
  0
LINE
  5
188
100
AcDbEntity
  8
0
  6
CONTINUOUS
 62
               7
100
AcDbLine
 10
57.300000000002058
 20
62.049999999999613
 30
0.0
 11
57.300000000002058
 21
52.449999999999591
 31
0.0
  0
LINE
  5
189
100
AcDbEntity
  8
0
  6
CONTINUOUS
 62
               7
100
AcDbLine
 10
57.300000000002058
 20
52.449999999999591
 30
0.0
 11
53.500000000001876
 21
52.449999999999591
 31
0.0
  0
LINE
  5
18A
100
AcDbEntity
  8
0
  6
CONTINUOUS
 62
               7
100
AcDbLine
 10
54.700000000001921
 20
68.499999999999773
 30
0.0
 11
53.500000000001876
 21
68.499999999999773
 31
0.0
  0
LINE
  5
18B
100
AcDbEntity
  8
0
  6
CONTINUOUS
 62
               7
100
AcDbLine
 10
54.700000000001921
 20
73.499999999999773
 30
0.0
 11
53.500000000001876
 21
73.499999999999773
 31
0.0
  0
LINE
  5
18C
100
AcDbEntity
  8
0
  6
CONTINUOUS
 62
               7
100
AcDbLine
 10
-57.999999999998465
 20
108.74047579392828
 30
0.0
 11
-57.999999999998465
 21
96.040475793928181
 31
0.0
  0
LINE
  5
18D
100
AcDbEntity
  8
0
  6
CONTINUOUS
 62
               7
100
AcDbLine
 10
-60.499999999998352
 20
106.84047579392831
 30
0.0
 11
-60.499999999998352
 21
97.940475793928272
 31
0.0
  0
LINE
  5
18E
100
AcDbEntity
  8
0
  6
CONTINUOUS
 62
               7
100
AcDbLine
 10
-57.999999999998465
 20
108.74047579392828
 30
0.0
 11
-56.999999999998352
 21
108.74047579392828
 31
0.0
  0
LINE
  5
18F
100
AcDbEntity
  8
0
  6
CONTINUOUS
 62
               7
100
AcDbLine
 10
-57.999999999998465
 20
96.040475793928181
 30
0.0
 11
-56.999999999998352
 21
96.040475793928181
 31
0.0
  0
LINE
  5
190
100
AcDbEntity
  8
0
  6
CONTINUOUS
 62
               7
100
AcDbLine
 10
-60.499999999998352
 20
106.84047579392831
 30
0.0
 11
-57.999999999998465
 21
106.84047579392831
 31
0.0
  0
LINE
  5
191
100
AcDbEntity
  8
0
  6
CONTINUOUS
 62
               7
100
AcDbLine
 10
-60.499999999998352
 20
97.940475793928272
 30
0.0
 11
-57.999999999998465
 21
97.940475793928272
 31
0.0
  0
LINE
  5
192
100
AcDbEntity
  8
0
  6
CONTINUOUS
 62
               7
100
AcDbLine
 10
-58.299999999998818
 20
86.100000000000762
 30
0.0
 11
-57.999999999998579
 21
86.100000000000762
 31
0.0
  0
LINE
  5
193
100
AcDbEntity
  8
0
  6
CONTINUOUS
 62
               7
100
AcDbLine
 10
-57.999999999998579
 20
79.900000000001
 30
0.0
 11
-58.299999999998818
 21
79.900000000000091
 31
0.0
  0
LINE
  5
194
100
AcDbEntity
  8
0
  6
CONTINUOUS
 62
               7
100
AcDbLine
 10
23.432851213553477
 20
51.4328512135518
 30
0.0
 11
24.560660171782274
 21
52.560660171780626
 31
0.0
  0
LINE
  5
195
100
AcDbEntity
  8
0
  6
CONTINUOUS
 62
               7
100
AcDbLine
 10
24.560660171782274
 20
50.439339828220966
 30
0.0
 11
23.380837034039018
 21
51.619162965964222
 31
0.0
  0
LINE
  5
196
100
AcDbEntity
  8
0
  6
CONTINUOUS
 62
               7
100
AcDbLine
 10
-53.060660171775396
 20
103.43933982822111
 30
0.0
 11
-50.939339828215793
 21
105.56066017178074
 31
0.0
  0
LINE
  5
197
100
AcDbEntity
  8
0
  6
CONTINUOUS
 62
               7
100
AcDbLine
 10
-50.939339828215793
 20
103.43933982822108
 30
0.0
 11
-53.060660171775396
 21
105.56066017178068
 31
0.0
  0
LINE
  5
198
100
AcDbEntity
  8
0
  6
CONTINUOUS
 62
               7
100
AcDbLine
 10
35.000000000000057
 20
10.0
 30
0.0
 11
14.831374995893839
 21
82.242836536882066
 31
0.0
  0
LINE
  5
199
100
AcDbEntity
  8
0
  6
CONTINUOUS
 62
               7
100
AcDbLine
 10
-35.0
 20
10.0
 30
0.0
 11
-14.831374995893896
 21
82.242836536882066
 31
0.0
  0
LINE
  5
19A
100
AcDbEntity
  8
0
  6
CONTINUOUS
 62
               2
100
AcDbLine
 10
0.0
 20
4.0
 30
0.0
 11
0.0
 21
-4.0
 31
0.0
  0
ENDBLK
  5
19B
100
AcDbEntity
  8
0
100
AcDbBlockEnd
  0
BLOCK
  5
19C
100
AcDbEntity
  8
0
100
AcDbBlockBegin
  2
MS_3
 70
               0
 10
0.0
 20
0.0
 30
0.0
  3
MS_3
  1

  0
LINE
  5
19E
100
AcDbEntity
  8
0
  6
DASHED
 62
               2
100
AcDbLine
 10
-59.994434330964395
 20
29.99999999999995
 30
0.0
 11
240.00738330182594
 21
29.99999999999995
 31
0.0
  0
LINE
  5
19F
100
AcDbEntity
  8
0
  6
DASHED
 62
               2
100
AcDbLine
 10
-59.994434330964395
 20
-29.999999999999993
 30
0.0
 11
240.00738330182594
 21
-29.999999999999993
 31
0.0
  0
LINE
  5
1A1
100
AcDbEntity
  8
0
  6
CENTER
 62
               2
100
AcDbLine
 10
56.0
 20
0.0000000000000071
 30
0.0
 11
64.0
 21
0.0000000000000071
 31
0.0
  0
LINE
  5
1A2
100
AcDbEntity
  8
0
  6
CENTER
 62
               2
100
AcDbLine
 10
60.0
 20
4.0000000000000071
 30
0.0
 11
60.0
 21
-3.9999999999999929
 31
0.0
  0
CIRCLE
  5
1A3
100
AcDbEntity
  8
0
  6
DASHED
 62
               2
100
AcDbCircle
 10
60.0
 20
0.0000000000000071
 30
0.0
 40
2.25
  0
LINE
  5
1A4
100
AcDbEntity
  8
0
  6
CENTER
 62
               2
100
AcDbLine
 10
120.0
 20
4.0000000000000071
 30
0.0
 11
120.0
 21
-3.9999999999999929
 31
0.0
  0
LINE
  5
1A5
100
AcDbEntity
  8
0
  6
CENTER
 62
               2
100
AcDbLine
 10
116.0
 20
0.0000000000000071
 30
0.0
 11
124.0
 21
0.0000000000000071
 31
0.0
  0
CIRCLE
  5
1A6
100
AcDbEntity
  8
0
  6
DASHED
 62
               2
100
AcDbCircle
 10
120.0
 20
0.0000000000000071
 30
0.0
 40
2.25
  0
LINE
  5
1A7
100
AcDbEntity
  8
0
  6
CENTER
 62
               2
100
AcDbLine
 10
176.0
 20
0.0000000000000071
 30
0.0
 11
184.0
 21
0.0000000000000071
 31
0.0
  0
CIRCLE
  5
1A8
100
AcDbEntity
  8
0
  6
DASHED
 62
               2
100
AcDbCircle
 10
180.0
 20
0.0000000000000071
 30
0.0
 40
2.25
  0
LINE
  5
1A9
100
AcDbEntity
  8
0
  6
CENTER
 62
               2
100
AcDbLine
 10
180.0
 20
4.0000000000000071
 30
0.0
 11
180.0
 21
-3.9999999999999929
 31
0.0
  0
LINE
  5
1AA
100
AcDbEntity
  8
0
  6
CONTINUOUS
 62
               7
100
AcDbLine
 10
-26.994434330964282
 20
-57.99999999999914
 30
0.0
 11
-26.994434330964282
 21
-56.99999999999914
 31
0.0
  0
ARC
  5
1AB
100
AcDbEntity
  8
0
  6
CONTINUOUS
 62
               7
100
AcDbCircle
 10
223.56816209432696
 20
-58.262046271217677
 30
0.0
 40
1.0133074587916275
100
AcDbArc
 50
182.14653236098235
 51
221.18550895035477
  0
LINE
  5
1AC
100
AcDbEntity
  8
0
  6
CONTINUOUS
 62
               7
100
AcDbLine
 10
222.55556566903579
 20
-57.99999999999914
 30
0.0
 11
222.55556566903488
 21
-58.299999999999436
 31
0.0
  0
LINE
  5
1AD
100
AcDbEntity
  8
0
  6
CONTINUOUS
 62
               7
100
AcDbLine
 10
194.50556566903447
 20
-57.99999999999914
 30
0.0
 11
220.90556566903672
 21
-57.99999999999914
 31
0.0
  0
LINE
  5
1AE
100
AcDbEntity
  8
0
  6
CONTINUOUS
 62
               7
100
AcDbLine
 10
-29.994434330962292
 20
-57.99999999999914
 30
0.0
 11
-4.4944343309655324
 21
-57.99999999999914
 31
0.0
  0
LINE
  5
1AF
100
AcDbEntity
  8
0
  6
CONTINUOUS
 62
               7
100
AcDbLine
 10
-29.994434330962292
 20
-56.99999999999914
 30
0.0
 11
-29.994434330962292
 21
-57.99999999999914
 31
0.0
  0
LINE
  5
1B0
100
AcDbEntity
  8
0
  6
CONTINUOUS
 62
               2
100
AcDbLine
 10
-83.917391389667273
 20
0.0000000000001208
 30
0.0
 11
-54.994434330964395
 21
0.0000000000001208
 31
0.0
  0
LINE
  5
1B1
100
AcDbEntity
  8
0
  6
CONTINUOUS
 62
               2
100
AcDbLine
 10
235.01294897086143
 20
-0.0000000000002203
 30
0.0
 11
264.07640439749707
 21
-0.0000000000002203
 31
0.0
  0
LINE
  5
1B2
100
AcDbEntity
  8
0
  6
CONTINUOUS
 62
               7
100
AcDbLine
 10
242.01294897086154
 20
-7.5000000000001066
 30
0.0
 11
240.01294897086109
 21
-7.5000000000001066
 31
0.0
  0
LINE
  5
1B3
100
AcDbEntity
  8
0
  6
CONTINUOUS
 62
               7
100
AcDbLine
 10
240.01294897086109
 20
7.4999999999998934
 30
0.0
 11
242.01294897086154
 21
7.4999999999998934
 31
0.0
  0
LINE
  5
1B4
100
AcDbEntity
  8
0
  6
CONTINUOUS
 62
               7
100
AcDbLine
 10
240.00738330182594
 20
-56.99999999999914
 30
0.0
 11
240.00738330182594
 21
53.50000000000086
 31
0.0
  0
LINE
  5
1B5
100
AcDbEntity
  8
0
  6
CONTINUOUS
 62
               7
100
AcDbLine
 10
-59.994434330964395
 20
53.50000000000086
 30
0.0
 11
-59.994434330964395
 21
-56.99999999999914
 31
0.0
  0
LINE
  5
1B6
100
AcDbEntity
  8
0
  6
CONTINUOUS
 62
               7
100
AcDbLine
 10
-58.994434330964395
 20
-51.99999999999914
 30
0.0
 11
239.00738330182594
 21
-51.99999999999914
 31
0.0
  0
LINE
  5
1B7
100
AcDbEntity
  8
0
  6
CONTINUOUS
 62
               7
100
AcDbLine
 10
240.00738330182594
 20
-56.99999999999914
 30
0.0
 11
239.00738330182594
 21
-56.99999999999914
 31
0.0
  0
LINE
  5
1B8
100
AcDbEntity
  8
0
  6
CONTINUOUS
 62
               7
100
AcDbLine
 10
-59.994434330964395
 20
-56.99999999999914
 30
0.0
 11
-58.994434330964395
 21
-56.99999999999914
 31
0.0
  0
LINE
  5
1B9
100
AcDbEntity
  8
0
  6
CONTINUOUS
 62
               7
100
AcDbLine
 10
-59.994434330964395
 20
53.50000000000086
 30
0.0
 11
240.00738330182594
 21
53.50000000000086
 31
0.0
  0
LINE
  5
1BA
100
AcDbEntity
  8
0
  6
CONTINUOUS
 62
               7
100
AcDbLine
 10
-58.994434330964395
 20
-51.99999999999914
 30
0.0
 11
-58.994434330964395
 21
-56.99999999999914
 31
0.0
  0
LINE
  5
1BB
100
AcDbEntity
  8
0
  6
CONTINUOUS
 62
               7
100
AcDbLine
 10
239.00738330182594
 20
-56.99999999999914
 30
0.0
 11
239.00738330182594
 21
-51.99999999999914
 31
0.0
  0
LINE
  5
1BC
100
AcDbEntity
  8
0
  6
CONTINUOUS
 62
               7
100
AcDbLine
 10
-58.994434330964395
 20
-56.99999999999914
 30
0.0
 11
239.00738330182594
 21
-56.99999999999914
 31
0.0
  0
LINE
  5
1BD
100
AcDbEntity
  8
0
  6
CONTINUOUS
 62
               7
100
AcDbLine
 10
220.90556566903672
 20
-57.99999999999914
 30
0.0
 11
233.60556566903665
 21
-57.99999999999914
 31
0.0
  0
LINE
  5
1BE
100
AcDbEntity
  8
0
  6
CONTINUOUS
 62
               7
100
AcDbLine
 10
222.8055656690367
 20
-60.49999999999914
 30
0.0
 11
231.70556566903656
 21
-60.49999999999914
 31
0.0
  0
LINE
  5
1BF
100
AcDbEntity
  8
0
  6
CONTINUOUS
 62
               7
100
AcDbLine
 10
-4.4944343309657597
 20
-66.999999999999602
 30
0.0
 11
-4.4944343309655324
 21
-56.999999999999424
 31
0.0
  0
LINE
  5
1C0
100
AcDbEntity
  8
0
  6
CONTINUOUS
 62
               7
100
AcDbLine
 10
95.00556566903424
 20
-66.999999999999602
 30
0.0
 11
95.00556566903424
 21
-56.99999999999914
 31
0.0
  0
LINE
  5
1C1
100
AcDbEntity
  8
0
  6
CONTINUOUS
 62
               7
100
AcDbLine
 10
95.005565669034468
 20
-67.000000000000512
 30
0.0
 11
-4.4944343309657597
 21
-66.999999999999602
 31
0.0
  0
LINE
  5
1C2
100
AcDbEntity
  8
0
  6
CONTINUOUS
 62
               7
100
AcDbLine
 10
194.50556566903424
 20
-66.999999999999602
 30
0.0
 11
194.50556566903447
 21
-56.999999999998742
 31
0.0
  0
LINE
  5
1C3
100
AcDbEntity
  8
0
  6
CONTINUOUS
 62
               7
100
AcDbLine
 10
194.50556566903447
 20
-67.000000000000512
 30
0.0
 11
95.00556566903424
 21
-66.999999999999602
 31
0.0
  0
LINE
  5
1C4
100
AcDbEntity
  8
0
  6
CONTINUOUS
 62
               7
100
AcDbLine
 10
220.90556566903672
 20
-57.99999999999914
 30
0.0
 11
220.90556566903672
 21
-56.99999999999914
 31
0.0
  0
LINE
  5
1C5
100
AcDbEntity
  8
0
  6
CONTINUOUS
 62
               7
100
AcDbLine
 10
233.60556566903665
 20
-57.99999999999914
 30
0.0
 11
233.60556566903665
 21
-56.99999999999914
 31
0.0
  0
LINE
  5
1C6
100
AcDbEntity
  8
0
  6
CONTINUOUS
 62
               7
100
AcDbLine
 10
222.8055656690367
 20
-60.49999999999914
 30
0.0
 11
222.8055656690367
 21
-57.99999999999914
 31
0.0
  0
LINE
  5
1C7
100
AcDbEntity
  8
0
  6
CONTINUOUS
 62
               7
100
AcDbLine
 10
231.70556566903656
 20
-60.49999999999914
 30
0.0
 11
231.70556566903656
 21
-57.99999999999914
 31
0.0
  0
ARC
  5
1C8
100
AcDbEntity
  8
0
  6
CONTINUOUS
 62
               7
100
AcDbCircle
 10
207.25556566903674
 20
-56.49999999999914
 30
0.0
 40
1.5
100
AcDbArc
 50
199.4712206344887
 51
340.5287793655113
  0
ARC
  5
1C9
100
AcDbEntity
  8
0
  6
CONTINUOUS
 62
               7
100
AcDbCircle
 10
217.25556566903674
 20
-56.49999999999914
 30
0.0
 40
1.5
100
AcDbArc
 50
199.4712206344887
 51
340.5287793655113
  0
LINE
  5
1CA
100
AcDbEntity
  8
0
  6
CONTINUOUS
 62
               7
100
AcDbLine
 10
-63.994434330963941
 20
29.999999999999893
 30
0.0
 11
-63.994434330963941
 21
-29.999999999999993
 31
0.0
  0
LINE
  5
1CB
100
AcDbEntity
  8
0
  6
CONTINUOUS
 62
               7
100
AcDbLine
 10
-61.994434330963941
 20
29.999999999999893
 30
0.0
 11
-61.994434330963941
 21
-29.999999999999993
 31
0.0
  0
LINE
  5
1CC
100
AcDbEntity
  8
0
  6
CONTINUOUS
 62
               7
100
AcDbLine
 10
244.00556566903606
 20
29.999999999999893
 30
0.0
 11
244.00556566903606
 21
-29.999999999999993
 31
0.0
  0
LINE
  5
1CD
100
AcDbEntity
  8
0
  6
CONTINUOUS
 62
               7
100
AcDbLine
 10
242.00556566903606
 20
29.999999999999893
 30
0.0
 11
242.00556566903606
 21
-29.999999999999993
 31
0.0
  0
LINE
  5
1CE
100
AcDbEntity
  8
0
  6
CONTINUOUS
 62
               7
100
AcDbLine
 10
-63.994434330963941
 20
-29.999999999999993
 30
0.0
 11
-59.994434330964395
 21
-29.999999999999993
 31
0.0
  0
LINE
  5
1CF
100
AcDbEntity
  8
0
  6
CONTINUOUS
 62
               7
100
AcDbLine
 10
240.00738330182594
 20
-29.999999999999993
 30
0.0
 11
244.00556566903606
 21
-29.999999999999993
 31
0.0
  0
LINE
  5
1D0
100
AcDbEntity
  8
0
  6
CONTINUOUS
 62
               7
100
AcDbLine
 10
-63.994434330963941
 20
29.999999999999893
 30
0.0
 11
-59.994434330964395
 21
29.999999999999893
 31
0.0
  0
LINE
  5
1D1
100
AcDbEntity
  8
0
  6
CONTINUOUS
 62
               7
100
AcDbLine
 10
240.00738330182594
 20
29.999999999999893
 30
0.0
 11
244.00556566903606
 21
29.999999999999893
 31
0.0
  0
ARC
  5
1D2
100
AcDbEntity
  8
0
  6
CONTINUOUS
 62
               7
100
AcDbCircle
 10
158.48744300030125
 20
0.1996052860326998
 30
0.0
 40
100.44127806377109
100
AcDbArc
 50
352.81667546741988
 51
6.9555943754055081
  0
LINE
  5
1D3
100
AcDbEntity
  8
0
  6
CONTINUOUS
 62
               7
100
AcDbLine
 10
252.01113133807223
 20
12.299999999999905
 30
0.0
 11
252.01113133807223
 21
-12.300000000000232
 31
0.0
  0
LINE
  5
1D4
100
AcDbEntity
  8
0
  6
CONTINUOUS
 62
               7
100
AcDbLine
 10
244.01113133807223
 20
6.399999999999757
 30
0.0
 11
244.01113133807223
 21
-6.4000000000001407
 31
0.0
  0
LINE
  5
1D5
100
AcDbEntity
  8
0
  6
CONTINUOUS
 62
               7
100
AcDbLine
 10
244.01113133807223
 20
-6.4000000000001407
 30
0.0
 11
252.01113133807223
 21
-6.4000000000001407
 31
0.0
  0
ARC
  5
1D6
100
AcDbEntity
  8
0
  6
CONTINUOUS
 62
               7
100
AcDbCircle
 10
257.64429561518534
 20
-12.297500000000234
 30
0.0
 40
0.5
100
AcDbArc
 50
270.0
 51
352.81667546741988
  0
LINE
  5
1D7
100
AcDbEntity
  8
0
  6
CONTINUOUS
 62
               7
100
AcDbLine
 10
252.51113133807212
 20
-12.800000000000232
 30
0.0
 11
257.64429561518534
 21
-12.797500000000234
 31
0.0
  0
ARC
  5
1D8
100
AcDbEntity
  8
0
  6
CONTINUOUS
 62
               7
100
AcDbCircle
 10
252.51113133807212
 20
-12.300000000000232
 30
0.0
 40
0.5
100
AcDbArc
 50
180.0
 51
270.0
  0
LINE
  5
1D9
100
AcDbEntity
  8
0
  6
CONTINUOUS
 62
               7
100
AcDbLine
 10
252.01113133807223
 20
6.399999999999757
 30
0.0
 11
244.01113133807223
 21
6.399999999999757
 31
0.0
  0
ARC
  5
1DA
100
AcDbEntity
  8
0
  6
CONTINUOUS
 62
               7
100
AcDbCircle
 10
257.69318376444585
 20
12.302499999999959
 30
0.0
 40
0.5
100
AcDbArc
 50
6.9555943754054939
 51
90.0
  0
LINE
  5
1DB
100
AcDbEntity
  8
0
  6
CONTINUOUS
 62
               7
100
AcDbLine
 10
257.69318376444585
 20
12.802499999999959
 30
0.0
 11
252.51113133807212
 21
12.799999999999905
 31
0.0
  0
ARC
  5
1DC
100
AcDbEntity
  8
0
  6
CONTINUOUS
 62
               7
100
AcDbCircle
 10
252.51113133807212
 20
12.299999999999905
 30
0.0
 40
0.5
100
AcDbArc
 50
90.0
 51
180.0
  0
ARC
  5
1DD
100
AcDbEntity
  8
0
  6
CONTINUOUS
 62
               7
100
AcDbCircle
 10
21.523688337770864
 20
0.1996052860326998
 30
0.0
 40
100.44127806377109
100
AcDbArc
 50
173.0444056245945
 51
187.18332453258009
  0
LINE
  5
1DE
100
AcDbEntity
  8
0
  6
CONTINUOUS
 62
               7
100
AcDbLine
 10
-72.0
 20
12.299999999999905
 30
0.0
 11
-72.0
 21
-12.300000000000118
 31
0.0
  0
LINE
  5
1DF
100
AcDbEntity
  8
0
  6
CONTINUOUS
 62
               7
100
AcDbLine
 10
-64.0
 20
6.4000000000000981
 30
0.0
 11
-64.0
 21
-6.400000000000027
 31
0.0
  0
LINE
  5
1E0
100
AcDbEntity
  8
0
  6
CONTINUOUS
 62
               7
100
AcDbLine
 10
-64.0
 20
-6.400000000000027
 30
0.0
 11
-72.0
 21
-6.400000000000027
 31
0.0
  0
ARC
  5
1E1
100
AcDbEntity
  8
0
  6
CONTINUOUS
 62
               7
100
AcDbCircle
 10
-77.63316427711311
 20
-12.297500000000007
 30
0.0
 40
0.5
100
AcDbArc
 50
187.18332453258009
 51
270.0
  0
LINE
  5
1E2
100
AcDbEntity
  8
0
  6
CONTINUOUS
 62
               7
100
AcDbLine
 10
-72.5
 20
-12.800000000000004
 30
0.0
 11
-77.63316427711311
 21
-12.797500000000007
 31
0.0
  0
ARC
  5
1E3
100
AcDbEntity
  8
0
  6
CONTINUOUS
 62
               7
100
AcDbCircle
 10
-72.5
 20
-12.300000000000118
 30
0.0
 40
0.5
100
AcDbArc
 50
270.0
 51
0.0
  0
LINE
  5
1E4
100
AcDbEntity
  8
0
  6
CONTINUOUS
 62
               7
100
AcDbLine
 10
-72.0
 20
6.4000000000000981
 30
0.0
 11
-64.0
 21
6.4000000000000981
 31
0.0
  0
ARC
  5
1E5
100
AcDbEntity
  8
0
  6
CONTINUOUS
 62
               7
100
AcDbCircle
 10
-77.68205242637373
 20
12.302499999999959
 30
0.0
 40
0.5
100
AcDbArc
 50
90.0
 51
173.0444056245945
  0
LINE
  5
1E6
100
AcDbEntity
  8
0
  6
CONTINUOUS
 62
               7
100
AcDbLine
 10
-77.68205242637373
 20
12.802499999999959
 30
0.0
 11
-72.5
 21
12.799999999999905
 31
0.0
  0
ARC
  5
1E7
100
AcDbEntity
  8
0
  6
CONTINUOUS
 62
               7
100
AcDbCircle
 10
-72.5
 20
12.299999999999905
 30
0.0
 40
0.5
100
AcDbArc
 50
0.0
 51
90.0
  0
LINE
  5
1E8
100
AcDbEntity
  8
0
  6
CONTINUOUS
 62
               7
100
AcDbLine
 10
-59.999999999999545
 20
7.4999999999998934
 30
0.0
 11
-62.0
 21
7.4999999999998934
 31
0.0
  0
LINE
  5
1E9
100
AcDbEntity
  8
0
  6
CONTINUOUS
 62
               7
100
AcDbLine
 10
-62.0
 20
-7.5000000000001066
 30
0.0
 11
-59.999999999999545
 21
-7.5000000000001066
 31
0.0
  0
LINE
  5
1EA
100
AcDbEntity
  8
0
  6
CONTINUOUS
 62
               7
100
AcDbLine
 10
231.10241765914532
 20
55.587060689498976
 30
0.0
 11
230.7055656690361
 21
55.587060689498976
 31
0.0
  0
LINE
  5
1EB
100
AcDbEntity
  8
0
  6
CONTINUOUS
 62
               7
100
AcDbLine
 10
231.10241765914532
 20
55.98836513858118
 30
0.0
 11
231.10241765914532
 21
55.587060689498976
 31
0.0
  0
LINE
  5
1EC
100
AcDbEntity
  8
0
  6
CONTINUOUS
 62
               7
100
AcDbLine
 10
230.7055656690361
 20
57.300000000000928
 30
0.0
 11
231.10241765914532
 21
55.98836513858118
 31
0.0
  0
LINE
  5
1ED
100
AcDbEntity
  8
0
  6
CONTINUOUS
 62
               7
100
AcDbLine
 10
230.70556566903588
 20
53.50000000000086
 30
0.0
 11
230.7055656690361
 21
57.300000000000928
 31
0.0
  0
LINE
  5
1EE
100
AcDbEntity
  8
0
  6
CONTINUOUS
 62
               7
100
AcDbLine
 10
230.7055656690361
 20
57.300000000000928
 30
0.0
 11
226.10556566903597
 21
57.300000000000928
 31
0.0
  0
LINE
  5
1EF
100
AcDbEntity
  8
0
  6
CONTINUOUS
 62
               7
100
AcDbLine
 10
221.10556566903597
 20
57.300000000000928
 30
0.0
 11
221.10556566903597
 21
53.50000000000086
 31
0.0
  0
LINE
  5
1F0
100
AcDbEntity
  8
0
  6
CONTINUOUS
 62
               7
100
AcDbLine
 10
240.00738330182594
 20
-21.730034291991721
 30
0.0
 11
-59.994434330964395
 21
-21.730034291991721
 31
0.0
  0
LINE
  5
1F1
100
AcDbEntity
  8
0
  6
CONTINUOUS
 62
               7
100
AcDbLine
 10
-36.744434330964395
 20
-70.499999999999147
 30
0.0
 11
-49.244434330964395
 21
-70.499999999999147
 31
0.0
  0
LINE
  5
1F2
100
AcDbEntity
  8
0
  6
CONTINUOUS
 62
               7
100
AcDbLine
 10
-36.244434330964395
 20
-69.999999999999147
 30
0.0
 11
-49.744434330964395
 21
-69.999999999999147
 31
0.0
  0
LINE
  5
1F3
100
AcDbEntity
  8
0
  6
CONTINUOUS
 62
               7
100
AcDbLine
 10
-35.994434330964395
 20
-58.49999999999914
 30
0.0
 11
-49.994434330964395
 21
-58.49999999999914
 31
0.0
  0
LINE
  5
1F4
100
AcDbEntity
  8
0
  6
CONTINUOUS
 62
               7
100
AcDbLine
 10
-36.744434330964395
 20
-70.499999999999147
 30
0.0
 11
-36.744434330964395
 21
-69.999999999999147
 31
0.0
  0
LINE
  5
1F5
100
AcDbEntity
  8
0
  6
CONTINUOUS
 62
               7
100
AcDbLine
 10
-49.244434330964395
 20
-70.499999999999147
 30
0.0
 11
-49.244434330964395
 21
-69.999999999999147
 31
0.0
  0
LINE
  5
1F6
100
AcDbEntity
  8
0
  6
CONTINUOUS
 62
               7
100
AcDbLine
 10
-49.744434330964395
 20
-69.999999999999147
 30
0.0
 11
-49.994434330964395
 21
-58.49999999999914
 31
0.0
  0
LINE
  5
1F7
100
AcDbEntity
  8
0
  6
CONTINUOUS
 62
               7
100
AcDbLine
 10
-49.994434330964395
 20
-58.49999999999914
 30
0.0
 11
-49.994434330964395
 21
-56.99999999999914
 31
0.0
  0
LINE
  5
1F8
100
AcDbEntity
  8
0
  6
CONTINUOUS
 62
               7
100
AcDbLine
 10
-36.244434330964395
 20
-69.999999999999147
 30
0.0
 11
-35.994434330964395
 21
-58.49999999999914
 31
0.0
  0
LINE
  5
1F9
100
AcDbEntity
  8
0
  6
CONTINUOUS
 62
               7
100
AcDbLine
 10
-35.994434330964395
 20
-58.49999999999914
 30
0.0
 11
-35.994434330964395
 21
-56.99999999999914
 31
0.0
  0
LINE
  5
1FA
100
AcDbEntity
  8
0
  6
CONTINUOUS
 62
               7
100
AcDbLine
 10
221.60556566903597
 20
54.700000000000905
 30
0.0
 11
226.60556566903597
 21
54.700000000000905
 31
0.0
  0
LINE
  5
1FB
100
AcDbEntity
  8
0
  6
CONTINUOUS
 62
               7
100
AcDbLine
 10
222.10556566903597
 20
64.800000000000921
 30
0.0
 11
226.10556566903597
 21
64.800000000000921
 31
0.0
  0
LINE
  5
1FC
100
AcDbEntity
  8
0
  6
CONTINUOUS
 62
               7
100
AcDbLine
 10
226.60556566903597
 20
64.300000000000921
 30
0.0
 11
226.60556566903597
 21
58.800000000000928
 31
0.0
  0
LINE
  5
1FD
100
AcDbEntity
  8
0
  6
CONTINUOUS
 62
               7
100
AcDbLine
 10
226.60556566903597
 20
58.800000000000928
 30
0.0
 11
221.60556566903597
 21
58.800000000000928
 31
0.0
  0
LINE
  5
1FE
100
AcDbEntity
  8
0
  6
CONTINUOUS
 62
               7
100
AcDbLine
 10
221.60556566903597
 20
58.800000000000928
 30
0.0
 11
221.60556566903597
 21
64.300000000000921
 31
0.0
  0
LINE
  5
1FF
100
AcDbEntity
  8
0
  6
CONTINUOUS
 62
               7
100
AcDbLine
 10
226.60556566903597
 20
59.300000000000928
 30
0.0
 11
221.60556566903597
 21
59.300000000000928
 31
0.0
  0
LINE
  5
200
100
AcDbEntity
  8
0
  6
CONTINUOUS
 62
               7
100
AcDbLine
 10
222.10556566903597
 20
58.800000000000928
 30
0.0
 11
222.10556566903597
 21
54.700000000000905
 31
0.0
  0
LINE
  5
201
100
AcDbEntity
  8
0
  6
CONTINUOUS
 62
               7
100
AcDbLine
 10
226.10556566903597
 20
58.800000000000928
 30
0.0
 11
226.10556566903597
 21
54.700000000000905
 31
0.0
  0
LINE
  5
202
100
AcDbEntity
  8
0
  6
CONTINUOUS
 62
               7
100
AcDbLine
 10
226.60556566903597
 20
64.300000000000921
 30
0.0
 11
226.10556566903597
 21
64.800000000000921
 31
0.0
  0
LINE
  5
203
100
AcDbEntity
  8
0
  6
CONTINUOUS
 62
               7
100
AcDbLine
 10
222.10556566903597
 20
64.800000000000921
 30
0.0
 11
221.60556566903597
 21
64.300000000000921
 31
0.0
  0
LINE
  5
204
100
AcDbEntity
  8
0
  6
CONTINUOUS
 62
               7
100
AcDbLine
 10
221.60556566903597
 20
64.300000000000921
 30
0.0
 11
226.60556566903597
 21
64.300000000000921
 31
0.0
  0
LINE
  5
205
100
AcDbEntity
  8
0
  6
CONTINUOUS
 62
               7
100
AcDbLine
 10
226.60556566903597
 20
54.700000000000905
 30
0.0
 11
226.60556566903597
 21
53.50000000000086
 31
0.0
  0
LINE
  5
206
100
AcDbEntity
  8
0
  6
CONTINUOUS
 62
               7
100
AcDbLine
 10
221.60556566903597
 20
54.700000000000905
 30
0.0
 11
221.60556566903597
 21
53.50000000000086
 31
0.0
  0
LINE
  5
207
100
AcDbEntity
  8
0
  6
CONTINUOUS
 62
               7
100
AcDbLine
 10
222.10556566903597
 20
57.300000000000928
 30
0.0
 11
221.10556566903597
 21
57.300000000000928
 31
0.0
  0
LINE
  5
208
100
AcDbEntity
  8
0
  6
CONTINUOUS
 62
               7
100
AcDbLine
 10
-22.894434330964486
 20
-58.299999999999322
 30
0.0
 11
-22.894434330964486
 21
-57.99999999999914
 31
0.0
  0
LINE
  5
209
100
AcDbEntity
  8
0
  6
CONTINUOUS
 62
               7
100
AcDbLine
 10
-29.094434330964305
 20
-57.99999999999914
 30
0.0
 11
-29.094434330965214
 21
-58.299999999999322
 31
0.0
  0
LINE
  5
20A
100
AcDbEntity
  8
0
  6
CENTER
 62
               2
100
AcDbLine
 10
0.0
 20
5.0000000000000071
 30
0.0
 11
0.0
 21
-4.9999999999999929
 31
0.0
  0
LINE
  5
20B
100
AcDbEntity
  8
0
  6
CENTER
 62
               2
100
AcDbLine
 10
-5.0
 20
0.0000000000000071
 30
0.0
 11
5.0
 21
0.0000000000000071
 31
0.0
  0
CIRCLE
  5
20C
100
AcDbEntity
  8
0
  6
DASHED
 62
               2
100
AcDbCircle
 10
0.0
 20
0.0000000000000071
 30
0.0
 40
2.25
  0
ENDBLK
  5
20D
100
AcDbEntity
  8
0
100
AcDbBlockEnd
  0
BLOCK
  5
20E
100
AcDbEntity
  8
0
100
AcDbBlockBegin
  2
MS_4
 70
               0
 10
0.0
 20
0.0
 30
0.0
  3
MS_4
  1

  0
LINE
  5
20F
100
AcDbEntity
  8
0
  6
CONTINUOUS
 62
               7
100
AcDbLine
 10
213.49999966903795
 20
-41.999999999999829
 30
0.0
 11
-23.500000330963019
 21
-41.999999999999829
 31
0.0
  0
LINE
  5
210
100
AcDbEntity
  8
0
  6
CONTINUOUS
 62
               7
100
AcDbLine
 10
213.49999966903795
 20
-45.999999999999829
 30
0.0
 11
-23.500000330963019
 21
-45.999999999999829
 31
0.0
  0
LINE
  5
211
100
AcDbEntity
  8
0
  6
CONTINUOUS
 62
               7
100
AcDbLine
 10
-64.000000330963928
 20
0.0
 30
0.0
 11
243.99999966903636
 21
0.0
 31
0.0
  0
LINE
  5
212
100
AcDbEntity
  8
0
  6
CONTINUOUS
 62
               7
100
AcDbLine
 10
-62.000000330963701
 20
-2.0000000000001137
 30
0.0
 11
241.99999966903647
 21
-2.0000000000001137
 31
0.0
  0
LINE
  5
213
100
AcDbEntity
  8
0
  6
CONTINUOUS
 62
               7
100
AcDbLine
 10
238.99999966903727
 20
-46.500000000000114
 30
0.0
 11
-60.001817963753126
 21
-46.500000000001023
 31
0.0
  0
LINE
  5
214
100
AcDbEntity
  8
0
  6
CONTINUOUS
 62
               7
100
AcDbLine
 10
238.99999966903727
 20
-76.500000000000114
 30
0.0
 11
-59.001817963753126
 21
-76.500000000000114
 31
0.0
  0
LINE
  5
215
100
AcDbEntity
  8
0
  6
CONTINUOUS
 62
               7
100
AcDbLine
 10
239.99999966903727
 20
-118.00000000000011
 30
0.0
 11
-60.001817963753126
 21
-118.00000000000011
 31
0.0
  0
LINE
  5
216
100
AcDbEntity
  8
0
  6
CONTINUOUS
 62
               2
100
AcDbLine
 10
223.99999966903601
 20
-67.000000000000114
 30
0.0
 11
223.99999966903601
 21
-75.000000000000114
 31
0.0
  0
LINE
  5
217
100
AcDbEntity
  8
0
  6
CONTINUOUS
 62
               2
100
AcDbLine
 10
227.99999966903601
 20
-71.000000000000114
 30
0.0
 11
219.99999966903601
 21
-71.000000000000114
 31
0.0
  0
LINE
  5
218
100
AcDbEntity
  8
0
  6
CONTINUOUS
 62
               2
100
AcDbLine
 10
263.91739105870369
 20
-80.000000000000227
 30
0.0
 11
234.99443400000081
 21
-80.000000000000227
 31
0.0
  0
LINE
  5
219
100
AcDbEntity
  8
0
  6
CONTINUOUS
 62
               7
100
AcDbLine
 10
238.99999966903727
 20
-46.500000000000114
 30
0.0
 11
238.99999966903727
 21
-76.500000000000057
 31
0.0
  0
LINE
  5
21A
100
AcDbEntity
  8
0
  6
CONTINUOUS
 62
               7
100
AcDbLine
 10
239.99999966903727
 20
-46.500000000000114
 30
0.0
 11
239.99999966903727
 21
-118.00000000000011
 31
0.0
  0
LINE
  5
21B
100
AcDbEntity
  8
0
  6
CONTINUOUS
 62
               7
100
AcDbLine
 10
239.99999966903727
 20
-46.500000000000114
 30
0.0
 11
238.99999966903727
 21
-46.500000000000114
 31
0.0
  0
LINE
  5
21C
100
AcDbEntity
  8
0
  6
CONTINUOUS
 62
               7
100
AcDbLine
 10
220.99999966903647
 20
-51.500000000000114
 30
0.0
 11
220.99999966903647
 21
-63.000000000000114
 31
0.0
  0
LINE
  5
21D
100
AcDbEntity
  8
0
  6
CONTINUOUS
 62
               7
100
AcDbLine
 10
231.49999966903636
 20
-54.750000000000114
 30
0.0
 11
231.49999966903636
 21
-51.500000000000114
 31
0.0
  0
LINE
  5
21E
100
AcDbEntity
  8
0
  6
CONTINUOUS
 62
               7
100
AcDbLine
 10
236.99999966903636
 20
-54.750000000000114
 30
0.0
 11
231.49999966903636
 21
-54.750000000000114
 31
0.0
  0
LINE
  5
21F
100
AcDbEntity
  8
0
  6
CONTINUOUS
 62
               7
100
AcDbLine
 10
236.99999966903636
 20
-54.750000000000114
 30
0.0
 11
236.99999966903636
 21
-59.750000000000114
 31
0.0
  0
LINE
  5
220
100
AcDbEntity
  8
0
  6
CONTINUOUS
 62
               7
100
AcDbLine
 10
231.49999966903636
 20
-63.000000000000114
 30
0.0
 11
231.49999966903636
 21
-59.750000000000114
 31
0.0
  0
LINE
  5
221
100
AcDbEntity
  8
0
  6
CONTINUOUS
 62
               7
100
AcDbLine
 10
236.99999966903636
 20
-59.750000000000114
 30
0.0
 11
231.49999966903636
 21
-59.750000000000114
 31
0.0
  0
LINE
  5
222
100
AcDbEntity
  8
0
  6
CONTINUOUS
 62
               7
100
AcDbLine
 10
231.49999966903636
 20
-51.500000000000114
 30
0.0
 11
220.99999966903647
 21
-51.500000000000114
 31
0.0
  0
LINE
  5
223
100
AcDbEntity
  8
0
  6
CONTINUOUS
 62
               7
100
AcDbLine
 10
220.99999966903647
 20
-63.000000000000114
 30
0.0
 11
231.49999966903636
 21
-63.000000000000114
 31
0.0
  0
LINE
  5
224
100
AcDbEntity
  8
0
  6
CONTINUOUS
 62
               7
100
AcDbLine
 10
217.74137102870816
 20
-67.000000000000227
 30
0.0
 11
218.99137102870816
 21
-67.000000000000227
 31
0.0
  0
LINE
  5
225
100
AcDbEntity
  8
0
  6
CONTINUOUS
 62
               7
100
AcDbLine
 10
218.36637102870827
 20
-71.000000000000227
 30
0.0
 11
218.36637102870827
 21
-69.000000000000227
 31
0.0
  0
LINE
  5
226
100
AcDbEntity
  8
0
  6
CONTINUOUS
 62
               7
100
AcDbLine
 10
215.86637102870816
 20
-69.000000000000227
 30
0.0
 11
220.86637102870816
 21
-69.000000000000227
 31
0.0
  0
LINE
  5
227
100
AcDbEntity
  8
0
  6
CONTINUOUS
 62
               7
100
AcDbLine
 10
217.11637102870816
 20
-68.000000000000227
 30
0.0
 11
219.61637102870827
 21
-68.000000000000227
 31
0.0
  0
LINE
  5
228
100
AcDbEntity
  8
0
  6
CONTINUOUS
 62
               7
100
AcDbLine
 10
218.36637102870827
 20
-71.000000000000227
 30
0.0
 11
220.39398838042689
 21
-71.000000000000227
 31
0.0
  0
LINE
  5
229
100
AcDbEntity
  8
0
  6
CONTINUOUS
 62
               7
100
AcDbLine
 10
243.99999966903636
 20
-95.000000000000114
 30
0.0
 11
243.99999966903636
 21
0.0
 31
0.0
  0
LINE
  5
22A
100
AcDbEntity
  8
0
  6
CONTINUOUS
 62
               7
100
AcDbLine
 10
241.99999966903647
 20
-95.000000000000114
 30
0.0
 11
241.99999966903647
 21
-2.0000000000001137
 31
0.0
  0
LINE
  5
22B
100
AcDbEntity
  8
0
  6
CONTINUOUS
 62
               7
100
AcDbLine
 10
241.99999966903647
 20
-95.000000000000114
 30
0.0
 11
243.99999966903636
 21
-95.000000000000114
 31
0.0
  0
LINE
  5
22C
100
AcDbEntity
  8
0
  6
CONTINUOUS
 62
               7
100
AcDbLine
 10
241.99999966903658
 20
-87.495932910215743
 30
0.0
 11
240.00181730182669
 21
-87.495932910215629
 31
0.0
  0
LINE
  5
22D
100
AcDbEntity
  8
0
  6
CONTINUOUS
 62
               7
100
AcDbLine
 10
240.00181730182669
 20
-72.495932910215629
 30
0.0
 11
241.99999966903658
 21
-72.495932910215743
 31
0.0
  0
ARC
  5
22E
100
AcDbEntity
  8
0
  6
CONTINUOUS
 62
               7
100
AcDbCircle
 10
158.47631133126566
 20
-80.199605286033034
 30
0.0
 40
100.44127806377109
100
AcDbArc
 50
353.0444056245945
 51
7.1833245325800394
  0
LINE
  5
22F
100
AcDbEntity
  8
0
  6
CONTINUOUS
 62
               7
100
AcDbLine
 10
251.99999966903636
 20
-92.300000000000239
 30
0.0
 11
251.99999966903636
 21
-67.700000000000159
 31
0.0
  0
LINE
  5
230
100
AcDbEntity
  8
0
  6
CONTINUOUS
 62
               7
100
AcDbLine
 10
243.99999966903636
 20
-73.60000000000025
 30
0.0
 11
251.99999966903636
 21
-73.60000000000025
 31
0.0
  0
ARC
  5
231
100
AcDbEntity
  8
0
  6
CONTINUOUS
 62
               7
100
AcDbCircle
 10
257.63316394614952
 20
-67.702500000000214
 30
0.0
 40
0.5
100
AcDbArc
 50
7.1833245325800901
 51
90.0
  0
LINE
  5
232
100
AcDbEntity
  8
0
  6
CONTINUOUS
 62
               7
100
AcDbLine
 10
252.49999966903641
 20
-67.200000000000159
 30
0.0
 11
257.63316394614952
 21
-67.202500000000214
 31
0.0
  0
ARC
  5
233
100
AcDbEntity
  8
0
  6
CONTINUOUS
 62
               7
100
AcDbCircle
 10
252.49999966903641
 20
-67.700000000000159
 30
0.0
 40
0.5
100
AcDbArc
 50
90.0
 51
180.0
  0
LINE
  5
234
100
AcDbEntity
  8
0
  6
CONTINUOUS
 62
               7
100
AcDbLine
 10
251.99999966903636
 20
-86.400000000000205
 30
0.0
 11
243.99999966903636
 21
-86.400000000000205
 31
0.0
  0
ARC
  5
235
100
AcDbEntity
  8
0
  6
CONTINUOUS
 62
               7
100
AcDbCircle
 10
257.68205209541014
 20
-92.302500000000236
 30
0.0
 40
0.5
100
AcDbArc
 50
270.0
 51
353.0444056245945
  0
LINE
  5
236
100
AcDbEntity
  8
0
  6
CONTINUOUS
 62
               7
100
AcDbLine
 10
257.68205209541014
 20
-92.802500000000236
 30
0.0
 11
252.49999966903641
 21
-92.800000000000239
 31
0.0
  0
ARC
  5
237
100
AcDbEntity
  8
0
  6
CONTINUOUS
 62
               7
100
AcDbCircle
 10
252.49999966903641
 20
-92.300000000000239
 30
0.0
 40
0.5
100
AcDbArc
 50
180.0
 51
270.0
  0
LINE
  5
238
100
AcDbEntity
  8
0
  6
CONTINUOUS
 62
               7
100
AcDbLine
 10
213.49999966903795
 20
-41.999999999999829
 30
0.0
 11
213.49999966903795
 21
-45.999999999999829
 31
0.0
  0
LINE
  5
239
100
AcDbEntity
  8
0
  6
CONTINUOUS
 62
               7
100
AcDbLine
 10
212.49999966903795
 20
-41.999999999999829
 30
0.0
 11
212.49999966903795
 21
-45.999999999999829
 31
0.0
  0
CIRCLE
  5
23A
100
AcDbEntity
  8
0
  6
CONTINUOUS
 62
               7
100
AcDbCircle
 10
209.99999966903636
 20
-67.000000000001933
 30
0.0
 40
3.0
  0
CIRCLE
  5
23B
100
AcDbEntity
  8
0
  6
CONTINUOUS
 62
               7
100
AcDbCircle
 10
209.99818203624693
 20
-97.000000000000114
 30
0.0
 40
3.0
  0
CIRCLE
  5
23C
100
AcDbEntity
  8
0
  6
CONTINUOUS
 62
               7
100
AcDbCircle
 10
223.99999966903601
 20
-71.000000000000114
 30
0.0
 40
2.0
  0
CIRCLE
  5
23D
100
AcDbEntity
  8
0
  6
CONTINUOUS
 62
               7
100
AcDbCircle
 10
223.99999966903601
 20
-71.000000000000114
 30
0.0
 40
2.5
  0
LINE
  5
23E
100
AcDbEntity
  8
0
  6
CONTINUOUS
 62
               7
100
AcDbLine
 10
230.69999966903652
 20
-52.449999999999932
 30
0.0
 11
221.09999966903627
 21
-52.449999999999932
 31
0.0
  0
LINE
  5
23F
100
AcDbEntity
  8
0
  6
CONTINUOUS
 62
               7
100
AcDbLine
 10
221.09999966903627
 20
-52.449999999999932
 30
0.0
 11
221.09999966903627
 21
-62.050000000000125
 31
0.0
  0
LINE
  5
240
100
AcDbEntity
  8
0
  6
CONTINUOUS
 62
               7
100
AcDbLine
 10
221.09999966903627
 20
-62.050000000000125
 30
0.0
 11
230.69999966903652
 21
-62.050000000000125
 31
0.0
  0
LINE
  5
241
100
AcDbEntity
  8
0
  6
CONTINUOUS
 62
               7
100
AcDbLine
 10
230.69999966903652
 20
-62.050000000000125
 30
0.0
 11
230.69999966903652
 21
-52.449999999999932
 31
0.0
  0
LINE
  5
242
100
AcDbEntity
  8
0
  6
CONTINUOUS
 62
               7
100
AcDbLine
 10
229.89999966903622
 20
-61.249999999999943
 30
0.0
 11
229.89999966903622
 21
-57.499999999999943
 31
0.0
  0
LINE
  5
243
100
AcDbEntity
  8
0
  6
CONTINUOUS
 62
               7
100
AcDbLine
 10
221.89999966903622
 20
-61.249999999999943
 30
0.0
 11
225.64999966903622
 21
-61.249999999999943
 31
0.0
  0
LINE
  5
244
100
AcDbEntity
  8
0
  6
CONTINUOUS
 62
               7
100
AcDbLine
 10
221.89999966903622
 20
-54.050000000000068
 30
0.0
 11
221.89999966903622
 21
-56.200000000000159
 31
0.0
  0
LINE
  5
245
100
AcDbEntity
  8
0
  6
CONTINUOUS
 62
               7
100
AcDbLine
 10
229.89999966903622
 20
-53.249999999999943
 30
0.0
 11
226.14999966903622
 21
-53.249999999999943
 31
0.0
  0
LINE
  5
246
100
AcDbEntity
  8
0
  6
CONTINUOUS
 62
               7
100
AcDbLine
 10
229.89999966903622
 20
-56.999999999999943
 30
0.0
 11
226.14999966903622
 21
-56.999999999999943
 31
0.0
  0
LINE
  5
247
100
AcDbEntity
  8
0
  6
CONTINUOUS
 62
               7
100
AcDbLine
 10
229.89999966903622
 20
-57.499999999999943
 30
0.0
 11
226.94999966903652
 21
-57.500000000000114
 31
0.0
  0
LINE
  5
248
100
AcDbEntity
  8
0
  6
CONTINUOUS
 62
               7
100
AcDbLine
 10
226.14999966903622
 20
-60.449999999999932
 30
0.0
 11
226.14999966903622
 21
-58.300000000000068
 31
0.0
  0
LINE
  5
249
100
AcDbEntity
  8
0
  6
CONTINUOUS
 62
               7
100
AcDbLine
 10
225.64999966903622
 20
-61.249999999999943
 30
0.0
 11
225.64999966903622
 21
-57.499999999999943
 31
0.0
  0
LINE
  5
24A
100
AcDbEntity
  8
0
  6
CONTINUOUS
 62
               7
100
AcDbLine
 10
229.89999966903622
 20
-56.999999999999943
 30
0.0
 11
229.89999966903622
 21
-53.249999999999943
 31
0.0
  0
LINE
  5
24B
100
AcDbEntity
  8
0
  6
CONTINUOUS
 62
               7
100
AcDbLine
 10
226.94999966903652
 20
-61.249999999999943
 30
0.0
 11
229.89999966903622
 21
-61.249999999999943
 31
0.0
  0
LINE
  5
24C
100
AcDbEntity
  8
0
  6
CONTINUOUS
 62
               7
100
AcDbLine
 10
225.64999966903622
 20
-57.499999999999943
 30
0.0
 11
221.89999966903622
 21
-57.499999999999943
 31
0.0
  0
LINE
  5
24D
100
AcDbEntity
  8
0
  6
CONTINUOUS
 62
               7
100
AcDbLine
 10
226.14999966903622
 20
-56.999999999999943
 30
0.0
 11
226.14999966903622
 21
-53.250000000000114
 31
0.0
  0
LINE
  5
24E
100
AcDbEntity
  8
0
  6
CONTINUOUS
 62
               7
100
AcDbLine
 10
225.64999966903622
 20
-56.999999999999943
 30
0.0
 11
222.69999966903652
 21
-57.000000000000114
 31
0.0
  0
LINE
  5
24F
100
AcDbEntity
  8
0
  6
CONTINUOUS
 62
               7
100
AcDbLine
 10
225.64999966903622
 20
-53.249999999999943
 30
0.0
 11
222.69999966903652
 21
-53.250000000000114
 31
0.0
  0
LINE
  5
250
100
AcDbEntity
  8
0
  6
CONTINUOUS
 62
               7
100
AcDbLine
 10
221.89999966903622
 20
-57.499999999999943
 30
0.0
 11
221.89999966903622
 21
-61.249999999999943
 31
0.0
  0
LINE
  5
251
100
AcDbEntity
  8
0
  6
CONTINUOUS
 62
               7
100
AcDbLine
 10
225.64999966903622
 20
-56.999999999999943
 30
0.0
 11
225.64999966903622
 21
-53.249999999999943
 31
0.0
  0
LINE
  5
252
100
AcDbEntity
  8
0
  6
CONTINUOUS
 62
               7
100
AcDbLine
 10
226.94999966903652
 20
-61.249999999999943
 30
0.0
 11
226.14999966903622
 21
-60.449999999999932
 31
0.0
  0
LINE
  5
253
100
AcDbEntity
  8
0
  6
CONTINUOUS
 62
               7
100
AcDbLine
 10
226.14999966903622
 20
-58.300000000000068
 30
0.0
 11
226.94999966903652
 21
-57.500000000000114
 31
0.0
  0
LINE
  5
254
100
AcDbEntity
  8
0
  6
CONTINUOUS
 62
               7
100
AcDbLine
 10
222.69999966903652
 20
-57.000000000000114
 30
0.0
 11
221.89999966903622
 21
-56.200000000000159
 31
0.0
  0
LINE
  5
255
100
AcDbEntity
  8
0
  6
CONTINUOUS
 62
               7
100
AcDbLine
 10
221.89999966903622
 20
-54.050000000000068
 30
0.0
 11
222.69999966903652
 21
-53.250000000000114
 31
0.0
  0
LINE
  5
256
100
AcDbEntity
  8
0
  6
CONTINUOUS
 62
               7
100
AcDbLine
 10
231.69999966903652
 20
-55.749999999999943
 30
0.0
 11
231.69999966903652
 21
-58.749999999999829
 31
0.0
  0
LINE
  5
257
100
AcDbEntity
  8
0
  6
CONTINUOUS
 62
               7
100
AcDbLine
 10
231.69999966903652
 20
-58.749999999999829
 30
0.0
 11
230.69999966903652
 21
-58.749999999999829
 31
0.0
  0
LINE
  5
258
100
AcDbEntity
  8
0
  6
CONTINUOUS
 62
               7
100
AcDbLine
 10
231.69999966903652
 20
-55.749999999999943
 30
0.0
 11
230.69999966903652
 21
-55.749999999999943
 31
0.0
  0
LINE
  5
259
100
AcDbEntity
  8
0
  6
CONTINUOUS
 62
               2
100
AcDbLine
 10
-55.001817963753126
 20
-80.000000000000171
 30
0.0
 11
-84.065273390388768
 21
-80.000000000000171
 31
0.0
  0
LINE
  5
25A
100
AcDbEntity
  8
0
  6
CONTINUOUS
 62
               7
100
AcDbLine
 10
-60.001817963753126
 20
-46.500000000000114
 30
0.0
 11
-60.001817963753126
 21
-118.00000000000011
 31
0.0
  0
LINE
  5
25B
100
AcDbEntity
  8
0
  6
CONTINUOUS
 62
               7
100
AcDbLine
 10
-59.001817963753126
 20
-46.500000000000114
 30
0.0
 11
-59.000000330963474
 21
-76.500000000000114
 31
0.0
  0
LINE
  5
25C
100
AcDbEntity
  8
0
  6
CONTINUOUS
 62
               7
100
AcDbLine
 10
-64.000000330963928
 20
-95.000000000000114
 30
0.0
 11
-64.000000330963928
 21
0.0
 31
0.0
  0
LINE
  5
25D
100
AcDbEntity
  8
0
  6
CONTINUOUS
 62
               7
100
AcDbLine
 10
-62.000000330963928
 20
-95.000000000000114
 30
0.0
 11
-62.000000330963928
 21
-2.0000000000001137
 31
0.0
  0
LINE
  5
25E
100
AcDbEntity
  8
0
  6
CONTINUOUS
 62
               7
100
AcDbLine
 10
-64.000000330963928
 20
-95.000000000000114
 30
0.0
 11
-62.000000330963928
 21
-95.000000000000114
 31
0.0
  0
LINE
  5
25F
100
AcDbEntity
  8
0
  6
CONTINUOUS
 62
               7
100
AcDbLine
 10
-60.000000330963246
 20
-87.500000000000114
 30
0.0
 11
-62.000000330963928
 21
-87.500000000000114
 31
0.0
  0
LINE
  5
260
100
AcDbEntity
  8
0
  6
CONTINUOUS
 62
               7
100
AcDbLine
 10
-62.000000330963928
 20
-72.500000000000114
 30
0.0
 11
-60.000000330963246
 21
-72.500000000000114
 31
0.0
  0
ARC
  5
261
100
AcDbEntity
  8
0
  6
CONTINUOUS
 62
               7
100
AcDbCircle
 10
21.523688006807163
 20
-80.199605286032806
 30
0.0
 40
100.44127806377109
100
AcDbArc
 50
172.81667546741991
 51
186.9555943754055
  0
LINE
  5
262
100
AcDbEntity
  8
0
  6
CONTINUOUS
 62
               7
100
AcDbLine
 10
-72.000000330963928
 20
-92.300000000000011
 30
0.0
 11
-72.000000330963928
 21
-67.700000000000045
 31
0.0
  0
LINE
  5
263
100
AcDbEntity
  8
0
  6
CONTINUOUS
 62
               7
100
AcDbLine
 10
-64.000000330963928
 20
-73.600000000000136
 30
0.0
 11
-72.000000330963928
 21
-73.600000000000136
 31
0.0
  0
ARC
  5
264
100
AcDbEntity
  8
0
  6
CONTINUOUS
 62
               7
100
AcDbCircle
 10
-77.633164608076811
 20
-67.702500000000043
 30
0.0
 40
0.5
100
AcDbArc
 50
90.0
 51
172.81667546741991
  0
LINE
  5
265
100
AcDbEntity
  8
0
  6
CONTINUOUS
 62
               7
100
AcDbLine
 10
-72.500000330963928
 20
-67.200000000000045
 30
0.0
 11
-77.633164608076811
 21
-67.2025000000001
 31
0.0
  0
ARC
  5
266
100
AcDbEntity
  8
0
  6
CONTINUOUS
 62
               7
100
AcDbCircle
 10
-72.500000330963928
 20
-67.699999999999932
 30
0.0
 40
0.5
100
AcDbArc
 50
0.0
 51
90.0
  0
LINE
  5
267
100
AcDbEntity
  8
0
  6
CONTINUOUS
 62
               7
100
AcDbLine
 10
-72.000000330963928
 20
-86.400000000000148
 30
0.0
 11
-64.000000330963928
 21
-86.400000000000148
 31
0.0
  0
ARC
  5
268
100
AcDbEntity
  8
0
  6
CONTINUOUS
 62
               7
100
AcDbCircle
 10
-77.682052757337203
 20
-92.302500000000009
 30
0.0
 40
0.5
100
AcDbArc
 50
186.9555943754055
 51
270.0
  0
LINE
  5
269
100
AcDbEntity
  8
0
  6
CONTINUOUS
 62
               7
100
AcDbLine
 10
-77.682052757337203
 20
-92.802500000000123
 30
0.0
 11
-72.500000330963928
 21
-92.800000000000011
 31
0.0
  0
ARC
  5
26A
100
AcDbEntity
  8
0
  6
CONTINUOUS
 62
               7
100
AcDbCircle
 10
-72.500000330963928
 20
-92.300000000000011
 30
0.0
 40
0.5
100
AcDbArc
 50
270.0
 51
0.0
  0
LINE
  5
26B
100
AcDbEntity
  8
0
  6
CONTINUOUS
 62
               7
100
AcDbLine
 10
-23.500000330963019
 20
-41.999999999999829
 30
0.0
 11
-23.500000330963019
 21
-45.999999999999829
 31
0.0
  0
LINE
  5
26C
100
AcDbEntity
  8
0
  6
CONTINUOUS
 62
               7
100
AcDbLine
 10
-22.500000330963019
 20
-41.999999999999829
 30
0.0
 11
-22.500000330963019
 21
-45.999999999999829
 31
0.0
  0
LINE
  5
26D
100
AcDbEntity
  8
0
  6
CONTINUOUS
 62
               7
100
AcDbLine
 10
94.279999669037409
 20
-40.599999999999625
 30
0.0
 11
94.279999669037409
 21
-39.015958605448532
 31
0.0
  0
LINE
  5
26E
100
AcDbEntity
  8
0
  6
CONTINUOUS
 62
               7
100
AcDbLine
 10
95.719999669037463
 20
-39.015958605448532
 30
0.0
 11
95.719999669037463
 21
-40.599999999999625
 31
0.0
  0
LINE
  5
26F
100
AcDbEntity
  8
0
  6
CONTINUOUS
 62
               7
100
AcDbLine
 10
98.984778461837379
 20
-39.499999999999829
 30
0.0
 11
98.984778461837379
 21
-41.999999999999829
 31
0.0
  0
LINE
  5
270
100
AcDbEntity
  8
0
  6
CONTINUOUS
 62
               7
100
AcDbLine
 10
95.719999669037463
 20
-40.599999999999625
 30
0.0
 11
94.279999669037409
 21
-40.599999999999625
 31
0.0
  0
LINE
  5
271
100
AcDbEntity
  8
0
  6
CONTINUOUS
 62
               7
100
AcDbLine
 10
98.999999669037663
 20
-41.999999999999829
 30
0.0
 11
98.999999669037663
 21
-39.499999999999829
 31
0.0
  0
LINE
  5
272
100
AcDbEntity
  8
0
  6
CONTINUOUS
 62
               7
100
AcDbLine
 10
90.999999669037436
 20
-39.499999999999829
 30
0.0
 11
94.279999669037409
 21
-39.499999999999829
 31
0.0
  0
LINE
  5
273
100
AcDbEntity
  8
0
  6
CONTINUOUS
 62
               7
100
AcDbLine
 10
95.719999669037463
 20
-39.499999999999829
 30
0.0
 11
98.999999669037663
 21
-39.499999999999829
 31
0.0
  0
LINE
  5
274
100
AcDbEntity
  8
0
  6
CONTINUOUS
 62
               7
100
AcDbLine
 10
90.999999669037436
 20
-41.999999999999659
 30
0.0
 11
90.999999669037436
 21
-39.499999999999659
 31
0.0
  0
ARC
  5
275
100
AcDbEntity
  8
0
  6
CONTINUOUS
 62
               7
100
AcDbCircle
 10
94.999999669037663
 20
-55.249999999999716
 30
0.0
 40
16.25
100
AcDbArc
 50
92.539475136081876
 51
104.25003269780663
  0
ARC
  5
276
100
AcDbEntity
  8
0
  6
CONTINUOUS
 62
               7
100
AcDbCircle
 10
94.999999669037663
 20
-55.249999999999716
 30
0.0
 40
16.25
100
AcDbArc
 50
75.749967302193426
 51
87.460524863918124
  0
CIRCLE
  5
277
100
AcDbEntity
  8
0
  6
CONTINUOUS
 62
               7
100
AcDbCircle
 10
-20.000000330963701
 20
-67.000000000001023
 30
0.0
 40
3.0
  0
CIRCLE
  5
278
100
AcDbEntity
  8
0
  6
CONTINUOUS
 62
               7
100
AcDbCircle
 10
-20.001817963753126
 20
-97.000000000000114
 30
0.0
 40
3.0
  0
LINE
  5
279
100
AcDbEntity
  8
0
  6
CONTINUOUS
 62
               7
100
AcDbLine
 10
-18.941157791973296
 20
-95.939339828220284
 30
0.0
 11
-21.062478135532899
 21
-98.060660171779944
 31
0.0
  0
LINE
  5
27A
100
AcDbEntity
  8
0
  6
CONTINUOUS
 62
               7
100
AcDbLine
 10
-21.062478135532899
 20
-95.939339828220284
 30
0.0
 11
-18.941157791973296
 21
-98.060660171779887
 31
0.0
  0
LINE
  5
27B
100
AcDbEntity
  8
0
  6
CONTINUOUS
 62
               7
100
AcDbLine
 10
-18.939340159183871
 20
-65.939339828221193
 30
0.0
 11
-21.060660502743474
 21
-68.060660171780853
 31
0.0
  0
LINE
  5
27C
100
AcDbEntity
  8
0
  6
CONTINUOUS
 62
               7
100
AcDbLine
 10
-21.060660502743474
 20
-65.939339828221193
 30
0.0
 11
-18.939340159183871
 21
-68.060660171780796
 31
0.0
  0
LINE
  5
27D
100
AcDbEntity
  8
0
  6
CONTINUOUS
 62
               7
100
AcDbLine
 10
211.05884220802676
 20
-95.939339828220284
 30
0.0
 11
208.93752186446716
 21
-98.060660171779944
 31
0.0
  0
LINE
  5
27E
100
AcDbEntity
  8
0
  6
CONTINUOUS
 62
               7
100
AcDbLine
 10
208.93752186446716
 20
-95.939339828220284
 30
0.0
 11
211.05884220802676
 21
-98.060660171779887
 31
0.0
  0
LINE
  5
27F
100
AcDbEntity
  8
0
  6
CONTINUOUS
 62
               7
100
AcDbLine
 10
211.06065984081619
 20
-65.939339828222103
 30
0.0
 11
208.93933949725658
 21
-68.060660171781763
 31
0.0
  0
LINE
  5
280
100
AcDbEntity
  8
0
  6
CONTINUOUS
 62
               7
100
AcDbLine
 10
208.93933949725658
 20
-65.939339828222103
 30
0.0
 11
211.06065984081619
 21
-68.060660171781706
 31
0.0
  0
LINE
  5
281
100
AcDbEntity
  8
0
  6
CONTINUOUS
 62
               2
100
AcDbLine
 10
0.0
 20
4.0
 30
0.0
 11
0.0
 21
-4.0
 31
0.0
  0
LINE
  5
282
100
AcDbEntity
  8
0
  6
CONTINUOUS
 62
               2
100
AcDbLine
 10
60.0
 20
4.0
 30
0.0
 11
60.0
 21
-4.0
 31
0.0
  0
LINE
  5
283
100
AcDbEntity
  8
0
  6
CONTINUOUS
 62
               2
100
AcDbLine
 10
120.0
 20
4.0
 30
0.0
 11
120.0
 21
-4.0
 31
0.0
  0
LINE
  5
284
100
AcDbEntity
  8
0
  6
CONTINUOUS
 62
               2
100
AcDbLine
 10
180.0
 20
4.0
 30
0.0
 11
180.0
 21
-4.0
 31
0.0
  0
ENDBLK
  5
285
100
AcDbEntity
  8
0
100
AcDbBlockEnd
  0
BLOCK
  5
23
100
AcDbEntity
  8
0
  6
ByBlock
 62
               0
100
AcDbBlockBegin
  2
_OPEN30
 70
               2
 10
0.0
 20
0.0
 30
0.0
  3
_OPEN30
  1

  0
LINE
  5
24
100
AcDbEntity
  8
0
  6
ByBlock
 62
               0
100
AcDbLine
 10
-1.0
 20
0.267949
 30
0.0
 11
0.0
 21
0.0
 31
0.0
  0
LINE
  5
25
100
AcDbEntity
  8
0
  6
ByBlock
 62
               0
100
AcDbLine
 10
0.0
 20
0.0
 30
0.0
 11
-1.0
 21
-0.267949
 31
0.0
  0
LINE
  5
26
100
AcDbEntity
  8
0
  6
ByBlock
 62
               0
100
AcDbLine
 10
0.0
 20
0.0
 30
0.0
 11
-1.0
 21
0.0
 31
0.0
  0
ENDBLK
  5
27
100
AcDbEntity
  8
0
  6
ByBlock
 62
               0
100
AcDbBlockEnd
  0
ENDSEC
  0
SECTION
  2
ENTITIES
  0
INSERT
  5
286
100
AcDbEntity
  8
0
  6
ByBlock
100
AcDbBlockReference
  2
MS_3
 10
-266.0
 20
9.9999999999998792
 30
0.0
  0
INSERT
  5
287
100
AcDbEntity
  8
0
  6
ByBlock
100
AcDbBlockReference
  2
MS_4
 10
-265.99999966903607
 20
260.00000000000017
 30
0.0
  0
INSERT
  5
288
100
AcDbEntity
  8
0
  6
ByBlock
100
AcDbBlockReference
  2
MS_2
 10
240.49999999999835
 20
-249.99999999999937
 30
0.0
  0
INSERT
  5
289
100
AcDbEntity
  8
0
  6
ByBlock
100
AcDbBlockReference
  2
MS_1
 10
-265.99999966903607
 20
-249.99999999999989
 30
0.0
  0
LINE
  5
28A
100
AcDbEntity
  8
0
  6
CONTINUOUS
 62
               7
100
AcDbLine
 10
344.5
 20
-370.5
 30
0.0
 11
574.5
 21
-370.5
 31
0.0
  0
LINE
  5
28B
100
AcDbEntity
  8
0
  6
CONTINUOUS
 62
               7
100
AcDbLine
 10
344.5
 20
-370.5
 30
0.0
 11
344.5
 21
-400.5
 31
0.0
  0
MTEXT
  5
28C
100
AcDbEntity
  8
0
  6
CONTINUOUS
 62
               7
100
AcDbMText
 10
350.86206895687951
 20
-385.5
 30
0.0
 40
18.0
 41
0.0
 71
               4
 72
               1
  1
\W1.121;\A1;KOGANEI CORP.
  0
LINE
  5
28D
100
AcDbEntity
  8
0
  6
CONTINUOUS
 62
               7
100
AcDbLine
 10
344.5
 20
370.5
 30
0.0
 11
574.5
 21
370.5
 31
0.0
  0
LINE
  5
28E
100
AcDbEntity
  8
0
  6
CONTINUOUS
 62
               7
100
AcDbLine
 10
344.5
 20
400.5
 30
0.0
 11
344.5
 21
370.5
 31
0.0
  0
MTEXT
  5
28F
100
AcDbEntity
  8
0
  6
CONTINUOUS
 62
               7
100
AcDbMText
 10
412.2322331979733
 20
385.5
 30
0.0
 40
12.5
 41
0.0
 71
               4
 72
               1
  1
\W1.311;\A1;Ver. 1.0
  0
MTEXT
  5
290
100
AcDbEntity
  8
0
  6
CONTINUOUS
 62
               7
100
AcDbMText
 10
-538.62234106129677
 20
340.5
 30
0.0
 40
12.5
 41
0.0
 71
               4
 72
               1
  1
\W1.021;\A1;MODEL:DTRY-ELW22
  0
MTEXT
  5
291
100
AcDbEntity
  8
0
  6
CONTINUOUS
 62
               7
100
AcDbMText
 10
-509.98388020460118
 20
378.0
 30
0.0
 40
12.5
 41
0.0
 71
               4
 72
               1
  1
\W0.968;\A1;DTRY-ELW22
  0
MTEXT
  5
292
100
AcDbEntity
  8
0
  6
CONTINUOUS
 62
               7
100
AcDbMText
 10
-503.50000825047493
 20
393.0
 30
0.0
 40
12.5
 41
0.0
 71
               4
 72
               1
  1
\W1.080;\A1;IONAIZEER
  0
LINE
  5
293
100
AcDbEntity
  8
0
  6
CONTINUOUS
 62
               7
100
AcDbLine
 10
-564.5
 20
370.5
 30
0.0
 11
-334.5
 21
370.5
 31
0.0
  0
LINE
  5
294
100
AcDbEntity
  8
0
  6
CONTINUOUS
 62
               7
100
AcDbLine
 10
-334.5
 20
400.5
 30
0.0
 11
-334.5
 21
370.5
 31
0.0
  0
LINE
  5
295
100
AcDbEntity
  8
0
  6
CONTINUOUS
 62
               7
100
AcDbLine
 10
574.5
 20
400.5
 30
0.0
 11
574.5
 21
-400.5
 31
0.0
  0
LINE
  5
296
100
AcDbEntity
  8
0
  6
CONTINUOUS
 62
               7
100
AcDbLine
 10
-564.5
 20
400.5
 30
0.0
 11
574.5
 21
400.5
 31
0.0
  0
LINE
  5
297
100
AcDbEntity
  8
0
  6
CONTINUOUS
 62
               7
100
AcDbLine
 10
-564.5
 20
-400.5
 30
0.0
 11
574.5
 21
-400.5
 31
0.0
  0
LINE
  5
298
100
AcDbEntity
  8
0
  6
CONTINUOUS
 62
               7
100
AcDbLine
 10
-564.5
 20
400.5
 30
0.0
 11
-564.5
 21
-400.5
 31
0.0
  0
ENDSEC
  0
SECTION
  2
OBJECTS
  0
DICTIONARY
  5
19
100
AcDbDictionary
  3
ACAD_GROUP
350
1A
  3
ACAD_MLINESTYLE
350
1B
  0
DICTIONARY
  5
1A
102
{ACAD_REACTORS
330
19
102
}
100
AcDbDictionary
  0
DICTIONARY
  5
1B
102
{ACAD_REACTORS
330
19
102
}
100
AcDbDictionary
  3
STANDARD
350
1C
  0
MLINESTYLE
  5
1C
102
{ACAD_REACTORS
330
1B
102
}
100
AcDbMlineStyle
  2
Standard
 70
               0
  3

 62
               0
 51
90.0
 52
90.0
 71
               2
 49
0.5
 62
             256
  6
ByLayer
 49
-0.5
 62
             256
  6
ByLayer
  0
ENDSEC
  0
EOF
