  0
SECTION
  2
HEADER
  9
$ACADVER
  1
AC1012
  9
$DWGCODEPAGE
  3
dos932
  9
$INSBASE
 10
0.0
 20
0.0
 30
0.0
  9
$EXTMIN
 10
-399.52490234375
 20
-276.5
 30
0.0
  9
$EXTMAX
 10
403.0569545343663
 20
276.75
 30
0.0
  9
$LIMMIN
 10
-399.52490234375
 20
-276.5
  9
$LIMMAX
 10
403.0569545343663
 20
276.75
  9
$ORTHOMODE
 70
               0
  9
$REGENMODE
 70
               1
  9
$FILLMODE
 70
               1
  9
$QTEXTMODE
 70
               0
  9
$MIRRTEXT
 70
               1
  9
$DRAGMODE
 70
               2
  9
$LTSCALE
 40
1.0
  9
$OSMODE
 70
               0
  9
$ATTMODE
 70
               1
  9
$TEXTSIZE
 40
3.2000000476837158
  9
$TRACEWID
 40
0.05
  9
$TEXTSTYLE
  7
MX_NOTE_STANDARD
  9
$CLAYER
  8
0
  9
$CELTYPE
  6
CONTINUOUS
  9
$CECOLOR
 62
             256
  9
$CELTSCALE
 40
1.0
  9
$DELOBJ
 70
               1
  9
$DISPSILH
 70
               0
  9
$DIMSCALE
 40
1.0
  9
$DIMASZ
 40
2.5
  9
$DIMEXO
 40
1.5
  9
$DIMDLI
 40
3.75
  9
$DIMRND
 40
0.0
  9
$DIMDLE
 40
0.0
  9
$DIMEXE
 40
1.5
  9
$DIMTP
 40
0.0
  9
$DIMTM
 40
0.0
  9
$DIMTXT
 40
3.2000000476837158
  9
$DIMCEN
 40
2.5
  9
$DIMTSZ
 40
0.0
  9
$DIMTOL
 70
               0
  9
$DIMLIM
 70
               0
  9
$DIMTIH
 70
               0
  9
$DIMTOH
 70
               0
  9
$DIMSE1
 70
               0
  9
$DIMSE2
 70
               0
  9
$DIMTAD
 70
               1
  9
$DIMZIN
 70
               8
  9
$DIMBLK
  1

  9
$DIMASO
 70
               1
  9
$DIMSHO
 70
               1
  9
$DIMPOST
  1

  9
$DIMAPOST
  1

  9
$DIMALT
 70
               0
  9
$DIMALTD
 70
               4
  9
$DIMALTF
 40
0.03937007874016
  9
$DIMLFAC
 40
1.0
  9
$DIMTOFL
 70
               1
  9
$DIMTVP
 40
0.0
  9
$DIMTIX
 70
               0
  9
$DIMSOXD
 70
               0
  9
$DIMSAH
 70
               0
  9
$DIMBLK1
  1

  9
$DIMBLK2
  1

  9
$DIMSTYLE
  2
MXDIMSTYLE
  9
$DIMCLRD
 70
               0
  9
$DIMCLRE
 70
               0
  9
$DIMCLRT
 70
               0
  9
$DIMTFAC
 40
1.0
  9
$DIMGAP
 40
1.0
  9
$DIMJUST
 70
               0
  9
$DIMSD1
 70
               0
  9
$DIMSD2
 70
               0
  9
$DIMTOLJ
 70
               1
  9
$DIMTZIN
 70
               0
  9
$DIMALTZ
 70
               0
  9
$DIMALTTZ
 70
               0
  9
$DIMFIT
 70
               3
  9
$DIMUPT
 70
               1
  9
$DIMUNIT
 70
               2
  9
$DIMDEC
 70
               4
  9
$DIMTDEC
 70
               4
  9
$DIMALTU
 70
               2
  9
$DIMALTTD
 70
               4
  9
$DIMTXSTY
  7
MX_NOTE_STANDARD
  9
$DIMAUNIT
 70
               0
  9
$LUNITS
 70
               2
  9
$LUPREC
 70
               4
  9
$SKETCHINC
 40
0.1
  9
$FILLETRAD
 40
0.0
  9
$AUNITS
 70
               0
  9
$AUPREC
 70
               0
  9
$MENU
  1
acad
  9
$ELEVATION
 40
0.0
  9
$PELEVATION
 40
0.0
  9
$THICKNESS
 40
0.0
  9
$LIMCHECK
 70
               0
  9
$BLIPMODE
 70
               1
  9
$CHAMFERA
 40
0.0
  9
$CHAMFERB
 40
0.0
  9
$CHAMFERC
 40
0.0
  9
$CHAMFERD
 40
0.0
  9
$SKPOLY
 70
               0
  9
$TDCREATE
 40
2453378.356284722
  9
$TDUPDATE
 40
2453378.356284722
  9
$TDINDWG
 40
0.0000000000
  9
$TDUSRTIMER
 40
0.0000000000
  9
$USRTIMER
 70
               1
  9
$ANGBASE
 50
0.0
  9
$ANGDIR
 70
               0
  9
$PDMODE
 70
               0
  9
$PDSIZE
 40
0.0
  9
$PLINEWID
 40
0.0
  9
$COORDS
 70
               1
  9
$SPLFRAME
 70
               0
  9
$SPLINETYPE
 70
               6
  9
$SPLINESEGS
 70
               8
  9
$ATTDIA
 70
               0
  9
$ATTREQ
 70
               1
  9
$HANDLING
 70
               1
  9
$HANDSEED
  5
2B2
  9
$SURFTAB1
 70
               6
  9
$SURFTAB2
 70
               6
  9
$SURFTYPE
 70
               6
  9
$SURFU
 70
               6
  9
$SURFV
 70
               6
  9
$UCSNAME
  2

  9
$UCSORG
 10
0.0
 20
0.0
 30
0.0
  9
$UCSXDIR
 10
1.0
 20
0.0
 30
0.0
  9
$UCSYDIR
 10
0.0
 20
1.0
 30
0.0
  9
$PUCSNAME
  2

  9
$PUCSORG
 10
0.0
 20
0.0
 30
0.0
  9
$PUCSXDIR
 10
1.0
 20
0.0
 30
0.0
  9
$PUCSYDIR
 10
0.0
 20
1.0
 30
0.0
  9
$USERI1
 70
               0
  9
$USERI2
 70
               0
  9
$USERI3
 70
               0
  9
$USERI4
 70
               0
  9
$USERI5
 70
               0
  9
$USERR1
 40
0.0
  9
$USERR2
 40
0.0
  9
$USERR3
 40
0.0
  9
$USERR4
 40
0.0
  9
$USERR5
 40
0.0
  9
$WORLDVIEW
 70
               1
  9
$SHADEDGE
 70
               3
  9
$SHADEDIF
 70
              70
  9
$TILEMODE
 70
               1
  9
$MAXACTVP
 70
              16
  9
$PINSBASE
 10
0.0
 20
0.0
 30
0.0
  9
$PLIMCHECK
 70
               0
  9
$PEXTMIN
 10
1.0000000000000000E+20
 20
1.0000000000000000E+20
 30
1.0000000000000000E+20
  9
$PEXTMAX
 10
-1.0000000000000000E+20
 20
-1.0000000000000000E+20
 30
-1.0000000000000000E+20
  9
$PLIMMIN
 10
0.0
 20
0.0
  9
$PLIMMAX
 10
12.0
 20
9.0
  9
$UNITMODE
 70
               0
  9
$VISRETAIN
 70
               0
  9
$PLINEGEN
 70
               1
  9
$PSLTSCALE
 70
               0
  9
$TREEDEPTH
 70
            3020
  9
$PICKSTYLE
 70
               1
  9
$CMLSTYLE
  2
Standard
  9
$CMLJUST
 70
               0
  9
$CMLSCALE
 40
1.0
  9
$SAVEIMAGES
 70
               0
  0
ENDSEC
  0
SECTION
  2
CLASSES
  0
CLASS
  1
LWPOLYLINE
  2
AcDbPolyline
  3
"AutoCAD"
 90
        0
280
               0
281
               1
  0
CLASS
  1
IMAGE
  2
AcDbRasterImage
  3
ISM
 90
      127
280
               0
281
               1
  0
CLASS
  1
OLE2FRAME
  2
AcDbOle2Frame
  3
""
 90
        0
280
               0
281
               1
  0
CLASS
  1
HATCH
  2
AcDbHatch
  3
"ACAD_SEDONA"
 90
        0
280
               0
281
               1
  0
CLASS
  1
DICTIONARYVAR
  2
AcDbDictionaryVar
  3
"AutoCAD"
 90
        0
280
               0
281
               0
  0
CLASS
  1
RASTERVARIABLES
  2
AcDbRasterVariables
  3
ISM
 90
        0
280
               0
281
               0
  0
CLASS
  1
IMAGEDEF
  2
AcDbRasterImageDef
  3
ISM
 90
        0
280
               0
281
               0
  0
CLASS
  1
IMAGEDEF_REACTOR
  2
AcDbRasterImageDefReactor
  3
ISM
 90
        1
280
               0
281
               0
  0
CLASS
  1
IDBUFFER
  2
AcDbIdBuffer
  3
"Acad"
 90
        0
280
               0
281
               0
  0
CLASS
  1
SPATIAL_FILTER
  2
AcDbSpatialFilter
  3
"Acad"
 90
        0
280
               0
281
               0
  0
CLASS
  1
XRECORD
  2
AcDbXrecord
  3
"<Built In>"
 90
        0
280
               0
281
               0
  0
CLASS
  1
SORTENTSTABLE
  2
AcDbSortentsTable
  3
"AutoCAD"
 90
        0
280
               0
281
               0
  0
CLASS
  1
LAYER_INDEX
  2
AcDbLayerIndex
  3
"Acad"
 90
        0
280
               0
281
               0
  0
CLASS
  1
SPATIAL_INDEX
  2
AcDbSpatialIndex
  3
"Acad"
 90
        0
280
               0
281
               0
  0
CLASS
  1
OBJECT_PTR
  2
CAseDLPNTableRecord
  3
"ASE-LPNTableRecord"
 90
        1
280
               0
281
               0
  0
CLASS
  1
LAYOUT
  2
AcDbLayout
  3
"AutoCAD 2000"
 90
        1
280
               0
281
               0
  0
CLASS
  1
PLOTSETTINGS
  2
AcDbPlotSettings
  3
"AutoCAD 2000"
 90
        1
280
               0
281
               0
  0
CLASS
  1
ACDBDICTIONARYWDFLT
  2
AcDbDictionaryWithDefault
  3
"AutoCAD 2000"
 90
        1
280
               0
281
               0
  0
CLASS
  1
ACDBPLACEHOLDER
  2
AcDbPlaceHolder
  3
"AutoCAD 2000"
 90
        1
280
               0
281
               0
  0
ENDSEC
  0
SECTION
  2
TABLES
  0
TABLE
  2
VPORT
  5
7
100
AcDbSymbolTable
 70
               1
  0
VPORT
  5
15
100
AcDbSymbolTableRecord
100
AcDbViewportTableRecord
  2
*ACTIVE
 70
               0
 10
0.0
 20
0.0
 11
1.0
 21
1.0
 12
1.7660260953081206
 22
0.125
 13
0.0
 23
0.0
 14
1.0
 24
1.0
 15
0.0
 25
0.0
 16
0.0
 26
0.0
 36
1.0
 17
0.0
 27
0.0
 37
0.0
 40
558.78250000000003
 41
1.7320508075688772
 42
50.0
 43
0.0
 44
0.0
 50
0.0
 51
0.0
 71
               0
 72
             100
 73
               1
 74
               1
 75
               0
 76
               0
 77
               0
 78
               0
  0
ENDTAB
  0
TABLE
  2
LTYPE
  5
4
100
AcDbSymbolTable
 70
               5
  0
LTYPE
  5
11
100
AcDbSymbolTableRecord
100
AcDbLinetypeTableRecord
  2
BYBLOCK
 70
              64
  3

 72
              65
 73
               0
 40
0.0
  0
LTYPE
  5
12
100
AcDbSymbolTableRecord
100
AcDbLinetypeTableRecord
  2
BYLAYER
 70
              64
  3

 72
              65
 73
               0
 40
0.0
  0
LTYPE
  5
13
100
AcDbSymbolTableRecord
100
AcDbLinetypeTableRecord
  2
CONTINUOUS
 70
              64
  3
Solid line
 72
              65
 73
               0
 40
0.0
  0
LTYPE
  5
25
100
AcDbSymbolTableRecord
100
AcDbLinetypeTableRecord
  2
CENTER
 70
              64
  3
Center ____ _ ____ _ ____ _ ____ _ ____ _ ____
 72
              65
 73
               4
 40
26.0
 49
20.0
 74
               0
 49
-2.0
 74
               0
 49
2.0
 74
               0
 49
-2.0
 74
               0
  0
LTYPE
  5
7D
100
AcDbSymbolTableRecord
100
AcDbLinetypeTableRecord
  2
DASHED
 70
              64
  3
Dashed __ __ __ __ __ __ __ __ __ __ __ __ __ _
 72
              65
 73
               2
 40
4.0
 49
2.0
 74
               0
 49
-2.0
 74
               0
  0
ENDTAB
  0
TABLE
  2
LAYER
  5
2
100
AcDbSymbolTable
 70
               2
  0
LAYER
  5
14
100
AcDbSymbolTableRecord
100
AcDbLayerTableRecord
  2
0
 70
               0
 62
               7
  6
CONTINUOUS
  0
LAYER
  5
1D
100
AcDbSymbolTableRecord
100
AcDbLayerTableRecord
  2
DEFPOINTS
 70
               0
 62
               7
  6
CONTINUOUS
  0
ENDTAB
  0
TABLE
  2
STYLE
  5
3
100
AcDbSymbolTable
 70
               1
  0
STYLE
  5
17
100
AcDbSymbolTableRecord
100
AcDbTextStyleTableRecord
  2
MX_NOTE_STANDARD
 70
               0
 40
0.0
 41
1.0
 50
0.0
 71
               0
 42
3.2000000476837158
  3
txt.shx
  4
extfont.shx
  0
ENDTAB
  0
TABLE
  2
VIEW
  5
5
100
AcDbSymbolTable
 70
               0
  0
ENDTAB
  0
TABLE
  2
UCS
  5
6
100
AcDbSymbolTable
 70
               0
  0
ENDTAB
  0
TABLE
  2
APPID
  5
8
100
AcDbSymbolTable
 70
               1
  0
APPID
  5
16
100
AcDbSymbolTableRecord
100
AcDbRegAppTableRecord
  2
ACAD
 70
               0
  0
ENDTAB
  0
TABLE
  2
DIMSTYLE
  5
9
100
AcDbSymbolTable
 70
               1
  0
DIMSTYLE
105
18
100
AcDbSymbolTableRecord
100
AcDbDimStyleTableRecord
  2
MXDIMSTYLE
 70
               0
  3

  4

  5

  6

  7

 40
1.0
 41
2.5
 42
1.5
 43
3.75
 44
1.5
 45
0.0
 46
0.0
 47
0.0
 48
0.0
 71
               0
 72
               0
 73
               0
 74
               0
 75
               0
 76
               0
 77
               1
 78
               8
140
3.2000000476837158
141
2.5
142
0.0
143
0.03937007874016
144
1.0
145
0.0
146
1.0
147
1.0
170
               0
171
               4
172
               1
173
               0
174
               0
175
               0
176
               0
177
               0
178
               0
270
               2
271
               4
272
               4
273
               2
274
               4
275
               0
280
               0
281
               0
282
               0
283
               1
284
               0
285
               0
286
               0
287
               3
288
               1
340
17
  0
ENDTAB
  0
TABLE
  2
BLOCK_RECORD
  5
1
100
AcDbSymbolTable
 70
               6
  0
BLOCK_RECORD
  5
A
100
AcDbSymbolTableRecord
100
AcDbBlockTableRecord
  2
*MODEL_SPACE
  0
BLOCK_RECORD
  5
B
100
AcDbSymbolTableRecord
100
AcDbBlockTableRecord
  2
*PAPER_SPACE
  0
BLOCK_RECORD
  5
1E
100
AcDbSymbolTableRecord
100
AcDbBlockTableRecord
  2
DTRY-ELG01-1
  0
BLOCK_RECORD
  5
1F
100
AcDbSymbolTableRecord
100
AcDbBlockTableRecord
  2
DTRY-ELG01-2
  0
BLOCK_RECORD
  5
20
100
AcDbSymbolTableRecord
100
AcDbBlockTableRecord
  2
DTRY-ELG01-3
  0
BLOCK_RECORD
  5
21
100
AcDbSymbolTableRecord
100
AcDbBlockTableRecord
  2
DTRY-ELG01-4
  0
BLOCK_RECORD
  5
22
100
AcDbSymbolTableRecord
100
AcDbBlockTableRecord
  2
DTRY-ELG01-5
  0
BLOCK_RECORD
  5
23
100
AcDbSymbolTableRecord
100
AcDbBlockTableRecord
  2
DTRY-ELG01-6
  0
ENDTAB
  0
ENDSEC
  0
SECTION
  2
BLOCKS
  0
BLOCK
  5
D
100
AcDbEntity
  8
0
100
AcDbBlockBegin
  2
*MODEL_SPACE
 70
               0
 10
0.0
 20
0.0
 30
0.0
  3
*MODEL_SPACE
  1

  0
ENDBLK
  5
E
100
AcDbEntity
  8
0
100
AcDbBlockEnd
  0
BLOCK
  5
F
100
AcDbEntity
 67
               1
  8
0
100
AcDbBlockBegin
  2
*PAPER_SPACE
 70
               0
 10
0.0
 20
0.0
 30
0.0
  3
*PAPER_SPACE
  1

  0
ENDBLK
  5
10
100
AcDbEntity
 67
               1
  8
0
100
AcDbBlockEnd
  0
BLOCK
  5
24
100
AcDbEntity
  8
0
100
AcDbBlockBegin
  2
DTRY-ELG01-1
 70
               0
 10
0.0
 20
0.0
 30
0.0
  3
DTRY-ELG01-1
  1

  0
LINE
  5
26
100
AcDbEntity
  8
0
  6
CENTER
 62
               2
100
AcDbLine
 10
-6.0
 20
-58.77001801801805
 30
0.0
 11
173.08031539796676
 21
-58.77001801801805
 31
0.0
  0
LINE
  5
27
100
AcDbEntity
  8
0
  6
CONTINUOUS
 62
               7
100
AcDbLine
 10
-6.0
 20
-62.77001801801805
 30
0.0
 11
112.59115590166441
 21
-62.77001801801805
 31
0.0
  0
LINE
  5
28
100
AcDbEntity
  8
0
  6
CONTINUOUS
 62
               7
100
AcDbLine
 10
-6.0
 20
-54.77001801801805
 30
0.0
 11
114.96403725759662
 21
-54.77001801801805
 31
0.0
  0
MTEXT
  5
29
100
AcDbEntity
  8
0
  6
CONTINUOUS
 62
               7
100
AcDbMText
 10
6.7312497320584939
 20
-40.377945945945953
 30
0.0
 40
6.3000001907348633
 41
0.0
 71
               4
 72
               1
  1
\W1.125;\A1;D-1
  0
ARC
  5
2A
100
AcDbEntity
  8
0
  6
CENTER
 62
               2
100
AcDbCircle
 10
-6.0
 20
-32.77001801801805
 30
0.0
 40
26.0
100
AcDbArc
 50
179.99999999999963
 51
269.99999999999937
  0
ARC
  5
2B
100
AcDbEntity
  8
0
  6
CONTINUOUS
 62
               7
100
AcDbCircle
 10
-6.0
 20
-32.77001801801805
 30
0.0
 40
30.0
100
AcDbArc
 50
179.99999999999963
 51
269.99999999999937
  0
ARC
  5
2C
100
AcDbEntity
  8
0
  6
CONTINUOUS
 62
               7
100
AcDbCircle
 10
-6.0
 20
-32.77001801801805
 30
0.0
 40
22.0
100
AcDbArc
 50
179.99999999999963
 51
269.99999999999937
  0
LINE
  5
2D
100
AcDbEntity
  8
0
  6
CONTINUOUS
 62
               7
100
AcDbLine
 10
50.0
 20
144.0
 30
0.0
 11
50.0
 21
0.0
 31
0.0
  0
LINE
  5
2E
100
AcDbEntity
  8
0
  6
CONTINUOUS
 62
               7
100
AcDbLine
 10
-50.0
 20
144.0
 30
0.0
 11
-50.0
 21
0.0
 31
0.0
  0
LINE
  5
2F
100
AcDbEntity
  8
0
  6
CONTINUOUS
 62
               7
100
AcDbLine
 10
-50.0
 20
0.0
 30
0.0
 11
50.0
 21
0.0
 31
0.0
  0
LINE
  5
30
100
AcDbEntity
  8
0
  6
CONTINUOUS
 62
               7
100
AcDbLine
 10
-50.0
 20
144.0
 30
0.0
 11
50.0
 21
144.0
 31
0.0
  0
LINE
  5
31
100
AcDbEntity
  8
0
  6
CENTER
 62
               2
100
AcDbLine
 10
35.0
 20
6.0752391526661143
 30
0.0
 11
35.0
 21
-8.5126331304277869
 31
0.0
  0
LINE
  5
32
100
AcDbEntity
  8
0
  6
CENTER
 62
               2
100
AcDbLine
 10
10.0
 20
4.4052251602953731
 30
0.0
 11
10.0
 21
-6.7073055758461777
 31
0.0
  0
LINE
  5
33
100
AcDbEntity
  8
0
  6
CENTER
 62
               2
100
AcDbLine
 10
-34.0
 20
163.85773863649268
 30
0.0
 11
-34.0
 21
139.13023859673035
 31
0.0
  0
LINE
  5
34
100
AcDbEntity
  8
0
  6
CENTER
 62
               2
100
AcDbLine
 10
0.0
 20
153.3741261261261
 30
0.0
 11
0.0
 21
-20.377945945945953
 31
0.0
  0
LINE
  5
35
100
AcDbEntity
  8
0
  6
CENTER
 62
               2
100
AcDbLine
 10
-48.949303457500775
 20
16.0
 30
0.0
 11
-53.711930887842215
 21
16.0
 31
0.0
  0
LINE
  5
36
100
AcDbEntity
  8
0
  6
CONTINUOUS
 62
               7
100
AcDbLine
 10
-51.256327994198585
 20
19.300000000000011
 30
0.0
 11
-51.256327994198585
 21
12.699999999999989
 31
0.0
  0
ARC
  5
37
100
AcDbEntity
  8
0
  6
CONTINUOUS
 62
               7
100
AcDbCircle
 10
-47.5
 20
16.0
 30
0.0
 40
5.0
100
AcDbArc
 50
138.70012720829371
 51
221.2998727917055
  0
LINE
  5
38
100
AcDbEntity
  8
0
  6
CONTINUOUS
 62
               7
100
AcDbLine
 10
-50.0
 20
19.300000000000011
 30
0.0
 11
-51.256327994198585
 21
19.300000000000011
 31
0.0
  0
LINE
  5
39
100
AcDbEntity
  8
0
  6
CONTINUOUS
 62
               7
100
AcDbLine
 10
-50.0
 20
12.699999999999989
 30
0.0
 11
-51.256327994198585
 21
12.699999999999989
 31
0.0
  0
LINE
  5
3A
100
AcDbEntity
  8
0
  6
CONTINUOUS
 62
               7
100
AcDbLine
 10
50.0
 20
12.699999999999989
 30
0.0
 11
51.256327994198585
 21
12.699999999999989
 31
0.0
  0
LINE
  5
3B
100
AcDbEntity
  8
0
  6
CONTINUOUS
 62
               7
100
AcDbLine
 10
50.0
 20
19.300000000000011
 30
0.0
 11
51.256327994198585
 21
19.300000000000011
 31
0.0
  0
ARC
  5
3C
100
AcDbEntity
  8
0
  6
CONTINUOUS
 62
               7
100
AcDbCircle
 10
47.5
 20
16.0
 30
0.0
 40
5.0
100
AcDbArc
 50
318.70012720829413
 51
41.299872791705887
  0
LINE
  5
3D
100
AcDbEntity
  8
0
  6
CONTINUOUS
 62
               7
100
AcDbLine
 10
51.256327994198585
 20
19.300000000000011
 30
0.0
 11
51.256327994198585
 21
12.699999999999989
 31
0.0
  0
LINE
  5
3E
100
AcDbEntity
  8
0
  6
CENTER
 62
               2
100
AcDbLine
 10
54.6190305715552
 20
16.0
 30
0.0
 11
47.691307044749692
 21
16.0
 31
0.0
  0
LINE
  5
3F
100
AcDbEntity
  8
0
  6
CONTINUOUS
 62
               7
100
AcDbLine
 10
50.0
 20
131.30000000000001
 30
0.0
 11
51.256327994198585
 21
131.30000000000001
 31
0.0
  0
LINE
  5
40
100
AcDbEntity
  8
0
  6
CONTINUOUS
 62
               7
100
AcDbLine
 10
50.0
 20
124.69999999999999
 30
0.0
 11
51.256327994198585
 21
124.69999999999999
 31
0.0
  0
LINE
  5
41
100
AcDbEntity
  8
0
  6
CONTINUOUS
 62
               2
100
AcDbLine
 10
54.6190305715552
 20
128.0
 30
0.0
 11
47.691307044749692
 21
128.0
 31
0.0
  0
LINE
  5
42
100
AcDbEntity
  8
0
  6
CONTINUOUS
 62
               7
100
AcDbLine
 10
51.256327994198585
 20
124.69999999999999
 30
0.0
 11
51.256327994198585
 21
131.30000000000001
 31
0.0
  0
ARC
  5
43
100
AcDbEntity
  8
0
  6
CONTINUOUS
 62
               7
100
AcDbCircle
 10
47.5
 20
128.0
 30
0.0
 40
5.0
100
AcDbArc
 50
318.70012720829328
 51
41.299872791705887
  0
LINE
  5
44
100
AcDbEntity
  8
0
  6
CENTER
 62
               2
100
AcDbLine
 10
-48.949303457500775
 20
128.0
 30
0.0
 11
-53.711930887842215
 21
128.0
 31
0.0
  0
LINE
  5
45
100
AcDbEntity
  8
0
  6
CONTINUOUS
 62
               7
100
AcDbLine
 10
-50.0
 20
124.69999999999999
 30
0.0
 11
-51.256327994198585
 21
124.69999999999999
 31
0.0
  0
LINE
  5
46
100
AcDbEntity
  8
0
  6
CONTINUOUS
 62
               7
100
AcDbLine
 10
-50.0
 20
131.30000000000001
 30
0.0
 11
-51.256327994198585
 21
131.30000000000001
 31
0.0
  0
ARC
  5
47
100
AcDbEntity
  8
0
  6
CONTINUOUS
 62
               7
100
AcDbCircle
 10
-47.5
 20
128.0
 30
0.0
 40
5.0
100
AcDbArc
 50
138.70012720829371
 51
221.2998727917055
  0
LINE
  5
48
100
AcDbEntity
  8
0
  6
CONTINUOUS
 62
               7
100
AcDbLine
 10
-51.256327994198585
 20
124.69999999999999
 30
0.0
 11
-51.256327994198585
 21
131.30000000000001
 31
0.0
  0
LINE
  5
49
100
AcDbEntity
  8
0
  6
CONTINUOUS
 62
               7
100
AcDbLine
 10
-19.0
 20
0.0
 30
0.0
 11
-19.0
 21
-2.0
 31
0.0
  0
LINE
  5
4A
100
AcDbEntity
  8
0
  6
CONTINUOUS
 62
               7
100
AcDbLine
 10
-45.0
 20
0.0
 30
0.0
 11
-45.0
 21
-2.0
 31
0.0
  0
LINE
  5
4B
100
AcDbEntity
  8
0
  6
CONTINUOUS
 62
               7
100
AcDbLine
 10
-45.0
 20
-2.0
 30
0.0
 11
-19.0
 21
-2.0
 31
0.0
  0
LINE
  5
4C
100
AcDbEntity
  8
0
  6
CONTINUOUS
 62
               7
100
AcDbLine
 10
-45.0
 20
-18.0
 30
0.0
 11
-19.0
 21
-18.0
 31
0.0
  0
LINE
  5
4D
100
AcDbEntity
  8
0
  6
CONTINUOUS
 62
               7
100
AcDbLine
 10
-45.0
 20
-5.5
 30
0.0
 11
-19.0
 21
-5.5
 31
0.0
  0
LINE
  5
4E
100
AcDbEntity
  8
0
  6
CONTINUOUS
 62
               7
100
AcDbLine
 10
-19.0
 20
-5.5
 30
0.0
 11
-19.0
 21
-18.0
 31
0.0
  0
LINE
  5
4F
100
AcDbEntity
  8
0
  6
CONTINUOUS
 62
               7
100
AcDbLine
 10
-45.0
 20
-5.5
 30
0.0
 11
-45.0
 21
-18.0
 31
0.0
  0
LINE
  5
50
100
AcDbEntity
  8
0
  6
CONTINUOUS
 62
               7
100
AcDbLine
 10
-22.0
 20
-2.0
 30
0.0
 11
-22.0
 21
-5.5
 31
0.0
  0
LINE
  5
51
100
AcDbEntity
  8
0
  6
CONTINUOUS
 62
               7
100
AcDbLine
 10
-42.0
 20
-2.0
 30
0.0
 11
-42.0
 21
-5.5
 31
0.0
  0
LINE
  5
52
100
AcDbEntity
  8
0
  6
CONTINUOUS
 62
               7
100
AcDbLine
 10
-27.0
 20
-18.0
 30
0.0
 11
-27.0
 21
-5.5
 31
0.0
  0
LINE
  5
53
100
AcDbEntity
  8
0
  6
CONTINUOUS
 62
               7
100
AcDbLine
 10
-24.107695154586622
 20
-18.0
 30
0.0
 11
-24.107695154586622
 21
-5.5
 31
0.0
  0
LINE
  5
54
100
AcDbEntity
  8
0
  6
CONTINUOUS
 62
               7
100
AcDbLine
 10
-37.0
 20
-18.0
 30
0.0
 11
-37.0
 21
-5.5
 31
0.0
  0
LINE
  5
55
100
AcDbEntity
  8
0
  6
CONTINUOUS
 62
               7
100
AcDbLine
 10
-39.892304845413378
 20
-18.0
 30
0.0
 11
-39.892304845413378
 21
-5.5
 31
0.0
  0
LINE
  5
56
100
AcDbEntity
  8
0
  6
CONTINUOUS
 62
               7
100
AcDbLine
 10
-24.107695154586622
 20
-2.0
 30
0.0
 11
-24.107695154586622
 21
0.0
 31
0.0
  0
LINE
  5
57
100
AcDbEntity
  8
0
  6
CONTINUOUS
 62
               7
100
AcDbLine
 10
-27.0
 20
-2.0
 30
0.0
 11
-27.0
 21
0.0
 31
0.0
  0
LINE
  5
58
100
AcDbEntity
  8
0
  6
CONTINUOUS
 62
               7
100
AcDbLine
 10
-37.0
 20
-2.0
 30
0.0
 11
-37.0
 21
0.0
 31
0.0
  0
LINE
  5
59
100
AcDbEntity
  8
0
  6
CONTINUOUS
 62
               7
100
AcDbLine
 10
-39.892304845413378
 20
-2.0
 30
0.0
 11
-39.892304845413378
 21
0.0
 31
0.0
  0
LINE
  5
5A
100
AcDbEntity
  8
0
  6
CONTINUOUS
 62
               7
100
AcDbLine
 10
7.0
 20
-2.0
 30
0.0
 11
13.0
 21
-2.0
 31
0.0
  0
LINE
  5
5B
100
AcDbEntity
  8
0
  6
CONTINUOUS
 62
               7
100
AcDbLine
 10
7.0
 20
-2.0
 30
0.0
 11
7.0
 21
0.0
 31
0.0
  0
LINE
  5
5C
100
AcDbEntity
  8
0
  6
CONTINUOUS
 62
               7
100
AcDbLine
 10
13.0
 20
-2.0
 30
0.0
 11
13.0
 21
0.0
 31
0.0
  0
LINE
  5
5D
100
AcDbEntity
  8
0
  6
CONTINUOUS
 62
               7
100
AcDbLine
 10
30.5
 20
-4.0
 30
0.0
 11
39.5
 21
-4.0
 31
0.0
  0
LINE
  5
5E
100
AcDbEntity
  8
0
  6
CONTINUOUS
 62
               7
100
AcDbLine
 10
30.5
 20
-4.0
 30
0.0
 11
30.5
 21
0.0
 31
0.0
  0
LINE
  5
5F
100
AcDbEntity
  8
0
  6
CONTINUOUS
 62
               7
100
AcDbLine
 10
39.5
 20
-4.0
 30
0.0
 11
39.5
 21
0.0
 31
0.0
  0
LINE
  5
60
100
AcDbEntity
  8
0
  6
CENTER
 62
               2
100
AcDbLine
 10
31.0
 20
155.45971975506399
 30
0.0
 11
31.0
 21
138.43040368994463
 31
0.0
  0
LINE
  5
61
100
AcDbEntity
  8
0
  6
CONTINUOUS
 62
               7
100
AcDbLine
 10
40.814954576223641
 20
146.0
 30
0.0
 11
40.814954576223641
 21
144.0
 31
0.0
  0
LINE
  5
62
100
AcDbEntity
  8
0
  6
CONTINUOUS
 62
               7
100
AcDbLine
 10
21.185045423776359
 20
146.0
 30
0.0
 11
21.185045423776359
 21
144.0
 31
0.0
  0
LINE
  5
63
100
AcDbEntity
  8
0
  6
CONTINUOUS
 62
               7
100
AcDbLine
 10
40.814954576223641
 20
146.0
 30
0.0
 11
21.185045423776359
 21
146.0
 31
0.0
  0
LINE
  5
64
100
AcDbEntity
  8
0
  6
CONTINUOUS
 62
               7
100
AcDbLine
 10
37.0
 20
151.0
 30
0.0
 11
25.0
 21
151.0
 31
0.0
  0
LINE
  5
65
100
AcDbEntity
  8
0
  6
CONTINUOUS
 62
               7
100
AcDbLine
 10
37.0
 20
149.0
 30
0.0
 11
25.0
 21
149.0
 31
0.0
  0
LINE
  5
66
100
AcDbEntity
  8
0
  6
CONTINUOUS
 62
               7
100
AcDbLine
 10
37.0
 20
151.0
 30
0.0
 11
37.0
 21
149.0
 31
0.0
  0
LINE
  5
67
100
AcDbEntity
  8
0
  6
CONTINUOUS
 62
               7
100
AcDbLine
 10
25.0
 20
151.0
 30
0.0
 11
25.0
 21
149.0
 31
0.0
  0
LINE
  5
68
100
AcDbEntity
  8
0
  6
CONTINUOUS
 62
               7
100
AcDbLine
 10
36.0
 20
148.0
 30
0.0
 11
26.0
 21
148.0
 31
0.0
  0
LINE
  5
69
100
AcDbEntity
  8
0
  6
CONTINUOUS
 62
               7
100
AcDbLine
 10
35.0
 20
149.0
 30
0.0
 11
35.0
 21
148.0
 31
0.0
  0
LINE
  5
6A
100
AcDbEntity
  8
0
  6
CONTINUOUS
 62
               7
100
AcDbLine
 10
27.0
 20
149.0
 30
0.0
 11
27.0
 21
148.0
 31
0.0
  0
LINE
  5
6B
100
AcDbEntity
  8
0
  6
CONTINUOUS
 62
               7
100
AcDbLine
 10
36.0
 20
148.0
 30
0.0
 11
36.0
 21
146.0
 31
0.0
  0
LINE
  5
6C
100
AcDbEntity
  8
0
  6
CONTINUOUS
 62
               7
100
AcDbLine
 10
26.0
 20
148.0
 30
0.0
 11
26.0
 21
146.0
 31
0.0
  0
LINE
  5
6D
100
AcDbEntity
  8
0
  6
CONTINUOUS
 62
               7
100
AcDbLine
 10
35.900000000000006
 20
144.0
 30
0.0
 11
35.900000000000006
 21
146.0
 31
0.0
  0
LINE
  5
6E
100
AcDbEntity
  8
0
  6
CONTINUOUS
 62
               7
100
AcDbLine
 10
26.099999999999994
 20
144.0
 30
0.0
 11
26.099999999999994
 21
146.0
 31
0.0
  0
LINE
  5
6F
100
AcDbEntity
  8
0
  6
CONTINUOUS
 62
               7
100
AcDbLine
 10
-42.5
 20
158.0
 30
0.0
 11
-25.5
 21
158.0
 31
0.0
  0
LINE
  5
70
100
AcDbEntity
  8
0
  6
CONTINUOUS
 62
               7
100
AcDbLine
 10
-42.5
 20
156.0
 30
0.0
 11
-25.5
 21
156.0
 31
0.0
  0
LINE
  5
71
100
AcDbEntity
  8
0
  6
CONTINUOUS
 62
               7
100
AcDbLine
 10
-25.5
 20
158.0
 30
0.0
 11
-25.5
 21
144.0
 31
0.0
  0
LINE
  5
72
100
AcDbEntity
  8
0
  6
CONTINUOUS
 62
               7
100
AcDbLine
 10
-42.5
 20
158.0
 30
0.0
 11
-42.5
 21
144.0
 31
0.0
  0
LINE
  5
73
100
AcDbEntity
  8
0
  6
CONTINUOUS
 62
               7
100
AcDbLine
 10
-31.0
 20
156.0
 30
0.0
 11
-31.0
 21
151.0
 31
0.0
  0
LINE
  5
74
100
AcDbEntity
  8
0
  6
CONTINUOUS
 62
               7
100
AcDbLine
 10
-37.0
 20
156.0
 30
0.0
 11
-37.0
 21
151.0
 31
0.0
  0
LINE
  5
75
100
AcDbEntity
  8
0
  6
CONTINUOUS
 62
               7
100
AcDbLine
 10
-40.0
 20
151.0
 30
0.0
 11
-28.0
 21
151.0
 31
0.0
  0
LINE
  5
76
100
AcDbEntity
  8
0
  6
CONTINUOUS
 62
               7
100
AcDbLine
 10
-28.0
 20
151.0
 30
0.0
 11
-28.0
 21
144.0
 31
0.0
  0
LINE
  5
77
100
AcDbEntity
  8
0
  6
CONTINUOUS
 62
               7
100
AcDbLine
 10
-40.0
 20
151.0
 30
0.0
 11
-40.0
 21
144.0
 31
0.0
  0
ARC
  5
78
100
AcDbEntity
  8
0
  6
CONTINUOUS
 62
               7
100
AcDbCircle
 10
-34.0
 20
153.0
 30
0.0
 40
7.0
100
AcDbArc
 50
73.042236699995769
 51
106.95776330000383
  0
LINE
  5
79
100
AcDbEntity
  8
0
  6
CONTINUOUS
 62
               7
100
AcDbLine
 10
-31.25
 20
158.0
 30
0.0
 11
-31.25
 21
158.73912014162448
 31
0.0
  0
LINE
  5
7A
100
AcDbEntity
  8
0
  6
CONTINUOUS
 62
               7
100
AcDbLine
 10
-36.75
 20
158.0
 30
0.0
 11
-36.75
 21
158.73912014162448
 31
0.0
  0
ARC
  5
7B
100
AcDbEntity
  8
0
  6
CONTINUOUS
 62
               7
100
AcDbCircle
 10
-35.75
 20
158.73912014162448
 30
0.0
 40
1.0
100
AcDbArc
 50
106.95776330000336
 51
179.99999999999963
  0
ARC
  5
7C
100
AcDbEntity
  8
0
  6
CONTINUOUS
 62
               7
100
AcDbCircle
 10
-32.25
 20
158.73912014162448
 30
0.0
 40
1.0
100
AcDbArc
 50
0.0
 51
73.042236699996238
  0
CIRCLE
  5
7E
100
AcDbEntity
  8
0
  6
DASHED
 62
               2
100
AcDbCircle
 10
0.0
 20
130.0
 30
0.0
 40
1.6499999999999999
  0
CIRCLE
  5
7F
100
AcDbEntity
  8
0
  6
DASHED
 62
               2
100
AcDbCircle
 10
0.0
 20
130.0
 30
0.0
 40
2.0
  0
CIRCLE
  5
80
100
AcDbEntity
  8
0
  6
DASHED
 62
               2
100
AcDbCircle
 10
0.0
 20
14.0
 30
0.0
 40
2.0
  0
CIRCLE
  5
81
100
AcDbEntity
  8
0
  6
DASHED
 62
               2
100
AcDbCircle
 10
0.0
 20
14.0
 30
0.0
 40
1.6499999999999999
  0
LINE
  5
82
100
AcDbEntity
  8
0
  6
CONTINUOUS
 62
               2
100
AcDbLine
 10
-3.5
 20
130.0
 30
0.0
 11
3.5
 21
130.0
 31
0.0
  0
LINE
  5
83
100
AcDbEntity
  8
0
  6
CONTINUOUS
 62
               2
100
AcDbLine
 10
-3.5
 20
14.0
 30
0.0
 11
3.5
 21
14.0
 31
0.0
  0
LINE
  5
84
100
AcDbEntity
  8
0
  6
CONTINUOUS
 62
               7
100
AcDbLine
 10
-36.0
 20
-18.0
 30
0.0
 11
-36.0
 21
-32.77001801801805
 31
0.0
  0
LINE
  5
85
100
AcDbEntity
  8
0
  6
CONTINUOUS
 62
               7
100
AcDbLine
 10
-28.0
 20
-18.0
 30
0.0
 11
-28.0
 21
-32.77001801801805
 31
0.0
  0
LINE
  5
86
100
AcDbEntity
  8
0
  6
CENTER
 62
               2
100
AcDbLine
 10
-32.0
 20
8.5582812434055029
 30
0.0
 11
-32.0
 21
-32.77001801801805
 31
0.0
  0
LINE
  5
87
100
AcDbEntity
  8
0
  6
CENTER
 62
               2
100
AcDbLine
 10
199.08031539796676
 20
258.31853012645672
 30
0.0
 11
199.08031539796676
 21
-32.77001801801805
 31
0.0
  0
ARC
  5
88
100
AcDbEntity
  8
0
  6
CONTINUOUS
 62
               7
100
AcDbCircle
 10
173.08031539796676
 20
-32.77001801801805
 30
0.0
 40
22.0
100
AcDbArc
 50
270.00000000000023
 51
0.0
  0
ARC
  5
89
100
AcDbEntity
  8
0
  6
CONTINUOUS
 62
               7
100
AcDbCircle
 10
173.08031539796676
 20
-32.77001801801805
 30
0.0
 40
30.0
100
AcDbArc
 50
270.00000000000023
 51
0.0
  0
ARC
  5
8A
100
AcDbEntity
  8
0
  6
CONTINUOUS
 62
               2
100
AcDbCircle
 10
173.08031539796676
 20
-32.77001801801805
 30
0.0
 40
26.0
100
AcDbArc
 50
270.00000000000023
 51
0.0
  0
LINE
  5
8B
100
AcDbEntity
  8
0
  6
CENTER
 62
               2
100
AcDbLine
 10
116.3829948867787
 20
-49.986103725346993
 30
0.0
 11
109.96133430728028
 21
-71.636273679084525
 31
0.0
  0
LINE
  5
8C
100
AcDbEntity
  8
0
  6
CENTER
 62
               2
100
AcDbLine
 10
118.3829948867787
 20
-49.986103725346993
 30
0.0
 11
111.96133430728028
 21
-71.636273679084525
 31
0.0
  0
LINE
  5
8D
100
AcDbEntity
  8
0
  6
CONTINUOUS
 62
               7
100
AcDbLine
 10
114.59115590166441
 20
-62.77001801801805
 30
0.0
 11
173.08031539796676
 21
-62.77001801801805
 31
0.0
  0
LINE
  5
8E
100
AcDbEntity
  8
0
  6
CONTINUOUS
 62
               7
100
AcDbLine
 10
116.96403725759662
 20
-54.77001801801805
 30
0.0
 11
173.08031539796676
 21
-54.77001801801805
 31
0.0
  0
LINE
  5
8F
100
AcDbEntity
  8
0
  6
CONTINUOUS
 62
               7
100
AcDbLine
 10
206.08031539796676
 20
54.92806343719014
 30
0.0
 11
203.08031539796676
 21
54.92806343719014
 31
0.0
  0
LINE
  5
90
100
AcDbEntity
  8
0
  6
CONTINUOUS
 62
               7
100
AcDbLine
 10
214.08031539796676
 20
234.2403009412445
 30
0.0
 11
214.08031539796676
 21
193.89925102101876
 31
0.0
  0
LINE
  5
91
100
AcDbEntity
  8
0
  6
CENTER
 62
               2
100
AcDbLine
 10
203.60799761313615
 20
225.84963835928068
 30
0.0
 11
194.66963407069809
 21
225.84963835928068
 31
0.0
  0
LINE
  5
92
100
AcDbEntity
  8
0
  6
CONTINUOUS
 62
               7
100
AcDbLine
 10
184.08031539796676
 20
234.2403009412445
 30
0.0
 11
184.08031539796676
 21
193.89925102101876
 31
0.0
  0
ARC
  5
93
100
AcDbEntity
  8
0
  6
CONTINUOUS
 62
               7
100
AcDbCircle
 10
199.08031539796676
 20
211.32742246646529
 30
0.0
 40
30.0
100
AcDbArc
 50
66.421821521798023
 51
113.57817847820158
  0
LINE
  5
94
100
AcDbEntity
  8
0
  6
CONTINUOUS
 62
               7
100
AcDbLine
 10
206.08031539796676
 20
64.638800733684889
 30
0.0
 11
192.08031539796676
 21
64.638800733684889
 31
0.0
  0
LINE
  5
95
100
AcDbEntity
  8
0
  6
CONTINUOUS
 62
               2
100
AcDbLine
 10
213.08031539796676
 20
90.95549267943926
 30
0.0
 11
185.08031539796676
 21
90.95549267943926
 31
0.0
  0
ARC
  5
96
100
AcDbEntity
  8
0
  6
CONTINUOUS
 62
               7
100
AcDbCircle
 10
192.08031539796676
 20
62.92806343719014
 30
0.0
 40
8.0
100
AcDbArc
 50
179.99999999999963
 51
269.99999999999937
  0
ARC
  5
97
100
AcDbEntity
  8
0
  6
CONTINUOUS
 62
               7
100
AcDbCircle
 10
206.08031539796676
 20
62.92806343719014
 30
0.0
 40
8.0
100
AcDbArc
 50
269.99999999999937
 51
0.0
  0
ARC
  5
98
100
AcDbEntity
  8
0
  6
CONTINUOUS
 62
               7
100
AcDbCircle
 10
189.08031539796676
 20
234.2403009412445
 30
0.0
 40
5.0
100
AcDbArc
 50
113.57817847820161
 51
179.99999999999963
  0
ARC
  5
99
100
AcDbEntity
  8
0
  6
CONTINUOUS
 62
               7
100
AcDbCircle
 10
209.08031539796676
 20
234.2403009412445
 30
0.0
 40
5.0
100
AcDbArc
 50
0.0000000000000254
 51
66.421821521798009
  0
LINE
  5
9A
100
AcDbEntity
  8
0
  6
CONTINUOUS
 62
               7
100
AcDbLine
 10
212.08031539796676
 20
232.89128111931313
 30
0.0
 11
212.08031539796676
 21
213.57134049066201
 31
0.0
  0
LINE
  5
9B
100
AcDbEntity
  8
0
  6
CONTINUOUS
 62
               7
100
AcDbLine
 10
186.08031539796676
 20
232.89128111931313
 30
0.0
 11
186.08031539796676
 21
213.57134049066201
 31
0.0
  0
ARC
  5
9C
100
AcDbEntity
  8
0
  6
CONTINUOUS
 62
               7
100
AcDbCircle
 10
199.08031539796676
 20
211.32742246646529
 30
0.0
 40
28.0
100
AcDbArc
 50
69.645593601762656
 51
110.35440639823695
  0
ARC
  5
9D
100
AcDbEntity
  8
0
  6
CONTINUOUS
 62
               7
100
AcDbCircle
 10
191.08031539796676
 20
232.89128111931313
 30
0.0
 40
5.0
100
AcDbArc
 50
110.35440639823682
 51
179.99999999999963
  0
ARC
  5
9E
100
AcDbEntity
  8
0
  6
CONTINUOUS
 62
               7
100
AcDbCircle
 10
207.08031539796676
 20
232.89128111931313
 30
0.0
 40
5.0
100
AcDbArc
 50
0.0
 51
69.645593601762727
  0
LINE
  5
9F
100
AcDbEntity
  8
0
  6
CONTINUOUS
 62
               7
100
AcDbLine
 10
207.08031539796676
 20
208.57134049066201
 30
0.0
 11
191.08031539796676
 21
208.57134049066201
 31
0.0
  0
LINE
  5
A0
100
AcDbEntity
  8
0
  6
CONTINUOUS
 62
               7
100
AcDbLine
 10
209.08031539796676
 20
194.50532742192286
 30
0.0
 11
189.08031539796676
 21
194.50532742192286
 31
0.0
  0
LINE
  5
A1
100
AcDbEntity
  8
0
  6
CONTINUOUS
 62
               7
100
AcDbLine
 10
209.08031539796676
 20
188.89925102101876
 30
0.0
 11
189.08031539796676
 21
188.89925102101876
 31
0.0
  0
ARC
  5
A2
100
AcDbEntity
  8
0
  6
CONTINUOUS
 62
               7
100
AcDbCircle
 10
191.08031539796676
 20
213.57134049066201
 30
0.0
 40
5.0
100
AcDbArc
 50
179.99999999999963
 51
269.99999999999937
  0
ARC
  5
A3
100
AcDbEntity
  8
0
  6
CONTINUOUS
 62
               7
100
AcDbCircle
 10
207.08031539796676
 20
213.57134049066201
 30
0.0
 40
5.0
100
AcDbArc
 50
270.00000000000023
 51
0.0
  0
ELLIPSE
  5
A4
100
AcDbEntity
  8
0
  6
CONTINUOUS
 62
               7
100
AcDbEllipse
 10
199.08031539796676
 20
225.84963835928068
 30
0.0
 11
-3.0000000000000004
 21
0.0000000000000004
 31
0.0
210
0.0
220
0.0
230
1.0
 40
0.9659258262890657
 41
3.1415926535897931
 42
0.0
  0
ELLIPSE
  5
A5
100
AcDbEntity
  8
0
  6
CONTINUOUS
 62
               7
100
AcDbEllipse
 10
199.08031539796676
 20
225.84963835928068
 30
0.0
 11
-1.5000000000000002
 21
0.0000000000000002
 31
0.0
210
0.0
220
0.0
230
1.0
 40
0.9659258262890657
 41
0.0
 42
6.2831853071795862
  0
ELLIPSE
  5
A6
100
AcDbEntity
  8
0
  6
CONTINUOUS
 62
               7
100
AcDbEllipse
 10
199.08031539796676
 20
225.84963835928068
 30
0.0
 11
-3.0000000000000004
 21
0.0000000000000004
 31
0.0
210
0.0
220
0.0
230
1.0
 40
0.9659258262890657
 41
0.0
 42
3.1415926535897931
  0
ELLIPSE
  5
A7
100
AcDbEntity
  8
0
  6
CONTINUOUS
 62
               7
100
AcDbEllipse
 10
199.08031539796676
 20
223.26144790825543
 30
0.0
 11
-3.0000000000000004
 21
0.0000000000000004
 31
0.0
210
0.0
220
0.0
230
1.0
 40
0.9659258262890657
 41
0.0
 42
3.1415926535897931
  0
LINE
  5
A8
100
AcDbEntity
  8
0
  6
CONTINUOUS
 62
               7
100
AcDbLine
 10
202.08031539796676
 20
225.84963835928068
 30
0.0
 11
202.08031539796676
 21
223.26144790825543
 31
0.0
  0
LINE
  5
A9
100
AcDbEntity
  8
0
  6
CONTINUOUS
 62
               7
100
AcDbLine
 10
196.08031539796676
 20
225.84963835928068
 30
0.0
 11
196.08031539796676
 21
223.26144790825543
 31
0.0
  0
LINE
  5
AA
100
AcDbEntity
  8
0
  6
CENTER
 62
               2
100
AcDbLine
 10
194.66963407069809
 20
223.26144790825543
 30
0.0
 11
203.60799761313615
 21
223.26144790825543
 31
0.0
  0
LINE
  5
AB
100
AcDbEntity
  8
0
  6
CONTINUOUS
 62
               7
100
AcDbLine
 10
184.08031539796676
 20
193.89925102101876
 30
0.0
 11
184.08031539796676
 21
109.14159215827226
 31
0.0
  0
ARC
  5
AC
100
AcDbEntity
  8
0
  6
CONTINUOUS
 62
               7
100
AcDbCircle
 10
189.08031539796676
 20
199.50532742192286
 30
0.0
 40
5.0
100
AcDbArc
 50
179.99999999999963
 51
269.99999999999937
  0
ARC
  5
AD
100
AcDbEntity
  8
0
  6
CONTINUOUS
 62
               7
100
AcDbCircle
 10
189.08031539796676
 20
193.89925102101876
 30
0.0
 40
5.0
100
AcDbArc
 50
179.99999999999963
 51
269.99999999999937
  0
LINE
  5
AE
100
AcDbEntity
  8
0
  6
CONTINUOUS
 62
               7
100
AcDbLine
 10
214.08031539796676
 20
193.89925102101876
 30
0.0
 11
214.08031539796676
 21
84.256414142953687
 31
0.0
  0
ARC
  5
AF
100
AcDbEntity
  8
0
  6
CONTINUOUS
 62
               7
100
AcDbCircle
 10
209.08031539796676
 20
199.50532742192286
 30
0.0
 40
5.0
100
AcDbArc
 50
269.99999999999937
 51
0.0
  0
ARC
  5
B0
100
AcDbEntity
  8
0
  6
CONTINUOUS
 62
               7
100
AcDbCircle
 10
209.08031539796676
 20
193.89925102101876
 30
0.0
 40
5.0
100
AcDbArc
 50
269.99999999999937
 51
0.0
  0
LINE
  5
B1
100
AcDbEntity
  8
0
  6
CONTINUOUS
 62
               7
100
AcDbLine
 10
214.08031539796676
 20
62.92806343719014
 30
0.0
 11
214.08031539796676
 21
84.256414142953687
 31
0.0
  0
ARC
  5
B2
100
AcDbEntity
  8
0
  6
CONTINUOUS
 62
               7
100
AcDbCircle
 10
206.08031539796676
 20
72.638800733684889
 30
0.0
 40
8.0
100
AcDbArc
 50
269.99999999999937
 51
0.0
  0
LINE
  5
B3
100
AcDbEntity
  8
0
  6
CONTINUOUS
 62
               7
100
AcDbLine
 10
184.08031539796676
 20
109.14159215827226
 30
0.0
 11
184.08031539796676
 21
62.92806343719014
 31
0.0
  0
ARC
  5
B4
100
AcDbEntity
  8
0
  6
CONTINUOUS
 62
               7
100
AcDbCircle
 10
192.08031539796676
 20
72.638800733684889
 30
0.0
 40
8.0
100
AcDbArc
 50
179.99999999999963
 51
269.99999999999937
  0
LINE
  5
B5
100
AcDbEntity
  8
0
  6
CONTINUOUS
 62
               2
100
AcDbLine
 10
206.75291296694772
 20
171.93758777213944
 30
0.0
 11
191.4077178289858
 21
171.93758777213944
 31
0.0
  0
LINE
  5
B6
100
AcDbEntity
  8
0
  6
CONTINUOUS
 62
               2
100
AcDbLine
 10
208.6142293372481
 20
159.99263547320575
 30
0.0
 11
189.54640145868541
 21
159.99263547320575
 31
0.0
  0
LINE
  5
B7
100
AcDbEntity
  8
0
  6
CENTER
 62
               2
100
AcDbLine
 10
214.08031539796676
 20
180.90293379618151
 30
0.0
 11
184.08031539796673
 21
180.90293379618151
 31
0.0
  0
LINE
  5
B8
100
AcDbEntity
  8
0
  6
CONTINUOUS
 62
               7
100
AcDbLine
 10
196.08031539796676
 20
185.90293379618157
 30
0.0
 11
202.08031539796676
 21
185.90293379618157
 31
0.0
  0
LINE
  5
B9
100
AcDbEntity
  8
0
  6
CONTINUOUS
 62
               7
100
AcDbLine
 10
204.08031539796676
 20
183.90293379618157
 30
0.0
 11
204.08031539796676
 21
177.90293379618146
 31
0.0
  0
LINE
  5
BA
100
AcDbEntity
  8
0
  6
CONTINUOUS
 62
               7
100
AcDbLine
 10
194.08031539796676
 20
177.90293379618146
 30
0.0
 11
194.08031539796676
 21
183.90293379618157
 31
0.0
  0
LINE
  5
BB
100
AcDbEntity
  8
0
  6
CONTINUOUS
 62
               7
100
AcDbLine
 10
196.08031539796676
 20
175.90293379618146
 30
0.0
 11
202.08031539796676
 21
175.90293379618146
 31
0.0
  0
ARC
  5
BC
100
AcDbEntity
  8
0
  6
CONTINUOUS
 62
               7
100
AcDbCircle
 10
196.08031539796676
 20
183.90293379618157
 30
0.0
 40
2.0
100
AcDbArc
 50
89.999999999999815
 51
179.99999999999963
  0
ARC
  5
BD
100
AcDbEntity
  8
0
  6
CONTINUOUS
 62
               7
100
AcDbCircle
 10
202.08031539796676
 20
183.90293379618157
 30
0.0
 40
2.0
100
AcDbArc
 50
0.0
 51
89.999999999999815
  0
ARC
  5
BE
100
AcDbEntity
  8
0
  6
CONTINUOUS
 62
               7
100
AcDbCircle
 10
202.08031539796676
 20
177.90293379618146
 30
0.0
 40
2.0
100
AcDbArc
 50
270.00000000000023
 51
0.0
  0
ARC
  5
BF
100
AcDbEntity
  8
0
  6
CONTINUOUS
 62
               7
100
AcDbCircle
 10
196.08031539796676
 20
177.90293379618146
 30
0.0
 40
2.0
100
AcDbArc
 50
179.99999999999963
 51
269.99999999999937
  0
ELLIPSE
  5
C0
100
AcDbEntity
  8
0
  6
CONTINUOUS
 62
               7
100
AcDbEllipse
 10
199.08031539796676
 20
56.569600462848186
 30
0.0
 11
-4.0000000000000018
 21
0.0000000000000005
 31
0.0
210
0.0
220
0.0
230
1.0
 40
0.2083333333333321
 41
3.1415926535897931
 42
0.0
  0
LINE
  5
C1
100
AcDbEntity
  8
0
  6
CENTER
 62
               2
100
AcDbLine
 10
193.24946898448877
 20
56.569600462848186
 30
0.0
 11
205.16022990181185
 21
56.569600462848186
 31
0.0
  0
LINE
  5
C2
100
AcDbEntity
  8
0
  6
CONTINUOUS
 62
               7
100
AcDbLine
 10
195.08031539796676
 20
54.92806343719014
 30
0.0
 11
192.08031539796676
 21
54.92806343719014
 31
0.0
  0
LINE
  5
C3
100
AcDbEntity
  8
0
  6
CONTINUOUS
 62
               7
100
AcDbLine
 10
191.02316938403382
 20
168.90293379618151
 30
0.0
 11
207.13746141189969
 21
168.90293379618151
 31
0.0
  0
LINE
  5
C4
100
AcDbEntity
  8
0
  6
CONTINUOUS
 62
               7
100
AcDbLine
 10
207.13746141189969
 20
164.90293379618151
 30
0.0
 11
191.02316938403382
 21
164.90293379618151
 31
0.0
  0
ARC
  5
C5
100
AcDbEntity
  8
0
  6
CONTINUOUS
 62
               7
100
AcDbCircle
 10
207.13746141189969
 20
175.84578778224858
 30
0.0
 40
6.9428539860670728
100
AcDbArc
 50
269.99999999999937
 51
0.0
  0
ARC
  5
C6
100
AcDbEntity
  8
0
  6
CONTINUOUS
 62
               7
100
AcDbCircle
 10
191.02316938403382
 20
175.84578778224858
 30
0.0
 40
6.9428539860670728
100
AcDbArc
 50
179.99999999999963
 51
269.99999999999937
  0
ARC
  5
C7
100
AcDbEntity
  8
0
  6
CONTINUOUS
 62
               7
100
AcDbCircle
 10
207.13746141189969
 20
157.96007981011445
 30
0.0
 40
6.9428539860670728
100
AcDbArc
 50
0.0
 51
89.999999999999815
  0
ARC
  5
C8
100
AcDbEntity
  8
0
  6
CONTINUOUS
 62
               7
100
AcDbCircle
 10
191.02316938403382
 20
157.96007981011445
 30
0.0
 40
6.9428539860670728
100
AcDbArc
 50
89.999999999999815
 51
179.99999999999963
  0
ARC
  5
C9
100
AcDbEntity
  8
0
  6
CONTINUOUS
 62
               2
100
AcDbCircle
 10
206.75291296694772
 20
179.26499020315845
 30
0.0
 40
7.3274024310190278
100
AcDbArc
 50
269.99999999999937
 51
0.0
  0
ARC
  5
CA
100
AcDbEntity
  8
0
  6
CONTINUOUS
 62
               2
100
AcDbCircle
 10
191.4077178289858
 20
179.26499020315845
 30
0.0
 40
7.3274024310190278
100
AcDbArc
 50
179.99999999999963
 51
269.99999999999937
  0
ARC
  5
CB
100
AcDbEntity
  8
0
  6
CONTINUOUS
 62
               2
100
AcDbCircle
 10
208.6142293372481
 20
154.5265494124871
 30
0.0
 40
5.466086060718661
100
AcDbArc
 50
0.0
 51
89.999999999999815
  0
ARC
  5
CC
100
AcDbEntity
  8
0
  6
CONTINUOUS
 62
               2
100
AcDbCircle
 10
189.54640145868541
 20
154.5265494124871
 30
0.0
 40
5.466086060718661
100
AcDbArc
 50
89.999999999999815
 51
179.99999999999963
  0
LINE
  5
CD
100
AcDbEntity
  8
0
  6
CONTINUOUS
 62
               7
100
AcDbLine
 10
195.08031539796676
 20
56.569600462848186
 30
0.0
 11
195.08031539796676
 21
-32.77001801801805
 31
0.0
  0
LINE
  5
CE
100
AcDbEntity
  8
0
  6
CONTINUOUS
 62
               7
100
AcDbLine
 10
203.08031539796676
 20
56.569600462848186
 30
0.0
 11
203.08031539796676
 21
-32.77001801801805
 31
0.0
  0
ENDBLK
  5
CF
100
AcDbEntity
  8
0
100
AcDbBlockEnd
  0
BLOCK
  5
D0
100
AcDbEntity
  8
0
100
AcDbBlockBegin
  2
DTRY-ELG01-2
 70
               0
 10
0.0
 20
0.0
 30
0.0
  3
DTRY-ELG01-2
  1

  0
LINE
  5
D1
100
AcDbEntity
  8
0
  6
CENTER
 62
               2
100
AcDbLine
 10
-90.504927820641001
 20
27.356550861808017
 30
0.0
 11
19.027208177531094
 21
-1.9924965241580992
 31
0.0
  0
LINE
  5
D2
100
AcDbEntity
  8
0
  6
CONTINUOUS
 62
               2
100
AcDbLine
 10
80.08459741214395
 20
-9.8655518745873962
 30
0.0
 11
80.08459741214395
 21
-156.28140392186012
 31
0.0
  0
LINE
  5
D3
100
AcDbEntity
  8
0
  6
CONTINUOUS
 62
               2
100
AcDbLine
 10
64.08459741214395
 20
-64.871390343540043
 30
0.0
 11
64.08459741214395
 21
-133.97970770257891
 31
0.0
  0
LINE
  5
D4
100
AcDbEntity
  8
0
  6
CONTINUOUS
 62
               7
100
AcDbLine
 10
52.08459741214395
 20
-62.959225407207754
 30
0.0
 11
52.08459741214395
 21
-130.49636820097425
 31
0.0
  0
LINE
  5
D5
100
AcDbEntity
  8
0
  6
CONTINUOUS
 62
               7
100
AcDbLine
 10
92.08459741214395
 20
-12.548927084231991
 30
0.0
 11
92.08459741214395
 21
-160.02379744322337
 31
0.0
  0
LINE
  5
D6
100
AcDbEntity
  8
0
  6
CONTINUOUS
 62
               7
100
AcDbLine
 10
79.861054547451516
 20
6.5537517983847238
 30
0.0
 11
44.659221443041673
 21
15.9860545508065
 31
0.0
  0
LINE
  5
D7
100
AcDbEntity
  8
0
  6
CONTINUOUS
 62
               7
100
AcDbLine
 10
32.753545368325803
 20
-28.446533458490649
 30
0.0
 11
42.861054547451516
 21
-31.154832380527552
 31
0.0
  0
LINE
  5
D8
100
AcDbEntity
  8
0
  6
CONTINUOUS
 62
               7
100
AcDbLine
 10
6.4995129789276405
 20
-14.380520389751496
 30
0.0
 11
14.889555907673895
 21
16.931546098013513
 31
0.0
  0
LINE
  5
D9
100
AcDbEntity
  8
0
  6
CONTINUOUS
 62
               7
100
AcDbLine
 10
85.08459741214395
 20
-9.5489270842319911
 30
0.0
 11
89.08459741214395
 21
-9.5489270842319911
 31
0.0
  0
ARC
  5
DA
100
AcDbEntity
  8
0
  6
CONTINUOUS
 62
               7
100
AcDbCircle
 10
85.08459741214395
 20
-6.5489270842319911
 30
0.0
 40
3.0
100
AcDbArc
 50
179.99999999999963
 51
269.99999999999937
  0
LINE
  5
DB
100
AcDbEntity
  8
0
  6
CONTINUOUS
 62
               7
100
AcDbLine
 10
45.08459741214395
 20
-34.052609859394749
 30
0.0
 11
45.08459741214395
 21
-51.014273108274068
 31
0.0
  0
ARC
  5
DC
100
AcDbEntity
  8
0
  6
CONTINUOUS
 62
               7
100
AcDbCircle
 10
89.08459741214395
 20
-12.548927084231991
 30
0.0
 40
3.0
100
AcDbArc
 50
0.0
 51
89.999999999999815
  0
ARC
  5
DD
100
AcDbEntity
  8
0
  6
CONTINUOUS
 62
               7
100
AcDbCircle
 10
79.08459741214395
 20
3.6559743195174974
 30
0.0
 40
3.0
100
AcDbArc
 50
0.0000000000000127
 51
74.999999999999858
  0
ARC
  5
DE
100
AcDbEntity
  8
0
  6
CONTINUOUS
 62
               7
100
AcDbCircle
 10
42.08459741214395
 20
-34.052609859394749
 30
0.0
 40
3.0
100
AcDbArc
 50
0.0000000000000254
 51
74.999999999999972
  0
LINE
  5
DF
100
AcDbEntity
  8
0
  6
CONTINUOUS
 62
               7
100
AcDbLine
 10
43.602235502348975
 20
-52.9461247608522
 30
0.0
 11
39.232188105760343
 21
-54.117075431653859
 31
0.0
  0
LINE
  5
E0
100
AcDbEntity
  8
0
  6
CONTINUOUS
 62
               7
100
AcDbLine
 10
50.602235502348975
 20
-61.027373754629636
 30
0.0
 11
39.232188105760343
 21
-57.980778736810123
 31
0.0
  0
ARC
  5
E1
100
AcDbEntity
  8
0
  6
CONTINUOUS
 62
               7
100
AcDbCircle
 10
43.08459741214395
 20
-51.014273108274068
 30
0.0
 40
2.0
100
AcDbArc
 50
285.00000000000011
 51
0.0
  0
ARC
  5
E2
100
AcDbEntity
  8
0
  6
CONTINUOUS
 62
               7
100
AcDbCircle
 10
39.749826195965369
 20
-56.048927084231991
 30
0.0
 40
2.0
100
AcDbArc
 50
104.99999999999974
 51
254.99999999999946
  0
ARC
  5
E3
100
AcDbEntity
  8
0
  6
CONTINUOUS
 62
               7
100
AcDbCircle
 10
50.08459741214395
 20
-62.959225407207754
 30
0.0
 40
2.0
100
AcDbArc
 50
0.0
 51
74.999999999999801
  0
LINE
  5
E4
100
AcDbEntity
  8
0
  6
CONTINUOUS
 62
               2
100
AcDbLine
 10
61.861054547451516
 20
-61.97361286467283
 30
0.0
 11
39.749826195965369
 21
-56.048927084231991
 31
0.0
  0
ARC
  5
E5
100
AcDbEntity
  8
0
  6
CONTINUOUS
 62
               2
100
AcDbCircle
 10
61.08459741214395
 20
-64.871390343540043
 30
0.0
 40
3.0
100
AcDbArc
 50
0.0000000000000127
 51
74.999999999999758
  0
LINE
  5
E6
100
AcDbEntity
  8
0
  6
CONTINUOUS
 62
               2
100
AcDbLine
 10
55.602235502348975
 20
-51.801286812498887
 30
0.0
 11
39.749826195965369
 21
-56.048927084231991
 31
0.0
  0
LINE
  5
E7
100
AcDbEntity
  8
0
  6
CONTINUOUS
 62
               2
100
AcDbLine
 10
57.08459741214395
 20
-32.091619266517796
 30
0.0
 11
57.08459741214395
 21
-49.869435159920755
 31
0.0
  0
LINE
  5
E8
100
AcDbEntity
  8
0
  6
CONTINUOUS
 62
               7
100
AcDbLine
 10
32.753545368325803
 20
-28.446533458490649
 30
0.0
 11
44.65922144304173
 21
15.9860545508065
 31
0.0
  0
LINE
  5
E9
100
AcDbEntity
  8
0
  6
CONTINUOUS
 62
               7
100
AcDbLine
 10
44.659221443041673
 20
15.9860545508065
 30
0.0
 11
16.995719045747336
 21
18.406297403991971
 31
0.0
  0
LINE
  5
EA
100
AcDbEntity
  8
0
  6
CONTINUOUS
 62
               7
100
AcDbLine
 10
32.753545368325803
 20
-28.446533458490649
 30
0.0
 11
7.5861281080243259
 21
-16.710774054029827
 31
0.0
  0
LINE
  5
EB
100
AcDbEntity
  8
0
  6
CONTINUOUS
 62
               2
100
AcDbLine
 10
34.047640593838395
 20
-23.616904327045319
 30
0.0
 11
54.861054547451516
 21
-29.193841787650598
 31
0.0
  0
ARC
  5
EC
100
AcDbEntity
  8
0
  6
CONTINUOUS
 62
               2
100
AcDbCircle
 10
54.08459741214395
 20
-32.091619266517796
 30
0.0
 40
3.0
100
AcDbArc
 50
0.0
 51
74.999999999999716
  0
ARC
  5
ED
100
AcDbEntity
  8
0
  6
CONTINUOUS
 62
               2
100
AcDbCircle
 10
55.08459741214395
 20
-49.869435159920755
 30
0.0
 40
2.0
100
AcDbArc
 50
284.99999999999932
 51
0.0
  0
ARC
  5
EE
100
AcDbEntity
  8
0
  6
CONTINUOUS
 62
               7
100
AcDbCircle
 10
16.821407560252027
 20
16.413908007808487
 30
0.0
 40
2.0
100
AcDbArc
 50
84.999999999999588
 51
164.99999999999991
  0
ARC
  5
EF
100
AcDbEntity
  8
0
  6
CONTINUOUS
 62
               7
100
AcDbCircle
 10
8.4313646315057724
 20
-14.898158479956521
 30
0.0
 40
2.0
100
AcDbArc
 50
164.99999999999966
 51
244.99999999999937
  0
LINE
  5
F0
100
AcDbEntity
  8
0
  6
CONTINUOUS
 62
               7
100
AcDbLine
 10
82.08459741214395
 20
3.6559743195174974
 30
0.0
 11
82.08459741214395
 21
-6.5489270842319911
 31
0.0
  0
LINE
  5
F1
100
AcDbEntity
  8
0
  6
CONTINUOUS
 62
               2
100
AcDbLine
 10
79.08459741214395
 20
6.761802860747764
 30
0.0
 11
79.08459741214395
 21
-6.5489270842319911
 31
0.0
  0
ARC
  5
F2
100
AcDbEntity
  8
0
  6
CONTINUOUS
 62
               2
100
AcDbCircle
 10
85.08459741214395
 20
-6.5489270842319911
 30
0.0
 40
6.0
100
AcDbArc
 50
179.99999999999963
 51
269.99999999999937
  0
LINE
  5
F3
100
AcDbEntity
  8
0
  6
CONTINUOUS
 62
               2
100
AcDbLine
 10
92.08459741214395
 20
-12.548927084231991
 30
0.0
 11
85.08459741214395
 21
-12.548927084231991
 31
0.0
  0
LINE
  5
F4
100
AcDbEntity
  8
0
  6
CENTER
 62
               2
100
AcDbLine
 10
55.734597412143984
 20
-36.548927084231991
 30
0.0
 11
65.034597412143938
 21
-36.548927084231991
 31
0.0
  0
LINE
  5
F5
100
AcDbEntity
  8
0
  6
CENTER
 62
               2
100
AcDbLine
 10
60.384597412143961
 20
-31.898927084231985
 30
0.0
 11
60.384597412143961
 21
-41.198927084231997
 31
0.0
  0
CIRCLE
  5
F6
100
AcDbEntity
  8
0
  6
CONTINUOUS
 62
               7
100
AcDbCircle
 10
60.384597412143961
 20
-36.548927084231991
 30
0.0
 40
1.6499999999999999
  0
LINE
  5
F7
100
AcDbEntity
  8
0
  6
CONTINUOUS
 62
               2
100
AcDbLine
 10
79.08459741214395
 20
-0.4851304021228202
 30
0.0
 11
42.847488127324056
 21
9.2245737667830099
 31
0.0
  0
LINE
  5
F8
100
AcDbEntity
  8
0
  6
CONTINUOUS
 62
               2
100
AcDbLine
 10
44.049131243808091
 20
9.0126916641642651
 30
0.0
 11
15.507348829952235
 21
11.509774062200222
 31
0.0
  0
LINE
  5
F9
100
AcDbEntity
  8
0
  6
CONTINUOUS
 62
               2
100
AcDbLine
 10
34.866636677029277
 20
-23.914994523307428
 30
0.0
 11
9.2197998696856018
 21
-11.955678112591585
 31
0.0
  0
LINE
  5
FA
100
AcDbEntity
  8
0
  6
CONTINUOUS
 62
               2
100
AcDbLine
 10
7.9057411393858672
 20
-16.85981205819985
 30
0.0
 11
17.347031052371932
 21
18.375561586051788
 31
0.0
  0
LINE
  5
FB
100
AcDbEntity
  8
0
  6
CONTINUOUS
 62
               7
100
AcDbLine
 10
0.1294095225512422
 20
0.4829629131444904
 30
0.0
 11
1.4235047480638343
 21
5.3125920445897918
 31
0.0
  0
LINE
  5
FC
100
AcDbEntity
  8
0
  6
CONTINUOUS
 62
               7
100
AcDbLine
 10
9.6592582628906882
 20
-2.5881904510252411
 30
0.0
 11
0.4829629131445188
 21
-0.1294095225512706
 31
0.0
  0
LINE
  5
FD
100
AcDbEntity
  8
0
  6
CONTINUOUS
 62
               7
100
AcDbLine
 10
11.212172533505822
 20
3.2073645067091547
 30
0.0
 11
2.0358771837596521
 21
5.6661454351831253
 31
0.0
  0
LINE
  5
FE
100
AcDbEntity
  8
0
  6
CENTER
 62
               2
100
AcDbLine
 10
86.831251734170763
 20
5.4718119108021028
 30
0.0
 11
86.831251734170763
 21
-14.978991893591484
 31
0.0
  0
LINE
  5
FF
100
AcDbEntity
  8
0
  6
CONTINUOUS
 62
               7
100
AcDbLine
 10
83.831251734170763
 20
0.4510729157680089
 30
0.0
 11
89.831251734170763
 21
0.4510729157680089
 31
0.0
  0
LINE
  5
100
100
AcDbEntity
  8
0
  6
CONTINUOUS
 62
               7
100
AcDbLine
 10
89.831251734170763
 20
0.4510729157680089
 30
0.0
 11
89.831251734170763
 21
-9.5489270842319911
 31
0.0
  0
LINE
  5
101
100
AcDbEntity
  8
0
  6
CONTINUOUS
 62
               7
100
AcDbLine
 10
83.831251734170763
 20
0.4510729157680089
 30
0.0
 11
83.831251734170763
 21
-9.5489270842319911
 31
0.0
  0
ARC
  5
102
100
AcDbEntity
  8
0
  6
CONTINUOUS
 62
               7
100
AcDbCircle
 10
1.9064676612083815
 20
5.1831825220385497
 30
0.0
 40
0.5
100
AcDbArc
 50
74.999999999999517
 51
165.00000000000003
  0
ARC
  5
103
100
AcDbEntity
  8
0
  6
CONTINUOUS
 62
               7
100
AcDbCircle
 10
0.6123724356957894
 20
0.3535533905932482
 30
0.0
 40
0.5
100
AcDbArc
 50
164.99999999999963
 51
254.99999999999986
  0
LINE
  5
104
100
AcDbEntity
  8
0
  6
DASHED
 62
               2
100
AcDbLine
 10
-82.586658147715355
 20
22.129028356265479
 30
0.0
 11
-73.893325711113761
 21
19.799656950342808
 31
0.0
  0
LINE
  5
105
100
AcDbEntity
  8
0
  6
DASHED
 62
               2
100
AcDbLine
 10
-82.940211538308631
 20
22.741400791961269
 30
0.0
 11
-81.646116312796067
 21
27.571029923406627
 31
0.0
  0
LINE
  5
106
100
AcDbEntity
  8
0
  6
DASHED
 62
               2
100
AcDbLine
 10
-81.033743877100221
 20
27.924583313999904
 30
0.0
 11
-72.340411440498627
 21
25.595211908077204
 31
0.0
  0
LINE
  5
107
100
AcDbEntity
  8
0
  6
DASHED
 62
               2
100
AcDbLine
 10
-73.280953275417943
 20
20.153210340936084
 30
0.0
 11
-71.986858049905351
 21
24.982839472381414
 31
0.0
  0
LINE
  5
108
100
AcDbEntity
  8
0
  6
DASHED
 62
               2
100
AcDbLine
 10
-72.116267572456621
 20
24.499876559236895
 30
0.0
 11
15.782982619848582
 21
0.9473434549074966
 31
0.0
  0
LINE
  5
109
100
AcDbEntity
  8
0
  6
DASHED
 62
               2
100
AcDbLine
 10
-73.151543752866672
 20
20.636173254080603
 30
0.0
 11
14.747706439438531
 21
-2.9163598502487673
 31
0.0
  0
LINE
  5
10A
100
AcDbEntity
  8
0
  6
DASHED
 62
               2
100
AcDbLine
 10
14.747706439438531
 20
-2.9163598502487673
 30
0.0
 11
15.782982619848582
 21
0.9473434549074966
 31
0.0
  0
ARC
  5
10B
100
AcDbEntity
  8
0
  6
DASHED
 62
               2
100
AcDbCircle
 10
-81.163153399651492
 20
27.441620400855356
 30
0.0
 40
0.5
100
AcDbArc
 50
74.999999999999858
 51
164.99999999999966
  0
ARC
  5
10C
100
AcDbEntity
  8
0
  6
DASHED
 62
               2
100
AcDbCircle
 10
-82.457248625164056
 20
22.611991269409998
 30
0.0
 40
0.5
100
AcDbArc
 50
164.99999999999966
 51
254.99999999999946
  0
ARC
  5
10D
100
AcDbEntity
  8
0
  6
DASHED
 62
               2
100
AcDbCircle
 10
-73.76391618856249
 20
20.282619863487326
 30
0.0
 40
0.5
100
AcDbArc
 50
254.99999999999946
 51
344.99999999999926
  0
ARC
  5
10E
100
AcDbEntity
  8
0
  6
DASHED
 62
               2
100
AcDbCircle
 10
-72.469820963049898
 20
25.112248994932685
 30
0.0
 40
0.5
100
AcDbArc
 50
344.99999999999926
 51
74.999999999999858
  0
LINE
  5
10F
100
AcDbEntity
  8
0
  6
CENTER
 62
               2
100
AcDbLine
 10
77.08459741214395
 20
-161.91773442368151
 30
0.0
 11
77.08459741214395
 21
-213.70489038698429
 31
0.0
  0
LINE
  5
110
100
AcDbEntity
  8
0
  6
CONTINUOUS
 62
               7
100
AcDbLine
 10
81.943446501855163
 20
-167.73194072026288
 30
0.0
 11
48.035476437131791
 21
-158.31306014672862
 31
0.0
  0
LINE
  5
111
100
AcDbEntity
  8
0
  6
CONTINUOUS
 62
               7
100
AcDbLine
 10
43.248424117145049
 20
-146.60491686968911
 30
0.0
 11
51.682673623497266
 21
-131.99636820097425
 31
0.0
  0
ARC
  5
112
100
AcDbEntity
  8
0
  6
CONTINUOUS
 62
               7
100
AcDbCircle
 10
50.176627347420521
 20
-150.60491686968908
 30
0.0
 40
8.0
100
AcDbArc
 50
149.99999999999974
 51
254.4758890032453
  0
ARC
  5
113
100
AcDbEntity
  8
0
  6
CONTINUOUS
 62
               7
100
AcDbCircle
 10
84.084597412143893
 20
-160.02379744322337
 30
0.0
 40
8.0
100
AcDbArc
 50
254.47588900324595
 51
0.0
  0
ARC
  5
114
100
AcDbEntity
  8
0
  6
CONTINUOUS
 62
               7
100
AcDbCircle
 10
49.08459741214395
 20
-130.49636820097427
 30
0.0
 40
3.0
100
AcDbArc
 50
329.99999999999932
 51
0.0
  0
LINE
  5
115
100
AcDbEntity
  8
0
  6
CONTINUOUS
 62
               2
100
AcDbLine
 10
55.448022981662945
 20
-149.47459180438452
 30
0.0
 11
63.816648219712846
 21
-134.97970770257888
 31
0.0
  0
LINE
  5
116
100
AcDbEntity
  8
0
  6
CONTINUOUS
 62
               2
100
AcDbLine
 10
77.549309684571739
 20
-158.20843974112
 30
0.0
 11
56.64478606165963
 21
-152.4016276236444
 31
0.0
  0
ARC
  5
117
100
AcDbEntity
  8
0
  6
CONTINUOUS
 62
               2
100
AcDbCircle
 10
57.180073789231841
 20
-150.47459180438452
 30
0.0
 40
2.0
100
AcDbArc
 50
149.99999999999972
 51
254.47588900324538
  0
ARC
  5
118
100
AcDbEntity
  8
0
  6
CONTINUOUS
 62
               2
100
AcDbCircle
 10
78.08459741214395
 20
-156.28140392186009
 30
0.0
 40
2.0
100
AcDbArc
 50
254.47588900324533
 51
0.0
  0
ARC
  5
119
100
AcDbEntity
  8
0
  6
CONTINUOUS
 62
               2
100
AcDbCircle
 10
62.08459741214395
 20
-133.97970770257888
 30
0.0
 40
2.0
100
AcDbArc
 50
329.99999999999932
 51
0.0
  0
LINE
  5
11A
100
AcDbEntity
  8
0
  6
CONTINUOUS
 62
               7
100
AcDbLine
 10
80.08459741214395
 20
-167.21559375089865
 30
0.0
 11
80.08459741214395
 21
-192.8319066816577
 31
0.0
  0
LINE
  5
11B
100
AcDbEntity
  8
0
  6
CONTINUOUS
 62
               7
100
AcDbLine
 10
74.08459741214395
 20
-165.54892708423199
 30
0.0
 11
74.08459741214395
 21
-195.24981712941889
 31
0.0
  0
LINE
  5
11C
100
AcDbEntity
  8
0
  6
CENTER
 62
               2
100
AcDbLine
 10
57.3561570451715
 20
-201.99112891909436
 30
0.0
 11
98.662579063520099
 21
-185.34525735946136
 31
0.0
  0
ENDBLK
  5
11D
100
AcDbEntity
  8
0
100
AcDbBlockEnd
  0
BLOCK
  5
11E
100
AcDbEntity
  8
0
100
AcDbBlockBegin
  2
DTRY-ELG01-3
 70
               0
 10
0.0
 20
0.0
 30
0.0
  3
DTRY-ELG01-3
  1

  0
LINE
  5
11F
100
AcDbEntity
  8
0
  6
CENTER
 62
               2
100
AcDbLine
 10
0.0
 20
50.914594594594604
 30
0.0
 11
0.0
 21
-47.217441441441423
 31
0.0
  0
LINE
  5
120
100
AcDbEntity
  8
0
  6
CENTER
 62
               2
100
AcDbLine
 10
-27.5
 20
0.0
 30
0.0
 11
27.5
 21
0.0
 31
0.0
  0
LINE
  5
121
100
AcDbEntity
  8
0
  6
CONTINUOUS
 62
               7
100
AcDbLine
 10
1.3535533905932766
 20
-0.6464466094067518
 30
0.0
 11
0.7071067811865532
 21
-0.0000000000000284
 31
0.0
  0
ARC
  5
122
100
AcDbEntity
  8
0
  6
CONTINUOUS
 62
               7
100
AcDbCircle
 10
0.0
 20
-0.0000000000000284
 30
0.0
 40
1.5
100
AcDbArc
 50
295.52877936550851
 51
334.47122063449007
  0
LINE
  5
123
100
AcDbEntity
  8
0
  6
CONTINUOUS
 62
               7
100
AcDbLine
 10
0.6464466094067234
 20
-1.353553390593305
 30
0.0
 11
0.0
 21
-0.7071067811865817
 31
0.0
  0
LINE
  5
124
100
AcDbEntity
  8
0
  6
CONTINUOUS
 62
               7
100
AcDbLine
 10
-0.6464466094067234
 20
-1.353553390593305
 30
0.0
 11
0.0
 21
-0.7071067811865817
 31
0.0
  0
ARC
  5
125
100
AcDbEntity
  8
0
  6
CONTINUOUS
 62
               7
100
AcDbCircle
 10
0.0
 20
-0.0000000000000284
 30
0.0
 40
1.5
100
AcDbArc
 50
205.52877936550871
 51
244.47122063449027
  0
LINE
  5
126
100
AcDbEntity
  8
0
  6
CONTINUOUS
 62
               7
100
AcDbLine
 10
-1.3535533905932766
 20
-0.6464466094067518
 30
0.0
 11
-0.7071067811865532
 21
-0.0000000000000284
 31
0.0
  0
LINE
  5
127
100
AcDbEntity
  8
0
  6
CONTINUOUS
 62
               7
100
AcDbLine
 10
-0.7071067811865532
 20
-0.0000000000000284
 30
0.0
 11
-1.3535533905932766
 21
0.646446609406695
 31
0.0
  0
ARC
  5
128
100
AcDbEntity
  8
0
  6
CONTINUOUS
 62
               7
100
AcDbCircle
 10
0.0
 20
-0.0000000000000284
 30
0.0
 40
1.5
100
AcDbArc
 50
115.52877936550891
 51
154.47122063449049
  0
LINE
  5
129
100
AcDbEntity
  8
0
  6
CONTINUOUS
 62
               7
100
AcDbLine
 10
0.0
 20
0.7071067811865248
 30
0.0
 11
-0.6464466094067234
 21
1.3535533905932482
 31
0.0
  0
LINE
  5
12A
100
AcDbEntity
  8
0
  6
CONTINUOUS
 62
               7
100
AcDbLine
 10
0.0
 20
0.7071067811865248
 30
0.0
 11
0.6464466094067234
 21
1.3535533905932482
 31
0.0
  0
ARC
  5
12B
100
AcDbEntity
  8
0
  6
CONTINUOUS
 62
               7
100
AcDbCircle
 10
0.0
 20
-0.0000000000000284
 30
0.0
 40
1.5
100
AcDbArc
 50
25.528779365509106
 51
64.471220634490692
  0
CIRCLE
  5
12C
100
AcDbEntity
  8
0
  6
CONTINUOUS
 62
               7
100
AcDbCircle
 10
0.0
 20
0.0
 30
0.0
 40
3.5
  0
LINE
  5
12D
100
AcDbEntity
  8
0
  6
CONTINUOUS
 62
               7
100
AcDbLine
 10
-20.5
 20
-2.5
 30
0.0
 11
-20.5
 21
-26.0
 31
0.0
  0
LINE
  5
12E
100
AcDbEntity
  8
0
  6
CONTINUOUS
 62
               7
100
AcDbLine
 10
20.5
 20
-2.5
 30
0.0
 11
20.5
 21
-26.0
 31
0.0
  0
LINE
  5
12F
100
AcDbEntity
  8
0
  6
CONTINUOUS
 62
               7
100
AcDbLine
 10
-20.5
 20
2.5
 30
0.0
 11
-20.5
 21
26.0
 31
0.0
  0
LINE
  5
130
100
AcDbEntity
  8
0
  6
CONTINUOUS
 62
               7
100
AcDbLine
 10
20.5
 20
2.5
 30
0.0
 11
20.5
 21
26.0
 31
0.0
  0
LINE
  5
131
100
AcDbEntity
  8
0
  6
CONTINUOUS
 62
               7
100
AcDbLine
 10
23.5
 20
-26.0
 30
0.0
 11
17.5
 21
-26.0
 31
0.0
  0
LINE
  5
132
100
AcDbEntity
  8
0
  6
CONTINUOUS
 62
               7
100
AcDbLine
 10
23.5
 20
-27.0
 30
0.0
 11
14.0
 21
-27.0
 31
0.0
  0
LINE
  5
133
100
AcDbEntity
  8
0
  6
CONTINUOUS
 62
               7
100
AcDbLine
 10
14.0
 20
-1.5
 30
0.0
 11
14.0
 21
-27.0
 31
0.0
  0
LINE
  5
134
100
AcDbEntity
  8
0
  6
CONTINUOUS
 62
               7
100
AcDbLine
 10
17.5
 20
-1.5
 30
0.0
 11
17.5
 21
-27.0
 31
0.0
  0
LINE
  5
135
100
AcDbEntity
  8
0
  6
CONTINUOUS
 62
               7
100
AcDbLine
 10
23.5
 20
-2.5
 30
0.0
 11
17.5
 21
-2.5
 31
0.0
  0
LINE
  5
136
100
AcDbEntity
  8
0
  6
CONTINUOUS
 62
               7
100
AcDbLine
 10
23.5
 20
-1.5
 30
0.0
 11
14.0
 21
-1.5
 31
0.0
  0
LINE
  5
137
100
AcDbEntity
  8
0
  6
CONTINUOUS
 62
               7
100
AcDbLine
 10
23.5
 20
2.5
 30
0.0
 11
17.5
 21
2.5
 31
0.0
  0
LINE
  5
138
100
AcDbEntity
  8
0
  6
CONTINUOUS
 62
               7
100
AcDbLine
 10
23.5
 20
1.5
 30
0.0
 11
14.0
 21
1.5
 31
0.0
  0
LINE
  5
139
100
AcDbEntity
  8
0
  6
CONTINUOUS
 62
               7
100
AcDbLine
 10
14.0
 20
27.0
 30
0.0
 11
14.0
 21
1.5
 31
0.0
  0
LINE
  5
13A
100
AcDbEntity
  8
0
  6
CONTINUOUS
 62
               7
100
AcDbLine
 10
17.5
 20
27.0
 30
0.0
 11
17.5
 21
1.5
 31
0.0
  0
LINE
  5
13B
100
AcDbEntity
  8
0
  6
CONTINUOUS
 62
               7
100
AcDbLine
 10
23.5
 20
26.0
 30
0.0
 11
17.5
 21
26.0
 31
0.0
  0
LINE
  5
13C
100
AcDbEntity
  8
0
  6
CONTINUOUS
 62
               7
100
AcDbLine
 10
23.5
 20
27.0
 30
0.0
 11
14.0
 21
27.0
 31
0.0
  0
LINE
  5
13D
100
AcDbEntity
  8
0
  6
CONTINUOUS
 62
               7
100
AcDbLine
 10
-23.5
 20
-26.0
 30
0.0
 11
-17.5
 21
-26.0
 31
0.0
  0
LINE
  5
13E
100
AcDbEntity
  8
0
  6
CONTINUOUS
 62
               7
100
AcDbLine
 10
-23.5
 20
26.0
 30
0.0
 11
-17.5
 21
26.0
 31
0.0
  0
CIRCLE
  5
13F
100
AcDbEntity
  8
0
  6
CONTINUOUS
 62
               7
100
AcDbCircle
 10
0.0
 20
0.0
 30
0.0
 40
6.0
  0
LINE
  5
140
100
AcDbEntity
  8
0
  6
CONTINUOUS
 62
               7
100
AcDbLine
 10
-17.5
 20
-1.5
 30
0.0
 11
-17.5
 21
-27.0
 31
0.0
  0
LINE
  5
141
100
AcDbEntity
  8
0
  6
CONTINUOUS
 62
               7
100
AcDbLine
 10
-14.0
 20
-1.5
 30
0.0
 11
-14.0
 21
-27.0
 31
0.0
  0
LINE
  5
142
100
AcDbEntity
  8
0
  6
CONTINUOUS
 62
               7
100
AcDbLine
 10
-14.0
 20
27.0
 30
0.0
 11
-14.0
 21
1.5
 31
0.0
  0
LINE
  5
143
100
AcDbEntity
  8
0
  6
CONTINUOUS
 62
               7
100
AcDbLine
 10
-17.5
 20
27.0
 30
0.0
 11
-17.5
 21
1.5
 31
0.0
  0
ARC
  5
144
100
AcDbEntity
  8
0
  6
CONTINUOUS
 62
               7
100
AcDbCircle
 10
19.5
 20
-28.0
 30
0.0
 40
4.0
100
AcDbArc
 50
270.00000000000023
 51
0.0
  0
ARC
  5
145
100
AcDbEntity
  8
0
  6
CONTINUOUS
 62
               7
100
AcDbCircle
 10
17.0
 20
-37.0
 30
0.0
 40
4.0
100
AcDbArc
 50
269.99999999999937
 51
0.0
  0
ARC
  5
146
100
AcDbEntity
  8
0
  6
CONTINUOUS
 62
               7
100
AcDbCircle
 10
-17.0
 20
-37.0
 30
0.0
 40
4.0
100
AcDbArc
 50
179.99999999999963
 51
269.99999999999937
  0
ARC
  5
147
100
AcDbEntity
  8
0
  6
CONTINUOUS
 62
               7
100
AcDbCircle
 10
-19.5
 20
-28.0
 30
0.0
 40
4.0
100
AcDbArc
 50
179.99999999999963
 51
269.99999999999937
  0
ARC
  5
148
100
AcDbEntity
  8
0
  6
CONTINUOUS
 62
               7
100
AcDbCircle
 10
-19.5
 20
28.0
 30
0.0
 40
4.0
100
AcDbArc
 50
89.999999999999815
 51
179.99999999999963
  0
ARC
  5
149
100
AcDbEntity
  8
0
  6
CONTINUOUS
 62
               7
100
AcDbCircle
 10
19.5
 20
28.0
 30
0.0
 40
4.0
100
AcDbArc
 50
0.0
 51
89.999999999999815
  0
ARC
  5
14A
100
AcDbEntity
  8
0
  6
CONTINUOUS
 62
               7
100
AcDbCircle
 10
17.0
 20
37.0
 30
0.0
 40
4.0
100
AcDbArc
 50
0.0
 51
89.999999999999815
  0
ARC
  5
14B
100
AcDbEntity
  8
0
  6
CONTINUOUS
 62
               7
100
AcDbCircle
 10
-17.0
 20
37.0
 30
0.0
 40
4.0
100
AcDbArc
 50
89.999999999999815
 51
179.99999999999963
  0
LINE
  5
14C
100
AcDbEntity
  8
0
  6
CONTINUOUS
 62
               7
100
AcDbLine
 10
-23.5
 20
-2.5
 30
0.0
 11
-17.5
 21
-2.5
 31
0.0
  0
LINE
  5
14D
100
AcDbEntity
  8
0
  6
CONTINUOUS
 62
               7
100
AcDbLine
 10
-23.5
 20
2.5
 30
0.0
 11
-17.5
 21
2.5
 31
0.0
  0
LINE
  5
14E
100
AcDbEntity
  8
0
  6
CONTINUOUS
 62
               7
100
AcDbLine
 10
-23.5
 20
-1.5
 30
0.0
 11
-14.0
 21
-1.5
 31
0.0
  0
LINE
  5
14F
100
AcDbEntity
  8
0
  6
CONTINUOUS
 62
               7
100
AcDbLine
 10
-23.5
 20
1.5
 30
0.0
 11
-14.0
 21
1.5
 31
0.0
  0
LINE
  5
150
100
AcDbEntity
  8
0
  6
CONTINUOUS
 62
               7
100
AcDbLine
 10
21.0
 20
-37.0
 30
0.0
 11
21.0
 21
-31.708099243547821
 31
0.0
  0
LINE
  5
151
100
AcDbEntity
  8
0
  6
CONTINUOUS
 62
               7
100
AcDbLine
 10
-21.0
 20
-37.0
 30
0.0
 11
-21.0
 21
-31.708099243547821
 31
0.0
  0
LINE
  5
152
100
AcDbEntity
  8
0
  6
CONTINUOUS
 62
               7
100
AcDbLine
 10
-21.0
 20
37.0
 30
0.0
 11
-21.0
 21
31.708099243547835
 31
0.0
  0
LINE
  5
153
100
AcDbEntity
  8
0
  6
CONTINUOUS
 62
               7
100
AcDbLine
 10
21.0
 20
37.0
 30
0.0
 11
21.0
 21
31.708099243547835
 31
0.0
  0
LINE
  5
154
100
AcDbEntity
  8
0
  6
CONTINUOUS
 62
               7
100
AcDbLine
 10
-17.0
 20
41.0
 30
0.0
 11
17.0
 21
41.0
 31
0.0
  0
LINE
  5
155
100
AcDbEntity
  8
0
  6
CONTINUOUS
 62
               7
100
AcDbLine
 10
-17.0
 20
-41.0
 30
0.0
 11
17.0
 21
-41.0
 31
0.0
  0
LINE
  5
156
100
AcDbEntity
  8
0
  6
CONTINUOUS
 62
               7
100
AcDbLine
 10
-23.5
 20
-27.0
 30
0.0
 11
-14.0
 21
-27.0
 31
0.0
  0
LINE
  5
157
100
AcDbEntity
  8
0
  6
CONTINUOUS
 62
               7
100
AcDbLine
 10
-23.5
 20
27.0
 30
0.0
 11
-14.0
 21
27.0
 31
0.0
  0
LINE
  5
158
100
AcDbEntity
  8
0
  6
CONTINUOUS
 62
               7
100
AcDbLine
 10
-19.5
 20
-32.0
 30
0.0
 11
19.5
 21
-32.0
 31
0.0
  0
LINE
  5
159
100
AcDbEntity
  8
0
  6
CONTINUOUS
 62
               7
100
AcDbLine
 10
-19.5
 20
32.0
 30
0.0
 11
19.5
 21
32.0
 31
0.0
  0
LINE
  5
15A
100
AcDbEntity
  8
0
  6
CONTINUOUS
 62
               7
100
AcDbLine
 10
-23.5
 20
28.0
 30
0.0
 11
-23.5
 21
-28.0
 31
0.0
  0
LINE
  5
15B
100
AcDbEntity
  8
0
  6
CONTINUOUS
 62
               7
100
AcDbLine
 10
23.5
 20
28.0
 30
0.0
 11
23.5
 21
-28.0
 31
0.0
  0
LINE
  5
15C
100
AcDbEntity
  8
0
  6
CONTINUOUS
 62
               7
100
AcDbLine
 10
1.3535533905932766
 20
0.6464466094067518
 30
0.0
 11
0.7071067811865532
 21
0.0000000000000284
 31
0.0
  0
ENDBLK
  5
15D
100
AcDbEntity
  8
0
100
AcDbBlockEnd
  0
BLOCK
  5
15E
100
AcDbEntity
  8
0
100
AcDbBlockBegin
  2
DTRY-ELG01-4
 70
               0
 10
0.0
 20
0.0
 30
0.0
  3
DTRY-ELG01-4
  1

  0
LINE
  5
15F
100
AcDbEntity
  8
0
  6
CONTINUOUS
 62
               7
100
AcDbLine
 10
33.75
 20
-3.0
 30
0.0
 11
46.25
 21
-3.0
 31
0.0
  0
LINE
  5
160
100
AcDbEntity
  8
0
  6
CONTINUOUS
 62
               7
100
AcDbLine
 10
35.0
 20
0.0
 30
0.0
 11
45.0
 21
0.0
 31
0.0
  0
LINE
  5
161
100
AcDbEntity
  8
0
  6
CONTINUOUS
 62
               7
100
AcDbLine
 10
45.5
 20
-3.0
 30
0.0
 11
45.0
 21
0.0
 31
0.0
  0
LINE
  5
162
100
AcDbEntity
  8
0
  6
CONTINUOUS
 62
               7
100
AcDbLine
 10
34.5
 20
-3.0
 30
0.0
 11
35.0
 21
0.0
 31
0.0
  0
LINE
  5
163
100
AcDbEntity
  8
0
  6
CONTINUOUS
 62
               7
100
AcDbLine
 10
33.75
 20
-3.5
 30
0.0
 11
33.75
 21
-3.0
 31
0.0
  0
LINE
  5
164
100
AcDbEntity
  8
0
  6
CONTINUOUS
 62
               7
100
AcDbLine
 10
46.25
 20
-3.5
 30
0.0
 11
46.25
 21
-3.0
 31
0.0
  0
LINE
  5
165
100
AcDbEntity
  8
0
  6
CONTINUOUS
 62
               7
100
AcDbLine
 10
-46.25
 20
-3.5
 30
0.0
 11
-46.25
 21
-3.0
 31
0.0
  0
LINE
  5
166
100
AcDbEntity
  8
0
  6
CONTINUOUS
 62
               7
100
AcDbLine
 10
-33.75
 20
-3.5
 30
0.0
 11
-33.75
 21
-3.0
 31
0.0
  0
LINE
  5
167
100
AcDbEntity
  8
0
  6
CONTINUOUS
 62
               7
100
AcDbLine
 10
-34.5
 20
-3.0
 30
0.0
 11
-35.0
 21
0.0
 31
0.0
  0
LINE
  5
168
100
AcDbEntity
  8
0
  6
CONTINUOUS
 62
               7
100
AcDbLine
 10
-45.5
 20
-3.0
 30
0.0
 11
-45.0
 21
0.0
 31
0.0
  0
LINE
  5
169
100
AcDbEntity
  8
0
  6
CONTINUOUS
 62
               7
100
AcDbLine
 10
-35.0
 20
0.0
 30
0.0
 11
-45.0
 21
0.0
 31
0.0
  0
LINE
  5
16A
100
AcDbEntity
  8
0
  6
CONTINUOUS
 62
               7
100
AcDbLine
 10
-33.75
 20
-3.0
 30
0.0
 11
-46.25
 21
-3.0
 31
0.0
  0
LINE
  5
16B
100
AcDbEntity
  8
0
  6
CENTER
 62
               2
100
AcDbLine
 10
0.0
 20
10.653801801801819
 30
0.0
 11
0.0
 21
-76.749585585585578
 31
0.0
  0
LINE
  5
16C
100
AcDbEntity
  8
0
  6
CONTINUOUS
 62
               7
100
AcDbLine
 10
-50.0
 20
-0.5
 30
0.0
 11
-48.400000000000006
 21
-0.5
 31
0.0
  0
LINE
  5
16D
100
AcDbEntity
  8
0
  6
CONTINUOUS
 62
               7
100
AcDbLine
 10
-42.400000000000006
 20
-67.0
 30
0.0
 11
42.400000000000006
 21
-67.0
 31
0.0
  0
LINE
  5
16E
100
AcDbEntity
  8
0
  6
CONTINUOUS
 62
               7
100
AcDbLine
 10
50.0
 20
-59.400000000000006
 30
0.0
 11
50.0
 21
-0.5
 31
0.0
  0
LINE
  5
16F
100
AcDbEntity
  8
0
  6
CONTINUOUS
 62
               7
100
AcDbLine
 10
-50.0
 20
-59.400000000000006
 30
0.0
 11
-50.0
 21
-0.5
 31
0.0
  0
LINE
  5
170
100
AcDbEntity
  8
0
  6
CONTINUOUS
 62
               7
100
AcDbLine
 10
-42.400000000000006
 20
-65.400000000000006
 30
0.0
 11
42.400000000000006
 21
-65.400000000000006
 31
0.0
  0
LINE
  5
171
100
AcDbEntity
  8
0
  6
CONTINUOUS
 62
               7
100
AcDbLine
 10
48.400000000000006
 20
-59.400000000000006
 30
0.0
 11
48.400000000000006
 21
-0.5
 31
0.0
  0
LINE
  5
172
100
AcDbEntity
  8
0
  6
CONTINUOUS
 62
               7
100
AcDbLine
 10
-48.400000000000006
 20
-59.400000000000006
 30
0.0
 11
-48.400000000000006
 21
-0.5
 31
0.0
  0
LINE
  5
173
100
AcDbEntity
  8
0
  6
CONTINUOUS
 62
               7
100
AcDbLine
 10
-48.400000000000006
 20
-3.5
 30
0.0
 11
48.400000000000006
 21
-3.5
 31
0.0
  0
LINE
  5
174
100
AcDbEntity
  8
0
  6
CONTINUOUS
 62
               7
100
AcDbLine
 10
48.400000000000006
 20
-0.5
 30
0.0
 11
50.0
 21
-0.5
 31
0.0
  0
ARC
  5
175
100
AcDbEntity
  8
0
  6
CONTINUOUS
 62
               7
100
AcDbCircle
 10
42.400000000000006
 20
-59.400000000000006
 30
0.0
 40
6.0
100
AcDbArc
 50
270.00000000000023
 51
0.0
  0
ARC
  5
176
100
AcDbEntity
  8
0
  6
CONTINUOUS
 62
               7
100
AcDbCircle
 10
-42.400000000000006
 20
-59.400000000000006
 30
0.0
 40
6.0
100
AcDbArc
 50
179.99999999999963
 51
269.99999999999937
  0
ARC
  5
177
100
AcDbEntity
  8
0
  6
CONTINUOUS
 62
               7
100
AcDbCircle
 10
42.400000000000006
 20
-59.400000000000006
 30
0.0
 40
7.5999999999999996
100
AcDbArc
 50
269.99999999999937
 51
0.0
  0
ARC
  5
178
100
AcDbEntity
  8
0
  6
CONTINUOUS
 62
               7
100
AcDbCircle
 10
-42.400000000000006
 20
-59.400000000000006
 30
0.0
 40
7.5999999999999996
100
AcDbArc
 50
179.99999999999963
 51
269.99999999999937
  0
LINE
  5
179
100
AcDbEntity
  8
0
  6
CENTER
 62
               2
100
AcDbLine
 10
-34.0
 20
-6.7821461663428693
 30
0.0
 11
-34.0
 21
-61.658191563568607
 31
0.0
  0
LINE
  5
17A
100
AcDbEntity
  8
0
  6
CENTER
 62
               2
100
AcDbLine
 10
-45.892363314133775
 20
-35.099999999999994
 30
0.0
 11
-22.491767378980455
 21
-35.099999999999994
 31
0.0
  0
LINE
  5
17B
100
AcDbEntity
  8
0
  6
CENTER
 62
               2
100
AcDbLine
 10
31.0
 20
-13.599999999999994
 30
0.0
 11
31.0
 21
-36.599999999999994
 31
0.0
  0
LINE
  5
17C
100
AcDbEntity
  8
0
  6
CENTER
 62
               2
100
AcDbLine
 10
18.185045423776359
 20
-25.099999999999994
 30
0.0
 11
43.814954576223641
 21
-25.099999999999994
 31
0.0
  0
CIRCLE
  5
17D
100
AcDbEntity
  8
0
  6
CONTINUOUS
 62
               7
100
AcDbCircle
 10
31.0
 20
-25.099999999999994
 30
0.0
 40
8.5
  0
LINE
  5
17E
100
AcDbEntity
  8
0
  6
CONTINUOUS
 62
               7
100
AcDbLine
 10
40.814954576223641
 20
-25.099999999999994
 30
0.0
 11
35.907477288111807
 21
-16.599999999999994
 31
0.0
  0
LINE
  5
17F
100
AcDbEntity
  8
0
  6
CONTINUOUS
 62
               7
100
AcDbLine
 10
31.0
 20
-16.599999999999994
 30
0.0
 11
35.907477288111821
 21
-16.599999999999994
 31
0.0
  0
LINE
  5
180
100
AcDbEntity
  8
0
  6
CONTINUOUS
 62
               7
100
AcDbLine
 10
31.0
 20
-16.599999999999994
 30
0.0
 11
26.092522711888193
 21
-16.599999999999994
 31
0.0
  0
LINE
  5
181
100
AcDbEntity
  8
0
  6
CONTINUOUS
 62
               7
100
AcDbLine
 10
21.185045423776359
 20
-25.099999999999994
 30
0.0
 11
26.092522711888193
 21
-16.599999999999994
 31
0.0
  0
LINE
  5
182
100
AcDbEntity
  8
0
  6
CONTINUOUS
 62
               7
100
AcDbLine
 10
40.814954576223641
 20
-25.099999999999994
 30
0.0
 11
35.907477288111807
 21
-33.599999999999994
 31
0.0
  0
LINE
  5
183
100
AcDbEntity
  8
0
  6
CONTINUOUS
 62
               7
100
AcDbLine
 10
31.0
 20
-33.599999999999994
 30
0.0
 11
35.907477288111821
 21
-33.599999999999994
 31
0.0
  0
LINE
  5
184
100
AcDbEntity
  8
0
  6
CONTINUOUS
 62
               7
100
AcDbLine
 10
31.0
 20
-33.599999999999994
 30
0.0
 11
26.092522711888193
 21
-33.599999999999994
 31
0.0
  0
LINE
  5
185
100
AcDbEntity
  8
0
  6
CONTINUOUS
 62
               7
100
AcDbLine
 10
21.185045423776359
 20
-25.099999999999994
 30
0.0
 11
26.092522711888193
 21
-33.599999999999994
 31
0.0
  0
CIRCLE
  5
186
100
AcDbEntity
  8
0
  6
CONTINUOUS
 62
               7
100
AcDbCircle
 10
31.0
 20
-25.099999999999994
 30
0.0
 40
3.0
  0
CIRCLE
  5
187
100
AcDbEntity
  8
0
  6
CONTINUOUS
 62
               7
100
AcDbCircle
 10
31.0
 20
-25.099999999999994
 30
0.0
 40
6.0
  0
CIRCLE
  5
188
100
AcDbEntity
  8
0
  6
CONTINUOUS
 62
               7
100
AcDbCircle
 10
31.0
 20
-25.099999999999994
 30
0.0
 40
7.0
  0
LINE
  5
189
100
AcDbEntity
  8
0
  6
CONTINUOUS
 62
               7
100
AcDbLine
 10
50.0
 20
-29.699999999999989
 30
0.0
 11
51.256327994198585
 21
-29.699999999999989
 31
0.0
  0
LINE
  5
18A
100
AcDbEntity
  8
0
  6
CONTINUOUS
 62
               7
100
AcDbLine
 10
50.0
 20
-36.300000000000011
 30
0.0
 11
51.256327994198585
 21
-36.300000000000011
 31
0.0
  0
LINE
  5
18B
100
AcDbEntity
  8
0
  6
CENTER
 62
               2
100
AcDbLine
 10
54.6190305715552
 20
-33.0
 30
0.0
 11
47.691307044749692
 21
-33.0
 31
0.0
  0
ARC
  5
18C
100
AcDbEntity
  8
0
  6
CONTINUOUS
 62
               7
100
AcDbCircle
 10
47.5
 20
-33.0
 30
0.0
 40
5.0
100
AcDbArc
 50
318.70012720829328
 51
41.299872791705887
  0
LINE
  5
18D
100
AcDbEntity
  8
0
  6
CONTINUOUS
 62
               7
100
AcDbLine
 10
51.256327994198585
 20
-36.300000000000011
 30
0.0
 11
51.256327994198585
 21
-29.699999999999989
 31
0.0
  0
LINE
  5
18E
100
AcDbEntity
  8
0
  6
CONTINUOUS
 62
               7
100
AcDbLine
 10
-50.0
 20
-29.699999999999989
 30
0.0
 11
-51.256327994198585
 21
-29.699999999999989
 31
0.0
  0
LINE
  5
18F
100
AcDbEntity
  8
0
  6
CONTINUOUS
 62
               7
100
AcDbLine
 10
-50.0
 20
-36.300000000000011
 30
0.0
 11
-51.256327994198585
 21
-36.300000000000011
 31
0.0
  0
LINE
  5
190
100
AcDbEntity
  8
0
  6
CENTER
 62
               2
100
AcDbLine
 10
-54.619030571555186
 20
-33.0
 30
0.0
 11
-47.691307044749692
 21
-33.0
 31
0.0
  0
LINE
  5
191
100
AcDbEntity
  8
0
  6
CONTINUOUS
 62
               7
100
AcDbLine
 10
-51.256327994198585
 20
-36.300000000000011
 30
0.0
 11
-51.256327994198585
 21
-29.699999999999989
 31
0.0
  0
ARC
  5
192
100
AcDbEntity
  8
0
  6
CONTINUOUS
 62
               7
100
AcDbCircle
 10
-47.5
 20
-33.0
 30
0.0
 40
5.0
100
AcDbArc
 50
138.70012720829371
 51
221.2998727917055
  0
LINE
  5
193
100
AcDbEntity
  8
0
  6
CONTINUOUS
 62
               7
100
AcDbLine
 10
-29.0
 20
-14.599999999999994
 30
0.0
 11
-29.0
 21
-22.099999999999994
 31
0.0
  0
LINE
  5
194
100
AcDbEntity
  8
0
  6
CONTINUOUS
 62
               7
100
AcDbLine
 10
-39.0
 20
-14.599999999999994
 30
0.0
 11
-39.0
 21
-22.099999999999994
 31
0.0
  0
LINE
  5
195
100
AcDbEntity
  8
0
  6
CONTINUOUS
 62
               7
100
AcDbLine
 10
-26.0
 20
-22.099999999999994
 30
0.0
 11
-26.0
 21
-26.099999999999994
 31
0.0
  0
LINE
  5
196
100
AcDbEntity
  8
0
  6
CONTINUOUS
 62
               7
100
AcDbLine
 10
-42.0
 20
-22.099999999999994
 30
0.0
 11
-42.0
 21
-26.099999999999994
 31
0.0
  0
LINE
  5
197
100
AcDbEntity
  8
0
  6
CONTINUOUS
 62
               7
100
AcDbLine
 10
-42.5
 20
-14.599999999999994
 30
0.0
 11
-25.5
 21
-14.599999999999994
 31
0.0
  0
LINE
  5
198
100
AcDbEntity
  8
0
  6
CONTINUOUS
 62
               7
100
AcDbLine
 10
-42.5
 20
-55.599999999999994
 30
0.0
 11
-25.5
 21
-55.599999999999994
 31
0.0
  0
LINE
  5
199
100
AcDbEntity
  8
0
  6
CENTER
 62
               2
100
AcDbLine
 10
-45.892363314133775
 20
-18.599999999999994
 30
0.0
 11
-22.491767378980455
 21
-18.599999999999994
 31
0.0
  0
LINE
  5
19A
100
AcDbEntity
  8
0
  6
CENTER
 62
               2
100
AcDbLine
 10
-45.892363314133775
 20
-51.599999999999994
 30
0.0
 11
-22.491767378980455
 21
-51.599999999999994
 31
0.0
  0
LINE
  5
19B
100
AcDbEntity
  8
0
  6
CENTER
 62
               2
100
AcDbLine
 10
-45.892363314133775
 20
-29.599999999999994
 30
0.0
 11
-22.491767378980455
 21
-29.599999999999994
 31
0.0
  0
LINE
  5
19C
100
AcDbEntity
  8
0
  6
CENTER
 62
               2
100
AcDbLine
 10
-45.892363314133775
 20
-40.599999999999994
 30
0.0
 11
-22.491767378980455
 21
-40.599999999999994
 31
0.0
  0
LINE
  5
19D
100
AcDbEntity
  8
0
  6
CONTINUOUS
 62
               7
100
AcDbLine
 10
-42.0
 20
-26.099999999999994
 30
0.0
 11
-26.0
 21
-26.099999999999994
 31
0.0
  0
LINE
  5
19E
100
AcDbEntity
  8
0
  6
CONTINUOUS
 62
               7
100
AcDbLine
 10
-42.0
 20
-33.099999999999994
 30
0.0
 11
-26.0
 21
-33.099999999999994
 31
0.0
  0
LINE
  5
19F
100
AcDbEntity
  8
0
  6
CONTINUOUS
 62
               7
100
AcDbLine
 10
-42.0
 20
-37.099999999999994
 30
0.0
 11
-26.0
 21
-37.099999999999994
 31
0.0
  0
LINE
  5
1A0
100
AcDbEntity
  8
0
  6
CONTINUOUS
 62
               7
100
AcDbLine
 10
-42.0
 20
-44.099999999999994
 30
0.0
 11
-26.0
 21
-44.099999999999994
 31
0.0
  0
LINE
  5
1A1
100
AcDbEntity
  8
0
  6
CONTINUOUS
 62
               7
100
AcDbLine
 10
-30.5
 20
-26.099999999999994
 30
0.0
 11
-30.5
 21
-33.099999999999994
 31
0.0
  0
LINE
  5
1A2
100
AcDbEntity
  8
0
  6
CONTINUOUS
 62
               7
100
AcDbLine
 10
-37.5
 20
-26.099999999999994
 30
0.0
 11
-37.5
 21
-33.099999999999994
 31
0.0
  0
LINE
  5
1A3
100
AcDbEntity
  8
0
  6
CONTINUOUS
 62
               7
100
AcDbLine
 10
-37.5
 20
-37.099999999999994
 30
0.0
 11
-37.5
 21
-44.099999999999994
 31
0.0
  0
LINE
  5
1A4
100
AcDbEntity
  8
0
  6
CONTINUOUS
 62
               7
100
AcDbLine
 10
-30.5
 20
-37.099999999999994
 30
0.0
 11
-30.5
 21
-44.099999999999994
 31
0.0
  0
LINE
  5
1A5
100
AcDbEntity
  8
0
  6
CONTINUOUS
 62
               7
100
AcDbLine
 10
-42.0
 20
-22.099999999999994
 30
0.0
 11
-26.0
 21
-22.099999999999994
 31
0.0
  0
LINE
  5
1A6
100
AcDbEntity
  8
0
  6
CONTINUOUS
 62
               7
100
AcDbLine
 10
-42.0
 20
-48.099999999999994
 30
0.0
 11
-26.0
 21
-48.099999999999994
 31
0.0
  0
LINE
  5
1A7
100
AcDbEntity
  8
0
  6
CONTINUOUS
 62
               7
100
AcDbLine
 10
-39.0
 20
-26.099999999999994
 30
0.0
 11
-39.0
 21
-33.099999999999994
 31
0.0
  0
LINE
  5
1A8
100
AcDbEntity
  8
0
  6
CONTINUOUS
 62
               7
100
AcDbLine
 10
-29.0
 20
-26.099999999999994
 30
0.0
 11
-29.0
 21
-33.099999999999994
 31
0.0
  0
LINE
  5
1A9
100
AcDbEntity
  8
0
  6
CONTINUOUS
 62
               7
100
AcDbLine
 10
-42.0
 20
-33.099999999999994
 30
0.0
 11
-42.0
 21
-37.099999999999994
 31
0.0
  0
LINE
  5
1AA
100
AcDbEntity
  8
0
  6
CONTINUOUS
 62
               7
100
AcDbLine
 10
-26.0
 20
-33.099999999999994
 30
0.0
 11
-26.0
 21
-37.099999999999994
 31
0.0
  0
LINE
  5
1AB
100
AcDbEntity
  8
0
  6
CONTINUOUS
 62
               7
100
AcDbLine
 10
-29.0
 20
-37.099999999999994
 30
0.0
 11
-29.0
 21
-44.099999999999994
 31
0.0
  0
LINE
  5
1AC
100
AcDbEntity
  8
0
  6
CONTINUOUS
 62
               7
100
AcDbLine
 10
-39.0
 20
-37.099999999999994
 30
0.0
 11
-39.0
 21
-44.099999999999994
 31
0.0
  0
LINE
  5
1AD
100
AcDbEntity
  8
0
  6
CONTINUOUS
 62
               7
100
AcDbLine
 10
-26.0
 20
-44.099999999999994
 30
0.0
 11
-26.0
 21
-48.099999999999994
 31
0.0
  0
LINE
  5
1AE
100
AcDbEntity
  8
0
  6
CONTINUOUS
 62
               7
100
AcDbLine
 10
-42.0
 20
-44.099999999999994
 30
0.0
 11
-42.0
 21
-48.099999999999994
 31
0.0
  0
LINE
  5
1AF
100
AcDbEntity
  8
0
  6
CONTINUOUS
 62
               7
100
AcDbLine
 10
-29.0
 20
-48.099999999999994
 30
0.0
 11
-29.0
 21
-55.599999999999994
 31
0.0
  0
LINE
  5
1B0
100
AcDbEntity
  8
0
  6
CONTINUOUS
 62
               7
100
AcDbLine
 10
-39.0
 20
-48.099999999999994
 30
0.0
 11
-39.0
 21
-55.599999999999994
 31
0.0
  0
CIRCLE
  5
1B1
100
AcDbEntity
  8
0
  6
CONTINUOUS
 62
               7
100
AcDbCircle
 10
-34.0
 20
-51.599999999999994
 30
0.0
 40
2.7999999999999998
  0
CIRCLE
  5
1B2
100
AcDbEntity
  8
0
  6
CONTINUOUS
 62
               7
100
AcDbCircle
 10
-34.0
 20
-40.599999999999994
 30
0.0
 40
2.7999999999999998
  0
CIRCLE
  5
1B3
100
AcDbEntity
  8
0
  6
CONTINUOUS
 62
               7
100
AcDbCircle
 10
-34.0
 20
-29.599999999999994
 30
0.0
 40
2.7999999999999998
  0
CIRCLE
  5
1B4
100
AcDbEntity
  8
0
  6
CONTINUOUS
 62
               7
100
AcDbCircle
 10
-34.0
 20
-18.599999999999994
 30
0.0
 40
2.7999999999999998
  0
LINE
  5
1B5
100
AcDbEntity
  8
0
  6
CONTINUOUS
 62
               7
100
AcDbLine
 10
-34.0
 20
-50.89289321881347
 30
0.0
 11
-34.646446609406723
 21
-50.246446609406746
 31
0.0
  0
ARC
  5
1B6
100
AcDbEntity
  8
0
  6
CONTINUOUS
 62
               7
100
AcDbCircle
 10
-34.0
 20
-51.600000000000023
 30
0.0
 40
1.5
100
AcDbArc
 50
115.52877936550891
 51
154.47122063449049
  0
LINE
  5
1B7
100
AcDbEntity
  8
0
  6
CONTINUOUS
 62
               7
100
AcDbLine
 10
-34.707106781186553
 20
-51.600000000000023
 30
0.0
 11
-35.353553390593277
 21
-50.953553390593299
 31
0.0
  0
LINE
  5
1B8
100
AcDbEntity
  8
0
  6
CONTINUOUS
 62
               7
100
AcDbLine
 10
-35.353553390593277
 20
-52.246446609406746
 30
0.0
 11
-34.707106781186553
 21
-51.600000000000023
 31
0.0
  0
ARC
  5
1B9
100
AcDbEntity
  8
0
  6
CONTINUOUS
 62
               7
100
AcDbCircle
 10
-34.0
 20
-51.600000000000023
 30
0.0
 40
1.5
100
AcDbArc
 50
205.52877936550871
 51
244.47122063449027
  0
LINE
  5
1BA
100
AcDbEntity
  8
0
  6
CONTINUOUS
 62
               7
100
AcDbLine
 10
-34.646446609406723
 20
-52.953553390593299
 30
0.0
 11
-34.0
 21
-52.307106781186576
 31
0.0
  0
LINE
  5
1BB
100
AcDbEntity
  8
0
  6
CONTINUOUS
 62
               7
100
AcDbLine
 10
-33.353553390593277
 20
-52.953553390593299
 30
0.0
 11
-34.0
 21
-52.307106781186576
 31
0.0
  0
ARC
  5
1BC
100
AcDbEntity
  8
0
  6
CONTINUOUS
 62
               7
100
AcDbCircle
 10
-34.0
 20
-51.600000000000023
 30
0.0
 40
1.5
100
AcDbArc
 50
295.52877936550851
 51
334.47122063449007
  0
LINE
  5
1BD
100
AcDbEntity
  8
0
  6
CONTINUOUS
 62
               7
100
AcDbLine
 10
-32.646446609406723
 20
-52.246446609406746
 30
0.0
 11
-33.292893218813447
 21
-51.600000000000023
 31
0.0
  0
LINE
  5
1BE
100
AcDbEntity
  8
0
  6
CONTINUOUS
 62
               7
100
AcDbLine
 10
-33.292893218813447
 20
-51.600000000000023
 30
0.0
 11
-32.646446609406723
 21
-50.953553390593299
 31
0.0
  0
ARC
  5
1BF
100
AcDbEntity
  8
0
  6
CONTINUOUS
 62
               7
100
AcDbCircle
 10
-34.0
 20
-51.600000000000023
 30
0.0
 40
1.5
100
AcDbArc
 50
25.528779365509106
 51
64.471220634490692
  0
LINE
  5
1C0
100
AcDbEntity
  8
0
  6
CONTINUOUS
 62
               7
100
AcDbLine
 10
-34.0
 20
-50.89289321881347
 30
0.0
 11
-33.353553390593277
 21
-50.246446609406746
 31
0.0
  0
LINE
  5
1C1
100
AcDbEntity
  8
0
  6
CONTINUOUS
 62
               7
100
AcDbLine
 10
-34.0
 20
-39.892893218813441
 30
0.0
 11
-34.646446609406723
 21
-39.246446609406718
 31
0.0
  0
ARC
  5
1C2
100
AcDbEntity
  8
0
  6
CONTINUOUS
 62
               7
100
AcDbCircle
 10
-34.0
 20
-40.599999999999994
 30
0.0
 40
1.5
100
AcDbArc
 50
115.52877936550891
 51
154.47122063449049
  0
LINE
  5
1C3
100
AcDbEntity
  8
0
  6
CONTINUOUS
 62
               7
100
AcDbLine
 10
-34.707106781186553
 20
-40.599999999999994
 30
0.0
 11
-35.353553390593277
 21
-39.953553390593271
 31
0.0
  0
LINE
  5
1C4
100
AcDbEntity
  8
0
  6
CONTINUOUS
 62
               7
100
AcDbLine
 10
-35.353553390593277
 20
-41.246446609406718
 30
0.0
 11
-34.707106781186553
 21
-40.599999999999994
 31
0.0
  0
ARC
  5
1C5
100
AcDbEntity
  8
0
  6
CONTINUOUS
 62
               7
100
AcDbCircle
 10
-34.0
 20
-40.599999999999994
 30
0.0
 40
1.5
100
AcDbArc
 50
205.52877936550871
 51
244.47122063449027
  0
LINE
  5
1C6
100
AcDbEntity
  8
0
  6
CONTINUOUS
 62
               7
100
AcDbLine
 10
-34.646446609406723
 20
-41.953553390593271
 30
0.0
 11
-34.0
 21
-41.307106781186548
 31
0.0
  0
LINE
  5
1C7
100
AcDbEntity
  8
0
  6
CONTINUOUS
 62
               7
100
AcDbLine
 10
-33.353553390593277
 20
-41.953553390593271
 30
0.0
 11
-34.0
 21
-41.307106781186548
 31
0.0
  0
ARC
  5
1C8
100
AcDbEntity
  8
0
  6
CONTINUOUS
 62
               7
100
AcDbCircle
 10
-34.0
 20
-40.599999999999994
 30
0.0
 40
1.5
100
AcDbArc
 50
295.52877936550851
 51
334.47122063449007
  0
LINE
  5
1C9
100
AcDbEntity
  8
0
  6
CONTINUOUS
 62
               7
100
AcDbLine
 10
-32.646446609406723
 20
-41.246446609406718
 30
0.0
 11
-33.292893218813447
 21
-40.599999999999994
 31
0.0
  0
LINE
  5
1CA
100
AcDbEntity
  8
0
  6
CONTINUOUS
 62
               7
100
AcDbLine
 10
-33.292893218813447
 20
-40.599999999999994
 30
0.0
 11
-32.646446609406723
 21
-39.953553390593271
 31
0.0
  0
ARC
  5
1CB
100
AcDbEntity
  8
0
  6
CONTINUOUS
 62
               7
100
AcDbCircle
 10
-34.0
 20
-40.599999999999994
 30
0.0
 40
1.5
100
AcDbArc
 50
25.528779365509106
 51
64.471220634490692
  0
LINE
  5
1CC
100
AcDbEntity
  8
0
  6
CONTINUOUS
 62
               7
100
AcDbLine
 10
-34.0
 20
-39.892893218813441
 30
0.0
 11
-33.353553390593277
 21
-39.246446609406718
 31
0.0
  0
LINE
  5
1CD
100
AcDbEntity
  8
0
  6
CONTINUOUS
 62
               7
100
AcDbLine
 10
-34.0
 20
-28.892893218813441
 30
0.0
 11
-34.646446609406723
 21
-28.246446609406718
 31
0.0
  0
ARC
  5
1CE
100
AcDbEntity
  8
0
  6
CONTINUOUS
 62
               7
100
AcDbCircle
 10
-34.0
 20
-29.599999999999994
 30
0.0
 40
1.5
100
AcDbArc
 50
115.52877936550891
 51
154.47122063449049
  0
LINE
  5
1CF
100
AcDbEntity
  8
0
  6
CONTINUOUS
 62
               7
100
AcDbLine
 10
-34.707106781186553
 20
-29.599999999999994
 30
0.0
 11
-35.353553390593277
 21
-28.953553390593271
 31
0.0
  0
LINE
  5
1D0
100
AcDbEntity
  8
0
  6
CONTINUOUS
 62
               7
100
AcDbLine
 10
-35.353553390593277
 20
-30.246446609406718
 30
0.0
 11
-34.707106781186553
 21
-29.599999999999994
 31
0.0
  0
ARC
  5
1D1
100
AcDbEntity
  8
0
  6
CONTINUOUS
 62
               7
100
AcDbCircle
 10
-34.0
 20
-29.599999999999994
 30
0.0
 40
1.5
100
AcDbArc
 50
205.52877936550871
 51
244.47122063449027
  0
LINE
  5
1D2
100
AcDbEntity
  8
0
  6
CONTINUOUS
 62
               7
100
AcDbLine
 10
-34.646446609406723
 20
-30.953553390593271
 30
0.0
 11
-34.0
 21
-30.307106781186548
 31
0.0
  0
LINE
  5
1D3
100
AcDbEntity
  8
0
  6
CONTINUOUS
 62
               7
100
AcDbLine
 10
-33.353553390593277
 20
-30.953553390593271
 30
0.0
 11
-34.0
 21
-30.307106781186548
 31
0.0
  0
ARC
  5
1D4
100
AcDbEntity
  8
0
  6
CONTINUOUS
 62
               7
100
AcDbCircle
 10
-34.0
 20
-29.599999999999994
 30
0.0
 40
1.5
100
AcDbArc
 50
295.52877936550851
 51
334.47122063449007
  0
LINE
  5
1D5
100
AcDbEntity
  8
0
  6
CONTINUOUS
 62
               7
100
AcDbLine
 10
-32.646446609406723
 20
-30.246446609406718
 30
0.0
 11
-33.292893218813447
 21
-29.599999999999994
 31
0.0
  0
LINE
  5
1D6
100
AcDbEntity
  8
0
  6
CONTINUOUS
 62
               7
100
AcDbLine
 10
-33.292893218813447
 20
-29.599999999999994
 30
0.0
 11
-32.646446609406723
 21
-28.953553390593271
 31
0.0
  0
ARC
  5
1D7
100
AcDbEntity
  8
0
  6
CONTINUOUS
 62
               7
100
AcDbCircle
 10
-34.0
 20
-29.599999999999994
 30
0.0
 40
1.5
100
AcDbArc
 50
25.528779365509106
 51
64.471220634490692
  0
LINE
  5
1D8
100
AcDbEntity
  8
0
  6
CONTINUOUS
 62
               7
100
AcDbLine
 10
-34.0
 20
-28.892893218813441
 30
0.0
 11
-33.353553390593277
 21
-28.246446609406718
 31
0.0
  0
LINE
  5
1D9
100
AcDbEntity
  8
0
  6
CONTINUOUS
 62
               7
100
AcDbLine
 10
-34.0
 20
-17.892893218813441
 30
0.0
 11
-34.646446609406723
 21
-17.246446609406718
 31
0.0
  0
ARC
  5
1DA
100
AcDbEntity
  8
0
  6
CONTINUOUS
 62
               7
100
AcDbCircle
 10
-34.0
 20
-18.599999999999994
 30
0.0
 40
1.5
100
AcDbArc
 50
115.52877936550891
 51
154.47122063449049
  0
LINE
  5
1DB
100
AcDbEntity
  8
0
  6
CONTINUOUS
 62
               7
100
AcDbLine
 10
-34.707106781186553
 20
-18.599999999999994
 30
0.0
 11
-35.353553390593277
 21
-17.953553390593271
 31
0.0
  0
LINE
  5
1DC
100
AcDbEntity
  8
0
  6
CONTINUOUS
 62
               7
100
AcDbLine
 10
-35.353553390593277
 20
-19.246446609406718
 30
0.0
 11
-34.707106781186553
 21
-18.599999999999994
 31
0.0
  0
ARC
  5
1DD
100
AcDbEntity
  8
0
  6
CONTINUOUS
 62
               7
100
AcDbCircle
 10
-34.0
 20
-18.599999999999994
 30
0.0
 40
1.5
100
AcDbArc
 50
205.52877936550871
 51
244.47122063449027
  0
LINE
  5
1DE
100
AcDbEntity
  8
0
  6
CONTINUOUS
 62
               7
100
AcDbLine
 10
-34.646446609406723
 20
-19.953553390593271
 30
0.0
 11
-34.0
 21
-19.307106781186548
 31
0.0
  0
LINE
  5
1DF
100
AcDbEntity
  8
0
  6
CONTINUOUS
 62
               7
100
AcDbLine
 10
-33.353553390593277
 20
-19.953553390593271
 30
0.0
 11
-34.0
 21
-19.307106781186548
 31
0.0
  0
ARC
  5
1E0
100
AcDbEntity
  8
0
  6
CONTINUOUS
 62
               7
100
AcDbCircle
 10
-34.0
 20
-18.599999999999994
 30
0.0
 40
1.5
100
AcDbArc
 50
295.52877936550851
 51
334.47122063449007
  0
LINE
  5
1E1
100
AcDbEntity
  8
0
  6
CONTINUOUS
 62
               7
100
AcDbLine
 10
-32.646446609406723
 20
-19.246446609406718
 30
0.0
 11
-33.292893218813447
 21
-18.599999999999994
 31
0.0
  0
LINE
  5
1E2
100
AcDbEntity
  8
0
  6
CONTINUOUS
 62
               7
100
AcDbLine
 10
-33.292893218813447
 20
-18.599999999999994
 30
0.0
 11
-32.646446609406723
 21
-17.953553390593271
 31
0.0
  0
ARC
  5
1E3
100
AcDbEntity
  8
0
  6
CONTINUOUS
 62
               7
100
AcDbCircle
 10
-34.0
 20
-18.599999999999994
 30
0.0
 40
1.5
100
AcDbArc
 50
25.528779365509106
 51
64.471220634490692
  0
LINE
  5
1E4
100
AcDbEntity
  8
0
  6
CONTINUOUS
 62
               7
100
AcDbLine
 10
-34.0
 20
-17.892893218813441
 30
0.0
 11
-33.353553390593277
 21
-17.246446609406718
 31
0.0
  0
LINE
  5
1E5
100
AcDbEntity
  8
0
  6
CONTINUOUS
 62
               7
100
AcDbLine
 10
-25.5
 20
-14.599999999999994
 30
0.0
 11
-25.5
 21
-55.599999999999994
 31
0.0
  0
LINE
  5
1E6
100
AcDbEntity
  8
0
  6
CONTINUOUS
 62
               7
100
AcDbLine
 10
-42.5
 20
-14.599999999999994
 30
0.0
 11
-42.5
 21
-55.599999999999994
 31
0.0
  0
MTEXT
  5
1E7
100
AcDbEntity
  8
0
  6
CONTINUOUS
 62
               7
100
AcDbMText
 10
-13.461538448489277
 20
-23.099999999999994
 30
0.0
 40
3.0
 41
0.0
 71
               4
 72
               1
  1
\W0.923;\A1;0V
 11
-1.0
 21
0.0000000000000001
 31
0.0
  0
MTEXT
  5
1E8
100
AcDbEntity
  8
0
  6
CONTINUOUS
 62
               7
100
AcDbMText
 10
-8.9687500004675247
 20
-47.099999999999994
 30
0.0
 40
3.0
 41
0.0
 71
               4
 72
               1
  1
\W0.937;\A1;DC24V
 11
-1.0
 21
0.0000000000000001
 31
0.0
  0
MTEXT
  5
1E9
100
AcDbEntity
  8
0
  6
CONTINUOUS
 62
               7
100
AcDbMText
 10
39.391891883966956
 20
-40.099999999999994
 30
0.0
 40
3.0
 41
0.0
 71
               4
 72
               1
  1
\W1.216;\A1;AIR IN
 11
-1.0
 21
0.0000000000000001
 31
0.0
  0
ENDBLK
  5
1EA
100
AcDbEntity
  8
0
100
AcDbBlockEnd
  0
BLOCK
  5
1EB
100
AcDbEntity
  8
0
100
AcDbBlockBegin
  2
DTRY-ELG01-5
 70
               0
 10
0.0
 20
0.0
 30
0.0
  3
DTRY-ELG01-5
  1

  0
LINE
  5
1EC
100
AcDbEntity
  8
0
  6
CENTER
 62
               2
100
AcDbLine
 10
35.0
 20
33.386239818196515
 30
0.0
 11
35.0
 21
5.504001168736238
 31
0.0
  0
LINE
  5
1ED
100
AcDbEntity
  8
0
  6
CENTER
 62
               2
100
AcDbLine
 10
10.0
 20
45.171515948380772
 30
0.0
 11
10.0
 21
5.7582642160056139
 31
0.0
  0
LINE
  5
1EE
100
AcDbEntity
  8
0
  6
CENTER
 62
               2
100
AcDbLine
 10
47.704518124204355
 20
33.5
 30
0.0
 11
53.711930887842215
 21
33.5
 31
0.0
  0
LINE
  5
1EF
100
AcDbEntity
  8
0
  6
CONTINUOUS
 62
               7
100
AcDbLine
 10
50.0
 20
30.199999999999989
 30
0.0
 11
51.256327994198585
 21
30.199999999999989
 31
0.0
  0
LINE
  5
1F0
100
AcDbEntity
  8
0
  6
CONTINUOUS
 62
               7
100
AcDbLine
 10
50.0
 20
36.800000000000011
 30
0.0
 11
51.256327994198585
 21
36.800000000000011
 31
0.0
  0
ARC
  5
1F1
100
AcDbEntity
  8
0
  6
CONTINUOUS
 62
               7
100
AcDbCircle
 10
47.5
 20
33.5
 30
0.0
 40
5.0
100
AcDbArc
 50
318.70012720829413
 51
41.299872791705887
  0
LINE
  5
1F2
100
AcDbEntity
  8
0
  6
CONTINUOUS
 62
               7
100
AcDbLine
 10
51.256327994198585
 20
36.800000000000011
 30
0.0
 11
51.256327994198585
 21
30.199999999999989
 31
0.0
  0
LINE
  5
1F3
100
AcDbEntity
  8
0
  6
CONTINUOUS
 62
               7
100
AcDbLine
 10
-51.256327994198585
 20
36.800000000000011
 30
0.0
 11
-51.256327994198585
 21
30.199999999999989
 31
0.0
  0
ARC
  5
1F4
100
AcDbEntity
  8
0
  6
CONTINUOUS
 62
               7
100
AcDbCircle
 10
-47.5
 20
33.5
 30
0.0
 40
5.0
100
AcDbArc
 50
138.70012720829371
 51
221.2998727917055
  0
LINE
  5
1F5
100
AcDbEntity
  8
0
  6
CONTINUOUS
 62
               7
100
AcDbLine
 10
-50.0
 20
36.800000000000011
 30
0.0
 11
-51.256327994198585
 21
36.800000000000011
 31
0.0
  0
LINE
  5
1F6
100
AcDbEntity
  8
0
  6
CONTINUOUS
 62
               7
100
AcDbLine
 10
-50.0
 20
30.199999999999989
 30
0.0
 11
-51.256327994198585
 21
30.199999999999989
 31
0.0
  0
LINE
  5
1F7
100
AcDbEntity
  8
0
  6
CENTER
 62
               2
100
AcDbLine
 10
-47.704518124204355
 20
33.5
 30
0.0
 11
-53.711930887842215
 21
33.5
 31
0.0
  0
MTEXT
  5
1F8
100
AcDbEntity
  8
0
  6
CONTINUOUS
 62
               7
100
AcDbMText
 10
2.9333357810974121
 20
20.099999999999994
 30
0.0
 40
3.1999998092651367
 41
0.0
 71
               4
 72
               1
  1
\A1;B
  0
MTEXT
  5
1F9
100
AcDbEntity
  8
0
  6
CONTINUOUS
 62
               7
100
AcDbMText
 10
2.9333357810974121
 20
31.099999999999994
 30
0.0
 40
3.1999998092651367
 41
0.0
 71
               4
 72
               1
  1
\A1;A
  0
LINE
  5
1FA
100
AcDbEntity
  8
0
  6
CONTINUOUS
 62
               7
100
AcDbLine
 10
30.5
 20
24.0
 30
0.0
 11
39.5
 21
24.0
 31
0.0
  0
LINE
  5
1FB
100
AcDbEntity
  8
0
  6
CONTINUOUS
 62
               7
100
AcDbLine
 10
7.0
 20
28.599999999999994
 30
0.0
 11
13.0
 21
28.599999999999994
 31
0.0
  0
LINE
  5
1FC
100
AcDbEntity
  8
0
  6
CONTINUOUS
 62
               7
100
AcDbLine
 10
7.0
 20
24.599999999999994
 30
0.0
 11
13.0
 21
24.599999999999994
 31
0.0
  0
LINE
  5
1FD
100
AcDbEntity
  8
0
  6
CONTINUOUS
 62
               7
100
AcDbLine
 10
7.0
 20
26.599999999999994
 30
0.0
 11
13.0
 21
26.599999999999994
 31
0.0
  0
LINE
  5
1FE
100
AcDbEntity
  8
0
  6
CONTINUOUS
 62
               7
100
AcDbLine
 10
7.0
 20
31.099999999999994
 30
0.0
 11
7.0
 21
20.099999999999994
 31
0.0
  0
LINE
  5
1FF
100
AcDbEntity
  8
0
  6
CONTINUOUS
 62
               7
100
AcDbLine
 10
13.0
 20
31.099999999999994
 30
0.0
 11
13.0
 21
20.099999999999994
 31
0.0
  0
LINE
  5
200
100
AcDbEntity
  8
0
  6
CONTINUOUS
 62
               7
100
AcDbLine
 10
10.0
 20
38.892893218813441
 30
0.0
 11
9.3535533905932766
 21
38.246446609406718
 31
0.0
  0
ARC
  5
201
100
AcDbEntity
  8
0
  6
CONTINUOUS
 62
               7
100
AcDbCircle
 10
10.0
 20
39.599999999999994
 30
0.0
 40
1.5
100
AcDbArc
 50
205.52877936550871
 51
244.47122063449027
  0
LINE
  5
202
100
AcDbEntity
  8
0
  6
CONTINUOUS
 62
               7
100
AcDbLine
 10
9.2928932188134468
 20
39.599999999999994
 30
0.0
 11
8.6464466094067234
 21
38.953553390593271
 31
0.0
  0
LINE
  5
203
100
AcDbEntity
  8
0
  6
CONTINUOUS
 62
               7
100
AcDbLine
 10
8.6464466094067234
 20
40.246446609406718
 30
0.0
 11
9.2928932188134468
 21
39.599999999999994
 31
0.0
  0
ARC
  5
204
100
AcDbEntity
  8
0
  6
CONTINUOUS
 62
               7
100
AcDbCircle
 10
10.0
 20
39.599999999999994
 30
0.0
 40
1.5
100
AcDbArc
 50
115.52877936550891
 51
154.47122063449049
  0
LINE
  5
205
100
AcDbEntity
  8
0
  6
CONTINUOUS
 62
               7
100
AcDbLine
 10
9.3535533905932766
 20
40.953553390593271
 30
0.0
 11
10.0
 21
40.307106781186548
 31
0.0
  0
LINE
  5
206
100
AcDbEntity
  8
0
  6
CONTINUOUS
 62
               7
100
AcDbLine
 10
10.646446609406723
 20
40.953553390593271
 30
0.0
 11
10.0
 21
40.307106781186548
 31
0.0
  0
ARC
  5
207
100
AcDbEntity
  8
0
  6
CONTINUOUS
 62
               7
100
AcDbCircle
 10
10.0
 20
39.599999999999994
 30
0.0
 40
1.5
100
AcDbArc
 50
25.528779365509106
 51
64.471220634490692
  0
LINE
  5
208
100
AcDbEntity
  8
0
  6
CONTINUOUS
 62
               7
100
AcDbLine
 10
11.353553390593277
 20
40.246446609406718
 30
0.0
 11
10.707106781186553
 21
39.599999999999994
 31
0.0
  0
LINE
  5
209
100
AcDbEntity
  8
0
  6
CONTINUOUS
 62
               7
100
AcDbLine
 10
10.707106781186553
 20
39.599999999999994
 30
0.0
 11
11.353553390593277
 21
38.953553390593271
 31
0.0
  0
LINE
  5
20A
100
AcDbEntity
  8
0
  6
CONTINUOUS
 62
               7
100
AcDbLine
 10
10.0
 20
38.892893218813441
 30
0.0
 11
10.646446609406723
 21
38.246446609406718
 31
0.0
  0
ARC
  5
20B
100
AcDbEntity
  8
0
  6
CONTINUOUS
 62
               7
100
AcDbCircle
 10
10.0
 20
39.599999999999994
 30
0.0
 40
1.5
100
AcDbArc
 50
295.52877936550851
 51
334.47122063449007
  0
CIRCLE
  5
20C
100
AcDbEntity
  8
0
  6
CONTINUOUS
 62
               7
100
AcDbCircle
 10
10.0
 20
39.599999999999994
 30
0.0
 40
3.2999999999999998
  0
CIRCLE
  5
20D
100
AcDbEntity
  8
0
  6
CONTINUOUS
 62
               7
100
AcDbCircle
 10
10.0
 20
11.599999999999994
 30
0.0
 40
3.2999999999999998
  0
ARC
  5
20E
100
AcDbEntity
  8
0
  6
CONTINUOUS
 62
               7
100
AcDbCircle
 10
10.0
 20
11.599999999999994
 30
0.0
 40
1.5
100
AcDbArc
 50
295.52877936550851
 51
334.47122063449007
  0
LINE
  5
20F
100
AcDbEntity
  8
0
  6
CONTINUOUS
 62
               7
100
AcDbLine
 10
10.0
 20
10.892893218813441
 30
0.0
 11
10.646446609406723
 21
10.246446609406718
 31
0.0
  0
LINE
  5
210
100
AcDbEntity
  8
0
  6
CONTINUOUS
 62
               7
100
AcDbLine
 10
10.707106781186553
 20
11.599999999999994
 30
0.0
 11
11.353553390593277
 21
10.953553390593271
 31
0.0
  0
LINE
  5
211
100
AcDbEntity
  8
0
  6
CONTINUOUS
 62
               7
100
AcDbLine
 10
11.353553390593277
 20
12.246446609406718
 30
0.0
 11
10.707106781186553
 21
11.599999999999994
 31
0.0
  0
ARC
  5
212
100
AcDbEntity
  8
0
  6
CONTINUOUS
 62
               7
100
AcDbCircle
 10
10.0
 20
11.599999999999994
 30
0.0
 40
1.5
100
AcDbArc
 50
25.528779365509106
 51
64.471220634490692
  0
LINE
  5
213
100
AcDbEntity
  8
0
  6
CONTINUOUS
 62
               7
100
AcDbLine
 10
10.646446609406723
 20
12.953553390593271
 30
0.0
 11
10.0
 21
12.307106781186548
 31
0.0
  0
LINE
  5
214
100
AcDbEntity
  8
0
  6
CONTINUOUS
 62
               7
100
AcDbLine
 10
9.3535533905932766
 20
12.953553390593271
 30
0.0
 11
10.0
 21
12.307106781186548
 31
0.0
  0
ARC
  5
215
100
AcDbEntity
  8
0
  6
CONTINUOUS
 62
               7
100
AcDbCircle
 10
10.0
 20
11.599999999999994
 30
0.0
 40
1.5
100
AcDbArc
 50
115.52877936550891
 51
154.47122063449049
  0
LINE
  5
216
100
AcDbEntity
  8
0
  6
CONTINUOUS
 62
               7
100
AcDbLine
 10
8.6464466094067234
 20
12.246446609406718
 30
0.0
 11
9.2928932188134468
 21
11.599999999999994
 31
0.0
  0
LINE
  5
217
100
AcDbEntity
  8
0
  6
CONTINUOUS
 62
               7
100
AcDbLine
 10
9.2928932188134468
 20
11.599999999999994
 30
0.0
 11
8.6464466094067234
 21
10.953553390593271
 31
0.0
  0
ARC
  5
218
100
AcDbEntity
  8
0
  6
CONTINUOUS
 62
               7
100
AcDbCircle
 10
10.0
 20
11.599999999999994
 30
0.0
 40
1.5
100
AcDbArc
 50
205.52877936550871
 51
244.47122063449027
  0
LINE
  5
219
100
AcDbEntity
  8
0
  6
CONTINUOUS
 62
               7
100
AcDbLine
 10
10.0
 20
10.892893218813441
 30
0.0
 11
9.3535533905932766
 21
10.246446609406718
 31
0.0
  0
LINE
  5
21A
100
AcDbEntity
  8
0
  6
CENTER
 62
               2
100
AcDbLine
 10
5.1185515461407931
 20
11.599999999999994
 30
0.0
 11
15.152888239590993
 21
11.599999999999994
 31
0.0
  0
LINE
  5
21B
100
AcDbEntity
  8
0
  6
CENTER
 62
               2
100
AcDbLine
 10
4.8311057868679939
 20
39.599999999999994
 30
0.0
 11
15.152888239590993
 21
39.599999999999994
 31
0.0
  0
LINE
  5
21C
100
AcDbEntity
  8
0
  6
CONTINUOUS
 62
               7
100
AcDbLine
 10
7.0
 20
20.099999999999994
 30
0.0
 11
13.5
 21
20.099999999999994
 31
0.0
  0
LINE
  5
21D
100
AcDbEntity
  8
0
  6
CONTINUOUS
 62
               7
100
AcDbLine
 10
6.5
 20
31.099999999999994
 30
0.0
 11
13.5
 21
31.099999999999994
 31
0.0
  0
LINE
  5
21E
100
AcDbEntity
  8
0
  6
CONTINUOUS
 62
               7
100
AcDbLine
 10
6.5
 20
31.099999999999994
 30
0.0
 11
6.5
 21
20.099999999999994
 31
0.0
  0
LINE
  5
21F
100
AcDbEntity
  8
0
  6
CONTINUOUS
 62
               7
100
AcDbLine
 10
13.5
 20
31.099999999999994
 30
0.0
 11
13.5
 21
20.099999999999994
 31
0.0
  0
LINE
  5
220
100
AcDbEntity
  8
0
  6
CENTER
 62
               2
100
AcDbLine
 10
-37.567143705867977
 20
20.0
 30
0.0
 11
-26.931650612774888
 21
20.0
 31
0.0
  0
LINE
  5
221
100
AcDbEntity
  8
0
  6
CONTINUOUS
 62
               7
100
AcDbLine
 10
30.5
 20
27.0
 30
0.0
 11
30.5
 21
13.0
 31
0.0
  0
LINE
  5
222
100
AcDbEntity
  8
0
  6
CONTINUOUS
 62
               7
100
AcDbLine
 10
39.5
 20
27.0
 30
0.0
 11
39.5
 21
13.0
 31
0.0
  0
LINE
  5
223
100
AcDbEntity
  8
0
  6
CONTINUOUS
 62
               7
100
AcDbLine
 10
30.5
 20
13.0
 30
0.0
 11
39.5
 21
13.0
 31
0.0
  0
LINE
  5
224
100
AcDbEntity
  8
0
  6
CONTINUOUS
 62
               7
100
AcDbLine
 10
30.5
 20
27.0
 30
0.0
 11
39.5
 21
27.0
 31
0.0
  0
LINE
  5
225
100
AcDbEntity
  8
0
  6
CONTINUOUS
 62
               7
100
AcDbLine
 10
27.5
 20
30.5
 30
0.0
 11
27.5
 21
9.5
 31
0.0
  0
LINE
  5
226
100
AcDbEntity
  8
0
  6
CONTINUOUS
 62
               7
100
AcDbLine
 10
42.5
 20
30.5
 30
0.0
 11
42.5
 21
9.5
 31
0.0
  0
LINE
  5
227
100
AcDbEntity
  8
0
  6
CONTINUOUS
 62
               7
100
AcDbLine
 10
27.5
 20
9.5
 30
0.0
 11
42.5
 21
9.5
 31
0.0
  0
LINE
  5
228
100
AcDbEntity
  8
0
  6
CONTINUOUS
 62
               7
100
AcDbLine
 10
27.5
 20
30.5
 30
0.0
 11
42.5
 21
30.5
 31
0.0
  0
LINE
  5
229
100
AcDbEntity
  8
0
  6
CENTER
 62
               2
100
AcDbLine
 10
25.239754695235831
 20
20.0
 30
0.0
 11
44.498620566512514
 21
20.0
 31
0.0
  0
LINE
  5
22A
100
AcDbEntity
  8
0
  6
CONTINUOUS
 62
               7
100
AcDbLine
 10
-32.0
 20
19.292893218813447
 30
0.0
 11
-32.646446609406723
 21
18.646446609406723
 31
0.0
  0
ARC
  5
22B
100
AcDbEntity
  8
0
  6
CONTINUOUS
 62
               7
100
AcDbCircle
 10
-32.0
 20
20.0
 30
0.0
 40
1.5
100
AcDbArc
 50
205.52877936550871
 51
244.47122063449027
  0
LINE
  5
22C
100
AcDbEntity
  8
0
  6
CONTINUOUS
 62
               7
100
AcDbLine
 10
-32.707106781186553
 20
20.0
 30
0.0
 11
-33.353553390593277
 21
19.353553390593277
 31
0.0
  0
LINE
  5
22D
100
AcDbEntity
  8
0
  6
CONTINUOUS
 62
               7
100
AcDbLine
 10
-33.353553390593277
 20
20.646446609406723
 30
0.0
 11
-32.707106781186553
 21
20.0
 31
0.0
  0
ARC
  5
22E
100
AcDbEntity
  8
0
  6
CONTINUOUS
 62
               7
100
AcDbCircle
 10
-32.0
 20
20.0
 30
0.0
 40
1.5
100
AcDbArc
 50
115.52877936550891
 51
154.47122063449049
  0
LINE
  5
22F
100
AcDbEntity
  8
0
  6
CONTINUOUS
 62
               7
100
AcDbLine
 10
-32.646446609406723
 20
21.353553390593277
 30
0.0
 11
-32.0
 21
20.707106781186553
 31
0.0
  0
LINE
  5
230
100
AcDbEntity
  8
0
  6
CONTINUOUS
 62
               7
100
AcDbLine
 10
-31.353553390593277
 20
21.353553390593277
 30
0.0
 11
-32.0
 21
20.707106781186553
 31
0.0
  0
ARC
  5
231
100
AcDbEntity
  8
0
  6
CONTINUOUS
 62
               7
100
AcDbCircle
 10
-32.0
 20
20.0
 30
0.0
 40
1.5
100
AcDbArc
 50
25.528779365509106
 51
64.471220634490692
  0
LINE
  5
232
100
AcDbEntity
  8
0
  6
CONTINUOUS
 62
               7
100
AcDbLine
 10
-30.646446609406723
 20
20.646446609406723
 30
0.0
 11
-31.292893218813447
 21
20.0
 31
0.0
  0
LINE
  5
233
100
AcDbEntity
  8
0
  6
CONTINUOUS
 62
               7
100
AcDbLine
 10
-31.292893218813447
 20
20.0
 30
0.0
 11
-30.646446609406723
 21
19.353553390593277
 31
0.0
  0
LINE
  5
234
100
AcDbEntity
  8
0
  6
CONTINUOUS
 62
               7
100
AcDbLine
 10
-32.0
 20
19.292893218813447
 30
0.0
 11
-31.353553390593277
 21
18.646446609406723
 31
0.0
  0
ARC
  5
235
100
AcDbEntity
  8
0
  6
CONTINUOUS
 62
               7
100
AcDbCircle
 10
-32.0
 20
20.0
 30
0.0
 40
1.5
100
AcDbArc
 50
295.52877936550851
 51
334.47122063449007
  0
ARC
  5
236
100
AcDbEntity
  8
0
  6
CONTINUOUS
 62
               7
100
AcDbCircle
 10
-32.0
 20
60.0
 30
0.0
 40
1.5
100
AcDbArc
 50
205.52877936550871
 51
244.47122063449027
  0
ARC
  5
237
100
AcDbEntity
  8
0
  6
CONTINUOUS
 62
               7
100
AcDbCircle
 10
-32.0
 20
60.0
 30
0.0
 40
1.5
100
AcDbArc
 50
295.52877936550851
 51
334.47122063449007
  0
ARC
  5
238
100
AcDbEntity
  8
0
  6
CONTINUOUS
 62
               7
100
AcDbCircle
 10
-32.0
 20
60.0
 30
0.0
 40
1.5
100
AcDbArc
 50
25.528779365509106
 51
64.471220634490692
  0
LINE
  5
239
100
AcDbEntity
  8
0
  6
CONTINUOUS
 62
               7
100
AcDbLine
 10
-32.0
 20
60.707106781186553
 30
0.0
 11
-32.646446609406723
 21
61.353553390593277
 31
0.0
  0
LINE
  5
23A
100
AcDbEntity
  8
0
  6
CONTINUOUS
 62
               7
100
AcDbLine
 10
-31.292893218813447
 20
60.0
 30
0.0
 11
-30.646446609406723
 21
60.646446609406723
 31
0.0
  0
LINE
  5
23B
100
AcDbEntity
  8
0
  6
CONTINUOUS
 62
               7
100
AcDbLine
 10
-32.707106781186553
 20
60.0
 30
0.0
 11
-33.353553390593277
 21
60.646446609406723
 31
0.0
  0
LINE
  5
23C
100
AcDbEntity
  8
0
  6
CONTINUOUS
 62
               7
100
AcDbLine
 10
-32.0
 20
60.707106781186553
 30
0.0
 11
-31.353553390593277
 21
61.353553390593277
 31
0.0
  0
LINE
  5
23D
100
AcDbEntity
  8
0
  6
CONTINUOUS
 62
               7
100
AcDbLine
 10
-30.646446609406723
 20
59.353553390593277
 30
0.0
 11
-31.292893218813447
 21
60.0
 31
0.0
  0
LINE
  5
23E
100
AcDbEntity
  8
0
  6
CONTINUOUS
 62
               7
100
AcDbLine
 10
-31.353553390593277
 20
58.646446609406723
 30
0.0
 11
-32.0
 21
59.292893218813447
 31
0.0
  0
LINE
  5
23F
100
AcDbEntity
  8
0
  6
CONTINUOUS
 62
               7
100
AcDbLine
 10
-32.646446609406723
 20
58.646446609406723
 30
0.0
 11
-32.0
 21
59.292893218813447
 31
0.0
  0
LINE
  5
240
100
AcDbEntity
  8
0
  6
CONTINUOUS
 62
               7
100
AcDbLine
 10
-33.353553390593277
 20
59.353553390593277
 30
0.0
 11
-32.707106781186553
 21
60.0
 31
0.0
  0
ARC
  5
241
100
AcDbEntity
  8
0
  6
CONTINUOUS
 62
               7
100
AcDbCircle
 10
-32.0
 20
60.0
 30
0.0
 40
1.5
100
AcDbArc
 50
115.52877936550891
 51
154.47122063449049
  0
CIRCLE
  5
242
100
AcDbEntity
  8
0
  6
CONTINUOUS
 62
               7
100
AcDbCircle
 10
-32.0
 20
20.0
 30
0.0
 40
3.2999999999999998
  0
CIRCLE
  5
243
100
AcDbEntity
  8
0
  6
CONTINUOUS
 62
               7
100
AcDbCircle
 10
-32.0
 20
60.0
 30
0.0
 40
3.2999999999999998
  0
LINE
  5
244
100
AcDbEntity
  8
0
  6
CENTER
 62
               2
100
AcDbLine
 10
-37.998312344777162
 20
60.0
 30
0.0
 11
-26.931650612774888
 21
60.0
 31
0.0
  0
LINE
  5
245
100
AcDbEntity
  8
0
  6
CENTER
 62
               2
100
AcDbLine
 10
-32.0
 20
64.574104699293855
 30
0.0
 11
-32.0
 21
14.279506143981791
 31
0.0
  0
ARC
  5
246
100
AcDbEntity
  8
0
  6
CONTINUOUS
 62
               7
100
AcDbCircle
 10
-32.0
 20
40.0
 30
0.0
 40
13.0
100
AcDbArc
 50
232.61986494803961
 51
247.380135051959
  0
ARC
  5
247
100
AcDbEntity
  8
0
  6
CONTINUOUS
 62
               7
100
AcDbCircle
 10
-32.0
 20
40.0
 30
0.0
 40
13.0
100
AcDbArc
 50
172.61986494804063
 51
187.38013505195869
  0
ARC
  5
248
100
AcDbEntity
  8
0
  6
CONTINUOUS
 62
               7
100
AcDbCircle
 10
-32.0
 20
40.0
 30
0.0
 40
13.0
100
AcDbArc
 50
352.61986494803989
 51
7.380135051959372
  0
ARC
  5
249
100
AcDbEntity
  8
0
  6
CONTINUOUS
 62
               7
100
AcDbCircle
 10
-32.0
 20
40.0
 30
0.0
 40
13.0
100
AcDbArc
 50
292.61986494803978
 51
307.38013505195966
  0
ARC
  5
24A
100
AcDbEntity
  8
0
  6
CONTINUOUS
 62
               7
100
AcDbCircle
 10
-32.0
 20
40.0
 30
0.0
 40
13.0
100
AcDbArc
 50
52.619864948039677
 51
67.380135051959414
  0
ARC
  5
24B
100
AcDbEntity
  8
0
  6
CONTINUOUS
 62
               7
100
AcDbCircle
 10
-32.0
 20
40.0
 30
0.0
 40
13.0
100
AcDbArc
 50
112.61986494804017
 51
127.38013505195934
  0
CIRCLE
  5
24C
100
AcDbEntity
  8
0
  6
CONTINUOUS
 62
               7
100
AcDbCircle
 10
-32.0
 20
40.0
 30
0.0
 40
5.5
  0
CIRCLE
  5
24D
100
AcDbEntity
  8
0
  6
CONTINUOUS
 62
               7
100
AcDbCircle
 10
-32.0
 20
40.0
 30
0.0
 40
4.0
  0
LINE
  5
24E
100
AcDbEntity
  8
0
  6
CONTINUOUS
 62
               7
100
AcDbLine
 10
-19.107695154586736
 20
38.330127018922241
 30
0.0
 11
-24.107695154586622
 21
29.669872981077873
 31
0.0
  0
LINE
  5
24F
100
AcDbEntity
  8
0
  6
CONTINUOUS
 62
               7
100
AcDbLine
 10
-27.0
 20
28.0
 30
0.0
 11
-37.0
 21
28.0
 31
0.0
  0
LINE
  5
250
100
AcDbEntity
  8
0
  6
CONTINUOUS
 62
               7
100
AcDbLine
 10
-44.892304845413264
 20
38.330127018922269
 30
0.0
 11
-39.892304845413321
 21
29.669872981077845
 31
0.0
  0
LINE
  5
251
100
AcDbEntity
  8
0
  6
CONTINUOUS
 62
               7
100
AcDbLine
 10
-32.0
 20
52.0
 30
0.0
 11
-27.0
 21
52.0
 31
0.0
  0
LINE
  5
252
100
AcDbEntity
  8
0
  6
CONTINUOUS
 62
               7
100
AcDbLine
 10
-19.107695154586736
 20
41.669872981077759
 30
0.0
 11
-24.107695154586622
 21
50.330127018922099
 31
0.0
  0
LINE
  5
253
100
AcDbEntity
  8
0
  6
CONTINUOUS
 62
               7
100
AcDbLine
 10
-44.892304845413264
 20
41.669872981077702
 30
0.0
 11
-39.892304845413292
 21
50.330127018922155
 31
0.0
  0
LINE
  5
254
100
AcDbEntity
  8
0
  6
CONTINUOUS
 62
               7
100
AcDbLine
 10
-32.0
 20
52.0
 30
0.0
 11
-37.0
 21
52.0
 31
0.0
  0
LINE
  5
255
100
AcDbEntity
  8
0
  6
CONTINUOUS
 62
               7
100
AcDbLine
 10
-32.0
 20
26.0
 30
0.0
 11
-48.400000000000006
 21
26.0
 31
0.0
  0
LINE
  5
256
100
AcDbEntity
  8
0
  6
CONTINUOUS
 62
               7
100
AcDbLine
 10
-32.0
 20
54.0
 30
0.0
 11
-48.400000000000006
 21
54.0
 31
0.0
  0
ARC
  5
257
100
AcDbEntity
  8
0
  6
CONTINUOUS
 62
               7
100
AcDbCircle
 10
-32.0
 20
40.0
 30
0.0
 40
14.0
100
AcDbArc
 50
269.99999999999937
 51
89.999999999999801
  0
LINE
  5
258
100
AcDbEntity
  8
0
  6
CENTER
 62
               2
100
AcDbLine
 10
-46.909130882233541
 20
40.0
 30
0.0
 11
-16.439880399318213
 21
40.0
 31
0.0
  0
LINE
  5
259
100
AcDbEntity
  8
0
  6
CENTER
 62
               2
100
AcDbLine
 10
0.0
 20
74.9254054054054
 30
0.0
 11
0.0
 21
-3.9506822498173904
 31
0.0
  0
LINE
  5
25A
100
AcDbEntity
  8
0
  6
CONTINUOUS
 62
               7
100
AcDbLine
 10
-50.0
 20
1.0
 30
0.0
 11
-48.400000000000006
 21
1.0
 31
0.0
  0
LINE
  5
25B
100
AcDbEntity
  8
0
  6
CONTINUOUS
 62
               7
100
AcDbLine
 10
-42.400000000000006
 20
67.5
 30
0.0
 11
42.400000000000006
 21
67.5
 31
0.0
  0
LINE
  5
25C
100
AcDbEntity
  8
0
  6
CONTINUOUS
 62
               7
100
AcDbLine
 10
50.0
 20
59.900000000000006
 30
0.0
 11
50.0
 21
1.0
 31
0.0
  0
LINE
  5
25D
100
AcDbEntity
  8
0
  6
CONTINUOUS
 62
               7
100
AcDbLine
 10
-50.0
 20
59.900000000000006
 30
0.0
 11
-50.0
 21
1.0
 31
0.0
  0
LINE
  5
25E
100
AcDbEntity
  8
0
  6
CONTINUOUS
 62
               7
100
AcDbLine
 10
-42.400000000000006
 20
65.900000000000006
 30
0.0
 11
42.400000000000006
 21
65.900000000000006
 31
0.0
  0
LINE
  5
25F
100
AcDbEntity
  8
0
  6
CONTINUOUS
 62
               7
100
AcDbLine
 10
48.400000000000006
 20
59.900000000000006
 30
0.0
 11
48.400000000000006
 21
1.0
 31
0.0
  0
LINE
  5
260
100
AcDbEntity
  8
0
  6
CONTINUOUS
 62
               7
100
AcDbLine
 10
-48.400000000000006
 20
59.900000000000006
 30
0.0
 11
-48.400000000000006
 21
1.0
 31
0.0
  0
LINE
  5
261
100
AcDbEntity
  8
0
  6
CONTINUOUS
 62
               7
100
AcDbLine
 10
-48.400000000000006
 20
4.0
 30
0.0
 11
48.400000000000006
 21
4.0
 31
0.0
  0
LINE
  5
262
100
AcDbEntity
  8
0
  6
CONTINUOUS
 62
               7
100
AcDbLine
 10
48.400000000000006
 20
1.0
 30
0.0
 11
50.0
 21
1.0
 31
0.0
  0
ARC
  5
263
100
AcDbEntity
  8
0
  6
CONTINUOUS
 62
               7
100
AcDbCircle
 10
42.400000000000006
 20
59.900000000000006
 30
0.0
 40
6.0
100
AcDbArc
 50
0.0
 51
89.999999999999815
  0
ARC
  5
264
100
AcDbEntity
  8
0
  6
CONTINUOUS
 62
               7
100
AcDbCircle
 10
-42.400000000000006
 20
59.900000000000006
 30
0.0
 40
6.0
100
AcDbArc
 50
89.999999999999815
 51
179.99999999999963
  0
ARC
  5
265
100
AcDbEntity
  8
0
  6
CONTINUOUS
 62
               7
100
AcDbCircle
 10
42.400000000000006
 20
59.900000000000006
 30
0.0
 40
7.5999999999999996
100
AcDbArc
 50
0.0
 51
89.999999999999815
  0
ARC
  5
266
100
AcDbEntity
  8
0
  6
CONTINUOUS
 62
               7
100
AcDbCircle
 10
-42.400000000000006
 20
59.900000000000006
 30
0.0
 40
7.5999999999999996
100
AcDbArc
 50
89.999999999999815
 51
179.99999999999963
  0
LINE
  5
267
100
AcDbEntity
  8
0
  6
CONTINUOUS
 62
               7
100
AcDbLine
 10
-48.400000000000006
 20
3.5
 30
0.0
 11
48.400000000000006
 21
3.5
 31
0.0
  0
LINE
  5
268
100
AcDbEntity
  8
0
  6
CONTINUOUS
 62
               7
100
AcDbLine
 10
46.25
 20
3.5
 30
0.0
 11
46.25
 21
3.0
 31
0.0
  0
LINE
  5
269
100
AcDbEntity
  8
0
  6
CONTINUOUS
 62
               7
100
AcDbLine
 10
33.75
 20
3.0
 30
0.0
 11
46.25
 21
3.0
 31
0.0
  0
LINE
  5
26A
100
AcDbEntity
  8
0
  6
CONTINUOUS
 62
               7
100
AcDbLine
 10
33.75
 20
3.5
 30
0.0
 11
33.75
 21
3.0
 31
0.0
  0
LINE
  5
26B
100
AcDbEntity
  8
0
  6
CONTINUOUS
 62
               7
100
AcDbLine
 10
35.0
 20
0.0
 30
0.0
 11
45.0
 21
0.0
 31
0.0
  0
LINE
  5
26C
100
AcDbEntity
  8
0
  6
CONTINUOUS
 62
               7
100
AcDbLine
 10
45.5
 20
3.0
 30
0.0
 11
45.0
 21
0.0
 31
0.0
  0
LINE
  5
26D
100
AcDbEntity
  8
0
  6
CONTINUOUS
 62
               7
100
AcDbLine
 10
34.5
 20
3.0
 30
0.0
 11
35.0
 21
0.0
 31
0.0
  0
LINE
  5
26E
100
AcDbEntity
  8
0
  6
CONTINUOUS
 62
               7
100
AcDbLine
 10
-46.25
 20
3.5
 30
0.0
 11
-46.25
 21
3.0
 31
0.0
  0
LINE
  5
26F
100
AcDbEntity
  8
0
  6
CONTINUOUS
 62
               7
100
AcDbLine
 10
-33.75
 20
3.5
 30
0.0
 11
-33.75
 21
3.0
 31
0.0
  0
LINE
  5
270
100
AcDbEntity
  8
0
  6
CONTINUOUS
 62
               7
100
AcDbLine
 10
-34.5
 20
3.0
 30
0.0
 11
-35.0
 21
0.0
 31
0.0
  0
LINE
  5
271
100
AcDbEntity
  8
0
  6
CONTINUOUS
 62
               7
100
AcDbLine
 10
-45.5
 20
3.0
 30
0.0
 11
-45.0
 21
0.0
 31
0.0
  0
LINE
  5
272
100
AcDbEntity
  8
0
  6
CONTINUOUS
 62
               7
100
AcDbLine
 10
-35.0
 20
0.0
 30
0.0
 11
-45.0
 21
0.0
 31
0.0
  0
LINE
  5
273
100
AcDbEntity
  8
0
  6
CONTINUOUS
 62
               7
100
AcDbLine
 10
-33.75
 20
3.0
 30
0.0
 11
-46.25
 21
3.0
 31
0.0
  0
ENDBLK
  5
274
100
AcDbEntity
  8
0
100
AcDbBlockEnd
  0
BLOCK
  5
275
100
AcDbEntity
  8
0
100
AcDbBlockBegin
  2
DTRY-ELG01-6
 70
               0
 10
0.0
 20
0.0
 30
0.0
  3
DTRY-ELG01-6
  1

  0
LINE
  5
276
100
AcDbEntity
  8
0
  6
CONTINUOUS
 62
               7
100
AcDbLine
 10
-21.0
 20
5.0
 30
0.0
 11
-21.0
 21
0.0
 31
0.0
  0
LINE
  5
277
100
AcDbEntity
  8
0
  6
CONTINUOUS
 62
               7
100
AcDbLine
 10
-23.5
 20
18.0
 30
0.0
 11
-23.5
 21
7.0
 31
0.0
  0
LINE
  5
278
100
AcDbEntity
  8
0
  6
CONTINUOUS
 62
               7
100
AcDbLine
 10
-23.006520959665238
 20
38.726119694061197
 30
0.0
 11
-23.5
 21
18.0
 31
0.0
  0
LINE
  5
279
100
AcDbEntity
  8
0
  6
CONTINUOUS
 62
               7
100
AcDbLine
 10
-20.006520959665181
 20
38.72611969406131
 30
0.0
 11
-20.5
 21
18.0
 31
0.0
  0
LINE
  5
27A
100
AcDbEntity
  8
0
  6
CONTINUOUS
 62
               7
100
AcDbLine
 10
-22.85480258992618
 20
39.232315856118078
 30
0.0
 11
-20.652001695994841
 21
42.756797286408215
 31
0.0
  0
LINE
  5
27B
100
AcDbEntity
  8
0
  6
CONTINUOUS
 62
               7
100
AcDbLine
 10
-20.5
 20
43.286796226411411
 30
0.0
 11
-20.5
 21
46.0
 31
0.0
  0
LINE
  5
27C
100
AcDbEntity
  8
0
  6
CONTINUOUS
 62
               7
100
AcDbLine
 10
-19.85480258992618
 20
39.232315856118134
 30
0.0
 11
-17.652001695994954
 21
42.756797286408101
 31
0.0
  0
LINE
  5
27D
100
AcDbEntity
  8
0
  6
CONTINUOUS
 62
               7
100
AcDbLine
 10
-17.5
 20
43.286796226411269
 30
0.0
 11
-17.5
 21
45.0
 31
0.0
  0
ARC
  5
27E
100
AcDbEntity
  8
0
  6
CONTINUOUS
 62
               7
100
AcDbCircle
 10
-19.006804285921135
 20
38.702316916115024
 30
0.0
 40
1.0
100
AcDbArc
 50
147.99461679191697
 51
178.63607246839669
  0
ARC
  5
27F
100
AcDbEntity
  8
0
  6
CONTINUOUS
 62
               7
100
AcDbCircle
 10
-22.006804285921135
 20
38.70231691611491
 30
0.0
 40
1.0
100
AcDbArc
 50
147.99461679191538
 51
178.63607246839675
  0
ARC
  5
280
100
AcDbEntity
  8
0
  6
CONTINUOUS
 62
               7
100
AcDbCircle
 10
-21.5
 20
43.286796226411411
 30
0.0
 40
1.0
100
AcDbArc
 50
327.99461679191762
 51
0.0
  0
ARC
  5
281
100
AcDbEntity
  8
0
  6
CONTINUOUS
 62
               7
100
AcDbCircle
 10
-18.5
 20
43.286796226411269
 30
0.0
 40
1.0
100
AcDbArc
 50
327.9946167919158
 51
0.0
  0
ARC
  5
282
100
AcDbEntity
  8
0
  6
CONTINUOUS
 62
               7
100
AcDbCircle
 10
-19.5
 20
45.0
 30
0.0
 40
2.0
100
AcDbArc
 50
0.0
 51
89.999999999999815
  0
ARC
  5
283
100
AcDbEntity
  8
0
  6
CONTINUOUS
 62
               7
100
AcDbCircle
 10
-19.5
 20
46.0
 30
0.0
 40
1.0
100
AcDbArc
 50
89.999999999999815
 51
179.99999999999963
  0
ARC
  5
284
100
AcDbEntity
  8
0
  6
CONTINUOUS
 62
               7
100
AcDbCircle
 10
-20.0
 20
5.0
 30
0.0
 40
1.0
100
AcDbArc
 50
89.999999999999815
 51
179.99999999999963
  0
ARC
  5
285
100
AcDbEntity
  8
0
  6
CONTINUOUS
 62
               7
100
AcDbCircle
 10
-22.5
 20
7.0
 30
0.0
 40
1.0
100
AcDbArc
 50
179.99999999999963
 51
269.99999999999937
  0
ARC
  5
286
100
AcDbEntity
  8
0
  6
CONTINUOUS
 62
               7
100
AcDbCircle
 10
22.5
 20
7.0
 30
0.0
 40
1.0
100
AcDbArc
 50
269.99999999999937
 51
0.0
  0
ARC
  5
287
100
AcDbEntity
  8
0
  6
CONTINUOUS
 62
               7
100
AcDbCircle
 10
20.0
 20
5.0
 30
0.0
 40
1.0
100
AcDbArc
 50
0.0
 51
89.999999999999815
  0
ARC
  5
288
100
AcDbEntity
  8
0
  6
CONTINUOUS
 62
               7
100
AcDbCircle
 10
19.5
 20
46.0
 30
0.0
 40
1.0
100
AcDbArc
 50
0.0
 51
89.999999999999815
  0
ARC
  5
289
100
AcDbEntity
  8
0
  6
CONTINUOUS
 62
               7
100
AcDbCircle
 10
22.006804285921078
 20
38.702316916114881
 30
0.0
 40
1.0
100
AcDbArc
 50
1.3639275316028787
 51
32.0053832080837
  0
ARC
  5
28A
100
AcDbEntity
  8
0
  6
CONTINUOUS
 62
               7
100
AcDbCircle
 10
21.5
 20
43.286796226411241
 30
0.0
 40
1.0
100
AcDbArc
 50
179.99999999999963
 51
212.00538320808354
  0
ARC
  5
28B
100
AcDbEntity
  8
0
  6
CONTINUOUS
 62
               7
100
AcDbCircle
 10
19.5
 20
45.0
 30
0.0
 40
2.0
100
AcDbArc
 50
89.999999999999815
 51
179.99999999999963
  0
ARC
  5
28C
100
AcDbEntity
  8
0
  6
CONTINUOUS
 62
               7
100
AcDbCircle
 10
18.5
 20
43.286796226411269
 30
0.0
 40
1.0
100
AcDbArc
 50
179.99999999999963
 51
212.0053832080838
  0
ARC
  5
28D
100
AcDbEntity
  8
0
  6
CONTINUOUS
 62
               7
100
AcDbCircle
 10
19.006804285921135
 20
38.702316916115024
 30
0.0
 40
1.0
100
AcDbArc
 50
1.3639275316029156
 51
32.005383208082648
  0
LINE
  5
28E
100
AcDbEntity
  8
0
  6
CONTINUOUS
 62
               7
100
AcDbLine
 10
17.5
 20
43.286796226411269
 30
0.0
 11
17.5
 21
45.0
 31
0.0
  0
LINE
  5
28F
100
AcDbEntity
  8
0
  6
CONTINUOUS
 62
               7
100
AcDbLine
 10
19.85480258992618
 20
39.232315856118134
 30
0.0
 11
17.652001695994954
 21
42.756797286408101
 31
0.0
  0
LINE
  5
290
100
AcDbEntity
  8
0
  6
CONTINUOUS
 62
               7
100
AcDbLine
 10
20.5
 20
43.286796226411411
 30
0.0
 11
20.5
 21
46.0
 31
0.0
  0
LINE
  5
291
100
AcDbEntity
  8
0
  6
CONTINUOUS
 62
               7
100
AcDbLine
 10
22.85480258992618
 20
39.232315856118078
 30
0.0
 11
20.652001695994841
 21
42.756797286408215
 31
0.0
  0
LINE
  5
292
100
AcDbEntity
  8
0
  6
CONTINUOUS
 62
               7
100
AcDbLine
 10
20.006520959665181
 20
38.72611969406131
 30
0.0
 11
20.5
 21
18.0
 31
0.0
  0
LINE
  5
293
100
AcDbEntity
  8
0
  6
CONTINUOUS
 62
               7
100
AcDbLine
 10
23.006520959665238
 20
38.726119694061197
 30
0.0
 11
23.5
 21
18.0
 31
0.0
  0
LINE
  5
294
100
AcDbEntity
  8
0
  6
CONTINUOUS
 62
               7
100
AcDbLine
 10
23.5
 20
18.0
 30
0.0
 11
23.5
 21
7.0
 31
0.0
  0
LINE
  5
295
100
AcDbEntity
  8
0
  6
CONTINUOUS
 62
               7
100
AcDbLine
 10
-23.5
 20
18.0
 30
0.0
 11
23.5
 21
18.0
 31
0.0
  0
LINE
  5
296
100
AcDbEntity
  8
0
  6
CONTINUOUS
 62
               7
100
AcDbLine
 10
-22.5
 20
6.0
 30
0.0
 11
22.5
 21
6.0
 31
0.0
  0
LINE
  5
297
100
AcDbEntity
  8
0
  6
CONTINUOUS
 62
               7
100
AcDbLine
 10
21.0
 20
5.0
 30
0.0
 11
21.0
 21
0.0
 31
0.0
  0
LINE
  5
298
100
AcDbEntity
  8
0
  6
CENTER
 62
               2
100
AcDbLine
 10
0.0
 20
-6.1229549549549347
 30
0.0
 11
0.0
 21
55.037549549549567
 31
0.0
  0
LINE
  5
299
100
AcDbEntity
  8
0
  6
CONTINUOUS
 62
               7
100
AcDbLine
 10
-21.0
 20
0.0
 30
0.0
 11
21.0
 21
0.0
 31
0.0
  0
ENDBLK
  5
29A
100
AcDbEntity
  8
0
100
AcDbBlockEnd
  0
ENDSEC
  0
SECTION
  2
ENTITIES
  0
INSERT
  5
29B
100
AcDbEntity
  8
0
  6
ByBlock
100
AcDbBlockReference
  2
DTRY-ELG01-1
 10
-155.67481081081081
 20
-56.212108108108112
 30
0.0
  0
INSERT
  5
29C
100
AcDbEntity
  8
0
  6
ByBlock
100
AcDbBlockReference
  2
DTRY-ELG01-4
 10
-155.67481081081081
 20
211.61481081081075
 30
0.0
  0
INSERT
  5
29D
100
AcDbEntity
  8
0
  6
ByBlock
100
AcDbBlockReference
  2
DTRY-ELG01-2
 10
165.33008148693855
 20
166.73975277230539
 30
0.0
  0
INSERT
  5
29E
100
AcDbEntity
  8
0
  6
ByBlock
100
AcDbBlockReference
  2
DTRY-ELG01-5
 10
-155.67481081081081
 20
-221.51545945945946
 30
0.0
  0
INSERT
  5
29F
100
AcDbEntity
  8
0
  6
ByBlock
100
AcDbBlockReference
  2
DTRY-ELG01-3
 10
194.04244736405963
 20
-108.45483579168464
 30
0.0
  0
INSERT
  5
2A0
100
AcDbEntity
  8
0
  6
ByBlock
100
AcDbBlockReference
  2
DTRY-ELG01-6
 10
194.04244736405963
 20
-237.96179074663962
 30
0.0
  0
LINE
  5
2A1
100
AcDbEntity
  8
0
  6
CONTINUOUS
 62
               7
100
AcDbLine
 10
399.52490234375
 20
276.5
 30
0.0
 11
399.52490234375
 21
-276.5
 31
0.0
  0
LINE
  5
2A2
100
AcDbEntity
  8
0
  6
CONTINUOUS
 62
               7
100
AcDbLine
 10
-399.52490234375
 20
276.5
 30
0.0
 11
-399.52490234375
 21
-276.5
 31
0.0
  0
LINE
  5
2A3
100
AcDbEntity
  8
0
  6
CONTINUOUS
 62
               7
100
AcDbLine
 10
-399.52490234375
 20
276.5
 30
0.0
 11
399.52490234375
 21
276.5
 31
0.0
  0
LINE
  5
2A4
100
AcDbEntity
  8
0
  6
CONTINUOUS
 62
               7
100
AcDbLine
 10
-399.52490234375
 20
-276.5
 30
0.0
 11
399.52490234375
 21
-276.5
 31
0.0
  0
MTEXT
  5
2A5
100
AcDbEntity
  8
0
  6
CONTINUOUS
 62
               7
100
AcDbMText
 10
-360.5249029795329
 20
271.5
 30
0.0
 40
6.3000001907348633
 41
0.0
 71
               4
 72
               1
  1
\A1;CRECEED
  0
LINE
  5
2A6
100
AcDbEntity
  8
0
  6
CONTINUOUS
 62
               7
100
AcDbLine
 10
-279.52490234375
 20
276.5
 30
0.0
 11
-279.52490234375
 21
256.5
 31
0.0
  0
LINE
  5
2A7
100
AcDbEntity
  8
0
  6
CONTINUOUS
 62
               7
100
AcDbLine
 10
-399.52490234375
 20
256.5
 30
0.0
 11
-279.52490234375
 21
256.5
 31
0.0
  0
MTEXT
  5
2A8
100
AcDbEntity
  8
0
  6
CONTINUOUS
 62
               7
100
AcDbMText
 10
-386.54231816642874
 20
241.5
 30
0.0
 40
6.3000001907348633
 41
0.0
 71
               4
 72
               1
  1
\W1.079;\A1;MODEL:DTRY-ELG01
  0
LINE
  5
2A9
100
AcDbEntity
  8
0
  6
CONTINUOUS
 62
               7
100
AcDbLine
 10
279.5250244140625
 20
276.5
 30
0.0
 11
279.5250244140625
 21
256.5
 31
0.0
  0
LINE
  5
2AA
100
AcDbEntity
  8
0
  6
CONTINUOUS
 62
               7
100
AcDbLine
 10
279.5250244140625
 20
256.5
 30
0.0
 11
399.52490234375
 21
256.5
 31
0.0
  0
MTEXT
  5
2AB
100
AcDbEntity
  8
0
  6
CONTINUOUS
 62
               7
100
AcDbMText
 10
315.70207289592116
 20
266.5
 30
0.0
 40
6.3000001907348633
 41
0.0
 71
               4
 72
               1
  1
\W1.311;\A1;Ver. 1.0
  0
MTEXT
  5
2AC
100
AcDbEntity
  8
0
  6
CONTINUOUS
 62
               7
100
AcDbMText
 10
287.70604688092931
 20
-266.5
 30
0.0
 40
9.0
 41
0.0
 71
               4
 72
               1
  1
\W1.121;\A1;KOGANEI CORP.
  0
LINE
  5
2AD
100
AcDbEntity
  8
0
  6
CONTINUOUS
 62
               7
100
AcDbLine
 10
279.5250244140625
 20
-256.5
 30
0.0
 11
279.5250244140625
 21
-276.5
 31
0.0
  0
LINE
  5
2AE
100
AcDbEntity
  8
0
  6
CONTINUOUS
 62
               7
100
AcDbLine
 10
279.5250244140625
 20
-256.5
 30
0.0
 11
399.52490234375
 21
-256.5
 31
0.0
  0
MTEXT
  5
2AF
100
AcDbEntity
  8
0
  6
CONTINUOUS
 62
               7
100
AcDbMText
 10
-360.41437663103056
 20
261.5
 30
0.0
 40
6.3000001907348633
 41
0.0
 71
               4
 72
               1
  1
\W1.105;\A1;IONIZER
  0
ENDSEC
  0
SECTION
  2
OBJECTS
  0
DICTIONARY
  5
19
100
AcDbDictionary
  3
ACAD_GROUP
350
1A
  3
ACAD_MLINESTYLE
350
1B
  0
DICTIONARY
  5
1A
102
{ACAD_REACTORS
330
19
102
}
100
AcDbDictionary
  0
DICTIONARY
  5
1B
102
{ACAD_REACTORS
330
19
102
}
100
AcDbDictionary
  3
STANDARD
350
1C
  0
MLINESTYLE
  5
1C
102
{ACAD_REACTORS
330
1B
102
}
100
AcDbMlineStyle
  2
Standard
 70
               0
  3

 62
               0
 51
90.0
 52
90.0
 71
               2
 49
0.5
 62
             256
  6
ByLayer
 49
-0.5
 62
             256
  6
ByLayer
  0
ENDSEC
  0
EOF
