  0
SECTION
  2
HEADER
  9
$ACADVER
  1
AC1012
  9
$DWGCODEPAGE
  3
dos932
  9
$INSBASE
 10
0.0
 20
0.0
 30
0.0
  9
$EXTMIN
 10
-281.25
 20
-195.0
 30
0.0
  9
$EXTMAX
 10
285.59998798370361
 20
195.5
 30
0.0
  9
$LIMMIN
 10
-281.25
 20
-195.0
  9
$LIMMAX
 10
285.59998798370361
 20
195.5
  9
$ORTHOMODE
 70
               0
  9
$REGENMODE
 70
               1
  9
$FILLMODE
 70
               1
  9
$QTEXTMODE
 70
               0
  9
$MIRRTEXT
 70
               1
  9
$DRAGMODE
 70
               2
  9
$LTSCALE
 40
1.0
  9
$OSMODE
 70
               0
  9
$ATTMODE
 70
               1
  9
$TEXTSIZE
 40
3.2000000476837158
  9
$TRACEWID
 40
0.05
  9
$TEXTSTYLE
  7
MX_NOTE_STANDARD
  9
$CLAYER
  8
0
  9
$CELTYPE
  6
CONTINUOUS
  9
$CECOLOR
 62
             256
  9
$CELTSCALE
 40
1.0
  9
$DELOBJ
 70
               1
  9
$DISPSILH
 70
               0
  9
$DIMSCALE
 40
1.0
  9
$DIMASZ
 40
2.5
  9
$DIMEXO
 40
1.5
  9
$DIMDLI
 40
3.75
  9
$DIMRND
 40
0.0
  9
$DIMDLE
 40
0.0
  9
$DIMEXE
 40
1.5
  9
$DIMTP
 40
0.0
  9
$DIMTM
 40
0.0
  9
$DIMTXT
 40
3.2000000476837158
  9
$DIMCEN
 40
2.5
  9
$DIMTSZ
 40
0.0
  9
$DIMTOL
 70
               0
  9
$DIMLIM
 70
               0
  9
$DIMTIH
 70
               0
  9
$DIMTOH
 70
               0
  9
$DIMSE1
 70
               0
  9
$DIMSE2
 70
               0
  9
$DIMTAD
 70
               1
  9
$DIMZIN
 70
               8
  9
$DIMBLK
  1

  9
$DIMASO
 70
               1
  9
$DIMSHO
 70
               1
  9
$DIMPOST
  1

  9
$DIMAPOST
  1

  9
$DIMALT
 70
               0
  9
$DIMALTD
 70
               4
  9
$DIMALTF
 40
0.03937007874016
  9
$DIMLFAC
 40
1.0
  9
$DIMTOFL
 70
               1
  9
$DIMTVP
 40
0.0
  9
$DIMTIX
 70
               0
  9
$DIMSOXD
 70
               0
  9
$DIMSAH
 70
               0
  9
$DIMBLK1
  1

  9
$DIMBLK2
  1

  9
$DIMSTYLE
  2
MXDIMSTYLE
  9
$DIMCLRD
 70
               0
  9
$DIMCLRE
 70
               0
  9
$DIMCLRT
 70
               0
  9
$DIMTFAC
 40
1.0
  9
$DIMGAP
 40
1.0
  9
$DIMJUST
 70
               0
  9
$DIMSD1
 70
               0
  9
$DIMSD2
 70
               0
  9
$DIMTOLJ
 70
               1
  9
$DIMTZIN
 70
               0
  9
$DIMALTZ
 70
               0
  9
$DIMALTTZ
 70
               0
  9
$DIMFIT
 70
               3
  9
$DIMUPT
 70
               1
  9
$DIMUNIT
 70
               2
  9
$DIMDEC
 70
               4
  9
$DIMTDEC
 70
               4
  9
$DIMALTU
 70
               2
  9
$DIMALTTD
 70
               4
  9
$DIMTXSTY
  7
MX_NOTE_STANDARD
  9
$DIMAUNIT
 70
               0
  9
$LUNITS
 70
               2
  9
$LUPREC
 70
               4
  9
$SKETCHINC
 40
0.1
  9
$FILLETRAD
 40
0.0
  9
$AUNITS
 70
               0
  9
$AUPREC
 70
               0
  9
$MENU
  1
acad
  9
$ELEVATION
 40
0.0
  9
$PELEVATION
 40
0.0
  9
$THICKNESS
 40
0.0
  9
$LIMCHECK
 70
               0
  9
$BLIPMODE
 70
               1
  9
$CHAMFERA
 40
0.0
  9
$CHAMFERB
 40
0.0
  9
$CHAMFERC
 40
0.0
  9
$CHAMFERD
 40
0.0
  9
$SKPOLY
 70
               0
  9
$TDCREATE
 40
2453517.689733796
  9
$TDUPDATE
 40
2453517.689733796
  9
$TDINDWG
 40
0.0000000000
  9
$TDUSRTIMER
 40
0.0000000000
  9
$USRTIMER
 70
               1
  9
$ANGBASE
 50
0.0
  9
$ANGDIR
 70
               0
  9
$PDMODE
 70
               0
  9
$PDSIZE
 40
0.0
  9
$PLINEWID
 40
0.0
  9
$COORDS
 70
               1
  9
$SPLFRAME
 70
               0
  9
$SPLINETYPE
 70
               6
  9
$SPLINESEGS
 70
               8
  9
$ATTDIA
 70
               0
  9
$ATTREQ
 70
               1
  9
$HANDLING
 70
               1
  9
$HANDSEED
  5
3B0
  9
$SURFTAB1
 70
               6
  9
$SURFTAB2
 70
               6
  9
$SURFTYPE
 70
               6
  9
$SURFU
 70
               6
  9
$SURFV
 70
               6
  9
$UCSNAME
  2

  9
$UCSORG
 10
0.0
 20
0.0
 30
0.0
  9
$UCSXDIR
 10
1.0
 20
0.0
 30
0.0
  9
$UCSYDIR
 10
0.0
 20
1.0
 30
0.0
  9
$PUCSNAME
  2

  9
$PUCSORG
 10
0.0
 20
0.0
 30
0.0
  9
$PUCSXDIR
 10
1.0
 20
0.0
 30
0.0
  9
$PUCSYDIR
 10
0.0
 20
1.0
 30
0.0
  9
$USERI1
 70
               0
  9
$USERI2
 70
               0
  9
$USERI3
 70
               0
  9
$USERI4
 70
               0
  9
$USERI5
 70
               0
  9
$USERR1
 40
0.0
  9
$USERR2
 40
0.0
  9
$USERR3
 40
0.0
  9
$USERR4
 40
0.0
  9
$USERR5
 40
0.0
  9
$WORLDVIEW
 70
               1
  9
$SHADEDGE
 70
               3
  9
$SHADEDIF
 70
              70
  9
$TILEMODE
 70
               1
  9
$MAXACTVP
 70
              16
  9
$PINSBASE
 10
0.0
 20
0.0
 30
0.0
  9
$PLIMCHECK
 70
               0
  9
$PEXTMIN
 10
1.0000000000000000E+20
 20
1.0000000000000000E+20
 30
1.0000000000000000E+20
  9
$PEXTMAX
 10
-1.0000000000000000E+20
 20
-1.0000000000000000E+20
 30
-1.0000000000000000E+20
  9
$PLIMMIN
 10
0.0
 20
0.0
  9
$PLIMMAX
 10
12.0
 20
9.0
  9
$UNITMODE
 70
               0
  9
$VISRETAIN
 70
               0
  9
$PLINEGEN
 70
               1
  9
$PSLTSCALE
 70
               0
  9
$TREEDEPTH
 70
            3020
  9
$PICKSTYLE
 70
               1
  9
$CMLSTYLE
  2
Standard
  9
$CMLJUST
 70
               0
  9
$CMLSCALE
 40
1.0
  9
$SAVEIMAGES
 70
               0
  0
ENDSEC
  0
SECTION
  2
CLASSES
  0
CLASS
  1
LWPOLYLINE
  2
AcDbPolyline
  3
"AutoCAD"
 90
        0
280
               0
281
               1
  0
CLASS
  1
IMAGE
  2
AcDbRasterImage
  3
ISM
 90
      127
280
               0
281
               1
  0
CLASS
  1
OLE2FRAME
  2
AcDbOle2Frame
  3
""
 90
        0
280
               0
281
               1
  0
CLASS
  1
HATCH
  2
AcDbHatch
  3
"ACAD_SEDONA"
 90
        0
280
               0
281
               1
  0
CLASS
  1
DICTIONARYVAR
  2
AcDbDictionaryVar
  3
"AutoCAD"
 90
        0
280
               0
281
               0
  0
CLASS
  1
RASTERVARIABLES
  2
AcDbRasterVariables
  3
ISM
 90
        0
280
               0
281
               0
  0
CLASS
  1
IMAGEDEF
  2
AcDbRasterImageDef
  3
ISM
 90
        0
280
               0
281
               0
  0
CLASS
  1
IMAGEDEF_REACTOR
  2
AcDbRasterImageDefReactor
  3
ISM
 90
        1
280
               0
281
               0
  0
CLASS
  1
IDBUFFER
  2
AcDbIdBuffer
  3
"Acad"
 90
        0
280
               0
281
               0
  0
CLASS
  1
SPATIAL_FILTER
  2
AcDbSpatialFilter
  3
"Acad"
 90
        0
280
               0
281
               0
  0
CLASS
  1
XRECORD
  2
AcDbXrecord
  3
"<Built In>"
 90
        0
280
               0
281
               0
  0
CLASS
  1
SORTENTSTABLE
  2
AcDbSortentsTable
  3
"AutoCAD"
 90
        0
280
               0
281
               0
  0
CLASS
  1
LAYER_INDEX
  2
AcDbLayerIndex
  3
"Acad"
 90
        0
280
               0
281
               0
  0
CLASS
  1
SPATIAL_INDEX
  2
AcDbSpatialIndex
  3
"Acad"
 90
        0
280
               0
281
               0
  0
CLASS
  1
OBJECT_PTR
  2
CAseDLPNTableRecord
  3
"ASE-LPNTableRecord"
 90
        1
280
               0
281
               0
  0
CLASS
  1
LAYOUT
  2
AcDbLayout
  3
"AutoCAD 2000"
 90
        1
280
               0
281
               0
  0
CLASS
  1
PLOTSETTINGS
  2
AcDbPlotSettings
  3
"AutoCAD 2000"
 90
        1
280
               0
281
               0
  0
CLASS
  1
ACDBDICTIONARYWDFLT
  2
AcDbDictionaryWithDefault
  3
"AutoCAD 2000"
 90
        1
280
               0
281
               0
  0
CLASS
  1
ACDBPLACEHOLDER
  2
AcDbPlaceHolder
  3
"AutoCAD 2000"
 90
        1
280
               0
281
               0
  0
ENDSEC
  0
SECTION
  2
TABLES
  0
TABLE
  2
VPORT
  5
7
100
AcDbSymbolTable
 70
               1
  0
VPORT
  5
15
100
AcDbSymbolTableRecord
100
AcDbViewportTableRecord
  2
*ACTIVE
 70
               0
 10
0.0
 20
0.0
 11
1.0
 21
1.0
 12
2.1749939918518066
 22
0.25
 13
0.0
 23
0.0
 14
1.0
 24
1.0
 15
0.0
 25
0.0
 16
0.0
 26
0.0
 36
1.0
 17
0.0
 27
0.0
 37
0.0
 40
394.40500000000003
 41
1.7320508075688772
 42
50.0
 43
0.0
 44
0.0
 50
0.0
 51
0.0
 71
               0
 72
             100
 73
               1
 74
               1
 75
               0
 76
               0
 77
               0
 78
               0
  0
ENDTAB
  0
TABLE
  2
LTYPE
  5
4
100
AcDbSymbolTable
 70
               5
  0
LTYPE
  5
11
100
AcDbSymbolTableRecord
100
AcDbLinetypeTableRecord
  2
BYBLOCK
 70
              64
  3

 72
              65
 73
               0
 40
0.0
  0
LTYPE
  5
12
100
AcDbSymbolTableRecord
100
AcDbLinetypeTableRecord
  2
BYLAYER
 70
              64
  3

 72
              65
 73
               0
 40
0.0
  0
LTYPE
  5
13
100
AcDbSymbolTableRecord
100
AcDbLinetypeTableRecord
  2
CONTINUOUS
 70
              64
  3
Solid line
 72
              65
 73
               0
 40
0.0
  0
LTYPE
  5
E3
100
AcDbSymbolTableRecord
100
AcDbLinetypeTableRecord
  2
HIDDEN
 70
              64
  3
Hidden __ __ __ __ __ __ __ __ __ __ __ __ __ __
 72
              65
 73
               2
 40
9.5249999999999986
 49
6.3499999999999996
 74
               0
 49
-3.1749999999999998
 74
               0
  0
LTYPE
  5
EA
100
AcDbSymbolTableRecord
100
AcDbLinetypeTableRecord
  2
PHANTOM
 70
              64
  3
Phantom ______  __  __  ______  __  __  ______
 72
              65
 73
               6
 40
30.0
 49
20.0
 74
               0
 49
-2.0
 74
               0
 49
2.0
 74
               0
 49
-2.0
 74
               0
 49
2.0
 74
               0
 49
-2.0
 74
               0
  0
ENDTAB
  0
TABLE
  2
LAYER
  5
2
100
AcDbSymbolTable
 70
               2
  0
LAYER
  5
14
100
AcDbSymbolTableRecord
100
AcDbLayerTableRecord
  2
0
 70
               0
 62
               7
  6
CONTINUOUS
  0
LAYER
  5
1D
100
AcDbSymbolTableRecord
100
AcDbLayerTableRecord
  2
DEFPOINTS
 70
               0
 62
               7
  6
CONTINUOUS
  0
ENDTAB
  0
TABLE
  2
STYLE
  5
3
100
AcDbSymbolTable
 70
               1
  0
STYLE
  5
17
100
AcDbSymbolTableRecord
100
AcDbTextStyleTableRecord
  2
MX_NOTE_STANDARD
 70
               0
 40
0.0
 41
1.0
 50
0.0
 71
               0
 42
3.2000000476837158
  3
txt.shx
  4
extfont.shx
  0
ENDTAB
  0
TABLE
  2
VIEW
  5
5
100
AcDbSymbolTable
 70
               0
  0
ENDTAB
  0
TABLE
  2
UCS
  5
6
100
AcDbSymbolTable
 70
               0
  0
ENDTAB
  0
TABLE
  2
APPID
  5
8
100
AcDbSymbolTable
 70
               1
  0
APPID
  5
16
100
AcDbSymbolTableRecord
100
AcDbRegAppTableRecord
  2
ACAD
 70
               0
  0
ENDTAB
  0
TABLE
  2
DIMSTYLE
  5
9
100
AcDbSymbolTable
 70
               1
  0
DIMSTYLE
105
18
100
AcDbSymbolTableRecord
100
AcDbDimStyleTableRecord
  2
MXDIMSTYLE
 70
               0
  3

  4

  5

  6

  7

 40
1.0
 41
2.5
 42
1.5
 43
3.75
 44
1.5
 45
0.0
 46
0.0
 47
0.0
 48
0.0
 71
               0
 72
               0
 73
               0
 74
               0
 75
               0
 76
               0
 77
               1
 78
               8
140
3.2000000476837158
141
2.5
142
0.0
143
0.03937007874016
144
1.0
145
0.0
146
1.0
147
1.0
170
               0
171
               4
172
               1
173
               0
174
               0
175
               0
176
               0
177
               0
178
               0
270
               2
271
               4
272
               4
273
               2
274
               4
275
               0
280
               0
281
               0
282
               0
283
               1
284
               0
285
               0
286
               0
287
               3
288
               1
340
17
  0
ENDTAB
  0
TABLE
  2
BLOCK_RECORD
  5
1
100
AcDbSymbolTable
 70
               4
  0
BLOCK_RECORD
  5
A
100
AcDbSymbolTableRecord
100
AcDbBlockTableRecord
  2
*MODEL_SPACE
  0
BLOCK_RECORD
  5
B
100
AcDbSymbolTableRecord
100
AcDbBlockTableRecord
  2
*PAPER_SPACE
  0
BLOCK_RECORD
  5
1E
100
AcDbSymbolTableRecord
100
AcDbBlockTableRecord
  2
DTRY-ELF02-1
  0
BLOCK_RECORD
  5
1F
100
AcDbSymbolTableRecord
100
AcDbBlockTableRecord
  2
DTRY-ELF02-2
  0
BLOCK_RECORD
  5
20
100
AcDbSymbolTableRecord
100
AcDbBlockTableRecord
  2
DTRY-ELF02-3
  0
BLOCK_RECORD
  5
21
100
AcDbSymbolTableRecord
100
AcDbBlockTableRecord
  2
DTRY-ELF02-4
  0
ENDTAB
  0
ENDSEC
  0
SECTION
  2
BLOCKS
  0
BLOCK
  5
D
100
AcDbEntity
  8
0
100
AcDbBlockBegin
  2
*MODEL_SPACE
 70
               0
 10
0.0
 20
0.0
 30
0.0
  3
*MODEL_SPACE
  1

  0
ENDBLK
  5
E
100
AcDbEntity
  8
0
100
AcDbBlockEnd
  0
BLOCK
  5
F
100
AcDbEntity
 67
               1
  8
0
100
AcDbBlockBegin
  2
*PAPER_SPACE
 70
               0
 10
0.0
 20
0.0
 30
0.0
  3
*PAPER_SPACE
  1

  0
ENDBLK
  5
10
100
AcDbEntity
 67
               1
  8
0
100
AcDbBlockEnd
  0
BLOCK
  5
22
100
AcDbEntity
  8
0
100
AcDbBlockBegin
  2
DTRY-ELF02-1
 70
               0
 10
0.0
 20
0.0
 30
0.0
  3
DTRY-ELF02-1
  1

  0
LINE
  5
23
100
AcDbEntity
  8
0
  6
CONTINUOUS
 62
               7
100
AcDbLine
 10
-28.49999597247276
 20
111.49999999999999
 30
0.0
 11
28.499995972472789
 21
111.49999999999999
 31
0.0
  0
LINE
  5
24
100
AcDbEntity
  8
0
  6
CONTINUOUS
 62
               7
100
AcDbLine
 10
-31.49999597247276
 20
51.499999999999986
 30
0.0
 11
-31.49999597247276
 21
108.49999999999999
 31
0.0
  0
LINE
  5
25
100
AcDbEntity
  8
0
  6
CONTINUOUS
 62
               7
100
AcDbLine
 10
31.499995972472789
 20
51.499999999999986
 30
0.0
 11
31.499995972472789
 21
108.49999999999999
 31
0.0
  0
LINE
  5
26
100
AcDbEntity
  8
0
  6
CONTINUOUS
 62
               7
100
AcDbLine
 10
-39.999999999999972
 20
114.99999999999999
 30
0.0
 11
40.000000000000398
 21
114.99999999999999
 31
0.0
  0
LINE
  5
27
100
AcDbEntity
  8
0
  6
CONTINUOUS
 62
               7
100
AcDbLine
 10
-14.249999999999972
 20
30.600000000000009
 30
0.0
 11
-11.749999999999972
 21
30.600000000000009
 31
0.0
  0
ARC
  5
28
100
AcDbEntity
  8
0
  6
CONTINUOUS
 62
               7
100
AcDbCircle
 10
-22.249999999999943
 20
30.600000000000009
 30
0.0
 40
10.5
100
AcDbArc
 50
125.91761034844292
 51
180.0
  0
LINE
  5
29
100
AcDbEntity
  8
0
  6
CONTINUOUS
 62
               7
100
AcDbLine
 10
-18.875
 20
38.61073498500609
 30
0.0
 11
-17.965476326173729
 21
40.186076198759494
 31
0.0
  0
LINE
  5
2A
100
AcDbEntity
  8
0
  6
CONTINUOUS
 62
               7
100
AcDbLine
 10
-28.124999999999972
 20
38.61073498500609
 30
0.0
 11
-28.409523673825987
 21
39.103544444028884
 31
0.0
  0
ARC
  5
2B
100
AcDbEntity
  8
0
  6
CONTINUOUS
 62
               7
100
AcDbCircle
 10
-23.499999999999943
 20
30.600000000000009
 30
0.0
 40
9.25
100
AcDbArc
 50
0.0
 51
59.999999999999858
  0
ARC
  5
2C
100
AcDbEntity
  8
0
  6
CONTINUOUS
 62
               7
100
AcDbCircle
 10
-22.249999999999943
 20
30.600000000000009
 30
0.0
 40
10.5
100
AcDbArc
 50
0.0
 51
65.917610348443162
  0
LINE
  5
2D
100
AcDbEntity
  8
0
  6
CONTINUOUS
 62
               7
100
AcDbLine
 10
21.75
 20
37.749999999999986
 30
0.0
 11
31.25
 21
37.749999999999986
 31
0.0
  0
LINE
  5
2E
100
AcDbEntity
  8
0
  6
CONTINUOUS
 62
               7
100
AcDbLine
 10
31.25
 20
37.749999999999986
 30
0.0
 11
31.25
 21
28.249999999999986
 31
0.0
  0
LINE
  5
2F
100
AcDbEntity
  8
0
  6
CONTINUOUS
 62
               7
100
AcDbLine
 10
31.25
 20
28.249999999999986
 30
0.0
 11
21.75
 21
28.249999999999986
 31
0.0
  0
LINE
  5
30
100
AcDbEntity
  8
0
  6
CONTINUOUS
 62
               7
100
AcDbLine
 10
21.75
 20
28.249999999999986
 30
0.0
 11
21.75
 21
37.749999999999986
 31
0.0
  0
LINE
  5
31
100
AcDbEntity
  8
0
  6
CONTINUOUS
 62
               7
100
AcDbLine
 10
-39.999999999999972
 20
14.999999999999986
 30
0.0
 11
-39.999999999999972
 21
114.99999999999999
 31
0.0
  0
LINE
  5
32
100
AcDbEntity
  8
0
  6
CONTINUOUS
 62
               7
100
AcDbLine
 10
40.0
 20
14.999999999999986
 30
0.0
 11
-39.999999999999972
 21
14.999999999999986
 31
0.0
  0
LINE
  5
33
100
AcDbEntity
  8
0
  6
CONTINUOUS
 62
               7
100
AcDbLine
 10
40.0
 20
114.99999999999999
 30
0.0
 11
40.0
 21
14.999999999999986
 31
0.0
  0
CIRCLE
  5
34
100
AcDbEntity
  8
0
  6
CONTINUOUS
 62
               7
100
AcDbCircle
 10
-4.9999999999999716
 20
27.199999999999889
 30
0.0
 40
1.75
  0
CIRCLE
  5
35
100
AcDbEntity
  8
0
  6
CONTINUOUS
 62
               7
100
AcDbCircle
 10
5.0
 20
27.199999999999889
 30
0.0
 40
1.75
  0
ARC
  5
36
100
AcDbEntity
  8
0
  6
CONTINUOUS
 62
               7
100
AcDbCircle
 10
30.0
 20
48.999999999999986
 30
0.0
 40
3.0
100
AcDbArc
 50
270.0
 51
0.0
  0
ARC
  5
37
100
AcDbEntity
  8
0
  6
CONTINUOUS
 62
               7
100
AcDbCircle
 10
30.0
 20
112.0000000000001
 30
0.0
 40
3.0
100
AcDbArc
 50
0.0
 51
90.0
  0
LINE
  5
38
100
AcDbEntity
  8
0
  6
CONTINUOUS
 62
               7
100
AcDbLine
 10
30.0
 20
45.999999999999986
 30
0.0
 11
-29.999999999999972
 21
45.999999999999986
 31
0.0
  0
LINE
  5
39
100
AcDbEntity
  8
0
  6
CONTINUOUS
 62
               7
100
AcDbLine
 10
33.0
 20
112.0000000000001
 30
0.0
 11
33.0
 21
48.999999999999986
 31
0.0
  0
ARC
  5
3A
100
AcDbEntity
  8
0
  6
CONTINUOUS
 62
               7
100
AcDbCircle
 10
28.499995972472789
 20
108.49999999999999
 30
0.0
 40
3.0
100
AcDbArc
 50
0.0
 51
90.0
  0
ARC
  5
3B
100
AcDbEntity
  8
0
  6
CONTINUOUS
 62
               7
100
AcDbCircle
 10
28.499995972472789
 20
51.499999999999986
 30
0.0
 40
3.0
100
AcDbArc
 50
270.0
 51
0.0
  0
ARC
  5
3C
100
AcDbEntity
  8
0
  6
CONTINUOUS
 62
               7
100
AcDbCircle
 10
-29.999999999999972
 20
48.999999999999986
 30
0.0
 40
3.0
100
AcDbArc
 50
180.0
 51
270.0
  0
ARC
  5
3D
100
AcDbEntity
  8
0
  6
CONTINUOUS
 62
               7
100
AcDbCircle
 10
-29.999999999999972
 20
112.0000000000001
 30
0.0
 40
3.0
100
AcDbArc
 50
90.0
 51
180.0
  0
LINE
  5
3E
100
AcDbEntity
  8
0
  6
CONTINUOUS
 62
               7
100
AcDbLine
 10
-32.999999999999972
 20
48.999999999999986
 30
0.0
 11
-32.999999999999972
 21
112.0000000000001
 31
0.0
  0
LINE
  5
3F
100
AcDbEntity
  8
0
  6
CONTINUOUS
 62
               7
100
AcDbLine
 10
-29.952137494636617
 20
85.754950868806006
 30
0.0
 11
-29.952137494636617
 21
93.749999999999901
 31
0.0
  0
LINE
  5
40
100
AcDbEntity
  8
0
  6
CONTINUOUS
 62
               7
100
AcDbLine
 10
-5.4999999999999716
 20
110.0000000000001
 30
0.0
 11
-18.499999999999943
 21
109.99062353469829
 31
0.0
  0
LINE
  5
41
100
AcDbEntity
  8
0
  6
CONTINUOUS
 62
               7
100
AcDbLine
 10
-19.499999999999517
 20
104.24999999999999
 30
0.0
 11
-19.5
 21
109.9906235346984
 31
0.0
  0
LINE
  5
42
100
AcDbEntity
  8
0
  6
CONTINUOUS
 62
               7
100
AcDbLine
 10
-27.2247589521007
 20
93.749999999999901
 30
0.0
 11
-29.952137494636617
 21
93.749999999999901
 31
0.0
  0
LINE
  5
43
100
AcDbEntity
  8
0
  6
CONTINUOUS
 62
               7
100
AcDbLine
 10
-26.696207595836285
 20
94.749999999999986
 30
0.0
 11
-29.952137494637071
 21
94.749999999999986
 31
0.0
  0
LINE
  5
44
100
AcDbEntity
  8
0
  6
CONTINUOUS
 62
               7
100
AcDbLine
 10
-19.5
 20
109.9906235346984
 30
0.0
 11
-27.732137494636817
 21
109.9906235346984
 31
0.0
  0
LINE
  5
45
100
AcDbEntity
  8
0
  6
CONTINUOUS
 62
               7
100
AcDbLine
 10
-18.499999999999943
 20
104.24871130596439
 30
0.0
 11
-18.499999999999943
 21
109.99062353469829
 31
0.0
  0
LINE
  5
46
100
AcDbEntity
  8
0
  6
CONTINUOUS
 62
               7
100
AcDbLine
 10
-19.499999999999517
 20
104.24999999999999
 30
0.0
 11
-29.952137494637071
 21
104.24999999999999
 31
0.0
  0
LINE
  5
47
100
AcDbEntity
  8
0
  6
CONTINUOUS
 62
               7
100
AcDbLine
 10
-19.74050404624947
 20
103.24999999999999
 30
0.0
 11
-29.952137494637071
 21
103.24999999999999
 31
0.0
  0
LINE
  5
48
100
AcDbEntity
  8
0
  6
CONTINUOUS
 62
               7
100
AcDbLine
 10
-29.952137494637071
 20
104.24999999999999
 30
0.0
 11
-29.952137494636617
 21
107.9906235346986
 31
0.0
  0
LINE
  5
49
100
AcDbEntity
  8
0
  6
CONTINUOUS
 62
               7
100
AcDbLine
 10
-29.952137494637071
 20
94.749999999999986
 30
0.0
 11
-29.952137494637071
 21
103.24999999999999
 31
0.0
  0
LINE
  5
4A
100
AcDbEntity
  8
0
  6
CONTINUOUS
 62
               7
100
AcDbLine
 10
0.0
 20
48.499999999999986
 30
0.0
 11
-28.49999597247276
 21
48.499999999999986
 31
0.0
  0
LINE
  5
4B
100
AcDbEntity
  8
0
  6
CONTINUOUS
 62
               7
100
AcDbLine
 10
0.0
 20
48.499999999999986
 30
0.0
 11
28.499995972472789
 21
48.499999999999986
 31
0.0
  0
ARC
  5
4C
100
AcDbEntity
  8
0
  6
CONTINUOUS
 62
               7
100
AcDbCircle
 10
-27.554175842729109
 20
107.5609861010811
 30
0.0
 40
2.436146220649384
100
AcDbArc
 50
94.189215740521703
 51
169.84221997228821
  0
ARC
  5
4D
100
AcDbEntity
  8
0
  6
CONTINUOUS
 62
               7
100
AcDbCircle
 10
-28.49999597247276
 20
108.49999999999999
 30
0.0
 40
3.0
100
AcDbArc
 50
90.0
 51
180.0
  0
ARC
  5
4E
100
AcDbEntity
  8
0
  6
CONTINUOUS
 62
               7
100
AcDbCircle
 10
-28.49999597247276
 20
51.499999999999986
 30
0.0
 40
3.0
100
AcDbArc
 50
180.0
 51
270.0
  0
ARC
  5
4F
100
AcDbEntity
  8
0
  6
CONTINUOUS
 62
               7
100
AcDbCircle
 10
0.0000000000011937
 20
79.999999999999901
 30
0.0
 40
29.0
100
AcDbArc
 50
151.6967643650018
 51
169.56997870894801
  0
ARC
  5
50
100
AcDbEntity
  8
0
  6
CONTINUOUS
 62
               7
100
AcDbCircle
 10
0.0000000000011937
 20
79.999999999999901
 30
0.0
 40
29.0
100
AcDbArc
 50
171.57285356325849
 51
188.4271464367414
  0
ARC
  5
51
100
AcDbEntity
  8
0
  6
CONTINUOUS
 62
               7
100
AcDbCircle
 10
0.0000000000011937
 20
79.999999999999901
 30
0.0
 40
29.0
100
AcDbArc
 50
190.43002129105193
 51
208.3032356349982
  0
ARC
  5
52
100
AcDbEntity
  8
0
  6
CONTINUOUS
 62
               7
100
AcDbCircle
 10
0.0000000000011937
 20
79.999999999999901
 30
0.0
 40
29.0
100
AcDbArc
 50
210.57199817526012
 51
227.7463630205263
  0
ARC
  5
53
100
AcDbEntity
  8
0
  6
CONTINUOUS
 62
               7
100
AcDbCircle
 10
0.0000000000011937
 20
79.999999999999901
 30
0.0
 40
29.0
100
AcDbArc
 50
312.25363697947387
 51
329.42800182473991
  0
ARC
  5
54
100
AcDbEntity
  8
0
  6
CONTINUOUS
 62
               7
100
AcDbCircle
 10
0.0000000000011937
 20
79.999999999999901
 30
0.0
 40
29.0
100
AcDbArc
 50
331.6967643650018
 51
349.5699787089481
  0
ARC
  5
55
100
AcDbEntity
  8
0
  6
CONTINUOUS
 62
               7
100
AcDbCircle
 10
0.0000000000011937
 20
79.999999999999901
 30
0.0
 40
29.0
100
AcDbArc
 50
351.57285356325849
 51
8.4271464367415021
  0
ARC
  5
56
100
AcDbEntity
  8
0
  6
CONTINUOUS
 62
               7
100
AcDbCircle
 10
0.0000000000011937
 20
79.999999999999901
 30
0.0
 40
29.0
100
AcDbArc
 50
10.43002129105191
 51
28.303235634998202
  0
LINE
  5
57
100
AcDbEntity
  8
0
  6
CONTINUOUS
 62
               7
100
AcDbLine
 10
-24.968730444296597
 20
65.249999999999901
 30
0.0
 11
-19.499999999998607
 21
65.249999999999787
 31
0.0
  0
LINE
  5
58
100
AcDbEntity
  8
0
  6
CONTINUOUS
 62
               7
100
AcDbLine
 10
-25.533066795822805
 20
66.249999999999901
 30
0.0
 11
-19.499999999998835
 21
66.249999999999901
 31
0.0
  0
LINE
  5
59
100
AcDbEntity
  8
0
  6
CONTINUOUS
 62
               7
100
AcDbLine
 10
-28.686887248356896
 20
75.749999999999901
 30
0.0
 11
-19.499999999998835
 21
75.749999999999901
 31
0.0
  0
LINE
  5
5A
100
AcDbEntity
  8
0
  6
CONTINUOUS
 62
               7
100
AcDbLine
 10
-28.520825724370752
 20
74.749999999999901
 30
0.0
 11
-19.499999999998835
 21
74.749999999999901
 31
0.0
  0
LINE
  5
5B
100
AcDbEntity
  8
0
  6
CONTINUOUS
 62
               7
100
AcDbLine
 10
-28.686887248356896
 20
84.249999999999901
 30
0.0
 11
-19.499999999998607
 21
84.249999999999901
 31
0.0
  0
LINE
  5
5C
100
AcDbEntity
  8
0
  6
CONTINUOUS
 62
               7
100
AcDbLine
 10
-28.520825724370752
 20
85.249999999999901
 30
0.0
 11
-19.499999999998607
 21
85.249999999999901
 31
0.0
  0
LINE
  5
5D
100
AcDbEntity
  8
0
  6
CONTINUOUS
 62
               7
100
AcDbLine
 10
-25.533066795822805
 20
93.749999999999901
 30
0.0
 11
-19.499999999998835
 21
93.749999999999901
 31
0.0
  0
LINE
  5
5E
100
AcDbEntity
  8
0
  6
CONTINUOUS
 62
               7
100
AcDbLine
 10
19.500000000001108
 20
93.749999999999901
 30
0.0
 11
19.500000000001108
 21
85.249999999999901
 31
0.0
  0
LINE
  5
5F
100
AcDbEntity
  8
0
  6
CONTINUOUS
 62
               7
100
AcDbLine
 10
18.500000000001108
 20
93.749999999999901
 30
0.0
 11
18.500000000001108
 21
85.249999999999901
 31
0.0
  0
LINE
  5
60
100
AcDbEntity
  8
0
  6
CONTINUOUS
 62
               7
100
AcDbLine
 10
19.500000000001108
 20
93.749999999999901
 30
0.0
 11
25.533066795825107
 21
93.749999999999901
 31
0.0
  0
LINE
  5
61
100
AcDbEntity
  8
0
  6
CONTINUOUS
 62
               7
100
AcDbLine
 10
0.5000000000013927
 20
93.749999999999901
 30
0.0
 11
0.5000000000013927
 21
85.249999999999901
 31
0.0
  0
LINE
  5
62
100
AcDbEntity
  8
0
  6
CONTINUOUS
 62
               7
100
AcDbLine
 10
-0.4999999999988916
 20
93.749999999999901
 30
0.0
 11
-0.4999999999988916
 21
85.249999999999901
 31
0.0
  0
LINE
  5
63
100
AcDbEntity
  8
0
  6
CONTINUOUS
 62
               7
100
AcDbLine
 10
0.5000000000011085
 20
93.749999999999787
 30
0.0
 11
18.500000000001108
 21
93.749999999999901
 31
0.0
  0
LINE
  5
64
100
AcDbEntity
  8
0
  6
CONTINUOUS
 62
               7
100
AcDbLine
 10
-18.499999999998607
 20
84.249999999999901
 30
0.0
 11
-18.499999999998607
 21
75.749999999999901
 31
0.0
  0
LINE
  5
65
100
AcDbEntity
  8
0
  6
CONTINUOUS
 62
               7
100
AcDbLine
 10
-19.499999999998607
 20
93.749999999999901
 30
0.0
 11
-19.499999999998607
 21
85.249999999999901
 31
0.0
  0
LINE
  5
66
100
AcDbEntity
  8
0
  6
CONTINUOUS
 62
               7
100
AcDbLine
 10
-18.499999999998835
 20
93.749999999999901
 30
0.0
 11
-0.4999999999988916
 21
93.749999999999787
 31
0.0
  0
LINE
  5
67
100
AcDbEntity
  8
0
  6
CONTINUOUS
 62
               7
100
AcDbLine
 10
-18.499999999998835
 20
93.749999999999901
 30
0.0
 11
-18.499999999998835
 21
85.249999999999901
 31
0.0
  0
LINE
  5
68
100
AcDbEntity
  8
0
  6
CONTINUOUS
 62
               7
100
AcDbLine
 10
-19.499999999998607
 20
84.249999999999901
 30
0.0
 11
-19.499999999998835
 21
75.749999999999901
 31
0.0
  0
LINE
  5
69
100
AcDbEntity
  8
0
  6
CONTINUOUS
 62
               7
100
AcDbLine
 10
-18.499999999998607
 20
85.249999999999901
 30
0.0
 11
-0.4999999999991189
 21
85.249999999999901
 31
0.0
  0
LINE
  5
6A
100
AcDbEntity
  8
0
  6
CONTINUOUS
 62
               7
100
AcDbLine
 10
-18.499999999998607
 20
84.249999999999901
 30
0.0
 11
-0.4999999999988916
 21
84.249999999999901
 31
0.0
  0
LINE
  5
6B
100
AcDbEntity
  8
0
  6
CONTINUOUS
 62
               7
100
AcDbLine
 10
-0.4999999999988916
 20
84.249999999999901
 30
0.0
 11
-0.4999999999991189
 21
75.749999999999901
 31
0.0
  0
LINE
  5
6C
100
AcDbEntity
  8
0
  6
CONTINUOUS
 62
               7
100
AcDbLine
 10
0.5000000000013927
 20
84.249999999999901
 30
0.0
 11
0.5000000000013927
 21
75.749999999999901
 31
0.0
  0
LINE
  5
6D
100
AcDbEntity
  8
0
  6
CONTINUOUS
 62
               7
100
AcDbLine
 10
0.5000000000013927
 20
85.249999999999901
 30
0.0
 11
18.500000000001108
 21
85.249999999999901
 31
0.0
  0
LINE
  5
6E
100
AcDbEntity
  8
0
  6
CONTINUOUS
 62
               7
100
AcDbLine
 10
0.5000000000013927
 20
84.249999999999901
 30
0.0
 11
18.500000000001108
 21
84.249999999999901
 31
0.0
  0
LINE
  5
6F
100
AcDbEntity
  8
0
  6
CONTINUOUS
 62
               7
100
AcDbLine
 10
19.500000000001108
 20
85.249999999999901
 30
0.0
 11
28.520825724372997
 21
85.249999999999901
 31
0.0
  0
LINE
  5
70
100
AcDbEntity
  8
0
  6
CONTINUOUS
 62
               7
100
AcDbLine
 10
19.500000000001393
 20
74.749999999999901
 30
0.0
 11
19.500000000001393
 21
66.249999999999901
 31
0.0
  0
LINE
  5
71
100
AcDbEntity
  8
0
  6
CONTINUOUS
 62
               7
100
AcDbLine
 10
19.500000000001108
 20
75.749999999999901
 30
0.0
 11
19.500000000001108
 21
84.249999999999901
 31
0.0
  0
LINE
  5
72
100
AcDbEntity
  8
0
  6
CONTINUOUS
 62
               7
100
AcDbLine
 10
18.500000000001108
 20
84.249999999999901
 30
0.0
 11
18.500000000001108
 21
75.749999999999901
 31
0.0
  0
LINE
  5
73
100
AcDbEntity
  8
0
  6
CONTINUOUS
 62
               7
100
AcDbLine
 10
19.500000000001108
 20
84.249999999999901
 30
0.0
 11
28.686887248359199
 21
84.249999999999901
 31
0.0
  0
LINE
  5
74
100
AcDbEntity
  8
0
  6
CONTINUOUS
 62
               7
100
AcDbLine
 10
-19.499999999998835
 20
74.749999999999901
 30
0.0
 11
-19.499999999998835
 21
66.249999999999901
 31
0.0
  0
LINE
  5
75
100
AcDbEntity
  8
0
  6
CONTINUOUS
 62
               7
100
AcDbLine
 10
-18.499999999998607
 20
75.749999999999901
 30
0.0
 11
-0.4999999999988916
 21
75.749999999999901
 31
0.0
  0
LINE
  5
76
100
AcDbEntity
  8
0
  6
CONTINUOUS
 62
               7
100
AcDbLine
 10
-18.499999999998607
 20
74.749999999999702
 30
0.0
 11
-18.499999999998835
 21
66.249999999999901
 31
0.0
  0
LINE
  5
77
100
AcDbEntity
  8
0
  6
CONTINUOUS
 62
               7
100
AcDbLine
 10
-18.499999999998607
 20
74.749999999999702
 30
0.0
 11
-0.4999999999991189
 21
74.749999999999702
 31
0.0
  0
LINE
  5
78
100
AcDbEntity
  8
0
  6
CONTINUOUS
 62
               7
100
AcDbLine
 10
-0.4999999999988916
 20
74.749999999999901
 30
0.0
 11
-0.4999999999988916
 21
66.249999999999787
 31
0.0
  0
LINE
  5
79
100
AcDbEntity
  8
0
  6
CONTINUOUS
 62
               7
100
AcDbLine
 10
0.5000000000013927
 20
75.749999999999901
 30
0.0
 11
18.500000000001108
 21
75.749999999999702
 31
0.0
  0
LINE
  5
7A
100
AcDbEntity
  8
0
  6
CONTINUOUS
 62
               7
100
AcDbLine
 10
0.5000000000013927
 20
74.749999999999901
 30
0.0
 11
0.5000000000013927
 21
66.249999999999787
 31
0.0
  0
LINE
  5
7B
100
AcDbEntity
  8
0
  6
CONTINUOUS
 62
               7
100
AcDbLine
 10
0.5000000000013927
 20
74.749999999999702
 30
0.0
 11
18.500000000001108
 21
74.749999999999901
 31
0.0
  0
LINE
  5
7C
100
AcDbEntity
  8
0
  6
CONTINUOUS
 62
               7
100
AcDbLine
 10
18.500000000001393
 20
74.749999999999702
 30
0.0
 11
18.500000000001108
 21
66.249999999999787
 31
0.0
  0
LINE
  5
7D
100
AcDbEntity
  8
0
  6
CONTINUOUS
 62
               7
100
AcDbLine
 10
19.500000000001108
 20
75.749999999999901
 30
0.0
 11
28.686887248359199
 21
75.749999999999901
 31
0.0
  0
LINE
  5
7E
100
AcDbEntity
  8
0
  6
CONTINUOUS
 62
               7
100
AcDbLine
 10
19.500000000001108
 20
74.749999999999901
 30
0.0
 11
28.520825724372997
 21
74.749999999999901
 31
0.0
  0
LINE
  5
7F
100
AcDbEntity
  8
0
  6
CONTINUOUS
 62
               7
100
AcDbLine
 10
19.500000000001108
 20
65.249999999999901
 30
0.0
 11
19.500000000001108
 21
58.534912066334286
 31
0.0
  0
LINE
  5
80
100
AcDbEntity
  8
0
  6
CONTINUOUS
 62
               7
100
AcDbLine
 10
19.500000000001108
 20
66.249999999999901
 30
0.0
 11
25.533066795825107
 21
66.249999999999901
 31
0.0
  0
LINE
  5
81
100
AcDbEntity
  8
0
  6
CONTINUOUS
 62
               7
100
AcDbLine
 10
19.500000000001108
 20
65.249999999999901
 30
0.0
 11
24.968730444298899
 21
65.249999999999901
 31
0.0
  0
LINE
  5
82
100
AcDbEntity
  8
0
  6
CONTINUOUS
 62
               7
100
AcDbLine
 10
18.500000000001393
 20
65.249999999999901
 30
0.0
 11
18.500000000001108
 21
57.667288565872596
 31
0.0
  0
LINE
  5
83
100
AcDbEntity
  8
0
  6
CONTINUOUS
 62
               7
100
AcDbLine
 10
0.5000000000011085
 20
65.249999999999901
 30
0.0
 11
0.5000000000008811
 21
56.749999999999901
 31
0.0
  0
LINE
  5
84
100
AcDbEntity
  8
0
  6
CONTINUOUS
 62
               7
100
AcDbLine
 10
0.5000000000013927
 20
66.249999999999901
 30
0.0
 11
18.500000000001108
 21
66.249999999999901
 31
0.0
  0
LINE
  5
85
100
AcDbEntity
  8
0
  6
CONTINUOUS
 62
               7
100
AcDbLine
 10
-0.4999999999991189
 20
56.749999999999901
 30
0.0
 11
-0.4999999999988916
 21
65.249999999999901
 31
0.0
  0
LINE
  5
86
100
AcDbEntity
  8
0
  6
CONTINUOUS
 62
               7
100
AcDbLine
 10
0.5000000000011085
 20
65.249999999999901
 30
0.0
 11
18.500000000001108
 21
65.249999999999901
 31
0.0
  0
LINE
  5
87
100
AcDbEntity
  8
0
  6
CONTINUOUS
 62
               7
100
AcDbLine
 10
-18.499999999998835
 20
65.249999999999901
 30
0.0
 11
-18.499999999998607
 21
57.667288565872511
 31
0.0
  0
LINE
  5
88
100
AcDbEntity
  8
0
  6
CONTINUOUS
 62
               7
100
AcDbLine
 10
-18.499999999998835
 20
66.249999999999901
 30
0.0
 11
-0.4999999999988916
 21
66.249999999999901
 31
0.0
  0
LINE
  5
89
100
AcDbEntity
  8
0
  6
CONTINUOUS
 62
               7
100
AcDbLine
 10
-19.499999999998607
 20
65.249999999999901
 30
0.0
 11
-19.499999999998607
 21
58.534912066334201
 31
0.0
  0
LINE
  5
8A
100
AcDbEntity
  8
0
  6
CONTINUOUS
 62
               7
100
AcDbLine
 10
-18.499999999998835
 20
65.249999999999901
 30
0.0
 11
-0.4999999999988916
 21
65.249999999999901
 31
0.0
  0
ARC
  5
8B
100
AcDbEntity
  8
0
  6
CONTINUOUS
 62
               7
100
AcDbCircle
 10
0.0000000000011937
 20
79.999999999999901
 30
0.0
 40
29.0
100
AcDbArc
 50
126.70493775030022
 51
129.63771439066861
  0
ARC
  5
8C
100
AcDbEntity
  8
0
  6
CONTINUOUS
 62
               7
100
AcDbCircle
 10
0.0000000000011937
 20
79.999999999999901
 30
0.0
 40
29.0
100
AcDbArc
 50
132.2536369794737
 51
149.42800182473979
  0
ARC
  5
8D
100
AcDbEntity
  8
0
  6
CONTINUOUS
 62
               7
100
AcDbCircle
 10
0.0000000000011937
 20
79.999999999999901
 30
0.0
 40
29.0
100
AcDbArc
 50
230.36228560933131
 51
233.2950622496997
  0
ARC
  5
8E
100
AcDbEntity
  8
0
  6
CONTINUOUS
 62
               7
100
AcDbCircle
 10
0.0000000000011937
 20
79.999999999999901
 30
0.0
 40
29.0
100
AcDbArc
 50
236.74171844116213
 51
269.01209278334358
  0
ARC
  5
8F
100
AcDbEntity
  8
0
  6
CONTINUOUS
 62
               7
100
AcDbCircle
 10
0.0000000000011937
 20
79.999999999999901
 30
0.0
 40
29.0
100
AcDbArc
 50
270.98790721665642
 51
303.25828155883801
  0
ARC
  5
90
100
AcDbEntity
  8
0
  6
CONTINUOUS
 62
               7
100
AcDbCircle
 10
0.0000000000011937
 20
79.999999999999901
 30
0.0
 40
29.0
100
AcDbArc
 50
56.741718441162071
 51
89.01209278334359
  0
ARC
  5
91
100
AcDbEntity
  8
0
  6
CONTINUOUS
 62
               7
100
AcDbCircle
 10
0.0000000000011937
 20
79.999999999999901
 30
0.0
 40
29.0
100
AcDbArc
 50
90.987907216656424
 51
123.25828155883789
  0
LINE
  5
92
100
AcDbEntity
  8
0
  6
CONTINUOUS
 62
               7
100
AcDbLine
 10
-17.333133011661602
 20
56.749999999999901
 30
0.0
 11
-0.4999999999991189
 21
56.749999999999901
 31
0.0
  0
LINE
  5
93
100
AcDbEntity
  8
0
  6
CONTINUOUS
 62
               7
100
AcDbLine
 10
-15.904008928567663
 20
55.749999999999702
 30
0.0
 11
-0.4999999999991189
 21
55.749999999999901
 31
0.0
  0
LINE
  5
94
100
AcDbEntity
  8
0
  6
CONTINUOUS
 62
               7
100
AcDbLine
 10
-24.968730444296369
 20
94.749999999999901
 30
0.0
 11
-19.499999999998835
 21
94.749999999999901
 31
0.0
  0
LINE
  5
95
100
AcDbEntity
  8
0
  6
CONTINUOUS
 62
               7
100
AcDbLine
 10
-17.333133011661602
 20
103.2499999999999
 30
0.0
 11
-0.4999999999988916
 21
103.2499999999999
 31
0.0
  0
LINE
  5
96
100
AcDbEntity
  8
0
  6
CONTINUOUS
 62
               7
100
AcDbLine
 10
-15.904008928567663
 20
104.2499999999999
 30
0.0
 11
-0.4999999999986073
 21
104.24999999999979
 31
0.0
  0
LINE
  5
97
100
AcDbEntity
  8
0
  6
CONTINUOUS
 62
               7
100
AcDbLine
 10
-0.4999999999986073
 20
108.99568933479578
 30
0.0
 11
-0.4999999999988916
 21
104.24999999999979
 31
0.0
  0
LINE
  5
98
100
AcDbEntity
  8
0
  6
CONTINUOUS
 62
               7
100
AcDbLine
 10
0.5000000000013927
 20
108.99568933479578
 30
0.0
 11
0.5000000000013927
 21
104.24999999999979
 31
0.0
  0
LINE
  5
99
100
AcDbEntity
  8
0
  6
CONTINUOUS
 62
               7
100
AcDbLine
 10
-18.499999999999062
 20
102.33271143412709
 30
0.0
 11
-18.499999999998835
 21
94.749999999999901
 31
0.0
  0
LINE
  5
9A
100
AcDbEntity
  8
0
  6
CONTINUOUS
 62
               7
100
AcDbLine
 10
-19.499999999998607
 20
101.4650879336656
 30
0.0
 11
-19.499999999998607
 21
94.749999999999787
 31
0.0
  0
LINE
  5
9B
100
AcDbEntity
  8
0
  6
CONTINUOUS
 62
               7
100
AcDbLine
 10
0.5000000000011085
 20
104.24999999999979
 30
0.0
 11
15.904008928570192
 21
104.24999999999979
 31
0.0
  0
LINE
  5
9C
100
AcDbEntity
  8
0
  6
CONTINUOUS
 62
               7
100
AcDbLine
 10
0.5000000000013927
 20
103.2499999999999
 30
0.0
 11
0.5000000000013927
 21
94.749999999999901
 31
0.0
  0
LINE
  5
9D
100
AcDbEntity
  8
0
  6
CONTINUOUS
 62
               7
100
AcDbLine
 10
0.5000000000011085
 20
103.2499999999999
 30
0.0
 11
17.333133011664103
 21
103.2499999999999
 31
0.0
  0
LINE
  5
9E
100
AcDbEntity
  8
0
  6
CONTINUOUS
 62
               7
100
AcDbLine
 10
-0.4999999999988916
 20
103.2499999999999
 30
0.0
 11
-0.4999999999988916
 21
94.749999999999901
 31
0.0
  0
LINE
  5
9F
100
AcDbEntity
  8
0
  6
CONTINUOUS
 62
               7
100
AcDbLine
 10
0.5000000000011085
 20
94.749999999999901
 30
0.0
 11
18.500000000000881
 21
94.749999999999901
 31
0.0
  0
LINE
  5
A0
100
AcDbEntity
  8
0
  6
CONTINUOUS
 62
               7
100
AcDbLine
 10
-18.499999999998835
 20
94.749999999999901
 30
0.0
 11
-0.4999999999988916
 21
94.749999999999901
 31
0.0
  0
LINE
  5
A1
100
AcDbEntity
  8
0
  6
CONTINUOUS
 62
               7
100
AcDbLine
 10
-0.4999999999991189
 20
55.749999999999901
 30
0.0
 11
-0.4999999999988916
 21
51.004310665203903
 31
0.0
  0
LINE
  5
A2
100
AcDbEntity
  8
0
  6
CONTINUOUS
 62
               7
100
AcDbLine
 10
0.5000000000011085
 20
55.749999999999702
 30
0.0
 11
15.904008928569993
 21
55.749999999999901
 31
0.0
  0
LINE
  5
A3
100
AcDbEntity
  8
0
  6
CONTINUOUS
 62
               7
100
AcDbLine
 10
0.5000000000011085
 20
55.749999999999702
 30
0.0
 11
0.5000000000011085
 21
51.004310665203903
 31
0.0
  0
LINE
  5
A4
100
AcDbEntity
  8
0
  6
CONTINUOUS
 62
               7
100
AcDbLine
 10
0.5000000000008811
 20
56.749999999999901
 30
0.0
 11
17.333133011663904
 21
56.749999999999787
 31
0.0
  0
ARC
  5
A5
100
AcDbEntity
  8
0
  6
CONTINUOUS
 62
               7
100
AcDbCircle
 10
0.0000000000011937
 20
79.999999999999901
 30
0.0
 40
29.0
100
AcDbArc
 50
30.571998175260141
 51
47.74636302052626
  0
ARC
  5
A6
100
AcDbEntity
  8
0
  6
CONTINUOUS
 62
               7
100
AcDbCircle
 10
0.0000000000011937
 20
79.999999999999901
 30
0.0
 40
29.0
100
AcDbArc
 50
50.36228560933133
 51
53.29506224969974
  0
LINE
  5
A7
100
AcDbEntity
  8
0
  6
CONTINUOUS
 62
               7
100
AcDbLine
 10
19.500000000001108
 20
101.46508793366549
 30
0.0
 11
19.500000000001108
 21
94.749999999999901
 31
0.0
  0
LINE
  5
A8
100
AcDbEntity
  8
0
  6
CONTINUOUS
 62
               7
100
AcDbLine
 10
18.500000000001108
 20
102.33271143412709
 30
0.0
 11
18.500000000001108
 21
94.749999999999901
 31
0.0
  0
LINE
  5
A9
100
AcDbEntity
  8
0
  6
CONTINUOUS
 62
               7
100
AcDbLine
 10
19.500000000001108
 20
94.749999999999901
 30
0.0
 11
24.968730444298899
 21
94.749999999999901
 31
0.0
  0
ARC
  5
AA
100
AcDbEntity
  8
0
  6
CONTINUOUS
 62
               7
100
AcDbCircle
 10
0.0000000000011937
 20
79.999999999999901
 30
0.0
 40
30.5
100
AcDbArc
 50
100.3888578154712
 51
127.3409930166296
  0
LINE
  5
AB
100
AcDbEntity
  8
0
  6
CONTINUOUS
 62
               7
100
AcDbLine
 10
-18.499999999999943
 20
104.2500000000001
 30
0.0
 11
-18.498310733684491
 21
104.2500000000001
 31
0.0
  0
ARC
  5
AC
100
AcDbEntity
  8
0
  6
CONTINUOUS
 62
               7
100
AcDbCircle
 10
27.554175842731212
 20
107.5609861010811
 30
0.0
 40
2.436146220649384
100
AcDbArc
 50
10.157780027711761
 51
85.810784259478297
  0
LINE
  5
AD
100
AcDbEntity
  8
0
  6
CONTINUOUS
 62
               7
100
AcDbLine
 10
18.500000000002018
 20
104.24871130596439
 30
0.0
 11
18.500000000002018
 21
109.99062353469829
 31
0.0
  0
LINE
  5
AE
100
AcDbEntity
  8
0
  6
CONTINUOUS
 62
               7
100
AcDbLine
 10
19.500000000002018
 20
109.9906235346984
 30
0.0
 11
27.732137494638891
 21
109.9906235346984
 31
0.0
  0
LINE
  5
AF
100
AcDbEntity
  8
0
  6
CONTINUOUS
 62
               7
100
AcDbLine
 10
19.500000000001791
 20
104.24999999999999
 30
0.0
 11
19.500000000002018
 21
109.9906235346984
 31
0.0
  0
LINE
  5
B0
100
AcDbEntity
  8
0
  6
CONTINUOUS
 62
               7
100
AcDbLine
 10
5.5000000000023022
 20
110.0000000000001
 30
0.0
 11
18.500000000002018
 21
109.99062353469829
 31
0.0
  0
LINE
  5
B1
100
AcDbEntity
  8
0
  6
CONTINUOUS
 62
               7
100
AcDbLine
 10
29.952137494639203
 20
94.749999999999986
 30
0.0
 11
29.952137494639203
 21
103.24999999999999
 31
0.0
  0
LINE
  5
B2
100
AcDbEntity
  8
0
  6
CONTINUOUS
 62
               7
100
AcDbLine
 10
29.952137494639203
 20
104.24999999999999
 30
0.0
 11
29.95213749463889
 21
107.9906235346986
 31
0.0
  0
LINE
  5
B3
100
AcDbEntity
  8
0
  6
CONTINUOUS
 62
               7
100
AcDbLine
 10
19.7405040462518
 20
103.24999999999999
 30
0.0
 11
29.952137494639203
 21
103.24999999999999
 31
0.0
  0
LINE
  5
B4
100
AcDbEntity
  8
0
  6
CONTINUOUS
 62
               7
100
AcDbLine
 10
19.500000000001791
 20
104.24999999999999
 30
0.0
 11
29.952137494639203
 21
104.24999999999999
 31
0.0
  0
LINE
  5
B5
100
AcDbEntity
  8
0
  6
CONTINUOUS
 62
               7
100
AcDbLine
 10
26.696207595838587
 20
94.749999999999986
 30
0.0
 11
29.952137494639203
 21
94.749999999999986
 31
0.0
  0
LINE
  5
B6
100
AcDbEntity
  8
0
  6
CONTINUOUS
 62
               7
100
AcDbLine
 10
27.224758952103002
 20
93.749999999999901
 30
0.0
 11
29.95213749463889
 21
93.749999999999901
 31
0.0
  0
LINE
  5
B7
100
AcDbEntity
  8
0
  6
CONTINUOUS
 62
               7
100
AcDbLine
 10
29.95213749463889
 20
85.754950868806006
 30
0.0
 11
29.95213749463889
 21
93.749999999999901
 31
0.0
  0
LINE
  5
B8
100
AcDbEntity
  8
0
  6
CONTINUOUS
 62
               7
100
AcDbLine
 10
29.95213749463889
 20
74.245049131193795
 30
0.0
 11
29.95213749463889
 21
66.249999999999901
 31
0.0
  0
LINE
  5
B9
100
AcDbEntity
  8
0
  6
CONTINUOUS
 62
               7
100
AcDbLine
 10
27.224758952103002
 20
66.249999999999787
 30
0.0
 11
29.95213749463889
 21
66.249999999999787
 31
0.0
  0
LINE
  5
BA
100
AcDbEntity
  8
0
  6
CONTINUOUS
 62
               7
100
AcDbLine
 10
26.696207595838587
 20
65.249999999999787
 30
0.0
 11
29.952137494639203
 21
65.249999999999787
 31
0.0
  0
LINE
  5
BB
100
AcDbEntity
  8
0
  6
CONTINUOUS
 62
               7
100
AcDbLine
 10
29.952137494639203
 20
65.249999999999787
 30
0.0
 11
29.952137494639203
 21
56.749999999999787
 31
0.0
  0
LINE
  5
BC
100
AcDbEntity
  8
0
  6
CONTINUOUS
 62
               7
100
AcDbLine
 10
19.500000000001791
 20
55.749999999999702
 30
0.0
 11
29.952137494639203
 21
55.749999999999702
 31
0.0
  0
LINE
  5
BD
100
AcDbEntity
  8
0
  6
CONTINUOUS
 62
               7
100
AcDbLine
 10
19.7405040462518
 20
56.749999999999787
 30
0.0
 11
29.952137494639203
 21
56.749999999999787
 31
0.0
  0
LINE
  5
BE
100
AcDbEntity
  8
0
  6
CONTINUOUS
 62
               7
100
AcDbLine
 10
29.952137494639203
 20
55.749999999999702
 30
0.0
 11
29.95213749463889
 21
52.009376465301401
 31
0.0
  0
LINE
  5
BF
100
AcDbEntity
  8
0
  6
CONTINUOUS
 62
               7
100
AcDbLine
 10
19.500000000002018
 20
50.009376465301401
 30
0.0
 11
27.732137494638891
 21
50.009376465301401
 31
0.0
  0
ARC
  5
C0
100
AcDbEntity
  8
0
  6
CONTINUOUS
 62
               7
100
AcDbCircle
 10
27.554175842731212
 20
52.439013898918702
 30
0.0
 40
2.436146220649384
100
AcDbArc
 50
274.18921574052172
 51
349.84221997228832
  0
LINE
  5
C1
100
AcDbEntity
  8
0
  6
CONTINUOUS
 62
               7
100
AcDbLine
 10
5.5000000000023022
 20
49.999999999999787
 30
0.0
 11
18.500000000002018
 21
50.0093764653016
 31
0.0
  0
LINE
  5
C2
100
AcDbEntity
  8
0
  6
CONTINUOUS
 62
               7
100
AcDbLine
 10
19.500000000001791
 20
55.749999999999702
 30
0.0
 11
19.500000000002018
 21
50.009376465301401
 31
0.0
  0
LINE
  5
C3
100
AcDbEntity
  8
0
  6
CONTINUOUS
 62
               7
100
AcDbLine
 10
18.500000000002018
 20
55.751288694035495
 30
0.0
 11
18.500000000002018
 21
50.0093764653016
 31
0.0
  0
ARC
  5
C4
100
AcDbEntity
  8
0
  6
CONTINUOUS
 62
               7
100
AcDbCircle
 10
-27.554175842729109
 20
52.439013898918702
 30
0.0
 40
2.436146220649384
100
AcDbArc
 50
190.15778002771171
 51
265.81078425947828
  0
LINE
  5
C5
100
AcDbEntity
  8
0
  6
CONTINUOUS
 62
               7
100
AcDbLine
 10
-18.499999999999943
 20
55.751288694035495
 30
0.0
 11
-18.499999999999943
 21
50.0093764653016
 31
0.0
  0
LINE
  5
C6
100
AcDbEntity
  8
0
  6
CONTINUOUS
 62
               7
100
AcDbLine
 10
-19.5
 20
50.009376465301401
 30
0.0
 11
-27.732137494636817
 21
50.009376465301401
 31
0.0
  0
LINE
  5
C7
100
AcDbEntity
  8
0
  6
CONTINUOUS
 62
               7
100
AcDbLine
 10
-19.499999999999517
 20
55.749999999999702
 30
0.0
 11
-19.5
 21
50.009376465301401
 31
0.0
  0
LINE
  5
C8
100
AcDbEntity
  8
0
  6
CONTINUOUS
 62
               7
100
AcDbLine
 10
-5.4999999999999716
 20
49.999999999999787
 30
0.0
 11
-18.499999999999943
 21
50.0093764653016
 31
0.0
  0
LINE
  5
C9
100
AcDbEntity
  8
0
  6
CONTINUOUS
 62
               7
100
AcDbLine
 10
-29.952137494637071
 20
65.249999999999787
 30
0.0
 11
-29.952137494637071
 21
56.749999999999787
 31
0.0
  0
LINE
  5
CA
100
AcDbEntity
  8
0
  6
CONTINUOUS
 62
               7
100
AcDbLine
 10
-29.952137494637071
 20
55.749999999999702
 30
0.0
 11
-29.952137494636617
 21
52.009376465301401
 31
0.0
  0
LINE
  5
CB
100
AcDbEntity
  8
0
  6
CONTINUOUS
 62
               7
100
AcDbLine
 10
-19.74050404624947
 20
56.749999999999787
 30
0.0
 11
-29.952137494637071
 21
56.749999999999787
 31
0.0
  0
LINE
  5
CC
100
AcDbEntity
  8
0
  6
CONTINUOUS
 62
               7
100
AcDbLine
 10
-19.499999999999517
 20
55.749999999999702
 30
0.0
 11
-29.952137494637071
 21
55.749999999999702
 31
0.0
  0
LINE
  5
CD
100
AcDbEntity
  8
0
  6
CONTINUOUS
 62
               7
100
AcDbLine
 10
-26.696207595836285
 20
65.249999999999787
 30
0.0
 11
-29.952137494637071
 21
65.249999999999787
 31
0.0
  0
LINE
  5
CE
100
AcDbEntity
  8
0
  6
CONTINUOUS
 62
               7
100
AcDbLine
 10
-27.2247589521007
 20
66.249999999999787
 30
0.0
 11
-29.952137494636617
 21
66.249999999999787
 31
0.0
  0
LINE
  5
CF
100
AcDbEntity
  8
0
  6
CONTINUOUS
 62
               7
100
AcDbLine
 10
-29.952137494636617
 20
74.245049131193795
 30
0.0
 11
-29.952137494636617
 21
66.249999999999901
 31
0.0
  0
ARC
  5
D0
100
AcDbEntity
  8
0
  6
CONTINUOUS
 62
               7
100
AcDbCircle
 10
0.0000000000011937
 20
79.999999999999901
 30
0.0
 40
30.5
100
AcDbArc
 50
130.33305285627421
 51
151.07878188368051
  0
ARC
  5
D1
100
AcDbEntity
  8
0
  6
CONTINUOUS
 62
               7
100
AcDbCircle
 10
0.0000000000011937
 20
79.999999999999901
 30
0.0
 40
30.5
100
AcDbArc
 50
153.2037145670466
 51
169.12383609936609
  0
ARC
  5
D2
100
AcDbEntity
  8
0
  6
CONTINUOUS
 62
               7
100
AcDbCircle
 10
0.0000000000011937
 20
79.999999999999901
 30
0.0
 40
30.5
100
AcDbArc
 50
190.87616390063391
 51
206.7962854329534
  0
ARC
  5
D3
100
AcDbEntity
  8
0
  6
CONTINUOUS
 62
               7
100
AcDbCircle
 10
0.0000000000011937
 20
79.999999999999901
 30
0.0
 40
30.5
100
AcDbArc
 50
208.92121811631941
 51
229.66694714372574
  0
ARC
  5
D4
100
AcDbEntity
  8
0
  6
CONTINUOUS
 62
               7
100
AcDbCircle
 10
0.0000000000011937
 20
79.999999999999901
 30
0.0
 40
30.5
100
AcDbArc
 50
232.65900698337043
 51
259.61114218452872
  0
ARC
  5
D5
100
AcDbEntity
  8
0
  6
CONTINUOUS
 62
               7
100
AcDbCircle
 10
0.0000000000011937
 20
79.999999999999901
 30
0.0
 40
30.5
100
AcDbArc
 50
280.38885781547128
 51
307.34099301662968
  0
ARC
  5
D6
100
AcDbEntity
  8
0
  6
CONTINUOUS
 62
               7
100
AcDbCircle
 10
0.0000000000011937
 20
79.999999999999901
 30
0.0
 40
30.5
100
AcDbArc
 50
310.33305285627779
 51
331.07878188368062
  0
ARC
  5
D7
100
AcDbEntity
  8
0
  6
CONTINUOUS
 62
               7
100
AcDbCircle
 10
0.0000000000011937
 20
79.999999999999901
 30
0.0
 40
30.5
100
AcDbArc
 50
333.20371456704657
 51
349.1238360993645
  0
ARC
  5
D8
100
AcDbEntity
  8
0
  6
CONTINUOUS
 62
               7
100
AcDbCircle
 10
0.0000000000011937
 20
79.999999999999901
 30
0.0
 40
30.5
100
AcDbArc
 50
10.87616390063547
 51
26.796285432953372
  0
ARC
  5
D9
100
AcDbEntity
  8
0
  6
CONTINUOUS
 62
               7
100
AcDbCircle
 10
0.0000000000011937
 20
79.999999999999901
 30
0.0
 40
30.5
100
AcDbArc
 50
28.921218116319451
 51
49.666947143722219
  0
ARC
  5
DA
100
AcDbEntity
  8
0
  6
CONTINUOUS
 62
               7
100
AcDbCircle
 10
0.0000000000011937
 20
79.999999999999901
 30
0.0
 40
30.5
100
AcDbArc
 50
52.65900698337034
 51
79.611142184528759
  0
ARC
  5
DB
100
AcDbEntity
  8
0
  6
CONTINUOUS
 62
               7
100
AcDbCircle
 10
-8.7499999999997442
 20
113.74999999999999
 30
0.0
 40
1.25
100
AcDbArc
 50
90.0
 51
270.0
  0
ARC
  5
DC
100
AcDbEntity
  8
0
  6
CONTINUOUS
 62
               7
100
AcDbCircle
 10
8.75
 20
113.74999999999999
 30
0.0
 40
1.25
100
AcDbArc
 50
270.0
 51
90.0
  0
LINE
  5
DD
100
AcDbEntity
  8
0
  6
CONTINUOUS
 62
               7
100
AcDbLine
 10
-8.7499999999997442
 20
112.5000000000001
 30
0.0
 11
8.75
 21
112.5000000000001
 31
0.0
  0
LINE
  5
DE
100
AcDbEntity
  8
0
  6
CONTINUOUS
 62
               2
100
AcDbLine
 10
30.0
 20
-5.3344425354993064
 30
0.0
 11
30.0
 21
6.9344425354992012
 31
0.0
  0
LINE
  5
DF
100
AcDbEntity
  8
0
  6
CONTINUOUS
 62
               2
100
AcDbLine
 10
-29.999999999999972
 20
-5.3344425354993064
 30
0.0
 11
-29.999999999999972
 21
6.9344425354992012
 31
0.0
  0
LINE
  5
E0
100
AcDbEntity
  8
0
  6
CONTINUOUS
 62
               2
100
AcDbLine
 10
0.0
 20
-5.3344425354993064
 30
0.0
 11
0.0
 21
124.20508466843569
 31
0.0
  0
LINE
  5
E1
100
AcDbEntity
  8
0
  6
CONTINUOUS
 62
               2
100
AcDbLine
 10
34.588572597824196
 20
68.999999999999986
 30
0.0
 11
59.135477364127411
 21
68.999999999999986
 31
0.0
  0
LINE
  5
E2
100
AcDbEntity
  8
0
  6
CONTINUOUS
 62
               2
100
AcDbLine
 10
-59.251220405762496
 20
68.999999999999986
 30
0.0
 11
-34.606712916978239
 21
68.999999999999986
 31
0.0
  0
LINE
  5
E4
100
AcDbEntity
  8
0
  6
HIDDEN
 62
               7
100
AcDbLine
 10
-32.299999999999926
 20
1.5999999999999943
 30
0.0
 11
-32.299999999999926
 21
0.0
 31
0.0
  0
LINE
  5
E5
100
AcDbEntity
  8
0
  6
HIDDEN
 62
               7
100
AcDbLine
 10
-2.2999999999999829
 20
0.0
 30
0.0
 11
-2.2999999999999829
 21
1.5999999999999943
 31
0.0
  0
LINE
  5
E6
100
AcDbEntity
  8
0
  6
HIDDEN
 62
               7
100
AcDbLine
 10
27.700000000000102
 20
1.5999999999999943
 30
0.0
 11
27.700000000000102
 21
0.0
 31
0.0
  0
LINE
  5
E7
100
AcDbEntity
  8
0
  6
HIDDEN
 62
               7
100
AcDbLine
 10
2.3000000000002103
 20
0.0
 30
0.0
 11
2.3000000000002103
 21
1.5999999999999943
 31
0.0
  0
LINE
  5
E8
100
AcDbEntity
  8
0
  6
HIDDEN
 62
               7
100
AcDbLine
 10
-27.69999999999979
 20
1.5999999999999943
 30
0.0
 11
-27.69999999999979
 21
0.0
 31
0.0
  0
LINE
  5
E9
100
AcDbEntity
  8
0
  6
HIDDEN
 62
               7
100
AcDbLine
 10
32.30000000000021
 20
1.5999999999999943
 30
0.0
 11
32.30000000000021
 21
0.0
 31
0.0
  0
LINE
  5
EB
100
AcDbEntity
  8
0
  6
PHANTOM
 62
               2
100
AcDbLine
 10
42.400000000000091
 20
71.600000000000009
 30
0.0
 11
44.0
 21
71.600000000000009
 31
0.0
  0
LINE
  5
EC
100
AcDbEntity
  8
0
  6
PHANTOM
 62
               2
100
AcDbLine
 10
42.400000000000091
 20
66.399999999999991
 30
0.0
 11
44.0
 21
66.399999999999991
 31
0.0
  0
LINE
  5
ED
100
AcDbEntity
  8
0
  6
PHANTOM
 62
               2
100
AcDbLine
 10
-43.999999999999972
 20
66.399999999999991
 30
0.0
 11
-42.399999999999835
 21
66.399999999999991
 31
0.0
  0
LINE
  5
EE
100
AcDbEntity
  8
0
  6
PHANTOM
 62
               2
100
AcDbLine
 10
-43.999999999999972
 20
71.600000000000009
 30
0.0
 11
-42.399999999999835
 21
71.600000000000009
 31
0.0
  0
LINE
  5
EF
100
AcDbEntity
  8
0
  6
CONTINUOUS
 62
               7
100
AcDbLine
 10
42.400000000000091
 20
14.999999999999986
 30
0.0
 11
44.0
 21
14.999999999999986
 31
0.0
  0
LINE
  5
F0
100
AcDbEntity
  8
0
  6
PHANTOM
 62
               2
100
AcDbLine
 10
-43.999999999999972
 20
14.999999999999986
 30
0.0
 11
-42.399999999999835
 21
14.999999999999986
 31
0.0
  0
LINE
  5
F1
100
AcDbEntity
  8
0
  6
PHANTOM
 62
               2
100
AcDbLine
 10
44.0
 20
78.999999999999986
 30
0.0
 11
42.400000000000091
 21
78.999999999999986
 31
0.0
  0
LINE
  5
F2
100
AcDbEntity
  8
0
  6
PHANTOM
 62
               2
100
AcDbLine
 10
-43.999999999999972
 20
78.999999999999986
 30
0.0
 11
-42.399999999999835
 21
78.999999999999986
 31
0.0
  0
LINE
  5
F3
100
AcDbEntity
  8
0
  6
PHANTOM
 62
               2
100
AcDbLine
 10
42.400000000000091
 20
1.5999999999999943
 30
0.0
 11
42.400000000000091
 21
78.999999999999986
 31
0.0
  0
LINE
  5
F4
100
AcDbEntity
  8
0
  6
PHANTOM
 62
               2
100
AcDbLine
 10
44.0
 20
0.0
 30
0.0
 11
44.0
 21
78.999999999999986
 31
0.0
  0
LINE
  5
F5
100
AcDbEntity
  8
0
  6
PHANTOM
 62
               2
100
AcDbLine
 10
-42.399999999999835
 20
1.5999999999998948
 30
0.0
 11
-42.399999999999835
 21
78.999999999999986
 31
0.0
  0
LINE
  5
F6
100
AcDbEntity
  8
0
  6
PHANTOM
 62
               2
100
AcDbLine
 10
-43.999999999999972
 20
0.0
 30
0.0
 11
-43.999999999999972
 21
78.999999999999986
 31
0.0
  0
LINE
  5
F7
100
AcDbEntity
  8
0
  6
PHANTOM
 62
               2
100
AcDbLine
 10
-42.399999999999835
 20
1.5999999999998948
 30
0.0
 11
42.400000000000091
 21
1.5999999999999943
 31
0.0
  0
LINE
  5
F8
100
AcDbEntity
  8
0
  6
PHANTOM
 62
               2
100
AcDbLine
 10
-43.999999999999972
 20
0.0
 30
0.0
 11
44.0
 21
0.0
 31
0.0
  0
CIRCLE
  5
F9
100
AcDbEntity
  8
0
  6
CONTINUOUS
 62
               7
100
AcDbCircle
 10
-4.9999999999999716
 20
27.199999999999889
 30
0.0
 40
1.5
  0
CIRCLE
  5
FA
100
AcDbEntity
  8
0
  6
CONTINUOUS
 62
               7
100
AcDbCircle
 10
5.0
 20
27.199999999999889
 30
0.0
 40
1.5
  0
LINE
  5
FB
100
AcDbEntity
  8
0
  6
CONTINUOUS
 62
               7
100
AcDbLine
 10
30.944066926206489
 20
28.549999999999997
 30
0.0
 11
22.044066926206597
 21
28.549999999999997
 31
0.0
  0
LINE
  5
FC
100
AcDbEntity
  8
0
  6
CONTINUOUS
 62
               7
100
AcDbLine
 10
22.044066926206597
 20
37.449999999999889
 30
0.0
 11
30.944066926206489
 21
37.449999999999889
 31
0.0
  0
LINE
  5
FD
100
AcDbEntity
  8
0
  6
CONTINUOUS
 62
               7
100
AcDbLine
 10
22.044066926206597
 20
28.550000000000111
 30
0.0
 11
22.044066926206597
 21
37.449999999999889
 31
0.0
  0
LINE
  5
FE
100
AcDbEntity
  8
0
  6
CONTINUOUS
 62
               7
100
AcDbLine
 10
30.944066926206489
 20
37.449999999999889
 30
0.0
 11
30.944066926206489
 21
28.550000000000111
 31
0.0
  0
CIRCLE
  5
FF
100
AcDbEntity
  8
0
  6
CONTINUOUS
 62
               7
100
AcDbCircle
 10
-27.570807654440586
 20
27.919350483856007
 30
0.0
 40
0.6409174099044322
  0
CIRCLE
  5
100
100
AcDbEntity
  8
0
  6
CONTINUOUS
 62
               7
100
AcDbCircle
 10
-23.499999999999943
 20
30.600000000000009
 30
0.0
 40
7.0
  0
CIRCLE
  5
101
100
AcDbEntity
  8
0
  6
CONTINUOUS
 62
               7
100
AcDbCircle
 10
-23.499999999999943
 20
30.600000000000009
 30
0.0
 40
6.75
  0
CIRCLE
  5
102
100
AcDbEntity
  8
0
  6
CONTINUOUS
 62
               7
100
AcDbCircle
 10
-23.499999999999943
 20
30.600000000000009
 30
0.0
 40
6.25
  0
ARC
  5
103
100
AcDbEntity
  8
0
  6
PHANTOM
 62
               2
100
AcDbCircle
 10
48.070954845342612
 20
62.999999999999986
 30
0.0
 40
0.4
100
AcDbArc
 50
90.0
 51
270.0
  0
LINE
  5
104
100
AcDbEntity
  8
0
  6
PHANTOM
 62
               2
100
AcDbLine
 10
55.200000000000301
 20
63.399999999999991
 30
0.0
 11
48.070954845342385
 21
63.399999999999991
 31
0.0
  0
LINE
  5
105
100
AcDbEntity
  8
0
  6
PHANTOM
 62
               2
100
AcDbLine
 10
55.200000000000301
 20
62.600000000000009
 30
0.0
 11
48.070954845342385
 21
62.600000000000009
 31
0.0
  0
ARC
  5
106
100
AcDbEntity
  8
0
  6
PHANTOM
 62
               2
100
AcDbCircle
 10
48.070954845342612
 20
74.999999999999986
 30
0.0
 40
0.4
100
AcDbArc
 50
90.0
 51
270.0
  0
LINE
  5
107
100
AcDbEntity
  8
0
  6
PHANTOM
 62
               2
100
AcDbLine
 10
55.200000000000301
 20
75.399999999999991
 30
0.0
 11
48.070954845342385
 21
75.399999999999991
 31
0.0
  0
LINE
  5
108
100
AcDbEntity
  8
0
  6
PHANTOM
 62
               2
100
AcDbLine
 10
55.200000000000301
 20
74.600000000000094
 30
0.0
 11
48.070954845342385
 21
74.600000000000094
 31
0.0
  0
LINE
  5
109
100
AcDbEntity
  8
0
  6
PHANTOM
 62
               2
100
AcDbLine
 10
55.200000000000301
 20
65.600000000000009
 30
0.0
 11
48.070954845342385
 21
65.600000000000009
 31
0.0
  0
LINE
  5
10A
100
AcDbEntity
  8
0
  6
PHANTOM
 62
               2
100
AcDbLine
 10
55.200000000000301
 20
66.399999999999991
 30
0.0
 11
48.070954845342385
 21
66.399999999999991
 31
0.0
  0
ARC
  5
10B
100
AcDbEntity
  8
0
  6
PHANTOM
 62
               2
100
AcDbCircle
 10
48.070954845342612
 20
65.999999999999986
 30
0.0
 40
0.4
100
AcDbArc
 50
90.0
 51
270.0
  0
LINE
  5
10C
100
AcDbEntity
  8
0
  6
PHANTOM
 62
               2
100
AcDbLine
 10
55.200000000000301
 20
71.600000000000009
 30
0.0
 11
48.070954845342385
 21
71.600000000000009
 31
0.0
  0
LINE
  5
10D
100
AcDbEntity
  8
0
  6
PHANTOM
 62
               2
100
AcDbLine
 10
55.200000000000301
 20
72.399999999999991
 30
0.0
 11
48.070954845342385
 21
72.399999999999991
 31
0.0
  0
ARC
  5
10E
100
AcDbEntity
  8
0
  6
PHANTOM
 62
               2
100
AcDbCircle
 10
48.070954845342612
 20
71.999999999999986
 30
0.0
 40
0.4
100
AcDbArc
 50
90.0
 51
270.0
  0
ARC
  5
10F
100
AcDbEntity
  8
0
  6
PHANTOM
 62
               2
100
AcDbCircle
 10
48.070954845342612
 20
68.999999999999986
 30
0.0
 40
0.4
100
AcDbArc
 50
90.0
 51
270.0
  0
LINE
  5
110
100
AcDbEntity
  8
0
  6
PHANTOM
 62
               2
100
AcDbLine
 10
55.200000000000301
 20
69.399999999999991
 30
0.0
 11
48.070954845342385
 21
69.399999999999991
 31
0.0
  0
LINE
  5
111
100
AcDbEntity
  8
0
  6
PHANTOM
 62
               2
100
AcDbLine
 10
55.200000000000301
 20
68.600000000000094
 30
0.0
 11
48.070954845342385
 21
68.600000000000094
 31
0.0
  0
ARC
  5
112
100
AcDbEntity
  8
0
  6
PHANTOM
 62
               2
100
AcDbCircle
 10
46.500000000000199
 20
76.499999999999986
 30
0.0
 40
0.5
100
AcDbArc
 50
90.0
 51
180.0
  0
ARC
  5
113
100
AcDbEntity
  8
0
  6
PHANTOM
 62
               2
100
AcDbCircle
 10
46.500000000000199
 20
61.499999999999986
 30
0.0
 40
0.5
100
AcDbArc
 50
180.0
 51
270.0
  0
ARC
  5
114
100
AcDbEntity
  8
0
  6
PHANTOM
 62
               2
100
AcDbCircle
 10
54.700000000000301
 20
61.499999999999901
 30
0.0
 40
0.5
100
AcDbArc
 50
270.0
 51
0.0
  0
ARC
  5
115
100
AcDbEntity
  8
0
  6
PHANTOM
 62
               2
100
AcDbCircle
 10
54.700000000000301
 20
76.499999999999986
 30
0.0
 40
0.5
100
AcDbArc
 50
0.0
 51
90.0
  0
ARC
  5
116
100
AcDbEntity
  8
0
  6
PHANTOM
 62
               2
100
AcDbCircle
 10
55.500000000000199
 20
75.499999999999901
 30
0.0
 40
0.5
100
AcDbArc
 50
0.0
 51
90.0
  0
ARC
  5
117
100
AcDbEntity
  8
0
  6
PHANTOM
 62
               2
100
AcDbCircle
 10
55.500000000000199
 20
62.499999999999986
 30
0.0
 40
0.5
100
AcDbArc
 50
270.0
 51
0.0
  0
LINE
  5
118
100
AcDbEntity
  8
0
  6
PHANTOM
 62
               2
100
AcDbLine
 10
55.5
 20
61.999999999999901
 30
0.0
 11
55.200000000000301
 21
61.999999999999901
 31
0.0
  0
LINE
  5
119
100
AcDbEntity
  8
0
  6
PHANTOM
 62
               2
100
AcDbLine
 10
55.5
 20
75.999999999999901
 30
0.0
 11
55.200000000000301
 21
75.999999999999901
 31
0.0
  0
LINE
  5
11A
100
AcDbEntity
  8
0
  6
PHANTOM
 62
               2
100
AcDbLine
 10
46.5
 20
60.999999999999901
 30
0.0
 11
54.700000000000301
 21
60.999999999999901
 31
0.0
  0
LINE
  5
11B
100
AcDbEntity
  8
0
  6
PHANTOM
 62
               2
100
AcDbLine
 10
46.5
 20
76.999999999999901
 30
0.0
 11
54.700000000000301
 21
76.999999999999901
 31
0.0
  0
LINE
  5
11C
100
AcDbEntity
  8
0
  6
PHANTOM
 62
               2
100
AcDbLine
 10
44.30000000000021
 20
63.499999999999986
 30
0.0
 11
46.0
 21
63.499999999999901
 31
0.0
  0
LINE
  5
11D
100
AcDbEntity
  8
0
  6
PHANTOM
 62
               2
100
AcDbLine
 10
44.30000000000021
 20
74.499999999999986
 30
0.0
 11
46.0
 21
74.499999999999901
 31
0.0
  0
LINE
  5
11E
100
AcDbEntity
  8
0
  6
PHANTOM
 62
               2
100
AcDbLine
 10
44.0
 20
64.499999999999986
 30
0.0
 11
44.30000000000021
 21
64.499999999999986
 31
0.0
  0
LINE
  5
11F
100
AcDbEntity
  8
0
  6
PHANTOM
 62
               2
100
AcDbLine
 10
44.0
 20
73.499999999999986
 30
0.0
 11
44.30000000000021
 21
73.499999999999986
 31
0.0
  0
LINE
  5
120
100
AcDbEntity
  8
0
  6
PHANTOM
 62
               2
100
AcDbLine
 10
46.0
 20
76.499999999999901
 30
0.0
 11
46.0
 21
61.499999999999901
 31
0.0
  0
LINE
  5
121
100
AcDbEntity
  8
0
  6
PHANTOM
 62
               2
100
AcDbLine
 10
44.30000000000021
 20
74.499999999999986
 30
0.0
 11
44.30000000000021
 21
63.499999999999986
 31
0.0
  0
LINE
  5
122
100
AcDbEntity
  8
0
  6
PHANTOM
 62
               2
100
AcDbLine
 10
55.200000000000301
 20
76.499999999999901
 30
0.0
 11
55.200000000000301
 21
61.499999999999901
 31
0.0
  0
LINE
  5
123
100
AcDbEntity
  8
0
  6
PHANTOM
 62
               2
100
AcDbLine
 10
56.0
 20
75.499999999999901
 30
0.0
 11
56.0
 21
62.499999999999901
 31
0.0
  0
ARC
  5
124
100
AcDbEntity
  8
0
  6
PHANTOM
 62
               2
100
AcDbCircle
 10
-48.070954845342357
 20
62.999999999999986
 30
0.0
 40
0.4
100
AcDbArc
 50
270.0
 51
90.0
  0
ARC
  5
125
100
AcDbEntity
  8
0
  6
PHANTOM
 62
               2
100
AcDbCircle
 10
-48.070954845342357
 20
74.999999999999986
 30
0.0
 40
0.4
100
AcDbArc
 50
270.0
 51
90.0
  0
LINE
  5
126
100
AcDbEntity
  8
0
  6
PHANTOM
 62
               2
100
AcDbLine
 10
-55.19999999999979
 20
75.399999999999991
 30
0.0
 11
-48.070954845342357
 21
75.399999999999991
 31
0.0
  0
LINE
  5
127
100
AcDbEntity
  8
0
  6
PHANTOM
 62
               2
100
AcDbLine
 10
-55.19999999999979
 20
74.600000000000094
 30
0.0
 11
-48.070954845342357
 21
74.600000000000094
 31
0.0
  0
ARC
  5
128
100
AcDbEntity
  8
0
  6
PHANTOM
 62
               2
100
AcDbCircle
 10
-48.070954845342357
 20
65.999999999999986
 30
0.0
 40
0.4
100
AcDbArc
 50
270.0
 51
90.0
  0
LINE
  5
129
100
AcDbEntity
  8
0
  6
PHANTOM
 62
               2
100
AcDbLine
 10
-55.19999999999979
 20
71.600000000000009
 30
0.0
 11
-48.070954845342357
 21
71.600000000000009
 31
0.0
  0
LINE
  5
12A
100
AcDbEntity
  8
0
  6
PHANTOM
 62
               2
100
AcDbLine
 10
-55.19999999999979
 20
72.399999999999991
 30
0.0
 11
-48.070954845342357
 21
72.399999999999991
 31
0.0
  0
ARC
  5
12B
100
AcDbEntity
  8
0
  6
PHANTOM
 62
               2
100
AcDbCircle
 10
-48.070954845342357
 20
71.999999999999986
 30
0.0
 40
0.4
100
AcDbArc
 50
270.0
 51
90.0
  0
ARC
  5
12C
100
AcDbEntity
  8
0
  6
PHANTOM
 62
               2
100
AcDbCircle
 10
-48.070954845342357
 20
68.999999999999986
 30
0.0
 40
0.4
100
AcDbArc
 50
270.0
 51
90.0
  0
LINE
  5
12D
100
AcDbEntity
  8
0
  6
PHANTOM
 62
               2
100
AcDbLine
 10
-55.19999999999979
 20
69.399999999999991
 30
0.0
 11
-48.070954845342357
 21
69.399999999999991
 31
0.0
  0
LINE
  5
12E
100
AcDbEntity
  8
0
  6
PHANTOM
 62
               2
100
AcDbLine
 10
-55.19999999999979
 20
68.600000000000094
 30
0.0
 11
-48.070954845342357
 21
68.600000000000094
 31
0.0
  0
ARC
  5
12F
100
AcDbEntity
  8
0
  6
PHANTOM
 62
               2
100
AcDbCircle
 10
-46.499999999999972
 20
76.499999999999986
 30
0.0
 40
0.5
100
AcDbArc
 50
0.0
 51
90.0
  0
ARC
  5
130
100
AcDbEntity
  8
0
  6
PHANTOM
 62
               2
100
AcDbCircle
 10
-46.499999999999972
 20
61.499999999999986
 30
0.0
 40
0.5
100
AcDbArc
 50
270.0
 51
0.0
  0
ARC
  5
131
100
AcDbEntity
  8
0
  6
PHANTOM
 62
               2
100
AcDbCircle
 10
-54.700000000000017
 20
76.499999999999986
 30
0.0
 40
0.5
100
AcDbArc
 50
90.0
 51
180.0
  0
ARC
  5
132
100
AcDbEntity
  8
0
  6
PHANTOM
 62
               2
100
AcDbCircle
 10
-55.499999999999972
 20
75.499999999999901
 30
0.0
 40
0.5
100
AcDbArc
 50
90.0
 51
180.0
  0
LINE
  5
133
100
AcDbEntity
  8
0
  6
PHANTOM
 62
               2
100
AcDbLine
 10
-55.499999999999972
 20
75.999999999999901
 30
0.0
 11
-55.19999999999979
 21
75.999999999999901
 31
0.0
  0
LINE
  5
134
100
AcDbEntity
  8
0
  6
PHANTOM
 62
               2
100
AcDbLine
 10
-46.499999999999972
 20
76.999999999999901
 30
0.0
 11
-54.69999999999979
 21
76.999999999999901
 31
0.0
  0
LINE
  5
135
100
AcDbEntity
  8
0
  6
PHANTOM
 62
               2
100
AcDbLine
 10
-44.299999999999926
 20
63.499999999999986
 30
0.0
 11
-45.999999999999972
 21
63.499999999999901
 31
0.0
  0
LINE
  5
136
100
AcDbEntity
  8
0
  6
PHANTOM
 62
               2
100
AcDbLine
 10
-44.299999999999926
 20
74.499999999999986
 30
0.0
 11
-45.999999999999972
 21
74.499999999999901
 31
0.0
  0
LINE
  5
137
100
AcDbEntity
  8
0
  6
PHANTOM
 62
               2
100
AcDbLine
 10
-43.999999999999972
 20
64.499999999999986
 30
0.0
 11
-44.299999999999926
 21
64.499999999999986
 31
0.0
  0
LINE
  5
138
100
AcDbEntity
  8
0
  6
PHANTOM
 62
               2
100
AcDbLine
 10
-43.999999999999972
 20
73.499999999999986
 30
0.0
 11
-44.299999999999926
 21
73.499999999999986
 31
0.0
  0
LINE
  5
139
100
AcDbEntity
  8
0
  6
PHANTOM
 62
               2
100
AcDbLine
 10
-45.999999999999972
 20
76.499999999999901
 30
0.0
 11
-45.999999999999972
 21
61.499999999999901
 31
0.0
  0
LINE
  5
13A
100
AcDbEntity
  8
0
  6
PHANTOM
 62
               2
100
AcDbLine
 10
-44.299999999999926
 20
74.499999999999986
 30
0.0
 11
-44.299999999999926
 21
63.499999999999986
 31
0.0
  0
LINE
  5
13B
100
AcDbEntity
  8
0
  6
PHANTOM
 62
               2
100
AcDbLine
 10
-55.999999999999972
 20
75.499999999999986
 30
0.0
 11
-55.999999999999972
 21
62.499999999999986
 31
0.0
  0
LINE
  5
13C
100
AcDbEntity
  8
0
  6
PHANTOM
 62
               2
100
AcDbLine
 10
-55.19999999999979
 20
76.499999999999901
 30
0.0
 11
-55.19999999999979
 21
61.499999999999901
 31
0.0
  0
LINE
  5
13D
100
AcDbEntity
  8
0
  6
PHANTOM
 62
               2
100
AcDbLine
 10
-46.499999999999972
 20
60.999999999999901
 30
0.0
 11
-54.69999999999979
 21
60.999999999999901
 31
0.0
  0
LINE
  5
13E
100
AcDbEntity
  8
0
  6
PHANTOM
 62
               2
100
AcDbLine
 10
-55.499999999999972
 20
61.999999999999901
 30
0.0
 11
-55.19999999999979
 21
61.999999999999901
 31
0.0
  0
ARC
  5
13F
100
AcDbEntity
  8
0
  6
PHANTOM
 62
               2
100
AcDbCircle
 10
-55.499999999999972
 20
62.499999999999986
 30
0.0
 40
0.5
100
AcDbArc
 50
180.0
 51
270.0
  0
ARC
  5
140
100
AcDbEntity
  8
0
  6
PHANTOM
 62
               2
100
AcDbCircle
 10
-54.700000000000017
 20
61.499999999999901
 30
0.0
 40
0.5
100
AcDbArc
 50
180.0
 51
270.0
  0
LINE
  5
141
100
AcDbEntity
  8
0
  6
PHANTOM
 62
               2
100
AcDbLine
 10
-55.19999999999979
 20
66.399999999999991
 30
0.0
 11
-48.070954845342357
 21
66.399999999999991
 31
0.0
  0
LINE
  5
142
100
AcDbEntity
  8
0
  6
PHANTOM
 62
               2
100
AcDbLine
 10
-55.19999999999979
 20
65.600000000000009
 30
0.0
 11
-48.070954845342357
 21
65.600000000000009
 31
0.0
  0
LINE
  5
143
100
AcDbEntity
  8
0
  6
PHANTOM
 62
               2
100
AcDbLine
 10
-55.19999999999979
 20
62.600000000000009
 30
0.0
 11
-48.070954845342357
 21
62.600000000000009
 31
0.0
  0
LINE
  5
144
100
AcDbEntity
  8
0
  6
PHANTOM
 62
               2
100
AcDbLine
 10
-55.19999999999979
 20
63.399999999999991
 30
0.0
 11
-48.070954845342357
 21
63.399999999999991
 31
0.0
  0
LINE
  5
145
100
AcDbEntity
  8
0
  6
PHANTOM
 62
               2
100
AcDbLine
 10
-39.999999999999744
 20
61.499999999999986
 30
0.0
 11
-42.399999999999835
 21
61.499999999999986
 31
0.0
  0
LINE
  5
146
100
AcDbEntity
  8
0
  6
PHANTOM
 62
               2
100
AcDbLine
 10
-42.399999999999835
 20
76.499999999999986
 30
0.0
 11
-39.999999999999744
 21
76.499999999999986
 31
0.0
  0
LINE
  5
147
100
AcDbEntity
  8
0
  6
PHANTOM
 62
               2
100
AcDbLine
 10
40.0
 20
76.499999999999986
 30
0.0
 11
42.400000000000091
 21
76.499999999999986
 31
0.0
  0
LINE
  5
148
100
AcDbEntity
  8
0
  6
PHANTOM
 62
               2
100
AcDbLine
 10
42.400000000000091
 20
61.499999999999986
 30
0.0
 11
40.0
 21
61.499999999999986
 31
0.0
  0
LINE
  5
149
100
AcDbEntity
  8
0
  6
CONTINUOUS
 62
               2
100
AcDbLine
 10
37.691912989211687
 20
79.999999999999901
 30
0.0
 11
-37.691912989209385
 21
79.999999999999901
 31
0.0
  0
ARC
  5
14A
100
AcDbEntity
  8
0
  6
CONTINUOUS
 62
               7
100
AcDbCircle
 10
-23.499999999999972
 20
30.600000000000065
 30
0.0
 40
9.2499999999999769
100
AcDbArc
 50
120.0000000000001
 51
179.99999999999312
  0
ARC
  5
14B
100
AcDbEntity
  8
0
  6
CONTINUOUS
 62
               7
100
AcDbCircle
 10
0.0
 20
79.999999999999901
 30
0.0
 40
6.9999999999998863
100
AcDbArc
 50
228.59037789073264
 51
265.90395624185658
  0
ARC
  5
14C
100
AcDbEntity
  8
0
  6
CONTINUOUS
 62
               7
100
AcDbCircle
 10
0.0
 20
79.999999999999901
 30
0.0
 40
7.5
100
AcDbArc
 50
224.42700400080784
 51
266.17744627073404
  0
ARC
  5
14D
100
AcDbEntity
  8
0
  6
CONTINUOUS
 62
               7
100
AcDbCircle
 10
0.0
 20
79.999999999999901
 30
0.0
 40
11.50000000000011
100
AcDbArc
 50
27.162888422158421
 51
87.508093631013182
  0
ARC
  5
14E
100
AcDbEntity
  8
0
  6
CONTINUOUS
 62
               7
100
AcDbCircle
 10
0.0
 20
79.999999999999901
 30
0.0
 40
12.5
100
AcDbArc
 50
24.834587489701608
 51
87.707557224037728
  0
LINE
  5
14F
100
AcDbEntity
  8
0
  6
CONTINUOUS
 62
               7
100
AcDbLine
 10
21.999999999999375
 20
79.999999999999559
 30
0.0
 11
19.500000000001108
 21
80.312499999999332
 31
0.0
  0
LINE
  5
150
100
AcDbEntity
  8
0
  6
CONTINUOUS
 62
               7
100
AcDbLine
 10
12.489995996796779
 20
79.499999999999474
 30
0.0
 11
17.999999999999375
 21
79.499999999999503
 31
0.0
  0
LINE
  5
151
100
AcDbEntity
  8
0
  6
CONTINUOUS
 62
               7
100
AcDbLine
 10
12.489995996796836
 20
80.499999999999503
 30
0.0
 11
17.999999999999375
 21
80.499999999999503
 31
0.0
  0
LINE
  5
152
100
AcDbEntity
  8
0
  6
CONTINUOUS
 62
               7
100
AcDbLine
 10
17.999999999999375
 20
79.499999999999559
 30
0.0
 11
17.999999999999375
 21
80.499999999999503
 31
0.0
  0
ARC
  5
153
100
AcDbEntity
  8
0
  6
CONTINUOUS
 62
               7
100
AcDbCircle
 10
0.0
 20
79.999999999999901
 30
0.0
 40
9.0
100
AcDbArc
 50
93.184738536713439
 51
119.4561401321551
  0
ARC
  5
154
100
AcDbEntity
  8
0
  6
CONTINUOUS
 62
               7
100
AcDbCircle
 10
0.0
 20
79.999999999999901
 30
0.0
 40
10.0
100
AcDbArc
 50
92.865983982592596
 51
119.7930691167149
  0
LINE
  5
155
100
AcDbEntity
  8
0
  6
CONTINUOUS
 62
               7
100
AcDbLine
 10
-5.9992733996198808
 20
87.36605176988401
 30
0.0
 11
-4.0276224618745005
 21
87.219241974533659
 31
0.0
  0
LINE
  5
156
100
AcDbEntity
  8
0
  6
CONTINUOUS
 62
               7
100
AcDbLine
 10
-4.0276224618745005
 20
87.219241974533659
 30
0.0
 11
-4.4258144344768198
 21
87.836591516187028
 31
0.0
  0
LINE
  5
157
100
AcDbEntity
  8
0
  6
CONTINUOUS
 62
               7
100
AcDbLine
 10
-5.9992733996198808
 20
87.36605176988401
 30
0.0
 11
-5.4058125433942905
 21
89.355962636120765
 31
0.0
  0
LINE
  5
158
100
AcDbEntity
  8
0
  6
CONTINUOUS
 62
               7
100
AcDbLine
 10
-4.9686898663946408
 20
88.678255643364352
 30
0.0
 11
-5.4058125433942905
 21
89.355962636120765
 31
0.0
  0
ARC
  5
159
100
AcDbEntity
  8
0
  6
CONTINUOUS
 62
               7
100
AcDbCircle
 10
0.0
 20
79.999999999999901
 30
0.0
 40
9.0
100
AcDbArc
 50
240.5438598678447
 51
266.81526146328656
  0
ARC
  5
15A
100
AcDbEntity
  8
0
  6
CONTINUOUS
 62
               7
100
AcDbCircle
 10
0.0
 20
79.999999999999901
 30
0.0
 40
10.0
100
AcDbArc
 50
240.2069308832848
 51
267.13401601740736
  0
LINE
  5
15B
100
AcDbEntity
  8
0
  6
CONTINUOUS
 62
               7
100
AcDbLine
 10
-4.0276224618745005
 20
72.780758025466142
 30
0.0
 11
-4.4258144344768198
 21
72.163408483812773
 31
0.0
  0
LINE
  5
15C
100
AcDbEntity
  8
0
  6
CONTINUOUS
 62
               7
100
AcDbLine
 10
-5.9992733996198808
 20
72.633948230115763
 30
0.0
 11
-4.0276224618745005
 21
72.780758025466142
 31
0.0
  0
LINE
  5
15D
100
AcDbEntity
  8
0
  6
CONTINUOUS
 62
               7
100
AcDbLine
 10
-4.9686898663946408
 20
71.321744356635421
 30
0.0
 11
-5.4058125433942905
 21
70.644037363879036
 31
0.0
  0
LINE
  5
15E
100
AcDbEntity
  8
0
  6
CONTINUOUS
 62
               7
100
AcDbLine
 10
-5.9992733996198808
 20
72.633948230115763
 30
0.0
 11
-5.4058125433942905
 21
70.644037363879036
 31
0.0
  0
LINE
  5
15F
100
AcDbEntity
  8
0
  6
CONTINUOUS
 62
               7
100
AcDbLine
 10
-4.9053530203305229
 20
88.704289851724823
 30
0.0
 11
-4.9686898663946408
 21
88.678255643364352
 31
0.0
  0
LINE
  5
160
100
AcDbEntity
  8
0
  6
CONTINUOUS
 62
               7
100
AcDbLine
 10
-2.2880861384916784
 20
88.704289851724823
 30
0.0
 11
-2.3522260147555301
 21
88.678255643364352
 31
0.0
  0
ARC
  5
161
100
AcDbEntity
  8
0
  6
CONTINUOUS
 62
               7
100
AcDbCircle
 10
0.0
 20
79.999999999999901
 30
0.0
 40
12.5
100
AcDbArc
 50
92.292442775950875
 51
154.60940380802208
  0
ARC
  5
162
100
AcDbEntity
  8
0
  6
CONTINUOUS
 62
               7
100
AcDbCircle
 10
0.0
 20
79.999999999999901
 30
0.0
 40
11.50000000000011
100
AcDbArc
 50
92.491906368974412
 51
152.77338772430278
  0
ARC
  5
163
100
AcDbEntity
  8
0
  6
CONTINUOUS
 62
               7
100
AcDbCircle
 10
0.0
 20
79.999999999999901
 30
0.0
 40
11.50000000000011
100
AcDbArc
 50
158.31119438185905
 51
201.68880561814095
  0
ARC
  5
164
100
AcDbEntity
  8
0
  6
CONTINUOUS
 62
               7
100
AcDbCircle
 10
0.0
 20
79.999999999999901
 30
0.0
 40
12.5
100
AcDbArc
 50
160.12312592992117
 51
199.87687407007883
  0
ARC
  5
165
100
AcDbEntity
  8
0
  6
CONTINUOUS
 62
               7
100
AcDbCircle
 10
0.0
 20
79.999999999999901
 30
0.0
 40
12.5
100
AcDbArc
 50
340.12312592992055
 51
19.876874070078856
  0
ARC
  5
166
100
AcDbEntity
  8
0
  6
CONTINUOUS
 62
               7
100
AcDbCircle
 10
0.0
 20
79.999999999999901
 30
0.0
 40
11.50000000000011
100
AcDbArc
 50
338.31119438185846
 51
21.688805618140911
  0
ARC
  5
167
100
AcDbEntity
  8
0
  6
CONTINUOUS
 62
               7
100
AcDbCircle
 10
0.0
 20
79.999999999999901
 30
0.0
 40
11.50000000000011
100
AcDbArc
 50
207.16288842215951
 51
267.50809363102559
  0
ARC
  5
168
100
AcDbEntity
  8
0
  6
CONTINUOUS
 62
               7
100
AcDbCircle
 10
0.0
 20
79.999999999999901
 30
0.0
 40
12.5
100
AcDbArc
 50
204.83458748970261
 51
267.70755722404914
  0
ARC
  5
169
100
AcDbEntity
  8
0
  6
CONTINUOUS
 62
               7
100
AcDbCircle
 10
0.0
 20
79.999999999999901
 30
0.0
 40
6.9999999999998863
100
AcDbArc
 50
142.6168015821344
 51
217.3831984178656
  0
ARC
  5
16A
100
AcDbEntity
  8
0
  6
CONTINUOUS
 62
               7
100
AcDbCircle
 10
0.0
 20
79.999999999999901
 30
0.0
 40
7.5
100
AcDbArc
 50
145.48189215893873
 51
214.51810784106127
  0
ARC
  5
16B
100
AcDbEntity
  8
0
  6
CONTINUOUS
 62
               7
100
AcDbCircle
 10
0.0
 20
79.999999999999901
 30
0.0
 40
6.9999999999998863
100
AcDbArc
 50
48.590377890730217
 51
85.903956241836184
  0
ARC
  5
16C
100
AcDbEntity
  8
0
  6
CONTINUOUS
 62
               7
100
AcDbCircle
 10
0.0
 20
79.999999999999901
 30
0.0
 40
7.5
100
AcDbArc
 50
44.427004000805717
 51
86.177446270714995
  0
ARC
  5
16D
100
AcDbEntity
  8
0
  6
CONTINUOUS
 62
               7
100
AcDbCircle
 10
0.0
 20
79.999999999999901
 30
0.0
 40
7.5
100
AcDbArc
 50
93.822553729265977
 51
135.57299599919429
  0
ARC
  5
16E
100
AcDbEntity
  8
0
  6
CONTINUOUS
 62
               7
100
AcDbCircle
 10
0.0
 20
79.999999999999901
 30
0.0
 40
6.9999999999998863
100
AcDbArc
 50
94.096043758143409
 51
131.40962210926983
  0
ARC
  5
16F
100
AcDbEntity
  8
0
  6
CONTINUOUS
 62
               7
100
AcDbCircle
 10
0.0
 20
79.999999999999901
 30
0.0
 40
6.9999999999998863
100
AcDbArc
 50
322.6168015821338
 51
37.383198417865586
  0
ARC
  5
170
100
AcDbEntity
  8
0
  6
CONTINUOUS
 62
               7
100
AcDbCircle
 10
0.0
 20
79.999999999999901
 30
0.0
 40
7.5
100
AcDbArc
 50
325.48189215893819
 51
34.518107841061259
  0
ARC
  5
171
100
AcDbEntity
  8
0
  6
CONTINUOUS
 62
               7
100
AcDbCircle
 10
0.0
 20
79.999999999999901
 30
0.0
 40
6.9999999999998863
100
AcDbArc
 50
274.09604375816383
 51
311.4096221092679
  0
ARC
  5
172
100
AcDbEntity
  8
0
  6
CONTINUOUS
 62
               7
100
AcDbCircle
 10
0.0
 20
79.999999999999901
 30
0.0
 40
7.5
100
AcDbArc
 50
273.822553729285
 51
315.57299599919276
  0
ARC
  5
173
100
AcDbEntity
  8
0
  6
CONTINUOUS
 62
               7
100
AcDbCircle
 10
0.0
 20
79.999999999999901
 30
0.0
 40
11.50000000000011
100
AcDbArc
 50
272.49190636898686
 51
332.83711157784109
  0
ARC
  5
174
100
AcDbEntity
  8
0
  6
CONTINUOUS
 62
               7
100
AcDbCircle
 10
0.0
 20
79.999999999999901
 30
0.0
 40
12.5
100
AcDbArc
 50
272.29244277596229
 51
335.16541251029798
  0
LINE
  5
175
100
AcDbEntity
  8
0
  6
CONTINUOUS
 62
               7
100
AcDbLine
 10
17.999999999999375
 20
79.499999999999559
 30
0.0
 11
18.500000000001108
 21
79.562499999999787
 31
0.0
  0
LINE
  5
176
100
AcDbEntity
  8
0
  6
CONTINUOUS
 62
               7
100
AcDbLine
 10
5.811985296506549
 20
91.066653826391715
 30
0.0
 11
7.3612159321681361
 21
93.749999999999844
 31
0.0
  0
LINE
  5
177
100
AcDbEntity
  8
0
  6
CONTINUOUS
 62
               7
100
AcDbLine
 10
6.6780107002909688
 20
90.566653826391658
 30
0.0
 11
8.5159164705474382
 21
93.749999999999844
 31
0.0
  0
LINE
  5
178
100
AcDbEntity
  8
0
  6
CONTINUOUS
 62
               7
100
AcDbLine
 10
9.4330127018922099
 20
95.338457268119086
 30
0.0
 11
8.5669872981078186
 21
95.838457268119058
 31
0.0
  0
LINE
  5
179
100
AcDbEntity
  8
0
  6
CONTINUOUS
 62
               7
100
AcDbLine
 10
9.4330127018922099
 20
95.338457268119086
 30
0.0
 11
11.0
 21
99.052558883256822
 31
0.0
  0
LINE
  5
17A
100
AcDbEntity
  8
0
  6
CONTINUOUS
 62
               7
100
AcDbLine
 10
11.0
 20
99.052558883256822
 30
0.0
 11
8.5669872981077901
 21
95.838457268119058
 31
0.0
  0
LINE
  5
17B
100
AcDbEntity
  8
0
  6
CONTINUOUS
 62
               7
100
AcDbLine
 10
-6.6780107002902866
 20
90.566653826392113
 30
0.0
 11
-8.5159164705465002
 21
93.749999999999844
 31
0.0
  0
LINE
  5
17C
100
AcDbEntity
  8
0
  6
CONTINUOUS
 62
               7
100
AcDbLine
 10
-5.8119852965058101
 20
91.066653826392056
 30
0.0
 11
-7.3612159321671982
 21
93.749999999999844
 31
0.0
  0
LINE
  5
17D
100
AcDbEntity
  8
0
  6
CONTINUOUS
 62
               7
100
AcDbLine
 10
-8.5669872981071649
 20
95.838457268119427
 30
0.0
 11
-9.4330127018915562
 21
95.338457268119456
 31
0.0
  0
LINE
  5
17E
100
AcDbEntity
  8
0
  6
CONTINUOUS
 62
               7
100
AcDbLine
 10
-8.5669872981071649
 20
95.838457268119427
 30
0.0
 11
-10.999999999999375
 21
99.052558883257191
 31
0.0
  0
LINE
  5
17F
100
AcDbEntity
  8
0
  6
CONTINUOUS
 62
               7
100
AcDbLine
 10
-10.999999999999375
 20
99.052558883257191
 30
0.0
 11
-9.4330127018915846
 21
95.338457268119456
 31
0.0
  0
LINE
  5
180
100
AcDbEntity
  8
0
  6
CONTINUOUS
 62
               7
100
AcDbLine
 10
-12.489995996796836
 20
79.500000000000298
 30
0.0
 11
-17.999999999999375
 21
79.500000000000298
 31
0.0
  0
LINE
  5
181
100
AcDbEntity
  8
0
  6
CONTINUOUS
 62
               7
100
AcDbLine
 10
-12.489995996796779
 20
80.500000000000327
 30
0.0
 11
-17.999999999999375
 21
80.500000000000298
 31
0.0
  0
LINE
  5
182
100
AcDbEntity
  8
0
  6
CONTINUOUS
 62
               7
100
AcDbLine
 10
-17.999999999999375
 20
80.500000000000242
 30
0.0
 11
-17.999999999999375
 21
79.500000000000298
 31
0.0
  0
LINE
  5
183
100
AcDbEntity
  8
0
  6
CONTINUOUS
 62
               7
100
AcDbLine
 10
-17.999999999999375
 20
80.500000000000242
 30
0.0
 11
-18.499999999998607
 21
80.437500000000355
 31
0.0
  0
LINE
  5
184
100
AcDbEntity
  8
0
  6
CONTINUOUS
 62
               7
100
AcDbLine
 10
-21.999999999999375
 20
80.00000000000027
 30
0.0
 11
-19.499999999998721
 21
79.687500000000185
 31
0.0
  0
LINE
  5
185
100
AcDbEntity
  8
0
  6
CONTINUOUS
 62
               7
100
AcDbLine
 10
-5.811985296506549
 20
68.933346173608086
 30
0.0
 11
-7.3612159321681929
 21
66.249999999999901
 31
0.0
  0
LINE
  5
186
100
AcDbEntity
  8
0
  6
CONTINUOUS
 62
               7
100
AcDbLine
 10
-6.6780107002909688
 20
69.433346173608143
 30
0.0
 11
-8.5159164705474666
 21
66.249999999999901
 31
0.0
  0
LINE
  5
187
100
AcDbEntity
  8
0
  6
CONTINUOUS
 62
               7
100
AcDbLine
 10
-9.4330127018922099
 20
64.661542731880715
 30
0.0
 11
-8.5669872981078186
 21
64.161542731880743
 31
0.0
  0
LINE
  5
188
100
AcDbEntity
  8
0
  6
CONTINUOUS
 62
               7
100
AcDbLine
 10
-9.4330127018922099
 20
64.661542731880715
 30
0.0
 11
-11.0
 21
60.947441116742979
 31
0.0
  0
LINE
  5
189
100
AcDbEntity
  8
0
  6
CONTINUOUS
 62
               7
100
AcDbLine
 10
-11.0
 20
60.947441116742979
 30
0.0
 11
-8.5669872981077901
 21
64.161542731880743
 31
0.0
  0
LINE
  5
18A
100
AcDbEntity
  8
0
  6
CONTINUOUS
 62
               7
100
AcDbLine
 10
6.6780107002902866
 20
69.433346173607688
 30
0.0
 11
8.5159164705465002
 21
66.249999999999901
 31
0.0
  0
LINE
  5
18B
100
AcDbEntity
  8
0
  6
CONTINUOUS
 62
               7
100
AcDbLine
 10
5.8119852965058101
 20
68.933346173607745
 30
0.0
 11
7.361215932167255
 21
66.249999999999901
 31
0.0
  0
LINE
  5
18C
100
AcDbEntity
  8
0
  6
CONTINUOUS
 62
               7
100
AcDbLine
 10
8.5669872981071649
 20
64.161542731880374
 30
0.0
 11
9.4330127018915562
 21
64.661542731880346
 31
0.0
  0
LINE
  5
18D
100
AcDbEntity
  8
0
  6
CONTINUOUS
 62
               7
100
AcDbLine
 10
8.5669872981071649
 20
64.161542731880374
 30
0.0
 11
10.999999999999346
 21
60.94744111674261
 31
0.0
  0
LINE
  5
18E
100
AcDbEntity
  8
0
  6
CONTINUOUS
 62
               7
100
AcDbLine
 10
10.999999999999346
 20
60.94744111674261
 30
0.0
 11
9.4330127018915846
 21
64.661542731880346
 31
0.0
  0
LINE
  5
18F
100
AcDbEntity
  8
0
  6
CONTINUOUS
 62
               7
100
AcDbLine
 10
18.500000000001108
 20
80.437499999999332
 30
0.0
 11
17.999999999999375
 21
80.499999999999531
 31
0.0
  0
LINE
  5
190
100
AcDbEntity
  8
0
  6
CONTINUOUS
 62
               7
100
AcDbLine
 10
19.500000000001108
 20
79.687499999999787
 30
0.0
 11
21.999999999999375
 21
79.999999999999559
 31
0.0
  0
LINE
  5
191
100
AcDbEntity
  8
0
  6
CONTINUOUS
 62
               7
100
AcDbLine
 10
7.9385662013568776
 20
65.249999999999901
 30
0.0
 11
8.566987298107108
 21
64.161542731880346
 31
0.0
  0
LINE
  5
192
100
AcDbEntity
  8
0
  6
CONTINUOUS
 62
               7
100
AcDbLine
 10
9.0932667397361513
 20
65.249999999999901
 30
0.0
 11
9.4330127018915562
 21
64.661542731880346
 31
0.0
  0
LINE
  5
193
100
AcDbEntity
  8
0
  6
CONTINUOUS
 62
               7
100
AcDbLine
 10
-7.9385662013578155
 20
65.249999999999901
 30
0.0
 11
-8.5669872981078186
 21
64.161542731880743
 31
0.0
  0
LINE
  5
194
100
AcDbEntity
  8
0
  6
CONTINUOUS
 62
               7
100
AcDbLine
 10
-9.0932667397370892
 20
65.249999999999901
 30
0.0
 11
-9.4330127018922667
 21
64.661542731880743
 31
0.0
  0
LINE
  5
195
100
AcDbEntity
  8
0
  6
CONTINUOUS
 62
               7
100
AcDbLine
 10
-18.499999999998607
 20
79.562500000000185
 30
0.0
 11
-17.999999999999375
 21
79.50000000000027
 31
0.0
  0
LINE
  5
196
100
AcDbEntity
  8
0
  6
CONTINUOUS
 62
               7
100
AcDbLine
 10
-19.499999999998721
 20
80.312500000000355
 30
0.0
 11
-21.999999999999375
 21
80.00000000000027
 31
0.0
  0
LINE
  5
197
100
AcDbEntity
  8
0
  6
CONTINUOUS
 62
               7
100
AcDbLine
 10
-9.0932667397361513
 20
94.749999999999901
 30
0.0
 11
-9.4330127018915562
 21
95.338457268119456
 31
0.0
  0
LINE
  5
198
100
AcDbEntity
  8
0
  6
CONTINUOUS
 62
               7
100
AcDbLine
 10
-7.9385662013568776
 20
94.749999999999901
 30
0.0
 11
-8.566987298107108
 21
95.838457268119456
 31
0.0
  0
LINE
  5
199
100
AcDbEntity
  8
0
  6
CONTINUOUS
 62
               7
100
AcDbLine
 10
7.9385662013578155
 20
94.749999999999901
 30
0.0
 11
8.5669872981078186
 21
95.838457268119058
 31
0.0
  0
LINE
  5
19A
100
AcDbEntity
  8
0
  6
CONTINUOUS
 62
               7
100
AcDbLine
 10
9.0932667397370892
 20
94.749999999999901
 30
0.0
 11
9.4330127018922667
 21
95.338457268119058
 31
0.0
  0
ENDBLK
  5
19B
100
AcDbEntity
  8
0
100
AcDbBlockEnd
  0
BLOCK
  5
19C
100
AcDbEntity
  8
0
100
AcDbBlockBegin
  2
DTRY-ELF02-2
 70
               0
 10
0.0
 20
0.0
 30
0.0
  3
DTRY-ELF02-2
  1

  0
LINE
  5
19D
100
AcDbEntity
  8
0
  6
CONTINUOUS
 62
               7
100
AcDbLine
 10
-15.693466016658917
 20
105.48574475388892
 30
0.0
 11
-18.30653398334114
 21
108.51425524611105
 31
0.0
  0
LINE
  5
19E
100
AcDbEntity
  8
0
  6
CONTINUOUS
 62
               7
100
AcDbLine
 10
-18.767766952966412
 20
105.23223304703362
 30
0.0
 11
-15.232233047033645
 21
108.76776695296635
 31
0.0
  0
LINE
  5
19F
100
AcDbEntity
  8
0
  6
CONTINUOUS
 62
               7
100
AcDbLine
 10
21.306533983341097
 20
105.48574475388892
 30
0.0
 11
18.693466016658846
 21
108.51425524611105
 31
0.0
  0
LINE
  5
1A0
100
AcDbEntity
  8
0
  6
CONTINUOUS
 62
               7
100
AcDbLine
 10
18.232233047033588
 20
105.23223304703362
 30
0.0
 11
21.767766952966355
 21
108.76776695296635
 31
0.0
  0
LINE
  5
1A1
100
AcDbEntity
  8
0
  6
CONTINUOUS
 62
               7
100
AcDbLine
 10
24.0
 20
114.99999999999999
 30
0.0
 11
25.0
 21
114.0000000000001
 31
0.0
  0
LINE
  5
1A2
100
AcDbEntity
  8
0
  6
CONTINUOUS
 62
               7
100
AcDbLine
 10
25.0
 20
15.999999999999901
 30
0.0
 11
24.7867241143922
 21
15.786724114392101
 31
0.0
  0
LINE
  5
1A3
100
AcDbEntity
  8
0
  6
CONTINUOUS
 62
               7
100
AcDbLine
 10
-25.000000000000028
 20
114.99999999999999
 30
0.0
 11
-25.000000000000028
 21
14.999999999999986
 31
0.0
  0
LINE
  5
1A4
100
AcDbEntity
  8
0
  6
CONTINUOUS
 62
               7
100
AcDbLine
 10
-25.000000000000028
 20
114.99999999999999
 30
0.0
 11
24.0
 21
114.99999999999999
 31
0.0
  0
LINE
  5
1A5
100
AcDbEntity
  8
0
  6
CONTINUOUS
 62
               7
100
AcDbLine
 10
25.0
 20
114.0000000000001
 30
0.0
 11
25.0
 21
14.999999999999986
 31
0.0
  0
LINE
  5
1A6
100
AcDbEntity
  8
0
  6
CONTINUOUS
 62
               7
100
AcDbLine
 10
-27.999999999995737
 20
114.99999999999999
 30
0.0
 11
-27.999999999995936
 21
45.999999999999986
 31
0.0
  0
LINE
  5
1A7
100
AcDbEntity
  8
0
  6
CONTINUOUS
 62
               7
100
AcDbLine
 10
-27.999999999995936
 20
114.99999999999999
 30
0.0
 11
-24.999999999995936
 21
114.99999999999999
 31
0.0
  0
LINE
  5
1A8
100
AcDbEntity
  8
0
  6
CONTINUOUS
 62
               7
100
AcDbLine
 10
-27.999999999995936
 20
45.999999999999986
 30
0.0
 11
-24.999999999995936
 21
45.999999999999986
 31
0.0
  0
LINE
  5
1A9
100
AcDbEntity
  8
0
  6
CONTINUOUS
 62
               7
100
AcDbLine
 10
-27.999999999995737
 20
114.99999999999999
 30
0.0
 11
-34.749994330750837
 21
114.99999999999999
 31
0.0
  0
LINE
  5
1AA
100
AcDbEntity
  8
0
  6
CONTINUOUS
 62
               7
100
AcDbLine
 10
-34.749994330750837
 20
112.5000000000001
 30
0.0
 11
-27.999999999995737
 21
112.5000000000001
 31
0.0
  0
LINE
  5
1AB
100
AcDbEntity
  8
0
  6
CONTINUOUS
 62
               7
100
AcDbLine
 10
-29.99999999999622
 20
48.499999999999986
 30
0.0
 11
-27.999999999995936
 21
48.499999999999986
 31
0.0
  0
LINE
  5
1AC
100
AcDbEntity
  8
0
  6
CONTINUOUS
 62
               7
100
AcDbLine
 10
-29.999999999995538
 20
111.49999999999959
 30
0.0
 11
-29.99999999999622
 21
48.499999999999986
 31
0.0
  0
ARC
  5
1AD
100
AcDbEntity
  8
0
  6
CONTINUOUS
 62
               7
100
AcDbCircle
 10
-34.749994330750837
 20
113.74999999999999
 30
0.0
 40
1.25
100
AcDbArc
 50
90.0
 51
270.0
  0
LINE
  5
1AE
100
AcDbEntity
  8
0
  6
CONTINUOUS
 62
               7
100
AcDbLine
 10
-29.999999999995538
 20
111.49999999999959
 30
0.0
 11
-27.999999999995737
 21
111.49999999999959
 31
0.0
  0
LINE
  5
1AF
100
AcDbEntity
  8
0
  6
CONTINUOUS
 62
               7
100
AcDbLine
 10
28.800000000000182
 20
24.100000000000009
 30
0.0
 11
25.0
 21
24.100000000000009
 31
0.0
  0
LINE
  5
1B0
100
AcDbEntity
  8
0
  6
CONTINUOUS
 62
               7
100
AcDbLine
 10
28.800000000000182
 20
34.100000000000009
 30
0.0
 11
28.800000000000182
 21
24.100000000000009
 31
0.0
  0
LINE
  5
1B1
100
AcDbEntity
  8
0
  6
CONTINUOUS
 62
               7
100
AcDbLine
 10
25.0
 20
34.099999999999895
 30
0.0
 11
28.800000000000182
 21
34.100000000000009
 31
0.0
  0
LINE
  5
1B2
100
AcDbEntity
  8
0
  6
CONTINUOUS
 62
               7
100
AcDbLine
 10
-28.000000000000028
 20
28.549999999999997
 30
0.0
 11
-28.000000000000028
 21
37.450000000000088
 31
0.0
  0
LINE
  5
1B3
100
AcDbEntity
  8
0
  6
CONTINUOUS
 62
               7
100
AcDbLine
 10
-25.000000000000028
 20
28.550000000000111
 30
0.0
 11
-28.000000000000028
 21
28.550000000000111
 31
0.0
  0
LINE
  5
1B4
100
AcDbEntity
  8
0
  6
CONTINUOUS
 62
               7
100
AcDbLine
 10
-28.000000000000028
 20
37.450000000000088
 30
0.0
 11
-25.000000000000028
 21
37.450000000000088
 31
0.0
  0
LINE
  5
1B5
100
AcDbEntity
  8
0
  6
CONTINUOUS
 62
               7
100
AcDbLine
 10
28.800000000000182
 20
34.100000000000009
 30
0.0
 11
27.488365138580264
 21
34.496851990109192
 31
0.0
  0
LINE
  5
1B6
100
AcDbEntity
  8
0
  6
CONTINUOUS
 62
               7
100
AcDbLine
 10
27.488365138580264
 20
34.496851990109192
 30
0.0
 11
27.087060689498173
 21
34.496851990109192
 31
0.0
  0
LINE
  5
1B7
100
AcDbEntity
  8
0
  6
CONTINUOUS
 62
               7
100
AcDbLine
 10
27.087060689498173
 20
34.496851990109192
 30
0.0
 11
27.087060689498173
 21
34.100000000000009
 31
0.0
  0
LINE
  5
1B8
100
AcDbEntity
  8
0
  6
CONTINUOUS
 62
               7
100
AcDbLine
 10
-38.000000000000114
 20
24.600000000000094
 30
0.0
 11
-26.500000000000028
 21
24.600000000000094
 31
0.0
  0
LINE
  5
1B9
100
AcDbEntity
  8
0
  6
CONTINUOUS
 62
               7
100
AcDbLine
 10
-38.000000000000114
 20
26.600000000000094
 30
0.0
 11
-26.500000000000028
 21
26.600000000000094
 31
0.0
  0
LINE
  5
1BA
100
AcDbEntity
  8
0
  6
CONTINUOUS
 62
               7
100
AcDbLine
 10
-38.000000000000114
 20
25.600000000000094
 30
0.0
 11
-26.500000000000028
 21
25.600000000000094
 31
0.0
  0
LINE
  5
1BB
100
AcDbEntity
  8
0
  6
CONTINUOUS
 62
               7
100
AcDbLine
 10
-38.000000000000114
 20
30.600000000000009
 30
0.0
 11
-28.000000000000028
 21
30.600000000000009
 31
0.0
  0
LINE
  5
1BC
100
AcDbEntity
  8
0
  6
CONTINUOUS
 62
               7
100
AcDbLine
 10
-38.000000000000114
 20
29.600000000000009
 30
0.0
 11
-28.000000000000028
 21
29.600000000000009
 31
0.0
  0
LINE
  5
1BD
100
AcDbEntity
  8
0
  6
CONTINUOUS
 62
               7
100
AcDbLine
 10
-38.000000000000114
 20
27.600000000000094
 30
0.0
 11
-26.500000000000028
 21
27.600000000000094
 31
0.0
  0
LINE
  5
1BE
100
AcDbEntity
  8
0
  6
CONTINUOUS
 62
               7
100
AcDbLine
 10
-38.000000000000114
 20
28.600000000000094
 30
0.0
 11
-28.000000000000028
 21
28.600000000000094
 31
0.0
  0
LINE
  5
1BF
100
AcDbEntity
  8
0
  6
CONTINUOUS
 62
               7
100
AcDbLine
 10
-38.000000000000114
 20
36.600000000000009
 30
0.0
 11
-28.000000000000028
 21
36.600000000000009
 31
0.0
  0
LINE
  5
1C0
100
AcDbEntity
  8
0
  6
CONTINUOUS
 62
               7
100
AcDbLine
 10
-38.000000000000114
 20
35.600000000000009
 30
0.0
 11
-28.000000000000028
 21
35.600000000000009
 31
0.0
  0
LINE
  5
1C1
100
AcDbEntity
  8
0
  6
CONTINUOUS
 62
               7
100
AcDbLine
 10
-38.000000000000114
 20
34.600000000000009
 30
0.0
 11
-28.000000000000028
 21
34.600000000000009
 31
0.0
  0
LINE
  5
1C2
100
AcDbEntity
  8
0
  6
CONTINUOUS
 62
               7
100
AcDbLine
 10
-38.000000000000114
 20
32.600000000000009
 30
0.0
 11
-28.000000000000028
 21
32.600000000000009
 31
0.0
  0
LINE
  5
1C3
100
AcDbEntity
  8
0
  6
CONTINUOUS
 62
               7
100
AcDbLine
 10
-38.000000000000114
 20
33.600000000000009
 30
0.0
 11
-28.000000000000028
 21
33.600000000000009
 31
0.0
  0
LINE
  5
1C4
100
AcDbEntity
  8
0
  6
CONTINUOUS
 62
               7
100
AcDbLine
 10
-38.000000000000114
 20
31.600000000000009
 30
0.0
 11
-28.000000000000028
 21
31.600000000000009
 31
0.0
  0
LINE
  5
1C5
100
AcDbEntity
  8
0
  6
CONTINUOUS
 62
               7
100
AcDbLine
 10
-26.500000000000028
 20
37.600000000000009
 30
0.0
 11
-25.000000000000028
 21
37.600000000000009
 31
0.0
  0
LINE
  5
1C6
100
AcDbEntity
  8
0
  6
CONTINUOUS
 62
               7
100
AcDbLine
 10
-38.000000000000114
 20
37.350000000000009
 30
0.0
 11
-26.500000000000028
 21
37.600000000000009
 31
0.0
  0
LINE
  5
1C7
100
AcDbEntity
  8
0
  6
CONTINUOUS
 62
               7
100
AcDbLine
 10
-26.500000000000028
 20
23.600000000000009
 30
0.0
 11
-25.000000000000028
 21
23.600000000000009
 31
0.0
  0
LINE
  5
1C8
100
AcDbEntity
  8
0
  6
CONTINUOUS
 62
               7
100
AcDbLine
 10
-38.000000000000114
 20
23.850000000000009
 30
0.0
 11
-26.500000000000028
 21
23.600000000000009
 31
0.0
  0
LINE
  5
1C9
100
AcDbEntity
  8
0
  6
CONTINUOUS
 62
               7
100
AcDbLine
 10
-38.500000000000028
 20
24.350000000000009
 30
0.0
 11
-38.000000000000114
 21
24.350000000000009
 31
0.0
  0
LINE
  5
1CA
100
AcDbEntity
  8
0
  6
CONTINUOUS
 62
               7
100
AcDbLine
 10
-38.500000000000028
 20
36.850000000000009
 30
0.0
 11
-38.000000000000114
 21
36.850000000000009
 31
0.0
  0
LINE
  5
1CB
100
AcDbEntity
  8
0
  6
CONTINUOUS
 62
               7
100
AcDbLine
 10
-26.500000000000028
 20
37.600000000000009
 30
0.0
 11
-26.500000000000028
 21
37.450000000000088
 31
0.0
  0
LINE
  5
1CC
100
AcDbEntity
  8
0
  6
CONTINUOUS
 62
               7
100
AcDbLine
 10
-38.000000000000114
 20
37.350000000000009
 30
0.0
 11
-38.000000000000114
 21
23.850000000000009
 31
0.0
  0
LINE
  5
1CD
100
AcDbEntity
  8
0
  6
CONTINUOUS
 62
               7
100
AcDbLine
 10
-38.500000000000028
 20
36.850000000000009
 30
0.0
 11
-38.500000000000028
 21
24.350000000000009
 31
0.0
  0
LINE
  5
1CE
100
AcDbEntity
  8
0
  6
CONTINUOUS
 62
               7
100
AcDbLine
 10
-26.500000000000028
 20
28.550000000000111
 30
0.0
 11
-26.500000000000028
 21
23.600000000000009
 31
0.0
  0
LINE
  5
1CF
100
AcDbEntity
  8
0
  6
CONTINUOUS
 62
               7
100
AcDbLine
 10
35.800000000000182
 20
29.599999999999895
 30
0.0
 11
35.800000000000182
 21
24.599999999999895
 31
0.0
  0
LINE
  5
1D0
100
AcDbEntity
  8
0
  6
CONTINUOUS
 62
               7
100
AcDbLine
 10
36.300000000000068
 20
29.099999999999895
 30
0.0
 11
35.800000000000182
 21
29.599999999999895
 31
0.0
  0
LINE
  5
1D1
100
AcDbEntity
  8
0
  6
CONTINUOUS
 62
               7
100
AcDbLine
 10
35.800000000000182
 20
24.599999999999895
 30
0.0
 11
36.300000000000068
 21
25.099999999999895
 31
0.0
  0
LINE
  5
1D2
100
AcDbEntity
  8
0
  6
CONTINUOUS
 62
               7
100
AcDbLine
 10
30.300000000000068
 20
25.099999999999895
 30
0.0
 11
28.800000000000182
 21
25.099999999999895
 31
0.0
  0
LINE
  5
1D3
100
AcDbEntity
  8
0
  6
CONTINUOUS
 62
               7
100
AcDbLine
 10
30.300000000000068
 20
29.099999999999895
 30
0.0
 11
28.800000000000182
 21
29.099999999999895
 31
0.0
  0
LINE
  5
1D4
100
AcDbEntity
  8
0
  6
CONTINUOUS
 62
               7
100
AcDbLine
 10
35.800000000000182
 20
29.099999999999895
 30
0.0
 11
30.800000000000068
 21
29.099999999999895
 31
0.0
  0
LINE
  5
1D5
100
AcDbEntity
  8
0
  6
CONTINUOUS
 62
               7
100
AcDbLine
 10
35.800000000000182
 20
27.099999999999895
 30
0.0
 11
30.800000000000068
 21
27.099999999999895
 31
0.0
  0
LINE
  5
1D6
100
AcDbEntity
  8
0
  6
CONTINUOUS
 62
               7
100
AcDbLine
 10
35.800000000000182
 20
27.599999999999895
 30
0.0
 11
30.800000000000068
 21
27.599999999999895
 31
0.0
  0
LINE
  5
1D7
100
AcDbEntity
  8
0
  6
CONTINUOUS
 62
               7
100
AcDbLine
 10
35.800000000000182
 20
28.599999999999895
 30
0.0
 11
30.800000000000068
 21
28.599999999999895
 31
0.0
  0
LINE
  5
1D8
100
AcDbEntity
  8
0
  6
CONTINUOUS
 62
               7
100
AcDbLine
 10
35.800000000000182
 20
28.099999999999895
 30
0.0
 11
30.800000000000068
 21
28.099999999999895
 31
0.0
  0
LINE
  5
1D9
100
AcDbEntity
  8
0
  6
CONTINUOUS
 62
               7
100
AcDbLine
 10
35.800000000000182
 20
26.100000000000009
 30
0.0
 11
30.800000000000068
 21
26.099999999999895
 31
0.0
  0
LINE
  5
1DA
100
AcDbEntity
  8
0
  6
CONTINUOUS
 62
               7
100
AcDbLine
 10
35.800000000000182
 20
26.599999999999895
 30
0.0
 11
30.800000000000068
 21
26.599999999999895
 31
0.0
  0
LINE
  5
1DB
100
AcDbEntity
  8
0
  6
CONTINUOUS
 62
               7
100
AcDbLine
 10
35.800000000000182
 20
25.600000000000094
 30
0.0
 11
30.800000000000068
 21
25.599999999999895
 31
0.0
  0
LINE
  5
1DC
100
AcDbEntity
  8
0
  6
CONTINUOUS
 62
               7
100
AcDbLine
 10
35.800000000000182
 20
25.100000000000009
 30
0.0
 11
30.800000000000068
 21
25.099999999999895
 31
0.0
  0
LINE
  5
1DD
100
AcDbEntity
  8
0
  6
CONTINUOUS
 62
               7
100
AcDbLine
 10
30.800000000000068
 20
24.599999999999895
 30
0.0
 11
30.800000000000068
 21
29.599999999999895
 31
0.0
  0
LINE
  5
1DE
100
AcDbEntity
  8
0
  6
CONTINUOUS
 62
               7
100
AcDbLine
 10
30.300000000000068
 20
29.599999999999895
 30
0.0
 11
35.800000000000182
 21
29.599999999999895
 31
0.0
  0
LINE
  5
1DF
100
AcDbEntity
  8
0
  6
CONTINUOUS
 62
               7
100
AcDbLine
 10
30.300000000000068
 20
24.599999999999895
 30
0.0
 11
30.300000000000068
 21
29.599999999999895
 31
0.0
  0
LINE
  5
1E0
100
AcDbEntity
  8
0
  6
CONTINUOUS
 62
               7
100
AcDbLine
 10
35.800000000000182
 20
24.599999999999895
 30
0.0
 11
30.300000000000068
 21
24.599999999999895
 31
0.0
  0
LINE
  5
1E1
100
AcDbEntity
  8
0
  6
CONTINUOUS
 62
               7
100
AcDbLine
 10
36.300000000000068
 20
29.099999999999895
 30
0.0
 11
36.300000000000068
 21
25.099999999999895
 31
0.0
  0
CIRCLE
  5
1E2
100
AcDbEntity
  8
0
  6
CONTINUOUS
 62
               7
100
AcDbCircle
 10
-17.000000000000028
 20
106.99999999999999
 30
0.0
 40
3.0
  0
CIRCLE
  5
1E3
100
AcDbEntity
  8
0
  6
CONTINUOUS
 62
               7
100
AcDbCircle
 10
19.999999999999972
 20
106.99999999999999
 30
0.0
 40
3.0
  0
ARC
  5
1E4
100
AcDbEntity
  8
0
  6
CONTINUOUS
 62
               7
100
AcDbCircle
 10
19.999999999999972
 20
22.999999999999986
 30
0.0
 40
3.0
100
AcDbArc
 50
350.79421856227009
 51
39.541703732598151
  0
LINE
  5
1E5
100
AcDbEntity
  8
0
  6
PHANTOM
 62
               2
100
AcDbLine
 10
25.0
 20
14.999999999999986
 30
0.0
 11
9.6516295544464867
 21
71.61649516409561
 31
0.0
  0
LINE
  5
1E6
100
AcDbEntity
  8
0
  6
PHANTOM
 62
               2
100
AcDbLine
 10
-25.000000000000028
 20
14.999999999999986
 30
0.0
 11
-9.6516295544464299
 21
71.61649516409561
 31
0.0
  0
LINE
  5
1E7
100
AcDbEntity
  8
0
  6
PHANTOM
 62
               2
100
AcDbLine
 10
-25.000000000000028
 20
0.0
 30
0.0
 11
-25.000000000000028
 21
14.999999999999986
 31
0.0
  0
LINE
  5
1E8
100
AcDbEntity
  8
0
  6
PHANTOM
 62
               2
100
AcDbLine
 10
25.0
 20
0.0
 30
0.0
 11
25.0
 21
14.999999999999986
 31
0.0
  0
LINE
  5
1E9
100
AcDbEntity
  8
0
  6
PHANTOM
 62
               2
100
AcDbLine
 10
-25.000000000000028
 20
0.0
 30
0.0
 11
25.0
 21
0.0
 31
0.0
  0
ARC
  5
1EA
100
AcDbEntity
  8
0
  6
PHANTOM
 62
               2
100
AcDbCircle
 10
-0.0000000000000284
 20
68.999999999999986
 30
0.0
 40
10.0
100
AcDbArc
 50
15.167961147434461
 51
164.83203885256549
  0
CIRCLE
  5
1EB
100
AcDbEntity
  8
0
  6
PHANTOM
 62
               2
100
AcDbCircle
 10
-0.0000000000000284
 20
68.999999999999986
 30
0.0
 40
1.630770845866663
  0
CIRCLE
  5
1EC
100
AcDbEntity
  8
0
  6
PHANTOM
 62
               2
100
AcDbCircle
 10
-0.0000000000000284
 20
68.999999999999986
 30
0.0
 40
1.8568210704529511
  0
CIRCLE
  5
1ED
100
AcDbEntity
  8
0
  6
PHANTOM
 62
               2
100
AcDbCircle
 10
-0.0000000000000284
 20
68.999999999999986
 30
0.0
 40
4.8308218134466179
  0
CIRCLE
  5
1EE
100
AcDbEntity
  8
0
  6
PHANTOM
 62
               2
100
AcDbCircle
 10
-0.0000000000000284
 20
68.999999999999986
 30
0.0
 40
5.2441283245111663
  0
CIRCLE
  5
1EF
100
AcDbEntity
  8
0
  6
PHANTOM
 62
               2
100
AcDbCircle
 10
-0.0000000000000284
 20
68.999999999999986
 30
0.0
 40
8.0000000000001137
  0
CIRCLE
  5
1F0
100
AcDbEntity
  8
0
  6
PHANTOM
 62
               2
100
AcDbCircle
 10
-0.0000000000000284
 20
68.999999999999986
 30
0.0
 40
7.0000000000000284
  0
LINE
  5
1F1
100
AcDbEntity
  8
0
  6
PHANTOM
 62
               2
100
AcDbLine
 10
25.0
 20
48.124999999999872
 30
0.0
 11
34.0
 21
48.124999999999872
 31
0.0
  0
LINE
  5
1F2
100
AcDbEntity
  8
0
  6
PHANTOM
 62
               2
100
AcDbLine
 10
25.0
 20
111.87500000000021
 30
0.0
 11
34.0
 21
111.87500000000018
 31
0.0
  0
LINE
  5
1F3
100
AcDbEntity
  8
0
  6
PHANTOM
 62
               2
100
AcDbLine
 10
37.0
 20
51.124999999999872
 30
0.0
 11
37.0
 21
108.87500000000018
 31
0.0
  0
ARC
  5
1F4
100
AcDbEntity
  8
0
  6
PHANTOM
 62
               2
100
AcDbCircle
 10
34.0
 20
108.87500000000018
 30
0.0
 40
3.0
100
AcDbArc
 50
0.0
 51
90.0
  0
ARC
  5
1F5
100
AcDbEntity
  8
0
  6
PHANTOM
 62
               2
100
AcDbCircle
 10
34.0
 20
51.124999999999872
 30
0.0
 40
3.0
100
AcDbArc
 50
270.0
 51
0.0
  0
LINE
  5
1F6
100
AcDbEntity
  8
0
  6
CONTINUOUS
 62
               7
100
AcDbLine
 10
26.200000000000017
 20
108.4999999999999
 30
0.0
 11
25.0
 21
108.4999999999999
 31
0.0
  0
LINE
  5
1F7
100
AcDbEntity
  8
0
  6
CONTINUOUS
 62
               7
100
AcDbLine
 10
31.0
 20
109.9999999999999
 30
0.0
 11
26.200000000000017
 21
109.9999999999999
 31
0.0
  0
LINE
  5
1F8
100
AcDbEntity
  8
0
  6
CONTINUOUS
 62
               7
100
AcDbLine
 10
26.200000000000017
 20
51.499999999999901
 30
0.0
 11
25.0
 21
51.499999999999901
 31
0.0
  0
LINE
  5
1F9
100
AcDbEntity
  8
0
  6
CONTINUOUS
 62
               7
100
AcDbLine
 10
31.0
 20
49.999999999999901
 30
0.0
 11
26.200000000000017
 21
49.999999999999901
 31
0.0
  0
LINE
  5
1FA
100
AcDbEntity
  8
0
  6
CONTINUOUS
 62
               7
100
AcDbLine
 10
31.0
 20
49.999999999999901
 30
0.0
 11
31.0
 21
109.9999999999999
 31
0.0
  0
LINE
  5
1FB
100
AcDbEntity
  8
0
  6
CONTINUOUS
 62
               7
100
AcDbLine
 10
26.200000000000017
 20
109.9999999999999
 30
0.0
 11
26.200000000000017
 21
49.999999999999901
 31
0.0
  0
LINE
  5
1FC
100
AcDbEntity
  8
0
  6
CONTINUOUS
 62
               7
100
AcDbLine
 10
-25.000000000000028
 20
14.999999999999986
 30
0.0
 11
25.0
 21
14.999999999999986
 31
0.0
  0
LINE
  5
1FD
100
AcDbEntity
  8
0
  6
CONTINUOUS
 62
               2
100
AcDbLine
 10
0.0
 20
-5.3344425354993064
 30
0.0
 11
0.0
 21
6.9344425354992012
 31
0.0
  0
ENDBLK
  5
1FE
100
AcDbEntity
  8
0
100
AcDbBlockEnd
  0
BLOCK
  5
1FF
100
AcDbEntity
  8
0
100
AcDbBlockBegin
  2
DTRY-ELF02-3
 70
               0
 10
0.0
 20
0.0
 30
0.0
  3
DTRY-ELF02-3
  1

  0
LINE
  5
200
100
AcDbEntity
  8
0
  6
CONTINUOUS
 62
               7
100
AcDbLine
 10
-33.693466016658789
 20
16.485744753888923
 30
0.0
 11
-36.306533983340984
 21
19.514255246111048
 31
0.0
  0
LINE
  5
201
100
AcDbEntity
  8
0
  6
CONTINUOUS
 62
               7
100
AcDbLine
 10
-36.414213562372993
 20
16.585786437626894
 30
0.0
 11
-33.58578643762678
 21
19.414213562373092
 31
0.0
  0
LINE
  5
202
100
AcDbEntity
  8
0
  6
CONTINUOUS
 62
               7
100
AcDbLine
 10
36.306533983340955
 20
16.435744753889097
 30
0.0
 11
33.693466016658704
 21
19.464255246111207
 31
0.0
  0
LINE
  5
203
100
AcDbEntity
  8
0
  6
CONTINUOUS
 62
               7
100
AcDbLine
 10
36.414213562372936
 20
19.364213562373266
 30
0.0
 11
33.585786437626723
 21
16.535786437627067
 31
0.0
  0
LINE
  5
204
100
AcDbEntity
  8
0
  6
CONTINUOUS
 62
               2
100
AcDbLine
 10
-59.251220405762496
 20
0.0
 30
0.0
 11
59.135477364127411
 21
0.0
 31
0.0
  0
CIRCLE
  5
205
100
AcDbEntity
  8
0
  6
PHANTOM
 62
               2
100
AcDbCircle
 10
30.0
 20
-0.0000000000001137
 30
0.0
 40
2.300000000000022
  0
CIRCLE
  5
206
100
AcDbEntity
  8
0
  6
PHANTOM
 62
               2
100
AcDbCircle
 10
0.0
 20
-0.0000000000001137
 30
0.0
 40
2.2999999999999901
  0
CIRCLE
  5
207
100
AcDbEntity
  8
0
  6
PHANTOM
 62
               2
100
AcDbCircle
 10
-29.999999999999972
 20
-0.0000000000001137
 30
0.0
 40
2.2999999999999972
  0
LINE
  5
208
100
AcDbEntity
  8
0
  6
PHANTOM
 62
               2
100
AcDbLine
 10
44.0
 20
25.0
 30
0.0
 11
44.0
 21
-25.0
 31
0.0
  0
LINE
  5
209
100
AcDbEntity
  8
0
  6
PHANTOM
 62
               2
100
AcDbLine
 10
-43.999999999999972
 20
25.0
 30
0.0
 11
-43.999999999999972
 21
-25.0
 31
0.0
  0
LINE
  5
20A
100
AcDbEntity
  8
0
  6
PHANTOM
 62
               2
100
AcDbLine
 10
-43.999999999999972
 20
-25.0
 30
0.0
 11
44.0
 21
-25.0
 31
0.0
  0
LINE
  5
20B
100
AcDbEntity
  8
0
  6
PHANTOM
 62
               2
100
AcDbLine
 10
-43.999999999999972
 20
25.0
 30
0.0
 11
44.0
 21
25.0
 31
0.0
  0
ARC
  5
20C
100
AcDbEntity
  8
0
  6
PHANTOM
 62
               2
100
AcDbCircle
 10
48.070954845342612
 20
6.0
 30
0.0
 40
0.4
100
AcDbArc
 50
90.0
 51
270.0
  0
LINE
  5
20D
100
AcDbEntity
  8
0
  6
PHANTOM
 62
               2
100
AcDbLine
 10
55.200000000000301
 20
6.3999999999999773
 30
0.0
 11
48.070954845342385
 21
6.3999999999998636
 31
0.0
  0
LINE
  5
20E
100
AcDbEntity
  8
0
  6
PHANTOM
 62
               2
100
AcDbLine
 10
55.200000000000301
 20
5.5999999999999091
 30
0.0
 11
48.070954845342385
 21
5.5999999999999091
 31
0.0
  0
LINE
  5
20F
100
AcDbEntity
  8
0
  6
PHANTOM
 62
               2
100
AcDbLine
 10
55.200000000000301
 20
2.5999999999999091
 30
0.0
 11
48.070954845342385
 21
2.5999999999999091
 31
0.0
  0
LINE
  5
210
100
AcDbEntity
  8
0
  6
PHANTOM
 62
               2
100
AcDbLine
 10
55.200000000000301
 20
3.3999999999999773
 30
0.0
 11
48.070954845342385
 21
3.3999999999998636
 31
0.0
  0
ARC
  5
211
100
AcDbEntity
  8
0
  6
PHANTOM
 62
               2
100
AcDbCircle
 10
48.070954845342612
 20
3.0
 30
0.0
 40
0.4
100
AcDbArc
 50
90.0
 51
270.0
  0
ARC
  5
212
100
AcDbEntity
  8
0
  6
PHANTOM
 62
               2
100
AcDbCircle
 10
48.070954845342612
 20
0.0
 30
0.0
 40
0.4
100
AcDbArc
 50
90.0
 51
270.0
  0
LINE
  5
213
100
AcDbEntity
  8
0
  6
PHANTOM
 62
               2
100
AcDbLine
 10
55.200000000000301
 20
0.3999999999999773
 30
0.0
 11
48.070954845342385
 21
0.3999999999998636
 31
0.0
  0
LINE
  5
214
100
AcDbEntity
  8
0
  6
PHANTOM
 62
               2
100
AcDbLine
 10
55.200000000000301
 20
-0.400000000000091
 30
0.0
 11
48.070954845342385
 21
-0.400000000000091
 31
0.0
  0
ARC
  5
215
100
AcDbEntity
  8
0
  6
PHANTOM
 62
               2
100
AcDbCircle
 10
46.500000000000199
 20
7.5
 30
0.0
 40
0.5
100
AcDbArc
 50
90.0
 51
180.0
  0
ARC
  5
216
100
AcDbEntity
  8
0
  6
PHANTOM
 62
               2
100
AcDbCircle
 10
54.700000000000301
 20
7.5
 30
0.0
 40
0.5
100
AcDbArc
 50
0.0
 51
90.0
  0
ARC
  5
217
100
AcDbEntity
  8
0
  6
PHANTOM
 62
               2
100
AcDbCircle
 10
55.500000000000199
 20
6.5
 30
0.0
 40
0.5
100
AcDbArc
 50
0.0
 51
90.0
  0
LINE
  5
218
100
AcDbEntity
  8
0
  6
PHANTOM
 62
               2
100
AcDbLine
 10
55.5
 20
6.9999999999998863
 30
0.0
 11
55.200000000000301
 21
7.0
 31
0.0
  0
LINE
  5
219
100
AcDbEntity
  8
0
  6
PHANTOM
 62
               2
100
AcDbLine
 10
46.5
 20
8.0
 30
0.0
 11
54.700000000000301
 21
8.0
 31
0.0
  0
LINE
  5
21A
100
AcDbEntity
  8
0
  6
PHANTOM
 62
               2
100
AcDbLine
 10
44.30000000000021
 20
5.5
 30
0.0
 11
46.0
 21
5.5
 31
0.0
  0
LINE
  5
21B
100
AcDbEntity
  8
0
  6
PHANTOM
 62
               2
100
AcDbLine
 10
44.0
 20
-4.5
 30
0.0
 11
44.30000000000021
 21
-4.5
 31
0.0
  0
LINE
  5
21C
100
AcDbEntity
  8
0
  6
PHANTOM
 62
               2
100
AcDbLine
 10
44.0
 20
4.5
 30
0.0
 11
44.30000000000021
 21
4.5
 31
0.0
  0
LINE
  5
21D
100
AcDbEntity
  8
0
  6
PHANTOM
 62
               2
100
AcDbLine
 10
44.30000000000021
 20
5.5
 30
0.0
 11
44.30000000000021
 21
-5.5000000000000142
 31
0.0
  0
LINE
  5
21E
100
AcDbEntity
  8
0
  6
PHANTOM
 62
               2
100
AcDbLine
 10
56.0
 20
6.4999999999998863
 30
0.0
 11
56.0
 21
-6.5
 31
0.0
  0
LINE
  5
21F
100
AcDbEntity
  8
0
  6
PHANTOM
 62
               2
100
AcDbLine
 10
55.200000000000301
 20
7.5
 30
0.0
 11
55.200000000000301
 21
-7.5000000000001137
 31
0.0
  0
LINE
  5
220
100
AcDbEntity
  8
0
  6
PHANTOM
 62
               2
100
AcDbLine
 10
46.0
 20
7.5
 30
0.0
 11
46.0
 21
-7.5
 31
0.0
  0
LINE
  5
221
100
AcDbEntity
  8
0
  6
PHANTOM
 62
               2
100
AcDbLine
 10
44.30000000000021
 20
-5.5000000000000142
 30
0.0
 11
46.0
 21
-5.5000000000000142
 31
0.0
  0
LINE
  5
222
100
AcDbEntity
  8
0
  6
PHANTOM
 62
               2
100
AcDbLine
 10
46.5
 20
-8.0000000000000142
 30
0.0
 11
54.700000000000301
 21
-8.0000000000001137
 31
0.0
  0
LINE
  5
223
100
AcDbEntity
  8
0
  6
PHANTOM
 62
               2
100
AcDbLine
 10
55.5
 20
-7.0
 30
0.0
 11
55.200000000000301
 21
-7.0
 31
0.0
  0
ARC
  5
224
100
AcDbEntity
  8
0
  6
PHANTOM
 62
               2
100
AcDbCircle
 10
55.500000000000199
 20
-6.5
 30
0.0
 40
0.5
100
AcDbArc
 50
270.0
 51
0.0
  0
ARC
  5
225
100
AcDbEntity
  8
0
  6
PHANTOM
 62
               2
100
AcDbCircle
 10
54.700000000000301
 20
-7.5
 30
0.0
 40
0.5
100
AcDbArc
 50
270.0
 51
0.0
  0
ARC
  5
226
100
AcDbEntity
  8
0
  6
PHANTOM
 62
               2
100
AcDbCircle
 10
46.500000000000199
 20
-7.5
 30
0.0
 40
0.5
100
AcDbArc
 50
180.0
 51
270.0
  0
ARC
  5
227
100
AcDbEntity
  8
0
  6
PHANTOM
 62
               2
100
AcDbCircle
 10
48.070954845342612
 20
-3.0000000000000142
 30
0.0
 40
0.4
100
AcDbArc
 50
90.0
 51
270.0
  0
LINE
  5
228
100
AcDbEntity
  8
0
  6
PHANTOM
 62
               2
100
AcDbLine
 10
55.200000000000301
 20
-2.6000000000000227
 30
0.0
 11
48.070954845342385
 21
-2.6000000000001364
 31
0.0
  0
LINE
  5
229
100
AcDbEntity
  8
0
  6
PHANTOM
 62
               2
100
AcDbLine
 10
55.200000000000301
 20
-3.4000000000000909
 30
0.0
 11
48.070954845342385
 21
-3.4000000000000909
 31
0.0
  0
LINE
  5
22A
100
AcDbEntity
  8
0
  6
PHANTOM
 62
               2
100
AcDbLine
 10
55.200000000000301
 20
-6.4000000000000909
 30
0.0
 11
48.070954845342385
 21
-6.4000000000000909
 31
0.0
  0
LINE
  5
22B
100
AcDbEntity
  8
0
  6
PHANTOM
 62
               2
100
AcDbLine
 10
55.200000000000301
 20
-5.6000000000000227
 30
0.0
 11
48.070954845342385
 21
-5.6000000000001364
 31
0.0
  0
ARC
  5
22C
100
AcDbEntity
  8
0
  6
PHANTOM
 62
               2
100
AcDbCircle
 10
48.070954845342612
 20
-6.0
 30
0.0
 40
0.4
100
AcDbArc
 50
90.0
 51
270.0
  0
ARC
  5
22D
100
AcDbEntity
  8
0
  6
PHANTOM
 62
               2
100
AcDbCircle
 10
-48.070954845342357
 20
-6.0
 30
0.0
 40
0.4
100
AcDbArc
 50
270.0
 51
90.0
  0
LINE
  5
22E
100
AcDbEntity
  8
0
  6
PHANTOM
 62
               2
100
AcDbLine
 10
-55.19999999999979
 20
-5.6000000000000227
 30
0.0
 11
-48.070954845342357
 21
-5.6000000000001364
 31
0.0
  0
LINE
  5
22F
100
AcDbEntity
  8
0
  6
PHANTOM
 62
               2
100
AcDbLine
 10
-55.19999999999979
 20
-6.4000000000000909
 30
0.0
 11
-48.070954845342357
 21
-6.4000000000000909
 31
0.0
  0
ARC
  5
230
100
AcDbEntity
  8
0
  6
PHANTOM
 62
               2
100
AcDbCircle
 10
-48.070954845342357
 20
6.0
 30
0.0
 40
0.4
100
AcDbArc
 50
270.0
 51
90.0
  0
LINE
  5
231
100
AcDbEntity
  8
0
  6
PHANTOM
 62
               2
100
AcDbLine
 10
-55.19999999999979
 20
6.3999999999999773
 30
0.0
 11
-48.070954845342357
 21
6.3999999999998636
 31
0.0
  0
LINE
  5
232
100
AcDbEntity
  8
0
  6
PHANTOM
 62
               2
100
AcDbLine
 10
-55.19999999999979
 20
5.5999999999999091
 30
0.0
 11
-48.070954845342357
 21
5.5999999999999091
 31
0.0
  0
LINE
  5
233
100
AcDbEntity
  8
0
  6
PHANTOM
 62
               2
100
AcDbLine
 10
-55.19999999999979
 20
-3.4000000000000909
 30
0.0
 11
-48.070954845342357
 21
-3.4000000000000909
 31
0.0
  0
LINE
  5
234
100
AcDbEntity
  8
0
  6
PHANTOM
 62
               2
100
AcDbLine
 10
-55.19999999999979
 20
-2.6000000000000227
 30
0.0
 11
-48.070954845342357
 21
-2.6000000000001364
 31
0.0
  0
ARC
  5
235
100
AcDbEntity
  8
0
  6
PHANTOM
 62
               2
100
AcDbCircle
 10
-48.070954845342357
 20
-3.0000000000000142
 30
0.0
 40
0.4
100
AcDbArc
 50
270.0
 51
90.0
  0
LINE
  5
236
100
AcDbEntity
  8
0
  6
PHANTOM
 62
               2
100
AcDbLine
 10
-55.19999999999979
 20
2.5999999999999091
 30
0.0
 11
-48.070954845342357
 21
2.5999999999999091
 31
0.0
  0
LINE
  5
237
100
AcDbEntity
  8
0
  6
PHANTOM
 62
               2
100
AcDbLine
 10
-55.19999999999979
 20
3.3999999999999773
 30
0.0
 11
-48.070954845342357
 21
3.3999999999998636
 31
0.0
  0
ARC
  5
238
100
AcDbEntity
  8
0
  6
PHANTOM
 62
               2
100
AcDbCircle
 10
-48.070954845342357
 20
3.0
 30
0.0
 40
0.4
100
AcDbArc
 50
270.0
 51
90.0
  0
ARC
  5
239
100
AcDbEntity
  8
0
  6
PHANTOM
 62
               2
100
AcDbCircle
 10
-48.070954845342357
 20
0.0
 30
0.0
 40
0.4
100
AcDbArc
 50
270.0
 51
90.0
  0
LINE
  5
23A
100
AcDbEntity
  8
0
  6
PHANTOM
 62
               2
100
AcDbLine
 10
-55.19999999999979
 20
0.3999999999999773
 30
0.0
 11
-48.070954845342357
 21
0.3999999999998636
 31
0.0
  0
LINE
  5
23B
100
AcDbEntity
  8
0
  6
PHANTOM
 62
               2
100
AcDbLine
 10
-55.19999999999979
 20
-0.400000000000091
 30
0.0
 11
-48.070954845342357
 21
-0.400000000000091
 31
0.0
  0
ARC
  5
23C
100
AcDbEntity
  8
0
  6
PHANTOM
 62
               2
100
AcDbCircle
 10
-46.499999999999972
 20
7.5
 30
0.0
 40
0.5
100
AcDbArc
 50
0.0
 51
90.0
  0
ARC
  5
23D
100
AcDbEntity
  8
0
  6
PHANTOM
 62
               2
100
AcDbCircle
 10
-46.499999999999972
 20
-7.5
 30
0.0
 40
0.5
100
AcDbArc
 50
270.0
 51
0.0
  0
ARC
  5
23E
100
AcDbEntity
  8
0
  6
PHANTOM
 62
               2
100
AcDbCircle
 10
-54.700000000000017
 20
-7.5
 30
0.0
 40
0.5
100
AcDbArc
 50
180.0
 51
270.0
  0
ARC
  5
23F
100
AcDbEntity
  8
0
  6
PHANTOM
 62
               2
100
AcDbCircle
 10
-54.700000000000017
 20
7.5
 30
0.0
 40
0.5
100
AcDbArc
 50
90.0
 51
180.0
  0
ARC
  5
240
100
AcDbEntity
  8
0
  6
PHANTOM
 62
               2
100
AcDbCircle
 10
-55.499999999999972
 20
6.5
 30
0.0
 40
0.5
100
AcDbArc
 50
90.0
 51
180.0
  0
ARC
  5
241
100
AcDbEntity
  8
0
  6
PHANTOM
 62
               2
100
AcDbCircle
 10
-55.499999999999972
 20
-6.5
 30
0.0
 40
0.5
100
AcDbArc
 50
180.0
 51
270.0
  0
LINE
  5
242
100
AcDbEntity
  8
0
  6
PHANTOM
 62
               2
100
AcDbLine
 10
-55.499999999999972
 20
-7.0
 30
0.0
 11
-55.19999999999979
 21
-7.0
 31
0.0
  0
LINE
  5
243
100
AcDbEntity
  8
0
  6
PHANTOM
 62
               2
100
AcDbLine
 10
-55.499999999999972
 20
6.9999999999998863
 30
0.0
 11
-55.19999999999979
 21
7.0
 31
0.0
  0
LINE
  5
244
100
AcDbEntity
  8
0
  6
PHANTOM
 62
               2
100
AcDbLine
 10
-46.499999999999972
 20
-8.0000000000000142
 30
0.0
 11
-54.69999999999979
 21
-8.0000000000001137
 31
0.0
  0
LINE
  5
245
100
AcDbEntity
  8
0
  6
PHANTOM
 62
               2
100
AcDbLine
 10
-46.499999999999972
 20
8.0
 30
0.0
 11
-54.69999999999979
 21
8.0
 31
0.0
  0
LINE
  5
246
100
AcDbEntity
  8
0
  6
PHANTOM
 62
               2
100
AcDbLine
 10
-44.299999999999926
 20
-5.5000000000000142
 30
0.0
 11
-45.999999999999972
 21
-5.5000000000000142
 31
0.0
  0
LINE
  5
247
100
AcDbEntity
  8
0
  6
PHANTOM
 62
               2
100
AcDbLine
 10
-44.299999999999926
 20
5.5
 30
0.0
 11
-45.999999999999972
 21
5.5
 31
0.0
  0
LINE
  5
248
100
AcDbEntity
  8
0
  6
PHANTOM
 62
               2
100
AcDbLine
 10
-43.999999999999972
 20
-4.5
 30
0.0
 11
-44.299999999999926
 21
-4.5
 31
0.0
  0
LINE
  5
249
100
AcDbEntity
  8
0
  6
PHANTOM
 62
               2
100
AcDbLine
 10
-43.999999999999972
 20
4.5
 30
0.0
 11
-44.299999999999926
 21
4.5
 31
0.0
  0
LINE
  5
24A
100
AcDbEntity
  8
0
  6
PHANTOM
 62
               2
100
AcDbLine
 10
-45.999999999999972
 20
7.5
 30
0.0
 11
-45.999999999999972
 21
-7.5
 31
0.0
  0
LINE
  5
24B
100
AcDbEntity
  8
0
  6
PHANTOM
 62
               2
100
AcDbLine
 10
-44.299999999999926
 20
5.5
 30
0.0
 11
-44.299999999999926
 21
-5.5000000000000142
 31
0.0
  0
LINE
  5
24C
100
AcDbEntity
  8
0
  6
PHANTOM
 62
               2
100
AcDbLine
 10
-55.19999999999979
 20
7.5
 30
0.0
 11
-55.19999999999979
 21
-7.5000000000001137
 31
0.0
  0
LINE
  5
24D
100
AcDbEntity
  8
0
  6
PHANTOM
 62
               2
100
AcDbLine
 10
-55.999999999999972
 20
6.4999999999998863
 30
0.0
 11
-55.999999999999972
 21
-6.5
 31
0.0
  0
LINE
  5
24E
100
AcDbEntity
  8
0
  6
CONTINUOUS
 62
               7
100
AcDbLine
 10
8.75
 20
35.999994330755044
 30
0.0
 11
-8.7499999999997442
 21
35.999994330755044
 31
0.0
  0
LINE
  5
24F
100
AcDbEntity
  8
0
  6
CONTINUOUS
 62
               7
100
AcDbLine
 10
-9.9999999999997442
 20
34.749994330755044
 30
0.0
 11
-9.9999999999997442
 21
30.000000000000355
 31
0.0
  0
LINE
  5
250
100
AcDbEntity
  8
0
  6
CONTINUOUS
 62
               7
100
AcDbLine
 10
10.0
 20
34.749994330754802
 30
0.0
 11
10.0
 21
30.000000000000355
 31
0.0
  0
LINE
  5
251
100
AcDbEntity
  8
0
  6
CONTINUOUS
 62
               7
100
AcDbLine
 10
-32.999999999999972
 20
25.0
 30
0.0
 11
-32.999999999999972
 21
28.0
 31
0.0
  0
LINE
  5
252
100
AcDbEntity
  8
0
  6
CONTINUOUS
 62
               7
100
AcDbLine
 10
-31.49999597247276
 20
28.0
 30
0.0
 11
-31.49999597247276
 21
30.000000000000355
 31
0.0
  0
LINE
  5
253
100
AcDbEntity
  8
0
  6
CONTINUOUS
 62
               7
100
AcDbLine
 10
-31.49999597247276
 20
30.000000000000355
 30
0.0
 11
-30.423913043478223
 21
30.000000000000355
 31
0.0
  0
LINE
  5
254
100
AcDbEntity
  8
0
  6
CONTINUOUS
 62
               7
100
AcDbLine
 10
31.499995972472789
 20
30.000000000000355
 30
0.0
 11
31.499995972472789
 21
28.0
 31
0.0
  0
LINE
  5
255
100
AcDbEntity
  8
0
  6
CONTINUOUS
 62
               7
100
AcDbLine
 10
33.0
 20
28.0
 30
0.0
 11
33.000000000000199
 21
25.0
 31
0.0
  0
LINE
  5
256
100
AcDbEntity
  8
0
  6
CONTINUOUS
 62
               7
100
AcDbLine
 10
-32.999999999999972
 20
28.0
 30
0.0
 11
-30.467391304347728
 21
28.0
 31
0.0
  0
ARC
  5
257
100
AcDbEntity
  8
0
  6
CONTINUOUS
 62
               7
100
AcDbCircle
 10
-8.7499999999997442
 20
34.749994330755044
 30
0.0
 40
1.25
100
AcDbArc
 50
90.0
 51
180.0
  0
ARC
  5
258
100
AcDbEntity
  8
0
  6
CONTINUOUS
 62
               7
100
AcDbCircle
 10
8.75
 20
34.749994330754802
 30
0.0
 40
1.25
100
AcDbArc
 50
0.0
 51
90.0
  0
LINE
  5
259
100
AcDbEntity
  8
0
  6
CONTINUOUS
 62
               2
100
AcDbLine
 10
0.0
 20
-38.313633222684075
 30
0.0
 11
0.0
 21
40.834494456199579
 31
0.0
  0
LINE
  5
25A
100
AcDbEntity
  8
0
  6
CONTINUOUS
 62
               2
100
AcDbLine
 10
-29.999999999999972
 20
8.0453821483604315
 30
0.0
 11
-29.999999999999972
 21
-8.0453821483606589
 31
0.0
  0
LINE
  5
25B
100
AcDbEntity
  8
0
  6
CONTINUOUS
 62
               2
100
AcDbLine
 10
30.0
 20
8.0453821483603178
 30
0.0
 11
30.0
 21
-8.0453821483606589
 31
0.0
  0
LINE
  5
25C
100
AcDbEntity
  8
0
  6
CONTINUOUS
 62
               7
100
AcDbLine
 10
-29.499999999999972
 20
38.0
 30
0.0
 11
-29.499999999999972
 21
26.5
 31
0.0
  0
LINE
  5
25D
100
AcDbEntity
  8
0
  6
CONTINUOUS
 62
               7
100
AcDbLine
 10
-27.499999999999972
 20
38.0
 30
0.0
 11
-27.499999999999972
 21
26.5
 31
0.0
  0
LINE
  5
25E
100
AcDbEntity
  8
0
  6
CONTINUOUS
 62
               7
100
AcDbLine
 10
-28.499999999999972
 20
38.0
 30
0.0
 11
-28.499999999999972
 21
26.5
 31
0.0
  0
LINE
  5
25F
100
AcDbEntity
  8
0
  6
CONTINUOUS
 62
               7
100
AcDbLine
 10
-23.499999999999943
 20
38.0
 30
0.0
 11
-23.499999999999943
 21
26.5
 31
0.0
  0
LINE
  5
260
100
AcDbEntity
  8
0
  6
CONTINUOUS
 62
               7
100
AcDbLine
 10
-24.499999999999972
 20
38.0
 30
0.0
 11
-24.499999999999972
 21
26.5
 31
0.0
  0
LINE
  5
261
100
AcDbEntity
  8
0
  6
CONTINUOUS
 62
               7
100
AcDbLine
 10
-26.499999999999972
 20
38.0
 30
0.0
 11
-26.499999999999972
 21
26.5
 31
0.0
  0
LINE
  5
262
100
AcDbEntity
  8
0
  6
CONTINUOUS
 62
               7
100
AcDbLine
 10
-25.499999999999972
 20
38.0
 30
0.0
 11
-25.499999999999972
 21
26.5
 31
0.0
  0
LINE
  5
263
100
AcDbEntity
  8
0
  6
CONTINUOUS
 62
               7
100
AcDbLine
 10
-17.499999999999972
 20
38.0
 30
0.0
 11
-17.499999999999972
 21
26.5
 31
0.0
  0
LINE
  5
264
100
AcDbEntity
  8
0
  6
CONTINUOUS
 62
               7
100
AcDbLine
 10
-18.499999999999943
 20
38.0
 30
0.0
 11
-18.499999999999943
 21
26.5
 31
0.0
  0
LINE
  5
265
100
AcDbEntity
  8
0
  6
CONTINUOUS
 62
               7
100
AcDbLine
 10
-19.5
 20
38.0
 30
0.0
 11
-19.5
 21
26.5
 31
0.0
  0
LINE
  5
266
100
AcDbEntity
  8
0
  6
CONTINUOUS
 62
               7
100
AcDbLine
 10
-21.499999999999972
 20
38.0
 30
0.0
 11
-21.499999999999972
 21
26.5
 31
0.0
  0
LINE
  5
267
100
AcDbEntity
  8
0
  6
CONTINUOUS
 62
               7
100
AcDbLine
 10
-20.499999999999972
 20
38.0
 30
0.0
 11
-20.499999999999972
 21
26.5
 31
0.0
  0
LINE
  5
268
100
AcDbEntity
  8
0
  6
CONTINUOUS
 62
               7
100
AcDbLine
 10
-22.499999999999972
 20
38.0
 30
0.0
 11
-22.499999999999972
 21
26.5
 31
0.0
  0
LINE
  5
269
100
AcDbEntity
  8
0
  6
CONTINUOUS
 62
               7
100
AcDbLine
 10
-16.499999999999972
 20
26.5
 30
0.0
 11
-16.499999999999972
 21
25.0
 31
0.0
  0
LINE
  5
26A
100
AcDbEntity
  8
0
  6
CONTINUOUS
 62
               7
100
AcDbLine
 10
-16.749999999999972
 20
38.0
 30
0.0
 11
-16.499999999999972
 21
26.5
 31
0.0
  0
LINE
  5
26B
100
AcDbEntity
  8
0
  6
CONTINUOUS
 62
               7
100
AcDbLine
 10
-30.499999999999972
 20
26.5
 30
0.0
 11
-30.499999999999972
 21
25.0
 31
0.0
  0
LINE
  5
26C
100
AcDbEntity
  8
0
  6
CONTINUOUS
 62
               7
100
AcDbLine
 10
-30.249999999999972
 20
38.0
 30
0.0
 11
-30.499999999999972
 21
26.5
 31
0.0
  0
LINE
  5
26D
100
AcDbEntity
  8
0
  6
CONTINUOUS
 62
               7
100
AcDbLine
 10
-29.749999999999972
 20
38.500000000000014
 30
0.0
 11
-29.749999999999972
 21
38.0
 31
0.0
  0
LINE
  5
26E
100
AcDbEntity
  8
0
  6
CONTINUOUS
 62
               7
100
AcDbLine
 10
-17.249999999999943
 20
38.500000000000014
 30
0.0
 11
-17.249999999999943
 21
38.0
 31
0.0
  0
LINE
  5
26F
100
AcDbEntity
  8
0
  6
CONTINUOUS
 62
               7
100
AcDbLine
 10
-16.499999999999972
 20
26.5
 30
0.0
 11
-30.499999999999972
 21
26.5
 31
0.0
  0
LINE
  5
270
100
AcDbEntity
  8
0
  6
CONTINUOUS
 62
               7
100
AcDbLine
 10
-16.749999999999972
 20
38.0
 30
0.0
 11
-30.249999999999972
 21
38.0
 31
0.0
  0
LINE
  5
271
100
AcDbEntity
  8
0
  6
CONTINUOUS
 62
               7
100
AcDbLine
 10
-17.249999999999943
 20
38.500000000000014
 30
0.0
 11
-29.749999999999972
 21
38.500000000000014
 31
0.0
  0
LINE
  5
272
100
AcDbEntity
  8
0
  6
CONTINUOUS
 62
               7
100
AcDbLine
 10
-16.576086956521721
 20
30.000000000000355
 30
0.0
 11
31.499995972472789
 21
30.000000000000355
 31
0.0
  0
LINE
  5
273
100
AcDbEntity
  8
0
  6
CONTINUOUS
 62
               7
100
AcDbLine
 10
-16.532608695652215
 20
28.000000000000227
 30
0.0
 11
33.0
 21
28.000000000001251
 31
0.0
  0
LINE
  5
274
100
AcDbEntity
  8
0
  6
CONTINUOUS
 62
               7
100
AcDbLine
 10
30.950000000000102
 20
28.0
 30
0.0
 11
30.950000000000102
 21
25.0
 31
0.0
  0
LINE
  5
275
100
AcDbEntity
  8
0
  6
CONTINUOUS
 62
               7
100
AcDbLine
 10
22.050000000000097
 20
25.0
 30
0.0
 11
22.050000000000097
 21
28.0
 31
0.0
  0
LINE
  5
276
100
AcDbEntity
  8
0
  6
PHANTOM
 62
               2
100
AcDbLine
 10
31.875
 20
-25.0
 30
0.0
 11
31.875
 21
-34.0
 31
0.0
  0
LINE
  5
277
100
AcDbEntity
  8
0
  6
PHANTOM
 62
               2
100
AcDbLine
 10
28.875
 20
-37.0
 30
0.0
 11
-28.875
 21
-37.0
 31
0.0
  0
LINE
  5
278
100
AcDbEntity
  8
0
  6
PHANTOM
 62
               2
100
AcDbLine
 10
-31.875
 20
-25.0
 30
0.0
 11
-31.875
 21
-34.0
 31
0.0
  0
ARC
  5
279
100
AcDbEntity
  8
0
  6
PHANTOM
 62
               2
100
AcDbCircle
 10
28.875
 20
-34.0
 30
0.0
 40
3.0
100
AcDbArc
 50
270.0
 51
0.0
  0
ARC
  5
27A
100
AcDbEntity
  8
0
  6
PHANTOM
 62
               2
100
AcDbCircle
 10
-28.875
 20
-34.0
 30
0.0
 40
3.0
100
AcDbArc
 50
180.0
 51
270.0
  0
LINE
  5
27B
100
AcDbEntity
  8
0
  6
CONTINUOUS
 62
               7
100
AcDbLine
 10
28.5
 20
-26.199999999999989
 30
0.0
 11
28.5
 21
-25.0
 31
0.0
  0
LINE
  5
27C
100
AcDbEntity
  8
0
  6
CONTINUOUS
 62
               7
100
AcDbLine
 10
-28.499999999999972
 20
-26.199999999999989
 30
0.0
 11
-28.499999999999972
 21
-25.0
 31
0.0
  0
LINE
  5
27D
100
AcDbEntity
  8
0
  6
CONTINUOUS
 62
               7
100
AcDbLine
 10
-29.999999999999972
 20
-31.0
 30
0.0
 11
-29.999999999999972
 21
-26.199999999999989
 31
0.0
  0
LINE
  5
27E
100
AcDbEntity
  8
0
  6
CONTINUOUS
 62
               7
100
AcDbLine
 10
30.0
 20
-31.0
 30
0.0
 11
30.0
 21
-26.199999999999989
 31
0.0
  0
LINE
  5
27F
100
AcDbEntity
  8
0
  6
CONTINUOUS
 62
               7
100
AcDbLine
 10
30.0
 20
-26.199999999999989
 30
0.0
 11
-29.999999999999972
 21
-26.199999999999989
 31
0.0
  0
LINE
  5
280
100
AcDbEntity
  8
0
  6
CONTINUOUS
 62
               7
100
AcDbLine
 10
-29.999999999999972
 20
-31.0
 30
0.0
 11
30.0
 21
-31.0
 31
0.0
  0
LINE
  5
281
100
AcDbEntity
  8
0
  6
CONTINUOUS
 62
               7
100
AcDbLine
 10
40.0
 20
25.0
 30
0.0
 11
40.0
 21
-25.0
 31
0.0
  0
LINE
  5
282
100
AcDbEntity
  8
0
  6
CONTINUOUS
 62
               7
100
AcDbLine
 10
-39.999999999999972
 20
25.0
 30
0.0
 11
-39.999999999999972
 21
-25.0
 31
0.0
  0
LINE
  5
283
100
AcDbEntity
  8
0
  6
CONTINUOUS
 62
               7
100
AcDbLine
 10
39.200000000000131
 20
24.200000000000045
 30
0.0
 11
39.200000000000131
 21
-25.0
 31
0.0
  0
CIRCLE
  5
284
100
AcDbEntity
  8
0
  6
CONTINUOUS
 62
               7
100
AcDbCircle
 10
34.999999999999829
 20
17.950000000000159
 30
0.0
 40
3.0
  0
LINE
  5
285
100
AcDbEntity
  8
0
  6
CONTINUOUS
 62
               7
100
AcDbLine
 10
39.200000000000131
 20
24.200000000000045
 30
0.0
 11
-39.200000000000045
 21
24.200000000000045
 31
0.0
  0
LINE
  5
286
100
AcDbEntity
  8
0
  6
CONTINUOUS
 62
               7
100
AcDbLine
 10
-39.200000000000045
 20
24.200000000000045
 30
0.0
 11
-39.200000000000045
 21
-25.0
 31
0.0
  0
CIRCLE
  5
287
100
AcDbEntity
  8
0
  6
CONTINUOUS
 62
               7
100
AcDbCircle
 10
-34.999999999999886
 20
18.0
 30
0.0
 40
3.0
  0
CIRCLE
  5
288
100
AcDbEntity
  8
0
  6
CONTINUOUS
 62
               2
100
AcDbCircle
 10
22.499999999999829
 20
0.0
 30
0.0
 40
1.5
  0
CIRCLE
  5
289
100
AcDbEntity
  8
0
  6
CONTINUOUS
 62
               7
100
AcDbCircle
 10
22.499999999999829
 20
0.0
 30
0.0
 40
1.1999999999999991
  0
LINE
  5
28A
100
AcDbEntity
  8
0
  6
CONTINUOUS
 62
               2
100
AcDbLine
 10
22.499999999999829
 20
4.3365941923209448
 30
0.0
 11
22.499999999999829
 21
-4.3365941923208169
 31
0.0
  0
CIRCLE
  5
28B
100
AcDbEntity
  8
0
  6
CONTINUOUS
 62
               7
100
AcDbCircle
 10
-22.500000000000114
 20
0.0
 30
0.0
 40
1.1999999999999991
  0
CIRCLE
  5
28C
100
AcDbEntity
  8
0
  6
CONTINUOUS
 62
               2
100
AcDbCircle
 10
-22.500000000000114
 20
0.0
 30
0.0
 40
1.5
  0
LINE
  5
28D
100
AcDbEntity
  8
0
  6
CONTINUOUS
 62
               2
100
AcDbLine
 10
-22.500000000000114
 20
4.3365941923209448
 30
0.0
 11
-22.500000000000114
 21
-4.3365941923208169
 31
0.0
  0
LINE
  5
28E
100
AcDbEntity
  8
0
  6
CONTINUOUS
 62
               7
100
AcDbLine
 10
40.0
 20
-25.0
 30
0.0
 11
-39.999999999999972
 21
-25.0
 31
0.0
  0
LINE
  5
28F
100
AcDbEntity
  8
0
  6
CONTINUOUS
 62
               7
100
AcDbLine
 10
-39.999999999999972
 20
25.0
 30
0.0
 11
40.0
 21
25.0
 31
0.0
  0
ENDBLK
  5
290
100
AcDbEntity
  8
0
100
AcDbBlockEnd
  0
BLOCK
  5
291
100
AcDbEntity
  8
0
100
AcDbBlockBegin
  2
DTRY-ELF02-4
 70
               0
 10
0.0
 20
0.0
 30
0.0
  3
DTRY-ELF02-4
  1

  0
LINE
  5
292
100
AcDbEntity
  8
0
  6
CONTINUOUS
 62
               7
100
AcDbLine
 10
-23.366832520823721
 20
53.107180942361083
 30
0.0
 11
-26.633167479176507
 21
56.892819057638718
 31
0.0
  0
LINE
  5
293
100
AcDbEntity
  8
0
  6
CONTINUOUS
 62
               7
100
AcDbLine
 10
-26.767766952966497
 20
53.232233047033532
 30
0.0
 11
-23.232233047033731
 21
56.767766952966269
 31
0.0
  0
LINE
  5
294
100
AcDbEntity
  8
0
  6
CONTINUOUS
 62
               7
100
AcDbLine
 10
26.633167479176279
 20
53.107180942361083
 30
0.0
 11
23.366832520823493
 21
56.892819057638718
 31
0.0
  0
LINE
  5
295
100
AcDbEntity
  8
0
  6
CONTINUOUS
 62
               7
100
AcDbLine
 10
23.232233047033503
 20
53.232233047033532
 30
0.0
 11
26.767766952966269
 21
56.767766952966269
 31
0.0
  0
LINE
  5
296
100
AcDbEntity
  8
0
  6
CONTINUOUS
 62
               7
100
AcDbLine
 10
26.633167479176279
 20
103.1071809423612
 30
0.0
 11
23.366832520823493
 21
106.89281905763883
 31
0.0
  0
LINE
  5
297
100
AcDbEntity
  8
0
  6
CONTINUOUS
 62
               7
100
AcDbLine
 10
23.232233047033503
 20
103.23223304703365
 30
0.0
 11
26.767766952966269
 21
106.76776695296638
 31
0.0
  0
LINE
  5
298
100
AcDbEntity
  8
0
  6
CONTINUOUS
 62
               7
100
AcDbLine
 10
-23.366832520823721
 20
103.1071809423612
 30
0.0
 11
-26.633167479176507
 21
106.89281905763883
 31
0.0
  0
LINE
  5
299
100
AcDbEntity
  8
0
  6
CONTINUOUS
 62
               7
100
AcDbLine
 10
-26.767766952966497
 20
103.23223304703365
 30
0.0
 11
-23.232233047033731
 21
106.76776695296638
 31
0.0
  0
LINE
  5
29A
100
AcDbEntity
  8
0
  6
CONTINUOUS
 62
               7
100
AcDbLine
 10
28.133628640328197
 20
27.100000000000009
 30
0.0
 11
26.106011288609807
 21
27.100000000000009
 31
0.0
  0
CIRCLE
  5
29B
100
AcDbEntity
  8
0
  6
CONTINUOUS
 62
               7
100
AcDbCircle
 10
-28.999999999999943
 20
43.95935857329961
 30
0.0
 40
1.5
  0
CIRCLE
  5
29C
100
AcDbEntity
  8
0
  6
CONTINUOUS
 62
               7
100
AcDbCircle
 10
-28.999999999999943
 20
43.95935857329961
 30
0.0
 40
1.1999999999999991
  0
CIRCLE
  5
29D
100
AcDbEntity
  8
0
  6
CONTINUOUS
 62
               7
100
AcDbCircle
 10
16.0
 20
43.95935857329961
 30
0.0
 40
1.1999999999999991
  0
CIRCLE
  5
29E
100
AcDbEntity
  8
0
  6
CONTINUOUS
 62
               7
100
AcDbCircle
 10
16.0
 20
43.95935857329961
 30
0.0
 40
1.5
  0
CIRCLE
  5
29F
100
AcDbEntity
  8
0
  6
CONTINUOUS
 62
               7
100
AcDbCircle
 10
-15.999999999999943
 20
43.95935857329961
 30
0.0
 40
1.5
  0
CIRCLE
  5
2A0
100
AcDbEntity
  8
0
  6
CONTINUOUS
 62
               7
100
AcDbCircle
 10
-15.999999999999943
 20
43.95935857329961
 30
0.0
 40
1.1999999999999991
  0
LINE
  5
2A1
100
AcDbEntity
  8
0
  6
CONTINUOUS
 62
               7
100
AcDbLine
 10
-2.9999999999997158
 20
25.100000000000009
 30
0.0
 11
-2.9999999999997158
 21
28.100000000000009
 31
0.0
  0
LINE
  5
2A2
100
AcDbEntity
  8
0
  6
CONTINUOUS
 62
               7
100
AcDbLine
 10
3.0000000000002274
 20
25.100000000000009
 30
0.0
 11
3.0
 21
28.100000000000009
 31
0.0
  0
LINE
  5
2A3
100
AcDbEntity
  8
0
  6
CONTINUOUS
 62
               7
100
AcDbLine
 10
3.0
 20
28.100000000000009
 30
0.0
 11
-2.9999999999999432
 21
28.100000000000009
 31
0.0
  0
LINE
  5
2A4
100
AcDbEntity
  8
0
  6
CONTINUOUS
 62
               7
100
AcDbLine
 10
3.0
 20
25.100000000000009
 30
0.0
 11
-2.9999999999999432
 21
25.100000000000009
 31
0.0
  0
LINE
  5
2A5
100
AcDbEntity
  8
0
  6
CONTINUOUS
 62
               7
100
AcDbLine
 10
-19.999999999999943
 20
38.000000000000099
 30
0.0
 11
-24.999999999999943
 21
38.000000000000099
 31
0.0
  0
LINE
  5
2A6
100
AcDbEntity
  8
0
  6
CONTINUOUS
 62
               7
100
AcDbLine
 10
-24.999999999999943
 20
38.000000000000099
 30
0.0
 11
-24.999999999999943
 21
33.800000000000196
 31
0.0
  0
LINE
  5
2A7
100
AcDbEntity
  8
0
  6
CONTINUOUS
 62
               7
100
AcDbLine
 10
-19.999999999999943
 20
38.000000000000099
 30
0.0
 11
-19.999999999999943
 21
33.800000000000196
 31
0.0
  0
LINE
  5
2A8
100
AcDbEntity
  8
0
  6
CONTINUOUS
 62
               7
100
AcDbLine
 10
-39.999999999999943
 20
114.99999999999999
 30
0.0
 11
40.000000000000455
 21
114.99999999999999
 31
0.0
  0
LINE
  5
2A9
100
AcDbEntity
  8
0
  6
CONTINUOUS
 62
               7
100
AcDbLine
 10
40.000000000000455
 20
14.999999999999986
 30
0.0
 11
-39.999999999999943
 21
14.999999999999986
 31
0.0
  0
CIRCLE
  5
2AA
100
AcDbEntity
  8
0
  6
CONTINUOUS
 62
               7
100
AcDbCircle
 10
29.0
 20
43.95935857329961
 30
0.0
 40
1.1999999999999991
  0
CIRCLE
  5
2AB
100
AcDbEntity
  8
0
  6
CONTINUOUS
 62
               7
100
AcDbCircle
 10
29.0
 20
43.95935857329961
 30
0.0
 40
1.5
  0
LINE
  5
2AC
100
AcDbEntity
  8
0
  6
CONTINUOUS
 62
               7
100
AcDbLine
 10
38.900000000000318
 20
14.999999999999986
 30
0.0
 11
38.900000000000318
 21
114.99999999999999
 31
0.0
  0
LINE
  5
2AD
100
AcDbEntity
  8
0
  6
CONTINUOUS
 62
               7
100
AcDbLine
 10
-38.900000000000034
 20
14.999999999999986
 30
0.0
 11
-38.900000000000034
 21
114.99999999999999
 31
0.0
  0
LINE
  5
2AE
100
AcDbEntity
  8
0
  6
CONTINUOUS
 62
               7
100
AcDbLine
 10
-17.249999999999943
 20
23.300000000000196
 30
0.0
 11
-27.749999999999943
 21
23.300000000000196
 31
0.0
  0
LINE
  5
2AF
100
AcDbEntity
  8
0
  6
CONTINUOUS
 62
               7
100
AcDbLine
 10
-17.249999999999943
 20
33.800000000000196
 30
0.0
 11
-17.249999999999943
 21
23.300000000000196
 31
0.0
  0
LINE
  5
2B0
100
AcDbEntity
  8
0
  6
CONTINUOUS
 62
               7
100
AcDbLine
 10
-27.749999999999943
 20
33.800000000000196
 30
0.0
 11
-27.749999999999943
 21
23.300000000000196
 31
0.0
  0
LINE
  5
2B1
100
AcDbEntity
  8
0
  6
CONTINUOUS
 62
               7
100
AcDbLine
 10
-27.749999999999943
 20
33.800000000000196
 30
0.0
 11
-24.999999999999943
 21
33.800000000000196
 31
0.0
  0
LINE
  5
2B2
100
AcDbEntity
  8
0
  6
CONTINUOUS
 62
               7
100
AcDbLine
 10
-19.999999999999943
 20
33.800000000000196
 30
0.0
 11
-17.249999999999943
 21
33.800000000000196
 31
0.0
  0
LINE
  5
2B3
100
AcDbEntity
  8
0
  6
CONTINUOUS
 62
               7
100
AcDbLine
 10
29.383628640328197
 20
24.100000000000009
 30
0.0
 11
26.883628640328197
 21
24.100000000000009
 31
0.0
  0
LINE
  5
2B4
100
AcDbEntity
  8
0
  6
CONTINUOUS
 62
               7
100
AcDbLine
 10
30.633628640328197
 20
25.100000000000009
 30
0.0
 11
25.633628640328197
 21
25.100000000000009
 31
0.0
  0
LINE
  5
2B5
100
AcDbEntity
  8
0
  6
CONTINUOUS
 62
               7
100
AcDbLine
 10
28.133628640328197
 20
27.100000000000009
 30
0.0
 11
28.133628640328197
 21
25.100000000000009
 31
0.0
  0
LINE
  5
2B6
100
AcDbEntity
  8
0
  6
CONTINUOUS
 62
               7
100
AcDbLine
 10
28.758628640328197
 20
23.100000000000009
 30
0.0
 11
27.508628640328197
 21
23.100000000000009
 31
0.0
  0
CIRCLE
  5
2B7
100
AcDbEntity
  8
0
  6
CONTINUOUS
 62
               7
100
AcDbCircle
 10
22.5
 20
27.100000000000009
 30
0.0
 40
2.5
  0
CIRCLE
  5
2B8
100
AcDbEntity
  8
0
  6
CONTINUOUS
 62
               7
100
AcDbCircle
 10
22.5
 20
27.100000000000009
 30
0.0
 40
2.0
  0
POLYLINE
  5
2B9
100
AcDbEntity
  8
0
  6
CONTINUOUS
 62
               7
100
AcDb2dPolyline
 66
               1
 10
0.0
 20
0.0
 30
0.0
 70
               1
  0
VERTEX
  5
3AA
100
AcDbEntity
  8
0
  6
CONTINUOUS
 62
               7
100
AcDbVertex
100
AcDb2dVertex
 10
0.6907609477393635
 20
27.523807901831489
 30
0.0
  0
VERTEX
  5
3AB
100
AcDbEntity
  8
0
  6
CONTINUOUS
 62
               7
100
AcDbVertex
100
AcDb2dVertex
 10
2.5937579561214079
 20
27.523807901831489
 30
0.0
  0
VERTEX
  5
3AC
100
AcDbEntity
  8
0
  6
CONTINUOUS
 62
               7
100
AcDbVertex
100
AcDb2dVertex
 10
2.5937579561214079
 20
25.686195601276907
 30
0.0
  0
VERTEX
  5
3AD
100
AcDbEntity
  8
0
  6
CONTINUOUS
 62
               7
100
AcDbVertex
100
AcDb2dVertex
 10
0.6907609477393635
 20
25.686195601276907
 30
0.0
  0
SEQEND
  5
3AE
100
AcDbEntity
  8
0
  6
CONTINUOUS
 62
               7
  0
LINE
  5
2BA
100
AcDbEntity
  8
0
  6
CONTINUOUS
 62
               7
100
AcDbLine
 10
-27.299999999999898
 20
33.40000000000019
 30
0.0
 11
-27.299999999999898
 21
23.800000000000196
 31
0.0
  0
LINE
  5
2BB
100
AcDbEntity
  8
0
  6
CONTINUOUS
 62
               7
100
AcDbLine
 10
-27.299999999999898
 20
23.800000000000196
 30
0.0
 11
-17.699999999999704
 21
23.800000000000196
 31
0.0
  0
LINE
  5
2BC
100
AcDbEntity
  8
0
  6
CONTINUOUS
 62
               7
100
AcDbLine
 10
-17.699999999999704
 20
23.800000000000196
 30
0.0
 11
-17.699999999999704
 21
33.40000000000019
 31
0.0
  0
LINE
  5
2BD
100
AcDbEntity
  8
0
  6
CONTINUOUS
 62
               7
100
AcDbLine
 10
-17.699999999999704
 20
33.40000000000019
 30
0.0
 11
-27.299999999999898
 21
33.40000000000019
 31
0.0
  0
LINE
  5
2BE
100
AcDbEntity
  8
0
  6
CONTINUOUS
 62
               7
100
AcDbLine
 10
-18.499999999999943
 20
32.600000000000293
 30
0.0
 11
-22.249999999999943
 21
32.600000000000293
 31
0.0
  0
LINE
  5
2BF
100
AcDbEntity
  8
0
  6
CONTINUOUS
 62
               7
100
AcDbLine
 10
-18.499999999999943
 20
24.600000000000293
 30
0.0
 11
-18.499999999999943
 21
28.350000000000293
 31
0.0
  0
LINE
  5
2C0
100
AcDbEntity
  8
0
  6
CONTINUOUS
 62
               7
100
AcDbLine
 10
-25.699999999999704
 20
24.600000000000293
 30
0.0
 11
-23.549999999999613
 21
24.600000000000293
 31
0.0
  0
LINE
  5
2C1
100
AcDbEntity
  8
0
  6
CONTINUOUS
 62
               7
100
AcDbLine
 10
-26.499999999999943
 20
32.600000000000293
 30
0.0
 11
-26.499999999999943
 21
28.850000000000293
 31
0.0
  0
LINE
  5
2C2
100
AcDbEntity
  8
0
  6
CONTINUOUS
 62
               7
100
AcDbLine
 10
-22.749999999999943
 20
32.600000000000293
 30
0.0
 11
-22.749999999999943
 21
28.850000000000293
 31
0.0
  0
LINE
  5
2C3
100
AcDbEntity
  8
0
  6
CONTINUOUS
 62
               7
100
AcDbLine
 10
-22.249999999999943
 20
32.600000000000293
 30
0.0
 11
-22.249999999999716
 21
29.65000000000019
 31
0.0
  0
LINE
  5
2C4
100
AcDbEntity
  8
0
  6
CONTINUOUS
 62
               7
100
AcDbLine
 10
-19.299999999999898
 20
28.850000000000207
 30
0.0
 11
-21.449999999999704
 21
28.850000000000207
 31
0.0
  0
LINE
  5
2C5
100
AcDbEntity
  8
0
  6
CONTINUOUS
 62
               7
100
AcDbLine
 10
-18.499999999999943
 20
28.350000000000293
 30
0.0
 11
-22.249999999999943
 21
28.350000000000094
 31
0.0
  0
LINE
  5
2C6
100
AcDbEntity
  8
0
  6
CONTINUOUS
 62
               7
100
AcDbLine
 10
-22.749999999999943
 20
32.600000000000293
 30
0.0
 11
-26.499999999999943
 21
32.600000000000293
 31
0.0
  0
LINE
  5
2C7
100
AcDbEntity
  8
0
  6
CONTINUOUS
 62
               7
100
AcDbLine
 10
-18.499999999999943
 20
29.65000000000019
 30
0.0
 11
-18.499999999999943
 21
32.600000000000293
 31
0.0
  0
LINE
  5
2C8
100
AcDbEntity
  8
0
  6
CONTINUOUS
 62
               7
100
AcDbLine
 10
-22.249999999999943
 20
28.350000000000293
 30
0.0
 11
-22.249999999999943
 21
24.600000000000293
 31
0.0
  0
LINE
  5
2C9
100
AcDbEntity
  8
0
  6
CONTINUOUS
 62
               7
100
AcDbLine
 10
-22.749999999999943
 20
28.850000000000207
 30
0.0
 11
-26.499999999999716
 21
28.850000000000293
 31
0.0
  0
LINE
  5
2CA
100
AcDbEntity
  8
0
  6
CONTINUOUS
 62
               7
100
AcDbLine
 10
-22.749999999999943
 20
28.350000000000293
 30
0.0
 11
-22.749999999999716
 21
25.40000000000019
 31
0.0
  0
LINE
  5
2CB
100
AcDbEntity
  8
0
  6
CONTINUOUS
 62
               7
100
AcDbLine
 10
-26.499999999999943
 20
28.350000000000293
 30
0.0
 11
-26.499999999999716
 21
25.40000000000019
 31
0.0
  0
LINE
  5
2CC
100
AcDbEntity
  8
0
  6
CONTINUOUS
 62
               7
100
AcDbLine
 10
-22.249999999999943
 20
24.600000000000293
 30
0.0
 11
-18.499999999999943
 21
24.600000000000293
 31
0.0
  0
LINE
  5
2CD
100
AcDbEntity
  8
0
  6
CONTINUOUS
 62
               7
100
AcDbLine
 10
-22.749999999999943
 20
28.350000000000094
 30
0.0
 11
-26.499999999999943
 21
28.350000000000293
 31
0.0
  0
LINE
  5
2CE
100
AcDbEntity
  8
0
  6
CONTINUOUS
 62
               7
100
AcDbLine
 10
-18.499999999999943
 20
29.65000000000019
 30
0.0
 11
-19.299999999999898
 21
28.850000000000207
 31
0.0
  0
LINE
  5
2CF
100
AcDbEntity
  8
0
  6
CONTINUOUS
 62
               7
100
AcDbLine
 10
-21.449999999999704
 20
28.850000000000207
 30
0.0
 11
-22.249999999999716
 21
29.65000000000019
 31
0.0
  0
LINE
  5
2D0
100
AcDbEntity
  8
0
  6
CONTINUOUS
 62
               7
100
AcDbLine
 10
-22.749999999999716
 20
25.40000000000019
 30
0.0
 11
-23.549999999999613
 21
24.600000000000293
 31
0.0
  0
LINE
  5
2D1
100
AcDbEntity
  8
0
  6
CONTINUOUS
 62
               7
100
AcDbLine
 10
-25.699999999999704
 20
24.600000000000293
 30
0.0
 11
-26.499999999999716
 21
25.40000000000019
 31
0.0
  0
LINE
  5
2D2
100
AcDbEntity
  8
0
  6
CONTINUOUS
 62
               7
100
AcDbLine
 10
-23.999999999999943
 20
34.40000000000019
 30
0.0
 11
-20.999999999999943
 21
34.40000000000019
 31
0.0
  0
LINE
  5
2D3
100
AcDbEntity
  8
0
  6
CONTINUOUS
 62
               7
100
AcDbLine
 10
-20.999999999999943
 20
34.40000000000019
 30
0.0
 11
-20.999999999999943
 21
33.40000000000019
 31
0.0
  0
LINE
  5
2D4
100
AcDbEntity
  8
0
  6
CONTINUOUS
 62
               7
100
AcDbLine
 10
-23.999999999999943
 20
34.40000000000019
 30
0.0
 11
-23.999999999999943
 21
33.40000000000019
 31
0.0
  0
LINE
  5
2D5
100
AcDbEntity
  8
0
  6
CONTINUOUS
 62
               7
100
AcDbLine
 10
-39.999999999999943
 20
14.999999999999986
 30
0.0
 11
-39.999999999999943
 21
114.99999999999999
 31
0.0
  0
LINE
  5
2D6
100
AcDbEntity
  8
0
  6
CONTINUOUS
 62
               7
100
AcDbLine
 10
40.000000000000455
 20
14.999999999999986
 30
0.0
 11
40.000000000000455
 21
114.99999999999999
 31
0.0
  0
LINE
  5
2D7
100
AcDbEntity
  8
0
  6
PHANTOM
 62
               2
100
AcDbLine
 10
-43.999999999999943
 20
0.0
 30
0.0
 11
44.0
 21
0.0
 31
0.0
  0
LINE
  5
2D8
100
AcDbEntity
  8
0
  6
PHANTOM
 62
               2
100
AcDbLine
 10
42.400000000000205
 20
14.999999999999986
 30
0.0
 11
44.0
 21
14.999999999999986
 31
0.0
  0
LINE
  5
2D9
100
AcDbEntity
  8
0
  6
PHANTOM
 62
               2
100
AcDbLine
 10
42.400000000000205
 20
66.399999999999991
 30
0.0
 11
44.0
 21
66.399999999999991
 31
0.0
  0
LINE
  5
2DA
100
AcDbEntity
  8
0
  6
PHANTOM
 62
               2
100
AcDbLine
 10
44.0
 20
78.999999999999986
 30
0.0
 11
42.400000000000205
 21
78.999999999999986
 31
0.0
  0
LINE
  5
2DB
100
AcDbEntity
  8
0
  6
PHANTOM
 62
               2
100
AcDbLine
 10
42.400000000000205
 20
71.600000000000009
 30
0.0
 11
44.0
 21
71.600000000000009
 31
0.0
  0
LINE
  5
2DC
100
AcDbEntity
  8
0
  6
PHANTOM
 62
               2
100
AcDbLine
 10
-43.999999999999943
 20
78.999999999999986
 30
0.0
 11
-42.399999999999807
 21
78.999999999999986
 31
0.0
  0
LINE
  5
2DD
100
AcDbEntity
  8
0
  6
CONTINUOUS
 62
               7
100
AcDbLine
 10
-43.999999999999943
 20
14.999999999999986
 30
0.0
 11
-42.399999999999807
 21
14.999999999999986
 31
0.0
  0
LINE
  5
2DE
100
AcDbEntity
  8
0
  6
PHANTOM
 62
               2
100
AcDbLine
 10
-43.999999999999943
 20
71.600000000000009
 30
0.0
 11
-42.399999999999807
 21
71.600000000000009
 31
0.0
  0
LINE
  5
2DF
100
AcDbEntity
  8
0
  6
PHANTOM
 62
               2
100
AcDbLine
 10
-43.999999999999943
 20
66.399999999999991
 30
0.0
 11
-42.399999999999807
 21
66.399999999999991
 31
0.0
  0
LINE
  5
2E0
100
AcDbEntity
  8
0
  6
CONTINUOUS
 62
               2
100
AcDbLine
 10
-59.483218775702824
 20
68.999999999999986
 30
0.0
 11
-34.606712916978211
 21
68.999999999999986
 31
0.0
  0
LINE
  5
2E1
100
AcDbEntity
  8
0
  6
CONTINUOUS
 62
               2
100
AcDbLine
 10
34.588572597824168
 20
68.999999999999986
 30
0.0
 11
58.287752522311166
 21
68.999999999999986
 31
0.0
  0
LINE
  5
2E2
100
AcDbEntity
  8
0
  6
PHANTOM
 62
               2
100
AcDbLine
 10
-42.399999999999807
 20
1.5999999999998948
 30
0.0
 11
42.400000000000205
 21
1.5999999999999943
 31
0.0
  0
LINE
  5
2E3
100
AcDbEntity
  8
0
  6
PHANTOM
 62
               2
100
AcDbLine
 10
-43.999999999999943
 20
0.0
 30
0.0
 11
-43.999999999999943
 21
78.999999999999986
 31
0.0
  0
LINE
  5
2E4
100
AcDbEntity
  8
0
  6
PHANTOM
 62
               2
100
AcDbLine
 10
-42.399999999999807
 20
1.5999999999998948
 30
0.0
 11
-42.399999999999807
 21
78.999999999999986
 31
0.0
  0
LINE
  5
2E5
100
AcDbEntity
  8
0
  6
PHANTOM
 62
               2
100
AcDbLine
 10
44.0
 20
0.0
 30
0.0
 11
44.0
 21
78.999999999999986
 31
0.0
  0
LINE
  5
2E6
100
AcDbEntity
  8
0
  6
PHANTOM
 62
               2
100
AcDbLine
 10
42.400000000000205
 20
1.5999999999999943
 30
0.0
 11
42.400000000000205
 21
78.999999999999986
 31
0.0
  0
LINE
  5
2E7
100
AcDbEntity
  8
0
  6
HIDDEN
 62
               7
100
AcDbLine
 10
32.300000000000296
 20
1.5999999999999943
 30
0.0
 11
32.300000000000296
 21
0.0
 31
0.0
  0
LINE
  5
2E8
100
AcDbEntity
  8
0
  6
HIDDEN
 62
               7
100
AcDbLine
 10
-27.699999999999704
 20
1.5999999999999943
 30
0.0
 11
-27.699999999999704
 21
0.0
 31
0.0
  0
LINE
  5
2E9
100
AcDbEntity
  8
0
  6
HIDDEN
 62
               7
100
AcDbLine
 10
2.3000000000002956
 20
0.0
 30
0.0
 11
2.3000000000002956
 21
1.5999999999999943
 31
0.0
  0
LINE
  5
2EA
100
AcDbEntity
  8
0
  6
HIDDEN
 62
               7
100
AcDbLine
 10
27.700000000000045
 20
1.5999999999999943
 30
0.0
 11
27.700000000000045
 21
0.0
 31
0.0
  0
LINE
  5
2EB
100
AcDbEntity
  8
0
  6
HIDDEN
 62
               7
100
AcDbLine
 10
-2.2999999999998977
 20
0.0
 30
0.0
 11
-2.2999999999998977
 21
1.5999999999999943
 31
0.0
  0
LINE
  5
2EC
100
AcDbEntity
  8
0
  6
HIDDEN
 62
               7
100
AcDbLine
 10
-32.299999999999898
 20
1.5999999999999943
 30
0.0
 11
-32.299999999999898
 21
0.0
 31
0.0
  0
LINE
  5
2ED
100
AcDbEntity
  8
0
  6
CONTINUOUS
 62
               2
100
AcDbLine
 10
0.0
 20
-5.3344425354993064
 30
0.0
 11
0.0
 21
124.2050846684357
 31
0.0
  0
LINE
  5
2EE
100
AcDbEntity
  8
0
  6
CONTINUOUS
 62
               2
100
AcDbLine
 10
-29.999999999999943
 20
-5.3344425354993064
 30
0.0
 11
-29.999999999999943
 21
6.9344425354992012
 31
0.0
  0
LINE
  5
2EF
100
AcDbEntity
  8
0
  6
CONTINUOUS
 62
               2
100
AcDbLine
 10
30.0
 20
-5.3344425354993064
 30
0.0
 11
30.0
 21
6.9344425354992012
 31
0.0
  0
ARC
  5
2F0
100
AcDbEntity
  8
0
  6
PHANTOM
 62
               2
100
AcDbCircle
 10
48.070954845342499
 20
62.999999999999986
 30
0.0
 40
0.4
100
AcDbArc
 50
90.0
 51
270.0
  0
ARC
  5
2F1
100
AcDbEntity
  8
0
  6
PHANTOM
 62
               2
100
AcDbCircle
 10
48.070954845342499
 20
74.999999999999986
 30
0.0
 40
0.4
100
AcDbArc
 50
90.0
 51
270.0
  0
LINE
  5
2F2
100
AcDbEntity
  8
0
  6
PHANTOM
 62
               2
100
AcDbLine
 10
55.200000000000273
 20
75.399999999999991
 30
0.0
 11
48.070954845342499
 21
75.399999999999991
 31
0.0
  0
LINE
  5
2F3
100
AcDbEntity
  8
0
  6
PHANTOM
 62
               2
100
AcDbLine
 10
55.200000000000273
 20
74.600000000000094
 30
0.0
 11
48.070954845342499
 21
74.600000000000094
 31
0.0
  0
ARC
  5
2F4
100
AcDbEntity
  8
0
  6
PHANTOM
 62
               2
100
AcDbCircle
 10
48.070954845342499
 20
65.999999999999986
 30
0.0
 40
0.4
100
AcDbArc
 50
90.0
 51
270.0
  0
ARC
  5
2F5
100
AcDbEntity
  8
0
  6
PHANTOM
 62
               2
100
AcDbCircle
 10
48.070954845342499
 20
71.999999999999986
 30
0.0
 40
0.4
100
AcDbArc
 50
90.0
 51
270.0
  0
ARC
  5
2F6
100
AcDbEntity
  8
0
  6
PHANTOM
 62
               2
100
AcDbCircle
 10
48.070954845342499
 20
68.999999999999986
 30
0.0
 40
0.4
100
AcDbArc
 50
90.0
 51
270.0
  0
ARC
  5
2F7
100
AcDbEntity
  8
0
  6
PHANTOM
 62
               2
100
AcDbCircle
 10
46.500000000000227
 20
76.499999999999986
 30
0.0
 40
0.5
100
AcDbArc
 50
90.0
 51
180.0
  0
ARC
  5
2F8
100
AcDbEntity
  8
0
  6
PHANTOM
 62
               2
100
AcDbCircle
 10
46.500000000000227
 20
61.499999999999986
 30
0.0
 40
0.5
100
AcDbArc
 50
180.0
 51
270.0
  0
ARC
  5
2F9
100
AcDbEntity
  8
0
  6
PHANTOM
 62
               2
100
AcDbCircle
 10
54.700000000000273
 20
76.499999999999986
 30
0.0
 40
0.5
100
AcDbArc
 50
0.0
 51
90.0
  0
ARC
  5
2FA
100
AcDbEntity
  8
0
  6
PHANTOM
 62
               2
100
AcDbCircle
 10
55.500000000000227
 20
75.499999999999901
 30
0.0
 40
0.5
100
AcDbArc
 50
0.0
 51
90.0
  0
LINE
  5
2FB
100
AcDbEntity
  8
0
  6
PHANTOM
 62
               2
100
AcDbLine
 10
55.5
 20
75.999999999999901
 30
0.0
 11
55.200000000000273
 21
75.999999999999901
 31
0.0
  0
LINE
  5
2FC
100
AcDbEntity
  8
0
  6
PHANTOM
 62
               2
100
AcDbLine
 10
46.5
 20
76.999999999999901
 30
0.0
 11
54.700000000000273
 21
76.999999999999901
 31
0.0
  0
LINE
  5
2FD
100
AcDbEntity
  8
0
  6
PHANTOM
 62
               2
100
AcDbLine
 10
44.300000000000296
 20
63.499999999999986
 30
0.0
 11
46.0
 21
63.499999999999901
 31
0.0
  0
LINE
  5
2FE
100
AcDbEntity
  8
0
  6
PHANTOM
 62
               2
100
AcDbLine
 10
44.300000000000296
 20
74.499999999999986
 30
0.0
 11
46.0
 21
74.499999999999901
 31
0.0
  0
LINE
  5
2FF
100
AcDbEntity
  8
0
  6
PHANTOM
 62
               2
100
AcDbLine
 10
44.0
 20
64.499999999999986
 30
0.0
 11
44.300000000000296
 21
64.499999999999986
 31
0.0
  0
LINE
  5
300
100
AcDbEntity
  8
0
  6
PHANTOM
 62
               2
100
AcDbLine
 10
44.0
 20
73.499999999999986
 30
0.0
 11
44.300000000000296
 21
73.499999999999986
 31
0.0
  0
LINE
  5
301
100
AcDbEntity
  8
0
  6
PHANTOM
 62
               2
100
AcDbLine
 10
46.0
 20
76.499999999999901
 30
0.0
 11
46.0
 21
61.499999999999901
 31
0.0
  0
LINE
  5
302
100
AcDbEntity
  8
0
  6
PHANTOM
 62
               2
100
AcDbLine
 10
44.300000000000296
 20
74.499999999999986
 30
0.0
 11
44.300000000000296
 21
63.499999999999986
 31
0.0
  0
LINE
  5
303
100
AcDbEntity
  8
0
  6
PHANTOM
 62
               2
100
AcDbLine
 10
56.0
 20
75.499999999999901
 30
0.0
 11
56.0
 21
62.499999999999901
 31
0.0
  0
LINE
  5
304
100
AcDbEntity
  8
0
  6
PHANTOM
 62
               2
100
AcDbLine
 10
55.200000000000273
 20
76.499999999999901
 30
0.0
 11
55.200000000000273
 21
61.499999999999901
 31
0.0
  0
LINE
  5
305
100
AcDbEntity
  8
0
  6
PHANTOM
 62
               2
100
AcDbLine
 10
46.5
 20
60.999999999999901
 30
0.0
 11
54.700000000000273
 21
60.999999999999901
 31
0.0
  0
LINE
  5
306
100
AcDbEntity
  8
0
  6
PHANTOM
 62
               2
100
AcDbLine
 10
55.5
 20
61.999999999999901
 30
0.0
 11
55.200000000000273
 21
61.999999999999901
 31
0.0
  0
ARC
  5
307
100
AcDbEntity
  8
0
  6
PHANTOM
 62
               2
100
AcDbCircle
 10
55.500000000000227
 20
62.499999999999986
 30
0.0
 40
0.5
100
AcDbArc
 50
270.0
 51
0.0
  0
ARC
  5
308
100
AcDbEntity
  8
0
  6
PHANTOM
 62
               2
100
AcDbCircle
 10
54.700000000000273
 20
61.499999999999901
 30
0.0
 40
0.5
100
AcDbArc
 50
270.0
 51
0.0
  0
LINE
  5
309
100
AcDbEntity
  8
0
  6
PHANTOM
 62
               2
100
AcDbLine
 10
55.200000000000273
 20
68.600000000000094
 30
0.0
 11
48.070954845342499
 21
68.600000000000094
 31
0.0
  0
LINE
  5
30A
100
AcDbEntity
  8
0
  6
PHANTOM
 62
               2
100
AcDbLine
 10
55.200000000000273
 20
69.399999999999991
 30
0.0
 11
48.070954845342499
 21
69.399999999999991
 31
0.0
  0
LINE
  5
30B
100
AcDbEntity
  8
0
  6
PHANTOM
 62
               2
100
AcDbLine
 10
55.200000000000273
 20
72.399999999999991
 30
0.0
 11
48.070954845342499
 21
72.399999999999991
 31
0.0
  0
LINE
  5
30C
100
AcDbEntity
  8
0
  6
PHANTOM
 62
               2
100
AcDbLine
 10
55.200000000000273
 20
71.600000000000009
 30
0.0
 11
48.070954845342499
 21
71.600000000000009
 31
0.0
  0
LINE
  5
30D
100
AcDbEntity
  8
0
  6
PHANTOM
 62
               2
100
AcDbLine
 10
55.200000000000273
 20
66.399999999999991
 30
0.0
 11
48.070954845342499
 21
66.399999999999991
 31
0.0
  0
LINE
  5
30E
100
AcDbEntity
  8
0
  6
PHANTOM
 62
               2
100
AcDbLine
 10
55.200000000000273
 20
65.600000000000009
 30
0.0
 11
48.070954845342499
 21
65.600000000000009
 31
0.0
  0
LINE
  5
30F
100
AcDbEntity
  8
0
  6
PHANTOM
 62
               2
100
AcDbLine
 10
55.200000000000273
 20
62.600000000000009
 30
0.0
 11
48.070954845342499
 21
62.600000000000009
 31
0.0
  0
LINE
  5
310
100
AcDbEntity
  8
0
  6
PHANTOM
 62
               2
100
AcDbLine
 10
55.200000000000273
 20
63.399999999999991
 30
0.0
 11
48.070954845342499
 21
63.399999999999991
 31
0.0
  0
LINE
  5
311
100
AcDbEntity
  8
0
  6
PHANTOM
 62
               2
100
AcDbLine
 10
42.400000000000205
 20
61.499999999999986
 30
0.0
 11
40.0
 21
61.499999999999986
 31
0.0
  0
LINE
  5
312
100
AcDbEntity
  8
0
  6
PHANTOM
 62
               2
100
AcDbLine
 10
40.0
 20
76.499999999999986
 30
0.0
 11
42.400000000000205
 21
76.499999999999986
 31
0.0
  0
ARC
  5
313
100
AcDbEntity
  8
0
  6
PHANTOM
 62
               2
100
AcDbCircle
 10
-48.070954845342328
 20
62.999999999999986
 30
0.0
 40
0.4
100
AcDbArc
 50
270.0
 51
90.0
  0
LINE
  5
314
100
AcDbEntity
  8
0
  6
PHANTOM
 62
               2
100
AcDbLine
 10
-55.199999999999704
 20
63.399999999999991
 30
0.0
 11
-48.070954845342328
 21
63.399999999999991
 31
0.0
  0
LINE
  5
315
100
AcDbEntity
  8
0
  6
PHANTOM
 62
               2
100
AcDbLine
 10
-55.199999999999704
 20
62.600000000000009
 30
0.0
 11
-48.070954845342328
 21
62.600000000000009
 31
0.0
  0
ARC
  5
316
100
AcDbEntity
  8
0
  6
PHANTOM
 62
               2
100
AcDbCircle
 10
-48.070954845342328
 20
74.999999999999986
 30
0.0
 40
0.4
100
AcDbArc
 50
270.0
 51
90.0
  0
LINE
  5
317
100
AcDbEntity
  8
0
  6
PHANTOM
 62
               2
100
AcDbLine
 10
-55.199999999999704
 20
75.399999999999991
 30
0.0
 11
-48.070954845342328
 21
75.399999999999991
 31
0.0
  0
LINE
  5
318
100
AcDbEntity
  8
0
  6
PHANTOM
 62
               2
100
AcDbLine
 10
-55.199999999999704
 20
74.600000000000094
 30
0.0
 11
-48.070954845342328
 21
74.600000000000094
 31
0.0
  0
LINE
  5
319
100
AcDbEntity
  8
0
  6
PHANTOM
 62
               2
100
AcDbLine
 10
-55.199999999999704
 20
65.600000000000009
 30
0.0
 11
-48.070954845342328
 21
65.600000000000009
 31
0.0
  0
LINE
  5
31A
100
AcDbEntity
  8
0
  6
PHANTOM
 62
               2
100
AcDbLine
 10
-55.199999999999704
 20
66.399999999999991
 30
0.0
 11
-48.070954845342328
 21
66.399999999999991
 31
0.0
  0
ARC
  5
31B
100
AcDbEntity
  8
0
  6
PHANTOM
 62
               2
100
AcDbCircle
 10
-48.070954845342328
 20
65.999999999999986
 30
0.0
 40
0.4
100
AcDbArc
 50
270.0
 51
90.0
  0
LINE
  5
31C
100
AcDbEntity
  8
0
  6
PHANTOM
 62
               2
100
AcDbLine
 10
-55.199999999999704
 20
71.600000000000009
 30
0.0
 11
-48.070954845342328
 21
71.600000000000009
 31
0.0
  0
LINE
  5
31D
100
AcDbEntity
  8
0
  6
PHANTOM
 62
               2
100
AcDbLine
 10
-55.199999999999704
 20
72.399999999999991
 30
0.0
 11
-48.070954845342328
 21
72.399999999999991
 31
0.0
  0
ARC
  5
31E
100
AcDbEntity
  8
0
  6
PHANTOM
 62
               2
100
AcDbCircle
 10
-48.070954845342328
 20
71.999999999999986
 30
0.0
 40
0.4
100
AcDbArc
 50
270.0
 51
90.0
  0
ARC
  5
31F
100
AcDbEntity
  8
0
  6
PHANTOM
 62
               2
100
AcDbCircle
 10
-48.070954845342328
 20
68.999999999999986
 30
0.0
 40
0.4
100
AcDbArc
 50
270.0
 51
90.0
  0
LINE
  5
320
100
AcDbEntity
  8
0
  6
PHANTOM
 62
               2
100
AcDbLine
 10
-55.199999999999704
 20
69.399999999999991
 30
0.0
 11
-48.070954845342328
 21
69.399999999999991
 31
0.0
  0
LINE
  5
321
100
AcDbEntity
  8
0
  6
PHANTOM
 62
               2
100
AcDbLine
 10
-55.199999999999704
 20
68.600000000000094
 30
0.0
 11
-48.070954845342328
 21
68.600000000000094
 31
0.0
  0
ARC
  5
322
100
AcDbEntity
  8
0
  6
PHANTOM
 62
               2
100
AcDbCircle
 10
-46.499999999999943
 20
76.499999999999986
 30
0.0
 40
0.5
100
AcDbArc
 50
0.0
 51
90.0
  0
ARC
  5
323
100
AcDbEntity
  8
0
  6
PHANTOM
 62
               2
100
AcDbCircle
 10
-46.499999999999943
 20
61.499999999999986
 30
0.0
 40
0.5
100
AcDbArc
 50
270.0
 51
0.0
  0
ARC
  5
324
100
AcDbEntity
  8
0
  6
PHANTOM
 62
               2
100
AcDbCircle
 10
-54.700000000000045
 20
61.499999999999901
 30
0.0
 40
0.5
100
AcDbArc
 50
180.0
 51
270.0
  0
ARC
  5
325
100
AcDbEntity
  8
0
  6
PHANTOM
 62
               2
100
AcDbCircle
 10
-54.700000000000045
 20
76.499999999999986
 30
0.0
 40
0.5
100
AcDbArc
 50
90.0
 51
180.0
  0
ARC
  5
326
100
AcDbEntity
  8
0
  6
PHANTOM
 62
               2
100
AcDbCircle
 10
-55.499999999999943
 20
75.499999999999901
 30
0.0
 40
0.5
100
AcDbArc
 50
90.0
 51
180.0
  0
ARC
  5
327
100
AcDbEntity
  8
0
  6
PHANTOM
 62
               2
100
AcDbCircle
 10
-55.499999999999943
 20
62.499999999999986
 30
0.0
 40
0.5
100
AcDbArc
 50
180.0
 51
270.0
  0
LINE
  5
328
100
AcDbEntity
  8
0
  6
PHANTOM
 62
               2
100
AcDbLine
 10
-55.499999999999943
 20
61.999999999999901
 30
0.0
 11
-55.199999999999704
 21
61.999999999999901
 31
0.0
  0
LINE
  5
329
100
AcDbEntity
  8
0
  6
PHANTOM
 62
               2
100
AcDbLine
 10
-55.499999999999943
 20
75.999999999999901
 30
0.0
 11
-55.199999999999704
 21
75.999999999999901
 31
0.0
  0
LINE
  5
32A
100
AcDbEntity
  8
0
  6
PHANTOM
 62
               2
100
AcDbLine
 10
-46.499999999999943
 20
60.999999999999901
 30
0.0
 11
-54.699999999999704
 21
60.999999999999901
 31
0.0
  0
LINE
  5
32B
100
AcDbEntity
  8
0
  6
PHANTOM
 62
               2
100
AcDbLine
 10
-46.499999999999943
 20
76.999999999999901
 30
0.0
 11
-54.699999999999704
 21
76.999999999999901
 31
0.0
  0
LINE
  5
32C
100
AcDbEntity
  8
0
  6
PHANTOM
 62
               2
100
AcDbLine
 10
-44.299999999999898
 20
63.499999999999986
 30
0.0
 11
-45.999999999999943
 21
63.499999999999901
 31
0.0
  0
LINE
  5
32D
100
AcDbEntity
  8
0
  6
PHANTOM
 62
               2
100
AcDbLine
 10
-44.299999999999898
 20
74.499999999999986
 30
0.0
 11
-45.999999999999943
 21
74.499999999999901
 31
0.0
  0
LINE
  5
32E
100
AcDbEntity
  8
0
  6
PHANTOM
 62
               2
100
AcDbLine
 10
-43.999999999999943
 20
64.499999999999986
 30
0.0
 11
-44.299999999999898
 21
64.499999999999986
 31
0.0
  0
LINE
  5
32F
100
AcDbEntity
  8
0
  6
PHANTOM
 62
               2
100
AcDbLine
 10
-43.999999999999943
 20
73.499999999999986
 30
0.0
 11
-44.299999999999898
 21
73.499999999999986
 31
0.0
  0
LINE
  5
330
100
AcDbEntity
  8
0
  6
PHANTOM
 62
               2
100
AcDbLine
 10
-45.999999999999943
 20
76.499999999999901
 30
0.0
 11
-45.999999999999943
 21
61.499999999999901
 31
0.0
  0
LINE
  5
331
100
AcDbEntity
  8
0
  6
PHANTOM
 62
               2
100
AcDbLine
 10
-44.299999999999898
 20
74.499999999999986
 30
0.0
 11
-44.299999999999898
 21
63.499999999999986
 31
0.0
  0
LINE
  5
332
100
AcDbEntity
  8
0
  6
PHANTOM
 62
               2
100
AcDbLine
 10
-55.199999999999704
 20
76.499999999999901
 30
0.0
 11
-55.199999999999704
 21
61.499999999999901
 31
0.0
  0
LINE
  5
333
100
AcDbEntity
  8
0
  6
PHANTOM
 62
               2
100
AcDbLine
 10
-55.999999999999943
 20
75.499999999999901
 30
0.0
 11
-55.999999999999943
 21
62.499999999999901
 31
0.0
  0
LINE
  5
334
100
AcDbEntity
  8
0
  6
PHANTOM
 62
               2
100
AcDbLine
 10
-42.399999999999807
 20
76.499999999999986
 30
0.0
 11
-39.999999999999943
 21
76.499999999999986
 31
0.0
  0
LINE
  5
335
100
AcDbEntity
  8
0
  6
PHANTOM
 62
               2
100
AcDbLine
 10
-39.999999999999943
 20
61.499999999999986
 30
0.0
 11
-42.399999999999807
 21
61.499999999999986
 31
0.0
  0
LINE
  5
336
100
AcDbEntity
  8
0
  6
CONTINUOUS
 62
               2
100
AcDbLine
 10
37.691912989210437
 20
79.999999999999901
 30
0.0
 11
-37.691912989210607
 21
79.999999999999901
 31
0.0
  0
LINE
  5
337
100
AcDbEntity
  8
0
  6
CONTINUOUS
 62
               2
100
AcDbLine
 10
-34.700000000000102
 20
43.999358573299617
 30
0.0
 11
34.700000000000273
 21
43.999358573299702
 31
0.0
  0
LINE
  5
338
100
AcDbEntity
  8
0
  6
CONTINUOUS
 62
               2
100
AcDbLine
 10
-28.999999999999943
 20
48.9999474877567
 30
0.0
 11
-28.999999999999943
 21
38.918769658842493
 31
0.0
  0
LINE
  5
339
100
AcDbEntity
  8
0
  6
CONTINUOUS
 62
               2
100
AcDbLine
 10
-15.999999999999943
 20
48.9999474877567
 30
0.0
 11
-15.999999999999943
 21
38.918769658842407
 31
0.0
  0
LINE
  5
33A
100
AcDbEntity
  8
0
  6
CONTINUOUS
 62
               2
100
AcDbLine
 10
29.0
 20
48.9999474877567
 30
0.0
 11
29.0
 21
38.918769658842407
 31
0.0
  0
LINE
  5
33B
100
AcDbEntity
  8
0
  6
CONTINUOUS
 62
               2
100
AcDbLine
 10
16.0
 20
48.9999474877567
 30
0.0
 11
16.0
 21
38.918769658842493
 31
0.0
  0
ARC
  5
33C
100
AcDbEntity
  8
0
  6
PHANTOM
 62
               2
100
AcDbCircle
 10
-27.375
 20
52.624999999999872
 30
0.0
 40
4.5
100
AcDbArc
 50
180.0
 51
270.0
  0
ARC
  5
33D
100
AcDbEntity
  8
0
  6
PHANTOM
 62
               2
100
AcDbCircle
 10
27.375
 20
52.624999999999929
 30
0.0
 40
4.5
100
AcDbArc
 50
270.0
 51
0.0
  0
ARC
  5
33E
100
AcDbEntity
  8
0
  6
PHANTOM
 62
               2
100
AcDbCircle
 10
-27.375
 20
107.37500000000007
 30
0.0
 40
4.5
100
AcDbArc
 50
90.0
 51
180.0
  0
ARC
  5
33F
100
AcDbEntity
  8
0
  6
PHANTOM
 62
               2
100
AcDbCircle
 10
27.375
 20
107.37500000000007
 30
0.0
 40
4.5
100
AcDbArc
 50
0.0
 51
90.0
  0
LINE
  5
340
100
AcDbEntity
  8
0
  6
PHANTOM
 62
               2
100
AcDbLine
 10
-31.875
 20
107.37500000000024
 30
0.0
 11
-31.875
 21
52.624999999999901
 31
0.0
  0
LINE
  5
341
100
AcDbEntity
  8
0
  6
PHANTOM
 62
               2
100
AcDbLine
 10
31.875
 20
107.37500000000007
 30
0.0
 11
31.875000000000114
 21
52.624999999999929
 31
0.0
  0
LINE
  5
342
100
AcDbEntity
  8
0
  6
PHANTOM
 62
               2
100
AcDbLine
 10
-27.375
 20
48.124999999999901
 30
0.0
 11
27.375
 21
48.124999999999929
 31
0.0
  0
LINE
  5
343
100
AcDbEntity
  8
0
  6
PHANTOM
 62
               2
100
AcDbLine
 10
-27.375
 20
111.8750000000001
 30
0.0
 11
27.375
 21
111.87500000000001
 31
0.0
  0
CIRCLE
  5
344
100
AcDbEntity
  8
0
  6
CONTINUOUS
 62
               7
100
AcDbCircle
 10
-0.0000000000001137
 20
79.999999999999901
 30
0.0
 40
7.72573709743126
  0
LINE
  5
345
100
AcDbEntity
  8
0
  6
CONTINUOUS
 62
               7
100
AcDbLine
 10
-23.790136986301263
 20
65.733698630137113
 30
0.0
 11
-26.105205479451911
 21
63.240547945205307
 31
0.0
  0
LINE
  5
346
100
AcDbEntity
  8
0
  6
CONTINUOUS
 62
               7
100
AcDbLine
 10
-19.993424657534092
 20
69.822465753424595
 30
0.0
 11
-22.30849315068474
 21
67.329315068493102
 31
0.0
  0
LINE
  5
347
100
AcDbEntity
  8
0
  6
CONTINUOUS
 62
               7
100
AcDbLine
 10
-16.196712328766921
 20
73.911232876712305
 30
0.0
 11
-18.511780821917569
 21
71.418082191780897
 31
0.0
  0
LINE
  5
348
100
AcDbEntity
  8
0
  6
CONTINUOUS
 62
               7
100
AcDbLine
 10
-12.39999999999975
 20
78.000000000000014
 30
0.0
 11
-14.715068493150511
 21
75.506849315068408
 31
0.0
  0
LINE
  5
349
100
AcDbEntity
  8
0
  6
CONTINUOUS
 62
               7
100
AcDbLine
 10
14.266301369862845
 20
56.209863013699007
 30
0.0
 11
16.759452054794451
 21
53.894794520548018
 31
0.0
  0
LINE
  5
34A
100
AcDbEntity
  8
0
  6
CONTINUOUS
 62
               7
100
AcDbLine
 10
10.177534246575306
 20
60.006575342465808
 30
0.0
 11
12.670684931507026
 21
57.691506849315218
 31
0.0
  0
LINE
  5
34B
100
AcDbEntity
  8
0
  6
CONTINUOUS
 62
               7
100
AcDbLine
 10
6.0887671232877665
 20
63.803287671233008
 30
0.0
 11
8.5819178082191456
 21
61.488219178082502
 31
0.0
  0
LINE
  5
34C
100
AcDbEntity
  8
0
  6
CONTINUOUS
 62
               7
100
AcDbLine
 10
1.9999999999998863
 20
67.600000000000207
 30
0.0
 11
4.4931506849313791
 21
65.284931506849503
 31
0.0
  0
LINE
  5
34D
100
AcDbEntity
  8
0
  6
CONTINUOUS
 62
               7
100
AcDbLine
 10
23.790136986301036
 20
94.266301369863001
 30
0.0
 11
26.105205479451683
 21
96.759452054794608
 31
0.0
  0
LINE
  5
34E
100
AcDbEntity
  8
0
  6
CONTINUOUS
 62
               7
100
AcDbLine
 10
19.993424657533865
 20
90.177534246575121
 30
0.0
 11
22.30849315068474
 21
92.670684931506813
 31
0.0
  0
LINE
  5
34F
100
AcDbEntity
  8
0
  6
CONTINUOUS
 62
               7
100
AcDbLine
 10
16.196712328766921
 20
86.088767123287496
 30
0.0
 11
18.511780821917682
 21
88.581917808219103
 31
0.0
  0
LINE
  5
350
100
AcDbEntity
  8
0
  6
CONTINUOUS
 62
               7
100
AcDbLine
 10
12.399999999999977
 20
81.999999999999815
 30
0.0
 11
14.715068493150625
 21
84.493150684931422
 31
0.0
  0
LINE
  5
351
100
AcDbEntity
  8
0
  6
CONTINUOUS
 62
               7
100
AcDbLine
 10
-2.0000000000001137
 20
92.399999999999707
 30
0.0
 11
-4.4931506849317202
 21
94.715068493150412
 31
0.0
  0
LINE
  5
352
100
AcDbEntity
  8
0
  6
CONTINUOUS
 62
               7
100
AcDbLine
 10
-6.0887671232877665
 20
96.196712328766907
 30
0.0
 11
-8.5819178082191456
 21
98.511780821917498
 31
0.0
  0
LINE
  5
353
100
AcDbEntity
  8
0
  6
CONTINUOUS
 62
               7
100
AcDbLine
 10
-10.177534246575419
 20
99.993424657534106
 30
0.0
 11
-12.670684931507026
 21
102.30849315068481
 31
0.0
  0
LINE
  5
354
100
AcDbEntity
  8
0
  6
CONTINUOUS
 62
               7
100
AcDbLine
 10
-14.266301369862845
 20
103.79013698630102
 30
0.0
 11
-16.759452054794679
 21
106.1052054794519
 31
0.0
  0
LINE
  5
355
100
AcDbEntity
  8
0
  6
CONTINUOUS
 62
               7
100
AcDbLine
 10
27.999999999999886
 20
90.600000000000207
 30
0.0
 11
27.999999999999886
 21
95.600000000000207
 31
0.0
  0
LINE
  5
356
100
AcDbEntity
  8
0
  6
CONTINUOUS
 62
               7
100
AcDbLine
 10
27.999999999999886
 20
82.40000000000002
 30
0.0
 11
27.999999999999886
 21
87.400000000000105
 31
0.0
  0
LINE
  5
357
100
AcDbEntity
  8
0
  6
CONTINUOUS
 62
               7
100
AcDbLine
 10
27.999999999999886
 20
74.200000000000003
 30
0.0
 11
27.999999999999886
 21
79.200000000000003
 31
0.0
  0
LINE
  5
358
100
AcDbEntity
  8
0
  6
CONTINUOUS
 62
               7
100
AcDbLine
 10
27.999999999999886
 20
65.999999999999901
 30
0.0
 11
27.999999999999886
 21
70.999999999999901
 31
0.0
  0
LINE
  5
359
100
AcDbEntity
  8
0
  6
CONTINUOUS
 62
               7
100
AcDbLine
 10
10.60000000000025
 20
51.999999999999901
 30
0.0
 11
15.60000000000025
 21
51.999999999999901
 31
0.0
  0
LINE
  5
35A
100
AcDbEntity
  8
0
  6
CONTINUOUS
 62
               7
100
AcDbLine
 10
2.3999999999999773
 20
51.999999999999901
 30
0.0
 11
7.4000000000002046
 21
51.999999999999901
 31
0.0
  0
LINE
  5
35B
100
AcDbEntity
  8
0
  6
CONTINUOUS
 62
               7
100
AcDbLine
 10
-5.7999999999998408
 20
51.999999999999901
 30
0.0
 11
-0.7999999999998408
 21
51.999999999999901
 31
0.0
  0
LINE
  5
35C
100
AcDbEntity
  8
0
  6
CONTINUOUS
 62
               7
100
AcDbLine
 10
-14.000000000000114
 20
51.999999999999901
 30
0.0
 11
-9.0000000000001137
 21
51.999999999999901
 31
0.0
  0
LINE
  5
35D
100
AcDbEntity
  8
0
  6
CONTINUOUS
 62
               7
100
AcDbLine
 10
-28.000000000000114
 20
69.399999999999821
 30
0.0
 11
-28.000000000000114
 21
64.399999999999821
 31
0.0
  0
LINE
  5
35E
100
AcDbEntity
  8
0
  6
CONTINUOUS
 62
               7
100
AcDbLine
 10
-28.000000000000114
 20
77.59999999999981
 30
0.0
 11
-28.000000000000114
 21
72.59999999999981
 31
0.0
  0
LINE
  5
35F
100
AcDbEntity
  8
0
  6
CONTINUOUS
 62
               7
100
AcDbLine
 10
-28.000000000000114
 20
85.799999999999912
 30
0.0
 11
-28.000000000000114
 21
80.799999999999912
 31
0.0
  0
LINE
  5
360
100
AcDbEntity
  8
0
  6
CONTINUOUS
 62
               7
100
AcDbLine
 10
-28.000000000000114
 20
93.999999999999901
 30
0.0
 11
-28.000000000000114
 21
88.999999999999901
 31
0.0
  0
LINE
  5
361
100
AcDbEntity
  8
0
  6
CONTINUOUS
 62
               7
100
AcDbLine
 10
-10.600000000000023
 20
107.9999999999999
 30
0.0
 11
-15.600000000000023
 21
107.9999999999999
 31
0.0
  0
LINE
  5
362
100
AcDbEntity
  8
0
  6
CONTINUOUS
 62
               7
100
AcDbLine
 10
-2.4000000000003183
 20
107.9999999999999
 30
0.0
 11
-7.4000000000003183
 21
107.9999999999999
 31
0.0
  0
LINE
  5
363
100
AcDbEntity
  8
0
  6
CONTINUOUS
 62
               7
100
AcDbLine
 10
5.8000000000000682
 20
107.9999999999999
 30
0.0
 11
0.8000000000000682
 21
107.9999999999999
 31
0.0
  0
LINE
  5
364
100
AcDbEntity
  8
0
  6
CONTINUOUS
 62
               7
100
AcDbLine
 10
13.999999999999886
 20
107.9999999999999
 30
0.0
 11
8.9999999999998863
 21
107.9999999999999
 31
0.0
  0
LINE
  5
365
100
AcDbEntity
  8
0
  6
CONTINUOUS
 62
               7
100
AcDbLine
 10
-26.105205479451911
 20
63.240547945205307
 30
0.0
 11
-14.000000000000114
 21
51.999999999999901
 31
0.0
  0
LINE
  5
366
100
AcDbEntity
  8
0
  6
CONTINUOUS
 62
               7
100
AcDbLine
 10
-23.790136986301263
 20
65.733698630137113
 30
0.0
 11
-9.0000000000001137
 21
51.999999999999901
 31
0.0
  0
LINE
  5
367
100
AcDbEntity
  8
0
  6
CONTINUOUS
 62
               7
100
AcDbLine
 10
-22.30849315068474
 20
67.329315068493102
 30
0.0
 11
-5.7999999999998408
 21
51.999999999999901
 31
0.0
  0
LINE
  5
368
100
AcDbEntity
  8
0
  6
CONTINUOUS
 62
               7
100
AcDbLine
 10
-19.993424657534092
 20
69.82246575342451
 30
0.0
 11
-0.7999999999998408
 21
51.999999999999901
 31
0.0
  0
LINE
  5
369
100
AcDbEntity
  8
0
  6
CONTINUOUS
 62
               7
100
AcDbLine
 10
-18.511780821917569
 20
71.418082191780897
 30
0.0
 11
2.3999999999999773
 21
51.999999999999901
 31
0.0
  0
LINE
  5
36A
100
AcDbEntity
  8
0
  6
CONTINUOUS
 62
               7
100
AcDbLine
 10
-16.196712328766921
 20
73.911232876712305
 30
0.0
 11
7.4000000000002046
 21
51.999999999999901
 31
0.0
  0
LINE
  5
36B
100
AcDbEntity
  8
0
  6
CONTINUOUS
 62
               7
100
AcDbLine
 10
-14.715068493150511
 20
75.506849315068408
 30
0.0
 11
10.60000000000025
 21
51.999999999999901
 31
0.0
  0
LINE
  5
36C
100
AcDbEntity
  8
0
  6
CONTINUOUS
 62
               7
100
AcDbLine
 10
-12.39999999999975
 20
77.999999999999901
 30
0.0
 11
15.60000000000025
 21
51.999999999999901
 31
0.0
  0
LINE
  5
36D
100
AcDbEntity
  8
0
  6
CONTINUOUS
 62
               7
100
AcDbLine
 10
-10.918356164383226
 20
79.595616438356117
 30
0.0
 11
0.40438356164384
 21
69.081643835616617
 31
0.0
  0
LINE
  5
36E
100
AcDbEntity
  8
0
  6
CONTINUOUS
 62
               7
100
AcDbLine
 10
0.40438356164384
 20
69.081643835616617
 30
0.0
 11
10.918356164383454
 21
80.404383561643797
 31
0.0
  0
LINE
  5
36F
100
AcDbEntity
  8
0
  6
CONTINUOUS
 62
               7
100
AcDbLine
 10
1.9999999999998863
 20
67.600000000000207
 30
0.0
 11
27.999999999999886
 21
95.600000000000207
 31
0.0
  0
LINE
  5
370
100
AcDbEntity
  8
0
  6
CONTINUOUS
 62
               7
100
AcDbLine
 10
4.4931506849313791
 20
65.284931506849418
 30
0.0
 11
27.999999999999886
 21
90.600000000000207
 31
0.0
  0
LINE
  5
371
100
AcDbEntity
  8
0
  6
CONTINUOUS
 62
               7
100
AcDbLine
 10
6.0887671232875391
 20
63.803287671233008
 30
0.0
 11
27.999999999999886
 21
87.400000000000105
 31
0.0
  0
LINE
  5
372
100
AcDbEntity
  8
0
  6
CONTINUOUS
 62
               7
100
AcDbLine
 10
8.5819178082191456
 20
61.488219178082417
 30
0.0
 11
27.999999999999886
 21
82.40000000000002
 31
0.0
  0
LINE
  5
373
100
AcDbEntity
  8
0
  6
CONTINUOUS
 62
               7
100
AcDbLine
 10
10.177534246575306
 20
60.006575342465922
 30
0.0
 11
27.999999999999886
 21
79.200000000000003
 31
0.0
  0
LINE
  5
374
100
AcDbEntity
  8
0
  6
CONTINUOUS
 62
               7
100
AcDbLine
 10
12.670684931506798
 20
57.691506849315104
 30
0.0
 11
27.999999999999886
 21
74.200000000000003
 31
0.0
  0
LINE
  5
375
100
AcDbEntity
  8
0
  6
CONTINUOUS
 62
               7
100
AcDbLine
 10
14.266301369862845
 20
56.209863013698808
 30
0.0
 11
27.999999999999886
 21
70.999999999999901
 31
0.0
  0
LINE
  5
376
100
AcDbEntity
  8
0
  6
CONTINUOUS
 62
               7
100
AcDbLine
 10
16.759452054794451
 20
53.894794520548018
 30
0.0
 11
27.999999999999886
 21
65.999999999999901
 31
0.0
  0
LINE
  5
377
100
AcDbEntity
  8
0
  6
CONTINUOUS
 62
               7
100
AcDbLine
 10
-16.759452054794679
 20
106.1052054794519
 30
0.0
 11
-28.000000000000114
 21
93.999999999999901
 31
0.0
  0
LINE
  5
378
100
AcDbEntity
  8
0
  6
CONTINUOUS
 62
               7
100
AcDbLine
 10
-14.266301369862845
 20
103.79013698630111
 30
0.0
 11
-28.000000000000114
 21
88.999999999999901
 31
0.0
  0
LINE
  5
379
100
AcDbEntity
  8
0
  6
CONTINUOUS
 62
               7
100
AcDbLine
 10
-12.670684931506912
 20
102.30849315068481
 30
0.0
 11
-28.000000000000114
 21
85.799999999999912
 31
0.0
  0
LINE
  5
37A
100
AcDbEntity
  8
0
  6
CONTINUOUS
 62
               7
100
AcDbLine
 10
-10.177534246575419
 20
99.993424657534106
 30
0.0
 11
-28.000000000000114
 21
80.799999999999912
 31
0.0
  0
LINE
  5
37B
100
AcDbEntity
  8
0
  6
CONTINUOUS
 62
               7
100
AcDbLine
 10
-8.5819178082189183
 20
98.511780821917498
 30
0.0
 11
-28.000000000000114
 21
77.59999999999981
 31
0.0
  0
LINE
  5
37C
100
AcDbEntity
  8
0
  6
CONTINUOUS
 62
               7
100
AcDbLine
 10
-6.0887671232877665
 20
96.196712328766907
 30
0.0
 11
-28.000000000000114
 21
72.59999999999981
 31
0.0
  0
LINE
  5
37D
100
AcDbEntity
  8
0
  6
CONTINUOUS
 62
               7
100
AcDbLine
 10
-4.4931506849314928
 20
94.715068493150412
 30
0.0
 11
-28.000000000000114
 21
69.399999999999821
 31
0.0
  0
LINE
  5
37E
100
AcDbEntity
  8
0
  6
CONTINUOUS
 62
               7
100
AcDbLine
 10
-2.0000000000001137
 20
92.399999999999707
 30
0.0
 11
-28.000000000000114
 21
64.399999999999821
 31
0.0
  0
LINE
  5
37F
100
AcDbEntity
  8
0
  6
CONTINUOUS
 62
               7
100
AcDbLine
 10
-0.40438356164384
 20
90.918356164383297
 30
0.0
 11
-10.918356164383454
 21
79.595616438356117
 31
0.0
  0
LINE
  5
380
100
AcDbEntity
  8
0
  6
CONTINUOUS
 62
               7
100
AcDbLine
 10
10.918356164383454
 20
80.404383561643797
 30
0.0
 11
-0.40438356164384
 21
90.918356164383297
 31
0.0
  0
LINE
  5
381
100
AcDbEntity
  8
0
  6
CONTINUOUS
 62
               7
100
AcDbLine
 10
12.39999999999975
 20
81.999999999999901
 30
0.0
 11
-15.600000000000023
 21
107.9999999999999
 31
0.0
  0
LINE
  5
382
100
AcDbEntity
  8
0
  6
CONTINUOUS
 62
               7
100
AcDbLine
 10
14.715068493150625
 20
84.493150684931422
 30
0.0
 11
-10.600000000000023
 21
107.9999999999999
 31
0.0
  0
LINE
  5
383
100
AcDbEntity
  8
0
  6
CONTINUOUS
 62
               7
100
AcDbLine
 10
16.19671232876658
 20
86.08876712328761
 30
0.0
 11
-7.4000000000003183
 21
107.9999999999999
 31
0.0
  0
LINE
  5
384
100
AcDbEntity
  8
0
  6
CONTINUOUS
 62
               7
100
AcDbLine
 10
18.511780821917682
 20
88.581917808219217
 30
0.0
 11
-2.4000000000003183
 21
107.9999999999999
 31
0.0
  0
LINE
  5
385
100
AcDbEntity
  8
0
  6
CONTINUOUS
 62
               7
100
AcDbLine
 10
19.993424657533865
 20
90.17753424657532
 30
0.0
 11
0.8000000000000682
 21
107.9999999999999
 31
0.0
  0
LINE
  5
386
100
AcDbEntity
  8
0
  6
CONTINUOUS
 62
               7
100
AcDbLine
 10
22.30849315068474
 20
92.670684931506813
 30
0.0
 11
5.8000000000000682
 21
107.9999999999999
 31
0.0
  0
LINE
  5
387
100
AcDbEntity
  8
0
  6
CONTINUOUS
 62
               7
100
AcDbLine
 10
23.790136986301263
 20
94.266301369863001
 30
0.0
 11
8.9999999999998863
 21
107.9999999999999
 31
0.0
  0
LINE
  5
388
100
AcDbEntity
  8
0
  6
CONTINUOUS
 62
               7
100
AcDbLine
 10
26.105205479451911
 20
96.759452054794608
 30
0.0
 11
13.999999999999886
 21
107.9999999999999
 31
0.0
  0
ARC
  5
389
100
AcDbEntity
  8
0
  6
CONTINUOUS
 62
               7
100
AcDbCircle
 10
-27.000000000000114
 20
52.999999999999901
 30
0.0
 40
3.0
100
AcDbArc
 50
180.0
 51
270.0
  0
ARC
  5
38A
100
AcDbEntity
  8
0
  6
CONTINUOUS
 62
               7
100
AcDbCircle
 10
26.999999999999886
 20
52.999999999999901
 30
0.0
 40
3.0
100
AcDbArc
 50
270.0
 51
0.0
  0
ARC
  5
38B
100
AcDbEntity
  8
0
  6
CONTINUOUS
 62
               7
100
AcDbCircle
 10
-27.000000000000114
 20
107.00000000000001
 30
0.0
 40
3.0
100
AcDbArc
 50
90.0
 51
180.0
  0
ARC
  5
38C
100
AcDbEntity
  8
0
  6
CONTINUOUS
 62
               7
100
AcDbCircle
 10
26.999999999999886
 20
107.00000000000001
 30
0.0
 40
3.0
100
AcDbArc
 50
0.0
 51
90.0
  0
LINE
  5
38D
100
AcDbEntity
  8
0
  6
CONTINUOUS
 62
               7
100
AcDbLine
 10
-30.000000000000114
 20
52.999999999999901
 30
0.0
 11
-30.000000000000114
 21
107.00000000000001
 31
0.0
  0
LINE
  5
38E
100
AcDbEntity
  8
0
  6
CONTINUOUS
 62
               7
100
AcDbLine
 10
26.999999999999886
 20
49.999999999999901
 30
0.0
 11
-27.000000000000114
 21
49.999999999999901
 31
0.0
  0
LINE
  5
38F
100
AcDbEntity
  8
0
  6
CONTINUOUS
 62
               7
100
AcDbLine
 10
29.999999999999886
 20
107.00000000000001
 30
0.0
 11
29.999999999999886
 21
52.999999999999901
 31
0.0
  0
LINE
  5
390
100
AcDbEntity
  8
0
  6
CONTINUOUS
 62
               7
100
AcDbLine
 10
-27.000000000000114
 20
109.9999999999999
 30
0.0
 11
26.999999999999886
 21
109.9999999999999
 31
0.0
  0
CIRCLE
  5
391
100
AcDbEntity
  8
0
  6
CONTINUOUS
 62
               7
100
AcDbCircle
 10
-25.000000000000114
 20
105.00000000000001
 30
0.0
 40
3.8999999999999999
  0
CIRCLE
  5
392
100
AcDbEntity
  8
0
  6
CONTINUOUS
 62
               7
100
AcDbCircle
 10
24.999999999999886
 20
105.00000000000001
 30
0.0
 40
3.8999999999999999
  0
CIRCLE
  5
393
100
AcDbEntity
  8
0
  6
CONTINUOUS
 62
               7
100
AcDbCircle
 10
24.999999999999886
 20
54.999999999999901
 30
0.0
 40
3.8999999999999999
  0
CIRCLE
  5
394
100
AcDbEntity
  8
0
  6
CONTINUOUS
 62
               7
100
AcDbCircle
 10
-25.000000000000114
 20
54.999999999999901
 30
0.0
 40
3.8999999999999999
  0
ENDBLK
  5
395
100
AcDbEntity
  8
0
100
AcDbBlockEnd
  0
ENDSEC
  0
SECTION
  2
ENTITIES
  0
INSERT
  5
396
100
AcDbEntity
  8
0
  6
ByBlock
100
AcDbBlockReference
  2
DTRY-ELF02-4
 10
177.49271931536981
 20
-14.181814615867992
 30
0.0
  0
INSERT
  5
397
100
AcDbEntity
  8
0
  6
ByBlock
100
AcDbBlockReference
  2
DTRY-ELF02-3
 10
-150.44347095489147
 20
-103.12827080248854
 30
0.0
  0
INSERT
  5
398
100
AcDbEntity
  8
0
  6
ByBlock
100
AcDbBlockReference
  2
DTRY-ELF02-2
 10
11.044759585612184
 20
-14.181814615867991
 30
0.0
  0
INSERT
  5
399
100
AcDbEntity
  8
0
  6
ByBlock
100
AcDbBlockReference
  2
DTRY-ELF02-1
 10
-150.44347095489147
 20
-14.181814615867992
 30
0.0
  0
MTEXT
  5
39A
100
AcDbEntity
  8
0
  6
CONTINUOUS
 62
               7
100
AcDbMText
 10
-251.6822043090194
 20
180.5
 30
0.0
 40
6.3000001907348633
 41
0.0
 71
               4
 72
               1
  1
\W1.017;\A1;DTRY-ELF02
  0
MTEXT
  5
39B
100
AcDbEntity
  8
0
  6
CONTINUOUS
 62
               7
100
AcDbMText
 10
-267.36961862439284
 20
190.5
 30
0.0
 40
6.3000001907348633
 41
0.0
 71
               4
 72
               1
  1
\W1.077;\A1;CRECEED IONIZER
  0
LINE
  5
39C
100
AcDbEntity
  8
0
  6
CONTINUOUS
 62
               7
100
AcDbLine
 10
-281.25
 20
175.5
 30
0.0
 11
-161.25
 21
175.5
 31
0.0
  0
LINE
  5
39D
100
AcDbEntity
  8
0
  6
CONTINUOUS
 62
               7
100
AcDbLine
 10
-161.25
 20
195.5
 30
0.0
 11
-161.25
 21
175.5
 31
0.0
  0
LINE
  5
39E
100
AcDbEntity
  8
0
  6
CONTINUOUS
 62
               7
100
AcDbLine
 10
162.0999755859375
 20
-175.0
 30
0.0
 11
162.0999755859375
 21
-195.0
 31
0.0
  0
LINE
  5
39F
100
AcDbEntity
  8
0
  6
CONTINUOUS
 62
               7
100
AcDbLine
 10
162.0999755859375
 20
-175.0
 30
0.0
 11
282.099853515625
 21
-175.0
 31
0.0
  0
MTEXT
  5
3A0
100
AcDbEntity
  8
0
  6
CONTINUOUS
 62
               7
100
AcDbMText
 10
170.2809980228688
 20
-185.0
 30
0.0
 40
9.0
 41
0.0
 71
               4
 72
               1
  1
\W1.121;\A1;KOGANEI CORP.
  0
MTEXT
  5
3A1
100
AcDbEntity
  8
0
  6
CONTINUOUS
 62
               7
100
AcDbMText
 10
198.2770240315611
 20
185.5
 30
0.0
 40
6.3000001907348633
 41
0.0
 71
               4
 72
               1
  1
\W1.311;\A1;Ver. 1.0
  0
LINE
  5
3A2
100
AcDbEntity
  8
0
  6
CONTINUOUS
 62
               7
100
AcDbLine
 10
162.0999755859375
 20
175.5
 30
0.0
 11
282.099853515625
 21
175.5
 31
0.0
  0
LINE
  5
3A3
100
AcDbEntity
  8
0
  6
CONTINUOUS
 62
               7
100
AcDbLine
 10
162.0999755859375
 20
195.5
 30
0.0
 11
162.0999755859375
 21
175.5
 31
0.0
  0
LINE
  5
3A4
100
AcDbEntity
  8
0
  6
CONTINUOUS
 62
               7
100
AcDbLine
 10
282.099853515625
 20
195.5
 30
0.0
 11
282.099853515625
 21
-195.0
 31
0.0
  0
LINE
  5
3A5
100
AcDbEntity
  8
0
  6
CONTINUOUS
 62
               7
100
AcDbLine
 10
-281.25
 20
195.5
 30
0.0
 11
282.099853515625
 21
195.5
 31
0.0
  0
LINE
  5
3A6
100
AcDbEntity
  8
0
  6
CONTINUOUS
 62
               7
100
AcDbLine
 10
-281.25
 20
195.5
 30
0.0
 11
-281.25
 21
-195.0
 31
0.0
  0
LINE
  5
3A7
100
AcDbEntity
  8
0
  6
CONTINUOUS
 62
               7
100
AcDbLine
 10
-281.25
 20
-195.0
 30
0.0
 11
282.099853515625
 21
-195.0
 31
0.0
  0
MTEXT
  5
3A8
100
AcDbEntity
  8
0
  6
CONTINUOUS
 62
               7
100
AcDbMText
 10
-268.29230775341381
 20
160.5
 30
0.0
 40
6.3000001907348633
 41
0.0
 71
               4
 72
               1
  1
\W1.055;\A1;MODEL:DTRY-ELF02
  0
ENDSEC
  0
SECTION
  2
OBJECTS
  0
DICTIONARY
  5
19
100
AcDbDictionary
  3
ACAD_GROUP
350
1A
  3
ACAD_MLINESTYLE
350
1B
  0
DICTIONARY
  5
1A
102
{ACAD_REACTORS
330
19
102
}
100
AcDbDictionary
  0
DICTIONARY
  5
1B
102
{ACAD_REACTORS
330
19
102
}
100
AcDbDictionary
  3
STANDARD
350
1C
  0
MLINESTYLE
  5
1C
102
{ACAD_REACTORS
330
1B
102
}
100
AcDbMlineStyle
  2
Standard
 70
               0
  3

 62
               0
 51
90.0
 52
90.0
 71
               2
 49
0.5
 62
             256
  6
ByLayer
 49
-0.5
 62
             256
  6
ByLayer
  0
ENDSEC
  0
EOF
