  0
SECTION
  2
HEADER
  9
$ACADVER
  1
AC1012
  9
$DWGCODEPAGE
  3
dos932
  9
$INSBASE
 10
0.0
 20
0.0
 30
0.0
  9
$EXTMIN
 10
-138.39999389648437
 20
-94.800003051757812
 30
0.0
  9
$EXTMAX
 10
138.35000610351562
 20
94.5
 30
0.0
  9
$LIMMIN
 10
-138.39999389648437
 20
-94.800003051757812
  9
$LIMMAX
 10
138.35000610351562
 20
94.5
  9
$ORTHOMODE
 70
               0
  9
$REGENMODE
 70
               1
  9
$FILLMODE
 70
               1
  9
$QTEXTMODE
 70
               0
  9
$MIRRTEXT
 70
               1
  9
$DRAGMODE
 70
               2
  9
$LTSCALE
 40
1.0
  9
$OSMODE
 70
               0
  9
$ATTMODE
 70
               1
  9
$TEXTSIZE
 40
3.2000000476837158
  9
$TRACEWID
 40
0.05
  9
$TEXTSTYLE
  7
MX_NOTE_STANDARD
  9
$CLAYER
  8
0
  9
$CELTYPE
  6
CONTINUOUS
  9
$CECOLOR
 62
             256
  9
$CELTSCALE
 40
1.0
  9
$DELOBJ
 70
               1
  9
$DISPSILH
 70
               0
  9
$DIMSCALE
 40
1.0
  9
$DIMASZ
 40
2.5
  9
$DIMEXO
 40
1.5
  9
$DIMDLI
 40
3.75
  9
$DIMRND
 40
0.0
  9
$DIMDLE
 40
0.0
  9
$DIMEXE
 40
1.5
  9
$DIMTP
 40
0.0
  9
$DIMTM
 40
0.0
  9
$DIMTXT
 40
3.2000000476837158
  9
$DIMCEN
 40
2.5
  9
$DIMTSZ
 40
0.0
  9
$DIMTOL
 70
               0
  9
$DIMLIM
 70
               0
  9
$DIMTIH
 70
               0
  9
$DIMTOH
 70
               0
  9
$DIMSE1
 70
               0
  9
$DIMSE2
 70
               0
  9
$DIMTAD
 70
               1
  9
$DIMZIN
 70
               8
  9
$DIMBLK
  1

  9
$DIMASO
 70
               1
  9
$DIMSHO
 70
               1
  9
$DIMPOST
  1

  9
$DIMAPOST
  1

  9
$DIMALT
 70
               0
  9
$DIMALTD
 70
               4
  9
$DIMALTF
 40
0.03937007874016
  9
$DIMLFAC
 40
1.0
  9
$DIMTOFL
 70
               1
  9
$DIMTVP
 40
0.0
  9
$DIMTIX
 70
               0
  9
$DIMSOXD
 70
               0
  9
$DIMSAH
 70
               0
  9
$DIMBLK1
  1

  9
$DIMBLK2
  1

  9
$DIMSTYLE
  2
MXDIMSTYLE
  9
$DIMCLRD
 70
               0
  9
$DIMCLRE
 70
               0
  9
$DIMCLRT
 70
               0
  9
$DIMTFAC
 40
1.0
  9
$DIMGAP
 40
1.0
  9
$DIMJUST
 70
               0
  9
$DIMSD1
 70
               0
  9
$DIMSD2
 70
               0
  9
$DIMTOLJ
 70
               1
  9
$DIMTZIN
 70
               0
  9
$DIMALTZ
 70
               0
  9
$DIMALTTZ
 70
               0
  9
$DIMFIT
 70
               3
  9
$DIMUPT
 70
               1
  9
$DIMUNIT
 70
               2
  9
$DIMDEC
 70
               4
  9
$DIMTDEC
 70
               4
  9
$DIMALTU
 70
               2
  9
$DIMALTTD
 70
               4
  9
$DIMTXSTY
  7
MX_NOTE_STANDARD
  9
$DIMAUNIT
 70
               0
  9
$LUNITS
 70
               2
  9
$LUPREC
 70
               4
  9
$SKETCHINC
 40
0.1
  9
$FILLETRAD
 40
0.0
  9
$AUNITS
 70
               0
  9
$AUPREC
 70
               0
  9
$MENU
  1
acad
  9
$ELEVATION
 40
0.0
  9
$PELEVATION
 40
0.0
  9
$THICKNESS
 40
0.0
  9
$LIMCHECK
 70
               0
  9
$BLIPMODE
 70
               1
  9
$CHAMFERA
 40
0.0
  9
$CHAMFERB
 40
0.0
  9
$CHAMFERC
 40
0.0
  9
$CHAMFERD
 40
0.0
  9
$SKPOLY
 70
               0
  9
$TDCREATE
 40
2453378.356273148
  9
$TDUPDATE
 40
2453378.356273148
  9
$TDINDWG
 40
0.0000000000
  9
$TDUSRTIMER
 40
0.0000000000
  9
$USRTIMER
 70
               1
  9
$ANGBASE
 50
0.0
  9
$ANGDIR
 70
               0
  9
$PDMODE
 70
               0
  9
$PDSIZE
 40
0.0
  9
$PLINEWID
 40
0.0
  9
$COORDS
 70
               1
  9
$SPLFRAME
 70
               0
  9
$SPLINETYPE
 70
               6
  9
$SPLINESEGS
 70
               8
  9
$ATTDIA
 70
               0
  9
$ATTREQ
 70
               1
  9
$HANDLING
 70
               1
  9
$HANDSEED
  5
AC
  9
$SURFTAB1
 70
               6
  9
$SURFTAB2
 70
               6
  9
$SURFTYPE
 70
               6
  9
$SURFU
 70
               6
  9
$SURFV
 70
               6
  9
$UCSNAME
  2

  9
$UCSORG
 10
0.0
 20
0.0
 30
0.0
  9
$UCSXDIR
 10
1.0
 20
0.0
 30
0.0
  9
$UCSYDIR
 10
0.0
 20
1.0
 30
0.0
  9
$PUCSNAME
  2

  9
$PUCSORG
 10
0.0
 20
0.0
 30
0.0
  9
$PUCSXDIR
 10
1.0
 20
0.0
 30
0.0
  9
$PUCSYDIR
 10
0.0
 20
1.0
 30
0.0
  9
$USERI1
 70
               0
  9
$USERI2
 70
               0
  9
$USERI3
 70
               0
  9
$USERI4
 70
               0
  9
$USERI5
 70
               0
  9
$USERR1
 40
0.0
  9
$USERR2
 40
0.0
  9
$USERR3
 40
0.0
  9
$USERR4
 40
0.0
  9
$USERR5
 40
0.0
  9
$WORLDVIEW
 70
               1
  9
$SHADEDGE
 70
               3
  9
$SHADEDIF
 70
              70
  9
$TILEMODE
 70
               1
  9
$MAXACTVP
 70
              16
  9
$PINSBASE
 10
0.0
 20
0.0
 30
0.0
  9
$PLIMCHECK
 70
               0
  9
$PEXTMIN
 10
1.0000000000000000E+20
 20
1.0000000000000000E+20
 30
1.0000000000000000E+20
  9
$PEXTMAX
 10
-1.0000000000000000E+20
 20
-1.0000000000000000E+20
 30
-1.0000000000000000E+20
  9
$PLIMMIN
 10
0.0
 20
0.0
  9
$PLIMMAX
 10
12.0
 20
9.0
  9
$UNITMODE
 70
               0
  9
$VISRETAIN
 70
               0
  9
$PLINEGEN
 70
               1
  9
$PSLTSCALE
 70
               0
  9
$TREEDEPTH
 70
            3020
  9
$PICKSTYLE
 70
               1
  9
$CMLSTYLE
  2
Standard
  9
$CMLJUST
 70
               0
  9
$CMLSCALE
 40
1.0
  9
$SAVEIMAGES
 70
               0
  0
ENDSEC
  0
SECTION
  2
CLASSES
  0
CLASS
  1
LWPOLYLINE
  2
AcDbPolyline
  3
"AutoCAD"
 90
        0
280
               0
281
               1
  0
CLASS
  1
IMAGE
  2
AcDbRasterImage
  3
ISM
 90
      127
280
               0
281
               1
  0
CLASS
  1
OLE2FRAME
  2
AcDbOle2Frame
  3
""
 90
        0
280
               0
281
               1
  0
CLASS
  1
HATCH
  2
AcDbHatch
  3
"ACAD_SEDONA"
 90
        0
280
               0
281
               1
  0
CLASS
  1
DICTIONARYVAR
  2
AcDbDictionaryVar
  3
"AutoCAD"
 90
        0
280
               0
281
               0
  0
CLASS
  1
RASTERVARIABLES
  2
AcDbRasterVariables
  3
ISM
 90
        0
280
               0
281
               0
  0
CLASS
  1
IMAGEDEF
  2
AcDbRasterImageDef
  3
ISM
 90
        0
280
               0
281
               0
  0
CLASS
  1
IMAGEDEF_REACTOR
  2
AcDbRasterImageDefReactor
  3
ISM
 90
        1
280
               0
281
               0
  0
CLASS
  1
IDBUFFER
  2
AcDbIdBuffer
  3
"Acad"
 90
        0
280
               0
281
               0
  0
CLASS
  1
SPATIAL_FILTER
  2
AcDbSpatialFilter
  3
"Acad"
 90
        0
280
               0
281
               0
  0
CLASS
  1
XRECORD
  2
AcDbXrecord
  3
"<Built In>"
 90
        0
280
               0
281
               0
  0
CLASS
  1
SORTENTSTABLE
  2
AcDbSortentsTable
  3
"AutoCAD"
 90
        0
280
               0
281
               0
  0
CLASS
  1
LAYER_INDEX
  2
AcDbLayerIndex
  3
"Acad"
 90
        0
280
               0
281
               0
  0
CLASS
  1
SPATIAL_INDEX
  2
AcDbSpatialIndex
  3
"Acad"
 90
        0
280
               0
281
               0
  0
CLASS
  1
OBJECT_PTR
  2
CAseDLPNTableRecord
  3
"ASE-LPNTableRecord"
 90
        1
280
               0
281
               0
  0
CLASS
  1
LAYOUT
  2
AcDbLayout
  3
"AutoCAD 2000"
 90
        1
280
               0
281
               0
  0
CLASS
  1
PLOTSETTINGS
  2
AcDbPlotSettings
  3
"AutoCAD 2000"
 90
        1
280
               0
281
               0
  0
CLASS
  1
ACDBDICTIONARYWDFLT
  2
AcDbDictionaryWithDefault
  3
"AutoCAD 2000"
 90
        1
280
               0
281
               0
  0
CLASS
  1
ACDBPLACEHOLDER
  2
AcDbPlaceHolder
  3
"AutoCAD 2000"
 90
        1
280
               0
281
               0
  0
ENDSEC
  0
SECTION
  2
TABLES
  0
TABLE
  2
VPORT
  5
7
100
AcDbSymbolTable
 70
               1
  0
VPORT
  5
15
100
AcDbSymbolTableRecord
100
AcDbViewportTableRecord
  2
*ACTIVE
 70
               0
 10
0.0
 20
0.0
 11
1.0
 21
1.0
 12
-0.024993896484375
 22
-0.1500015258789063
 13
0.0
 23
0.0
 14
1.0
 24
1.0
 15
0.0
 25
0.0
 16
0.0
 26
0.0
 36
1.0
 17
0.0
 27
0.0
 37
0.0
 40
191.1930030822754
 41
1.7320508075688772
 42
50.0
 43
0.0
 44
0.0
 50
0.0
 51
0.0
 71
               0
 72
             100
 73
               1
 74
               1
 75
               0
 76
               0
 77
               0
 78
               0
  0
ENDTAB
  0
TABLE
  2
LTYPE
  5
4
100
AcDbSymbolTable
 70
               4
  0
LTYPE
  5
11
100
AcDbSymbolTableRecord
100
AcDbLinetypeTableRecord
  2
BYBLOCK
 70
              64
  3

 72
              65
 73
               0
 40
0.0
  0
LTYPE
  5
12
100
AcDbSymbolTableRecord
100
AcDbLinetypeTableRecord
  2
BYLAYER
 70
              64
  3

 72
              65
 73
               0
 40
0.0
  0
LTYPE
  5
13
100
AcDbSymbolTableRecord
100
AcDbLinetypeTableRecord
  2
CONTINUOUS
 70
              64
  3
Solid line
 72
              65
 73
               0
 40
0.0
  0
LTYPE
  5
A8
100
AcDbSymbolTableRecord
100
AcDbLinetypeTableRecord
  2
PHANTOM
 70
              64
  3
Phantom ______  __  __  ______  __  __  ______
 72
              65
 73
               6
 40
30.0
 49
20.0
 74
               0
 49
-2.0
 74
               0
 49
2.0
 74
               0
 49
-2.0
 74
               0
 49
2.0
 74
               0
 49
-2.0
 74
               0
  0
ENDTAB
  0
TABLE
  2
LAYER
  5
2
100
AcDbSymbolTable
 70
               2
  0
LAYER
  5
14
100
AcDbSymbolTableRecord
100
AcDbLayerTableRecord
  2
0
 70
               0
 62
               7
  6
CONTINUOUS
  0
LAYER
  5
1D
100
AcDbSymbolTableRecord
100
AcDbLayerTableRecord
  2
DEFPOINTS
 70
               0
 62
               7
  6
CONTINUOUS
  0
ENDTAB
  0
TABLE
  2
STYLE
  5
3
100
AcDbSymbolTable
 70
               1
  0
STYLE
  5
17
100
AcDbSymbolTableRecord
100
AcDbTextStyleTableRecord
  2
MX_NOTE_STANDARD
 70
               0
 40
0.0
 41
1.0
 50
0.0
 71
               0
 42
3.2000000476837158
  3
txt.shx
  4
extfont.shx
  0
ENDTAB
  0
TABLE
  2
VIEW
  5
5
100
AcDbSymbolTable
 70
               0
  0
ENDTAB
  0
TABLE
  2
UCS
  5
6
100
AcDbSymbolTable
 70
               0
  0
ENDTAB
  0
TABLE
  2
APPID
  5
8
100
AcDbSymbolTable
 70
               1
  0
APPID
  5
16
100
AcDbSymbolTableRecord
100
AcDbRegAppTableRecord
  2
ACAD
 70
               0
  0
ENDTAB
  0
TABLE
  2
DIMSTYLE
  5
9
100
AcDbSymbolTable
 70
               1
  0
DIMSTYLE
105
18
100
AcDbSymbolTableRecord
100
AcDbDimStyleTableRecord
  2
MXDIMSTYLE
 70
               0
  3

  4

  5

  6

  7

 40
1.0
 41
2.5
 42
1.5
 43
3.75
 44
1.5
 45
0.0
 46
0.0
 47
0.0
 48
0.0
 71
               0
 72
               0
 73
               0
 74
               0
 75
               0
 76
               0
 77
               1
 78
               8
140
3.2000000476837158
141
2.5
142
0.0
143
0.03937007874016
144
1.0
145
0.0
146
1.0
147
1.0
170
               0
171
               4
172
               1
173
               0
174
               0
175
               0
176
               0
177
               0
178
               0
270
               2
271
               4
272
               4
273
               2
274
               4
275
               0
280
               0
281
               0
282
               0
283
               1
284
               0
285
               0
286
               0
287
               3
288
               1
340
17
  0
ENDTAB
  0
TABLE
  2
BLOCK_RECORD
  5
1
100
AcDbSymbolTable
 70
               2
  0
BLOCK_RECORD
  5
A
100
AcDbSymbolTableRecord
100
AcDbBlockTableRecord
  2
*MODEL_SPACE
  0
BLOCK_RECORD
  5
B
100
AcDbSymbolTableRecord
100
AcDbBlockTableRecord
  2
*PAPER_SPACE
  0
BLOCK_RECORD
  5
1E
100
AcDbSymbolTableRecord
100
AcDbBlockTableRecord
  2
DTRY-ADN-100B-1
  0
BLOCK_RECORD
  5
1F
100
AcDbSymbolTableRecord
100
AcDbBlockTableRecord
  2
DTRY-ADN-100B-2
  0
ENDTAB
  0
ENDSEC
  0
SECTION
  2
BLOCKS
  0
BLOCK
  5
D
100
AcDbEntity
  8
0
100
AcDbBlockBegin
  2
*MODEL_SPACE
 70
               0
 10
0.0
 20
0.0
 30
0.0
  3
*MODEL_SPACE
  1

  0
ENDBLK
  5
E
100
AcDbEntity
  8
0
100
AcDbBlockEnd
  0
BLOCK
  5
F
100
AcDbEntity
 67
               1
  8
0
100
AcDbBlockBegin
  2
*PAPER_SPACE
 70
               0
 10
0.0
 20
0.0
 30
0.0
  3
*PAPER_SPACE
  1

  0
ENDBLK
  5
10
100
AcDbEntity
 67
               1
  8
0
100
AcDbBlockEnd
  0
BLOCK
  5
20
100
AcDbEntity
  8
0
100
AcDbBlockBegin
  2
DTRY-ADN-100B-1
 70
               0
 10
0.0
 20
0.0
 30
0.0
  3
DTRY-ADN-100B-1
  1

  0
LINE
  5
21
100
AcDbEntity
  8
0
  6
CONTINUOUS
 62
               2
100
AcDbLine
 10
46.000000000000028
 20
-1.5
 30
0.0
 11
46.000000000000028
 21
1.5
 31
0.0
  0
CIRCLE
  5
22
100
AcDbEntity
  8
0
  6
CONTINUOUS
 62
               7
100
AcDbCircle
 10
46.000000000000028
 20
0.0
 30
0.0
 40
0.6
  0
LINE
  5
23
100
AcDbEntity
  8
0
  6
CONTINUOUS
 62
               2
100
AcDbLine
 10
56.000000000000028
 20
-1.5
 30
0.0
 11
56.000000000000028
 21
1.5
 31
0.0
  0
CIRCLE
  5
24
100
AcDbEntity
  8
0
  6
CONTINUOUS
 62
               7
100
AcDbCircle
 10
56.000000000000028
 20
0.0
 30
0.0
 40
0.6
  0
CIRCLE
  5
25
100
AcDbEntity
  8
0
  6
CONTINUOUS
 62
               7
100
AcDbCircle
 10
66.000000000000028
 20
0.0
 30
0.0
 40
0.6
  0
LINE
  5
26
100
AcDbEntity
  8
0
  6
CONTINUOUS
 62
               2
100
AcDbLine
 10
66.000000000000028
 20
-1.5
 30
0.0
 11
66.000000000000028
 21
1.5
 31
0.0
  0
CIRCLE
  5
27
100
AcDbEntity
  8
0
  6
CONTINUOUS
 62
               7
100
AcDbCircle
 10
76.000000000000014
 20
0.0
 30
0.0
 40
0.6
  0
LINE
  5
28
100
AcDbEntity
  8
0
  6
CONTINUOUS
 62
               2
100
AcDbLine
 10
76.000000000000014
 20
-1.5
 30
0.0
 11
76.000000000000014
 21
1.5
 31
0.0
  0
CIRCLE
  5
29
100
AcDbEntity
  8
0
  6
CONTINUOUS
 62
               7
100
AcDbCircle
 10
86.000000000000014
 20
0.0
 30
0.0
 40
0.6
  0
LINE
  5
2A
100
AcDbEntity
  8
0
  6
CONTINUOUS
 62
               2
100
AcDbLine
 10
86.000000000000014
 20
-1.5
 30
0.0
 11
86.000000000000014
 21
1.5
 31
0.0
  0
LINE
  5
2B
100
AcDbEntity
  8
0
  6
CONTINUOUS
 62
               2
100
AcDbLine
 10
-1.6700756756756761
 20
0.0
 30
0.0
 11
158.67105832426921
 21
0.0
 31
0.0
  0
SPLINE
  5
2C
100
AcDbEntity
  8
0
  6
CONTINUOUS
 62
               7
100
AcDbSpline
210
0.0
220
0.0
230
1.0
 70
               0
 71
               3
 72
               0
 73
               0
 74
               9
 44
0.000001
 12
0.5262037189956133
 22
-0.850358539743787
 32
0.0
 13
-0.5262037221812208
 23
-0.850358537772526
 33
0.0
 11
25.804750032574006
 21
6.9282033132652359
 31
0.0
 11
26.023413895774599
 21
6.5252172737731247
 31
0.0
 11
26.191954127003598
 21
6.0978590496301477
 31
0.0
 11
26.301413637717364
 21
5.6521307521127078
 31
0.0
 11
26.340648456288704
 21
5.196152422706632
 31
0.0
 11
26.301413629520297
 21
4.7401741143206255
 31
0.0
 11
26.191954116691466
 21
4.2944458383914972
 31
0.0
 11
26.02341388843903
 21
3.867087635269947
 31
0.0
 11
25.804750032574006
 21
3.4641016151377535
 31
0.0
  0
SPLINE
  5
2D
100
AcDbEntity
  8
0
  6
CONTINUOUS
 62
               7
100
AcDbSpline
210
0.0
220
0.0
230
1.0
 70
               0
 71
               3
 72
               0
 73
               0
 74
               9
 44
0.000001
 12
0.2955767478368809
 22
-0.9553189970570944
 32
0.0
 13
-0.29557674770848
 23
-0.9553189970968219
 33
0.0
 11
25.804750032574006
 21
3.4641016151377535
 31
0.0
 11
26.034353822507647
 21
2.6163298786851756
 31
0.0
 11
26.202210200999229
 21
1.7536909208005196
 31
0.0
 11
26.305495370195018
 21
0.8793895990476759
 31
0.0
 11
26.340648456288704
 21
0.0000000176365411
 31
0.0
 11
26.305495372147977
 21
-0.8793895726592483
 31
0.0
 11
26.202210203557257
 21
-1.7536909033617714
 31
0.0
 11
26.034353824396462
 21
-2.6163298700892699
 31
0.0
 11
25.804750032574006
 21
-3.4641016151377544
 31
0.0
  0
SPLINE
  5
2E
100
AcDbEntity
  8
0
  6
CONTINUOUS
 62
               7
100
AcDbSpline
210
0.0
220
0.0
230
1.0
 70
               0
 71
               3
 72
               0
 73
               0
 74
               9
 44
0.000001
 12
0.5262037333667072
 22
-0.8503585308509225
 32
0.0
 13
-0.5262037220972631
 23
-0.8503585378244792
 33
0.0
 11
25.804750032574006
 21
-3.4641016151377553
 31
0.0
 11
26.023413892917254
 21
-3.867087633648834
 31
0.0
 11
26.191954123242045
 21
-4.2944458368545995
 31
0.0
 11
26.301413634935205
 21
-4.7401741135924444
 31
0.0
 11
26.340648456288704
 21
-5.196152422706632
 31
0.0
 11
26.301413634129613
 21
-5.6521307103109502
 31
0.0
 11
26.19195412787354
 21
-6.0978589661475047
 31
0.0
 11
26.023413908043551
 21
-6.5252171500668457
 31
0.0
 11
25.804750062376328
 21
-6.9282031519075327
 31
0.0
  0
SPLINE
  5
2F
100
AcDbEntity
  8
0
  6
CONTINUOUS
 62
               7
100
AcDbSpline
210
0.0
220
0.0
230
1.0
 70
               0
 71
               3
 72
               0
 73
               0
 74
               9
 44
0.000001
 12
-0.5262037189956131
 22
-0.8503585397437871
 32
0.0
 13
0.5262037221812206
 23
-0.8503585377725262
 33
0.0
 11
17.87654686703749
 21
6.9282033132652359
 31
0.0
 11
17.657883003836897
 21
6.5252172737731247
 31
0.0
 11
17.489342772607898
 21
6.0978590496301477
 31
0.0
 11
17.379883261894133
 21
5.6521307521127078
 31
0.0
 11
17.340648443322792
 21
5.196152422706632
 31
0.0
 11
17.379883270091199
 21
4.7401741143206255
 31
0.0
 11
17.48934278292003
 21
4.2944458383914972
 31
0.0
 11
17.657883011172466
 21
3.867087635269947
 31
0.0
 11
17.87654686703749
 21
3.4641016151377535
 31
0.0
  0
SPLINE
  5
30
100
AcDbEntity
  8
0
  6
CONTINUOUS
 62
               7
100
AcDbSpline
210
0.0
220
0.0
230
1.0
 70
               0
 71
               3
 72
               0
 73
               0
 74
               9
 44
0.000001
 12
-0.295576747836881
 22
-0.9553189970570944
 32
0.0
 13
0.2955767477084801
 23
-0.9553189970968219
 33
0.0
 11
17.87654686703749
 21
3.4641016151377535
 31
0.0
 11
17.646943077103849
 21
2.6163298786851756
 31
0.0
 11
17.479086698612267
 21
1.7536909208005196
 31
0.0
 11
17.375801529416478
 21
0.8793895990476759
 31
0.0
 11
17.340648443322792
 21
0.0000000176365411
 31
0.0
 11
17.375801527463519
 21
-0.8793895726592483
 31
0.0
 11
17.479086696054239
 21
-1.7536909033617714
 31
0.0
 11
17.646943075215034
 21
-2.6163298700892699
 31
0.0
 11
17.87654686703749
 21
-3.4641016151377544
 31
0.0
  0
SPLINE
  5
31
100
AcDbEntity
  8
0
  6
CONTINUOUS
 62
               7
100
AcDbSpline
210
0.0
220
0.0
230
1.0
 70
               0
 71
               3
 72
               0
 73
               0
 74
               9
 44
0.000001
 12
-0.5262037333667072
 22
-0.8503585308509225
 32
0.0
 13
0.5262037220972626
 23
-0.8503585378244796
 33
0.0
 11
17.87654686703749
 21
-3.4641016151377553
 31
0.0
 11
17.657883006694242
 21
-3.867087633648834
 31
0.0
 11
17.489342776369451
 21
-4.2944458368545995
 31
0.0
 11
17.379883264676291
 21
-4.7401741135924444
 31
0.0
 11
17.340648443322792
 21
-5.196152422706632
 31
0.0
 11
17.379883265481883
 21
-5.6521307103109502
 31
0.0
 11
17.489342771737956
 21
-6.0978589661475047
 31
0.0
 11
17.657882991567945
 21
-6.5252171500668457
 31
0.0
 11
17.876546837235168
 21
-6.9282031519075327
 31
0.0
  0
SPLINE
  5
32
100
AcDbEntity
  8
0
  6
CONTINUOUS
 62
               7
100
AcDbSpline
210
0.0
220
0.0
230
1.0
 70
               0
 71
               3
 72
               0
 73
               0
 74
               9
 44
0.000001
 12
0.2760296115315898
 22
-0.961149131798869
 32
0.0
 13
-0.2760296115593268
 23
-0.9611491317909032
 33
0.0
 11
14.751288694035722
 21
6.9282032302755177
 31
0.0
 11
14.858138902148095
 21
6.5031345321229104
 31
0.0
 11
14.936019488639065
 21
6.0715933866238458
 31
0.0
 11
14.983787093487988
 21
5.6349668118033165
 31
0.0
 11
15.0
 21
5.1961524203750571
 31
0.0
 11
14.98378709324688
 21
4.757338030120339
 31
0.0
 11
14.936019488322527
 21
4.3207114564807956
 31
0.0
 11
14.858138901913888
 21
3.8891703121502172
 31
0.0
 11
14.751288694035722
 21
3.4641016151374657
 31
0.0
  0
SPLINE
  5
33
100
AcDbEntity
  8
0
  6
CONTINUOUS
 62
               7
100
AcDbSpline
210
0.0
220
0.0
230
1.0
 70
               0
 71
               3
 72
               0
 73
               0
 74
               9
 44
0.000001
 12
0.142135661111531
 22
-0.9898471871154598
 32
0.0
 13
-0.1421356611115311
 23
-0.9898471871154597
 33
0.0
 11
14.751288694035722
 21
3.4641016151374657
 31
0.0
 11
14.859583452938171
 21
2.6022491409783446
 31
0.0
 11
14.937349319106689
 21
1.7369903167282494
 31
0.0
 11
14.984282392252686
 21
0.8690358988493987
 31
0.0
 11
15.0
 21
0.0
 31
0.0
 11
14.984282392252691
 21
-0.8690358988494711
 31
0.0
 11
14.937349319106698
 21
-1.736990316728394
 31
0.0
 11
14.859583452938178
 21
-2.6022491409785609
 31
0.0
 11
14.751288694035722
 21
-3.4641016151377535
 31
0.0
  0
SPLINE
  5
34
100
AcDbEntity
  8
0
  6
CONTINUOUS
 62
               7
100
AcDbSpline
210
0.0
220
0.0
230
1.0
 70
               0
 71
               3
 72
               0
 73
               0
 74
               9
 44
0.000001
 12
0.2760295701275587
 22
-0.9611491436895707
 32
0.0
 13
-0.2760296529713292
 23
-0.9611491198979103
 33
0.0
 11
14.751288694035722
 21
-3.4641016151377535
 31
0.0
 11
14.858139251786543
 21
-3.8891720149315723
 31
0.0
 11
14.936019961186673
 21
-4.3207149048149676
 31
0.0
 11
14.98378745342869
 21
-4.7573432426799691
 31
0.0
 11
15.0
 21
-5.1961593860395112
 31
0.0
 11
14.983786733308973
 21
-5.6349720243628632
 31
0.0
 11
14.936019015778522
 21
-6.0715968349580862
 31
0.0
 11
14.858138552278065
 21
-6.5031362349043729
 31
0.0
 11
14.751288694035722
 21
-6.9282032302754981
 31
0.0
  0
SPLINE
  5
35
100
AcDbEntity
  8
0
  6
CONTINUOUS
 62
               7
100
AcDbSpline
210
0.0
220
0.0
230
1.0
 70
               0
 71
               3
 72
               0
 73
               0
 74
               9
 44
0.000001
 12
-0.27602961153159
 22
-0.961149131798869
 32
0.0
 13
0.2760296115593265
 23
-0.9611491317909033
 33
0.0
 11
0.248711305964278
 21
6.9282032302755177
 31
0.0
 11
0.1418610978519053
 21
6.5031345321229104
 31
0.0
 11
0.063980511360935
 21
6.0715933866238458
 31
0.0
 11
0.016212906512012
 21
5.6349668118033165
 31
0.0
 11
0.0
 21
5.1961524203750571
 31
0.0
 11
0.0162129067531196
 21
4.757338030120339
 31
0.0
 11
0.0639805116774728
 21
4.3207114564807956
 31
0.0
 11
0.141861098086112
 21
3.8891703121502172
 31
0.0
 11
0.248711305964278
 21
3.4641016151374653
 31
0.0
  0
SPLINE
  5
36
100
AcDbEntity
  8
0
  6
CONTINUOUS
 62
               7
100
AcDbSpline
210
0.0
220
0.0
230
1.0
 70
               0
 71
               3
 72
               0
 73
               0
 74
               9
 44
0.000001
 12
-0.1421356611115311
 22
-0.9898471871154597
 32
0.0
 13
0.142135661111531
 23
-0.9898471871154598
 33
0.0
 11
0.248711305964278
 21
3.4641016151374657
 31
0.0
 11
0.1404165470618288
 21
2.6022491409783441
 31
0.0
 11
0.0626506808933118
 21
1.7369903167282494
 31
0.0
 11
0.0157176077473153
 21
0.8690358988493986
 31
0.0
 11
0.0
 21
0.0
 31
0.0
 11
0.0157176077473075
 21
-0.8690358988494711
 31
0.0
 11
0.0626506808933015
 21
-1.736990316728394
 31
0.0
 11
0.1404165470618211
 21
-2.6022491409785609
 31
0.0
 11
0.248711305964278
 21
-3.4641016151377535
 31
0.0
  0
SPLINE
  5
37
100
AcDbEntity
  8
0
  6
CONTINUOUS
 62
               7
100
AcDbSpline
210
0.0
220
0.0
230
1.0
 70
               0
 71
               3
 72
               0
 73
               0
 74
               9
 44
0.000001
 12
-0.2760295701275589
 22
-0.9611491436895707
 32
0.0
 13
0.2760296529713293
 23
-0.9611491198979103
 33
0.0
 11
0.248711305964278
 21
-3.4641016151377535
 31
0.0
 11
0.1418607482134565
 21
-3.8891720149315723
 31
0.0
 11
0.063980038813327
 21
-4.3207149048149676
 31
0.0
 11
0.0162125465713107
 21
-4.7573432426799691
 31
0.0
 11
0.0
 21
-5.1961593860395112
 31
0.0
 11
0.0162132666910268
 21
-5.6349720243628632
 31
0.0
 11
0.063980984221478
 21
-6.0715968349580862
 31
0.0
 11
0.1418614477219342
 21
-6.503136234904372
 31
0.0
 11
0.248711305964278
 21
-6.9282032302754981
 31
0.0
  0
LINE
  5
38
100
AcDbEntity
  8
0
  6
CONTINUOUS
 62
               7
100
AcDbLine
 10
17.0
 20
-4.8640000000000043
 30
0.0
 11
17.0
 21
4.8640000000000079
 31
0.0
  0
LINE
  5
39
100
AcDbEntity
  8
0
  6
CONTINUOUS
 62
               7
100
AcDbLine
 10
17.0
 20
4.8640000000000079
 30
0.0
 11
17.340648443322792
 21
4.8640000000000079
 31
0.0
  0
LINE
  5
3A
100
AcDbEntity
  8
0
  6
CONTINUOUS
 62
               7
100
AcDbLine
 10
17.340648443322792
 20
-4.8640000000000043
 30
0.0
 11
17.0
 21
-4.8640000000000043
 31
0.0
  0
LINE
  5
3B
100
AcDbEntity
  8
0
  6
CONTINUOUS
 62
               2
100
AcDbLine
 10
17.0
 20
4.2830000000000048
 30
0.0
 11
17.340648443322792
 21
4.2830000000000048
 31
0.0
  0
LINE
  5
3C
100
AcDbEntity
  8
0
  6
CONTINUOUS
 62
               2
100
AcDbLine
 10
17.0
 20
-4.2830000000000013
 30
0.0
 11
17.340648443322792
 21
-4.2830000000000013
 31
0.0
  0
LINE
  5
3D
100
AcDbEntity
  8
0
  6
CONTINUOUS
 62
               7
100
AcDbLine
 10
15.0
 20
4.0000000000000036
 30
0.0
 11
17.0
 21
4.0000000000000036
 31
0.0
  0
LINE
  5
3E
100
AcDbEntity
  8
0
  6
CONTINUOUS
 62
               7
100
AcDbLine
 10
15.0
 20
-4.0
 30
0.0
 11
17.0
 21
-4.0
 31
0.0
  0
LINE
  5
3F
100
AcDbEntity
  8
0
  6
CONTINUOUS
 62
               7
100
AcDbLine
 10
15.0
 20
-6.0
 30
0.0
 11
15.0
 21
6.0000000000000036
 31
0.0
  0
LINE
  5
40
100
AcDbEntity
  8
0
  6
CONTINUOUS
 62
               7
100
AcDbLine
 10
14.751288694035722
 20
6.9282032302755177
 30
0.0
 11
0.2487113059642923
 21
6.9282032302755177
 31
0.0
  0
LINE
  5
41
100
AcDbEntity
  8
0
  6
CONTINUOUS
 62
               7
100
AcDbLine
 10
15.0
 20
6.0000000000000036
 30
0.0
 11
14.751288694035722
 21
6.9282032302755177
 31
0.0
  0
LINE
  5
42
100
AcDbEntity
  8
0
  6
CONTINUOUS
 62
               7
100
AcDbLine
 10
0.0
 20
6.0000000000000036
 30
0.0
 11
0.2487113059642923
 21
6.9282032302755177
 31
0.0
  0
LINE
  5
43
100
AcDbEntity
  8
0
  6
CONTINUOUS
 62
               7
100
AcDbLine
 10
0.0
 20
-6.0
 30
0.0
 11
0.2487113059642923
 21
-6.9282032302754999
 31
0.0
  0
LINE
  5
44
100
AcDbEntity
  8
0
  6
CONTINUOUS
 62
               7
100
AcDbLine
 10
15.0
 20
-6.0
 30
0.0
 11
14.751288694035722
 21
-6.9282032302754999
 31
0.0
  0
LINE
  5
45
100
AcDbEntity
  8
0
  6
CONTINUOUS
 62
               7
100
AcDbLine
 10
14.751288694035722
 20
-6.9282032302754999
 30
0.0
 11
0.2487113059642923
 21
-6.9282032302754999
 31
0.0
  0
LINE
  5
46
100
AcDbEntity
  8
0
  6
CONTINUOUS
 62
               7
100
AcDbLine
 10
0.0
 20
-6.0
 30
0.0
 11
0.0
 21
6.0000000000000036
 31
0.0
  0
LINE
  5
47
100
AcDbEntity
  8
0
  6
CONTINUOUS
 62
               7
100
AcDbLine
 10
28.340648443322792
 20
-3.0
 30
0.0
 11
152.0
 21
-3.0
 31
0.0
  0
LINE
  5
48
100
AcDbEntity
  8
0
  6
CONTINUOUS
 62
               7
100
AcDbLine
 10
28.340648443322792
 20
3.0
 30
0.0
 11
152.0
 21
3.0
 31
0.0
  0
LINE
  5
49
100
AcDbEntity
  8
0
  6
CONTINUOUS
 62
               7
100
AcDbLine
 10
158.0
 20
-2.6226497313471437
 30
0.0
 11
158.0
 21
2.622649731347142
 31
0.0
  0
LINE
  5
4A
100
AcDbEntity
  8
0
  6
CONTINUOUS
 62
               7
100
AcDbLine
 10
154.49999999437964
 20
3.8000000000000007
 30
0.0
 11
155.96076952489625
 21
3.8000000000000007
 31
0.0
  0
LINE
  5
4B
100
AcDbEntity
  8
0
  6
CONTINUOUS
 62
               7
100
AcDbLine
 10
153.99999999643626
 20
3.300000002056624
 30
0.0
 11
154.49999999437964
 21
3.8000000000000007
 31
0.0
  0
LINE
  5
4C
100
AcDbEntity
  8
0
  6
CONTINUOUS
 62
               7
100
AcDbLine
 10
153.50000001339404
 20
3.8000000000000007
 30
0.0
 11
153.99999999643626
 21
3.300000002056624
 31
0.0
  0
LINE
  5
4D
100
AcDbEntity
  8
0
  6
CONTINUOUS
 62
               7
100
AcDbLine
 10
154.49999999437964
 20
-3.8000000000000007
 30
0.0
 11
155.96076952489625
 21
-3.8000000000000007
 31
0.0
  0
LINE
  5
4E
100
AcDbEntity
  8
0
  6
CONTINUOUS
 62
               7
100
AcDbLine
 10
153.99999999643626
 20
-3.3000000020566223
 30
0.0
 11
154.49999999437964
 21
-3.8000000000000007
 31
0.0
  0
LINE
  5
4F
100
AcDbEntity
  8
0
  6
CONTINUOUS
 62
               7
100
AcDbLine
 10
153.50000001339404
 20
-3.8000000000000007
 30
0.0
 11
153.99999999643626
 21
-3.3000000020566223
 31
0.0
  0
LINE
  5
50
100
AcDbEntity
  8
0
  6
CONTINUOUS
 62
               7
100
AcDbLine
 10
152.00000000232404
 20
-3.1999999930005529
 30
0.0
 11
152.34641014271921
 21
-3.7999999572377661
 31
0.0
  0
LINE
  5
51
100
AcDbEntity
  8
0
  6
CONTINUOUS
 62
               7
100
AcDbLine
 10
155.9607695215339
 20
-3.8000000019412496
 30
0.0
 11
158.0
 21
-2.6226497313471437
 31
0.0
  0
LINE
  5
52
100
AcDbEntity
  8
0
  6
CONTINUOUS
 62
               7
100
AcDbLine
 10
155.9607695215339
 20
3.8000000019412496
 30
0.0
 11
158.0
 21
2.622649731347142
 31
0.0
  0
LINE
  5
53
100
AcDbEntity
  8
0
  6
CONTINUOUS
 62
               7
100
AcDbLine
 10
152.00000000232404
 20
3.1999999930005529
 30
0.0
 11
152.34641014271921
 21
3.7999999572377661
 31
0.0
  0
LINE
  5
54
100
AcDbEntity
  8
0
  6
CONTINUOUS
 62
               7
100
AcDbLine
 10
152.34641016740801
 20
-3.8000000000000007
 30
0.0
 11
153.50000001339404
 21
-3.8000000000000007
 31
0.0
  0
LINE
  5
55
100
AcDbEntity
  8
0
  6
CONTINUOUS
 62
               7
100
AcDbLine
 10
152.34641016740801
 20
3.8000000000000007
 30
0.0
 11
153.50000001339404
 21
3.8000000000000007
 31
0.0
  0
LINE
  5
56
100
AcDbEntity
  8
0
  6
CONTINUOUS
 62
               7
100
AcDbLine
 10
152.0
 20
3.1999999930005529
 30
0.0
 11
152.0
 21
-3.1999999930005529
 31
0.0
  0
LINE
  5
57
100
AcDbEntity
  8
0
  6
CONTINUOUS
 62
               7
100
AcDbLine
 10
17.876546867042848
 20
6.9282033579687194
 30
0.0
 11
17.340648443322792
 21
6.0000000603895103
 31
0.0
  0
LINE
  5
58
100
AcDbEntity
  8
0
  6
CONTINUOUS
 62
               7
100
AcDbLine
 10
17.340648420006104
 20
-5.9999998671670838
 30
0.0
 11
17.876546837240525
 21
-6.9282031519075318
 31
0.0
  0
LINE
  5
59
100
AcDbEntity
  8
0
  6
CONTINUOUS
 62
               7
100
AcDbLine
 10
28.340648443322792
 20
5.5000000603987829
 30
0.0
 11
27.840648443322792
 21
6.0000000603987829
 31
0.0
  0
LINE
  5
5A
100
AcDbEntity
  8
0
  6
CONTINUOUS
 62
               7
100
AcDbLine
 10
28.340648443322792
 20
-5.4999999396012171
 30
0.0
 11
27.840648443322792
 21
-5.9999999396012171
 31
0.0
  0
LINE
  5
5B
100
AcDbEntity
  8
0
  6
CONTINUOUS
 62
               7
100
AcDbLine
 10
25.804750032574006
 20
6.9282033579687194
 30
0.0
 11
26.340648456288704
 21
6.0000000603987829
 31
0.0
  0
LINE
  5
5C
100
AcDbEntity
  8
0
  6
CONTINUOUS
 62
               7
100
AcDbLine
 10
26.340648464709588
 20
-5.9999998969694062
 30
0.0
 11
25.804750062376328
 21
-6.9282031519075318
 31
0.0
  0
LINE
  5
5D
100
AcDbEntity
  8
0
  6
CONTINUOUS
 62
               7
100
AcDbLine
 10
27.840648443322792
 20
6.0000000603987829
 30
0.0
 11
26.340648443322792
 21
6.0000000603987829
 31
0.0
  0
LINE
  5
5E
100
AcDbEntity
  8
0
  6
CONTINUOUS
 62
               7
100
AcDbLine
 10
27.840648443322792
 20
-5.9999999396012171
 30
0.0
 11
26.340648443322792
 21
-5.9999999396012171
 31
0.0
  0
LINE
  5
5F
100
AcDbEntity
  8
0
  6
CONTINUOUS
 62
               7
100
AcDbLine
 10
25.804750058383576
 20
6.9282033132652359
 30
0.0
 11
17.876546867042848
 21
6.9282033132652359
 31
0.0
  0
LINE
  5
60
100
AcDbEntity
  8
0
  6
CONTINUOUS
 62
               7
100
AcDbLine
 10
25.804750038241593
 20
-6.9282031924676701
 30
0.0
 11
17.876546837240525
 21
-6.9282031924676701
 31
0.0
  0
LINE
  5
61
100
AcDbEntity
  8
0
  6
CONTINUOUS
 62
               7
100
AcDbLine
 10
28.340648443322792
 20
5.5000000603987829
 30
0.0
 11
28.340648443322792
 21
-5.4999999396012171
 31
0.0
  0
LINE
  5
62
100
AcDbEntity
  8
0
  6
CONTINUOUS
 62
               7
100
AcDbLine
 10
17.340648443322792
 20
6.0000000603895067
 30
0.0
 11
17.340648443322792
 21
-5.9999999396012171
 31
0.0
  0
LINE
  5
63
100
AcDbEntity
  8
0
  6
CONTINUOUS
 62
               7
100
AcDbLine
 10
153.50000001339404
 20
-3.8000000000000007
 30
0.0
 11
153.50000001339404
 21
3.8000000000000007
 31
0.0
  0
LINE
  5
64
100
AcDbEntity
  8
0
  6
CONTINUOUS
 62
               7
100
AcDbLine
 10
153.99999999643626
 20
3.300000002056624
 30
0.0
 11
153.99999999643626
 21
-3.300000002056624
 31
0.0
  0
LINE
  5
65
100
AcDbEntity
  8
0
  6
CONTINUOUS
 62
               7
100
AcDbLine
 10
154.49999999437964
 20
-3.8000000000000007
 30
0.0
 11
154.49999999437964
 21
3.8000000000000007
 31
0.0
  0
LINE
  5
66
100
AcDbEntity
  8
0
  6
CONTINUOUS
 62
               7
100
AcDbLine
 10
155.9607695215339
 20
3.8000000019412496
 30
0.0
 11
155.9607695215339
 21
-3.8000000000000007
 31
0.0
  0
LINE
  5
67
100
AcDbEntity
  8
0
  6
CONTINUOUS
 62
               2
100
AcDbLine
 10
146.0
 20
-1.5
 30
0.0
 11
146.0
 21
1.5
 31
0.0
  0
CIRCLE
  5
68
100
AcDbEntity
  8
0
  6
CONTINUOUS
 62
               7
100
AcDbCircle
 10
146.0
 20
0.0
 30
0.0
 40
0.6
  0
LINE
  5
69
100
AcDbEntity
  8
0
  6
CONTINUOUS
 62
               2
100
AcDbLine
 10
136.0
 20
-1.5
 30
0.0
 11
136.0
 21
1.5
 31
0.0
  0
CIRCLE
  5
6A
100
AcDbEntity
  8
0
  6
CONTINUOUS
 62
               7
100
AcDbCircle
 10
136.0
 20
0.0
 30
0.0
 40
0.6
  0
LINE
  5
6B
100
AcDbEntity
  8
0
  6
CONTINUOUS
 62
               2
100
AcDbLine
 10
126.0
 20
-1.5
 30
0.0
 11
126.0
 21
1.5
 31
0.0
  0
CIRCLE
  5
6C
100
AcDbEntity
  8
0
  6
CONTINUOUS
 62
               7
100
AcDbCircle
 10
126.0
 20
0.0
 30
0.0
 40
0.6
  0
LINE
  5
6D
100
AcDbEntity
  8
0
  6
CONTINUOUS
 62
               2
100
AcDbLine
 10
116.0
 20
-1.5
 30
0.0
 11
116.0
 21
1.5
 31
0.0
  0
CIRCLE
  5
6E
100
AcDbEntity
  8
0
  6
CONTINUOUS
 62
               7
100
AcDbCircle
 10
116.0
 20
0.0
 30
0.0
 40
0.6
  0
LINE
  5
6F
100
AcDbEntity
  8
0
  6
CONTINUOUS
 62
               2
100
AcDbLine
 10
106.0
 20
-1.5
 30
0.0
 11
106.0
 21
1.5
 31
0.0
  0
CIRCLE
  5
70
100
AcDbEntity
  8
0
  6
CONTINUOUS
 62
               7
100
AcDbCircle
 10
106.0
 20
0.0
 30
0.0
 40
0.6
  0
LINE
  5
71
100
AcDbEntity
  8
0
  6
CONTINUOUS
 62
               2
100
AcDbLine
 10
96.0
 20
-1.5
 30
0.0
 11
96.0
 21
1.5
 31
0.0
  0
CIRCLE
  5
72
100
AcDbEntity
  8
0
  6
CONTINUOUS
 62
               7
100
AcDbCircle
 10
96.0
 20
0.0
 30
0.0
 40
0.6
  0
LINE
  5
73
100
AcDbEntity
  8
0
  6
CONTINUOUS
 62
               7
100
AcDbLine
 10
26.340648456288704
 20
6.0000000603987829
 30
0.0
 11
26.340648456288704
 21
-5.9999999396012171
 31
0.0
  0
LINE
  5
74
100
AcDbEntity
  8
0
  6
CONTINUOUS
 62
               7
100
AcDbLine
 10
25.804750032574006
 20
3.4641016151377535
 30
0.0
 11
17.87654686703749
 21
3.4641016151377535
 31
0.0
  0
LINE
  5
75
100
AcDbEntity
  8
0
  6
CONTINUOUS
 62
               7
100
AcDbLine
 10
25.804750032574006
 20
-3.4641016151377553
 30
0.0
 11
17.87654686703749
 21
-3.4641016151377553
 31
0.0
  0
LINE
  5
76
100
AcDbEntity
  8
0
  6
CONTINUOUS
 62
               7
100
AcDbLine
 10
14.751288694035722
 20
3.4641016151374551
 30
0.0
 11
0.248711305964278
 21
3.4641016151374551
 31
0.0
  0
LINE
  5
77
100
AcDbEntity
  8
0
  6
CONTINUOUS
 62
               7
100
AcDbLine
 10
0.248711305964278
 20
-3.4641016151377535
 30
0.0
 11
14.751288694035722
 21
-3.4641016151377535
 31
0.0
  0
LINE
  5
78
100
AcDbEntity
  8
0
  6
CONTINUOUS
 62
               7
100
AcDbLine
 10
27.840648443322792
 20
6.0000000603987829
 30
0.0
 11
27.840648443322792
 21
-5.9999999396012171
 31
0.0
  0
ENDBLK
  5
79
100
AcDbEntity
  8
0
100
AcDbBlockEnd
  0
BLOCK
  5
7A
100
AcDbEntity
  8
0
100
AcDbBlockBegin
  2
DTRY-ADN-100B-2
 70
               0
 10
0.0
 20
0.0
 30
0.0
  3
DTRY-ADN-100B-2
  1

  0
CIRCLE
  5
7B
100
AcDbEntity
  8
0
  6
CONTINUOUS
 62
               7
100
AcDbCircle
 10
0.0
 20
0.0
 30
0.0
 40
2.622649731347142
  0
CIRCLE
  5
7C
100
AcDbEntity
  8
0
  6
CONTINUOUS
 62
               7
100
AcDbCircle
 10
0.0
 20
0.0
 30
0.0
 40
3.8000000000000007
  0
CIRCLE
  5
7D
100
AcDbEntity
  8
0
  6
CONTINUOUS
 62
               7
100
AcDbCircle
 10
0.0
 20
0.0
 30
0.0
 40
5.5000000603987829
  0
CIRCLE
  5
7E
100
AcDbEntity
  8
0
  6
CONTINUOUS
 62
               7
100
AcDbCircle
 10
-0.0000000000000284
 20
0.0
 30
0.0
 40
6.0
  0
LINE
  5
7F
100
AcDbEntity
  8
0
  6
CONTINUOUS
 62
               7
100
AcDbLine
 10
-0.0000000000000284
 20
6.9282032302755105
 30
0.0
 11
-6.0000000000000142
 21
3.4641016151377535
 31
0.0
  0
LINE
  5
80
100
AcDbEntity
  8
0
  6
CONTINUOUS
 62
               7
100
AcDbLine
 10
-6.0000000000000142
 20
-3.4641016151377535
 30
0.0
 11
-0.0000000000000284
 21
-6.9282032302755105
 31
0.0
  0
LINE
  5
81
100
AcDbEntity
  8
0
  6
CONTINUOUS
 62
               2
100
AcDbLine
 10
-8.0000000000000142
 20
0.0
 30
0.0
 11
7.9999999999999716
 21
0.0
 31
0.0
  0
LINE
  5
82
100
AcDbEntity
  8
0
  6
CONTINUOUS
 62
               7
100
AcDbLine
 10
-0.0000000000000284
 20
-6.9282032302755088
 30
0.0
 11
5.9999999999999716
 21
-3.4641016151377553
 31
0.0
  0
LINE
  5
83
100
AcDbEntity
  8
0
  6
CONTINUOUS
 62
               7
100
AcDbLine
 10
5.9999999999999716
 20
3.4641016151377571
 30
0.0
 11
-0.0000000000000284
 21
6.928203230275507
 31
0.0
  0
LINE
  5
84
100
AcDbEntity
  8
0
  6
CONTINUOUS
 62
               7
100
AcDbLine
 10
5.9999999999999716
 20
-3.4641016151377553
 30
0.0
 11
5.9999999999999716
 21
3.4641016151377571
 31
0.0
  0
LINE
  5
85
100
AcDbEntity
  8
0
  6
CONTINUOUS
 62
               2
100
AcDbLine
 10
0.0
 20
8.8355658854779939
 30
0.0
 11
0.0
 21
-9.3906547134993552
 31
0.0
  0
LINE
  5
86
100
AcDbEntity
  8
0
  6
CONTINUOUS
 62
               7
100
AcDbLine
 10
-6.0000000000000142
 20
3.4641016151377535
 30
0.0
 11
-6.0000000000000142
 21
-3.4641016151377535
 31
0.0
  0
ENDBLK
  5
87
100
AcDbEntity
  8
0
100
AcDbBlockEnd
  0
ENDSEC
  0
SECTION
  2
ENTITIES
  0
INSERT
  5
88
100
AcDbEntity
  8
0
  6
ByBlock
100
AcDbBlockReference
  2
DTRY-ADN-100B-1
 10
-102.45879358755238
 20
11.820046905662803
 30
0.0
  0
INSERT
  5
89
100
AcDbEntity
  8
0
  6
ByBlock
100
AcDbBlockReference
  2
DTRY-ADN-100B-2
 10
92.123944014399484
 20
11.820046905662803
 30
0.0
  0
MTEXT
  5
8A
100
AcDbEntity
  8
0
  6
CONTINUOUS
 62
               7
100
AcDbMText
 10
-129.42640892271712
 20
74.5
 30
0.0
 40
3.1999998092651367
 41
0.0
 71
               4
 72
               1
  1
\W1.075;\A1;MODEL:DTRY-ADN-100B
  0
MTEXT
  5
8B
100
AcDbEntity
  8
0
  6
CONTINUOUS
 62
               7
100
AcDbMText
 10
93.749460389051933
 20
89.5
 30
0.0
 40
3.1999998092651367
 41
0.0
 71
               4
 72
               1
  1
\W1.311;\A1;Ver. 1.0
  0
MTEXT
  5
8C
100
AcDbEntity
  8
0
  6
CONTINUOUS
 62
               7
100
AcDbMText
 10
77.440523981154129
 20
-89.800003051757812
 30
0.0
 40
4.5
 41
0.0
 71
               4
 72
               1
  1
\W1.121;\A1;KOGANEI CORP.
  0
LINE
  5
8D
100
AcDbEntity
  8
0
  6
CONTINUOUS
 62
               7
100
AcDbLine
 10
-73.399993896484375
 20
94.5
 30
0.0
 11
-73.399993896484375
 21
84.5
 31
0.0
  0
LINE
  5
8E
100
AcDbEntity
  8
0
  6
CONTINUOUS
 62
               7
100
AcDbLine
 10
73.350006103515625
 20
94.5
 30
0.0
 11
73.350006103515625
 21
84.5
 31
0.0
  0
LINE
  5
8F
100
AcDbEntity
  8
0
  6
CONTINUOUS
 62
               7
100
AcDbLine
 10
73.350006103515625
 20
-84.800003051757813
 30
0.0
 11
73.350006103515625
 21
-94.800003051757812
 31
0.0
  0
LINE
  5
90
100
AcDbEntity
  8
0
  6
CONTINUOUS
 62
               7
100
AcDbLine
 10
73.350006103515625
 20
84.5
 30
0.0
 11
138.35000610351562
 21
84.5
 31
0.0
  0
LINE
  5
91
100
AcDbEntity
  8
0
  6
CONTINUOUS
 62
               7
100
AcDbLine
 10
-138.39999389648437
 20
84.5
 30
0.0
 11
-73.399993896484375
 21
84.5
 31
0.0
  0
LINE
  5
92
100
AcDbEntity
  8
0
  6
CONTINUOUS
 62
               7
100
AcDbLine
 10
73.350006103515625
 20
-84.800003051757813
 30
0.0
 11
138.35000610351562
 21
-84.800003051757813
 31
0.0
  0
LINE
  5
93
100
AcDbEntity
  8
0
  6
CONTINUOUS
 62
               7
100
AcDbLine
 10
-138.39999389648437
 20
94.5
 30
0.0
 11
-138.39999389648437
 21
-94.800003051757812
 31
0.0
  0
LINE
  5
94
100
AcDbEntity
  8
0
  6
CONTINUOUS
 62
               7
100
AcDbLine
 10
-138.39999389648437
 20
-94.800003051757812
 30
0.0
 11
138.35000610351562
 21
-94.800003051757812
 31
0.0
  0
LINE
  5
95
100
AcDbEntity
  8
0
  6
CONTINUOUS
 62
               7
100
AcDbLine
 10
138.35000610351562
 20
94.5
 30
0.0
 11
138.35000610351562
 21
-94.800003051757812
 31
0.0
  0
LINE
  5
96
100
AcDbEntity
  8
0
  6
CONTINUOUS
 62
               7
100
AcDbLine
 10
-138.39999389648437
 20
94.5
 30
0.0
 11
138.35000610351562
 21
94.5
 31
0.0
  0
MTEXT
  5
97
100
AcDbEntity
  8
0
  6
CONTINUOUS
 62
               3
100
AcDbMText
 10
-20.288880749389694
 20
29.669297653739612
 30
0.0
 40
3.1999950408935547
 41
0.0
 71
               4
 72
               1
  1
\W1.065;\A1;STRETCH LINE
  0
MTEXT
  5
98
100
AcDbEntity
  8
0
  6
CONTINUOUS
 62
               7
100
AcDbMText
 10
-116.56665992736816
 20
93.099999841054284
 30
0.0
 40
3.1999998092651367
 41
0.0
 71
               1
 72
               1
  1
\A1;CRECEED
  0
MTEXT
  5
99
100
AcDbEntity
  8
0
  6
CONTINUOUS
 62
               7
100
AcDbMText
 10
-116.51051956841908
 20
89.099999841054284
 30
0.0
 40
3.1999998092651367
 41
0.0
 71
               1
 72
               1
  1
\W1.105;\A1;IONIZOR
  0
MTEXT
  5
9A
100
AcDbEntity
  8
0
  6
CONTINUOUS
 62
               7
100
AcDbMText
 10
-113.43191769711649
 20
-64.00000305175783
 30
0.0
 40
3.1999950408935547
 41
0.0
 71
               4
 72
               1
  1
\W1.065;\A1;STRETCH LIST
  0
MTEXT
  5
9B
100
AcDbEntity
  8
0
  6
CONTINUOUS
 62
               7
100
AcDbMText
 10
-78.114273210372403
 20
-82.200003051757847
 30
0.0
 40
3.1999950408935547
 41
0.0
 71
               4
 72
               1
  1
\W1.286;\A1;100
  0
MTEXT
  5
9C
100
AcDbEntity
  8
0
  6
CONTINUOUS
 62
               7
100
AcDbMText
 10
-126.25139355840666
 20
-82.200003051757847
 30
0.0
 40
3.1999950408935547
 41
0.0
 71
               4
 72
               1
  1
\W1.029;\A1;DTRY-ADN200B
  0
MTEXT
  5
9D
100
AcDbEntity
  8
0
  6
CONTINUOUS
 62
               7
100
AcDbMText
 10
-74.959991449991833
 20
-77.00000305175783
 30
0.0
 40
3.1999998092651367
 41
0.0
 71
               4
 72
               1
  1
\W1.200;\A1;0
  0
MTEXT
  5
9E
100
AcDbEntity
  8
0
  6
CONTINUOUS
 62
               7
100
AcDbMText
 10
-126.23525913904803
 20
-77.00000305175783
 30
0.0
 40
3.1999950408935547
 41
0.0
 71
               4
 72
               1
  1
\W1.059;\A1;DTRY-ADN100B
  0
MTEXT
  5
9F
100
AcDbEntity
  8
0
  6
CONTINUOUS
 62
               7
100
AcDbMText
 10
-84.666643238067621
 20
-71.800003051757841
 30
0.0
 40
3.1999998092651367
 41
0.0
 71
               4
 72
               1
  1
\A1;STRETCH
  0
MTEXT
  5
A0
100
AcDbEntity
  8
0
  6
CONTINUOUS
 62
               7
100
AcDbMText
 10
-113.4666506767273
 20
-71.800003051757841
 30
0.0
 40
3.1999998092651367
 41
0.0
 71
               4
 72
               1
  1
\A1;TYPE
  0
LINE
  5
A1
100
AcDbEntity
  8
0
  6
CONTINUOUS
 62
               7
100
AcDbLine
 10
-61.199993896484372
 20
-69.200003051757832
 30
0.0
 11
-61.199993896484372
 21
-84.800003051757813
 31
0.0
  0
LINE
  5
A2
100
AcDbEntity
  8
0
  6
CONTINUOUS
 62
               7
100
AcDbLine
 10
-86.799993896484366
 20
-69.200003051757832
 30
0.0
 11
-86.799993896484366
 21
-84.800003051757813
 31
0.0
  0
LINE
  5
A3
100
AcDbEntity
  8
0
  6
CONTINUOUS
 62
               7
100
AcDbLine
 10
-128.39999389648437
 20
-69.200003051757832
 30
0.0
 11
-128.39999389648437
 21
-84.800003051757813
 31
0.0
  0
LINE
  5
A4
100
AcDbEntity
  8
0
  6
CONTINUOUS
 62
               7
100
AcDbLine
 10
-128.39999389648437
 20
-84.800003051757827
 30
0.0
 11
-61.199993896484372
 21
-84.800003051757827
 31
0.0
  0
LINE
  5
A5
100
AcDbEntity
  8
0
  6
CONTINUOUS
 62
               7
100
AcDbLine
 10
-128.39999389648437
 20
-79.600003051757838
 30
0.0
 11
-61.199993896484372
 21
-79.600003051757838
 31
0.0
  0
LINE
  5
A6
100
AcDbEntity
  8
0
  6
CONTINUOUS
 62
               7
100
AcDbLine
 10
-128.39999389648437
 20
-74.400003051757835
 30
0.0
 11
-61.199993896484372
 21
-74.400003051757835
 31
0.0
  0
LINE
  5
A7
100
AcDbEntity
  8
0
  6
CONTINUOUS
 62
               7
100
AcDbLine
 10
-128.39999389648437
 20
-69.200003051757832
 30
0.0
 11
-61.199993896484372
 21
-69.200003051757832
 31
0.0
  0
LINE
  5
A9
100
AcDbEntity
  8
0
  6
PHANTOM
 62
               3
100
AcDbLine
 10
-1.4979391119701191
 20
24.119884084055347
 30
0.0
 11
-1.4979391119701191
 21
-0.1239639802251489
 31
0.0
  0
ENDSEC
  0
SECTION
  2
OBJECTS
  0
DICTIONARY
  5
19
100
AcDbDictionary
  3
ACAD_GROUP
350
1A
  3
ACAD_MLINESTYLE
350
1B
  0
DICTIONARY
  5
1A
102
{ACAD_REACTORS
330
19
102
}
100
AcDbDictionary
  0
DICTIONARY
  5
1B
102
{ACAD_REACTORS
330
19
102
}
100
AcDbDictionary
  3
STANDARD
350
1C
  0
MLINESTYLE
  5
1C
102
{ACAD_REACTORS
330
1B
102
}
100
AcDbMlineStyle
  2
Standard
 70
               0
  3

 62
               0
 51
90.0
 52
90.0
 71
               2
 49
0.5
 62
             256
  6
ByLayer
 49
-0.5
 62
             256
  6
ByLayer
  0
ENDSEC
  0
EOF
