  0
SECTION
  2
HEADER
  9
$ACADVER
  1
AC1012
  9
$DWGCODEPAGE
  3
dos932
  9
$INSBASE
 10
0.0
 20
0.0
 30
0.0
  9
$EXTMIN
 10
-399.52490234375
 20
-276.5
 30
0.0
  9
$EXTMAX
 10
405.77491474151611
 20
277.00000047683716
 30
0.0
  9
$LIMMIN
 10
-399.52490234375
 20
-276.5
  9
$LIMMAX
 10
405.77491474151611
 20
277.00000047683716
  9
$ORTHOMODE
 70
               0
  9
$REGENMODE
 70
               1
  9
$FILLMODE
 70
               1
  9
$QTEXTMODE
 70
               0
  9
$MIRRTEXT
 70
               1
  9
$DRAGMODE
 70
               2
  9
$LTSCALE
 40
1.0
  9
$OSMODE
 70
               0
  9
$ATTMODE
 70
               1
  9
$TEXTSIZE
 40
3.2000000476837158
  9
$TRACEWID
 40
0.05
  9
$TEXTSTYLE
  7
MX_NOTE_STANDARD
  9
$CLAYER
  8
0
  9
$CELTYPE
  6
CONTINUOUS
  9
$CECOLOR
 62
             256
  9
$CELTSCALE
 40
1.0
  9
$DELOBJ
 70
               1
  9
$DISPSILH
 70
               0
  9
$DIMSCALE
 40
1.0
  9
$DIMASZ
 40
2.5
  9
$DIMEXO
 40
1.5
  9
$DIMDLI
 40
3.75
  9
$DIMRND
 40
0.0
  9
$DIMDLE
 40
0.0
  9
$DIMEXE
 40
1.5
  9
$DIMTP
 40
0.0
  9
$DIMTM
 40
0.0
  9
$DIMTXT
 40
3.2000000476837158
  9
$DIMCEN
 40
2.5
  9
$DIMTSZ
 40
0.0
  9
$DIMTOL
 70
               0
  9
$DIMLIM
 70
               0
  9
$DIMTIH
 70
               0
  9
$DIMTOH
 70
               0
  9
$DIMSE1
 70
               0
  9
$DIMSE2
 70
               0
  9
$DIMTAD
 70
               1
  9
$DIMZIN
 70
               8
  9
$DIMBLK
  1

  9
$DIMASO
 70
               1
  9
$DIMSHO
 70
               1
  9
$DIMPOST
  1

  9
$DIMAPOST
  1

  9
$DIMALT
 70
               0
  9
$DIMALTD
 70
               4
  9
$DIMALTF
 40
0.03937007874016
  9
$DIMLFAC
 40
1.0
  9
$DIMTOFL
 70
               1
  9
$DIMTVP
 40
0.0
  9
$DIMTIX
 70
               0
  9
$DIMSOXD
 70
               0
  9
$DIMSAH
 70
               0
  9
$DIMBLK1
  1

  9
$DIMBLK2
  1

  9
$DIMSTYLE
  2
MXDIMSTYLE
  9
$DIMCLRD
 70
               0
  9
$DIMCLRE
 70
               0
  9
$DIMCLRT
 70
               0
  9
$DIMTFAC
 40
1.0
  9
$DIMGAP
 40
1.0
  9
$DIMJUST
 70
               0
  9
$DIMSD1
 70
               0
  9
$DIMSD2
 70
               0
  9
$DIMTOLJ
 70
               1
  9
$DIMTZIN
 70
               0
  9
$DIMALTZ
 70
               0
  9
$DIMALTTZ
 70
               0
  9
$DIMFIT
 70
               3
  9
$DIMUPT
 70
               1
  9
$DIMUNIT
 70
               2
  9
$DIMDEC
 70
               4
  9
$DIMTDEC
 70
               4
  9
$DIMALTU
 70
               2
  9
$DIMALTTD
 70
               4
  9
$DIMTXSTY
  7
MX_NOTE_STANDARD
  9
$DIMAUNIT
 70
               0
  9
$LUNITS
 70
               2
  9
$LUPREC
 70
               4
  9
$SKETCHINC
 40
0.1
  9
$FILLETRAD
 40
0.0
  9
$AUNITS
 70
               0
  9
$AUPREC
 70
               0
  9
$MENU
  1
acad
  9
$ELEVATION
 40
0.0
  9
$PELEVATION
 40
0.0
  9
$THICKNESS
 40
0.0
  9
$LIMCHECK
 70
               0
  9
$BLIPMODE
 70
               1
  9
$CHAMFERA
 40
0.0
  9
$CHAMFERB
 40
0.0
  9
$CHAMFERC
 40
0.0
  9
$CHAMFERD
 40
0.0
  9
$SKPOLY
 70
               0
  9
$TDCREATE
 40
2453668.382372685
  9
$TDUPDATE
 40
2453668.382372685
  9
$TDINDWG
 40
0.0000000000
  9
$TDUSRTIMER
 40
0.0000000000
  9
$USRTIMER
 70
               1
  9
$ANGBASE
 50
0.0
  9
$ANGDIR
 70
               0
  9
$PDMODE
 70
               0
  9
$PDSIZE
 40
0.0
  9
$PLINEWID
 40
0.0
  9
$COORDS
 70
               1
  9
$SPLFRAME
 70
               0
  9
$SPLINETYPE
 70
               6
  9
$SPLINESEGS
 70
               8
  9
$ATTDIA
 70
               0
  9
$ATTREQ
 70
               1
  9
$HANDLING
 70
               1
  9
$HANDSEED
  5
2A9
  9
$SURFTAB1
 70
               6
  9
$SURFTAB2
 70
               6
  9
$SURFTYPE
 70
               6
  9
$SURFU
 70
               6
  9
$SURFV
 70
               6
  9
$UCSNAME
  2

  9
$UCSORG
 10
0.0
 20
0.0
 30
0.0
  9
$UCSXDIR
 10
1.0
 20
0.0
 30
0.0
  9
$UCSYDIR
 10
0.0
 20
1.0
 30
0.0
  9
$PUCSNAME
  2

  9
$PUCSORG
 10
0.0
 20
0.0
 30
0.0
  9
$PUCSXDIR
 10
1.0
 20
0.0
 30
0.0
  9
$PUCSYDIR
 10
0.0
 20
1.0
 30
0.0
  9
$USERI1
 70
               0
  9
$USERI2
 70
               0
  9
$USERI3
 70
               0
  9
$USERI4
 70
               0
  9
$USERI5
 70
               0
  9
$USERR1
 40
0.0
  9
$USERR2
 40
0.0
  9
$USERR3
 40
0.0
  9
$USERR4
 40
0.0
  9
$USERR5
 40
0.0
  9
$WORLDVIEW
 70
               1
  9
$SHADEDGE
 70
               3
  9
$SHADEDIF
 70
              70
  9
$TILEMODE
 70
               1
  9
$MAXACTVP
 70
              16
  9
$PINSBASE
 10
0.0
 20
0.0
 30
0.0
  9
$PLIMCHECK
 70
               0
  9
$PEXTMIN
 10
1.0000000000000000E+20
 20
1.0000000000000000E+20
 30
1.0000000000000000E+20
  9
$PEXTMAX
 10
-1.0000000000000000E+20
 20
-1.0000000000000000E+20
 30
-1.0000000000000000E+20
  9
$PLIMMIN
 10
0.0
 20
0.0
  9
$PLIMMAX
 10
12.0
 20
9.0
  9
$UNITMODE
 70
               0
  9
$VISRETAIN
 70
               0
  9
$PLINEGEN
 70
               1
  9
$PSLTSCALE
 70
               0
  9
$TREEDEPTH
 70
            3020
  9
$PICKSTYLE
 70
               1
  9
$CMLSTYLE
  2
Standard
  9
$CMLJUST
 70
               0
  9
$CMLSCALE
 40
1.0
  9
$SAVEIMAGES
 70
               0
  0
ENDSEC
  0
SECTION
  2
CLASSES
  0
CLASS
  1
LWPOLYLINE
  2
AcDbPolyline
  3
"AutoCAD"
 90
        0
280
               0
281
               1
  0
CLASS
  1
IMAGE
  2
AcDbRasterImage
  3
ISM
 90
      127
280
               0
281
               1
  0
CLASS
  1
OLE2FRAME
  2
AcDbOle2Frame
  3
""
 90
        0
280
               0
281
               1
  0
CLASS
  1
HATCH
  2
AcDbHatch
  3
"ACAD_SEDONA"
 90
        0
280
               0
281
               1
  0
CLASS
  1
DICTIONARYVAR
  2
AcDbDictionaryVar
  3
"AutoCAD"
 90
        0
280
               0
281
               0
  0
CLASS
  1
RASTERVARIABLES
  2
AcDbRasterVariables
  3
ISM
 90
        0
280
               0
281
               0
  0
CLASS
  1
IMAGEDEF
  2
AcDbRasterImageDef
  3
ISM
 90
        0
280
               0
281
               0
  0
CLASS
  1
IMAGEDEF_REACTOR
  2
AcDbRasterImageDefReactor
  3
ISM
 90
        1
280
               0
281
               0
  0
CLASS
  1
IDBUFFER
  2
AcDbIdBuffer
  3
"Acad"
 90
        0
280
               0
281
               0
  0
CLASS
  1
SPATIAL_FILTER
  2
AcDbSpatialFilter
  3
"Acad"
 90
        0
280
               0
281
               0
  0
CLASS
  1
XRECORD
  2
AcDbXrecord
  3
"<Built In>"
 90
        0
280
               0
281
               0
  0
CLASS
  1
SORTENTSTABLE
  2
AcDbSortentsTable
  3
"AutoCAD"
 90
        0
280
               0
281
               0
  0
CLASS
  1
LAYER_INDEX
  2
AcDbLayerIndex
  3
"Acad"
 90
        0
280
               0
281
               0
  0
CLASS
  1
SPATIAL_INDEX
  2
AcDbSpatialIndex
  3
"Acad"
 90
        0
280
               0
281
               0
  0
CLASS
  1
OBJECT_PTR
  2
CAseDLPNTableRecord
  3
"ASE-LPNTableRecord"
 90
        1
280
               0
281
               0
  0
CLASS
  1
LAYOUT
  2
AcDbLayout
  3
"AutoCAD 2000"
 90
        1
280
               0
281
               0
  0
CLASS
  1
PLOTSETTINGS
  2
AcDbPlotSettings
  3
"AutoCAD 2000"
 90
        1
280
               0
281
               0
  0
CLASS
  1
ACDBDICTIONARYWDFLT
  2
AcDbDictionaryWithDefault
  3
"AutoCAD 2000"
 90
        1
280
               0
281
               0
  0
CLASS
  1
ACDBPLACEHOLDER
  2
AcDbPlaceHolder
  3
"AutoCAD 2000"
 90
        1
280
               0
281
               0
  0
ENDSEC
  0
SECTION
  2
TABLES
  0
TABLE
  2
VPORT
  5
7
100
AcDbSymbolTable
 70
               1
  0
VPORT
  5
15
100
AcDbSymbolTableRecord
100
AcDbViewportTableRecord
  2
*ACTIVE
 70
               0
 10
0.0
 20
0.0
 11
1.0
 21
1.0
 12
3.1250061988830566
 22
0.2500002384185791
 13
0.0
 23
0.0
 14
1.0
 24
1.0
 15
0.0
 25
0.0
 16
0.0
 26
0.0
 36
1.0
 17
0.0
 27
0.0
 37
0.0
 40
559.03500048160549
 41
1.7320508075688772
 42
50.0
 43
0.0
 44
0.0
 50
0.0
 51
0.0
 71
               0
 72
             100
 73
               1
 74
               1
 75
               0
 76
               0
 77
               0
 78
               0
  0
ENDTAB
  0
TABLE
  2
LTYPE
  5
4
100
AcDbSymbolTable
 70
               3
  0
LTYPE
  5
11
100
AcDbSymbolTableRecord
100
AcDbLinetypeTableRecord
  2
BYBLOCK
 70
              64
  3

 72
              65
 73
               0
 40
0.0
  0
LTYPE
  5
12
100
AcDbSymbolTableRecord
100
AcDbLinetypeTableRecord
  2
BYLAYER
 70
              64
  3

 72
              65
 73
               0
 40
0.0
  0
LTYPE
  5
13
100
AcDbSymbolTableRecord
100
AcDbLinetypeTableRecord
  2
CONTINUOUS
 70
              64
  3
Solid line
 72
              65
 73
               0
 40
0.0
  0
ENDTAB
  0
TABLE
  2
LAYER
  5
2
100
AcDbSymbolTable
 70
               2
  0
LAYER
  5
14
100
AcDbSymbolTableRecord
100
AcDbLayerTableRecord
  2
0
 70
               0
 62
               7
  6
CONTINUOUS
  0
LAYER
  5
1D
100
AcDbSymbolTableRecord
100
AcDbLayerTableRecord
  2
DEFPOINTS
 70
               0
 62
               7
  6
CONTINUOUS
  0
ENDTAB
  0
TABLE
  2
STYLE
  5
3
100
AcDbSymbolTable
 70
               1
  0
STYLE
  5
17
100
AcDbSymbolTableRecord
100
AcDbTextStyleTableRecord
  2
MX_NOTE_STANDARD
 70
               0
 40
0.0
 41
1.0
 50
0.0
 71
               0
 42
3.2000000476837158
  3
txt.shx
  4
extfont.shx
  0
ENDTAB
  0
TABLE
  2
VIEW
  5
5
100
AcDbSymbolTable
 70
               0
  0
ENDTAB
  0
TABLE
  2
UCS
  5
6
100
AcDbSymbolTable
 70
               0
  0
ENDTAB
  0
TABLE
  2
APPID
  5
8
100
AcDbSymbolTable
 70
               1
  0
APPID
  5
16
100
AcDbSymbolTableRecord
100
AcDbRegAppTableRecord
  2
ACAD
 70
               0
  0
ENDTAB
  0
TABLE
  2
DIMSTYLE
  5
9
100
AcDbSymbolTable
 70
               1
  0
DIMSTYLE
105
18
100
AcDbSymbolTableRecord
100
AcDbDimStyleTableRecord
  2
MXDIMSTYLE
 70
               0
  3

  4

  5

  6

  7

 40
1.0
 41
2.5
 42
1.5
 43
3.75
 44
1.5
 45
0.0
 46
0.0
 47
0.0
 48
0.0
 71
               0
 72
               0
 73
               0
 74
               0
 75
               0
 76
               0
 77
               1
 78
               8
140
3.2000000476837158
141
2.5
142
0.0
143
0.03937007874016
144
1.0
145
0.0
146
1.0
147
1.0
170
               0
171
               4
172
               1
173
               0
174
               0
175
               0
176
               0
177
               0
178
               0
270
               2
271
               4
272
               4
273
               2
274
               4
275
               0
280
               0
281
               0
282
               0
283
               1
284
               0
285
               0
286
               0
287
               3
288
               1
340
17
  0
ENDTAB
  0
TABLE
  2
BLOCK_RECORD
  5
1
100
AcDbSymbolTable
 70
               4
  0
BLOCK_RECORD
  5
A
100
AcDbSymbolTableRecord
100
AcDbBlockTableRecord
  2
*MODEL_SPACE
  0
BLOCK_RECORD
  5
B
100
AcDbSymbolTableRecord
100
AcDbBlockTableRecord
  2
*PAPER_SPACE
  0
BLOCK_RECORD
  5
1E
100
AcDbSymbolTableRecord
100
AcDbBlockTableRecord
  2
DPT-T18-V-1
  0
BLOCK_RECORD
  5
1F
100
AcDbSymbolTableRecord
100
AcDbBlockTableRecord
  2
DPT-T18-V-2
  0
BLOCK_RECORD
  5
20
100
AcDbSymbolTableRecord
100
AcDbBlockTableRecord
  2
DPT-T18-V-3
  0
BLOCK_RECORD
  5
21
100
AcDbSymbolTableRecord
100
AcDbBlockTableRecord
  2
DPT-T18-V-4
  0
ENDTAB
  0
ENDSEC
  0
SECTION
  2
BLOCKS
  0
BLOCK
  5
D
100
AcDbEntity
  8
0
100
AcDbBlockBegin
  2
*MODEL_SPACE
 70
               0
 10
0.0
 20
0.0
 30
0.0
  3
*MODEL_SPACE
  1

  0
ENDBLK
  5
E
100
AcDbEntity
  8
0
100
AcDbBlockEnd
  0
BLOCK
  5
F
100
AcDbEntity
 67
               1
  8
0
100
AcDbBlockBegin
  2
*PAPER_SPACE
 70
               0
 10
0.0
 20
0.0
 30
0.0
  3
*PAPER_SPACE
  1

  0
ENDBLK
  5
10
100
AcDbEntity
 67
               1
  8
0
100
AcDbBlockEnd
  0
BLOCK
  5
22
100
AcDbEntity
  8
0
100
AcDbBlockBegin
  2
DPT-T18-V-1
 70
               0
 10
0.0
 20
0.0
 30
0.0
  3
DPT-T18-V-1
  1

  0
LINE
  5
23
100
AcDbEntity
  8
0
  6
CONTINUOUS
 62
               7
100
AcDbLine
 10
-309.69999999999999
 20
27.150000000000034
 30
0.0
 11
-309.69999999999999
 21
13.349999999999966
 31
0.0
  0
LINE
  5
24
100
AcDbEntity
  8
0
  6
CONTINUOUS
 62
               7
100
AcDbLine
 10
-311.69999999999999
 20
27.150000000000034
 30
0.0
 11
-311.69999999999999
 21
13.349999999999966
 31
0.0
  0
LINE
  5
25
100
AcDbEntity
  8
0
  6
CONTINUOUS
 62
               7
100
AcDbLine
 10
-312.69999999999999
 20
27.25
 30
0.0
 11
-312.69999999999999
 21
13.25
 31
0.0
  0
LINE
  5
26
100
AcDbEntity
  8
0
  6
CONTINUOUS
 62
               7
100
AcDbLine
 10
-314.60000000000002
 20
27.75
 30
0.0
 11
-314.60000000000002
 21
12.75
 31
0.0
  0
LINE
  5
27
100
AcDbEntity
  8
0
  6
CONTINUOUS
 62
               7
100
AcDbLine
 10
-323.60000000000002
 20
27.75
 30
0.0
 11
-323.60000000000002
 21
12.75
 31
0.0
  0
LINE
  5
28
100
AcDbEntity
  8
0
  6
CONTINUOUS
 62
               7
100
AcDbLine
 10
-325.10000000000002
 20
25.419999999999945
 30
0.0
 11
-325.10000000000002
 21
14.25
 31
0.0
  0
LINE
  5
29
100
AcDbEntity
  8
0
  6
CONTINUOUS
 62
               2
100
AcDbLine
 10
-337.60000000000002
 20
52.25
 30
0.0
 11
-337.60000000000002
 21
7.75
 31
0.0
  0
LINE
  5
2A
100
AcDbEntity
  8
0
  6
CONTINUOUS
 62
               7
100
AcDbLine
 10
-332.10000000000002
 20
12.75
 30
0.0
 11
-332.10000000000002
 21
9.75
 31
0.0
  0
LINE
  5
2B
100
AcDbEntity
  8
0
  6
CONTINUOUS
 62
               7
100
AcDbLine
 10
-325.13999999999999
 20
27.75
 30
0.0
 11
-323.60000000000002
 21
27.75
 31
0.0
  0
LINE
  5
2C
100
AcDbEntity
  8
0
  6
CONTINUOUS
 62
               7
100
AcDbLine
 10
-327.60000000000002
 20
35.25
 30
0.0
 11
-327.60000000000002
 21
31.75
 31
0.0
  0
LINE
  5
2D
100
AcDbEntity
  8
0
  6
CONTINUOUS
 62
               7
100
AcDbLine
 10
-330.60000000000002
 20
35.25
 30
0.0
 11
-330.60000000000002
 21
31.75
 31
0.0
  0
LINE
  5
2E
100
AcDbEntity
  8
0
  6
CONTINUOUS
 62
               7
100
AcDbLine
 10
-332.10000000000002
 20
35.25
 30
0.0
 11
-332.10000000000002
 21
31.75
 31
0.0
  0
LINE
  5
2F
100
AcDbEntity
  8
0
  6
CONTINUOUS
 62
               7
100
AcDbLine
 10
-314.60000000000002
 20
12.75
 30
0.0
 11
-360.60000000000002
 21
12.75
 31
0.0
  0
LINE
  5
30
100
AcDbEntity
  8
0
  6
CONTINUOUS
 62
               7
100
AcDbLine
 10
-332.10000000000002
 20
9.75
 30
0.0
 11
-343.10000000000002
 21
9.75
 31
0.0
  0
LINE
  5
31
100
AcDbEntity
  8
0
  6
CONTINUOUS
 62
               7
100
AcDbLine
 10
-343.10000000000002
 20
12.75
 30
0.0
 11
-343.10000000000002
 21
9.75
 31
0.0
  0
LINE
  5
32
100
AcDbEntity
  8
0
  6
CONTINUOUS
 62
               7
100
AcDbLine
 10
-351.60000000000002
 20
27.75
 30
0.0
 11
-351.60000000000002
 21
12.75
 31
0.0
  0
LINE
  5
33
100
AcDbEntity
  8
0
  6
CONTINUOUS
 62
               7
100
AcDbLine
 10
-327.60000000000002
 20
35.25
 30
0.0
 11
-347.60000000000002
 21
35.25
 31
0.0
  0
LINE
  5
34
100
AcDbEntity
  8
0
  6
CONTINUOUS
 62
               7
100
AcDbLine
 10
-327.60000000000002
 20
31.75
 30
0.0
 11
-347.60000000000002
 21
31.75
 31
0.0
  0
LINE
  5
35
100
AcDbEntity
  8
0
  6
CONTINUOUS
 62
               7
100
AcDbLine
 10
-350.06999999999999
 20
27.75
 30
0.0
 11
-351.60000000000002
 21
27.75
 31
0.0
  0
LINE
  5
36
100
AcDbEntity
  8
0
  6
CONTINUOUS
 62
               7
100
AcDbLine
 10
-347.60000000000002
 20
35.25
 30
0.0
 11
-347.60000000000002
 21
31.75
 31
0.0
  0
LINE
  5
37
100
AcDbEntity
  8
0
  6
CONTINUOUS
 62
               2
100
AcDbLine
 10
-343.50000667572021
 20
28.25
 30
0.0
 11
-349.70000553131104
 21
28.25
 31
0.0
  0
LINE
  5
38
100
AcDbEntity
  8
0
  6
CONTINUOUS
 62
               2
100
AcDbLine
 10
-346.60000000000002
 20
31.349999427786543
 30
0.0
 11
-346.60000000000002
 21
25.150000572213457
 31
0.0
  0
LINE
  5
39
100
AcDbEntity
  8
0
  6
CONTINUOUS
 62
               7
100
AcDbLine
 10
-333.07999999999998
 20
28.75
 30
0.0
 11
-342.13
 21
28.75
 31
0.0
  0
LINE
  5
3A
100
AcDbEntity
  8
0
  6
CONTINUOUS
 62
               7
100
AcDbLine
 10
-325.10000000000002
 20
14.25
 30
0.0
 11
-350.10000000000002
 21
14.25
 31
0.0
  0
LINE
  5
3B
100
AcDbEntity
  8
0
  6
CONTINUOUS
 62
               7
100
AcDbLine
 10
-350.10000000000002
 20
25.420000000000016
 30
0.0
 11
-350.10000000000002
 21
14.25
 31
0.0
  0
LINE
  5
3C
100
AcDbEntity
  8
0
  6
CONTINUOUS
 62
               7
100
AcDbLine
 10
-344.60000000000002
 20
35.25
 30
0.0
 11
-344.60000000000002
 21
31.75
 31
0.0
  0
LINE
  5
3D
100
AcDbEntity
  8
0
  6
CONTINUOUS
 62
               7
100
AcDbLine
 10
-343.10000000000002
 20
35.25
 30
0.0
 11
-343.10000000000002
 21
31.75
 31
0.0
  0
LINE
  5
3E
100
AcDbEntity
  8
0
  6
CONTINUOUS
 62
               7
100
AcDbLine
 10
-329.35000000000002
 20
49.25
 30
0.0
 11
-329.35000000000002
 21
35.25
 31
0.0
  0
LINE
  5
3F
100
AcDbEntity
  8
0
  6
CONTINUOUS
 62
               7
100
AcDbLine
 10
-329.35000000000002
 20
40.25
 30
0.0
 11
-345.85000000000002
 21
40.25
 31
0.0
  0
LINE
  5
40
100
AcDbEntity
  8
0
  6
CONTINUOUS
 62
               7
100
AcDbLine
 10
-330.35000000000002
 20
50.25
 30
0.0
 11
-344.85000000000002
 21
50.25
 31
0.0
  0
LINE
  5
41
100
AcDbEntity
  8
0
  6
CONTINUOUS
 62
               7
100
AcDbLine
 10
-345.85000000000002
 20
49.25
 30
0.0
 11
-345.85000000000002
 21
35.25
 31
0.0
  0
LINE
  5
42
100
AcDbEntity
  8
0
  6
CONTINUOUS
 62
               7
100
AcDbLine
 10
-360.60000000000002
 20
27.75
 30
0.0
 11
-360.60000000000002
 21
12.75
 31
0.0
  0
LINE
  5
43
100
AcDbEntity
  8
0
  6
CONTINUOUS
 62
               7
100
AcDbLine
 10
-351.60000000000002
 20
27.75
 30
0.0
 11
-360.60000000000002
 21
27.75
 31
0.0
  0
LINE
  5
44
100
AcDbEntity
  8
0
  6
CONTINUOUS
 62
               7
100
AcDbLine
 10
-365.5
 20
27.150000000000034
 30
0.0
 11
-365.5
 21
13.349999999999966
 31
0.0
  0
LINE
  5
45
100
AcDbEntity
  8
0
  6
CONTINUOUS
 62
               7
100
AcDbLine
 10
-362.5
 20
27.25
 30
0.0
 11
-362.5
 21
13.25
 31
0.0
  0
LINE
  5
46
100
AcDbEntity
  8
0
  6
CONTINUOUS
 62
               7
100
AcDbLine
 10
-363.5
 20
27.150000000000034
 30
0.0
 11
-363.5
 21
13.349999999999966
 31
0.0
  0
LINE
  5
47
100
AcDbEntity
  8
0
  6
CONTINUOUS
 62
               7
100
AcDbLine
 10
-360.60000000000002
 20
13.25
 30
0.0
 11
-362.5
 21
13.25
 31
0.0
  0
LINE
  5
48
100
AcDbEntity
  8
0
  6
CONTINUOUS
 62
               7
100
AcDbLine
 10
-360.60000000000002
 20
27.25
 30
0.0
 11
-362.5
 21
27.25
 31
0.0
  0
LINE
  5
49
100
AcDbEntity
  8
0
  6
CONTINUOUS
 62
               7
100
AcDbLine
 10
-363.5
 20
13.349999999999966
 30
0.0
 11
-365.5
 21
13.349999999999966
 31
0.0
  0
LINE
  5
4A
100
AcDbEntity
  8
0
  6
CONTINUOUS
 62
               7
100
AcDbLine
 10
-363.5
 20
27.150000000000034
 30
0.0
 11
-365.5
 21
27.150000000000034
 31
0.0
  0
LINE
  5
4B
100
AcDbEntity
  8
0
  6
CONTINUOUS
 62
               7
100
AcDbLine
 10
-362.5
 20
15.349999999999966
 30
0.0
 11
-363.5
 21
15.349999999999966
 31
0.0
  0
LINE
  5
4C
100
AcDbEntity
  8
0
  6
CONTINUOUS
 62
               7
100
AcDbLine
 10
-362.5
 20
25.150000000000034
 30
0.0
 11
-363.5
 21
25.150000000000034
 31
0.0
  0
LINE
  5
4D
100
AcDbEntity
  8
0
  6
CONTINUOUS
 62
               7
100
AcDbLine
 10
-312.69999999999999
 20
25.150000000000034
 30
0.0
 11
-311.69999999999999
 21
25.150000000000034
 31
0.0
  0
LINE
  5
4E
100
AcDbEntity
  8
0
  6
CONTINUOUS
 62
               7
100
AcDbLine
 10
-323.60000000000002
 20
27.75
 30
0.0
 11
-314.60000000000002
 21
27.75
 31
0.0
  0
LINE
  5
4F
100
AcDbEntity
  8
0
  6
CONTINUOUS
 62
               7
100
AcDbLine
 10
-314.60000000000002
 20
13.25
 30
0.0
 11
-312.69999999999999
 21
13.25
 31
0.0
  0
LINE
  5
50
100
AcDbEntity
  8
0
  6
CONTINUOUS
 62
               7
100
AcDbLine
 10
-314.60000000000002
 20
27.25
 30
0.0
 11
-312.69999999999999
 21
27.25
 31
0.0
  0
LINE
  5
51
100
AcDbEntity
  8
0
  6
CONTINUOUS
 62
               7
100
AcDbLine
 10
-311.69999999999999
 20
13.349999999999966
 30
0.0
 11
-309.69999999999999
 21
13.349999999999966
 31
0.0
  0
LINE
  5
52
100
AcDbEntity
  8
0
  6
CONTINUOUS
 62
               7
100
AcDbLine
 10
-311.69999999999999
 20
27.150000000000034
 30
0.0
 11
-309.69999999999999
 21
27.150000000000034
 31
0.0
  0
LINE
  5
53
100
AcDbEntity
  8
0
  6
CONTINUOUS
 62
               7
100
AcDbLine
 10
-312.69999999999999
 20
15.349999999999966
 30
0.0
 11
-311.69999999999999
 21
15.349999999999966
 31
0.0
  0
ARC
  5
54
100
AcDbEntity
  8
0
  6
CONTINUOUS
 62
               7
100
AcDbCircle
 10
-328.60176049575659
 20
28.252027171170596
 30
0.0
 40
3.4979732718496148
100
AcDbArc
 50
351.74844727040568
 51
89.97116359299477
  0
CIRCLE
  5
55
100
AcDbEntity
  8
0
  6
CONTINUOUS
 62
               7
100
AcDbCircle
 10
-328.60000610351562
 20
28.25
 30
0.0
 40
2.0999994277954102
  0
ARC
  5
56
100
AcDbEntity
  8
0
  6
CONTINUOUS
 62
               7
100
AcDbCircle
 10
-328.60328264910692
 20
28.251367705743746
 30
0.0
 40
4.5044014479908778
100
AcDbArc
 50
173.64439423926893
 51
321.05471144076773
  0
ARC
  5
57
100
AcDbEntity
  8
0
  6
CONTINUOUS
 62
               7
100
AcDbCircle
 10
-346.60253307469623
 20
28.247084942298955
 30
0.0
 40
3.5029159735763242
100
AcDbArc
 50
89.95856751831127
 51
188.15815574272173
  0
CIRCLE
  5
58
100
AcDbEntity
  8
0
  6
CONTINUOUS
 62
               7
100
AcDbCircle
 10
-346.60000610351562
 20
28.25
 30
0.0
 40
2.0999994277954102
  0
ARC
  5
59
100
AcDbEntity
  8
0
  6
CONTINUOUS
 62
               7
100
AcDbCircle
 10
-346.60149645247589
 20
28.249377395265014
 30
0.0
 40
4.4994336884629993
100
AcDbArc
 50
218.9638302930698
 51
6.3881541890010149
  0
ARC
  5
5A
100
AcDbEntity
  8
0
  6
CONTINUOUS
 62
               7
100
AcDbCircle
 10
-344.85000305175316
 20
49.25000305175314
 30
0.0
 40
0.9999969482515014
100
AcDbArc
 50
89.999825146890544
 51
180.00017485310946
  0
ARC
  5
5B
100
AcDbEntity
  8
0
  6
CONTINUOUS
 62
               7
100
AcDbCircle
 10
-330.35000305176249
 20
49.249996948237538
 30
0.0
 40
1.000003051767125
100
AcDbArc
 50
0.0001748525759638
 51
89.999825147424033
  0
LINE
  5
5C
100
AcDbEntity
  8
0
  6
CONTINUOUS
 62
               7
100
AcDbLine
 10
-289.52679499999999
 20
13.25
 30
0.0
 11
-289.81695800000011
 21
12.167100000000005
 31
0.0
  0
ARC
  5
5D
100
AcDbEntity
  8
0
  6
CONTINUOUS
 62
               7
100
AcDbCircle
 10
-297.01596500000005
 20
14.241485000000011
 30
0.0
 40
7.4919130000000003
100
AcDbArc
 50
343.92572799999999
 51
352.395128
  0
LINE
  5
5E
100
AcDbEntity
  8
0
  6
CONTINUOUS
 62
               7
100
AcDbLine
 10
-289.52679499999999
 20
27.25
 30
0.0
 11
-289.81695800000011
 21
28.332903999999985
 31
0.0
  0
ARC
  5
5F
100
AcDbEntity
  8
0
  6
CONTINUOUS
 62
               7
100
AcDbCircle
 10
-297.01619800000003
 20
26.258467999999993
 30
0.0
 40
7.4921509999999998
100
AcDbArc
 50
7.6049920000000011
 51
16.074152999999999
  0
LINE
  5
60
100
AcDbEntity
  8
0
  6
CONTINUOUS
 62
               7
100
AcDbLine
 10
-293.18304200000011
 20
16.208550000000002
 30
0.0
 11
-289.5
 21
16.208550000000002
 31
0.0
  0
LINE
  5
61
100
AcDbEntity
  8
0
  6
CONTINUOUS
 62
               7
100
AcDbLine
 10
-300.38867500000003
 20
14.549716999999987
 30
0.0
 11
-300.38867500000003
 21
25.949999999999989
 31
0.0
  0
ARC
  5
62
100
AcDbEntity
  8
0
  6
CONTINUOUS
 62
               7
100
AcDbCircle
 10
-285.98380600000007
 20
26.365887999999984
 30
0.0
 40
7.4921480000000003
100
AcDbArc
 50
185.63733999999999
 51
196.07416000000001
  0
ARC
  5
63
100
AcDbEntity
  8
0
  6
CONTINUOUS
 62
               7
100
AcDbCircle
 10
-286.50639300000012
 20
26.312171999999975
 30
0.0
 40
6.966812
100
AcDbArc
 50
174.38414
 51
185.61989299999999
  0
ARC
  5
64
100
AcDbEntity
  8
0
  6
CONTINUOUS
 62
               7
100
AcDbCircle
 10
-285.98403100000007
 20
26.258518999999978
 30
0.0
 40
7.4919180000000001
100
AcDbArc
 50
163.925736
 51
174.36671699999999
  0
ARC
  5
65
100
AcDbEntity
  8
0
  6
CONTINUOUS
 62
               7
100
AcDbCircle
 10
-264.87628500000005
 20
20.276683999999989
 30
0.0
 40
28.597591000000001
100
AcDbArc
 50
182.762687
 51
188.17832100000001
  0
ARC
  5
66
100
AcDbEntity
  8
0
  6
CONTINUOUS
 62
               7
100
AcDbCircle
 10
-265.40565000000004
 20
20.250009999999975
 30
0.0
 40
28.067554999999999
100
AcDbArc
 50
177.23902200000001
 51
182.76038399999996
  0
ARC
  5
67
100
AcDbEntity
  8
0
  6
CONTINUOUS
 62
               7
100
AcDbCircle
 10
-264.87633800000003
 20
20.223313999999959
 30
0.0
 40
28.597539000000001
100
AcDbArc
 50
171.82165599999999
 51
177.236682
  0
ARC
  5
68
100
AcDbEntity
  8
0
  6
CONTINUOUS
 62
               7
100
AcDbCircle
 10
-285.98381300000005
 20
14.241534999999999
 30
0.0
 40
7.4921420000000003
100
AcDbArc
 50
185.63734700000001
 51
196.07416799999999
  0
ARC
  5
69
100
AcDbEntity
  8
0
  6
CONTINUOUS
 62
               7
100
AcDbCircle
 10
-286.50639100000012
 20
14.18781899999999
 30
0.0
 40
6.9668140000000003
100
AcDbArc
 50
174.384141
 51
185.619891
  0
ARC
  5
6A
100
AcDbEntity
  8
0
  6
CONTINUOUS
 62
               7
100
AcDbCircle
 10
-285.98403700000006
 20
14.134164999999996
 30
0.0
 40
7.4919120000000001
100
AcDbArc
 50
163.92572799999999
 51
174.36670899999999
  0
ARC
  5
6B
100
AcDbEntity
  8
0
  6
CONTINUOUS
 62
               7
100
AcDbCircle
 10
-300.1886750000001
 20
14.549999999999955
 30
0.0
 40
0.2
100
AcDbArc
 50
180.0
 51
270.0
  0
ARC
  5
6C
100
AcDbEntity
  8
0
  6
CONTINUOUS
 62
               7
100
AcDbCircle
 10
-300.1886750000001
 20
25.949999999999989
 30
0.0
 40
0.2
100
AcDbArc
 50
90.000004000000004
 51
180.0
  0
LINE
  5
6D
100
AcDbEntity
  8
0
  6
CONTINUOUS
 62
               7
100
AcDbLine
 10
-297.51961500000004
 20
25.649999999999977
 30
0.0
 11
-297.51961600000004
 21
14.850000000000023
 31
0.0
  0
LINE
  5
6E
100
AcDbEntity
  8
0
  6
CONTINUOUS
 62
               7
100
AcDbLine
 10
-293.78867500000001
 20
14.850000000000023
 30
0.0
 11
-297.51961500000004
 21
14.850000000000023
 31
0.0
  0
LINE
  5
6F
100
AcDbEntity
  8
0
  6
CONTINUOUS
 62
               7
100
AcDbLine
 10
-293.5
 20
14.350000000000023
 30
0.0
 11
-293.78867500000001
 21
14.850000000000023
 31
0.0
  0
LINE
  5
70
100
AcDbEntity
  8
0
  6
CONTINUOUS
 62
               7
100
AcDbLine
 10
-293.78867500000001
 20
25.649999999999977
 30
0.0
 11
-297.51961500000004
 21
25.649999999999977
 31
0.0
  0
LINE
  5
71
100
AcDbEntity
  8
0
  6
CONTINUOUS
 62
               7
100
AcDbLine
 10
-297.78867500000001
 20
15.316029999999955
 30
0.0
 11
-297.51961500000004
 21
14.850000000000023
 31
0.0
  0
LINE
  5
72
100
AcDbEntity
  8
0
  6
CONTINUOUS
 62
               7
100
AcDbLine
 10
-293.5
 20
26.149999999999977
 30
0.0
 11
-293.78867500000001
 21
25.649999999999977
 31
0.0
  0
LINE
  5
73
100
AcDbEntity
  8
0
  6
CONTINUOUS
 62
               7
100
AcDbLine
 10
-297.78867500000001
 20
15.316029999999955
 30
0.0
 11
-297.75055500000008
 21
15.25
 31
0.0
  0
LINE
  5
74
100
AcDbEntity
  8
0
  6
CONTINUOUS
 62
               7
100
AcDbLine
 10
-297.78867500000001
 20
25.183973999999978
 30
0.0
 11
-298.28867500000001
 21
25.049999999999955
 31
0.0
  0
LINE
  5
75
100
AcDbEntity
  8
0
  6
CONTINUOUS
 62
               7
100
AcDbLine
 10
-298.28867600000001
 20
25.049999999999955
 30
0.0
 11
-298.28867600000001
 21
15.449999999999989
 31
0.0
  0
LINE
  5
76
100
AcDbEntity
  8
0
  6
CONTINUOUS
 62
               7
100
AcDbLine
 10
-297.78867500000001
 20
25.183974999999975
 30
0.0
 11
-297.51961500000004
 21
25.649999999999977
 31
0.0
  0
LINE
  5
77
100
AcDbEntity
  8
0
  6
CONTINUOUS
 62
               7
100
AcDbLine
 10
-297.78867500000001
 20
15.316029999999955
 30
0.0
 11
-298.28867500000001
 21
15.449999999999989
 31
0.0
  0
LINE
  5
78
100
AcDbEntity
  8
0
  6
CONTINUOUS
 62
               7
100
AcDbLine
 10
-299.1886750000001
 20
23.75
 30
0.0
 11
-298.28867600000001
 21
23.75
 31
0.0
  0
LINE
  5
79
100
AcDbEntity
  8
0
  6
CONTINUOUS
 62
               7
100
AcDbLine
 10
-299.1886750000001
 20
16.75
 30
0.0
 11
-298.28867600000001
 21
16.75
 31
0.0
  0
LINE
  5
7A
100
AcDbEntity
  8
0
  6
CONTINUOUS
 62
               7
100
AcDbLine
 10
-299.1886750000001
 20
14.350000000000023
 30
0.0
 11
-299.1886750000001
 21
26.149999999999977
 31
0.0
  0
LINE
  5
7B
100
AcDbEntity
  8
0
  6
CONTINUOUS
 62
               7
100
AcDbLine
 10
-300.1886750000001
 20
14.350000000000023
 30
0.0
 11
-299.1886750000001
 21
14.350000000000023
 31
0.0
  0
LINE
  5
7C
100
AcDbEntity
  8
0
  6
CONTINUOUS
 62
               7
100
AcDbLine
 10
-300.1886750000001
 20
26.149999999999977
 30
0.0
 11
-299.1886750000001
 21
26.149999999999977
 31
0.0
  0
LINE
  5
7D
100
AcDbEntity
  8
0
  6
CONTINUOUS
 62
               7
100
AcDbLine
 10
-297.78867600000001
 20
15.316029999999955
 30
0.0
 11
-297.78867600000001
 21
25.183973999999978
 31
0.0
  0
LINE
  5
7E
100
AcDbEntity
  8
0
  6
CONTINUOUS
 62
               7
100
AcDbLine
 10
-293.78867600000001
 20
14.850000000000023
 30
0.0
 11
-293.78867600000001
 21
25.649999999999977
 31
0.0
  0
LINE
  5
7F
100
AcDbEntity
  8
0
  6
CONTINUOUS
 62
               7
100
AcDbLine
 10
-293.5
 20
27.149999999999977
 30
0.0
 11
-293.5
 21
13.350000000000023
 31
0.0
  0
LINE
  5
80
100
AcDbEntity
  8
0
  6
CONTINUOUS
 62
               7
100
AcDbLine
 10
-293.18304200000011
 20
12.167100000000005
 30
0.0
 11
-289.816959
 21
12.167100000000005
 31
0.0
  0
LINE
  5
81
100
AcDbEntity
  8
0
  6
CONTINUOUS
 62
               7
100
AcDbLine
 10
-293.18304200000011
 20
28.332903999999985
 30
0.0
 11
-293.5
 21
27.149999999999977
 31
0.0
  0
LINE
  5
82
100
AcDbEntity
  8
0
  6
CONTINUOUS
 62
               7
100
AcDbLine
 10
-293.18304200000011
 20
12.167100000000005
 30
0.0
 11
-293.5
 21
13.350000000000023
 31
0.0
  0
LINE
  5
83
100
AcDbEntity
  8
0
  6
CONTINUOUS
 62
               7
100
AcDbLine
 10
-293.18304200000011
 20
28.332903999999985
 30
0.0
 11
-289.816959
 21
28.332903999999985
 31
0.0
  0
LINE
  5
84
100
AcDbEntity
  8
0
  6
CONTINUOUS
 62
               7
100
AcDbLine
 10
-293.5
 20
25.708499999999958
 30
0.0
 11
-293.75490000000002
 21
25.708499999999958
 31
0.0
  0
LINE
  5
85
100
AcDbEntity
  8
0
  6
CONTINUOUS
 62
               7
100
AcDbLine
 10
-293.5
 20
14.791499999999985
 30
0.0
 11
-293.75490000000002
 21
14.791499999999985
 31
0.0
  0
LINE
  5
86
100
AcDbEntity
  8
0
  6
CONTINUOUS
 62
               7
100
AcDbLine
 10
-293.18304200000011
 20
24.291451999999992
 30
0.0
 11
-289.5
 21
24.291451999999992
 31
0.0
  0
LINE
  5
87
100
AcDbEntity
  8
0
  6
CONTINUOUS
 62
               2
100
AcDbLine
 10
-367.5
 20
20.25
 30
0.0
 11
-286.95005118699783
 21
20.25
 31
0.0
  0
LINE
  5
88
100
AcDbEntity
  8
0
  6
CONTINUOUS
 62
               2
100
AcDbLine
 10
-305.24951478051196
 20
195.75
 30
0.0
 11
-286.95005118699783
 21
195.75
 31
0.0
  0
LINE
  5
89
100
AcDbEntity
  8
0
  6
CONTINUOUS
 62
               7
100
AcDbLine
 10
-293.18304200000011
 20
199.79145199999999
 30
0.0
 11
-289.5
 21
199.79145199999999
 31
0.0
  0
LINE
  5
8A
100
AcDbEntity
  8
0
  6
CONTINUOUS
 62
               7
100
AcDbLine
 10
-293.5
 20
190.29149999999998
 30
0.0
 11
-293.75490000000002
 21
190.29149999999998
 31
0.0
  0
LINE
  5
8B
100
AcDbEntity
  8
0
  6
CONTINUOUS
 62
               7
100
AcDbLine
 10
-293.5
 20
201.20849999999996
 30
0.0
 11
-293.75490000000002
 21
201.20849999999996
 31
0.0
  0
LINE
  5
8C
100
AcDbEntity
  8
0
  6
CONTINUOUS
 62
               7
100
AcDbLine
 10
-293.18304200000011
 20
203.83290399999998
 30
0.0
 11
-289.816959
 21
203.83290399999998
 31
0.0
  0
LINE
  5
8D
100
AcDbEntity
  8
0
  6
CONTINUOUS
 62
               7
100
AcDbLine
 10
-293.18304200000011
 20
187.6671
 30
0.0
 11
-293.5
 21
188.85000000000002
 31
0.0
  0
LINE
  5
8E
100
AcDbEntity
  8
0
  6
CONTINUOUS
 62
               7
100
AcDbLine
 10
-293.18304200000011
 20
203.83290399999998
 30
0.0
 11
-293.5
 21
202.64999999999998
 31
0.0
  0
LINE
  5
8F
100
AcDbEntity
  8
0
  6
CONTINUOUS
 62
               7
100
AcDbLine
 10
-293.18304200000011
 20
187.6671
 30
0.0
 11
-289.816959
 21
187.6671
 31
0.0
  0
LINE
  5
90
100
AcDbEntity
  8
0
  6
CONTINUOUS
 62
               7
100
AcDbLine
 10
-293.5
 20
202.64999999999998
 30
0.0
 11
-293.5
 21
188.85000000000002
 31
0.0
  0
LINE
  5
91
100
AcDbEntity
  8
0
  6
CONTINUOUS
 62
               7
100
AcDbLine
 10
-293.78867600000001
 20
190.35000000000002
 30
0.0
 11
-293.78867600000001
 21
201.14999999999998
 31
0.0
  0
LINE
  5
92
100
AcDbEntity
  8
0
  6
CONTINUOUS
 62
               7
100
AcDbLine
 10
-297.78867600000001
 20
190.81602999999996
 30
0.0
 11
-297.78867600000001
 21
200.68397399999998
 31
0.0
  0
LINE
  5
93
100
AcDbEntity
  8
0
  6
CONTINUOUS
 62
               7
100
AcDbLine
 10
-300.1886750000001
 20
201.64999999999998
 30
0.0
 11
-299.1886750000001
 21
201.64999999999998
 31
0.0
  0
LINE
  5
94
100
AcDbEntity
  8
0
  6
CONTINUOUS
 62
               7
100
AcDbLine
 10
-300.1886750000001
 20
189.85000000000002
 30
0.0
 11
-299.1886750000001
 21
189.85000000000002
 31
0.0
  0
LINE
  5
95
100
AcDbEntity
  8
0
  6
CONTINUOUS
 62
               7
100
AcDbLine
 10
-299.1886750000001
 20
189.85000000000002
 30
0.0
 11
-299.1886750000001
 21
201.64999999999998
 31
0.0
  0
LINE
  5
96
100
AcDbEntity
  8
0
  6
CONTINUOUS
 62
               7
100
AcDbLine
 10
-299.1886750000001
 20
192.25
 30
0.0
 11
-298.28867600000001
 21
192.25
 31
0.0
  0
LINE
  5
97
100
AcDbEntity
  8
0
  6
CONTINUOUS
 62
               7
100
AcDbLine
 10
-299.1886750000001
 20
199.25
 30
0.0
 11
-298.28867600000001
 21
199.25
 31
0.0
  0
LINE
  5
98
100
AcDbEntity
  8
0
  6
CONTINUOUS
 62
               7
100
AcDbLine
 10
-297.78867500000001
 20
190.81602999999996
 30
0.0
 11
-298.28867500000001
 21
190.94999999999999
 31
0.0
  0
LINE
  5
99
100
AcDbEntity
  8
0
  6
CONTINUOUS
 62
               7
100
AcDbLine
 10
-297.78867500000001
 20
200.68397499999998
 30
0.0
 11
-297.51961500000004
 21
201.14999999999998
 31
0.0
  0
LINE
  5
9A
100
AcDbEntity
  8
0
  6
CONTINUOUS
 62
               7
100
AcDbLine
 10
-298.28867600000001
 20
200.54999999999995
 30
0.0
 11
-298.28867600000001
 21
190.94999999999999
 31
0.0
  0
LINE
  5
9B
100
AcDbEntity
  8
0
  6
CONTINUOUS
 62
               7
100
AcDbLine
 10
-297.78867500000001
 20
200.68397399999998
 30
0.0
 11
-298.28867500000001
 21
200.54999999999995
 31
0.0
  0
LINE
  5
9C
100
AcDbEntity
  8
0
  6
CONTINUOUS
 62
               7
100
AcDbLine
 10
-297.78867500000001
 20
190.81602999999996
 30
0.0
 11
-297.75055500000008
 21
190.75
 31
0.0
  0
LINE
  5
9D
100
AcDbEntity
  8
0
  6
CONTINUOUS
 62
               7
100
AcDbLine
 10
-293.5
 20
201.64999999999998
 30
0.0
 11
-293.78867500000001
 21
201.14999999999998
 31
0.0
  0
LINE
  5
9E
100
AcDbEntity
  8
0
  6
CONTINUOUS
 62
               7
100
AcDbLine
 10
-297.78867500000001
 20
190.81602999999996
 30
0.0
 11
-297.51961500000004
 21
190.35000000000002
 31
0.0
  0
LINE
  5
9F
100
AcDbEntity
  8
0
  6
CONTINUOUS
 62
               7
100
AcDbLine
 10
-293.78867500000001
 20
201.14999999999998
 30
0.0
 11
-297.51961500000004
 21
201.14999999999998
 31
0.0
  0
LINE
  5
A0
100
AcDbEntity
  8
0
  6
CONTINUOUS
 62
               7
100
AcDbLine
 10
-293.5
 20
189.85000000000002
 30
0.0
 11
-293.78867500000001
 21
190.35000000000002
 31
0.0
  0
LINE
  5
A1
100
AcDbEntity
  8
0
  6
CONTINUOUS
 62
               7
100
AcDbLine
 10
-293.78867500000001
 20
190.35000000000002
 30
0.0
 11
-297.51961500000004
 21
190.35000000000002
 31
0.0
  0
LINE
  5
A2
100
AcDbEntity
  8
0
  6
CONTINUOUS
 62
               7
100
AcDbLine
 10
-297.51961500000004
 20
201.14999999999998
 30
0.0
 11
-297.51961600000004
 21
190.35000000000002
 31
0.0
  0
ARC
  5
A3
100
AcDbEntity
  8
0
  6
CONTINUOUS
 62
               7
100
AcDbCircle
 10
-300.1886750000001
 20
201.44999999999999
 30
0.0
 40
0.2
100
AcDbArc
 50
90.000004000000004
 51
180.0
  0
ARC
  5
A4
100
AcDbEntity
  8
0
  6
CONTINUOUS
 62
               7
100
AcDbCircle
 10
-300.1886750000001
 20
190.04999999999995
 30
0.0
 40
0.2
100
AcDbArc
 50
180.0
 51
270.0
  0
ARC
  5
A5
100
AcDbEntity
  8
0
  6
CONTINUOUS
 62
               7
100
AcDbCircle
 10
-285.98403700000006
 20
189.634165
 30
0.0
 40
7.4919120000000001
100
AcDbArc
 50
163.92572799999999
 51
174.36670899999999
  0
ARC
  5
A6
100
AcDbEntity
  8
0
  6
CONTINUOUS
 62
               7
100
AcDbCircle
 10
-286.50639100000012
 20
189.68781899999999
 30
0.0
 40
6.9668140000000003
100
AcDbArc
 50
174.384141
 51
185.619891
  0
ARC
  5
A7
100
AcDbEntity
  8
0
  6
CONTINUOUS
 62
               7
100
AcDbCircle
 10
-285.98381300000005
 20
189.741535
 30
0.0
 40
7.4921420000000003
100
AcDbArc
 50
185.63734700000001
 51
196.07416799999999
  0
ARC
  5
A8
100
AcDbEntity
  8
0
  6
CONTINUOUS
 62
               7
100
AcDbCircle
 10
-264.87633800000003
 20
195.72331399999996
 30
0.0
 40
28.597539000000001
100
AcDbArc
 50
171.82165599999999
 51
177.236682
  0
ARC
  5
A9
100
AcDbEntity
  8
0
  6
CONTINUOUS
 62
               7
100
AcDbCircle
 10
-265.40565000000004
 20
195.75000999999997
 30
0.0
 40
28.067554999999999
100
AcDbArc
 50
177.23902200000001
 51
182.76038399999996
  0
ARC
  5
AA
100
AcDbEntity
  8
0
  6
CONTINUOUS
 62
               7
100
AcDbCircle
 10
-264.87628500000005
 20
195.77668399999999
 30
0.0
 40
28.597591000000001
100
AcDbArc
 50
182.762687
 51
188.17832100000001
  0
ARC
  5
AB
100
AcDbEntity
  8
0
  6
CONTINUOUS
 62
               7
100
AcDbCircle
 10
-285.98403100000007
 20
201.75851899999998
 30
0.0
 40
7.4919180000000001
100
AcDbArc
 50
163.925736
 51
174.36671699999999
  0
ARC
  5
AC
100
AcDbEntity
  8
0
  6
CONTINUOUS
 62
               7
100
AcDbCircle
 10
-286.50639300000012
 20
201.81217199999998
 30
0.0
 40
6.966812
100
AcDbArc
 50
174.38414
 51
185.61989299999999
  0
ARC
  5
AD
100
AcDbEntity
  8
0
  6
CONTINUOUS
 62
               7
100
AcDbCircle
 10
-285.98380600000007
 20
201.86588799999998
 30
0.0
 40
7.4921480000000003
100
AcDbArc
 50
185.63733999999999
 51
196.07416000000001
  0
LINE
  5
AE
100
AcDbEntity
  8
0
  6
CONTINUOUS
 62
               7
100
AcDbLine
 10
-300.38867500000003
 20
190.04971699999999
 30
0.0
 11
-300.38867500000003
 21
201.44999999999999
 31
0.0
  0
LINE
  5
AF
100
AcDbEntity
  8
0
  6
CONTINUOUS
 62
               7
100
AcDbLine
 10
-293.18304200000011
 20
191.70855
 30
0.0
 11
-289.5
 21
191.70855
 31
0.0
  0
ARC
  5
B0
100
AcDbEntity
  8
0
  6
CONTINUOUS
 62
               7
100
AcDbCircle
 10
-297.01619800000003
 20
201.75846799999999
 30
0.0
 40
7.4921509999999998
100
AcDbArc
 50
7.6049920000000011
 51
16.074152999999999
  0
LINE
  5
B1
100
AcDbEntity
  8
0
  6
CONTINUOUS
 62
               7
100
AcDbLine
 10
-289.52679499999999
 20
202.75
 30
0.0
 11
-289.81695800000011
 21
203.83290399999998
 31
0.0
  0
ARC
  5
B2
100
AcDbEntity
  8
0
  6
CONTINUOUS
 62
               7
100
AcDbCircle
 10
-297.01596500000005
 20
189.74148500000001
 30
0.0
 40
7.4919130000000003
100
AcDbArc
 50
343.92572799999999
 51
352.395128
  0
LINE
  5
B3
100
AcDbEntity
  8
0
  6
CONTINUOUS
 62
               7
100
AcDbLine
 10
-289.52679499999999
 20
188.75
 30
0.0
 11
-289.81695800000011
 21
187.6671
 31
0.0
  0
LINE
  5
B4
100
AcDbEntity
  8
0
  6
CONTINUOUS
 62
               7
100
AcDbLine
 10
-7.0500000000001819
 20
4.5
 30
0.0
 11
-13.950000000000045
 21
4.5
 31
0.0
  0
ARC
  5
B5
100
AcDbEntity
  8
0
  6
CONTINUOUS
 62
               7
100
AcDbCircle
 10
-10.5
 20
8.0508929999999737
 30
0.0
 40
4.9508929999999998
100
AcDbArc
 50
274.61909400000002
 51
314.17434300000002
  0
ARC
  5
B6
100
AcDbEntity
  8
0
  6
CONTINUOUS
 62
               7
100
AcDbCircle
 10
-10.5
 20
8.0508929999999737
 30
0.0
 40
4.9508929999999998
100
AcDbArc
 50
225.82565700000001
 51
265.36582199999998
  0
LINE
  5
B7
100
AcDbEntity
  8
0
  6
CONTINUOUS
 62
               7
100
AcDbLine
 10
-10.099999999999909
 20
3.1161849999999731
 30
0.0
 11
-10.099999999999909
 21
3.2603980000000092
 31
0.0
  0
LINE
  5
B8
100
AcDbEntity
  8
0
  6
CONTINUOUS
 62
               7
100
AcDbLine
 10
-10.900000000000091
 20
3.2603980000000092
 30
0.0
 11
-10.900000000000091
 21
3.1161849999999731
 31
0.0
  0
LINE
  5
B9
100
AcDbEntity
  8
0
  6
CONTINUOUS
 62
               7
100
AcDbLine
 10
-10.099999999999909
 20
3.2603980000000092
 30
0.0
 11
-10.900000000000091
 21
3.2603980000000092
 31
0.0
  0
LINE
  5
BA
100
AcDbEntity
  8
0
  6
CONTINUOUS
 62
               7
100
AcDbLine
 10
-13.950000000000045
 20
4.5
 30
0.0
 11
-13.950000000000045
 21
5.0
 31
0.0
  0
LINE
  5
BB
100
AcDbEntity
  8
0
  6
CONTINUOUS
 62
               7
100
AcDbLine
 10
-7.0500000000001819
 20
4.5
 30
0.0
 11
-7.0500000000001819
 21
5.0
 31
0.0
  0
LINE
  5
BC
100
AcDbEntity
  8
0
  6
CONTINUOUS
 62
               7
100
AcDbLine
 10
-268.05000000000007
 20
4.5
 30
0.0
 11
-274.95000000000005
 21
4.5
 31
0.0
  0
ARC
  5
BD
100
AcDbEntity
  8
0
  6
CONTINUOUS
 62
               7
100
AcDbCircle
 10
-271.5
 20
8.0508929999999737
 30
0.0
 40
4.9508929999999998
100
AcDbArc
 50
274.61909400000002
 51
314.17434300000002
  0
ARC
  5
BE
100
AcDbEntity
  8
0
  6
CONTINUOUS
 62
               7
100
AcDbCircle
 10
-271.5
 20
8.0508929999999737
 30
0.0
 40
4.9508929999999998
100
AcDbArc
 50
225.82565700000001
 51
265.36582199999998
  0
LINE
  5
BF
100
AcDbEntity
  8
0
  6
CONTINUOUS
 62
               7
100
AcDbLine
 10
-271.10000000000002
 20
3.1161849999999731
 30
0.0
 11
-271.10000000000002
 21
3.2603980000000092
 31
0.0
  0
LINE
  5
C0
100
AcDbEntity
  8
0
  6
CONTINUOUS
 62
               7
100
AcDbLine
 10
-271.90000000000009
 20
3.2603980000000092
 30
0.0
 11
-271.90000000000009
 21
3.1161849999999731
 31
0.0
  0
LINE
  5
C1
100
AcDbEntity
  8
0
  6
CONTINUOUS
 62
               7
100
AcDbLine
 10
-271.10000000000002
 20
3.2603980000000092
 30
0.0
 11
-271.90000000000009
 21
3.2603980000000092
 31
0.0
  0
LINE
  5
C2
100
AcDbEntity
  8
0
  6
CONTINUOUS
 62
               7
100
AcDbLine
 10
-274.95000000000005
 20
4.5
 30
0.0
 11
-274.95000000000005
 21
5.0
 31
0.0
  0
LINE
  5
C3
100
AcDbEntity
  8
0
  6
CONTINUOUS
 62
               7
100
AcDbLine
 10
-268.05000000000007
 20
4.5
 30
0.0
 11
-268.05000000000007
 21
5.0
 31
0.0
  0
ARC
  5
C4
100
AcDbEntity
  8
0
  6
CONTINUOUS
 62
               7
100
AcDbCircle
 10
0.0
 20
211.94910700000003
 30
0.0
 40
4.9508929999999998
100
AcDbArc
 50
94.619094000000004
 51
134.17434299999999
  0
ARC
  5
C5
100
AcDbEntity
  8
0
  6
CONTINUOUS
 62
               7
100
AcDbCircle
 10
0.0
 20
211.94910700000003
 30
0.0
 40
4.9508929999999998
100
AcDbArc
 50
45.825657
 51
85.365821999999994
  0
LINE
  5
C6
100
AcDbEntity
  8
0
  6
CONTINUOUS
 62
               7
100
AcDbLine
 10
-0.400000000000091
 20
216.88381500000003
 30
0.0
 11
-0.400000000000091
 21
216.73960199999999
 31
0.0
  0
LINE
  5
C7
100
AcDbEntity
  8
0
  6
CONTINUOUS
 62
               7
100
AcDbLine
 10
0.400000000000091
 20
216.73960199999999
 30
0.0
 11
0.400000000000091
 21
216.88381500000003
 31
0.0
  0
LINE
  5
C8
100
AcDbEntity
  8
0
  6
CONTINUOUS
 62
               7
100
AcDbLine
 10
-0.400000000000091
 20
216.73960199999999
 30
0.0
 11
0.400000000000091
 21
216.73960199999999
 31
0.0
  0
LINE
  5
C9
100
AcDbEntity
  8
0
  6
CONTINUOUS
 62
               7
100
AcDbLine
 10
3.4499999999998181
 20
215.5
 30
0.0
 11
3.4499999999998181
 21
215.0
 31
0.0
  0
LINE
  5
CA
100
AcDbEntity
  8
0
  6
CONTINUOUS
 62
               7
100
AcDbLine
 10
-3.4500000000000455
 20
215.5
 30
0.0
 11
-3.4500000000000455
 21
215.0
 31
0.0
  0
ARC
  5
CB
100
AcDbEntity
  8
0
  6
CONTINUOUS
 62
               7
100
AcDbCircle
 10
-10.5
 20
211.94910700000003
 30
0.0
 40
4.9508929999999998
100
AcDbArc
 50
94.619094000000004
 51
134.17434299999999
  0
ARC
  5
CC
100
AcDbEntity
  8
0
  6
CONTINUOUS
 62
               7
100
AcDbCircle
 10
-10.5
 20
211.94910700000003
 30
0.0
 40
4.9508929999999998
100
AcDbArc
 50
45.825657
 51
85.365821999999994
  0
LINE
  5
CD
100
AcDbEntity
  8
0
  6
CONTINUOUS
 62
               7
100
AcDbLine
 10
-10.900000000000091
 20
216.88381500000003
 30
0.0
 11
-10.900000000000091
 21
216.73960199999999
 31
0.0
  0
LINE
  5
CE
100
AcDbEntity
  8
0
  6
CONTINUOUS
 62
               7
100
AcDbLine
 10
-10.099999999999909
 20
216.73960199999999
 30
0.0
 11
-10.099999999999909
 21
216.88381500000003
 31
0.0
  0
LINE
  5
CF
100
AcDbEntity
  8
0
  6
CONTINUOUS
 62
               7
100
AcDbLine
 10
-10.900000000000091
 20
216.73960199999999
 30
0.0
 11
-10.099999999999909
 21
216.73960199999999
 31
0.0
  0
LINE
  5
D0
100
AcDbEntity
  8
0
  6
CONTINUOUS
 62
               7
100
AcDbLine
 10
-7.0500000000001819
 20
215.5
 30
0.0
 11
-7.0500000000001819
 21
215.0
 31
0.0
  0
LINE
  5
D1
100
AcDbEntity
  8
0
  6
CONTINUOUS
 62
               7
100
AcDbLine
 10
-13.950000000000045
 20
215.5
 30
0.0
 11
-13.950000000000045
 21
215.0
 31
0.0
  0
LINE
  5
D2
100
AcDbEntity
  8
0
  6
CONTINUOUS
 62
               7
100
AcDbLine
 10
-274.95000000000005
 20
215.5
 30
0.0
 11
-268.05000000000007
 21
215.5
 31
0.0
  0
ARC
  5
D3
100
AcDbEntity
  8
0
  6
CONTINUOUS
 62
               7
100
AcDbCircle
 10
-271.5
 20
211.94910700000003
 30
0.0
 40
4.9508929999999998
100
AcDbArc
 50
94.619094000000004
 51
134.17434299999999
  0
ARC
  5
D4
100
AcDbEntity
  8
0
  6
CONTINUOUS
 62
               7
100
AcDbCircle
 10
-271.5
 20
211.94910700000003
 30
0.0
 40
4.9508929999999998
100
AcDbArc
 50
45.825657
 51
85.365821999999994
  0
LINE
  5
D5
100
AcDbEntity
  8
0
  6
CONTINUOUS
 62
               7
100
AcDbLine
 10
-271.90000000000009
 20
216.88381500000003
 30
0.0
 11
-271.90000000000009
 21
216.73960199999999
 31
0.0
  0
LINE
  5
D6
100
AcDbEntity
  8
0
  6
CONTINUOUS
 62
               7
100
AcDbLine
 10
-271.10000000000002
 20
216.73960199999999
 30
0.0
 11
-271.10000000000002
 21
216.88381500000003
 31
0.0
  0
LINE
  5
D7
100
AcDbEntity
  8
0
  6
CONTINUOUS
 62
               7
100
AcDbLine
 10
-271.90000000000009
 20
216.73960199999999
 30
0.0
 11
-271.10000000000002
 21
216.73960199999999
 31
0.0
  0
LINE
  5
D8
100
AcDbEntity
  8
0
  6
CONTINUOUS
 62
               7
100
AcDbLine
 10
-268.05000000000007
 20
215.5
 30
0.0
 11
-268.05000000000007
 21
215.0
 31
0.0
  0
LINE
  5
D9
100
AcDbEntity
  8
0
  6
CONTINUOUS
 62
               7
100
AcDbLine
 10
-274.95000000000005
 20
215.5
 30
0.0
 11
-274.95000000000005
 21
215.0
 31
0.0
  0
LINE
  5
DA
100
AcDbEntity
  8
0
  6
CONTINUOUS
 62
               7
100
AcDbLine
 10
-285.45000000000005
 20
215.5
 30
0.0
 11
-278.55000000000007
 21
215.5
 31
0.0
  0
ARC
  5
DB
100
AcDbEntity
  8
0
  6
CONTINUOUS
 62
               7
100
AcDbCircle
 10
-282.0
 20
211.94910700000003
 30
0.0
 40
4.9508929999999998
100
AcDbArc
 50
94.619094000000004
 51
134.17434299999999
  0
ARC
  5
DC
100
AcDbEntity
  8
0
  6
CONTINUOUS
 62
               7
100
AcDbCircle
 10
-282.0
 20
211.94910700000003
 30
0.0
 40
4.9508929999999998
100
AcDbArc
 50
45.825657
 51
85.365821999999994
  0
LINE
  5
DD
100
AcDbEntity
  8
0
  6
CONTINUOUS
 62
               7
100
AcDbLine
 10
-282.40000000000009
 20
216.88381500000003
 30
0.0
 11
-282.40000000000009
 21
216.73960199999999
 31
0.0
  0
LINE
  5
DE
100
AcDbEntity
  8
0
  6
CONTINUOUS
 62
               7
100
AcDbLine
 10
-281.60000000000002
 20
216.73960199999999
 30
0.0
 11
-281.60000000000002
 21
216.88381500000003
 31
0.0
  0
LINE
  5
DF
100
AcDbEntity
  8
0
  6
CONTINUOUS
 62
               7
100
AcDbLine
 10
-282.40000000000009
 20
216.73960199999999
 30
0.0
 11
-281.60000000000002
 21
216.73960199999999
 31
0.0
  0
LINE
  5
E0
100
AcDbEntity
  8
0
  6
CONTINUOUS
 62
               7
100
AcDbLine
 10
-278.55000000000007
 20
215.5
 30
0.0
 11
-278.55000000000007
 21
215.0
 31
0.0
  0
LINE
  5
E1
100
AcDbEntity
  8
0
  6
CONTINUOUS
 62
               7
100
AcDbLine
 10
-285.45000000000005
 20
215.5
 30
0.0
 11
-285.45000000000005
 21
215.0
 31
0.0
  0
LINE
  5
E2
100
AcDbEntity
  8
0
  6
CONTINUOUS
 62
               7
100
AcDbLine
 10
7.5
 20
5.0
 30
0.0
 11
7.5
 21
215.0
 31
0.0
  0
LINE
  5
E3
100
AcDbEntity
  8
0
  6
CONTINUOUS
 62
               7
100
AcDbLine
 10
-289.5
 20
5.0
 30
0.0
 11
7.5
 21
5.0
 31
0.0
  0
LINE
  5
E4
100
AcDbEntity
  8
0
  6
CONTINUOUS
 62
               7
100
AcDbLine
 10
-289.5
 20
215.0
 30
0.0
 11
-289.5
 21
5.0
 31
0.0
  0
LINE
  5
E5
100
AcDbEntity
  8
0
  6
CONTINUOUS
 62
               7
100
AcDbLine
 10
7.5
 20
215.0
 30
0.0
 11
-289.5
 21
215.0
 31
0.0
  0
LINE
  5
E6
100
AcDbEntity
  8
0
  6
CONTINUOUS
 62
               7
100
AcDbLine
 10
-6.5
 20
5.0
 30
0.0
 11
-6.5
 21
1.5
 31
0.0
  0
LINE
  5
E7
100
AcDbEntity
  8
0
  6
CONTINUOUS
 62
               7
100
AcDbLine
 10
6.5
 20
1.5
 30
0.0
 11
6.5
 21
5.0
 31
0.0
  0
LINE
  5
E8
100
AcDbEntity
  8
0
  6
CONTINUOUS
 62
               2
100
AcDbLine
 10
0.0
 20
-2.0
 30
0.0
 11
0.0
 21
7.0
 31
0.0
  0
ARC
  5
E9
100
AcDbEntity
  8
0
  6
CONTINUOUS
 62
               7
100
AcDbCircle
 10
5.0
 20
1.5
 30
0.0
 40
1.5
100
AcDbArc
 50
270.0
 51
0.0
  0
LINE
  5
EA
100
AcDbEntity
  8
0
  6
CONTINUOUS
 62
               7
100
AcDbLine
 10
-5.0
 20
0.0
 30
0.0
 11
5.0
 21
0.0
 31
0.0
  0
ARC
  5
EB
100
AcDbEntity
  8
0
  6
CONTINUOUS
 62
               7
100
AcDbCircle
 10
-5.0
 20
1.5
 30
0.0
 40
1.5
100
AcDbArc
 50
180.0
 51
270.0
  0
LINE
  5
EC
100
AcDbEntity
  8
0
  6
CONTINUOUS
 62
               7
100
AcDbLine
 10
-288.5
 20
5.0
 30
0.0
 11
-288.5
 21
1.5
 31
0.0
  0
LINE
  5
ED
100
AcDbEntity
  8
0
  6
CONTINUOUS
 62
               7
100
AcDbLine
 10
-275.5
 20
1.5
 30
0.0
 11
-275.5
 21
5.0
 31
0.0
  0
LINE
  5
EE
100
AcDbEntity
  8
0
  6
CONTINUOUS
 62
               2
100
AcDbLine
 10
-282.0
 20
-2.0
 30
0.0
 11
-282.0
 21
7.0
 31
0.0
  0
ARC
  5
EF
100
AcDbEntity
  8
0
  6
CONTINUOUS
 62
               7
100
AcDbCircle
 10
-277.0
 20
1.5
 30
0.0
 40
1.5
100
AcDbArc
 50
270.0
 51
0.0
  0
LINE
  5
F0
100
AcDbEntity
  8
0
  6
CONTINUOUS
 62
               7
100
AcDbLine
 10
-287.0
 20
0.0
 30
0.0
 11
-277.0
 21
0.0
 31
0.0
  0
ARC
  5
F1
100
AcDbEntity
  8
0
  6
CONTINUOUS
 62
               7
100
AcDbCircle
 10
-287.0
 20
1.5
 30
0.0
 40
1.5
100
AcDbArc
 50
180.0
 51
270.0
  0
LINE
  5
F2
100
AcDbEntity
  8
0
  6
CONTINUOUS
 62
               2
100
AcDbLine
 10
-328.60000000000002
 20
31.349999427786543
 30
0.0
 11
-328.60000000000002
 21
25.150000572213457
 31
0.0
  0
LINE
  5
F3
100
AcDbEntity
  8
0
  6
CONTINUOUS
 62
               2
100
AcDbLine
 10
-325.50000667572021
 20
28.25
 30
0.0
 11
-331.70000553131104
 21
28.25
 31
0.0
  0
LINE
  5
F4
100
AcDbEntity
  8
0
  6
CONTINUOUS
 62
               7
100
AcDbLine
 10
-309.69999999999999
 20
23.25
 30
0.0
 11
-300.38867500000003
 21
23.25
 31
0.0
  0
LINE
  5
F5
100
AcDbEntity
  8
0
  6
CONTINUOUS
 62
               7
100
AcDbLine
 10
-309.69999999999999
 20
17.25
 30
0.0
 11
-300.38867500000003
 21
17.25
 31
0.0
  0
LINE
  5
F6
100
AcDbEntity
  8
0
  6
CONTINUOUS
 62
               7
100
AcDbLine
 10
-13.950000000000045
 20
215.50000005632384
 30
0.0
 11
-7.049999913245955
 21
215.50000005632384
 31
0.0
  0
LINE
  5
F7
100
AcDbEntity
  8
0
  6
CONTINUOUS
 62
               7
100
AcDbLine
 10
-3.450000086754045
 20
215.49999997203483
 30
0.0
 11
3.4499999999998181
 21
215.49999997203483
 31
0.0
  0
ENDBLK
  5
F8
100
AcDbEntity
  8
0
100
AcDbBlockEnd
  0
BLOCK
  5
F9
100
AcDbEntity
  8
0
100
AcDbBlockBegin
  2
DPT-T18-V-2
 70
               0
 10
0.0
 20
0.0
 30
0.0
  3
DPT-T18-V-2
  1

  0
ARC
  5
FA
100
AcDbEntity
  8
0
  6
CONTINUOUS
 62
               7
100
AcDbCircle
 10
5.0
 20
1.5
 30
0.0
 40
1.5
100
AcDbArc
 50
270.0
 51
0.0
  0
LINE
  5
FB
100
AcDbEntity
  8
0
  6
CONTINUOUS
 62
               7
100
AcDbLine
 10
5.0
 20
0.0
 30
0.0
 11
-5.0
 21
0.0
 31
0.0
  0
ARC
  5
FC
100
AcDbEntity
  8
0
  6
CONTINUOUS
 62
               7
100
AcDbCircle
 10
-5.0
 20
1.5
 30
0.0
 40
1.5
100
AcDbArc
 50
180.0
 51
270.0
  0
ARC
  5
FD
100
AcDbEntity
  8
0
  6
CONTINUOUS
 62
               7
100
AcDbCircle
 10
-53.799999999999983
 20
1.5
 30
0.0
 40
1.5
100
AcDbArc
 50
180.0
 51
270.0
  0
LINE
  5
FE
100
AcDbEntity
  8
0
  6
CONTINUOUS
 62
               7
100
AcDbLine
 10
-43.799999999999983
 20
0.0
 30
0.0
 11
-53.799999999999983
 21
0.0
 31
0.0
  0
ARC
  5
FF
100
AcDbEntity
  8
0
  6
CONTINUOUS
 62
               7
100
AcDbCircle
 10
-43.799999999999983
 20
1.5
 30
0.0
 40
1.5
100
AcDbArc
 50
270.0
 51
0.0
  0
LINE
  5
100
100
AcDbEntity
  8
0
  6
CONTINUOUS
 62
               7
100
AcDbLine
 10
-42.299999999999983
 20
5.0
 30
0.0
 11
-42.299999999999983
 21
1.5
 31
0.0
  0
LINE
  5
101
100
AcDbEntity
  8
0
  6
CONTINUOUS
 62
               7
100
AcDbLine
 10
-55.299999999999983
 20
1.5
 30
0.0
 11
-55.299999999999983
 21
5.0
 31
0.0
  0
LINE
  5
102
100
AcDbEntity
  8
0
  6
CONTINUOUS
 62
               2
100
AcDbLine
 10
-48.799999999999983
 20
-2.0
 30
0.0
 11
-48.799999999999983
 21
7.0
 31
0.0
  0
LINE
  5
103
100
AcDbEntity
  8
0
  6
CONTINUOUS
 62
               7
100
AcDbLine
 10
6.5
 20
5.0
 30
0.0
 11
6.5
 21
1.5
 31
0.0
  0
LINE
  5
104
100
AcDbEntity
  8
0
  6
CONTINUOUS
 62
               7
100
AcDbLine
 10
-6.5
 20
1.5
 30
0.0
 11
-6.5
 21
5.0
 31
0.0
  0
LINE
  5
105
100
AcDbEntity
  8
0
  6
CONTINUOUS
 62
               2
100
AcDbLine
 10
0.0
 20
-2.0
 30
0.0
 11
0.0
 21
7.0
 31
0.0
  0
LINE
  5
106
100
AcDbEntity
  8
0
  6
CONTINUOUS
 62
               7
100
AcDbLine
 10
15.949999999999989
 20
4.5
 30
0.0
 11
9.0500000000000114
 21
4.5
 31
0.0
  0
ARC
  5
107
100
AcDbEntity
  8
0
  6
CONTINUOUS
 62
               7
100
AcDbCircle
 10
12.500000000000057
 20
8.0508929999999737
 30
0.0
 40
4.9508929999999998
100
AcDbArc
 50
274.61909400000002
 51
314.17434300000002
  0
ARC
  5
108
100
AcDbEntity
  8
0
  6
CONTINUOUS
 62
               7
100
AcDbCircle
 10
12.500000000000057
 20
8.0508929999999737
 30
0.0
 40
4.9508929999999998
100
AcDbArc
 50
225.82565700000006
 51
265.36582200000004
  0
LINE
  5
109
100
AcDbEntity
  8
0
  6
CONTINUOUS
 62
               7
100
AcDbLine
 10
12.900000000000034
 20
3.1161849999999731
 30
0.0
 11
12.900000000000034
 21
3.2603980000000092
 31
0.0
  0
LINE
  5
10A
100
AcDbEntity
  8
0
  6
CONTINUOUS
 62
               7
100
AcDbLine
 10
12.099999999999966
 20
3.2603980000000092
 30
0.0
 11
12.099999999999966
 21
3.1161849999999731
 31
0.0
  0
LINE
  5
10B
100
AcDbEntity
  8
0
  6
CONTINUOUS
 62
               7
100
AcDbLine
 10
12.900000000000034
 20
3.2603980000000092
 30
0.0
 11
12.099999999999966
 21
3.2603980000000092
 31
0.0
  0
LINE
  5
10C
100
AcDbEntity
  8
0
  6
CONTINUOUS
 62
               7
100
AcDbLine
 10
9.0500000000000114
 20
4.5
 30
0.0
 11
9.0500000000000114
 21
5.0
 31
0.0
  0
LINE
  5
10D
100
AcDbEntity
  8
0
  6
CONTINUOUS
 62
               7
100
AcDbLine
 10
15.949999999999989
 20
4.5
 30
0.0
 11
15.949999999999989
 21
5.0
 31
0.0
  0
LINE
  5
10E
100
AcDbEntity
  8
0
  6
CONTINUOUS
 62
               7
100
AcDbLine
 10
-55.299999999999983
 20
4.5
 30
0.0
 11
-59.749999999999915
 21
4.5
 31
0.0
  0
ARC
  5
10F
100
AcDbEntity
  8
0
  6
CONTINUOUS
 62
               7
100
AcDbCircle
 10
-56.299999999999983
 20
8.0508929999999737
 30
0.0
 40
4.9508929999999998
100
AcDbArc
 50
274.61909400000002
 51
281.65298813797148
  0
ARC
  5
110
100
AcDbEntity
  8
0
  6
CONTINUOUS
 62
               7
100
AcDbCircle
 10
-56.299999999999983
 20
8.0508929999999737
 30
0.0
 40
4.9508929999999998
100
AcDbArc
 50
225.82565700000006
 51
265.36582200000004
  0
LINE
  5
111
100
AcDbEntity
  8
0
  6
CONTINUOUS
 62
               7
100
AcDbLine
 10
-55.900000000000006
 20
3.1161849999999731
 30
0.0
 11
-55.900000000000006
 21
3.2603980000000092
 31
0.0
  0
LINE
  5
112
100
AcDbEntity
  8
0
  6
CONTINUOUS
 62
               7
100
AcDbLine
 10
-56.69999999999996
 20
3.2603980000000092
 30
0.0
 11
-56.69999999999996
 21
3.1161849999999731
 31
0.0
  0
LINE
  5
113
100
AcDbEntity
  8
0
  6
CONTINUOUS
 62
               7
100
AcDbLine
 10
-55.900000000000006
 20
3.2603980000000092
 30
0.0
 11
-56.69999999999996
 21
3.2603980000000092
 31
0.0
  0
LINE
  5
114
100
AcDbEntity
  8
0
  6
CONTINUOUS
 62
               7
100
AcDbLine
 10
-59.749999999999915
 20
4.5
 30
0.0
 11
-59.749999999999915
 21
5.0
 31
0.0
  0
LINE
  5
115
100
AcDbEntity
  8
0
  6
CONTINUOUS
 62
               7
100
AcDbLine
 10
9.0500000000000114
 20
215.5
 30
0.0
 11
15.949999999999989
 21
215.5
 31
0.0
  0
ARC
  5
116
100
AcDbEntity
  8
0
  6
CONTINUOUS
 62
               7
100
AcDbCircle
 10
12.500000000000057
 20
211.94910700000003
 30
0.0
 40
4.9508929999999998
100
AcDbArc
 50
94.619094000000004
 51
134.17434299999999
  0
ARC
  5
117
100
AcDbEntity
  8
0
  6
CONTINUOUS
 62
               7
100
AcDbCircle
 10
12.500000000000057
 20
211.94910700000003
 30
0.0
 40
4.9508929999999998
100
AcDbArc
 50
45.825657
 51
85.365821999999994
  0
LINE
  5
118
100
AcDbEntity
  8
0
  6
CONTINUOUS
 62
               7
100
AcDbLine
 10
12.099999999999966
 20
216.88381500000003
 30
0.0
 11
12.099999999999966
 21
216.73960199999999
 31
0.0
  0
LINE
  5
119
100
AcDbEntity
  8
0
  6
CONTINUOUS
 62
               7
100
AcDbLine
 10
12.900000000000034
 20
216.73960199999999
 30
0.0
 11
12.900000000000034
 21
216.88381500000003
 31
0.0
  0
LINE
  5
11A
100
AcDbEntity
  8
0
  6
CONTINUOUS
 62
               7
100
AcDbLine
 10
12.099999999999966
 20
216.73960199999999
 30
0.0
 11
12.900000000000034
 21
216.73960199999999
 31
0.0
  0
LINE
  5
11B
100
AcDbEntity
  8
0
  6
CONTINUOUS
 62
               7
100
AcDbLine
 10
15.949999999999989
 20
215.5
 30
0.0
 11
15.949999999999989
 21
215.0
 31
0.0
  0
LINE
  5
11C
100
AcDbEntity
  8
0
  6
CONTINUOUS
 62
               7
100
AcDbLine
 10
9.0500000000000114
 20
215.5
 30
0.0
 11
9.0500000000000114
 21
215.0
 31
0.0
  0
LINE
  5
11D
100
AcDbEntity
  8
0
  6
CONTINUOUS
 62
               7
100
AcDbLine
 10
-59.749999999999915
 20
215.5
 30
0.0
 11
-52.849999999999937
 21
215.5
 31
0.0
  0
ARC
  5
11E
100
AcDbEntity
  8
0
  6
CONTINUOUS
 62
               7
100
AcDbCircle
 10
-56.299999999999983
 20
211.94910700000003
 30
0.0
 40
4.9508929999999998
100
AcDbArc
 50
94.619094000000004
 51
134.17434299999999
  0
ARC
  5
11F
100
AcDbEntity
  8
0
  6
CONTINUOUS
 62
               7
100
AcDbCircle
 10
-56.299999999999983
 20
211.94910700000003
 30
0.0
 40
4.9508929999999998
100
AcDbArc
 50
45.825657
 51
85.365821999999994
  0
LINE
  5
120
100
AcDbEntity
  8
0
  6
CONTINUOUS
 62
               7
100
AcDbLine
 10
-56.69999999999996
 20
216.88381500000003
 30
0.0
 11
-56.69999999999996
 21
216.73960199999999
 31
0.0
  0
LINE
  5
121
100
AcDbEntity
  8
0
  6
CONTINUOUS
 62
               7
100
AcDbLine
 10
-55.900000000000006
 20
216.73960199999999
 30
0.0
 11
-55.900000000000006
 21
216.88381500000003
 31
0.0
  0
LINE
  5
122
100
AcDbEntity
  8
0
  6
CONTINUOUS
 62
               7
100
AcDbLine
 10
-56.69999999999996
 20
216.73960199999999
 30
0.0
 11
-55.900000000000006
 21
216.73960199999999
 31
0.0
  0
LINE
  5
123
100
AcDbEntity
  8
0
  6
CONTINUOUS
 62
               7
100
AcDbLine
 10
-52.849999999999937
 20
215.5
 30
0.0
 11
-52.849999999999937
 21
215.0
 31
0.0
  0
LINE
  5
124
100
AcDbEntity
  8
0
  6
CONTINUOUS
 62
               7
100
AcDbLine
 10
-59.749999999999915
 20
215.5
 30
0.0
 11
-59.749999999999915
 21
215.0
 31
0.0
  0
LINE
  5
125
100
AcDbEntity
  8
0
  6
CONTINUOUS
 62
               7
100
AcDbLine
 10
21.199999999999989
 20
215.0
 30
0.0
 11
-63.799999999999983
 21
215.0
 31
0.0
  0
LINE
  5
126
100
AcDbEntity
  8
0
  6
CONTINUOUS
 62
               7
100
AcDbLine
 10
-63.799999999999983
 20
5.0
 30
0.0
 11
21.199999999999989
 21
5.0
 31
0.0
  0
LINE
  5
127
100
AcDbEntity
  8
0
  6
CONTINUOUS
 62
               7
100
AcDbLine
 10
21.199999999999989
 20
5.0
 30
0.0
 11
21.199999999999989
 21
215.0
 31
0.0
  0
LINE
  5
128
100
AcDbEntity
  8
0
  6
CONTINUOUS
 62
               7
100
AcDbLine
 10
-63.799999999999983
 20
215.0
 30
0.0
 11
-63.799999999999983
 21
5.0
 31
0.0
  0
LINE
  5
129
100
AcDbEntity
  8
0
  6
CONTINUOUS
 62
               2
100
AcDbLine
 10
-49.799999999999983
 20
52.25
 30
0.0
 11
-49.799999999999983
 21
7.75
 31
0.0
  0
LINE
  5
12A
100
AcDbEntity
  8
0
  6
CONTINUOUS
 62
               2
100
AcDbLine
 10
-60.549999999999983
 20
20.25
 30
0.0
 11
-39.049999999999983
 21
20.25
 31
0.0
  0
LINE
  5
12B
100
AcDbEntity
  8
0
  6
CONTINUOUS
 62
               7
100
AcDbLine
 10
20.000000000000057
 20
6.25
 30
0.0
 11
20.000000000000057
 21
213.75
 31
0.0
  0
LINE
  5
12C
100
AcDbEntity
  8
0
  6
CONTINUOUS
 62
               7
100
AcDbLine
 10
-63.799999999999983
 20
6.25
 30
0.0
 11
20.000000000000057
 21
6.25
 31
0.0
  0
LINE
  5
12D
100
AcDbEntity
  8
0
  6
CONTINUOUS
 62
               7
100
AcDbLine
 10
20.000000000000057
 20
213.75
 30
0.0
 11
-63.799999999999983
 21
213.75
 31
0.0
  0
CIRCLE
  5
12E
100
AcDbEntity
  8
0
  6
CONTINUOUS
 62
               2
100
AcDbCircle
 10
-28.800000000000097
 20
116.20000000000005
 30
0.0
 40
1.6000000000000001
  0
CIRCLE
  5
12F
100
AcDbEntity
  8
0
  6
CONTINUOUS
 62
               2
100
AcDbCircle
 10
-28.800000000000097
 20
86.20000000000006
 30
0.0
 40
1.6000000000000001
  0
LINE
  5
130
100
AcDbEntity
  8
0
  6
CONTINUOUS
 62
               2
100
AcDbLine
 10
-31.400000000000119
 20
86.20000000000006
 30
0.0
 11
-26.200000000000074
 21
86.20000000000006
 31
0.0
  0
CIRCLE
  5
131
100
AcDbEntity
  8
0
  6
CONTINUOUS
 62
               2
100
AcDbCircle
 10
1.1999999999999318
 20
86.20000000000006
 30
0.0
 40
1.6000000000000001
  0
CIRCLE
  5
132
100
AcDbEntity
  8
0
  6
CONTINUOUS
 62
               7
100
AcDbCircle
 10
-28.800000000000097
 20
116.20000000000005
 30
0.0
 40
1.2
  0
CIRCLE
  5
133
100
AcDbEntity
  8
0
  6
CONTINUOUS
 62
               7
100
AcDbCircle
 10
1.1999999999999318
 20
86.20000000000006
 30
0.0
 40
1.2
  0
CIRCLE
  5
134
100
AcDbEntity
  8
0
  6
CONTINUOUS
 62
               7
100
AcDbCircle
 10
-28.800000000000097
 20
86.20000000000006
 30
0.0
 40
1.2
  0
LINE
  5
135
100
AcDbEntity
  8
0
  6
CONTINUOUS
 62
               2
100
AcDbLine
 10
-47.799996999999991
 20
195.75
 30
0.0
 11
-29.800002999999975
 21
195.75
 31
0.0
  0
CIRCLE
  5
136
100
AcDbEntity
  8
0
  6
CONTINUOUS
 62
               7
100
AcDbCircle
 10
-38.799999999999983
 20
195.75
 30
0.0
 40
5.2999999999999998
  0
CIRCLE
  5
137
100
AcDbEntity
  8
0
  6
CONTINUOUS
 62
               7
100
AcDbCircle
 10
-38.799999999999983
 20
195.75
 30
0.0
 40
3.0
  0
LINE
  5
138
100
AcDbEntity
  8
0
  6
CONTINUOUS
 62
               2
100
AcDbLine
 10
-38.799999999999983
 20
205.83290399999998
 30
0.0
 11
-38.799999999999983
 21
185.6671
 31
0.0
  0
LINE
  5
139
100
AcDbEntity
  8
0
  6
CONTINUOUS
 62
               7
100
AcDbLine
 10
-45.799996999999991
 20
199.79145
 30
0.0
 11
-45.799996999999991
 21
191.70855
 31
0.0
  0
LINE
  5
13A
100
AcDbEntity
  8
0
  6
CONTINUOUS
 62
               7
100
AcDbLine
 10
-45.799996999999991
 20
191.70855
 30
0.0
 11
-38.799999999999983
 21
187.6671
 31
0.0
  0
LINE
  5
13B
100
AcDbEntity
  8
0
  6
CONTINUOUS
 62
               7
100
AcDbLine
 10
-38.799999999999983
 20
187.6671
 30
0.0
 11
-31.800002999999975
 21
191.70855
 31
0.0
  0
LINE
  5
13C
100
AcDbEntity
  8
0
  6
CONTINUOUS
 62
               7
100
AcDbLine
 10
-31.800002999999975
 20
191.70855
 30
0.0
 11
-31.800002999999975
 21
199.79145
 31
0.0
  0
LINE
  5
13D
100
AcDbEntity
  8
0
  6
CONTINUOUS
 62
               7
100
AcDbLine
 10
-31.800002999999975
 20
199.79145
 30
0.0
 11
-38.799999999999983
 21
203.83290399999998
 31
0.0
  0
LINE
  5
13E
100
AcDbEntity
  8
0
  6
CONTINUOUS
 62
               7
100
AcDbLine
 10
-38.799993000000001
 20
203.8329
 30
0.0
 11
-45.799996999999991
 21
199.79145
 31
0.0
  0
LINE
  5
13F
100
AcDbEntity
  8
0
  6
CONTINUOUS
 62
               2
100
AcDbLine
 10
-1.7999970000000189
 20
195.75
 30
0.0
 11
16.199996999999996
 21
195.75
 31
0.0
  0
CIRCLE
  5
140
100
AcDbEntity
  8
0
  6
CONTINUOUS
 62
               7
100
AcDbCircle
 10
7.1999999999999886
 20
195.75
 30
0.0
 40
5.2999999999999998
  0
CIRCLE
  5
141
100
AcDbEntity
  8
0
  6
CONTINUOUS
 62
               7
100
AcDbCircle
 10
7.1999999999999886
 20
195.75
 30
0.0
 40
3.0
  0
LINE
  5
142
100
AcDbEntity
  8
0
  6
CONTINUOUS
 62
               2
100
AcDbLine
 10
7.1999999999999886
 20
205.75
 30
0.0
 11
7.1999999999999886
 21
185.6671
 31
0.0
  0
LINE
  5
143
100
AcDbEntity
  8
0
  6
CONTINUOUS
 62
               7
100
AcDbLine
 10
0.2000029999999811
 20
199.79145
 30
0.0
 11
0.2000029999999811
 21
191.70855
 31
0.0
  0
LINE
  5
144
100
AcDbEntity
  8
0
  6
CONTINUOUS
 62
               7
100
AcDbLine
 10
0.2000029999999811
 20
191.70855
 30
0.0
 11
7.1999999999999886
 21
187.6671
 31
0.0
  0
LINE
  5
145
100
AcDbEntity
  8
0
  6
CONTINUOUS
 62
               7
100
AcDbLine
 10
7.1999999999999886
 20
187.6671
 30
0.0
 11
14.199996999999996
 21
191.70855
 31
0.0
  0
LINE
  5
146
100
AcDbEntity
  8
0
  6
CONTINUOUS
 62
               7
100
AcDbLine
 10
14.199996999999996
 20
191.70855
 30
0.0
 11
14.199996999999996
 21
199.79145
 31
0.0
  0
LINE
  5
147
100
AcDbEntity
  8
0
  6
CONTINUOUS
 62
               7
100
AcDbLine
 10
14.199996999999996
 20
199.79145
 30
0.0
 11
7.1999999999999886
 21
203.83290399999998
 31
0.0
  0
LINE
  5
148
100
AcDbEntity
  8
0
  6
CONTINUOUS
 62
               7
100
AcDbLine
 10
7.200006999999971
 20
203.8329
 30
0.0
 11
0.2000029999999811
 21
199.79145
 31
0.0
  0
LINE
  5
149
100
AcDbEntity
  8
0
  6
CONTINUOUS
 62
               7
100
AcDbLine
 10
-58.549999999999983
 20
12.75
 30
0.0
 11
-41.049999999999983
 21
12.75
 31
0.0
  0
LINE
  5
14A
100
AcDbEntity
  8
0
  6
CONTINUOUS
 62
               7
100
AcDbLine
 10
-44.299999999999983
 20
12.75
 30
0.0
 11
-44.299999999999983
 21
9.75
 31
0.0
  0
LINE
  5
14B
100
AcDbEntity
  8
0
  6
CONTINUOUS
 62
               7
100
AcDbLine
 10
-55.299999999999983
 20
12.75
 30
0.0
 11
-55.299999999999983
 21
9.75
 31
0.0
  0
LINE
  5
14C
100
AcDbEntity
  8
0
  6
CONTINUOUS
 62
               7
100
AcDbLine
 10
-55.299999999999983
 20
9.75
 30
0.0
 11
-44.299999999999983
 21
9.75
 31
0.0
  0
LINE
  5
14D
100
AcDbEntity
  8
0
  6
CONTINUOUS
 62
               7
100
AcDbLine
 10
-44.799999999999983
 20
35.25
 30
0.0
 11
-44.799999999999983
 21
31.75
 31
0.0
  0
LINE
  5
14E
100
AcDbEntity
  8
0
  6
CONTINUOUS
 62
               7
100
AcDbLine
 10
-54.799999999999983
 20
35.25
 30
0.0
 11
-54.799999999999983
 21
31.75
 31
0.0
  0
LINE
  5
14F
100
AcDbEntity
  8
0
  6
CONTINUOUS
 62
               7
100
AcDbLine
 10
-41.049999999999983
 20
27.75
 30
0.0
 11
-58.549999999999983
 21
27.75
 31
0.0
  0
LINE
  5
150
100
AcDbEntity
  8
0
  6
CONTINUOUS
 62
               7
100
AcDbLine
 10
-41.049999999999983
 20
35.25
 30
0.0
 11
-58.549999999999983
 21
35.25
 31
0.0
  0
LINE
  5
151
100
AcDbEntity
  8
0
  6
CONTINUOUS
 62
               7
100
AcDbLine
 10
-41.049999999999983
 20
31.75
 30
0.0
 11
-58.549999999999983
 21
31.75
 31
0.0
  0
LINE
  5
152
100
AcDbEntity
  8
0
  6
CONTINUOUS
 62
               7
100
AcDbLine
 10
-41.549999999999983
 20
39.75
 30
0.0
 11
-41.549999999999983
 21
35.25
 31
0.0
  0
LINE
  5
153
100
AcDbEntity
  8
0
  6
CONTINUOUS
 62
               7
100
AcDbLine
 10
-47.299999999999983
 20
49.75
 30
0.0
 11
-47.299999999999983
 21
41.25
 31
0.0
  0
LINE
  5
154
100
AcDbEntity
  8
0
  6
CONTINUOUS
 62
               7
100
AcDbLine
 10
-42.049999999999983
 20
40.25
 30
0.0
 11
-57.549999999999983
 21
40.25
 31
0.0
  0
LINE
  5
155
100
AcDbEntity
  8
0
  6
CONTINUOUS
 62
               7
100
AcDbLine
 10
-58.049999999999983
 20
39.75
 30
0.0
 11
-58.049999999999983
 21
35.25
 31
0.0
  0
LINE
  5
156
100
AcDbEntity
  8
0
  6
CONTINUOUS
 62
               7
100
AcDbLine
 10
-52.299999999999983
 20
49.75
 30
0.0
 11
-52.299999999999983
 21
41.25
 31
0.0
  0
LINE
  5
157
100
AcDbEntity
  8
0
  6
CONTINUOUS
 62
               7
100
AcDbLine
 10
-47.799999999999983
 20
50.25
 30
0.0
 11
-51.799999999999983
 21
50.25
 31
0.0
  0
LINE
  5
158
100
AcDbEntity
  8
0
  6
CONTINUOUS
 62
               7
100
AcDbLine
 10
-41.049999999999983
 20
35.25
 30
0.0
 11
-41.049999999999983
 21
12.75
 31
0.0
  0
LINE
  5
159
100
AcDbEntity
  8
0
  6
CONTINUOUS
 62
               7
100
AcDbLine
 10
-58.549999999999983
 20
35.25
 30
0.0
 11
-58.549999999999983
 21
12.75
 31
0.0
  0
ARC
  5
15A
100
AcDbEntity
  8
0
  6
CONTINUOUS
 62
               7
100
AcDbCircle
 10
-42.049999999999983
 20
39.75
 30
0.0
 40
0.5
100
AcDbArc
 50
0.0
 51
90.0
  0
ARC
  5
15B
100
AcDbEntity
  8
0
  6
CONTINUOUS
 62
               7
100
AcDbCircle
 10
-47.799999999999983
 20
49.75
 30
0.0
 40
0.5
100
AcDbArc
 50
0.0
 51
90.0
  0
ARC
  5
15C
100
AcDbEntity
  8
0
  6
CONTINUOUS
 62
               7
100
AcDbCircle
 10
-46.299999999999983
 20
41.25
 30
0.0
 40
1.0
100
AcDbArc
 50
180.0
 51
270.0
  0
ARC
  5
15D
100
AcDbEntity
  8
0
  6
CONTINUOUS
 62
               7
100
AcDbCircle
 10
-57.549999999999983
 20
39.75
 30
0.0
 40
0.5
100
AcDbArc
 50
90.0
 51
180.0
  0
ARC
  5
15E
100
AcDbEntity
  8
0
  6
CONTINUOUS
 62
               7
100
AcDbCircle
 10
-51.799999999999983
 20
49.75
 30
0.0
 40
0.5
100
AcDbArc
 50
90.0
 51
180.0
  0
ARC
  5
15F
100
AcDbEntity
  8
0
  6
CONTINUOUS
 62
               7
100
AcDbCircle
 10
-53.299999999999983
 20
41.25
 30
0.0
 40
1.0
100
AcDbArc
 50
270.0
 51
0.0
  0
LINE
  5
160
100
AcDbEntity
  8
0
  6
CONTINUOUS
 62
               7
100
AcDbLine
 10
-64.299999999999983
 20
69.248115234375035
 30
0.0
 11
-64.299999999999983
 21
62.348115234374944
 31
0.0
  0
ARC
  5
161
100
AcDbEntity
  8
0
  6
CONTINUOUS
 62
               7
100
AcDbCircle
 10
-60.749107000000009
 20
65.79811523437499
 30
0.0
 40
4.9508929999999998
100
AcDbArc
 50
135.82565700000006
 51
175.38090600000004
  0
ARC
  5
162
100
AcDbEntity
  8
0
  6
CONTINUOUS
 62
               7
100
AcDbCircle
 10
-60.749107000000009
 20
65.79811523437499
 30
0.0
 40
4.9508929999999998
100
AcDbArc
 50
184.63417800000005
 51
224.17434300000005
  0
LINE
  5
163
100
AcDbEntity
  8
0
  6
CONTINUOUS
 62
               7
100
AcDbLine
 10
-65.68381500000001
 20
66.198115234374853
 30
0.0
 11
-65.539601999999974
 21
66.198115234374853
 31
0.0
  0
LINE
  5
164
100
AcDbEntity
  8
0
  6
CONTINUOUS
 62
               7
100
AcDbLine
 10
-65.539601999999974
 20
65.398115234375126
 30
0.0
 11
-65.68381500000001
 21
65.398115234375126
 31
0.0
  0
LINE
  5
165
100
AcDbEntity
  8
0
  6
CONTINUOUS
 62
               7
100
AcDbLine
 10
-65.539601999999974
 20
66.198115234374853
 30
0.0
 11
-65.539601999999974
 21
65.398115234375126
 31
0.0
  0
LINE
  5
166
100
AcDbEntity
  8
0
  6
CONTINUOUS
 62
               7
100
AcDbLine
 10
-64.299999999999983
 20
69.248115234375035
 30
0.0
 11
-63.799999999999983
 21
69.248115234375035
 31
0.0
  0
LINE
  5
167
100
AcDbEntity
  8
0
  6
CONTINUOUS
 62
               7
100
AcDbLine
 10
-64.299999999999983
 20
62.348115234374944
 30
0.0
 11
-63.799999999999983
 21
62.348115234374944
 31
0.0
  0
LINE
  5
168
100
AcDbEntity
  8
0
  6
CONTINUOUS
 62
               2
100
AcDbLine
 10
-28.800000000000097
 20
83.600000000000037
 30
0.0
 11
-28.800000000000097
 21
88.800000000000082
 31
0.0
  0
LINE
  5
169
100
AcDbEntity
  8
0
  6
CONTINUOUS
 62
               2
100
AcDbLine
 10
-28.800000000000097
 20
113.60000000000002
 30
0.0
 11
-28.800000000000097
 21
118.80000000000007
 31
0.0
  0
LINE
  5
16A
100
AcDbEntity
  8
0
  6
CONTINUOUS
 62
               2
100
AcDbLine
 10
-31.400000000000119
 20
116.20000000000005
 30
0.0
 11
-26.200000000000074
 21
116.20000000000005
 31
0.0
  0
LINE
  5
16B
100
AcDbEntity
  8
0
  6
CONTINUOUS
 62
               2
100
AcDbLine
 10
1.1999999999999318
 20
83.600000000000037
 30
0.0
 11
1.1999999999999318
 21
88.800000000000082
 31
0.0
  0
LINE
  5
16C
100
AcDbEntity
  8
0
  6
CONTINUOUS
 62
               2
100
AcDbLine
 10
-1.4000000000000909
 20
86.20000000000006
 30
0.0
 11
3.7999999999999545
 21
86.20000000000006
 31
0.0
  0
CIRCLE
  5
16D
100
AcDbEntity
  8
0
  6
CONTINUOUS
 62
               7
100
AcDbCircle
 10
-49.799999999999983
 20
20.25
 30
0.0
 40
6.9000000000000341
  0
CIRCLE
  5
16E
100
AcDbEntity
  8
0
  6
CONTINUOUS
 62
               7
100
AcDbCircle
 10
-49.799999999999983
 20
20.25
 30
0.0
 40
7.5
  0
CIRCLE
  5
16F
100
AcDbEntity
  8
0
  6
CONTINUOUS
 62
               7
100
AcDbCircle
 10
-49.799999999999983
 20
20.25
 30
0.0
 40
7.0
  0
CIRCLE
  5
170
100
AcDbEntity
  8
0
  6
CONTINUOUS
 62
               7
100
AcDbCircle
 10
-49.799999999999983
 20
20.25
 30
0.0
 40
3.0
  0
ENDBLK
  5
171
100
AcDbEntity
  8
0
100
AcDbBlockEnd
  0
BLOCK
  5
172
100
AcDbEntity
  8
0
100
AcDbBlockBegin
  2
DPT-T18-V-3
 70
               0
 10
0.0
 20
0.0
 30
0.0
  3
DPT-T18-V-3
  1

  0
LINE
  5
173
100
AcDbEntity
  8
0
  6
CONTINUOUS
 62
               7
100
AcDbLine
 10
64.300000000000011
 20
62.348115234374944
 30
0.0
 11
63.800000000000011
 21
62.348115234374944
 31
0.0
  0
LINE
  5
174
100
AcDbEntity
  8
0
  6
CONTINUOUS
 62
               7
100
AcDbLine
 10
64.300000000000011
 20
69.248115234375035
 30
0.0
 11
63.800000000000011
 21
69.248115234375035
 31
0.0
  0
LINE
  5
175
100
AcDbEntity
  8
0
  6
CONTINUOUS
 62
               7
100
AcDbLine
 10
65.539602000000002
 20
66.198115234374853
 30
0.0
 11
65.539602000000002
 21
65.398115234375126
 31
0.0
  0
LINE
  5
176
100
AcDbEntity
  8
0
  6
CONTINUOUS
 62
               7
100
AcDbLine
 10
65.539602000000002
 20
65.398115234375126
 30
0.0
 11
65.683815000000038
 21
65.398115234375126
 31
0.0
  0
LINE
  5
177
100
AcDbEntity
  8
0
  6
CONTINUOUS
 62
               7
100
AcDbLine
 10
65.683815000000038
 20
66.198115234374853
 30
0.0
 11
65.539602000000002
 21
66.198115234374853
 31
0.0
  0
ARC
  5
178
100
AcDbEntity
  8
0
  6
CONTINUOUS
 62
               7
100
AcDbCircle
 10
60.749107000000038
 20
65.79811523437499
 30
0.0
 40
4.9508929999999998
100
AcDbArc
 50
315.82565699999992
 51
355.36582199999992
  0
ARC
  5
179
100
AcDbEntity
  8
0
  6
CONTINUOUS
 62
               7
100
AcDbCircle
 10
60.749107000000038
 20
65.79811523437499
 30
0.0
 40
4.9508929999999998
100
AcDbArc
 50
4.6190939999999472
 51
44.174342999999944
  0
LINE
  5
17A
100
AcDbEntity
  8
0
  6
CONTINUOUS
 62
               7
100
AcDbLine
 10
64.300000000000011
 20
69.248115234375035
 30
0.0
 11
64.300000000000011
 21
62.348115234374944
 31
0.0
  0
LINE
  5
17B
100
AcDbEntity
  8
0
  6
CONTINUOUS
 62
               7
100
AcDbLine
 10
52.849999999999966
 20
215.5
 30
0.0
 11
59.750000000000057
 21
215.5
 31
0.0
  0
ARC
  5
17C
100
AcDbEntity
  8
0
  6
CONTINUOUS
 62
               7
100
AcDbCircle
 10
56.300000000000011
 20
211.94910700000003
 30
0.0
 40
4.9508929999999998
100
AcDbArc
 50
94.619094000000004
 51
134.17434299999999
  0
ARC
  5
17D
100
AcDbEntity
  8
0
  6
CONTINUOUS
 62
               7
100
AcDbCircle
 10
56.300000000000011
 20
211.94910700000003
 30
0.0
 40
4.9508929999999998
100
AcDbArc
 50
45.825657
 51
85.365821999999994
  0
LINE
  5
17E
100
AcDbEntity
  8
0
  6
CONTINUOUS
 62
               7
100
AcDbLine
 10
55.900000000000148
 20
216.88381500000003
 30
0.0
 11
55.900000000000148
 21
216.73960199999999
 31
0.0
  0
LINE
  5
17F
100
AcDbEntity
  8
0
  6
CONTINUOUS
 62
               7
100
AcDbLine
 10
56.699999999999875
 20
216.73960199999999
 30
0.0
 11
56.699999999999875
 21
216.88381500000003
 31
0.0
  0
LINE
  5
180
100
AcDbEntity
  8
0
  6
CONTINUOUS
 62
               7
100
AcDbLine
 10
55.900000000000148
 20
216.73960199999999
 30
0.0
 11
56.699999999999875
 21
216.73960199999999
 31
0.0
  0
LINE
  5
181
100
AcDbEntity
  8
0
  6
CONTINUOUS
 62
               7
100
AcDbLine
 10
59.750000000000057
 20
215.5
 30
0.0
 11
59.750000000000057
 21
215.0
 31
0.0
  0
LINE
  5
182
100
AcDbEntity
  8
0
  6
CONTINUOUS
 62
               7
100
AcDbLine
 10
52.849999999999966
 20
215.5
 30
0.0
 11
52.849999999999966
 21
215.0
 31
0.0
  0
LINE
  5
183
100
AcDbEntity
  8
0
  6
CONTINUOUS
 62
               7
100
AcDbLine
 10
-15.949999999999989
 20
215.5
 30
0.0
 11
-9.0500000000001251
 21
215.5
 31
0.0
  0
ARC
  5
184
100
AcDbEntity
  8
0
  6
CONTINUOUS
 62
               7
100
AcDbCircle
 10
-12.499999999999943
 20
211.94910700000003
 30
0.0
 40
4.9508929999999998
100
AcDbArc
 50
94.619094000000004
 51
134.17434299999999
  0
ARC
  5
185
100
AcDbEntity
  8
0
  6
CONTINUOUS
 62
               7
100
AcDbCircle
 10
-12.499999999999943
 20
211.94910700000003
 30
0.0
 40
4.9508929999999998
100
AcDbArc
 50
45.825657
 51
85.365821999999994
  0
LINE
  5
186
100
AcDbEntity
  8
0
  6
CONTINUOUS
 62
               7
100
AcDbLine
 10
-12.900000000000034
 20
216.88381500000003
 30
0.0
 11
-12.900000000000034
 21
216.73960199999999
 31
0.0
  0
LINE
  5
187
100
AcDbEntity
  8
0
  6
CONTINUOUS
 62
               7
100
AcDbLine
 10
-12.099999999999852
 20
216.73960199999999
 30
0.0
 11
-12.099999999999852
 21
216.88381500000003
 31
0.0
  0
LINE
  5
188
100
AcDbEntity
  8
0
  6
CONTINUOUS
 62
               7
100
AcDbLine
 10
-12.900000000000034
 20
216.73960199999999
 30
0.0
 11
-12.099999999999852
 21
216.73960199999999
 31
0.0
  0
LINE
  5
189
100
AcDbEntity
  8
0
  6
CONTINUOUS
 62
               7
100
AcDbLine
 10
-9.0500000000001251
 20
215.5
 30
0.0
 11
-9.0500000000001251
 21
215.0
 31
0.0
  0
LINE
  5
18A
100
AcDbEntity
  8
0
  6
CONTINUOUS
 62
               7
100
AcDbLine
 10
-15.949999999999989
 20
215.5
 30
0.0
 11
-15.949999999999989
 21
215.0
 31
0.0
  0
LINE
  5
18B
100
AcDbEntity
  8
0
  6
CONTINUOUS
 62
               7
100
AcDbLine
 10
63.800000000000011
 20
5.0
 30
0.0
 11
63.800000000000011
 21
215.0
 31
0.0
  0
LINE
  5
18C
100
AcDbEntity
  8
0
  6
CONTINUOUS
 62
               7
100
AcDbLine
 10
-21.199999999999989
 20
215.0
 30
0.0
 11
63.800000000000011
 21
215.0
 31
0.0
  0
LINE
  5
18D
100
AcDbEntity
  8
0
  6
CONTINUOUS
 62
               7
100
AcDbLine
 10
-21.199999999999989
 20
5.0
 30
0.0
 11
-21.199999999999989
 21
215.0
 31
0.0
  0
LINE
  5
18E
100
AcDbEntity
  8
0
  6
CONTINUOUS
 62
               7
100
AcDbLine
 10
-21.199999999999989
 20
5.0
 30
0.0
 11
63.800000000000011
 21
5.0
 31
0.0
  0
ARC
  5
18F
100
AcDbEntity
  8
0
  6
CONTINUOUS
 62
               7
100
AcDbCircle
 10
43.800000000000011
 20
1.5
 30
0.0
 40
1.5
100
AcDbArc
 50
180.0
 51
270.0
  0
LINE
  5
190
100
AcDbEntity
  8
0
  6
CONTINUOUS
 62
               7
100
AcDbLine
 10
43.800000000000011
 20
0.0
 30
0.0
 11
53.800000000000011
 21
0.0
 31
0.0
  0
LINE
  5
191
100
AcDbEntity
  8
0
  6
CONTINUOUS
 62
               7
100
AcDbLine
 10
42.300000000000011
 20
5.0
 30
0.0
 11
42.300000000000011
 21
1.5
 31
0.0
  0
ARC
  5
192
100
AcDbEntity
  8
0
  6
CONTINUOUS
 62
               7
100
AcDbCircle
 10
53.800000000000011
 20
1.5
 30
0.0
 40
1.5
100
AcDbArc
 50
270.0
 51
0.0
  0
LINE
  5
193
100
AcDbEntity
  8
0
  6
CONTINUOUS
 62
               7
100
AcDbLine
 10
55.300000000000011
 20
1.5
 30
0.0
 11
55.300000000000011
 21
5.0
 31
0.0
  0
LINE
  5
194
100
AcDbEntity
  8
0
  6
CONTINUOUS
 62
               7
100
AcDbLine
 10
-19.999999999999943
 20
6.25
 30
0.0
 11
63.800000000000011
 21
6.25
 31
0.0
  0
LINE
  5
195
100
AcDbEntity
  8
0
  6
CONTINUOUS
 62
               7
100
AcDbLine
 10
-19.999999999999943
 20
213.75
 30
0.0
 11
-19.999999999999943
 21
6.25
 31
0.0
  0
LINE
  5
196
100
AcDbEntity
  8
0
  6
CONTINUOUS
 62
               7
100
AcDbLine
 10
63.800000000000011
 20
213.75
 30
0.0
 11
-19.999999999999943
 21
213.75
 31
0.0
  0
LINE
  5
197
100
AcDbEntity
  8
0
  6
CONTINUOUS
 62
               7
100
AcDbLine
 10
-8.9999999999999432
 20
16.25
 30
0.0
 11
11.000000000000057
 21
16.25
 31
0.0
  0
LINE
  5
198
100
AcDbEntity
  8
0
  6
CONTINUOUS
 62
               7
100
AcDbLine
 10
-9.9999999999999432
 20
27.25
 30
0.0
 11
-9.9999999999999432
 21
17.25
 31
0.0
  0
LINE
  5
199
100
AcDbEntity
  8
0
  6
CONTINUOUS
 62
               7
100
AcDbLine
 10
12.000000000000057
 20
27.25
 30
0.0
 11
12.000000000000057
 21
17.25
 31
0.0
  0
LINE
  5
19A
100
AcDbEntity
  8
0
  6
CONTINUOUS
 62
               7
100
AcDbLine
 10
-9.9999999999999432
 20
24.75
 30
0.0
 11
12.000000000000057
 21
24.75
 31
0.0
  0
LINE
  5
19B
100
AcDbEntity
  8
0
  6
CONTINUOUS
 62
               7
100
AcDbLine
 10
-8.9999999999999432
 20
28.25
 30
0.0
 11
11.000000000000057
 21
28.25
 31
0.0
  0
ARC
  5
19C
100
AcDbEntity
  8
0
  6
CONTINUOUS
 62
               7
100
AcDbCircle
 10
-8.9999999999999432
 20
27.25
 30
0.0
 40
1.0
100
AcDbArc
 50
90.0
 51
180.0
  0
ARC
  5
19D
100
AcDbEntity
  8
0
  6
CONTINUOUS
 62
               7
100
AcDbCircle
 10
11.000000000000057
 20
27.25
 30
0.0
 40
1.0
100
AcDbArc
 50
0.0
 51
90.0
  0
ARC
  5
19E
100
AcDbEntity
  8
0
  6
CONTINUOUS
 62
               7
100
AcDbCircle
 10
11.000000000000057
 20
17.25
 30
0.0
 40
1.0
100
AcDbArc
 50
270.0
 51
0.0
  0
ARC
  5
19F
100
AcDbEntity
  8
0
  6
CONTINUOUS
 62
               7
100
AcDbCircle
 10
-8.9999999999999432
 20
17.25
 30
0.0
 40
1.0
100
AcDbArc
 50
180.0
 51
270.0
  0
LINE
  5
1A0
100
AcDbEntity
  8
0
  6
CONTINUOUS
 62
               2
100
AcDbLine
 10
48.800000000000011
 20
-2.0
 30
0.0
 11
48.800000000000011
 21
7.0
 31
0.0
  0
LINE
  5
1A1
100
AcDbEntity
  8
0
  6
CONTINUOUS
 62
               7
100
AcDbLine
 10
-6.5
 20
5.0
 30
0.0
 11
-6.5
 21
1.5
 31
0.0
  0
LINE
  5
1A2
100
AcDbEntity
  8
0
  6
CONTINUOUS
 62
               7
100
AcDbLine
 10
6.5
 20
1.5
 30
0.0
 11
6.5
 21
5.0
 31
0.0
  0
LINE
  5
1A3
100
AcDbEntity
  8
0
  6
CONTINUOUS
 62
               2
100
AcDbLine
 10
0.0
 20
-2.0
 30
0.0
 11
0.0
 21
7.0
 31
0.0
  0
ARC
  5
1A4
100
AcDbEntity
  8
0
  6
CONTINUOUS
 62
               7
100
AcDbCircle
 10
5.0
 20
1.5
 30
0.0
 40
1.5
100
AcDbArc
 50
270.0
 51
0.0
  0
LINE
  5
1A5
100
AcDbEntity
  8
0
  6
CONTINUOUS
 62
               7
100
AcDbLine
 10
-5.0
 20
0.0
 30
0.0
 11
5.0
 21
0.0
 31
0.0
  0
ARC
  5
1A6
100
AcDbEntity
  8
0
  6
CONTINUOUS
 62
               7
100
AcDbCircle
 10
-5.0
 20
1.5
 30
0.0
 40
1.5
100
AcDbArc
 50
180.0
 51
270.0
  0
ENDBLK
  5
1A7
100
AcDbEntity
  8
0
100
AcDbBlockEnd
  0
BLOCK
  5
1A8
100
AcDbEntity
  8
0
100
AcDbBlockBegin
  2
DPT-T18-V-4
 70
               0
 10
0.0
 20
0.0
 30
0.0
  3
DPT-T18-V-4
  1

  0
LINE
  5
1A9
100
AcDbEntity
  8
0
  6
CONTINUOUS
 62
               7
100
AcDbLine
 10
-314.60000000000002
 20
57.30000000000004
 30
0.0
 11
-314.60000000000002
 21
42.30000000000004
 31
0.0
  0
LINE
  5
1AA
100
AcDbEntity
  8
0
  6
CONTINUOUS
 62
               7
100
AcDbLine
 10
-309.70000000000005
 20
56.700000000000074
 30
0.0
 11
-309.70000000000005
 21
42.900000000000006
 31
0.0
  0
LINE
  5
1AB
100
AcDbEntity
  8
0
  6
CONTINUOUS
 62
               7
100
AcDbLine
 10
-312.70000000000005
 20
56.80000000000004
 30
0.0
 11
-312.70000000000005
 21
42.80000000000004
 31
0.0
  0
LINE
  5
1AC
100
AcDbEntity
  8
0
  6
CONTINUOUS
 62
               7
100
AcDbLine
 10
-311.70000000000005
 20
56.700000000000074
 30
0.0
 11
-311.70000000000005
 21
42.900000000000006
 31
0.0
  0
LINE
  5
1AD
100
AcDbEntity
  8
0
  6
CONTINUOUS
 62
               7
100
AcDbLine
 10
-314.60000000000002
 20
42.80000000000004
 30
0.0
 11
-312.70000000000005
 21
42.80000000000004
 31
0.0
  0
LINE
  5
1AE
100
AcDbEntity
  8
0
  6
CONTINUOUS
 62
               7
100
AcDbLine
 10
-314.60000000000002
 20
56.80000000000004
 30
0.0
 11
-312.70000000000005
 21
56.80000000000004
 31
0.0
  0
LINE
  5
1AF
100
AcDbEntity
  8
0
  6
CONTINUOUS
 62
               7
100
AcDbLine
 10
-311.70000000000005
 20
42.900000000000006
 30
0.0
 11
-309.70000000000005
 21
42.900000000000006
 31
0.0
  0
LINE
  5
1B0
100
AcDbEntity
  8
0
  6
CONTINUOUS
 62
               7
100
AcDbLine
 10
-311.70000000000005
 20
56.700000000000074
 30
0.0
 11
-309.70000000000005
 21
56.700000000000074
 31
0.0
  0
LINE
  5
1B1
100
AcDbEntity
  8
0
  6
CONTINUOUS
 62
               7
100
AcDbLine
 10
-312.70000000000005
 20
44.900000000000006
 30
0.0
 11
-311.70000000000005
 21
44.900000000000006
 31
0.0
  0
LINE
  5
1B2
100
AcDbEntity
  8
0
  6
CONTINUOUS
 62
               7
100
AcDbLine
 10
-312.70000000000005
 20
54.700000000000074
 30
0.0
 11
-311.70000000000005
 21
54.700000000000074
 31
0.0
  0
LINE
  5
1B3
100
AcDbEntity
  8
0
  6
CONTINUOUS
 62
               7
100
AcDbLine
 10
-323.60000000000002
 20
42.30000000000004
 30
0.0
 11
-314.60000000000002
 21
42.30000000000004
 31
0.0
  0
LINE
  5
1B4
100
AcDbEntity
  8
0
  6
CONTINUOUS
 62
               7
100
AcDbLine
 10
-323.60000000000002
 20
57.30000000000004
 30
0.0
 11
-314.60000000000002
 21
57.30000000000004
 31
0.0
  0
LINE
  5
1B5
100
AcDbEntity
  8
0
  6
CONTINUOUS
 62
               2
100
AcDbLine
 10
-337.60000000000002
 20
60.30000000000004
 30
0.0
 11
-337.60000000000002
 21
39.30000000000004
 31
0.0
  0
LINE
  5
1B6
100
AcDbEntity
  8
0
  6
CONTINUOUS
 62
               7
100
AcDbLine
 10
-323.60000000000002
 20
58.30000000000004
 30
0.0
 11
-323.60000000000002
 21
41.30000000000004
 31
0.0
  0
ARC
  5
1B7
100
AcDbEntity
  8
0
  6
CONTINUOUS
 62
               7
100
AcDbCircle
 10
-345.09191110019833
 20
47.803456739218035
 30
0.0
 40
0.5034603664321218
100
AcDbArc
 50
194.19462272469841
 51
270.21749127806811
  0
ARC
  5
1B8
100
AcDbEntity
  8
0
  6
CONTINUOUS
 62
               7
100
AcDbCircle
 10
-345.09191110019833
 20
51.796543260782045
 30
0.0
 40
0.5034603664321218
100
AcDbArc
 50
89.782508721931876
 51
165.80537727530159
  0
ARC
  5
1B9
100
AcDbEntity
  8
0
  6
CONTINUOUS
 62
               7
100
AcDbCircle
 10
-337.60000610351562
 20
49.80000000000004
 30
0.0
 40
8.2567973565982502
100
AcDbArc
 50
165.12221129448869
 51
194.87778870551131
  0
ARC
  5
1BA
100
AcDbEntity
  8
0
  6
CONTINUOUS
 62
               7
100
AcDbCircle
 10
-330.11432538118339
 20
51.801396219000395
 30
0.0
 40
0.4986360714246929
100
AcDbArc
 50
13.760057832765391
 51
90.652056170000407
  0
ARC
  5
1BB
100
AcDbEntity
  8
0
  6
CONTINUOUS
 62
               7
100
AcDbCircle
 10
-330.11432538118339
 20
47.798603780999684
 30
0.0
 40
0.4986360714246929
100
AcDbArc
 50
269.34794382999962
 51
346.23994216723457
  0
ARC
  5
1BC
100
AcDbEntity
  8
0
  6
CONTINUOUS
 62
               7
100
AcDbCircle
 10
-337.59856819113043
 20
49.810942968639921
 30
0.0
 40
8.2485754498756219
100
AcDbArc
 50
345.02837056325984
 51
14.824666773798391
  0
ARC
  5
1BD
100
AcDbEntity
  8
0
  6
CONTINUOUS
 62
               7
100
AcDbCircle
 10
-337.59989568493933
 20
49.800412043563796
 30
0.0
 40
9.999895693428428
100
AcDbArc
 50
329.99692881880657
 51
29.997618988813752
  0
ARC
  5
1BE
100
AcDbEntity
  8
0
  6
CONTINUOUS
 62
               7
100
AcDbCircle
 10
-337.60000610351562
 20
49.80000000000004
 30
0.0
 40
9.9997747118195939
100
AcDbArc
 50
149.99925473310975
 51
210.00074526689025
  0
CIRCLE
  5
1BF
100
AcDbEntity
  8
0
  6
CONTINUOUS
 62
               7
100
AcDbCircle
 10
-337.60000610351562
 20
49.80000000000004
 30
0.0
 40
8.5
  0
LINE
  5
1C0
100
AcDbEntity
  8
0
  6
CONTINUOUS
 62
               7
100
AcDbLine
 10
-351.60000000000002
 20
42.30000000000004
 30
0.0
 11
-360.60000000000002
 21
42.30000000000004
 31
0.0
  0
LINE
  5
1C1
100
AcDbEntity
  8
0
  6
CONTINUOUS
 62
               7
100
AcDbLine
 10
-362.5
 20
54.700000000000074
 30
0.0
 11
-363.5
 21
54.700000000000074
 31
0.0
  0
LINE
  5
1C2
100
AcDbEntity
  8
0
  6
CONTINUOUS
 62
               7
100
AcDbLine
 10
-362.5
 20
44.900000000000006
 30
0.0
 11
-363.5
 21
44.900000000000006
 31
0.0
  0
LINE
  5
1C3
100
AcDbEntity
  8
0
  6
CONTINUOUS
 62
               7
100
AcDbLine
 10
-363.5
 20
56.700000000000074
 30
0.0
 11
-365.5
 21
56.700000000000074
 31
0.0
  0
LINE
  5
1C4
100
AcDbEntity
  8
0
  6
CONTINUOUS
 62
               7
100
AcDbLine
 10
-363.5
 20
42.900000000000006
 30
0.0
 11
-365.5
 21
42.900000000000006
 31
0.0
  0
LINE
  5
1C5
100
AcDbEntity
  8
0
  6
CONTINUOUS
 62
               7
100
AcDbLine
 10
-360.60000000000002
 20
56.80000000000004
 30
0.0
 11
-362.5
 21
56.80000000000004
 31
0.0
  0
LINE
  5
1C6
100
AcDbEntity
  8
0
  6
CONTINUOUS
 62
               7
100
AcDbLine
 10
-360.60000000000002
 20
42.80000000000004
 30
0.0
 11
-362.5
 21
42.80000000000004
 31
0.0
  0
LINE
  5
1C7
100
AcDbEntity
  8
0
  6
CONTINUOUS
 62
               7
100
AcDbLine
 10
-363.5
 20
56.700000000000074
 30
0.0
 11
-363.5
 21
42.900000000000006
 31
0.0
  0
LINE
  5
1C8
100
AcDbEntity
  8
0
  6
CONTINUOUS
 62
               7
100
AcDbLine
 10
-362.5
 20
56.80000000000004
 30
0.0
 11
-362.5
 21
42.80000000000004
 31
0.0
  0
LINE
  5
1C9
100
AcDbEntity
  8
0
  6
CONTINUOUS
 62
               7
100
AcDbLine
 10
-365.5
 20
56.700000000000074
 30
0.0
 11
-365.5
 21
42.900000000000006
 31
0.0
  0
LINE
  5
1CA
100
AcDbEntity
  8
0
  6
CONTINUOUS
 62
               7
100
AcDbLine
 10
-351.60000000000002
 20
57.30000000000004
 30
0.0
 11
-360.60000000000002
 21
57.30000000000004
 31
0.0
  0
LINE
  5
1CB
100
AcDbEntity
  8
0
  6
CONTINUOUS
 62
               7
100
AcDbLine
 10
-360.60000000000002
 20
57.30000000000004
 30
0.0
 11
-360.60000000000002
 21
42.30000000000004
 31
0.0
  0
LINE
  5
1CC
100
AcDbEntity
  8
0
  6
CONTINUOUS
 62
               7
100
AcDbLine
 10
-343.60000000000002
 20
50.650000000000006
 30
0.0
 11
-343.60000000000002
 21
48.950000000000074
 31
0.0
  0
LINE
  5
1CD
100
AcDbEntity
  8
0
  6
CONTINUOUS
 62
               7
100
AcDbLine
 10
-343.60000000000002
 20
48.950000000000074
 30
0.0
 11
-331.60000000000002
 21
48.950000000000074
 31
0.0
  0
LINE
  5
1CE
100
AcDbEntity
  8
0
  6
CONTINUOUS
 62
               7
100
AcDbLine
 10
-343.60000000000002
 20
50.650000000000006
 30
0.0
 11
-331.60000000000002
 21
50.650000000000006
 31
0.0
  0
LINE
  5
1CF
100
AcDbEntity
  8
0
  6
CONTINUOUS
 62
               7
100
AcDbLine
 10
-345.09000000000003
 20
52.30000000000004
 30
0.0
 11
-330.12
 21
52.30000000000004
 31
0.0
  0
LINE
  5
1D0
100
AcDbEntity
  8
0
  6
CONTINUOUS
 62
               7
100
AcDbLine
 10
-345.09000000000003
 20
47.30000000000004
 30
0.0
 11
-330.12
 21
47.30000000000004
 31
0.0
  0
LINE
  5
1D1
100
AcDbEntity
  8
0
  6
CONTINUOUS
 62
               7
100
AcDbLine
 10
-330.73000000000002
 20
44.80000000000004
 30
0.0
 11
-328.94
 21
44.80000000000004
 31
0.0
  0
LINE
  5
1D2
100
AcDbEntity
  8
0
  6
CONTINUOUS
 62
               7
100
AcDbLine
 10
-330.73000000000002
 20
54.80000000000004
 30
0.0
 11
-328.94
 21
54.80000000000004
 31
0.0
  0
LINE
  5
1D3
100
AcDbEntity
  8
0
  6
CONTINUOUS
 62
               7
100
AcDbLine
 10
-346.25999999999999
 20
54.80000000000004
 30
0.0
 11
-344.48000000000002
 21
54.80000000000004
 31
0.0
  0
LINE
  5
1D4
100
AcDbEntity
  8
0
  6
CONTINUOUS
 62
               7
100
AcDbLine
 10
-346.25999999999999
 20
44.80000000000004
 30
0.0
 11
-344.48000000000002
 21
44.80000000000004
 31
0.0
  0
LINE
  5
1D5
100
AcDbEntity
  8
0
  6
CONTINUOUS
 62
               7
100
AcDbLine
 10
-351.60000000000002
 20
58.30000000000004
 30
0.0
 11
-351.60000000000002
 21
41.30000000000004
 31
0.0
  0
LINE
  5
1D6
100
AcDbEntity
  8
0
  6
CONTINUOUS
 62
               7
100
AcDbLine
 10
-351.60000000000002
 20
58.30000000000004
 30
0.0
 11
-323.60000000000002
 21
58.30000000000004
 31
0.0
  0
LINE
  5
1D7
100
AcDbEntity
  8
0
  6
CONTINUOUS
 62
               7
100
AcDbLine
 10
-351.60000000000002
 20
41.30000000000004
 30
0.0
 11
-323.60000000000002
 21
41.30000000000004
 31
0.0
  0
LINE
  5
1D8
100
AcDbEntity
  8
0
  6
CONTINUOUS
 62
               7
100
AcDbLine
 10
-293.18304200000011
 20
34.758548000000104
 30
0.0
 11
-289.5
 21
34.758548000000104
 31
0.0
  0
LINE
  5
1D9
100
AcDbEntity
  8
0
  6
CONTINUOUS
 62
               7
100
AcDbLine
 10
-293.18304200000011
 20
42.84144999999998
 30
0.0
 11
-289.5
 21
42.84144999999998
 31
0.0
  0
LINE
  5
1DA
100
AcDbEntity
  8
0
  6
CONTINUOUS
 62
               7
100
AcDbLine
 10
-289.52679499999999
 20
45.80000000000004
 30
0.0
 11
-289.81695800000011
 21
46.882900000000035
 31
0.0
  0
ARC
  5
1DB
100
AcDbEntity
  8
0
  6
CONTINUOUS
 62
               7
100
AcDbCircle
 10
-297.01596500000005
 20
44.808515000000028
 30
0.0
 40
7.4919130000000003
100
AcDbArc
 50
7.6048720000000127
 51
16.074272000000015
  0
LINE
  5
1DC
100
AcDbEntity
  8
0
  6
CONTINUOUS
 62
               7
100
AcDbLine
 10
-289.52679499999999
 20
31.80000000000004
 30
0.0
 11
-289.81695800000011
 21
30.717096000000055
 31
0.0
  0
ARC
  5
1DD
100
AcDbEntity
  8
0
  6
CONTINUOUS
 62
               7
100
AcDbCircle
 10
-297.01619800000003
 20
32.791532000000046
 30
0.0
 40
7.4921509999999998
100
AcDbArc
 50
343.92584699999998
 51
352.39500799999996
  0
LINE
  5
1DE
100
AcDbEntity
  8
0
  6
CONTINUOUS
 62
               7
100
AcDbLine
 10
-300.38867500000003
 20
44.500283000000053
 30
0.0
 11
-300.38867500000003
 21
33.099999999999994
 31
0.0
  0
ARC
  5
1DF
100
AcDbEntity
  8
0
  6
CONTINUOUS
 62
               7
100
AcDbCircle
 10
-285.98380600000007
 20
32.684111999999999
 30
0.0
 40
7.4921480000000003
100
AcDbArc
 50
163.92583999999999
 51
174.36266000000001
  0
ARC
  5
1E0
100
AcDbEntity
  8
0
  6
CONTINUOUS
 62
               7
100
AcDbCircle
 10
-286.50639300000012
 20
32.737828000000007
 30
0.0
 40
6.966812
100
AcDbArc
 50
174.38010700000001
 51
185.61586
  0
ARC
  5
1E1
100
AcDbEntity
  8
0
  6
CONTINUOUS
 62
               7
100
AcDbCircle
 10
-285.98403100000007
 20
32.791481000000061
 30
0.0
 40
7.4919180000000001
100
AcDbArc
 50
185.63328300000001
 51
196.074264
  0
ARC
  5
1E2
100
AcDbEntity
  8
0
  6
CONTINUOUS
 62
               7
100
AcDbCircle
 10
-264.87628500000005
 20
38.773316000000108
 30
0.0
 40
28.597591000000001
100
AcDbArc
 50
171.82167899999999
 51
177.237313
  0
ARC
  5
1E3
100
AcDbEntity
  8
0
  6
CONTINUOUS
 62
               7
100
AcDbCircle
 10
-265.40565000000004
 20
38.799990000000065
 30
0.0
 40
28.067554999999999
100
AcDbArc
 50
177.23961600000004
 51
182.76097799999997
  0
ARC
  5
1E4
100
AcDbEntity
  8
0
  6
CONTINUOUS
 62
               7
100
AcDbCircle
 10
-264.87633800000003
 20
38.826685999999967
 30
0.0
 40
28.597539000000001
100
AcDbArc
 50
182.763318
 51
188.17834400000001
  0
ARC
  5
1E5
100
AcDbEntity
  8
0
  6
CONTINUOUS
 62
               7
100
AcDbCircle
 10
-285.98381300000005
 20
44.808465000000041
 30
0.0
 40
7.4921420000000003
100
AcDbArc
 50
163.92583200000001
 51
174.36265299999999
  0
ARC
  5
1E6
100
AcDbEntity
  8
0
  6
CONTINUOUS
 62
               7
100
AcDbCircle
 10
-286.50639100000012
 20
44.862181000000049
 30
0.0
 40
6.9668140000000003
100
AcDbArc
 50
174.380109
 51
185.615859
  0
ARC
  5
1E7
100
AcDbEntity
  8
0
  6
CONTINUOUS
 62
               7
100
AcDbCircle
 10
-285.98403700000006
 20
44.915835000000101
 30
0.0
 40
7.4919120000000001
100
AcDbArc
 50
185.63329100000001
 51
196.07427200000001
  0
ARC
  5
1E8
100
AcDbEntity
  8
0
  6
CONTINUOUS
 62
               7
100
AcDbCircle
 10
-300.1886750000001
 20
44.500000000000085
 30
0.0
 40
0.2
100
AcDbArc
 50
90.0
 51
180.0
  0
ARC
  5
1E9
100
AcDbEntity
  8
0
  6
CONTINUOUS
 62
               7
100
AcDbCircle
 10
-300.1886750000001
 20
33.099999999999994
 30
0.0
 40
0.2
100
AcDbArc
 50
180.0
 51
269.99999600000001
  0
LINE
  5
1EA
100
AcDbEntity
  8
0
  6
CONTINUOUS
 62
               7
100
AcDbLine
 10
-297.51961500000004
 20
33.399999999999949
 30
0.0
 11
-297.51961600000004
 21
44.200000000000017
 31
0.0
  0
LINE
  5
1EB
100
AcDbEntity
  8
0
  6
CONTINUOUS
 62
               7
100
AcDbLine
 10
-293.78867500000001
 20
44.200000000000017
 30
0.0
 11
-297.51961500000004
 21
44.200000000000017
 31
0.0
  0
LINE
  5
1EC
100
AcDbEntity
  8
0
  6
CONTINUOUS
 62
               7
100
AcDbLine
 10
-293.5
 20
44.700000000000017
 30
0.0
 11
-293.78867500000001
 21
44.200000000000017
 31
0.0
  0
LINE
  5
1ED
100
AcDbEntity
  8
0
  6
CONTINUOUS
 62
               7
100
AcDbLine
 10
-293.78867500000001
 20
33.399999999999949
 30
0.0
 11
-297.51961500000004
 21
33.399999999999949
 31
0.0
  0
LINE
  5
1EE
100
AcDbEntity
  8
0
  6
CONTINUOUS
 62
               7
100
AcDbLine
 10
-297.78867500000001
 20
43.733970000000085
 30
0.0
 11
-297.51961500000004
 21
44.200000000000017
 31
0.0
  0
LINE
  5
1EF
100
AcDbEntity
  8
0
  6
CONTINUOUS
 62
               7
100
AcDbLine
 10
-293.5
 20
32.899999999999949
 30
0.0
 11
-293.78867500000001
 21
33.399999999999949
 31
0.0
  0
LINE
  5
1F0
100
AcDbEntity
  8
0
  6
CONTINUOUS
 62
               7
100
AcDbLine
 10
-297.78867500000001
 20
43.733970000000085
 30
0.0
 11
-297.75055500000008
 21
43.80000000000004
 31
0.0
  0
LINE
  5
1F1
100
AcDbEntity
  8
0
  6
CONTINUOUS
 62
               7
100
AcDbLine
 10
-297.78867500000001
 20
33.866026000000005
 30
0.0
 11
-298.28867500000001
 21
34.000000000000085
 31
0.0
  0
LINE
  5
1F2
100
AcDbEntity
  8
0
  6
CONTINUOUS
 62
               7
100
AcDbLine
 10
-298.28867600000001
 20
34.000000000000085
 30
0.0
 11
-298.28867600000001
 21
43.599999999999994
 31
0.0
  0
LINE
  5
1F3
100
AcDbEntity
  8
0
  6
CONTINUOUS
 62
               7
100
AcDbLine
 10
-297.78867500000001
 20
33.866025000000008
 30
0.0
 11
-297.51961500000004
 21
33.399999999999949
 31
0.0
  0
LINE
  5
1F4
100
AcDbEntity
  8
0
  6
CONTINUOUS
 62
               7
100
AcDbLine
 10
-297.78867500000001
 20
43.733970000000085
 30
0.0
 11
-298.28867500000001
 21
43.599999999999994
 31
0.0
  0
LINE
  5
1F5
100
AcDbEntity
  8
0
  6
CONTINUOUS
 62
               7
100
AcDbLine
 10
-299.1886750000001
 20
35.30000000000004
 30
0.0
 11
-298.28867600000001
 21
35.30000000000004
 31
0.0
  0
LINE
  5
1F6
100
AcDbEntity
  8
0
  6
CONTINUOUS
 62
               7
100
AcDbLine
 10
-299.1886750000001
 20
42.30000000000004
 30
0.0
 11
-298.28867600000001
 21
42.30000000000004
 31
0.0
  0
LINE
  5
1F7
100
AcDbEntity
  8
0
  6
CONTINUOUS
 62
               7
100
AcDbLine
 10
-299.1886750000001
 20
44.700000000000017
 30
0.0
 11
-299.1886750000001
 21
32.899999999999949
 31
0.0
  0
LINE
  5
1F8
100
AcDbEntity
  8
0
  6
CONTINUOUS
 62
               7
100
AcDbLine
 10
-300.1886750000001
 20
44.700000000000017
 30
0.0
 11
-299.1886750000001
 21
44.700000000000017
 31
0.0
  0
LINE
  5
1F9
100
AcDbEntity
  8
0
  6
CONTINUOUS
 62
               7
100
AcDbLine
 10
-300.1886750000001
 20
32.899999999999949
 30
0.0
 11
-299.1886750000001
 21
32.899999999999949
 31
0.0
  0
LINE
  5
1FA
100
AcDbEntity
  8
0
  6
CONTINUOUS
 62
               7
100
AcDbLine
 10
-297.78867600000001
 20
43.733970000000085
 30
0.0
 11
-297.78867600000001
 21
33.866026000000005
 31
0.0
  0
LINE
  5
1FB
100
AcDbEntity
  8
0
  6
CONTINUOUS
 62
               7
100
AcDbLine
 10
-293.78867600000001
 20
44.200000000000017
 30
0.0
 11
-293.78867600000001
 21
33.399999999999949
 31
0.0
  0
LINE
  5
1FC
100
AcDbEntity
  8
0
  6
CONTINUOUS
 62
               7
100
AcDbLine
 10
-293.5
 20
31.899999999999949
 30
0.0
 11
-293.5
 21
45.700000000000017
 31
0.0
  0
LINE
  5
1FD
100
AcDbEntity
  8
0
  6
CONTINUOUS
 62
               7
100
AcDbLine
 10
-293.18304200000011
 20
46.882900000000035
 30
0.0
 11
-289.816959
 21
46.882900000000035
 31
0.0
  0
LINE
  5
1FE
100
AcDbEntity
  8
0
  6
CONTINUOUS
 62
               7
100
AcDbLine
 10
-293.18304200000011
 20
30.717096000000055
 30
0.0
 11
-293.5
 21
31.899999999999949
 31
0.0
  0
LINE
  5
1FF
100
AcDbEntity
  8
0
  6
CONTINUOUS
 62
               7
100
AcDbLine
 10
-293.18304200000011
 20
46.882900000000035
 30
0.0
 11
-293.5
 21
45.700000000000017
 31
0.0
  0
LINE
  5
200
100
AcDbEntity
  8
0
  6
CONTINUOUS
 62
               7
100
AcDbLine
 10
-293.18304200000011
 20
30.717096000000055
 30
0.0
 11
-289.816959
 21
30.717096000000055
 31
0.0
  0
LINE
  5
201
100
AcDbEntity
  8
0
  6
CONTINUOUS
 62
               7
100
AcDbLine
 10
-293.5
 20
33.341500000000082
 30
0.0
 11
-293.75490000000002
 21
33.341500000000082
 31
0.0
  0
LINE
  5
202
100
AcDbEntity
  8
0
  6
CONTINUOUS
 62
               7
100
AcDbLine
 10
-293.5
 20
44.258499999999998
 30
0.0
 11
-293.75490000000002
 21
44.258499999999998
 31
0.0
  0
LINE
  5
203
100
AcDbEntity
  8
0
  6
CONTINUOUS
 62
               2
100
AcDbLine
 10
-287.5
 20
38.799999999999983
 30
0.0
 11
-302.38867500000003
 21
38.799999999999983
 31
0.0
  0
LINE
  5
204
100
AcDbEntity
  8
0
  6
CONTINUOUS
 62
               2
100
AcDbLine
 10
-287.5
 20
49.80000000000004
 30
0.0
 11
-367.5
 21
49.80000000000004
 31
0.0
  0
LINE
  5
205
100
AcDbEntity
  8
0
  6
CONTINUOUS
 62
               7
100
AcDbLine
 10
-293.5
 20
55.258500000000055
 30
0.0
 11
-293.75490000000002
 21
55.258500000000055
 31
0.0
  0
LINE
  5
206
100
AcDbEntity
  8
0
  6
CONTINUOUS
 62
               7
100
AcDbLine
 10
-293.18304200000011
 20
57.882900000000092
 30
0.0
 11
-293.5
 21
56.700000000000074
 31
0.0
  0
LINE
  5
207
100
AcDbEntity
  8
0
  6
CONTINUOUS
 62
               7
100
AcDbLine
 10
-293.18304200000011
 20
57.882900000000092
 30
0.0
 11
-289.816959
 21
57.882900000000092
 31
0.0
  0
LINE
  5
208
100
AcDbEntity
  8
0
  6
CONTINUOUS
 62
               7
100
AcDbLine
 10
-293.5
 20
47.378898151814923
 30
0.0
 11
-293.5
 21
56.700000000000074
 31
0.0
  0
LINE
  5
209
100
AcDbEntity
  8
0
  6
CONTINUOUS
 62
               7
100
AcDbLine
 10
-293.78867600000001
 20
55.200000000000074
 30
0.0
 11
-293.78867600000001
 21
44.400000000000006
 31
0.0
  0
LINE
  5
20A
100
AcDbEntity
  8
0
  6
CONTINUOUS
 62
               7
100
AcDbLine
 10
-297.78867600000001
 20
54.733970000000141
 30
0.0
 11
-297.78867600000001
 21
44.866026000000062
 31
0.0
  0
LINE
  5
20B
100
AcDbEntity
  8
0
  6
CONTINUOUS
 62
               7
100
AcDbLine
 10
-300.1886750000001
 20
55.700000000000074
 30
0.0
 11
-299.1886750000001
 21
55.700000000000074
 31
0.0
  0
LINE
  5
20C
100
AcDbEntity
  8
0
  6
CONTINUOUS
 62
               7
100
AcDbLine
 10
-299.1886750000001
 20
55.700000000000074
 30
0.0
 11
-299.1886750000001
 21
45.068644257485886
 31
0.0
  0
LINE
  5
20D
100
AcDbEntity
  8
0
  6
CONTINUOUS
 62
               7
100
AcDbLine
 10
-299.1886750000001
 20
53.300000000000097
 30
0.0
 11
-298.28867600000001
 21
53.300000000000097
 31
0.0
  0
LINE
  5
20E
100
AcDbEntity
  8
0
  6
CONTINUOUS
 62
               7
100
AcDbLine
 10
-299.1886750000001
 20
46.300000000000097
 30
0.0
 11
-298.28867600000001
 21
46.300000000000097
 31
0.0
  0
LINE
  5
20F
100
AcDbEntity
  8
0
  6
CONTINUOUS
 62
               7
100
AcDbLine
 10
-297.78867500000001
 20
54.733970000000141
 30
0.0
 11
-298.28867500000001
 21
54.600000000000051
 31
0.0
  0
LINE
  5
210
100
AcDbEntity
  8
0
  6
CONTINUOUS
 62
               7
100
AcDbLine
 10
-297.78867500000001
 20
44.866025000000064
 30
0.0
 11
-297.51961500000004
 21
44.400000000000006
 31
0.0
  0
LINE
  5
211
100
AcDbEntity
  8
0
  6
CONTINUOUS
 62
               7
100
AcDbLine
 10
-298.28867600000001
 20
45.000000000000142
 30
0.0
 11
-298.28867600000001
 21
54.600000000000051
 31
0.0
  0
LINE
  5
212
100
AcDbEntity
  8
0
  6
CONTINUOUS
 62
               7
100
AcDbLine
 10
-297.78867500000001
 20
44.866026000000062
 30
0.0
 11
-298.28867500000001
 21
45.000000000000142
 31
0.0
  0
LINE
  5
213
100
AcDbEntity
  8
0
  6
CONTINUOUS
 62
               7
100
AcDbLine
 10
-297.78867500000001
 20
54.733970000000141
 30
0.0
 11
-297.75055500000008
 21
54.800000000000097
 31
0.0
  0
LINE
  5
214
100
AcDbEntity
  8
0
  6
CONTINUOUS
 62
               7
100
AcDbLine
 10
-297.78867500000001
 20
54.733970000000141
 30
0.0
 11
-297.51961500000004
 21
55.200000000000074
 31
0.0
  0
LINE
  5
215
100
AcDbEntity
  8
0
  6
CONTINUOUS
 62
               7
100
AcDbLine
 10
-293.78867500000001
 20
44.400000000000006
 30
0.0
 11
-297.51961500000004
 21
44.400000000000006
 31
0.0
  0
LINE
  5
216
100
AcDbEntity
  8
0
  6
CONTINUOUS
 62
               7
100
AcDbLine
 10
-293.5
 20
55.700000000000074
 30
0.0
 11
-293.78867500000001
 21
55.200000000000074
 31
0.0
  0
LINE
  5
217
100
AcDbEntity
  8
0
  6
CONTINUOUS
 62
               7
100
AcDbLine
 10
-293.78867500000001
 20
55.200000000000074
 30
0.0
 11
-297.51961500000004
 21
55.200000000000074
 31
0.0
  0
LINE
  5
218
100
AcDbEntity
  8
0
  6
CONTINUOUS
 62
               7
100
AcDbLine
 10
-297.51961500000004
 20
44.400000000000006
 30
0.0
 11
-297.51961600000004
 21
55.200000000000074
 31
0.0
  0
ARC
  5
219
100
AcDbEntity
  8
0
  6
CONTINUOUS
 62
               7
100
AcDbCircle
 10
-300.1886750000001
 20
55.500000000000142
 30
0.0
 40
0.2
100
AcDbArc
 50
90.0
 51
180.0
  0
ARC
  5
21A
100
AcDbEntity
  8
0
  6
CONTINUOUS
 62
               7
100
AcDbCircle
 10
-285.98403700000006
 20
55.915835000000158
 30
0.0
 40
7.4919120000000001
100
AcDbArc
 50
185.63329100000001
 51
196.07427200000001
  0
ARC
  5
21B
100
AcDbEntity
  8
0
  6
CONTINUOUS
 62
               7
100
AcDbCircle
 10
-286.50639100000012
 20
55.862181000000106
 30
0.0
 40
6.9668140000000003
100
AcDbArc
 50
174.380109
 51
185.615859
  0
ARC
  5
21C
100
AcDbEntity
  8
0
  6
CONTINUOUS
 62
               7
100
AcDbCircle
 10
-285.98381300000005
 20
55.808465000000098
 30
0.0
 40
7.4921420000000003
100
AcDbArc
 50
163.92583200000001
 51
174.36265299999999
  0
ARC
  5
21D
100
AcDbEntity
  8
0
  6
CONTINUOUS
 62
               7
100
AcDbCircle
 10
-264.87633800000003
 20
49.826686000000024
 30
0.0
 40
28.597539000000001
100
AcDbArc
 50
182.76331799999997
 51
184.85847480250354
  0
ARC
  5
21E
100
AcDbEntity
  8
0
  6
CONTINUOUS
 62
               7
100
AcDbCircle
 10
-265.40565000000004
 20
49.799990000000122
 30
0.0
 40
28.067554999999999
100
AcDbArc
 50
177.23961600000004
 51
182.76097799999997
  0
ARC
  5
21F
100
AcDbEntity
  8
0
  6
CONTINUOUS
 62
               7
100
AcDbCircle
 10
-264.87628500000005
 20
49.773316000000165
 30
0.0
 40
28.597591000000001
100
AcDbArc
 50
171.82167899999999
 51
177.237313
  0
LINE
  5
220
100
AcDbEntity
  8
0
  6
CONTINUOUS
 62
               7
100
AcDbLine
 10
-300.38867500000003
 20
55.50028300000011
 30
0.0
 11
-300.38867500000003
 21
45.036557397842415
 31
0.0
  0
ARC
  5
221
100
AcDbEntity
  8
0
  6
CONTINUOUS
 62
               7
100
AcDbCircle
 10
-297.01596500000005
 20
55.808515000000085
 30
0.0
 40
7.4919130000000003
100
AcDbArc
 50
7.6048720000000127
 51
16.074272000000015
  0
LINE
  5
222
100
AcDbEntity
  8
0
  6
CONTINUOUS
 62
               7
100
AcDbLine
 10
-289.52679499999999
 20
56.800000000000097
 30
0.0
 11
-289.81695800000011
 21
57.882900000000092
 31
0.0
  0
LINE
  5
223
100
AcDbEntity
  8
0
  6
CONTINUOUS
 62
               7
100
AcDbLine
 10
-293.18304200000011
 20
53.841450000000037
 30
0.0
 11
-289.5
 21
53.841450000000037
 31
0.0
  0
LINE
  5
224
100
AcDbEntity
  8
0
  6
CONTINUOUS
 62
               7
100
AcDbLine
 10
-293.5
 20
-12.658500000000018
 30
0.0
 11
-293.75490000000002
 21
-12.658500000000018
 31
0.0
  0
LINE
  5
225
100
AcDbEntity
  8
0
  6
CONTINUOUS
 62
               7
100
AcDbLine
 10
-293.5
 20
-1.7415000000001015
 30
0.0
 11
-293.75490000000002
 21
-1.7415000000001015
 31
0.0
  0
LINE
  5
226
100
AcDbEntity
  8
0
  6
CONTINUOUS
 62
               7
100
AcDbLine
 10
-293.18304200000011
 20
0.8829039999999253
 30
0.0
 11
-289.816959
 21
0.8829039999999253
 31
0.0
  0
LINE
  5
227
100
AcDbEntity
  8
0
  6
CONTINUOUS
 62
               7
100
AcDbLine
 10
-293.18304200000011
 20
-15.282900000000055
 30
0.0
 11
-293.5
 21
-14.100000000000037
 31
0.0
  0
LINE
  5
228
100
AcDbEntity
  8
0
  6
CONTINUOUS
 62
               7
100
AcDbLine
 10
-293.18304200000011
 20
0.8829039999999253
 30
0.0
 11
-293.5
 21
-0.2999999999999687
 31
0.0
  0
LINE
  5
229
100
AcDbEntity
  8
0
  6
CONTINUOUS
 62
               7
100
AcDbLine
 10
-293.18304200000011
 20
-15.282900000000055
 30
0.0
 11
-289.816959
 21
-15.282900000000055
 31
0.0
  0
LINE
  5
22A
100
AcDbEntity
  8
0
  6
CONTINUOUS
 62
               7
100
AcDbLine
 10
-293.5
 20
-0.2999999999999687
 30
0.0
 11
-293.5
 21
-14.100000000000037
 31
0.0
  0
LINE
  5
22B
100
AcDbEntity
  8
0
  6
CONTINUOUS
 62
               7
100
AcDbLine
 10
-293.78867600000001
 20
-12.600000000000037
 30
0.0
 11
-293.78867600000001
 21
-1.7999999999999687
 31
0.0
  0
LINE
  5
22C
100
AcDbEntity
  8
0
  6
CONTINUOUS
 62
               7
100
AcDbLine
 10
-297.78867600000001
 20
-12.133970000000105
 30
0.0
 11
-297.78867600000001
 21
-2.266026000000025
 31
0.0
  0
LINE
  5
22D
100
AcDbEntity
  8
0
  6
CONTINUOUS
 62
               7
100
AcDbLine
 10
-300.1886750000001
 20
-1.2999999999999687
 30
0.0
 11
-299.1886750000001
 21
-1.2999999999999687
 31
0.0
  0
LINE
  5
22E
100
AcDbEntity
  8
0
  6
CONTINUOUS
 62
               7
100
AcDbLine
 10
-300.1886750000001
 20
-13.100000000000037
 30
0.0
 11
-299.1886750000001
 21
-13.100000000000037
 31
0.0
  0
LINE
  5
22F
100
AcDbEntity
  8
0
  6
CONTINUOUS
 62
               7
100
AcDbLine
 10
-299.1886750000001
 20
-13.100000000000037
 30
0.0
 11
-299.1886750000001
 21
-1.2999999999999687
 31
0.0
  0
LINE
  5
230
100
AcDbEntity
  8
0
  6
CONTINUOUS
 62
               7
100
AcDbLine
 10
-299.1886750000001
 20
-10.70000000000006
 30
0.0
 11
-298.28867600000001
 21
-10.70000000000006
 31
0.0
  0
LINE
  5
231
100
AcDbEntity
  8
0
  6
CONTINUOUS
 62
               7
100
AcDbLine
 10
-299.1886750000001
 20
-3.7000000000000597
 30
0.0
 11
-298.28867600000001
 21
-3.7000000000000597
 31
0.0
  0
LINE
  5
232
100
AcDbEntity
  8
0
  6
CONTINUOUS
 62
               7
100
AcDbLine
 10
-297.78867500000001
 20
-12.133970000000105
 30
0.0
 11
-298.28867500000001
 21
-12.000000000000014
 31
0.0
  0
LINE
  5
233
100
AcDbEntity
  8
0
  6
CONTINUOUS
 62
               7
100
AcDbLine
 10
-297.78867500000001
 20
-2.2660250000000275
 30
0.0
 11
-297.51961500000004
 21
-1.7999999999999687
 31
0.0
  0
LINE
  5
234
100
AcDbEntity
  8
0
  6
CONTINUOUS
 62
               7
100
AcDbLine
 10
-298.28867600000001
 20
-2.4000000000001052
 30
0.0
 11
-298.28867600000001
 21
-12.000000000000014
 31
0.0
  0
LINE
  5
235
100
AcDbEntity
  8
0
  6
CONTINUOUS
 62
               7
100
AcDbLine
 10
-297.78867500000001
 20
-2.266026000000025
 30
0.0
 11
-298.28867500000001
 21
-2.4000000000001052
 31
0.0
  0
LINE
  5
236
100
AcDbEntity
  8
0
  6
CONTINUOUS
 62
               7
100
AcDbLine
 10
-297.78867500000001
 20
-12.133970000000105
 30
0.0
 11
-297.75055500000008
 21
-12.20000000000006
 31
0.0
  0
LINE
  5
237
100
AcDbEntity
  8
0
  6
CONTINUOUS
 62
               7
100
AcDbLine
 10
-293.5
 20
-1.2999999999999687
 30
0.0
 11
-293.78867500000001
 21
-1.7999999999999687
 31
0.0
  0
LINE
  5
238
100
AcDbEntity
  8
0
  6
CONTINUOUS
 62
               7
100
AcDbLine
 10
-297.78867500000001
 20
-12.133970000000105
 30
0.0
 11
-297.51961500000004
 21
-12.600000000000037
 31
0.0
  0
LINE
  5
239
100
AcDbEntity
  8
0
  6
CONTINUOUS
 62
               7
100
AcDbLine
 10
-293.78867500000001
 20
-1.7999999999999687
 30
0.0
 11
-297.51961500000004
 21
-1.7999999999999687
 31
0.0
  0
LINE
  5
23A
100
AcDbEntity
  8
0
  6
CONTINUOUS
 62
               7
100
AcDbLine
 10
-293.5
 20
-13.100000000000037
 30
0.0
 11
-293.78867500000001
 21
-12.600000000000037
 31
0.0
  0
LINE
  5
23B
100
AcDbEntity
  8
0
  6
CONTINUOUS
 62
               7
100
AcDbLine
 10
-293.78867500000001
 20
-12.600000000000037
 30
0.0
 11
-297.51961500000004
 21
-12.600000000000037
 31
0.0
  0
LINE
  5
23C
100
AcDbEntity
  8
0
  6
CONTINUOUS
 62
               7
100
AcDbLine
 10
-297.51961500000004
 20
-1.7999999999999687
 30
0.0
 11
-297.51961600000004
 21
-12.600000000000037
 31
0.0
  0
ARC
  5
23D
100
AcDbEntity
  8
0
  6
CONTINUOUS
 62
               7
100
AcDbCircle
 10
-300.1886750000001
 20
-1.5000000000000142
 30
0.0
 40
0.2
100
AcDbArc
 50
90.000004000000018
 51
180.0
  0
ARC
  5
23E
100
AcDbEntity
  8
0
  6
CONTINUOUS
 62
               7
100
AcDbCircle
 10
-300.1886750000001
 20
-12.900000000000105
 30
0.0
 40
0.2
100
AcDbArc
 50
180.0
 51
270.0
  0
ARC
  5
23F
100
AcDbEntity
  8
0
  6
CONTINUOUS
 62
               7
100
AcDbCircle
 10
-285.98403700000006
 20
-13.315835000000121
 30
0.0
 40
7.4919120000000001
100
AcDbArc
 50
163.92572799999999
 51
174.36670899999999
  0
ARC
  5
240
100
AcDbEntity
  8
0
  6
CONTINUOUS
 62
               7
100
AcDbCircle
 10
-286.50639100000012
 20
-13.262181000000069
 30
0.0
 40
6.9668140000000003
100
AcDbArc
 50
174.384141
 51
185.619891
  0
ARC
  5
241
100
AcDbEntity
  8
0
  6
CONTINUOUS
 62
               7
100
AcDbCircle
 10
-285.98381300000005
 20
-13.208465000000061
 30
0.0
 40
7.4921420000000003
100
AcDbArc
 50
185.63734700000001
 51
196.07416799999999
  0
ARC
  5
242
100
AcDbEntity
  8
0
  6
CONTINUOUS
 62
               7
100
AcDbCircle
 10
-264.87633800000003
 20
-7.2266859999999866
 30
0.0
 40
28.597539000000001
100
AcDbArc
 50
171.82165599999999
 51
177.236682
  0
ARC
  5
243
100
AcDbEntity
  8
0
  6
CONTINUOUS
 62
               7
100
AcDbCircle
 10
-265.40565000000004
 20
-7.1999900000000849
 30
0.0
 40
28.067554999999999
100
AcDbArc
 50
177.23902200000001
 51
182.76038399999996
  0
ARC
  5
244
100
AcDbEntity
  8
0
  6
CONTINUOUS
 62
               7
100
AcDbCircle
 10
-264.87628500000005
 20
-7.1733160000001277
 30
0.0
 40
28.597591000000001
100
AcDbArc
 50
182.762687
 51
188.17832100000001
  0
ARC
  5
245
100
AcDbEntity
  8
0
  6
CONTINUOUS
 62
               7
100
AcDbCircle
 10
-285.98403100000007
 20
-1.1914810000000813
 30
0.0
 40
7.4919180000000001
100
AcDbArc
 50
163.925736
 51
174.36671699999999
  0
ARC
  5
246
100
AcDbEntity
  8
0
  6
CONTINUOUS
 62
               7
100
AcDbCircle
 10
-286.50639300000012
 20
-1.1378280000000274
 30
0.0
 40
6.966812
100
AcDbArc
 50
174.38414
 51
185.61989299999999
  0
ARC
  5
247
100
AcDbEntity
  8
0
  6
CONTINUOUS
 62
               7
100
AcDbCircle
 10
-285.98380600000007
 20
-1.0841120000000188
 30
0.0
 40
7.4921480000000003
100
AcDbArc
 50
185.63733999999999
 51
196.07416000000001
  0
LINE
  5
248
100
AcDbEntity
  8
0
  6
CONTINUOUS
 62
               7
100
AcDbLine
 10
-300.38867500000003
 20
-12.900283000000073
 30
0.0
 11
-300.38867500000003
 21
-1.5000000000000142
 31
0.0
  0
ARC
  5
249
100
AcDbEntity
  8
0
  6
CONTINUOUS
 62
               7
100
AcDbCircle
 10
-297.01619800000003
 20
-1.1915320000000662
 30
0.0
 40
7.4921509999999998
100
AcDbArc
 50
7.6049920000000295
 51
16.074153000000027
  0
LINE
  5
24A
100
AcDbEntity
  8
0
  6
CONTINUOUS
 62
               7
100
AcDbLine
 10
-289.52679499999999
 20
-0.2000000000000597
 30
0.0
 11
-289.81695800000011
 21
0.8829039999999253
 31
0.0
  0
ARC
  5
24B
100
AcDbEntity
  8
0
  6
CONTINUOUS
 62
               7
100
AcDbCircle
 10
-297.01596500000005
 20
-13.208515000000048
 30
0.0
 40
7.4919130000000003
100
AcDbArc
 50
343.92572799999999
 51
352.395128
  0
LINE
  5
24C
100
AcDbEntity
  8
0
  6
CONTINUOUS
 62
               7
100
AcDbLine
 10
-289.52679499999999
 20
-14.20000000000006
 30
0.0
 11
-289.81695800000011
 21
-15.282900000000055
 31
0.0
  0
LINE
  5
24D
100
AcDbEntity
  8
0
  6
CONTINUOUS
 62
               7
100
AcDbLine
 10
-293.18304200000011
 20
-11.24145
 30
0.0
 11
-289.5
 21
-11.24145
 31
0.0
  0
LINE
  5
24E
100
AcDbEntity
  8
0
  6
CONTINUOUS
 62
               7
100
AcDbLine
 10
-293.18304200000011
 20
-3.158548000000124
 30
0.0
 11
-289.5
 21
-3.158548000000124
 31
0.0
  0
LINE
  5
24F
100
AcDbEntity
  8
0
  6
CONTINUOUS
 62
               7
100
AcDbLine
 10
-16.950000000000045
 20
64.299999999999983
 30
0.0
 11
-16.950000000000045
 21
63.799999999999983
 31
0.0
  0
LINE
  5
250
100
AcDbEntity
  8
0
  6
CONTINUOUS
 62
               7
100
AcDbLine
 10
-80.050000000000068
 20
64.299999999999983
 30
0.0
 11
-86.950000000000045
 21
64.299999999999983
 31
0.0
  0
ARC
  5
251
100
AcDbEntity
  8
0
  6
CONTINUOUS
 62
               7
100
AcDbCircle
 10
-83.5
 20
60.749107000000009
 30
0.0
 40
4.9508929999999998
100
AcDbArc
 50
45.825657
 51
85.380905999999996
  0
ARC
  5
252
100
AcDbEntity
  8
0
  6
CONTINUOUS
 62
               7
100
AcDbCircle
 10
-83.5
 20
60.749107000000009
 30
0.0
 40
4.9508929999999998
100
AcDbArc
 50
94.634177999999991
 51
134.17434299999999
  0
LINE
  5
253
100
AcDbEntity
  8
0
  6
CONTINUOUS
 62
               7
100
AcDbLine
 10
-83.100000000000023
 20
65.68381500000001
 30
0.0
 11
-83.100000000000023
 21
65.539601999999974
 31
0.0
  0
LINE
  5
254
100
AcDbEntity
  8
0
  6
CONTINUOUS
 62
               7
100
AcDbLine
 10
-83.900000000000091
 20
65.539601999999974
 30
0.0
 11
-83.900000000000091
 21
65.68381500000001
 31
0.0
  0
LINE
  5
255
100
AcDbEntity
  8
0
  6
CONTINUOUS
 62
               7
100
AcDbLine
 10
-83.100000000000023
 20
65.539601999999974
 30
0.0
 11
-83.900000000000091
 21
65.539601999999974
 31
0.0
  0
LINE
  5
256
100
AcDbEntity
  8
0
  6
CONTINUOUS
 62
               7
100
AcDbLine
 10
-86.950000000000045
 20
64.299999999999983
 30
0.0
 11
-86.950000000000045
 21
63.799999999999983
 31
0.0
  0
LINE
  5
257
100
AcDbEntity
  8
0
  6
CONTINUOUS
 62
               7
100
AcDbLine
 10
-80.050000000000068
 20
64.299999999999983
 30
0.0
 11
-80.050000000000068
 21
63.799999999999983
 31
0.0
  0
LINE
  5
258
100
AcDbEntity
  8
0
  6
CONTINUOUS
 62
               7
100
AcDbLine
 10
-96.050000000000068
 20
64.299999999999983
 30
0.0
 11
-102.95000000000005
 21
64.299999999999983
 31
0.0
  0
ARC
  5
259
100
AcDbEntity
  8
0
  6
CONTINUOUS
 62
               7
100
AcDbCircle
 10
-99.5
 20
60.749107000000009
 30
0.0
 40
4.9508929999999998
100
AcDbArc
 50
45.825657
 51
85.380905999999996
  0
ARC
  5
25A
100
AcDbEntity
  8
0
  6
CONTINUOUS
 62
               7
100
AcDbCircle
 10
-99.5
 20
60.749107000000009
 30
0.0
 40
4.9508929999999998
100
AcDbArc
 50
94.634177999999991
 51
134.17434299999999
  0
LINE
  5
25B
100
AcDbEntity
  8
0
  6
CONTINUOUS
 62
               7
100
AcDbLine
 10
-99.100000000000023
 20
65.68381500000001
 30
0.0
 11
-99.100000000000023
 21
65.539601999999974
 31
0.0
  0
LINE
  5
25C
100
AcDbEntity
  8
0
  6
CONTINUOUS
 62
               7
100
AcDbLine
 10
-99.900000000000091
 20
65.539601999999974
 30
0.0
 11
-99.900000000000091
 21
65.68381500000001
 31
0.0
  0
LINE
  5
25D
100
AcDbEntity
  8
0
  6
CONTINUOUS
 62
               7
100
AcDbLine
 10
-99.100000000000023
 20
65.539601999999974
 30
0.0
 11
-99.900000000000091
 21
65.539601999999974
 31
0.0
  0
LINE
  5
25E
100
AcDbEntity
  8
0
  6
CONTINUOUS
 62
               7
100
AcDbLine
 10
-102.95000000000005
 20
64.299999999999983
 30
0.0
 11
-102.95000000000005
 21
63.799999999999983
 31
0.0
  0
LINE
  5
25F
100
AcDbEntity
  8
0
  6
CONTINUOUS
 62
               7
100
AcDbLine
 10
-96.050000000000068
 20
64.299999999999983
 30
0.0
 11
-96.050000000000068
 21
63.799999999999983
 31
0.0
  0
LINE
  5
260
100
AcDbEntity
  8
0
  6
CONTINUOUS
 62
               7
100
AcDbLine
 10
-166.05000000000007
 20
64.299999999999983
 30
0.0
 11
-172.95000000000005
 21
64.299999999999983
 31
0.0
  0
ARC
  5
261
100
AcDbEntity
  8
0
  6
CONTINUOUS
 62
               7
100
AcDbCircle
 10
-169.5
 20
60.749107000000009
 30
0.0
 40
4.9508929999999998
100
AcDbArc
 50
45.825657
 51
85.380905999999996
  0
ARC
  5
262
100
AcDbEntity
  8
0
  6
CONTINUOUS
 62
               7
100
AcDbCircle
 10
-169.5
 20
60.749107000000009
 30
0.0
 40
4.9508929999999998
100
AcDbArc
 50
94.634177999999991
 51
134.17434299999999
  0
LINE
  5
263
100
AcDbEntity
  8
0
  6
CONTINUOUS
 62
               7
100
AcDbLine
 10
-169.10000000000002
 20
65.68381500000001
 30
0.0
 11
-169.10000000000002
 21
65.539601999999974
 31
0.0
  0
LINE
  5
264
100
AcDbEntity
  8
0
  6
CONTINUOUS
 62
               7
100
AcDbLine
 10
-169.90000000000009
 20
65.539601999999974
 30
0.0
 11
-169.90000000000009
 21
65.68381500000001
 31
0.0
  0
LINE
  5
265
100
AcDbEntity
  8
0
  6
CONTINUOUS
 62
               7
100
AcDbLine
 10
-169.10000000000002
 20
65.539601999999974
 30
0.0
 11
-169.90000000000009
 21
65.539601999999974
 31
0.0
  0
LINE
  5
266
100
AcDbEntity
  8
0
  6
CONTINUOUS
 62
               7
100
AcDbLine
 10
-172.95000000000005
 20
64.299999999999983
 30
0.0
 11
-172.95000000000005
 21
63.799999999999983
 31
0.0
  0
LINE
  5
267
100
AcDbEntity
  8
0
  6
CONTINUOUS
 62
               7
100
AcDbLine
 10
-166.05000000000007
 20
64.299999999999983
 30
0.0
 11
-166.05000000000007
 21
63.799999999999983
 31
0.0
  0
LINE
  5
268
100
AcDbEntity
  8
0
  6
CONTINUOUS
 62
               7
100
AcDbLine
 10
-182.05000000000007
 20
64.299999999999983
 30
0.0
 11
-188.95000000000005
 21
64.299999999999983
 31
0.0
  0
ARC
  5
269
100
AcDbEntity
  8
0
  6
CONTINUOUS
 62
               7
100
AcDbCircle
 10
-185.5
 20
60.749107000000009
 30
0.0
 40
4.9508929999999998
100
AcDbArc
 50
45.825657
 51
85.380905999999996
  0
ARC
  5
26A
100
AcDbEntity
  8
0
  6
CONTINUOUS
 62
               7
100
AcDbCircle
 10
-185.5
 20
60.749107000000009
 30
0.0
 40
4.9508929999999998
100
AcDbArc
 50
94.634177999999991
 51
134.17434299999999
  0
LINE
  5
26B
100
AcDbEntity
  8
0
  6
CONTINUOUS
 62
               7
100
AcDbLine
 10
-185.10000000000002
 20
65.68381500000001
 30
0.0
 11
-185.10000000000002
 21
65.539601999999974
 31
0.0
  0
LINE
  5
26C
100
AcDbEntity
  8
0
  6
CONTINUOUS
 62
               7
100
AcDbLine
 10
-185.90000000000009
 20
65.539601999999974
 30
0.0
 11
-185.90000000000009
 21
65.68381500000001
 31
0.0
  0
LINE
  5
26D
100
AcDbEntity
  8
0
  6
CONTINUOUS
 62
               7
100
AcDbLine
 10
-185.10000000000002
 20
65.539601999999974
 30
0.0
 11
-185.90000000000009
 21
65.539601999999974
 31
0.0
  0
LINE
  5
26E
100
AcDbEntity
  8
0
  6
CONTINUOUS
 62
               7
100
AcDbLine
 10
-188.95000000000005
 20
64.299999999999983
 30
0.0
 11
-188.95000000000005
 21
63.799999999999983
 31
0.0
  0
LINE
  5
26F
100
AcDbEntity
  8
0
  6
CONTINUOUS
 62
               7
100
AcDbLine
 10
-182.05000000000007
 20
64.299999999999983
 30
0.0
 11
-182.05000000000007
 21
63.799999999999983
 31
0.0
  0
LINE
  5
270
100
AcDbEntity
  8
0
  6
CONTINUOUS
 62
               7
100
AcDbLine
 10
-252.05000000000007
 20
64.299999999999983
 30
0.0
 11
-258.95000000000005
 21
64.299999999999983
 31
0.0
  0
ARC
  5
271
100
AcDbEntity
  8
0
  6
CONTINUOUS
 62
               7
100
AcDbCircle
 10
-255.5
 20
60.749107000000009
 30
0.0
 40
4.9508929999999998
100
AcDbArc
 50
45.825657
 51
85.380905999999996
  0
ARC
  5
272
100
AcDbEntity
  8
0
  6
CONTINUOUS
 62
               7
100
AcDbCircle
 10
-255.5
 20
60.749107000000009
 30
0.0
 40
4.9508929999999998
100
AcDbArc
 50
94.634177999999991
 51
134.17434299999999
  0
LINE
  5
273
100
AcDbEntity
  8
0
  6
CONTINUOUS
 62
               7
100
AcDbLine
 10
-255.10000000000002
 20
65.68381500000001
 30
0.0
 11
-255.10000000000002
 21
65.539601999999974
 31
0.0
  0
LINE
  5
274
100
AcDbEntity
  8
0
  6
CONTINUOUS
 62
               7
100
AcDbLine
 10
-255.90000000000009
 20
65.539601999999974
 30
0.0
 11
-255.90000000000009
 21
65.68381500000001
 31
0.0
  0
LINE
  5
275
100
AcDbEntity
  8
0
  6
CONTINUOUS
 62
               7
100
AcDbLine
 10
-255.10000000000002
 20
65.539601999999974
 30
0.0
 11
-255.90000000000009
 21
65.539601999999974
 31
0.0
  0
LINE
  5
276
100
AcDbEntity
  8
0
  6
CONTINUOUS
 62
               7
100
AcDbLine
 10
-258.95000000000005
 20
64.299999999999983
 30
0.0
 11
-258.95000000000005
 21
63.799999999999983
 31
0.0
  0
LINE
  5
277
100
AcDbEntity
  8
0
  6
CONTINUOUS
 62
               7
100
AcDbLine
 10
-252.05000000000007
 20
64.299999999999983
 30
0.0
 11
-252.05000000000007
 21
63.799999999999983
 31
0.0
  0
LINE
  5
278
100
AcDbEntity
  8
0
  6
CONTINUOUS
 62
               7
100
AcDbLine
 10
-10.050000000000068
 20
64.299999999999983
 30
0.0
 11
-10.050000000000068
 21
63.799999999999983
 31
0.0
  0
LINE
  5
279
100
AcDbEntity
  8
0
  6
CONTINUOUS
 62
               7
100
AcDbLine
 10
-13.100000000000023
 20
65.539601999999974
 30
0.0
 11
-13.900000000000091
 21
65.539601999999974
 31
0.0
  0
LINE
  5
27A
100
AcDbEntity
  8
0
  6
CONTINUOUS
 62
               7
100
AcDbLine
 10
-13.900000000000091
 20
65.539601999999974
 30
0.0
 11
-13.900000000000091
 21
65.68381500000001
 31
0.0
  0
LINE
  5
27B
100
AcDbEntity
  8
0
  6
CONTINUOUS
 62
               7
100
AcDbLine
 10
-13.100000000000023
 20
65.68381500000001
 30
0.0
 11
-13.100000000000023
 21
65.539601999999974
 31
0.0
  0
ARC
  5
27C
100
AcDbEntity
  8
0
  6
CONTINUOUS
 62
               7
100
AcDbCircle
 10
-13.5
 20
60.749107000000009
 30
0.0
 40
4.9508929999999998
100
AcDbArc
 50
94.634177999999991
 51
134.17434299999999
  0
ARC
  5
27D
100
AcDbEntity
  8
0
  6
CONTINUOUS
 62
               7
100
AcDbCircle
 10
-13.5
 20
60.749107000000009
 30
0.0
 40
4.9508929999999998
100
AcDbArc
 50
45.825657
 51
85.380905999999996
  0
LINE
  5
27E
100
AcDbEntity
  8
0
  6
CONTINUOUS
 62
               7
100
AcDbLine
 10
-10.050000000000068
 20
64.299999999999983
 30
0.0
 11
-16.950000000000045
 21
64.299999999999983
 31
0.0
  0
LINE
  5
27F
100
AcDbEntity
  8
0
  6
CONTINUOUS
 62
               7
100
AcDbLine
 10
-289.5
 20
63.799999999999983
 30
0.0
 11
-289.5
 21
-21.200000000000003
 31
0.0
  0
LINE
  5
280
100
AcDbEntity
  8
0
  6
CONTINUOUS
 62
               7
100
AcDbLine
 10
7.5
 20
63.799999999999983
 30
0.0
 11
7.5
 21
-21.200000000000003
 31
0.0
  0
LINE
  5
281
100
AcDbEntity
  8
0
  6
CONTINUOUS
 62
               7
100
AcDbLine
 10
-289.5
 20
-21.200000000000003
 30
0.0
 11
7.5
 21
-21.200000000000003
 31
0.0
  0
LINE
  5
282
100
AcDbEntity
  8
0
  6
CONTINUOUS
 62
               7
100
AcDbLine
 10
-289.5
 20
63.799999999999983
 30
0.0
 11
7.5
 21
63.799999999999983
 31
0.0
  0
CIRCLE
  5
283
100
AcDbEntity
  8
0
  6
CONTINUOUS
 62
               7
100
AcDbCircle
 10
0.0
 20
-12.499999999999957
 30
0.0
 40
3.4500000000000002
  0
CIRCLE
  5
284
100
AcDbEntity
  8
0
  6
CONTINUOUS
 62
               7
100
AcDbCircle
 10
-10.5
 20
56.299999999999983
 30
0.0
 40
3.4500000000000002
  0
CIRCLE
  5
285
100
AcDbEntity
  8
0
  6
CONTINUOUS
 62
               7
100
AcDbCircle
 10
-271.5
 20
56.299999999999983
 30
0.0
 40
3.4500000000000002
  0
CIRCLE
  5
286
100
AcDbEntity
  8
0
  6
CONTINUOUS
 62
               7
100
AcDbCircle
 10
-282.0
 20
-12.499999999999957
 30
0.0
 40
3.4500000000000002
  0
LINE
  5
287
100
AcDbEntity
  8
0
  6
CONTINUOUS
 62
               2
100
AcDbLine
 10
-287.5
 20
-7.2000000000001165
 30
0.0
 11
-302.38867500000003
 21
-7.2000000000001165
 31
0.0
  0
LINE
  5
288
100
AcDbEntity
  8
0
  6
CONTINUOUS
 62
               7
100
AcDbLine
 10
-331.60000000000002
 20
50.650000000000006
 30
0.0
 11
-331.60000000000002
 21
48.950000000000074
 31
0.0
  0
LINE
  5
289
100
AcDbEntity
  8
0
  6
CONTINUOUS
 62
               7
100
AcDbLine
 10
-309.69999999999999
 20
52.80000000000004
 30
0.0
 11
-300.38867500000003
 21
52.80000000000004
 31
0.0
  0
LINE
  5
28A
100
AcDbEntity
  8
0
  6
CONTINUOUS
 62
               7
100
AcDbLine
 10
-309.69999999999999
 20
46.80000000000004
 30
0.0
 11
-300.38867500000003
 21
46.80000000000004
 31
0.0
  0
LINE
  5
28B
100
AcDbEntity
  8
0
  6
CONTINUOUS
 62
               7
100
AcDbLine
 10
-272.38388347648322
 20
57.183883476483203
 30
0.0
 11
-270.61611652351684
 21
55.41611652351682
 31
0.0
  0
LINE
  5
28C
100
AcDbEntity
  8
0
  6
CONTINUOUS
 62
               7
100
AcDbLine
 10
-272.38388347648322
 20
55.416116523516934
 30
0.0
 11
-270.61611652351684
 21
57.18388347648326
 31
0.0
  0
LINE
  5
28D
100
AcDbEntity
  8
0
  6
CONTINUOUS
 62
               7
100
AcDbLine
 10
-282.88388347648322
 20
-13.383883476483035
 30
0.0
 11
-281.11611652351684
 21
-11.616116523516681
 31
0.0
  0
LINE
  5
28E
100
AcDbEntity
  8
0
  6
CONTINUOUS
 62
               7
100
AcDbLine
 10
-282.88388347648322
 20
-11.616116523516766
 30
0.0
 11
-281.11611652351684
 21
-13.38388347648312
 31
0.0
  0
LINE
  5
28F
100
AcDbEntity
  8
0
  6
CONTINUOUS
 62
               7
100
AcDbLine
 10
-11.38388347648322
 20
55.416116523516934
 30
0.0
 11
-9.6161165235168369
 21
57.18388347648326
 31
0.0
  0
LINE
  5
290
100
AcDbEntity
  8
0
  6
CONTINUOUS
 62
               7
100
AcDbLine
 10
-11.38388347648322
 20
57.183883476483203
 30
0.0
 11
-9.6161165235168369
 21
55.41611652351682
 31
0.0
  0
LINE
  5
291
100
AcDbEntity
  8
0
  6
CONTINUOUS
 62
               7
100
AcDbLine
 10
-0.88388347648322
 20
-13.383883476483035
 30
0.0
 11
0.8838834764831631
 21
-11.616116523516681
 31
0.0
  0
LINE
  5
292
100
AcDbEntity
  8
0
  6
CONTINUOUS
 62
               7
100
AcDbLine
 10
-0.88388347648322
 20
-11.616116523516766
 30
0.0
 11
0.8838834764831631
 21
-13.38388347648312
 31
0.0
  0
ENDBLK
  5
293
100
AcDbEntity
  8
0
100
AcDbBlockEnd
  0
ENDSEC
  0
SECTION
  2
ENTITIES
  0
INSERT
  5
294
100
AcDbEntity
  8
0
  6
ByBlock
100
AcDbBlockReference
  2
DPT-T18-V-4
 10
192.5
 20
120.00000000000003
 30
0.0
  0
INSERT
  5
295
100
AcDbEntity
  8
0
  6
ByBlock
100
AcDbBlockReference
  2
DPT-T18-V-3
 10
280.99999999999983
 20
-150.0
 30
0.0
  0
INSERT
  5
296
100
AcDbEntity
  8
0
  6
ByBlock
100
AcDbBlockReference
  2
DPT-T18-V-2
 10
-234.99999999999997
 20
-150.0
 30
0.0
  0
INSERT
  5
297
100
AcDbEntity
  8
0
  6
ByBlock
100
AcDbBlockReference
  2
DPT-T18-V-1
 10
192.5
 20
-150.0
 30
0.0
  0
LINE
  5
298
100
AcDbEntity
  8
0
  6
CONTINUOUS
 62
               7
100
AcDbLine
 10
-201.52490234375
 20
276.5
 30
0.0
 11
-201.52490234375
 21
251.5
 31
0.0
  0
MTEXT
  5
299
100
AcDbEntity
  8
0
  6
CONTINUOUS
 62
               7
100
AcDbMText
 10
-393.40677134469985
 20
270.25
 30
0.0
 40
9.0
 41
0.0
 71
               4
 72
               1
  1
\W1.079;\A1;DESKTOP TYPE AIR TANK
  0
LINE
  5
29A
100
AcDbEntity
  8
0
  6
CONTINUOUS
 62
               7
100
AcDbLine
 10
239.52490234375
 20
-251.5
 30
0.0
 11
239.52490234375
 21
-276.5
 31
0.0
  0
LINE
  5
29B
100
AcDbEntity
  8
0
  6
CONTINUOUS
 62
               7
100
AcDbLine
 10
239.52490234375
 20
-251.5
 30
0.0
 11
399.52490234375
 21
-251.5
 31
0.0
  0
LINE
  5
29C
100
AcDbEntity
  8
0
  6
CONTINUOUS
 62
               7
100
AcDbLine
 10
239.52490234375
 20
251.5
 30
0.0
 11
239.52490234375
 21
276.5
 31
0.0
  0
LINE
  5
29D
100
AcDbEntity
  8
0
  6
CONTINUOUS
 62
               7
100
AcDbLine
 10
239.52490234375
 20
251.5
 30
0.0
 11
399.52490234375
 21
251.5
 31
0.0
  0
LINE
  5
29E
100
AcDbEntity
  8
0
  6
CONTINUOUS
 62
               7
100
AcDbLine
 10
-201.52490234375
 20
251.5
 30
0.0
 11
-399.52490234375
 21
251.5
 31
0.0
  0
MTEXT
  5
29F
100
AcDbEntity
  8
0
  6
CONTINUOUS
 62
               7
100
AcDbMText
 10
245.60966041118564
 20
-264.0
 30
0.0
 40
12.5
 41
0.0
 71
               4
 72
               1
  1
\W1.121;\A1;KOGANEI CORP.
  0
MTEXT
  5
2A0
100
AcDbEntity
  8
0
  6
CONTINUOUS
 62
               7
100
AcDbMText
 10
285.49210822679424
 20
264.0
 30
0.0
 40
9.0
 41
0.0
 71
               4
 72
               1
  1
\W1.311;\A1;Ver. 1.0
  0
MTEXT
  5
2A1
100
AcDbEntity
  8
0
  6
CONTINUOUS
 62
               7
100
AcDbMText
 10
-382.45513553050256
 20
231.5
 30
0.0
 40
9.0
 41
0.0
 71
               4
 72
               1
  1
\W1.047;\A1;MODEL:DPT-T18-V
  0
MTEXT
  5
2A2
100
AcDbEntity
  8
0
  6
CONTINUOUS
 62
               7
100
AcDbMText
 10
-339.52491092681885
 20
257.75
 30
0.0
 40
9.0
 41
0.0
 71
               4
 72
               1
  1
\A1;DPT-T18-V
  0
LINE
  5
2A3
100
AcDbEntity
  8
0
  6
CONTINUOUS
 62
               7
100
AcDbLine
 10
-399.52490234375
 20
-276.5
 30
0.0
 11
399.52490234375
 21
-276.5
 31
0.0
  0
LINE
  5
2A4
100
AcDbEntity
  8
0
  6
CONTINUOUS
 62
               7
100
AcDbLine
 10
-399.52490234375
 20
276.5
 30
0.0
 11
399.52490234375
 21
276.5
 31
0.0
  0
LINE
  5
2A5
100
AcDbEntity
  8
0
  6
CONTINUOUS
 62
               7
100
AcDbLine
 10
-399.52490234375
 20
276.5
 30
0.0
 11
-399.52490234375
 21
-276.5
 31
0.0
  0
LINE
  5
2A6
100
AcDbEntity
  8
0
  6
CONTINUOUS
 62
               7
100
AcDbLine
 10
399.52490234375
 20
276.5
 30
0.0
 11
399.52490234375
 21
-276.5
 31
0.0
  0
ENDSEC
  0
SECTION
  2
OBJECTS
  0
DICTIONARY
  5
19
100
AcDbDictionary
  3
ACAD_GROUP
350
1A
  3
ACAD_MLINESTYLE
350
1B
  0
DICTIONARY
  5
1A
102
{ACAD_REACTORS
330
19
102
}
100
AcDbDictionary
  0
DICTIONARY
  5
1B
102
{ACAD_REACTORS
330
19
102
}
100
AcDbDictionary
  3
STANDARD
350
1C
  0
MLINESTYLE
  5
1C
102
{ACAD_REACTORS
330
1B
102
}
100
AcDbMlineStyle
  2
Standard
 70
               0
  3

 62
               0
 51
90.0
 52
90.0
 71
               2
 49
0.5
 62
             256
  6
ByLayer
 49
-0.5
 62
             256
  6
ByLayer
  0
ENDSEC
  0
EOF
