  0
SECTION
  2
HEADER
  9
$ACADVER
  1
AC1012
  9
$DWGCODEPAGE
  3
dos932
  9
$INSBASE
 10
0.0
 20
0.0
 30
0.0
  9
$EXTMIN
 10
-399.52490234375
 20
-276.5
 30
0.0
  9
$EXTMAX
 10
405.77491474151611
 20
277.00000047683716
 30
0.0
  9
$LIMMIN
 10
-399.52490234375
 20
-276.5
  9
$LIMMAX
 10
405.77491474151611
 20
277.00000047683716
  9
$ORTHOMODE
 70
               0
  9
$REGENMODE
 70
               1
  9
$FILLMODE
 70
               1
  9
$QTEXTMODE
 70
               0
  9
$MIRRTEXT
 70
               1
  9
$DRAGMODE
 70
               2
  9
$LTSCALE
 40
1.0
  9
$OSMODE
 70
               0
  9
$ATTMODE
 70
               1
  9
$TEXTSIZE
 40
3.2000000476837158
  9
$TRACEWID
 40
0.05
  9
$TEXTSTYLE
  7
MX_NOTE_STANDARD
  9
$CLAYER
  8
0
  9
$CELTYPE
  6
CONTINUOUS
  9
$CECOLOR
 62
             256
  9
$CELTSCALE
 40
1.0
  9
$DELOBJ
 70
               1
  9
$DISPSILH
 70
               0
  9
$DIMSCALE
 40
1.0
  9
$DIMASZ
 40
2.5
  9
$DIMEXO
 40
1.5
  9
$DIMDLI
 40
3.75
  9
$DIMRND
 40
0.0
  9
$DIMDLE
 40
0.0
  9
$DIMEXE
 40
1.5
  9
$DIMTP
 40
0.0
  9
$DIMTM
 40
0.0
  9
$DIMTXT
 40
3.2000000476837158
  9
$DIMCEN
 40
2.5
  9
$DIMTSZ
 40
0.0
  9
$DIMTOL
 70
               0
  9
$DIMLIM
 70
               0
  9
$DIMTIH
 70
               0
  9
$DIMTOH
 70
               0
  9
$DIMSE1
 70
               0
  9
$DIMSE2
 70
               0
  9
$DIMTAD
 70
               1
  9
$DIMZIN
 70
               8
  9
$DIMBLK
  1

  9
$DIMASO
 70
               1
  9
$DIMSHO
 70
               1
  9
$DIMPOST
  1

  9
$DIMAPOST
  1

  9
$DIMALT
 70
               0
  9
$DIMALTD
 70
               4
  9
$DIMALTF
 40
0.03937007874016
  9
$DIMLFAC
 40
1.0
  9
$DIMTOFL
 70
               1
  9
$DIMTVP
 40
0.0
  9
$DIMTIX
 70
               0
  9
$DIMSOXD
 70
               0
  9
$DIMSAH
 70
               0
  9
$DIMBLK1
  1

  9
$DIMBLK2
  1

  9
$DIMSTYLE
  2
MXDIMSTYLE
  9
$DIMCLRD
 70
               0
  9
$DIMCLRE
 70
               0
  9
$DIMCLRT
 70
               0
  9
$DIMTFAC
 40
1.0
  9
$DIMGAP
 40
1.0
  9
$DIMJUST
 70
               0
  9
$DIMSD1
 70
               0
  9
$DIMSD2
 70
               0
  9
$DIMTOLJ
 70
               1
  9
$DIMTZIN
 70
               0
  9
$DIMALTZ
 70
               0
  9
$DIMALTTZ
 70
               0
  9
$DIMFIT
 70
               3
  9
$DIMUPT
 70
               1
  9
$DIMUNIT
 70
               2
  9
$DIMDEC
 70
               4
  9
$DIMTDEC
 70
               4
  9
$DIMALTU
 70
               2
  9
$DIMALTTD
 70
               4
  9
$DIMTXSTY
  7
MX_NOTE_STANDARD
  9
$DIMAUNIT
 70
               0
  9
$LUNITS
 70
               2
  9
$LUPREC
 70
               4
  9
$SKETCHINC
 40
0.1
  9
$FILLETRAD
 40
0.0
  9
$AUNITS
 70
               0
  9
$AUPREC
 70
               0
  9
$MENU
  1
acad
  9
$ELEVATION
 40
0.0
  9
$PELEVATION
 40
0.0
  9
$THICKNESS
 40
0.0
  9
$LIMCHECK
 70
               0
  9
$BLIPMODE
 70
               1
  9
$CHAMFERA
 40
0.0
  9
$CHAMFERB
 40
0.0
  9
$CHAMFERC
 40
0.0
  9
$CHAMFERD
 40
0.0
  9
$SKPOLY
 70
               0
  9
$TDCREATE
 40
2453668.382384259
  9
$TDUPDATE
 40
2453668.382384259
  9
$TDINDWG
 40
0.0000000000
  9
$TDUSRTIMER
 40
0.0000000000
  9
$USRTIMER
 70
               1
  9
$ANGBASE
 50
0.0
  9
$ANGDIR
 70
               0
  9
$PDMODE
 70
               0
  9
$PDSIZE
 40
0.0
  9
$PLINEWID
 40
0.0
  9
$COORDS
 70
               1
  9
$SPLFRAME
 70
               0
  9
$SPLINETYPE
 70
               6
  9
$SPLINESEGS
 70
               8
  9
$ATTDIA
 70
               0
  9
$ATTREQ
 70
               1
  9
$HANDLING
 70
               1
  9
$HANDSEED
  5
225
  9
$SURFTAB1
 70
               6
  9
$SURFTAB2
 70
               6
  9
$SURFTYPE
 70
               6
  9
$SURFU
 70
               6
  9
$SURFV
 70
               6
  9
$UCSNAME
  2

  9
$UCSORG
 10
0.0
 20
0.0
 30
0.0
  9
$UCSXDIR
 10
1.0
 20
0.0
 30
0.0
  9
$UCSYDIR
 10
0.0
 20
1.0
 30
0.0
  9
$PUCSNAME
  2

  9
$PUCSORG
 10
0.0
 20
0.0
 30
0.0
  9
$PUCSXDIR
 10
1.0
 20
0.0
 30
0.0
  9
$PUCSYDIR
 10
0.0
 20
1.0
 30
0.0
  9
$USERI1
 70
               0
  9
$USERI2
 70
               0
  9
$USERI3
 70
               0
  9
$USERI4
 70
               0
  9
$USERI5
 70
               0
  9
$USERR1
 40
0.0
  9
$USERR2
 40
0.0
  9
$USERR3
 40
0.0
  9
$USERR4
 40
0.0
  9
$USERR5
 40
0.0
  9
$WORLDVIEW
 70
               1
  9
$SHADEDGE
 70
               3
  9
$SHADEDIF
 70
              70
  9
$TILEMODE
 70
               1
  9
$MAXACTVP
 70
              16
  9
$PINSBASE
 10
0.0
 20
0.0
 30
0.0
  9
$PLIMCHECK
 70
               0
  9
$PEXTMIN
 10
1.0000000000000000E+20
 20
1.0000000000000000E+20
 30
1.0000000000000000E+20
  9
$PEXTMAX
 10
-1.0000000000000000E+20
 20
-1.0000000000000000E+20
 30
-1.0000000000000000E+20
  9
$PLIMMIN
 10
0.0
 20
0.0
  9
$PLIMMAX
 10
12.0
 20
9.0
  9
$UNITMODE
 70
               0
  9
$VISRETAIN
 70
               0
  9
$PLINEGEN
 70
               1
  9
$PSLTSCALE
 70
               0
  9
$TREEDEPTH
 70
            3020
  9
$PICKSTYLE
 70
               1
  9
$CMLSTYLE
  2
Standard
  9
$CMLJUST
 70
               0
  9
$CMLSCALE
 40
1.0
  9
$SAVEIMAGES
 70
               0
  0
ENDSEC
  0
SECTION
  2
CLASSES
  0
CLASS
  1
LWPOLYLINE
  2
AcDbPolyline
  3
"AutoCAD"
 90
        0
280
               0
281
               1
  0
CLASS
  1
IMAGE
  2
AcDbRasterImage
  3
ISM
 90
      127
280
               0
281
               1
  0
CLASS
  1
OLE2FRAME
  2
AcDbOle2Frame
  3
""
 90
        0
280
               0
281
               1
  0
CLASS
  1
HATCH
  2
AcDbHatch
  3
"ACAD_SEDONA"
 90
        0
280
               0
281
               1
  0
CLASS
  1
DICTIONARYVAR
  2
AcDbDictionaryVar
  3
"AutoCAD"
 90
        0
280
               0
281
               0
  0
CLASS
  1
RASTERVARIABLES
  2
AcDbRasterVariables
  3
ISM
 90
        0
280
               0
281
               0
  0
CLASS
  1
IMAGEDEF
  2
AcDbRasterImageDef
  3
ISM
 90
        0
280
               0
281
               0
  0
CLASS
  1
IMAGEDEF_REACTOR
  2
AcDbRasterImageDefReactor
  3
ISM
 90
        1
280
               0
281
               0
  0
CLASS
  1
IDBUFFER
  2
AcDbIdBuffer
  3
"Acad"
 90
        0
280
               0
281
               0
  0
CLASS
  1
SPATIAL_FILTER
  2
AcDbSpatialFilter
  3
"Acad"
 90
        0
280
               0
281
               0
  0
CLASS
  1
XRECORD
  2
AcDbXrecord
  3
"<Built In>"
 90
        0
280
               0
281
               0
  0
CLASS
  1
SORTENTSTABLE
  2
AcDbSortentsTable
  3
"AutoCAD"
 90
        0
280
               0
281
               0
  0
CLASS
  1
LAYER_INDEX
  2
AcDbLayerIndex
  3
"Acad"
 90
        0
280
               0
281
               0
  0
CLASS
  1
SPATIAL_INDEX
  2
AcDbSpatialIndex
  3
"Acad"
 90
        0
280
               0
281
               0
  0
CLASS
  1
OBJECT_PTR
  2
CAseDLPNTableRecord
  3
"ASE-LPNTableRecord"
 90
        1
280
               0
281
               0
  0
CLASS
  1
LAYOUT
  2
AcDbLayout
  3
"AutoCAD 2000"
 90
        1
280
               0
281
               0
  0
CLASS
  1
PLOTSETTINGS
  2
AcDbPlotSettings
  3
"AutoCAD 2000"
 90
        1
280
               0
281
               0
  0
CLASS
  1
ACDBDICTIONARYWDFLT
  2
AcDbDictionaryWithDefault
  3
"AutoCAD 2000"
 90
        1
280
               0
281
               0
  0
CLASS
  1
ACDBPLACEHOLDER
  2
AcDbPlaceHolder
  3
"AutoCAD 2000"
 90
        1
280
               0
281
               0
  0
ENDSEC
  0
SECTION
  2
TABLES
  0
TABLE
  2
VPORT
  5
7
100
AcDbSymbolTable
 70
               1
  0
VPORT
  5
15
100
AcDbSymbolTableRecord
100
AcDbViewportTableRecord
  2
*ACTIVE
 70
               0
 10
0.0
 20
0.0
 11
1.0
 21
1.0
 12
3.1250061988830566
 22
0.2500002384185791
 13
0.0
 23
0.0
 14
1.0
 24
1.0
 15
0.0
 25
0.0
 16
0.0
 26
0.0
 36
1.0
 17
0.0
 27
0.0
 37
0.0
 40
559.03500048160549
 41
1.7320508075688772
 42
50.0
 43
0.0
 44
0.0
 50
0.0
 51
0.0
 71
               0
 72
             100
 73
               1
 74
               1
 75
               0
 76
               0
 77
               0
 78
               0
  0
ENDTAB
  0
TABLE
  2
LTYPE
  5
4
100
AcDbSymbolTable
 70
               3
  0
LTYPE
  5
11
100
AcDbSymbolTableRecord
100
AcDbLinetypeTableRecord
  2
BYBLOCK
 70
              64
  3

 72
              65
 73
               0
 40
0.0
  0
LTYPE
  5
12
100
AcDbSymbolTableRecord
100
AcDbLinetypeTableRecord
  2
BYLAYER
 70
              64
  3

 72
              65
 73
               0
 40
0.0
  0
LTYPE
  5
13
100
AcDbSymbolTableRecord
100
AcDbLinetypeTableRecord
  2
CONTINUOUS
 70
              64
  3
Solid line
 72
              65
 73
               0
 40
0.0
  0
ENDTAB
  0
TABLE
  2
LAYER
  5
2
100
AcDbSymbolTable
 70
               2
  0
LAYER
  5
14
100
AcDbSymbolTableRecord
100
AcDbLayerTableRecord
  2
0
 70
               0
 62
               7
  6
CONTINUOUS
  0
LAYER
  5
1D
100
AcDbSymbolTableRecord
100
AcDbLayerTableRecord
  2
DEFPOINTS
 70
               0
 62
               7
  6
CONTINUOUS
  0
ENDTAB
  0
TABLE
  2
STYLE
  5
3
100
AcDbSymbolTable
 70
               1
  0
STYLE
  5
17
100
AcDbSymbolTableRecord
100
AcDbTextStyleTableRecord
  2
MX_NOTE_STANDARD
 70
               0
 40
0.0
 41
1.0
 50
0.0
 71
               0
 42
3.2000000476837158
  3
txt.shx
  4
extfont.shx
  0
ENDTAB
  0
TABLE
  2
VIEW
  5
5
100
AcDbSymbolTable
 70
               0
  0
ENDTAB
  0
TABLE
  2
UCS
  5
6
100
AcDbSymbolTable
 70
               0
  0
ENDTAB
  0
TABLE
  2
APPID
  5
8
100
AcDbSymbolTable
 70
               1
  0
APPID
  5
16
100
AcDbSymbolTableRecord
100
AcDbRegAppTableRecord
  2
ACAD
 70
               0
  0
ENDTAB
  0
TABLE
  2
DIMSTYLE
  5
9
100
AcDbSymbolTable
 70
               1
  0
DIMSTYLE
105
18
100
AcDbSymbolTableRecord
100
AcDbDimStyleTableRecord
  2
MXDIMSTYLE
 70
               0
  3

  4

  5

  6

  7

 40
1.0
 41
2.5
 42
1.5
 43
3.75
 44
1.5
 45
0.0
 46
0.0
 47
0.0
 48
0.0
 71
               0
 72
               0
 73
               0
 74
               0
 75
               0
 76
               0
 77
               1
 78
               8
140
3.2000000476837158
141
2.5
142
0.0
143
0.03937007874016
144
1.0
145
0.0
146
1.0
147
1.0
170
               0
171
               4
172
               1
173
               0
174
               0
175
               0
176
               0
177
               0
178
               0
270
               2
271
               4
272
               4
273
               2
274
               4
275
               0
280
               0
281
               0
282
               0
283
               1
284
               0
285
               0
286
               0
287
               3
288
               1
340
17
  0
ENDTAB
  0
TABLE
  2
BLOCK_RECORD
  5
1
100
AcDbSymbolTable
 70
               4
  0
BLOCK_RECORD
  5
A
100
AcDbSymbolTableRecord
100
AcDbBlockTableRecord
  2
*MODEL_SPACE
  0
BLOCK_RECORD
  5
B
100
AcDbSymbolTableRecord
100
AcDbBlockTableRecord
  2
*PAPER_SPACE
  0
BLOCK_RECORD
  5
1E
100
AcDbSymbolTableRecord
100
AcDbBlockTableRecord
  2
DPP-AT-1
  0
BLOCK_RECORD
  5
1F
100
AcDbSymbolTableRecord
100
AcDbBlockTableRecord
  2
DPP-AT-2
  0
BLOCK_RECORD
  5
20
100
AcDbSymbolTableRecord
100
AcDbBlockTableRecord
  2
DPP-AT-3
  0
BLOCK_RECORD
  5
21
100
AcDbSymbolTableRecord
100
AcDbBlockTableRecord
  2
DPP-AT-4
  0
ENDTAB
  0
ENDSEC
  0
SECTION
  2
BLOCKS
  0
BLOCK
  5
D
100
AcDbEntity
  8
0
100
AcDbBlockBegin
  2
*MODEL_SPACE
 70
               0
 10
0.0
 20
0.0
 30
0.0
  3
*MODEL_SPACE
  1

  0
ENDBLK
  5
E
100
AcDbEntity
  8
0
100
AcDbBlockEnd
  0
BLOCK
  5
F
100
AcDbEntity
 67
               1
  8
0
100
AcDbBlockBegin
  2
*PAPER_SPACE
 70
               0
 10
0.0
 20
0.0
 30
0.0
  3
*PAPER_SPACE
  1

  0
ENDBLK
  5
10
100
AcDbEntity
 67
               1
  8
0
100
AcDbBlockEnd
  0
BLOCK
  5
22
100
AcDbEntity
  8
0
100
AcDbBlockBegin
  2
DPP-AT-1
 70
               0
 10
0.0
 20
0.0
 30
0.0
  3
DPP-AT-1
  1

  0
LINE
  5
23
100
AcDbEntity
  8
0
  6
CONTINUOUS
 62
               7
100
AcDbLine
 10
-7.0500000000001819
 20
4.5
 30
0.0
 11
-13.950000000000045
 21
4.5
 31
0.0
  0
ARC
  5
24
100
AcDbEntity
  8
0
  6
CONTINUOUS
 62
               7
100
AcDbCircle
 10
-10.5
 20
8.0508929999999737
 30
0.0
 40
4.9508929999999998
100
AcDbArc
 50
274.61909400000002
 51
314.17434300000002
  0
ARC
  5
25
100
AcDbEntity
  8
0
  6
CONTINUOUS
 62
               7
100
AcDbCircle
 10
-10.5
 20
8.0508929999999737
 30
0.0
 40
4.9508929999999998
100
AcDbArc
 50
225.82565700000001
 51
265.36582199999998
  0
LINE
  5
26
100
AcDbEntity
  8
0
  6
CONTINUOUS
 62
               7
100
AcDbLine
 10
-10.099999999999909
 20
3.1161849999999731
 30
0.0
 11
-10.099999999999909
 21
3.2603980000000092
 31
0.0
  0
LINE
  5
27
100
AcDbEntity
  8
0
  6
CONTINUOUS
 62
               7
100
AcDbLine
 10
-10.900000000000091
 20
3.2603980000000092
 30
0.0
 11
-10.900000000000091
 21
3.1161849999999731
 31
0.0
  0
LINE
  5
28
100
AcDbEntity
  8
0
  6
CONTINUOUS
 62
               7
100
AcDbLine
 10
-10.099999999999909
 20
3.2603980000000092
 30
0.0
 11
-10.900000000000091
 21
3.2603980000000092
 31
0.0
  0
LINE
  5
29
100
AcDbEntity
  8
0
  6
CONTINUOUS
 62
               7
100
AcDbLine
 10
-13.950000000000045
 20
4.5
 30
0.0
 11
-13.950000000000045
 21
5.0
 31
0.0
  0
LINE
  5
2A
100
AcDbEntity
  8
0
  6
CONTINUOUS
 62
               7
100
AcDbLine
 10
-7.0500000000001819
 20
4.5
 30
0.0
 11
-7.0500000000001819
 21
5.0
 31
0.0
  0
LINE
  5
2B
100
AcDbEntity
  8
0
  6
CONTINUOUS
 62
               7
100
AcDbLine
 10
-268.05000000000007
 20
4.5
 30
0.0
 11
-274.95000000000005
 21
4.5
 31
0.0
  0
ARC
  5
2C
100
AcDbEntity
  8
0
  6
CONTINUOUS
 62
               7
100
AcDbCircle
 10
-271.5
 20
8.0508929999999737
 30
0.0
 40
4.9508929999999998
100
AcDbArc
 50
274.61909400000002
 51
314.17434300000002
  0
ARC
  5
2D
100
AcDbEntity
  8
0
  6
CONTINUOUS
 62
               7
100
AcDbCircle
 10
-271.5
 20
8.0508929999999737
 30
0.0
 40
4.9508929999999998
100
AcDbArc
 50
225.82565700000001
 51
265.36582199999998
  0
LINE
  5
2E
100
AcDbEntity
  8
0
  6
CONTINUOUS
 62
               7
100
AcDbLine
 10
-271.10000000000002
 20
3.1161849999999731
 30
0.0
 11
-271.10000000000002
 21
3.2603980000000092
 31
0.0
  0
LINE
  5
2F
100
AcDbEntity
  8
0
  6
CONTINUOUS
 62
               7
100
AcDbLine
 10
-271.90000000000009
 20
3.2603980000000092
 30
0.0
 11
-271.90000000000009
 21
3.1161849999999731
 31
0.0
  0
LINE
  5
30
100
AcDbEntity
  8
0
  6
CONTINUOUS
 62
               7
100
AcDbLine
 10
-271.10000000000002
 20
3.2603980000000092
 30
0.0
 11
-271.90000000000009
 21
3.2603980000000092
 31
0.0
  0
LINE
  5
31
100
AcDbEntity
  8
0
  6
CONTINUOUS
 62
               7
100
AcDbLine
 10
-274.95000000000005
 20
4.5
 30
0.0
 11
-274.95000000000005
 21
5.0
 31
0.0
  0
LINE
  5
32
100
AcDbEntity
  8
0
  6
CONTINUOUS
 62
               7
100
AcDbLine
 10
-268.05000000000007
 20
4.5
 30
0.0
 11
-268.05000000000007
 21
5.0
 31
0.0
  0
ARC
  5
33
100
AcDbEntity
  8
0
  6
CONTINUOUS
 62
               7
100
AcDbCircle
 10
0.0
 20
211.94910700000003
 30
0.0
 40
4.9508929999999998
100
AcDbArc
 50
94.619094000000004
 51
134.17434299999999
  0
ARC
  5
34
100
AcDbEntity
  8
0
  6
CONTINUOUS
 62
               7
100
AcDbCircle
 10
0.0
 20
211.94910700000003
 30
0.0
 40
4.9508929999999998
100
AcDbArc
 50
45.825657
 51
85.365821999999994
  0
LINE
  5
35
100
AcDbEntity
  8
0
  6
CONTINUOUS
 62
               7
100
AcDbLine
 10
-0.400000000000091
 20
216.88381500000003
 30
0.0
 11
-0.400000000000091
 21
216.73960199999999
 31
0.0
  0
LINE
  5
36
100
AcDbEntity
  8
0
  6
CONTINUOUS
 62
               7
100
AcDbLine
 10
0.400000000000091
 20
216.73960199999999
 30
0.0
 11
0.400000000000091
 21
216.88381500000003
 31
0.0
  0
LINE
  5
37
100
AcDbEntity
  8
0
  6
CONTINUOUS
 62
               7
100
AcDbLine
 10
-0.400000000000091
 20
216.73960199999999
 30
0.0
 11
0.400000000000091
 21
216.73960199999999
 31
0.0
  0
LINE
  5
38
100
AcDbEntity
  8
0
  6
CONTINUOUS
 62
               7
100
AcDbLine
 10
3.4499999999998181
 20
215.5
 30
0.0
 11
3.4499999999998181
 21
215.0
 31
0.0
  0
LINE
  5
39
100
AcDbEntity
  8
0
  6
CONTINUOUS
 62
               7
100
AcDbLine
 10
-3.4500000000000455
 20
215.5
 30
0.0
 11
-3.4500000000000455
 21
215.0
 31
0.0
  0
ARC
  5
3A
100
AcDbEntity
  8
0
  6
CONTINUOUS
 62
               7
100
AcDbCircle
 10
-10.5
 20
211.94910700000003
 30
0.0
 40
4.9508929999999998
100
AcDbArc
 50
94.619094000000004
 51
134.17434299999999
  0
ARC
  5
3B
100
AcDbEntity
  8
0
  6
CONTINUOUS
 62
               7
100
AcDbCircle
 10
-10.5
 20
211.94910700000003
 30
0.0
 40
4.9508929999999998
100
AcDbArc
 50
45.825657
 51
85.365821999999994
  0
LINE
  5
3C
100
AcDbEntity
  8
0
  6
CONTINUOUS
 62
               7
100
AcDbLine
 10
-10.900000000000091
 20
216.88381500000003
 30
0.0
 11
-10.900000000000091
 21
216.73960199999999
 31
0.0
  0
LINE
  5
3D
100
AcDbEntity
  8
0
  6
CONTINUOUS
 62
               7
100
AcDbLine
 10
-10.099999999999909
 20
216.73960199999999
 30
0.0
 11
-10.099999999999909
 21
216.88381500000003
 31
0.0
  0
LINE
  5
3E
100
AcDbEntity
  8
0
  6
CONTINUOUS
 62
               7
100
AcDbLine
 10
-10.900000000000091
 20
216.73960199999999
 30
0.0
 11
-10.099999999999909
 21
216.73960199999999
 31
0.0
  0
LINE
  5
3F
100
AcDbEntity
  8
0
  6
CONTINUOUS
 62
               7
100
AcDbLine
 10
-7.0500000000001819
 20
215.5
 30
0.0
 11
-7.0500000000001819
 21
215.0
 31
0.0
  0
LINE
  5
40
100
AcDbEntity
  8
0
  6
CONTINUOUS
 62
               7
100
AcDbLine
 10
-13.950000000000045
 20
215.5
 30
0.0
 11
-13.950000000000045
 21
215.0
 31
0.0
  0
LINE
  5
41
100
AcDbEntity
  8
0
  6
CONTINUOUS
 62
               7
100
AcDbLine
 10
-274.95000000000005
 20
215.5
 30
0.0
 11
-268.05000000000007
 21
215.5
 31
0.0
  0
ARC
  5
42
100
AcDbEntity
  8
0
  6
CONTINUOUS
 62
               7
100
AcDbCircle
 10
-271.5
 20
211.94910700000003
 30
0.0
 40
4.9508929999999998
100
AcDbArc
 50
94.619094000000004
 51
134.17434299999999
  0
ARC
  5
43
100
AcDbEntity
  8
0
  6
CONTINUOUS
 62
               7
100
AcDbCircle
 10
-271.5
 20
211.94910700000003
 30
0.0
 40
4.9508929999999998
100
AcDbArc
 50
45.825657
 51
85.365821999999994
  0
LINE
  5
44
100
AcDbEntity
  8
0
  6
CONTINUOUS
 62
               7
100
AcDbLine
 10
-271.90000000000009
 20
216.88381500000003
 30
0.0
 11
-271.90000000000009
 21
216.73960199999999
 31
0.0
  0
LINE
  5
45
100
AcDbEntity
  8
0
  6
CONTINUOUS
 62
               7
100
AcDbLine
 10
-271.10000000000002
 20
216.73960199999999
 30
0.0
 11
-271.10000000000002
 21
216.88381500000003
 31
0.0
  0
LINE
  5
46
100
AcDbEntity
  8
0
  6
CONTINUOUS
 62
               7
100
AcDbLine
 10
-271.90000000000009
 20
216.73960199999999
 30
0.0
 11
-271.10000000000002
 21
216.73960199999999
 31
0.0
  0
LINE
  5
47
100
AcDbEntity
  8
0
  6
CONTINUOUS
 62
               7
100
AcDbLine
 10
-268.05000000000007
 20
215.5
 30
0.0
 11
-268.05000000000007
 21
215.0
 31
0.0
  0
LINE
  5
48
100
AcDbEntity
  8
0
  6
CONTINUOUS
 62
               7
100
AcDbLine
 10
-274.95000000000005
 20
215.5
 30
0.0
 11
-274.95000000000005
 21
215.0
 31
0.0
  0
LINE
  5
49
100
AcDbEntity
  8
0
  6
CONTINUOUS
 62
               7
100
AcDbLine
 10
-285.45000000000005
 20
215.5
 30
0.0
 11
-278.55000000000007
 21
215.5
 31
0.0
  0
ARC
  5
4A
100
AcDbEntity
  8
0
  6
CONTINUOUS
 62
               7
100
AcDbCircle
 10
-282.0
 20
211.94910700000003
 30
0.0
 40
4.9508929999999998
100
AcDbArc
 50
94.619094000000004
 51
134.17434299999999
  0
ARC
  5
4B
100
AcDbEntity
  8
0
  6
CONTINUOUS
 62
               7
100
AcDbCircle
 10
-282.0
 20
211.94910700000003
 30
0.0
 40
4.9508929999999998
100
AcDbArc
 50
45.825657
 51
85.365821999999994
  0
LINE
  5
4C
100
AcDbEntity
  8
0
  6
CONTINUOUS
 62
               7
100
AcDbLine
 10
-282.40000000000009
 20
216.88381500000003
 30
0.0
 11
-282.40000000000009
 21
216.73960199999999
 31
0.0
  0
LINE
  5
4D
100
AcDbEntity
  8
0
  6
CONTINUOUS
 62
               7
100
AcDbLine
 10
-281.60000000000002
 20
216.73960199999999
 30
0.0
 11
-281.60000000000002
 21
216.88381500000003
 31
0.0
  0
LINE
  5
4E
100
AcDbEntity
  8
0
  6
CONTINUOUS
 62
               7
100
AcDbLine
 10
-282.40000000000009
 20
216.73960199999999
 30
0.0
 11
-281.60000000000002
 21
216.73960199999999
 31
0.0
  0
LINE
  5
4F
100
AcDbEntity
  8
0
  6
CONTINUOUS
 62
               7
100
AcDbLine
 10
-278.55000000000007
 20
215.5
 30
0.0
 11
-278.55000000000007
 21
215.0
 31
0.0
  0
LINE
  5
50
100
AcDbEntity
  8
0
  6
CONTINUOUS
 62
               7
100
AcDbLine
 10
-285.45000000000005
 20
215.5
 30
0.0
 11
-285.45000000000005
 21
215.0
 31
0.0
  0
LINE
  5
51
100
AcDbEntity
  8
0
  6
CONTINUOUS
 62
               7
100
AcDbLine
 10
-289.52679499999999
 20
13.25
 30
0.0
 11
-289.81695800000011
 21
12.167100000000005
 31
0.0
  0
ARC
  5
52
100
AcDbEntity
  8
0
  6
CONTINUOUS
 62
               7
100
AcDbCircle
 10
-297.01596500000005
 20
14.241485000000011
 30
0.0
 40
7.4919130000000003
100
AcDbArc
 50
343.92572799999999
 51
352.395128
  0
LINE
  5
53
100
AcDbEntity
  8
0
  6
CONTINUOUS
 62
               7
100
AcDbLine
 10
-289.52679499999999
 20
27.25
 30
0.0
 11
-289.81695800000011
 21
28.332903999999985
 31
0.0
  0
ARC
  5
54
100
AcDbEntity
  8
0
  6
CONTINUOUS
 62
               7
100
AcDbCircle
 10
-297.01619800000003
 20
26.258467999999993
 30
0.0
 40
7.4921509999999998
100
AcDbArc
 50
7.6049920000000011
 51
16.074152999999999
  0
LINE
  5
55
100
AcDbEntity
  8
0
  6
CONTINUOUS
 62
               7
100
AcDbLine
 10
-293.18304200000011
 20
16.208550000000002
 30
0.0
 11
-291.5
 21
16.208550000000002
 31
0.0
  0
LINE
  5
56
100
AcDbEntity
  8
0
  6
CONTINUOUS
 62
               7
100
AcDbLine
 10
-300.38867500000003
 20
14.549716999999987
 30
0.0
 11
-300.38867500000003
 21
25.949999999999989
 31
0.0
  0
ARC
  5
57
100
AcDbEntity
  8
0
  6
CONTINUOUS
 62
               7
100
AcDbCircle
 10
-285.98380600000007
 20
26.365887999999984
 30
0.0
 40
7.4921480000000003
100
AcDbArc
 50
185.63733999999999
 51
196.07416000000001
  0
ARC
  5
58
100
AcDbEntity
  8
0
  6
CONTINUOUS
 62
               7
100
AcDbCircle
 10
-286.50639300000012
 20
26.312171999999975
 30
0.0
 40
6.966812
100
AcDbArc
 50
174.38414
 51
185.61989299999999
  0
ARC
  5
59
100
AcDbEntity
  8
0
  6
CONTINUOUS
 62
               7
100
AcDbCircle
 10
-285.98403100000007
 20
26.258518999999978
 30
0.0
 40
7.4919180000000001
100
AcDbArc
 50
163.925736
 51
174.36671699999999
  0
ARC
  5
5A
100
AcDbEntity
  8
0
  6
CONTINUOUS
 62
               7
100
AcDbCircle
 10
-264.87628500000005
 20
20.276683999999989
 30
0.0
 40
28.597591000000001
100
AcDbArc
 50
182.762687
 51
188.17832100000001
  0
ARC
  5
5B
100
AcDbEntity
  8
0
  6
CONTINUOUS
 62
               7
100
AcDbCircle
 10
-265.40565000000004
 20
20.250009999999975
 30
0.0
 40
28.067554999999999
100
AcDbArc
 50
177.23902200000001
 51
182.76038399999996
  0
ARC
  5
5C
100
AcDbEntity
  8
0
  6
CONTINUOUS
 62
               7
100
AcDbCircle
 10
-264.87633800000003
 20
20.223313999999959
 30
0.0
 40
28.597539000000001
100
AcDbArc
 50
171.82165599999999
 51
177.236682
  0
ARC
  5
5D
100
AcDbEntity
  8
0
  6
CONTINUOUS
 62
               7
100
AcDbCircle
 10
-285.98381300000005
 20
14.241534999999999
 30
0.0
 40
7.4921420000000003
100
AcDbArc
 50
185.63734700000001
 51
196.07416799999999
  0
ARC
  5
5E
100
AcDbEntity
  8
0
  6
CONTINUOUS
 62
               7
100
AcDbCircle
 10
-286.50639100000012
 20
14.18781899999999
 30
0.0
 40
6.9668140000000003
100
AcDbArc
 50
174.384141
 51
185.619891
  0
ARC
  5
5F
100
AcDbEntity
  8
0
  6
CONTINUOUS
 62
               7
100
AcDbCircle
 10
-285.98403700000006
 20
14.134164999999996
 30
0.0
 40
7.4919120000000001
100
AcDbArc
 50
163.92572799999999
 51
174.36670899999999
  0
ARC
  5
60
100
AcDbEntity
  8
0
  6
CONTINUOUS
 62
               7
100
AcDbCircle
 10
-300.1886750000001
 20
14.549999999999955
 30
0.0
 40
0.2
100
AcDbArc
 50
180.0
 51
270.0
  0
ARC
  5
61
100
AcDbEntity
  8
0
  6
CONTINUOUS
 62
               7
100
AcDbCircle
 10
-300.1886750000001
 20
25.949999999999989
 30
0.0
 40
0.2
100
AcDbArc
 50
90.000004000000004
 51
180.0
  0
LINE
  5
62
100
AcDbEntity
  8
0
  6
CONTINUOUS
 62
               7
100
AcDbLine
 10
-297.51961500000004
 20
25.649999999999977
 30
0.0
 11
-297.51961600000004
 21
14.850000000000023
 31
0.0
  0
LINE
  5
63
100
AcDbEntity
  8
0
  6
CONTINUOUS
 62
               7
100
AcDbLine
 10
-293.78867500000001
 20
14.850000000000023
 30
0.0
 11
-297.51961500000004
 21
14.850000000000023
 31
0.0
  0
LINE
  5
64
100
AcDbEntity
  8
0
  6
CONTINUOUS
 62
               7
100
AcDbLine
 10
-293.5
 20
14.350000000000023
 30
0.0
 11
-293.78867500000001
 21
14.850000000000023
 31
0.0
  0
LINE
  5
65
100
AcDbEntity
  8
0
  6
CONTINUOUS
 62
               7
100
AcDbLine
 10
-293.78867500000001
 20
25.649999999999977
 30
0.0
 11
-297.51961500000004
 21
25.649999999999977
 31
0.0
  0
LINE
  5
66
100
AcDbEntity
  8
0
  6
CONTINUOUS
 62
               7
100
AcDbLine
 10
-297.78867500000001
 20
15.316029999999955
 30
0.0
 11
-297.51961500000004
 21
14.850000000000023
 31
0.0
  0
LINE
  5
67
100
AcDbEntity
  8
0
  6
CONTINUOUS
 62
               7
100
AcDbLine
 10
-293.5
 20
26.149999999999977
 30
0.0
 11
-293.78867500000001
 21
25.649999999999977
 31
0.0
  0
LINE
  5
68
100
AcDbEntity
  8
0
  6
CONTINUOUS
 62
               7
100
AcDbLine
 10
-297.78867500000001
 20
15.316029999999955
 30
0.0
 11
-297.75055500000008
 21
15.25
 31
0.0
  0
LINE
  5
69
100
AcDbEntity
  8
0
  6
CONTINUOUS
 62
               7
100
AcDbLine
 10
-297.78867500000001
 20
25.183973999999978
 30
0.0
 11
-298.28867500000001
 21
25.049999999999955
 31
0.0
  0
LINE
  5
6A
100
AcDbEntity
  8
0
  6
CONTINUOUS
 62
               7
100
AcDbLine
 10
-298.28867600000001
 20
25.049999999999955
 30
0.0
 11
-298.28867600000001
 21
15.449999999999989
 31
0.0
  0
LINE
  5
6B
100
AcDbEntity
  8
0
  6
CONTINUOUS
 62
               7
100
AcDbLine
 10
-297.78867500000001
 20
25.183974999999975
 30
0.0
 11
-297.51961500000004
 21
25.649999999999977
 31
0.0
  0
LINE
  5
6C
100
AcDbEntity
  8
0
  6
CONTINUOUS
 62
               7
100
AcDbLine
 10
-297.78867500000001
 20
15.316029999999955
 30
0.0
 11
-298.28867500000001
 21
15.449999999999989
 31
0.0
  0
LINE
  5
6D
100
AcDbEntity
  8
0
  6
CONTINUOUS
 62
               7
100
AcDbLine
 10
-299.1886750000001
 20
23.75
 30
0.0
 11
-298.28867600000001
 21
23.75
 31
0.0
  0
LINE
  5
6E
100
AcDbEntity
  8
0
  6
CONTINUOUS
 62
               7
100
AcDbLine
 10
-299.1886750000001
 20
16.75
 30
0.0
 11
-298.28867600000001
 21
16.75
 31
0.0
  0
LINE
  5
6F
100
AcDbEntity
  8
0
  6
CONTINUOUS
 62
               7
100
AcDbLine
 10
-299.1886750000001
 20
14.350000000000023
 30
0.0
 11
-299.1886750000001
 21
26.149999999999977
 31
0.0
  0
LINE
  5
70
100
AcDbEntity
  8
0
  6
CONTINUOUS
 62
               7
100
AcDbLine
 10
-300.1886750000001
 20
14.350000000000023
 30
0.0
 11
-299.1886750000001
 21
14.350000000000023
 31
0.0
  0
LINE
  5
71
100
AcDbEntity
  8
0
  6
CONTINUOUS
 62
               7
100
AcDbLine
 10
-300.1886750000001
 20
26.149999999999977
 30
0.0
 11
-299.1886750000001
 21
26.149999999999977
 31
0.0
  0
LINE
  5
72
100
AcDbEntity
  8
0
  6
CONTINUOUS
 62
               7
100
AcDbLine
 10
-297.78867600000001
 20
15.316029999999955
 30
0.0
 11
-297.78867600000001
 21
25.183973999999978
 31
0.0
  0
LINE
  5
73
100
AcDbEntity
  8
0
  6
CONTINUOUS
 62
               7
100
AcDbLine
 10
-293.78867600000001
 20
14.850000000000023
 30
0.0
 11
-293.78867600000001
 21
25.649999999999977
 31
0.0
  0
LINE
  5
74
100
AcDbEntity
  8
0
  6
CONTINUOUS
 62
               7
100
AcDbLine
 10
-293.5
 20
27.149999999999977
 30
0.0
 11
-293.5
 21
13.350000000000023
 31
0.0
  0
LINE
  5
75
100
AcDbEntity
  8
0
  6
CONTINUOUS
 62
               7
100
AcDbLine
 10
-293.18304200000011
 20
12.167100000000005
 30
0.0
 11
-289.816959
 21
12.167100000000005
 31
0.0
  0
LINE
  5
76
100
AcDbEntity
  8
0
  6
CONTINUOUS
 62
               7
100
AcDbLine
 10
-293.18304200000011
 20
28.332903999999985
 30
0.0
 11
-293.5
 21
27.149999999999977
 31
0.0
  0
LINE
  5
77
100
AcDbEntity
  8
0
  6
CONTINUOUS
 62
               7
100
AcDbLine
 10
-293.18304200000011
 20
12.167100000000005
 30
0.0
 11
-293.5
 21
13.350000000000023
 31
0.0
  0
LINE
  5
78
100
AcDbEntity
  8
0
  6
CONTINUOUS
 62
               7
100
AcDbLine
 10
-293.18304200000011
 20
28.332903999999985
 30
0.0
 11
-289.816959
 21
28.332903999999985
 31
0.0
  0
LINE
  5
79
100
AcDbEntity
  8
0
  6
CONTINUOUS
 62
               7
100
AcDbLine
 10
-293.5
 20
25.708499999999958
 30
0.0
 11
-293.75490000000002
 21
25.708499999999958
 31
0.0
  0
LINE
  5
7A
100
AcDbEntity
  8
0
  6
CONTINUOUS
 62
               7
100
AcDbLine
 10
-293.5
 20
14.791499999999985
 30
0.0
 11
-293.75490000000002
 21
14.791499999999985
 31
0.0
  0
LINE
  5
7B
100
AcDbEntity
  8
0
  6
CONTINUOUS
 62
               7
100
AcDbLine
 10
-293.18304200000011
 20
24.291451999999992
 30
0.0
 11
-291.5
 21
24.291451999999992
 31
0.0
  0
ARC
  5
7C
100
AcDbEntity
  8
0
  6
CONTINUOUS
 62
               7
100
AcDbCircle
 10
-291.20000000000005
 20
13.549999999999955
 30
0.0
 40
0.3
100
AcDbArc
 50
180.0
 51
270.0
  0
LINE
  5
7D
100
AcDbEntity
  8
0
  6
CONTINUOUS
 62
               7
100
AcDbLine
 10
-291.5
 20
26.949999999999989
 30
0.0
 11
-291.5
 21
13.549999999999955
 31
0.0
  0
LINE
  5
7E
100
AcDbEntity
  8
0
  6
CONTINUOUS
 62
               7
100
AcDbLine
 10
-291.20000000000005
 20
13.25
 30
0.0
 11
-289.5
 21
13.25
 31
0.0
  0
ARC
  5
7F
100
AcDbEntity
  8
0
  6
CONTINUOUS
 62
               7
100
AcDbCircle
 10
-291.20000000000005
 20
26.949999999999989
 30
0.0
 40
0.3
100
AcDbArc
 50
90.0
 51
180.0
  0
LINE
  5
80
100
AcDbEntity
  8
0
  6
CONTINUOUS
 62
               7
100
AcDbLine
 10
-291.20000000000005
 20
27.25
 30
0.0
 11
-289.5
 21
27.25
 31
0.0
  0
LINE
  5
81
100
AcDbEntity
  8
0
  6
CONTINUOUS
 62
               7
100
AcDbLine
 10
7.5
 20
5.0
 30
0.0
 11
7.5
 21
215.0
 31
0.0
  0
LINE
  5
82
100
AcDbEntity
  8
0
  6
CONTINUOUS
 62
               7
100
AcDbLine
 10
-289.5
 20
5.0
 30
0.0
 11
7.5
 21
5.0
 31
0.0
  0
LINE
  5
83
100
AcDbEntity
  8
0
  6
CONTINUOUS
 62
               7
100
AcDbLine
 10
-289.5
 20
215.0
 30
0.0
 11
-289.5
 21
5.0
 31
0.0
  0
LINE
  5
84
100
AcDbEntity
  8
0
  6
CONTINUOUS
 62
               7
100
AcDbLine
 10
7.5
 20
215.0
 30
0.0
 11
-289.5
 21
215.0
 31
0.0
  0
LINE
  5
85
100
AcDbEntity
  8
0
  6
CONTINUOUS
 62
               7
100
AcDbLine
 10
17.5
 20
163.55000000000001
 30
0.0
 11
7.5
 21
163.55000000000001
 31
0.0
  0
LINE
  5
86
100
AcDbEntity
  8
0
  6
CONTINUOUS
 62
               7
100
AcDbLine
 10
17.5
 20
206.35000000000002
 30
0.0
 11
17.5
 21
163.55000000000001
 31
0.0
  0
LINE
  5
87
100
AcDbEntity
  8
0
  6
CONTINUOUS
 62
               7
100
AcDbLine
 10
7.5
 20
206.35000000000002
 30
0.0
 11
17.5
 21
206.35000000000002
 31
0.0
  0
LINE
  5
88
100
AcDbEntity
  8
0
  6
CONTINUOUS
 62
               7
100
AcDbLine
 10
-6.5
 20
5.0
 30
0.0
 11
-6.5
 21
1.5
 31
0.0
  0
LINE
  5
89
100
AcDbEntity
  8
0
  6
CONTINUOUS
 62
               7
100
AcDbLine
 10
6.5
 20
1.5
 30
0.0
 11
6.5
 21
5.0
 31
0.0
  0
LINE
  5
8A
100
AcDbEntity
  8
0
  6
CONTINUOUS
 62
               2
100
AcDbLine
 10
0.0
 20
-2.0
 30
0.0
 11
0.0
 21
7.0
 31
0.0
  0
ARC
  5
8B
100
AcDbEntity
  8
0
  6
CONTINUOUS
 62
               7
100
AcDbCircle
 10
5.0
 20
1.5
 30
0.0
 40
1.5
100
AcDbArc
 50
270.0
 51
0.0
  0
LINE
  5
8C
100
AcDbEntity
  8
0
  6
CONTINUOUS
 62
               7
100
AcDbLine
 10
-5.0
 20
0.0
 30
0.0
 11
5.0
 21
0.0
 31
0.0
  0
ARC
  5
8D
100
AcDbEntity
  8
0
  6
CONTINUOUS
 62
               7
100
AcDbCircle
 10
-5.0
 20
1.5
 30
0.0
 40
1.5
100
AcDbArc
 50
180.0
 51
270.0
  0
LINE
  5
8E
100
AcDbEntity
  8
0
  6
CONTINUOUS
 62
               7
100
AcDbLine
 10
-288.5
 20
5.0
 30
0.0
 11
-288.5
 21
1.5
 31
0.0
  0
LINE
  5
8F
100
AcDbEntity
  8
0
  6
CONTINUOUS
 62
               7
100
AcDbLine
 10
-275.5
 20
1.5
 30
0.0
 11
-275.5
 21
5.0
 31
0.0
  0
LINE
  5
90
100
AcDbEntity
  8
0
  6
CONTINUOUS
 62
               2
100
AcDbLine
 10
-282.0
 20
-2.0
 30
0.0
 11
-282.0
 21
7.0
 31
0.0
  0
ARC
  5
91
100
AcDbEntity
  8
0
  6
CONTINUOUS
 62
               7
100
AcDbCircle
 10
-277.0
 20
1.5
 30
0.0
 40
1.5
100
AcDbArc
 50
270.0
 51
0.0
  0
LINE
  5
92
100
AcDbEntity
  8
0
  6
CONTINUOUS
 62
               7
100
AcDbLine
 10
-287.0
 20
0.0
 30
0.0
 11
-277.0
 21
0.0
 31
0.0
  0
ARC
  5
93
100
AcDbEntity
  8
0
  6
CONTINUOUS
 62
               7
100
AcDbCircle
 10
-287.0
 20
1.5
 30
0.0
 40
1.5
100
AcDbArc
 50
180.0
 51
270.0
  0
LINE
  5
94
100
AcDbEntity
  8
0
  6
CONTINUOUS
 62
               2
100
AcDbLine
 10
-287.5
 20
20.25
 30
0.0
 11
-302.38867500000003
 21
20.25
 31
0.0
  0
ENDBLK
  5
95
100
AcDbEntity
  8
0
100
AcDbBlockEnd
  0
BLOCK
  5
96
100
AcDbEntity
  8
0
100
AcDbBlockBegin
  2
DPP-AT-2
 70
               0
 10
0.0
 20
0.0
 30
0.0
  3
DPP-AT-2
  1

  0
CIRCLE
  5
97
100
AcDbEntity
  8
0
  6
CONTINUOUS
 62
               7
100
AcDbCircle
 10
-49.800000000000068
 20
20.25
 30
0.0
 40
3.0
  0
LINE
  5
98
100
AcDbEntity
  8
0
  6
CONTINUOUS
 62
               7
100
AcDbLine
 10
9.0499999999999545
 20
215.5
 30
0.0
 11
15.949999999999932
 21
215.5
 31
0.0
  0
ARC
  5
99
100
AcDbEntity
  8
0
  6
CONTINUOUS
 62
               7
100
AcDbCircle
 10
12.5
 20
211.94910700000003
 30
0.0
 40
4.9508929999999998
100
AcDbArc
 50
94.619094000000004
 51
134.17434299999999
  0
ARC
  5
9A
100
AcDbEntity
  8
0
  6
CONTINUOUS
 62
               7
100
AcDbCircle
 10
12.5
 20
211.94910700000003
 30
0.0
 40
4.9508929999999998
100
AcDbArc
 50
45.825657
 51
85.365821999999994
  0
LINE
  5
9B
100
AcDbEntity
  8
0
  6
CONTINUOUS
 62
               7
100
AcDbLine
 10
12.099999999999909
 20
216.88381500000003
 30
0.0
 11
12.099999999999909
 21
216.73960199999999
 31
0.0
  0
LINE
  5
9C
100
AcDbEntity
  8
0
  6
CONTINUOUS
 62
               7
100
AcDbLine
 10
12.899999999999977
 20
216.73960199999999
 30
0.0
 11
12.899999999999977
 21
216.88381500000003
 31
0.0
  0
LINE
  5
9D
100
AcDbEntity
  8
0
  6
CONTINUOUS
 62
               7
100
AcDbLine
 10
12.099999999999909
 20
216.73960199999999
 30
0.0
 11
12.899999999999977
 21
216.73960199999999
 31
0.0
  0
LINE
  5
9E
100
AcDbEntity
  8
0
  6
CONTINUOUS
 62
               7
100
AcDbLine
 10
15.949999999999932
 20
215.5
 30
0.0
 11
15.949999999999932
 21
215.0
 31
0.0
  0
LINE
  5
9F
100
AcDbEntity
  8
0
  6
CONTINUOUS
 62
               7
100
AcDbLine
 10
9.0499999999999545
 20
215.5
 30
0.0
 11
9.0499999999999545
 21
215.0
 31
0.0
  0
LINE
  5
A0
100
AcDbEntity
  8
0
  6
CONTINUOUS
 62
               7
100
AcDbLine
 10
-59.75
 20
215.5
 30
0.0
 11
-52.850000000000023
 21
215.5
 31
0.0
  0
ARC
  5
A1
100
AcDbEntity
  8
0
  6
CONTINUOUS
 62
               7
100
AcDbCircle
 10
-56.300000000000068
 20
211.94910700000003
 30
0.0
 40
4.9508929999999998
100
AcDbArc
 50
94.619094000000004
 51
134.17434299999999
  0
ARC
  5
A2
100
AcDbEntity
  8
0
  6
CONTINUOUS
 62
               7
100
AcDbCircle
 10
-56.300000000000068
 20
211.94910700000003
 30
0.0
 40
4.9508929999999998
100
AcDbArc
 50
45.825657
 51
85.365821999999994
  0
LINE
  5
A3
100
AcDbEntity
  8
0
  6
CONTINUOUS
 62
               7
100
AcDbLine
 10
-56.700000000000045
 20
216.88381500000003
 30
0.0
 11
-56.700000000000045
 21
216.73960199999999
 31
0.0
  0
LINE
  5
A4
100
AcDbEntity
  8
0
  6
CONTINUOUS
 62
               7
100
AcDbLine
 10
-55.900000000000091
 20
216.73960199999999
 30
0.0
 11
-55.900000000000091
 21
216.88381500000003
 31
0.0
  0
LINE
  5
A5
100
AcDbEntity
  8
0
  6
CONTINUOUS
 62
               7
100
AcDbLine
 10
-56.700000000000045
 20
216.73960199999999
 30
0.0
 11
-55.900000000000091
 21
216.73960199999999
 31
0.0
  0
LINE
  5
A6
100
AcDbEntity
  8
0
  6
CONTINUOUS
 62
               7
100
AcDbLine
 10
-52.850000000000023
 20
215.5
 30
0.0
 11
-52.850000000000023
 21
215.0
 31
0.0
  0
LINE
  5
A7
100
AcDbEntity
  8
0
  6
CONTINUOUS
 62
               7
100
AcDbLine
 10
-59.75
 20
215.5
 30
0.0
 11
-59.75
 21
215.0
 31
0.0
  0
CIRCLE
  5
A8
100
AcDbEntity
  8
0
  6
CONTINUOUS
 62
               7
100
AcDbCircle
 10
8.0
 20
22.25
 30
0.0
 40
0.6
  0
CIRCLE
  5
A9
100
AcDbEntity
  8
0
  6
CONTINUOUS
 62
               7
100
AcDbCircle
 10
8.0
 20
22.25
 30
0.0
 40
3.0
  0
CIRCLE
  5
AA
100
AcDbEntity
  8
0
  6
CONTINUOUS
 62
               7
100
AcDbCircle
 10
8.0
 20
20.25
 30
0.0
 40
7.0
  0
LINE
  5
AB
100
AcDbEntity
  8
0
  6
CONTINUOUS
 62
               7
100
AcDbLine
 10
-49.799993000000086
 20
28.332899999999995
 30
0.0
 11
-56.799997000000076
 21
24.291449999999998
 31
0.0
  0
LINE
  5
AC
100
AcDbEntity
  8
0
  6
CONTINUOUS
 62
               7
100
AcDbLine
 10
-42.800003000000061
 20
24.291449999999998
 30
0.0
 11
-49.800000000000068
 21
28.332903999999985
 31
0.0
  0
LINE
  5
AD
100
AcDbEntity
  8
0
  6
CONTINUOUS
 62
               7
100
AcDbLine
 10
-42.800003000000061
 20
16.208550000000002
 30
0.0
 11
-42.800003000000061
 21
24.291449999999998
 31
0.0
  0
LINE
  5
AE
100
AcDbEntity
  8
0
  6
CONTINUOUS
 62
               7
100
AcDbLine
 10
-49.800000000000068
 20
12.167100000000005
 30
0.0
 11
-42.800003000000061
 21
16.208550000000002
 31
0.0
  0
LINE
  5
AF
100
AcDbEntity
  8
0
  6
CONTINUOUS
 62
               7
100
AcDbLine
 10
-56.799997000000076
 20
16.208550000000002
 30
0.0
 11
-49.800000000000068
 21
12.167100000000005
 31
0.0
  0
LINE
  5
B0
100
AcDbEntity
  8
0
  6
CONTINUOUS
 62
               7
100
AcDbLine
 10
-56.799997000000076
 20
24.291449999999998
 30
0.0
 11
-56.799997000000076
 21
16.208550000000002
 31
0.0
  0
CIRCLE
  5
B1
100
AcDbEntity
  8
0
  6
CONTINUOUS
 62
               7
100
AcDbCircle
 10
-49.800000000000068
 20
20.25
 30
0.0
 40
5.9000000000000004
  0
LINE
  5
B2
100
AcDbEntity
  8
0
  6
CONTINUOUS
 62
               7
100
AcDbLine
 10
21.199999999999932
 20
215.0
 30
0.0
 11
-63.800000000000068
 21
215.0
 31
0.0
  0
LINE
  5
B3
100
AcDbEntity
  8
0
  6
CONTINUOUS
 62
               7
100
AcDbLine
 10
-63.800000000000068
 20
5.0
 30
0.0
 11
21.199999999999932
 21
5.0
 31
0.0
  0
LINE
  5
B4
100
AcDbEntity
  8
0
  6
CONTINUOUS
 62
               7
100
AcDbLine
 10
21.199999999999932
 20
5.0
 30
0.0
 11
21.199999999999932
 21
215.0
 31
0.0
  0
LINE
  5
B5
100
AcDbEntity
  8
0
  6
CONTINUOUS
 62
               7
100
AcDbLine
 10
-63.800000000000068
 20
215.0
 30
0.0
 11
-63.800000000000068
 21
5.0
 31
0.0
  0
LINE
  5
B6
100
AcDbEntity
  8
0
  6
CONTINUOUS
 62
               2
100
AcDbLine
 10
-49.800000000000068
 20
30.25
 30
0.0
 11
-49.800000000000068
 21
10.167100000000005
 31
0.0
  0
LINE
  5
B7
100
AcDbEntity
  8
0
  6
CONTINUOUS
 62
               2
100
AcDbLine
 10
-58.799997000000076
 20
20.25
 30
0.0
 11
-40.800003000000061
 21
20.25
 31
0.0
  0
LINE
  5
B8
100
AcDbEntity
  8
0
  6
CONTINUOUS
 62
               2
100
AcDbLine
 10
-1.0
 20
20.25
 30
0.0
 11
17.0
 21
20.25
 31
0.0
  0
LINE
  5
B9
100
AcDbEntity
  8
0
  6
CONTINUOUS
 62
               2
100
AcDbLine
 10
8.0
 20
29.25
 30
0.0
 11
8.0
 21
11.25
 31
0.0
  0
LINE
  5
BA
100
AcDbEntity
  8
0
  6
CONTINUOUS
 62
               7
100
AcDbLine
 10
20.0
 20
6.25
 30
0.0
 11
20.0
 21
213.75
 31
0.0
  0
LINE
  5
BB
100
AcDbEntity
  8
0
  6
CONTINUOUS
 62
               7
100
AcDbLine
 10
-63.800000000000068
 20
6.25
 30
0.0
 11
20.0
 21
6.25
 31
0.0
  0
LINE
  5
BC
100
AcDbEntity
  8
0
  6
CONTINUOUS
 62
               7
100
AcDbLine
 10
20.0
 20
213.75
 30
0.0
 11
-63.800000000000068
 21
213.75
 31
0.0
  0
ARC
  5
BD
100
AcDbEntity
  8
0
  6
CONTINUOUS
 62
               7
100
AcDbCircle
 10
-60.749107000000095
 20
161.75
 30
0.0
 40
4.9508929999999998
100
AcDbArc
 50
135.82565700000006
 51
175.38090600000004
  0
ARC
  5
BE
100
AcDbEntity
  8
0
  6
CONTINUOUS
 62
               7
100
AcDbCircle
 10
-60.749107000000095
 20
161.75
 30
0.0
 40
4.9508929999999998
100
AcDbArc
 50
184.63417800000005
 51
224.17434300000005
  0
LINE
  5
BF
100
AcDbEntity
  8
0
  6
CONTINUOUS
 62
               7
100
AcDbLine
 10
-65.683815000000095
 20
162.14999999999986
 30
0.0
 11
-65.539602000000059
 21
162.14999999999986
 31
0.0
  0
LINE
  5
C0
100
AcDbEntity
  8
0
  6
CONTINUOUS
 62
               7
100
AcDbLine
 10
-65.539602000000059
 20
161.35000000000014
 30
0.0
 11
-65.683815000000095
 21
161.35000000000014
 31
0.0
  0
LINE
  5
C1
100
AcDbEntity
  8
0
  6
CONTINUOUS
 62
               7
100
AcDbLine
 10
-65.539602000000059
 20
162.14999999999986
 30
0.0
 11
-65.539602000000059
 21
161.35000000000014
 31
0.0
  0
LINE
  5
C2
100
AcDbEntity
  8
0
  6
CONTINUOUS
 62
               7
100
AcDbLine
 10
-64.300000000000068
 20
158.29999999999995
 30
0.0
 11
-63.800000000000068
 21
158.29999999999995
 31
0.0
  0
LINE
  5
C3
100
AcDbEntity
  8
0
  6
CONTINUOUS
 62
               7
100
AcDbLine
 10
-64.300000000000068
 20
165.20000000000005
 30
0.0
 11
-63.800000000000068
 21
165.20000000000005
 31
0.0
  0
ARC
  5
C4
100
AcDbEntity
  8
0
  6
CONTINUOUS
 62
               7
100
AcDbCircle
 10
-60.749107000000095
 20
157.25
 30
0.0
 40
4.9508929999999998
100
AcDbArc
 50
152.96958190231936
 51
175.38090600000004
  0
ARC
  5
C5
100
AcDbEntity
  8
0
  6
CONTINUOUS
 62
               7
100
AcDbCircle
 10
-60.749107000000095
 20
157.25
 30
0.0
 40
4.9508929999999998
100
AcDbArc
 50
184.63417800000005
 51
224.17434300000005
  0
LINE
  5
C6
100
AcDbEntity
  8
0
  6
CONTINUOUS
 62
               7
100
AcDbLine
 10
-65.683815000000095
 20
157.64999999999986
 30
0.0
 11
-65.539602000000059
 21
157.64999999999986
 31
0.0
  0
LINE
  5
C7
100
AcDbEntity
  8
0
  6
CONTINUOUS
 62
               7
100
AcDbLine
 10
-65.539602000000059
 20
156.85000000000014
 30
0.0
 11
-65.683815000000095
 21
156.85000000000014
 31
0.0
  0
LINE
  5
C8
100
AcDbEntity
  8
0
  6
CONTINUOUS
 62
               7
100
AcDbLine
 10
-65.539602000000059
 20
157.64999999999986
 30
0.0
 11
-65.539602000000059
 21
156.85000000000014
 31
0.0
  0
LINE
  5
C9
100
AcDbEntity
  8
0
  6
CONTINUOUS
 62
               7
100
AcDbLine
 10
-64.300000000000068
 20
153.79999999999995
 30
0.0
 11
-63.800000000000068
 21
153.79999999999995
 31
0.0
  0
LINE
  5
CA
100
AcDbEntity
  8
0
  6
CONTINUOUS
 62
               7
100
AcDbLine
 10
-64.300000000000068
 20
150.70000000000005
 30
0.0
 11
-64.300000000000068
 21
143.79999999999995
 31
0.0
  0
ARC
  5
CB
100
AcDbEntity
  8
0
  6
CONTINUOUS
 62
               7
100
AcDbCircle
 10
-60.749107000000095
 20
147.25
 30
0.0
 40
4.9508929999999998
100
AcDbArc
 50
135.82565700000006
 51
175.38090600000004
  0
ARC
  5
CC
100
AcDbEntity
  8
0
  6
CONTINUOUS
 62
               7
100
AcDbCircle
 10
-60.749107000000095
 20
147.25
 30
0.0
 40
4.9508929999999998
100
AcDbArc
 50
184.63417800000005
 51
224.17434300000005
  0
LINE
  5
CD
100
AcDbEntity
  8
0
  6
CONTINUOUS
 62
               7
100
AcDbLine
 10
-65.683815000000095
 20
147.64999999999986
 30
0.0
 11
-65.539602000000059
 21
147.64999999999986
 31
0.0
  0
LINE
  5
CE
100
AcDbEntity
  8
0
  6
CONTINUOUS
 62
               7
100
AcDbLine
 10
-65.539602000000059
 20
146.85000000000014
 30
0.0
 11
-65.683815000000095
 21
146.85000000000014
 31
0.0
  0
LINE
  5
CF
100
AcDbEntity
  8
0
  6
CONTINUOUS
 62
               7
100
AcDbLine
 10
-65.539602000000059
 20
147.64999999999986
 30
0.0
 11
-65.539602000000059
 21
146.85000000000014
 31
0.0
  0
LINE
  5
D0
100
AcDbEntity
  8
0
  6
CONTINUOUS
 62
               7
100
AcDbLine
 10
-64.300000000000068
 20
143.79999999999995
 30
0.0
 11
-63.800000000000068
 21
143.79999999999995
 31
0.0
  0
LINE
  5
D1
100
AcDbEntity
  8
0
  6
CONTINUOUS
 62
               7
100
AcDbLine
 10
-64.300000000000068
 20
150.70000000000005
 30
0.0
 11
-63.800000000000068
 21
150.70000000000005
 31
0.0
  0
LINE
  5
D2
100
AcDbEntity
  8
0
  6
CONTINUOUS
 62
               7
100
AcDbLine
 10
-64.300000000000068
 20
115.70000000000005
 30
0.0
 11
-64.300000000000068
 21
108.79999999999995
 31
0.0
  0
ARC
  5
D3
100
AcDbEntity
  8
0
  6
CONTINUOUS
 62
               7
100
AcDbCircle
 10
-60.749107000000095
 20
112.25
 30
0.0
 40
4.9508929999999998
100
AcDbArc
 50
135.82565700000006
 51
175.38090600000004
  0
ARC
  5
D4
100
AcDbEntity
  8
0
  6
CONTINUOUS
 62
               7
100
AcDbCircle
 10
-60.749107000000095
 20
112.25
 30
0.0
 40
4.9508929999999998
100
AcDbArc
 50
184.63417800000005
 51
224.17434300000005
  0
LINE
  5
D5
100
AcDbEntity
  8
0
  6
CONTINUOUS
 62
               7
100
AcDbLine
 10
-65.683815000000095
 20
112.64999999999986
 30
0.0
 11
-65.539602000000059
 21
112.64999999999986
 31
0.0
  0
LINE
  5
D6
100
AcDbEntity
  8
0
  6
CONTINUOUS
 62
               7
100
AcDbLine
 10
-65.539602000000059
 20
111.85000000000014
 30
0.0
 11
-65.683815000000095
 21
111.85000000000014
 31
0.0
  0
LINE
  5
D7
100
AcDbEntity
  8
0
  6
CONTINUOUS
 62
               7
100
AcDbLine
 10
-65.539602000000059
 20
112.64999999999986
 30
0.0
 11
-65.539602000000059
 21
111.85000000000014
 31
0.0
  0
LINE
  5
D8
100
AcDbEntity
  8
0
  6
CONTINUOUS
 62
               7
100
AcDbLine
 10
-64.300000000000068
 20
108.79999999999995
 30
0.0
 11
-63.800000000000068
 21
108.79999999999995
 31
0.0
  0
LINE
  5
D9
100
AcDbEntity
  8
0
  6
CONTINUOUS
 62
               7
100
AcDbLine
 10
-64.300000000000068
 20
115.70000000000005
 30
0.0
 11
-63.800000000000068
 21
115.70000000000005
 31
0.0
  0
LINE
  5
DA
100
AcDbEntity
  8
0
  6
CONTINUOUS
 62
               7
100
AcDbLine
 10
-64.300000000000068
 20
104.70000000000005
 30
0.0
 11
-64.300000000000068
 21
97.799999999999955
 31
0.0
  0
ARC
  5
DB
100
AcDbEntity
  8
0
  6
CONTINUOUS
 62
               7
100
AcDbCircle
 10
-60.749107000000095
 20
101.25
 30
0.0
 40
4.9508929999999998
100
AcDbArc
 50
135.82565700000006
 51
175.38090600000004
  0
ARC
  5
DC
100
AcDbEntity
  8
0
  6
CONTINUOUS
 62
               7
100
AcDbCircle
 10
-60.749107000000095
 20
101.25
 30
0.0
 40
4.9508929999999998
100
AcDbArc
 50
184.63417800000005
 51
224.17434300000005
  0
LINE
  5
DD
100
AcDbEntity
  8
0
  6
CONTINUOUS
 62
               7
100
AcDbLine
 10
-65.683815000000095
 20
101.64999999999986
 30
0.0
 11
-65.539602000000059
 21
101.64999999999986
 31
0.0
  0
LINE
  5
DE
100
AcDbEntity
  8
0
  6
CONTINUOUS
 62
               7
100
AcDbLine
 10
-65.539602000000059
 20
100.85000000000014
 30
0.0
 11
-65.683815000000095
 21
100.85000000000014
 31
0.0
  0
LINE
  5
DF
100
AcDbEntity
  8
0
  6
CONTINUOUS
 62
               7
100
AcDbLine
 10
-65.539602000000059
 20
101.64999999999986
 30
0.0
 11
-65.539602000000059
 21
100.85000000000014
 31
0.0
  0
LINE
  5
E0
100
AcDbEntity
  8
0
  6
CONTINUOUS
 62
               7
100
AcDbLine
 10
-64.300000000000068
 20
97.799999999999955
 30
0.0
 11
-63.800000000000068
 21
97.799999999999955
 31
0.0
  0
LINE
  5
E1
100
AcDbEntity
  8
0
  6
CONTINUOUS
 62
               7
100
AcDbLine
 10
-64.300000000000068
 20
104.70000000000005
 30
0.0
 11
-63.800000000000068
 21
104.70000000000005
 31
0.0
  0
ARC
  5
E2
100
AcDbEntity
  8
0
  6
CONTINUOUS
 62
               7
100
AcDbCircle
 10
-60.749107000000095
 20
91.25
 30
0.0
 40
4.9508929999999998
100
AcDbArc
 50
135.82565700000006
 51
175.38090600000004
  0
ARC
  5
E3
100
AcDbEntity
  8
0
  6
CONTINUOUS
 62
               7
100
AcDbCircle
 10
-60.749107000000095
 20
91.25
 30
0.0
 40
4.9508929999999998
100
AcDbArc
 50
184.63417800000005
 51
208.33733499931776
  0
LINE
  5
E4
100
AcDbEntity
  8
0
  6
CONTINUOUS
 62
               7
100
AcDbLine
 10
-65.683815000000095
 20
91.649999999999864
 30
0.0
 11
-65.539602000000059
 21
91.649999999999864
 31
0.0
  0
LINE
  5
E5
100
AcDbEntity
  8
0
  6
CONTINUOUS
 62
               7
100
AcDbLine
 10
-65.539602000000059
 20
90.850000000000136
 30
0.0
 11
-65.683815000000095
 21
90.850000000000136
 31
0.0
  0
LINE
  5
E6
100
AcDbEntity
  8
0
  6
CONTINUOUS
 62
               7
100
AcDbLine
 10
-65.539602000000059
 20
91.649999999999864
 30
0.0
 11
-65.539602000000059
 21
90.850000000000136
 31
0.0
  0
LINE
  5
E7
100
AcDbEntity
  8
0
  6
CONTINUOUS
 62
               7
100
AcDbLine
 10
-64.300000000000068
 20
94.700000000000045
 30
0.0
 11
-63.800000000000068
 21
94.700000000000045
 31
0.0
  0
ARC
  5
E8
100
AcDbEntity
  8
0
  6
CONTINUOUS
 62
               7
100
AcDbCircle
 10
-60.749107000000095
 20
86.550000000000011
 30
0.0
 40
4.9508929999999998
100
AcDbArc
 50
135.82565700000006
 51
175.38090600000004
  0
ARC
  5
E9
100
AcDbEntity
  8
0
  6
CONTINUOUS
 62
               7
100
AcDbCircle
 10
-60.749107000000095
 20
86.550000000000011
 30
0.0
 40
4.9508929999999998
100
AcDbArc
 50
184.63417800000005
 51
224.17434300000005
  0
LINE
  5
EA
100
AcDbEntity
  8
0
  6
CONTINUOUS
 62
               7
100
AcDbLine
 10
-65.683815000000095
 20
86.949999999999875
 30
0.0
 11
-65.539602000000059
 21
86.949999999999875
 31
0.0
  0
LINE
  5
EB
100
AcDbEntity
  8
0
  6
CONTINUOUS
 62
               7
100
AcDbLine
 10
-65.539602000000059
 20
86.150000000000148
 30
0.0
 11
-65.683815000000095
 21
86.150000000000148
 31
0.0
  0
LINE
  5
EC
100
AcDbEntity
  8
0
  6
CONTINUOUS
 62
               7
100
AcDbLine
 10
-65.539602000000059
 20
86.949999999999875
 30
0.0
 11
-65.539602000000059
 21
86.150000000000148
 31
0.0
  0
LINE
  5
ED
100
AcDbEntity
  8
0
  6
CONTINUOUS
 62
               7
100
AcDbLine
 10
-64.300000000000068
 20
83.099999999999966
 30
0.0
 11
-63.800000000000068
 21
83.099999999999966
 31
0.0
  0
LINE
  5
EE
100
AcDbEntity
  8
0
  6
CONTINUOUS
 62
               7
100
AcDbLine
 10
-64.300000000000068
 20
90.000000000000057
 30
0.0
 11
-63.800000000000068
 21
90.000000000000057
 31
0.0
  0
LINE
  5
EF
100
AcDbEntity
  8
0
  6
CONTINUOUS
 62
               7
100
AcDbLine
 10
-64.300000000000068
 20
52.850000000000023
 30
0.0
 11
-63.800000000000068
 21
52.850000000000023
 31
0.0
  0
LINE
  5
F0
100
AcDbEntity
  8
0
  6
CONTINUOUS
 62
               7
100
AcDbLine
 10
-64.300000000000068
 20
45.949999999999932
 30
0.0
 11
-63.800000000000068
 21
45.949999999999932
 31
0.0
  0
LINE
  5
F1
100
AcDbEntity
  8
0
  6
CONTINUOUS
 62
               7
100
AcDbLine
 10
-65.539602000000059
 20
49.799999999999841
 30
0.0
 11
-65.539602000000059
 21
49.000000000000114
 31
0.0
  0
LINE
  5
F2
100
AcDbEntity
  8
0
  6
CONTINUOUS
 62
               7
100
AcDbLine
 10
-65.539602000000059
 20
49.000000000000114
 30
0.0
 11
-65.683815000000095
 21
49.000000000000114
 31
0.0
  0
LINE
  5
F3
100
AcDbEntity
  8
0
  6
CONTINUOUS
 62
               7
100
AcDbLine
 10
-65.683815000000095
 20
49.799999999999841
 30
0.0
 11
-65.539602000000059
 21
49.799999999999841
 31
0.0
  0
ARC
  5
F4
100
AcDbEntity
  8
0
  6
CONTINUOUS
 62
               7
100
AcDbCircle
 10
-60.749107000000095
 20
49.399999999999977
 30
0.0
 40
4.9508929999999998
100
AcDbArc
 50
184.63417800000005
 51
224.17434300000005
  0
ARC
  5
F5
100
AcDbEntity
  8
0
  6
CONTINUOUS
 62
               7
100
AcDbCircle
 10
-60.749107000000095
 20
49.399999999999977
 30
0.0
 40
4.9508929999999998
100
AcDbArc
 50
135.82565700000006
 51
175.38090600000004
  0
LINE
  5
F6
100
AcDbEntity
  8
0
  6
CONTINUOUS
 62
               7
100
AcDbLine
 10
-64.300000000000068
 20
52.850000000000023
 30
0.0
 11
-64.300000000000068
 21
45.949999999999932
 31
0.0
  0
LINE
  5
F7
100
AcDbEntity
  8
0
  6
CONTINUOUS
 62
               7
100
AcDbLine
 10
-42.300000000000068
 20
5.0
 30
0.0
 11
-42.300000000000068
 21
1.5
 31
0.0
  0
LINE
  5
F8
100
AcDbEntity
  8
0
  6
CONTINUOUS
 62
               7
100
AcDbLine
 10
-55.300000000000068
 20
1.5
 30
0.0
 11
-55.300000000000068
 21
5.0
 31
0.0
  0
LINE
  5
F9
100
AcDbEntity
  8
0
  6
CONTINUOUS
 62
               2
100
AcDbLine
 10
-48.800000000000068
 20
-2.0
 30
0.0
 11
-48.800000000000068
 21
7.0
 31
0.0
  0
LINE
  5
FA
100
AcDbEntity
  8
0
  6
CONTINUOUS
 62
               7
100
AcDbLine
 10
6.5
 20
5.0
 30
0.0
 11
6.5
 21
1.5
 31
0.0
  0
LINE
  5
FB
100
AcDbEntity
  8
0
  6
CONTINUOUS
 62
               7
100
AcDbLine
 10
-6.5
 20
1.5
 30
0.0
 11
-6.5
 21
5.0
 31
0.0
  0
LINE
  5
FC
100
AcDbEntity
  8
0
  6
CONTINUOUS
 62
               2
100
AcDbLine
 10
0.0
 20
-2.0
 30
0.0
 11
0.0
 21
7.0
 31
0.0
  0
ARC
  5
FD
100
AcDbEntity
  8
0
  6
CONTINUOUS
 62
               7
100
AcDbCircle
 10
5.0
 20
1.5
 30
0.0
 40
1.5
100
AcDbArc
 50
270.0
 51
0.0
  0
LINE
  5
FE
100
AcDbEntity
  8
0
  6
CONTINUOUS
 62
               7
100
AcDbLine
 10
5.0
 20
0.0
 30
0.0
 11
-5.0
 21
0.0
 31
0.0
  0
ARC
  5
FF
100
AcDbEntity
  8
0
  6
CONTINUOUS
 62
               7
100
AcDbCircle
 10
-5.0
 20
1.5
 30
0.0
 40
1.5
100
AcDbArc
 50
180.0
 51
270.0
  0
ARC
  5
100
100
AcDbEntity
  8
0
  6
CONTINUOUS
 62
               7
100
AcDbCircle
 10
-53.800000000000068
 20
1.5
 30
0.0
 40
1.5
100
AcDbArc
 50
180.0
 51
270.0
  0
LINE
  5
101
100
AcDbEntity
  8
0
  6
CONTINUOUS
 62
               7
100
AcDbLine
 10
-43.800000000000068
 20
0.0
 30
0.0
 11
-53.800000000000068
 21
0.0
 31
0.0
  0
ARC
  5
102
100
AcDbEntity
  8
0
  6
CONTINUOUS
 62
               7
100
AcDbCircle
 10
-43.800000000000068
 20
1.5
 30
0.0
 40
1.5
100
AcDbArc
 50
270.0
 51
0.0
  0
CIRCLE
  5
103
100
AcDbEntity
  8
0
  6
CONTINUOUS
 62
               2
100
AcDbCircle
 10
-28.200000000000045
 20
143.75000000000006
 30
0.0
 40
1.6000000000000001
  0
CIRCLE
  5
104
100
AcDbEntity
  8
0
  6
CONTINUOUS
 62
               7
100
AcDbCircle
 10
-28.200000000000045
 20
143.75000000000006
 30
0.0
 40
1.2
  0
CIRCLE
  5
105
100
AcDbEntity
  8
0
  6
CONTINUOUS
 62
               7
100
AcDbCircle
 10
1.7999999999999545
 20
113.75000000000006
 30
0.0
 40
1.2
  0
CIRCLE
  5
106
100
AcDbEntity
  8
0
  6
CONTINUOUS
 62
               7
100
AcDbCircle
 10
-28.200000000000045
 20
113.75000000000006
 30
0.0
 40
1.2
  0
LINE
  5
107
100
AcDbEntity
  8
0
  6
CONTINUOUS
 62
               2
100
AcDbLine
 10
1.7999999999999545
 20
111.15000000000006
 30
0.0
 11
1.7999999999999545
 21
116.35000000000005
 31
0.0
  0
CIRCLE
  5
108
100
AcDbEntity
  8
0
  6
CONTINUOUS
 62
               2
100
AcDbCircle
 10
1.7999999999999545
 20
113.75000000000006
 30
0.0
 40
1.6000000000000001
  0
CIRCLE
  5
109
100
AcDbEntity
  8
0
  6
CONTINUOUS
 62
               2
100
AcDbCircle
 10
-28.200000000000045
 20
113.75000000000006
 30
0.0
 40
1.6000000000000001
  0
LINE
  5
10A
100
AcDbEntity
  8
0
  6
CONTINUOUS
 62
               7
100
AcDbLine
 10
-64.300000000000068
 20
94.700000000000045
 30
0.0
 11
-64.300000000000068
 21
83.099999999999966
 31
0.0
  0
LINE
  5
10B
100
AcDbEntity
  8
0
  6
CONTINUOUS
 62
               7
100
AcDbLine
 10
-64.300000000000068
 20
165.20000000000005
 30
0.0
 11
-64.300000000000068
 21
153.79999999999995
 31
0.0
  0
LINE
  5
10C
100
AcDbEntity
  8
0
  6
CONTINUOUS
 62
               2
100
AcDbLine
 10
4.3999999999999488
 20
113.75000000000006
 30
0.0
 11
-0.8000000000000398
 21
113.75000000000006
 31
0.0
  0
LINE
  5
10D
100
AcDbEntity
  8
0
  6
CONTINUOUS
 62
               2
100
AcDbLine
 10
-25.600000000000023
 20
113.75000000000006
 30
0.0
 11
-30.800000000000068
 21
113.75000000000006
 31
0.0
  0
LINE
  5
10E
100
AcDbEntity
  8
0
  6
CONTINUOUS
 62
               2
100
AcDbLine
 10
-28.200000000000045
 20
111.15000000000006
 30
0.0
 11
-28.200000000000045
 21
116.35000000000005
 31
0.0
  0
LINE
  5
10F
100
AcDbEntity
  8
0
  6
CONTINUOUS
 62
               2
100
AcDbLine
 10
-25.600000000000023
 20
143.75000000000006
 30
0.0
 11
-30.800000000000068
 21
143.75000000000006
 31
0.0
  0
LINE
  5
110
100
AcDbEntity
  8
0
  6
CONTINUOUS
 62
               2
100
AcDbLine
 10
-28.200000000000045
 20
141.15000000000006
 30
0.0
 11
-28.200000000000045
 21
146.35000000000005
 31
0.0
  0
ENDBLK
  5
111
100
AcDbEntity
  8
0
100
AcDbBlockEnd
  0
BLOCK
  5
112
100
AcDbEntity
  8
0
100
AcDbBlockBegin
  2
DPP-AT-3
 70
               0
 10
0.0
 20
0.0
 30
0.0
  3
DPP-AT-3
  1

  0
LINE
  5
113
100
AcDbEntity
  8
0
  6
CONTINUOUS
 62
               7
100
AcDbLine
 10
44.500000000000227
 20
190.80000000000001
 30
0.0
 11
51.100000000000136
 21
190.80000000000001
 31
0.0
  0
LINE
  5
114
100
AcDbEntity
  8
0
  6
CONTINUOUS
 62
               7
100
AcDbLine
 10
44.500000000000227
 20
188.80000000000001
 30
0.0
 11
51.100000000000136
 21
188.80000000000001
 31
0.0
  0
LINE
  5
115
100
AcDbEntity
  8
0
  6
CONTINUOUS
 62
               7
100
AcDbLine
 10
51.100000000000136
 20
190.80000000000001
 30
0.0
 11
51.100000000000136
 21
188.80000000000001
 31
0.0
  0
LINE
  5
116
100
AcDbEntity
  8
0
  6
CONTINUOUS
 62
               7
100
AcDbLine
 10
44.500000000000227
 20
190.80000000000001
 30
0.0
 11
44.500000000000227
 21
188.80000000000001
 31
0.0
  0
ARC
  5
117
100
AcDbEntity
  8
0
  6
CONTINUOUS
 62
               7
100
AcDbCircle
 10
60.749107000000095
 20
50.25
 30
0.0
 40
4.9508929999999998
100
AcDbArc
 50
4.6190939999999472
 51
44.174342999999944
  0
ARC
  5
118
100
AcDbEntity
  8
0
  6
CONTINUOUS
 62
               7
100
AcDbCircle
 10
60.749107000000095
 20
50.25
 30
0.0
 40
4.9508929999999998
100
AcDbArc
 50
315.82565699999992
 51
355.36582199999992
  0
LINE
  5
119
100
AcDbEntity
  8
0
  6
CONTINUOUS
 62
               7
100
AcDbLine
 10
65.683815000000095
 20
50.649999999999864
 30
0.0
 11
65.539602000000059
 21
50.649999999999864
 31
0.0
  0
LINE
  5
11A
100
AcDbEntity
  8
0
  6
CONTINUOUS
 62
               7
100
AcDbLine
 10
65.539602000000059
 20
49.850000000000136
 30
0.0
 11
65.683815000000095
 21
49.850000000000136
 31
0.0
  0
LINE
  5
11B
100
AcDbEntity
  8
0
  6
CONTINUOUS
 62
               7
100
AcDbLine
 10
65.539602000000059
 20
50.649999999999864
 30
0.0
 11
65.539602000000059
 21
49.850000000000136
 31
0.0
  0
LINE
  5
11C
100
AcDbEntity
  8
0
  6
CONTINUOUS
 62
               7
100
AcDbLine
 10
64.299999999999955
 20
46.799999999999955
 30
0.0
 11
63.799999999999955
 21
46.799999999999955
 31
0.0
  0
LINE
  5
11D
100
AcDbEntity
  8
0
  6
CONTINUOUS
 62
               7
100
AcDbLine
 10
64.299999999999955
 20
53.700000000000045
 30
0.0
 11
63.799999999999955
 21
53.700000000000045
 31
0.0
  0
ARC
  5
11E
100
AcDbEntity
  8
0
  6
CONTINUOUS
 62
               7
100
AcDbCircle
 10
60.749107000000095
 20
85.75
 30
0.0
 40
4.9508929999999998
100
AcDbArc
 50
4.6190939999999472
 51
44.174342999999944
  0
ARC
  5
11F
100
AcDbEntity
  8
0
  6
CONTINUOUS
 62
               7
100
AcDbCircle
 10
60.749107000000095
 20
85.75
 30
0.0
 40
4.9508929999999998
100
AcDbArc
 50
315.82565699999992
 51
355.36582199999992
  0
LINE
  5
120
100
AcDbEntity
  8
0
  6
CONTINUOUS
 62
               7
100
AcDbLine
 10
65.683815000000095
 20
86.149999999999864
 30
0.0
 11
65.539602000000059
 21
86.149999999999864
 31
0.0
  0
LINE
  5
121
100
AcDbEntity
  8
0
  6
CONTINUOUS
 62
               7
100
AcDbLine
 10
65.539602000000059
 20
85.350000000000136
 30
0.0
 11
65.683815000000095
 21
85.350000000000136
 31
0.0
  0
LINE
  5
122
100
AcDbEntity
  8
0
  6
CONTINUOUS
 62
               7
100
AcDbLine
 10
65.539602000000059
 20
86.149999999999864
 30
0.0
 11
65.539602000000059
 21
85.350000000000136
 31
0.0
  0
LINE
  5
123
100
AcDbEntity
  8
0
  6
CONTINUOUS
 62
               7
100
AcDbLine
 10
64.299999999999955
 20
82.299999999999955
 30
0.0
 11
63.799999999999955
 21
82.299999999999955
 31
0.0
  0
LINE
  5
124
100
AcDbEntity
  8
0
  6
CONTINUOUS
 62
               7
100
AcDbLine
 10
64.299999999999955
 20
89.200000000000045
 30
0.0
 11
63.799999999999955
 21
89.200000000000045
 31
0.0
  0
ARC
  5
125
100
AcDbEntity
  8
0
  6
CONTINUOUS
 62
               7
100
AcDbCircle
 10
60.749107000000095
 20
95.75
 30
0.0
 40
4.9508929999999998
100
AcDbArc
 50
4.6190939999999472
 51
44.174342999999944
  0
ARC
  5
126
100
AcDbEntity
  8
0
  6
CONTINUOUS
 62
               7
100
AcDbCircle
 10
60.749107000000095
 20
95.75
 30
0.0
 40
4.9508929999999998
100
AcDbArc
 50
315.82565699999992
 51
355.36582199999992
  0
LINE
  5
127
100
AcDbEntity
  8
0
  6
CONTINUOUS
 62
               7
100
AcDbLine
 10
65.683815000000095
 20
96.149999999999864
 30
0.0
 11
65.539602000000059
 21
96.149999999999864
 31
0.0
  0
LINE
  5
128
100
AcDbEntity
  8
0
  6
CONTINUOUS
 62
               7
100
AcDbLine
 10
65.539602000000059
 20
95.350000000000136
 30
0.0
 11
65.683815000000095
 21
95.350000000000136
 31
0.0
  0
LINE
  5
129
100
AcDbEntity
  8
0
  6
CONTINUOUS
 62
               7
100
AcDbLine
 10
65.539602000000059
 20
96.149999999999864
 30
0.0
 11
65.539602000000059
 21
95.350000000000136
 31
0.0
  0
LINE
  5
12A
100
AcDbEntity
  8
0
  6
CONTINUOUS
 62
               7
100
AcDbLine
 10
64.299999999999955
 20
92.299999999999955
 30
0.0
 11
63.799999999999955
 21
92.299999999999955
 31
0.0
  0
LINE
  5
12B
100
AcDbEntity
  8
0
  6
CONTINUOUS
 62
               7
100
AcDbLine
 10
64.299999999999955
 20
99.200000000000045
 30
0.0
 11
63.799999999999955
 21
99.200000000000045
 31
0.0
  0
ARC
  5
12C
100
AcDbEntity
  8
0
  6
CONTINUOUS
 62
               7
100
AcDbCircle
 10
60.749107000000095
 20
111.75
 30
0.0
 40
4.9508929999999998
100
AcDbArc
 50
4.6190939999999472
 51
44.174342999999944
  0
ARC
  5
12D
100
AcDbEntity
  8
0
  6
CONTINUOUS
 62
               7
100
AcDbCircle
 10
60.749107000000095
 20
111.75
 30
0.0
 40
4.9508929999999998
100
AcDbArc
 50
315.82565699999992
 51
355.36582199999992
  0
LINE
  5
12E
100
AcDbEntity
  8
0
  6
CONTINUOUS
 62
               7
100
AcDbLine
 10
65.683815000000095
 20
112.14999999999986
 30
0.0
 11
65.539602000000059
 21
112.14999999999986
 31
0.0
  0
LINE
  5
12F
100
AcDbEntity
  8
0
  6
CONTINUOUS
 62
               7
100
AcDbLine
 10
65.539602000000059
 20
111.35000000000014
 30
0.0
 11
65.683815000000095
 21
111.35000000000014
 31
0.0
  0
LINE
  5
130
100
AcDbEntity
  8
0
  6
CONTINUOUS
 62
               7
100
AcDbLine
 10
65.539602000000059
 20
112.14999999999986
 30
0.0
 11
65.539602000000059
 21
111.35000000000014
 31
0.0
  0
LINE
  5
131
100
AcDbEntity
  8
0
  6
CONTINUOUS
 62
               7
100
AcDbLine
 10
64.299999999999955
 20
108.29999999999995
 30
0.0
 11
63.799999999999955
 21
108.29999999999995
 31
0.0
  0
LINE
  5
132
100
AcDbEntity
  8
0
  6
CONTINUOUS
 62
               7
100
AcDbLine
 10
64.299999999999955
 20
115.20000000000005
 30
0.0
 11
63.799999999999955
 21
115.20000000000005
 31
0.0
  0
ARC
  5
133
100
AcDbEntity
  8
0
  6
CONTINUOUS
 62
               7
100
AcDbCircle
 10
60.749107000000095
 20
151.75
 30
0.0
 40
4.9508929999999998
100
AcDbArc
 50
4.6190939999999472
 51
44.174342999999944
  0
ARC
  5
134
100
AcDbEntity
  8
0
  6
CONTINUOUS
 62
               7
100
AcDbCircle
 10
60.749107000000095
 20
151.75
 30
0.0
 40
4.9508929999999998
100
AcDbArc
 50
315.82565699999992
 51
355.36582199999992
  0
LINE
  5
135
100
AcDbEntity
  8
0
  6
CONTINUOUS
 62
               7
100
AcDbLine
 10
65.683815000000095
 20
152.14999999999986
 30
0.0
 11
65.539602000000059
 21
152.14999999999986
 31
0.0
  0
LINE
  5
136
100
AcDbEntity
  8
0
  6
CONTINUOUS
 62
               7
100
AcDbLine
 10
65.539602000000059
 20
151.35000000000014
 30
0.0
 11
65.683815000000095
 21
151.35000000000014
 31
0.0
  0
LINE
  5
137
100
AcDbEntity
  8
0
  6
CONTINUOUS
 62
               7
100
AcDbLine
 10
65.539602000000059
 20
152.14999999999986
 30
0.0
 11
65.539602000000059
 21
151.35000000000014
 31
0.0
  0
LINE
  5
138
100
AcDbEntity
  8
0
  6
CONTINUOUS
 62
               7
100
AcDbLine
 10
64.299999999999955
 20
148.29999999999995
 30
0.0
 11
63.799999999999955
 21
148.29999999999995
 31
0.0
  0
LINE
  5
139
100
AcDbEntity
  8
0
  6
CONTINUOUS
 62
               7
100
AcDbLine
 10
64.299999999999955
 20
155.20000000000005
 30
0.0
 11
63.799999999999955
 21
155.20000000000005
 31
0.0
  0
LINE
  5
13A
100
AcDbEntity
  8
0
  6
CONTINUOUS
 62
               7
100
AcDbLine
 10
52.850000000000136
 20
215.5
 30
0.0
 11
59.750000000000227
 21
215.5
 31
0.0
  0
ARC
  5
13B
100
AcDbEntity
  8
0
  6
CONTINUOUS
 62
               7
100
AcDbCircle
 10
56.299999999999955
 20
211.94910700000003
 30
0.0
 40
4.9508929999999998
100
AcDbArc
 50
94.619094000000004
 51
134.17434299999999
  0
ARC
  5
13C
100
AcDbEntity
  8
0
  6
CONTINUOUS
 62
               7
100
AcDbCircle
 10
56.299999999999955
 20
211.94910700000003
 30
0.0
 40
4.9508929999999998
100
AcDbArc
 50
45.825657
 51
85.365821999999994
  0
LINE
  5
13D
100
AcDbEntity
  8
0
  6
CONTINUOUS
 62
               7
100
AcDbLine
 10
55.900000000000318
 20
216.88381500000003
 30
0.0
 11
55.900000000000318
 21
216.73960199999999
 31
0.0
  0
LINE
  5
13E
100
AcDbEntity
  8
0
  6
CONTINUOUS
 62
               7
100
AcDbLine
 10
56.700000000000045
 20
216.73960199999999
 30
0.0
 11
56.700000000000045
 21
216.88381500000003
 31
0.0
  0
LINE
  5
13F
100
AcDbEntity
  8
0
  6
CONTINUOUS
 62
               7
100
AcDbLine
 10
55.900000000000318
 20
216.73960199999999
 30
0.0
 11
56.700000000000045
 21
216.73960199999999
 31
0.0
  0
LINE
  5
140
100
AcDbEntity
  8
0
  6
CONTINUOUS
 62
               7
100
AcDbLine
 10
59.750000000000227
 20
215.5
 30
0.0
 11
59.750000000000227
 21
215.0
 31
0.0
  0
LINE
  5
141
100
AcDbEntity
  8
0
  6
CONTINUOUS
 62
               7
100
AcDbLine
 10
52.850000000000136
 20
215.5
 30
0.0
 11
52.850000000000136
 21
215.0
 31
0.0
  0
LINE
  5
142
100
AcDbEntity
  8
0
  6
CONTINUOUS
 62
               7
100
AcDbLine
 10
-15.949999999999818
 20
215.5
 30
0.0
 11
-9.0500000000001819
 21
215.5
 31
0.0
  0
ARC
  5
143
100
AcDbEntity
  8
0
  6
CONTINUOUS
 62
               7
100
AcDbCircle
 10
-12.5
 20
211.94910700000003
 30
0.0
 40
4.9508929999999998
100
AcDbArc
 50
94.619094000000004
 51
134.17434299999999
  0
ARC
  5
144
100
AcDbEntity
  8
0
  6
CONTINUOUS
 62
               7
100
AcDbCircle
 10
-12.5
 20
211.94910700000003
 30
0.0
 40
4.9508929999999998
100
AcDbArc
 50
45.825657
 51
85.365821999999994
  0
LINE
  5
145
100
AcDbEntity
  8
0
  6
CONTINUOUS
 62
               7
100
AcDbLine
 10
-12.900000000000091
 20
216.88381500000003
 30
0.0
 11
-12.900000000000091
 21
216.73960199999999
 31
0.0
  0
LINE
  5
146
100
AcDbEntity
  8
0
  6
CONTINUOUS
 62
               7
100
AcDbLine
 10
-12.099999999999909
 20
216.73960199999999
 30
0.0
 11
-12.099999999999909
 21
216.88381500000003
 31
0.0
  0
LINE
  5
147
100
AcDbEntity
  8
0
  6
CONTINUOUS
 62
               7
100
AcDbLine
 10
-12.900000000000091
 20
216.73960199999999
 30
0.0
 11
-12.099999999999909
 21
216.73960199999999
 31
0.0
  0
LINE
  5
148
100
AcDbEntity
  8
0
  6
CONTINUOUS
 62
               7
100
AcDbLine
 10
-9.0500000000001819
 20
215.5
 30
0.0
 11
-9.0500000000001819
 21
215.0
 31
0.0
  0
LINE
  5
149
100
AcDbEntity
  8
0
  6
CONTINUOUS
 62
               7
100
AcDbLine
 10
-15.949999999999818
 20
215.5
 30
0.0
 11
-15.949999999999818
 21
215.0
 31
0.0
  0
LINE
  5
14A
100
AcDbEntity
  8
0
  6
CONTINUOUS
 62
               7
100
AcDbLine
 10
63.799999999999955
 20
5.0
 30
0.0
 11
63.799999999999955
 21
215.0
 31
0.0
  0
LINE
  5
14B
100
AcDbEntity
  8
0
  6
CONTINUOUS
 62
               7
100
AcDbLine
 10
-21.199999999999818
 20
215.0
 30
0.0
 11
63.799999999999955
 21
215.0
 31
0.0
  0
LINE
  5
14C
100
AcDbEntity
  8
0
  6
CONTINUOUS
 62
               7
100
AcDbLine
 10
-21.199999999999818
 20
5.0
 30
0.0
 11
-21.199999999999818
 21
215.0
 31
0.0
  0
LINE
  5
14D
100
AcDbEntity
  8
0
  6
CONTINUOUS
 62
               7
100
AcDbLine
 10
-21.199999999999818
 20
5.0
 30
0.0
 11
63.799999999999955
 21
5.0
 31
0.0
  0
ARC
  5
14E
100
AcDbEntity
  8
0
  6
CONTINUOUS
 62
               7
100
AcDbCircle
 10
43.799999999999955
 20
1.5
 30
0.0
 40
1.5
100
AcDbArc
 50
180.0
 51
270.0
  0
LINE
  5
14F
100
AcDbEntity
  8
0
  6
CONTINUOUS
 62
               7
100
AcDbLine
 10
43.799999999999955
 20
0.0
 30
0.0
 11
53.799999999999955
 21
0.0
 31
0.0
  0
LINE
  5
150
100
AcDbEntity
  8
0
  6
CONTINUOUS
 62
               7
100
AcDbLine
 10
42.299999999999955
 20
5.0
 30
0.0
 11
42.299999999999955
 21
1.5
 31
0.0
  0
ARC
  5
151
100
AcDbEntity
  8
0
  6
CONTINUOUS
 62
               7
100
AcDbCircle
 10
53.799999999999955
 20
1.5
 30
0.0
 40
1.5
100
AcDbArc
 50
270.0
 51
0.0
  0
LINE
  5
152
100
AcDbEntity
  8
0
  6
CONTINUOUS
 62
               7
100
AcDbLine
 10
55.299999999999955
 20
1.5
 30
0.0
 11
55.299999999999955
 21
5.0
 31
0.0
  0
LINE
  5
153
100
AcDbEntity
  8
0
  6
CONTINUOUS
 62
               7
100
AcDbLine
 10
21.500000000000227
 20
170.44999999999999
 30
0.0
 11
21.500000000000227
 21
199.44999999999999
 31
0.0
  0
LINE
  5
154
100
AcDbEntity
  8
0
  6
CONTINUOUS
 62
               7
100
AcDbLine
 10
-7.5
 20
170.44999999999999
 30
0.0
 11
21.500000000000227
 21
170.44999999999999
 31
0.0
  0
LINE
  5
155
100
AcDbEntity
  8
0
  6
CONTINUOUS
 62
               7
100
AcDbLine
 10
-7.5
 20
199.44999999999999
 30
0.0
 11
-7.5
 21
170.44999999999999
 31
0.0
  0
LINE
  5
156
100
AcDbEntity
  8
0
  6
CONTINUOUS
 62
               7
100
AcDbLine
 10
21.500000000000227
 20
199.44999999999999
 30
0.0
 11
-7.5
 21
199.44999999999999
 31
0.0
  0
LINE
  5
157
100
AcDbEntity
  8
0
  6
CONTINUOUS
 62
               7
100
AcDbLine
 10
-14.400000000000091
 20
206.35000000000002
 30
0.0
 11
28.400000000000318
 21
206.35000000000002
 31
0.0
  0
LINE
  5
158
100
AcDbEntity
  8
0
  6
CONTINUOUS
 62
               7
100
AcDbLine
 10
28.400000000000318
 20
206.35000000000002
 30
0.0
 11
28.400000000000318
 21
163.55000000000001
 31
0.0
  0
LINE
  5
159
100
AcDbEntity
  8
0
  6
CONTINUOUS
 62
               7
100
AcDbLine
 10
28.400000000000318
 20
163.55000000000001
 30
0.0
 11
-14.400000000000091
 21
163.55000000000001
 31
0.0
  0
LINE
  5
15A
100
AcDbEntity
  8
0
  6
CONTINUOUS
 62
               7
100
AcDbLine
 10
-14.400000000000091
 20
163.55000000000001
 30
0.0
 11
-14.400000000000091
 21
206.35000000000002
 31
0.0
  0
LINE
  5
15B
100
AcDbEntity
  8
0
  6
CONTINUOUS
 62
               7
100
AcDbLine
 10
-20.0
 20
6.25
 30
0.0
 11
63.799999999999955
 21
6.25
 31
0.0
  0
LINE
  5
15C
100
AcDbEntity
  8
0
  6
CONTINUOUS
 62
               7
100
AcDbLine
 10
-20.0
 20
213.75
 30
0.0
 11
-20.0
 21
6.25
 31
0.0
  0
LINE
  5
15D
100
AcDbEntity
  8
0
  6
CONTINUOUS
 62
               7
100
AcDbLine
 10
63.799999999999955
 20
213.75
 30
0.0
 11
-20.0
 21
213.75
 31
0.0
  0
LINE
  5
15E
100
AcDbEntity
  8
0
  6
CONTINUOUS
 62
               7
100
AcDbLine
 10
-9.0
 20
16.25
 30
0.0
 11
11.0
 21
16.25
 31
0.0
  0
LINE
  5
15F
100
AcDbEntity
  8
0
  6
CONTINUOUS
 62
               7
100
AcDbLine
 10
-10.0
 20
27.25
 30
0.0
 11
-10.0
 21
17.25
 31
0.0
  0
LINE
  5
160
100
AcDbEntity
  8
0
  6
CONTINUOUS
 62
               7
100
AcDbLine
 10
12.0
 20
27.25
 30
0.0
 11
12.0
 21
17.25
 31
0.0
  0
LINE
  5
161
100
AcDbEntity
  8
0
  6
CONTINUOUS
 62
               7
100
AcDbLine
 10
-10.0
 20
24.75
 30
0.0
 11
12.0
 21
24.75
 31
0.0
  0
LINE
  5
162
100
AcDbEntity
  8
0
  6
CONTINUOUS
 62
               7
100
AcDbLine
 10
-9.0
 20
28.25
 30
0.0
 11
11.0
 21
28.25
 31
0.0
  0
ARC
  5
163
100
AcDbEntity
  8
0
  6
CONTINUOUS
 62
               7
100
AcDbCircle
 10
-9.0
 20
27.25
 30
0.0
 40
1.0
100
AcDbArc
 50
90.0
 51
180.0
  0
ARC
  5
164
100
AcDbEntity
  8
0
  6
CONTINUOUS
 62
               7
100
AcDbCircle
 10
11.0
 20
27.25
 30
0.0
 40
1.0
100
AcDbArc
 50
0.0
 51
90.0
  0
ARC
  5
165
100
AcDbEntity
  8
0
  6
CONTINUOUS
 62
               7
100
AcDbCircle
 10
11.0
 20
17.25
 30
0.0
 40
1.0
100
AcDbArc
 50
270.0
 51
0.0
  0
ARC
  5
166
100
AcDbEntity
  8
0
  6
CONTINUOUS
 62
               7
100
AcDbCircle
 10
-9.0
 20
17.25
 30
0.0
 40
1.0
100
AcDbArc
 50
180.0
 51
270.0
  0
LINE
  5
167
100
AcDbEntity
  8
0
  6
CONTINUOUS
 62
               2
100
AcDbLine
 10
48.799999999999955
 20
-2.0
 30
0.0
 11
48.799999999999955
 21
7.0
 31
0.0
  0
LINE
  5
168
100
AcDbEntity
  8
0
  6
CONTINUOUS
 62
               7
100
AcDbLine
 10
-6.5
 20
5.0
 30
0.0
 11
-6.5
 21
1.5
 31
0.0
  0
LINE
  5
169
100
AcDbEntity
  8
0
  6
CONTINUOUS
 62
               7
100
AcDbLine
 10
6.5
 20
1.5
 30
0.0
 11
6.5
 21
5.0
 31
0.0
  0
LINE
  5
16A
100
AcDbEntity
  8
0
  6
CONTINUOUS
 62
               2
100
AcDbLine
 10
0.0
 20
-2.0
 30
0.0
 11
0.0
 21
7.0
 31
0.0
  0
ARC
  5
16B
100
AcDbEntity
  8
0
  6
CONTINUOUS
 62
               7
100
AcDbCircle
 10
5.0
 20
1.5
 30
0.0
 40
1.5
100
AcDbArc
 50
270.0
 51
0.0
  0
LINE
  5
16C
100
AcDbEntity
  8
0
  6
CONTINUOUS
 62
               7
100
AcDbLine
 10
-5.0
 20
0.0
 30
0.0
 11
5.0
 21
0.0
 31
0.0
  0
ARC
  5
16D
100
AcDbEntity
  8
0
  6
CONTINUOUS
 62
               7
100
AcDbCircle
 10
-5.0
 20
1.5
 30
0.0
 40
1.5
100
AcDbArc
 50
180.0
 51
270.0
  0
LINE
  5
16E
100
AcDbEntity
  8
0
  6
CONTINUOUS
 62
               7
100
AcDbLine
 10
64.299999999999955
 20
165.20000000000005
 30
0.0
 11
63.799999999999955
 21
165.20000000000005
 31
0.0
  0
LINE
  5
16F
100
AcDbEntity
  8
0
  6
CONTINUOUS
 62
               7
100
AcDbLine
 10
64.299999999999955
 20
158.29999999999995
 30
0.0
 11
63.799999999999955
 21
158.29999999999995
 31
0.0
  0
LINE
  5
170
100
AcDbEntity
  8
0
  6
CONTINUOUS
 62
               7
100
AcDbLine
 10
65.539602000000059
 20
162.14999999999986
 30
0.0
 11
65.539602000000059
 21
161.35000000000014
 31
0.0
  0
LINE
  5
171
100
AcDbEntity
  8
0
  6
CONTINUOUS
 62
               7
100
AcDbLine
 10
65.539602000000059
 20
161.35000000000014
 30
0.0
 11
65.683815000000095
 21
161.35000000000014
 31
0.0
  0
LINE
  5
172
100
AcDbEntity
  8
0
  6
CONTINUOUS
 62
               7
100
AcDbLine
 10
65.683815000000095
 20
162.14999999999986
 30
0.0
 11
65.539602000000059
 21
162.14999999999986
 31
0.0
  0
ARC
  5
173
100
AcDbEntity
  8
0
  6
CONTINUOUS
 62
               7
100
AcDbCircle
 10
60.749107000000095
 20
161.75
 30
0.0
 40
4.9508929999999998
100
AcDbArc
 50
315.82565699999992
 51
355.36582199999992
  0
ARC
  5
174
100
AcDbEntity
  8
0
  6
CONTINUOUS
 62
               7
100
AcDbCircle
 10
60.749107000000095
 20
161.75
 30
0.0
 40
4.9508929999999998
100
AcDbArc
 50
4.6190939999999472
 51
44.174342999999944
  0
LINE
  5
175
100
AcDbEntity
  8
0
  6
CONTINUOUS
 62
               2
100
AcDbLine
 10
41.350000000000136
 20
175.34999999999997
 30
0.0
 11
41.350000000000136
 21
194.55000000000001
 31
0.0
  0
LINE
  5
176
100
AcDbEntity
  8
0
  6
CONTINUOUS
 62
               2
100
AcDbLine
 10
54.250000000000227
 20
194.55000000000001
 30
0.0
 11
54.250000000000227
 21
175.34999999999997
 31
0.0
  0
LINE
  5
177
100
AcDbEntity
  8
0
  6
CONTINUOUS
 62
               2
100
AcDbLine
 10
41.350000000000136
 20
194.55000000000001
 30
0.0
 11
54.250000000000227
 21
194.55000000000001
 31
0.0
  0
LINE
  5
178
100
AcDbEntity
  8
0
  6
CONTINUOUS
 62
               2
100
AcDbLine
 10
54.250000000000227
 20
175.34999999999997
 30
0.0
 11
41.350000000000136
 21
175.34999999999997
 31
0.0
  0
LINE
  5
179
100
AcDbEntity
  8
0
  6
CONTINUOUS
 62
               7
100
AcDbLine
 10
42.500000000000227
 20
192.80000000000001
 30
0.0
 11
53.100000000000136
 21
192.80000000000001
 31
0.0
  0
LINE
  5
17A
100
AcDbEntity
  8
0
  6
CONTINUOUS
 62
               7
100
AcDbLine
 10
53.100000000000136
 20
192.80000000000001
 30
0.0
 11
53.100000000000136
 21
177.09999999999997
 31
0.0
  0
LINE
  5
17B
100
AcDbEntity
  8
0
  6
CONTINUOUS
 62
               7
100
AcDbLine
 10
53.100000000000136
 20
177.09999999999997
 30
0.0
 11
42.500000000000227
 21
177.09999999999997
 31
0.0
  0
LINE
  5
17C
100
AcDbEntity
  8
0
  6
CONTINUOUS
 62
               7
100
AcDbLine
 10
42.500000000000227
 20
192.80000000000001
 30
0.0
 11
42.500000000000227
 21
177.09999999999997
 31
0.0
  0
ARC
  5
17D
100
AcDbEntity
  8
0
  6
CONTINUOUS
 62
               7
100
AcDbCircle
 10
41.250000000000227
 20
194.5
 30
0.0
 40
1.0
100
AcDbArc
 50
90.0
 51
180.0
  0
LINE
  5
17E
100
AcDbEntity
  8
0
  6
CONTINUOUS
 62
               7
100
AcDbLine
 10
41.250000000000227
 20
195.5
 30
0.0
 11
54.350000000000136
 21
195.5
 31
0.0
  0
ARC
  5
17F
100
AcDbEntity
  8
0
  6
CONTINUOUS
 62
               7
100
AcDbCircle
 10
54.350000000000136
 20
194.5
 30
0.0
 40
1.0
100
AcDbArc
 50
0.0
 51
90.0
  0
LINE
  5
180
100
AcDbEntity
  8
0
  6
CONTINUOUS
 62
               7
100
AcDbLine
 10
55.350000000000136
 20
194.5
 30
0.0
 11
55.350000000000136
 21
175.39999999999998
 31
0.0
  0
ARC
  5
181
100
AcDbEntity
  8
0
  6
CONTINUOUS
 62
               7
100
AcDbCircle
 10
54.350000000000136
 20
175.39999999999998
 30
0.0
 40
1.0
100
AcDbArc
 50
270.0
 51
0.0
  0
LINE
  5
182
100
AcDbEntity
  8
0
  6
CONTINUOUS
 62
               7
100
AcDbLine
 10
54.350000000000136
 20
174.39999999999998
 30
0.0
 11
41.250000000000227
 21
174.39999999999998
 31
0.0
  0
LINE
  5
183
100
AcDbEntity
  8
0
  6
CONTINUOUS
 62
               7
100
AcDbLine
 10
40.250000000000227
 20
175.39999999999998
 30
0.0
 11
40.250000000000227
 21
194.5
 31
0.0
  0
ARC
  5
184
100
AcDbEntity
  8
0
  6
CONTINUOUS
 62
               7
100
AcDbCircle
 10
41.250000000000227
 20
175.39999999999998
 30
0.0
 40
1.0
100
AcDbArc
 50
180.0
 51
270.0
  0
LINE
  5
185
100
AcDbEntity
  8
0
  6
CONTINUOUS
 62
               7
100
AcDbLine
 10
64.299999972034925
 20
155.20000008675402
 30
0.0
 11
64.299999972034925
 21
148.29999999999995
 31
0.0
  0
LINE
  5
186
100
AcDbEntity
  8
0
  6
CONTINUOUS
 62
               7
100
AcDbLine
 10
64.299999972034925
 20
165.20000008675402
 30
0.0
 11
64.299999972034925
 21
158.29999991324595
 31
0.0
  0
LINE
  5
187
100
AcDbEntity
  8
0
  6
CONTINUOUS
 62
               7
100
AcDbLine
 10
64.299999972034925
 20
115.20000008675403
 30
0.0
 11
64.299999972034925
 21
108.29999999999995
 31
0.0
  0
LINE
  5
188
100
AcDbEntity
  8
0
  6
CONTINUOUS
 62
               7
100
AcDbLine
 10
64.299999999999955
 20
99.200000000000045
 30
0.0
 11
64.299999999999955
 21
92.299999913245955
 31
0.0
  0
LINE
  5
189
100
AcDbEntity
  8
0
  6
CONTINUOUS
 62
               7
100
AcDbLine
 10
64.300000056323938
 20
89.200000000000045
 30
0.0
 11
64.300000056323938
 21
82.299999999999955
 31
0.0
  0
LINE
  5
18A
100
AcDbEntity
  8
0
  6
CONTINUOUS
 62
               7
100
AcDbLine
 10
64.299999999999955
 20
53.700000000000045
 30
0.0
 11
64.299999999999955
 21
46.799999999999955
 31
0.0
  0
ENDBLK
  5
18B
100
AcDbEntity
  8
0
100
AcDbBlockEnd
  0
BLOCK
  5
18C
100
AcDbEntity
  8
0
100
AcDbBlockBegin
  2
DPP-AT-4
 70
               0
 10
0.0
 20
0.0
 30
0.0
  3
DPP-AT-4
  1

  0
LINE
  5
18D
100
AcDbEntity
  8
0
  6
CONTINUOUS
 62
               7
100
AcDbLine
 10
-252.04999995662308
 20
64.299999999999983
 30
0.0
 11
-252.04999995662308
 21
63.799999999999983
 31
0.0
  0
LINE
  5
18E
100
AcDbEntity
  8
0
  6
CONTINUOUS
 62
               7
100
AcDbLine
 10
-255.89999995662299
 20
65.539601999999974
 30
0.0
 11
-255.09999995662281
 21
65.539601999999974
 31
0.0
  0
LINE
  5
18F
100
AcDbEntity
  8
0
  6
CONTINUOUS
 62
               7
100
AcDbLine
 10
-255.09999995662281
 20
65.539601999999974
 30
0.0
 11
-255.09999995662281
 21
65.68381500000001
 31
0.0
  0
LINE
  5
190
100
AcDbEntity
  8
0
  6
CONTINUOUS
 62
               7
100
AcDbLine
 10
-255.89999995662299
 20
65.68381500000001
 30
0.0
 11
-255.89999995662299
 21
65.539601999999974
 31
0.0
  0
ARC
  5
191
100
AcDbEntity
  8
0
  6
CONTINUOUS
 62
               7
100
AcDbCircle
 10
-255.4999999566229
 20
60.749107000000009
 30
0.0
 40
4.9508929999999998
100
AcDbArc
 50
45.825657
 51
85.365821999999994
  0
ARC
  5
192
100
AcDbEntity
  8
0
  6
CONTINUOUS
 62
               7
100
AcDbCircle
 10
-255.4999999566229
 20
60.749107000000009
 30
0.0
 40
4.9508929999999998
100
AcDbArc
 50
94.619094000000004
 51
134.17434299999999
  0
LINE
  5
193
100
AcDbEntity
  8
0
  6
CONTINUOUS
 62
               7
100
AcDbLine
 10
-258.95000004337692
 20
64.299999999999983
 30
0.0
 11
-258.95000004337692
 21
63.799999999999983
 31
0.0
  0
LINE
  5
194
100
AcDbEntity
  8
0
  6
CONTINUOUS
 62
               7
100
AcDbLine
 10
-199.39999995662299
 20
65.539601999999974
 30
0.0
 11
-198.59999995662281
 21
65.539601999999974
 31
0.0
  0
LINE
  5
195
100
AcDbEntity
  8
0
  6
CONTINUOUS
 62
               7
100
AcDbLine
 10
-198.59999995662281
 20
65.539601999999974
 30
0.0
 11
-198.59999995662281
 21
65.68381500000001
 31
0.0
  0
LINE
  5
196
100
AcDbEntity
  8
0
  6
CONTINUOUS
 62
               7
100
AcDbLine
 10
-199.39999995662299
 20
65.68381500000001
 30
0.0
 11
-199.39999995662299
 21
65.539601999999974
 31
0.0
  0
ARC
  5
197
100
AcDbEntity
  8
0
  6
CONTINUOUS
 62
               7
100
AcDbCircle
 10
-198.9999999566229
 20
60.749107000000009
 30
0.0
 40
4.9508929999999998
100
AcDbArc
 50
75.375703042236381
 51
85.365821999999994
  0
ARC
  5
198
100
AcDbEntity
  8
0
  6
CONTINUOUS
 62
               7
100
AcDbCircle
 10
-198.9999999566229
 20
60.749107000000009
 30
0.0
 40
4.9508929999999998
100
AcDbArc
 50
94.619094000000004
 51
134.17434299999999
  0
LINE
  5
199
100
AcDbEntity
  8
0
  6
CONTINUOUS
 62
               7
100
AcDbLine
 10
-202.45000004337692
 20
64.299999999999983
 30
0.0
 11
-202.45000004337692
 21
63.799999999999983
 31
0.0
  0
LINE
  5
19A
100
AcDbEntity
  8
0
  6
CONTINUOUS
 62
               7
100
AcDbLine
 10
-193.04999995662308
 20
64.299999999999983
 30
0.0
 11
-193.04999995662308
 21
63.799999999999983
 31
0.0
  0
LINE
  5
19B
100
AcDbEntity
  8
0
  6
CONTINUOUS
 62
               7
100
AcDbLine
 10
-196.89999995662299
 20
65.539601999999974
 30
0.0
 11
-196.09999995662281
 21
65.539601999999974
 31
0.0
  0
LINE
  5
19C
100
AcDbEntity
  8
0
  6
CONTINUOUS
 62
               7
100
AcDbLine
 10
-196.09999995662281
 20
65.539601999999974
 30
0.0
 11
-196.09999995662281
 21
65.68381500000001
 31
0.0
  0
LINE
  5
19D
100
AcDbEntity
  8
0
  6
CONTINUOUS
 62
               7
100
AcDbLine
 10
-196.89999995662299
 20
65.68381500000001
 30
0.0
 11
-196.89999995662299
 21
65.539601999999974
 31
0.0
  0
ARC
  5
19E
100
AcDbEntity
  8
0
  6
CONTINUOUS
 62
               7
100
AcDbCircle
 10
-196.4999999566229
 20
60.749107000000009
 30
0.0
 40
4.9508929999999998
100
AcDbArc
 50
45.825657
 51
85.365821999999994
  0
ARC
  5
19F
100
AcDbEntity
  8
0
  6
CONTINUOUS
 62
               7
100
AcDbCircle
 10
-196.4999999566229
 20
60.749107000000009
 30
0.0
 40
4.9508929999999998
100
AcDbArc
 50
94.619094000000004
 51
134.17434299999999
  0
LINE
  5
1A0
100
AcDbEntity
  8
0
  6
CONTINUOUS
 62
               7
100
AcDbLine
 10
-199.95000004337692
 20
64.299999999999983
 30
0.0
 11
-199.95000004337692
 21
63.799999999999983
 31
0.0
  0
LINE
  5
1A1
100
AcDbEntity
  8
0
  6
CONTINUOUS
 62
               7
100
AcDbLine
 10
-116.89999995662299
 20
65.539601999999974
 30
0.0
 11
-116.09999995662281
 21
65.539601999999974
 31
0.0
  0
LINE
  5
1A2
100
AcDbEntity
  8
0
  6
CONTINUOUS
 62
               7
100
AcDbLine
 10
-116.09999995662281
 20
65.539601999999974
 30
0.0
 11
-116.09999995662281
 21
65.68381500000001
 31
0.0
  0
LINE
  5
1A3
100
AcDbEntity
  8
0
  6
CONTINUOUS
 62
               7
100
AcDbLine
 10
-116.89999995662299
 20
65.68381500000001
 30
0.0
 11
-116.89999995662299
 21
65.539601999999974
 31
0.0
  0
ARC
  5
1A4
100
AcDbEntity
  8
0
  6
CONTINUOUS
 62
               7
100
AcDbCircle
 10
-116.4999999566229
 20
60.749107000000009
 30
0.0
 40
4.9508929999999998
100
AcDbArc
 50
59.671342164693897
 51
85.365821999999994
  0
ARC
  5
1A5
100
AcDbEntity
  8
0
  6
CONTINUOUS
 62
               7
100
AcDbCircle
 10
-116.4999999566229
 20
60.749107000000009
 30
0.0
 40
4.9508929999999998
100
AcDbArc
 50
94.619094000000004
 51
134.17434299999999
  0
LINE
  5
1A6
100
AcDbEntity
  8
0
  6
CONTINUOUS
 62
               7
100
AcDbLine
 10
-119.95000004337692
 20
64.299999999999983
 30
0.0
 11
-119.95000004337692
 21
63.799999999999983
 31
0.0
  0
LINE
  5
1A7
100
AcDbEntity
  8
0
  6
CONTINUOUS
 62
               7
100
AcDbLine
 10
-108.04999995662308
 20
64.299999999999983
 30
0.0
 11
-108.04999995662308
 21
63.799999999999983
 31
0.0
  0
LINE
  5
1A8
100
AcDbEntity
  8
0
  6
CONTINUOUS
 62
               7
100
AcDbLine
 10
-111.89999995662299
 20
65.539601999999974
 30
0.0
 11
-111.09999995662281
 21
65.539601999999974
 31
0.0
  0
LINE
  5
1A9
100
AcDbEntity
  8
0
  6
CONTINUOUS
 62
               7
100
AcDbLine
 10
-111.09999995662281
 20
65.539601999999974
 30
0.0
 11
-111.09999995662281
 21
65.68381500000001
 31
0.0
  0
LINE
  5
1AA
100
AcDbEntity
  8
0
  6
CONTINUOUS
 62
               7
100
AcDbLine
 10
-111.89999995662299
 20
65.68381500000001
 30
0.0
 11
-111.89999995662299
 21
65.539601999999974
 31
0.0
  0
ARC
  5
1AB
100
AcDbEntity
  8
0
  6
CONTINUOUS
 62
               7
100
AcDbCircle
 10
-111.4999999566229
 20
60.749107000000009
 30
0.0
 40
4.9508929999999998
100
AcDbArc
 50
45.825657
 51
85.365821999999994
  0
ARC
  5
1AC
100
AcDbEntity
  8
0
  6
CONTINUOUS
 62
               7
100
AcDbCircle
 10
-111.4999999566229
 20
60.749107000000009
 30
0.0
 40
4.9508929999999998
100
AcDbArc
 50
94.619094000000004
 51
134.17434299999999
  0
LINE
  5
1AD
100
AcDbEntity
  8
0
  6
CONTINUOUS
 62
               7
100
AcDbLine
 10
-114.95000004337692
 20
64.299999999999983
 30
0.0
 11
-114.95000004337692
 21
63.799999999999983
 31
0.0
  0
LINE
  5
1AE
100
AcDbEntity
  8
0
  6
CONTINUOUS
 62
               7
100
AcDbLine
 10
-27.049999956623083
 20
64.299999999999983
 30
0.0
 11
-27.049999956623083
 21
63.799999999999983
 31
0.0
  0
LINE
  5
1AF
100
AcDbEntity
  8
0
  6
CONTINUOUS
 62
               7
100
AcDbLine
 10
-30.899999956622992
 20
65.539601999999974
 30
0.0
 11
-30.09999995662281
 21
65.539601999999974
 31
0.0
  0
LINE
  5
1B0
100
AcDbEntity
  8
0
  6
CONTINUOUS
 62
               7
100
AcDbLine
 10
-30.09999995662281
 20
65.539601999999974
 30
0.0
 11
-30.09999995662281
 21
65.68381500000001
 31
0.0
  0
LINE
  5
1B1
100
AcDbEntity
  8
0
  6
CONTINUOUS
 62
               7
100
AcDbLine
 10
-30.899999956622992
 20
65.68381500000001
 30
0.0
 11
-30.899999956622992
 21
65.539601999999974
 31
0.0
  0
ARC
  5
1B2
100
AcDbEntity
  8
0
  6
CONTINUOUS
 62
               7
100
AcDbCircle
 10
-30.499999956622901
 20
60.749107000000009
 30
0.0
 40
4.9508929999999998
100
AcDbArc
 50
45.825657
 51
85.365821999999994
  0
ARC
  5
1B3
100
AcDbEntity
  8
0
  6
CONTINUOUS
 62
               7
100
AcDbCircle
 10
-30.499999956622901
 20
60.749107000000009
 30
0.0
 40
4.9508929999999998
100
AcDbArc
 50
94.619094000000004
 51
134.17434299999999
  0
LINE
  5
1B4
100
AcDbEntity
  8
0
  6
CONTINUOUS
 62
               7
100
AcDbLine
 10
-33.950000043376917
 20
64.299999999999983
 30
0.0
 11
-33.950000043376917
 21
63.799999999999983
 31
0.0
  0
LINE
  5
1B5
100
AcDbEntity
  8
0
  6
CONTINUOUS
 62
               7
100
AcDbLine
 10
-19.049999956623083
 20
64.299999999999983
 30
0.0
 11
-19.049999956623083
 21
63.799999999999983
 31
0.0
  0
LINE
  5
1B6
100
AcDbEntity
  8
0
  6
CONTINUOUS
 62
               7
100
AcDbLine
 10
-22.899999956622992
 20
65.539601999999974
 30
0.0
 11
-22.09999995662281
 21
65.539601999999974
 31
0.0
  0
LINE
  5
1B7
100
AcDbEntity
  8
0
  6
CONTINUOUS
 62
               7
100
AcDbLine
 10
-22.09999995662281
 20
65.539601999999974
 30
0.0
 11
-22.09999995662281
 21
65.68381500000001
 31
0.0
  0
LINE
  5
1B8
100
AcDbEntity
  8
0
  6
CONTINUOUS
 62
               7
100
AcDbLine
 10
-22.899999956622992
 20
65.68381500000001
 30
0.0
 11
-22.899999956622992
 21
65.539601999999974
 31
0.0
  0
ARC
  5
1B9
100
AcDbEntity
  8
0
  6
CONTINUOUS
 62
               7
100
AcDbCircle
 10
-22.499999956622901
 20
60.749107000000009
 30
0.0
 40
4.9508929999999998
100
AcDbArc
 50
45.825657
 51
85.365821999999994
  0
ARC
  5
1BA
100
AcDbEntity
  8
0
  6
CONTINUOUS
 62
               7
100
AcDbCircle
 10
-22.499999956622901
 20
60.749107000000009
 30
0.0
 40
4.9508929999999998
100
AcDbArc
 50
94.619094000000004
 51
134.17434299999999
  0
LINE
  5
1BB
100
AcDbEntity
  8
0
  6
CONTINUOUS
 62
               7
100
AcDbLine
 10
-25.950000043376917
 20
64.299999999999983
 30
0.0
 11
-25.950000043376917
 21
63.799999999999983
 31
0.0
  0
LINE
  5
1BC
100
AcDbEntity
  8
0
  6
CONTINUOUS
 62
               7
100
AcDbLine
 10
-5.0499999566230827
 20
64.299999999999983
 30
0.0
 11
-5.0499999566230827
 21
63.799999999999983
 31
0.0
  0
LINE
  5
1BD
100
AcDbEntity
  8
0
  6
CONTINUOUS
 62
               7
100
AcDbLine
 10
-8.8999999566229917
 20
65.539601999999974
 30
0.0
 11
-8.0999999566228098
 21
65.539601999999974
 31
0.0
  0
LINE
  5
1BE
100
AcDbEntity
  8
0
  6
CONTINUOUS
 62
               7
100
AcDbLine
 10
-8.0999999566228098
 20
65.539601999999974
 30
0.0
 11
-8.0999999566228098
 21
65.68381500000001
 31
0.0
  0
LINE
  5
1BF
100
AcDbEntity
  8
0
  6
CONTINUOUS
 62
               7
100
AcDbLine
 10
-8.8999999566229917
 20
65.68381500000001
 30
0.0
 11
-8.8999999566229917
 21
65.539601999999974
 31
0.0
  0
ARC
  5
1C0
100
AcDbEntity
  8
0
  6
CONTINUOUS
 62
               7
100
AcDbCircle
 10
-8.4999999566229008
 20
60.749107000000009
 30
0.0
 40
4.9508929999999998
100
AcDbArc
 50
45.825657
 51
85.365821999999994
  0
ARC
  5
1C1
100
AcDbEntity
  8
0
  6
CONTINUOUS
 62
               7
100
AcDbCircle
 10
-8.4999999566229008
 20
60.749107000000009
 30
0.0
 40
4.9508929999999998
100
AcDbArc
 50
94.619094000000004
 51
134.17434299999999
  0
LINE
  5
1C2
100
AcDbEntity
  8
0
  6
CONTINUOUS
 62
               7
100
AcDbLine
 10
-11.950000043376917
 20
64.299999999999983
 30
0.0
 11
-11.950000043376917
 21
63.799999999999983
 31
0.0
  0
LINE
  5
1C3
100
AcDbEntity
  8
0
  6
CONTINUOUS
 62
               7
100
AcDbLine
 10
-293.18304200000011
 20
53.841451999999919
 30
0.0
 11
-289.5
 21
53.841451999999919
 31
0.0
  0
LINE
  5
1C4
100
AcDbEntity
  8
0
  6
CONTINUOUS
 62
               7
100
AcDbLine
 10
-293.18304200000011
 20
45.758550000000042
 30
0.0
 11
-289.5
 21
45.758550000000042
 31
0.0
  0
LINE
  5
1C5
100
AcDbEntity
  8
0
  6
CONTINUOUS
 62
               7
100
AcDbLine
 10
-289.52679499999999
 20
42.799999999999983
 30
0.0
 11
-289.81695800000011
 21
41.717099999999988
 31
0.0
  0
ARC
  5
1C6
100
AcDbEntity
  8
0
  6
CONTINUOUS
 62
               7
100
AcDbCircle
 10
-297.01596500000005
 20
43.791484999999994
 30
0.0
 40
7.4919130000000003
100
AcDbArc
 50
343.92572799999999
 51
352.395128
  0
LINE
  5
1C7
100
AcDbEntity
  8
0
  6
CONTINUOUS
 62
               7
100
AcDbLine
 10
-289.52679499999999
 20
56.799999999999983
 30
0.0
 11
-289.81695800000011
 21
57.882903999999968
 31
0.0
  0
ARC
  5
1C8
100
AcDbEntity
  8
0
  6
CONTINUOUS
 62
               7
100
AcDbCircle
 10
-297.01619800000003
 20
55.808467999999976
 30
0.0
 40
7.4921509999999998
100
AcDbArc
 50
7.6049920000000295
 51
16.074153000000027
  0
LINE
  5
1C9
100
AcDbEntity
  8
0
  6
CONTINUOUS
 62
               7
100
AcDbLine
 10
-300.38867500000003
 20
44.09971699999997
 30
0.0
 11
-300.38867500000003
 21
55.500000000000028
 31
0.0
  0
ARC
  5
1CA
100
AcDbEntity
  8
0
  6
CONTINUOUS
 62
               7
100
AcDbCircle
 10
-285.98380600000007
 20
55.915888000000024
 30
0.0
 40
7.4921480000000003
100
AcDbArc
 50
185.63733999999999
 51
196.07416000000001
  0
ARC
  5
1CB
100
AcDbEntity
  8
0
  6
CONTINUOUS
 62
               7
100
AcDbCircle
 10
-286.50639300000012
 20
55.862172000000015
 30
0.0
 40
6.966812
100
AcDbArc
 50
174.38414
 51
185.61989299999999
  0
ARC
  5
1CC
100
AcDbEntity
  8
0
  6
CONTINUOUS
 62
               7
100
AcDbCircle
 10
-285.98403100000007
 20
55.808518999999961
 30
0.0
 40
7.4919180000000001
100
AcDbArc
 50
163.925736
 51
174.36671699999999
  0
ARC
  5
1CD
100
AcDbEntity
  8
0
  6
CONTINUOUS
 62
               7
100
AcDbCircle
 10
-264.87628500000005
 20
49.826683999999915
 30
0.0
 40
28.597591000000001
100
AcDbArc
 50
182.762687
 51
188.17832100000001
  0
ARC
  5
1CE
100
AcDbEntity
  8
0
  6
CONTINUOUS
 62
               7
100
AcDbCircle
 10
-265.40565000000004
 20
49.800009999999958
 30
0.0
 40
28.067554999999999
100
AcDbArc
 50
177.23902200000001
 51
182.76038399999996
  0
ARC
  5
1CF
100
AcDbEntity
  8
0
  6
CONTINUOUS
 62
               7
100
AcDbCircle
 10
-264.87633800000003
 20
49.773314000000056
 30
0.0
 40
28.597539000000001
100
AcDbArc
 50
171.82165599999999
 51
177.236682
  0
ARC
  5
1D0
100
AcDbEntity
  8
0
  6
CONTINUOUS
 62
               7
100
AcDbCircle
 10
-285.98381300000005
 20
43.791534999999982
 30
0.0
 40
7.4921420000000003
100
AcDbArc
 50
185.63734700000001
 51
196.07416799999999
  0
ARC
  5
1D1
100
AcDbEntity
  8
0
  6
CONTINUOUS
 62
               7
100
AcDbCircle
 10
-286.50639100000012
 20
43.737818999999973
 30
0.0
 40
6.9668140000000003
100
AcDbArc
 50
174.384141
 51
185.619891
  0
ARC
  5
1D2
100
AcDbEntity
  8
0
  6
CONTINUOUS
 62
               7
100
AcDbCircle
 10
-285.98403700000006
 20
43.684164999999922
 30
0.0
 40
7.4919120000000001
100
AcDbArc
 50
163.92572799999999
 51
174.36670899999999
  0
ARC
  5
1D3
100
AcDbEntity
  8
0
  6
CONTINUOUS
 62
               7
100
AcDbCircle
 10
-300.1886750000001
 20
44.099999999999937
 30
0.0
 40
0.2
100
AcDbArc
 50
180.0
 51
270.0
  0
ARC
  5
1D4
100
AcDbEntity
  8
0
  6
CONTINUOUS
 62
               7
100
AcDbCircle
 10
-300.1886750000001
 20
55.500000000000028
 30
0.0
 40
0.2
100
AcDbArc
 50
90.000004000000018
 51
180.0
  0
LINE
  5
1D5
100
AcDbEntity
  8
0
  6
CONTINUOUS
 62
               7
100
AcDbLine
 10
-297.51961500000004
 20
55.200000000000074
 30
0.0
 11
-297.51961600000004
 21
44.400000000000006
 31
0.0
  0
LINE
  5
1D6
100
AcDbEntity
  8
0
  6
CONTINUOUS
 62
               7
100
AcDbLine
 10
-293.78867500000001
 20
44.400000000000006
 30
0.0
 11
-297.51961500000004
 21
44.400000000000006
 31
0.0
  0
LINE
  5
1D7
100
AcDbEntity
  8
0
  6
CONTINUOUS
 62
               7
100
AcDbLine
 10
-293.5
 20
43.900000000000006
 30
0.0
 11
-293.78867500000001
 21
44.400000000000006
 31
0.0
  0
LINE
  5
1D8
100
AcDbEntity
  8
0
  6
CONTINUOUS
 62
               7
100
AcDbLine
 10
-293.78867500000001
 20
55.200000000000074
 30
0.0
 11
-297.51961500000004
 21
55.200000000000074
 31
0.0
  0
LINE
  5
1D9
100
AcDbEntity
  8
0
  6
CONTINUOUS
 62
               7
100
AcDbLine
 10
-297.78867500000001
 20
44.866029999999938
 30
0.0
 11
-297.51961500000004
 21
44.400000000000006
 31
0.0
  0
LINE
  5
1DA
100
AcDbEntity
  8
0
  6
CONTINUOUS
 62
               7
100
AcDbLine
 10
-293.5
 20
55.700000000000074
 30
0.0
 11
-293.78867500000001
 21
55.200000000000074
 31
0.0
  0
LINE
  5
1DB
100
AcDbEntity
  8
0
  6
CONTINUOUS
 62
               7
100
AcDbLine
 10
-297.78867500000001
 20
44.866029999999938
 30
0.0
 11
-297.75055500000008
 21
44.799999999999983
 31
0.0
  0
LINE
  5
1DC
100
AcDbEntity
  8
0
  6
CONTINUOUS
 62
               7
100
AcDbLine
 10
-297.78867500000001
 20
54.733974000000018
 30
0.0
 11
-298.28867500000001
 21
54.599999999999937
 31
0.0
  0
LINE
  5
1DD
100
AcDbEntity
  8
0
  6
CONTINUOUS
 62
               7
100
AcDbLine
 10
-298.28867600000001
 20
54.599999999999937
 30
0.0
 11
-298.28867600000001
 21
45.000000000000028
 31
0.0
  0
LINE
  5
1DE
100
AcDbEntity
  8
0
  6
CONTINUOUS
 62
               7
100
AcDbLine
 10
-297.78867500000001
 20
54.733975000000015
 30
0.0
 11
-297.51961500000004
 21
55.200000000000074
 31
0.0
  0
LINE
  5
1DF
100
AcDbEntity
  8
0
  6
CONTINUOUS
 62
               7
100
AcDbLine
 10
-297.78867500000001
 20
44.866029999999938
 30
0.0
 11
-298.28867500000001
 21
45.000000000000028
 31
0.0
  0
LINE
  5
1E0
100
AcDbEntity
  8
0
  6
CONTINUOUS
 62
               7
100
AcDbLine
 10
-299.1886750000001
 20
53.299999999999983
 30
0.0
 11
-298.28867600000001
 21
53.299999999999983
 31
0.0
  0
LINE
  5
1E1
100
AcDbEntity
  8
0
  6
CONTINUOUS
 62
               7
100
AcDbLine
 10
-299.1886750000001
 20
46.299999999999983
 30
0.0
 11
-298.28867600000001
 21
46.299999999999983
 31
0.0
  0
LINE
  5
1E2
100
AcDbEntity
  8
0
  6
CONTINUOUS
 62
               7
100
AcDbLine
 10
-299.1886750000001
 20
43.900000000000006
 30
0.0
 11
-299.1886750000001
 21
55.700000000000074
 31
0.0
  0
LINE
  5
1E3
100
AcDbEntity
  8
0
  6
CONTINUOUS
 62
               7
100
AcDbLine
 10
-300.1886750000001
 20
43.900000000000006
 30
0.0
 11
-299.1886750000001
 21
43.900000000000006
 31
0.0
  0
LINE
  5
1E4
100
AcDbEntity
  8
0
  6
CONTINUOUS
 62
               7
100
AcDbLine
 10
-300.1886750000001
 20
55.700000000000074
 30
0.0
 11
-299.1886750000001
 21
55.700000000000074
 31
0.0
  0
LINE
  5
1E5
100
AcDbEntity
  8
0
  6
CONTINUOUS
 62
               7
100
AcDbLine
 10
-297.78867600000001
 20
44.866029999999938
 30
0.0
 11
-297.78867600000001
 21
54.733974000000018
 31
0.0
  0
LINE
  5
1E6
100
AcDbEntity
  8
0
  6
CONTINUOUS
 62
               7
100
AcDbLine
 10
-293.78867600000001
 20
44.400000000000006
 30
0.0
 11
-293.78867600000001
 21
55.200000000000074
 31
0.0
  0
LINE
  5
1E7
100
AcDbEntity
  8
0
  6
CONTINUOUS
 62
               7
100
AcDbLine
 10
-293.5
 20
56.700000000000074
 30
0.0
 11
-293.5
 21
42.900000000000006
 31
0.0
  0
LINE
  5
1E8
100
AcDbEntity
  8
0
  6
CONTINUOUS
 62
               7
100
AcDbLine
 10
-293.18304200000011
 20
41.717099999999988
 30
0.0
 11
-289.816959
 21
41.717099999999988
 31
0.0
  0
LINE
  5
1E9
100
AcDbEntity
  8
0
  6
CONTINUOUS
 62
               7
100
AcDbLine
 10
-293.18304200000011
 20
57.882903999999968
 30
0.0
 11
-293.5
 21
56.700000000000074
 31
0.0
  0
LINE
  5
1EA
100
AcDbEntity
  8
0
  6
CONTINUOUS
 62
               7
100
AcDbLine
 10
-293.18304200000011
 20
41.717099999999988
 30
0.0
 11
-293.5
 21
42.900000000000006
 31
0.0
  0
LINE
  5
1EB
100
AcDbEntity
  8
0
  6
CONTINUOUS
 62
               7
100
AcDbLine
 10
-293.18304200000011
 20
57.882903999999968
 30
0.0
 11
-289.816959
 21
57.882903999999968
 31
0.0
  0
LINE
  5
1EC
100
AcDbEntity
  8
0
  6
CONTINUOUS
 62
               7
100
AcDbLine
 10
-293.5
 20
55.258499999999941
 30
0.0
 11
-293.75490000000002
 21
55.258499999999941
 31
0.0
  0
LINE
  5
1ED
100
AcDbEntity
  8
0
  6
CONTINUOUS
 62
               7
100
AcDbLine
 10
-293.5
 20
44.341500000000025
 30
0.0
 11
-293.75490000000002
 21
44.341500000000025
 31
0.0
  0
ARC
  5
1EE
100
AcDbEntity
  8
0
  6
CONTINUOUS
 62
               7
100
AcDbCircle
 10
-291.20000000000005
 20
-14.699999999999989
 30
0.0
 40
0.3
100
AcDbArc
 50
180.0
 51
270.0
  0
LINE
  5
1EF
100
AcDbEntity
  8
0
  6
CONTINUOUS
 62
               7
100
AcDbLine
 10
-291.5
 20
-1.2999999999998977
 30
0.0
 11
-291.5
 21
-14.699999999999989
 31
0.0
  0
LINE
  5
1F0
100
AcDbEntity
  8
0
  6
CONTINUOUS
 62
               7
100
AcDbLine
 10
-291.20000000000005
 20
-14.999999999999943
 30
0.0
 11
-289.5
 21
-14.999999999999943
 31
0.0
  0
ARC
  5
1F1
100
AcDbEntity
  8
0
  6
CONTINUOUS
 62
               7
100
AcDbCircle
 10
-291.20000000000005
 20
-1.2999999999998977
 30
0.0
 40
0.3
100
AcDbArc
 50
90.0
 51
180.0
  0
LINE
  5
1F2
100
AcDbEntity
  8
0
  6
CONTINUOUS
 62
               7
100
AcDbLine
 10
-291.20000000000005
 20
-0.9999999999999432
 30
0.0
 11
-289.5
 21
-0.9999999999999432
 31
0.0
  0
LINE
  5
1F3
100
AcDbEntity
  8
0
  6
CONTINUOUS
 62
               7
100
AcDbLine
 10
17.5
 20
-14.400000000000034
 30
0.0
 11
7.5
 21
-14.400000000000034
 31
0.0
  0
LINE
  5
1F4
100
AcDbEntity
  8
0
  6
CONTINUOUS
 62
               7
100
AcDbLine
 10
17.5
 20
28.400000000000006
 30
0.0
 11
17.5
 21
-14.400000000000034
 31
0.0
  0
LINE
  5
1F5
100
AcDbEntity
  8
0
  6
CONTINUOUS
 62
               7
100
AcDbLine
 10
7.5
 20
28.400000000000006
 30
0.0
 11
17.5
 21
28.400000000000006
 31
0.0
  0
LINE
  5
1F6
100
AcDbEntity
  8
0
  6
CONTINUOUS
 62
               7
100
AcDbLine
 10
-289.5
 20
63.799999999999983
 30
0.0
 11
-289.5
 21
-21.199999999999989
 31
0.0
  0
LINE
  5
1F7
100
AcDbEntity
  8
0
  6
CONTINUOUS
 62
               7
100
AcDbLine
 10
7.5
 20
63.799999999999983
 30
0.0
 11
7.5
 21
-21.199999999999989
 31
0.0
  0
LINE
  5
1F8
100
AcDbEntity
  8
0
  6
CONTINUOUS
 62
               7
100
AcDbLine
 10
-289.5
 20
-21.199999999999989
 30
0.0
 11
7.5
 21
-21.199999999999989
 31
0.0
  0
LINE
  5
1F9
100
AcDbEntity
  8
0
  6
CONTINUOUS
 62
               7
100
AcDbLine
 10
-289.5
 20
63.799999999999983
 30
0.0
 11
7.5
 21
63.799999999999983
 31
0.0
  0
CIRCLE
  5
1FA
100
AcDbEntity
  8
0
  6
CONTINUOUS
 62
               7
100
AcDbCircle
 10
0.0
 20
-12.499999999999943
 30
0.0
 40
3.4500000000000002
  0
CIRCLE
  5
1FB
100
AcDbEntity
  8
0
  6
CONTINUOUS
 62
               7
100
AcDbCircle
 10
-10.5
 20
56.299999999999983
 30
0.0
 40
3.4500000000000002
  0
CIRCLE
  5
1FC
100
AcDbEntity
  8
0
  6
CONTINUOUS
 62
               7
100
AcDbCircle
 10
-271.5
 20
56.299999999999983
 30
0.0
 40
3.4500000000000002
  0
CIRCLE
  5
1FD
100
AcDbEntity
  8
0
  6
CONTINUOUS
 62
               7
100
AcDbCircle
 10
-282.0
 20
-12.499999999999943
 30
0.0
 40
3.4500000000000002
  0
LINE
  5
1FE
100
AcDbEntity
  8
0
  6
CONTINUOUS
 62
               2
100
AcDbLine
 10
-293.5
 20
-7.9999999999999432
 30
0.0
 11
-287.5
 21
-7.9999999999999432
 31
0.0
  0
LINE
  5
1FF
100
AcDbEntity
  8
0
  6
CONTINUOUS
 62
               7
100
AcDbLine
 10
7.5
 20
55.349999999999937
 30
0.0
 11
9.5
 21
55.349999999999937
 31
0.0
  0
LINE
  5
200
100
AcDbEntity
  8
0
  6
CONTINUOUS
 62
               7
100
AcDbLine
 10
9.5
 20
55.349999999999937
 30
0.0
 11
9.5
 21
40.249999999999801
 31
0.0
  0
LINE
  5
201
100
AcDbEntity
  8
0
  6
CONTINUOUS
 62
               7
100
AcDbLine
 10
9.5
 20
40.249999999999801
 30
0.0
 11
7.5
 21
40.249999999999801
 31
0.0
  0
LINE
  5
202
100
AcDbEntity
  8
0
  6
CONTINUOUS
 62
               7
100
AcDbLine
 10
9.5
 20
42.499999999999801
 30
0.0
 11
13.199999999999818
 21
42.499999999999801
 31
0.0
  0
LINE
  5
203
100
AcDbEntity
  8
0
  6
CONTINUOUS
 62
               7
100
AcDbLine
 10
13.199999999999818
 20
42.499999999999801
 30
0.0
 11
13.199999999999818
 21
53.099999999999937
 31
0.0
  0
LINE
  5
204
100
AcDbEntity
  8
0
  6
CONTINUOUS
 62
               7
100
AcDbLine
 10
13.199999999999818
 20
53.099999999999937
 30
0.0
 11
9.5
 21
53.099999999999937
 31
0.0
  0
LINE
  5
205
100
AcDbEntity
  8
0
  6
CONTINUOUS
 62
               2
100
AcDbLine
 10
-287.5
 20
49.800000000000097
 30
0.0
 11
-302.38867500000003
 21
49.800000000000097
 31
0.0
  0
LINE
  5
206
100
AcDbEntity
  8
0
  6
CONTINUOUS
 62
               7
100
AcDbLine
 10
-270.61611652351684
 20
55.41611652351682
 30
0.0
 11
-272.38388347648322
 21
57.183883476483174
 31
0.0
  0
LINE
  5
207
100
AcDbEntity
  8
0
  6
CONTINUOUS
 62
               7
100
AcDbLine
 10
-272.38388347648322
 20
55.416116523516905
 30
0.0
 11
-270.61611652351684
 21
57.18388347648326
 31
0.0
  0
LINE
  5
208
100
AcDbEntity
  8
0
  6
CONTINUOUS
 62
               7
100
AcDbLine
 10
-282.88388347648322
 20
-13.383883476483021
 30
0.0
 11
-281.11611652351684
 21
-11.616116523516666
 31
0.0
  0
LINE
  5
209
100
AcDbEntity
  8
0
  6
CONTINUOUS
 62
               7
100
AcDbLine
 10
-281.11611652351684
 20
-13.383883476483106
 30
0.0
 11
-282.88388347648322
 21
-11.616116523516752
 31
0.0
  0
LINE
  5
20A
100
AcDbEntity
  8
0
  6
CONTINUOUS
 62
               7
100
AcDbLine
 10
-0.88388347648322
 20
-13.383883476483021
 30
0.0
 11
0.8838834764831631
 21
-11.616116523516666
 31
0.0
  0
LINE
  5
20B
100
AcDbEntity
  8
0
  6
CONTINUOUS
 62
               7
100
AcDbLine
 10
0.8838834764831631
 20
-13.383883476483106
 30
0.0
 11
-0.88388347648322
 21
-11.616116523516752
 31
0.0
  0
LINE
  5
20C
100
AcDbEntity
  8
0
  6
CONTINUOUS
 62
               7
100
AcDbLine
 10
-11.38388347648322
 20
55.416116523516905
 30
0.0
 11
-9.6161165235168369
 21
57.18388347648326
 31
0.0
  0
LINE
  5
20D
100
AcDbEntity
  8
0
  6
CONTINUOUS
 62
               7
100
AcDbLine
 10
-9.6161165235168369
 20
55.41611652351682
 30
0.0
 11
-11.38388347648322
 21
57.183883476483174
 31
0.0
  0
ENDBLK
  5
20E
100
AcDbEntity
  8
0
100
AcDbBlockEnd
  0
ENDSEC
  0
SECTION
  2
ENTITIES
  0
INSERT
  5
20F
100
AcDbEntity
  8
0
  6
ByBlock
100
AcDbBlockReference
  2
DPP-AT-4
 10
192.5
 20
120.00000000000001
 30
0.0
  0
INSERT
  5
210
100
AcDbEntity
  8
0
  6
ByBlock
100
AcDbBlockReference
  2
DPP-AT-3
 10
280.99999999999983
 20
-150.0
 30
0.0
  0
INSERT
  5
211
100
AcDbEntity
  8
0
  6
ByBlock
100
AcDbBlockReference
  2
DPP-AT-2
 10
-234.99999999999991
 20
-150.0
 30
0.0
  0
INSERT
  5
212
100
AcDbEntity
  8
0
  6
ByBlock
100
AcDbBlockReference
  2
DPP-AT-1
 10
192.5
 20
-150.0
 30
0.0
  0
LINE
  5
213
100
AcDbEntity
  8
0
  6
CONTINUOUS
 62
               7
100
AcDbLine
 10
-183.52490234375
 20
276.5
 30
0.0
 11
-183.52490234375
 21
251.5
 31
0.0
  0
MTEXT
  5
214
100
AcDbEntity
  8
0
  6
CONTINUOUS
 62
               7
100
AcDbMText
 10
-393.47086989485825
 20
270.25
 30
0.0
 40
9.0
 41
0.0
 71
               4
 72
               1
  1
\W1.036;\A1;DESKTOP TYPE COMPRESSOR
  0
MTEXT
  5
215
100
AcDbEntity
  8
0
  6
CONTINUOUS
 62
               7
100
AcDbMText
 10
-328.52490329742432
 20
216.5
 30
0.0
 40
9.0
 41
0.0
 71
               4
 72
               1
  1
\A1;DPP-ATAD
  0
LINE
  5
216
100
AcDbEntity
  8
0
  6
CONTINUOUS
 62
               7
100
AcDbLine
 10
239.52490234375
 20
-251.5
 30
0.0
 11
239.52490234375
 21
-276.5
 31
0.0
  0
LINE
  5
217
100
AcDbEntity
  8
0
  6
CONTINUOUS
 62
               7
100
AcDbLine
 10
239.52490234375
 20
-251.5
 30
0.0
 11
399.52490234375
 21
-251.5
 31
0.0
  0
LINE
  5
218
100
AcDbEntity
  8
0
  6
CONTINUOUS
 62
               7
100
AcDbLine
 10
239.52490234375
 20
251.5
 30
0.0
 11
239.52490234375
 21
276.5
 31
0.0
  0
LINE
  5
219
100
AcDbEntity
  8
0
  6
CONTINUOUS
 62
               7
100
AcDbLine
 10
239.52490234375
 20
251.5
 30
0.0
 11
399.52490234375
 21
251.5
 31
0.0
  0
LINE
  5
21A
100
AcDbEntity
  8
0
  6
CONTINUOUS
 62
               7
100
AcDbLine
 10
-183.52490234375
 20
251.5
 30
0.0
 11
-399.52490234375
 21
251.5
 31
0.0
  0
MTEXT
  5
21B
100
AcDbEntity
  8
0
  6
CONTINUOUS
 62
               7
100
AcDbMText
 10
245.60966041118564
 20
-264.0
 30
0.0
 40
12.5
 41
0.0
 71
               4
 72
               1
  1
\W1.121;\A1;KOGANEI CORP.
  0
MTEXT
  5
21C
100
AcDbEntity
  8
0
  6
CONTINUOUS
 62
               7
100
AcDbMText
 10
285.49210822679424
 20
264.0
 30
0.0
 40
9.0
 41
0.0
 71
               4
 72
               1
  1
\W1.311;\A1;Ver. 1.0
  0
MTEXT
  5
21D
100
AcDbEntity
  8
0
  6
CONTINUOUS
 62
               7
100
AcDbMText
 10
-382.44990296481177
 20
231.5
 30
0.0
 40
9.0
 41
0.0
 71
               4
 72
               1
  1
\W1.050;\A1;MODEL:DPP-ATD4
  0
MTEXT
  5
21E
100
AcDbEntity
  8
0
  6
CONTINUOUS
 62
               7
100
AcDbMText
 10
-317.0249080657959
 20
257.75
 30
0.0
 40
9.0
 41
0.0
 71
               4
 72
               1
  1
\A1;DPP-AT
  0
LINE
  5
21F
100
AcDbEntity
  8
0
  6
CONTINUOUS
 62
               7
100
AcDbLine
 10
-399.52490234375
 20
-276.5
 30
0.0
 11
399.52490234375
 21
-276.5
 31
0.0
  0
LINE
  5
220
100
AcDbEntity
  8
0
  6
CONTINUOUS
 62
               7
100
AcDbLine
 10
-399.52490234375
 20
276.5
 30
0.0
 11
399.52490234375
 21
276.5
 31
0.0
  0
LINE
  5
221
100
AcDbEntity
  8
0
  6
CONTINUOUS
 62
               7
100
AcDbLine
 10
-399.52490234375
 20
276.5
 30
0.0
 11
-399.52490234375
 21
-276.5
 31
0.0
  0
LINE
  5
222
100
AcDbEntity
  8
0
  6
CONTINUOUS
 62
               7
100
AcDbLine
 10
399.52490234375
 20
276.5
 30
0.0
 11
399.52490234375
 21
-276.5
 31
0.0
  0
ENDSEC
  0
SECTION
  2
OBJECTS
  0
DICTIONARY
  5
19
100
AcDbDictionary
  3
ACAD_GROUP
350
1A
  3
ACAD_MLINESTYLE
350
1B
  0
DICTIONARY
  5
1A
102
{ACAD_REACTORS
330
19
102
}
100
AcDbDictionary
  0
DICTIONARY
  5
1B
102
{ACAD_REACTORS
330
19
102
}
100
AcDbDictionary
  3
STANDARD
350
1C
  0
MLINESTYLE
  5
1C
102
{ACAD_REACTORS
330
1B
102
}
100
AcDbMlineStyle
  2
Standard
 70
               0
  3

 62
               0
 51
90.0
 52
90.0
 71
               2
 49
0.5
 62
             256
  6
ByLayer
 49
-0.5
 62
             256
  6
ByLayer
  0
ENDSEC
  0
EOF
