  0
SECTION
  2
HEADER
  9
$ACADVER
  1
AC1009
  9
$DWGCODEPAGE
  3
dos932
  9
$INSBASE
 10
0.0
 20
0.0
 30
0.0
  9
$EXTMIN
 10
-138.3999939
 20
-94.80000305
 30
0.0
  9
$EXTMAX
 10
138.3500061
 20
94.5
 30
0.0
  9
$LIMMIN
 10
-148.5
 20
-105.0
  9
$LIMMAX
 10
148.5
 20
105.0
  9
$ORTHOMODE
 70
       0
  9
$REGENMODE
 70
       1
  9
$FILLMODE
 70
       1
  9
$QTEXTMODE
 70
       0
  9
$MIRRTEXT
 70
       1
  9
$DRAGMODE
 70
       2
  9
$LTSCALE
 40
1.0
  9
$OSMODE
 70
       0
  9
$ATTMODE
 70
       1
  9
$TEXTSIZE
 40
3.20000005
  9
$TRACEWID
 40
0.05
  9
$TEXTSTYLE
  7
MX_NOTE_STANDARD
  9
$CLAYER
  8
0
  9
$CELTYPE
  6
CONTINUOUS
  9
$CECOLOR
 62
     256
  9
$DIMSCALE
 40
1.0
  9
$DIMASZ
 40
2.5
  9
$DIMEXO
 40
1.5
  9
$DIMDLI
 40
3.75
  9
$DIMRND
 40
0.0
  9
$DIMDLE
 40
0.0
  9
$DIMEXE
 40
1.5
  9
$DIMTP
 40
0.0
  9
$DIMTM
 40
0.0
  9
$DIMTXT
 40
3.20000005
  9
$DIMCEN
 40
2.5
  9
$DIMTSZ
 40
0.0
  9
$DIMTOL
 70
       0
  9
$DIMLIM
 70
       0
  9
$DIMTIH
 70
       0
  9
$DIMTOH
 70
       0
  9
$DIMSE1
 70
       0
  9
$DIMSE2
 70
       0
  9
$DIMTAD
 70
       1
  9
$DIMZIN
 70
       8
  9
$DIMBLK
  1

  9
$DIMASO
 70
       1
  9
$DIMSHO
 70
       1
  9
$DIMPOST
  1

  9
$DIMAPOST
  1

  9
$DIMALT
 70
       0
  9
$DIMALTD
 70
       4
  9
$DIMALTF
 40
0.03937008
  9
$DIMLFAC
 40
1.0
  9
$DIMTOFL
 70
       1
  9
$DIMTVP
 40
0.0
  9
$DIMTIX
 70
       0
  9
$DIMSOXD
 70
       0
  9
$DIMSAH
 70
       1
  9
$DIMBLK1
  1
_OPEN30
  9
$DIMBLK2
  1
_OPEN30
  9
$DIMSTYLE
  2
MXDIMSTYLE
  9
$DIMCLRD
 70
       0
  9
$DIMCLRE
 70
       0
  9
$DIMCLRT
 70
       0
  9
$DIMTFAC
 40
1.0
  9
$DIMGAP
 40
1.0
  9
$LUNITS
 70
       2
  9
$LUPREC
 70
       4
  9
$AXISMODE
 70
       0
  9
$AXISUNIT
 10
0.0
 20
0.0
  9
$SKETCHINC
 40
0.1
  9
$FILLETRAD
 40
0.0
  9
$AUNITS
 70
       0
  9
$AUPREC
 70
       0
  9
$MENU
  1
acad
  9
$ELEVATION
 40
0.0
  9
$PELEVATION
 40
0.0
  9
$THICKNESS
 40
0.0
  9
$LIMCHECK
 70
       0
  9
$BLIPMODE
 70
       1
  9
$CHAMFERA
 40
0.0
  9
$CHAMFERB
 40
0.0
  9
$SKPOLY
 70
       0
  9
$TDCREATE
 40
2454022.380648148
  9
$TDUPDATE
 40
2454022.380648148
  9
$TDINDWG
 40
0.0000000000
  9
$TDUSRTIMER
 40
0.0000000000
  9
$USRTIMER
 70
       1
  9
$ANGBASE
 50
0.0
  9
$ANGDIR
 70
       0
  9
$PDMODE
 70
       0
  9
$PDSIZE
 40
0.0
  9
$PLINEWID
 40
0.0
  9
$COORDS
 70
       1
  9
$SPLFRAME
 70
       0
  9
$SPLINETYPE
 70
       6
  9
$SPLINESEGS
 70
       8
  9
$ATTDIA
 70
       0
  9
$ATTREQ
 70
       1
  9
$HANDLING
 70
       1
  9
$HANDSEED
  5
CE
  9
$SURFTAB1
 70
       6
  9
$SURFTAB2
 70
       6
  9
$SURFTYPE
 70
       6
  9
$SURFU
 70
       6
  9
$SURFV
 70
       6
  9
$UCSNAME
  2

  9
$UCSORG
 10
0.0
 20
0.0
 30
0.0
  9
$UCSXDIR
 10
1.0
 20
0.0
 30
0.0
  9
$UCSYDIR
 10
0.0
 20
1.0
 30
0.0
  9
$PUCSNAME
  2

  9
$PUCSORG
 10
0.0
 20
0.0
 30
0.0
  9
$PUCSXDIR
 10
1.0
 20
0.0
 30
0.0
  9
$PUCSYDIR
 10
0.0
 20
1.0
 30
0.0
  9
$USERI1
 70
       0
  9
$USERI2
 70
       0
  9
$USERI3
 70
       0
  9
$USERI4
 70
       0
  9
$USERI5
 70
       0
  9
$USERR1
 40
0.0
  9
$USERR2
 40
0.0
  9
$USERR3
 40
0.0
  9
$USERR4
 40
0.0
  9
$USERR5
 40
0.0
  9
$WORLDVIEW
 70
       1
  9
$SHADEDGE
 70
       3
  9
$SHADEDIF
 70
      70
  9
$TILEMODE
 70
       1
  9
$MAXACTVP
 70
      16
  9
$PINSBASE
 10
0.0
 20
0.0
 30
0.0
  9
$PLIMCHECK
 70
       0
  9
$PEXTMIN
 10
1.00000000E+20
 20
1.00000000E+20
 30
1.00000000E+20
  9
$PEXTMAX
 10
-1.00000000E+20
 20
-1.00000000E+20
 30
-1.00000000E+20
  9
$PLIMMIN
 10
0.0
 20
0.0
  9
$PLIMMAX
 10
12.0
 20
9.0
  9
$UNITMODE
 70
       0
  9
$VISRETAIN
 70
       0
  9
$PLINEGEN
 70
       1
  9
$PSLTSCALE
 70
       0
  9
$TREEDEPTH
 70
    3020
  0
ENDSEC
  0
SECTION
  2
TABLES
  0
TABLE
  2
VPORT
 70
       1
  0
VPORT
  2
*ACTIVE
 70
       0
 10
0.0
 20
0.0
 11
1.0
 21
1.0
 12
0.0
 22
0.0
 13
0.0
 23
0.0
 14
1.0
 24
1.0
 15
0.0
 25
0.0
 16
0.0
 26
0.0
 36
1.0
 17
0.0
 27
0.0
 37
0.0
 40
212.1
 41
1.73205081
 42
50.0
 43
0.0
 44
0.0
 50
0.0
 51
0.0
 71
       0
 72
     100
 73
       1
 74
       1
 75
       0
 76
       0
 77
       0
 78
       0
  0
ENDTAB
  0
TABLE
  2
LTYPE
 70
       1
  0
LTYPE
  2
CONTINUOUS
 70
      64
  3
Solid line
 72
      65
 73
       0
 40
0.0
  0
ENDTAB
  0
TABLE
  2
LAYER
 70
       2
  0
LAYER
  2
0
 70
       0
 62
       7
  6
CONTINUOUS
  0
LAYER
  2
DEFPOINTS
 70
       0
 62
       7
  6
CONTINUOUS
  0
ENDTAB
  0
TABLE
  2
STYLE
 70
       1
  0
STYLE
  2
MX_NOTE_STANDARD
 70
       0
 40
0.0
 41
1.0
 50
0.0
 71
       0
 42
3.20000005
  3
txt.shx
  4
extfont.shx
  0
ENDTAB
  0
TABLE
  2
VIEW
 70
       0
  0
ENDTAB
  0
TABLE
  2
UCS
 70
       0
  0
ENDTAB
  0
TABLE
  2
APPID
 70
       1
  0
APPID
  2
ACAD
 70
       0
  0
ENDTAB
  0
TABLE
  2
DIMSTYLE
 70
       1
  0
DIMSTYLE
  2
MXDIMSTYLE
 70
       0
  3

  4

  5

  6
_OPEN30
  7
_OPEN30
 40
1.0
 41
2.5
 42
1.5
 43
3.75
 44
1.5
 45
0.0
 46
0.0
 47
0.0
 48
0.0
 71
       0
 72
       0
 73
       0
 74
       0
 75
       0
 76
       0
 77
       1
 78
       8
140
3.20000005
141
2.5
142
0.0
143
0.03937008
144
1.0
145
0.0
146
1.0
147
1.0
170
       0
171
       4
172
       1
173
       1
174
       0
175
       0
176
       0
177
       0
178
       0
  0
ENDTAB
  0
ENDSEC
  0
SECTION
  2
BLOCKS
  0
BLOCK
  8
0
  6
BYBLOCK
 62
       0
  5
1F
  2
_OPEN30
 70
       2
 10
0.0
 20
0.0
 30
0.0
  3
_OPEN30
  0
LINE
  8
0
  6
BYBLOCK
 62
       0
  5
20
 10
-1.0
 20
0.267949
 30
0.0
 11
0.0
 21
0.0
 31
0.0
  0
LINE
  8
0
  6
BYBLOCK
 62
       0
  5
21
 10
0.0
 20
0.0
 30
0.0
 11
-1.0
 21
-0.267949
 31
0.0
  0
LINE
  8
0
  6
BYBLOCK
 62
       0
  5
22
 10
0.0
 20
0.0
 30
0.0
 11
-1.0
 21
0.0
 31
0.0
  0
ENDBLK
  8
0
  6
BYBLOCK
 62
       0
  5
23
  0
ENDSEC
  0
SECTION
  2
ENTITIES
  0
LINE
  8
0
  6
CONTINUOUS
 62
       7
  5
24
 10
43.96249629
 20
72.14122449
 30
0.0
 11
43.96249629
 21
59.49122449
 31
0.0
  0
LINE
  8
0
  6
CONTINUOUS
 62
       7
  5
25
 10
93.96249629
 20
72.14122449
 30
0.0
 11
93.96249629
 21
59.49122449
 31
0.0
  0
ARC
  8
0
  6
CONTINUOUS
 62
       7
  5
26
 10
-34.03750371
 20
68.04122449
 30
0.0
 40
5.0
 50
0.0
 51
90.0
  0
ARC
  8
0
  6
CONTINUOUS
 62
       7
  5
27
 10
-32.03375392
 20
56.49497428
 30
0.0
 40
2.99625256
 50
359.9282947
 51
90.0717053
  0
ARC
  8
0
  6
CONTINUOUS
 62
       7
  5
28
 10
-87.03750371
 20
-78.95877551
 30
0.0
 40
3.0
 50
270.0
 51
0.0
  0
ARC
  8
0
  6
CONTINUOUS
 62
       7
  5
29
 10
-32.03750371
 20
1.04122449
 30
0.0
 40
3.0
 50
270.0
 51
0.0
  0
ARC
  8
0
  6
CONTINUOUS
 62
       7
  5
2A
 10
-39.03839978
 20
0.39209688
 30
0.0
 40
10.0008961
 50
333.50963779
 51
359.99500201
  0
ARC
  8
0
  6
CONTINUOUS
 62
       7
  5
2B
 10
-75.10905047
 20
-71.95680917
 30
0.0
 40
10.00196645
 50
270.00886053
 51
333.50569176
  0
LINE
  8
0
  6
CONTINUOUS
 62
       2
  5
2C
 10
-91.63750371
 20
66.04122449
 30
0.0
 11
-76.45750371
 21
66.04122449
 31
0.0
  0
LINE
  8
0
  6
CONTINUOUS
 62
       2
  5
2D
 10
-71.63750371
 20
66.04122449
 30
0.0
 11
-56.43750371
 21
66.04122449
 31
0.0
  0
LINE
  8
0
  6
CONTINUOUS
 62
       7
  5
2E
 10
-98.03750371
 20
73.04122449
 30
0.0
 11
-98.03750371
 21
-81.95877551
 31
0.0
  0
LINE
  8
0
  6
CONTINUOUS
 62
       7
  5
2F
 10
-99.03750371
 20
72.04122449
 30
0.0
 11
-98.03750371
 21
73.04122449
 31
0.0
  0
LINE
  8
0
  6
CONTINUOUS
 62
       7
  5
30
 10
-99.03750371
 20
-80.95877551
 30
0.0
 11
-98.03750371
 21
-81.95877551
 31
0.0
  0
LINE
  8
0
  6
CONTINUOUS
 62
       7
  5
31
 10
-66.15750371
 20
-76.41877551
 30
0.0
 11
-30.08750371
 21
-4.06877551
 31
0.0
  0
LINE
  8
0
  6
CONTINUOUS
 62
       7
  5
32
 10
-97.47750371
 20
29.58122449
 30
0.0
 11
-87.03750371
 21
29.58122449
 31
0.0
  0
LINE
  8
0
  6
CONTINUOUS
 62
       7
  5
33
 10
-99.03750371
 20
59.49122449
 30
0.0
 11
-32.03750371
 21
59.49122449
 31
0.0
  0
LINE
  8
0
  6
CONTINUOUS
 62
       7
  5
34
 10
-83.04750371
 20
-1.95877551
 30
0.0
 11
-32.03750371
 21
-1.95877551
 31
0.0
  0
LINE
  8
0
  6
CONTINUOUS
 62
       7
  5
35
 10
-84.03750371
 20
26.58122449
 30
0.0
 11
-84.03750371
 21
-78.95877551
 31
0.0
  0
LINE
  8
0
  6
CONTINUOUS
 62
       7
  5
36
 10
-98.03750371
 20
-81.95877551
 30
0.0
 11
-75.10750371
 21
-81.95877551
 31
0.0
  0
LINE
  8
0
  6
CONTINUOUS
 62
       7
  5
37
 10
-98.03750371
 20
73.04122449
 30
0.0
 11
-34.03750371
 21
73.04122449
 31
0.0
  0
LINE
  8
0
  6
CONTINUOUS
 62
       2
  5
38
 10
-101.15750371
 20
33.04122449
 30
0.0
 11
-26.37750371
 21
33.04122449
 31
0.0
  0
LINE
  8
0
  6
CONTINUOUS
 62
       7
  5
39
 10
-29.03750371
 20
68.04122449
 30
0.0
 11
-29.03750371
 21
1.04122449
 31
0.0
  0
LINE
  8
0
  6
CONTINUOUS
 62
       7
  5
3A
 10
-99.03750371
 20
72.04122449
 30
0.0
 11
-99.03750371
 21
-80.95877551
 31
0.0
  0
CIRCLE
  8
0
  6
CONTINUOUS
 62
       7
  5
3B
 10
108.96249629
 20
-71.95877551
 30
0.0
 40
5.0
  0
CIRCLE
  8
0
  6
CONTINUOUS
 62
       7
  5
3C
 10
28.96225658
 20
-71.95877551
 30
0.0
 40
5.0
  0
CIRCLE
  8
0
  6
CONTINUOUS
 62
       7
  5
3D
 10
28.96249629
 20
8.04122449
 30
0.0
 40
5.0
  0
CIRCLE
  8
0
  6
CONTINUOUS
 62
       7
  5
3E
 10
108.96249629
 20
8.04122449
 30
0.0
 40
5.0
  0
ARC
  8
0
  6
CONTINUOUS
 62
       7
  5
3F
 10
68.96257351
 20
33.037436
 30
0.0
 40
26.99621151
 50
92.3354106
 51
269.99983611
  0
ARC
  8
0
  6
CONTINUOUS
 62
       7
  5
40
 10
68.96241907
 20
33.037436
 30
0.0
 40
26.99621151
 50
270.00016389
 51
87.6645894
  0
ARC
  8
0
  6
CONTINUOUS
 62
       7
  5
41
 10
68.96117908
 20
33.03672537
 30
0.0
 40
35.00374957
 50
285.95398891
 51
41.41332157
  0
ARC
  8
0
  6
CONTINUOUS
 62
       7
  5
42
 10
98.96260315
 20
59.49846194
 30
0.0
 40
5.0001121
 50
180.0829332
 51
221.40922735
  0
ARC
  8
0
  6
CONTINUOUS
 62
       7
  5
43
 10
91.96250392
 20
71.04123212
 30
0.0
 40
1.99999237
 50
359.99978143
 51
90.00021857
  0
ARC
  8
0
  6
CONTINUOUS
 62
       7
  5
44
 10
45.96249629
 20
71.04122449
 30
0.0
 40
2.0
 50
90.0
 51
180.0
  0
ARC
  8
0
  6
CONTINUOUS
 62
       7
  5
45
 10
38.96238943
 20
59.49846194
 30
0.0
 40
5.0001121
 50
318.59077265
 51
359.9170668
  0
ARC
  8
0
  6
CONTINUOUS
 62
       7
  5
46
 10
68.96426953
 20
33.03516432
 30
0.0
 40
35.00512422
 50
138.58525597
 51
254.0288537
  0
ARC
  8
0
  6
CONTINUOUS
 62
       7
  5
47
 10
113.73956996
 20
28.60834954
 30
0.0
 40
10.00448908
 50
174.4195194
 51
240.03418896
  0
ARC
  8
0
  6
CONTINUOUS
 62
       7
  5
48
 10
108.96541366
 20
8.26265485
 30
0.0
 40
9.99708272
 50
359.99180227
 51
60.00965329
  0
ARC
  8
0
  6
CONTINUOUS
 62
       7
  5
49
 10
24.18123001
 20
28.60017865
 30
0.0
 40
9.99950756
 50
300.01000759
 51
5.63031259
  0
ARC
  8
0
  6
CONTINUOUS
 62
       7
  5
4A
 10
28.95957891
 20
8.26265485
 30
0.0
 40
9.99708272
 50
119.99034671
 51
180.00819773
  0
ARC
  8
0
  6
CONTINUOUS
 62
       7
  5
4B
 10
65.96249629
 20
-78.95877551
 30
0.0
 40
3.0
 50
180.0
 51
270.0
  0
ARC
  8
0
  6
CONTINUOUS
 62
       7
  5
4C
 10
71.96249629
 20
-78.95877551
 30
0.0
 40
3.0
 50
270.0
 51
0.0
  0
ARC
  8
0
  6
CONTINUOUS
 62
       7
  5
4D
 10
57.96772458
 20
-5.42347786
 30
0.0
 40
4.99477392
 50
0.05394136
 51
74.14284676
  0
ARC
  8
0
  6
CONTINUOUS
 62
       7
  5
4E
 10
79.95864687
 20
-5.42166407
 30
0.0
 40
4.99615142
 50
105.98836388
 51
179.96687399
  0
ARC
  8
0
  6
CONTINUOUS
 62
       7
  5
4F
 10
28.96249629
 20
-71.95877551
 30
0.0
 40
10.0
 50
180.0
 51
270.0
  0
ARC
  8
0
  6
CONTINUOUS
 62
       7
  5
50
 10
108.96249629
 20
-71.95877551
 30
0.0
 40
10.0
 50
270.0
 51
0.0
  0
ARC
  8
0
  6
CONTINUOUS
 62
       7
  5
51
 10
68.96249629
 20
33.04122449
 30
0.0
 40
27.99162196
 50
92.25215925
 51
87.74784075
  0
LINE
  8
0
  6
CONTINUOUS
 62
       2
  5
52
 10
100.96249629
 20
-71.95877551
 30
0.0
 11
116.96249629
 21
-71.95877551
 31
0.0
  0
LINE
  8
0
  6
CONTINUOUS
 62
       2
  5
53
 10
100.96249629
 20
8.04122449
 30
0.0
 11
116.96249629
 21
8.04122449
 31
0.0
  0
LINE
  8
0
  6
CONTINUOUS
 62
       2
  5
54
 10
108.96249629
 20
16.04122449
 30
0.0
 11
108.96249629
 21
0.04122449
 31
0.0
  0
LINE
  8
0
  6
CONTINUOUS
 62
       2
  5
55
 10
28.96249629
 20
16.04122449
 30
0.0
 11
28.96249629
 21
0.04122449
 31
0.0
  0
LINE
  8
0
  6
CONTINUOUS
 62
       7
  5
56
 10
91.96249629
 20
73.04122449
 30
0.0
 11
70.06249629
 21
73.04122449
 31
0.0
  0
LINE
  8
0
  6
CONTINUOUS
 62
       7
  5
57
 10
70.06249629
 20
73.04122449
 30
0.0
 11
70.06249629
 21
60.01122449
 31
0.0
  0
LINE
  8
0
  6
CONTINUOUS
 62
       2
  5
58
 10
68.96249629
 20
76.02122449
 30
0.0
 11
68.96249629
 21
-84.83877551
 31
0.0
  0
LINE
  8
0
  6
CONTINUOUS
 62
       7
  5
59
 10
67.86249629
 20
73.04122449
 30
0.0
 11
67.86249629
 21
60.01122449
 31
0.0
  0
LINE
  8
0
  6
CONTINUOUS
 62
       7
  5
5A
 10
67.86249629
 20
73.04122449
 30
0.0
 11
45.96249629
 21
73.04122449
 31
0.0
  0
LINE
  8
0
  6
CONTINUOUS
 62
       2
  5
5B
 10
103.96249629
 20
66.04122449
 30
0.0
 11
36.96249629
 21
66.04122449
 31
0.0
  0
LINE
  8
0
  6
CONTINUOUS
 62
       7
  5
5C
 10
108.74249629
 20
19.94122449
 30
0.0
 11
113.96249629
 21
16.92122449
 31
0.0
  0
LINE
  8
0
  6
CONTINUOUS
 62
       7
  5
5D
 10
23.96249629
 20
16.92122449
 30
0.0
 11
29.18249629
 21
19.94122449
 31
0.0
  0
LINE
  8
0
  6
CONTINUOUS
 62
       7
  5
5E
 10
118.96249629
 20
8.26122449
 30
0.0
 11
118.96249629
 21
-71.95877551
 31
0.0
  0
LINE
  8
0
  6
CONTINUOUS
 62
       7
  5
5F
 10
18.96249629
 20
8.26122449
 30
0.0
 11
18.96249629
 21
-71.95877551
 31
0.0
  0
LINE
  8
0
  6
CONTINUOUS
 62
       7
  5
60
 10
62.96249629
 20
-5.41877551
 30
0.0
 11
62.96249629
 21
-78.95877551
 31
0.0
  0
LINE
  8
0
  6
CONTINUOUS
 62
       7
  5
61
 10
74.96249629
 20
-5.41877551
 30
0.0
 11
74.96249629
 21
-78.95877551
 31
0.0
  0
LINE
  8
0
  6
CONTINUOUS
 62
       7
  5
62
 10
108.96249629
 20
-81.95877551
 30
0.0
 11
28.96249629
 21
-81.95877551
 31
0.0
  0
LINE
  8
0
  6
CONTINUOUS
 62
       7
  5
63
 10
42.46249629
 20
59.94122449
 30
0.0
 11
42.46249629
 21
72.14122449
 31
0.0
  0
LINE
  8
0
  6
CONTINUOUS
 62
       7
  5
64
 10
42.46249629
 20
59.94122449
 30
0.0
 11
43.96249629
 21
59.94122449
 31
0.0
  0
LINE
  8
0
  6
CONTINUOUS
 62
       7
  5
65
 10
42.46249629
 20
72.14122449
 30
0.0
 11
43.96249629
 21
72.14122449
 31
0.0
  0
LINE
  8
0
  6
CONTINUOUS
 62
       7
  5
66
 10
38.46249629
 20
71.04122449
 30
0.0
 11
38.46249629
 21
61.04122449
 31
0.0
  0
LINE
  8
0
  6
CONTINUOUS
 62
       7
  5
67
 10
38.90907828
 20
71.81472717
 30
0.0
 11
42.46249626
 21
71.81472717
 31
0.0
  0
LINE
  8
0
  6
CONTINUOUS
 62
       7
  5
68
 10
38.90907828
 20
60.26772179
 30
0.0
 11
42.46249626
 21
60.26772179
 31
0.0
  0
LINE
  8
0
  6
CONTINUOUS
 62
       7
  5
69
 10
38.46249629
 20
71.04122449
 30
0.0
 11
38.90907827
 21
71.81472717
 31
0.0
  0
LINE
  8
0
  6
CONTINUOUS
 62
       7
  5
6A
 10
38.90907827
 20
68.92797586
 30
0.0
 11
42.46249629
 21
68.92797586
 31
0.0
  0
LINE
  8
0
  6
CONTINUOUS
 62
       7
  5
6B
 10
38.90907827
 20
63.15447317
 30
0.0
 11
42.46249629
 21
63.15447317
 31
0.0
  0
POLYLINE
  8
0
  6
CONTINUOUS
 62
       7
  5
6C
 66
       1
 10
0.0
 20
0.0
 30
0.0
  0
VERTEX
  8
0
  6
CONTINUOUS
 62
       7
  5
B9
 10
38.90907827
 20
71.81472717
 30
0.0
  0
VERTEX
  8
0
  6
CONTINUOUS
 62
       7
  5
BA
 10
38.58640822
 20
71.12277366
 30
0.0
  0
VERTEX
  8
0
  6
CONTINUOUS
 62
       7
  5
BB
 10
38.46249629
 20
70.37135153
 30
0.0
  0
VERTEX
  8
0
  6
CONTINUOUS
 62
       7
  5
BC
 10
38.58640822
 20
69.61992938
 30
0.0
  0
VERTEX
  8
0
  6
CONTINUOUS
 62
       7
  5
BD
 10
38.90907827
 20
68.92797586
 30
0.0
  0
SEQEND
  8
0
  6
CONTINUOUS
 62
       7
  5
BE
  0
POLYLINE
  8
0
  6
CONTINUOUS
 62
       7
  5
6D
 66
       1
 10
0.0
 20
0.0
 30
0.0
  0
VERTEX
  8
0
  6
CONTINUOUS
 62
       7
  5
BF
 10
38.90907827
 20
68.92797586
 30
0.0
  0
VERTEX
  8
0
  6
CONTINUOUS
 62
       7
  5
C0
 10
38.66538571
 20
67.98353619
 30
0.0
  0
VERTEX
  8
0
  6
CONTINUOUS
 62
       7
  5
C1
 10
38.51432078
 20
67.01772357
 30
0.0
  0
VERTEX
  8
0
  6
CONTINUOUS
 62
       7
  5
C2
 10
38.46249629
 20
66.04122449
 30
0.0
  0
VERTEX
  8
0
  6
CONTINUOUS
 62
       7
  5
C3
 10
38.51432078
 20
65.06472543
 30
0.0
  0
VERTEX
  8
0
  6
CONTINUOUS
 62
       7
  5
C4
 10
38.66538571
 20
64.09891283
 30
0.0
  0
VERTEX
  8
0
  6
CONTINUOUS
 62
       7
  5
C5
 10
38.90907827
 20
63.15447317
 30
0.0
  0
SEQEND
  8
0
  6
CONTINUOUS
 62
       7
  5
C6
  0
POLYLINE
  8
0
  6
CONTINUOUS
 62
       7
  5
6E
 66
       1
 10
0.0
 20
0.0
 30
0.0
  0
VERTEX
  8
0
  6
CONTINUOUS
 62
       7
  5
C7
 10
38.90907827
 20
63.15447317
 30
0.0
  0
VERTEX
  8
0
  6
CONTINUOUS
 62
       7
  5
C8
 10
38.58640822
 20
62.46251963
 30
0.0
  0
VERTEX
  8
0
  6
CONTINUOUS
 62
       7
  5
C9
 10
38.46249629
 20
61.71109746
 30
0.0
  0
VERTEX
  8
0
  6
CONTINUOUS
 62
       7
  5
CA
 10
38.58640823
 20
60.95967531
 30
0.0
  0
VERTEX
  8
0
  6
CONTINUOUS
 62
       7
  5
CB
 10
38.90907828
 20
60.26772179
 30
0.0
  0
SEQEND
  8
0
  6
CONTINUOUS
 62
       7
  5
CC
  0
LINE
  8
0
  6
CONTINUOUS
 62
       7
  5
6F
 10
38.46249629
 20
61.04122449
 30
0.0
 11
38.90907827
 21
60.26772181
 31
0.0
  0
LINE
  8
0
  6
CONTINUOUS
 62
       7
  5
70
 10
102.46249629
 20
68.34122449
 30
0.0
 11
102.46249629
 21
63.74122449
 31
0.0
  0
LINE
  8
0
  6
CONTINUOUS
 62
       7
  5
71
 10
102.46249629
 20
68.34122449
 30
0.0
 11
101.96249629
 21
68.84122449
 31
0.0
  0
LINE
  8
0
  6
CONTINUOUS
 62
       7
  5
72
 10
67.86249629
 20
69.04122449
 30
0.0
 11
70.06249629
 21
69.04122449
 31
0.0
  0
LINE
  8
0
  6
CONTINUOUS
 62
       2
  5
73
 10
67.86249629
 20
68.49972449
 30
0.0
 11
70.06249629
 21
68.49972449
 31
0.0
  0
LINE
  8
0
  6
CONTINUOUS
 62
       2
  5
74
 10
67.86249629
 20
63.58272449
 30
0.0
 11
70.06249629
 21
63.58272449
 31
0.0
  0
LINE
  8
0
  6
CONTINUOUS
 62
       7
  5
75
 10
67.86249629
 20
63.04122449
 30
0.0
 11
70.06249629
 21
63.04122449
 31
0.0
  0
LINE
  8
0
  6
CONTINUOUS
 62
       7
  5
76
 10
95.46249629
 20
59.94122449
 30
0.0
 11
95.46249629
 21
72.14122449
 31
0.0
  0
LINE
  8
0
  6
CONTINUOUS
 62
       7
  5
77
 10
96.96249629
 20
59.94122449
 30
0.0
 11
96.96249629
 21
72.14122449
 31
0.0
  0
LINE
  8
0
  6
CONTINUOUS
 62
       7
  5
78
 10
93.96249629
 20
59.94122449
 30
0.0
 11
95.46249629
 21
59.94122449
 31
0.0
  0
LINE
  8
0
  6
CONTINUOUS
 62
       7
  5
79
 10
95.46249629
 20
59.94122449
 30
0.0
 11
96.96249629
 21
59.94122449
 31
0.0
  0
LINE
  8
0
  6
CONTINUOUS
 62
       7
  5
7A
 10
101.51591428
 20
71.81472721
 30
0.0
 11
97.40907829
 21
71.81472721
 31
0.0
  0
LINE
  8
0
  6
CONTINUOUS
 62
       7
  5
7B
 10
96.96249629
 20
61.04122449
 30
0.0
 11
97.40907829
 21
60.26772178
 31
0.0
  0
LINE
  8
0
  6
CONTINUOUS
 62
       7
  5
7C
 10
97.40907829
 20
60.26772178
 30
0.0
 11
101.51591428
 21
60.26772178
 31
0.0
  0
LINE
  8
0
  6
CONTINUOUS
 62
       7
  5
7D
 10
101.51591428
 20
60.26772178
 30
0.0
 11
101.96249629
 21
61.04122449
 31
0.0
  0
LINE
  8
0
  6
CONTINUOUS
 62
       7
  5
7E
 10
101.96249629
 20
61.04122449
 30
0.0
 11
101.96249629
 21
71.04122449
 31
0.0
  0
ARC
  8
0
  6
CONTINUOUS
 62
       7
  5
7F
 10
99.4066736
 20
61.71109749
 30
0.0
 40
2.55582269
 50
334.38424266
 51
34.38424782
  0
ARC
  8
0
  6
CONTINUOUS
 62
       7
  5
80
 10
99.51831898
 20
61.71109749
 30
0.0
 40
2.55582269
 50
145.61575218
 51
205.61575734
  0
ARC
  8
0
  6
CONTINUOUS
 62
       7
  5
81
 10
99.40427629
 20
70.37135149
 30
0.0
 40
2.55798459
 50
325.64607911
 51
25.59254238
  0
ARC
  8
0
  6
CONTINUOUS
 62
       7
  5
82
 10
99.52071629
 20
70.37135149
 30
0.0
 40
2.55798459
 50
154.40745762
 51
214.35392089
  0
ARC
  8
0
  6
CONTINUOUS
 62
       7
  5
83
 10
92.40907853
 20
66.04122449
 30
0.0
 40
9.55341776
 50
342.41204566
 51
17.58795434
  0
ARC
  8
0
  6
CONTINUOUS
 62
       7
  5
84
 10
106.51591404
 20
66.04122449
 30
0.0
 40
9.55341776
 50
162.41204566
 51
197.58795434
  0
LINE
  8
0
  6
CONTINUOUS
 62
       7
  5
85
 10
97.40907829
 20
71.81472721
 30
0.0
 11
96.96249629
 21
71.04122449
 31
0.0
  0
LINE
  8
0
  6
CONTINUOUS
 62
       7
  5
86
 10
101.96249629
 20
71.04122449
 30
0.0
 11
101.51591428
 21
71.81472721
 31
0.0
  0
LINE
  8
0
  6
CONTINUOUS
 62
       7
  5
87
 10
97.26249629
 20
69.04122449
 30
0.0
 11
101.96249629
 21
69.04122449
 31
0.0
  0
LINE
  8
0
  6
CONTINUOUS
 62
       7
  5
88
 10
97.26249629
 20
63.04122449
 30
0.0
 11
101.96249629
 21
63.04122449
 31
0.0
  0
ARC
  8
0
  6
CONTINUOUS
 62
       7
  5
89
 10
97.26249629
 20
62.74122449
 30
0.0
 40
0.3
 50
90.0
 51
180.0
  0
ARC
  8
0
  6
CONTINUOUS
 62
       7
  5
8A
 10
97.26249629
 20
69.34122449
 30
0.0
 40
0.3
 50
180.0
 51
270.0
  0
LINE
  8
0
  6
CONTINUOUS
 62
       7
  5
8B
 10
93.96249629
 20
72.14122449
 30
0.0
 11
95.46249629
 21
72.14122449
 31
0.0
  0
LINE
  8
0
  6
CONTINUOUS
 62
       7
  5
8C
 10
95.46249629
 20
72.14122449
 30
0.0
 11
96.96249629
 21
72.14122449
 31
0.0
  0
LINE
  8
0
  6
CONTINUOUS
 62
       2
  5
8D
 10
101.96249629
 20
68.49972449
 30
0.0
 11
102.30399629
 21
68.49972449
 31
0.0
  0
LINE
  8
0
  6
CONTINUOUS
 62
       2
  5
8E
 10
101.96249629
 20
63.58272449
 30
0.0
 11
102.30399629
 21
63.58272449
 31
0.0
  0
LINE
  8
0
  6
CONTINUOUS
 62
       7
  5
8F
 10
101.96249629
 20
63.24122449
 30
0.0
 11
102.46249629
 21
63.74122449
 31
0.0
  0
LINE
  8
0
  6
CONTINUOUS
 62
       2
  5
90
 10
36.96249629
 20
8.04122449
 30
0.0
 11
20.96249629
 21
8.04122449
 31
0.0
  0
LINE
  8
0
  6
CONTINUOUS
 62
       2
  5
91
 10
-44.03750371
 20
58.44122449
 30
0.0
 11
-44.03750371
 21
73.64122449
 31
0.0
  0
LINE
  8
0
  6
CONTINUOUS
 62
       2
  5
92
 10
-51.63750371
 20
66.04122449
 30
0.0
 11
-36.43750371
 21
66.04122449
 31
0.0
  0
LINE
  8
0
  6
CONTINUOUS
 62
       2
  5
93
 10
-84.03750371
 20
58.44122449
 30
0.0
 11
-84.03750371
 21
73.64122449
 31
0.0
  0
LINE
  8
0
  6
CONTINUOUS
 62
       2
  5
94
 10
-64.03750371
 20
58.44122449
 30
0.0
 11
-64.03750371
 21
73.64122449
 31
0.0
  0
CIRCLE
  8
0
  6
CONTINUOUS
 62
       7
  5
95
 10
-44.03750371
 20
66.04122449
 30
0.0
 40
6.1
  0
LINE
  8
0
  6
CONTINUOUS
 62
       7
  5
96
 10
-39.03750371
 20
68.92797584
 30
0.0
 11
-44.03750371
 21
71.81472718
 31
0.0
  0
LINE
  8
0
  6
CONTINUOUS
 62
       7
  5
97
 10
-39.03750371
 20
63.15447315
 30
0.0
 11
-39.03750371
 21
68.92797584
 31
0.0
  0
LINE
  8
0
  6
CONTINUOUS
 62
       7
  5
98
 10
-44.03750371
 20
60.2677218
 30
0.0
 11
-39.03750371
 21
63.15447315
 31
0.0
  0
LINE
  8
0
  6
CONTINUOUS
 62
       7
  5
99
 10
-49.03750371
 20
63.15447315
 30
0.0
 11
-44.03750371
 21
60.2677218
 31
0.0
  0
LINE
  8
0
  6
CONTINUOUS
 62
       7
  5
9A
 10
-49.03750371
 20
68.92797584
 30
0.0
 11
-49.03750371
 21
63.15447315
 31
0.0
  0
LINE
  8
0
  6
CONTINUOUS
 62
       7
  5
9B
 10
-44.03750371
 20
71.81472718
 30
0.0
 11
-49.03750371
 21
68.92797584
 31
0.0
  0
CIRCLE
  8
0
  6
CONTINUOUS
 62
       7
  5
9C
 10
-44.03750371
 20
66.04122449
 30
0.0
 40
5.0
  0
LINE
  8
0
  6
CONTINUOUS
 62
       7
  5
9D
 10
-59.03750371
 20
68.92797584
 30
0.0
 11
-64.03750371
 21
71.81472718
 31
0.0
  0
LINE
  8
0
  6
CONTINUOUS
 62
       7
  5
9E
 10
-59.03750371
 20
63.15447315
 30
0.0
 11
-59.03750371
 21
68.92797584
 31
0.0
  0
LINE
  8
0
  6
CONTINUOUS
 62
       7
  5
9F
 10
-64.03750371
 20
60.2677218
 30
0.0
 11
-59.03750371
 21
63.15447315
 31
0.0
  0
LINE
  8
0
  6
CONTINUOUS
 62
       7
  5
A0
 10
-69.03750371
 20
63.15447315
 30
0.0
 11
-64.03750371
 21
60.2677218
 31
0.0
  0
LINE
  8
0
  6
CONTINUOUS
 62
       7
  5
A1
 10
-69.03750371
 20
68.92797584
 30
0.0
 11
-69.03750371
 21
63.15447315
 31
0.0
  0
LINE
  8
0
  6
CONTINUOUS
 62
       7
  5
A2
 10
-64.03750371
 20
71.81472718
 30
0.0
 11
-69.03750371
 21
68.92797584
 31
0.0
  0
CIRCLE
  8
0
  6
CONTINUOUS
 62
       7
  5
A3
 10
-64.03750371
 20
66.04122449
 30
0.0
 40
5.0
  0
CIRCLE
  8
0
  6
CONTINUOUS
 62
       7
  5
A4
 10
-84.03750371
 20
66.04122449
 30
0.0
 40
6.1
  0
LINE
  8
0
  6
CONTINUOUS
 62
       7
  5
A5
 10
-79.03750371
 20
68.92797584
 30
0.0
 11
-84.03750371
 21
71.81472718
 31
0.0
  0
LINE
  8
0
  6
CONTINUOUS
 62
       7
  5
A6
 10
-79.03750371
 20
63.15447315
 30
0.0
 11
-79.03750371
 21
68.92797584
 31
0.0
  0
LINE
  8
0
  6
CONTINUOUS
 62
       7
  5
A7
 10
-84.03750371
 20
60.2677218
 30
0.0
 11
-79.03750371
 21
63.15447315
 31
0.0
  0
LINE
  8
0
  6
CONTINUOUS
 62
       7
  5
A8
 10
-89.03750371
 20
63.15447315
 30
0.0
 11
-84.03750371
 21
60.2677218
 31
0.0
  0
LINE
  8
0
  6
CONTINUOUS
 62
       7
  5
A9
 10
-89.03750371
 20
68.92797584
 30
0.0
 11
-89.03750371
 21
63.15447315
 31
0.0
  0
LINE
  8
0
  6
CONTINUOUS
 62
       7
  5
AA
 10
-84.03750371
 20
71.81472718
 30
0.0
 11
-89.03750371
 21
68.92797584
 31
0.0
  0
CIRCLE
  8
0
  6
CONTINUOUS
 62
       7
  5
AB
 10
-84.03750371
 20
66.04122449
 30
0.0
 40
5.0
  0
LINE
  8
0
  6
CONTINUOUS
 62
       2
  5
AC
 10
36.96249629
 20
-71.95877551
 30
0.0
 11
20.96249629
 21
-71.95877551
 31
0.0
  0
LINE
  8
0
  6
CONTINUOUS
 62
       2
  5
AD
 10
30.95914539
 20
33.037436
 30
0.0
 11
106.96492865
 21
33.037436
 31
0.0
  0
LINE
  8
0
  6
CONTINUOUS
 62
       2
  5
AE
 10
108.96249629
 20
-79.95877551
 30
0.0
 11
108.96249629
 21
-63.95877551
 31
0.0
  0
LINE
  8
0
  6
CONTINUOUS
 62
       2
  5
AF
 10
28.96249629
 20
-79.95877551
 30
0.0
 11
28.96249629
 21
-63.95877551
 31
0.0
  0
LINE
  8
0
  6
CONTINUOUS
 62
       7
  5
B0
 10
96.96249629
 20
67.1880302
 30
0.0
 11
95.46249629
 21
65.40039982
 31
0.0
  0
LINE
  8
0
  6
CONTINUOUS
 62
       7
  5
B1
 10
96.96249629
 20
66.68204917
 30
0.0
 11
95.46249629
 21
64.89441878
 31
0.0
  0
ARC
  8
0
  6
CONTINUOUS
 62
       7
  5
B2
 10
-87.03750371
 20
26.58122449
 30
0.0
 40
3.0
 50
0.0
 51
90.0
  0
LINE
  8
0
  6
CONTINUOUS
 62
       7
  5
B3
 10
-138.3999939
 20
94.5
 30
0.0
 11
138.3500061
 21
94.5
 31
0.0
  0
LINE
  8
0
  6
CONTINUOUS
 62
       7
  5
B4
 10
138.3500061
 20
94.5
 30
0.0
 11
138.3500061
 21
-94.80000305
 31
0.0
  0
LINE
  8
0
  6
CONTINUOUS
 62
       7
  5
B5
 10
-138.3999939
 20
-94.80000305
 30
0.0
 11
138.3500061
 21
-94.80000305
 31
0.0
  0
LINE
  8
0
  6
CONTINUOUS
 62
       7
  5
B6
 10
-138.3999939
 20
94.5
 30
0.0
 11
-138.3999939
 21
-94.80000305
 31
0.0
  0
TEXT
  8
0
  6
CONTINUOUS
 62
       7
  5
B7
 10
-129.42399391
 20
82.89999998
 30
0.0
 40
3.20000005
  1
MODEL:DH3
 41
1.08
  7
MX_NOTE_STANDARD
 11
-129.42399391
 21
84.5
 31
0.0
 73
       2
  0
ENDSEC
  0
EOF
