  0
SECTION
  2
HEADER
  9
$ACADVER
  1
AC1003
  9
$EXTMIN
 10
-8.20500000E+02
 20
-5.74500000E+02
  9
$EXTMAX
 10
8.20500000E+02
 20
5.74500000E+02
  9
$LIMMIN
 10
-8.20501000E+02
 20
-5.74501000E+02
  9
$LIMMAX
 10
8.20501000E+02
 20
5.74501000E+02
  9
$SNAPUNIT
 10
1
 20
1
  9
$SNAPBASE
 10
0
 20
0
  9
$GRIDMODE
 70
0
  9
$GRIDUNIT
 10
0
 20
0
  9
$LTSCALE
 40
2.73500000E+01
  9
$TEXTSIZE
 40
3.2
  9
$DIMTAD
 70
0
  9
$LUNITS
 70
2
  9
$LUPREC
 70
4
  9
$FILLETRAD
 40
0
  9
$AUNITS
 70
0
  9
$AUPREC
 70
0
  0
ENDSEC
  0
SECTION
  2
TABLES
  0
TABLE
  2
LTYPE
 70
2
  0
LTYPE
  2
CONTINUOUS
 70
64
  3
Solid-Line
 72
65
 73
0
 40
0
  0
LTYPE
  2
DASHED
 70
64
  3
DASHED
 72
65
 73
2
 40
.75
 49
.5
 49
-.25
  0
LTYPE
  2
HIDDEN
 70
64
  3
HIDDEN
 72
65
 73
2
 40
.375
 49
.25
 49
-.125
  0
LTYPE
  2
CENTER
 70
64
  3
CENTER
 72
65
 73
4
 40
2
 49
1.25
 49
-.25
 49
.25
 49
-.25
  0
LTYPE
  2
PHANTOM
 70
64
  3
PHANTOM
 72
65
 73
6
 40
2.5
 49
1.25
 49
-.25
 49
.25
 49
-.25
 49
.25
 49
-.25
  0
ENDTAB
  0
TABLE
  2
LAYER
 70
1
  0
LAYER
  2
1
 70
0
 62
7
  6
CONTINUOUS
 0
ENDTAB
  0
TABLE
  2
STYLE
 70
2
  0
STYLE
  2
MONOTXT
 70
0
 40
0
 41
1
 50
0
 71
0
 42
.2
  3
monotxt
  0
STYLE
  2
BIGFONT
 70
0
 40
0
 41
1
 50
0
 71
0
 42
.2
  3
txt
  4
bigfont
  0
ENDTAB
  0
ENDSEC
  0
SECTION
  2
BLOCKS
  0
BLOCK
  8
0
  2
PP1
 70
10
 10
0.0
 20
0.0
  0
LINE
  8
0
  6
DASHED
 62
7
 10
-2.90669809E+02
 20
4.09000000E+02
 11
-2.87330157E+02
 21
4.09000000E+02
  0
LINE
  8
0
  6
DASHED
 62
7
 10
-2.91999992E+02
 20
4.11000000E+02
 11
-2.85999952E+02
 21
4.11000000E+02
  0
LINE
  8
0
  6
DASHED
 62
7
 10
-2.91999956E+02
 20
4.13000000E+02
 11
-2.85999952E+02
 21
4.13000000E+02
  0
LINE
  8
0
  6
DASHED
 62
7
 10
-2.92000009E+02
 20
4.10000000E+02
 11
-2.85999952E+02
 21
4.10000000E+02
  0
LINE
  8
0
  6
DASHED
 62
7
 10
-2.91999974E+02
 20
4.12000000E+02
 11
-2.85999952E+02
 21
4.12000000E+02
  0
LINE
  8
0
  6
DASHED
 62
7
 10
-2.90669880E+02
 20
4.14000000E+02
 11
-2.87330051E+02
 21
4.14000000E+02
  0
LINE
  8
0
  6
DASHED
 62
7
 10
-2.86749554E+02
 20
4.09335203E+02
 11
-2.85999952E+02
 21
4.10633552E+02
  0
LINE
  8
0
  6
DASHED
 62
7
 10
-2.89606809E+02
 20
4.08386292E+02
 11
-2.86606808E+02
 21
4.13582446E+02
  0
LINE
  8
0
  6
DASHED
 62
7
 10
-2.91338871E+02
 20
4.09386274E+02
 11
-2.88338870E+02
 21
4.14582427E+02
  0
LINE
  8
0
  6
DASHED
 62
7
 10
-2.91999970E+02
 20
4.12241217E+02
 11
-2.91141862E+02
 21
4.13727502E+02
  0
LINE
  8
0
  6
DASHED
 62
7
 10
-2.88481584E+02
 20
4.08335240E+02
 11
-2.85999952E+02
 21
4.12633552E+02
  0
LINE
  8
0
  6
DASHED
 62
7
 10
-2.90472840E+02
 20
4.08886283E+02
 11
-2.87472839E+02
 21
4.14082437E+02
  0
LINE
  8
0
  6
DASHED
 62
7
 10
-2.92000005E+02
 20
4.10241156E+02
 11
-2.89409815E+02
 21
4.14727495E+02
  0
LINE
  8
0
  6
DASHED
 62
7
 10
-2.86173819E+02
 20
4.09667595E+02
 11
-2.89173819E+02
 21
4.14863747E+02
  0
LINE
  8
0
  6
DASHED
 62
7
 10
-2.87905881E+02
 20
4.08667614E+02
 11
-2.90905872E+02
 21
4.13863751E+02
  0
LINE
  8
0
  6
DASHED
 62
7
 10
-2.90275879E+02
 20
4.08772570E+02
 11
-2.91999978E+02
 21
4.11758798E+02
  0
LINE
  8
0
  6
DASHED
 62
7
 10
-2.85999952E+02
 20
4.11366448E+02
 11
-2.87615622E+02
 21
4.14164870E+02
  0
LINE
  8
0
  6
DASHED
 62
7
 10
-2.87039850E+02
 20
4.09167604E+02
 11
-2.90039846E+02
 21
4.14363749E+02
  0
LINE
  8
0
  6
DASHED
 62
7
 10
-2.88771912E+02
 20
4.08167623E+02
 11
-2.91771899E+02
 21
4.13363752E+02
  0
ENDBLK
  8
0
  0
BLOCK
  8
0
  2
PP2
 70
10
 10
0.0
 20
0.0
  0
LINE
  8
0
  6
DASHED
 62
7
 10
-2.90669809E+02
 20
-2.11000000E+02
 11
-2.87330157E+02
 21
-2.11000000E+02
  0
LINE
  8
0
  6
DASHED
 62
7
 10
-2.91999992E+02
 20
-2.09000000E+02
 11
-2.85999952E+02
 21
-2.09000000E+02
  0
LINE
  8
0
  6
DASHED
 62
7
 10
-2.91999956E+02
 20
-2.07000000E+02
 11
-2.85999952E+02
 21
-2.07000000E+02
  0
LINE
  8
0
  6
DASHED
 62
7
 10
-2.92000009E+02
 20
-2.10000000E+02
 11
-2.85999952E+02
 21
-2.10000000E+02
  0
LINE
  8
0
  6
DASHED
 62
7
 10
-2.91999974E+02
 20
-2.08000000E+02
 11
-2.85999952E+02
 21
-2.08000000E+02
  0
LINE
  8
0
  6
DASHED
 62
7
 10
-2.90669880E+02
 20
-2.06000000E+02
 11
-2.87330051E+02
 21
-2.06000000E+02
  0
LINE
  8
0
  6
DASHED
 62
7
 10
-2.86749554E+02
 20
-2.10664797E+02
 11
-2.85999952E+02
 21
-2.09366448E+02
  0
LINE
  8
0
  6
DASHED
 62
7
 10
-2.89606809E+02
 20
-2.11613708E+02
 11
-2.86606808E+02
 21
-2.06417554E+02
  0
LINE
  8
0
  6
DASHED
 62
7
 10
-2.91338871E+02
 20
-2.10613726E+02
 11
-2.88338870E+02
 21
-2.05417573E+02
  0
LINE
  8
0
  6
DASHED
 62
7
 10
-2.91999970E+02
 20
-2.07758783E+02
 11
-2.91141862E+02
 21
-2.06272498E+02
  0
LINE
  8
0
  6
DASHED
 62
7
 10
-2.88481584E+02
 20
-2.11664760E+02
 11
-2.85999952E+02
 21
-2.07366448E+02
  0
LINE
  8
0
  6
DASHED
 62
7
 10
-2.90472840E+02
 20
-2.11113717E+02
 11
-2.87472839E+02
 21
-2.05917563E+02
  0
LINE
  8
0
  6
DASHED
 62
7
 10
-2.92000005E+02
 20
-2.09758844E+02
 11
-2.89409815E+02
 21
-2.05272505E+02
  0
LINE
  8
0
  6
DASHED
 62
7
 10
-2.86173819E+02
 20
-2.10332405E+02
 11
-2.89173819E+02
 21
-2.05136253E+02
  0
LINE
  8
0
  6
DASHED
 62
7
 10
-2.87905881E+02
 20
-2.11332386E+02
 11
-2.90905872E+02
 21
-2.06136249E+02
  0
LINE
  8
0
  6
DASHED
 62
7
 10
-2.90275879E+02
 20
-2.11227430E+02
 11
-2.91999978E+02
 21
-2.08241202E+02
  0
LINE
  8
0
  6
DASHED
 62
7
 10
-2.85999952E+02
 20
-2.08633552E+02
 11
-2.87615622E+02
 21
-2.05835130E+02
  0
LINE
  8
0
  6
DASHED
 62
7
 10
-2.87039850E+02
 20
-2.10832396E+02
 11
-2.90039846E+02
 21
-2.05636251E+02
  0
LINE
  8
0
  6
DASHED
 62
7
 10
-2.88771912E+02
 20
-2.11832377E+02
 11
-2.91771899E+02
 21
-2.06636248E+02
  0
ENDBLK
  8
0
  0
ENDSEC
  0
SECTION
  2
ENTITIES
  0
LINE
  8
0
  6
PHANTOM
 10
-4.05000000E+01
 20
2.86416975E+02
 11
-4.05000000E+01
 21
1.01688197E+02
  0
LINE
  8
0
 62
7
 10
-2.59999790E+01
 20
2.14000015E+02
 11
-9.89999981E+01
 21
2.14000015E+02
  0
LINE
  8
0
 62
7
 10
-2.59999790E+01
 20
2.23000038E+02
 11
-9.89999981E+01
 21
2.23000038E+02
  0
LINE
  8
0
 62
7
 10
4.09074410E+00
 20
2.30000023E+02
 11
1.20000248E+01
 21
2.30000023E+02
  0
LINE
  8
0
 62
4
 10
5.50002098E+00
 20
2.28917276E+02
 11
5.50002098E+00
 21
2.25916934E+02
  0
LINE
  8
0
 62
4
 10
5.50002098E+00
 20
2.25916934E+02
 11
4.00002098E+00
 21
2.24771107E+02
  0
LINE
  8
0
 62
4
 10
5.50002098E+00
 20
2.26856214E+02
 11
4.00002098E+00
 21
2.26429880E+02
  0
LINE
  8
0
 62
4
 10
4.00002098E+00
 20
2.30069725E+02
 11
5.50002098E+00
 21
2.28917276E+02
  0
LINE
  8
0
 62
4
 10
-6.71138254E+01
 20
2.30069725E+02
 11
-6.14999981E+01
 21
2.30069725E+02
  0
LINE
  8
0
 62
4
 10
-6.67440396E+01
 20
2.30441767E+02
 11
-5.49999981E+01
 21
2.30441767E+02
  0
LINE
  8
0
 62
4
 10
-8.49999981E+01
 20
2.30441767E+02
 11
-7.32559565E+01
 21
2.30441767E+02
  0
LINE
  8
0
 62
4
 10
-7.41499981E+01
 20
2.32783258E+02
 11
-7.41499981E+01
 21
2.33513118E+02
  0
POLYLINE
  8
0
 62
4
 66
1
  0
VERTEX
  8
0
 62
4
 10
-7.41499981E+01
 20
2.32783258E+02
  0
VERTEX
  8
0
 62
4
 10
-7.41324200E+01
 20
2.32436052E+02
  0
VERTEX
  8
0
 62
4
 10
-7.40798348E+01
 20
2.32091788E+02
  0
VERTEX
  8
0
 62
4
 10
-7.39926878E+01
 20
2.31753381E+02
  0
VERTEX
  8
0
 62
4
 10
-7.38717173E+01
 20
2.31423698E+02
  0
VERTEX
  8
0
 62
4
 10
-7.37179481E+01
 20
2.31105533E+02
  0
VERTEX
  8
0
 62
4
 10
-7.35326829E+01
 20
2.30801581E+02
  0
VERTEX
  8
0
 62
4
 10
-7.33174910E+01
 20
2.30514416E+02
  0
VERTEX
  8
0
 62
4
 10
-7.30741955E+01
 20
2.30246471E+02
  0
VERTEX
  8
0
 62
4
 10
-7.28048574E+01
 20
2.30000016E+02
  0
SEQEND
  8
0
  0
LINE
  8
0
 62
4
 10
-6.58499981E+01
 20
2.32783258E+02
 11
-6.58499981E+01
 21
2.33513118E+02
  0
ARC
  8
0
 62
4
 10
-3.22182435E+01
 20
1.92254814E+02
 40
5.61788594E+01
 50
1.29870864E+02
 51
1.34748244E+02
  0
ARC
  8
0
 62
4
 10
-1.07781688E+02
 20
1.92254885E+02
 40
5.61787639E+01
 50
4.52517517E+01
 51
5.01291401E+01
  0
POLYLINE
  8
0
 62
4
 66
1
  0
VERTEX
  8
0
 62
4
 10
-6.62999981E+01
 20
2.35810539E+02
  0
VERTEX
  8
0
 62
4
 10
-6.62940094E+01
 20
2.35616483E+02
  0
VERTEX
  8
0
 62
4
 10
-6.62760620E+01
 20
2.35423039E+02
  0
VERTEX
  8
0
 62
4
 10
-6.62462125E+01
 20
2.35230816E+02
  0
VERTEX
  8
0
 62
4
 10
-6.62045551E+01
 20
2.35040421E+02
  0
SEQEND
  8
0
  0
LINE
  8
0
 62
4
 10
-6.62999981E+01
 20
2.35810539E+02
 11
-6.62999981E+01
 21
2.36225232E+02
  0
LINE
  8
0
 62
4
 10
-6.58999981E+01
 20
2.36225232E+02
 11
-6.58999981E+01
 21
2.36694169E+02
  0
LINE
  8
0
 62
4
 10
-5.86999981E+01
 20
2.35810539E+02
 11
-5.86999981E+01
 21
2.36225232E+02
  0
LINE
  8
0
 62
4
 10
-5.90999981E+01
 20
2.36225232E+02
 11
-5.90999981E+01
 21
2.36694169E+02
  0
ARC
  8
0
 62
4
 10
-1.54191559E+01
 20
1.85426173E+02
 40
6.99948777E+01
 50
1.30344131E+02
 51
1.34257830E+02
  0
ARC
  8
0
 62
4
 10
-1.09580840E+02
 20
1.85426173E+02
 40
6.99948777E+01
 50
4.57421700E+01
 51
4.96558689E+01
  0
POLYLINE
  8
0
 62
4
 66
1
  0
VERTEX
  8
0
 62
4
 10
-6.59622041E+01
 20
2.34385315E+02
  0
VERTEX
  8
0
 62
4
 10
-6.58118311E+01
 20
2.34115039E+02
  0
VERTEX
  8
0
 62
4
 10
-6.56360385E+01
 20
2.33857776E+02
  0
VERTEX
  8
0
 62
4
 10
-6.54361756E+01
 20
2.33615502E+02
  0
VERTEX
  8
0
 62
4
 10
-6.52137763E+01
 20
2.33390075E+02
  0
VERTEX
  8
0
 62
4
 10
-6.49705478E+01
 20
2.33183226E+02
  0
VERTEX
  8
0
 62
4
 10
-6.47083568E+01
 20
2.32996543E+02
  0
VERTEX
  8
0
 62
4
 10
-6.44292158E+01
 20
2.32831459E+02
  0
VERTEX
  8
0
 62
4
 10
-6.41352673E+01
 20
2.32689240E+02
  0
VERTEX
  8
0
 62
4
 10
-6.38287674E+01
 20
2.32570978E+02
  0
VERTEX
  8
0
 62
4
 10
-6.35120688E+01
 20
2.32477581E+02
  0
VERTEX
  8
0
 62
4
 10
-6.31876021E+01
 20
2.32409766E+02
  0
VERTEX
  8
0
 62
4
 10
-6.28578577E+01
 20
2.32368054E+02
  0
VERTEX
  8
0
 62
4
 10
-6.25253667E+01
 20
2.32352763E+02
  0
VERTEX
  8
0
 62
4
 10
-6.21926809E+01
 20
2.32364013E+02
  0
VERTEX
  8
0
 62
4
 10
-6.18623539E+01
 20
2.32401716E+02
  0
VERTEX
  8
0
 62
4
 10
-6.15369211E+01
 20
2.32465582E+02
  0
VERTEX
  8
0
 62
4
 10
-6.12188803E+01
 20
2.32555123E+02
  0
VERTEX
  8
0
 62
4
 10
-6.09106726E+01
 20
2.32669651E+02
  0
VERTEX
  8
0
 62
4
 10
-6.06146635E+01
 20
2.32808285E+02
  0
VERTEX
  8
0
 62
4
 10
-6.03331252E+01
 20
2.32969964E+02
  0
VERTEX
  8
0
 62
4
 10
-6.00682184E+01
 20
2.33153445E+02
  0
VERTEX
  8
0
 62
4
 10
-5.98219765E+01
 20
2.33357320E+02
  0
VERTEX
  8
0
 62
4
 10
-5.95962894E+01
 20
2.33580024E+02
  0
VERTEX
  8
0
 62
4
 10
-5.93928895E+01
 20
2.33819849E+02
  0
VERTEX
  8
0
 62
4
 10
-5.92133378E+01
 20
2.34074953E+02
  0
VERTEX
  8
0
 62
4
 10
-5.90590125E+01
 20
2.34343378E+02
  0
VERTEX
  8
0
 62
4
 10
-5.89310982E+01
 20
2.34623064E+02
  0
VERTEX
  8
0
 62
4
 10
-5.88305765E+01
 20
2.34911865E+02
  0
VERTEX
  8
0
 62
4
 10
-5.87582191E+01
 20
2.35207563E+02
  0
VERTEX
  8
0
 62
4
 10
-5.87145813E+01
 20
2.35507890E+02
  0
VERTEX
  8
0
 62
4
 10
-5.86999981E+01
 20
2.35810539E+02
  0
SEQEND
  8
0
  0
POLYLINE
  8
0
 62
4
 66
1
  0
VERTEX
  8
0
 62
4
 10
-6.58999981E+01
 20
2.36694169E+02
  0
VERTEX
  8
0
 62
4
 10
-6.58870601E+01
 20
2.36424521E+02
  0
VERTEX
  8
0
 62
4
 10
-6.58483445E+01
 20
2.36156924E+02
  0
VERTEX
  8
0
 62
4
 10
-6.57841459E+01
 20
2.35893417E+02
  0
VERTEX
  8
0
 62
4
 10
-6.56949530E+01
 20
2.35636004E+02
  0
VERTEX
  8
0
 62
4
 10
-6.55814446E+01
 20
2.35386644E+02
  0
VERTEX
  8
0
 62
4
 10
-6.54444845E+01
 20
2.35147235E+02
  0
VERTEX
  8
0
 62
4
 10
-6.52851151E+01
 20
2.34919599E+02
  0
VERTEX
  8
0
 62
4
 10
-6.51045492E+01
 20
2.34705469E+02
  0
VERTEX
  8
0
 62
4
 10
-6.49041612E+01
 20
2.34506474E+02
  0
VERTEX
  8
0
 62
4
 10
-6.46854760E+01
 20
2.34324128E+02
  0
VERTEX
  8
0
 62
4
 10
-6.44501580E+01
 20
2.34159820E+02
  0
VERTEX
  8
0
 62
4
 10
-6.41999981E+01
 20
2.34014800E+02
  0
VERTEX
  8
0
 62
4
 10
-6.39369002E+01
 20
2.33890172E+02
  0
VERTEX
  8
0
 62
4
 10
-6.36628666E+01
 20
2.33786884E+02
  0
VERTEX
  8
0
 62
4
 10
-6.33799829E+01
 20
2.33705722E+02
  0
VERTEX
  8
0
 62
4
 10
-6.30904019E+01
 20
2.33647303E+02
  0
VERTEX
  8
0
 62
4
 10
-6.27963276E+01
 20
2.33612074E+02
  0
VERTEX
  8
0
 62
4
 10
-6.24999981E+01
 20
2.33600301E+02
  0
VERTEX
  8
0
 62
4
 10
-6.22036686E+01
 20
2.33612074E+02
  0
VERTEX
  8
0
 62
4
 10
-6.19095943E+01
 20
2.33647303E+02
  0
VERTEX
  8
0
 62
4
 10
-6.16200133E+01
 20
2.33705722E+02
  0
VERTEX
  8
0
 62
4
 10
-6.13371296E+01
 20
2.33786884E+02
  0
VERTEX
  8
0
 62
4
 10
-6.10630960E+01
 20
2.33890172E+02
  0
VERTEX
  8
0
 62
4
 10
-6.07999981E+01
 20
2.34014800E+02
  0
VERTEX
  8
0
 62
4
 10
-6.05498382E+01
 20
2.34159820E+02
  0
VERTEX
  8
0
 62
4
 10
-6.03145202E+01
 20
2.34324128E+02
  0
VERTEX
  8
0
 62
4
 10
-6.00958350E+01
 20
2.34506474E+02
  0
VERTEX
  8
0
 62
4
 10
-5.98954470E+01
 20
2.34705469E+02
  0
VERTEX
  8
0
 62
4
 10
-5.97148811E+01
 20
2.34919599E+02
  0
VERTEX
  8
0
 62
4
 10
-5.95555117E+01
 20
2.35147235E+02
  0
VERTEX
  8
0
 62
4
 10
-5.94185516E+01
 20
2.35386644E+02
  0
VERTEX
  8
0
 62
4
 10
-5.93050432E+01
 20
2.35636004E+02
  0
VERTEX
  8
0
 62
4
 10
-5.92158503E+01
 20
2.35893417E+02
  0
VERTEX
  8
0
 62
4
 10
-5.91516517E+01
 20
2.36156924E+02
  0
VERTEX
  8
0
 62
4
 10
-5.91129361E+01
 20
2.36424521E+02
  0
VERTEX
  8
0
 62
4
 10
-5.90999981E+01
 20
2.36694169E+02
  0
VERTEX
  8
0
 62
4
 10
-5.91129361E+01
 20
2.36963817E+02
  0
VERTEX
  8
0
 62
4
 10
-5.91516517E+01
 20
2.37231414E+02
  0
VERTEX
  8
0
 62
4
 10
-5.92158503E+01
 20
2.37494921E+02
  0
VERTEX
  8
0
 62
4
 10
-5.93050432E+01
 20
2.37752334E+02
  0
VERTEX
  8
0
 62
4
 10
-5.94185516E+01
 20
2.38001694E+02
  0
VERTEX
  8
0
 62
4
 10
-5.95555117E+01
 20
2.38241103E+02
  0
VERTEX
  8
0
 62
4
 10
-5.97148811E+01
 20
2.38468739E+02
  0
VERTEX
  8
0
 62
4
 10
-5.98954470E+01
 20
2.38682869E+02
  0
VERTEX
  8
0
 62
4
 10
-6.00958350E+01
 20
2.38881864E+02
  0
VERTEX
  8
0
 62
4
 10
-6.03145202E+01
 20
2.39064210E+02
  0
VERTEX
  8
0
 62
4
 10
-6.05498382E+01
 20
2.39228518E+02
  0
VERTEX
  8
0
 62
4
 10
-6.07999981E+01
 20
2.39373538E+02
  0
VERTEX
  8
0
 62
4
 10
-6.10630960E+01
 20
2.39498166E+02
  0
VERTEX
  8
0
 62
4
 10
-6.13371296E+01
 20
2.39601454E+02
  0
VERTEX
  8
0
 62
4
 10
-6.16200133E+01
 20
2.39682616E+02
  0
VERTEX
  8
0
 62
4
 10
-6.19095943E+01
 20
2.39741035E+02
  0
VERTEX
  8
0
 62
4
 10
-6.22036686E+01
 20
2.39776264E+02
  0
VERTEX
  8
0
 62
4
 10
-6.24999981E+01
 20
2.39788037E+02
  0
VERTEX
  8
0
 62
4
 10
-6.27963276E+01
 20
2.39776264E+02
  0
VERTEX
  8
0
 62
4
 10
-6.30904019E+01
 20
2.39741035E+02
  0
VERTEX
  8
0
 62
4
 10
-6.33799829E+01
 20
2.39682616E+02
  0
VERTEX
  8
0
 62
4
 10
-6.36628666E+01
 20
2.39601454E+02
  0
VERTEX
  8
0
 62
4
 10
-6.39369002E+01
 20
2.39498166E+02
  0
VERTEX
  8
0
 62
4
 10
-6.41999981E+01
 20
2.39373538E+02
  0
VERTEX
  8
0
 62
4
 10
-6.44501580E+01
 20
2.39228518E+02
  0
VERTEX
  8
0
 62
4
 10
-6.46854760E+01
 20
2.39064210E+02
  0
VERTEX
  8
0
 62
4
 10
-6.49041612E+01
 20
2.38881864E+02
  0
VERTEX
  8
0
 62
4
 10
-6.51045492E+01
 20
2.38682869E+02
  0
VERTEX
  8
0
 62
4
 10
-6.52851151E+01
 20
2.38468739E+02
  0
VERTEX
  8
0
 62
4
 10
-6.54444845E+01
 20
2.38241103E+02
  0
VERTEX
  8
0
 62
4
 10
-6.55814446E+01
 20
2.38001694E+02
  0
VERTEX
  8
0
 62
4
 10
-6.56949530E+01
 20
2.37752334E+02
  0
VERTEX
  8
0
 62
4
 10
-6.57841459E+01
 20
2.37494921E+02
  0
VERTEX
  8
0
 62
4
 10
-6.58483445E+01
 20
2.37231414E+02
  0
VERTEX
  8
0
 62
4
 10
-6.58870601E+01
 20
2.36963817E+02
  0
VERTEX
  8
0
 62
4
 10
-6.58999981E+01
 20
2.36694169E+02
  0
SEQEND
  8
0
  0
POLYLINE
  8
0
 62
4
 66
1
  0
VERTEX
  8
0
 62
4
 10
-6.58999981E+01
 20
2.36225232E+02
  0
VERTEX
  8
0
 62
4
 10
-6.58863107E+01
 20
2.35947900E+02
  0
VERTEX
  8
0
 62
4
 10
-6.58453587E+01
 20
2.35672800E+02
  0
VERTEX
  8
0
 62
4
 10
-6.57774719E+01
 20
2.35402149E+02
  0
VERTEX
  8
0
 62
4
 10
-6.56831967E+01
 20
2.35138125E+02
  0
VERTEX
  8
0
 62
4
 10
-6.55632923E+01
 20
2.34882853E+02
  0
VERTEX
  8
0
 62
4
 10
-6.54187240E+01
 20
2.34638389E+02
  0
VERTEX
  8
0
 62
4
 10
-6.52506559E+01
 20
2.34406702E+02
  0
VERTEX
  8
0
 62
4
 10
-6.50604411E+01
 20
2.34189656E+02
  0
VERTEX
  8
0
 62
4
 10
-6.48496111E+01
 20
2.33989000E+02
  0
VERTEX
  8
0
 62
4
 10
-6.46198635E+01
 20
2.33806348E+02
  0
VERTEX
  8
0
 62
4
 10
-6.43730479E+01
 20
2.33643172E+02
  0
VERTEX
  8
0
 62
4
 10
-6.41111516E+01
 20
2.33500785E+02
  0
VERTEX
  8
0
 62
4
 10
-6.38362832E+01
 20
2.33380334E+02
  0
VERTEX
  8
0
 62
4
 10
-6.35506559E+01
 20
2.33282788E+02
  0
VERTEX
  8
0
 62
4
 10
-6.32565693E+01
 20
2.33208933E+02
  0
VERTEX
  8
0
 62
4
 10
-6.29563912E+01
 20
2.33159364E+02
  0
VERTEX
  8
0
 62
4
 10
-6.26525385E+01
 20
2.33134479E+02
  0
VERTEX
  8
0
 62
4
 10
-6.23474577E+01
 20
2.33134479E+02
  0
VERTEX
  8
0
 62
4
 10
-6.20436050E+01
 20
2.33159364E+02
  0
VERTEX
  8
0
 62
4
 10
-6.17434269E+01
 20
2.33208933E+02
  0
VERTEX
  8
0
 62
4
 10
-6.14493403E+01
 20
2.33282788E+02
  0
VERTEX
  8
0
 62
4
 10
-6.11637130E+01
 20
2.33380334E+02
  0
VERTEX
  8
0
 62
4
 10
-6.08888447E+01
 20
2.33500785E+02
  0
VERTEX
  8
0
 62
4
 10
-6.06269484E+01
 20
2.33643172E+02
  0
VERTEX
  8
0
 62
4
 10
-6.03801328E+01
 20
2.33806348E+02
  0
VERTEX
  8
0
 62
4
 10
-6.01503851E+01
 20
2.33989000E+02
  0
VERTEX
  8
0
 62
4
 10
-5.99395551E+01
 20
2.34189656E+02
  0
VERTEX
  8
0
 62
4
 10
-5.97493403E+01
 20
2.34406702E+02
  0
VERTEX
  8
0
 62
4
 10
-5.95812722E+01
 20
2.34638389E+02
  0
VERTEX
  8
0
 62
4
 10
-5.94367039E+01
 20
2.34882853E+02
  0
VERTEX
  8
0
 62
4
 10
-5.93167995E+01
 20
2.35138125E+02
  0
VERTEX
  8
0
 62
4
 10
-5.92225244E+01
 20
2.35402149E+02
  0
VERTEX
  8
0
 62
4
 10
-5.91546375E+01
 20
2.35672800E+02
  0
VERTEX
  8
0
 62
4
 10
-5.91136855E+01
 20
2.35947900E+02
  0
VERTEX
  8
0
 62
4
 10
-5.90999981E+01
 20
2.36225232E+02
  0
SEQEND
  8
0
  0
POLYLINE
  8
0
 62
4
 66
1
  0
VERTEX
  8
0
 62
4
 10
-6.47639664E+01
 20
2.39002396E+02
  0
VERTEX
  8
0
 62
4
 10
-6.50229686E+01
 20
2.38810967E+02
  0
VERTEX
  8
0
 62
4
 10
-6.52625178E+01
 20
2.38599601E+02
  0
VERTEX
  8
0
 62
4
 10
-6.54807669E+01
 20
2.38369927E+02
  0
VERTEX
  8
0
 62
4
 10
-6.56760332E+01
 20
2.38123718E+02
  0
VERTEX
  8
0
 62
4
 10
-6.58468110E+01
 20
2.37862870E+02
  0
VERTEX
  8
0
 62
4
 10
-6.59917836E+01
 20
2.37589395E+02
  0
VERTEX
  8
0
 62
4
 10
-6.61098332E+01
 20
2.37305403E+02
  0
VERTEX
  8
0
 62
4
 10
-6.62000496E+01
 20
2.37013081E+02
  0
VERTEX
  8
0
 62
4
 10
-6.62617372E+01
 20
2.36714685E+02
  0
VERTEX
  8
0
 62
4
 10
-6.62944204E+01
 20
2.36412516E+02
  0
VERTEX
  8
0
 62
4
 10
-6.62978471E+01
 20
2.36108902E+02
  0
VERTEX
  8
0
 62
4
 10
-6.62719909E+01
 20
2.35806185E+02
  0
VERTEX
  8
0
 62
4
 10
-6.62170513E+01
 20
2.35506699E+02
  0
VERTEX
  8
0
 62
4
 10
-6.61334518E+01
 20
2.35212753E+02
  0
VERTEX
  8
0
 62
4
 10
-6.60218369E+01
 20
2.34926614E+02
  0
VERTEX
  8
0
 62
4
 10
-6.58830673E+01
 20
2.34650488E+02
  0
VERTEX
  8
0
 62
4
 10
-6.57182130E+01
 20
2.34386504E+02
  0
VERTEX
  8
0
 62
4
 10
-6.55285450E+01
 20
2.34136697E+02
  0
VERTEX
  8
0
 62
4
 10
-6.53155258E+01
 20
2.33902993E+02
  0
VERTEX
  8
0
 62
4
 10
-6.50807977E+01
 20
2.33687195E+02
  0
VERTEX
  8
0
 62
4
 10
-6.48261708E+01
 20
2.33490966E+02
  0
VERTEX
  8
0
 62
4
 10
-6.45536081E+01
 20
2.33315819E+02
  0
VERTEX
  8
0
 62
4
 10
-6.42652113E+01
 20
2.33163105E+02
  0
VERTEX
  8
0
 62
4
 10
-6.39632041E+01
 20
2.33034001E+02
  0
VERTEX
  8
0
 62
4
 10
-6.36499150E+01
 20
2.32929502E+02
  0
VERTEX
  8
0
 62
4
 10
-6.33277595E+01
 20
2.32850415E+02
  0
VERTEX
  8
0
 62
4
 10
-6.29992218E+01
 20
2.32797349E+02
  0
VERTEX
  8
0
 62
4
 10
-6.26668348E+01
 20
2.32770713E+02
  0
VERTEX
  8
0
 62
4
 10
-6.23331615E+01
 20
2.32770713E+02
  0
VERTEX
  8
0
 62
4
 10
-6.20007745E+01
 20
2.32797349E+02
  0
VERTEX
  8
0
 62
4
 10
-6.16722367E+01
 20
2.32850415E+02
  0
VERTEX
  8
0
 62
4
 10
-6.13500813E+01
 20
2.32929502E+02
  0
VERTEX
  8
0
 62
4
 10
-6.10367922E+01
 20
2.33034000E+02
  0
VERTEX
  8
0
 62
4
 10
-6.07347849E+01
 20
2.33163104E+02
  0
VERTEX
  8
0
 62
4
 10
-6.04463882E+01
 20
2.33315819E+02
  0
VERTEX
  8
0
 62
4
 10
-6.01738255E+01
 20
2.33490966E+02
  0
VERTEX
  8
0
 62
4
 10
-5.99191985E+01
 20
2.33687195E+02
  0
VERTEX
  8
0
 62
4
 10
-5.96844705E+01
 20
2.33902993E+02
  0
VERTEX
  8
0
 62
4
 10
-5.94714512E+01
 20
2.34136697E+02
  0
VERTEX
  8
0
 62
4
 10
-5.92817832E+01
 20
2.34386504E+02
  0
VERTEX
  8
0
 62
4
 10
-5.91169289E+01
 20
2.34650488E+02
  0
VERTEX
  8
0
 62
4
 10
-5.89781593E+01
 20
2.34926614E+02
  0
VERTEX
  8
0
 62
4
 10
-5.88665445E+01
 20
2.35212753E+02
  0
VERTEX
  8
0
 62
4
 10
-5.87829449E+01
 20
2.35506699E+02
  0
VERTEX
  8
0
 62
4
 10
-5.87280053E+01
 20
2.35806185E+02
  0
VERTEX
  8
0
 62
4
 10
-5.87021491E+01
 20
2.36108902E+02
  0
VERTEX
  8
0
 62
4
 10
-5.87055758E+01
 20
2.36412516E+02
  0
VERTEX
  8
0
 62
4
 10
-5.87382590E+01
 20
2.36714685E+02
  0
VERTEX
  8
0
 62
4
 10
-5.87999466E+01
 20
2.37013081E+02
  0
VERTEX
  8
0
 62
4
 10
-5.88901630E+01
 20
2.37305403E+02
  0
VERTEX
  8
0
 62
4
 10
-5.90082126E+01
 20
2.37589395E+02
  0
VERTEX
  8
0
 62
4
 10
-5.91531852E+01
 20
2.37862870E+02
  0
VERTEX
  8
0
 62
4
 10
-5.93239630E+01
 20
2.38123718E+02
  0
VERTEX
  8
0
 62
4
 10
-5.95192292E+01
 20
2.38369927E+02
  0
VERTEX
  8
0
 62
4
 10
-5.97374784E+01
 20
2.38599601E+02
  0
VERTEX
  8
0
 62
4
 10
-5.99770275E+01
 20
2.38810967E+02
  0
VERTEX
  8
0
 62
4
 10
-6.02360298E+01
 20
2.39002396E+02
  0
SEQEND
  8
0
  0
LINE
  8
0
 62
4
 10
-8.49999981E+01
 20
2.30069725E+02
 11
-8.49999981E+01
 21
2.30000015E+02
  0
LINE
  8
0
 62
4
 10
-8.49999981E+01
 20
2.30069725E+02
 11
-7.28861708E+01
 21
2.30069725E+02
  0
LINE
  8
0
 62
4
 10
-8.49999981E+01
 20
2.30069725E+02
 11
-8.50907311E+01
 21
2.30000015E+02
  0
POLYLINE
  8
0
 62
4
 66
1
  0
VERTEX
  8
0
 62
4
 10
-2.04999790E+01
 20
2.11830530E+02
  0
VERTEX
  8
0
 62
4
 10
-2.05080304E+01
 20
2.11993667E+02
  0
VERTEX
  8
0
 62
4
 10
-2.05321198E+01
 20
2.12155490E+02
  0
VERTEX
  8
0
 62
4
 10
-2.05720533E+01
 20
2.12314696E+02
  0
VERTEX
  8
0
 62
4
 10
-2.06275093E+01
 20
2.12470005E+02
  0
VERTEX
  8
0
 62
4
 10
-2.06980413E+01
 20
2.12620165E+02
  0
VERTEX
  8
0
 62
4
 10
-2.07830814E+01
 20
2.12763967E+02
  0
VERTEX
  8
0
 62
4
 10
-2.08819450E+01
 20
2.12900254E+02
  0
VERTEX
  8
0
 62
4
 10
-2.09938361E+01
 20
2.13027927E+02
  0
VERTEX
  8
0
 62
4
 10
-2.11178537E+01
 20
2.13145961E+02
  0
VERTEX
  8
0
 62
4
 10
-2.12529994E+01
 20
2.13253403E+02
  0
VERTEX
  8
0
 62
4
 10
-2.13981850E+01
 20
2.13349389E+02
  0
VERTEX
  8
0
 62
4
 10
-2.15522417E+01
 20
2.13433146E+02
  0
VERTEX
  8
0
 62
4
 10
-2.17139289E+01
 20
2.13503999E+02
  0
VERTEX
  8
0
 62
4
 10
-2.18819450E+01
 20
2.13561379E+02
  0
VERTEX
  8
0
 62
4
 10
-2.20549371E+01
 20
2.13604823E+02
  0
VERTEX
  8
0
 62
4
 10
-2.22315125E+01
 20
2.13633982E+02
  0
VERTEX
  8
0
 62
4
 10
-2.24102493E+01
 20
2.13648620E+02
  0
VERTEX
  8
0
 62
4
 10
-2.25897086E+01
 20
2.13648620E+02
  0
VERTEX
  8
0
 62
4
 10
-2.27684455E+01
 20
2.13633982E+02
  0
VERTEX
  8
0
 62
4
 10
-2.29450209E+01
 20
2.13604823E+02
  0
VERTEX
  8
0
 62
4
 10
-2.31180130E+01
 20
2.13561379E+02
  0
VERTEX
  8
0
 62
4
 10
-2.32860290E+01
 20
2.13503999E+02
  0
VERTEX
  8
0
 62
4
 10
-2.34477163E+01
 20
2.13433146E+02
  0
VERTEX
  8
0
 62
4
 10
-2.36017729E+01
 20
2.13349389E+02
  0
VERTEX
  8
0
 62
4
 10
-2.37469586E+01
 20
2.13253403E+02
  0
VERTEX
  8
0
 62
4
 10
-2.38821043E+01
 20
2.13145961E+02
  0
VERTEX
  8
0
 62
4
 10
-2.40061219E+01
 20
2.13027927E+02
  0
VERTEX
  8
0
 62
4
 10
-2.41180130E+01
 20
2.12900254E+02
  0
VERTEX
  8
0
 62
4
 10
-2.42168766E+01
 20
2.12763967E+02
  0
VERTEX
  8
0
 62
4
 10
-2.43019167E+01
 20
2.12620165E+02
  0
VERTEX
  8
0
 62
4
 10
-2.43724487E+01
 20
2.12470005E+02
  0
VERTEX
  8
0
 62
4
 10
-2.44279047E+01
 20
2.12314696E+02
  0
VERTEX
  8
0
 62
4
 10
-2.44678382E+01
 20
2.12155490E+02
  0
VERTEX
  8
0
 62
4
 10
-2.44919276E+01
 20
2.11993667E+02
  0
VERTEX
  8
0
 62
4
 10
-2.44999790E+01
 20
2.11830530E+02
  0
SEQEND
  8
0
  0
LINE
  8
0
 62
4
 10
-2.44999790E+01
 20
2.10195613E+02
 11
-2.44999790E+01
 21
2.11830530E+02
  0
POLYLINE
  8
0
 62
4
 66
1
  0
VERTEX
  8
0
 62
4
 10
-2.44999790E+01
 20
2.10195613E+02
  0
VERTEX
  8
0
 62
4
 10
-2.44923684E+01
 20
2.10036996E+02
  0
VERTEX
  8
0
 62
4
 10
-2.44695945E+01
 20
2.09879587E+02
  0
VERTEX
  8
0
 62
4
 10
-2.44318307E+01
 20
2.09724582E+02
  0
VERTEX
  8
0
 62
4
 10
-2.43793642E+01
 20
2.09573163E+02
  0
VERTEX
  8
0
 62
4
 10
-2.43125946E+01
 20
2.09426481E+02
  0
VERTEX
  8
0
 62
4
 10
-2.42320298E+01
 20
2.09285652E+02
  0
VERTEX
  8
0
 62
4
 10
-2.41382831E+01
 20
2.09151748E+02
  0
VERTEX
  8
0
 62
4
 10
-2.40320679E+01
 20
2.09025789E+02
  0
VERTEX
  8
0
 62
4
 10
-2.39141926E+01
 20
2.08908733E+02
  0
VERTEX
  8
0
 62
4
 10
-2.37855542E+01
 20
2.08801472E+02
  0
VERTEX
  8
0
 62
4
 10
-2.36471319E+01
 20
2.08704820E+02
  0
VERTEX
  8
0
 62
4
 10
-2.34999790E+01
 20
2.08619514E+02
  0
VERTEX
  8
0
 62
4
 10
-2.33452155E+01
 20
2.08546203E+02
  0
VERTEX
  8
0
 62
4
 10
-2.31840193E+01
 20
2.08485445E+02
  0
VERTEX
  8
0
 62
4
 10
-2.30176171E+01
 20
2.08437703E+02
  0
VERTEX
  8
0
 62
4
 10
-2.28472754E+01
 20
2.08403339E+02
  0
VERTEX
  8
0
 62
4
 10
-2.26742905E+01
 20
2.08382616E+02
  0
VERTEX
  8
0
 62
4
 10
-2.24999790E+01
 20
2.08375691E+02
  0
VERTEX
  8
0
 62
4
 10
-2.23256675E+01
 20
2.08382616E+02
  0
VERTEX
  8
0
 62
4
 10
-2.21526826E+01
 20
2.08403339E+02
  0
VERTEX
  8
0
 62
4
 10
-2.19823409E+01
 20
2.08437703E+02
  0
VERTEX
  8
0
 62
4
 10
-2.18159387E+01
 20
2.08485445E+02
  0
VERTEX
  8
0
 62
4
 10
-2.16547425E+01
 20
2.08546203E+02
  0
VERTEX
  8
0
 62
4
 10
-2.14999790E+01
 20
2.08619514E+02
  0
VERTEX
  8
0
 62
4
 10
-2.13528261E+01
 20
2.08704820E+02
  0
VERTEX
  8
0
 62
4
 10
-2.12144038E+01
 20
2.08801471E+02
  0
VERTEX
  8
0
 62
4
 10
-2.10857654E+01
 20
2.08908733E+02
  0
VERTEX
  8
0
 62
4
 10
-2.09678901E+01
 20
2.09025789E+02
  0
VERTEX
  8
0
 62
4
 10
-2.08616749E+01
 20
2.09151748E+02
  0
VERTEX
  8
0
 62
4
 10
-2.07679282E+01
 20
2.09285652E+02
  0
VERTEX
  8
0
 62
4
 10
-2.06873634E+01
 20
2.09426481E+02
  0
VERTEX
  8
0
 62
4
 10
-2.06205938E+01
 20
2.09573163E+02
  0
VERTEX
  8
0
 62
4
 10
-2.05681273E+01
 20
2.09724582E+02
  0
VERTEX
  8
0
 62
4
 10
-2.05303635E+01
 20
2.09879587E+02
  0
VERTEX
  8
0
 62
4
 10
-2.05075896E+01
 20
2.10036996E+02
  0
VERTEX
  8
0
 62
4
 10
-2.04999790E+01
 20
2.10195613E+02
  0
VERTEX
  8
0
 62
4
 10
-2.05075896E+01
 20
2.10354230E+02
  0
VERTEX
  8
0
 62
4
 10
-2.05303635E+01
 20
2.10511639E+02
  0
VERTEX
  8
0
 62
4
 10
-2.05681273E+01
 20
2.10666644E+02
  0
VERTEX
  8
0
 62
4
 10
-2.06205938E+01
 20
2.10818063E+02
  0
VERTEX
  8
0
 62
4
 10
-2.06873634E+01
 20
2.10964745E+02
  0
VERTEX
  8
0
 62
4
 10
-2.07679282E+01
 20
2.11105574E+02
  0
VERTEX
  8
0
 62
4
 10
-2.08616749E+01
 20
2.11239478E+02
  0
VERTEX
  8
0
 62
4
 10
-2.09678901E+01
 20
2.11365437E+02
  0
VERTEX
  8
0
 62
4
 10
-2.10857654E+01
 20
2.11482493E+02
  0
VERTEX
  8
0
 62
4
 10
-2.12144038E+01
 20
2.11589755E+02
  0
VERTEX
  8
0
 62
4
 10
-2.13528261E+01
 20
2.11686406E+02
  0
VERTEX
  8
0
 62
4
 10
-2.14999790E+01
 20
2.11771712E+02
  0
VERTEX
  8
0
 62
4
 10
-2.16547425E+01
 20
2.11845023E+02
  0
VERTEX
  8
0
 62
4
 10
-2.18159387E+01
 20
2.11905781E+02
  0
VERTEX
  8
0
 62
4
 10
-2.19823409E+01
 20
2.11953523E+02
  0
VERTEX
  8
0
 62
4
 10
-2.21526826E+01
 20
2.11987887E+02
  0
VERTEX
  8
0
 62
4
 10
-2.23256675E+01
 20
2.12008610E+02
  0
VERTEX
  8
0
 62
4
 10
-2.24999790E+01
 20
2.12015535E+02
  0
VERTEX
  8
0
 62
4
 10
-2.26742905E+01
 20
2.12008610E+02
  0
VERTEX
  8
0
 62
4
 10
-2.28472754E+01
 20
2.11987887E+02
  0
VERTEX
  8
0
 62
4
 10
-2.30176171E+01
 20
2.11953523E+02
  0
VERTEX
  8
0
 62
4
 10
-2.31840193E+01
 20
2.11905781E+02
  0
VERTEX
  8
0
 62
4
 10
-2.33452155E+01
 20
2.11845023E+02
  0
VERTEX
  8
0
 62
4
 10
-2.34999790E+01
 20
2.11771712E+02
  0
VERTEX
  8
0
 62
4
 10
-2.36471319E+01
 20
2.11686406E+02
  0
VERTEX
  8
0
 62
4
 10
-2.37855542E+01
 20
2.11589755E+02
  0
VERTEX
  8
0
 62
4
 10
-2.39141926E+01
 20
2.11482493E+02
  0
VERTEX
  8
0
 62
4
 10
-2.40320679E+01
 20
2.11365437E+02
  0
VERTEX
  8
0
 62
4
 10
-2.41382831E+01
 20
2.11239478E+02
  0
VERTEX
  8
0
 62
4
 10
-2.42320298E+01
 20
2.11105574E+02
  0
VERTEX
  8
0
 62
4
 10
-2.43125946E+01
 20
2.10964745E+02
  0
VERTEX
  8
0
 62
4
 10
-2.43793642E+01
 20
2.10818063E+02
  0
VERTEX
  8
0
 62
4
 10
-2.44318307E+01
 20
2.10666644E+02
  0
VERTEX
  8
0
 62
4
 10
-2.44695945E+01
 20
2.10511639E+02
  0
VERTEX
  8
0
 62
4
 10
-2.44923684E+01
 20
2.10354230E+02
  0
VERTEX
  8
0
 62
4
 10
-2.44999790E+01
 20
2.10195613E+02
  0
SEQEND
  8
0
  0
LINE
  8
0
 62
4
 10
-2.04999790E+01
 20
2.10195613E+02
 11
-2.04999790E+01
 21
2.11830530E+02
  0
POLYLINE
  8
0
 62
6
 66
1
  0
VERTEX
  8
0
 62
6
 10
-2.39999790E+01
 20
2.10195613E+02
  0
VERTEX
  8
0
 62
6
 10
-2.39942711E+01
 20
2.10076650E+02
  0
VERTEX
  8
0
 62
6
 10
-2.39771907E+01
 20
2.09958593E+02
  0
VERTEX
  8
0
 62
6
 10
-2.39488678E+01
 20
2.09842340E+02
  0
VERTEX
  8
0
 62
6
 10
-2.39095180E+01
 20
2.09728775E+02
  0
VERTEX
  8
0
 62
6
 10
-2.38594407E+01
 20
2.09618764E+02
  0
VERTEX
  8
0
 62
6
 10
-2.37990171E+01
 20
2.09513142E+02
  0
VERTEX
  8
0
 62
6
 10
-2.37287071E+01
 20
2.09412714E+02
  0
VERTEX
  8
0
 62
6
 10
-2.36490457E+01
 20
2.09318245E+02
  0
VERTEX
  8
0
 62
6
 10
-2.35606392E+01
 20
2.09230453E+02
  0
VERTEX
  8
0
 62
6
 10
-2.34641604E+01
 20
2.09150007E+02
  0
VERTEX
  8
0
 62
6
 10
-2.33603437E+01
 20
2.09077518E+02
  0
VERTEX
  8
0
 62
6
 10
-2.32499790E+01
 20
2.09013539E+02
  0
VERTEX
  8
0
 62
6
 10
-2.31339064E+01
 20
2.08958556E+02
  0
VERTEX
  8
0
 62
6
 10
-2.30130092E+01
 20
2.08912987E+02
  0
VERTEX
  8
0
 62
6
 10
-2.28882076E+01
 20
2.08877180E+02
  0
VERTEX
  8
0
 62
6
 10
-2.27604513E+01
 20
2.08851408E+02
  0
VERTEX
  8
0
 62
6
 10
-2.26307126E+01
 20
2.08835865E+02
  0
VERTEX
  8
0
 62
6
 10
-2.24999790E+01
 20
2.08830671E+02
  0
VERTEX
  8
0
 62
6
 10
-2.23692454E+01
 20
2.08835865E+02
  0
VERTEX
  8
0
 62
6
 10
-2.22395067E+01
 20
2.08851408E+02
  0
VERTEX
  8
0
 62
6
 10
-2.21117504E+01
 20
2.08877180E+02
  0
VERTEX
  8
0
 62
6
 10
-2.19869488E+01
 20
2.08912987E+02
  0
VERTEX
  8
0
 62
6
 10
-2.18660516E+01
 20
2.08958556E+02
  0
VERTEX
  8
0
 62
6
 10
-2.17499790E+01
 20
2.09013539E+02
  0
VERTEX
  8
0
 62
6
 10
-2.16396143E+01
 20
2.09077518E+02
  0
VERTEX
  8
0
 62
6
 10
-2.15357976E+01
 20
2.09150007E+02
  0
VERTEX
  8
0
 62
6
 10
-2.14393188E+01
 20
2.09230453E+02
  0
VERTEX
  8
0
 62
6
 10
-2.13509123E+01
 20
2.09318245E+02
  0
VERTEX
  8
0
 62
6
 10
-2.12712509E+01
 20
2.09412714E+02
  0
VERTEX
  8
0
 62
6
 10
-2.12009409E+01
 20
2.09513142E+02
  0
VERTEX
  8
0
 62
6
 10
-2.11405173E+01
 20
2.09618764E+02
  0
VERTEX
  8
0
 62
6
 10
-2.10904401E+01
 20
2.09728775E+02
  0
VERTEX
  8
0
 62
6
 10
-2.10510902E+01
 20
2.09842340E+02
  0
VERTEX
  8
0
 62
6
 10
-2.10227674E+01
 20
2.09958593E+02
  0
VERTEX
  8
0
 62
6
 10
-2.10056869E+01
 20
2.10076650E+02
  0
VERTEX
  8
0
 62
6
 10
-2.09999790E+01
 20
2.10195613E+02
  0
VERTEX
  8
0
 62
6
 10
-2.10056869E+01
 20
2.10314576E+02
  0
VERTEX
  8
0
 62
6
 10
-2.10227674E+01
 20
2.10432633E+02
  0
VERTEX
  8
0
 62
6
 10
-2.10510902E+01
 20
2.10548886E+02
  0
VERTEX
  8
0
 62
6
 10
-2.10904400E+01
 20
2.10662451E+02
  0
VERTEX
  8
0
 62
6
 10
-2.11405173E+01
 20
2.10772462E+02
  0
VERTEX
  8
0
 62
6
 10
-2.12009409E+01
 20
2.10878084E+02
  0
VERTEX
  8
0
 62
6
 10
-2.12712509E+01
 20
2.10978512E+02
  0
VERTEX
  8
0
 62
6
 10
-2.13509123E+01
 20
2.11072981E+02
  0
VERTEX
  8
0
 62
6
 10
-2.14393188E+01
 20
2.11160773E+02
  0
VERTEX
  8
0
 62
6
 10
-2.15357976E+01
 20
2.11241219E+02
  0
VERTEX
  8
0
 62
6
 10
-2.16396143E+01
 20
2.11313708E+02
  0
VERTEX
  8
0
 62
6
 10
-2.17499790E+01
 20
2.11377687E+02
  0
VERTEX
  8
0
 62
6
 10
-2.18660516E+01
 20
2.11432670E+02
  0
VERTEX
  8
0
 62
6
 10
-2.19869488E+01
 20
2.11478239E+02
  0
VERTEX
  8
0
 62
6
 10
-2.21117504E+01
 20
2.11514046E+02
  0
VERTEX
  8
0
 62
6
 10
-2.22395067E+01
 20
2.11539818E+02
  0
VERTEX
  8
0
 62
6
 10
-2.23692454E+01
 20
2.11555361E+02
  0
VERTEX
  8
0
 62
6
 10
-2.24999790E+01
 20
2.11560555E+02
  0
VERTEX
  8
0
 62
6
 10
-2.26307126E+01
 20
2.11555361E+02
  0
VERTEX
  8
0
 62
6
 10
-2.27604513E+01
 20
2.11539818E+02
  0
VERTEX
  8
0
 62
6
 10
-2.28882076E+01
 20
2.11514046E+02
  0
VERTEX
  8
0
 62
6
 10
-2.30130092E+01
 20
2.11478239E+02
  0
VERTEX
  8
0
 62
6
 10
-2.31339064E+01
 20
2.11432670E+02
  0
VERTEX
  8
0
 62
6
 10
-2.32499790E+01
 20
2.11377687E+02
  0
VERTEX
  8
0
 62
6
 10
-2.33603437E+01
 20
2.11313708E+02
  0
VERTEX
  8
0
 62
6
 10
-2.34641604E+01
 20
2.11241219E+02
  0
VERTEX
  8
0
 62
6
 10
-2.35606392E+01
 20
2.11160773E+02
  0
VERTEX
  8
0
 62
6
 10
-2.36490457E+01
 20
2.11072981E+02
  0
VERTEX
  8
0
 62
6
 10
-2.37287071E+01
 20
2.10978512E+02
  0
VERTEX
  8
0
 62
6
 10
-2.37990171E+01
 20
2.10878084E+02
  0
VERTEX
  8
0
 62
6
 10
-2.38594407E+01
 20
2.10772462E+02
  0
VERTEX
  8
0
 62
6
 10
-2.39095179E+01
 20
2.10662451E+02
  0
VERTEX
  8
0
 62
6
 10
-2.39488678E+01
 20
2.10548886E+02
  0
VERTEX
  8
0
 62
6
 10
-2.39771906E+01
 20
2.10432633E+02
  0
VERTEX
  8
0
 62
6
 10
-2.39942711E+01
 20
2.10314576E+02
  0
VERTEX
  8
0
 62
6
 10
-2.39999790E+01
 20
2.10195613E+02
  0
SEQEND
  8
0
  0
LINE
  8
0
 62
4
 10
-2.34999790E+01
 20
2.09667835E+02
 11
-2.34999790E+01
 21
2.10723391E+02
  0
LINE
  8
0
 62
4
 10
-2.24999790E+01
 20
2.11242068E+02
 11
-2.34999790E+01
 21
2.10723391E+02
  0
LINE
  8
0
 62
4
 10
-2.24999790E+01
 20
2.09140058E+02
 11
-2.34999790E+01
 21
2.09667835E+02
  0
LINE
  8
0
 62
4
 10
-2.24999790E+01
 20
2.11242068E+02
 11
-2.14999790E+01
 21
2.10723391E+02
  0
LINE
  8
0
 62
4
 10
-2.14999790E+01
 20
2.09667835E+02
 11
-2.14999790E+01
 21
2.10723391E+02
  0
LINE
  8
0
 62
4
 10
-2.24999790E+01
 20
2.09140058E+02
 11
-2.14999790E+01
 21
2.09667835E+02
  0
LINE
  8
0
 62
4
 10
-1.44999790E+01
 20
2.09140058E+02
 11
-1.34999790E+01
 21
2.09667835E+02
  0
LINE
  8
0
 62
4
 10
-1.34999790E+01
 20
2.09667835E+02
 11
-1.34999790E+01
 21
2.10723391E+02
  0
LINE
  8
0
 62
4
 10
-1.44999790E+01
 20
2.11242068E+02
 11
-1.34999790E+01
 21
2.10723391E+02
  0
LINE
  8
0
 62
4
 10
-1.44999790E+01
 20
2.09140058E+02
 11
-1.54999790E+01
 21
2.09667835E+02
  0
LINE
  8
0
 62
4
 10
-1.44999790E+01
 20
2.11242068E+02
 11
-1.54999790E+01
 21
2.10723391E+02
  0
LINE
  8
0
 62
4
 10
-1.54999790E+01
 20
2.09667835E+02
 11
-1.54999790E+01
 21
2.10723391E+02
  0
POLYLINE
  8
0
 62
6
 66
1
  0
VERTEX
  8
0
 62
6
 10
-1.59999790E+01
 20
2.10195613E+02
  0
VERTEX
  8
0
 62
6
 10
-1.59942711E+01
 20
2.10076650E+02
  0
VERTEX
  8
0
 62
6
 10
-1.59771907E+01
 20
2.09958593E+02
  0
VERTEX
  8
0
 62
6
 10
-1.59488678E+01
 20
2.09842340E+02
  0
VERTEX
  8
0
 62
6
 10
-1.59095180E+01
 20
2.09728775E+02
  0
VERTEX
  8
0
 62
6
 10
-1.58594407E+01
 20
2.09618764E+02
  0
VERTEX
  8
0
 62
6
 10
-1.57990171E+01
 20
2.09513142E+02
  0
VERTEX
  8
0
 62
6
 10
-1.57287071E+01
 20
2.09412714E+02
  0
VERTEX
  8
0
 62
6
 10
-1.56490457E+01
 20
2.09318245E+02
  0
VERTEX
  8
0
 62
6
 10
-1.55606392E+01
 20
2.09230453E+02
  0
VERTEX
  8
0
 62
6
 10
-1.54641604E+01
 20
2.09150007E+02
  0
VERTEX
  8
0
 62
6
 10
-1.53603437E+01
 20
2.09077518E+02
  0
VERTEX
  8
0
 62
6
 10
-1.52499790E+01
 20
2.09013539E+02
  0
VERTEX
  8
0
 62
6
 10
-1.51339064E+01
 20
2.08958556E+02
  0
VERTEX
  8
0
 62
6
 10
-1.50130092E+01
 20
2.08912987E+02
  0
VERTEX
  8
0
 62
6
 10
-1.48882076E+01
 20
2.08877180E+02
  0
VERTEX
  8
0
 62
6
 10
-1.47604513E+01
 20
2.08851408E+02
  0
VERTEX
  8
0
 62
6
 10
-1.46307126E+01
 20
2.08835865E+02
  0
VERTEX
  8
0
 62
6
 10
-1.44999790E+01
 20
2.08830671E+02
  0
VERTEX
  8
0
 62
6
 10
-1.43692454E+01
 20
2.08835865E+02
  0
VERTEX
  8
0
 62
6
 10
-1.42395067E+01
 20
2.08851408E+02
  0
VERTEX
  8
0
 62
6
 10
-1.41117504E+01
 20
2.08877180E+02
  0
VERTEX
  8
0
 62
6
 10
-1.39869488E+01
 20
2.08912987E+02
  0
VERTEX
  8
0
 62
6
 10
-1.38660516E+01
 20
2.08958556E+02
  0
VERTEX
  8
0
 62
6
 10
-1.37499790E+01
 20
2.09013539E+02
  0
VERTEX
  8
0
 62
6
 10
-1.36396143E+01
 20
2.09077518E+02
  0
VERTEX
  8
0
 62
6
 10
-1.35357976E+01
 20
2.09150007E+02
  0
VERTEX
  8
0
 62
6
 10
-1.34393188E+01
 20
2.09230453E+02
  0
VERTEX
  8
0
 62
6
 10
-1.33509123E+01
 20
2.09318245E+02
  0
VERTEX
  8
0
 62
6
 10
-1.32712509E+01
 20
2.09412714E+02
  0
VERTEX
  8
0
 62
6
 10
-1.32009409E+01
 20
2.09513142E+02
  0
VERTEX
  8
0
 62
6
 10
-1.31405173E+01
 20
2.09618764E+02
  0
VERTEX
  8
0
 62
6
 10
-1.30904401E+01
 20
2.09728775E+02
  0
VERTEX
  8
0
 62
6
 10
-1.30510902E+01
 20
2.09842340E+02
  0
VERTEX
  8
0
 62
6
 10
-1.30227674E+01
 20
2.09958593E+02
  0
VERTEX
  8
0
 62
6
 10
-1.30056869E+01
 20
2.10076650E+02
  0
VERTEX
  8
0
 62
6
 10
-1.29999790E+01
 20
2.10195613E+02
  0
VERTEX
  8
0
 62
6
 10
-1.30056869E+01
 20
2.10314576E+02
  0
VERTEX
  8
0
 62
6
 10
-1.30227674E+01
 20
2.10432633E+02
  0
VERTEX
  8
0
 62
6
 10
-1.30510902E+01
 20
2.10548886E+02
  0
VERTEX
  8
0
 62
6
 10
-1.30904400E+01
 20
2.10662451E+02
  0
VERTEX
  8
0
 62
6
 10
-1.31405173E+01
 20
2.10772462E+02
  0
VERTEX
  8
0
 62
6
 10
-1.32009409E+01
 20
2.10878084E+02
  0
VERTEX
  8
0
 62
6
 10
-1.32712509E+01
 20
2.10978512E+02
  0
VERTEX
  8
0
 62
6
 10
-1.33509123E+01
 20
2.11072981E+02
  0
VERTEX
  8
0
 62
6
 10
-1.34393188E+01
 20
2.11160773E+02
  0
VERTEX
  8
0
 62
6
 10
-1.35357976E+01
 20
2.11241219E+02
  0
VERTEX
  8
0
 62
6
 10
-1.36396143E+01
 20
2.11313708E+02
  0
VERTEX
  8
0
 62
6
 10
-1.37499790E+01
 20
2.11377687E+02
  0
VERTEX
  8
0
 62
6
 10
-1.38660516E+01
 20
2.11432670E+02
  0
VERTEX
  8
0
 62
6
 10
-1.39869488E+01
 20
2.11478239E+02
  0
VERTEX
  8
0
 62
6
 10
-1.41117504E+01
 20
2.11514046E+02
  0
VERTEX
  8
0
 62
6
 10
-1.42395067E+01
 20
2.11539818E+02
  0
VERTEX
  8
0
 62
6
 10
-1.43692454E+01
 20
2.11555361E+02
  0
VERTEX
  8
0
 62
6
 10
-1.44999790E+01
 20
2.11560555E+02
  0
VERTEX
  8
0
 62
6
 10
-1.46307126E+01
 20
2.11555361E+02
  0
VERTEX
  8
0
 62
6
 10
-1.47604513E+01
 20
2.11539818E+02
  0
VERTEX
  8
0
 62
6
 10
-1.48882076E+01
 20
2.11514046E+02
  0
VERTEX
  8
0
 62
6
 10
-1.50130092E+01
 20
2.11478239E+02
  0
VERTEX
  8
0
 62
6
 10
-1.51339064E+01
 20
2.11432670E+02
  0
VERTEX
  8
0
 62
6
 10
-1.52499790E+01
 20
2.11377687E+02
  0
VERTEX
  8
0
 62
6
 10
-1.53603437E+01
 20
2.11313708E+02
  0
VERTEX
  8
0
 62
6
 10
-1.54641604E+01
 20
2.11241219E+02
  0
VERTEX
  8
0
 62
6
 10
-1.55606392E+01
 20
2.11160773E+02
  0
VERTEX
  8
0
 62
6
 10
-1.56490457E+01
 20
2.11072981E+02
  0
VERTEX
  8
0
 62
6
 10
-1.57287071E+01
 20
2.10978512E+02
  0
VERTEX
  8
0
 62
6
 10
-1.57990171E+01
 20
2.10878084E+02
  0
VERTEX
  8
0
 62
6
 10
-1.58594407E+01
 20
2.10772462E+02
  0
VERTEX
  8
0
 62
6
 10
-1.59095179E+01
 20
2.10662451E+02
  0
VERTEX
  8
0
 62
6
 10
-1.59488678E+01
 20
2.10548886E+02
  0
VERTEX
  8
0
 62
6
 10
-1.59771906E+01
 20
2.10432633E+02
  0
VERTEX
  8
0
 62
6
 10
-1.59942711E+01
 20
2.10314576E+02
  0
VERTEX
  8
0
 62
6
 10
-1.59999790E+01
 20
2.10195613E+02
  0
SEQEND
  8
0
  0
LINE
  8
0
 62
4
 10
-1.24999790E+01
 20
2.10195613E+02
 11
-1.24999790E+01
 21
2.11830530E+02
  0
POLYLINE
  8
0
 62
4
 66
1
  0
VERTEX
  8
0
 62
4
 10
-1.64999790E+01
 20
2.10195613E+02
  0
VERTEX
  8
0
 62
4
 10
-1.64923684E+01
 20
2.10036996E+02
  0
VERTEX
  8
0
 62
4
 10
-1.64695945E+01
 20
2.09879587E+02
  0
VERTEX
  8
0
 62
4
 10
-1.64318307E+01
 20
2.09724582E+02
  0
VERTEX
  8
0
 62
4
 10
-1.63793642E+01
 20
2.09573163E+02
  0
VERTEX
  8
0
 62
4
 10
-1.63125946E+01
 20
2.09426481E+02
  0
VERTEX
  8
0
 62
4
 10
-1.62320298E+01
 20
2.09285652E+02
  0
VERTEX
  8
0
 62
4
 10
-1.61382831E+01
 20
2.09151748E+02
  0
VERTEX
  8
0
 62
4
 10
-1.60320679E+01
 20
2.09025789E+02
  0
VERTEX
  8
0
 62
4
 10
-1.59141926E+01
 20
2.08908733E+02
  0
VERTEX
  8
0
 62
4
 10
-1.57855542E+01
 20
2.08801472E+02
  0
VERTEX
  8
0
 62
4
 10
-1.56471319E+01
 20
2.08704820E+02
  0
VERTEX
  8
0
 62
4
 10
-1.54999790E+01
 20
2.08619514E+02
  0
VERTEX
  8
0
 62
4
 10
-1.53452155E+01
 20
2.08546203E+02
  0
VERTEX
  8
0
 62
4
 10
-1.51840193E+01
 20
2.08485445E+02
  0
VERTEX
  8
0
 62
4
 10
-1.50176171E+01
 20
2.08437703E+02
  0
VERTEX
  8
0
 62
4
 10
-1.48472754E+01
 20
2.08403339E+02
  0
VERTEX
  8
0
 62
4
 10
-1.46742905E+01
 20
2.08382616E+02
  0
VERTEX
  8
0
 62
4
 10
-1.44999790E+01
 20
2.08375691E+02
  0
VERTEX
  8
0
 62
4
 10
-1.43256675E+01
 20
2.08382616E+02
  0
VERTEX
  8
0
 62
4
 10
-1.41526826E+01
 20
2.08403339E+02
  0
VERTEX
  8
0
 62
4
 10
-1.39823409E+01
 20
2.08437703E+02
  0
VERTEX
  8
0
 62
4
 10
-1.38159387E+01
 20
2.08485445E+02
  0
VERTEX
  8
0
 62
4
 10
-1.36547425E+01
 20
2.08546203E+02
  0
VERTEX
  8
0
 62
4
 10
-1.34999790E+01
 20
2.08619514E+02
  0
VERTEX
  8
0
 62
4
 10
-1.33528261E+01
 20
2.08704820E+02
  0
VERTEX
  8
0
 62
4
 10
-1.32144038E+01
 20
2.08801471E+02
  0
VERTEX
  8
0
 62
4
 10
-1.30857654E+01
 20
2.08908733E+02
  0
VERTEX
  8
0
 62
4
 10
-1.29678901E+01
 20
2.09025789E+02
  0
VERTEX
  8
0
 62
4
 10
-1.28616749E+01
 20
2.09151748E+02
  0
VERTEX
  8
0
 62
4
 10
-1.27679282E+01
 20
2.09285652E+02
  0
VERTEX
  8
0
 62
4
 10
-1.26873634E+01
 20
2.09426481E+02
  0
VERTEX
  8
0
 62
4
 10
-1.26205938E+01
 20
2.09573163E+02
  0
VERTEX
  8
0
 62
4
 10
-1.25681273E+01
 20
2.09724582E+02
  0
VERTEX
  8
0
 62
4
 10
-1.25303635E+01
 20
2.09879587E+02
  0
VERTEX
  8
0
 62
4
 10
-1.25075896E+01
 20
2.10036996E+02
  0
VERTEX
  8
0
 62
4
 10
-1.24999790E+01
 20
2.10195613E+02
  0
VERTEX
  8
0
 62
4
 10
-1.25075896E+01
 20
2.10354230E+02
  0
VERTEX
  8
0
 62
4
 10
-1.25303635E+01
 20
2.10511639E+02
  0
VERTEX
  8
0
 62
4
 10
-1.25681273E+01
 20
2.10666644E+02
  0
VERTEX
  8
0
 62
4
 10
-1.26205938E+01
 20
2.10818063E+02
  0
VERTEX
  8
0
 62
4
 10
-1.26873634E+01
 20
2.10964745E+02
  0
VERTEX
  8
0
 62
4
 10
-1.27679282E+01
 20
2.11105574E+02
  0
VERTEX
  8
0
 62
4
 10
-1.28616749E+01
 20
2.11239478E+02
  0
VERTEX
  8
0
 62
4
 10
-1.29678901E+01
 20
2.11365437E+02
  0
VERTEX
  8
0
 62
4
 10
-1.30857654E+01
 20
2.11482493E+02
  0
VERTEX
  8
0
 62
4
 10
-1.32144038E+01
 20
2.11589755E+02
  0
VERTEX
  8
0
 62
4
 10
-1.33528261E+01
 20
2.11686406E+02
  0
VERTEX
  8
0
 62
4
 10
-1.34999790E+01
 20
2.11771712E+02
  0
VERTEX
  8
0
 62
4
 10
-1.36547425E+01
 20
2.11845023E+02
  0
VERTEX
  8
0
 62
4
 10
-1.38159387E+01
 20
2.11905781E+02
  0
VERTEX
  8
0
 62
4
 10
-1.39823409E+01
 20
2.11953523E+02
  0
VERTEX
  8
0
 62
4
 10
-1.41526826E+01
 20
2.11987887E+02
  0
VERTEX
  8
0
 62
4
 10
-1.43256675E+01
 20
2.12008610E+02
  0
VERTEX
  8
0
 62
4
 10
-1.44999790E+01
 20
2.12015535E+02
  0
VERTEX
  8
0
 62
4
 10
-1.46742905E+01
 20
2.12008610E+02
  0
VERTEX
  8
0
 62
4
 10
-1.48472754E+01
 20
2.11987887E+02
  0
VERTEX
  8
0
 62
4
 10
-1.50176171E+01
 20
2.11953523E+02
  0
VERTEX
  8
0
 62
4
 10
-1.51840193E+01
 20
2.11905781E+02
  0
VERTEX
  8
0
 62
4
 10
-1.53452155E+01
 20
2.11845023E+02
  0
VERTEX
  8
0
 62
4
 10
-1.54999790E+01
 20
2.11771712E+02
  0
VERTEX
  8
0
 62
4
 10
-1.56471319E+01
 20
2.11686406E+02
  0
VERTEX
  8
0
 62
4
 10
-1.57855542E+01
 20
2.11589755E+02
  0
VERTEX
  8
0
 62
4
 10
-1.59141926E+01
 20
2.11482493E+02
  0
VERTEX
  8
0
 62
4
 10
-1.60320679E+01
 20
2.11365437E+02
  0
VERTEX
  8
0
 62
4
 10
-1.61382831E+01
 20
2.11239478E+02
  0
VERTEX
  8
0
 62
4
 10
-1.62320298E+01
 20
2.11105574E+02
  0
VERTEX
  8
0
 62
4
 10
-1.63125946E+01
 20
2.10964745E+02
  0
VERTEX
  8
0
 62
4
 10
-1.63793642E+01
 20
2.10818063E+02
  0
VERTEX
  8
0
 62
4
 10
-1.64318307E+01
 20
2.10666644E+02
  0
VERTEX
  8
0
 62
4
 10
-1.64695945E+01
 20
2.10511639E+02
  0
VERTEX
  8
0
 62
4
 10
-1.64923684E+01
 20
2.10354230E+02
  0
VERTEX
  8
0
 62
4
 10
-1.64999790E+01
 20
2.10195613E+02
  0
SEQEND
  8
0
  0
LINE
  8
0
 62
4
 10
-1.64999790E+01
 20
2.10195613E+02
 11
-1.64999790E+01
 21
2.11830530E+02
  0
POLYLINE
  8
0
 62
4
 66
1
  0
VERTEX
  8
0
 62
4
 10
-1.24999790E+01
 20
2.11830530E+02
  0
VERTEX
  8
0
 62
4
 10
-1.25080304E+01
 20
2.11993667E+02
  0
VERTEX
  8
0
 62
4
 10
-1.25321198E+01
 20
2.12155490E+02
  0
VERTEX
  8
0
 62
4
 10
-1.25720533E+01
 20
2.12314696E+02
  0
VERTEX
  8
0
 62
4
 10
-1.26275093E+01
 20
2.12470005E+02
  0
VERTEX
  8
0
 62
4
 10
-1.26980413E+01
 20
2.12620165E+02
  0
VERTEX
  8
0
 62
4
 10
-1.27830814E+01
 20
2.12763967E+02
  0
VERTEX
  8
0
 62
4
 10
-1.28819450E+01
 20
2.12900254E+02
  0
VERTEX
  8
0
 62
4
 10
-1.29938361E+01
 20
2.13027927E+02
  0
VERTEX
  8
0
 62
4
 10
-1.31178537E+01
 20
2.13145961E+02
  0
VERTEX
  8
0
 62
4
 10
-1.32529994E+01
 20
2.13253403E+02
  0
VERTEX
  8
0
 62
4
 10
-1.33981850E+01
 20
2.13349389E+02
  0
VERTEX
  8
0
 62
4
 10
-1.35522417E+01
 20
2.13433146E+02
  0
VERTEX
  8
0
 62
4
 10
-1.37139289E+01
 20
2.13503999E+02
  0
VERTEX
  8
0
 62
4
 10
-1.38819450E+01
 20
2.13561379E+02
  0
VERTEX
  8
0
 62
4
 10
-1.40549371E+01
 20
2.13604823E+02
  0
VERTEX
  8
0
 62
4
 10
-1.42315125E+01
 20
2.13633982E+02
  0
VERTEX
  8
0
 62
4
 10
-1.44102493E+01
 20
2.13648620E+02
  0
VERTEX
  8
0
 62
4
 10
-1.45897086E+01
 20
2.13648620E+02
  0
VERTEX
  8
0
 62
4
 10
-1.47684455E+01
 20
2.13633982E+02
  0
VERTEX
  8
0
 62
4
 10
-1.49450209E+01
 20
2.13604823E+02
  0
VERTEX
  8
0
 62
4
 10
-1.51180130E+01
 20
2.13561379E+02
  0
VERTEX
  8
0
 62
4
 10
-1.52860290E+01
 20
2.13503999E+02
  0
VERTEX
  8
0
 62
4
 10
-1.54477163E+01
 20
2.13433146E+02
  0
VERTEX
  8
0
 62
4
 10
-1.56017729E+01
 20
2.13349389E+02
  0
VERTEX
  8
0
 62
4
 10
-1.57469586E+01
 20
2.13253403E+02
  0
VERTEX
  8
0
 62
4
 10
-1.58821043E+01
 20
2.13145961E+02
  0
VERTEX
  8
0
 62
4
 10
-1.60061219E+01
 20
2.13027927E+02
  0
VERTEX
  8
0
 62
4
 10
-1.61180130E+01
 20
2.12900254E+02
  0
VERTEX
  8
0
 62
4
 10
-1.62168766E+01
 20
2.12763967E+02
  0
VERTEX
  8
0
 62
4
 10
-1.63019167E+01
 20
2.12620165E+02
  0
VERTEX
  8
0
 62
4
 10
-1.63724487E+01
 20
2.12470005E+02
  0
VERTEX
  8
0
 62
4
 10
-1.64279047E+01
 20
2.12314696E+02
  0
VERTEX
  8
0
 62
4
 10
-1.64678382E+01
 20
2.12155490E+02
  0
VERTEX
  8
0
 62
4
 10
-1.64919276E+01
 20
2.11993667E+02
  0
VERTEX
  8
0
 62
4
 10
-1.64999790E+01
 20
2.11830530E+02
  0
SEQEND
  8
0
  0
POLYLINE
  8
0
 62
4
 66
1
  0
VERTEX
  8
0
 62
4
 10
-1.24997902E+00
 20
2.31539199E+02
  0
VERTEX
  8
0
 62
4
 10
-1.25854095E+00
 20
2.31717643E+02
  0
VERTEX
  8
0
 62
4
 10
-1.28416158E+00
 20
2.31894729E+02
  0
VERTEX
  8
0
 62
4
 10
-1.32664591E+00
 20
2.32069108E+02
  0
VERTEX
  8
0
 62
4
 10
-1.38567062E+00
 20
2.32239455E+02
  0
VERTEX
  8
0
 62
4
 10
-1.46078650E+00
 20
2.32404473E+02
  0
VERTEX
  8
0
 62
4
 10
-1.55142186E+00
 20
2.32562905E+02
  0
VERTEX
  8
0
 62
4
 10
-1.65688692E+00
 20
2.32713547E+02
  0
VERTEX
  8
0
 62
4
 10
-1.77637902E+00
 20
2.32855251E+02
  0
VERTEX
  8
0
 62
4
 10
-1.90898876E+00
 20
2.32986939E+02
  0
VERTEX
  8
0
 62
4
 10
-2.05370690E+00
 20
2.33107608E+02
  0
VERTEX
  8
0
 62
4
 10
-2.20943204E+00
 20
2.33216341E+02
  0
VERTEX
  8
0
 62
4
 10
-2.37497902E+00
 20
2.33312311E+02
  0
VERTEX
  8
0
 62
4
 10
-2.54908793E+00
 20
2.33394785E+02
  0
VERTEX
  8
0
 62
4
 10
-2.73043370E+00
 20
2.33463138E+02
  0
VERTEX
  8
0
 62
4
 10
-2.91763617E+00
 20
2.33516848E+02
  0
VERTEX
  8
0
 62
4
 10
-3.10927062E+00
 20
2.33555507E+02
  0
VERTEX
  8
0
 62
4
 10
-3.30387860E+00
 20
2.33578821E+02
  0
VERTEX
  8
0
 62
4
 10
-3.49997902E+00
 20
2.33586612E+02
  0
VERTEX
  8
0
 62
4
 10
-3.69607944E+00
 20
2.33578821E+02
  0
VERTEX
  8
0
 62
4
 10
-3.89068742E+00
 20
2.33555507E+02
  0
VERTEX
  8
0
 62
4
 10
-4.08232187E+00
 20
2.33516848E+02
  0
VERTEX
  8
0
 62
4
 10
-4.26952434E+00
 20
2.33463138E+02
  0
VERTEX
  8
0
 62
4
 10
-4.45087011E+00
 20
2.33394785E+02
  0
VERTEX
  8
0
 62
4
 10
-4.62497902E+00
 20
2.33312311E+02
  0
VERTEX
  8
0
 62
4
 10
-4.79052600E+00
 20
2.33216341E+02
  0
VERTEX
  8
0
 62
4
 10
-4.94625114E+00
 20
2.33107608E+02
  0
VERTEX
  8
0
 62
4
 10
-5.09096928E+00
 20
2.32986939E+02
  0
VERTEX
  8
0
 62
4
 10
-5.22357902E+00
 20
2.32855251E+02
  0
VERTEX
  8
0
 62
4
 10
-5.34307112E+00
 20
2.32713547E+02
  0
VERTEX
  8
0
 62
4
 10
-5.44853618E+00
 20
2.32562905E+02
  0
VERTEX
  8
0
 62
4
 10
-5.53917154E+00
 20
2.32404473E+02
  0
VERTEX
  8
0
 62
4
 10
-5.61428742E+00
 20
2.32239455E+02
  0
VERTEX
  8
0
 62
4
 10
-5.67331213E+00
 20
2.32069108E+02
  0
VERTEX
  8
0
 62
4
 10
-5.71579646E+00
 20
2.31894729E+02
  0
VERTEX
  8
0
 62
4
 10
-5.74141709E+00
 20
2.31717643E+02
  0
VERTEX
  8
0
 62
4
 10
-5.74997902E+00
 20
2.31539199E+02
  0
VERTEX
  8
0
 62
4
 10
-5.74141709E+00
 20
2.31360755E+02
  0
VERTEX
  8
0
 62
4
 10
-5.71579646E+00
 20
2.31183669E+02
  0
VERTEX
  8
0
 62
4
 10
-5.67331213E+00
 20
2.31009290E+02
  0
VERTEX
  8
0
 62
4
 10
-5.61428742E+00
 20
2.30838943E+02
  0
VERTEX
  8
0
 62
4
 10
-5.53917154E+00
 20
2.30673925E+02
  0
VERTEX
  8
0
 62
4
 10
-5.44853618E+00
 20
2.30515493E+02
  0
VERTEX
  8
0
 62
4
 10
-5.34307112E+00
 20
2.30364851E+02
  0
VERTEX
  8
0
 62
4
 10
-5.22357901E+00
 20
2.30223147E+02
  0
VERTEX
  8
0
 62
4
 10
-5.09096927E+00
 20
2.30091459E+02
  0
VERTEX
  8
0
 62
4
 10
-4.94625114E+00
 20
2.29970790E+02
  0
VERTEX
  8
0
 62
4
 10
-4.79052600E+00
 20
2.29862057E+02
  0
VERTEX
  8
0
 62
4
 10
-4.62497902E+00
 20
2.29766087E+02
  0
VERTEX
  8
0
 62
4
 10
-4.45087011E+00
 20
2.29683613E+02
  0
VERTEX
  8
0
 62
4
 10
-4.26952434E+00
 20
2.29615260E+02
  0
VERTEX
  8
0
 62
4
 10
-4.08232187E+00
 20
2.29561550E+02
  0
VERTEX
  8
0
 62
4
 10
-3.89068742E+00
 20
2.29522891E+02
  0
VERTEX
  8
0
 62
4
 10
-3.69607944E+00
 20
2.29499577E+02
  0
VERTEX
  8
0
 62
4
 10
-3.49997902E+00
 20
2.29491786E+02
  0
VERTEX
  8
0
 62
4
 10
-3.30387859E+00
 20
2.29499577E+02
  0
VERTEX
  8
0
 62
4
 10
-3.10927062E+00
 20
2.29522891E+02
  0
VERTEX
  8
0
 62
4
 10
-2.91763616E+00
 20
2.29561550E+02
  0
VERTEX
  8
0
 62
4
 10
-2.73043369E+00
 20
2.29615260E+02
  0
VERTEX
  8
0
 62
4
 10
-2.54908793E+00
 20
2.29683613E+02
  0
VERTEX
  8
0
 62
4
 10
-2.37497902E+00
 20
2.29766087E+02
  0
VERTEX
  8
0
 62
4
 10
-2.20943203E+00
 20
2.29862057E+02
  0
VERTEX
  8
0
 62
4
 10
-2.05370689E+00
 20
2.29970790E+02
  0
VERTEX
  8
0
 62
4
 10
-1.90898876E+00
 20
2.30091459E+02
  0
VERTEX
  8
0
 62
4
 10
-1.77637902E+00
 20
2.30223147E+02
  0
VERTEX
  8
0
 62
4
 10
-1.65688692E+00
 20
2.30364851E+02
  0
VERTEX
  8
0
 62
4
 10
-1.55142186E+00
 20
2.30515493E+02
  0
VERTEX
  8
0
 62
4
 10
-1.46078650E+00
 20
2.30673925E+02
  0
VERTEX
  8
0
 62
4
 10
-1.38567062E+00
 20
2.30838943E+02
  0
VERTEX
  8
0
 62
4
 10
-1.32664591E+00
 20
2.31009290E+02
  0
VERTEX
  8
0
 62
4
 10
-1.28416157E+00
 20
2.31183669E+02
  0
VERTEX
  8
0
 62
4
 10
-1.25854095E+00
 20
2.31360755E+02
  0
VERTEX
  8
0
 62
4
 10
-1.24997902E+00
 20
2.31539199E+02
  0
SEQEND
  8
0
  0
LINE
  8
0
  6
CENTER
 62
6
 10
-3.49997902E+00
 20
2.35113795E+02
 11
-3.49997902E+00
 21
2.27964602E+02
  0
LINE
  8
0
  6
CENTER
 62
6
 10
7.46178686E-02
 20
2.31539199E+02
 11
-7.07457591E+00
 21
2.31539199E+02
  0
LINE
  8
0
 62
4
 10
-1.09999790E+01
 20
2.27733476E+02
 11
4.00002096E+00
 21
2.27733476E+02
  0
LINE
  8
0
 62
4
 10
-1.09999790E+01
 20
2.27899353E+02
 11
4.00002096E+00
 21
2.27899353E+02
  0
LINE
  8
0
 62
4
 10
-2.59999790E+01
 20
2.07767706E+02
 11
-1.09999790E+01
 21
2.07767706E+02
  0
LINE
  8
0
 62
4
 10
-1.09999790E+01
 20
2.20908767E+02
 11
4.00002096E+00
 21
2.20908767E+02
  0
LINE
  8
0
 62
4
 10
-2.49999790E+01
 20
2.18592275E+02
 11
-1.19999790E+01
 21
2.18592275E+02
  0
LINE
  8
0
 62
4
 10
-2.59999790E+01
 20
2.32731172E+02
 11
-1.09999790E+01
 21
2.32731172E+02
  0
LINE
  8
0
 62
4
 10
-2.59999790E+01
 20
2.35634024E+02
 11
4.00002096E+00
 21
2.35634024E+02
  0
LINE
  8
0
 62
4
 10
-2.59999790E+01
 20
2.39905365E+02
 11
4.00002098E+00
 21
2.39905365E+02
  0
LINE
  8
0
 62
4
 10
-8.49999981E+01
 20
2.39905365E+02
 11
-5.49999981E+01
 21
2.39905365E+02
  0
LINE
  8
0
  6
CENTER
 62
6
 10
-1.79999790E+01
 20
2.11830530E+02
 11
-1.09999790E+01
 21
2.11830530E+02
  0
LINE
  8
0
  6
CENTER
 62
6
 10
-2.24999790E+01
 20
2.08330530E+02
 11
-2.24999790E+01
 21
2.15330530E+02
  0
LINE
  8
0
  6
CENTER
 62
6
 10
-2.59999790E+01
 20
2.11830530E+02
 11
-1.89999790E+01
 21
2.11830530E+02
  0
LINE
  8
0
  6
CENTER
 62
6
 10
-1.44999790E+01
 20
2.08330530E+02
 11
-1.44999790E+01
 21
2.15330530E+02
  0
LINE
  8
0
 62
4
 10
4.00002098E+00
 20
2.39905365E+02
 11
4.00002098E+00
 21
2.20908767E+02
  0
LINE
  8
0
 62
4
 10
-2.59999790E+01
 20
2.07767706E+02
 11
-2.59999790E+01
 21
2.39905365E+02
  0
LINE
  8
0
 62
4
 10
-1.09999790E+01
 20
2.07767706E+02
 11
-1.09999790E+01
 21
2.35634024E+02
  0
LINE
  8
0
  6
CENTER
 62
6
 10
-6.24999981E+01
 20
2.40610539E+02
 11
-6.24999981E+01
 21
2.31010539E+02
  0
LINE
  8
0
  6
CENTER
 62
6
 10
-5.76999981E+01
 20
2.35810539E+02
 11
-6.72999981E+01
 21
2.35810539E+02
  0
LINE
  8
0
  6
CENTER
 62
6
 10
-7.74999981E+01
 20
2.39385136E+02
 11
-7.74999981E+01
 21
2.32235942E+02
  0
LINE
  8
0
  6
CENTER
 62
6
 10
-7.39254012E+01
 20
2.35810539E+02
 11
-8.10745950E+01
 21
2.35810539E+02
  0
LINE
  8
0
  6
CENTER
 62
6
 10
-6.99999981E+01
 20
2.37275674E+02
 11
-6.99999981E+01
 21
2.27975674E+02
  0
LINE
  8
0
  6
CENTER
 62
6
 10
-6.53499981E+01
 20
2.32625674E+02
 11
-7.46499981E+01
 21
2.32625674E+02
  0
LINE
  8
0
 62
4
 10
-8.49999981E+01
 20
2.39905365E+02
 11
-8.49999981E+01
 21
2.30069725E+02
  0
LINE
  8
0
 62
4
 10
-6.14999981E+01
 20
2.30069725E+02
 11
-6.14999981E+01
 21
2.30000015E+02
  0
LINE
  8
0
 62
4
 10
-5.49999981E+01
 20
2.30000015E+02
 11
-5.49999981E+01
 21
2.39905365E+02
  0
POLYLINE
  8
0
 62
4
 66
1
  0
VERTEX
  8
0
 62
4
 10
-6.71951388E+01
 20
2.30000016E+02
  0
VERTEX
  8
0
 62
4
 10
-6.69258007E+01
 20
2.30246471E+02
  0
VERTEX
  8
0
 62
4
 10
-6.66825052E+01
 20
2.30514416E+02
  0
VERTEX
  8
0
 62
4
 10
-6.64673133E+01
 20
2.30801581E+02
  0
VERTEX
  8
0
 62
4
 10
-6.62820481E+01
 20
2.31105533E+02
  0
VERTEX
  8
0
 62
4
 10
-6.61282789E+01
 20
2.31423698E+02
  0
VERTEX
  8
0
 62
4
 10
-6.60073084E+01
 20
2.31753381E+02
  0
VERTEX
  8
0
 62
4
 10
-6.59201614E+01
 20
2.32091788E+02
  0
VERTEX
  8
0
 62
4
 10
-6.58675762E+01
 20
2.32436052E+02
  0
VERTEX
  8
0
 62
4
 10
-6.58499981E+01
 20
2.32783258E+02
  0
SEQEND
  8
0
  0
POLYLINE
  8
0
 62
4
 66
1
  0
VERTEX
  8
0
 62
4
 10
-6.84777176E+01
 20
2.30000012E+02
  0
VERTEX
  8
0
 62
4
 10
-6.81450090E+01
 20
2.30135027E+02
  0
VERTEX
  8
0
 62
4
 10
-6.78265942E+01
 20
2.30296071E+02
  0
VERTEX
  8
0
 62
4
 10
-6.75249269E+01
 20
2.30481906E+02
  0
VERTEX
  8
0
 62
4
 10
-6.72423315E+01
 20
2.30691097E+02
  0
VERTEX
  8
0
 62
4
 10
-6.69809856E+01
 20
2.30922034E+02
  0
VERTEX
  8
0
 62
4
 10
-6.67429030E+01
 20
2.31172937E+02
  0
VERTEX
  8
0
 62
4
 10
-6.65299183E+01
 20
2.31441872E+02
  0
VERTEX
  8
0
 62
4
 10
-6.63436727E+01
 20
2.31726768E+02
  0
VERTEX
  8
0
 62
4
 10
-6.61856013E+01
 20
2.32025428E+02
  0
VERTEX
  8
0
 62
4
 10
-6.60569222E+01
 20
2.32335552E+02
  0
VERTEX
  8
0
 62
4
 10
-6.59586268E+01
 20
2.32654750E+02
  0
VERTEX
  8
0
 62
4
 10
-6.58914727E+01
 20
2.32980562E+02
  0
VERTEX
  8
0
 62
4
 10
-6.58559773E+01
 20
2.33310478E+02
  0
VERTEX
  8
0
 62
4
 10
-6.58524140E+01
 20
2.33641955E+02
  0
VERTEX
  8
0
 62
4
 10
-6.58808105E+01
 20
2.33972440E+02
  0
VERTEX
  8
0
 62
4
 10
-6.59409477E+01
 20
2.34299385E+02
  0
VERTEX
  8
0
 62
4
 10
-6.60323625E+01
 20
2.34620271E+02
  0
VERTEX
  8
0
 62
4
 10
-6.61543503E+01
 20
2.34932626E+02
  0
VERTEX
  8
0
 62
4
 10
-6.63059711E+01
 20
2.35234043E+02
  0
VERTEX
  8
0
 62
4
 10
-6.64860567E+01
 20
2.35522199E+02
  0
VERTEX
  8
0
 62
4
 10
-6.66932193E+01
 20
2.35794874E+02
  0
VERTEX
  8
0
 62
4
 10
-6.69258627E+01
 20
2.36049967E+02
  0
VERTEX
  8
0
 62
4
 10
-6.71821941E+01
 20
2.36285512E+02
  0
VERTEX
  8
0
 62
4
 10
-6.74602385E+01
 20
2.36499694E+02
  0
VERTEX
  8
0
 62
4
 10
-6.77578532E+01
 20
2.36690862E+02
  0
VERTEX
  8
0
 62
4
 10
-6.80727450E+01
 20
2.36857544E+02
  0
VERTEX
  8
0
 62
4
 10
-6.84024875E+01
 20
2.36998455E+02
  0
VERTEX
  8
0
 62
4
 10
-6.87445398E+01
 20
2.37112509E+02
  0
VERTEX
  8
0
 62
4
 10
-6.90962661E+01
 20
2.37198828E+02
  0
VERTEX
  8
0
 62
4
 10
-6.94549563E+01
 20
2.37256747E+02
  0
VERTEX
  8
0
 62
4
 10
-6.98178463E+01
 20
2.37285818E+02
  0
VERTEX
  8
0
 62
4
 10
-7.01821400E+01
 20
2.37285818E+02
  0
VERTEX
  8
0
 62
4
 10
-7.05450301E+01
 20
2.37256748E+02
  0
VERTEX
  8
0
 62
4
 10
-7.09037204E+01
 20
2.37198830E+02
  0
VERTEX
  8
0
 62
4
 10
-7.12554470E+01
 20
2.37112512E+02
  0
VERTEX
  8
0
 62
4
 10
-7.15974995E+01
 20
2.36998458E+02
  0
VERTEX
  8
0
 62
4
 10
-7.19272424E+01
 20
2.36857548E+02
  0
VERTEX
  8
0
 62
4
 10
-7.22421347E+01
 20
2.36690867E+02
  0
VERTEX
  8
0
 62
4
 10
-7.25397499E+01
 20
2.36499699E+02
  0
VERTEX
  8
0
 62
4
 10
-7.28177948E+01
 20
2.36285518E+02
  0
VERTEX
  8
0
 62
4
 10
-7.30741269E+01
 20
2.36049974E+02
  0
VERTEX
  8
0
 62
4
 10
-7.33067709E+01
 20
2.35794882E+02
  0
VERTEX
  8
0
 62
4
 10
-7.35139343E+01
 20
2.35522207E+02
  0
VERTEX
  8
0
 62
4
 10
-7.36940206E+01
 20
2.35234051E+02
  0
VERTEX
  8
0
 62
4
 10
-7.38456422E+01
 20
2.34932635E+02
  0
VERTEX
  8
0
 62
4
 10
-7.39676308E+01
 20
2.34620280E+02
  0
VERTEX
  8
0
 62
4
 10
-7.40590464E+01
 20
2.34299393E+02
  0
VERTEX
  8
0
 62
4
 10
-7.41191845E+01
 20
2.33972449E+02
  0
VERTEX
  8
0
 62
4
 10
-7.41475818E+01
 20
2.33641964E+02
  0
VERTEX
  8
0
 62
4
 10
-7.41440195E+01
 20
2.33310487E+02
  0
VERTEX
  8
0
 62
4
 10
-7.41085249E+01
 20
2.32980571E+02
  0
VERTEX
  8
0
 62
4
 10
-7.40413716E+01
 20
2.32654759E+02
  0
VERTEX
  8
0
 62
4
 10
-7.39430771E+01
 20
2.32335561E+02
  0
VERTEX
  8
0
 62
4
 10
-7.38143988E+01
 20
2.32025436E+02
  0
VERTEX
  8
0
 62
4
 10
-7.36563282E+01
 20
2.31726776E+02
  0
VERTEX
  8
0
 62
4
 10
-7.34700833E+01
 20
2.31441880E+02
  0
VERTEX
  8
0
 62
4
 10
-7.32570994E+01
 20
2.31172944E+02
  0
VERTEX
  8
0
 62
4
 10
-7.30190174E+01
 20
2.30922041E+02
  0
VERTEX
  8
0
 62
4
 10
-7.27576721E+01
 20
2.30691103E+02
  0
VERTEX
  8
0
 62
4
 10
-7.24750773E+01
 20
2.30481911E+02
  0
VERTEX
  8
0
 62
4
 10
-7.21734104E+01
 20
2.30296076E+02
  0
VERTEX
  8
0
 62
4
 10
-7.18549961E+01
 20
2.30135031E+02
  0
VERTEX
  8
0
 62
4
 10
-7.15222879E+01
 20
2.30000015E+02
  0
SEQEND
  8
0
  0
LINE
  8
0
  6
CENTER
 62
6
 10
-4.05000000E+01
 20
2.27420416E+02
 11
9.00002100E+00
 21
2.27420416E+02
  0
LINE
  8
0
 62
6
 10
-3.42679282E+01
 20
2.30420416E+02
 11
-3.77320298E+01
 21
2.24420416E+02
  0
LINE
  8
0
 62
4
 10
-2.59999790E+01
 20
2.25920416E+02
 11
-3.68660044E+01
 21
2.25920416E+02
  0
LINE
  8
0
 62
4
 10
-2.59999790E+01
 20
2.28920416E+02
 11
-3.51339536E+01
 21
2.28920416E+02
  0
LINE
  8
0
 62
2
 10
-3.60499968E+02
 20
1.64319992E+02
 11
-3.48999952E+02
 21
1.64319992E+02
  0
LINE
  8
0
 62
7
 10
-3.60499968E+02
 20
1.63499985E+02
 11
-3.48999952E+02
 21
1.63499985E+02
  0
LINE
  8
0
 62
2
 10
-3.60499968E+02
 20
1.88679985E+02
 11
-3.48999952E+02
 21
1.88679985E+02
  0
LINE
  8
0
 62
7
 10
-3.60499968E+02
 20
1.89499992E+02
 11
-3.48999952E+02
 21
1.89499992E+02
  0
LINE
  8
0
 62
4
 10
-3.74499968E+02
 20
1.94500000E+02
 11
-3.74499968E+02
 21
1.58500000E+02
  0
LINE
  8
0
 62
4
 10
-3.72892271E+02
 20
1.55715393E+02
 11
-3.62107664E+02
 21
1.55715393E+02
  0
LINE
  8
0
 62
4
 10
-3.72892271E+02
 20
1.66107697E+02
 11
-3.62107664E+02
 21
1.66107697E+02
  0
LINE
  8
0
 62
4
 10
-3.72892271E+02
 20
1.86892303E+02
 11
-3.62107664E+02
 21
1.86892303E+02
  0
LINE
  8
0
 62
4
 10
-3.72892271E+02
 20
1.97284607E+02
 11
-3.62107664E+02
 21
1.97284607E+02
  0
LINE
  8
0
 62
4
 10
-3.74499977E+02
 20
1.94499999E+02
 11
-3.72892298E+02
 21
1.97284608E+02
  0
LINE
  8
0
 62
4
 10
-3.74499990E+02
 20
1.58500090E+02
 11
-3.72892286E+02
 21
1.55715482E+02
  0
LINE
  8
0
 62
4
 10
-3.60499967E+02
 20
1.94500012E+02
 11
-3.62107648E+02
 21
1.97284634E+02
  0
LINE
  8
0
 62
4
 10
-3.60499968E+02
 20
1.94500000E+02
 11
-3.60499968E+02
 21
1.58500000E+02
  0
LINE
  8
0
 62
4
 10
-3.60499999E+02
 20
1.58499997E+02
 11
-3.62107691E+02
 21
1.55715407E+02
  0
ARC
  8
0
 62
4
 10
-3.69700922E+02
 20
1.60911545E+02
 40
9.20095253E+00
 50
3.25615707E+02
 51
3.43842378E+01
  0
ARC
  8
0
 62
4
 10
-3.94892233E+02
 20
1.76500000E+02
 40
3.43922653E+01
 50
3.42412030E+02
 51
1.75879147E+01
  0
ARC
  8
0
 62
4
 10
-3.69700922E+02
 20
1.92088455E+02
 40
9.20095253E+00
 50
3.25615707E+02
 51
3.43842378E+01
  0
ARC
  8
0
 62
4
 10
-3.65299013E+02
 20
1.60911545E+02
 40
9.20095253E+00
 50
1.45615726E+02
 51
2.14384256E+02
  0
ARC
  8
0
 62
4
 10
-3.40107702E+02
 20
1.76500000E+02
 40
3.43922653E+01
 50
1.62412050E+02
 51
1.97587933E+02
  0
ARC
  8
0
 62
4
 10
-3.65299013E+02
 20
1.92088455E+02
 40
9.20095253E+00
 50
1.45615726E+02
 51
2.14384256E+02
  0
ARC
  8
0
 62
7
 10
-3.48999952E+02
 20
1.76500015E+02
 40
1.50000248E+01
 50
3.30073440E+02
 51
2.99266002E+01
  0
ARC
  8
0
 62
7
 10
4.75000172E+01
 20
1.21619743E+02
 40
5.00000000E-01
 50
2.71000347E+02
 51
0.00000000E+00
  0
ARC
  8
0
 62
7
 10
4.75000172E+01
 20
1.21619720E+02
 40
5.00000000E-01
 50
2.71000347E+02
 51
5.46415133E-05
  0
ARC
  8
0
 62
7
 10
4.95000095E+01
 20
1.51999992E+02
 40
5.00000000E-01
 50
2.70000073E+02
 51
5.46415133E-05
  0
ARC
  8
0
 62
7
 10
4.95000095E+01
 20
2.01000000E+02
 40
5.00000000E-01
 50
5.46415133E-05
 51
9.00000369E+01
  0
ARC
  8
0
 62
7
 10
-3.31499952E+02
 20
1.54000000E+02
 40
5.00000000E-01
 50
1.79999977E+02
 51
2.69999974E+02
  0
ARC
  8
0
 62
7
 10
-3.26499952E+02
 20
1.52971725E+02
 40
5.00000000E-01
 50
1.79999977E+02
 51
2.67999192E+02
  0
ARC
  8
0
 62
7
 10
-1.34499968E+02
 20
1.21619720E+02
 40
5.00000000E-01
 50
1.79999977E+02
 51
2.68999679E+02
  0
ARC
  8
0
 62
7
 10
-3.12499952E+02
 20
1.51999992E+02
 40
5.00000000E-01
 50
1.79999977E+02
 51
2.69999974E+02
  0
ARC
  8
0
 62
7
 10
1.10000134E+01
 20
2.31000008E+02
 40
1.00000000E+00
 50
3.14427817E+02
 51
3.59999891E+02
  0
ARC
  8
0
 62
7
 10
4.95000095E+01
 20
2.01000000E+02
 40
5.00000000E-01
 50
3.59999891E+02
 51
8.99998730E+01
  0
ARC
  8
0
 62
7
 10
-3.31499952E+02
 20
1.99000015E+02
 40
5.00000000E-01
 50
8.99999818E+01
 51
1.79999964E+02
  0
ARC
  8
0
 62
7
 10
-1.34499968E+02
 20
2.31380287E+02
 40
5.00000000E-01
 50
9.10002493E+01
 51
1.79999964E+02
  0
ARC
  8
0
 62
7
 10
-3.12499952E+02
 20
2.01000000E+02
 40
5.00000000E-01
 50
8.99999818E+01
 51
1.79999964E+02
  0
ARC
  8
0
 62
7
 10
4.75000172E+01
 20
2.31380257E+02
 40
5.00000000E-01
 50
3.59999945E+02
 51
8.89995981E+01
  0
ARC
  8
0
 62
7
 10
4.75000172E+01
 20
2.31380287E+02
 40
5.00000000E-01
 50
3.59999891E+02
 51
8.89995981E+01
  0
ARC
  8
0
 62
7
 10
-3.26499952E+02
 20
2.00028275E+02
 40
5.00000000E-01
 50
9.20007356E+01
 51
1.79999964E+02
  0
ARC
  8
0
 62
7
 10
-1.34499983E+02
 20
1.21619707E+02
 40
5.00000000E-01
 50
1.79999977E+02
 51
2.68999679E+02
  0
ARC
  8
0
 62
7
 10
-1.34499983E+02
 20
2.31380257E+02
 40
5.00000000E-01
 50
9.10002562E+01
 51
1.79999964E+02
  0
CIRCLE
  8
0
 62
7
 10
-2.57999983E+02
 20
1.76500000E+02
 40
3.30000043E+00
  0
CIRCLE
  8
0
 62
7
 10
-2.57999983E+02
 20
1.76500000E+02
 40
8.00000000E+00
  0
CIRCLE
  8
0
 62
7
 10
-2.57999983E+02
 20
1.76500000E+02
 40
4.00000000E+00
  0
LINE
  8
0
 62
2
 10
-3.35999920E+02
 20
1.69016631E+02
 11
-3.43777707E+02
 21
1.80657429E+02
  0
LINE
  8
0
 62
7
 10
-3.45999946E+02
 20
1.76500002E+02
 11
-3.41999930E+02
 21
1.83983371E+02
  0
LINE
  8
0
 62
7
 10
-3.41999958E+02
 20
1.69016664E+02
 11
-3.45999964E+02
 21
1.76500002E+02
  0
LINE
  8
0
 62
2
 10
-3.35999950E+02
 20
1.83983365E+02
 11
-3.43777724E+02
 21
1.72342586E+02
  0
LINE
  8
0
 62
7
 10
-3.45999943E+02
 20
1.89499986E+02
 11
-3.41999929E+02
 21
1.91500031E+02
  0
LINE
  8
0
 62
7
 10
-3.35999952E+02
 20
1.69016655E+02
 11
-3.35999952E+02
 21
1.83983376E+02
  0
LINE
  8
0
 62
7
 10
-3.41999952E+02
 20
1.83983376E+02
 11
-3.41999952E+02
 21
1.91500038E+02
  0
LINE
  8
0
 62
7
 10
-3.41999952E+02
 20
1.69016655E+02
 11
-3.41999952E+02
 21
1.61499962E+02
  0
LINE
  8
0
 62
7
 10
-3.41999952E+02
 20
1.61499962E+02
 11
-3.31999952E+02
 21
1.61499962E+02
  0
LINE
  8
0
  6
CENTER
 62
2
 10
5.07792072E+01
 20
1.34499992E+02
 11
-1.37524473E+02
 21
1.34499992E+02
  0
LINE
  8
0
 62
7
 10
-3.45999927E+02
 20
1.63499974E+02
 11
-3.41999931E+02
 21
1.61499963E+02
  0
LINE
  8
0
 62
7
 10
-3.41999952E+02
 20
1.69016655E+02
 11
-3.35999952E+02
 21
1.69016655E+02
  0
LINE
  8
0
 62
7
 10
-3.41999952E+02
 20
1.83983376E+02
 11
-3.35999952E+02
 21
1.83983376E+02
  0
LINE
  8
0
 62
7
 10
1.20000248E+01
 20
1.38999985E+02
 11
-9.89999981E+01
 21
1.38999985E+02
  0
LINE
  8
0
 62
7
 10
-9.89999981E+01
 20
1.22999977E+02
 11
1.20000248E+01
 21
1.22999977E+02
  0
LINE
  8
0
 62
7
 10
1.20000248E+01
 20
1.29999973E+02
 11
-9.89999981E+01
 21
1.29999973E+02
  0
LINE
  8
0
 62
7
 10
5.00000172E+01
 20
2.00999985E+02
 11
5.00000172E+01
 21
1.52000008E+02
  0
LINE
  8
0
 62
7
 10
4.75087634E+01
 20
1.21119826E+02
 11
1.20000193E+01
 21
1.20500018E+02
  0
LINE
  8
0
 62
7
 10
4.40000019E+01
 20
1.21058563E+02
 11
4.40000019E+01
 21
1.20500004E+02
  0
LINE
  8
0
 62
7
 10
4.40000172E+01
 20
1.20500004E+02
 11
1.20000134E+01
 21
1.20500004E+02
  0
LINE
  8
0
 62
7
 10
4.95000172E+01
 20
1.51500000E+02
 11
4.80000172E+01
 21
1.51500000E+02
  0
LINE
  8
0
 62
7
 10
-3.12999952E+02
 20
2.00999954E+02
 11
-3.12999952E+02
 21
1.52000008E+02
  0
LINE
  8
0
  6
CENTER
 62
2
 10
2.79999714E+01
 20
2.19800049E+02
 11
2.79999714E+01
 21
2.34763664E+02
  0
LINE
  8
0
 62
7
 10
-3.26999952E+02
 20
2.00028275E+02
 11
-3.26999952E+02
 21
1.52971725E+02
  0
LINE
  8
0
 62
7
 10
-3.31499952E+02
 20
1.53499985E+02
 11
-3.26999952E+02
 21
1.53499985E+02
  0
LINE
  8
0
 62
7
 10
-3.26999952E+02
 20
1.52936745E+02
 11
-3.26999952E+02
 21
1.53000000E+02
  0
LINE
  8
0
 62
7
 10
-3.31999952E+02
 20
1.54000000E+02
 11
-3.31999952E+02
 21
1.99000015E+02
  0
LINE
  8
0
 62
7
 10
-3.26517461E+02
 20
1.52472050E+02
 11
-3.13000005E+02
 21
1.52000010E+02
  0
LINE
  8
0
 62
7
 10
-1.34508678E+02
 20
1.21119832E+02
 11
-9.89999344E+01
 21
1.20500024E+02
  0
LINE
  8
0
 62
7
 10
-1.30999983E+02
 20
1.21058563E+02
 11
-1.30999983E+02
 21
1.20500004E+02
  0
LINE
  8
0
 62
7
 10
-1.30999983E+02
 20
1.20500004E+02
 11
-9.89999676E+01
 21
1.20500004E+02
  0
LINE
  8
0
 62
7
 10
-3.12499952E+02
 20
1.51500000E+02
 11
-3.10999952E+02
 21
1.51500000E+02
  0
LINE
  8
0
 62
7
 10
4.95000172E+01
 20
2.01500015E+02
 11
4.80000172E+01
 21
2.01500015E+02
  0
LINE
  8
0
  6
CENTER
 62
2
 10
5.07792072E+01
 20
2.18500000E+02
 11
-1.37524473E+02
 21
2.18500000E+02
  0
LINE
  8
0
 62
2
 10
-3.85320021E+02
 20
1.64319992E+02
 11
-3.74499968E+02
 21
1.64319992E+02
  0
LINE
  8
0
 62
7
 10
-3.86000016E+02
 20
1.64999977E+02
 11
-3.84500003E+02
 21
1.63499964E+02
  0
LINE
  8
0
 62
7
 10
-3.84500013E+02
 20
1.63499985E+02
 11
-3.74499968E+02
 21
1.63499985E+02
  0
LINE
  8
0
 62
7
 10
-3.48999952E+02
 20
1.64319992E+02
 11
-3.45999952E+02
 21
1.64319992E+02
  0
LINE
  8
0
 62
7
 10
-3.48999952E+02
 20
1.88679985E+02
 11
-3.45999952E+02
 21
1.88679985E+02
  0
LINE
  8
0
 62
2
 10
-3.85320021E+02
 20
1.88679985E+02
 11
-3.74499968E+02
 21
1.88679985E+02
  0
LINE
  8
0
 62
7
 10
-3.85999832E+02
 20
1.87999818E+02
 11
-3.84499820E+02
 21
1.89499830E+02
  0
LINE
  8
0
 62
7
 10
-3.84499952E+02
 20
1.63499985E+02
 11
-3.84499952E+02
 21
1.89499992E+02
  0
LINE
  8
0
 62
7
 10
-3.84500013E+02
 20
1.89499992E+02
 11
-3.74499968E+02
 21
1.89499992E+02
  0
LINE
  8
0
 62
7
 10
-3.48999952E+02
 20
1.63499985E+02
 11
-3.48999952E+02
 21
1.89499992E+02
  0
LINE
  8
0
 62
7
 10
-3.85999983E+02
 20
1.64999924E+02
 11
-3.85999983E+02
 21
1.87999695E+02
  0
LINE
  8
0
 62
7
 10
4.40000172E+01
 20
2.32500008E+02
 11
1.20000134E+01
 21
2.32500008E+02
  0
LINE
  8
0
 62
7
 10
-3.45999952E+02
 20
1.63499985E+02
 11
-3.45999952E+02
 21
1.89499992E+02
  0
LINE
  8
0
 62
7
 10
-3.31499952E+02
 20
1.99500015E+02
 11
-3.26999952E+02
 21
1.99500015E+02
  0
LINE
  8
0
 62
7
 10
-3.26999952E+02
 20
2.00063248E+02
 11
-3.26999952E+02
 21
2.00000000E+02
  0
LINE
  8
0
 62
7
 10
-3.26517461E+02
 20
2.00527927E+02
 11
-3.13000004E+02
 21
2.00999967E+02
  0
LINE
  8
0
 62
7
 10
-1.34508689E+02
 20
2.31880192E+02
 11
-9.89999529E+01
 21
2.32499999E+02
  0
LINE
  8
0
 62
7
 10
-1.30999983E+02
 20
2.31941460E+02
 11
-1.30999983E+02
 21
2.32500008E+02
  0
LINE
  8
0
 62
7
 10
-1.30999983E+02
 20
2.32500008E+02
 11
-9.89999676E+01
 21
2.32500008E+02
  0
LINE
  8
0
 62
7
 10
-3.12499952E+02
 20
2.01500015E+02
 11
-3.10999952E+02
 21
2.01500015E+02
  0
LINE
  8
0
 62
7
 10
-9.89999981E+01
 20
2.30000023E+02
 11
-2.59999790E+01
 21
2.30000023E+02
  0
LINE
  8
0
 62
7
 10
4.40000019E+01
 20
2.31941460E+02
 11
4.40000019E+01
 21
2.32500008E+02
  0
LINE
  8
0
 62
7
 10
4.75087587E+01
 20
2.31880179E+02
 11
1.20000146E+01
 21
2.32499987E+02
  0
LINE
  8
0
  6
CENTER
 62
2
 10
-1.14999983E+02
 20
2.19800034E+02
 11
-1.14999983E+02
 21
2.34763649E+02
  0
LINE
  8
0
 62
7
 10
1.20000248E+01
 20
2.23000038E+02
 11
4.00002098E+00
 21
2.23000038E+02
  0
LINE
  8
0
 62
7
 10
1.20000248E+01
 20
2.14000015E+02
 11
-1.09999790E+01
 21
2.14000015E+02
  0
LINE
  8
0
 62
7
 10
1.20000248E+01
 20
2.32500008E+02
 11
1.20000248E+01
 21
1.20500004E+02
  0
LINE
  8
0
 62
7
 10
4.80000172E+01
 20
2.31380257E+02
 11
4.80000172E+01
 21
1.21619743E+02
  0
LINE
  8
0
 62
7
 10
-3.41999952E+02
 20
1.91500038E+02
 11
-3.31999952E+02
 21
1.91500038E+02
  0
LINE
  8
0
 62
7
 10
-9.89999981E+01
 20
2.32500008E+02
 11
-9.89999981E+01
 21
1.20500015E+02
  0
LINE
  8
0
 62
7
 10
-1.34999983E+02
 20
2.31380287E+02
 11
-1.34999983E+02
 21
1.21619720E+02
  0
LINE
  8
0
 62
7
 10
-3.10999952E+02
 20
2.35829979E+02
 11
-2.74999983E+02
 21
2.35829979E+02
  0
LINE
  8
0
 62
7
 10
-1.73999922E+02
 20
2.35829979E+02
 11
-1.34999983E+02
 21
2.35829979E+02
  0
LINE
  8
0
 62
7
 10
-1.73999922E+02
 20
1.17170015E+02
 11
-1.34999983E+02
 21
1.17170015E+02
  0
LINE
  8
0
 62
7
 10
-1.34999983E+02
 20
2.45499977E+02
 11
-1.34999983E+02
 21
1.07499987E+02
  0
LINE
  8
0
  6
CENTER
 62
2
 10
-3.17348158E+02
 20
1.24499994E+02
 11
-1.27870161E+02
 21
1.24499994E+02
  0
LINE
  8
0
 62
7
 10
-2.74999983E+02
 20
1.29999966E+02
 11
-1.73999952E+02
 21
1.29999966E+02
  0
LINE
  8
0
 62
7
 10
-2.74999983E+02
 20
1.18999983E+02
 11
-1.73999952E+02
 21
1.18999983E+02
  0
LINE
  8
0
 62
7
 10
-2.57999850E+02
 20
1.78809333E+02
 11
-2.59999864E+02
 21
1.77654624E+02
  0
LINE
  8
0
 62
7
 10
-3.10999952E+02
 20
1.17170015E+02
 11
-2.74999983E+02
 21
1.17170015E+02
  0
LINE
  8
0
  6
DASHED
 62
7
 10
-1.67036497E+02
 20
2.35799965E+02
 11
-1.50963499E+02
 21
2.35799965E+02
  0
LINE
  8
0
  6
CENTER
 62
2
 10
-1.58999998E+02
 20
2.23000008E+02
 11
-1.58999998E+02
 21
2.47952599E+02
  0
LINE
  8
0
 62
7
 10
-2.74999983E+02
 20
2.22999977E+02
 11
-1.73999952E+02
 21
2.22999977E+02
  0
LINE
  8
0
  6
CENTER
 62
2
 10
-3.17348158E+02
 20
2.28499962E+02
 11
-1.27870161E+02
 21
2.28499962E+02
  0
LINE
  8
0
 62
7
 10
-2.74999983E+02
 20
2.33999992E+02
 11
-1.73999952E+02
 21
2.33999992E+02
  0
LINE
  8
0
 62
7
 10
-2.54536298E+02
 20
1.82499753E+02
 11
-2.51072213E+02
 21
1.76499773E+02
  0
LINE
  8
0
 62
7
 10
-2.55999776E+02
 20
1.77654965E+02
 11
-2.57999790E+02
 21
1.78809674E+02
  0
LINE
  8
0
 62
7
 10
-2.74999983E+02
 20
2.43499962E+02
 11
-1.73999922E+02
 21
2.43499962E+02
  0
LINE
  8
0
 62
7
 10
-1.73999952E+02
 20
1.07499987E+02
 11
-1.34999983E+02
 21
1.07499987E+02
  0
LINE
  8
0
 62
7
 10
-2.74999983E+02
 20
2.45499977E+02
 11
-2.74999983E+02
 21
1.07499987E+02
  0
LINE
  8
0
 62
7
 10
-3.10999952E+02
 20
2.45499977E+02
 11
-3.10999952E+02
 21
1.07499987E+02
  0
LINE
  8
0
 62
7
 10
-1.73999998E+02
 20
2.45499977E+02
 11
-1.73999998E+02
 21
1.07499987E+02
  0
LINE
  8
0
 62
7
 10
-2.61464492E+02
 20
1.82500107E+02
 11
-2.64928597E+02
 21
1.76500091E+02
  0
LINE
  8
0
 62
7
 10
-2.54535810E+02
 20
1.82499985E+02
 11
-2.61464064E+02
 21
1.82499985E+02
  0
LINE
  8
0
 62
7
 10
-3.10999952E+02
 20
1.07499987E+02
 11
-2.74999983E+02
 21
1.07499987E+02
  0
LINE
  8
0
 62
7
 10
-2.74999983E+02
 20
1.09499994E+02
 11
-1.73999952E+02
 21
1.09499994E+02
  0
LINE
  8
0
 62
7
 10
-1.73999922E+02
 20
2.45499977E+02
 11
-1.34999983E+02
 21
2.45499977E+02
  0
LINE
  8
0
 62
7
 10
-3.10999952E+02
 20
2.45499977E+02
 11
-2.74999983E+02
 21
2.45499977E+02
  0
LINE
  8
0
  6
CENTER
 62
2
 10
-2.57999983E+02
 20
1.88310608E+02
 11
-2.57999983E+02
 21
1.64792160E+02
  0
LINE
  8
0
 62
7
 10
-2.55999952E+02
 20
1.77655014E+02
 11
-2.55999952E+02
 21
1.75345291E+02
  0
LINE
  8
0
 62
7
 10
-2.55999783E+02
 20
1.75344812E+02
 11
-2.57999798E+02
 21
1.74190103E+02
  0
LINE
  8
0
 62
7
 10
-2.57999942E+02
 20
1.74190578E+02
 11
-2.59999877E+02
 21
1.75345241E+02
  0
LINE
  8
0
 62
7
 10
-2.59999952E+02
 20
1.75345291E+02
 11
-2.59999952E+02
 21
1.77654709E+02
  0
LINE
  8
0
 62
7
 10
-2.54535810E+02
 20
1.70499977E+02
 11
-2.61464064E+02
 21
1.70499977E+02
  0
LINE
  8
0
 62
7
 10
-2.61464340E+02
 20
1.70499832E+02
 11
-2.64928463E+02
 21
1.76499877E+02
  0
LINE
  8
0
 62
7
 10
-2.54536416E+02
 20
1.70500365E+02
 11
-2.51072318E+02
 21
1.76500368E+02
  0
LINE
  8
0
  6
CENTER
 62
2
 10
-3.90507338E+02
 20
1.76500000E+02
 11
5.71827106E+01
 21
1.76500000E+02
  0
LINE
  8
0
  6
CENTER
 62
2
 10
-5.36500029E+02
 20
1.18821716E+02
 11
-5.36500029E+02
 21
1.48863647E+02
  0
LINE
  8
0
  6
CENTER
 62
2
 10
-5.20431456E+02
 20
1.34499992E+02
 11
-5.51996183E+02
 21
1.34499992E+02
  0
LINE
  8
0
  6
CENTER
 62
2
 10
-6.20499998E+02
 20
1.18927700E+02
 11
-6.20499998E+02
 21
1.49496201E+02
  0
LINE
  8
0
  6
CENTER
 62
2
 10
-6.05693800E+02
 20
1.34499992E+02
 11
-6.36875685E+02
 21
1.34499992E+02
  0
LINE
  8
0
  6
CENTER
 62
2
 10
-6.20499998E+02
 20
2.35392738E+02
 11
-6.20499998E+02
 21
2.03642197E+02
  0
LINE
  8
0
  6
CENTER
 62
2
 10
-6.05693800E+02
 20
2.18500000E+02
 11
-6.36783216E+02
 21
2.18500000E+02
  0
LINE
  8
0
  6
CENTER
 62
2
 10
-5.36500029E+02
 20
2.34980782E+02
 11
-5.36500029E+02
 21
2.04073807E+02
  0
LINE
  8
0
  6
CENTER
 62
2
 10
-5.20536131E+02
 20
2.18500000E+02
 11
-5.52391035E+02
 21
2.18500000E+02
  0
LINE
  8
0
 62
4
 10
-5.96500070E+02
 20
1.66107722E+02
 11
-5.78500079E+02
 21
1.55715424E+02
  0
LINE
  8
0
 62
4
 10
-5.78500125E+02
 20
1.97284608E+02
 11
-5.60500120E+02
 21
1.86892302E+02
  0
LINE
  8
0
 62
4
 10
-5.78500061E+02
 20
1.55715373E+02
 11
-5.60500060E+02
 21
1.66107677E+02
  0
LINE
  8
0
 62
4
 10
-5.96500048E+02
 20
1.86892269E+02
 11
-5.78500046E+02
 21
1.97284573E+02
  0
LINE
  8
0
 62
4
 10
-5.60499983E+02
 20
1.86892303E+02
 11
-5.60499983E+02
 21
1.66107697E+02
  0
LINE
  8
0
 62
4
 10
-5.96499990E+02
 20
1.86892303E+02
 11
-5.96499990E+02
 21
1.66107697E+02
  0
CIRCLE
  8
0
 62
4
 10
-5.78499983E+02
 20
1.76500000E+02
 40
1.80000000E+01
  0
CIRCLE
  8
0
 62
7
 10
-5.78499983E+02
 20
1.76500000E+02
 40
2.40000000E+01
  0
CIRCLE
  8
0
 62
7
 10
-5.78499861E+02
 20
1.76500061E+02
 40
2.35000153E+01
  0
CIRCLE
  8
0
 62
7
 10
-5.78499861E+02
 20
1.76500061E+02
 40
2.50000153E+01
  0
CIRCLE
  8
0
 62
2
 10
-5.78499983E+02
 20
1.76500000E+02
 40
1.21799841E+01
  0
CIRCLE
  8
0
 62
7
 10
-5.78499983E+02
 20
1.76500000E+02
 40
1.29999914E+01
  0
ARC
  8
0
 62
7
 10
-5.78499983E+02
 20
1.76500000E+02
 40
9.10000000E+01
 50
2.20690546E+02
 51
2.29309412E+02
  0
ARC
  8
0
 62
7
 10
-5.78499983E+02
 20
1.76500000E+02
 40
9.10000000E+01
 50
1.30690575E+02
 51
1.39309453E+02
  0
ARC
  8
0
 62
7
 10
-5.78499983E+02
 20
1.76500000E+02
 40
9.10000000E+01
 50
3.10690562E+02
 51
3.19309438E+02
  0
CIRCLE
  8
0
 62
7
 10
-5.26499922E+02
 20
1.24499994E+02
 40
5.00000000E+00
  0
CIRCLE
  8
0
 62
7
 10
-5.26499922E+02
 20
1.24499994E+02
 40
6.00000000E+00
  0
CIRCLE
  8
0
 62
7
 10
-5.26499922E+02
 20
2.28499962E+02
 40
5.00000000E+00
  0
CIRCLE
  8
0
 62
7
 10
-6.30499922E+02
 20
2.28499962E+02
 40
1.00000000E+01
  0
CIRCLE
  8
0
 62
7
 10
-6.30499922E+02
 20
2.28499962E+02
 40
6.00000000E+00
  0
CIRCLE
  8
0
 62
7
 10
-6.30499922E+02
 20
2.28499962E+02
 40
5.00000000E+00
  0
CIRCLE
  8
0
 62
7
 10
-6.30499922E+02
 20
2.28499962E+02
 40
1.02500000E+01
  0
CIRCLE
  8
0
 62
7
 10
-5.26499922E+02
 20
2.28499962E+02
 40
1.02500000E+01
  0
CIRCLE
  8
0
 62
7
 10
-5.26499922E+02
 20
2.28499962E+02
 40
1.00000000E+01
  0
CIRCLE
  8
0
 62
7
 10
-5.26499922E+02
 20
2.28499962E+02
 40
6.00000000E+00
  0
ARC
  8
0
 62
7
 10
-5.78499983E+02
 20
1.76500000E+02
 40
9.10000000E+01
 50
4.06905617E+01
 51
4.93094374E+01
  0
CIRCLE
  8
0
 62
7
 10
-5.26499922E+02
 20
1.24499994E+02
 40
1.00000000E+01
  0
CIRCLE
  8
0
 62
7
 10
-5.26499922E+02
 20
1.24499994E+02
 40
1.02500000E+01
  0
CIRCLE
  8
0
 62
7
 10
-6.30499922E+02
 20
1.24499994E+02
 40
1.00000000E+01
  0
CIRCLE
  8
0
 62
7
 10
-6.30499922E+02
 20
1.24499994E+02
 40
1.02500000E+01
  0
CIRCLE
  8
0
 62
7
 10
-6.30499922E+02
 20
1.24499994E+02
 40
5.00000000E+00
  0
CIRCLE
  8
0
 62
7
 10
-6.30499922E+02
 20
1.24499994E+02
 40
6.00000000E+00
  0
ARC
  8
0
 62
7
 10
-6.50159101E+02
 20
1.73499969E+02
 40
6.84088802E+00
 50
1.53989320E+02
 51
2.06010690E+02
  0
ARC
  8
0
 62
7
 10
-6.50159101E+02
 20
1.79499954E+02
 40
6.84084702E+00
 50
1.53989169E+02
 51
2.06010827E+02
  0
ARC
  8
0
 62
7
 10
-5.06840803E+02
 20
1.73499969E+02
 40
6.84088802E+00
 50
3.33989277E+02
 51
2.60106513E+01
  0
ARC
  8
0
 62
7
 10
-5.06840803E+02
 20
1.79499954E+02
 40
6.84084702E+00
 50
3.33989137E+02
 51
2.60107913E+01
  0
LINE
  8
0
 62
7
 10
-6.24500365E+02
 20
2.25036402E+02
 11
-6.30500377E+02
 21
2.21572283E+02
  0
LINE
  8
0
  6
CENTER
 62
2
 10
-6.30499922E+02
 20
2.06733383E+02
 11
-6.30499922E+02
 21
2.50123573E+02
  0
LINE
  8
0
  6
CENTER
 62
2
 10
-6.09294050E+02
 20
2.28499962E+02
 11
-6.53358747E+02
 21
2.28499962E+02
  0
LINE
  8
0
 62
7
 10
-6.30500139E+02
 20
2.21571705E+02
 11
-6.36500046E+02
 21
2.25035763E+02
  0
LINE
  8
0
 62
7
 10
-6.36499922E+02
 20
2.31964088E+02
 11
-6.36499922E+02
 21
2.25035881E+02
  0
LINE
  8
0
 62
7
 10
-6.24500081E+02
 20
2.31964082E+02
 11
-6.30499988E+02
 21
2.35428140E+02
  0
LINE
  8
0
 62
7
 10
-6.30500257E+02
 20
2.35428734E+02
 11
-6.36500322E+02
 21
2.31964585E+02
  0
LINE
  8
0
 62
7
 10
-6.24499922E+02
 20
2.25035881E+02
 11
-6.24499922E+02
 21
2.31964088E+02
  0
LINE
  8
0
  6
CENTER
 62
2
 10
-5.47705824E+02
 20
2.28499962E+02
 11
-5.03641096E+02
 21
2.28499962E+02
  0
LINE
  8
0
  6
CENTER
 62
2
 10
-5.26499922E+02
 20
2.06733383E+02
 11
-5.26499922E+02
 21
2.50123573E+02
  0
LINE
  8
0
 62
7
 10
-5.32500056E+02
 20
2.25035905E+02
 11
-5.26500017E+02
 21
2.21571771E+02
  0
LINE
  8
0
 62
7
 10
-5.26500388E+02
 20
2.21572264E+02
 11
-5.20500349E+02
 21
2.25036398E+02
  0
LINE
  8
0
 62
7
 10
-5.20499922E+02
 20
2.31964088E+02
 11
-5.20499922E+02
 21
2.25035881E+02
  0
LINE
  8
0
 62
7
 10
-5.26499865E+02
 20
2.35428205E+02
 11
-5.20499826E+02
 21
2.31964071E+02
  0
LINE
  8
0
 62
7
 10
-5.32500174E+02
 20
2.31964657E+02
 11
-5.26500293E+02
 21
2.35428700E+02
  0
LINE
  8
0
 62
7
 10
-5.32499983E+02
 20
2.25035881E+02
 11
-5.32499983E+02
 21
2.31964088E+02
  0
LINE
  8
0
 62
7
 10
-5.09499952E+02
 20
2.35829567E+02
 11
-5.09499952E+02
 21
1.17170397E+02
  0
LINE
  8
0
 62
7
 10
-5.32499983E+02
 20
1.27964081E+02
 11
-5.32499983E+02
 21
1.21035887E+02
  0
LINE
  8
0
 62
7
 10
-5.32499856E+02
 20
1.21035740E+02
 11
-5.26499949E+02
 21
1.17571682E+02
  0
LINE
  8
0
 62
7
 10
-5.26500038E+02
 20
1.17572064E+02
 11
-5.20499973E+02
 21
1.21036213E+02
  0
LINE
  8
0
 62
7
 10
-5.20499922E+02
 20
1.21035887E+02
 11
-5.20499922E+02
 21
1.27964081E+02
  0
LINE
  8
0
 62
7
 10
-5.26499945E+02
 20
1.31428167E+02
 11
-5.20499985E+02
 21
1.27964078E+02
  0
LINE
  8
0
 62
7
 10
-5.32500218E+02
 20
1.27964406E+02
 11
-5.26500205E+02
 21
1.31428525E+02
  0
LINE
  8
0
  6
CENTER
 62
2
 10
-5.26499922E+02
 20
1.46266598E+02
 11
-5.26499922E+02
 21
1.02876364E+02
  0
LINE
  8
0
  6
CENTER
 62
2
 10
-5.47705824E+02
 20
1.24499994E+02
 11
-5.03641096E+02
 21
1.24499994E+02
  0
LINE
  8
0
 62
7
 10
-6.24499922E+02
 20
1.27964081E+02
 11
-6.24499922E+02
 21
1.21035887E+02
  0
LINE
  8
0
 62
7
 10
-6.24500277E+02
 20
1.21036227E+02
 11
-6.30500184E+02
 21
1.17572169E+02
  0
LINE
  8
0
 62
7
 10
-6.30500071E+02
 20
1.17571740E+02
 11
-6.36500084E+02
 21
1.21035859E+02
  0
LINE
  8
0
 62
7
 10
-6.36499922E+02
 20
1.21035887E+02
 11
-6.36499922E+02
 21
1.27964081E+02
  0
LINE
  8
0
 62
7
 10
-6.30500188E+02
 20
1.31428654E+02
 11
-6.36500227E+02
 21
1.27964520E+02
  0
LINE
  8
0
 62
7
 10
-6.24500142E+02
 20
1.27964015E+02
 11
-6.30500101E+02
 21
1.31428103E+02
  0
LINE
  8
0
  6
CENTER
 62
2
 10
-6.30499922E+02
 20
1.46266598E+02
 11
-6.30499922E+02
 21
1.02876364E+02
  0
LINE
  8
0
  6
CENTER
 62
2
 10
-6.09294050E+02
 20
1.24499994E+02
 11
-6.53358747E+02
 21
1.24499994E+02
  0
LINE
  8
0
 62
7
 10
-6.37829512E+02
 20
2.45499977E+02
 11
-5.19170362E+02
 21
2.45499977E+02
  0
LINE
  8
0
 62
7
 10
-6.37829512E+02
 20
1.07499987E+02
 11
-5.19170362E+02
 21
1.07499987E+02
  0
LINE
  8
0
 62
7
 10
-6.47499983E+02
 20
2.35829567E+02
 11
-6.47499983E+02
 21
1.17170397E+02
  0
LINE
  8
0
 62
7
 10
-5.06499983E+02
 20
1.70499977E+02
 11
-4.99999983E+02
 21
1.70499977E+02
  0
LINE
  8
0
 62
7
 10
-6.57999611E+02
 20
1.79799367E+02
 11
-6.57299583E+02
 21
1.80499396E+02
  0
LINE
  8
0
 62
7
 10
-6.57299906E+02
 20
1.72499970E+02
 11
-6.58000042E+02
 21
1.73200107E+02
  0
LINE
  8
0
 62
2
 10
-6.57000044E+02
 20
1.79799942E+02
 11
-6.57999922E+02
 21
1.79799942E+02
  0
LINE
  8
0
 62
7
 10
-6.57300093E+02
 20
1.72499985E+02
 11
-6.57300093E+02
 21
1.80499939E+02
  0
LINE
  8
0
 62
7
 10
-4.98999881E+02
 20
1.79800052E+02
 11
-4.99699867E+02
 21
1.80500038E+02
  0
LINE
  8
0
 62
7
 10
-4.99699609E+02
 20
1.72499468E+02
 11
-4.98999601E+02
 21
1.73199475E+02
  0
LINE
  8
0
 62
7
 10
-6.50499861E+02
 20
1.68499969E+02
 11
-6.50499861E+02
 21
1.84499992E+02
  0
LINE
  8
0
 62
7
 10
-4.99699995E+02
 20
1.72499985E+02
 11
-4.99699995E+02
 21
1.80499939E+02
  0
LINE
  8
0
 62
2
 10
-4.99999891E+02
 20
1.79799942E+02
 11
-4.98999983E+02
 21
1.79799942E+02
  0
LINE
  8
0
 62
2
 10
-4.99999891E+02
 20
1.73199944E+02
 11
-4.98999983E+02
 21
1.73199944E+02
  0
LINE
  8
0
 62
7
 10
-4.99999891E+02
 20
1.80499939E+02
 11
-4.99700056E+02
 21
1.80499939E+02
  0
LINE
  8
0
 62
7
 10
-4.99999891E+02
 20
1.72499947E+02
 11
-4.99700056E+02
 21
1.72499947E+02
  0
LINE
  8
0
 62
7
 10
-6.57000044E+02
 20
1.72499947E+02
 11
-6.57300032E+02
 21
1.72499947E+02
  0
LINE
  8
0
 62
7
 10
-6.57000044E+02
 20
1.80499939E+02
 11
-6.57300032E+02
 21
1.80499939E+02
  0
LINE
  8
0
 62
2
 10
-6.57000044E+02
 20
1.73199944E+02
 11
-6.57999922E+02
 21
1.73199944E+02
  0
LINE
  8
0
 62
7
 10
-6.50499922E+02
 20
1.70499977E+02
 11
-6.57000044E+02
 21
1.70499977E+02
  0
LINE
  8
0
 62
7
 10
-4.98999922E+02
 20
1.73199982E+02
 11
-4.98999922E+02
 21
1.79799942E+02
  0
LINE
  8
0
 62
7
 10
-6.57999983E+02
 20
1.73199982E+02
 11
-6.57999983E+02
 21
1.79799942E+02
  0
LINE
  8
0
 62
7
 10
-6.57000044E+02
 20
1.70499977E+02
 11
-6.57000044E+02
 21
1.82499985E+02
  0
LINE
  8
0
 62
7
 10
-5.09499952E+02
 20
1.84499954E+02
 11
-5.06499983E+02
 21
1.84499954E+02
  0
LINE
  8
0
 62
7
 10
-4.99999891E+02
 20
1.70499977E+02
 11
-4.99999891E+02
 21
1.82499985E+02
  0
LINE
  8
0
 62
7
 10
-5.06499922E+02
 20
1.68499969E+02
 11
-5.06499922E+02
 21
1.84499992E+02
  0
LINE
  8
0
 62
7
 10
-5.09499952E+02
 20
1.68499969E+02
 11
-5.06499983E+02
 21
1.68499969E+02
  0
LINE
  8
0
 62
7
 10
-5.06499983E+02
 20
1.76499962E+02
 11
-5.00692732E+02
 21
1.76499962E+02
  0
LINE
  8
0
 62
7
 10
-6.50499922E+02
 20
1.82499947E+02
 11
-6.57000044E+02
 21
1.82499947E+02
  0
LINE
  8
0
 62
7
 10
-6.47499922E+02
 20
1.68499969E+02
 11
-6.50499922E+02
 21
1.68499969E+02
  0
LINE
  8
0
  6
CENTER
 62
2
 10
-6.63011274E+02
 20
1.76500000E+02
 11
-4.94148695E+02
 21
1.76500000E+02
  0
LINE
  8
0
 62
7
 10
-6.47499922E+02
 20
1.84499954E+02
 11
-6.50499922E+02
 21
1.84499954E+02
  0
LINE
  8
0
 62
7
 10
-6.50499922E+02
 20
1.76499962E+02
 11
-6.56307112E+02
 21
1.76499962E+02
  0
LINE
  8
0
 62
7
 10
-5.06499983E+02
 20
1.82499947E+02
 11
-4.99999983E+02
 21
1.82499947E+02
  0
LINE
  8
0
  6
CENTER
 62
2
 10
-5.78499983E+02
 20
2.48521370E+02
 11
-5.78499983E+02
 21
1.01947618E+02
  0
LINE
  8
0
 62
4
 10
2.54296633E+02
 20
2.32500000E+02
 11
2.52446568E+02
 21
2.36559597E+02
  0
LINE
  8
0
 62
4
 10
2.53879033E+02
 20
2.32500000E+02
 11
2.50504214E+02
 21
2.39905365E+02
  0
LINE
  8
0
 62
4
 10
2.42559870E+02
 20
2.32500000E+02
 11
2.41131612E+02
 21
2.35634024E+02
  0
LINE
  8
0
 62
4
 10
2.34651620E+02
 20
2.32500000E+02
 11
2.34761884E+02
 21
2.32731172E+02
  0
ARC
  8
0
 62
4
 10
2.45708354E+02
 20
2.28919679E+02
 40
1.18100000E+01
 50
1.76475088E+01
 51
2.45000000E+01
  0
ARC
  8
0
 62
4
 10
2.45701936E+02
 20
2.28933762E+02
 40
1.18100000E+01
 50
2.45000000E+01
 51
4.50326991E+01
  0
LINE
  8
0
 62
4
 10
2.52446568E+02
 20
2.36559597E+02
 11
2.54048100E+02
 21
2.37289457E+02
  0
LINE
  8
0
 62
4
 10
2.52162987E+02
 20
2.36265520E+02
 11
2.52508772E+02
 21
2.36423103E+02
  0
LINE
  8
0
 62
4
 10
2.53010744E+02
 20
2.36816707E+02
 11
2.51704460E+02
 21
2.39683085E+02
  0
LINE
  8
0
 62
4
 10
2.51870337E+02
 20
2.39319100E+02
 11
2.52898594E+02
 21
2.39787704E+02
  0
ARC
  8
0
 62
4
 10
2.44718095E+02
 20
2.32323213E+02
 40
1.18100000E+01
 50
1.16724900E+01
 51
3.73275101E+01
  0
ARC
  8
0
 62
4
 10
2.53314017E+02
 20
2.38878076E+02
 40
1.00000000E+00
 50
3.73275101E+01
 51
1.14500000E+02
  0
ARC
  8
0
 62
4
 10
2.55304545E+02
 20
2.34510261E+02
 40
1.00000000E+00
 50
3.43223662E+02
 51
1.16724900E+01
  0
LINE
  8
0
 62
4
 10
2.50794499E+02
 20
2.39268392E+02
 11
2.51704460E+02
 21
2.39683085E+02
  0
LINE
  8
0
 62
4
 10
2.34761884E+02
 20
2.32731172E+02
 11
2.41131612E+02
 21
2.35634024E+02
  0
LINE
  8
0
  6
CENTER
 62
6
 10
2.48577833E+02
 20
2.30235880E+02
 11
2.57806631E+02
 21
2.34441685E+02
  0
LINE
  8
0
  6
CENTER
 62
6
 10
2.47126407E+02
 20
2.33420744E+02
 11
2.56355205E+02
 21
2.37626550E+02
  0
LINE
  8
0
 62
4
 10
2.50504214E+02
 20
2.39905365E+02
 11
2.41131612E+02
 21
2.35634024E+02
  0
LINE
  8
0
  6
CENTER
 62
6
 10
3.12422171E+02
 20
2.30235880E+02
 11
3.03193372E+02
 21
2.34441685E+02
  0
LINE
  8
0
  6
CENTER
 62
6
 10
3.13873597E+02
 20
2.33420744E+02
 11
3.04644799E+02
 21
2.37626550E+02
  0
LINE
  8
0
 62
4
 10
3.06703432E+02
 20
2.32500000E+02
 11
3.06708112E+02
 21
2.32510270E+02
  0
LINE
  8
0
 62
4
 10
3.26348444E+02
 20
2.32500000E+02
 11
3.26238181E+02
 21
2.32731172E+02
  0
LINE
  8
0
 62
4
 10
3.06730646E+02
 20
2.32500000E+02
 11
3.06143936E+02
 21
2.32767379E+02
  0
LINE
  8
0
 62
4
 10
3.07121032E+02
 20
2.32500000E+02
 11
3.10495851E+02
 21
2.39905365E+02
  0
LINE
  8
0
 62
4
 10
3.18440195E+02
 20
2.32500000E+02
 11
3.19868452E+02
 21
2.35634024E+02
  0
ARC
  8
0
 62
4
 10
3.15291711E+02
 20
2.28919679E+02
 40
1.18100000E+01
 50
1.55500000E+02
 51
1.62352491E+02
  0
ARC
  8
0
 62
4
 10
3.15298129E+02
 20
2.28933762E+02
 40
1.18100000E+01
 50
1.53400933E+02
 51
1.55500000E+02
  0
ARC
  8
0
 62
4
 10
3.16281970E+02
 20
2.32323213E+02
 40
1.18100000E+01
 50
1.42672490E+02
 51
1.68327510E+02
  0
LINE
  8
0
 62
4
 10
3.06143936E+02
 20
2.32767379E+02
 11
3.09295605E+02
 21
2.39683085E+02
  0
LINE
  8
0
 62
4
 10
3.09129727E+02
 20
2.39319100E+02
 11
3.08101471E+02
 21
2.39787704E+02
  0
LINE
  8
0
 62
4
 10
3.06309813E+02
 20
2.33131364E+02
 11
3.05281557E+02
 21
2.33599967E+02
  0
ARC
  8
0
 62
4
 10
3.07686048E+02
 20
2.38878076E+02
 40
1.00000000E+00
 50
6.55000000E+01
 51
1.42672490E+02
  0
ARC
  8
0
 62
4
 10
3.05695520E+02
 20
2.34510261E+02
 40
1.00000000E+00
 50
1.68327510E+02
 51
2.45500000E+02
  0
LINE
  8
0
 62
4
 10
3.10205566E+02
 20
2.39268392E+02
 11
3.09295605E+02
 21
2.39683085E+02
  0
LINE
  8
0
 62
4
 10
3.26238181E+02
 20
2.32731172E+02
 11
3.19868452E+02
 21
2.35634024E+02
  0
LINE
  8
0
 62
4
 10
3.10495851E+02
 20
2.39905365E+02
 11
3.19868452E+02
 21
2.35634024E+02
  0
CIRCLE
  8
0
 62
7
 10
3.22499956E+02
 20
1.34499992E+02
 40
4.17999983E+00
  0
CIRCLE
  8
0
 62
7
 10
2.38499987E+02
 20
2.18500000E+02
 40
8.00000000E+00
  0
CIRCLE
  8
0
 62
7
 10
2.38499987E+02
 20
2.18500000E+02
 40
8.69999981E+00
  0
CIRCLE
  8
0
 62
7
 10
2.38499987E+02
 20
1.34499992E+02
 40
8.00000000E+00
  0
CIRCLE
  8
0
 62
7
 10
2.38499987E+02
 20
1.34499992E+02
 40
8.69999981E+00
  0
CIRCLE
  8
0
 62
7
 10
3.22499956E+02
 20
1.34499969E+02
 40
8.00000000E+00
  0
CIRCLE
  8
0
 62
7
 10
3.22499956E+02
 20
2.18500000E+02
 40
4.17999983E+00
  0
CIRCLE
  8
0
 62
7
 10
2.38499987E+02
 20
2.18500000E+02
 40
4.17999983E+00
  0
CIRCLE
  8
0
 62
7
 10
2.38499987E+02
 20
1.34499992E+02
 40
4.17999983E+00
  0
CIRCLE
  8
0
 62
2
 10
2.38499987E+02
 20
2.18500000E+02
 40
5.00000000E+00
  0
CIRCLE
  8
0
 62
2
 10
2.38499987E+02
 20
1.34499992E+02
 40
5.00000000E+00
  0
CIRCLE
  8
0
 62
7
 10
3.22499956E+02
 20
1.34499969E+02
 40
8.69999981E+00
  0
ARC
  8
0
 62
7
 10
2.45603456E+02
 20
2.08214539E+02
 40
1.00000000E+00
 50
4.50000423E+01
 51
1.24630380E+02
  0
ARC
  8
0
 62
7
 10
2.48785418E+02
 20
2.11396561E+02
 40
1.00000000E+00
 50
1.45369621E+02
 51
2.25000010E+02
  0
ARC
  8
0
 62
7
 10
2.60593126E+02
 20
1.93224892E+02
 40
1.00000000E+00
 50
3.19964774E+02
 51
4.50000423E+01
  0
ARC
  8
0
 62
7
 10
2.63775148E+02
 20
1.96406906E+02
 40
1.00000000E+00
 50
2.25000013E+02
 51
3.10035571E+02
  0
ARC
  8
0
 62
7
 10
2.78249941E+02
 20
2.27900017E+02
 40
1.00000000E+00
 50
3.59721781E-05
 51
9.00000162E+01
  0
ARC
  8
0
 62
7
 10
2.78249941E+02
 20
2.02402573E+02
 40
1.00000000E+00
 50
2.74964207E+02
 51
3.59721781E-05
  0
ARC
  8
0
 62
7
 10
2.54597445E+02
 20
1.78749992E+02
 40
1.00000000E+00
 50
2.70000045E+02
 51
3.55035851E+02
  0
ARC
  8
0
 62
7
 10
2.29099962E+02
 20
1.78749992E+02
 40
1.00000000E+00
 50
1.79999991E+02
 51
2.70000028E+02
  0
ARC
  8
0
 62
7
 10
2.48785418E+02
 20
1.41603493E+02
 40
1.00000000E+00
 50
1.35000041E+02
 51
2.14630376E+02
  0
ARC
  8
0
 62
7
 10
2.45603456E+02
 20
1.44785461E+02
 40
1.00000000E+00
 50
2.35369606E+02
 51
3.14999999E+02
  0
ARC
  8
0
 62
7
 10
2.63775042E+02
 20
1.56593117E+02
 40
1.00000000E+00
 50
4.99647701E+01
 51
1.35000041E+02
  0
ARC
  8
0
 62
7
 10
2.60593081E+02
 20
1.59775146E+02
 40
1.00000000E+00
 50
3.15000019E+02
 51
4.00355739E+01
  0
ARC
  8
0
 62
7
 10
2.29099962E+02
 20
1.74250000E+02
 40
1.00000000E+00
 50
9.00000300E+01
 51
1.80000019E+02
  0
ARC
  8
0
 62
7
 10
2.54597445E+02
 20
1.74250000E+02
 40
1.00000000E+00
 50
4.96420369E+00
 51
9.00000300E+01
  0
ARC
  8
0
 62
7
 10
2.78249941E+02
 20
1.50597458E+02
 40
1.00000000E+00
 50
4.96325564E-05
 51
8.50358549E+01
  0
ARC
  8
0
 62
7
 10
2.78249941E+02
 20
1.25099995E+02
 40
1.00000000E+00
 50
2.69999998E+02
 51
4.96325564E-05
  0
ARC
  8
0
 62
7
 10
3.15396441E+02
 20
1.44785446E+02
 40
1.00000000E+00
 50
2.25000027E+02
 51
3.04630351E+02
  0
ARC
  8
0
 62
7
 10
3.12214464E+02
 20
1.41603416E+02
 40
1.00000000E+00
 50
3.25369626E+02
 51
4.50000149E+01
  0
ARC
  8
0
 62
7
 10
3.00406816E+02
 20
1.59775085E+02
 40
1.00000000E+00
 50
1.39964769E+02
 51
2.25000037E+02
  0
ARC
  8
0
 62
7
 10
2.97224840E+02
 20
1.56593094E+02
 40
1.00000000E+00
 50
4.50000149E+01
 51
1.30035587E+02
  0
ARC
  8
0
 62
7
 10
2.82749956E+02
 20
1.25099995E+02
 40
1.00000000E+00
 50
1.80000022E+02
 51
2.70000011E+02
  0
ARC
  8
0
 62
7
 10
2.82749956E+02
 20
1.50597458E+02
 40
1.00000000E+00
 50
9.49641976E+01
 51
1.80000032E+02
  0
ARC
  8
0
 62
7
 10
3.06402498E+02
 20
1.74250000E+02
 40
1.00000000E+00
 50
9.00000437E+01
 51
1.75035851E+02
  0
ARC
  8
0
 62
7
 10
3.31899981E+02
 20
1.74250000E+02
 40
1.00000000E+00
 50
8.65142224E-06
 51
9.00000437E+01
  0
ARC
  8
0
 62
7
 10
2.29499987E+02
 20
2.27500008E+02
 40
4.40000010E+00
 50
9.00000162E+01
 51
1.80000005E+02
  0
ARC
  8
0
 62
7
 10
2.38499987E+02
 20
1.34499992E+02
 40
1.15000000E+01
 50
3.41325588E+02
 51
1.08675064E+02
  0
ARC
  8
0
 62
7
 10
3.22499956E+02
 20
1.34499992E+02
 40
1.15000000E+01
 50
7.22986043E+01
 51
1.98674999E+02
  0
ARC
  8
0
 62
7
 10
3.31499956E+02
 20
1.25500004E+02
 40
4.40000010E+00
 50
2.70000052E+02
 51
3.59721781E-05
  0
ARC
  8
0
 62
7
 10
2.29499987E+02
 20
1.25499966E+02
 40
4.40000010E+00
 50
1.79999991E+02
 51
2.70000028E+02
  0
ARC
  8
0
 62
7
 10
2.29499987E+02
 20
2.27500008E+02
 40
5.00000000E+00
 50
9.00000162E+01
 51
1.80000005E+02
  0
CIRCLE
  8
0
 62
7
 10
2.38499987E+02
 20
2.18500000E+02
 40
8.00000000E+00
  0
CIRCLE
  8
0
 62
2
 10
3.22499956E+02
 20
1.34499992E+02
 40
5.00000000E+00
  0
ARC
  8
0
 62
7
 10
3.31499956E+02
 20
1.25500004E+02
 40
5.00000000E+00
 50
2.70000052E+02
 51
3.59721781E-05
  0
CIRCLE
  8
0
 62
7
 10
3.22499956E+02
 20
1.34499969E+02
 40
8.00000000E+00
  0
CIRCLE
  8
0
 62
2
 10
3.22499956E+02
 20
2.18500000E+02
 40
5.00000000E+00
  0
ARC
  8
0
 62
7
 10
2.29499987E+02
 20
1.25500004E+02
 40
5.00000000E+00
 50
1.79999991E+02
 51
2.70000028E+02
  0
CIRCLE
  8
0
 62
7
 10
2.38499987E+02
 20
1.34499992E+02
 40
8.00000000E+00
  0
ARC
  8
0
 62
7
 10
2.29099962E+02
 20
2.01516159E+02
 40
1.00000000E+00
 50
8.54104432E+01
 51
1.80000005E+02
  0
ARC
  8
0
 62
7
 10
2.55483980E+02
 20
2.27900017E+02
 40
1.00000000E+00
 50
9.00000162E+01
 51
1.84587802E+02
  0
ARC
  8
0
 62
7
 10
3.31499865E+02
 20
1.46499863E+02
 40
4.19999981E+00
 50
8.55868260E+01
 51
1.81010245E+02
  0
ARC
  8
0
 62
7
 10
3.10499895E+02
 20
1.25500004E+02
 40
4.00000000E+00
 50
8.81873319E+01
 51
1.84588444E+02
  0
ARC
  8
0
 62
7
 10
2.50499849E+02
 20
1.25500118E+02
 40
4.00000000E+00
 50
3.55409848E+02
 51
9.18104672E+01
  0
ARC
  8
0
 62
7
 10
2.29499987E+02
 20
1.46500061E+02
 40
4.00000000E+00
 50
3.58186935E+02
 51
9.45886668E+01
  0
ARC
  8
0
 62
7
 10
3.31899981E+02
 20
1.51684464E+02
 40
1.00000000E+00
 50
2.65585872E+02
 51
1.86693353E-05
  0
ARC
  8
0
 62
7
 10
3.05515856E+02
 20
1.25100006E+02
 40
1.00000000E+00
 50
2.69999998E+02
 51
4.58865257E+00
  0
ARC
  8
0
 62
7
 10
2.55483828E+02
 20
1.25099968E+02
 40
1.00000000E+00
 50
1.75409449E+02
 51
2.69999974E+02
  0
ARC
  8
0
 62
7
 10
2.29099962E+02
 20
1.51484039E+02
 40
1.00000000E+00
 50
1.79999991E+02
 51
2.74587812E+02
  0
ARC
  8
0
 62
7
 10
2.50341814E+02
 20
2.22502525E+02
 40
1.00000000E+00
 50
8.81864507E+01
 51
1.98675204E+02
  0
ARC
  8
0
 62
7
 10
2.34497606E+02
 20
2.06658096E+02
 40
1.00000000E+00
 50
7.13256097E+01
 51
1.81810060E+02
  0
ARC
  8
0
 62
7
 10
3.26300615E+02
 20
1.46408180E+02
 40
1.00000000E+00
 50
2.52299371E+02
 51
1.01068540E+00
  0
ARC
  8
0
 62
7
 10
3.10658068E+02
 20
1.30497498E+02
 40
1.00000000E+00
 50
2.68186500E+02
 51
1.86751801E+01
  0
ARC
  8
0
 62
7
 10
2.50341921E+02
 20
1.30497612E+02
 40
1.00000000E+00
 50
1.61325626E+02
 51
2.71810056E+02
  0
ARC
  8
0
 62
7
 10
2.34497499E+02
 20
1.46341858E+02
 40
1.00000000E+00
 50
1.78187368E+02
 51
2.88674667E+02
  0
ARC
  8
0
 62
7
 10
2.38499987E+02
 20
2.18500000E+02
 40
1.15000000E+01
 50
2.51325577E+02
 51
1.86749751E+01
  0
ARC
  8
0
 62
7
 10
2.50500048E+02
 20
2.27500008E+02
 40
4.00000000E+00
 50
2.68187375E+02
 51
4.58865257E+00
  0
ARC
  8
0
 62
7
 10
2.29500093E+02
 20
2.06500107E+02
 40
4.00000000E+00
 50
2.65409591E+02
 51
1.81044602E+00
  0
CIRCLE
  8
0
 62
7
 10
3.22499956E+02
 20
2.18499985E+02
 40
8.00000000E+00
  0
CIRCLE
  8
0
 62
7
 10
3.22499956E+02
 20
2.18499985E+02
 40
8.69999981E+00
  0
ARC
  8
0
 62
7
 10
3.12214464E+02
 20
2.11396500E+02
 40
1.00000000E+00
 50
3.15000047E+02
 51
3.46303671E+01
  0
ARC
  8
0
 62
7
 10
3.15396532E+02
 20
2.08214508E+02
 40
1.00000000E+00
 50
5.53696217E+01
 51
1.35000014E+02
  0
ARC
  8
0
 62
7
 10
3.31899981E+02
 20
1.78749969E+02
 40
1.00000000E+00
 50
2.70000052E+02
 51
3.59721781E-05
  0
ARC
  8
0
 62
7
 10
2.82749956E+02
 20
2.27900017E+02
 40
1.00000000E+00
 50
9.00000025E+01
 51
1.80000046E+02
  0
ARC
  8
0
 62
7
 10
3.06402498E+02
 20
1.78749992E+02
 40
1.00000000E+00
 50
1.84964190E+02
 51
2.70000038E+02
  0
ARC
  8
0
 62
7
 10
3.00406908E+02
 20
1.93224861E+02
 40
1.00000000E+00
 50
1.35000014E+02
 51
2.20035582E+02
  0
ARC
  8
0
 62
7
 10
2.97224840E+02
 20
1.96406876E+02
 40
1.00000000E+00
 50
2.29964741E+02
 51
3.15000026E+02
  0
ARC
  8
0
 62
7
 10
2.82749956E+02
 20
2.02402512E+02
 40
1.00000000E+00
 50
1.80000036E+02
 51
2.65035857E+02
  0
ARC
  8
0
 62
7
 10
3.22499956E+02
 20
2.18500000E+02
 40
1.15000000E+01
 50
1.61325558E+02
 51
2.88675076E+02
  0
ARC
  8
0
 62
7
 10
3.31499956E+02
 20
2.27500023E+02
 40
4.40000010E+00
 50
3.59721781E-05
 51
9.00000162E+01
  0
ARC
  8
0
 62
7
 10
3.31499956E+02
 20
2.27500008E+02
 40
5.00000000E+00
 50
3.59721781E-05
 51
9.00000162E+01
  0
CIRCLE
  8
0
 62
7
 10
3.22499956E+02
 20
2.18499985E+02
 40
8.00000000E+00
  0
ARC
  8
0
 62
7
 10
3.31499956E+02
 20
2.06499939E+02
 40
4.00000000E+00
 50
1.78186904E+02
 51
2.74588685E+02
  0
ARC
  8
0
 62
7
 10
3.10500093E+02
 20
2.27499870E+02
 40
4.00000000E+00
 50
1.75409585E+02
 51
2.71810493E+02
  0
ARC
  8
0
 62
7
 10
3.31899981E+02
 20
2.01515961E+02
 40
1.00000000E+00
 50
3.59721781E-05
 51
9.45895342E+01
  0
ARC
  8
0
 62
7
 10
3.05516161E+02
 20
2.27900032E+02
 40
1.00000000E+00
 50
3.55410354E+02
 51
9.00000162E+01
  0
ARC
  8
0
 62
7
 10
3.26502443E+02
 20
2.06658142E+02
 40
1.00000000E+00
 50
3.58187399E+02
 51
1.08674648E+02
  0
ARC
  8
0
 62
7
 10
3.10658068E+02
 20
2.22502388E+02
 40
1.00000000E+00
 50
3.41325670E+02
 51
9.18100369E+01
  0
CIRCLE
  8
0
 62
7
 10
2.80499895E+02
 20
1.76500061E+02
 40
2.50000153E+01
  0
ARC
  8
0
 62
7
 10
2.80500002E+02
 20
1.76500000E+02
 40
9.10000000E+01
 50
3.10690569E+02
 51
3.19309435E+02
  0
ARC
  8
0
 62
7
 10
2.80500002E+02
 20
1.76500000E+02
 40
9.10000000E+01
 50
4.06905105E+01
 51
4.93093896E+01
  0
ARC
  8
0
 62
7
 10
2.80500002E+02
 20
1.76500000E+02
 40
9.10000000E+01
 50
1.30690533E+02
 51
1.39309413E+02
  0
ARC
  8
0
 62
7
 10
2.08840837E+02
 20
1.79499954E+02
 40
6.84084702E+00
 50
1.53989169E+02
 51
2.06010827E+02
  0
ARC
  8
0
 62
7
 10
2.08840837E+02
 20
1.73499969E+02
 40
6.84088802E+00
 50
1.53989320E+02
 51
2.06010690E+02
  0
ARC
  8
0
 62
7
 10
2.80500002E+02
 20
1.76500000E+02
 40
9.10000000E+01
 50
2.20690546E+02
 51
2.29309425E+02
  0
ARC
  8
0
 62
7
 10
3.52159166E+02
 20
1.79499954E+02
 40
6.84084702E+00
 50
3.33989137E+02
 51
2.60107947E+01
  0
ARC
  8
0
 62
7
 10
3.52159166E+02
 20
1.73499969E+02
 40
6.84088802E+00
 50
3.33989274E+02
 51
2.60106444E+01
  0
LINE
  8
0
 62
7
 10
3.22499965E+02
 20
1.40273501E+02
 11
3.27499962E+02
 21
1.37386752E+02
  0
LINE
  8
0
 62
7
 10
3.27499956E+02
 20
1.37386742E+02
 11
3.27499956E+02
 21
1.31613243E+02
  0
LINE
  8
0
 62
7
 10
3.27499972E+02
 20
1.31613243E+02
 11
3.22499963E+02
 21
1.28726486E+02
  0
LINE
  8
0
 62
7
 10
2.43499971E+02
 20
2.21386749E+02
 11
2.43499971E+02
 21
2.15613251E+02
  0
LINE
  8
0
 62
7
 10
3.22499965E+02
 20
2.12726501E+02
 11
3.17499969E+02
 21
2.15613251E+02
  0
LINE
  8
0
 62
7
 10
3.27499951E+02
 20
2.15613247E+02
 11
3.22499955E+02
 21
2.12726498E+02
  0
LINE
  8
0
 62
7
 10
2.43499976E+02
 20
2.15613254E+02
 11
2.38499980E+02
 21
2.12726505E+02
  0
LINE
  8
0
 62
7
 10
3.27499956E+02
 20
2.21386749E+02
 11
3.27499956E+02
 21
2.15613251E+02
  0
LINE
  8
0
 62
7
 10
2.38499989E+02
 20
2.12726507E+02
 11
2.33499986E+02
 21
2.15613260E+02
  0
LINE
  8
0
 62
7
 10
2.38499976E+02
 20
2.24273508E+02
 11
2.33499980E+02
 21
2.21386759E+02
  0
LINE
  8
0
 62
7
 10
2.33499987E+02
 20
1.37386742E+02
 11
2.33499987E+02
 21
1.31613243E+02
  0
LINE
  8
0
 62
7
 10
2.38499981E+02
 20
1.40273493E+02
 11
2.43499984E+02
 21
1.37386740E+02
  0
LINE
  8
0
 62
7
 10
2.43499971E+02
 20
1.37386742E+02
 11
2.43499971E+02
 21
1.31613243E+02
  0
LINE
  8
0
 62
7
 10
3.17499956E+02
 20
2.21386749E+02
 11
3.17499956E+02
 21
2.15613251E+02
  0
LINE
  8
0
 62
7
 10
3.22499952E+02
 20
2.24273499E+02
 11
3.17499956E+02
 21
2.21386750E+02
  0
LINE
  8
0
 62
7
 10
2.43499984E+02
 20
1.31613244E+02
 11
2.38499987E+02
 21
1.28726494E+02
  0
LINE
  8
0
 62
7
 10
2.38499984E+02
 20
1.28726486E+02
 11
2.33499981E+02
 21
1.31613239E+02
  0
LINE
  8
0
 62
7
 10
2.38499984E+02
 20
1.40273498E+02
 11
2.33499987E+02
 21
1.37386748E+02
  0
LINE
  8
0
 62
7
 10
3.22499969E+02
 20
2.24273505E+02
 11
3.27499965E+02
 21
2.21386755E+02
  0
LINE
  8
0
  6
CENTER
 62
2
 10
2.92499956E+02
 20
2.19800003E+02
 11
2.92499956E+02
 21
2.34763618E+02
  0
LINE
  8
0
 62
7
 10
2.38499986E+02
 20
2.24273514E+02
 11
2.43499989E+02
 21
2.21386760E+02
  0
LINE
  8
0
 62
7
 10
2.25099962E+02
 20
2.27500008E+02
 11
2.25099962E+02
 21
1.25499966E+02
  0
LINE
  8
0
 62
7
 10
3.31499956E+02
 20
1.21100006E+02
 11
2.29499987E+02
 21
1.21100006E+02
  0
LINE
  8
0
 62
7
 10
2.28099947E+02
 20
2.01516159E+02
 11
2.28099947E+02
 21
1.51484039E+02
  0
LINE
  8
0
 62
7
 10
2.29099962E+02
 20
1.77750000E+02
 11
2.54597445E+02
 21
1.77750000E+02
  0
LINE
  8
0
 62
7
 10
2.61300176E+02
 20
1.59068111E+02
 11
2.46310519E+02
 21
1.44078451E+02
  0
LINE
  8
0
 62
7
 10
2.63068083E+02
 20
1.57300269E+02
 11
2.48078427E+02
 21
1.42310609E+02
  0
LINE
  8
0
 62
7
 10
2.29099962E+02
 20
1.75250000E+02
 11
2.54597445E+02
 21
1.75250000E+02
  0
LINE
  8
0
 62
7
 10
2.97932103E+02
 20
1.57300352E+02
 11
3.12921773E+02
 21
1.42310683E+02
  0
LINE
  8
0
 62
7
 10
2.99699832E+02
 20
1.59068157E+02
 11
3.14689507E+02
 21
1.44078483E+02
  0
LINE
  8
0
 62
7
 10
3.05515917E+02
 20
1.24100010E+02
 11
2.55483767E+02
 21
1.24100010E+02
  0
LINE
  8
0
 62
7
 10
2.81750002E+02
 20
1.25099968E+02
 11
2.81750002E+02
 21
1.50597458E+02
  0
LINE
  8
0
 62
7
 10
3.31899981E+02
 20
1.75250000E+02
 11
3.06402498E+02
 21
1.75250000E+02
  0
LINE
  8
0
 62
7
 10
2.24499987E+02
 20
2.27500008E+02
 11
2.24499987E+02
 21
1.25500004E+02
  0
LINE
  8
0
  6
CENTER
 62
2
 10
2.38499987E+02
 20
2.35392738E+02
 11
2.38499987E+02
 21
2.03642197E+02
  0
LINE
  8
0
 62
7
 10
3.31499956E+02
 20
1.20500004E+02
 11
2.29499987E+02
 21
1.20500004E+02
  0
LINE
  8
0
  6
CENTER
 62
2
 10
3.22499956E+02
 20
1.18821716E+02
 11
3.22499956E+02
 21
1.48863647E+02
  0
LINE
  8
0
  6
CENTER
 62
2
 10
3.38568529E+02
 20
1.34499992E+02
 11
3.07003801E+02
 21
1.34499992E+02
  0
LINE
  8
0
 62
7
 10
2.79250002E+02
 20
1.25099968E+02
 11
2.79250002E+02
 21
1.50597458E+02
  0
LINE
  8
0
 62
7
 10
3.22499972E+02
 20
1.40273497E+02
 11
3.17499963E+02
 21
1.37386740E+02
  0
LINE
  8
0
 62
7
 10
3.17499956E+02
 20
1.37386742E+02
 11
3.17499956E+02
 21
1.31613243E+02
  0
LINE
  8
0
 62
7
 10
3.22499962E+02
 20
1.28726498E+02
 11
3.17499965E+02
 21
1.31613247E+02
  0
LINE
  8
0
  6
CENTER
 62
2
 10
2.38499987E+02
 20
1.18927700E+02
 11
2.38499987E+02
 21
1.49496201E+02
  0
LINE
  8
0
  6
CENTER
 62
2
 10
2.53306185E+02
 20
2.18500000E+02
 11
2.22216768E+02
 21
2.18500000E+02
  0
LINE
  8
0
  6
CENTER
 62
2
 10
2.53306185E+02
 20
1.34499992E+02
 11
2.22124300E+02
 21
1.34499992E+02
  0
LINE
  8
0
 62
7
 10
3.15499987E+02
 20
2.32500008E+02
 11
3.15499987E+02
 21
2.31900032E+02
  0
LINE
  8
0
  6
CENTER
 62
2
 10
3.22499956E+02
 20
2.34980782E+02
 11
3.22499956E+02
 21
2.04073807E+02
  0
LINE
  8
0
  6
CENTER
 62
2
 10
3.38463854E+02
 20
2.18500000E+02
 11
3.06608950E+02
 21
2.18500000E+02
  0
LINE
  8
0
 62
7
 10
3.36499956E+02
 20
2.27500008E+02
 11
3.36499956E+02
 21
1.25500004E+02
  0
LINE
  8
0
 62
7
 10
3.31499956E+02
 20
2.32500008E+02
 11
2.29499987E+02
 21
2.32500008E+02
  0
LINE
  8
0
 62
7
 10
2.81750002E+02
 20
2.27900017E+02
 11
2.81750002E+02
 21
2.02402512E+02
  0
LINE
  8
0
 62
7
 10
3.31899981E+02
 20
1.77750000E+02
 11
3.06402498E+02
 21
1.77750000E+02
  0
LINE
  8
0
 62
7
 10
3.32900011E+02
 20
2.01515961E+02
 11
3.32900011E+02
 21
1.51684464E+02
  0
LINE
  8
0
 62
7
 10
3.05516115E+02
 20
2.28900017E+02
 11
2.55483980E+02
 21
2.28900017E+02
  0
LINE
  8
0
 62
7
 10
2.97932002E+02
 20
1.95699741E+02
 11
3.12921661E+02
 21
2.10689399E+02
  0
LINE
  8
0
 62
7
 10
2.99699785E+02
 20
1.93932023E+02
 11
3.14689444E+02
 21
2.08921680E+02
  0
LINE
  8
0
 62
7
 10
3.35899981E+02
 20
2.27500023E+02
 11
3.35899981E+02
 21
1.25500004E+02
  0
LINE
  8
0
 62
7
 10
3.31499956E+02
 20
2.31900032E+02
 11
2.29499987E+02
 21
2.31900032E+02
  0
LINE
  8
0
 62
7
 10
2.45500002E+02
 20
1.21100006E+02
 11
2.45500002E+02
 21
1.20500004E+02
  0
LINE
  8
0
 62
7
 10
3.15499987E+02
 20
1.21100006E+02
 11
3.15499987E+02
 21
1.20500004E+02
  0
LINE
  8
0
 62
7
 10
2.45500002E+02
 20
2.32500008E+02
 11
2.45500002E+02
 21
2.31900032E+02
  0
LINE
  8
0
 62
7
 10
2.61300306E+02
 20
1.93932139E+02
 11
2.46310636E+02
 21
2.08921802E+02
  0
LINE
  8
0
 62
7
 10
2.63068081E+02
 20
1.95699876E+02
 11
2.48078411E+02
 21
2.10689540E+02
  0
LINE
  8
0
 62
7
 10
2.79250002E+02
 20
2.27900017E+02
 11
2.79250002E+02
 21
2.02402573E+02
  0
LINE
  8
0
 62
7
 10
2.33499987E+02
 20
2.21386749E+02
 11
2.33499987E+02
 21
2.15613251E+02
  0
LINE
  8
0
 62
7
 10
3.39829546E+02
 20
1.07499987E+02
 11
2.21170397E+02
 21
1.07499987E+02
  0
LINE
  8
0
 62
7
 10
3.39829546E+02
 20
2.45499977E+02
 11
2.21170397E+02
 21
2.45499977E+02
  0
LINE
  8
0
 62
7
 10
2.11499987E+02
 20
2.35829567E+02
 11
2.11499987E+02
 21
1.17170397E+02
  0
LINE
  8
0
 62
7
 10
2.08500032E+02
 20
1.82499947E+02
 11
2.02000025E+02
 21
1.82499947E+02
  0
LINE
  8
0
 62
7
 10
2.08500032E+02
 20
1.76499962E+02
 11
2.02692774E+02
 21
1.76499962E+02
  0
LINE
  8
0
 62
7
 10
2.08500032E+02
 20
1.70499977E+02
 11
2.02000025E+02
 21
1.70499977E+02
  0
LINE
  8
0
 62
7
 10
2.01000070E+02
 20
1.79800039E+02
 11
2.01700001E+02
 21
1.80499970E+02
  0
LINE
  8
0
 62
7
 10
2.01699636E+02
 20
1.72499443E+02
 11
2.00999635E+02
 21
1.73199444E+02
  0
LINE
  8
0
 62
7
 10
2.01700037E+02
 20
1.72499985E+02
 11
2.01700037E+02
 21
1.80499939E+02
  0
LINE
  8
0
 62
2
 10
2.01999949E+02
 20
1.79799942E+02
 11
2.01000040E+02
 21
1.79799942E+02
  0
LINE
  8
0
 62
2
 10
2.01999949E+02
 20
1.73199944E+02
 11
2.01000040E+02
 21
1.73199944E+02
  0
LINE
  8
0
 62
7
 10
2.01999949E+02
 20
1.80499939E+02
 11
2.01700113E+02
 21
1.80499939E+02
  0
LINE
  8
0
 62
7
 10
2.01999949E+02
 20
1.72499947E+02
 11
2.01700113E+02
 21
1.72499947E+02
  0
LINE
  8
0
 62
7
 10
2.01999964E+02
 20
1.70499977E+02
 11
2.01999964E+02
 21
1.82499985E+02
  0
LINE
  8
0
 62
7
 10
2.00999964E+02
 20
1.73199982E+02
 11
2.00999964E+02
 21
1.79799942E+02
  0
LINE
  8
0
 62
7
 10
2.11499987E+02
 20
1.68499969E+02
 11
2.08500032E+02
 21
1.68499969E+02
  0
LINE
  8
0
 62
7
 10
2.11499987E+02
 20
1.84499954E+02
 11
2.08500032E+02
 21
1.84499954E+02
  0
LINE
  8
0
 62
7
 10
2.08499956E+02
 20
1.68499969E+02
 11
2.08499956E+02
 21
1.84499992E+02
  0
LINE
  8
0
 62
7
 10
3.49500017E+02
 20
2.35829567E+02
 11
3.49500017E+02
 21
1.17170397E+02
  0
LINE
  8
0
  6
CENTER
 62
2
 10
2.80500002E+02
 20
2.48521370E+02
 11
2.80500002E+02
 21
1.01947618E+02
  0
LINE
  8
0
 62
7
 10
3.59999561E+02
 20
1.79799336E+02
 11
3.59299500E+02
 21
1.80499397E+02
  0
LINE
  8
0
 62
7
 10
3.59299974E+02
 20
1.72499950E+02
 11
3.60000089E+02
 21
1.73200065E+02
  0
LINE
  8
0
 62
7
 10
3.59300127E+02
 20
1.72499985E+02
 11
3.59300127E+02
 21
1.80499939E+02
  0
LINE
  8
0
 62
2
 10
3.59000078E+02
 20
1.79799942E+02
 11
3.59999987E+02
 21
1.79799942E+02
  0
LINE
  8
0
 62
2
 10
3.59000078E+02
 20
1.73199944E+02
 11
3.59999987E+02
 21
1.73199944E+02
  0
LINE
  8
0
 62
7
 10
3.59000078E+02
 20
1.80499939E+02
 11
3.59300066E+02
 21
1.80499939E+02
  0
LINE
  8
0
 62
7
 10
3.59000078E+02
 20
1.72499947E+02
 11
3.59300066E+02
 21
1.72499947E+02
  0
LINE
  8
0
 62
7
 10
3.60000048E+02
 20
1.73199982E+02
 11
3.60000048E+02
 21
1.79799942E+02
  0
LINE
  8
0
  6
CENTER
 62
2
 10
3.65011339E+02
 20
1.76500000E+02
 11
1.96148737E+02
 21
1.76500000E+02
  0
LINE
  8
0
 62
7
 10
3.59000078E+02
 20
1.70499977E+02
 11
3.59000078E+02
 21
1.82499985E+02
  0
LINE
  8
0
 62
7
 10
3.52499987E+02
 20
1.70499977E+02
 11
3.59000078E+02
 21
1.70499977E+02
  0
LINE
  8
0
 62
7
 10
3.52499987E+02
 20
1.76499962E+02
 11
3.58307177E+02
 21
1.76499962E+02
  0
LINE
  8
0
 62
7
 10
3.52499987E+02
 20
1.82499947E+02
 11
3.59000078E+02
 21
1.82499947E+02
  0
LINE
  8
0
 62
7
 10
3.49499956E+02
 20
1.68499969E+02
 11
3.52499987E+02
 21
1.68499969E+02
  0
LINE
  8
0
 62
7
 10
3.49499956E+02
 20
1.84499954E+02
 11
3.52499987E+02
 21
1.84499954E+02
  0
LINE
  8
0
 62
7
 10
3.52499895E+02
 20
1.68499969E+02
 11
3.52499895E+02
 21
1.84499992E+02
  0
LINE
  8
0
  6
PHANTOM
 10
-4.05000000E+01
 20
4.62114332E+02
 11
-4.05000000E+01
 21
2.86416975E+02
  0
LINE
  8
0
 62
7
 10
-1.29265158E+01
 20
3.42999969E+02
 11
1.19999981E+01
 21
3.42999969E+02
  0
LINE
  8
0
 62
7
 10
-2.09265158E+01
 20
3.42999969E+02
 11
-1.60734881E+01
 21
3.42999969E+02
  0
LINE
  8
0
 62
7
 10
-2.60000019E+01
 20
3.49999939E+02
 11
-9.89999981E+01
 21
3.49999939E+02
  0
LINE
  8
0
 62
7
 10
-2.60000019E+01
 20
3.59000000E+02
 11
-9.89999981E+01
 21
3.59000000E+02
  0
LINE
  8
0
 62
7
 10
-8.49999981E+01
 20
4.34000000E+02
 11
-9.89999981E+01
 21
4.34000000E+02
  0
LINE
  8
0
 62
7
 10
-6.99999981E+01
 20
4.43000031E+02
 11
-9.89999981E+01
 21
4.43000031E+02
  0
LINE
  8
0
 62
7
 10
-5.69264253E+01
 20
4.50000000E+02
 11
1.19999981E+01
 21
4.50000000E+02
  0
LINE
  8
0
 62
7
 10
-6.49264253E+01
 20
4.50000000E+02
 11
-6.00735708E+01
 21
4.50000000E+02
  0
LINE
  8
0
 62
4
 10
-5.99999981E+01
 20
4.21284237E+02
 11
-5.49999981E+01
 21
4.21284237E+02
  0
LINE
  8
0
  6
CENTER
 62
6
 10
-6.49999981E+01
 20
4.24629730E+02
 11
-5.99999981E+01
 21
4.24629730E+02
  0
LINE
  8
0
  6
CENTER
 62
6
 10
-6.24999981E+01
 20
4.27129730E+02
 11
-6.24999981E+01
 21
4.22129730E+02
  0
LINE
  8
0
  6
CENTER
 62
6
 10
-7.24999981E+01
 20
4.23178303E+02
 11
-6.74999981E+01
 21
4.23178303E+02
  0
LINE
  8
0
  6
CENTER
 62
6
 10
-6.99999981E+01
 20
4.25678303E+02
 11
-6.99999981E+01
 21
4.20678303E+02
  0
LINE
  8
0
 62
4
 10
-6.74890677E+01
 20
4.19860757E+02
 11
-5.49999981E+01
 21
4.19860757E+02
  0
LINE
  8
0
 62
4
 10
-6.68005073E+01
 20
4.20134928E+02
 11
-5.99999981E+01
 21
4.20134928E+02
  0
LINE
  8
0
 62
4
 10
-6.58499981E+01
 20
4.21793701E+02
 11
-6.51230474E+01
 21
4.21793701E+02
  0
LINE
  8
0
 62
4
 10
-6.58499981E+01
 20
4.22183040E+02
 11
-6.56718888E+01
 21
4.22183040E+02
  0
LINE
  8
0
 62
4
 10
-5.93281074E+01
 20
4.22183040E+02
 11
-5.49999981E+01
 21
4.22183040E+02
  0
LINE
  8
0
  6
CENTER
 62
6
 10
-7.99999981E+01
 20
4.24629730E+02
 11
-7.49999981E+01
 21
4.24629730E+02
  0
ARC
  8
0
 62
4
 10
-5.62529393E+01
 20
4.36720687E+02
 40
1.64201386E+01
 50
2.40783600E+02
 51
2.49877812E+02
  0
ARC
  8
0
 62
4
 10
-6.87470563E+01
 20
4.36720686E+02
 40
1.64201370E+01
 50
2.90122188E+02
 51
2.99216401E+02
  0
POLYLINE
  8
0
 62
4
 66
1
  0
VERTEX
  8
0
 62
4
 10
-6.58999981E+01
 20
4.22690782E+02
  0
VERTEX
  8
0
 62
4
 10
-6.58870601E+01
 20
4.22567896E+02
  0
VERTEX
  8
0
 62
4
 10
-6.58483445E+01
 20
4.22445946E+02
  0
VERTEX
  8
0
 62
4
 10
-6.57841459E+01
 20
4.22325858E+02
  0
VERTEX
  8
0
 62
4
 10
-6.56949530E+01
 20
4.22208548E+02
  0
VERTEX
  8
0
 62
4
 10
-6.55814446E+01
 20
4.22094908E+02
  0
VERTEX
  8
0
 62
4
 10
-6.54444845E+01
 20
4.21985803E+02
  0
VERTEX
  8
0
 62
4
 10
-6.52851151E+01
 20
4.21882064E+02
  0
VERTEX
  8
0
 62
4
 10
-6.51045492E+01
 20
4.21784479E+02
  0
VERTEX
  8
0
 62
4
 10
-6.49041612E+01
 20
4.21693792E+02
  0
VERTEX
  8
0
 62
4
 10
-6.46854760E+01
 20
4.21610692E+02
  0
VERTEX
  8
0
 62
4
 10
-6.44501580E+01
 20
4.21535813E+02
  0
VERTEX
  8
0
 62
4
 10
-6.41999981E+01
 20
4.21469723E+02
  0
VERTEX
  8
0
 62
4
 10
-6.39369002E+01
 20
4.21412927E+02
  0
VERTEX
  8
0
 62
4
 10
-6.36628666E+01
 20
4.21365856E+02
  0
VERTEX
  8
0
 62
4
 10
-6.33799829E+01
 20
4.21328868E+02
  0
VERTEX
  8
0
 62
4
 10
-6.30904019E+01
 20
4.21302245E+02
  0
VERTEX
  8
0
 62
4
 10
-6.27963276E+01
 20
4.21286190E+02
  0
VERTEX
  8
0
 62
4
 10
-6.24999981E+01
 20
4.21280825E+02
  0
VERTEX
  8
0
 62
4
 10
-6.22036686E+01
 20
4.21286190E+02
  0
VERTEX
  8
0
 62
4
 10
-6.19095943E+01
 20
4.21302245E+02
  0
VERTEX
  8
0
 62
4
 10
-6.16200133E+01
 20
4.21328868E+02
  0
VERTEX
  8
0
 62
4
 10
-6.13371296E+01
 20
4.21365856E+02
  0
VERTEX
  8
0
 62
4
 10
-6.10630960E+01
 20
4.21412927E+02
  0
VERTEX
  8
0
 62
4
 10
-6.07999981E+01
 20
4.21469723E+02
  0
VERTEX
  8
0
 62
4
 10
-6.05498382E+01
 20
4.21535813E+02
  0
VERTEX
  8
0
 62
4
 10
-6.03145202E+01
 20
4.21610692E+02
  0
VERTEX
  8
0
 62
4
 10
-6.00958350E+01
 20
4.21693792E+02
  0
VERTEX
  8
0
 62
4
 10
-5.98954470E+01
 20
4.21784479E+02
  0
VERTEX
  8
0
 62
4
 10
-5.97148812E+01
 20
4.21882064E+02
  0
VERTEX
  8
0
 62
4
 10
-5.95555117E+01
 20
4.21985803E+02
  0
VERTEX
  8
0
 62
4
 10
-5.94185516E+01
 20
4.22094908E+02
  0
VERTEX
  8
0
 62
4
 10
-5.93050432E+01
 20
4.22208548E+02
  0
VERTEX
  8
0
 62
4
 10
-5.92158503E+01
 20
4.22325858E+02
  0
VERTEX
  8
0
 62
4
 10
-5.91516517E+01
 20
4.22445946E+02
  0
VERTEX
  8
0
 62
4
 10
-5.91129361E+01
 20
4.22567896E+02
  0
VERTEX
  8
0
 62
4
 10
-5.90999981E+01
 20
4.22690782E+02
  0
VERTEX
  8
0
 62
4
 10
-5.91129361E+01
 20
4.22813668E+02
  0
VERTEX
  8
0
 62
4
 10
-5.91516517E+01
 20
4.22935618E+02
  0
VERTEX
  8
0
 62
4
 10
-5.92158503E+01
 20
4.23055706E+02
  0
VERTEX
  8
0
 62
4
 10
-5.93050432E+01
 20
4.23173016E+02
  0
VERTEX
  8
0
 62
4
 10
-5.94185516E+01
 20
4.23286656E+02
  0
VERTEX
  8
0
 62
4
 10
-5.95555117E+01
 20
4.23395761E+02
  0
VERTEX
  8
0
 62
4
 10
-5.97148811E+01
 20
4.23499500E+02
  0
VERTEX
  8
0
 62
4
 10
-5.98954470E+01
 20
4.23597085E+02
  0
VERTEX
  8
0
 62
4
 10
-6.00958350E+01
 20
4.23687772E+02
  0
VERTEX
  8
0
 62
4
 10
-6.03145202E+01
 20
4.23770872E+02
  0
VERTEX
  8
0
 62
4
 10
-6.05498382E+01
 20
4.23845751E+02
  0
VERTEX
  8
0
 62
4
 10
-6.07999981E+01
 20
4.23911841E+02
  0
VERTEX
  8
0
 62
4
 10
-6.10630960E+01
 20
4.23968637E+02
  0
VERTEX
  8
0
 62
4
 10
-6.13371296E+01
 20
4.24015708E+02
  0
VERTEX
  8
0
 62
4
 10
-6.16200133E+01
 20
4.24052696E+02
  0
VERTEX
  8
0
 62
4
 10
-6.19095943E+01
 20
4.24079319E+02
  0
VERTEX
  8
0
 62
4
 10
-6.22036686E+01
 20
4.24095374E+02
  0
VERTEX
  8
0
 62
4
 10
-6.24999981E+01
 20
4.24100739E+02
  0
VERTEX
  8
0
 62
4
 10
-6.27963276E+01
 20
4.24095374E+02
  0
VERTEX
  8
0
 62
4
 10
-6.30904019E+01
 20
4.24079319E+02
  0
VERTEX
  8
0
 62
4
 10
-6.33799829E+01
 20
4.24052696E+02
  0
VERTEX
  8
0
 62
4
 10
-6.36628666E+01
 20
4.24015708E+02
  0
VERTEX
  8
0
 62
4
 10
-6.39369002E+01
 20
4.23968637E+02
  0
VERTEX
  8
0
 62
4
 10
-6.41999981E+01
 20
4.23911841E+02
  0
VERTEX
  8
0
 62
4
 10
-6.44501580E+01
 20
4.23845751E+02
  0
VERTEX
  8
0
 62
4
 10
-6.46854760E+01
 20
4.23770872E+02
  0
VERTEX
  8
0
 62
4
 10
-6.49041612E+01
 20
4.23687772E+02
  0
VERTEX
  8
0
 62
4
 10
-6.51045492E+01
 20
4.23597085E+02
  0
VERTEX
  8
0
 62
4
 10
-6.52851151E+01
 20
4.23499500E+02
  0
VERTEX
  8
0
 62
4
 10
-6.54444845E+01
 20
4.23395761E+02
  0
VERTEX
  8
0
 62
4
 10
-6.55814446E+01
 20
4.23286656E+02
  0
VERTEX
  8
0
 62
4
 10
-6.56949530E+01
 20
4.23173016E+02
  0
VERTEX
  8
0
 62
4
 10
-6.57841459E+01
 20
4.23055706E+02
  0
VERTEX
  8
0
 62
4
 10
-6.58483445E+01
 20
4.22935618E+02
  0
VERTEX
  8
0
 62
4
 10
-6.58870601E+01
 20
4.22813668E+02
  0
VERTEX
  8
0
 62
4
 10
-6.58999981E+01
 20
4.22690782E+02
  0
SEQEND
  8
0
  0
POLYLINE
  8
0
 62
4
 66
1
  0
VERTEX
  8
0
 62
4
 10
-5.90999981E+01
 20
4.23719769E+02
  0
VERTEX
  8
0
 62
4
 10
-5.91136855E+01
 20
4.23846157E+02
  0
VERTEX
  8
0
 62
4
 10
-5.91546375E+01
 20
4.23971527E+02
  0
VERTEX
  8
0
 62
4
 10
-5.92225244E+01
 20
4.24094870E+02
  0
VERTEX
  8
0
 62
4
 10
-5.93167995E+01
 20
4.24215192E+02
  0
VERTEX
  8
0
 62
4
 10
-5.94367039E+01
 20
4.24331526E+02
  0
VERTEX
  8
0
 62
4
 10
-5.95812722E+01
 20
4.24442935E+02
  0
VERTEX
  8
0
 62
4
 10
-5.97493403E+01
 20
4.24548521E+02
  0
VERTEX
  8
0
 62
4
 10
-5.99395551E+01
 20
4.24647434E+02
  0
VERTEX
  8
0
 62
4
 10
-6.01503851E+01
 20
4.24738879E+02
  0
VERTEX
  8
0
 62
4
 10
-6.03801328E+01
 20
4.24822118E+02
  0
VERTEX
  8
0
 62
4
 10
-6.06269483E+01
 20
4.24896481E+02
  0
VERTEX
  8
0
 62
4
 10
-6.08888446E+01
 20
4.24961371E+02
  0
VERTEX
  8
0
 62
4
 10
-6.11637130E+01
 20
4.25016264E+02
  0
VERTEX
  8
0
 62
4
 10
-6.14493403E+01
 20
4.25060718E+02
  0
VERTEX
  8
0
 62
4
 10
-6.17434269E+01
 20
4.25094375E+02
  0
VERTEX
  8
0
 62
4
 10
-6.20436050E+01
 20
4.25116966E+02
  0
VERTEX
  8
0
 62
4
 10
-6.23474577E+01
 20
4.25128306E+02
  0
VERTEX
  8
0
 62
4
 10
-6.26525385E+01
 20
4.25128306E+02
  0
VERTEX
  8
0
 62
4
 10
-6.29563912E+01
 20
4.25116966E+02
  0
VERTEX
  8
0
 62
4
 10
-6.32565693E+01
 20
4.25094375E+02
  0
VERTEX
  8
0
 62
4
 10
-6.35506559E+01
 20
4.25060718E+02
  0
VERTEX
  8
0
 62
4
 10
-6.38362832E+01
 20
4.25016264E+02
  0
VERTEX
  8
0
 62
4
 10
-6.41111515E+01
 20
4.24961371E+02
  0
VERTEX
  8
0
 62
4
 10
-6.43730478E+01
 20
4.24896481E+02
  0
VERTEX
  8
0
 62
4
 10
-6.46198634E+01
 20
4.24822118E+02
  0
VERTEX
  8
0
 62
4
 10
-6.48496111E+01
 20
4.24738879E+02
  0
VERTEX
  8
0
 62
4
 10
-6.50604411E+01
 20
4.24647434E+02
  0
VERTEX
  8
0
 62
4
 10
-6.52506559E+01
 20
4.24548521E+02
  0
VERTEX
  8
0
 62
4
 10
-6.54187240E+01
 20
4.24442935E+02
  0
VERTEX
  8
0
 62
4
 10
-6.55632922E+01
 20
4.24331526E+02
  0
VERTEX
  8
0
 62
4
 10
-6.56831967E+01
 20
4.24215192E+02
  0
VERTEX
  8
0
 62
4
 10
-6.57774718E+01
 20
4.24094870E+02
  0
VERTEX
  8
0
 62
4
 10
-6.58453587E+01
 20
4.23971527E+02
  0
VERTEX
  8
0
 62
4
 10
-6.58863107E+01
 20
4.23846157E+02
  0
VERTEX
  8
0
 62
4
 10
-6.58999981E+01
 20
4.23719769E+02
  0
SEQEND
  8
0
  0
POLYLINE
  8
0
 62
4
 66
1
  0
VERTEX
  8
0
 62
4
 10
-5.90999981E+01
 20
4.23016011E+02
  0
VERTEX
  8
0
 62
4
 10
-5.89634164E+01
 20
4.23143272E+02
  0
VERTEX
  8
0
 62
4
 10
-5.88544686E+01
 20
4.23275038E+02
  0
VERTEX
  8
0
 62
4
 10
-5.87740058E+01
 20
4.23410279E+02
  0
VERTEX
  8
0
 62
4
 10
-5.87226568E+01
 20
4.23547937E+02
  0
VERTEX
  8
0
 62
4
 10
-5.87008228E+01
 20
4.23686939E+02
  0
VERTEX
  8
0
 62
4
 10
-5.87086745E+01
 20
4.23826197E+02
  0
VERTEX
  8
0
 62
4
 10
-5.87461505E+01
 20
4.23964623E+02
  0
VERTEX
  8
0
 62
4
 10
-5.88129579E+01
 20
4.24101137E+02
  0
VERTEX
  8
0
 62
4
 10
-5.89085747E+01
 20
4.24234670E+02
  0
VERTEX
  8
0
 62
4
 10
-5.90322539E+01
 20
4.24364180E+02
  0
VERTEX
  8
0
 62
4
 10
-5.91830290E+01
 20
4.24488655E+02
  0
VERTEX
  8
0
 62
4
 10
-5.93597219E+01
 20
4.24607122E+02
  0
VERTEX
  8
0
 62
4
 10
-5.95609519E+01
 20
4.24718655E+02
  0
VERTEX
  8
0
 62
4
 10
-5.97851469E+01
 20
4.24822384E+02
  0
VERTEX
  8
0
 62
4
 10
-6.00305548E+01
 20
4.24917497E+02
  0
VERTEX
  8
0
 62
4
 10
-6.02952583E+01
 20
4.25003251E+02
  0
VERTEX
  8
0
 62
4
 10
-6.05771889E+01
 20
4.25078977E+02
  0
VERTEX
  8
0
 62
4
 10
-6.08741438E+01
 20
4.25144082E+02
  0
VERTEX
  8
0
 62
4
 10
-6.11838027E+01
 20
4.25198058E+02
  0
VERTEX
  8
0
 62
4
 10
-6.15037459E+01
 20
4.25240483E+02
  0
VERTEX
  8
0
 62
4
 10
-6.18314735E+01
 20
4.25271025E+02
  0
VERTEX
  8
0
 62
4
 10
-6.21644248E+01
 20
4.25289447E+02
  0
VERTEX
  8
0
 62
4
 10
-6.24999981E+01
 20
4.25295603E+02
  0
VERTEX
  8
0
 62
4
 10
-6.28355715E+01
 20
4.25289447E+02
  0
VERTEX
  8
0
 62
4
 10
-6.31685227E+01
 20
4.25271025E+02
  0
VERTEX
  8
0
 62
4
 10
-6.34962504E+01
 20
4.25240483E+02
  0
VERTEX
  8
0
 62
4
 10
-6.38161936E+01
 20
4.25198058E+02
  0
VERTEX
  8
0
 62
4
 10
-6.41258524E+01
 20
4.25144082E+02
  0
VERTEX
  8
0
 62
4
 10
-6.44228073E+01
 20
4.25078977E+02
  0
VERTEX
  8
0
 62
4
 10
-6.47047379E+01
 20
4.25003251E+02
  0
VERTEX
  8
0
 62
4
 10
-6.49694414E+01
 20
4.24917497E+02
  0
VERTEX
  8
0
 62
4
 10
-6.52148494E+01
 20
4.24822384E+02
  0
VERTEX
  8
0
 62
4
 10
-6.54390443E+01
 20
4.24718655E+02
  0
VERTEX
  8
0
 62
4
 10
-6.56402744E+01
 20
4.24607122E+02
  0
VERTEX
  8
0
 62
4
 10
-6.58169673E+01
 20
4.24488655E+02
  0
VERTEX
  8
0
 62
4
 10
-6.59677423E+01
 20
4.24364180E+02
  0
VERTEX
  8
0
 62
4
 10
-6.60914215E+01
 20
4.24234670E+02
  0
VERTEX
  8
0
 62
4
 10
-6.61870383E+01
 20
4.24101137E+02
  0
VERTEX
  8
0
 62
4
 10
-6.62538457E+01
 20
4.23964623E+02
  0
VERTEX
  8
0
 62
4
 10
-6.62913217E+01
 20
4.23826197E+02
  0
VERTEX
  8
0
 62
4
 10
-6.62991734E+01
 20
4.23686939E+02
  0
VERTEX
  8
0
 62
4
 10
-6.62773394E+01
 20
4.23547937E+02
  0
VERTEX
  8
0
 62
4
 10
-6.62259904E+01
 20
4.23410279E+02
  0
VERTEX
  8
0
 62
4
 10
-6.61455276E+01
 20
4.23275038E+02
  0
VERTEX
  8
0
 62
4
 10
-6.60365798E+01
 20
4.23143272E+02
  0
VERTEX
  8
0
 62
4
 10
-6.58999981E+01
 20
4.23016011E+02
  0
SEQEND
  8
0
  0
POLYLINE
  8
0
 62
4
 66
1
  0
VERTEX
  8
0
 62
4
 10
-5.86999981E+01
 20
4.24629730E+02
  0
VERTEX
  8
0
 62
4
 10
-5.87152958E+01
 20
4.24770987E+02
  0
VERTEX
  8
0
 62
4
 10
-5.87610657E+01
 20
4.24911106E+02
  0
VERTEX
  8
0
 62
4
 10
-5.88369392E+01
 20
4.25048960E+02
  0
VERTEX
  8
0
 62
4
 10
-5.89423056E+01
 20
4.25183438E+02
  0
VERTEX
  8
0
 62
4
 10
-5.90763164E+01
 20
4.25313459E+02
  0
VERTEX
  8
0
 62
4
 10
-5.92378927E+01
 20
4.25437974E+02
  0
VERTEX
  8
0
 62
4
 10
-5.94257335E+01
 20
4.25555982E+02
  0
VERTEX
  8
0
 62
4
 10
-5.96383265E+01
 20
4.25666532E+02
  0
VERTEX
  8
0
 62
4
 10
-5.98739600E+01
 20
4.25768735E+02
  0
VERTEX
  8
0
 62
4
 10
-6.01307368E+01
 20
4.25861767E+02
  0
VERTEX
  8
0
 62
4
 10
-6.04065896E+01
 20
4.25944879E+02
  0
VERTEX
  8
0
 62
4
 10
-6.06992972E+01
 20
4.26017403E+02
  0
VERTEX
  8
0
 62
4
 10
-6.10065030E+01
 20
4.26078753E+02
  0
VERTEX
  8
0
 62
4
 10
-6.13257335E+01
 20
4.26128437E+02
  0
VERTEX
  8
0
 62
4
 10
-6.16544185E+01
 20
4.26166055E+02
  0
VERTEX
  8
0
 62
4
 10
-6.19899117E+01
 20
4.26191303E+02
  0
VERTEX
  8
0
 62
4
 10
-6.23295117E+01
 20
4.26203978E+02
  0
VERTEX
  8
0
 62
4
 10
-6.26704844E+01
 20
4.26203978E+02
  0
VERTEX
  8
0
 62
4
 10
-6.30100845E+01
 20
4.26191303E+02
  0
VERTEX
  8
0
 62
4
 10
-6.33455776E+01
 20
4.26166055E+02
  0
VERTEX
  8
0
 62
4
 10
-6.36742627E+01
 20
4.26128438E+02
  0
VERTEX
  8
0
 62
4
 10
-6.39934932E+01
 20
4.26078753E+02
  0
VERTEX
  8
0
 62
4
 10
-6.43006990E+01
 20
4.26017403E+02
  0
VERTEX
  8
0
 62
4
 10
-6.45934066E+01
 20
4.25944879E+02
  0
VERTEX
  8
0
 62
4
 10
-6.48692593E+01
 20
4.25861767E+02
  0
VERTEX
  8
0
 62
4
 10
-6.51260361E+01
 20
4.25768735E+02
  0
VERTEX
  8
0
 62
4
 10
-6.53616697E+01
 20
4.25666532E+02
  0
VERTEX
  8
0
 62
4
 10
-6.55742627E+01
 20
4.25555982E+02
  0
VERTEX
  8
0
 62
4
 10
-6.57621035E+01
 20
4.25437974E+02
  0
VERTEX
  8
0
 62
4
 10
-6.59236798E+01
 20
4.25313459E+02
  0
VERTEX
  8
0
 62
4
 10
-6.60576906E+01
 20
4.25183439E+02
  0
VERTEX
  8
0
 62
4
 10
-6.61630570E+01
 20
4.25048960E+02
  0
VERTEX
  8
0
 62
4
 10
-6.62389305E+01
 20
4.24911106E+02
  0
VERTEX
  8
0
 62
4
 10
-6.62847004E+01
 20
4.24770987E+02
  0
VERTEX
  8
0
 62
4
 10
-6.62999981E+01
 20
4.24629730E+02
  0
SEQEND
  8
0
  0
ARC
  8
0
 62
4
 10
-6.36303940E+01
 20
4.36015614E+02
 40
1.67245676E+01
 50
2.40885798E+02
 51
2.54028789E+02
  0
ARC
  8
0
 62
4
 10
-7.63695988E+01
 20
4.36015606E+02
 40
1.67245585E+01
 50
2.85971208E+02
 51
2.99114206E+02
  0
POLYLINE
  8
0
 62
4
 66
1
  0
VERTEX
  8
0
 62
4
 10
-7.41499981E+01
 20
4.21230986E+02
  0
VERTEX
  8
0
 62
4
 10
-7.41342061E+01
 20
4.21080993E+02
  0
VERTEX
  8
0
 62
4
 10
-7.40869503E+01
 20
4.20932142E+02
  0
VERTEX
  8
0
 62
4
 10
-7.40085903E+01
 20
4.20785564E+02
  0
VERTEX
  8
0
 62
4
 10
-7.38997225E+01
 20
4.20642377E+02
  0
VERTEX
  8
0
 62
4
 10
-7.37611754E+01
 20
4.20503670E+02
  0
VERTEX
  8
0
 62
4
 10
-7.35940035E+01
 20
4.20370498E+02
  0
VERTEX
  8
0
 62
4
 10
-7.33994791E+01
 20
4.20243874E+02
  0
VERTEX
  8
0
 62
4
 10
-7.31790825E+01
 20
4.20124763E+02
  0
VERTEX
  8
0
 62
4
 10
-7.29344912E+01
 20
4.20014072E+02
  0
VERTEX
  8
0
 62
4
 10
-7.26675667E+01
 20
4.19912641E+02
  0
VERTEX
  8
0
 62
4
 10
-7.23803403E+01
 20
4.19821244E+02
  0
VERTEX
  8
0
 62
4
 10
-7.20749981E+01
 20
4.19740576E+02
  0
VERTEX
  8
0
 62
4
 10
-7.17538639E+01
 20
4.19671251E+02
  0
VERTEX
  8
0
 62
4
 10
-7.14193817E+01
 20
4.19613797E+02
  0
VERTEX
  8
0
 62
4
 10
-7.10740971E+01
 20
4.19568650E+02
  0
VERTEX
  8
0
 62
4
 10
-7.07206380E+01
 20
4.19536155E+02
  0
VERTEX
  8
0
 62
4
 10
-7.03616944E+01
 20
4.19516558E+02
  0
VERTEX
  8
0
 62
4
 10
-6.99999981E+01
 20
4.19510009E+02
  0
VERTEX
  8
0
 62
4
 10
-6.96383018E+01
 20
4.19516558E+02
  0
VERTEX
  8
0
 62
4
 10
-6.92793582E+01
 20
4.19536155E+02
  0
VERTEX
  8
0
 62
4
 10
-6.89258991E+01
 20
4.19568650E+02
  0
VERTEX
  8
0
 62
4
 10
-6.85806145E+01
 20
4.19613797E+02
  0
VERTEX
  8
0
 62
4
 10
-6.82461323E+01
 20
4.19671251E+02
  0
VERTEX
  8
0
 62
4
 10
-6.79249981E+01
 20
4.19740576E+02
  0
VERTEX
  8
0
 62
4
 10
-6.76196559E+01
 20
4.19821244E+02
  0
VERTEX
  8
0
 62
4
 10
-6.73324295E+01
 20
4.19912641E+02
  0
VERTEX
  8
0
 62
4
 10
-6.70655050E+01
 20
4.20014072E+02
  0
VERTEX
  8
0
 62
4
 10
-6.68209137E+01
 20
4.20124763E+02
  0
VERTEX
  8
0
 62
4
 10
-6.66005171E+01
 20
4.20243874E+02
  0
VERTEX
  8
0
 62
4
 10
-6.64059927E+01
 20
4.20370498E+02
  0
VERTEX
  8
0
 62
4
 10
-6.62388208E+01
 20
4.20503670E+02
  0
VERTEX
  8
0
 62
4
 10
-6.61002737E+01
 20
4.20642377E+02
  0
VERTEX
  8
0
 62
4
 10
-6.59914059E+01
 20
4.20785564E+02
  0
VERTEX
  8
0
 62
4
 10
-6.59130459E+01
 20
4.20932141E+02
  0
VERTEX
  8
0
 62
4
 10
-6.58657901E+01
 20
4.21080993E+02
  0
VERTEX
  8
0
 62
4
 10
-6.58499981E+01
 20
4.21230986E+02
  0
VERTEX
  8
0
 62
4
 10
-6.58657901E+01
 20
4.21380979E+02
  0
VERTEX
  8
0
 62
4
 10
-6.59130459E+01
 20
4.21529830E+02
  0
VERTEX
  8
0
 62
4
 10
-6.59914059E+01
 20
4.21676408E+02
  0
VERTEX
  8
0
 62
4
 10
-6.61002737E+01
 20
4.21819595E+02
  0
VERTEX
  8
0
 62
4
 10
-6.62388208E+01
 20
4.21958302E+02
  0
VERTEX
  8
0
 62
4
 10
-6.64059927E+01
 20
4.22091474E+02
  0
VERTEX
  8
0
 62
4
 10
-6.66005171E+01
 20
4.22218098E+02
  0
VERTEX
  8
0
 62
4
 10
-6.68209137E+01
 20
4.22337209E+02
  0
VERTEX
  8
0
 62
4
 10
-6.70655050E+01
 20
4.22447900E+02
  0
VERTEX
  8
0
 62
4
 10
-6.73324295E+01
 20
4.22549331E+02
  0
VERTEX
  8
0
 62
4
 10
-6.76196559E+01
 20
4.22640728E+02
  0
VERTEX
  8
0
 62
4
 10
-6.79249981E+01
 20
4.22721396E+02
  0
VERTEX
  8
0
 62
4
 10
-6.82461323E+01
 20
4.22790721E+02
  0
VERTEX
  8
0
 62
4
 10
-6.85806145E+01
 20
4.22848175E+02
  0
VERTEX
  8
0
 62
4
 10
-6.89258991E+01
 20
4.22893322E+02
  0
VERTEX
  8
0
 62
4
 10
-6.92793582E+01
 20
4.22925817E+02
  0
VERTEX
  8
0
 62
4
 10
-6.96383018E+01
 20
4.22945414E+02
  0
VERTEX
  8
0
 62
4
 10
-6.99999981E+01
 20
4.22951963E+02
  0
VERTEX
  8
0
 62
4
 10
-7.03616944E+01
 20
4.22945414E+02
  0
VERTEX
  8
0
 62
4
 10
-7.07206380E+01
 20
4.22925817E+02
  0
VERTEX
  8
0
 62
4
 10
-7.10740971E+01
 20
4.22893322E+02
  0
VERTEX
  8
0
 62
4
 10
-7.14193817E+01
 20
4.22848175E+02
  0
VERTEX
  8
0
 62
4
 10
-7.17538639E+01
 20
4.22790721E+02
  0
VERTEX
  8
0
 62
4
 10
-7.20749981E+01
 20
4.22721396E+02
  0
VERTEX
  8
0
 62
4
 10
-7.23803403E+01
 20
4.22640728E+02
  0
VERTEX
  8
0
 62
4
 10
-7.26675667E+01
 20
4.22549331E+02
  0
VERTEX
  8
0
 62
4
 10
-7.29344912E+01
 20
4.22447900E+02
  0
VERTEX
  8
0
 62
4
 10
-7.31790825E+01
 20
4.22337209E+02
  0
VERTEX
  8
0
 62
4
 10
-7.33994791E+01
 20
4.22218098E+02
  0
VERTEX
  8
0
 62
4
 10
-7.35940035E+01
 20
4.22091474E+02
  0
VERTEX
  8
0
 62
4
 10
-7.37611754E+01
 20
4.21958302E+02
  0
VERTEX
  8
0
 62
4
 10
-7.38997225E+01
 20
4.21819595E+02
  0
VERTEX
  8
0
 62
4
 10
-7.40085903E+01
 20
4.21676408E+02
  0
VERTEX
  8
0
 62
4
 10
-7.40869503E+01
 20
4.21529831E+02
  0
VERTEX
  8
0
 62
4
 10
-7.41342061E+01
 20
4.21380979E+02
  0
VERTEX
  8
0
 62
4
 10
-7.41499981E+01
 20
4.21230986E+02
  0
SEQEND
  8
0
  0
POLYLINE
  8
0
 62
4
 66
1
  0
VERTEX
  8
0
 62
4
 10
-6.62896236E+01
 20
4.23603404E+02
  0
VERTEX
  8
0
 62
4
 10
-6.64700544E+01
 20
4.23737462E+02
  0
VERTEX
  8
0
 62
4
 10
-6.66785770E+01
 20
4.23864318E+02
  0
VERTEX
  8
0
 62
4
 10
-6.69135319E+01
 20
4.23982963E+02
  0
VERTEX
  8
0
 62
4
 10
-6.71730492E+01
 20
4.24092453E+02
  0
VERTEX
  8
0
 62
4
 10
-6.74550638E+01
 20
4.24191916E+02
  0
VERTEX
  8
0
 62
4
 10
-6.77573313E+01
 20
4.24280560E+02
  0
VERTEX
  8
0
 62
4
 10
-6.80774462E+01
 20
4.24357681E+02
  0
VERTEX
  8
0
 62
4
 10
-6.84128611E+01
 20
4.24422665E+02
  0
VERTEX
  8
0
 62
4
 10
-6.87609065E+01
 20
4.24474994E+02
  0
VERTEX
  8
0
 62
4
 10
-6.91188129E+01
 20
4.24514252E+02
  0
VERTEX
  8
0
 62
4
 10
-6.94837318E+01
 20
4.24540126E+02
  0
VERTEX
  8
0
 62
4
 10
-6.98527592E+01
 20
4.24552411E+02
  0
VERTEX
  8
0
 62
4
 10
-7.02229584E+01
 20
4.24551009E+02
  0
VERTEX
  8
0
 62
4
 10
-7.05913832E+01
 20
4.24535931E+02
  0
VERTEX
  8
0
 62
4
 10
-7.09551017E+01
 20
4.24507297E+02
  0
VERTEX
  8
0
 62
4
 10
-7.13112194E+01
 20
4.24465335E+02
  0
VERTEX
  8
0
 62
4
 10
-7.16569022E+01
 20
4.24410379E+02
  0
VERTEX
  8
0
 62
4
 10
-7.19893991E+01
 20
4.24342866E+02
  0
VERTEX
  8
0
 62
4
 10
-7.23060642E+01
 20
4.24263333E+02
  0
VERTEX
  8
0
 62
4
 10
-7.26043772E+01
 20
4.24172414E+02
  0
VERTEX
  8
0
 62
4
 10
-7.28819643E+01
 20
4.24070832E+02
  0
VERTEX
  8
0
 62
4
 10
-7.31366164E+01
 20
4.23959395E+02
  0
VERTEX
  8
0
 62
4
 10
-7.33663068E+01
 20
4.23838990E+02
  0
VERTEX
  8
0
 62
4
 10
-7.35692077E+01
 20
4.23710576E+02
  0
VERTEX
  8
0
 62
4
 10
-7.37437044E+01
 20
4.23575174E+02
  0
VERTEX
  8
0
 62
4
 10
-7.38884082E+01
 20
4.23433861E+02
  0
VERTEX
  8
0
 62
4
 10
-7.40021675E+01
 20
4.23287764E+02
  0
VERTEX
  8
0
 62
4
 10
-7.40840771E+01
 20
4.23138043E+02
  0
VERTEX
  8
0
 62
4
 10
-7.41334850E+01
 20
4.22985891E+02
  0
VERTEX
  8
0
 62
4
 10
-7.41499981E+01
 20
4.22832518E+02
  0
SEQEND
  8
0
  0
POLYLINE
  8
0
 62
4
 66
1
  0
VERTEX
  8
0
 62
4
 10
-6.62999981E+01
 20
4.23808582E+02
  0
VERTEX
  8
0
 62
4
 10
-6.64498988E+01
 20
4.23942599E+02
  0
VERTEX
  8
0
 62
4
 10
-6.66279583E+01
 20
4.24070554E+02
  0
VERTEX
  8
0
 62
4
 10
-6.68327644E+01
 20
4.24191431E+02
  0
VERTEX
  8
0
 62
4
 10
-6.70626926E+01
 20
4.24304272E+02
  0
VERTEX
  8
0
 62
4
 10
-6.73159191E+01
 20
4.24408183E+02
  0
VERTEX
  8
0
 62
4
 10
-6.75904353E+01
 20
4.24502338E+02
  0
VERTEX
  8
0
 62
4
 10
-6.78840638E+01
 20
4.24585991E+02
  0
VERTEX
  8
0
 62
4
 10
-6.81944757E+01
 20
4.24658478E+02
  0
VERTEX
  8
0
 62
4
 10
-6.85192086E+01
 20
4.24719225E+02
  0
VERTEX
  8
0
 62
4
 10
-6.88556870E+01
 20
4.24767750E+02
  0
VERTEX
  8
0
 62
4
 10
-6.92012419E+01
 20
4.24803667E+02
  0
VERTEX
  8
0
 62
4
 10
-6.95531325E+01
 20
4.24826692E+02
  0
VERTEX
  8
0
 62
4
 10
-6.99085675E+01
 20
4.24836643E+02
  0
VERTEX
  8
0
 62
4
 10
-7.02647277E+01
 20
4.24833439E+02
  0
VERTEX
  8
0
 62
4
 10
-7.06187882E+01
 20
4.24817107E+02
  0
VERTEX
  8
0
 62
4
 10
-7.09679404E+01
 20
4.24787777E+02
  0
VERTEX
  8
0
 62
4
 10
-7.13094151E+01
 20
4.24745680E+02
  0
VERTEX
  8
0
 62
4
 10
-7.16405037E+01
 20
4.24691152E+02
  0
VERTEX
  8
0
 62
4
 10
-7.19585800E+01
 20
4.24624623E+02
  0
VERTEX
  8
0
 62
4
 10
-7.22611211E+01
 20
4.24546622E+02
  0
VERTEX
  8
0
 62
4
 10
-7.25457273E+01
 20
4.24457769E+02
  0
VERTEX
  8
0
 62
4
 10
-7.28101411E+01
 20
4.24358766E+02
  0
VERTEX
  8
0
 62
4
 10
-7.30522653E+01
 20
4.24250401E+02
  0
VERTEX
  8
0
 62
4
 10
-7.32701793E+01
 20
4.24133531E+02
  0
VERTEX
  8
0
 62
4
 10
-7.34621547E+01
 20
4.24009085E+02
  0
VERTEX
  8
0
 62
4
 10
-7.36266687E+01
 20
4.23878049E+02
  0
VERTEX
  8
0
 62
4
 10
-7.37624165E+01
 20
4.23741463E+02
  0
VERTEX
  8
0
 62
4
 10
-7.38683213E+01
 20
4.23600410E+02
  0
VERTEX
  8
0
 62
4
 10
-7.39435431E+01
 20
4.23456009E+02
  0
VERTEX
  8
0
 62
4
 10
-7.39874853E+01
 20
4.23309405E+02
  0
SEQEND
  8
0
  0
LINE
  8
0
 62
4
 10
-7.41499981E+01
 20
4.21230986E+02
 11
-7.41499981E+01
 21
4.22832518E+02
  0
LINE
  8
0
 62
4
 10
-6.58499981E+01
 20
4.22449867E+02
 11
-6.58499981E+01
 21
4.21230986E+02
  0
LINE
  8
0
 62
4
 10
-5.90999981E+01
 20
4.23719769E+02
 11
-5.90999981E+01
 21
4.22690782E+02
  0
LINE
  8
0
 62
4
 10
-6.58999981E+01
 20
4.23719769E+02
 11
-6.58999981E+01
 21
4.22690782E+02
  0
LINE
  8
0
 62
4
 10
-5.86999981E+01
 20
4.23719769E+02
 11
-5.86999981E+01
 21
4.24629730E+02
  0
LINE
  8
0
 62
4
 10
-6.62999981E+01
 20
4.24629730E+02
 11
-6.62999981E+01
 21
4.23719769E+02
  0
LINE
  8
0
 62
4
 10
-8.49999981E+01
 20
4.20134928E+02
 11
-8.49999981E+01
 21
4.19860757E+02
  0
LINE
  8
0
 62
4
 10
-8.49999981E+01
 20
4.22183040E+02
 11
-8.49999981E+01
 21
4.20134928E+02
  0
LINE
  8
0
 62
4
 10
-8.49999981E+01
 20
4.22183040E+02
 11
-7.41499981E+01
 21
4.22183040E+02
  0
LINE
  8
0
 62
4
 10
-8.64999981E+01
 20
4.21285304E+02
 11
-8.49999981E+01
 21
4.20134928E+02
  0
LINE
  8
0
 62
4
 10
-8.49999981E+01
 20
4.20134928E+02
 11
-7.31994889E+01
 21
4.20134928E+02
  0
LINE
  8
0
 62
4
 10
-8.64999981E+01
 20
4.22224584E+02
 11
-8.49999981E+01
 21
4.21793701E+02
  0
LINE
  8
0
 62
4
 10
-8.49999981E+01
 20
4.21793701E+02
 11
-7.41499981E+01
 21
4.21793701E+02
  0
LINE
  8
0
 62
4
 10
-8.49999981E+01
 20
4.25433546E+02
 11
-8.64999981E+01
 21
4.24285646E+02
  0
LINE
  8
0
 62
4
 10
-8.49999981E+01
 20
4.19860757E+02
 11
-7.25109285E+01
 21
4.19860757E+02
  0
LINE
  8
0
 62
4
 10
-8.49999981E+01
 20
4.26495849E+02
 11
-5.49999981E+01
 21
4.26495849E+02
  0
LINE
  8
0
 62
4
 10
-8.49999981E+01
 20
4.35868450E+02
 11
-5.49999981E+01
 21
4.35868450E+02
  0
LINE
  8
0
 62
4
 10
-6.99999981E+01
 20
4.42238179E+02
 11
-5.49999981E+01
 21
4.42238179E+02
  0
LINE
  8
0
 62
4
 10
-6.99999981E+01
 20
4.48982087E+02
 11
-5.49999981E+01
 21
4.48982087E+02
  0
LINE
  8
0
 62
4
 10
-6.04999981E+01
 20
4.49488082E+02
 11
-6.04999981E+01
 21
4.48982087E+02
  0
LINE
  8
0
 62
6
 10
-5.99999981E+01
 20
4.50036669E+02
 11
-5.99999981E+01
 21
4.48982087E+02
  0
POLYLINE
  8
0
 62
4
 66
1
  0
VERTEX
  8
0
 62
4
 10
-5.64999980E+01
 20
4.49488082E+02
  0
VERTEX
  8
0
 62
4
 10
-5.65080495E+01
 20
4.49562428E+02
  0
VERTEX
  8
0
 62
4
 10
-5.65321389E+01
 20
4.49636175E+02
  0
VERTEX
  8
0
 62
4
 10
-5.65720723E+01
 20
4.49708729E+02
  0
VERTEX
  8
0
 62
4
 10
-5.66275283E+01
 20
4.49779508E+02
  0
VERTEX
  8
0
 62
4
 10
-5.66980603E+01
 20
4.49847939E+02
  0
VERTEX
  8
0
 62
4
 10
-5.67831005E+01
 20
4.49913474E+02
  0
VERTEX
  8
0
 62
4
 10
-5.68819641E+01
 20
4.49975583E+02
  0
VERTEX
  8
0
 62
4
 10
-5.69938551E+01
 20
4.50033767E+02
  0
VERTEX
  8
0
 62
4
 10
-5.71178728E+01
 20
4.50087558E+02
  0
VERTEX
  8
0
 62
4
 10
-5.72530185E+01
 20
4.50136522E+02
  0
VERTEX
  8
0
 62
4
 10
-5.73982041E+01
 20
4.50180266E+02
  0
VERTEX
  8
0
 62
4
 10
-5.75522607E+01
 20
4.50218436E+02
  0
VERTEX
  8
0
 62
4
 10
-5.77139480E+01
 20
4.50250726E+02
  0
VERTEX
  8
0
 62
4
 10
-5.78819641E+01
 20
4.50276875E+02
  0
VERTEX
  8
0
 62
4
 10
-5.80549562E+01
 20
4.50296674E+02
  0
VERTEX
  8
0
 62
4
 10
-5.82315316E+01
 20
4.50309962E+02
  0
VERTEX
  8
0
 62
4
 10
-5.84102684E+01
 20
4.50316633E+02
  0
VERTEX
  8
0
 62
4
 10
-5.85897278E+01
 20
4.50316633E+02
  0
VERTEX
  8
0
 62
4
 10
-5.87684646E+01
 20
4.50309962E+02
  0
VERTEX
  8
0
 62
4
 10
-5.89450400E+01
 20
4.50296674E+02
  0
VERTEX
  8
0
 62
4
 10
-5.91180321E+01
 20
4.50276875E+02
  0
VERTEX
  8
0
 62
4
 10
-5.92860482E+01
 20
4.50250726E+02
  0
VERTEX
  8
0
 62
4
 10
-5.94477355E+01
 20
4.50218436E+02
  0
VERTEX
  8
0
 62
4
 10
-5.96017921E+01
 20
4.50180266E+02
  0
VERTEX
  8
0
 62
4
 10
-5.97469777E+01
 20
4.50136522E+02
  0
VERTEX
  8
0
 62
4
 10
-5.98821234E+01
 20
4.50087558E+02
  0
VERTEX
  8
0
 62
4
 10
-6.00061411E+01
 20
4.50033767E+02
  0
VERTEX
  8
0
 62
4
 10
-6.01180321E+01
 20
4.49975583E+02
  0
VERTEX
  8
0
 62
4
 10
-6.02168957E+01
 20
4.49913474E+02
  0
VERTEX
  8
0
 62
4
 10
-6.03019359E+01
 20
4.49847939E+02
  0
VERTEX
  8
0
 62
4
 10
-6.03724679E+01
 20
4.49779508E+02
  0
VERTEX
  8
0
 62
4
 10
-6.04279239E+01
 20
4.49708729E+02
  0
VERTEX
  8
0
 62
4
 10
-6.04678573E+01
 20
4.49636175E+02
  0
VERTEX
  8
0
 62
4
 10
-6.04919467E+01
 20
4.49562428E+02
  0
VERTEX
  8
0
 62
4
 10
-6.04999982E+01
 20
4.49488082E+02
  0
SEQEND
  8
0
  0
LINE
  8
0
 62
4
 10
-5.64999981E+01
 20
4.49488082E+02
 11
-5.64999981E+01
 21
4.48982087E+02
  0
LINE
  8
0
 62
6
 10
-5.69999981E+01
 20
4.50036669E+02
 11
-5.69999981E+01
 21
4.48982087E+02
  0
POLYLINE
  8
0
 62
4
 66
1
  0
VERTEX
  8
0
 62
4
 10
-6.44999980E+01
 20
4.49488082E+02
  0
VERTEX
  8
0
 62
4
 10
-6.45080495E+01
 20
4.49562428E+02
  0
VERTEX
  8
0
 62
4
 10
-6.45321389E+01
 20
4.49636175E+02
  0
VERTEX
  8
0
 62
4
 10
-6.45720723E+01
 20
4.49708729E+02
  0
VERTEX
  8
0
 62
4
 10
-6.46275283E+01
 20
4.49779508E+02
  0
VERTEX
  8
0
 62
4
 10
-6.46980603E+01
 20
4.49847939E+02
  0
VERTEX
  8
0
 62
4
 10
-6.47831005E+01
 20
4.49913474E+02
  0
VERTEX
  8
0
 62
4
 10
-6.48819641E+01
 20
4.49975583E+02
  0
VERTEX
  8
0
 62
4
 10
-6.49938551E+01
 20
4.50033767E+02
  0
VERTEX
  8
0
 62
4
 10
-6.51178728E+01
 20
4.50087558E+02
  0
VERTEX
  8
0
 62
4
 10
-6.52530185E+01
 20
4.50136522E+02
  0
VERTEX
  8
0
 62
4
 10
-6.53982041E+01
 20
4.50180266E+02
  0
VERTEX
  8
0
 62
4
 10
-6.55522607E+01
 20
4.50218436E+02
  0
VERTEX
  8
0
 62
4
 10
-6.57139480E+01
 20
4.50250726E+02
  0
VERTEX
  8
0
 62
4
 10
-6.58819641E+01
 20
4.50276875E+02
  0
VERTEX
  8
0
 62
4
 10
-6.60549562E+01
 20
4.50296674E+02
  0
VERTEX
  8
0
 62
4
 10
-6.62315316E+01
 20
4.50309962E+02
  0
VERTEX
  8
0
 62
4
 10
-6.64102684E+01
 20
4.50316633E+02
  0
VERTEX
  8
0
 62
4
 10
-6.65897278E+01
 20
4.50316633E+02
  0
VERTEX
  8
0
 62
4
 10
-6.67684646E+01
 20
4.50309962E+02
  0
VERTEX
  8
0
 62
4
 10
-6.69450400E+01
 20
4.50296674E+02
  0
VERTEX
  8
0
 62
4
 10
-6.71180321E+01
 20
4.50276875E+02
  0
VERTEX
  8
0
 62
4
 10
-6.72860482E+01
 20
4.50250726E+02
  0
VERTEX
  8
0
 62
4
 10
-6.74477355E+01
 20
4.50218436E+02
  0
VERTEX
  8
0
 62
4
 10
-6.76017921E+01
 20
4.50180266E+02
  0
VERTEX
  8
0
 62
4
 10
-6.77469777E+01
 20
4.50136522E+02
  0
VERTEX
  8
0
 62
4
 10
-6.78821234E+01
 20
4.50087558E+02
  0
VERTEX
  8
0
 62
4
 10
-6.80061411E+01
 20
4.50033767E+02
  0
VERTEX
  8
0
 62
4
 10
-6.81180321E+01
 20
4.49975583E+02
  0
VERTEX
  8
0
 62
4
 10
-6.82168957E+01
 20
4.49913474E+02
  0
VERTEX
  8
0
 62
4
 10
-6.83019359E+01
 20
4.49847939E+02
  0
VERTEX
  8
0
 62
4
 10
-6.83724679E+01
 20
4.49779508E+02
  0
VERTEX
  8
0
 62
4
 10
-6.84279239E+01
 20
4.49708729E+02
  0
VERTEX
  8
0
 62
4
 10
-6.84678573E+01
 20
4.49636175E+02
  0
VERTEX
  8
0
 62
4
 10
-6.84919467E+01
 20
4.49562428E+02
  0
VERTEX
  8
0
 62
4
 10
-6.84999982E+01
 20
4.49488082E+02
  0
SEQEND
  8
0
  0
LINE
  8
0
 62
4
 10
-8.64999981E+01
 20
4.24285646E+02
 11
-8.64999981E+01
 21
4.21285304E+02
  0
LINE
  8
0
 62
4
 10
-6.14999981E+01
 20
4.21343189E+02
 11
-6.14999981E+01
 21
4.20134928E+02
  0
LINE
  8
0
 62
4
 10
-8.49999981E+01
 20
4.29000031E+02
 11
-8.49999981E+01
 21
4.29400031E+02
  0
LINE
  8
0
 62
4
 10
-5.99999981E+01
 20
4.21735186E+02
 11
-5.99999981E+01
 21
4.20134928E+02
  0
LINE
  8
0
  6
CENTER
 62
6
 10
-7.74999981E+01
 20
4.27129730E+02
 11
-7.74999981E+01
 21
4.22129730E+02
  0
LINE
  8
0
  6
CENTER
 62
6
 10
-6.64999981E+01
 20
4.53765609E+02
 11
-6.64999981E+01
 21
4.43500031E+02
  0
LINE
  8
0
  6
CENTER
 62
6
 10
-5.84999981E+01
 20
4.53765609E+02
 11
-5.84999981E+01
 21
4.43500031E+02
  0
LINE
  8
0
 62
4
 10
-8.49999981E+01
 20
4.35868450E+02
 11
-8.49999981E+01
 21
4.22183040E+02
  0
LINE
  8
0
 62
4
 10
-5.49999981E+01
 20
4.48982087E+02
 11
-5.49999981E+01
 21
4.19860757E+02
  0
LINE
  8
0
 62
4
 10
-6.99999981E+01
 20
4.48982087E+02
 11
-6.99999981E+01
 21
4.35868450E+02
  0
LINE
  8
0
 62
4
 10
-6.44999981E+01
 20
4.49488082E+02
 11
-6.44999981E+01
 21
4.48982087E+02
  0
LINE
  8
0
 62
4
 10
-6.84999981E+01
 20
4.49488082E+02
 11
-6.84999981E+01
 21
4.48982087E+02
  0
LINE
  8
0
 62
6
 10
-6.49999981E+01
 20
4.50036669E+02
 11
-6.49999981E+01
 21
4.48982087E+02
  0
LINE
  8
0
 62
6
 10
-6.79999981E+01
 20
4.50036669E+02
 11
-6.79999981E+01
 21
4.48982087E+02
  0
LINE
  8
0
 62
4
 10
-2.10000019E+01
 20
3.71715778E+02
 11
-2.60000019E+01
 21
3.71715778E+02
  0
LINE
  8
0
  6
CENTER
 62
6
 10
-1.60000019E+01
 20
3.68370285E+02
 11
-2.10000019E+01
 21
3.68370285E+02
  0
LINE
  8
0
  6
CENTER
 62
6
 10
-1.85000019E+01
 20
3.65870285E+02
 11
-1.85000019E+01
 21
3.70870285E+02
  0
LINE
  8
0
  6
CENTER
 62
6
 10
-8.50000191E+00
 20
3.69821712E+02
 11
-1.35000019E+01
 21
3.69821712E+02
  0
LINE
  8
0
  6
CENTER
 62
6
 10
-1.10000019E+01
 20
3.67321712E+02
 11
-1.10000019E+01
 21
3.72321712E+02
  0
LINE
  8
0
 62
4
 10
-1.35109323E+01
 20
3.73139258E+02
 11
-2.60000019E+01
 21
3.73139258E+02
  0
LINE
  8
0
 62
4
 10
-1.41994927E+01
 20
3.72865087E+02
 11
-2.10000019E+01
 21
3.72865087E+02
  0
LINE
  8
0
 62
4
 10
-1.51500019E+01
 20
3.71206314E+02
 11
-1.58769526E+01
 21
3.71206314E+02
  0
LINE
  8
0
 62
4
 10
-1.51500019E+01
 20
3.70816976E+02
 11
-1.53281112E+01
 21
3.70816976E+02
  0
LINE
  8
0
 62
4
 10
-2.16718926E+01
 20
3.70816976E+02
 11
-2.60000019E+01
 21
3.70816976E+02
  0
LINE
  8
0
  6
CENTER
 62
6
 10
-1.00000191E+00
 20
3.68370285E+02
 11
-6.00000191E+00
 21
3.68370285E+02
  0
ARC
  8
0
 62
4
 10
-2.47470607E+01
 20
3.56279328E+02
 40
1.64201386E+01
 50
6.07835994E+01
 51
6.98778124E+01
  0
ARC
  8
0
 62
4
 10
-1.22529437E+01
 20
3.56279330E+02
 40
1.64201370E+01
 50
1.10122188E+02
 51
1.19216401E+02
  0
POLYLINE
  8
0
 62
4
 66
1
  0
VERTEX
  8
0
 62
4
 10
-1.51000019E+01
 20
3.70309233E+02
  0
VERTEX
  8
0
 62
4
 10
-1.51129399E+01
 20
3.70432119E+02
  0
VERTEX
  8
0
 62
4
 10
-1.51516555E+01
 20
3.70554069E+02
  0
VERTEX
  8
0
 62
4
 10
-1.52158541E+01
 20
3.70674157E+02
  0
VERTEX
  8
0
 62
4
 10
-1.53050470E+01
 20
3.70791467E+02
  0
VERTEX
  8
0
 62
4
 10
-1.54185554E+01
 20
3.70905107E+02
  0
VERTEX
  8
0
 62
4
 10
-1.55555155E+01
 20
3.71014212E+02
  0
VERTEX
  8
0
 62
4
 10
-1.57148849E+01
 20
3.71117951E+02
  0
VERTEX
  8
0
 62
4
 10
-1.58954508E+01
 20
3.71215536E+02
  0
VERTEX
  8
0
 62
4
 10
-1.60958388E+01
 20
3.71306223E+02
  0
VERTEX
  8
0
 62
4
 10
-1.63145240E+01
 20
3.71389323E+02
  0
VERTEX
  8
0
 62
4
 10
-1.65498420E+01
 20
3.71464202E+02
  0
VERTEX
  8
0
 62
4
 10
-1.68000019E+01
 20
3.71530292E+02
  0
VERTEX
  8
0
 62
4
 10
-1.70630998E+01
 20
3.71587088E+02
  0
VERTEX
  8
0
 62
4
 10
-1.73371334E+01
 20
3.71634159E+02
  0
VERTEX
  8
0
 62
4
 10
-1.76200171E+01
 20
3.71671147E+02
  0
VERTEX
  8
0
 62
4
 10
-1.79095981E+01
 20
3.71697770E+02
  0
VERTEX
  8
0
 62
4
 10
-1.82036724E+01
 20
3.71713825E+02
  0
VERTEX
  8
0
 62
4
 10
-1.85000019E+01
 20
3.71719190E+02
  0
VERTEX
  8
0
 62
4
 10
-1.87963314E+01
 20
3.71713825E+02
  0
VERTEX
  8
0
 62
4
 10
-1.90904057E+01
 20
3.71697770E+02
  0
VERTEX
  8
0
 62
4
 10
-1.93799867E+01
 20
3.71671147E+02
  0
VERTEX
  8
0
 62
4
 10
-1.96628704E+01
 20
3.71634159E+02
  0
VERTEX
  8
0
 62
4
 10
-1.99369040E+01
 20
3.71587088E+02
  0
VERTEX
  8
0
 62
4
 10
-2.02000019E+01
 20
3.71530292E+02
  0
VERTEX
  8
0
 62
4
 10
-2.04501618E+01
 20
3.71464202E+02
  0
VERTEX
  8
0
 62
4
 10
-2.06854798E+01
 20
3.71389323E+02
  0
VERTEX
  8
0
 62
4
 10
-2.09041650E+01
 20
3.71306223E+02
  0
VERTEX
  8
0
 62
4
 10
-2.11045530E+01
 20
3.71215536E+02
  0
VERTEX
  8
0
 62
4
 10
-2.12851189E+01
 20
3.71117951E+02
  0
VERTEX
  8
0
 62
4
 10
-2.14444883E+01
 20
3.71014212E+02
  0
VERTEX
  8
0
 62
4
 10
-2.15814484E+01
 20
3.70905107E+02
  0
VERTEX
  8
0
 62
4
 10
-2.16949568E+01
 20
3.70791467E+02
  0
VERTEX
  8
0
 62
4
 10
-2.17841497E+01
 20
3.70674157E+02
  0
VERTEX
  8
0
 62
4
 10
-2.18483483E+01
 20
3.70554069E+02
  0
VERTEX
  8
0
 62
4
 10
-2.18870639E+01
 20
3.70432119E+02
  0
VERTEX
  8
0
 62
4
 10
-2.19000019E+01
 20
3.70309233E+02
  0
VERTEX
  8
0
 62
4
 10
-2.18870639E+01
 20
3.70186347E+02
  0
VERTEX
  8
0
 62
4
 10
-2.18483483E+01
 20
3.70064397E+02
  0
VERTEX
  8
0
 62
4
 10
-2.17841497E+01
 20
3.69944309E+02
  0
VERTEX
  8
0
 62
4
 10
-2.16949568E+01
 20
3.69826999E+02
  0
VERTEX
  8
0
 62
4
 10
-2.15814484E+01
 20
3.69713359E+02
  0
VERTEX
  8
0
 62
4
 10
-2.14444883E+01
 20
3.69604254E+02
  0
VERTEX
  8
0
 62
4
 10
-2.12851188E+01
 20
3.69500515E+02
  0
VERTEX
  8
0
 62
4
 10
-2.11045530E+01
 20
3.69402930E+02
  0
VERTEX
  8
0
 62
4
 10
-2.09041650E+01
 20
3.69312243E+02
  0
VERTEX
  8
0
 62
4
 10
-2.06854798E+01
 20
3.69229143E+02
  0
VERTEX
  8
0
 62
4
 10
-2.04501618E+01
 20
3.69154264E+02
  0
VERTEX
  8
0
 62
4
 10
-2.02000019E+01
 20
3.69088174E+02
  0
VERTEX
  8
0
 62
4
 10
-1.99369040E+01
 20
3.69031378E+02
  0
VERTEX
  8
0
 62
4
 10
-1.96628704E+01
 20
3.68984307E+02
  0
VERTEX
  8
0
 62
4
 10
-1.93799866E+01
 20
3.68947319E+02
  0
VERTEX
  8
0
 62
4
 10
-1.90904057E+01
 20
3.68920696E+02
  0
VERTEX
  8
0
 62
4
 10
-1.87963314E+01
 20
3.68904641E+02
  0
VERTEX
  8
0
 62
4
 10
-1.85000019E+01
 20
3.68899276E+02
  0
VERTEX
  8
0
 62
4
 10
-1.82036724E+01
 20
3.68904641E+02
  0
VERTEX
  8
0
 62
4
 10
-1.79095981E+01
 20
3.68920696E+02
  0
VERTEX
  8
0
 62
4
 10
-1.76200171E+01
 20
3.68947319E+02
  0
VERTEX
  8
0
 62
4
 10
-1.73371334E+01
 20
3.68984307E+02
  0
VERTEX
  8
0
 62
4
 10
-1.70630998E+01
 20
3.69031378E+02
  0
VERTEX
  8
0
 62
4
 10
-1.68000019E+01
 20
3.69088174E+02
  0
VERTEX
  8
0
 62
4
 10
-1.65498420E+01
 20
3.69154264E+02
  0
VERTEX
  8
0
 62
4
 10
-1.63145240E+01
 20
3.69229143E+02
  0
VERTEX
  8
0
 62
4
 10
-1.60958388E+01
 20
3.69312243E+02
  0
VERTEX
  8
0
 62
4
 10
-1.58954508E+01
 20
3.69402930E+02
  0
VERTEX
  8
0
 62
4
 10
-1.57148849E+01
 20
3.69500515E+02
  0
VERTEX
  8
0
 62
4
 10
-1.55555155E+01
 20
3.69604254E+02
  0
VERTEX
  8
0
 62
4
 10
-1.54185554E+01
 20
3.69713359E+02
  0
VERTEX
  8
0
 62
4
 10
-1.53050470E+01
 20
3.69826999E+02
  0
VERTEX
  8
0
 62
4
 10
-1.52158541E+01
 20
3.69944309E+02
  0
VERTEX
  8
0
 62
4
 10
-1.51516555E+01
 20
3.70064397E+02
  0
VERTEX
  8
0
 62
4
 10
-1.51129399E+01
 20
3.70186347E+02
  0
VERTEX
  8
0
 62
4
 10
-1.51000019E+01
 20
3.70309233E+02
  0
SEQEND
  8
0
  0
POLYLINE
  8
0
 62
4
 66
1
  0
VERTEX
  8
0
 62
4
 10
-2.19000019E+01
 20
3.69280247E+02
  0
VERTEX
  8
0
 62
4
 10
-2.18863145E+01
 20
3.69153859E+02
  0
VERTEX
  8
0
 62
4
 10
-2.18453625E+01
 20
3.69028489E+02
  0
VERTEX
  8
0
 62
4
 10
-2.17774756E+01
 20
3.68905146E+02
  0
VERTEX
  8
0
 62
4
 10
-2.16832005E+01
 20
3.68784824E+02
  0
VERTEX
  8
0
 62
4
 10
-2.15632961E+01
 20
3.68668490E+02
  0
VERTEX
  8
0
 62
4
 10
-2.14187278E+01
 20
3.68557081E+02
  0
VERTEX
  8
0
 62
4
 10
-2.12506597E+01
 20
3.68451495E+02
  0
VERTEX
  8
0
 62
4
 10
-2.10604449E+01
 20
3.68352582E+02
  0
VERTEX
  8
0
 62
4
 10
-2.08496149E+01
 20
3.68261137E+02
  0
VERTEX
  8
0
 62
4
 10
-2.06198672E+01
 20
3.68177898E+02
  0
VERTEX
  8
0
 62
4
 10
-2.03730517E+01
 20
3.68103535E+02
  0
VERTEX
  8
0
 62
4
 10
-2.01111554E+01
 20
3.68038645E+02
  0
VERTEX
  8
0
 62
4
 10
-1.98362870E+01
 20
3.67983752E+02
  0
VERTEX
  8
0
 62
4
 10
-1.95506597E+01
 20
3.67939298E+02
  0
VERTEX
  8
0
 62
4
 10
-1.92565731E+01
 20
3.67905641E+02
  0
VERTEX
  8
0
 62
4
 10
-1.89563950E+01
 20
3.67883050E+02
  0
VERTEX
  8
0
 62
4
 10
-1.86525423E+01
 20
3.67871710E+02
  0
VERTEX
  8
0
 62
4
 10
-1.83474615E+01
 20
3.67871710E+02
  0
VERTEX
  8
0
 62
4
 10
-1.80436088E+01
 20
3.67883050E+02
  0
VERTEX
  8
0
 62
4
 10
-1.77434307E+01
 20
3.67905641E+02
  0
VERTEX
  8
0
 62
4
 10
-1.74493441E+01
 20
3.67939298E+02
  0
VERTEX
  8
0
 62
4
 10
-1.71637168E+01
 20
3.67983752E+02
  0
VERTEX
  8
0
 62
4
 10
-1.68888485E+01
 20
3.68038645E+02
  0
VERTEX
  8
0
 62
4
 10
-1.66269522E+01
 20
3.68103535E+02
  0
VERTEX
  8
0
 62
4
 10
-1.63801366E+01
 20
3.68177898E+02
  0
VERTEX
  8
0
 62
4
 10
-1.61503889E+01
 20
3.68261137E+02
  0
VERTEX
  8
0
 62
4
 10
-1.59395589E+01
 20
3.68352582E+02
  0
VERTEX
  8
0
 62
4
 10
-1.57493441E+01
 20
3.68451495E+02
  0
VERTEX
  8
0
 62
4
 10
-1.55812760E+01
 20
3.68557081E+02
  0
VERTEX
  8
0
 62
4
 10
-1.54367078E+01
 20
3.68668490E+02
  0
VERTEX
  8
0
 62
4
 10
-1.53168033E+01
 20
3.68784824E+02
  0
VERTEX
  8
0
 62
4
 10
-1.52225282E+01
 20
3.68905146E+02
  0
VERTEX
  8
0
 62
4
 10
-1.51546413E+01
 20
3.69028489E+02
  0
VERTEX
  8
0
 62
4
 10
-1.51136893E+01
 20
3.69153859E+02
  0
VERTEX
  8
0
 62
4
 10
-1.51000019E+01
 20
3.69280247E+02
  0
SEQEND
  8
0
  0
POLYLINE
  8
0
 62
4
 66
1
  0
VERTEX
  8
0
 62
4
 10
-2.19000019E+01
 20
3.69984005E+02
  0
VERTEX
  8
0
 62
4
 10
-2.20365836E+01
 20
3.69856744E+02
  0
VERTEX
  8
0
 62
4
 10
-2.21455314E+01
 20
3.69724978E+02
  0
VERTEX
  8
0
 62
4
 10
-2.22259942E+01
 20
3.69589737E+02
  0
VERTEX
  8
0
 62
4
 10
-2.22773432E+01
 20
3.69452079E+02
  0
VERTEX
  8
0
 62
4
 10
-2.22991772E+01
 20
3.69313077E+02
  0
VERTEX
  8
0
 62
4
 10
-2.22913255E+01
 20
3.69173819E+02
  0
VERTEX
  8
0
 62
4
 10
-2.22538495E+01
 20
3.69035393E+02
  0
VERTEX
  8
0
 62
4
 10
-2.21870421E+01
 20
3.68898879E+02
  0
VERTEX
  8
0
 62
4
 10
-2.20914253E+01
 20
3.68765346E+02
  0
VERTEX
  8
0
 62
4
 10
-2.19677461E+01
 20
3.68635836E+02
  0
VERTEX
  8
0
 62
4
 10
-2.18169710E+01
 20
3.68511361E+02
  0
VERTEX
  8
0
 62
4
 10
-2.16402781E+01
 20
3.68392894E+02
  0
VERTEX
  8
0
 62
4
 10
-2.14390481E+01
 20
3.68281361E+02
  0
VERTEX
  8
0
 62
4
 10
-2.12148531E+01
 20
3.68177632E+02
  0
VERTEX
  8
0
 62
4
 10
-2.09694452E+01
 20
3.68082519E+02
  0
VERTEX
  8
0
 62
4
 10
-2.07047417E+01
 20
3.67996765E+02
  0
VERTEX
  8
0
 62
4
 10
-2.04228111E+01
 20
3.67921039E+02
  0
VERTEX
  8
0
 62
4
 10
-2.01258562E+01
 20
3.67855934E+02
  0
VERTEX
  8
0
 62
4
 10
-1.98161973E+01
 20
3.67801958E+02
  0
VERTEX
  8
0
 62
4
 10
-1.94962541E+01
 20
3.67759533E+02
  0
VERTEX
  8
0
 62
4
 10
-1.91685265E+01
 20
3.67728991E+02
  0
VERTEX
  8
0
 62
4
 10
-1.88355752E+01
 20
3.67710569E+02
  0
VERTEX
  8
0
 62
4
 10
-1.85000019E+01
 20
3.67704413E+02
  0
VERTEX
  8
0
 62
4
 10
-1.81644285E+01
 20
3.67710569E+02
  0
VERTEX
  8
0
 62
4
 10
-1.78314773E+01
 20
3.67728991E+02
  0
VERTEX
  8
0
 62
4
 10
-1.75037496E+01
 20
3.67759533E+02
  0
VERTEX
  8
0
 62
4
 10
-1.71838064E+01
 20
3.67801958E+02
  0
VERTEX
  8
0
 62
4
 10
-1.68741476E+01
 20
3.67855934E+02
  0
VERTEX
  8
0
 62
4
 10
-1.65771927E+01
 20
3.67921039E+02
  0
VERTEX
  8
0
 62
4
 10
-1.62952620E+01
 20
3.67996765E+02
  0
VERTEX
  8
0
 62
4
 10
-1.60305586E+01
 20
3.68082519E+02
  0
VERTEX
  8
0
 62
4
 10
-1.57851506E+01
 20
3.68177632E+02
  0
VERTEX
  8
0
 62
4
 10
-1.55609557E+01
 20
3.68281361E+02
  0
VERTEX
  8
0
 62
4
 10
-1.53597256E+01
 20
3.68392894E+02
  0
VERTEX
  8
0
 62
4
 10
-1.51830327E+01
 20
3.68511361E+02
  0
VERTEX
  8
0
 62
4
 10
-1.50322577E+01
 20
3.68635836E+02
  0
VERTEX
  8
0
 62
4
 10
-1.49085785E+01
 20
3.68765346E+02
  0
VERTEX
  8
0
 62
4
 10
-1.48129617E+01
 20
3.68898879E+02
  0
VERTEX
  8
0
 62
4
 10
-1.47461543E+01
 20
3.69035393E+02
  0
VERTEX
  8
0
 62
4
 10
-1.47086783E+01
 20
3.69173819E+02
  0
VERTEX
  8
0
 62
4
 10
-1.47008267E+01
 20
3.69313077E+02
  0
VERTEX
  8
0
 62
4
 10
-1.47226606E+01
 20
3.69452079E+02
  0
VERTEX
  8
0
 62
4
 10
-1.47740096E+01
 20
3.69589737E+02
  0
VERTEX
  8
0
 62
4
 10
-1.48544724E+01
 20
3.69724978E+02
  0
VERTEX
  8
0
 62
4
 10
-1.49634202E+01
 20
3.69856744E+02
  0
VERTEX
  8
0
 62
4
 10
-1.51000019E+01
 20
3.69984005E+02
  0
SEQEND
  8
0
  0
POLYLINE
  8
0
 62
4
 66
1
  0
VERTEX
  8
0
 62
4
 10
-2.23000019E+01
 20
3.68370285E+02
  0
VERTEX
  8
0
 62
4
 10
-2.22847042E+01
 20
3.68229028E+02
  0
VERTEX
  8
0
 62
4
 10
-2.22389343E+01
 20
3.68088909E+02
  0
VERTEX
  8
0
 62
4
 10
-2.21630608E+01
 20
3.67951055E+02
  0
VERTEX
  8
0
 62
4
 10
-2.20576944E+01
 20
3.67816576E+02
  0
VERTEX
  8
0
 62
4
 10
-2.19236836E+01
 20
3.67686556E+02
  0
VERTEX
  8
0
 62
4
 10
-2.17621073E+01
 20
3.67562041E+02
  0
VERTEX
  8
0
 62
4
 10
-2.15742665E+01
 20
3.67444033E+02
  0
VERTEX
  8
0
 62
4
 10
-2.13616735E+01
 20
3.67333483E+02
  0
VERTEX
  8
0
 62
4
 10
-2.11260400E+01
 20
3.67231280E+02
  0
VERTEX
  8
0
 62
4
 10
-2.08692632E+01
 20
3.67138248E+02
  0
VERTEX
  8
0
 62
4
 10
-2.05934104E+01
 20
3.67055136E+02
  0
VERTEX
  8
0
 62
4
 10
-2.03007028E+01
 20
3.66982612E+02
  0
VERTEX
  8
0
 62
4
 10
-1.99934970E+01
 20
3.66921262E+02
  0
VERTEX
  8
0
 62
4
 10
-1.96742665E+01
 20
3.66871578E+02
  0
VERTEX
  8
0
 62
4
 10
-1.93455815E+01
 20
3.66833960E+02
  0
VERTEX
  8
0
 62
4
 10
-1.90100883E+01
 20
3.66808712E+02
  0
VERTEX
  8
0
 62
4
 10
-1.86704883E+01
 20
3.66796037E+02
  0
VERTEX
  8
0
 62
4
 10
-1.83295156E+01
 20
3.66796037E+02
  0
VERTEX
  8
0
 62
4
 10
-1.79899155E+01
 20
3.66808712E+02
  0
VERTEX
  8
0
 62
4
 10
-1.76544224E+01
 20
3.66833960E+02
  0
VERTEX
  8
0
 62
4
 10
-1.73257373E+01
 20
3.66871577E+02
  0
VERTEX
  8
0
 62
4
 10
-1.70065068E+01
 20
3.66921262E+02
  0
VERTEX
  8
0
 62
4
 10
-1.66993010E+01
 20
3.66982612E+02
  0
VERTEX
  8
0
 62
4
 10
-1.64065934E+01
 20
3.67055136E+02
  0
VERTEX
  8
0
 62
4
 10
-1.61307407E+01
 20
3.67138248E+02
  0
VERTEX
  8
0
 62
4
 10
-1.58739639E+01
 20
3.67231280E+02
  0
VERTEX
  8
0
 62
4
 10
-1.56383303E+01
 20
3.67333483E+02
  0
VERTEX
  8
0
 62
4
 10
-1.54257373E+01
 20
3.67444033E+02
  0
VERTEX
  8
0
 62
4
 10
-1.52378965E+01
 20
3.67562041E+02
  0
VERTEX
  8
0
 62
4
 10
-1.50763202E+01
 20
3.67686556E+02
  0
VERTEX
  8
0
 62
4
 10
-1.49423094E+01
 20
3.67816576E+02
  0
VERTEX
  8
0
 62
4
 10
-1.48369430E+01
 20
3.67951055E+02
  0
VERTEX
  8
0
 62
4
 10
-1.47610695E+01
 20
3.68088909E+02
  0
VERTEX
  8
0
 62
4
 10
-1.47152996E+01
 20
3.68229028E+02
  0
VERTEX
  8
0
 62
4
 10
-1.47000019E+01
 20
3.68370285E+02
  0
SEQEND
  8
0
  0
ARC
  8
0
 62
4
 10
-1.73696060E+01
 20
3.56984401E+02
 40
1.67245676E+01
 50
6.08857978E+01
 51
7.40287885E+01
  0
ARC
  8
0
 62
4
 10
-4.63040122E+00
 20
3.56984410E+02
 40
1.67245585E+01
 50
1.05971208E+02
 51
1.19114206E+02
  0
POLYLINE
  8
0
 62
4
 66
1
  0
VERTEX
  8
0
 62
4
 10
-6.85000190E+00
 20
3.71769029E+02
  0
VERTEX
  8
0
 62
4
 10
-6.86579390E+00
 20
3.71919022E+02
  0
VERTEX
  8
0
 62
4
 10
-6.91304973E+00
 20
3.72067874E+02
  0
VERTEX
  8
0
 62
4
 10
-6.99140972E+00
 20
3.72214451E+02
  0
VERTEX
  8
0
 62
4
 10
-7.10027752E+00
 20
3.72357638E+02
  0
VERTEX
  8
0
 62
4
 10
-7.23882458E+00
 20
3.72496345E+02
  0
VERTEX
  8
0
 62
4
 10
-7.40599647E+00
 20
3.72629517E+02
  0
VERTEX
  8
0
 62
4
 10
-7.60052092E+00
 20
3.72756141E+02
  0
VERTEX
  8
0
 62
4
 10
-7.82091746E+00
 20
3.72875252E+02
  0
VERTEX
  8
0
 62
4
 10
-8.06550876E+00
 20
3.72985943E+02
  0
VERTEX
  8
0
 62
4
 10
-8.33243332E+00
 20
3.73087374E+02
  0
VERTEX
  8
0
 62
4
 10
-8.61965969E+00
 20
3.73178771E+02
  0
VERTEX
  8
0
 62
4
 10
-8.92500190E+00
 20
3.73259439E+02
  0
VERTEX
  8
0
 62
4
 10
-9.24613612E+00
 20
3.73328764E+02
  0
VERTEX
  8
0
 62
4
 10
-9.58061831E+00
 20
3.73386218E+02
  0
VERTEX
  8
0
 62
4
 10
-9.92590287E+00
 20
3.73431365E+02
  0
VERTEX
  8
0
 62
4
 10
-1.02793620E+01
 20
3.73463860E+02
  0
VERTEX
  8
0
 62
4
 10
-1.06383056E+01
 20
3.73483457E+02
  0
VERTEX
  8
0
 62
4
 10
-1.10000019E+01
 20
3.73490006E+02
  0
VERTEX
  8
0
 62
4
 10
-1.13616982E+01
 20
3.73483457E+02
  0
VERTEX
  8
0
 62
4
 10
-1.17206418E+01
 20
3.73463860E+02
  0
VERTEX
  8
0
 62
4
 10
-1.20741009E+01
 20
3.73431365E+02
  0
VERTEX
  8
0
 62
4
 10
-1.24193855E+01
 20
3.73386218E+02
  0
VERTEX
  8
0
 62
4
 10
-1.27538677E+01
 20
3.73328764E+02
  0
VERTEX
  8
0
 62
4
 10
-1.30750019E+01
 20
3.73259439E+02
  0
VERTEX
  8
0
 62
4
 10
-1.33803441E+01
 20
3.73178771E+02
  0
VERTEX
  8
0
 62
4
 10
-1.36675705E+01
 20
3.73087374E+02
  0
VERTEX
  8
0
 62
4
 10
-1.39344950E+01
 20
3.72985943E+02
  0
VERTEX
  8
0
 62
4
 10
-1.41790863E+01
 20
3.72875252E+02
  0
VERTEX
  8
0
 62
4
 10
-1.43994829E+01
 20
3.72756141E+02
  0
VERTEX
  8
0
 62
4
 10
-1.45940073E+01
 20
3.72629517E+02
  0
VERTEX
  8
0
 62
4
 10
-1.47611792E+01
 20
3.72496345E+02
  0
VERTEX
  8
0
 62
4
 10
-1.48997263E+01
 20
3.72357638E+02
  0
VERTEX
  8
0
 62
4
 10
-1.50085941E+01
 20
3.72214451E+02
  0
VERTEX
  8
0
 62
4
 10
-1.50869541E+01
 20
3.72067874E+02
  0
VERTEX
  8
0
 62
4
 10
-1.51342099E+01
 20
3.71919022E+02
  0
VERTEX
  8
0
 62
4
 10
-1.51500019E+01
 20
3.71769029E+02
  0
VERTEX
  8
0
 62
4
 10
-1.51342099E+01
 20
3.71619036E+02
  0
VERTEX
  8
0
 62
4
 10
-1.50869541E+01
 20
3.71470184E+02
  0
VERTEX
  8
0
 62
4
 10
-1.50085941E+01
 20
3.71323607E+02
  0
VERTEX
  8
0
 62
4
 10
-1.48997263E+01
 20
3.71180420E+02
  0
VERTEX
  8
0
 62
4
 10
-1.47611792E+01
 20
3.71041713E+02
  0
VERTEX
  8
0
 62
4
 10
-1.45940073E+01
 20
3.70908541E+02
  0
VERTEX
  8
0
 62
4
 10
-1.43994829E+01
 20
3.70781917E+02
  0
VERTEX
  8
0
 62
4
 10
-1.41790863E+01
 20
3.70662806E+02
  0
VERTEX
  8
0
 62
4
 10
-1.39344950E+01
 20
3.70552115E+02
  0
VERTEX
  8
0
 62
4
 10
-1.36675705E+01
 20
3.70450684E+02
  0
VERTEX
  8
0
 62
4
 10
-1.33803441E+01
 20
3.70359287E+02
  0
VERTEX
  8
0
 62
4
 10
-1.30750019E+01
 20
3.70278619E+02
  0
VERTEX
  8
0
 62
4
 10
-1.27538677E+01
 20
3.70209294E+02
  0
VERTEX
  8
0
 62
4
 10
-1.24193855E+01
 20
3.70151840E+02
  0
VERTEX
  8
0
 62
4
 10
-1.20741009E+01
 20
3.70106693E+02
  0
VERTEX
  8
0
 62
4
 10
-1.17206418E+01
 20
3.70074198E+02
  0
VERTEX
  8
0
 62
4
 10
-1.13616982E+01
 20
3.70054601E+02
  0
VERTEX
  8
0
 62
4
 10
-1.10000019E+01
 20
3.70048052E+02
  0
VERTEX
  8
0
 62
4
 10
-1.06383056E+01
 20
3.70054601E+02
  0
VERTEX
  8
0
 62
4
 10
-1.02793620E+01
 20
3.70074198E+02
  0
VERTEX
  8
0
 62
4
 10
-9.92590285E+00
 20
3.70106693E+02
  0
VERTEX
  8
0
 62
4
 10
-9.58061830E+00
 20
3.70151840E+02
  0
VERTEX
  8
0
 62
4
 10
-9.24613611E+00
 20
3.70209294E+02
  0
VERTEX
  8
0
 62
4
 10
-8.92500189E+00
 20
3.70278619E+02
  0
VERTEX
  8
0
 62
4
 10
-8.61965968E+00
 20
3.70359287E+02
  0
VERTEX
  8
0
 62
4
 10
-8.33243331E+00
 20
3.70450684E+02
  0
VERTEX
  8
0
 62
4
 10
-8.06550875E+00
 20
3.70552115E+02
  0
VERTEX
  8
0
 62
4
 10
-7.82091745E+00
 20
3.70662806E+02
  0
VERTEX
  8
0
 62
4
 10
-7.60052091E+00
 20
3.70781917E+02
  0
VERTEX
  8
0
 62
4
 10
-7.40599647E+00
 20
3.70908541E+02
  0
VERTEX
  8
0
 62
4
 10
-7.23882458E+00
 20
3.71041713E+02
  0
VERTEX
  8
0
 62
4
 10
-7.10027752E+00
 20
3.71180420E+02
  0
VERTEX
  8
0
 62
4
 10
-6.99140972E+00
 20
3.71323607E+02
  0
VERTEX
  8
0
 62
4
 10
-6.91304972E+00
 20
3.71470184E+02
  0
VERTEX
  8
0
 62
4
 10
-6.86579390E+00
 20
3.71619036E+02
  0
VERTEX
  8
0
 62
4
 10
-6.85000190E+00
 20
3.71769029E+02
  0
SEQEND
  8
0
  0
POLYLINE
  8
0
 62
4
 66
1
  0
VERTEX
  8
0
 62
4
 10
-1.47103764E+01
 20
3.69396611E+02
  0
VERTEX
  8
0
 62
4
 10
-1.45299456E+01
 20
3.69262553E+02
  0
VERTEX
  8
0
 62
4
 10
-1.43214230E+01
 20
3.69135697E+02
  0
VERTEX
  8
0
 62
4
 10
-1.40864681E+01
 20
3.69017052E+02
  0
VERTEX
  8
0
 62
4
 10
-1.38269508E+01
 20
3.68907562E+02
  0
VERTEX
  8
0
 62
4
 10
-1.35449362E+01
 20
3.68808099E+02
  0
VERTEX
  8
0
 62
4
 10
-1.32426687E+01
 20
3.68719455E+02
  0
VERTEX
  8
0
 62
4
 10
-1.29225538E+01
 20
3.68642334E+02
  0
VERTEX
  8
0
 62
4
 10
-1.25871389E+01
 20
3.68577350E+02
  0
VERTEX
  8
0
 62
4
 10
-1.22390934E+01
 20
3.68525021E+02
  0
VERTEX
  8
0
 62
4
 10
-1.18811871E+01
 20
3.68485763E+02
  0
VERTEX
  8
0
 62
4
 10
-1.15162682E+01
 20
3.68459889E+02
  0
VERTEX
  8
0
 62
4
 10
-1.11472408E+01
 20
3.68447604E+02
  0
VERTEX
  8
0
 62
4
 10
-1.07770416E+01
 20
3.68449006E+02
  0
VERTEX
  8
0
 62
4
 10
-1.04086168E+01
 20
3.68464084E+02
  0
VERTEX
  8
0
 62
4
 10
-1.00448983E+01
 20
3.68492718E+02
  0
VERTEX
  8
0
 62
4
 10
-9.68878063E+00
 20
3.68534680E+02
  0
VERTEX
  8
0
 62
4
 10
-9.34309782E+00
 20
3.68589636E+02
  0
VERTEX
  8
0
 62
4
 10
-9.01060088E+00
 20
3.68657149E+02
  0
VERTEX
  8
0
 62
4
 10
-8.69393584E+00
 20
3.68736682E+02
  0
VERTEX
  8
0
 62
4
 10
-8.39562276E+00
 20
3.68827601E+02
  0
VERTEX
  8
0
 62
4
 10
-8.11803567E+00
 20
3.68929183E+02
  0
VERTEX
  8
0
 62
4
 10
-7.86338364E+00
 20
3.69040620E+02
  0
VERTEX
  8
0
 62
4
 10
-7.63369321E+00
 20
3.69161025E+02
  0
VERTEX
  8
0
 62
4
 10
-7.43079230E+00
 20
3.69289439E+02
  0
VERTEX
  8
0
 62
4
 10
-7.25629562E+00
 20
3.69424841E+02
  0
VERTEX
  8
0
 62
4
 10
-7.11159183E+00
 20
3.69566154E+02
  0
VERTEX
  8
0
 62
4
 10
-6.99783250E+00
 20
3.69712251E+02
  0
VERTEX
  8
0
 62
4
 10
-6.91592294E+00
 20
3.69861972E+02
  0
VERTEX
  8
0
 62
4
 10
-6.86651501E+00
 20
3.70014124E+02
  0
VERTEX
  8
0
 62
4
 10
-6.85000190E+00
 20
3.70167497E+02
  0
SEQEND
  8
0
  0
POLYLINE
  8
0
 62
4
 66
1
  0
VERTEX
  8
0
 62
4
 10
-1.47000019E+01
 20
3.69191433E+02
  0
VERTEX
  8
0
 62
4
 10
-1.45501012E+01
 20
3.69057416E+02
  0
VERTEX
  8
0
 62
4
 10
-1.43720417E+01
 20
3.68929461E+02
  0
VERTEX
  8
0
 62
4
 10
-1.41672356E+01
 20
3.68808584E+02
  0
VERTEX
  8
0
 62
4
 10
-1.39373074E+01
 20
3.68695743E+02
  0
VERTEX
  8
0
 62
4
 10
-1.36840809E+01
 20
3.68591832E+02
  0
VERTEX
  8
0
 62
4
 10
-1.34095647E+01
 20
3.68497677E+02
  0
VERTEX
  8
0
 62
4
 10
-1.31159362E+01
 20
3.68414024E+02
  0
VERTEX
  8
0
 62
4
 10
-1.28055243E+01
 20
3.68341537E+02
  0
VERTEX
  8
0
 62
4
 10
-1.24807914E+01
 20
3.68280790E+02
  0
VERTEX
  8
0
 62
4
 10
-1.21443130E+01
 20
3.68232265E+02
  0
VERTEX
  8
0
 62
4
 10
-1.17987580E+01
 20
3.68196348E+02
  0
VERTEX
  8
0
 62
4
 10
-1.14468675E+01
 20
3.68173323E+02
  0
VERTEX
  8
0
 62
4
 10
-1.10914325E+01
 20
3.68163372E+02
  0
VERTEX
  8
0
 62
4
 10
-1.07352723E+01
 20
3.68166576E+02
  0
VERTEX
  8
0
 62
4
 10
-1.03812118E+01
 20
3.68182908E+02
  0
VERTEX
  8
0
 62
4
 10
-1.00320596E+01
 20
3.68212238E+02
  0
VERTEX
  8
0
 62
4
 10
-9.69058488E+00
 20
3.68254335E+02
  0
VERTEX
  8
0
 62
4
 10
-9.35949631E+00
 20
3.68308863E+02
  0
VERTEX
  8
0
 62
4
 10
-9.04142000E+00
 20
3.68375392E+02
  0
VERTEX
  8
0
 62
4
 10
-8.73887889E+00
 20
3.68453393E+02
  0
VERTEX
  8
0
 62
4
 10
-8.45427269E+00
 20
3.68542246E+02
  0
VERTEX
  8
0
 62
4
 10
-8.18985886E+00
 20
3.68641249E+02
  0
VERTEX
  8
0
 62
4
 10
-7.94773470E+00
 20
3.68749614E+02
  0
VERTEX
  8
0
 62
4
 10
-7.72982070E+00
 20
3.68866484E+02
  0
VERTEX
  8
0
 62
4
 10
-7.53784532E+00
 20
3.68990930E+02
  0
VERTEX
  8
0
 62
4
 10
-7.37333129E+00
 20
3.69121966E+02
  0
VERTEX
  8
0
 62
4
 10
-7.23758350E+00
 20
3.69258552E+02
  0
VERTEX
  8
0
 62
4
 10
-7.13167870E+00
 20
3.69399605E+02
  0
VERTEX
  8
0
 62
4
 10
-7.05645690E+00
 20
3.69544006E+02
  0
VERTEX
  8
0
 62
4
 10
-7.01251475E+00
 20
3.69690610E+02
  0
SEQEND
  8
0
  0
LINE
  8
0
 62
4
 10
-6.85000191E+00
 20
3.71769029E+02
 11
-6.85000191E+00
 21
3.70167497E+02
  0
LINE
  8
0
 62
4
 10
-1.51500019E+01
 20
3.70550148E+02
 11
-1.51500019E+01
 21
3.71769029E+02
  0
LINE
  8
0
 62
4
 10
-2.19000019E+01
 20
3.69280247E+02
 11
-2.19000019E+01
 21
3.70309233E+02
  0
LINE
  8
0
 62
4
 10
-1.51000019E+01
 20
3.69280247E+02
 11
-1.51000019E+01
 21
3.70309233E+02
  0
LINE
  8
0
 62
4
 10
-2.23000019E+01
 20
3.69280247E+02
 11
-2.23000019E+01
 21
3.68370285E+02
  0
LINE
  8
0
 62
4
 10
-1.47000019E+01
 20
3.68370285E+02
 11
-1.47000019E+01
 21
3.69280247E+02
  0
LINE
  8
0
 62
4
 10
3.99999809E+00
 20
3.72865087E+02
 11
3.99999809E+00
 21
3.73139258E+02
  0
LINE
  8
0
 62
4
 10
3.99999809E+00
 20
3.70816976E+02
 11
3.99999809E+00
 21
3.72865087E+02
  0
LINE
  8
0
 62
4
 10
3.99999811E+00
 20
3.70816976E+02
 11
-6.85000191E+00
 21
3.70816976E+02
  0
LINE
  8
0
 62
4
 10
5.49999809E+00
 20
3.71714711E+02
 11
3.99999809E+00
 21
3.72865087E+02
  0
LINE
  8
0
 62
4
 10
3.99999811E+00
 20
3.72865087E+02
 11
-7.80051110E+00
 21
3.72865087E+02
  0
LINE
  8
0
 62
4
 10
5.49999809E+00
 20
3.70775431E+02
 11
3.99999809E+00
 21
3.71206314E+02
  0
LINE
  8
0
 62
4
 10
3.99999811E+00
 20
3.71206314E+02
 11
-6.85000191E+00
 21
3.71206314E+02
  0
LINE
  8
0
 62
4
 10
3.99999809E+00
 20
3.67566469E+02
 11
5.49999809E+00
 21
3.68714369E+02
  0
LINE
  8
0
 62
4
 10
3.99999811E+00
 20
3.73139258E+02
 11
-8.48907151E+00
 21
3.73139258E+02
  0
LINE
  8
0
 62
4
 10
3.99999811E+00
 20
3.66504166E+02
 11
-2.60000019E+01
 21
3.66504166E+02
  0
LINE
  8
0
 62
4
 10
3.99999811E+00
 20
3.57131565E+02
 11
-2.60000019E+01
 21
3.57131565E+02
  0
LINE
  8
0
 62
4
 10
-1.10000019E+01
 20
3.50761836E+02
 11
-2.60000019E+01
 21
3.50761836E+02
  0
LINE
  8
0
 62
4
 10
-1.10000019E+01
 20
3.44017928E+02
 11
-2.60000019E+01
 21
3.44017928E+02
  0
LINE
  8
0
 62
4
 10
-2.05000019E+01
 20
3.43511934E+02
 11
-2.05000019E+01
 21
3.44017928E+02
  0
LINE
  8
0
 62
6
 10
-2.10000019E+01
 20
3.42963346E+02
 11
-2.10000019E+01
 21
3.44017928E+02
  0
POLYLINE
  8
0
 62
4
 66
1
  0
VERTEX
  8
0
 62
4
 10
-2.45000020E+01
 20
3.43511934E+02
  0
VERTEX
  8
0
 62
4
 10
-2.44919505E+01
 20
3.43437588E+02
  0
VERTEX
  8
0
 62
4
 10
-2.44678611E+01
 20
3.43363841E+02
  0
VERTEX
  8
0
 62
4
 10
-2.44279277E+01
 20
3.43291287E+02
  0
VERTEX
  8
0
 62
4
 10
-2.43724717E+01
 20
3.43220508E+02
  0
VERTEX
  8
0
 62
4
 10
-2.43019397E+01
 20
3.43152077E+02
  0
VERTEX
  8
0
 62
4
 10
-2.42168995E+01
 20
3.43086542E+02
  0
VERTEX
  8
0
 62
4
 10
-2.41180359E+01
 20
3.43024433E+02
  0
VERTEX
  8
0
 62
4
 10
-2.40061449E+01
 20
3.42966249E+02
  0
VERTEX
  8
0
 62
4
 10
-2.38821272E+01
 20
3.42912458E+02
  0
VERTEX
  8
0
 62
4
 10
-2.37469815E+01
 20
3.42863494E+02
  0
VERTEX
  8
0
 62
4
 10
-2.36017959E+01
 20
3.42819750E+02
  0
VERTEX
  8
0
 62
4
 10
-2.34477393E+01
 20
3.42781580E+02
  0
VERTEX
  8
0
 62
4
 10
-2.32860520E+01
 20
3.42749290E+02
  0
VERTEX
  8
0
 62
4
 10
-2.31180359E+01
 20
3.42723141E+02
  0
VERTEX
  8
0
 62
4
 10
-2.29450438E+01
 20
3.42703342E+02
  0
VERTEX
  8
0
 62
4
 10
-2.27684684E+01
 20
3.42690054E+02
  0
VERTEX
  8
0
 62
4
 10
-2.25897316E+01
 20
3.42683383E+02
  0
VERTEX
  8
0
 62
4
 10
-2.24102722E+01
 20
3.42683383E+02
  0
VERTEX
  8
0
 62
4
 10
-2.22315354E+01
 20
3.42690054E+02
  0
VERTEX
  8
0
 62
4
 10
-2.20549600E+01
 20
3.42703342E+02
  0
VERTEX
  8
0
 62
4
 10
-2.18819679E+01
 20
3.42723141E+02
  0
VERTEX
  8
0
 62
4
 10
-2.17139518E+01
 20
3.42749290E+02
  0
VERTEX
  8
0
 62
4
 10
-2.15522646E+01
 20
3.42781580E+02
  0
VERTEX
  8
0
 62
4
 10
-2.13982079E+01
 20
3.42819750E+02
  0
VERTEX
  8
0
 62
4
 10
-2.12530223E+01
 20
3.42863494E+02
  0
VERTEX
  8
0
 62
4
 10
-2.11178766E+01
 20
3.42912458E+02
  0
VERTEX
  8
0
 62
4
 10
-2.09938589E+01
 20
3.42966249E+02
  0
VERTEX
  8
0
 62
4
 10
-2.08819679E+01
 20
3.43024433E+02
  0
VERTEX
  8
0
 62
4
 10
-2.07831043E+01
 20
3.43086542E+02
  0
VERTEX
  8
0
 62
4
 10
-2.06980641E+01
 20
3.43152077E+02
  0
VERTEX
  8
0
 62
4
 10
-2.06275321E+01
 20
3.43220508E+02
  0
VERTEX
  8
0
 62
4
 10
-2.05720761E+01
 20
3.43291287E+02
  0
VERTEX
  8
0
 62
4
 10
-2.05321427E+01
 20
3.43363841E+02
  0
VERTEX
  8
0
 62
4
 10
-2.05080533E+01
 20
3.43437588E+02
  0
VERTEX
  8
0
 62
4
 10
-2.05000018E+01
 20
3.43511934E+02
  0
SEQEND
  8
0
  0
LINE
  8
0
 62
4
 10
-2.45000019E+01
 20
3.43511934E+02
 11
-2.45000019E+01
 21
3.44017928E+02
  0
LINE
  8
0
 62
6
 10
-2.40000019E+01
 20
3.42963346E+02
 11
-2.40000019E+01
 21
3.44017928E+02
  0
POLYLINE
  8
0
 62
4
 66
1
  0
VERTEX
  8
0
 62
4
 10
-1.65000020E+01
 20
3.43511934E+02
  0
VERTEX
  8
0
 62
4
 10
-1.64919505E+01
 20
3.43437588E+02
  0
VERTEX
  8
0
 62
4
 10
-1.64678611E+01
 20
3.43363841E+02
  0
VERTEX
  8
0
 62
4
 10
-1.64279277E+01
 20
3.43291287E+02
  0
VERTEX
  8
0
 62
4
 10
-1.63724717E+01
 20
3.43220508E+02
  0
VERTEX
  8
0
 62
4
 10
-1.63019397E+01
 20
3.43152077E+02
  0
VERTEX
  8
0
 62
4
 10
-1.62168995E+01
 20
3.43086542E+02
  0
VERTEX
  8
0
 62
4
 10
-1.61180359E+01
 20
3.43024433E+02
  0
VERTEX
  8
0
 62
4
 10
-1.60061449E+01
 20
3.42966249E+02
  0
VERTEX
  8
0
 62
4
 10
-1.58821272E+01
 20
3.42912458E+02
  0
VERTEX
  8
0
 62
4
 10
-1.57469815E+01
 20
3.42863494E+02
  0
VERTEX
  8
0
 62
4
 10
-1.56017959E+01
 20
3.42819750E+02
  0
VERTEX
  8
0
 62
4
 10
-1.54477393E+01
 20
3.42781580E+02
  0
VERTEX
  8
0
 62
4
 10
-1.52860520E+01
 20
3.42749290E+02
  0
VERTEX
  8
0
 62
4
 10
-1.51180359E+01
 20
3.42723141E+02
  0
VERTEX
  8
0
 62
4
 10
-1.49450438E+01
 20
3.42703342E+02
  0
VERTEX
  8
0
 62
4
 10
-1.47684684E+01
 20
3.42690054E+02
  0
VERTEX
  8
0
 62
4
 10
-1.45897316E+01
 20
3.42683383E+02
  0
VERTEX
  8
0
 62
4
 10
-1.44102722E+01
 20
3.42683383E+02
  0
VERTEX
  8
0
 62
4
 10
-1.42315354E+01
 20
3.42690054E+02
  0
VERTEX
  8
0
 62
4
 10
-1.40549600E+01
 20
3.42703342E+02
  0
VERTEX
  8
0
 62
4
 10
-1.38819679E+01
 20
3.42723141E+02
  0
VERTEX
  8
0
 62
4
 10
-1.37139518E+01
 20
3.42749290E+02
  0
VERTEX
  8
0
 62
4
 10
-1.35522646E+01
 20
3.42781580E+02
  0
VERTEX
  8
0
 62
4
 10
-1.33982079E+01
 20
3.42819750E+02
  0
VERTEX
  8
0
 62
4
 10
-1.32530223E+01
 20
3.42863494E+02
  0
VERTEX
  8
0
 62
4
 10
-1.31178766E+01
 20
3.42912458E+02
  0
VERTEX
  8
0
 62
4
 10
-1.29938589E+01
 20
3.42966249E+02
  0
VERTEX
  8
0
 62
4
 10
-1.28819679E+01
 20
3.43024433E+02
  0
VERTEX
  8
0
 62
4
 10
-1.27831043E+01
 20
3.43086542E+02
  0
VERTEX
  8
0
 62
4
 10
-1.26980641E+01
 20
3.43152077E+02
  0
VERTEX
  8
0
 62
4
 10
-1.26275321E+01
 20
3.43220508E+02
  0
VERTEX
  8
0
 62
4
 10
-1.25720761E+01
 20
3.43291287E+02
  0
VERTEX
  8
0
 62
4
 10
-1.25321427E+01
 20
3.43363841E+02
  0
VERTEX
  8
0
 62
4
 10
-1.25080533E+01
 20
3.43437588E+02
  0
VERTEX
  8
0
 62
4
 10
-1.25000018E+01
 20
3.43511934E+02
  0
SEQEND
  8
0
  0
LINE
  8
0
 62
4
 10
5.49999809E+00
 20
3.68714369E+02
 11
5.49999809E+00
 21
3.71714711E+02
  0
LINE
  8
0
 62
4
 10
-1.95000019E+01
 20
3.71656827E+02
 11
-1.95000019E+01
 21
3.72865087E+02
  0
LINE
  8
0
 62
4
 10
3.99999809E+00
 20
3.63999985E+02
 11
3.99999809E+00
 21
3.63599985E+02
  0
LINE
  8
0
 62
4
 10
-2.10000019E+01
 20
3.71264829E+02
 11
-2.10000019E+01
 21
3.72865087E+02
  0
LINE
  8
0
  6
CENTER
 62
6
 10
-3.50000191E+00
 20
3.65870285E+02
 11
-3.50000191E+00
 21
3.70870285E+02
  0
LINE
  8
0
  6
CENTER
 62
6
 10
-1.45000019E+01
 20
3.39234406E+02
 11
-1.45000019E+01
 21
3.49499985E+02
  0
LINE
  8
0
  6
CENTER
 62
6
 10
-2.25000019E+01
 20
3.39234406E+02
 11
-2.25000019E+01
 21
3.49499985E+02
  0
LINE
  8
0
 62
4
 10
3.99999809E+00
 20
3.57131565E+02
 11
3.99999809E+00
 21
3.70816976E+02
  0
LINE
  8
0
 62
4
 10
-2.60000019E+01
 20
3.44017928E+02
 11
-2.60000019E+01
 21
3.73139258E+02
  0
LINE
  8
0
 62
4
 10
-1.10000019E+01
 20
3.44017928E+02
 11
-1.10000019E+01
 21
3.57131565E+02
  0
LINE
  8
0
 62
4
 10
-1.65000019E+01
 20
3.43511934E+02
 11
-1.65000019E+01
 21
3.44017928E+02
  0
LINE
  8
0
 62
4
 10
-1.25000019E+01
 20
3.43511934E+02
 11
-1.25000019E+01
 21
3.44017928E+02
  0
LINE
  8
0
 62
6
 10
-1.60000019E+01
 20
3.42963346E+02
 11
-1.60000019E+01
 21
3.44017928E+02
  0
LINE
  8
0
 62
6
 10
-1.30000019E+01
 20
3.42963346E+02
 11
-1.30000019E+01
 21
3.44017928E+02
  0
LINE
  8
0
  6
CENTER
 62
6
 10
-8.99999981E+01
 20
4.22784237E+02
 11
-3.99999981E+01
 21
4.22784237E+02
  0
LINE
  8
0
 62
6
 10
-4.67320489E+01
 20
4.19784237E+02
 11
-4.32679473E+01
 21
4.25784237E+02
  0
LINE
  8
0
 62
4
 10
-5.49999981E+01
 20
4.24284237E+02
 11
-4.41339727E+01
 21
4.24284237E+02
  0
LINE
  8
0
 62
4
 10
-5.49999981E+01
 20
4.21284237E+02
 11
-4.58660235E+01
 21
4.21284237E+02
  0
LINE
  8
0
  6
CENTER
 62
6
 10
8.99999811E+00
 20
3.70215778E+02
 11
-4.10000019E+01
 21
3.70215778E+02
  0
LINE
  8
0
 62
6
 10
-3.42679511E+01
 20
3.73215778E+02
 11
-3.77320527E+01
 21
3.67215778E+02
  0
LINE
  8
0
 62
4
 10
-2.60000019E+01
 20
3.68715778E+02
 11
-3.68660273E+01
 21
3.68715778E+02
  0
LINE
  8
0
 62
4
 10
-2.60000019E+01
 20
3.71715778E+02
 11
-3.51339765E+01
 21
3.71715778E+02
  0
LINE
  8
0
 62
2
 10
-3.60499968E+02
 20
3.84320007E+02
 11
-3.48999952E+02
 21
3.84320007E+02
  0
LINE
  8
0
 62
7
 10
-3.60499968E+02
 20
3.83500000E+02
 11
-3.48999952E+02
 21
3.83500000E+02
  0
LINE
  8
0
 62
2
 10
-3.60499968E+02
 20
4.08679962E+02
 11
-3.48999952E+02
 21
4.08679962E+02
  0
LINE
  8
0
 62
7
 10
-3.60499968E+02
 20
4.09499969E+02
 11
-3.48999952E+02
 21
4.09499969E+02
  0
LINE
  8
0
 62
4
 10
-3.74499968E+02
 20
3.78500137E+02
 11
-3.60499968E+02
 21
3.78500137E+02
  0
LINE
  8
0
 62
4
 10
-3.74499968E+02
 20
4.14500008E+02
 11
-3.60499968E+02
 21
4.14500008E+02
  0
LINE
  8
0
 62
4
 10
-3.74499968E+02
 20
4.14500008E+02
 11
-3.74499968E+02
 21
3.78500137E+02
  0
LINE
  8
0
 62
4
 10
-3.60499968E+02
 20
4.14500008E+02
 11
-3.60499968E+02
 21
3.78500137E+02
  0
LINE
  8
0
 62
4
 10
-3.72892458E+02
 20
3.96500000E+02
 11
-3.62107477E+02
 21
3.96500000E+02
  0
ARC
  8
0
 62
4
 10
-3.48501937E+02
 20
3.87499996E+02
 40
2.59980309E+01
 50
1.59746143E+02
 51
2.00253857E+02
  0
ARC
  8
0
 62
4
 10
-3.48501937E+02
 20
4.05500004E+02
 40
2.59980309E+01
 50
1.59746143E+02
 51
2.00253857E+02
  0
ARC
  8
0
 62
4
 10
-3.86497998E+02
 20
4.05500004E+02
 40
2.59980309E+01
 50
3.39746143E+02
 51
2.02538569E+01
  0
ARC
  8
0
 62
4
 10
-3.86497998E+02
 20
3.87499996E+02
 40
2.59980309E+01
 50
3.39746143E+02
 51
2.02538569E+01
  0
INSERT
  8
0
  2
PP1
  6
BYBLOCK
 62
0
 10
0.00000000E+00
 20
0.00000000E+00
 41
1.00000000E+00
 42
1.00000000E+00
 50
0.00000000E+00
  0
CIRCLE
  8
0
 62
2
 10
2.79999981E+01
 20
4.08500000E+02
 40
1.04775000E+01
  0
CIRCLE
  8
0
 62
7
 10
2.79999447E+01
 20
4.08500000E+02
 40
1.10000000E+01
  0
ARC
  8
0
 62
7
 10
4.19999561E+01
 20
4.29499939E+02
 40
2.00000000E+00
 50
3.59999986E+02
 51
9.00000094E+01
  0
ARC
  8
0
 62
7
 10
4.19999561E+01
 20
3.63499908E+02
 40
2.00000000E+00
 50
2.69999991E+02
 51
3.59999959E+02
  0
CIRCLE
  8
0
 62
7
 10
2.79999447E+01
 20
4.08500061E+02
 40
9.25000000E+00
  0
ARC
  8
0
 62
7
 10
4.74999638E+01
 20
4.51380280E+02
 40
5.00000000E-01
 50
3.59999986E+02
 51
8.89996737E+01
  0
ARC
  8
0
 62
7
 10
4.94999561E+01
 20
4.20999908E+02
 40
5.00000000E-01
 50
3.59999986E+02
 51
8.99999549E+01
  0
ARC
  8
0
 62
7
 10
4.94999561E+01
 20
3.71999908E+02
 40
5.00000000E-01
 50
2.69999991E+02
 51
3.59999959E+02
  0
ARC
  8
0
 62
7
 10
4.74999638E+01
 20
3.41619659E+02
 40
5.00000000E-01
 50
2.71000258E+02
 51
3.59999959E+02
  0
CIRCLE
  8
0
 62
2
 10
-1.14999983E+02
 20
4.08500000E+02
 40
1.04775000E+01
  0
CIRCLE
  8
0
 62
7
 10
-1.14999952E+02
 20
4.08500000E+02
 40
1.10000000E+01
  0
ARC
  8
0
 62
7
 10
-1.28999937E+02
 20
3.63500061E+02
 40
2.00000000E+00
 50
1.79999977E+02
 51
2.70000028E+02
  0
ARC
  8
0
 62
7
 10
-1.28999937E+02
 20
4.29500061E+02
 40
2.00000000E+00
 50
8.99999818E+01
 51
1.79999951E+02
  0
CIRCLE
  8
0
 62
7
 10
-1.14999952E+02
 20
4.08500061E+02
 40
9.25000000E+00
  0
ARC
  8
0
 62
7
 10
-1.34499952E+02
 20
3.41619720E+02
 40
5.00000000E-01
 50
1.79999977E+02
 51
2.68999679E+02
  0
ARC
  8
0
 62
7
 10
-3.31499922E+02
 20
3.74000031E+02
 40
5.00000000E-01
 50
1.79999977E+02
 51
2.69999974E+02
  0
ARC
  8
0
 62
7
 10
-3.12499922E+02
 20
3.72000061E+02
 40
5.00000000E-01
 50
1.79999977E+02
 51
2.69999974E+02
  0
ARC
  8
0
 62
7
 10
-3.26499922E+02
 20
3.72971802E+02
 40
5.00000000E-01
 50
1.79999977E+02
 51
2.67999192E+02
  0
ARC
  8
0
 62
7
 10
-3.12499922E+02
 20
4.21000061E+02
 40
5.00000000E-01
 50
8.99999818E+01
 51
1.79999951E+02
  0
ARC
  8
0
 62
7
 10
-3.26499922E+02
 20
4.20028320E+02
 40
5.00000000E-01
 50
9.20007356E+01
 51
1.79999951E+02
  0
ARC
  8
0
 62
7
 10
-3.31499922E+02
 20
4.19000061E+02
 40
5.00000000E-01
 50
8.99999818E+01
 51
1.79999951E+02
  0
ARC
  8
0
 62
7
 10
-1.34499952E+02
 20
4.51380310E+02
 40
5.00000000E-01
 50
9.10002493E+01
 51
1.79999951E+02
  0
CIRCLE
  8
0
 62
7
 10
1.89999676E+01
 20
3.78500000E+02
 40
5.00000000E+00
  0
CIRCLE
  8
0
 62
7
 10
1.89999676E+01
 20
3.78500000E+02
 40
2.59999990E+00
  0
CIRCLE
  8
0
 62
7
 10
-1.05999968E+02
 20
3.78499969E+02
 40
5.00000000E+00
  0
CIRCLE
  8
0
 62
7
 10
-1.05999968E+02
 20
3.78499969E+02
 40
2.59999990E+00
  0
ARC
  8
0
 62
7
 10
-1.34499952E+02
 20
3.41619690E+02
 40
5.00000000E-01
 50
1.79999977E+02
 51
2.68999679E+02
  0
ARC
  8
0
 62
7
 10
-1.34499952E+02
 20
4.51380310E+02
 40
5.00000000E-01
 50
9.10002493E+01
 51
1.79999951E+02
  0
CIRCLE
  8
0
 62
7
 10
-2.88999983E+02
 20
4.11500000E+02
 40
5.72250080E+00
  0
CIRCLE
  8
0
 62
7
 10
-2.88999983E+02
 20
4.11500000E+02
 40
6.57850027E+00
  0
CIRCLE
  8
0
 62
2
 10
-1.58999998E+02
 20
4.11500031E+02
 40
8.32999992E+00
  0
CIRCLE
  8
0
 62
7
 10
-1.58999998E+02
 20
4.11500031E+02
 40
7.44000006E+00
  0
CIRCLE
  8
0
 62
7
 10
-1.58999998E+02
 20
4.11500031E+02
 40
8.71000004E+00
  0
ARC
  8
0
 62
7
 10
-2.63212416E+02
 20
4.72474792E+02
 40
2.52511263E+00
 50
4.65209375E+01
 51
1.06521820E+02
  0
ARC
  8
0
 62
7
 10
-2.52787413E+02
 20
4.72474792E+02
 40
2.52511263E+00
 50
7.34780821E+01
 51
1.33478944E+02
  0
ARC
  8
0
 62
7
 10
-2.57999891E+02
 20
3.27061096E+02
 40
9.06113625E+00
 50
2.47449035E+02
 51
2.92550946E+02
  0
ARC
  8
0
 62
7
 10
-2.52787413E+02
 20
3.20525101E+02
 40
2.52511263E+00
 50
2.26520987E+02
 51
2.86521856E+02
  0
ARC
  8
0
 62
7
 10
-2.63212416E+02
 20
3.20525101E+02
 40
2.52511263E+00
 50
2.53478125E+02
 51
3.13479008E+02
  0
ARC
  8
0
 62
7
 10
-2.57999891E+02
 20
4.65938782E+02
 40
9.06113625E+00
 50
6.74489921E+01
 51
1.12550903E+02
  0
LINE
  8
0
 62
7
 10
-3.45999952E+02
 20
4.09500000E+02
 11
-3.36000044E+02
 21
4.09500000E+02
  0
LINE
  8
0
 62
7
 10
-9.89999981E+01
 20
3.42999969E+02
 11
-2.40734881E+01
 21
3.42999969E+02
  0
LINE
  8
0
 62
7
 10
-3.35999958E+02
 20
3.83500007E+02
 11
-3.33999891E+02
 21
3.81499941E+02
  0
LINE
  8
0
 62
7
 10
-3.33999891E+02
 20
3.81499939E+02
 11
-3.31999952E+02
 21
3.81499939E+02
  0
LINE
  8
0
 62
7
 10
-3.36000026E+02
 20
4.09500052E+02
 11
-3.34000002E+02
 21
4.11500076E+02
  0
LINE
  8
0
 62
7
 10
-3.42999952E+02
 20
3.83500000E+02
 11
-3.42999952E+02
 21
4.09500000E+02
  0
LINE
  8
0
 62
7
 10
-3.33999983E+02
 20
4.11500061E+02
 11
-3.31999952E+02
 21
4.11500061E+02
  0
LINE
  8
0
 62
7
 10
-9.89999981E+01
 20
4.50000000E+02
 11
-6.80735708E+01
 21
4.50000000E+02
  0
LINE
  8
0
 62
7
 10
1.19999981E+01
 20
4.43000031E+02
 11
-5.49999981E+01
 21
4.43000031E+02
  0
LINE
  8
0
 62
7
 10
1.19999981E+01
 20
4.34000000E+02
 11
-5.49999981E+01
 21
4.34000000E+02
  0
LINE
  8
0
  6
CENTER
 62
2
 10
5.07792072E+01
 20
4.38500031E+02
 11
-1.37524473E+02
 21
4.38500031E+02
  0
LINE
  8
0
 62
7
 10
4.99999638E+01
 20
4.20999847E+02
 11
4.99999638E+01
 21
3.71999908E+02
  0
LINE
  8
0
 62
7
 10
4.19999409E+01
 20
3.61500000E+02
 11
1.19999371E+01
 21
3.61500000E+02
  0
LINE
  8
0
 62
7
 10
4.19999409E+01
 20
4.31500000E+02
 11
1.19999371E+01
 21
4.31500000E+02
  0
LINE
  8
0
  6
CENTER
 62
2
 10
2.79999714E+01
 20
3.94394135E+02
 11
2.79999714E+01
 21
4.22323273E+02
  0
LINE
  8
0
 62
7
 10
1.19999981E+01
 20
3.40499756E+02
 11
1.19999981E+01
 21
4.52499969E+02
  0
LINE
  8
0
 62
7
 10
4.75087071E+01
 20
4.51880135E+02
 11
1.19999840E+01
 21
4.52499936E+02
  0
LINE
  8
0
 62
7
 10
4.94999409E+01
 20
4.21500000E+02
 11
4.79999409E+01
 21
4.21500000E+02
  0
LINE
  8
0
 62
7
 10
4.75086539E+01
 20
3.41119570E+02
 11
1.19999594E+01
 21
3.40499758E+02
  0
LINE
  8
0
 62
7
 10
4.79999714E+01
 20
4.51380219E+02
 11
4.79999714E+01
 21
3.41619629E+02
  0
LINE
  8
0
 62
7
 10
4.94999409E+01
 20
3.71500000E+02
 11
4.79999409E+01
 21
3.71500000E+02
  0
LINE
  8
0
  6
CENTER
 62
2
 10
1.42976665E+01
 20
4.08500000E+02
 11
4.20949116E+01
 21
4.08500000E+02
  0
LINE
  8
0
 62
7
 10
4.39999561E+01
 20
3.63499878E+02
 11
4.39999561E+01
 21
4.29499908E+02
  0
LINE
  8
0
 62
7
 10
-3.12999952E+02
 20
3.72000092E+02
 11
-3.12999952E+02
 21
4.21000031E+02
  0
LINE
  8
0
 62
7
 10
-1.28999937E+02
 20
4.31499939E+02
 11
-9.89999523E+01
 21
4.31499939E+02
  0
LINE
  8
0
 62
7
 10
-1.28999937E+02
 20
3.61499939E+02
 11
-9.89999523E+01
 21
3.61499939E+02
  0
LINE
  8
0
  6
CENTER
 62
2
 10
-1.14999983E+02
 20
3.94394165E+02
 11
-1.14999983E+02
 21
4.22323273E+02
  0
LINE
  8
0
 62
7
 10
-9.89999981E+01
 20
4.52500183E+02
 11
-9.89999981E+01
 21
3.40499969E+02
  0
LINE
  8
0
 62
7
 10
-3.26517393E+02
 20
3.72472330E+02
 11
-3.12999937E+02
 21
3.72000290E+02
  0
LINE
  8
0
 62
7
 10
-3.26999952E+02
 20
4.20028320E+02
 11
-3.26999952E+02
 21
3.72971771E+02
  0
LINE
  8
0
 62
7
 10
-3.31499922E+02
 20
3.73499969E+02
 11
-3.26999922E+02
 21
3.73499969E+02
  0
LINE
  8
0
 62
7
 10
-1.34508639E+02
 20
3.41119973E+02
 11
-9.89999258E+01
 21
3.40500166E+02
  0
LINE
  8
0
 62
7
 10
-3.26999952E+02
 20
3.72936768E+02
 11
-3.26999952E+02
 21
3.73000061E+02
  0
LINE
  8
0
 62
7
 10
-3.12499922E+02
 20
3.71499939E+02
 11
-3.10999891E+02
 21
3.71499939E+02
  0
LINE
  8
0
 62
7
 10
-3.26517406E+02
 20
4.20528207E+02
 11
-3.12999950E+02
 21
4.21000247E+02
  0
LINE
  8
0
 62
7
 10
-3.31499922E+02
 20
4.19499969E+02
 11
-3.26999922E+02
 21
4.19499969E+02
  0
LINE
  8
0
 62
7
 10
-1.34508639E+02
 20
4.51880474E+02
 11
-9.89999029E+01
 21
4.52500281E+02
  0
LINE
  8
0
 62
7
 10
-3.26999952E+02
 20
4.20063293E+02
 11
-3.26999952E+02
 21
4.20000061E+02
  0
LINE
  8
0
 62
7
 10
-3.31999952E+02
 20
3.74000031E+02
 11
-3.31999952E+02
 21
4.19000061E+02
  0
LINE
  8
0
 62
7
 10
-1.34999983E+02
 20
3.41619720E+02
 11
-1.34999983E+02
 21
4.51380280E+02
  0
LINE
  8
0
 62
7
 10
-3.12499922E+02
 20
4.21499939E+02
 11
-3.10999891E+02
 21
4.21499939E+02
  0
LINE
  8
0
  6
CENTER
 62
2
 10
-1.01297636E+02
 20
4.08499969E+02
 11
-1.29094908E+02
 21
4.08499969E+02
  0
LINE
  8
0
 62
7
 10
-1.30999968E+02
 20
4.29500061E+02
 11
-1.30999968E+02
 21
3.63500031E+02
  0
LINE
  8
0
 62
7
 10
-3.45999952E+02
 20
3.83500000E+02
 11
-3.45999952E+02
 21
4.09500000E+02
  0
LINE
  8
0
 62
7
 10
2.07322663E+01
 20
3.78499836E+02
 11
1.98662424E+01
 21
3.76999829E+02
  0
LINE
  8
0
 62
7
 10
1.98660069E+01
 20
3.76999939E+02
 11
1.81339169E+01
 21
3.76999939E+02
  0
LINE
  8
0
 62
7
 10
1.81339609E+01
 20
3.76999927E+02
 11
1.72678912E+01
 21
3.78500013E+02
  0
LINE
  8
0
 62
7
 10
1.72682680E+01
 20
3.78499761E+02
 11
1.81342766E+01
 21
3.79999741E+02
  0
LINE
  8
0
 62
7
 10
1.98660069E+01
 20
3.79999969E+02
 11
1.81339169E+01
 21
3.79999969E+02
  0
LINE
  8
0
 62
7
 10
2.07321340E+01
 20
3.78499851E+02
 11
1.98661101E+01
 21
3.79999857E+02
  0
LINE
  8
0
 62
7
 10
1.19999981E+01
 20
3.49999939E+02
 11
-1.10000019E+01
 21
3.49999939E+02
  0
LINE
  8
0
 62
7
 10
1.19999981E+01
 20
3.59000000E+02
 11
3.99999809E+00
 21
3.59000000E+02
  0
LINE
  8
0
  6
CENTER
 62
2
 10
5.07792072E+01
 20
3.54499969E+02
 11
-1.37524473E+02
 21
3.54499969E+02
  0
LINE
  8
0
 62
7
 10
-3.48999952E+02
 20
3.84320007E+02
 11
-3.45999952E+02
 21
3.84320007E+02
  0
LINE
  8
0
 62
7
 10
-3.48999952E+02
 20
4.08679962E+02
 11
-3.45999952E+02
 21
4.08679962E+02
  0
LINE
  8
0
 62
2
 10
-3.85319990E+02
 20
3.84320007E+02
 11
-3.74499968E+02
 21
3.84320007E+02
  0
LINE
  8
0
 62
7
 10
-3.86000010E+02
 20
3.84999952E+02
 11
-3.84499998E+02
 21
3.83499939E+02
  0
LINE
  8
0
 62
7
 10
-3.84499983E+02
 20
3.83500000E+02
 11
-3.74499968E+02
 21
3.83500000E+02
  0
LINE
  8
0
 62
2
 10
-3.85319990E+02
 20
4.08679962E+02
 11
-3.74499968E+02
 21
4.08679962E+02
  0
LINE
  8
0
 62
7
 10
-3.85999822E+02
 20
4.07999798E+02
 11
-3.84499809E+02
 21
4.09499810E+02
  0
LINE
  8
0
 62
7
 10
-3.84499952E+02
 20
3.83500000E+02
 11
-3.84499952E+02
 21
4.09500000E+02
  0
LINE
  8
0
 62
7
 10
-3.84499983E+02
 20
4.09499969E+02
 11
-3.74499968E+02
 21
4.09499969E+02
  0
LINE
  8
0
 62
7
 10
-3.48999952E+02
 20
3.83500000E+02
 11
-3.48999952E+02
 21
4.09500000E+02
  0
LINE
  8
0
 62
7
 10
-3.85999983E+02
 20
3.84999939E+02
 11
-3.85999983E+02
 21
4.07999695E+02
  0
LINE
  8
0
  6
CENTER
 62
2
 10
1.08054028E+01
 20
3.78500000E+02
 11
2.70744114E+01
 21
3.78500000E+02
  0
LINE
  8
0
  6
CENTER
 62
2
 10
1.89999676E+01
 20
3.86047729E+02
 11
1.89999676E+01
 21
3.71434326E+02
  0
LINE
  8
0
 62
7
 10
-1.06865892E+02
 20
3.76999938E+02
 11
-1.07731962E+02
 21
3.78500023E+02
  0
LINE
  8
0
 62
7
 10
-1.05133955E+02
 20
3.76999939E+02
 11
-1.06866026E+02
 21
3.76999939E+02
  0
LINE
  8
0
 62
7
 10
-1.04267701E+02
 20
3.78499856E+02
 11
-1.05133748E+02
 21
3.76999810E+02
  0
LINE
  8
0
 62
7
 10
-3.45999952E+02
 20
3.83500000E+02
 11
-3.35999922E+02
 21
3.83500000E+02
  0
LINE
  8
0
  6
CENTER
 62
2
 10
-1.14194548E+02
 20
3.78499969E+02
 11
-9.79255505E+01
 21
3.78499969E+02
  0
LINE
  8
0
  6
CENTER
 62
2
 10
-1.05999968E+02
 20
3.86047729E+02
 11
-1.05999968E+02
 21
3.71434326E+02
  0
LINE
  8
0
 62
7
 10
-1.07731737E+02
 20
3.78499716E+02
 11
-1.06865729E+02
 21
3.79999696E+02
  0
LINE
  8
0
 62
7
 10
-1.05133955E+02
 20
3.79999939E+02
 11
-1.06866026E+02
 21
3.79999939E+02
  0
LINE
  8
0
 62
7
 10
-1.04267863E+02
 20
3.78499866E+02
 11
-1.05133887E+02
 21
3.79999873E+02
  0
LINE
  8
0
 62
7
 10
-1.73999922E+02
 20
3.37169998E+02
 11
-1.34999983E+02
 21
3.37169998E+02
  0
LINE
  8
0
 62
7
 10
-1.73999922E+02
 20
4.55829987E+02
 11
-1.34999983E+02
 21
4.55829987E+02
  0
LINE
  8
0
 62
7
 10
-3.10999952E+02
 20
4.55829987E+02
 11
-2.74999983E+02
 21
4.55829987E+02
  0
LINE
  8
0
 62
7
 10
-3.10999952E+02
 20
3.37169998E+02
 11
-2.74999983E+02
 21
3.37169998E+02
  0
LINE
  8
0
 62
7
 10
-1.73999922E+02
 20
4.65500000E+02
 11
-1.34999983E+02
 21
4.65500000E+02
  0
LINE
  8
0
 62
7
 10
-1.73999922E+02
 20
3.27499969E+02
 11
-1.34999983E+02
 21
3.27499969E+02
  0
LINE
  8
0
 62
7
 10
-3.10999952E+02
 20
3.27499969E+02
 11
-2.74999983E+02
 21
3.27499969E+02
  0
LINE
  8
0
 62
7
 10
-3.10999952E+02
 20
4.65500000E+02
 11
-2.74999983E+02
 21
4.65500000E+02
  0
LINE
  8
0
 62
7
 10
-1.34999983E+02
 20
3.41619720E+02
 11
-1.34999983E+02
 21
4.51380280E+02
  0
LINE
  8
0
  6
CENTER
 62
2
 10
-3.17348158E+02
 20
4.48499969E+02
 11
-1.27870161E+02
 21
4.48499969E+02
  0
LINE
  8
0
 62
7
 10
-2.74999983E+02
 20
4.43000000E+02
 11
-1.73999952E+02
 21
4.43000000E+02
  0
LINE
  8
0
 62
7
 10
-2.74999983E+02
 20
4.54000000E+02
 11
-1.73999952E+02
 21
4.54000000E+02
  0
LINE
  8
0
 62
7
 10
-2.74999983E+02
 20
3.39000000E+02
 11
-1.73999952E+02
 21
3.39000000E+02
  0
LINE
  8
0
 62
7
 10
-2.74999983E+02
 20
3.49999969E+02
 11
-1.73999952E+02
 21
3.49999969E+02
  0
LINE
  8
0
  6
CENTER
 62
2
 10
-3.17348158E+02
 20
3.44499969E+02
 11
-1.27870161E+02
 21
3.44499969E+02
  0
LINE
  8
0
  6
CENTER
 62
2
 10
-2.98059828E+02
 20
4.11500000E+02
 11
-2.79715071E+02
 21
4.11500000E+02
  0
LINE
  8
0
 62
7
 10
-2.85999952E+02
 20
4.13232056E+02
 11
-2.85999952E+02
 21
4.09767914E+02
  0
LINE
  8
0
 62
7
 10
-2.86001094E+02
 20
4.09769805E+02
 11
-2.89001100E+02
 21
4.08037761E+02
  0
LINE
  8
0
 62
7
 10
-2.88999898E+02
 20
4.08036425E+02
 11
-2.91999858E+02
 21
4.09768442E+02
  0
LINE
  8
0
 62
7
 10
-2.91999952E+02
 20
4.09767914E+02
 11
-2.91999952E+02
 21
4.13232056E+02
  0
LINE
  8
0
 62
7
 10
-2.89001058E+02
 20
4.14966048E+02
 11
-2.92001051E+02
 21
4.13234012E+02
  0
LINE
  8
0
 62
7
 10
-2.85999840E+02
 20
4.13232526E+02
 11
-2.88999932E+02
 21
4.14964619E+02
  0
LINE
  8
0
  6
CENTER
 62
2
 10
-2.88999983E+02
 20
4.20778961E+02
 11
-2.88999983E+02
 21
4.02213196E+02
  0
LINE
  8
0
  6
CENTER
 62
2
 10
-1.58999998E+02
 20
3.98243011E+02
 11
-1.58999998E+02
 21
4.26501251E+02
  0
LINE
  8
0
  6
CENTER
 62
2
 10
-1.72800917E+02
 20
4.11500000E+02
 11
-1.44788374E+02
 21
4.11500000E+02
  0
LINE
  8
0
 62
7
 10
-1.34999983E+02
 20
4.65500000E+02
 11
-1.34999983E+02
 21
3.27499969E+02
  0
LINE
  8
0
  6
CENTER
 62
2
 10
-3.91947920E+02
 20
3.96500000E+02
 11
5.71827106E+01
 21
3.96500000E+02
  0
LINE
  8
0
 62
7
 10
-2.74999983E+02
 20
4.63499969E+02
 11
-1.73999922E+02
 21
4.63499969E+02
  0
LINE
  8
0
 62
7
 10
-3.10999952E+02
 20
4.65500000E+02
 11
-3.10999952E+02
 21
3.27499969E+02
  0
LINE
  8
0
 62
7
 10
-1.73999952E+02
 20
4.65500000E+02
 11
-1.73999952E+02
 21
3.27499969E+02
  0
LINE
  8
0
 62
7
 10
-2.74999983E+02
 20
4.65500000E+02
 11
-2.74999983E+02
 21
3.27499969E+02
  0
LINE
  8
0
  6
CENTER
 62
2
 10
-2.57999891E+02
 20
4.61611298E+02
 11
-2.57999891E+02
 21
4.78587616E+02
  0
LINE
  8
0
 62
7
 10
-2.74999983E+02
 20
3.29499939E+02
 11
-1.73999922E+02
 21
3.29499939E+02
  0
LINE
  8
0
  6
CENTER
 62
2
 10
-2.57999891E+02
 20
3.32478226E+02
 11
-2.57999891E+02
 21
3.13912323E+02
  0
LINE
  8
0
 62
7
 10
-2.61474928E+02
 20
4.68499878E+02
 11
-2.61474928E+02
 21
4.74307068E+02
  0
LINE
  8
0
 62
7
 10
-2.54700023E+02
 20
4.76000075E+02
 11
-2.54000102E+02
 21
4.75300154E+02
  0
LINE
  8
0
 62
7
 10
-2.61999399E+02
 20
4.75299399E+02
 11
-2.61299391E+02
 21
4.75999406E+02
  0
LINE
  8
0
 62
7
 10
-2.61999922E+02
 20
4.75299957E+02
 11
-2.53999922E+02
 21
4.75299957E+02
  0
LINE
  8
0
 62
2
 10
-2.54699919E+02
 20
4.74999969E+02
 11
-2.54699919E+02
 21
4.75999878E+02
  0
LINE
  8
0
 62
2
 10
-2.61299940E+02
 20
4.74999969E+02
 11
-2.61299940E+02
 21
4.75999878E+02
  0
LINE
  8
0
 62
7
 10
-2.53999922E+02
 20
4.74999969E+02
 11
-2.53999922E+02
 21
4.75299957E+02
  0
LINE
  8
0
 62
7
 10
-2.61999952E+02
 20
4.74999969E+02
 11
-2.61999952E+02
 21
4.75299957E+02
  0
LINE
  8
0
 62
7
 10
-2.54524900E+02
 20
4.68499878E+02
 11
-2.54524900E+02
 21
4.74307068E+02
  0
LINE
  8
0
 62
7
 10
-2.64949506E+02
 20
4.74306377E+02
 11
-2.63749497E+02
 21
4.74999202E+02
  0
LINE
  8
0
 62
7
 10
-2.52250022E+02
 20
4.74999743E+02
 11
-2.51050013E+02
 21
4.74306918E+02
  0
LINE
  8
0
 62
7
 10
-2.64949903E+02
 20
4.68499878E+02
 11
-2.64949903E+02
 21
4.74307068E+02
  0
LINE
  8
0
 62
7
 10
-2.51049894E+02
 20
4.68499878E+02
 11
-2.51049894E+02
 21
4.74307068E+02
  0
LINE
  8
0
 62
7
 10
-2.63749891E+02
 20
4.74999969E+02
 11
-2.52249891E+02
 21
4.74999969E+02
  0
LINE
  8
0
 62
7
 10
-2.61299910E+02
 20
4.75999969E+02
 11
-2.54699919E+02
 21
4.75999969E+02
  0
LINE
  8
0
 62
7
 10
-2.65999922E+02
 20
4.63499878E+02
 11
-2.65999922E+02
 21
4.68499878E+02
  0
LINE
  8
0
 62
7
 10
-2.49999937E+02
 20
4.63499878E+02
 11
-2.49999937E+02
 21
4.68499878E+02
  0
LINE
  8
0
 62
7
 10
-2.65999891E+02
 20
4.68499969E+02
 11
-2.49999937E+02
 21
4.68499969E+02
  0
LINE
  8
0
 62
7
 10
-2.54699385E+02
 20
3.16999444E+02
 11
-2.53999390E+02
 21
3.17699439E+02
  0
LINE
  8
0
 62
7
 10
-2.62000015E+02
 20
3.17700161E+02
 11
-2.61300094E+02
 21
3.17000240E+02
  0
LINE
  8
0
 62
7
 10
-2.61999922E+02
 20
3.17699936E+02
 11
-2.53999922E+02
 21
3.17699936E+02
  0
LINE
  8
0
 62
2
 10
-2.54699919E+02
 20
3.17999969E+02
 11
-2.54699919E+02
 21
3.16999985E+02
  0
LINE
  8
0
 62
2
 10
-2.61299940E+02
 20
3.17999969E+02
 11
-2.61299940E+02
 21
3.16999985E+02
  0
LINE
  8
0
 62
7
 10
-2.53999922E+02
 20
3.17999969E+02
 11
-2.53999922E+02
 21
3.17699982E+02
  0
LINE
  8
0
 62
7
 10
-2.61999952E+02
 20
3.17999969E+02
 11
-2.61999952E+02
 21
3.17699982E+02
  0
LINE
  8
0
 62
7
 10
-2.54524900E+02
 20
3.24499985E+02
 11
-2.54524900E+02
 21
3.18692795E+02
  0
LINE
  8
0
 62
7
 10
-2.61474928E+02
 20
3.24499985E+02
 11
-2.61474928E+02
 21
3.18692795E+02
  0
LINE
  8
0
 62
7
 10
-2.64950263E+02
 20
3.18692775E+02
 11
-2.63750307E+02
 21
3.17999980E+02
  0
LINE
  8
0
 62
7
 10
-2.52249666E+02
 20
3.17999547E+02
 11
-2.51049657E+02
 21
3.18692372E+02
  0
LINE
  8
0
 62
7
 10
-2.64949903E+02
 20
3.24499985E+02
 11
-2.64949903E+02
 21
3.18692795E+02
  0
LINE
  8
0
 62
7
 10
-2.51049894E+02
 20
3.24499985E+02
 11
-2.51049894E+02
 21
3.18692795E+02
  0
LINE
  8
0
 62
7
 10
-2.63749891E+02
 20
3.17999969E+02
 11
-2.52249891E+02
 21
3.17999969E+02
  0
LINE
  8
0
 62
7
 10
-2.61299910E+02
 20
3.16999985E+02
 11
-2.54699919E+02
 21
3.16999985E+02
  0
LINE
  8
0
 62
7
 10
-2.65999922E+02
 20
3.29499939E+02
 11
-2.65999922E+02
 21
3.24499985E+02
  0
LINE
  8
0
 62
7
 10
-2.49999937E+02
 20
3.29499939E+02
 11
-2.49999937E+02
 21
3.24499985E+02
  0
LINE
  8
0
 62
7
 10
-2.65999891E+02
 20
3.24499985E+02
 11
-2.49999937E+02
 21
3.24499985E+02
  0
LINE
  8
0
 62
4
 10
-8.74999981E+01
 20
-3.77100758E+02
 11
-7.24999981E+01
 21
-3.77100758E+02
  0
LINE
  8
0
 62
4
 10
-8.94999981E+01
 20
-3.98913216E+02
 11
-7.04999981E+01
 21
-3.98913216E+02
  0
LINE
  8
0
 62
4
 10
-9.19999981E+01
 20
-4.03804222E+02
 11
-9.19999981E+01
 21
-4.15076519E+02
  0
LINE
  8
0
 62
4
 10
-8.94999981E+01
 20
-3.98913216E+02
 11
-8.94999981E+01
 21
-4.02304222E+02
  0
LINE
  8
0
 62
4
 10
-7.24999981E+01
 20
-3.77100758E+02
 11
-7.24999981E+01
 21
-3.98913216E+02
  0
LINE
  8
0
 62
4
 10
-8.74999981E+01
 20
-3.77100758E+02
 11
-8.74999981E+01
 21
-3.98913216E+02
  0
LINE
  8
0
 62
4
 10
-7.04999981E+01
 20
-3.98913216E+02
 11
-7.04999981E+01
 21
-4.02304222E+02
  0
LINE
  8
0
 62
4
 10
-8.74999981E+01
 20
-3.98852145E+02
 11
-7.24999981E+01
 21
-3.98852145E+02
  0
LINE
  8
0
 62
4
 10
-5.29999981E+01
 20
-4.03804222E+02
 11
-5.29999981E+01
 21
-4.15076519E+02
  0
LINE
  8
0
 62
4
 10
-8.89999981E+01
 20
-4.19969605E+02
 11
-5.59999981E+01
 21
-4.19969605E+02
  0
LINE
  8
0
 62
4
 10
-9.19999981E+01
 20
-4.15076519E+02
 11
-5.29999981E+01
 21
-4.15076519E+02
  0
LINE
  8
0
 62
4
 10
-9.19999981E+01
 20
-4.13717057E+02
 11
-5.29999981E+01
 21
-4.13717057E+02
  0
LINE
  8
0
 62
4
 10
-9.04999981E+01
 20
-4.02304222E+02
 11
-5.44999981E+01
 21
-4.02304222E+02
  0
LINE
  8
0
 62
4
 10
-1.06999998E+02
 20
-3.78910934E+02
 11
-1.01999998E+02
 21
-3.78910934E+02
  0
LINE
  8
0
 62
4
 10
-9.64999981E+01
 20
-3.92708267E+02
 11
-8.79999981E+01
 21
-3.92708267E+02
  0
LINE
  8
0
 62
4
 10
-8.74999981E+01
 20
-3.78708267E+02
 11
-9.64999981E+01
 21
-3.78708267E+02
  0
LINE
  8
0
 62
4
 10
-9.69999981E+01
 20
-3.79208267E+02
 11
-9.69999981E+01
 21
-3.92208267E+02
  0
LINE
  8
0
 62
4
 10
-1.06999998E+02
 20
-3.78910934E+02
 11
-1.06999998E+02
 21
-3.92514613E+02
  0
LINE
  8
0
 62
4
 10
-1.01999998E+02
 20
-3.78910934E+02
 11
-1.01999998E+02
 21
-3.92514613E+02
  0
LINE
  8
0
 62
4
 10
-1.01999998E+02
 20
-3.79458267E+02
 11
-9.69999981E+01
 21
-3.79458267E+02
  0
LINE
  8
0
 62
4
 10
-1.01999998E+02
 20
-3.91958267E+02
 11
-9.69999981E+01
 21
-3.91958267E+02
  0
LINE
  8
0
 62
4
 10
-1.00499998E+02
 20
-3.79458267E+02
 11
-1.00499998E+02
 21
-3.91958267E+02
  0
LINE
  8
0
 62
4
 10
-1.00499998E+02
 20
-3.79958267E+02
 11
-9.69999981E+01
 21
-3.79958267E+02
  0
LINE
  8
0
 62
4
 10
-1.00499998E+02
 20
-3.91458267E+02
 11
-9.69999981E+01
 21
-3.91458267E+02
  0
ARC
  8
0
 62
4
 10
-9.64999938E+01
 20
-3.79208271E+02
 40
5.00004272E-01
 50
9.00004895E+01
 51
1.79999510E+02
  0
ARC
  8
0
 62
4
 10
-8.80000024E+01
 20
-3.93208271E+02
 40
5.00004272E-01
 50
4.89585868E-04
 51
8.99995103E+01
  0
ARC
  8
0
 62
4
 10
-5.45000009E+01
 20
-4.03804225E+02
 40
1.50000284E+00
 50
1.08554370E-04
 51
8.99998913E+01
  0
ARC
  8
0
 62
4
 10
-9.65000024E+01
 20
-3.92208271E+02
 40
4.99995728E-01
 50
1.79999510E+02
 51
2.70000490E+02
  0
ARC
  8
0
 62
4
 10
-9.04999953E+01
 20
-4.03804225E+02
 40
1.50000284E+00
 50
9.00001085E+01
 51
1.79999892E+02
  0
LINE
  8
0
 62
4
 10
-5.29999981E+01
 20
-4.15076519E+02
 11
-5.59999981E+01
 21
-4.19969605E+02
  0
LINE
  8
0
 62
4
 10
-9.19999981E+01
 20
-4.15076519E+02
 11
-8.89999981E+01
 21
-4.19969605E+02
  0
LINE
  8
0
  6
CENTER
 62
6
 10
-8.60640034E+01
 20
-4.06804612E+02
 11
-7.41177145E+01
 21
-4.06804612E+02
  0
LINE
  8
0
  6
CENTER
 62
6
 10
-7.99999981E+01
 20
-4.02201077E+02
 11
-7.99999981E+01
 21
-4.13168484E+02
  0
POLYLINE
  8
0
 62
4
 66
1
  0
VERTEX
  8
0
 62
4
 10
-8.27327458E+01
 20
-4.05449101E+02
  0
VERTEX
  8
0
 62
4
 10
-8.29802174E+01
 20
-4.05685043E+02
  0
VERTEX
  8
0
 62
4
 10
-8.32043629E+01
 20
-4.05940463E+02
  0
VERTEX
  8
0
 62
4
 10
-8.34034279E+01
 20
-4.06213361E+02
  0
VERTEX
  8
0
 62
4
 10
-8.35758544E+01
 20
-4.06501602E+02
  0
VERTEX
  8
0
 62
4
 10
-8.37202927E+01
 20
-4.06802929E+02
  0
VERTEX
  8
0
 62
4
 10
-8.38356124E+01
 20
-4.07114984E+02
  0
VERTEX
  8
0
 62
4
 10
-8.39209108E+01
 20
-4.07435324E+02
  0
VERTEX
  8
0
 62
4
 10
-8.39755204E+01
 20
-4.07761442E+02
  0
VERTEX
  8
0
 62
4
 10
-8.39990136E+01
 20
-4.08090786E+02
  0
VERTEX
  8
0
 62
4
 10
-8.39912067E+01
 20
-4.08420778E+02
  0
VERTEX
  8
0
 62
4
 10
-8.39521607E+01
 20
-4.08748835E+02
  0
VERTEX
  8
0
 62
4
 10
-8.38821812E+01
 20
-4.09072389E+02
  0
VERTEX
  8
0
 62
4
 10
-8.37818159E+01
 20
-4.09388908E+02
  0
VERTEX
  8
0
 62
4
 10
-8.36518505E+01
 20
-4.09695915E+02
  0
VERTEX
  8
0
 62
4
 10
-8.34933021E+01
 20
-4.09991006E+02
  0
VERTEX
  8
0
 62
4
 10
-8.33074117E+01
 20
-4.10271871E+02
  0
VERTEX
  8
0
 62
4
 10
-8.30956343E+01
 20
-4.10536314E+02
  0
VERTEX
  8
0
 62
4
 10
-8.28596274E+01
 20
-4.10782263E+02
  0
VERTEX
  8
0
 62
4
 10
-8.26012383E+01
 20
-4.11007794E+02
  0
VERTEX
  8
0
 62
4
 10
-8.23224893E+01
 20
-4.11211141E+02
  0
VERTEX
  8
0
 62
4
 10
-8.20255623E+01
 20
-4.11390714E+02
  0
VERTEX
  8
0
 62
4
 10
-8.17127812E+01
 20
-4.11545105E+02
  0
VERTEX
  8
0
 62
4
 10
-8.13865942E+01
 20
-4.11673108E+02
  0
VERTEX
  8
0
 62
4
 10
-8.10495544E+01
 20
-4.11773720E+02
  0
VERTEX
  8
0
 62
4
 10
-8.07042997E+01
 20
-4.11846153E+02
  0
VERTEX
  8
0
 62
4
 10
-8.03535324E+01
 20
-4.11889841E+02
  0
VERTEX
  8
0
 62
4
 10
-7.99999981E+01
 20
-4.11904442E+02
  0
VERTEX
  8
0
 62
4
 10
-7.96464637E+01
 20
-4.11889841E+02
  0
VERTEX
  8
0
 62
4
 10
-7.92956965E+01
 20
-4.11846153E+02
  0
VERTEX
  8
0
 62
4
 10
-7.89504418E+01
 20
-4.11773720E+02
  0
VERTEX
  8
0
 62
4
 10
-7.86134020E+01
 20
-4.11673108E+02
  0
VERTEX
  8
0
 62
4
 10
-7.82872150E+01
 20
-4.11545105E+02
  0
VERTEX
  8
0
 62
4
 10
-7.79744339E+01
 20
-4.11390713E+02
  0
VERTEX
  8
0
 62
4
 10
-7.76775069E+01
 20
-4.11211141E+02
  0
VERTEX
  8
0
 62
4
 10
-7.73987579E+01
 20
-4.11007794E+02
  0
VERTEX
  8
0
 62
4
 10
-7.71403688E+01
 20
-4.10782263E+02
  0
VERTEX
  8
0
 62
4
 10
-7.69043619E+01
 20
-4.10536314E+02
  0
VERTEX
  8
0
 62
4
 10
-7.66925845E+01
 20
-4.10271871E+02
  0
VERTEX
  8
0
 62
4
 10
-7.65066941E+01
 20
-4.09991006E+02
  0
VERTEX
  8
0
 62
4
 10
-7.63481457E+01
 20
-4.09695915E+02
  0
VERTEX
  8
0
 62
4
 10
-7.62181803E+01
 20
-4.09388908E+02
  0
VERTEX
  8
0
 62
4
 10
-7.61178150E+01
 20
-4.09072389E+02
  0
VERTEX
  8
0
 62
4
 10
-7.60478355E+01
 20
-4.08748835E+02
  0
VERTEX
  8
0
 62
4
 10
-7.60087895E+01
 20
-4.08420778E+02
  0
VERTEX
  8
0
 62
4
 10
-7.60009826E+01
 20
-4.08090786E+02
  0
VERTEX
  8
0
 62
4
 10
-7.60244758E+01
 20
-4.07761442E+02
  0
VERTEX
  8
0
 62
4
 10
-7.60790854E+01
 20
-4.07435324E+02
  0
VERTEX
  8
0
 62
4
 10
-7.61643838E+01
 20
-4.07114984E+02
  0
VERTEX
  8
0
 62
4
 10
-7.62797035E+01
 20
-4.06802929E+02
  0
VERTEX
  8
0
 62
4
 10
-7.64241418E+01
 20
-4.06501602E+02
  0
VERTEX
  8
0
 62
4
 10
-7.65965683E+01
 20
-4.06213361E+02
  0
VERTEX
  8
0
 62
4
 10
-7.67956333E+01
 20
-4.05940463E+02
  0
VERTEX
  8
0
 62
4
 10
-7.70197788E+01
 20
-4.05685043E+02
  0
VERTEX
  8
0
 62
4
 10
-7.72672504E+01
 20
-4.05449101E+02
  0
SEQEND
  8
0
  0
POLYLINE
  8
0
 62
4
 66
1
  0
VERTEX
  8
0
 62
4
 10
-8.39999981E+01
 20
-4.08173556E+02
  0
VERTEX
  8
0
 62
4
 10
-8.39847769E+01
 20
-4.08480308E+02
  0
VERTEX
  8
0
 62
4
 10
-8.39392290E+01
 20
-4.08784725E+02
  0
VERTEX
  8
0
 62
4
 10
-8.38637012E+01
 20
-4.09084490E+02
  0
VERTEX
  8
0
 62
4
 10
-8.37587681E+01
 20
-4.09377323E+02
  0
VERTEX
  8
0
 62
4
 10
-8.36252286E+01
 20
-4.09660995E+02
  0
VERTEX
  8
0
 62
4
 10
-8.34640987E+01
 20
-4.09933346E+02
  0
VERTEX
  8
0
 62
4
 10
-8.32766049E+01
 20
-4.10192304E+02
  0
VERTEX
  8
0
 62
4
 10
-8.30641742E+01
 20
-4.10435898E+02
  0
VERTEX
  8
0
 62
4
 10
-8.28284231E+01
 20
-4.10662274E+02
  0
VERTEX
  8
0
 62
4
 10
-8.25711460E+01
 20
-4.10869710E+02
  0
VERTEX
  8
0
 62
4
 10
-8.22943009E+01
 20
-4.11056626E+02
  0
VERTEX
  8
0
 62
4
 10
-8.19999947E+01
 20
-4.11221600E+02
  0
VERTEX
  8
0
 62
4
 10
-8.16904672E+01
 20
-4.11363377E+02
  0
VERTEX
  8
0
 62
4
 10
-8.13680743E+01
 20
-4.11480878E+02
  0
VERTEX
  8
0
 62
4
 10
-8.10352695E+01
 20
-4.11573207E+02
  0
VERTEX
  8
0
 62
4
 10
-8.06945856E+01
 20
-4.11639663E+02
  0
VERTEX
  8
0
 62
4
 10
-8.03486154E+01
 20
-4.11679740E+02
  0
VERTEX
  8
0
 62
4
 10
-7.99999921E+01
 20
-4.11693133E+02
  0
VERTEX
  8
0
 62
4
 10
-7.96513688E+01
 20
-4.11679739E+02
  0
VERTEX
  8
0
 62
4
 10
-7.93053988E+01
 20
-4.11639661E+02
  0
VERTEX
  8
0
 62
4
 10
-7.89647152E+01
 20
-4.11573204E+02
  0
VERTEX
  8
0
 62
4
 10
-7.86319107E+01
 20
-4.11480874E+02
  0
VERTEX
  8
0
 62
4
 10
-7.83095181E+01
 20
-4.11363373E+02
  0
VERTEX
  8
0
 62
4
 10
-7.79999912E+01
 20
-4.11221595E+02
  0
VERTEX
  8
0
 62
4
 10
-7.77056855E+01
 20
-4.11056620E+02
  0
VERTEX
  8
0
 62
4
 10
-7.74288410E+01
 20
-4.10869703E+02
  0
VERTEX
  8
0
 62
4
 10
-7.71715646E+01
 20
-4.10662267E+02
  0
VERTEX
  8
0
 62
4
 10
-7.69358143E+01
 20
-4.10435890E+02
  0
VERTEX
  8
0
 62
4
 10
-7.67233844E+01
 20
-4.10192295E+02
  0
VERTEX
  8
0
 62
4
 10
-7.65358915E+01
 20
-4.09933337E+02
  0
VERTEX
  8
0
 62
4
 10
-7.63747626E+01
 20
-4.09660985E+02
  0
VERTEX
  8
0
 62
4
 10
-7.62412240E+01
 20
-4.09377313E+02
  0
VERTEX
  8
0
 62
4
 10
-7.61362920E+01
 20
-4.09084480E+02
  0
VERTEX
  8
0
 62
4
 10
-7.60607651E+01
 20
-4.08784714E+02
  0
VERTEX
  8
0
 62
4
 10
-7.60152183E+01
 20
-4.08480297E+02
  0
VERTEX
  8
0
 62
4
 10
-7.59999981E+01
 20
-4.08173545E+02
  0
SEQEND
  8
0
  0
POLYLINE
  8
0
 62
4
 66
1
  0
VERTEX
  8
0
 62
4
 10
-7.65999981E+01
 20
-4.07337911E+02
  0
VERTEX
  8
0
 62
4
 10
-7.66129361E+01
 20
-4.07061223E+02
  0
VERTEX
  8
0
 62
4
 10
-7.66516517E+01
 20
-4.06786640E+02
  0
VERTEX
  8
0
 62
4
 10
-7.67158503E+01
 20
-4.06516254E+02
  0
VERTEX
  8
0
 62
4
 10
-7.68050432E+01
 20
-4.06252120E+02
  0
VERTEX
  8
0
 62
4
 10
-7.69185516E+01
 20
-4.05996250E+02
  0
VERTEX
  8
0
 62
4
 10
-7.70555117E+01
 20
-4.05750591E+02
  0
VERTEX
  8
0
 62
4
 10
-7.72148811E+01
 20
-4.05517012E+02
  0
VERTEX
  8
0
 62
4
 10
-7.73954470E+01
 20
-4.05297291E+02
  0
VERTEX
  8
0
 62
4
 10
-7.75958350E+01
 20
-4.05093101E+02
  0
VERTEX
  8
0
 62
4
 10
-7.78145202E+01
 20
-4.04905995E+02
  0
VERTEX
  8
0
 62
4
 10
-7.80498382E+01
 20
-4.04737398E+02
  0
VERTEX
  8
0
 62
4
 10
-7.82999981E+01
 20
-4.04588591E+02
  0
VERTEX
  8
0
 62
4
 10
-7.85630960E+01
 20
-4.04460709E+02
  0
VERTEX
  8
0
 62
4
 10
-7.88371296E+01
 20
-4.04354725E+02
  0
VERTEX
  8
0
 62
4
 10
-7.91200133E+01
 20
-4.04271444E+02
  0
VERTEX
  8
0
 62
4
 10
-7.94095943E+01
 20
-4.04211500E+02
  0
VERTEX
  8
0
 62
4
 10
-7.97036686E+01
 20
-4.04175351E+02
  0
VERTEX
  8
0
 62
4
 10
-7.99999981E+01
 20
-4.04163270E+02
  0
VERTEX
  8
0
 62
4
 10
-8.02963276E+01
 20
-4.04175351E+02
  0
VERTEX
  8
0
 62
4
 10
-8.05904019E+01
 20
-4.04211500E+02
  0
VERTEX
  8
0
 62
4
 10
-8.08799829E+01
 20
-4.04271444E+02
  0
VERTEX
  8
0
 62
4
 10
-8.11628666E+01
 20
-4.04354725E+02
  0
VERTEX
  8
0
 62
4
 10
-8.14369002E+01
 20
-4.04460709E+02
  0
VERTEX
  8
0
 62
4
 10
-8.16999981E+01
 20
-4.04588591E+02
  0
VERTEX
  8
0
 62
4
 10
-8.19501580E+01
 20
-4.04737398E+02
  0
VERTEX
  8
0
 62
4
 10
-8.21854760E+01
 20
-4.04905995E+02
  0
VERTEX
  8
0
 62
4
 10
-8.24041612E+01
 20
-4.05093101E+02
  0
VERTEX
  8
0
 62
4
 10
-8.26045492E+01
 20
-4.05297291E+02
  0
VERTEX
  8
0
 62
4
 10
-8.27851151E+01
 20
-4.05517012E+02
  0
VERTEX
  8
0
 62
4
 10
-8.29444845E+01
 20
-4.05750591E+02
  0
VERTEX
  8
0
 62
4
 10
-8.30814446E+01
 20
-4.05996250E+02
  0
VERTEX
  8
0
 62
4
 10
-8.31949530E+01
 20
-4.06252120E+02
  0
VERTEX
  8
0
 62
4
 10
-8.32841459E+01
 20
-4.06516254E+02
  0
VERTEX
  8
0
 62
4
 10
-8.33483445E+01
 20
-4.06786640E+02
  0
VERTEX
  8
0
 62
4
 10
-8.33870601E+01
 20
-4.07061223E+02
  0
VERTEX
  8
0
 62
4
 10
-8.33999981E+01
 20
-4.07337911E+02
  0
VERTEX
  8
0
 62
4
 10
-8.33870601E+01
 20
-4.07614599E+02
  0
VERTEX
  8
0
 62
4
 10
-8.33483445E+01
 20
-4.07889182E+02
  0
VERTEX
  8
0
 62
4
 10
-8.32841459E+01
 20
-4.08159568E+02
  0
VERTEX
  8
0
 62
4
 10
-8.31949530E+01
 20
-4.08423702E+02
  0
VERTEX
  8
0
 62
4
 10
-8.30814446E+01
 20
-4.08679572E+02
  0
VERTEX
  8
0
 62
4
 10
-8.29444845E+01
 20
-4.08925231E+02
  0
VERTEX
  8
0
 62
4
 10
-8.27851150E+01
 20
-4.09158810E+02
  0
VERTEX
  8
0
 62
4
 10
-8.26045492E+01
 20
-4.09378531E+02
  0
VERTEX
  8
0
 62
4
 10
-8.24041612E+01
 20
-4.09582721E+02
  0
VERTEX
  8
0
 62
4
 10
-8.21854760E+01
 20
-4.09769827E+02
  0
VERTEX
  8
0
 62
4
 10
-8.19501580E+01
 20
-4.09938424E+02
  0
VERTEX
  8
0
 62
4
 10
-8.16999981E+01
 20
-4.10087231E+02
  0
VERTEX
  8
0
 62
4
 10
-8.14369002E+01
 20
-4.10215113E+02
  0
VERTEX
  8
0
 62
4
 10
-8.11628666E+01
 20
-4.10321097E+02
  0
VERTEX
  8
0
 62
4
 10
-8.08799828E+01
 20
-4.10404378E+02
  0
VERTEX
  8
0
 62
4
 10
-8.05904019E+01
 20
-4.10464322E+02
  0
VERTEX
  8
0
 62
4
 10
-8.02963276E+01
 20
-4.10500471E+02
  0
VERTEX
  8
0
 62
4
 10
-7.99999981E+01
 20
-4.10512552E+02
  0
VERTEX
  8
0
 62
4
 10
-7.97036686E+01
 20
-4.10500471E+02
  0
VERTEX
  8
0
 62
4
 10
-7.94095943E+01
 20
-4.10464322E+02
  0
VERTEX
  8
0
 62
4
 10
-7.91200133E+01
 20
-4.10404378E+02
  0
VERTEX
  8
0
 62
4
 10
-7.88371296E+01
 20
-4.10321097E+02
  0
VERTEX
  8
0
 62
4
 10
-7.85630960E+01
 20
-4.10215113E+02
  0
VERTEX
  8
0
 62
4
 10
-7.82999981E+01
 20
-4.10087231E+02
  0
VERTEX
  8
0
 62
4
 10
-7.80498382E+01
 20
-4.09938424E+02
  0
VERTEX
  8
0
 62
4
 10
-7.78145202E+01
 20
-4.09769827E+02
  0
VERTEX
  8
0
 62
4
 10
-7.75958350E+01
 20
-4.09582721E+02
  0
VERTEX
  8
0
 62
4
 10
-7.73954470E+01
 20
-4.09378531E+02
  0
VERTEX
  8
0
 62
4
 10
-7.72148811E+01
 20
-4.09158810E+02
  0
VERTEX
  8
0
 62
4
 10
-7.70555117E+01
 20
-4.08925231E+02
  0
VERTEX
  8
0
 62
4
 10
-7.69185516E+01
 20
-4.08679572E+02
  0
VERTEX
  8
0
 62
4
 10
-7.68050432E+01
 20
-4.08423702E+02
  0
VERTEX
  8
0
 62
4
 10
-7.67158503E+01
 20
-4.08159568E+02
  0
VERTEX
  8
0
 62
4
 10
-7.66516517E+01
 20
-4.07889182E+02
  0
VERTEX
  8
0
 62
4
 10
-7.66129361E+01
 20
-4.07614599E+02
  0
VERTEX
  8
0
 62
4
 10
-7.65999981E+01
 20
-4.07337911E+02
  0
SEQEND
  8
0
  0
POLYLINE
  8
0
 62
4
 66
1
  0
VERTEX
  8
0
 62
4
 10
-8.33767727E+01
 20
-4.07708343E+02
  0
VERTEX
  8
0
 62
4
 10
-8.33986537E+01
 20
-4.07981255E+02
  0
VERTEX
  8
0
 62
4
 10
-8.33937351E+01
 20
-4.08254850E+02
  0
VERTEX
  8
0
 62
4
 10
-8.33620555E+01
 20
-4.08526971E+02
  0
VERTEX
  8
0
 62
4
 10
-8.33038649E+01
 20
-4.08795471E+02
  0
VERTEX
  8
0
 62
4
 10
-8.32196221E+01
 20
-4.09058235E+02
  0
VERTEX
  8
0
 62
4
 10
-8.31099914E+01
 20
-4.09313190E+02
  0
VERTEX
  8
0
 62
4
 10
-8.29758372E+01
 20
-4.09558325E+02
  0
VERTEX
  8
0
 62
4
 10
-8.28182174E+01
 20
-4.09791707E+02
  0
VERTEX
  8
0
 62
4
 10
-8.26383749E+01
 20
-4.10011497E+02
  0
VERTEX
  8
0
 62
4
 10
-8.24377278E+01
 20
-4.10215960E+02
  0
VERTEX
  8
0
 62
4
 10
-8.22178583E+01
 20
-4.10403486E+02
  0
VERTEX
  8
0
 62
4
 10
-8.19805001E+01
 20
-4.10572594E+02
  0
VERTEX
  8
0
 62
4
 10
-8.17275250E+01
 20
-4.10721952E+02
  0
VERTEX
  8
0
 62
4
 10
-8.14609277E+01
 20
-4.10850382E+02
  0
VERTEX
  8
0
 62
4
 10
-8.11828104E+01
 20
-4.10956871E+02
  0
VERTEX
  8
0
 62
4
 10
-8.08953661E+01
 20
-4.11040579E+02
  0
VERTEX
  8
0
 62
4
 10
-8.06008616E+01
 20
-4.11100847E+02
  0
VERTEX
  8
0
 62
4
 10
-8.03016191E+01
 20
-4.11137198E+02
  0
VERTEX
  8
0
 62
4
 10
-7.99999981E+01
 20
-4.11149347E+02
  0
VERTEX
  8
0
 62
4
 10
-7.96983771E+01
 20
-4.11137198E+02
  0
VERTEX
  8
0
 62
4
 10
-7.93991346E+01
 20
-4.11100847E+02
  0
VERTEX
  8
0
 62
4
 10
-7.91046301E+01
 20
-4.11040579E+02
  0
VERTEX
  8
0
 62
4
 10
-7.88171858E+01
 20
-4.10956871E+02
  0
VERTEX
  8
0
 62
4
 10
-7.85390685E+01
 20
-4.10850382E+02
  0
VERTEX
  8
0
 62
4
 10
-7.82724712E+01
 20
-4.10721952E+02
  0
VERTEX
  8
0
 62
4
 10
-7.80194961E+01
 20
-4.10572594E+02
  0
VERTEX
  8
0
 62
4
 10
-7.77821379E+01
 20
-4.10403486E+02
  0
VERTEX
  8
0
 62
4
 10
-7.75622684E+01
 20
-4.10215960E+02
  0
VERTEX
  8
0
 62
4
 10
-7.73616213E+01
 20
-4.10011497E+02
  0
VERTEX
  8
0
 62
4
 10
-7.71817788E+01
 20
-4.09791707E+02
  0
VERTEX
  8
0
 62
4
 10
-7.70241590E+01
 20
-4.09558325E+02
  0
VERTEX
  8
0
 62
4
 10
-7.68900048E+01
 20
-4.09313190E+02
  0
VERTEX
  8
0
 62
4
 10
-7.67803741E+01
 20
-4.09058235E+02
  0
VERTEX
  8
0
 62
4
 10
-7.66961313E+01
 20
-4.08795471E+02
  0
VERTEX
  8
0
 62
4
 10
-7.66379407E+01
 20
-4.08526971E+02
  0
VERTEX
  8
0
 62
4
 10
-7.66062611E+01
 20
-4.08254850E+02
  0
VERTEX
  8
0
 62
4
 10
-7.66013425E+01
 20
-4.07981255E+02
  0
VERTEX
  8
0
 62
4
 10
-7.66232235E+01
 20
-4.07708343E+02
  0
SEQEND
  8
0
  0
LINE
  8
0
 62
6
 10
-7.82850608E+01
 20
-4.08519547E+02
 11
-8.17149354E+01
 21
-4.05089677E+02
  0
LINE
  8
0
 62
6
 10
-8.17149329E+01
 20
-4.08519549E+02
 11
-7.82850632E+01
 21
-4.05089675E+02
  0
LINE
  8
0
 62
4
 10
-1.06999998E+02
 20
-3.79562569E+02
 11
-1.01999998E+02
 21
-3.79562569E+02
  0
LINE
  8
0
 62
4
 10
-1.06999998E+02
 20
-3.86368941E+02
 11
-1.01999998E+02
 21
-3.86368941E+02
  0
LINE
  8
0
 62
4
 10
-1.06999998E+02
 20
-3.92514613E+02
 11
-1.01999998E+02
 21
-3.92514613E+02
  0
LINE
  8
0
 62
4
 10
-5.95575445E+02
 20
-4.04500023E+02
 11
-5.95602189E+02
 21
-4.04442670E+02
  0
LINE
  8
0
 62
4
 10
-6.27463438E+02
 20
-3.83440032E+02
 11
-6.23031593E+02
 21
-3.81373429E+02
  0
LINE
  8
0
 62
4
 10
-6.13868821E+02
 20
-3.77100758E+02
 11
-6.03303365E+02
 21
-3.99758453E+02
  0
LINE
  8
0
 62
4
 10
-6.27463438E+02
 20
-3.83440032E+02
 11
-6.17643003E+02
 21
-4.04500023E+02
  0
LINE
  8
0
 62
4
 10
-6.13471694E+02
 20
-4.04500023E+02
 11
-6.01490749E+02
 21
-3.98913216E+02
  0
LINE
  8
0
 62
4
 10
-6.15837896E+02
 20
-4.04500023E+02
 11
-6.03725983E+02
 21
-3.98852145E+02
  0
LINE
  8
0
 62
4
 10
-6.01490749E+02
 20
-3.98913216E+02
 11
-5.99800276E+02
 21
-4.02538448E+02
  0
LINE
  8
0
 62
4
 10
-6.04006888E+02
 20
-4.04500023E+02
 11
-5.99800276E+02
 21
-4.02538448E+02
  0
LINE
  8
0
 62
4
 10
-5.96477961E+02
 20
-4.03747671E+02
 11
-5.96127134E+02
 21
-4.04500023E+02
  0
LINE
  8
0
 62
4
 10
-6.14956557E+02
 20
-3.92514613E+02
 11
-6.10650375E+02
 21
-3.86368941E+02
  0
LINE
  8
0
 62
4
 10
-6.25606239E+02
 20
-3.85056606E+02
 11
-6.21300057E+02
 21
-3.78910934E+02
  0
LINE
  8
0
 62
4
 10
-6.25606239E+02
 20
-3.85056606E+02
 11
-6.22432376E+02
 21
-3.91862978E+02
  0
LINE
  8
0
 62
4
 10
-6.13824238E+02
 20
-3.79562569E+02
 11
-6.10650375E+02
 21
-3.86368941E+02
  0
LINE
  8
0
 62
4
 10
-6.22432376E+02
 20
-3.91862978E+02
 11
-6.14956557E+02
 21
-3.92514613E+02
  0
LINE
  8
0
 62
4
 10
-6.21300057E+02
 20
-3.78910934E+02
 11
-6.13824238E+02
 21
-3.79562569E+02
  0
LINE
  8
0
 62
4
 10
-6.18309730E+02
 20
-3.79171588E+02
 11
-6.13868821E+02
 21
-3.77100758E+02
  0
LINE
  8
0
 62
4
 10
-5.95725182E+02
 20
-4.04500023E+02
 11
-5.95602189E+02
 21
-4.04442670E+02
  0
LINE
  8
0
 62
4
 10
-5.94305462E+02
 20
-4.04500023E+02
 11
-5.93780706E+02
 21
-4.04255325E+02
  0
ARC
  8
0
 62
4
 10
-5.93362230E+02
 20
-4.05160479E+02
 40
9.97209177E-01
 50
3.75805360E+01
 51
1.14812291E+02
  0
CIRCLE
  8
0
 62
4
 10
-6.18130418E+02
 20
-3.85708267E+02
 40
3.75000000E+00
  0
ARC
  8
0
 62
4
 10
-5.98743738E+02
 20
-4.04804238E+02
 40
2.50001570E+00
 50
2.50003598E+01
 51
1.14999640E+02
  0
ARC
  8
0
 62
4
 10
-6.18130418E+02
 20
-3.85708267E+02
 40
7.00000000E+00
 50
8.39976594E+01
 51
1.06884035E+02
  0
ARC
  8
0
 62
4
 10
-6.18130418E+02
 20
-3.85708267E+02
 40
7.00000000E+00
 50
1.23115777E+02
 51
1.46002341E+02
  0
LINE
  8
0
 62
4
 10
1.71730646E+02
 20
-4.17500000E+02
 11
1.71143936E+02
 21
-4.17232621E+02
  0
LINE
  8
0
 62
4
 10
1.91348444E+02
 20
-4.17500000E+02
 11
1.91238181E+02
 21
-4.17268828E+02
  0
LINE
  8
0
 62
4
 10
1.71703432E+02
 20
-4.17500000E+02
 11
1.71708112E+02
 21
-4.17489730E+02
  0
ARC
  8
0
 62
4
 10
1.65743696E+02
 20
-4.04804238E+02
 40
2.50001570E+00
 50
6.50003596E+01
 51
1.54999640E+02
  0
ARC
  8
0
 62
4
 10
1.82963521E+02
 20
-4.12833970E+02
 40
2.50001192E+00
 50
3.35000273E+02
 51
6.49997271E+01
  0
ARC
  8
0
 62
4
 10
1.68886289E+02
 20
-4.11822901E+02
 40
1.18036308E+01
 50
1.41825921E+02
 51
1.67710194E+02
  0
ARC
  8
0
 62
4
 10
1.60362188E+02
 20
-4.05160479E+02
 40
9.97209177E-01
 50
6.51877094E+01
 51
1.42419464E+02
  0
ARC
  8
0
 62
4
 10
1.58330482E+02
 20
-4.09514207E+02
 40
9.98345090E-01
 50
1.68221832E+02
 51
2.44892061E+02
  0
LINE
  8
0
 62
4
 10
1.62602147E+02
 20
-4.04442670E+02
 11
1.59221201E+02
 21
-4.11693132E+02
  0
LINE
  8
0
  6
CENTER
 62
6
 10
1.81138875E+02
 20
-4.17500000E+02
 11
1.55473827E+02
 21
-4.05532192E+02
  0
LINE
  8
0
 62
4
 10
1.57906859E+02
 20
-4.10418218E+02
 11
1.59474772E+02
 21
-4.11149348E+02
  0
LINE
  8
0
 62
4
 10
1.62348576E+02
 20
-4.04986455E+02
 11
1.60780664E+02
 21
-4.04255325E+02
  0
LINE
  8
0
 62
4
 10
1.59674355E+02
 20
-4.11904442E+02
 11
1.59221201E+02
 21
-4.11693132E+02
  0
LINE
  8
0
 62
4
 10
1.63055301E+02
 20
-4.04653979E+02
 11
1.62602147E+02
 21
-4.04442670E+02
  0
LINE
  8
0
 62
4
 10
1.88300015E+02
 20
-3.78910934E+02
 11
1.87163428E+02
 21
-3.79010005E+02
  0
LINE
  8
0
 62
4
 10
1.88954706E+02
 20
-3.79845292E+02
 11
1.88300015E+02
 21
-3.78910934E+02
  0
LINE
  8
0
 62
4
 10
1.70216597E+02
 20
-4.12958547E+02
 11
1.69160051E+02
 21
-4.15224316E+02
  0
LINE
  8
0
 62
4
 10
1.73841828E+02
 20
-4.14649020E+02
 11
1.72785282E+02
 21
-4.16914789E+02
  0
LINE
  8
0
 62
4
 10
1.72785282E+02
 20
-4.16914789E+02
 11
1.69160051E+02
 21
-4.15224316E+02
  0
LINE
  8
0
 62
4
 10
1.73841828E+02
 20
-4.14649020E+02
 11
1.70216597E+02
 21
-4.12958547E+02
  0
LINE
  8
0
 62
4
 10
1.66941666E+02
 20
-4.17500000E+02
 11
1.58829118E+02
 21
-4.13717057E+02
  0
LINE
  8
0
 62
4
 10
1.58195191E+02
 20
-4.15076519E+02
 11
1.58704569E+02
 21
-4.17500000E+02
  0
LINE
  8
0
 62
4
 10
1.85229306E+02
 20
-4.13890510E+02
 11
1.83546173E+02
 21
-4.17500000E+02
  0
LINE
  8
0
 62
4
 10
1.63477919E+02
 20
-4.03747671E+02
 11
1.58195191E+02
 21
-4.15076519E+02
  0
LINE
  8
0
 62
4
 10
1.63392363E+02
 20
-4.17500000E+02
 11
1.58195191E+02
 21
-4.15076519E+02
  0
LINE
  8
0
 62
4
 10
1.84020082E+02
 20
-4.10568195E+02
 11
1.66800234E+02
 21
-4.02538448E+02
  0
LINE
  8
0
 62
4
 10
1.85710555E+02
 20
-4.06942963E+02
 11
1.84020082E+02
 21
-4.10568195E+02
  0
LINE
  8
0
 62
4
 10
1.68490707E+02
 20
-3.98913216E+02
 11
1.66800234E+02
 21
-4.02538448E+02
  0
LINE
  8
0
 62
4
 10
1.84320558E+02
 20
-4.05191419E+02
 11
1.70725941E+02
 21
-3.98852145E+02
  0
LINE
  8
0
 62
4
 10
1.85710555E+02
 20
-4.06942963E+02
 11
1.68490707E+02
 21
-3.98913216E+02
  0
LINE
  8
0
 62
4
 10
1.94463396E+02
 20
-3.83440032E+02
 11
1.83897940E+02
 21
-4.06097727E+02
  0
LINE
  8
0
 62
4
 10
1.80868779E+02
 20
-3.77100758E+02
 11
1.70303323E+02
 21
-3.99758453E+02
  0
LINE
  8
0
 62
4
 10
1.80868779E+02
 20
-3.77100758E+02
 11
1.94463396E+02
 21
-3.83440032E+02
  0
LINE
  8
0
 62
4
 10
1.91356692E+02
 20
-4.17299446E+02
 11
1.85017997E+02
 21
-4.14343664E+02
  0
ARC
  8
0
 62
4
 10
1.85130368E+02
 20
-3.85708264E+02
 40
7.00000000E+00
 50
3.39976591E+01
 51
9.60023410E+01
  0
LINE
  8
0
  6
CENTER
 62
6
 10
1.76781856E+02
 20
-4.03611705E+02
 11
1.74780457E+02
 21
-4.07903720E+02
  0
LINE
  8
0
 62
4
 10
1.72238081E+02
 20
-4.05074157E+02
 11
1.72986970E+02
 21
-4.04319992E+02
  0
LINE
  8
0
 62
4
 10
1.78678583E+02
 20
-4.06974035E+02
 11
1.78582236E+02
 21
-4.08032485E+02
  0
LINE
  8
0
 62
4
 10
1.72986970E+02
 20
-4.04319992E+02
 11
1.78678583E+02
 21
-4.06974035E+02
  0
LINE
  8
0
  6
CENTER
 62
6
 10
-7.59999981E+01
 20
-1.68319969E+02
 11
-7.59999981E+01
 21
-1.78819969E+02
  0
LINE
  8
0
 62
4
 10
-8.74999981E+01
 20
-1.71019660E+02
 11
-8.74999981E+01
 21
-1.98696664E+02
  0
LINE
  8
0
 62
4
 10
-7.24999981E+01
 20
-1.71019660E+02
 11
-7.24999981E+01
 21
-1.98696664E+02
  0
LINE
  8
0
 62
4
 10
-7.24999981E+01
 20
-1.74536590E+02
 11
-8.74999981E+01
 21
-1.74536590E+02
  0
LINE
  8
0
 62
4
 10
-7.24999981E+01
 20
-1.71019660E+02
 11
-8.74999981E+01
 21
-1.71019660E+02
  0
LINE
  8
0
  6
CENTER
 62
6
 10
-8.39999981E+01
 20
-1.68319969E+02
 11
-8.39999981E+01
 21
-1.78819969E+02
  0
LINE
  8
0
  6
CENTER
 62
6
 10
-7.99999981E+01
 20
-1.68931875E+02
 11
-7.99999981E+01
 21
-2.15529951E+02
  0
LINE
  8
0
 62
4
 10
-9.64999981E+01
 20
-1.90869611E+02
 11
-8.74999981E+01
 21
-1.90869611E+02
  0
LINE
  8
0
 62
4
 10
-8.74999981E+01
 20
-1.76869611E+02
 11
-9.64999981E+01
 21
-1.76869611E+02
  0
LINE
  8
0
 62
4
 10
-9.69999981E+01
 20
-1.77369611E+02
 11
-9.69999981E+01
 21
-1.90369611E+02
  0
LINE
  8
0
 62
4
 10
-1.06999998E+02
 20
-1.76393789E+02
 11
-1.06999998E+02
 21
-1.91349654E+02
  0
LINE
  8
0
 62
4
 10
-1.01999998E+02
 20
-1.76393789E+02
 11
-1.01999998E+02
 21
-1.91349654E+02
  0
LINE
  8
0
 62
4
 10
-1.01999998E+02
 20
-1.77619611E+02
 11
-9.69999981E+01
 21
-1.77619611E+02
  0
LINE
  8
0
 62
4
 10
-1.01999998E+02
 20
-1.90119611E+02
 11
-9.69999981E+01
 21
-1.90119611E+02
  0
LINE
  8
0
 62
4
 10
-1.00499998E+02
 20
-1.77619611E+02
 11
-1.00499998E+02
 21
-1.90119611E+02
  0
LINE
  8
0
 62
4
 10
-1.00499998E+02
 20
-1.78119611E+02
 11
-9.69999981E+01
 21
-1.78119611E+02
  0
LINE
  8
0
 62
4
 10
-1.00499998E+02
 20
-1.89619611E+02
 11
-9.69999981E+01
 21
-1.89619611E+02
  0
LINE
  8
0
 62
4
 10
-8.74999981E+01
 20
-1.88131207E+02
 11
-7.24999981E+01
 21
-1.88131207E+02
  0
LINE
  8
0
 62
4
 10
-8.74999981E+01
 20
-1.98696664E+02
 11
-7.24999981E+01
 21
-1.98696664E+02
  0
LINE
  8
0
 62
4
 10
-1.06999998E+02
 20
-1.76393789E+02
 11
-1.01999998E+02
 21
-1.76393789E+02
  0
LINE
  8
0
 62
4
 10
-5.29999981E+01
 20
-1.85036454E+02
 11
-5.29999981E+01
 21
-2.09304796E+02
  0
LINE
  8
0
 62
4
 10
-8.94999981E+01
 20
-1.90869611E+02
 11
-8.94999981E+01
 21
-2.02199738E+02
  0
LINE
  8
0
 62
4
 10
-7.04999981E+01
 20
-1.83289431E+02
 11
-7.04999981E+01
 21
-2.02199738E+02
  0
LINE
  8
0
 62
4
 10
-9.19999981E+01
 20
-1.90869611E+02
 11
-9.19999981E+01
 21
-2.09304796E+02
  0
LINE
  8
0
 62
4
 10
-8.94999981E+01
 20
-2.00509279E+02
 11
-7.04999981E+01
 21
-2.00509279E+02
  0
LINE
  8
0
 62
4
 10
-9.04999981E+01
 20
-2.10804796E+02
 11
-8.30089586E+01
 21
-2.10804796E+02
  0
LINE
  8
0
 62
4
 10
-7.04999981E+01
 20
-1.83289431E+02
 11
-7.24999981E+01
 21
-1.83289431E+02
  0
ARC
  8
0
 62
4
 10
-5.45000014E+01
 20
-1.85036457E+02
 40
1.50000336E+00
 50
1.28225275E-04
 51
8.99998718E+01
  0
ARC
  8
0
 62
4
 10
-5.44999947E+01
 20
-2.09304799E+02
 40
1.49999664E+00
 50
2.69999872E+02
 51
1.28225561E-04
  0
ARC
  8
0
 62
4
 10
-9.64999938E+01
 20
-1.90369606E+02
 40
5.00004272E-01
 50
1.80000490E+02
 51
2.69999511E+02
  0
ARC
  8
0
 62
4
 10
-9.64999986E+01
 20
-1.77369610E+02
 40
4.99999542E-01
 50
8.99999475E+01
 51
1.80000053E+02
  0
ARC
  8
0
 62
4
 10
-9.04999976E+01
 20
-2.09304795E+02
 40
1.50000046E+00
 50
1.80000018E+02
 51
2.69999983E+02
  0
LINE
  8
0
 62
4
 10
-7.04999981E+01
 20
-1.83536454E+02
 11
-5.44999981E+01
 21
-1.83536454E+02
  0
LINE
  8
0
 62
4
 10
-9.04999981E+01
 20
-2.04465522E+02
 11
-5.44999981E+01
 21
-2.04465522E+02
  0
LINE
  8
0
 62
4
 10
-1.06999998E+02
 20
-1.80699971E+02
 11
-1.01999998E+02
 21
-1.80699971E+02
  0
LINE
  8
0
 62
4
 10
-1.06999998E+02
 20
-1.88175790E+02
 11
-1.01999998E+02
 21
-1.88175790E+02
  0
LINE
  8
0
 62
4
 10
-1.06999998E+02
 20
-1.91349654E+02
 11
-1.01999998E+02
 21
-1.91349654E+02
  0
LINE
  8
0
  6
CENTER
 62
6
 10
-8.55010056E+01
 20
-1.81333899E+02
 11
-7.44989906E+01
 21
-1.81333899E+02
  0
POLYLINE
  8
0
 62
4
 66
1
  0
VERTEX
  8
0
 62
4
 10
-7.69999981E+01
 20
-1.81333899E+02
  0
VERTEX
  8
0
 62
4
 10
-7.70114140E+01
 20
-1.81096929E+02
  0
VERTEX
  8
0
 62
4
 10
-7.70455748E+01
 20
-1.80861763E+02
  0
VERTEX
  8
0
 62
4
 10
-7.71022206E+01
 20
-1.80630190E+02
  0
VERTEX
  8
0
 62
4
 10
-7.71809202E+01
 20
-1.80403972E+02
  0
VERTEX
  8
0
 62
4
 10
-7.72810747E+01
 20
-1.80184832E+02
  0
VERTEX
  8
0
 62
4
 10
-7.74019219E+01
 20
-1.79974437E+02
  0
VERTEX
  8
0
 62
4
 10
-7.75425420E+01
 20
-1.79774389E+02
  0
VERTEX
  8
0
 62
4
 10
-7.77018648E+01
 20
-1.79586209E+02
  0
VERTEX
  8
0
 62
4
 10
-7.78786778E+01
 20
-1.79411330E+02
  0
VERTEX
  8
0
 62
4
 10
-7.80716353E+01
 20
-1.79251083E+02
  0
VERTEX
  8
0
 62
4
 10
-7.82792688E+01
 20
-1.79106687E+02
  0
VERTEX
  8
0
 62
4
 10
-7.84999981E+01
 20
-1.78979242E+02
  0
VERTEX
  8
0
 62
4
 10
-7.87321433E+01
 20
-1.78869718E+02
  0
VERTEX
  8
0
 62
4
 10
-7.89739377E+01
 20
-1.78778947E+02
  0
VERTEX
  8
0
 62
4
 10
-7.92235410E+01
 20
-1.78707621E+02
  0
VERTEX
  8
0
 62
4
 10
-7.94790536E+01
 20
-1.78656282E+02
  0
VERTEX
  8
0
 62
4
 10
-7.97385309E+01
 20
-1.78625322E+02
  0
VERTEX
  8
0
 62
4
 10
-7.99999981E+01
 20
-1.78614976E+02
  0
VERTEX
  8
0
 62
4
 10
-8.02614653E+01
 20
-1.78625322E+02
  0
VERTEX
  8
0
 62
4
 10
-8.05209426E+01
 20
-1.78656282E+02
  0
VERTEX
  8
0
 62
4
 10
-8.07764552E+01
 20
-1.78707621E+02
  0
VERTEX
  8
0
 62
4
 10
-8.10260585E+01
 20
-1.78778947E+02
  0
VERTEX
  8
0
 62
4
 10
-8.12678529E+01
 20
-1.78869718E+02
  0
VERTEX
  8
0
 62
4
 10
-8.14999981E+01
 20
-1.78979242E+02
  0
VERTEX
  8
0
 62
4
 10
-8.17207274E+01
 20
-1.79106687E+02
  0
VERTEX
  8
0
 62
4
 10
-8.19283609E+01
 20
-1.79251083E+02
  0
VERTEX
  8
0
 62
4
 10
-8.21213184E+01
 20
-1.79411330E+02
  0
VERTEX
  8
0
 62
4
 10
-8.22981314E+01
 20
-1.79586209E+02
  0
VERTEX
  8
0
 62
4
 10
-8.24574542E+01
 20
-1.79774389E+02
  0
VERTEX
  8
0
 62
4
 10
-8.25980743E+01
 20
-1.79974437E+02
  0
VERTEX
  8
0
 62
4
 10
-8.27189215E+01
 20
-1.80184832E+02
  0
VERTEX
  8
0
 62
4
 10
-8.28190760E+01
 20
-1.80403972E+02
  0
VERTEX
  8
0
 62
4
 10
-8.28977756E+01
 20
-1.80630190E+02
  0
VERTEX
  8
0
 62
4
 10
-8.29544214E+01
 20
-1.80861763E+02
  0
VERTEX
  8
0
 62
4
 10
-8.29885822E+01
 20
-1.81096929E+02
  0
VERTEX
  8
0
 62
4
 10
-8.29999981E+01
 20
-1.81333899E+02
  0
VERTEX
  8
0
 62
4
 10
-8.29885822E+01
 20
-1.81570869E+02
  0
VERTEX
  8
0
 62
4
 10
-8.29544214E+01
 20
-1.81806035E+02
  0
VERTEX
  8
0
 62
4
 10
-8.28977756E+01
 20
-1.82037608E+02
  0
VERTEX
  8
0
 62
4
 10
-8.28190760E+01
 20
-1.82263826E+02
  0
VERTEX
  8
0
 62
4
 10
-8.27189215E+01
 20
-1.82482966E+02
  0
VERTEX
  8
0
 62
4
 10
-8.25980743E+01
 20
-1.82693361E+02
  0
VERTEX
  8
0
 62
4
 10
-8.24574542E+01
 20
-1.82893409E+02
  0
VERTEX
  8
0
 62
4
 10
-8.22981314E+01
 20
-1.83081589E+02
  0
VERTEX
  8
0
 62
4
 10
-8.21213184E+01
 20
-1.83256468E+02
  0
VERTEX
  8
0
 62
4
 10
-8.19283609E+01
 20
-1.83416715E+02
  0
VERTEX
  8
0
 62
4
 10
-8.17207274E+01
 20
-1.83561111E+02
  0
VERTEX
  8
0
 62
4
 10
-8.14999981E+01
 20
-1.83688556E+02
  0
VERTEX
  8
0
 62
4
 10
-8.12678529E+01
 20
-1.83798080E+02
  0
VERTEX
  8
0
 62
4
 10
-8.10260585E+01
 20
-1.83888851E+02
  0
VERTEX
  8
0
 62
4
 10
-8.07764552E+01
 20
-1.83960177E+02
  0
VERTEX
  8
0
 62
4
 10
-8.05209426E+01
 20
-1.84011516E+02
  0
VERTEX
  8
0
 62
4
 10
-8.02614653E+01
 20
-1.84042476E+02
  0
VERTEX
  8
0
 62
4
 10
-7.99999981E+01
 20
-1.84052822E+02
  0
VERTEX
  8
0
 62
4
 10
-7.97385309E+01
 20
-1.84042476E+02
  0
VERTEX
  8
0
 62
4
 10
-7.94790536E+01
 20
-1.84011516E+02
  0
VERTEX
  8
0
 62
4
 10
-7.92235410E+01
 20
-1.83960177E+02
  0
VERTEX
  8
0
 62
4
 10
-7.89739377E+01
 20
-1.83888851E+02
  0
VERTEX
  8
0
 62
4
 10
-7.87321433E+01
 20
-1.83798080E+02
  0
VERTEX
  8
0
 62
4
 10
-7.84999981E+01
 20
-1.83688556E+02
  0
VERTEX
  8
0
 62
4
 10
-7.82792688E+01
 20
-1.83561111E+02
  0
VERTEX
  8
0
 62
4
 10
-7.80716353E+01
 20
-1.83416715E+02
  0
VERTEX
  8
0
 62
4
 10
-7.78786778E+01
 20
-1.83256468E+02
  0
VERTEX
  8
0
 62
4
 10
-7.77018648E+01
 20
-1.83081589E+02
  0
VERTEX
  8
0
 62
4
 10
-7.75425420E+01
 20
-1.82893409E+02
  0
VERTEX
  8
0
 62
4
 10
-7.74019219E+01
 20
-1.82693361E+02
  0
VERTEX
  8
0
 62
4
 10
-7.72810747E+01
 20
-1.82482966E+02
  0
VERTEX
  8
0
 62
4
 10
-7.71809202E+01
 20
-1.82263826E+02
  0
VERTEX
  8
0
 62
4
 10
-7.71022206E+01
 20
-1.82037608E+02
  0
VERTEX
  8
0
 62
4
 10
-7.70455748E+01
 20
-1.81806035E+02
  0
VERTEX
  8
0
 62
4
 10
-7.70114140E+01
 20
-1.81570869E+02
  0
VERTEX
  8
0
 62
4
 10
-7.69999981E+01
 20
-1.81333899E+02
  0
SEQEND
  8
0
  0
LINE
  8
0
  6
CENTER
 62
6
 10
-6.96090149E+01
 20
-1.93167241E+02
 11
-5.83909813E+01
 21
-1.93167241E+02
  0
LINE
  8
0
  6
CENTER
 62
6
 10
-6.39999981E+01
 20
-1.87558224E+02
 11
-6.39999981E+01
 21
-1.98776257E+02
  0
POLYLINE
  8
0
 62
4
 66
1
  0
VERTEX
  8
0
 62
4
 10
-7.65999981E+01
 20
-2.08978825E+02
  0
VERTEX
  8
0
 62
4
 10
-7.64269461E+01
 20
-2.08848239E+02
  0
VERTEX
  8
0
 62
4
 10
-7.62819031E+01
 20
-2.08711696E+02
  0
VERTEX
  8
0
 62
4
 10
-7.61660063E+01
 20
-2.08570266E+02
  0
VERTEX
  8
0
 62
4
 10
-7.60801640E+01
 20
-2.08425058E+02
  0
VERTEX
  8
0
 62
4
 10
-7.60250492E+01
 20
-2.08277210E+02
  0
VERTEX
  8
0
 62
4
 10
-7.60010940E+01
 20
-2.08127882E+02
  0
VERTEX
  8
0
 62
4
 10
-7.60084862E+01
 20
-2.07978243E+02
  0
VERTEX
  8
0
 62
4
 10
-7.60471677E+01
 20
-2.07829468E+02
  0
VERTEX
  8
0
 62
4
 10
-7.61168354E+01
 20
-2.07682721E+02
  0
VERTEX
  8
0
 62
4
 10
-7.62169431E+01
 20
-2.07539154E+02
  0
VERTEX
  8
0
 62
4
 10
-7.63467062E+01
 20
-2.07399892E+02
  0
VERTEX
  8
0
 62
4
 10
-7.65051073E+01
 20
-2.07266026E+02
  0
VERTEX
  8
0
 62
4
 10
-7.66909048E+01
 20
-2.07138606E+02
  0
VERTEX
  8
0
 62
4
 10
-7.69026423E+01
 20
-2.07018631E+02
  0
VERTEX
  8
0
 62
4
 10
-7.71386599E+01
 20
-2.06907041E+02
  0
VERTEX
  8
0
 62
4
 10
-7.73971074E+01
 20
-2.06804711E+02
  0
VERTEX
  8
0
 62
4
 10
-7.76759590E+01
 20
-2.06712443E+02
  0
VERTEX
  8
0
 62
4
 10
-7.79730286E+01
 20
-2.06630960E+02
  0
VERTEX
  8
0
 62
4
 10
-7.82859877E+01
 20
-2.06560902E+02
  0
VERTEX
  8
0
 62
4
 10
-7.86123828E+01
 20
-2.06502817E+02
  0
VERTEX
  8
0
 62
4
 10
-7.89496555E+01
 20
-2.06457161E+02
  0
VERTEX
  8
0
 62
4
 10
-7.92951617E+01
 20
-2.06424291E+02
  0
VERTEX
  8
0
 62
4
 10
-7.96461932E+01
 20
-2.06404466E+02
  0
VERTEX
  8
0
 62
4
 10
-7.99999981E+01
 20
-2.06397840E+02
  0
VERTEX
  8
0
 62
4
 10
-8.03538030E+01
 20
-2.06404466E+02
  0
VERTEX
  8
0
 62
4
 10
-8.07048345E+01
 20
-2.06424291E+02
  0
VERTEX
  8
0
 62
4
 10
-8.10503407E+01
 20
-2.06457161E+02
  0
VERTEX
  8
0
 62
4
 10
-8.13876133E+01
 20
-2.06502817E+02
  0
VERTEX
  8
0
 62
4
 10
-8.17140085E+01
 20
-2.06560902E+02
  0
VERTEX
  8
0
 62
4
 10
-8.20269675E+01
 20
-2.06630960E+02
  0
VERTEX
  8
0
 62
4
 10
-8.23240372E+01
 20
-2.06712443E+02
  0
VERTEX
  8
0
 62
4
 10
-8.26028888E+01
 20
-2.06804711E+02
  0
VERTEX
  8
0
 62
4
 10
-8.28613363E+01
 20
-2.06907041E+02
  0
VERTEX
  8
0
 62
4
 10
-8.30973539E+01
 20
-2.07018631E+02
  0
VERTEX
  8
0
 62
4
 10
-8.33090913E+01
 20
-2.07138606E+02
  0
VERTEX
  8
0
 62
4
 10
-8.34948889E+01
 20
-2.07266026E+02
  0
VERTEX
  8
0
 62
4
 10
-8.36532900E+01
 20
-2.07399892E+02
  0
VERTEX
  8
0
 62
4
 10
-8.37830531E+01
 20
-2.07539154E+02
  0
VERTEX
  8
0
 62
4
 10
-8.38831608E+01
 20
-2.07682721E+02
  0
VERTEX
  8
0
 62
4
 10
-8.39528285E+01
 20
-2.07829468E+02
  0
VERTEX
  8
0
 62
4
 10
-8.39915100E+01
 20
-2.07978243E+02
  0
VERTEX
  8
0
 62
4
 10
-8.39989022E+01
 20
-2.08127882E+02
  0
VERTEX
  8
0
 62
4
 10
-8.39749470E+01
 20
-2.08277210E+02
  0
VERTEX
  8
0
 62
4
 10
-8.39198322E+01
 20
-2.08425058E+02
  0
VERTEX
  8
0
 62
4
 10
-8.38339899E+01
 20
-2.08570266E+02
  0
VERTEX
  8
0
 62
4
 10
-8.37180931E+01
 20
-2.08711696E+02
  0
VERTEX
  8
0
 62
4
 10
-8.35730501E+01
 20
-2.08848239E+02
  0
VERTEX
  8
0
 62
4
 10
-8.33999981E+01
 20
-2.08978825E+02
  0
SEQEND
  8
0
  0
POLYLINE
  8
0
 62
4
 66
1
  0
VERTEX
  8
0
 62
4
 10
-7.59999981E+01
 20
-2.07635159E+02
  0
VERTEX
  8
0
 62
4
 10
-7.60161009E+01
 20
-2.07483626E+02
  0
VERTEX
  8
0
 62
4
 10
-7.60642797E+01
 20
-2.07333313E+02
  0
VERTEX
  8
0
 62
4
 10
-7.61441467E+01
 20
-2.07185431E+02
  0
VERTEX
  8
0
 62
4
 10
-7.62550586E+01
 20
-2.07041169E+02
  0
VERTEX
  8
0
 62
4
 10
-7.63961226E+01
 20
-2.06901690E+02
  0
VERTEX
  8
0
 62
4
 10
-7.65662029E+01
 20
-2.06768117E+02
  0
VERTEX
  8
0
 62
4
 10
-7.67639301E+01
 20
-2.06641524E+02
  0
VERTEX
  8
0
 62
4
 10
-7.69877122E+01
 20
-2.06522931E+02
  0
VERTEX
  8
0
 62
4
 10
-7.72357475E+01
 20
-2.06413294E+02
  0
VERTEX
  8
0
 62
4
 10
-7.75060389E+01
 20
-2.06313494E+02
  0
VERTEX
  8
0
 62
4
 10
-7.77964102E+01
 20
-2.06224335E+02
  0
VERTEX
  8
0
 62
4
 10
-7.81045234E+01
 20
-2.06146536E+02
  0
VERTEX
  8
0
 62
4
 10
-7.84278980E+01
 20
-2.06080722E+02
  0
VERTEX
  8
0
 62
4
 10
-7.87639301E+01
 20
-2.06027424E+02
  0
VERTEX
  8
0
 62
4
 10
-7.91099144E+01
 20
-2.05987070E+02
  0
VERTEX
  8
0
 62
4
 10
-7.94630650E+01
 20
-2.05959985E+02
  0
VERTEX
  8
0
 62
4
 10
-7.98205388E+01
 20
-2.05946388E+02
  0
VERTEX
  8
0
 62
4
 10
-8.01794574E+01
 20
-2.05946388E+02
  0
VERTEX
  8
0
 62
4
 10
-8.05369312E+01
 20
-2.05959985E+02
  0
VERTEX
  8
0
 62
4
 10
-8.08900818E+01
 20
-2.05987070E+02
  0
VERTEX
  8
0
 62
4
 10
-8.12360661E+01
 20
-2.06027424E+02
  0
VERTEX
  8
0
 62
4
 10
-8.15720982E+01
 20
-2.06080722E+02
  0
VERTEX
  8
0
 62
4
 10
-8.18954727E+01
 20
-2.06146536E+02
  0
VERTEX
  8
0
 62
4
 10
-8.22035860E+01
 20
-2.06224335E+02
  0
VERTEX
  8
0
 62
4
 10
-8.24939573E+01
 20
-2.06313494E+02
  0
VERTEX
  8
0
 62
4
 10
-8.27642487E+01
 20
-2.06413294E+02
  0
VERTEX
  8
0
 62
4
 10
-8.30122840E+01
 20
-2.06522931E+02
  0
VERTEX
  8
0
 62
4
 10
-8.32360661E+01
 20
-2.06641524E+02
  0
VERTEX
  8
0
 62
4
 10
-8.34337933E+01
 20
-2.06768117E+02
  0
VERTEX
  8
0
 62
4
 10
-8.36038736E+01
 20
-2.06901690E+02
  0
VERTEX
  8
0
 62
4
 10
-8.37449376E+01
 20
-2.07041169E+02
  0
VERTEX
  8
0
 62
4
 10
-8.38558495E+01
 20
-2.07185431E+02
  0
VERTEX
  8
0
 62
4
 10
-8.39357165E+01
 20
-2.07333313E+02
  0
VERTEX
  8
0
 62
4
 10
-8.39838953E+01
 20
-2.07483626E+02
  0
VERTEX
  8
0
 62
4
 10
-8.39999981E+01
 20
-2.07635159E+02
  0
SEQEND
  8
0
  0
LINE
  8
0
 62
4
 10
-7.59999981E+01
 20
-2.07635159E+02
 11
-7.59999981E+01
 21
-2.08088313E+02
  0
LINE
  8
0
 62
4
 10
-8.39999981E+01
 20
-2.07635159E+02
 11
-8.39999981E+01
 21
-2.08088313E+02
  0
LINE
  8
0
 62
4
 10
-7.65999981E+01
 20
-2.08088313E+02
 11
-7.65999981E+01
 21
-2.10052814E+02
  0
LINE
  8
0
 62
4
 10
-8.33999981E+01
 20
-2.08088313E+02
 11
-8.33999981E+01
 21
-2.10052814E+02
  0
POLYLINE
  8
0
 62
4
 66
1
  0
VERTEX
  8
0
 62
4
 10
-7.65999981E+01
 20
-2.08088313E+02
  0
VERTEX
  8
0
 62
4
 10
-7.66136855E+01
 20
-2.07959510E+02
  0
VERTEX
  8
0
 62
4
 10
-7.66546375E+01
 20
-2.07831744E+02
  0
VERTEX
  8
0
 62
4
 10
-7.67225244E+01
 20
-2.07706044E+02
  0
VERTEX
  8
0
 62
4
 10
-7.68167995E+01
 20
-2.07583422E+02
  0
VERTEX
  8
0
 62
4
 10
-7.69367039E+01
 20
-2.07464865E+02
  0
VERTEX
  8
0
 62
4
 10
-7.70812722E+01
 20
-2.07351327E+02
  0
VERTEX
  8
0
 62
4
 10
-7.72493403E+01
 20
-2.07243723E+02
  0
VERTEX
  8
0
 62
4
 10
-7.74395551E+01
 20
-2.07142919E+02
  0
VERTEX
  8
0
 62
4
 10
-7.76503851E+01
 20
-2.07049728E+02
  0
VERTEX
  8
0
 62
4
 10
-7.78801328E+01
 20
-2.06964898E+02
  0
VERTEX
  8
0
 62
4
 10
-7.81269484E+01
 20
-2.06889113E+02
  0
VERTEX
  8
0
 62
4
 10
-7.83888446E+01
 20
-2.06822983E+02
  0
VERTEX
  8
0
 62
4
 10
-7.86637130E+01
 20
-2.06767042E+02
  0
VERTEX
  8
0
 62
4
 10
-7.89493403E+01
 20
-2.06721738E+02
  0
VERTEX
  8
0
 62
4
 10
-7.92434269E+01
 20
-2.06687437E+02
  0
VERTEX
  8
0
 62
4
 10
-7.95436050E+01
 20
-2.06664415E+02
  0
VERTEX
  8
0
 62
4
 10
-7.98474577E+01
 20
-2.06652858E+02
  0
VERTEX
  8
0
 62
4
 10
-8.01525385E+01
 20
-2.06652858E+02
  0
VERTEX
  8
0
 62
4
 10
-8.04563912E+01
 20
-2.06664415E+02
  0
VERTEX
  8
0
 62
4
 10
-8.07565693E+01
 20
-2.06687437E+02
  0
VERTEX
  8
0
 62
4
 10
-8.10506559E+01
 20
-2.06721738E+02
  0
VERTEX
  8
0
 62
4
 10
-8.13362832E+01
 20
-2.06767042E+02
  0
VERTEX
  8
0
 62
4
 10
-8.16111515E+01
 20
-2.06822983E+02
  0
VERTEX
  8
0
 62
4
 10
-8.18730478E+01
 20
-2.06889113E+02
  0
VERTEX
  8
0
 62
4
 10
-8.21198634E+01
 20
-2.06964898E+02
  0
VERTEX
  8
0
 62
4
 10
-8.23496111E+01
 20
-2.07049728E+02
  0
VERTEX
  8
0
 62
4
 10
-8.25604411E+01
 20
-2.07142919E+02
  0
VERTEX
  8
0
 62
4
 10
-8.27506559E+01
 20
-2.07243723E+02
  0
VERTEX
  8
0
 62
4
 10
-8.29187240E+01
 20
-2.07351327E+02
  0
VERTEX
  8
0
 62
4
 10
-8.30632922E+01
 20
-2.07464865E+02
  0
VERTEX
  8
0
 62
4
 10
-8.31831967E+01
 20
-2.07583422E+02
  0
VERTEX
  8
0
 62
4
 10
-8.32774718E+01
 20
-2.07706044E+02
  0
VERTEX
  8
0
 62
4
 10
-8.33453587E+01
 20
-2.07831744E+02
  0
VERTEX
  8
0
 62
4
 10
-8.33863107E+01
 20
-2.07959510E+02
  0
VERTEX
  8
0
 62
4
 10
-8.33999981E+01
 20
-2.08088313E+02
  0
SEQEND
  8
0
  0
POLYLINE
  8
0
 62
4
 66
1
  0
VERTEX
  8
0
 62
4
 10
-7.65999981E+01
 20
-2.10052814E+02
  0
VERTEX
  8
0
 62
4
 10
-7.66129361E+01
 20
-2.09912054E+02
  0
VERTEX
  8
0
 62
4
 10
-7.66516517E+01
 20
-2.09772366E+02
  0
VERTEX
  8
0
 62
4
 10
-7.67158503E+01
 20
-2.09634812E+02
  0
VERTEX
  8
0
 62
4
 10
-7.68050432E+01
 20
-2.09500439E+02
  0
VERTEX
  8
0
 62
4
 10
-7.69185516E+01
 20
-2.09370270E+02
  0
VERTEX
  8
0
 62
4
 10
-7.70555117E+01
 20
-2.09245296E+02
  0
VERTEX
  8
0
 62
4
 10
-7.72148811E+01
 20
-2.09126468E+02
  0
VERTEX
  8
0
 62
4
 10
-7.73954470E+01
 20
-2.09014689E+02
  0
VERTEX
  8
0
 62
4
 10
-7.75958350E+01
 20
-2.08910811E+02
  0
VERTEX
  8
0
 62
4
 10
-7.78145202E+01
 20
-2.08815625E+02
  0
VERTEX
  8
0
 62
4
 10
-7.80498382E+01
 20
-2.08729854E+02
  0
VERTEX
  8
0
 62
4
 10
-7.82999981E+01
 20
-2.08654152E+02
  0
VERTEX
  8
0
 62
4
 10
-7.85630960E+01
 20
-2.08589095E+02
  0
VERTEX
  8
0
 62
4
 10
-7.88371296E+01
 20
-2.08535177E+02
  0
VERTEX
  8
0
 62
4
 10
-7.91200133E+01
 20
-2.08492809E+02
  0
VERTEX
  8
0
 62
4
 10
-7.94095943E+01
 20
-2.08462314E+02
  0
VERTEX
  8
0
 62
4
 10
-7.97036686E+01
 20
-2.08443924E+02
  0
VERTEX
  8
0
 62
4
 10
-7.99999981E+01
 20
-2.08437778E+02
  0
VERTEX
  8
0
 62
4
 10
-8.02963276E+01
 20
-2.08443924E+02
  0
VERTEX
  8
0
 62
4
 10
-8.05904019E+01
 20
-2.08462314E+02
  0
VERTEX
  8
0
 62
4
 10
-8.08799829E+01
 20
-2.08492809E+02
  0
VERTEX
  8
0
 62
4
 10
-8.11628666E+01
 20
-2.08535177E+02
  0
VERTEX
  8
0
 62
4
 10
-8.14369002E+01
 20
-2.08589095E+02
  0
VERTEX
  8
0
 62
4
 10
-8.16999981E+01
 20
-2.08654152E+02
  0
VERTEX
  8
0
 62
4
 10
-8.19501580E+01
 20
-2.08729854E+02
  0
VERTEX
  8
0
 62
4
 10
-8.21854760E+01
 20
-2.08815625E+02
  0
VERTEX
  8
0
 62
4
 10
-8.24041612E+01
 20
-2.08910811E+02
  0
VERTEX
  8
0
 62
4
 10
-8.26045492E+01
 20
-2.09014689E+02
  0
VERTEX
  8
0
 62
4
 10
-8.27851151E+01
 20
-2.09126468E+02
  0
VERTEX
  8
0
 62
4
 10
-8.29444845E+01
 20
-2.09245296E+02
  0
VERTEX
  8
0
 62
4
 10
-8.30814446E+01
 20
-2.09370270E+02
  0
VERTEX
  8
0
 62
4
 10
-8.31949530E+01
 20
-2.09500439E+02
  0
VERTEX
  8
0
 62
4
 10
-8.32841459E+01
 20
-2.09634812E+02
  0
VERTEX
  8
0
 62
4
 10
-8.33483445E+01
 20
-2.09772366E+02
  0
VERTEX
  8
0
 62
4
 10
-8.33870601E+01
 20
-2.09912054E+02
  0
VERTEX
  8
0
 62
4
 10
-8.33999981E+01
 20
-2.10052814E+02
  0
VERTEX
  8
0
 62
4
 10
-8.33870601E+01
 20
-2.10193574E+02
  0
VERTEX
  8
0
 62
4
 10
-8.33483445E+01
 20
-2.10333262E+02
  0
VERTEX
  8
0
 62
4
 10
-8.32841459E+01
 20
-2.10470816E+02
  0
VERTEX
  8
0
 62
4
 10
-8.31949530E+01
 20
-2.10605189E+02
  0
VERTEX
  8
0
 62
4
 10
-8.30814446E+01
 20
-2.10735358E+02
  0
VERTEX
  8
0
 62
4
 10
-8.29444845E+01
 20
-2.10860332E+02
  0
VERTEX
  8
0
 62
4
 10
-8.27851150E+01
 20
-2.10979160E+02
  0
VERTEX
  8
0
 62
4
 10
-8.26045492E+01
 20
-2.11090939E+02
  0
VERTEX
  8
0
 62
4
 10
-8.24041612E+01
 20
-2.11194817E+02
  0
VERTEX
  8
0
 62
4
 10
-8.21854760E+01
 20
-2.11290003E+02
  0
VERTEX
  8
0
 62
4
 10
-8.19501580E+01
 20
-2.11375774E+02
  0
VERTEX
  8
0
 62
4
 10
-8.16999981E+01
 20
-2.11451476E+02
  0
VERTEX
  8
0
 62
4
 10
-8.14369002E+01
 20
-2.11516533E+02
  0
VERTEX
  8
0
 62
4
 10
-8.11628666E+01
 20
-2.11570451E+02
  0
VERTEX
  8
0
 62
4
 10
-8.08799828E+01
 20
-2.11612819E+02
  0
VERTEX
  8
0
 62
4
 10
-8.05904019E+01
 20
-2.11643314E+02
  0
VERTEX
  8
0
 62
4
 10
-8.02963276E+01
 20
-2.11661704E+02
  0
VERTEX
  8
0
 62
4
 10
-7.99999981E+01
 20
-2.11667850E+02
  0
VERTEX
  8
0
 62
4
 10
-7.97036686E+01
 20
-2.11661704E+02
  0
VERTEX
  8
0
 62
4
 10
-7.94095943E+01
 20
-2.11643314E+02
  0
VERTEX
  8
0
 62
4
 10
-7.91200133E+01
 20
-2.11612819E+02
  0
VERTEX
  8
0
 62
4
 10
-7.88371296E+01
 20
-2.11570451E+02
  0
VERTEX
  8
0
 62
4
 10
-7.85630960E+01
 20
-2.11516533E+02
  0
VERTEX
  8
0
 62
4
 10
-7.82999981E+01
 20
-2.11451476E+02
  0
VERTEX
  8
0
 62
4
 10
-7.80498382E+01
 20
-2.11375774E+02
  0
VERTEX
  8
0
 62
4
 10
-7.78145202E+01
 20
-2.11290003E+02
  0
VERTEX
  8
0
 62
4
 10
-7.75958350E+01
 20
-2.11194817E+02
  0
VERTEX
  8
0
 62
4
 10
-7.73954470E+01
 20
-2.11090939E+02
  0
VERTEX
  8
0
 62
4
 10
-7.72148811E+01
 20
-2.10979160E+02
  0
VERTEX
  8
0
 62
4
 10
-7.70555117E+01
 20
-2.10860332E+02
  0
VERTEX
  8
0
 62
4
 10
-7.69185516E+01
 20
-2.10735358E+02
  0
VERTEX
  8
0
 62
4
 10
-7.68050432E+01
 20
-2.10605189E+02
  0
VERTEX
  8
0
 62
4
 10
-7.67158503E+01
 20
-2.10470816E+02
  0
VERTEX
  8
0
 62
4
 10
-7.66516517E+01
 20
-2.10333262E+02
  0
VERTEX
  8
0
 62
4
 10
-7.66129361E+01
 20
-2.10193574E+02
  0
VERTEX
  8
0
 62
4
 10
-7.65999981E+01
 20
-2.10052814E+02
  0
SEQEND
  8
0
  0
ARC
  8
0
 62
4
 10
-8.42355931E+01
 20
-1.99380859E+02
 40
1.21769740E+01
 50
2.81737853E+02
 51
2.99537899E+02
  0
ARC
  8
0
 62
4
 10
-7.57644031E+01
 20
-1.99380859E+02
 40
1.21769740E+01
 50
2.40462101E+02
 51
2.58262147E+02
  0
LINE
  8
0
 62
4
 10
-7.69910376E+01
 20
-2.10804796E+02
 11
-5.44999981E+01
 21
-2.10804796E+02
  0
POLYLINE
  8
0
 62
4
 66
1
  0
VERTEX
  8
0
 62
4
 10
-6.61049560E+01
 20
-1.91055572E+02
  0
VERTEX
  8
0
 62
4
 10
-6.63414996E+01
 20
-1.91232173E+02
  0
VERTEX
  8
0
 62
4
 10
-6.65600906E+01
 20
-1.91426851E+02
  0
VERTEX
  8
0
 62
4
 10
-6.67590531E+01
 20
-1.91638113E+02
  0
VERTEX
  8
0
 62
4
 10
-6.69368615E+01
 20
-1.91864339E+02
  0
VERTEX
  8
0
 62
4
 10
-6.70921525E+01
 20
-1.92103795E+02
  0
VERTEX
  8
0
 62
4
 10
-6.72237356E+01
 20
-1.92354644E+02
  0
VERTEX
  8
0
 62
4
 10
-6.73306019E+01
 20
-1.92614964E+02
  0
VERTEX
  8
0
 62
4
 10
-6.74119320E+01
 20
-1.92882759E+02
  0
VERTEX
  8
0
 62
4
 10
-6.74671023E+01
 20
-1.93155976E+02
  0
VERTEX
  8
0
 62
4
 10
-6.74956899E+01
 20
-1.93432519E+02
  0
VERTEX
  8
0
 62
4
 10
-6.74974756E+01
 20
-1.93710268E+02
  0
VERTEX
  8
0
 62
4
 10
-6.74724456E+01
 20
-1.93987094E+02
  0
VERTEX
  8
0
 62
4
 10
-6.74207920E+01
 20
-1.94260875E+02
  0
VERTEX
  8
0
 62
4
 10
-6.73429106E+01
 20
-1.94529510E+02
  0
VERTEX
  8
0
 62
4
 10
-6.72393987E+01
 20
-1.94790941E+02
  0
VERTEX
  8
0
 62
4
 10
-6.71110498E+01
 20
-1.95043164E+02
  0
VERTEX
  8
0
 62
4
 10
-6.69588482E+01
 20
-1.95284243E+02
  0
VERTEX
  8
0
 62
4
 10
-6.67839606E+01
 20
-1.95512332E+02
  0
VERTEX
  8
0
 62
4
 10
-6.65877280E+01
 20
-1.95725681E+02
  0
VERTEX
  8
0
 62
4
 10
-6.63716549E+01
 20
-1.95922654E+02
  0
VERTEX
  8
0
 62
4
 10
-6.61373981E+01
 20
-1.96101741E+02
  0
VERTEX
  8
0
 62
4
 10
-6.58867535E+01
 20
-1.96261569E+02
  0
VERTEX
  8
0
 62
4
 10
-6.56216429E+01
 20
-1.96400913E+02
  0
VERTEX
  8
0
 62
4
 10
-6.53440989E+01
 20
-1.96518704E+02
  0
VERTEX
  8
0
 62
4
 10
-6.50562496E+01
 20
-1.96614040E+02
  0
VERTEX
  8
0
 62
4
 10
-6.47603018E+01
 20
-1.96686188E+02
  0
VERTEX
  8
0
 62
4
 10
-6.44585246E+01
 20
-1.96734597E+02
  0
VERTEX
  8
0
 62
4
 10
-6.41532319E+01
 20
-1.96758894E+02
  0
VERTEX
  8
0
 62
4
 10
-6.38467643E+01
 20
-1.96758894E+02
  0
VERTEX
  8
0
 62
4
 10
-6.35414716E+01
 20
-1.96734597E+02
  0
VERTEX
  8
0
 62
4
 10
-6.32396945E+01
 20
-1.96686188E+02
  0
VERTEX
  8
0
 62
4
 10
-6.29437467E+01
 20
-1.96614040E+02
  0
VERTEX
  8
0
 62
4
 10
-6.26558973E+01
 20
-1.96518704E+02
  0
VERTEX
  8
0
 62
4
 10
-6.23783534E+01
 20
-1.96400913E+02
  0
VERTEX
  8
0
 62
4
 10
-6.21132428E+01
 20
-1.96261569E+02
  0
VERTEX
  8
0
 62
4
 10
-6.18625982E+01
 20
-1.96101741E+02
  0
VERTEX
  8
0
 62
4
 10
-6.16283413E+01
 20
-1.95922654E+02
  0
VERTEX
  8
0
 62
4
 10
-6.14122682E+01
 20
-1.95725681E+02
  0
VERTEX
  8
0
 62
4
 10
-6.12160356E+01
 20
-1.95512332E+02
  0
VERTEX
  8
0
 62
4
 10
-6.10411481E+01
 20
-1.95284243E+02
  0
VERTEX
  8
0
 62
4
 10
-6.08889464E+01
 20
-1.95043164E+02
  0
VERTEX
  8
0
 62
4
 10
-6.07605975E+01
 20
-1.94790941E+02
  0
VERTEX
  8
0
 62
4
 10
-6.06570856E+01
 20
-1.94529510E+02
  0
VERTEX
  8
0
 62
4
 10
-6.05792043E+01
 20
-1.94260875E+02
  0
VERTEX
  8
0
 62
4
 10
-6.05275506E+01
 20
-1.93987094E+02
  0
VERTEX
  8
0
 62
4
 10
-6.05025206E+01
 20
-1.93710268E+02
  0
VERTEX
  8
0
 62
4
 10
-6.05043063E+01
 20
-1.93432519E+02
  0
VERTEX
  8
0
 62
4
 10
-6.05328939E+01
 20
-1.93155976E+02
  0
VERTEX
  8
0
 62
4
 10
-6.05880642E+01
 20
-1.92882759E+02
  0
VERTEX
  8
0
 62
4
 10
-6.06693943E+01
 20
-1.92614965E+02
  0
VERTEX
  8
0
 62
4
 10
-6.07762606E+01
 20
-1.92354644E+02
  0
VERTEX
  8
0
 62
4
 10
-6.09078437E+01
 20
-1.92103795E+02
  0
VERTEX
  8
0
 62
4
 10
-6.10631347E+01
 20
-1.91864339E+02
  0
VERTEX
  8
0
 62
4
 10
-6.12409431E+01
 20
-1.91638113E+02
  0
VERTEX
  8
0
 62
4
 10
-6.14399055E+01
 20
-1.91426851E+02
  0
VERTEX
  8
0
 62
4
 10
-6.16584965E+01
 20
-1.91232173E+02
  0
VERTEX
  8
0
 62
4
 10
-6.18950401E+01
 20
-1.91055572E+02
  0
SEQEND
  8
0
  0
POLYLINE
  8
0
 62
4
 66
1
  0
VERTEX
  8
0
 62
4
 10
-6.08599981E+01
 20
-1.93167241E+02
  0
VERTEX
  8
0
 62
4
 10
-6.08719467E+01
 20
-1.92919213E+02
  0
VERTEX
  8
0
 62
4
 10
-6.09077018E+01
 20
-1.92673072E+02
  0
VERTEX
  8
0
 62
4
 10
-6.09669910E+01
 20
-1.92430692E+02
  0
VERTEX
  8
0
 62
4
 10
-6.10493633E+01
 20
-1.92193918E+02
  0
VERTEX
  8
0
 62
4
 10
-6.11541916E+01
 20
-1.91964551E+02
  0
VERTEX
  8
0
 62
4
 10
-6.12806783E+01
 20
-1.91744338E+02
  0
VERTEX
  8
0
 62
4
 10
-6.14278607E+01
 20
-1.91534953E+02
  0
VERTEX
  8
0
 62
4
 10
-6.15946185E+01
 20
-1.91337992E+02
  0
VERTEX
  8
0
 62
4
 10
-6.17796828E+01
 20
-1.91154952E+02
  0
VERTEX
  8
0
 62
4
 10
-6.19816450E+01
 20
-1.90987227E+02
  0
VERTEX
  8
0
 62
4
 10
-6.21989681E+01
 20
-1.90836093E+02
  0
VERTEX
  8
0
 62
4
 10
-6.24299981E+01
 20
-1.90702700E+02
  0
VERTEX
  8
0
 62
4
 10
-6.26729768E+01
 20
-1.90588064E+02
  0
VERTEX
  8
0
 62
4
 10
-6.29260549E+01
 20
-1.90493058E+02
  0
VERTEX
  8
0
 62
4
 10
-6.31873063E+01
 20
-1.90418403E+02
  0
VERTEX
  8
0
 62
4
 10
-6.34547428E+01
 20
-1.90364669E+02
  0
VERTEX
  8
0
 62
4
 10
-6.37263291E+01
 20
-1.90332264E+02
  0
VERTEX
  8
0
 62
4
 10
-6.39999981E+01
 20
-1.90321435E+02
  0
VERTEX
  8
0
 62
4
 10
-6.42736671E+01
 20
-1.90332264E+02
  0
VERTEX
  8
0
 62
4
 10
-6.45452534E+01
 20
-1.90364669E+02
  0
VERTEX
  8
0
 62
4
 10
-6.48126899E+01
 20
-1.90418403E+02
  0
VERTEX
  8
0
 62
4
 10
-6.50739414E+01
 20
-1.90493058E+02
  0
VERTEX
  8
0
 62
4
 10
-6.53270194E+01
 20
-1.90588064E+02
  0
VERTEX
  8
0
 62
4
 10
-6.55699981E+01
 20
-1.90702700E+02
  0
VERTEX
  8
0
 62
4
 10
-6.58010281E+01
 20
-1.90836093E+02
  0
VERTEX
  8
0
 62
4
 10
-6.60183512E+01
 20
-1.90987227E+02
  0
VERTEX
  8
0
 62
4
 10
-6.62203134E+01
 20
-1.91154952E+02
  0
VERTEX
  8
0
 62
4
 10
-6.64053777E+01
 20
-1.91337992E+02
  0
VERTEX
  8
0
 62
4
 10
-6.65721355E+01
 20
-1.91534953E+02
  0
VERTEX
  8
0
 62
4
 10
-6.67193179E+01
 20
-1.91744338E+02
  0
VERTEX
  8
0
 62
4
 10
-6.68458046E+01
 20
-1.91964551E+02
  0
VERTEX
  8
0
 62
4
 10
-6.69506329E+01
 20
-1.92193918E+02
  0
VERTEX
  8
0
 62
4
 10
-6.70330052E+01
 20
-1.92430692E+02
  0
VERTEX
  8
0
 62
4
 10
-6.70922944E+01
 20
-1.92673072E+02
  0
VERTEX
  8
0
 62
4
 10
-6.71280495E+01
 20
-1.92919213E+02
  0
VERTEX
  8
0
 62
4
 10
-6.71399981E+01
 20
-1.93167241E+02
  0
VERTEX
  8
0
 62
4
 10
-6.71280495E+01
 20
-1.93415269E+02
  0
VERTEX
  8
0
 62
4
 10
-6.70922944E+01
 20
-1.93661410E+02
  0
VERTEX
  8
0
 62
4
 10
-6.70330052E+01
 20
-1.93903790E+02
  0
VERTEX
  8
0
 62
4
 10
-6.69506329E+01
 20
-1.94140564E+02
  0
VERTEX
  8
0
 62
4
 10
-6.68458045E+01
 20
-1.94369931E+02
  0
VERTEX
  8
0
 62
4
 10
-6.67193179E+01
 20
-1.94590144E+02
  0
VERTEX
  8
0
 62
4
 10
-6.65721355E+01
 20
-1.94799529E+02
  0
VERTEX
  8
0
 62
4
 10
-6.64053776E+01
 20
-1.94996490E+02
  0
VERTEX
  8
0
 62
4
 10
-6.62203134E+01
 20
-1.95179530E+02
  0
VERTEX
  8
0
 62
4
 10
-6.60183512E+01
 20
-1.95347255E+02
  0
VERTEX
  8
0
 62
4
 10
-6.58010281E+01
 20
-1.95498389E+02
  0
VERTEX
  8
0
 62
4
 10
-6.55699981E+01
 20
-1.95631782E+02
  0
VERTEX
  8
0
 62
4
 10
-6.53270194E+01
 20
-1.95746418E+02
  0
VERTEX
  8
0
 62
4
 10
-6.50739413E+01
 20
-1.95841424E+02
  0
VERTEX
  8
0
 62
4
 10
-6.48126899E+01
 20
-1.95916079E+02
  0
VERTEX
  8
0
 62
4
 10
-6.45452534E+01
 20
-1.95969813E+02
  0
VERTEX
  8
0
 62
4
 10
-6.42736671E+01
 20
-1.96002218E+02
  0
VERTEX
  8
0
 62
4
 10
-6.39999981E+01
 20
-1.96013047E+02
  0
VERTEX
  8
0
 62
4
 10
-6.37263291E+01
 20
-1.96002218E+02
  0
VERTEX
  8
0
 62
4
 10
-6.34547428E+01
 20
-1.95969813E+02
  0
VERTEX
  8
0
 62
4
 10
-6.31873063E+01
 20
-1.95916079E+02
  0
VERTEX
  8
0
 62
4
 10
-6.29260548E+01
 20
-1.95841424E+02
  0
VERTEX
  8
0
 62
4
 10
-6.26729768E+01
 20
-1.95746418E+02
  0
VERTEX
  8
0
 62
4
 10
-6.24299981E+01
 20
-1.95631782E+02
  0
VERTEX
  8
0
 62
4
 10
-6.21989681E+01
 20
-1.95498389E+02
  0
VERTEX
  8
0
 62
4
 10
-6.19816450E+01
 20
-1.95347255E+02
  0
VERTEX
  8
0
 62
4
 10
-6.17796828E+01
 20
-1.95179530E+02
  0
VERTEX
  8
0
 62
4
 10
-6.15946185E+01
 20
-1.94996490E+02
  0
VERTEX
  8
0
 62
4
 10
-6.14278607E+01
 20
-1.94799529E+02
  0
VERTEX
  8
0
 62
4
 10
-6.12806783E+01
 20
-1.94590144E+02
  0
VERTEX
  8
0
 62
4
 10
-6.11541916E+01
 20
-1.94369931E+02
  0
VERTEX
  8
0
 62
4
 10
-6.10493633E+01
 20
-1.94140564E+02
  0
VERTEX
  8
0
 62
4
 10
-6.09669910E+01
 20
-1.93903790E+02
  0
VERTEX
  8
0
 62
4
 10
-6.09077018E+01
 20
-1.93661410E+02
  0
VERTEX
  8
0
 62
4
 10
-6.08719467E+01
 20
-1.93415269E+02
  0
VERTEX
  8
0
 62
4
 10
-6.08599981E+01
 20
-1.93167241E+02
  0
SEQEND
  8
0
  0
LINE
  8
0
 62
4
 10
-8.94999981E+01
 20
-2.02199738E+02
 11
-7.04999981E+01
 21
-2.02199738E+02
  0
LINE
  8
0
  6
CENTER
 62
6
 10
4.15000002E+02
 20
-4.03804222E+02
 11
4.15000002E+02
 21
-4.05647013E+02
  0
POLYLINE
  8
0
 62
4
 66
1
  0
VERTEX
  8
0
 62
4
 10
4.18140002E+02
 20
-4.05647013E+02
  0
VERTEX
  8
0
 62
4
 10
4.18128053E+02
 20
-4.05531355E+02
  0
VERTEX
  8
0
 62
4
 10
4.18092298E+02
 20
-4.05416578E+02
  0
VERTEX
  8
0
 62
4
 10
4.18033009E+02
 20
-4.05303555E+02
  0
VERTEX
  8
0
 62
4
 10
4.17950637E+02
 20
-4.05193145E+02
  0
VERTEX
  8
0
 62
4
 10
4.17845808E+02
 20
-4.05086190E+02
  0
VERTEX
  8
0
 62
4
 10
4.17719322E+02
 20
-4.04983502E+02
  0
VERTEX
  8
0
 62
4
 10
4.17572139E+02
 20
-4.04885865E+02
  0
VERTEX
  8
0
 62
4
 10
4.17405382E+02
 20
-4.04794020E+02
  0
VERTEX
  8
0
 62
4
 10
4.17220317E+02
 20
-4.04708667E+02
  0
VERTEX
  8
0
 62
4
 10
4.17018355E+02
 20
-4.04630456E+02
  0
VERTEX
  8
0
 62
4
 10
4.16801032E+02
 20
-4.04559981E+02
  0
VERTEX
  8
0
 62
4
 10
4.16570002E+02
 20
-4.04497779E+02
  0
VERTEX
  8
0
 62
4
 10
4.16327023E+02
 20
-4.04444323E+02
  0
VERTEX
  8
0
 62
4
 10
4.16073945E+02
 20
-4.04400021E+02
  0
VERTEX
  8
0
 62
4
 10
4.15812694E+02
 20
-4.04365209E+02
  0
VERTEX
  8
0
 62
4
 10
4.15545257E+02
 20
-4.04340152E+02
  0
VERTEX
  8
0
 62
4
 10
4.15273671E+02
 20
-4.04325041E+02
  0
VERTEX
  8
0
 62
4
 10
4.15000002E+02
 20
-4.04319992E+02
  0
VERTEX
  8
0
 62
4
 10
4.14726333E+02
 20
-4.04325041E+02
  0
VERTEX
  8
0
 62
4
 10
4.14454747E+02
 20
-4.04340152E+02
  0
VERTEX
  8
0
 62
4
 10
4.14187310E+02
 20
-4.04365209E+02
  0
VERTEX
  8
0
 62
4
 10
4.13926059E+02
 20
-4.04400021E+02
  0
VERTEX
  8
0
 62
4
 10
4.13672981E+02
 20
-4.04444323E+02
  0
VERTEX
  8
0
 62
4
 10
4.13430002E+02
 20
-4.04497779E+02
  0
VERTEX
  8
0
 62
4
 10
4.13198972E+02
 20
-4.04559981E+02
  0
VERTEX
  8
0
 62
4
 10
4.12981649E+02
 20
-4.04630456E+02
  0
VERTEX
  8
0
 62
4
 10
4.12779687E+02
 20
-4.04708667E+02
  0
VERTEX
  8
0
 62
4
 10
4.12594622E+02
 20
-4.04794020E+02
  0
VERTEX
  8
0
 62
4
 10
4.12427865E+02
 20
-4.04885865E+02
  0
VERTEX
  8
0
 62
4
 10
4.12280682E+02
 20
-4.04983502E+02
  0
VERTEX
  8
0
 62
4
 10
4.12154196E+02
 20
-4.05086190E+02
  0
VERTEX
  8
0
 62
4
 10
4.12049367E+02
 20
-4.05193145E+02
  0
VERTEX
  8
0
 62
4
 10
4.11966995E+02
 20
-4.05303555E+02
  0
VERTEX
  8
0
 62
4
 10
4.11907706E+02
 20
-4.05416578E+02
  0
VERTEX
  8
0
 62
4
 10
4.11871951E+02
 20
-4.05531355E+02
  0
VERTEX
  8
0
 62
4
 10
4.11860002E+02
 20
-4.05647013E+02
  0
VERTEX
  8
0
 62
4
 10
4.11871951E+02
 20
-4.05762671E+02
  0
VERTEX
  8
0
 62
4
 10
4.11907706E+02
 20
-4.05877448E+02
  0
VERTEX
  8
0
 62
4
 10
4.11966995E+02
 20
-4.05990471E+02
  0
VERTEX
  8
0
 62
4
 10
4.12049367E+02
 20
-4.06100881E+02
  0
VERTEX
  8
0
 62
4
 10
4.12154196E+02
 20
-4.06207836E+02
  0
VERTEX
  8
0
 62
4
 10
4.12280682E+02
 20
-4.06310524E+02
  0
VERTEX
  8
0
 62
4
 10
4.12427865E+02
 20
-4.06408161E+02
  0
VERTEX
  8
0
 62
4
 10
4.12594622E+02
 20
-4.06500006E+02
  0
VERTEX
  8
0
 62
4
 10
4.12779687E+02
 20
-4.06585359E+02
  0
VERTEX
  8
0
 62
4
 10
4.12981649E+02
 20
-4.06663570E+02
  0
VERTEX
  8
0
 62
4
 10
4.13198972E+02
 20
-4.06734045E+02
  0
VERTEX
  8
0
 62
4
 10
4.13430002E+02
 20
-4.06796247E+02
  0
VERTEX
  8
0
 62
4
 10
4.13672981E+02
 20
-4.06849703E+02
  0
VERTEX
  8
0
 62
4
 10
4.13926059E+02
 20
-4.06894005E+02
  0
VERTEX
  8
0
 62
4
 10
4.14187310E+02
 20
-4.06928817E+02
  0
VERTEX
  8
0
 62
4
 10
4.14454747E+02
 20
-4.06953874E+02
  0
VERTEX
  8
0
 62
4
 10
4.14726333E+02
 20
-4.06968985E+02
  0
VERTEX
  8
0
 62
4
 10
4.15000002E+02
 20
-4.06974034E+02
  0
VERTEX
  8
0
 62
4
 10
4.15273671E+02
 20
-4.06968985E+02
  0
VERTEX
  8
0
 62
4
 10
4.15545257E+02
 20
-4.06953874E+02
  0
VERTEX
  8
0
 62
4
 10
4.15812694E+02
 20
-4.06928817E+02
  0
VERTEX
  8
0
 62
4
 10
4.16073945E+02
 20
-4.06894005E+02
  0
VERTEX
  8
0
 62
4
 10
4.16327023E+02
 20
-4.06849703E+02
  0
VERTEX
  8
0
 62
4
 10
4.16570002E+02
 20
-4.06796247E+02
  0
VERTEX
  8
0
 62
4
 10
4.16801032E+02
 20
-4.06734045E+02
  0
VERTEX
  8
0
 62
4
 10
4.17018355E+02
 20
-4.06663570E+02
  0
VERTEX
  8
0
 62
4
 10
4.17220317E+02
 20
-4.06585359E+02
  0
VERTEX
  8
0
 62
4
 10
4.17405382E+02
 20
-4.06500006E+02
  0
VERTEX
  8
0
 62
4
 10
4.17572139E+02
 20
-4.06408161E+02
  0
VERTEX
  8
0
 62
4
 10
4.17719322E+02
 20
-4.06310524E+02
  0
VERTEX
  8
0
 62
4
 10
4.17845808E+02
 20
-4.06207836E+02
  0
VERTEX
  8
0
 62
4
 10
4.17950637E+02
 20
-4.06100881E+02
  0
VERTEX
  8
0
 62
4
 10
4.18033009E+02
 20
-4.05990471E+02
  0
VERTEX
  8
0
 62
4
 10
4.18092298E+02
 20
-4.05877448E+02
  0
VERTEX
  8
0
 62
4
 10
4.18128053E+02
 20
-4.05762671E+02
  0
VERTEX
  8
0
 62
4
 10
4.18140002E+02
 20
-4.05647013E+02
  0
SEQEND
  8
0
  0
POLYLINE
  8
0
 62
4
 66
1
  0
VERTEX
  8
0
 62
4
 10
4.11568156E+02
 20
-4.06262839E+02
  0
VERTEX
  8
0
 62
4
 10
4.11520866E+02
 20
-4.06392052E+02
  0
VERTEX
  8
0
 62
4
 10
4.11500761E+02
 20
-4.06522525E+02
  0
VERTEX
  8
0
 62
4
 10
4.11507997E+02
 20
-4.06653239E+02
  0
VERTEX
  8
0
 62
4
 10
4.11542517E+02
 20
-4.06783173E+02
  0
VERTEX
  8
0
 62
4
 10
4.11604054E+02
 20
-4.06911310E+02
  0
VERTEX
  8
0
 62
4
 10
4.11692124E+02
 20
-4.07036650E+02
  0
VERTEX
  8
0
 62
4
 10
4.11806041E+02
 20
-4.07158214E+02
  0
VERTEX
  8
0
 62
4
 10
4.11944915E+02
 20
-4.07275051E+02
  0
VERTEX
  8
0
 62
4
 10
4.12107659E+02
 20
-4.07386249E+02
  0
VERTEX
  8
0
 62
4
 10
4.12293003E+02
 20
-4.07490939E+02
  0
VERTEX
  8
0
 62
4
 10
4.12499498E+02
 20
-4.07588303E+02
  0
VERTEX
  8
0
 62
4
 10
4.12725531E+02
 20
-4.07677579E+02
  0
VERTEX
  8
0
 62
4
 10
4.12969336E+02
 20
-4.07758072E+02
  0
VERTEX
  8
0
 62
4
 10
4.13229007E+02
 20
-4.07829151E+02
  0
VERTEX
  8
0
 62
4
 10
4.13502517E+02
 20
-4.07890261E+02
  0
VERTEX
  8
0
 62
4
 10
4.13787727E+02
 20
-4.07940925E+02
  0
VERTEX
  8
0
 62
4
 10
4.14082409E+02
 20
-4.07980747E+02
  0
VERTEX
  8
0
 62
4
 10
4.14384261E+02
 20
-4.08009415E+02
  0
VERTEX
  8
0
 62
4
 10
4.14690924E+02
 20
-4.08026706E+02
  0
VERTEX
  8
0
 62
4
 10
4.15000002E+02
 20
-4.08032485E+02
  0
VERTEX
  8
0
 62
4
 10
4.15309080E+02
 20
-4.08026706E+02
  0
VERTEX
  8
0
 62
4
 10
4.15615743E+02
 20
-4.08009415E+02
  0
VERTEX
  8
0
 62
4
 10
4.15917595E+02
 20
-4.07980747E+02
  0
VERTEX
  8
0
 62
4
 10
4.16212277E+02
 20
-4.07940925E+02
  0
VERTEX
  8
0
 62
4
 10
4.16497487E+02
 20
-4.07890261E+02
  0
VERTEX
  8
0
 62
4
 10
4.16770997E+02
 20
-4.07829151E+02
  0
VERTEX
  8
0
 62
4
 10
4.17030668E+02
 20
-4.07758072E+02
  0
VERTEX
  8
0
 62
4
 10
4.17274473E+02
 20
-4.07677579E+02
  0
VERTEX
  8
0
 62
4
 10
4.17500506E+02
 20
-4.07588303E+02
  0
VERTEX
  8
0
 62
4
 10
4.17707001E+02
 20
-4.07490939E+02
  0
VERTEX
  8
0
 62
4
 10
4.17892345E+02
 20
-4.07386249E+02
  0
VERTEX
  8
0
 62
4
 10
4.18055089E+02
 20
-4.07275051E+02
  0
VERTEX
  8
0
 62
4
 10
4.18193963E+02
 20
-4.07158214E+02
  0
VERTEX
  8
0
 62
4
 10
4.18307880E+02
 20
-4.07036650E+02
  0
VERTEX
  8
0
 62
4
 10
4.18395950E+02
 20
-4.06911310E+02
  0
VERTEX
  8
0
 62
4
 10
4.18457487E+02
 20
-4.06783173E+02
  0
VERTEX
  8
0
 62
4
 10
4.18492007E+02
 20
-4.06653239E+02
  0
VERTEX
  8
0
 62
4
 10
4.18499243E+02
 20
-4.06522525E+02
  0
VERTEX
  8
0
 62
4
 10
4.18479138E+02
 20
-4.06392052E+02
  0
VERTEX
  8
0
 62
4
 10
4.18431848E+02
 20
-4.06262839E+02
  0
SEQEND
  8
0
  0
LINE
  8
0
 62
4
 10
4.11860002E+02
 20
-4.05647013E+02
 11
4.11568156E+02
 21
-4.06262839E+02
  0
LINE
  8
0
 62
4
 10
4.18140002E+02
 20
-4.05647013E+02
 11
4.18431847E+02
 21
-4.06262839E+02
  0
LINE
  8
0
 62
4
 10
4.23500002E+02
 20
-4.17299446E+02
 11
4.38500002E+02
 21
-4.17299446E+02
  0
LINE
  8
0
 62
4
 10
4.23500002E+02
 20
-4.42271947E+02
 11
4.38500002E+02
 21
-4.42271947E+02
  0
LINE
  8
0
 62
4
 10
4.24500002E+02
 20
-4.31503687E+02
 11
4.37500002E+02
 21
-4.31503687E+02
  0
LINE
  8
0
 62
4
 10
4.38500002E+02
 20
-4.14343664E+02
 11
4.38500002E+02
 21
-4.42271947E+02
  0
LINE
  8
0
 62
4
 10
4.23500002E+02
 20
-4.14343664E+02
 11
4.23500002E+02
 21
-4.42271947E+02
  0
LINE
  8
0
 62
4
 10
4.51500002E+02
 20
-3.79958264E+02
 11
4.48000002E+02
 21
-3.79958264E+02
  0
LINE
  8
0
 62
4
 10
4.41500002E+02
 20
-4.10568195E+02
 11
4.05500002E+02
 21
-4.10568195E+02
  0
LINE
  8
0
 62
4
 10
4.58000002E+02
 20
-3.78910934E+02
 11
4.53000002E+02
 21
-3.78910934E+02
  0
LINE
  8
0
 62
4
 10
4.38500002E+02
 20
-3.78708264E+02
 11
4.47500002E+02
 21
-3.78708264E+02
  0
LINE
  8
0
 62
4
 10
4.48000002E+02
 20
-3.79208264E+02
 11
4.48000002E+02
 21
-3.92208264E+02
  0
LINE
  8
0
 62
4
 10
4.58000002E+02
 20
-3.78910934E+02
 11
4.58000002E+02
 21
-3.92514613E+02
  0
LINE
  8
0
 62
4
 10
4.53000002E+02
 20
-3.78910934E+02
 11
4.53000002E+02
 21
-3.92514613E+02
  0
LINE
  8
0
 62
4
 10
4.53000002E+02
 20
-3.79458264E+02
 11
4.48000002E+02
 21
-3.79458264E+02
  0
LINE
  8
0
 62
4
 10
4.53000002E+02
 20
-3.91958264E+02
 11
4.48000002E+02
 21
-3.91958264E+02
  0
LINE
  8
0
 62
4
 10
4.51500002E+02
 20
-3.79458264E+02
 11
4.51500002E+02
 21
-3.91958264E+02
  0
LINE
  8
0
 62
4
 10
4.51500002E+02
 20
-3.91458264E+02
 11
4.48000002E+02
 21
-3.91458264E+02
  0
LINE
  8
0
 62
4
 10
4.47500002E+02
 20
-3.92708264E+02
 11
4.39000002E+02
 21
-3.92708264E+02
  0
LINE
  8
0
 62
4
 10
4.38500002E+02
 20
-3.83440032E+02
 11
4.23500002E+02
 21
-3.83440032E+02
  0
LINE
  8
0
 62
4
 10
4.40500002E+02
 20
-4.06942963E+02
 11
4.21500002E+02
 21
-4.06942963E+02
  0
LINE
  8
0
 62
4
 10
4.43000002E+02
 20
-4.03804222E+02
 11
4.43000002E+02
 21
-4.26999969E+02
  0
LINE
  8
0
 62
4
 10
4.40500002E+02
 20
-4.06942963E+02
 11
4.40500002E+02
 21
-4.10568195E+02
  0
LINE
  8
0
 62
4
 10
4.23500002E+02
 20
-3.77100758E+02
 11
4.23500002E+02
 21
-4.06942963E+02
  0
LINE
  8
0
 62
4
 10
4.38500002E+02
 20
-3.77100758E+02
 11
4.38500002E+02
 21
-4.06942963E+02
  0
LINE
  8
0
 62
4
 10
4.21500002E+02
 20
-4.06942963E+02
 11
4.21500002E+02
 21
-4.10568195E+02
  0
LINE
  8
0
 62
4
 10
4.04000002E+02
 20
-4.03804222E+02
 11
4.04000002E+02
 21
-4.26999969E+02
  0
ARC
  8
0
 62
4
 10
4.41499993E+02
 20
-4.12068203E+02
 40
1.50000856E+00
 50
3.27119593E-04
 51
8.99996730E+01
  0
ARC
  8
0
 62
4
 10
4.47500014E+02
 20
-3.92208275E+02
 40
4.99988098E-01
 50
2.69998636E+02
 51
1.36386840E-03
  0
ARC
  8
0
 62
4
 10
4.47499990E+02
 20
-3.79208275E+02
 40
5.00011902E-01
 50
1.36383594E-03
 51
8.99986360E+01
  0
ARC
  8
0
 62
4
 10
4.39000016E+02
 20
-3.93208277E+02
 40
5.00013809E-01
 50
9.00015821E+01
 51
1.79998418E+02
  0
ARC
  8
0
 62
4
 10
4.05500010E+02
 20
-4.12068203E+02
 40
1.50000856E+00
 50
9.00003273E+01
 51
1.79999673E+02
  0
LINE
  8
0
 62
4
 10
4.38500002E+02
 20
-3.77100758E+02
 11
4.23500002E+02
 21
-3.77100758E+02
  0
LINE
  8
0
 62
4
 10
4.38500002E+02
 20
-4.05191419E+02
 11
4.23500002E+02
 21
-4.05191419E+02
  0
ARC
  8
0
 62
4
 10
4.41499993E+02
 20
-4.03804231E+02
 40
1.50000856E+00
 50
3.27119593E-04
 51
8.99996730E+01
  0
LINE
  8
0
 62
4
 10
4.41500002E+02
 20
-4.02304222E+02
 11
4.38500002E+02
 21
-4.02304222E+02
  0
ARC
  8
0
 62
4
 10
4.05500010E+02
 20
-4.03804231E+02
 40
1.50000856E+00
 50
9.00003273E+01
 51
1.79999673E+02
  0
LINE
  8
0
 62
4
 10
4.23500002E+02
 20
-4.02304222E+02
 11
4.05500002E+02
 21
-4.02304222E+02
  0
LINE
  8
0
 62
4
 10
4.23500002E+02
 20
-4.14343664E+02
 11
4.38500002E+02
 21
-4.14343664E+02
  0
LINE
  8
0
  6
CENTER
 62
6
 10
4.22000002E+02
 20
-4.39063027E+02
 11
4.40000002E+02
 21
-4.39063027E+02
  0
LINE
  8
0
  6
CENTER
 62
6
 10
4.27000002E+02
 20
-4.34063027E+02
 11
4.27000002E+02
 21
-4.44063027E+02
  0
LINE
  8
0
  6
CENTER
 62
6
 10
4.35000002E+02
 20
-4.34063027E+02
 11
4.35000002E+02
 21
-4.44063027E+02
  0
POLYLINE
  8
0
 62
4
 66
1
  0
VERTEX
  8
0
 62
4
 10
4.28735002E+02
 20
-4.39058495E+02
  0
VERTEX
  8
0
 62
4
 10
4.28728400E+02
 20
-4.38921447E+02
  0
VERTEX
  8
0
 62
4
 10
4.28708643E+02
 20
-4.38785443E+02
  0
VERTEX
  8
0
 62
4
 10
4.28675883E+02
 20
-4.38651517E+02
  0
VERTEX
  8
0
 62
4
 10
4.28630369E+02
 20
-4.38520687E+02
  0
VERTEX
  8
0
 62
4
 10
4.28572446E+02
 20
-4.38393951E+02
  0
VERTEX
  8
0
 62
4
 10
4.28502556E+02
 20
-4.38272273E+02
  0
VERTEX
  8
0
 62
4
 10
4.28421231E+02
 20
-4.38156578E+02
  0
VERTEX
  8
0
 62
4
 10
4.28329089E+02
 20
-4.38047747E+02
  0
VERTEX
  8
0
 62
4
 10
4.28226832E+02
 20
-4.37946609E+02
  0
VERTEX
  8
0
 62
4
 10
4.28115239E+02
 20
-4.37853933E+02
  0
VERTEX
  8
0
 62
4
 10
4.27995157E+02
 20
-4.37770424E+02
  0
VERTEX
  8
0
 62
4
 10
4.27867502E+02
 20
-4.37696719E+02
  0
VERTEX
  8
0
 62
4
 10
4.27733245E+02
 20
-4.37633377E+02
  0
VERTEX
  8
0
 62
4
 10
4.27593407E+02
 20
-4.37580881E+02
  0
VERTEX
  8
0
 62
4
 10
4.27449053E+02
 20
-4.37539631E+02
  0
VERTEX
  8
0
 62
4
 10
4.27301282E+02
 20
-4.37509940E+02
  0
VERTEX
  8
0
 62
4
 10
4.27151217E+02
 20
-4.37492035E+02
  0
VERTEX
  8
0
 62
4
 10
4.27000002E+02
 20
-4.37486051E+02
  0
VERTEX
  8
0
 62
4
 10
4.26848787E+02
 20
-4.37492035E+02
  0
VERTEX
  8
0
 62
4
 10
4.26698722E+02
 20
-4.37509940E+02
  0
VERTEX
  8
0
 62
4
 10
4.26550951E+02
 20
-4.37539631E+02
  0
VERTEX
  8
0
 62
4
 10
4.26406597E+02
 20
-4.37580881E+02
  0
VERTEX
  8
0
 62
4
 10
4.26266759E+02
 20
-4.37633377E+02
  0
VERTEX
  8
0
 62
4
 10
4.26132502E+02
 20
-4.37696719E+02
  0
VERTEX
  8
0
 62
4
 10
4.26004847E+02
 20
-4.37770424E+02
  0
VERTEX
  8
0
 62
4
 10
4.25884765E+02
 20
-4.37853933E+02
  0
VERTEX
  8
0
 62
4
 10
4.25773172E+02
 20
-4.37946609E+02
  0
VERTEX
  8
0
 62
4
 10
4.25670915E+02
 20
-4.38047747E+02
  0
VERTEX
  8
0
 62
4
 10
4.25578773E+02
 20
-4.38156578E+02
  0
VERTEX
  8
0
 62
4
 10
4.25497448E+02
 20
-4.38272273E+02
  0
VERTEX
  8
0
 62
4
 10
4.25427558E+02
 20
-4.38393951E+02
  0
VERTEX
  8
0
 62
4
 10
4.25369635E+02
 20
-4.38520687E+02
  0
VERTEX
  8
0
 62
4
 10
4.25324121E+02
 20
-4.38651517E+02
  0
VERTEX
  8
0
 62
4
 10
4.25291361E+02
 20
-4.38785443E+02
  0
VERTEX
  8
0
 62
4
 10
4.25271604E+02
 20
-4.38921447E+02
  0
VERTEX
  8
0
 62
4
 10
4.25265002E+02
 20
-4.39058495E+02
  0
VERTEX
  8
0
 62
4
 10
4.25271604E+02
 20
-4.39195543E+02
  0
VERTEX
  8
0
 62
4
 10
4.25291361E+02
 20
-4.39331547E+02
  0
VERTEX
  8
0
 62
4
 10
4.25324121E+02
 20
-4.39465473E+02
  0
VERTEX
  8
0
 62
4
 10
4.25369635E+02
 20
-4.39596303E+02
  0
VERTEX
  8
0
 62
4
 10
4.25427558E+02
 20
-4.39723039E+02
  0
VERTEX
  8
0
 62
4
 10
4.25497448E+02
 20
-4.39844717E+02
  0
VERTEX
  8
0
 62
4
 10
4.25578773E+02
 20
-4.39960412E+02
  0
VERTEX
  8
0
 62
4
 10
4.25670915E+02
 20
-4.40069243E+02
  0
VERTEX
  8
0
 62
4
 10
4.25773172E+02
 20
-4.40170381E+02
  0
VERTEX
  8
0
 62
4
 10
4.25884765E+02
 20
-4.40263057E+02
  0
VERTEX
  8
0
 62
4
 10
4.26004847E+02
 20
-4.40346566E+02
  0
VERTEX
  8
0
 62
4
 10
4.26132502E+02
 20
-4.40420271E+02
  0
VERTEX
  8
0
 62
4
 10
4.26266759E+02
 20
-4.40483613E+02
  0
VERTEX
  8
0
 62
4
 10
4.26406597E+02
 20
-4.40536109E+02
  0
VERTEX
  8
0
 62
4
 10
4.26550951E+02
 20
-4.40577359E+02
  0
VERTEX
  8
0
 62
4
 10
4.26698722E+02
 20
-4.40607050E+02
  0
VERTEX
  8
0
 62
4
 10
4.26848787E+02
 20
-4.40624955E+02
  0
VERTEX
  8
0
 62
4
 10
4.27000002E+02
 20
-4.40630939E+02
  0
VERTEX
  8
0
 62
4
 10
4.27151217E+02
 20
-4.40624955E+02
  0
VERTEX
  8
0
 62
4
 10
4.27301282E+02
 20
-4.40607050E+02
  0
VERTEX
  8
0
 62
4
 10
4.27449053E+02
 20
-4.40577359E+02
  0
VERTEX
  8
0
 62
4
 10
4.27593407E+02
 20
-4.40536109E+02
  0
VERTEX
  8
0
 62
4
 10
4.27733245E+02
 20
-4.40483613E+02
  0
VERTEX
  8
0
 62
4
 10
4.27867502E+02
 20
-4.40420271E+02
  0
VERTEX
  8
0
 62
4
 10
4.27995157E+02
 20
-4.40346566E+02
  0
VERTEX
  8
0
 62
4
 10
4.28115239E+02
 20
-4.40263057E+02
  0
VERTEX
  8
0
 62
4
 10
4.28226832E+02
 20
-4.40170381E+02
  0
VERTEX
  8
0
 62
4
 10
4.28329089E+02
 20
-4.40069243E+02
  0
VERTEX
  8
0
 62
4
 10
4.28421231E+02
 20
-4.39960412E+02
  0
VERTEX
  8
0
 62
4
 10
4.28502556E+02
 20
-4.39844717E+02
  0
VERTEX
  8
0
 62
4
 10
4.28572446E+02
 20
-4.39723039E+02
  0
VERTEX
  8
0
 62
4
 10
4.28630369E+02
 20
-4.39596303E+02
  0
VERTEX
  8
0
 62
4
 10
4.28675883E+02
 20
-4.39465473E+02
  0
VERTEX
  8
0
 62
4
 10
4.28708643E+02
 20
-4.39331547E+02
  0
VERTEX
  8
0
 62
4
 10
4.28728400E+02
 20
-4.39195543E+02
  0
VERTEX
  8
0
 62
4
 10
4.28735002E+02
 20
-4.39058495E+02
  0
SEQEND
  8
0
  0
POLYLINE
  8
0
 62
6
 66
1
  0
VERTEX
  8
0
 62
6
 10
4.28500002E+02
 20
-4.39063027E+02
  0
VERTEX
  8
0
 62
6
 10
4.28494294E+02
 20
-4.38944542E+02
  0
VERTEX
  8
0
 62
6
 10
4.28477214E+02
 20
-4.38826959E+02
  0
VERTEX
  8
0
 62
6
 10
4.28448891E+02
 20
-4.38711172E+02
  0
VERTEX
  8
0
 62
6
 10
4.28409541E+02
 20
-4.38598064E+02
  0
VERTEX
  8
0
 62
6
 10
4.28359464E+02
 20
-4.38488494E+02
  0
VERTEX
  8
0
 62
6
 10
4.28299040E+02
 20
-4.38383296E+02
  0
VERTEX
  8
0
 62
6
 10
4.28228730E+02
 20
-4.38283272E+02
  0
VERTEX
  8
0
 62
6
 10
4.28149069E+02
 20
-4.38189182E+02
  0
VERTEX
  8
0
 62
6
 10
4.28060662E+02
 20
-4.38101742E+02
  0
VERTEX
  8
0
 62
6
 10
4.27964183E+02
 20
-4.38021619E+02
  0
VERTEX
  8
0
 62
6
 10
4.27860367E+02
 20
-4.37949421E+02
  0
VERTEX
  8
0
 62
6
 10
4.27750002E+02
 20
-4.37885699E+02
  0
VERTEX
  8
0
 62
6
 10
4.27633929E+02
 20
-4.37830936E+02
  0
VERTEX
  8
0
 62
6
 10
4.27513032E+02
 20
-4.37785551E+02
  0
VERTEX
  8
0
 62
6
 10
4.27388231E+02
 20
-4.37749888E+02
  0
VERTEX
  8
0
 62
6
 10
4.27260474E+02
 20
-4.37724219E+02
  0
VERTEX
  8
0
 62
6
 10
4.27130736E+02
 20
-4.37708738E+02
  0
VERTEX
  8
0
 62
6
 10
4.27000002E+02
 20
-4.37703565E+02
  0
VERTEX
  8
0
 62
6
 10
4.26869268E+02
 20
-4.37708738E+02
  0
VERTEX
  8
0
 62
6
 10
4.26739530E+02
 20
-4.37724219E+02
  0
VERTEX
  8
0
 62
6
 10
4.26611773E+02
 20
-4.37749888E+02
  0
VERTEX
  8
0
 62
6
 10
4.26486972E+02
 20
-4.37785551E+02
  0
VERTEX
  8
0
 62
6
 10
4.26366075E+02
 20
-4.37830936E+02
  0
VERTEX
  8
0
 62
6
 10
4.26250002E+02
 20
-4.37885699E+02
  0
VERTEX
  8
0
 62
6
 10
4.26139637E+02
 20
-4.37949421E+02
  0
VERTEX
  8
0
 62
6
 10
4.26035821E+02
 20
-4.38021619E+02
  0
VERTEX
  8
0
 62
6
 10
4.25939342E+02
 20
-4.38101742E+02
  0
VERTEX
  8
0
 62
6
 10
4.25850935E+02
 20
-4.38189182E+02
  0
VERTEX
  8
0
 62
6
 10
4.25771274E+02
 20
-4.38283272E+02
  0
VERTEX
  8
0
 62
6
 10
4.25700964E+02
 20
-4.38383296E+02
  0
VERTEX
  8
0
 62
6
 10
4.25640540E+02
 20
-4.38488494E+02
  0
VERTEX
  8
0
 62
6
 10
4.25590463E+02
 20
-4.38598064E+02
  0
VERTEX
  8
0
 62
6
 10
4.25551113E+02
 20
-4.38711172E+02
  0
VERTEX
  8
0
 62
6
 10
4.25522790E+02
 20
-4.38826959E+02
  0
VERTEX
  8
0
 62
6
 10
4.25505710E+02
 20
-4.38944542E+02
  0
VERTEX
  8
0
 62
6
 10
4.25500002E+02
 20
-4.39063027E+02
  0
VERTEX
  8
0
 62
6
 10
4.25505710E+02
 20
-4.39181512E+02
  0
VERTEX
  8
0
 62
6
 10
4.25522790E+02
 20
-4.39299095E+02
  0
VERTEX
  8
0
 62
6
 10
4.25551113E+02
 20
-4.39414882E+02
  0
VERTEX
  8
0
 62
6
 10
4.25590463E+02
 20
-4.39527990E+02
  0
VERTEX
  8
0
 62
6
 10
4.25640540E+02
 20
-4.39637560E+02
  0
VERTEX
  8
0
 62
6
 10
4.25700964E+02
 20
-4.39742758E+02
  0
VERTEX
  8
0
 62
6
 10
4.25771274E+02
 20
-4.39842782E+02
  0
VERTEX
  8
0
 62
6
 10
4.25850935E+02
 20
-4.39936872E+02
  0
VERTEX
  8
0
 62
6
 10
4.25939342E+02
 20
-4.40024312E+02
  0
VERTEX
  8
0
 62
6
 10
4.26035821E+02
 20
-4.40104435E+02
  0
VERTEX
  8
0
 62
6
 10
4.26139637E+02
 20
-4.40176633E+02
  0
VERTEX
  8
0
 62
6
 10
4.26250002E+02
 20
-4.40240355E+02
  0
VERTEX
  8
0
 62
6
 10
4.26366075E+02
 20
-4.40295118E+02
  0
VERTEX
  8
0
 62
6
 10
4.26486972E+02
 20
-4.40340503E+02
  0
VERTEX
  8
0
 62
6
 10
4.26611773E+02
 20
-4.40376166E+02
  0
VERTEX
  8
0
 62
6
 10
4.26739530E+02
 20
-4.40401835E+02
  0
VERTEX
  8
0
 62
6
 10
4.26869268E+02
 20
-4.40417316E+02
  0
VERTEX
  8
0
 62
6
 10
4.27000002E+02
 20
-4.40422489E+02
  0
VERTEX
  8
0
 62
6
 10
4.27130736E+02
 20
-4.40417316E+02
  0
VERTEX
  8
0
 62
6
 10
4.27260474E+02
 20
-4.40401835E+02
  0
VERTEX
  8
0
 62
6
 10
4.27388231E+02
 20
-4.40376166E+02
  0
VERTEX
  8
0
 62
6
 10
4.27513032E+02
 20
-4.40340503E+02
  0
VERTEX
  8
0
 62
6
 10
4.27633929E+02
 20
-4.40295118E+02
  0
VERTEX
  8
0
 62
6
 10
4.27750002E+02
 20
-4.40240355E+02
  0
VERTEX
  8
0
 62
6
 10
4.27860367E+02
 20
-4.40176633E+02
  0
VERTEX
  8
0
 62
6
 10
4.27964183E+02
 20
-4.40104435E+02
  0
VERTEX
  8
0
 62
6
 10
4.28060662E+02
 20
-4.40024312E+02
  0
VERTEX
  8
0
 62
6
 10
4.28149069E+02
 20
-4.39936872E+02
  0
VERTEX
  8
0
 62
6
 10
4.28228730E+02
 20
-4.39842782E+02
  0
VERTEX
  8
0
 62
6
 10
4.28299040E+02
 20
-4.39742758E+02
  0
VERTEX
  8
0
 62
6
 10
4.28359464E+02
 20
-4.39637560E+02
  0
VERTEX
  8
0
 62
6
 10
4.28409541E+02
 20
-4.39527990E+02
  0
VERTEX
  8
0
 62
6
 10
4.28448891E+02
 20
-4.39414882E+02
  0
VERTEX
  8
0
 62
6
 10
4.28477214E+02
 20
-4.39299095E+02
  0
VERTEX
  8
0
 62
6
 10
4.28494294E+02
 20
-4.39181512E+02
  0
VERTEX
  8
0
 62
6
 10
4.28500002E+02
 20
-4.39063027E+02
  0
SEQEND
  8
0
  0
POLYLINE
  8
0
 62
4
 66
1
  0
VERTEX
  8
0
 62
4
 10
4.28732724E+02
 20
-4.39139051E+02
  0
VERTEX
  8
0
 62
4
 10
4.28814725E+02
 20
-4.38995733E+02
  0
VERTEX
  8
0
 62
4
 10
4.28882330E+02
 20
-4.38846371E+02
  0
VERTEX
  8
0
 62
4
 10
4.28935004E+02
 20
-4.38692150E+02
  0
VERTEX
  8
0
 62
4
 10
4.28972328E+02
 20
-4.38534292E+02
  0
VERTEX
  8
0
 62
4
 10
4.28994006E+02
 20
-4.38374051E+02
  0
VERTEX
  8
0
 62
4
 10
4.28999867E+02
 20
-4.38212698E+02
  0
VERTEX
  8
0
 62
4
 10
4.28989863E+02
 20
-4.38051512E+02
  0
VERTEX
  8
0
 62
4
 10
4.28964075E+02
 20
-4.37891772E+02
  0
VERTEX
  8
0
 62
4
 10
4.28922706E+02
 20
-4.37734745E+02
  0
VERTEX
  8
0
 62
4
 10
4.28866086E+02
 20
-4.37581677E+02
  0
VERTEX
  8
0
 62
4
 10
4.28794662E+02
 20
-4.37433781E+02
  0
VERTEX
  8
0
 62
4
 10
4.28709003E+02
 20
-4.37292232E+02
  0
VERTEX
  8
0
 62
4
 10
4.28609786E+02
 20
-4.37158152E+02
  0
VERTEX
  8
0
 62
4
 10
4.28497800E+02
 20
-4.37032605E+02
  0
VERTEX
  8
0
 62
4
 10
4.28373932E+02
 20
-4.36916587E+02
  0
VERTEX
  8
0
 62
4
 10
4.28239165E+02
 20
-4.36811017E+02
  0
VERTEX
  8
0
 62
4
 10
4.28094569E+02
 20
-4.36716733E+02
  0
VERTEX
  8
0
 62
4
 10
4.27941290E+02
 20
-4.36634484E+02
  0
VERTEX
  8
0
 62
4
 10
4.27780544E+02
 20
-4.36564922E+02
  0
VERTEX
  8
0
 62
4
 10
4.27613606E+02
 20
-4.36508598E+02
  0
VERTEX
  8
0
 62
4
 10
4.27441801E+02
 20
-4.36465959E+02
  0
VERTEX
  8
0
 62
4
 10
4.27266491E+02
 20
-4.36437344E+02
  0
VERTEX
  8
0
 62
4
 10
4.27089067E+02
 20
-4.36422980E+02
  0
VERTEX
  8
0
 62
4
 10
4.26910937E+02
 20
-4.36422980E+02
  0
VERTEX
  8
0
 62
4
 10
4.26733513E+02
 20
-4.36437344E+02
  0
VERTEX
  8
0
 62
4
 10
4.26558203E+02
 20
-4.36465959E+02
  0
VERTEX
  8
0
 62
4
 10
4.26386398E+02
 20
-4.36508598E+02
  0
VERTEX
  8
0
 62
4
 10
4.26219460E+02
 20
-4.36564922E+02
  0
VERTEX
  8
0
 62
4
 10
4.26058714E+02
 20
-4.36634484E+02
  0
VERTEX
  8
0
 62
4
 10
4.25905435E+02
 20
-4.36716733E+02
  0
VERTEX
  8
0
 62
4
 10
4.25760839E+02
 20
-4.36811017E+02
  0
VERTEX
  8
0
 62
4
 10
4.25626072E+02
 20
-4.36916587E+02
  0
VERTEX
  8
0
 62
4
 10
4.25502204E+02
 20
-4.37032605E+02
  0
VERTEX
  8
0
 62
4
 10
4.25390218E+02
 20
-4.37158152E+02
  0
VERTEX
  8
0
 62
4
 10
4.25291001E+02
 20
-4.37292232E+02
  0
VERTEX
  8
0
 62
4
 10
4.25205342E+02
 20
-4.37433781E+02
  0
VERTEX
  8
0
 62
4
 10
4.25133918E+02
 20
-4.37581677E+02
  0
VERTEX
  8
0
 62
4
 10
4.25077298E+02
 20
-4.37734745E+02
  0
VERTEX
  8
0
 62
4
 10
4.25035929E+02
 20
-4.37891772E+02
  0
VERTEX
  8
0
 62
4
 10
4.25010141E+02
 20
-4.38051512E+02
  0
VERTEX
  8
0
 62
4
 10
4.25000137E+02
 20
-4.38212698E+02
  0
VERTEX
  8
0
 62
4
 10
4.25005998E+02
 20
-4.38374052E+02
  0
VERTEX
  8
0
 62
4
 10
4.25027676E+02
 20
-4.38534292E+02
  0
VERTEX
  8
0
 62
4
 10
4.25065000E+02
 20
-4.38692150E+02
  0
VERTEX
  8
0
 62
4
 10
4.25117674E+02
 20
-4.38846371E+02
  0
VERTEX
  8
0
 62
4
 10
4.25185279E+02
 20
-4.38995733E+02
  0
VERTEX
  8
0
 62
4
 10
4.25267280E+02
 20
-4.39139051E+02
  0
SEQEND
  8
0
  0
POLYLINE
  8
0
 62
4
 66
1
  0
VERTEX
  8
0
 62
4
 10
4.36735002E+02
 20
-4.39058495E+02
  0
VERTEX
  8
0
 62
4
 10
4.36728400E+02
 20
-4.38921447E+02
  0
VERTEX
  8
0
 62
4
 10
4.36708643E+02
 20
-4.38785443E+02
  0
VERTEX
  8
0
 62
4
 10
4.36675883E+02
 20
-4.38651517E+02
  0
VERTEX
  8
0
 62
4
 10
4.36630369E+02
 20
-4.38520687E+02
  0
VERTEX
  8
0
 62
4
 10
4.36572446E+02
 20
-4.38393951E+02
  0
VERTEX
  8
0
 62
4
 10
4.36502556E+02
 20
-4.38272273E+02
  0
VERTEX
  8
0
 62
4
 10
4.36421231E+02
 20
-4.38156578E+02
  0
VERTEX
  8
0
 62
4
 10
4.36329089E+02
 20
-4.38047747E+02
  0
VERTEX
  8
0
 62
4
 10
4.36226832E+02
 20
-4.37946609E+02
  0
VERTEX
  8
0
 62
4
 10
4.36115239E+02
 20
-4.37853933E+02
  0
VERTEX
  8
0
 62
4
 10
4.35995157E+02
 20
-4.37770424E+02
  0
VERTEX
  8
0
 62
4
 10
4.35867502E+02
 20
-4.37696719E+02
  0
VERTEX
  8
0
 62
4
 10
4.35733245E+02
 20
-4.37633377E+02
  0
VERTEX
  8
0
 62
4
 10
4.35593407E+02
 20
-4.37580881E+02
  0
VERTEX
  8
0
 62
4
 10
4.35449053E+02
 20
-4.37539631E+02
  0
VERTEX
  8
0
 62
4
 10
4.35301282E+02
 20
-4.37509940E+02
  0
VERTEX
  8
0
 62
4
 10
4.35151217E+02
 20
-4.37492035E+02
  0
VERTEX
  8
0
 62
4
 10
4.35000002E+02
 20
-4.37486051E+02
  0
VERTEX
  8
0
 62
4
 10
4.34848787E+02
 20
-4.37492035E+02
  0
VERTEX
  8
0
 62
4
 10
4.34698722E+02
 20
-4.37509940E+02
  0
VERTEX
  8
0
 62
4
 10
4.34550951E+02
 20
-4.37539631E+02
  0
VERTEX
  8
0
 62
4
 10
4.34406597E+02
 20
-4.37580881E+02
  0
VERTEX
  8
0
 62
4
 10
4.34266759E+02
 20
-4.37633377E+02
  0
VERTEX
  8
0
 62
4
 10
4.34132502E+02
 20
-4.37696719E+02
  0
VERTEX
  8
0
 62
4
 10
4.34004847E+02
 20
-4.37770424E+02
  0
VERTEX
  8
0
 62
4
 10
4.33884765E+02
 20
-4.37853933E+02
  0
VERTEX
  8
0
 62
4
 10
4.33773172E+02
 20
-4.37946609E+02
  0
VERTEX
  8
0
 62
4
 10
4.33670915E+02
 20
-4.38047747E+02
  0
VERTEX
  8
0
 62
4
 10
4.33578773E+02
 20
-4.38156578E+02
  0
VERTEX
  8
0
 62
4
 10
4.33497448E+02
 20
-4.38272273E+02
  0
VERTEX
  8
0
 62
4
 10
4.33427558E+02
 20
-4.38393951E+02
  0
VERTEX
  8
0
 62
4
 10
4.33369635E+02
 20
-4.38520687E+02
  0
VERTEX
  8
0
 62
4
 10
4.33324121E+02
 20
-4.38651517E+02
  0
VERTEX
  8
0
 62
4
 10
4.33291361E+02
 20
-4.38785443E+02
  0
VERTEX
  8
0
 62
4
 10
4.33271604E+02
 20
-4.38921447E+02
  0
VERTEX
  8
0
 62
4
 10
4.33265002E+02
 20
-4.39058495E+02
  0
VERTEX
  8
0
 62
4
 10
4.33271604E+02
 20
-4.39195543E+02
  0
VERTEX
  8
0
 62
4
 10
4.33291361E+02
 20
-4.39331547E+02
  0
VERTEX
  8
0
 62
4
 10
4.33324121E+02
 20
-4.39465473E+02
  0
VERTEX
  8
0
 62
4
 10
4.33369635E+02
 20
-4.39596303E+02
  0
VERTEX
  8
0
 62
4
 10
4.33427558E+02
 20
-4.39723039E+02
  0
VERTEX
  8
0
 62
4
 10
4.33497448E+02
 20
-4.39844717E+02
  0
VERTEX
  8
0
 62
4
 10
4.33578773E+02
 20
-4.39960412E+02
  0
VERTEX
  8
0
 62
4
 10
4.33670915E+02
 20
-4.40069243E+02
  0
VERTEX
  8
0
 62
4
 10
4.33773172E+02
 20
-4.40170381E+02
  0
VERTEX
  8
0
 62
4
 10
4.33884765E+02
 20
-4.40263057E+02
  0
VERTEX
  8
0
 62
4
 10
4.34004847E+02
 20
-4.40346566E+02
  0
VERTEX
  8
0
 62
4
 10
4.34132502E+02
 20
-4.40420271E+02
  0
VERTEX
  8
0
 62
4
 10
4.34266759E+02
 20
-4.40483613E+02
  0
VERTEX
  8
0
 62
4
 10
4.34406597E+02
 20
-4.40536109E+02
  0
VERTEX
  8
0
 62
4
 10
4.34550951E+02
 20
-4.40577359E+02
  0
VERTEX
  8
0
 62
4
 10
4.34698722E+02
 20
-4.40607050E+02
  0
VERTEX
  8
0
 62
4
 10
4.34848787E+02
 20
-4.40624955E+02
  0
VERTEX
  8
0
 62
4
 10
4.35000002E+02
 20
-4.40630939E+02
  0
VERTEX
  8
0
 62
4
 10
4.35151217E+02
 20
-4.40624955E+02
  0
VERTEX
  8
0
 62
4
 10
4.35301282E+02
 20
-4.40607050E+02
  0
VERTEX
  8
0
 62
4
 10
4.35449053E+02
 20
-4.40577359E+02
  0
VERTEX
  8
0
 62
4
 10
4.35593407E+02
 20
-4.40536109E+02
  0
VERTEX
  8
0
 62
4
 10
4.35733245E+02
 20
-4.40483613E+02
  0
VERTEX
  8
0
 62
4
 10
4.35867502E+02
 20
-4.40420271E+02
  0
VERTEX
  8
0
 62
4
 10
4.35995157E+02
 20
-4.40346566E+02
  0
VERTEX
  8
0
 62
4
 10
4.36115239E+02
 20
-4.40263057E+02
  0
VERTEX
  8
0
 62
4
 10
4.36226832E+02
 20
-4.40170381E+02
  0
VERTEX
  8
0
 62
4
 10
4.36329089E+02
 20
-4.40069243E+02
  0
VERTEX
  8
0
 62
4
 10
4.36421231E+02
 20
-4.39960412E+02
  0
VERTEX
  8
0
 62
4
 10
4.36502556E+02
 20
-4.39844717E+02
  0
VERTEX
  8
0
 62
4
 10
4.36572446E+02
 20
-4.39723039E+02
  0
VERTEX
  8
0
 62
4
 10
4.36630369E+02
 20
-4.39596303E+02
  0
VERTEX
  8
0
 62
4
 10
4.36675883E+02
 20
-4.39465473E+02
  0
VERTEX
  8
0
 62
4
 10
4.36708643E+02
 20
-4.39331547E+02
  0
VERTEX
  8
0
 62
4
 10
4.36728400E+02
 20
-4.39195543E+02
  0
VERTEX
  8
0
 62
4
 10
4.36735002E+02
 20
-4.39058495E+02
  0
SEQEND
  8
0
  0
POLYLINE
  8
0
 62
6
 66
1
  0
VERTEX
  8
0
 62
6
 10
4.36500002E+02
 20
-4.39063027E+02
  0
VERTEX
  8
0
 62
6
 10
4.36494294E+02
 20
-4.38944542E+02
  0
VERTEX
  8
0
 62
6
 10
4.36477214E+02
 20
-4.38826959E+02
  0
VERTEX
  8
0
 62
6
 10
4.36448891E+02
 20
-4.38711172E+02
  0
VERTEX
  8
0
 62
6
 10
4.36409541E+02
 20
-4.38598064E+02
  0
VERTEX
  8
0
 62
6
 10
4.36359464E+02
 20
-4.38488494E+02
  0
VERTEX
  8
0
 62
6
 10
4.36299040E+02
 20
-4.38383296E+02
  0
VERTEX
  8
0
 62
6
 10
4.36228730E+02
 20
-4.38283272E+02
  0
VERTEX
  8
0
 62
6
 10
4.36149069E+02
 20
-4.38189182E+02
  0
VERTEX
  8
0
 62
6
 10
4.36060662E+02
 20
-4.38101742E+02
  0
VERTEX
  8
0
 62
6
 10
4.35964183E+02
 20
-4.38021619E+02
  0
VERTEX
  8
0
 62
6
 10
4.35860367E+02
 20
-4.37949421E+02
  0
VERTEX
  8
0
 62
6
 10
4.35750002E+02
 20
-4.37885699E+02
  0
VERTEX
  8
0
 62
6
 10
4.35633929E+02
 20
-4.37830936E+02
  0
VERTEX
  8
0
 62
6
 10
4.35513032E+02
 20
-4.37785551E+02
  0
VERTEX
  8
0
 62
6
 10
4.35388231E+02
 20
-4.37749888E+02
  0
VERTEX
  8
0
 62
6
 10
4.35260474E+02
 20
-4.37724219E+02
  0
VERTEX
  8
0
 62
6
 10
4.35130736E+02
 20
-4.37708738E+02
  0
VERTEX
  8
0
 62
6
 10
4.35000002E+02
 20
-4.37703565E+02
  0
VERTEX
  8
0
 62
6
 10
4.34869268E+02
 20
-4.37708738E+02
  0
VERTEX
  8
0
 62
6
 10
4.34739530E+02
 20
-4.37724219E+02
  0
VERTEX
  8
0
 62
6
 10
4.34611773E+02
 20
-4.37749888E+02
  0
VERTEX
  8
0
 62
6
 10
4.34486972E+02
 20
-4.37785551E+02
  0
VERTEX
  8
0
 62
6
 10
4.34366075E+02
 20
-4.37830936E+02
  0
VERTEX
  8
0
 62
6
 10
4.34250002E+02
 20
-4.37885699E+02
  0
VERTEX
  8
0
 62
6
 10
4.34139637E+02
 20
-4.37949421E+02
  0
VERTEX
  8
0
 62
6
 10
4.34035821E+02
 20
-4.38021619E+02
  0
VERTEX
  8
0
 62
6
 10
4.33939342E+02
 20
-4.38101742E+02
  0
VERTEX
  8
0
 62
6
 10
4.33850935E+02
 20
-4.38189182E+02
  0
VERTEX
  8
0
 62
6
 10
4.33771274E+02
 20
-4.38283272E+02
  0
VERTEX
  8
0
 62
6
 10
4.33700964E+02
 20
-4.38383296E+02
  0
VERTEX
  8
0
 62
6
 10
4.33640540E+02
 20
-4.38488494E+02
  0
VERTEX
  8
0
 62
6
 10
4.33590463E+02
 20
-4.38598064E+02
  0
VERTEX
  8
0
 62
6
 10
4.33551113E+02
 20
-4.38711172E+02
  0
VERTEX
  8
0
 62
6
 10
4.33522790E+02
 20
-4.38826959E+02
  0
VERTEX
  8
0
 62
6
 10
4.33505710E+02
 20
-4.38944542E+02
  0
VERTEX
  8
0
 62
6
 10
4.33500002E+02
 20
-4.39063027E+02
  0
VERTEX
  8
0
 62
6
 10
4.33505710E+02
 20
-4.39181512E+02
  0
VERTEX
  8
0
 62
6
 10
4.33522790E+02
 20
-4.39299095E+02
  0
VERTEX
  8
0
 62
6
 10
4.33551113E+02
 20
-4.39414882E+02
  0
VERTEX
  8
0
 62
6
 10
4.33590463E+02
 20
-4.39527990E+02
  0
VERTEX
  8
0
 62
6
 10
4.33640540E+02
 20
-4.39637560E+02
  0
VERTEX
  8
0
 62
6
 10
4.33700964E+02
 20
-4.39742758E+02
  0
VERTEX
  8
0
 62
6
 10
4.33771274E+02
 20
-4.39842782E+02
  0
VERTEX
  8
0
 62
6
 10
4.33850935E+02
 20
-4.39936872E+02
  0
VERTEX
  8
0
 62
6
 10
4.33939342E+02
 20
-4.40024312E+02
  0
VERTEX
  8
0
 62
6
 10
4.34035821E+02
 20
-4.40104435E+02
  0
VERTEX
  8
0
 62
6
 10
4.34139637E+02
 20
-4.40176633E+02
  0
VERTEX
  8
0
 62
6
 10
4.34250002E+02
 20
-4.40240355E+02
  0
VERTEX
  8
0
 62
6
 10
4.34366075E+02
 20
-4.40295118E+02
  0
VERTEX
  8
0
 62
6
 10
4.34486972E+02
 20
-4.40340503E+02
  0
VERTEX
  8
0
 62
6
 10
4.34611773E+02
 20
-4.40376166E+02
  0
VERTEX
  8
0
 62
6
 10
4.34739530E+02
 20
-4.40401835E+02
  0
VERTEX
  8
0
 62
6
 10
4.34869268E+02
 20
-4.40417316E+02
  0
VERTEX
  8
0
 62
6
 10
4.35000002E+02
 20
-4.40422489E+02
  0
VERTEX
  8
0
 62
6
 10
4.35130736E+02
 20
-4.40417316E+02
  0
VERTEX
  8
0
 62
6
 10
4.35260474E+02
 20
-4.40401835E+02
  0
VERTEX
  8
0
 62
6
 10
4.35388231E+02
 20
-4.40376166E+02
  0
VERTEX
  8
0
 62
6
 10
4.35513032E+02
 20
-4.40340503E+02
  0
VERTEX
  8
0
 62
6
 10
4.35633929E+02
 20
-4.40295118E+02
  0
VERTEX
  8
0
 62
6
 10
4.35750002E+02
 20
-4.40240355E+02
  0
VERTEX
  8
0
 62
6
 10
4.35860367E+02
 20
-4.40176633E+02
  0
VERTEX
  8
0
 62
6
 10
4.35964183E+02
 20
-4.40104435E+02
  0
VERTEX
  8
0
 62
6
 10
4.36060662E+02
 20
-4.40024312E+02
  0
VERTEX
  8
0
 62
6
 10
4.36149069E+02
 20
-4.39936872E+02
  0
VERTEX
  8
0
 62
6
 10
4.36228730E+02
 20
-4.39842782E+02
  0
VERTEX
  8
0
 62
6
 10
4.36299040E+02
 20
-4.39742758E+02
  0
VERTEX
  8
0
 62
6
 10
4.36359464E+02
 20
-4.39637560E+02
  0
VERTEX
  8
0
 62
6
 10
4.36409541E+02
 20
-4.39527990E+02
  0
VERTEX
  8
0
 62
6
 10
4.36448891E+02
 20
-4.39414882E+02
  0
VERTEX
  8
0
 62
6
 10
4.36477214E+02
 20
-4.39299095E+02
  0
VERTEX
  8
0
 62
6
 10
4.36494294E+02
 20
-4.39181512E+02
  0
VERTEX
  8
0
 62
6
 10
4.36500002E+02
 20
-4.39063027E+02
  0
SEQEND
  8
0
  0
POLYLINE
  8
0
 62
4
 66
1
  0
VERTEX
  8
0
 62
4
 10
4.36732724E+02
 20
-4.39139051E+02
  0
VERTEX
  8
0
 62
4
 10
4.36814725E+02
 20
-4.38995733E+02
  0
VERTEX
  8
0
 62
4
 10
4.36882330E+02
 20
-4.38846371E+02
  0
VERTEX
  8
0
 62
4
 10
4.36935004E+02
 20
-4.38692150E+02
  0
VERTEX
  8
0
 62
4
 10
4.36972328E+02
 20
-4.38534292E+02
  0
VERTEX
  8
0
 62
4
 10
4.36994006E+02
 20
-4.38374051E+02
  0
VERTEX
  8
0
 62
4
 10
4.36999867E+02
 20
-4.38212698E+02
  0
VERTEX
  8
0
 62
4
 10
4.36989863E+02
 20
-4.38051512E+02
  0
VERTEX
  8
0
 62
4
 10
4.36964075E+02
 20
-4.37891772E+02
  0
VERTEX
  8
0
 62
4
 10
4.36922706E+02
 20
-4.37734745E+02
  0
VERTEX
  8
0
 62
4
 10
4.36866086E+02
 20
-4.37581677E+02
  0
VERTEX
  8
0
 62
4
 10
4.36794662E+02
 20
-4.37433781E+02
  0
VERTEX
  8
0
 62
4
 10
4.36709003E+02
 20
-4.37292232E+02
  0
VERTEX
  8
0
 62
4
 10
4.36609786E+02
 20
-4.37158152E+02
  0
VERTEX
  8
0
 62
4
 10
4.36497800E+02
 20
-4.37032605E+02
  0
VERTEX
  8
0
 62
4
 10
4.36373932E+02
 20
-4.36916587E+02
  0
VERTEX
  8
0
 62
4
 10
4.36239165E+02
 20
-4.36811017E+02
  0
VERTEX
  8
0
 62
4
 10
4.36094569E+02
 20
-4.36716733E+02
  0
VERTEX
  8
0
 62
4
 10
4.35941290E+02
 20
-4.36634484E+02
  0
VERTEX
  8
0
 62
4
 10
4.35780544E+02
 20
-4.36564922E+02
  0
VERTEX
  8
0
 62
4
 10
4.35613606E+02
 20
-4.36508598E+02
  0
VERTEX
  8
0
 62
4
 10
4.35441801E+02
 20
-4.36465959E+02
  0
VERTEX
  8
0
 62
4
 10
4.35266491E+02
 20
-4.36437344E+02
  0
VERTEX
  8
0
 62
4
 10
4.35089067E+02
 20
-4.36422980E+02
  0
VERTEX
  8
0
 62
4
 10
4.34910937E+02
 20
-4.36422980E+02
  0
VERTEX
  8
0
 62
4
 10
4.34733513E+02
 20
-4.36437344E+02
  0
VERTEX
  8
0
 62
4
 10
4.34558203E+02
 20
-4.36465959E+02
  0
VERTEX
  8
0
 62
4
 10
4.34386398E+02
 20
-4.36508598E+02
  0
VERTEX
  8
0
 62
4
 10
4.34219460E+02
 20
-4.36564922E+02
  0
VERTEX
  8
0
 62
4
 10
4.34058714E+02
 20
-4.36634484E+02
  0
VERTEX
  8
0
 62
4
 10
4.33905435E+02
 20
-4.36716733E+02
  0
VERTEX
  8
0
 62
4
 10
4.33760839E+02
 20
-4.36811017E+02
  0
VERTEX
  8
0
 62
4
 10
4.33626072E+02
 20
-4.36916587E+02
  0
VERTEX
  8
0
 62
4
 10
4.33502204E+02
 20
-4.37032605E+02
  0
VERTEX
  8
0
 62
4
 10
4.33390218E+02
 20
-4.37158152E+02
  0
VERTEX
  8
0
 62
4
 10
4.33291001E+02
 20
-4.37292232E+02
  0
VERTEX
  8
0
 62
4
 10
4.33205342E+02
 20
-4.37433781E+02
  0
VERTEX
  8
0
 62
4
 10
4.33133918E+02
 20
-4.37581677E+02
  0
VERTEX
  8
0
 62
4
 10
4.33077298E+02
 20
-4.37734745E+02
  0
VERTEX
  8
0
 62
4
 10
4.33035929E+02
 20
-4.37891772E+02
  0
VERTEX
  8
0
 62
4
 10
4.33010141E+02
 20
-4.38051512E+02
  0
VERTEX
  8
0
 62
4
 10
4.33000137E+02
 20
-4.38212698E+02
  0
VERTEX
  8
0
 62
4
 10
4.33005998E+02
 20
-4.38374052E+02
  0
VERTEX
  8
0
 62
4
 10
4.33027676E+02
 20
-4.38534292E+02
  0
VERTEX
  8
0
 62
4
 10
4.33065000E+02
 20
-4.38692150E+02
  0
VERTEX
  8
0
 62
4
 10
4.33117674E+02
 20
-4.38846371E+02
  0
VERTEX
  8
0
 62
4
 10
4.33185279E+02
 20
-4.38995733E+02
  0
VERTEX
  8
0
 62
4
 10
4.33267280E+02
 20
-4.39139051E+02
  0
SEQEND
  8
0
  0
LINE
  8
0
 62
4
 10
4.05500002E+02
 20
-4.09148119E+02
 11
4.05500002E+02
 21
-4.03513089E+02
  0
LINE
  8
0
 62
4
 10
4.41499993E+02
 20
-4.09148119E+02
 11
4.41499993E+02
 21
-4.03513089E+02
  0
LINE
  8
0
 62
4
 10
4.58000002E+02
 20
-3.85056606E+02
 11
4.53000002E+02
 21
-3.85056606E+02
  0
LINE
  8
0
 62
4
 10
4.58000002E+02
 20
-3.91862978E+02
 11
4.53000002E+02
 21
-3.91862978E+02
  0
LINE
  8
0
 62
4
 10
4.58000002E+02
 20
-3.92514613E+02
 11
4.53000002E+02
 21
-3.92514613E+02
  0
LINE
  8
0
  6
CENTER
 62
2
 10
-5.36500044E+02
 20
-4.15019218E+02
 11
-5.36500044E+02
 21
-4.45926193E+02
  0
LINE
  8
0
  6
CENTER
 62
2
 10
-5.20536146E+02
 20
-4.31500000E+02
 11
-5.52391050E+02
 21
-4.31500000E+02
  0
LINE
  8
0
 62
2
 10
3.37074840E+02
 20
-4.84630444E+02
 11
3.80315929E+02
 21
-4.09734680E+02
  0
LINE
  8
0
 62
2
 10
-5.96882076E+01
 20
-4.82871610E+02
 11
-1.65175419E+01
 21
-4.08097824E+02
  0
LINE
  8
0
  6
CENTER
 62
2
 10
-6.20499922E+02
 20
-4.15019218E+02
 11
-6.20499922E+02
 21
-4.45926193E+02
  0
LINE
  8
0
  6
CENTER
 62
2
 10
-6.36463820E+02
 20
-4.31500000E+02
 11
-6.04608915E+02
 21
-4.31500000E+02
  0
LINE
  8
0
 62
7
 10
-5.51947541E+02
 20
2.07142623E+01
 11
5.48052459E+02
 21
2.07142623E+01
  0
LINE
  8
0
 62
7
 10
-5.51947541E+02
 20
7.14262295E-01
 11
5.48052459E+02
 21
7.14262295E-01
  0
LINE
  8
0
 62
7
 10
-5.51947541E+02
 20
-1.92857377E+01
 11
5.48052459E+02
 21
-1.92857377E+01
  0
LINE
  8
0
 62
7
 10
-5.51947541E+02
 20
-1.92857377E+01
 11
-5.51947541E+02
 21
2.07142623E+01
  0
LINE
  8
0
 62
7
 10
-4.51947541E+02
 20
-1.92857377E+01
 11
-4.51947541E+02
 21
2.07142623E+01
  0
TEXT
  8
0
 62
7
 10
-5.38080354E+02
 20
4.46426230E+00
 40
1.25000000E+01
  1
STROKE
 41
1.00000000E+00
  7
MONOTXT
  0
TEXT
  8
0
 62
7
 10
-5.44330354E+02
 20
-1.55357377E+01
 40
1.25000000E+01
  1
STRETCH
 41
1.00000000E+00
  7
MONOTXT
  0
LINE
  8
0
 62
7
 10
-3.89447541E+02
 20
-1.92857377E+01
 11
-3.89447541E+02
 21
2.07142623E+01
  0
LINE
  8
0
 62
7
 10
-3.26947541E+02
 20
-1.92857377E+01
 11
-3.26947541E+02
 21
2.07142623E+01
  0
LINE
  8
0
 62
7
 10
-2.64447541E+02
 20
-1.92857377E+01
 11
-2.64447541E+02
 21
2.07142623E+01
  0
LINE
  8
0
 62
7
 10
-2.01947541E+02
 20
-1.92857377E+01
 11
-2.01947541E+02
 21
2.07142623E+01
  0
LINE
  8
0
 62
7
 10
-1.39447541E+02
 20
-1.92857377E+01
 11
-1.39447541E+02
 21
2.07142623E+01
  0
LINE
  8
0
 62
7
 10
-7.69475410E+01
 20
-1.92857377E+01
 11
-7.69475410E+01
 21
2.07142623E+01
  0
LINE
  8
0
 62
7
 10
-1.44475410E+01
 20
-1.92857377E+01
 11
-1.44475410E+01
 21
2.07142623E+01
  0
LINE
  8
0
 62
7
 10
4.80524590E+01
 20
-1.92857377E+01
 11
4.80524590E+01
 21
2.07142623E+01
  0
LINE
  8
0
 62
7
 10
1.10552459E+02
 20
-1.92857377E+01
 11
1.10552459E+02
 21
2.07142623E+01
  0
LINE
  8
0
 62
7
 10
1.73052459E+02
 20
-1.92857377E+01
 11
1.73052459E+02
 21
2.07142623E+01
  0
LINE
  8
0
 62
7
 10
2.35552459E+02
 20
-1.92857377E+01
 11
2.35552459E+02
 21
2.07142623E+01
  0
LINE
  8
0
 62
7
 10
2.98052459E+02
 20
-1.92857377E+01
 11
2.98052459E+02
 21
2.07142623E+01
  0
LINE
  8
0
 62
7
 10
3.60552459E+02
 20
-1.92857377E+01
 11
3.60552459E+02
 21
2.07142623E+01
  0
LINE
  8
0
 62
7
 10
4.23052459E+02
 20
-1.92857377E+01
 11
4.23052459E+02
 21
2.07142623E+01
  0
LINE
  8
0
 62
7
 10
4.85552459E+02
 20
-1.92857377E+01
 11
4.85552459E+02
 21
2.07142623E+01
  0
LINE
  8
0
 62
7
 10
5.48052459E+02
 20
-1.92857377E+01
 11
5.48052459E+02
 21
2.07142623E+01
  0
TEXT
  8
0
 62
7
 10
-4.31830354E+02
 20
4.46426230E+00
 40
1.25000000E+01
  1
50
 41
1.00000000E+00
  7
MONOTXT
  0
TEXT
  8
0
 62
7
 10
-3.69330354E+02
 20
4.46426230E+00
 40
1.25000000E+01
  1
75
 41
1.00000000E+00
  7
MONOTXT
  0
TEXT
  8
0
 62
7
 10
-3.13080354E+02
 20
4.46426230E+00
 40
1.25000000E+01
  1
100
 41
1.00000000E+00
  7
MONOTXT
  0
TEXT
  8
0
 62
7
 10
-2.50580354E+02
 20
4.46426230E+00
 40
1.25000000E+01
  1
150
 41
1.00000000E+00
  7
MONOTXT
  0
TEXT
  8
0
 62
7
 10
-1.88080354E+02
 20
4.46426230E+00
 40
1.25000000E+01
  1
200
 41
1.00000000E+00
  7
MONOTXT
  0
TEXT
  8
0
 62
7
 10
-1.25580354E+02
 20
4.46426230E+00
 40
1.25000000E+01
  1
250
 41
1.00000000E+00
  7
MONOTXT
  0
TEXT
  8
0
 62
7
 10
-6.30803535E+01
 20
4.46426230E+00
 40
1.25000000E+01
  1
300
 41
1.00000000E+00
  7
MONOTXT
  0
TEXT
  8
0
 62
7
 10
-5.80353480E-01
 20
4.46426230E+00
 40
1.25000000E+01
  1
350
 41
1.00000000E+00
  7
MONOTXT
  0
TEXT
  8
0
 62
7
 10
6.19196465E+01
 20
4.46426230E+00
 40
1.25000000E+01
  1
400
 41
1.00000000E+00
  7
MONOTXT
  0
TEXT
  8
0
 62
7
 10
1.24419646E+02
 20
4.46426230E+00
 40
1.25000000E+01
  1
450
 41
1.00000000E+00
  7
MONOTXT
  0
TEXT
  8
0
 62
7
 10
1.86919646E+02
 20
4.46426230E+00
 40
1.25000000E+01
  1
500
 41
1.00000000E+00
  7
MONOTXT
  0
TEXT
  8
0
 62
7
 10
2.49419646E+02
 20
4.46426230E+00
 40
1.25000000E+01
  1
600
 41
1.00000000E+00
  7
MONOTXT
  0
TEXT
  8
0
 62
7
 10
3.11919646E+02
 20
4.46426230E+00
 40
1.25000000E+01
  1
700
 41
1.00000000E+00
  7
MONOTXT
  0
TEXT
  8
0
 62
7
 10
3.74419646E+02
 20
4.46426230E+00
 40
1.25000000E+01
  1
800
 41
1.00000000E+00
  7
MONOTXT
  0
TEXT
  8
0
 62
7
 10
4.36919646E+02
 20
4.46426230E+00
 40
1.25000000E+01
  1
900
 41
1.00000000E+00
  7
MONOTXT
  0
TEXT
  8
0
 62
7
 10
4.93169646E+02
 20
4.46426230E+00
 40
1.25000000E+01
  1
1000
 41
1.00000000E+00
  7
MONOTXT
  0
TEXT
  8
0
 62
7
 10
-4.38080354E+02
 20
-1.55357377E+01
 40
1.25000000E+01
  1
-25
 41
1.00000000E+00
  7
MONOTXT
  0
TEXT
  8
0
 62
7
 10
-3.63080354E+02
 20
-1.55357377E+01
 40
1.25000000E+01
  1
0
 41
1.00000000E+00
  7
MONOTXT
  0
TEXT
  8
0
 62
7
 10
-3.06830354E+02
 20
-1.55357377E+01
 40
1.25000000E+01
  1
25
 41
1.00000000E+00
  7
MONOTXT
  0
TEXT
  8
0
 62
7
 10
-2.44330354E+02
 20
-1.55357377E+01
 40
1.25000000E+01
  1
75
 41
1.00000000E+00
  7
MONOTXT
  0
TEXT
  8
0
 62
7
 10
-1.88080354E+02
 20
-1.55357377E+01
 40
1.25000000E+01
  1
125
 41
1.00000000E+00
  7
MONOTXT
  0
TEXT
  8
0
 62
7
 10
-1.25580354E+02
 20
-1.55357377E+01
 40
1.25000000E+01
  1
175
 41
1.00000000E+00
  7
MONOTXT
  0
TEXT
  8
0
 62
7
 10
-6.30803535E+01
 20
-1.55357377E+01
 40
1.25000000E+01
  1
225
 41
1.00000000E+00
  7
MONOTXT
  0
TEXT
  8
0
 62
7
 10
-5.80353480E-01
 20
-1.55357377E+01
 40
1.25000000E+01
  1
275
 41
1.00000000E+00
  7
MONOTXT
  0
TEXT
  8
0
 62
7
 10
6.19196465E+01
 20
-1.55357377E+01
 40
1.25000000E+01
  1
325
 41
1.00000000E+00
  7
MONOTXT
  0
TEXT
  8
0
 62
7
 10
1.24419646E+02
 20
-1.55357377E+01
 40
1.25000000E+01
  1
375
 41
1.00000000E+00
  7
MONOTXT
  0
TEXT
  8
0
 62
7
 10
1.86919646E+02
 20
-1.55357377E+01
 40
1.25000000E+01
  1
425
 41
1.00000000E+00
  7
MONOTXT
  0
TEXT
  8
0
 62
7
 10
2.49419646E+02
 20
-1.55357377E+01
 40
1.25000000E+01
  1
525
 41
1.00000000E+00
  7
MONOTXT
  0
TEXT
  8
0
 62
7
 10
3.11919646E+02
 20
-1.55357377E+01
 40
1.25000000E+01
  1
625
 41
1.00000000E+00
  7
MONOTXT
  0
TEXT
  8
0
 62
7
 10
3.74419646E+02
 20
-1.55357377E+01
 40
1.25000000E+01
  1
725
 41
1.00000000E+00
  7
MONOTXT
  0
TEXT
  8
0
 62
7
 10
4.36919646E+02
 20
-1.55357377E+01
 40
1.25000000E+01
  1
825
 41
1.00000000E+00
  7
MONOTXT
  0
TEXT
  8
0
 62
7
 10
4.99419646E+02
 20
-1.55357377E+01
 40
1.25000000E+01
  1
925
 41
1.00000000E+00
  7
MONOTXT
  0
TEXT
  8
0
 62
7
 10
-7.55803535E+01
 20
2.94642623E+01
 40
1.25000000E+01
  1
STRETCH LIST
 41
1.05263158E+00
  7
MONOTXT
  0
TEXT
  8
0
 62
7
 10
4.94419646E+02
 20
2.94642623E+01
 40
1.25000000E+01
  1
(mm)
 41
1.00000000E+00
  7
MONOTXT
  0
LINE
  8
0
  6
CENTER
 62
2
 10
-1.06999998E+02
 20
-1.81499969E+02
 11
-1.37524473E+02
 21
-1.81499969E+02
  0
LINE
  8
0
 62
7
 10
4.38500002E+02
 20
-4.35999985E+02
 11
4.50000002E+02
 21
-4.35999985E+02
  0
LINE
  8
0
 62
7
 10
4.38500002E+02
 20
-4.26999962E+02
 11
4.50000002E+02
 21
-4.26999962E+02
  0
LINE
  8
0
 62
7
 10
4.04000002E+02
 20
-4.19999977E+02
 11
3.74389257E+02
 21
-4.19999977E+02
  0
LINE
  8
0
 62
7
 10
3.65151649E+02
 20
-4.35999985E+02
 11
4.23500002E+02
 21
-4.35999985E+02
  0
LINE
  8
0
 62
7
 10
3.70347814E+02
 20
-4.26999962E+02
 11
4.23500002E+02
 21
-4.26999962E+02
  0
LINE
  8
0
 62
2
 10
7.11499971E+02
 20
-4.61320015E+02
 11
6.99999956E+02
 21
-4.61320015E+02
  0
LINE
  8
0
 62
7
 10
7.11499971E+02
 20
-4.60500008E+02
 11
6.99999956E+02
 21
-4.60500008E+02
  0
LINE
  8
0
 62
4
 10
7.25499971E+02
 20
-4.55500000E+02
 11
7.25499971E+02
 21
-4.73500000E+02
  0
LINE
  8
0
 62
4
 10
7.23892275E+02
 20
-4.63107697E+02
 11
7.13107668E+02
 21
-4.63107697E+02
  0
LINE
  8
0
 62
4
 10
7.23892275E+02
 20
-4.52715393E+02
 11
7.13107668E+02
 21
-4.52715393E+02
  0
LINE
  8
0
 62
4
 10
7.25499980E+02
 20
-4.55500001E+02
 11
7.23892302E+02
 21
-4.52715392E+02
  0
LINE
  8
0
 62
4
 10
7.11499971E+02
 20
-4.55499988E+02
 11
7.13107652E+02
 21
-4.52715366E+02
  0
LINE
  8
0
 62
4
 10
7.11499971E+02
 20
-4.55500000E+02
 11
7.11499971E+02
 21
-4.73500000E+02
  0
ARC
  8
0
 62
4
 10
7.45892237E+02
 20
-4.73500000E+02
 40
3.43922653E+01
 50
1.62412085E+02
 51
1.80000000E+02
  0
ARC
  8
0
 62
4
 10
7.20700926E+02
 20
-4.57911545E+02
 40
9.20095253E+00
 50
1.45615762E+02
 51
2.14384293E+02
  0
ARC
  8
0
 62
4
 10
6.91107706E+02
 20
-4.73500000E+02
 40
3.43922653E+01
 50
0.00000000E+00
 51
1.75879507E+01
  0
ARC
  8
0
 62
4
 10
7.16299017E+02
 20
-4.57911545E+02
 40
9.20095253E+00
 50
3.25615743E+02
 51
3.43842738E+01
  0
ARC
  8
0
 62
7
 10
6.99999956E+02
 20
-4.73499985E+02
 40
1.50000248E+01
 50
1.50073400E+02
 51
1.80000058E+02
  0
ARC
  8
0
 62
7
 10
6.82499956E+02
 20
-4.50999985E+02
 40
5.00000000E-01
 50
3.59721787E-05
 51
9.00000179E+01
  0
ARC
  8
0
 62
7
 10
4.85499971E+02
 20
-4.18619713E+02
 40
5.00000000E-01
 50
3.59721787E-05
 51
8.89997505E+01
  0
ARC
  8
0
 62
7
 10
6.63499956E+02
 20
-4.49000000E+02
 40
5.00000000E-01
 50
3.59721787E-05
 51
9.00000179E+01
  0
ARC
  8
0
 62
7
 10
6.77499956E+02
 20
-4.49971725E+02
 40
5.00000000E-01
 50
3.59721787E-05
 51
8.79992642E+01
  0
ARC
  8
0
 62
7
 10
4.85499987E+02
 20
-4.18619743E+02
 40
5.00000000E-01
 50
3.59721787E-05
 51
8.89997436E+01
  0
ARC
  8
0
 62
7
 10
6.08999987E+02
 20
-4.73500000E+02
 40
3.30000043E+00
 50
0.00000000E+00
 51
1.80000000E+02
  0
ARC
  8
0
 62
7
 10
6.08999987E+02
 20
-4.73500000E+02
 40
8.00000000E+00
 50
0.00000000E+00
 51
1.80000000E+02
  0
ARC
  8
0
 62
7
 10
6.08999987E+02
 20
-4.73500000E+02
 40
4.00000000E+00
 50
0.00000000E+00
 51
1.80000000E+02
  0
LINE
  8
0
 62
2
 10
6.91999929E+02
 20
-4.73500000E+02
 11
6.94777711E+02
 21
-4.69342571E+02
  0
LINE
  8
0
 62
7
 10
6.96999949E+02
 20
-4.73499998E+02
 11
6.92999934E+02
 21
-4.66016629E+02
  0
LINE
  8
0
 62
2
 10
6.86999954E+02
 20
-4.66016635E+02
 11
6.91999956E+02
 21
-4.73500000E+02
  0
LINE
  8
0
 62
7
 10
6.96999946E+02
 20
-4.60500014E+02
 11
6.92999933E+02
 21
-4.58499969E+02
  0
LINE
  8
0
 62
7
 10
6.86999956E+02
 20
-4.73500000E+02
 11
6.86999956E+02
 21
-4.66016624E+02
  0
LINE
  8
0
 62
7
 10
6.92999956E+02
 20
-4.66016624E+02
 11
6.92999956E+02
 21
-4.58499962E+02
  0
LINE
  8
0
 62
7
 10
6.92999956E+02
 20
-4.66016624E+02
 11
6.86999956E+02
 21
-4.66016624E+02
  0
LINE
  8
0
 62
7
 10
6.63999956E+02
 20
-4.49000046E+02
 11
6.63999956E+02
 21
-4.73500000E+02
  0
LINE
  8
0
 62
7
 10
6.77999956E+02
 20
-4.49971725E+02
 11
6.77999956E+02
 21
-4.73500000E+02
  0
LINE
  8
0
 62
7
 10
6.82999956E+02
 20
-4.73500000E+02
 11
6.82999956E+02
 21
-4.50999985E+02
  0
LINE
  8
0
  6
CENTER
 62
2
 10
3.67749716E+02
 20
-4.31500000E+02
 11
4.88524477E+02
 21
-4.31500000E+02
  0
LINE
  8
0
 62
7
 10
6.99999956E+02
 20
-4.61320015E+02
 11
6.96999956E+02
 21
-4.61320015E+02
  0
LINE
  8
0
 62
2
 10
7.36320024E+02
 20
-4.61320015E+02
 11
7.25499971E+02
 21
-4.61320015E+02
  0
LINE
  8
0
 62
7
 10
7.36999836E+02
 20
-4.62000182E+02
 11
7.35499824E+02
 21
-4.60500170E+02
  0
LINE
  8
0
 62
7
 10
7.35499956E+02
 20
-4.73500000E+02
 11
7.35499956E+02
 21
-4.60500008E+02
  0
LINE
  8
0
 62
7
 10
7.35500017E+02
 20
-4.60500008E+02
 11
7.25499971E+02
 21
-4.60500008E+02
  0
LINE
  8
0
 62
7
 10
6.99999956E+02
 20
-4.73500000E+02
 11
6.99999956E+02
 21
-4.60500008E+02
  0
LINE
  8
0
 62
7
 10
7.36999987E+02
 20
-4.73500000E+02
 11
7.36999987E+02
 21
-4.62000305E+02
  0
LINE
  8
0
 62
7
 10
6.96999956E+02
 20
-4.73500000E+02
 11
6.96999956E+02
 21
-4.60500008E+02
  0
LINE
  8
0
 62
7
 10
6.82499956E+02
 20
-4.50499985E+02
 11
6.77999956E+02
 21
-4.50499985E+02
  0
LINE
  8
0
 62
7
 10
6.77999956E+02
 20
-4.49936752E+02
 11
6.77999956E+02
 21
-4.50000000E+02
  0
LINE
  8
0
 62
7
 10
6.77517465E+02
 20
-4.49472073E+02
 11
6.64000008E+02
 21
-4.49000033E+02
  0
LINE
  8
0
 62
7
 10
4.85508693E+02
 20
-4.18119808E+02
 11
4.49999957E+02
 21
-4.17500001E+02
  0
LINE
  8
0
 62
7
 10
4.81999987E+02
 20
-4.18058540E+02
 11
4.81999987E+02
 21
-4.17499992E+02
  0
LINE
  8
0
 62
7
 10
4.81999987E+02
 20
-4.17499992E+02
 11
4.49999971E+02
 21
-4.17499992E+02
  0
LINE
  8
0
 62
7
 10
6.63499956E+02
 20
-4.48499985E+02
 11
6.61999956E+02
 21
-4.48499985E+02
  0
LINE
  8
0
 62
7
 10
4.50000002E+02
 20
-4.19999977E+02
 11
4.43000002E+02
 21
-4.19999977E+02
  0
LINE
  8
0
  6
CENTER
 62
2
 10
4.65999987E+02
 20
-4.30199966E+02
 11
4.65999987E+02
 21
-4.15236351E+02
  0
LINE
  8
0
 62
7
 10
6.92999956E+02
 20
-4.58499962E+02
 11
6.82999956E+02
 21
-4.58499962E+02
  0
LINE
  8
0
 62
7
 10
4.50000002E+02
 20
-4.17499992E+02
 11
4.50000002E+02
 21
-4.73500000E+02
  0
LINE
  8
0
 62
7
 10
4.85999987E+02
 20
-4.18619713E+02
 11
4.85999987E+02
 21
-4.73500000E+02
  0
LINE
  8
0
 62
7
 10
6.61999956E+02
 20
-4.14170021E+02
 11
6.25999987E+02
 21
-4.14170021E+02
  0
LINE
  8
0
 62
7
 10
5.24999926E+02
 20
-4.14170021E+02
 11
4.85999987E+02
 21
-4.14170021E+02
  0
LINE
  8
0
 62
7
 10
4.85999987E+02
 20
-4.04500023E+02
 11
4.85999987E+02
 21
-4.73500000E+02
  0
LINE
  8
0
 62
7
 10
6.08999854E+02
 20
-4.71190667E+02
 11
6.10999868E+02
 21
-4.72345376E+02
  0
LINE
  8
0
  6
DASHED
 62
7
 10
5.18036501E+02
 20
-4.14200035E+02
 11
5.01963503E+02
 21
-4.14200035E+02
  0
LINE
  8
0
  6
CENTER
 62
2
 10
5.10000002E+02
 20
-4.26999992E+02
 11
5.10000002E+02
 21
-4.02047401E+02
  0
LINE
  8
0
 62
7
 10
6.25999987E+02
 20
-4.27000023E+02
 11
5.24999956E+02
 21
-4.27000023E+02
  0
LINE
  8
0
  6
CENTER
 62
2
 10
6.68348162E+02
 20
-4.21500038E+02
 11
4.78870165E+02
 21
-4.21500038E+02
  0
LINE
  8
0
 62
7
 10
6.25999987E+02
 20
-4.16000008E+02
 11
5.24999956E+02
 21
-4.16000008E+02
  0
LINE
  8
0
 62
7
 10
6.05536301E+02
 20
-4.67500247E+02
 11
6.02072217E+02
 21
-4.73500227E+02
  0
LINE
  8
0
 62
7
 10
6.06999780E+02
 20
-4.72345035E+02
 11
6.08999794E+02
 21
-4.71190326E+02
  0
LINE
  8
0
 62
7
 10
6.25999987E+02
 20
-4.06500038E+02
 11
5.24999926E+02
 21
-4.06500038E+02
  0
LINE
  8
0
 62
7
 10
6.25999987E+02
 20
-4.04500023E+02
 11
6.25999987E+02
 21
-4.73500000E+02
  0
LINE
  8
0
 62
7
 10
6.61999956E+02
 20
-4.04500023E+02
 11
6.61999956E+02
 21
-4.73500000E+02
  0
LINE
  8
0
 62
7
 10
5.25000002E+02
 20
-4.04500023E+02
 11
5.25000002E+02
 21
-4.73500000E+02
  0
LINE
  8
0
 62
7
 10
6.12464496E+02
 20
-4.67499893E+02
 11
6.15928601E+02
 21
-4.73499909E+02
  0
LINE
  8
0
 62
7
 10
6.05535814E+02
 20
-4.67500015E+02
 11
6.12464067E+02
 21
-4.67500015E+02
  0
LINE
  8
0
 62
7
 10
5.24999926E+02
 20
-4.04500023E+02
 11
4.85999987E+02
 21
-4.04500023E+02
  0
LINE
  8
0
 62
7
 10
6.61999956E+02
 20
-4.04500023E+02
 11
6.25999987E+02
 21
-4.04500023E+02
  0
LINE
  8
0
  6
CENTER
 62
2
 10
6.08999987E+02
 20
-4.61689392E+02
 11
6.08999987E+02
 21
-4.73500000E+02
  0
LINE
  8
0
 62
7
 10
6.06999956E+02
 20
-4.72344986E+02
 11
6.06999956E+02
 21
-4.73500000E+02
  0
LINE
  8
0
 62
7
 10
6.10999956E+02
 20
-4.73500000E+02
 11
6.10999956E+02
 21
-4.72345291E+02
  0
LINE
  8
0
 62
7
 10
6.02072534E+02
 20
-4.73500000E+02
 11
6.02072322E+02
 21
-4.73499632E+02
  0
LINE
  8
0
  6
CENTER
 62
2
 10
7.41507341E+02
 20
-4.73500000E+02
 11
3.43501005E+02
 21
-4.73500000E+02
  0
LINE
  8
0
 62
2
 10
-9.21620826E+01
 20
-2.89118011E+02
 11
-1.65175419E+01
 21
-1.58097824E+02
  0
LINE
  8
0
 62
7
 10
-9.89999981E+01
 20
-1.90119611E+02
 11
-9.89999981E+01
 21
-2.79500031E+02
  0
LINE
  8
0
 62
7
 10
1.59571903E+02
 20
-4.04500023E+02
 11
8.61703968E+01
 21
-4.04500023E+02
  0
LINE
  8
0
  6
CENTER
 62
2
 10
-3.90507338E+02
 20
-4.73500000E+02
 11
-5.42775061E+01
 21
-4.73500000E+02
  0
LINE
  8
0
 62
7
 10
-2.65999891E+02
 20
-2.95500015E+02
 11
-2.49999937E+02
 21
-2.95500015E+02
  0
LINE
  8
0
 62
7
 10
-2.49999937E+02
 20
-2.90500061E+02
 11
-2.49999937E+02
 21
-2.95500015E+02
  0
LINE
  8
0
 62
7
 10
-2.65999922E+02
 20
-2.90500061E+02
 11
-2.65999922E+02
 21
-2.95500015E+02
  0
LINE
  8
0
 62
7
 10
-2.61299910E+02
 20
-3.03000015E+02
 11
-2.54699919E+02
 21
-3.03000015E+02
  0
LINE
  8
0
 62
7
 10
-2.63749891E+02
 20
-3.02000031E+02
 11
-2.52249891E+02
 21
-3.02000031E+02
  0
LINE
  8
0
 62
7
 10
-2.51049894E+02
 20
-2.95500015E+02
 11
-2.51049894E+02
 21
-3.01307205E+02
  0
LINE
  8
0
 62
7
 10
-2.64949903E+02
 20
-2.95500015E+02
 11
-2.64949903E+02
 21
-3.01307205E+02
  0
LINE
  8
0
 62
7
 10
-2.52249666E+02
 20
-3.02000453E+02
 11
-2.51049657E+02
 21
-3.01307628E+02
  0
LINE
  8
0
 62
7
 10
-2.64950263E+02
 20
-3.01307225E+02
 11
-2.63750307E+02
 21
-3.02000020E+02
  0
LINE
  8
0
 62
7
 10
-2.61474928E+02
 20
-2.95500015E+02
 11
-2.61474928E+02
 21
-3.01307205E+02
  0
LINE
  8
0
 62
7
 10
-2.54524900E+02
 20
-2.95500015E+02
 11
-2.54524900E+02
 21
-3.01307205E+02
  0
LINE
  8
0
 62
7
 10
-2.61999952E+02
 20
-3.02000031E+02
 11
-2.61999952E+02
 21
-3.02300018E+02
  0
LINE
  8
0
 62
7
 10
-2.53999922E+02
 20
-3.02000031E+02
 11
-2.53999922E+02
 21
-3.02300018E+02
  0
LINE
  8
0
 62
2
 10
-2.61299940E+02
 20
-3.02000031E+02
 11
-2.61299940E+02
 21
-3.03000015E+02
  0
LINE
  8
0
 62
2
 10
-2.54699919E+02
 20
-3.02000031E+02
 11
-2.54699919E+02
 21
-3.03000015E+02
  0
LINE
  8
0
 62
7
 10
-2.61999922E+02
 20
-3.02300064E+02
 11
-2.53999922E+02
 21
-3.02300064E+02
  0
LINE
  8
0
 62
7
 10
-2.62000015E+02
 20
-3.02299839E+02
 11
-2.61300094E+02
 21
-3.02999760E+02
  0
LINE
  8
0
 62
7
 10
-2.54699385E+02
 20
-3.03000556E+02
 11
-2.53999390E+02
 21
-3.02300561E+02
  0
LINE
  8
0
 62
7
 10
-2.65999891E+02
 20
-1.51500031E+02
 11
-2.49999937E+02
 21
-1.51500031E+02
  0
LINE
  8
0
 62
7
 10
-2.49999937E+02
 20
-1.56500122E+02
 11
-2.49999937E+02
 21
-1.51500122E+02
  0
LINE
  8
0
  6
CENTER
 62
2
 10
-5.78499983E+02
 20
-4.01478630E+02
 11
-5.78499983E+02
 21
-4.73500000E+02
  0
LINE
  8
0
 62
7
 10
-2.65999922E+02
 20
-1.56500122E+02
 11
-2.65999922E+02
 21
-1.51500122E+02
  0
LINE
  8
0
 62
7
 10
-2.61299910E+02
 20
-1.44000031E+02
 11
-2.54699919E+02
 21
-1.44000031E+02
  0
LINE
  8
0
 62
7
 10
-2.63749891E+02
 20
-1.45000031E+02
 11
-2.52249891E+02
 21
-1.45000031E+02
  0
LINE
  8
0
 62
7
 10
-2.51049894E+02
 20
-1.51500122E+02
 11
-2.51049894E+02
 21
-1.45692932E+02
  0
LINE
  8
0
 62
7
 10
-2.64949903E+02
 20
-1.51500122E+02
 11
-2.64949903E+02
 21
-1.45692932E+02
  0
LINE
  8
0
 62
7
 10
-2.52250022E+02
 20
-1.45000257E+02
 11
-2.51050013E+02
 21
-1.45693082E+02
  0
LINE
  8
0
 62
7
 10
-2.64949506E+02
 20
-1.45693623E+02
 11
-2.63749497E+02
 21
-1.45000798E+02
  0
LINE
  8
0
 62
7
 10
-2.54524900E+02
 20
-1.51500122E+02
 11
-2.54524900E+02
 21
-1.45692932E+02
  0
LINE
  8
0
 62
7
 10
-2.61999952E+02
 20
-1.45000031E+02
 11
-2.61999952E+02
 21
-1.44700043E+02
  0
LINE
  8
0
 62
7
 10
-2.53999922E+02
 20
-1.45000031E+02
 11
-2.53999922E+02
 21
-1.44700043E+02
  0
LINE
  8
0
 62
2
 10
-2.61299940E+02
 20
-1.45000031E+02
 11
-2.61299940E+02
 21
-1.44000122E+02
  0
LINE
  8
0
 62
2
 10
-2.54699919E+02
 20
-1.45000031E+02
 11
-2.54699919E+02
 21
-1.44000122E+02
  0
LINE
  8
0
 62
7
 10
-2.61999922E+02
 20
-1.44700043E+02
 11
-2.53999922E+02
 21
-1.44700043E+02
  0
LINE
  8
0
 62
7
 10
-2.61999399E+02
 20
-1.44700601E+02
 11
-2.61299391E+02
 21
-1.44000594E+02
  0
LINE
  8
0
 62
7
 10
-2.54700023E+02
 20
-1.43999925E+02
 11
-2.54000102E+02
 21
-1.44699846E+02
  0
LINE
  8
0
 62
7
 10
-2.61474928E+02
 20
-1.51500122E+02
 11
-2.61474928E+02
 21
-1.45692932E+02
  0
LINE
  8
0
 62
7
 10
-5.06499983E+02
 20
-4.67500053E+02
 11
-4.99999983E+02
 21
-4.67500053E+02
  0
LINE
  8
0
 62
7
 10
-6.47499922E+02
 20
-4.65500046E+02
 11
-6.50499922E+02
 21
-4.65500046E+02
  0
LINE
  8
0
  6
CENTER
 62
2
 10
-6.63011274E+02
 20
-4.73500000E+02
 11
-4.94148695E+02
 21
-4.73500000E+02
  0
LINE
  8
0
 62
7
 10
-6.50499922E+02
 20
-4.67500053E+02
 11
-6.57000044E+02
 21
-4.67500053E+02
  0
LINE
  8
0
 62
7
 10
-5.06499922E+02
 20
-4.73500000E+02
 11
-5.06499922E+02
 21
-4.65500008E+02
  0
LINE
  8
0
 62
7
 10
-4.99999891E+02
 20
-4.73500000E+02
 11
-4.99999891E+02
 21
-4.67500015E+02
  0
LINE
  8
0
 62
7
 10
-2.51072530E+02
 20
-4.73500000E+02
 11
-2.51072318E+02
 21
-4.73499632E+02
  0
LINE
  8
0
 62
7
 10
-5.09499952E+02
 20
-4.65500046E+02
 11
-5.06499983E+02
 21
-4.65500046E+02
  0
LINE
  8
0
 62
7
 10
-6.57000044E+02
 20
-4.73500000E+02
 11
-6.57000044E+02
 21
-4.67500015E+02
  0
LINE
  8
0
 62
7
 10
-6.57999983E+02
 20
-4.73500000E+02
 11
-6.57999983E+02
 21
-4.70200058E+02
  0
LINE
  8
0
  6
CENTER
 62
2
 10
-2.57999891E+02
 20
-2.87521774E+02
 11
-2.57999891E+02
 21
-3.06087677E+02
  0
LINE
  8
0
 62
7
 10
-4.98999922E+02
 20
-4.73500000E+02
 11
-4.98999922E+02
 21
-4.70200058E+02
  0
LINE
  8
0
 62
7
 10
-2.59999952E+02
 20
-4.73500000E+02
 11
-2.59999952E+02
 21
-4.72345291E+02
  0
LINE
  8
0
 62
7
 10
-2.55999952E+02
 20
-4.72344986E+02
 11
-2.55999952E+02
 21
-4.73500000E+02
  0
LINE
  8
0
  6
CENTER
 62
2
 10
-2.57999983E+02
 20
-4.61689392E+02
 11
-2.57999983E+02
 21
-4.73500000E+02
  0
LINE
  8
0
 62
7
 10
-6.57000044E+02
 20
-4.69500061E+02
 11
-6.57300032E+02
 21
-4.69500061E+02
  0
LINE
  8
0
 62
7
 10
-2.74999983E+02
 20
-2.90500061E+02
 11
-1.73999922E+02
 21
-2.90500061E+02
  0
LINE
  8
0
 62
7
 10
-4.99999891E+02
 20
-4.69500061E+02
 11
-4.99700056E+02
 21
-4.69500061E+02
  0
LINE
  8
0
 62
2
 10
-4.99999891E+02
 20
-4.70200058E+02
 11
-4.98999983E+02
 21
-4.70200058E+02
  0
LINE
  8
0
 62
7
 10
-4.99699995E+02
 20
-4.73500000E+02
 11
-4.99699995E+02
 21
-4.69500061E+02
  0
LINE
  8
0
 62
7
 10
-6.50499861E+02
 20
-4.73500000E+02
 11
-6.50499861E+02
 21
-4.65500008E+02
  0
LINE
  8
0
  6
CENTER
 62
2
 10
-2.57999891E+02
 20
-1.58388702E+02
 11
-2.57999891E+02
 21
-1.41412384E+02
  0
LINE
  8
0
 62
7
 10
-4.98999881E+02
 20
-4.70199948E+02
 11
-4.99699867E+02
 21
-4.69499962E+02
  0
LINE
  8
0
 62
7
 10
-6.57300093E+02
 20
-4.73500000E+02
 11
-6.57300093E+02
 21
-4.69500061E+02
  0
LINE
  8
0
 62
2
 10
-6.57000044E+02
 20
-4.70200058E+02
 11
-6.57999922E+02
 21
-4.70200058E+02
  0
LINE
  8
0
 62
7
 10
-6.57999611E+02
 20
-4.70200633E+02
 11
-6.57299583E+02
 21
-4.69500604E+02
  0
LINE
  8
0
 62
7
 10
-2.74999983E+02
 20
-1.54500000E+02
 11
-2.74999983E+02
 21
-2.92500031E+02
  0
LINE
  8
0
 62
7
 10
-1.73999952E+02
 20
-1.54500000E+02
 11
-1.73999952E+02
 21
-2.92500031E+02
  0
LINE
  8
0
 62
7
 10
-3.10999952E+02
 20
-4.04500023E+02
 11
-2.74999983E+02
 21
-4.04500023E+02
  0
LINE
  8
0
 62
7
 10
-1.73999922E+02
 20
-4.04500023E+02
 11
-1.34999983E+02
 21
-4.04500023E+02
  0
LINE
  8
0
 62
7
 10
-3.10999952E+02
 20
-1.54500000E+02
 11
-3.10999952E+02
 21
-2.92500031E+02
  0
LINE
  8
0
 62
7
 10
-2.54535810E+02
 20
-4.67500015E+02
 11
-2.61464064E+02
 21
-4.67500015E+02
  0
LINE
  8
0
 62
7
 10
-2.61464492E+02
 20
-4.67499893E+02
 11
-2.64928597E+02
 21
-4.73499909E+02
  0
LINE
  8
0
 62
7
 10
-1.73999998E+02
 20
-4.04500023E+02
 11
-1.73999998E+02
 21
-4.73500000E+02
  0
LINE
  8
0
 62
7
 10
-3.10999952E+02
 20
-4.04500023E+02
 11
-3.10999952E+02
 21
-4.73500000E+02
  0
LINE
  8
0
 62
7
 10
-2.74999983E+02
 20
-4.04500023E+02
 11
-2.74999983E+02
 21
-4.73500000E+02
  0
LINE
  8
0
 62
7
 10
-2.74999983E+02
 20
-4.06500038E+02
 11
-1.73999922E+02
 21
-4.06500038E+02
  0
LINE
  8
0
 62
7
 10
-6.47499983E+02
 20
-4.14170433E+02
 11
-6.47499983E+02
 21
-4.73500000E+02
  0
LINE
  8
0
 62
7
 10
-6.37829512E+02
 20
-4.04500023E+02
 11
-5.19170362E+02
 21
-4.04500023E+02
  0
LINE
  8
0
 62
7
 10
-2.74999983E+02
 20
-1.56500031E+02
 11
-1.73999922E+02
 21
-1.56500031E+02
  0
LINE
  8
0
 62
7
 10
-2.55999776E+02
 20
-4.72345035E+02
 11
-2.57999790E+02
 21
-4.71190326E+02
  0
LINE
  8
0
 62
7
 10
-2.54536298E+02
 20
-4.67500247E+02
 11
-2.51072213E+02
 21
-4.73500227E+02
  0
LINE
  8
0
 62
7
 10
-2.74999983E+02
 20
-4.16000008E+02
 11
-1.73999952E+02
 21
-4.16000008E+02
  0
LINE
  8
0
  6
CENTER
 62
2
 10
-3.17348158E+02
 20
-4.21500038E+02
 11
-1.27870161E+02
 21
-4.21500038E+02
  0
LINE
  8
0
 62
7
 10
-2.74999983E+02
 20
-4.27000023E+02
 11
-1.73999952E+02
 21
-4.27000023E+02
  0
LINE
  8
0
  6
CENTER
 62
2
 10
-3.91947920E+02
 20
-2.23500000E+02
 11
-5.42775061E+01
 21
-2.23500000E+02
  0
LINE
  8
0
  6
CENTER
 62
2
 10
-1.58999998E+02
 20
-4.26999992E+02
 11
-1.58999998E+02
 21
-4.02047401E+02
  0
LINE
  8
0
 62
7
 10
-1.34999983E+02
 20
-1.54500000E+02
 11
-1.34999983E+02
 21
-2.92500031E+02
  0
LINE
  8
0
  6
CENTER
 62
2
 10
-1.72800917E+02
 20
-2.08500000E+02
 11
-1.44788374E+02
 21
-2.08500000E+02
  0
LINE
  8
0
  6
CENTER
 62
2
 10
-1.58999998E+02
 20
-2.21756989E+02
 11
-1.58999998E+02
 21
-1.93498749E+02
  0
LINE
  8
0
  6
DASHED
 62
7
 10
-1.67036497E+02
 20
-4.14200035E+02
 11
-1.50963499E+02
 21
-4.14200035E+02
  0
LINE
  8
0
  6
CENTER
 62
2
 10
-2.88999983E+02
 20
-1.99221039E+02
 11
-2.88999983E+02
 21
-2.17786804E+02
  0
LINE
  8
0
 62
7
 10
-2.85999840E+02
 20
-2.06767474E+02
 11
-2.88999932E+02
 21
-2.05035381E+02
  0
LINE
  8
0
 62
7
 10
-2.89001058E+02
 20
-2.05033952E+02
 11
-2.92001051E+02
 21
-2.06765988E+02
  0
LINE
  8
0
 62
7
 10
-2.91999952E+02
 20
-2.10232086E+02
 11
-2.91999952E+02
 21
-2.06767944E+02
  0
LINE
  8
0
 62
7
 10
-2.88999898E+02
 20
-2.11963575E+02
 11
-2.91999858E+02
 21
-2.10231558E+02
  0
LINE
  8
0
 62
7
 10
-2.86001094E+02
 20
-2.10230195E+02
 11
-2.89001100E+02
 21
-2.11962239E+02
  0
LINE
  8
0
 62
7
 10
-2.85999952E+02
 20
-2.06767944E+02
 11
-2.85999952E+02
 21
-2.10232086E+02
  0
LINE
  8
0
  6
CENTER
 62
2
 10
-2.98059828E+02
 20
-2.08500000E+02
 11
-2.79715071E+02
 21
-2.08500000E+02
  0
LINE
  8
0
 62
7
 10
-5.09499952E+02
 20
-4.14170433E+02
 11
-5.09499952E+02
 21
-4.73500000E+02
  0
LINE
  8
0
  6
CENTER
 62
2
 10
-3.17348158E+02
 20
-2.75500031E+02
 11
-1.27870161E+02
 21
-2.75500031E+02
  0
LINE
  8
0
 62
7
 10
-2.74999983E+02
 20
-2.70000031E+02
 11
-1.73999952E+02
 21
-2.70000031E+02
  0
LINE
  8
0
 62
7
 10
-2.74999983E+02
 20
-2.81000000E+02
 11
-1.73999952E+02
 21
-2.81000000E+02
  0
LINE
  8
0
 62
7
 10
-2.74999983E+02
 20
-1.66000000E+02
 11
-1.73999952E+02
 21
-1.66000000E+02
  0
LINE
  8
0
 62
7
 10
-2.74999983E+02
 20
-1.77000000E+02
 11
-1.73999952E+02
 21
-1.77000000E+02
  0
LINE
  8
0
  6
CENTER
 62
2
 10
-3.17348158E+02
 20
-1.71500031E+02
 11
-1.27870161E+02
 21
-1.71500031E+02
  0
LINE
  8
0
 62
7
 10
-2.57999850E+02
 20
-4.71190667E+02
 11
-2.59999864E+02
 21
-4.72345376E+02
  0
LINE
  8
0
 62
7
 10
-5.32499983E+02
 20
-4.24964119E+02
 11
-5.32499983E+02
 21
-4.18035912E+02
  0
LINE
  8
0
 62
7
 10
-5.32500174E+02
 20
-4.18035343E+02
 11
-5.26500293E+02
 21
-4.14571300E+02
  0
LINE
  8
0
 62
7
 10
-5.26499865E+02
 20
-4.14571795E+02
 11
-5.20499826E+02
 21
-4.18035929E+02
  0
LINE
  8
0
 62
7
 10
-5.20499922E+02
 20
-4.18035912E+02
 11
-5.20499922E+02
 21
-4.24964119E+02
  0
LINE
  8
0
 62
7
 10
-5.26500388E+02
 20
-4.28427736E+02
 11
-5.20500349E+02
 21
-4.24963602E+02
  0
LINE
  8
0
 62
7
 10
-5.32500056E+02
 20
-4.24964095E+02
 11
-5.26500017E+02
 21
-4.28428229E+02
  0
LINE
  8
0
  6
CENTER
 62
2
 10
-5.26499922E+02
 20
-4.43266617E+02
 11
-5.26499922E+02
 21
-3.99876427E+02
  0
LINE
  8
0
  6
CENTER
 62
2
 10
-5.47705824E+02
 20
-4.21500038E+02
 11
-5.03641096E+02
 21
-4.21500038E+02
  0
LINE
  8
0
 62
7
 10
-6.24499922E+02
 20
-4.24964119E+02
 11
-6.24499922E+02
 21
-4.18035912E+02
  0
LINE
  8
0
 62
7
 10
-1.34999983E+02
 20
-4.04500023E+02
 11
-1.34999983E+02
 21
-4.73500000E+02
  0
LINE
  8
0
 62
7
 10
-6.30500257E+02
 20
-4.14571266E+02
 11
-6.36500322E+02
 21
-4.18035415E+02
  0
LINE
  8
0
 62
7
 10
-6.24500081E+02
 20
-4.18035918E+02
 11
-6.30499988E+02
 21
-4.14571860E+02
  0
LINE
  8
0
 62
7
 10
-6.36499922E+02
 20
-4.18035912E+02
 11
-6.36499922E+02
 21
-4.24964119E+02
  0
LINE
  8
0
 62
7
 10
-6.30500139E+02
 20
-4.28428295E+02
 11
-6.36500046E+02
 21
-4.24964237E+02
  0
LINE
  8
0
  6
CENTER
 62
2
 10
-6.09294050E+02
 20
-4.21500038E+02
 11
-6.53358747E+02
 21
-4.21500038E+02
  0
LINE
  8
0
  6
CENTER
 62
2
 10
-6.30499922E+02
 20
-4.43266617E+02
 11
-6.30499922E+02
 21
-3.99876427E+02
  0
LINE
  8
0
 62
7
 10
-6.24500365E+02
 20
-4.24963598E+02
 11
-6.30500377E+02
 21
-4.28427717E+02
  0
LINE
  8
0
 62
7
 10
-1.34999983E+02
 20
-2.78380280E+02
 11
-1.34999983E+02
 21
-1.68619720E+02
  0
LINE
  8
0
 62
7
 10
-3.10999952E+02
 20
-1.54500000E+02
 11
-2.74999983E+02
 21
-1.54500000E+02
  0
LINE
  8
0
 62
7
 10
-3.10999952E+02
 20
-2.92500031E+02
 11
-2.74999983E+02
 21
-2.92500031E+02
  0
LINE
  8
0
 62
7
 10
-1.73999922E+02
 20
-2.92500031E+02
 11
-1.34999983E+02
 21
-2.92500031E+02
  0
LINE
  8
0
 62
7
 10
-1.73999922E+02
 20
-1.54500000E+02
 11
-1.34999983E+02
 21
-1.54500000E+02
  0
LINE
  8
0
 62
7
 10
-1.73999922E+02
 20
-4.14170021E+02
 11
-1.34999983E+02
 21
-4.14170021E+02
  0
LINE
  8
0
 62
7
 10
-3.10999952E+02
 20
-4.14170021E+02
 11
-2.74999983E+02
 21
-4.14170021E+02
  0
LINE
  8
0
 62
7
 10
2.17499895E+02
 20
-4.73500000E+02
 11
2.17499895E+02
 21
-4.65500008E+02
  0
LINE
  8
0
 62
7
 10
2.14499956E+02
 20
-4.65500046E+02
 11
2.17499987E+02
 21
-4.65500046E+02
  0
LINE
  8
0
 62
7
 10
2.17499987E+02
 20
-4.67500053E+02
 11
2.24000078E+02
 21
-4.67500053E+02
  0
LINE
  8
0
 62
7
 10
2.24000078E+02
 20
-4.73500000E+02
 11
2.24000078E+02
 21
-4.67500015E+02
  0
LINE
  8
0
  6
CENTER
 62
2
 10
2.30011339E+02
 20
-4.73500000E+02
 11
6.11487370E+01
 21
-4.73500000E+02
  0
LINE
  8
0
 62
7
 10
2.25000048E+02
 20
-4.73500000E+02
 11
2.25000048E+02
 21
-4.70200058E+02
  0
LINE
  8
0
 62
7
 10
2.24000078E+02
 20
-4.69500061E+02
 11
2.24300066E+02
 21
-4.69500061E+02
  0
LINE
  8
0
 62
2
 10
2.24000078E+02
 20
-4.70200058E+02
 11
2.24999987E+02
 21
-4.70200058E+02
  0
LINE
  8
0
 62
7
 10
2.24300127E+02
 20
-4.73500000E+02
 11
2.24300127E+02
 21
-4.69500061E+02
  0
LINE
  8
0
 62
7
 10
2.24999561E+02
 20
-4.70200664E+02
 11
2.24299500E+02
 21
-4.69500603E+02
  0
LINE
  8
0
  6
CENTER
 62
2
 10
1.45500002E+02
 20
-4.01478630E+02
 11
1.45500002E+02
 21
-4.73500000E+02
  0
LINE
  8
0
 62
7
 10
2.14500017E+02
 20
-4.14170433E+02
 11
2.14500017E+02
 21
-4.73500000E+02
  0
LINE
  8
0
 62
7
 10
7.34999561E+01
 20
-4.73500000E+02
 11
7.34999561E+01
 21
-4.65500008E+02
  0
LINE
  8
0
 62
7
 10
7.64999866E+01
 20
-4.65500046E+02
 11
7.35000324E+01
 21
-4.65500046E+02
  0
LINE
  8
0
 62
7
 10
6.59999638E+01
 20
-4.73500000E+02
 11
6.59999638E+01
 21
-4.70200058E+02
  0
LINE
  8
0
 62
7
 10
6.69999638E+01
 20
-4.73500000E+02
 11
6.69999638E+01
 21
-4.67500015E+02
  0
LINE
  8
0
 62
7
 10
6.69999485E+01
 20
-4.69500061E+02
 11
6.67001133E+01
 21
-4.69500061E+02
  0
LINE
  8
0
 62
2
 10
6.69999485E+01
 20
-4.70200058E+02
 11
6.60000401E+01
 21
-4.70200058E+02
  0
LINE
  8
0
 62
7
 10
6.67000370E+01
 20
-4.73500000E+02
 11
6.67000370E+01
 21
-4.69500061E+02
  0
LINE
  8
0
 62
7
 10
6.60000696E+01
 20
-4.70199961E+02
 11
6.67000012E+01
 21
-4.69500030E+02
  0
LINE
  8
0
 62
7
 10
7.35000324E+01
 20
-4.67500053E+02
 11
6.70000248E+01
 21
-4.67500053E+02
  0
LINE
  8
0
 62
7
 10
7.64999866E+01
 20
-4.14170433E+02
 11
7.64999866E+01
 21
-4.73500000E+02
  0
LINE
  8
0
 62
7
 10
2.04829546E+02
 20
-4.04500023E+02
 11
1.84642961E+02
 21
-4.04500023E+02
  0
LINE
  8
0
 62
7
 10
-3.10999952E+02
 20
-2.82830002E+02
 11
-2.74999983E+02
 21
-2.82830002E+02
  0
LINE
  8
0
 62
7
 10
-3.10999952E+02
 20
-1.64170013E+02
 11
-2.74999983E+02
 21
-1.64170013E+02
  0
LINE
  8
0
 62
7
 10
-1.73999922E+02
 20
-1.64170013E+02
 11
-1.34999983E+02
 21
-1.64170013E+02
  0
LINE
  8
0
 62
7
 10
-1.73999922E+02
 20
-2.82830002E+02
 11
-1.34999983E+02
 21
-2.82830002E+02
  0
LINE
  8
0
 62
7
 10
9.84999866E+01
 20
-4.28613251E+02
 11
9.84999866E+01
 21
-4.34386749E+02
  0
LINE
  8
0
 62
7
 10
1.44250002E+02
 20
-4.22099983E+02
 11
1.44250002E+02
 21
-4.47597427E+02
  0
LINE
  8
0
 62
7
 10
1.28068081E+02
 20
-4.54300124E+02
 11
1.13078411E+02
 21
-4.39310460E+02
  0
LINE
  8
0
 62
7
 10
1.26300306E+02
 20
-4.56067861E+02
 11
1.11310636E+02
 21
-4.41078198E+02
  0
LINE
  8
0
 62
7
 10
1.10500002E+02
 20
-4.17499992E+02
 11
1.10500002E+02
 21
-4.18099968E+02
  0
LINE
  8
0
 62
7
 10
1.96499956E+02
 20
-4.18099968E+02
 11
9.44999866E+01
 21
-4.18099968E+02
  0
LINE
  8
0
 62
7
 10
2.00899981E+02
 20
-4.22499977E+02
 11
2.00899981E+02
 21
-4.73500000E+02
  0
LINE
  8
0
 62
7
 10
1.64699785E+02
 20
-4.56067977E+02
 11
1.79689444E+02
 21
-4.41078320E+02
  0
LINE
  8
0
 62
7
 10
1.62932002E+02
 20
-4.54300259E+02
 11
1.77921661E+02
 21
-4.39310601E+02
  0
LINE
  8
0
 62
7
 10
1.70516115E+02
 20
-4.21099983E+02
 11
1.20483980E+02
 21
-4.21099983E+02
  0
LINE
  8
0
 62
7
 10
1.97900011E+02
 20
-4.48484039E+02
 11
1.97900011E+02
 21
-4.73500000E+02
  0
LINE
  8
0
 62
7
 10
1.96899981E+02
 20
-4.72250000E+02
 11
1.71402498E+02
 21
-4.72250000E+02
  0
LINE
  8
0
 62
7
 10
1.46750002E+02
 20
-4.22099983E+02
 11
1.46750002E+02
 21
-4.47597488E+02
  0
LINE
  8
0
 62
7
 10
1.96499956E+02
 20
-4.17499992E+02
 11
9.44999866E+01
 21
-4.17499992E+02
  0
LINE
  8
0
 62
7
 10
2.01499956E+02
 20
-4.22499992E+02
 11
2.01499956E+02
 21
-4.73500000E+02
  0
LINE
  8
0
  6
CENTER
 62
2
 10
2.03463854E+02
 20
-4.31500000E+02
 11
1.71608950E+02
 21
-4.31500000E+02
  0
LINE
  8
0
  6
CENTER
 62
2
 10
1.87499956E+02
 20
-4.15019218E+02
 11
1.87499956E+02
 21
-4.45926193E+02
  0
LINE
  8
0
 62
7
 10
1.80499987E+02
 20
-4.17499992E+02
 11
1.80499987E+02
 21
-4.18099968E+02
  0
LINE
  8
0
  6
CENTER
 62
2
 10
1.18306185E+02
 20
-4.31500000E+02
 11
8.72167683E+01
 21
-4.31500000E+02
  0
LINE
  8
0
 62
7
 10
-1.34999983E+02
 20
-4.18619713E+02
 11
-1.34999983E+02
 21
-4.73500000E+02
  0
LINE
  8
0
 62
7
 10
-9.89999981E+01
 20
-4.17499992E+02
 11
-9.89999981E+01
 21
-4.73500000E+02
  0
LINE
  8
0
 62
7
 10
-1.04267863E+02
 20
-2.41500134E+02
 11
-1.05133887E+02
 21
-2.40000127E+02
  0
LINE
  8
0
 62
7
 10
-1.05133955E+02
 20
-2.40000061E+02
 11
-1.06866026E+02
 21
-2.40000061E+02
  0
LINE
  8
0
 62
7
 10
-1.07731737E+02
 20
-2.41500284E+02
 11
-1.06865729E+02
 21
-2.40000304E+02
  0
LINE
  8
0
 62
7
 10
-3.41999952E+02
 20
-4.58499962E+02
 11
-3.31999952E+02
 21
-4.58499962E+02
  0
LINE
  8
0
  6
CENTER
 62
2
 10
-1.05999968E+02
 20
-2.33952271E+02
 11
-1.05999968E+02
 21
-2.48565674E+02
  0
LINE
  8
0
  6
CENTER
 62
2
 10
-1.14194548E+02
 20
-2.41500031E+02
 11
-9.79255505E+01
 21
-2.41500031E+02
  0
LINE
  8
0
  6
CENTER
 62
2
 10
-1.14999983E+02
 20
-4.30199966E+02
 11
-1.14999983E+02
 21
-4.15236351E+02
  0
LINE
  8
0
 62
7
 10
-3.45999952E+02
 20
-2.36500000E+02
 11
-3.35999922E+02
 21
-2.36500000E+02
  0
LINE
  8
0
 62
7
 10
-1.04267701E+02
 20
-2.41500144E+02
 11
-1.05133748E+02
 21
-2.43000190E+02
  0
LINE
  8
0
 62
7
 10
-1.05133955E+02
 20
-2.43000061E+02
 11
-1.06866026E+02
 21
-2.43000061E+02
  0
LINE
  8
0
 62
7
 10
-1.06865892E+02
 20
-2.43000062E+02
 11
-1.07731962E+02
 21
-2.41499977E+02
  0
LINE
  8
0
 62
7
 10
-9.89999981E+01
 20
-4.19999977E+02
 11
-2.33892535E+01
 21
-4.19999977E+02
  0
LINE
  8
0
 62
7
 10
-3.12499952E+02
 20
-4.48499985E+02
 11
-3.10999952E+02
 21
-4.48499985E+02
  0
LINE
  8
0
 62
7
 10
-1.30999983E+02
 20
-4.17499992E+02
 11
-9.89999676E+01
 21
-4.17499992E+02
  0
LINE
  8
0
 62
7
 10
-1.30999983E+02
 20
-4.18058540E+02
 11
-1.30999983E+02
 21
-4.17499992E+02
  0
LINE
  8
0
 62
7
 10
-1.34508689E+02
 20
-4.18119808E+02
 11
-9.89999529E+01
 21
-4.17500001E+02
  0
LINE
  8
0
 62
7
 10
-3.26517461E+02
 20
-4.49472073E+02
 11
-3.13000004E+02
 21
-4.49000033E+02
  0
LINE
  8
0
 62
7
 10
-3.26999952E+02
 20
-4.49936752E+02
 11
-3.26999952E+02
 21
-4.50000000E+02
  0
LINE
  8
0
 62
7
 10
-3.31499952E+02
 20
-4.50499985E+02
 11
-3.26999952E+02
 21
-4.50499985E+02
  0
LINE
  8
0
 62
7
 10
-3.45999952E+02
 20
-4.73500000E+02
 11
-3.45999952E+02
 21
-4.60500008E+02
  0
LINE
  8
0
 62
7
 10
-3.85999983E+02
 20
-2.35000061E+02
 11
-3.85999983E+02
 21
-2.12000305E+02
  0
LINE
  8
0
 62
7
 10
-3.48999952E+02
 20
-2.36500000E+02
 11
-3.48999952E+02
 21
-2.10500000E+02
  0
LINE
  8
0
 62
7
 10
-3.84499983E+02
 20
-2.10500031E+02
 11
-3.74499968E+02
 21
-2.10500031E+02
  0
LINE
  8
0
 62
7
 10
-3.84499952E+02
 20
-2.36500000E+02
 11
-3.84499952E+02
 21
-2.10500000E+02
  0
LINE
  8
0
 62
7
 10
-3.85999822E+02
 20
-2.12000202E+02
 11
-3.84499809E+02
 21
-2.10500190E+02
  0
LINE
  8
0
 62
2
 10
-3.85319990E+02
 20
-2.11320038E+02
 11
-3.74499968E+02
 21
-2.11320038E+02
  0
LINE
  8
0
 62
7
 10
-3.84499983E+02
 20
-2.36500000E+02
 11
-3.74499968E+02
 21
-2.36500000E+02
  0
LINE
  8
0
 62
7
 10
-3.86000010E+02
 20
-2.35000048E+02
 11
-3.84499998E+02
 21
-2.36500061E+02
  0
LINE
  8
0
 62
2
 10
-3.85319990E+02
 20
-2.35679993E+02
 11
-3.74499968E+02
 21
-2.35679993E+02
  0
LINE
  8
0
 62
7
 10
-3.48999952E+02
 20
-2.11320038E+02
 11
-3.45999952E+02
 21
-2.11320038E+02
  0
LINE
  8
0
 62
7
 10
-3.48999952E+02
 20
-2.35679993E+02
 11
-3.45999952E+02
 21
-2.35679993E+02
  0
LINE
  8
0
  6
CENTER
 62
2
 10
-7.85262350E+01
 20
-2.65500031E+02
 11
-1.37524473E+02
 21
-2.65500031E+02
  0
LINE
  8
0
 62
7
 10
-3.45999952E+02
 20
-2.36500000E+02
 11
-3.45999952E+02
 21
-2.10500000E+02
  0
LINE
  8
0
 62
7
 10
-3.85999983E+02
 20
-4.73500000E+02
 11
-3.85999983E+02
 21
-4.62000305E+02
  0
LINE
  8
0
 62
7
 10
-3.48999952E+02
 20
-4.73500000E+02
 11
-3.48999952E+02
 21
-4.60500008E+02
  0
LINE
  8
0
 62
7
 10
-3.84500013E+02
 20
-4.60500008E+02
 11
-3.74499968E+02
 21
-4.60500008E+02
  0
LINE
  8
0
 62
7
 10
-3.84499952E+02
 20
-4.73500000E+02
 11
-3.84499952E+02
 21
-4.60500008E+02
  0
LINE
  8
0
 62
7
 10
-3.85999832E+02
 20
-4.62000182E+02
 11
-3.84499820E+02
 21
-4.60500170E+02
  0
LINE
  8
0
 62
2
 10
-3.85320021E+02
 20
-4.61320015E+02
 11
-3.74499968E+02
 21
-4.61320015E+02
  0
LINE
  8
0
 62
7
 10
-3.48999952E+02
 20
-4.61320015E+02
 11
-3.45999952E+02
 21
-4.61320015E+02
  0
LINE
  8
0
  6
CENTER
 62
2
 10
-3.00287948E+01
 20
-4.31500000E+02
 11
-1.37524473E+02
 21
-4.31500000E+02
  0
LINE
  8
0
 62
7
 10
-1.30999968E+02
 20
-1.90499939E+02
 11
-1.30999968E+02
 21
-2.56499969E+02
  0
LINE
  8
0
  6
CENTER
 62
2
 10
-1.01297636E+02
 20
-2.11500031E+02
 11
-1.29094908E+02
 21
-2.11500031E+02
  0
LINE
  8
0
 62
7
 10
-3.12499922E+02
 20
-1.98500061E+02
 11
-3.10999891E+02
 21
-1.98500061E+02
  0
LINE
  8
0
 62
7
 10
-1.34999983E+02
 20
-2.78380280E+02
 11
-1.34999983E+02
 21
-1.68619720E+02
  0
LINE
  8
0
 62
7
 10
-3.31999952E+02
 20
-2.45999969E+02
 11
-3.31999952E+02
 21
-2.00999939E+02
  0
LINE
  8
0
 62
7
 10
-3.26999952E+02
 20
-1.99936707E+02
 11
-3.26999952E+02
 21
-1.99999939E+02
  0
LINE
  8
0
 62
7
 10
-1.34508639E+02
 20
-1.68119526E+02
 11
-9.89999029E+01
 21
-1.67499719E+02
  0
LINE
  8
0
 62
7
 10
-3.31499922E+02
 20
-2.00500031E+02
 11
-3.26999922E+02
 21
-2.00500031E+02
  0
LINE
  8
0
 62
7
 10
-3.26517406E+02
 20
-1.99471793E+02
 11
-3.12999950E+02
 21
-1.98999753E+02
  0
LINE
  8
0
 62
7
 10
-3.12499922E+02
 20
-2.48500061E+02
 11
-3.10999891E+02
 21
-2.48500061E+02
  0
LINE
  8
0
 62
7
 10
-3.26999952E+02
 20
-2.47063232E+02
 11
-3.26999952E+02
 21
-2.46999939E+02
  0
LINE
  8
0
 62
7
 10
-1.34508639E+02
 20
-2.78880027E+02
 11
-9.89999258E+01
 21
-2.79499834E+02
  0
LINE
  8
0
 62
7
 10
-3.31499922E+02
 20
-2.46500031E+02
 11
-3.26999922E+02
 21
-2.46500031E+02
  0
LINE
  8
0
 62
7
 10
-3.26999952E+02
 20
-1.99971680E+02
 11
-3.26999952E+02
 21
-2.47028229E+02
  0
LINE
  8
0
 62
7
 10
-3.26517393E+02
 20
-2.47527670E+02
 11
-3.12999937E+02
 21
-2.47999710E+02
  0
LINE
  8
0
 62
7
 10
-9.89999981E+01
 20
-1.67499817E+02
 11
-9.89999981E+01
 21
-1.77619611E+02
  0
LINE
  8
0
 62
7
 10
-3.31999952E+02
 20
-4.73500000E+02
 11
-3.31999952E+02
 21
-4.50999985E+02
  0
LINE
  8
0
 62
7
 10
-3.26999952E+02
 20
-4.49971725E+02
 11
-3.26999952E+02
 21
-4.73500000E+02
  0
LINE
  8
0
  6
CENTER
 62
2
 10
-1.14999983E+02
 20
-2.25605835E+02
 11
-1.14999983E+02
 21
-1.97676727E+02
  0
LINE
  8
0
 62
7
 10
-1.28999937E+02
 20
-2.58500061E+02
 11
-9.89999523E+01
 21
-2.58500061E+02
  0
LINE
  8
0
 62
7
 10
-1.28999937E+02
 20
-1.88500061E+02
 11
-1.06999998E+02
 21
-1.88500061E+02
  0
LINE
  8
0
 62
7
 10
-3.12999952E+02
 20
-2.47999908E+02
 11
-3.12999952E+02
 21
-1.98999969E+02
  0
LINE
  8
0
 62
7
 10
-3.12999952E+02
 20
-4.49000046E+02
 11
-3.12999952E+02
 21
-4.73500000E+02
  0
LINE
  8
0
  6
CENTER
 62
2
 10
-3.00287771E+01
 20
-1.81499969E+02
 11
-7.24999981E+01
 21
-1.81499969E+02
  0
LINE
  8
0
 62
7
 10
-3.26268710E+01
 20
-1.86000000E+02
 11
-5.29999981E+01
 21
-1.86000000E+02
  0
LINE
  8
0
 62
7
 10
-2.74307009E+01
 20
-1.76999969E+02
 11
-7.24999981E+01
 21
-1.76999969E+02
  0
LINE
  8
0
 62
7
 10
-3.33999983E+02
 20
-2.08499939E+02
 11
-3.31999952E+02
 21
-2.08499939E+02
  0
LINE
  8
0
 62
7
 10
-3.42999952E+02
 20
-2.36500000E+02
 11
-3.42999952E+02
 21
-2.10500000E+02
  0
LINE
  8
0
 62
7
 10
-3.36000026E+02
 20
-2.10499948E+02
 11
-3.34000002E+02
 21
-2.08499924E+02
  0
LINE
  8
0
 62
7
 10
-3.33999891E+02
 20
-2.38500061E+02
 11
-3.31999952E+02
 21
-2.38500061E+02
  0
LINE
  8
0
 62
7
 10
-3.35999958E+02
 20
-2.36499993E+02
 11
-3.33999891E+02
 21
-2.38500059E+02
  0
LINE
  8
0
 62
7
 10
-3.41999952E+02
 20
-4.66016624E+02
 11
-3.35999952E+02
 21
-4.66016624E+02
  0
LINE
  8
0
 62
7
 10
-9.89999981E+01
 20
-2.77000031E+02
 11
-8.51657631E+01
 21
-2.77000031E+02
  0
LINE
  8
0
 62
7
 10
-3.45999952E+02
 20
-2.10500000E+02
 11
-3.36000044E+02
 21
-2.10500000E+02
  0
LINE
  8
0
 62
7
 10
-3.41999952E+02
 20
-4.66016624E+02
 11
-3.41999952E+02
 21
-4.58499962E+02
  0
LINE
  8
0
 62
7
 10
-3.35999952E+02
 20
-4.73500000E+02
 11
-3.35999952E+02
 21
-4.66016624E+02
  0
LINE
  8
0
 62
7
 10
-3.45999943E+02
 20
-4.60500014E+02
 11
-3.41999929E+02
 21
-4.58499969E+02
  0
LINE
  8
0
 62
2
 10
-3.35999950E+02
 20
-4.66016635E+02
 11
-3.40999952E+02
 21
-4.73500000E+02
  0
LINE
  8
0
 62
7
 10
-3.45999946E+02
 20
-4.73499998E+02
 11
-3.41999930E+02
 21
-4.66016629E+02
  0
LINE
  8
0
 62
2
 10
-3.40999925E+02
 20
-4.73500000E+02
 11
-3.43777707E+02
 21
-4.69342571E+02
  0
LINE
  8
0
  6
CENTER
 62
2
 10
1.03499987E+02
 20
-4.14607262E+02
 11
1.03499987E+02
 21
-4.46357803E+02
  0
LINE
  8
0
 62
7
 10
8.94999866E+01
 20
-4.22499992E+02
 11
8.94999866E+01
 21
-4.73500000E+02
  0
LINE
  8
0
 62
7
 10
9.40999622E+01
 20
-4.72250000E+02
 11
1.19597445E+02
 21
-4.72250000E+02
  0
LINE
  8
0
 62
7
 10
9.30999470E+01
 20
-4.48483841E+02
 11
9.30999470E+01
 21
-4.73500000E+02
  0
LINE
  8
0
 62
7
 10
9.00999622E+01
 20
-4.22499992E+02
 11
9.00999622E+01
 21
-4.73500000E+02
  0
LINE
  8
0
 62
7
 10
1.03499986E+02
 20
-4.25726486E+02
 11
1.08499989E+02
 21
-4.28613240E+02
  0
LINE
  8
0
  6
CENTER
 62
2
 10
1.57499956E+02
 20
-4.30199997E+02
 11
1.57499956E+02
 21
-4.15236382E+02
  0
LINE
  8
0
 62
7
 10
1.87499969E+02
 20
-4.25726495E+02
 11
1.92499965E+02
 21
-4.28613245E+02
  0
LINE
  8
0
 62
7
 10
1.87499952E+02
 20
-4.25726501E+02
 11
1.82499956E+02
 21
-4.28613250E+02
  0
LINE
  8
0
 62
7
 10
1.82499956E+02
 20
-4.28613251E+02
 11
1.82499956E+02
 21
-4.34386749E+02
  0
LINE
  8
0
 62
7
 10
1.03499976E+02
 20
-4.25726492E+02
 11
9.84999802E+01
 21
-4.28613241E+02
  0
LINE
  8
0
 62
7
 10
1.03499989E+02
 20
-4.37273493E+02
 11
9.84999858E+01
 21
-4.34386740E+02
  0
LINE
  8
0
 62
7
 10
1.92499956E+02
 20
-4.28613251E+02
 11
1.92499956E+02
 21
-4.34386749E+02
  0
LINE
  8
0
 62
7
 10
1.08499976E+02
 20
-4.34386746E+02
 11
1.03499980E+02
 21
-4.37273495E+02
  0
LINE
  8
0
 62
7
 10
1.92499951E+02
 20
-4.34386753E+02
 11
1.87499955E+02
 21
-4.37273502E+02
  0
LINE
  8
0
 62
7
 10
1.87499965E+02
 20
-4.37273499E+02
 11
1.82499969E+02
 21
-4.34386749E+02
  0
LINE
  8
0
 62
7
 10
1.08499971E+02
 20
-4.28613251E+02
 11
1.08499971E+02
 21
-4.34386749E+02
  0
ARC
  8
0
 62
7
 10
-2.57999891E+02
 20
-1.54061218E+02
 40
9.06113625E+00
 50
6.74489921E+01
 51
1.12550903E+02
  0
ARC
  8
0
 62
7
 10
-2.63212416E+02
 20
-2.99474899E+02
 40
2.52511263E+00
 50
2.53478125E+02
 51
3.13479008E+02
  0
ARC
  8
0
 62
7
 10
-2.52787413E+02
 20
-2.99474899E+02
 40
2.52511263E+00
 50
2.26520987E+02
 51
2.86521856E+02
  0
ARC
  8
0
 62
7
 10
-2.57999891E+02
 20
-2.92938904E+02
 40
9.06113625E+00
 50
2.47449035E+02
 51
2.92550946E+02
  0
ARC
  8
0
 62
7
 10
-2.52787413E+02
 20
-1.47525208E+02
 40
2.52511263E+00
 50
7.34780821E+01
 51
1.33478944E+02
  0
ARC
  8
0
 62
7
 10
-2.63212416E+02
 20
-1.47525208E+02
 40
2.52511263E+00
 50
4.65209375E+01
 51
1.06521820E+02
  0
ARC
  8
0
 62
7
 10
-5.06840803E+02
 20
-4.70500046E+02
 40
6.84084702E+00
 50
3.33989137E+02
 51
2.60107913E+01
  0
ARC
  8
0
 62
7
 10
-6.50159101E+02
 20
-4.70500046E+02
 40
6.84084702E+00
 50
1.53989169E+02
 51
2.06010827E+02
  0
ARC
  8
0
 62
7
 10
-2.57999983E+02
 20
-4.73500000E+02
 40
4.00000000E+00
 50
0.00000000E+00
 51
1.80000000E+02
  0
ARC
  8
0
 62
7
 10
-2.57999983E+02
 20
-4.73500000E+02
 40
8.00000000E+00
 50
0.00000000E+00
 51
1.80000000E+02
  0
ARC
  8
0
 62
7
 10
-2.57999983E+02
 20
-4.73500000E+02
 40
3.30000043E+00
 50
0.00000000E+00
 51
1.80000000E+02
  0
CIRCLE
  8
0
 62
7
 10
-1.58999998E+02
 20
-2.08499969E+02
 40
8.71000004E+00
  0
CIRCLE
  8
0
 62
7
 10
-1.58999998E+02
 20
-2.08499969E+02
 40
7.44000006E+00
  0
CIRCLE
  8
0
 62
2
 10
-1.58999998E+02
 20
-2.08499969E+02
 40
8.32999992E+00
  0
CIRCLE
  8
0
 62
7
 10
-2.88999983E+02
 20
-2.08500000E+02
 40
6.57850027E+00
  0
CIRCLE
  8
0
 62
7
 10
-2.88999983E+02
 20
-2.08500000E+02
 40
5.72250080E+00
  0
ARC
  8
0
 62
7
 10
-5.78499983E+02
 20
-4.73500000E+02
 40
9.10000000E+01
 50
4.06905617E+01
 51
4.93094374E+01
  0
CIRCLE
  8
0
 62
7
 10
-5.26499922E+02
 20
-4.21500038E+02
 40
6.00000000E+00
  0
CIRCLE
  8
0
 62
7
 10
-5.26499922E+02
 20
-4.21500038E+02
 40
1.00000000E+01
  0
CIRCLE
  8
0
 62
7
 10
-5.26499922E+02
 20
-4.21500038E+02
 40
1.02500000E+01
  0
CIRCLE
  8
0
 62
7
 10
-6.30499922E+02
 20
-4.21500038E+02
 40
1.02500000E+01
  0
CIRCLE
  8
0
 62
7
 10
-6.30499922E+02
 20
-4.21500038E+02
 40
5.00000000E+00
  0
CIRCLE
  8
0
 62
7
 10
-6.30499922E+02
 20
-4.21500038E+02
 40
6.00000000E+00
  0
CIRCLE
  8
0
 62
7
 10
-6.30499922E+02
 20
-4.21500038E+02
 40
1.00000000E+01
  0
CIRCLE
  8
0
 62
7
 10
-5.26499922E+02
 20
-4.21500038E+02
 40
5.00000000E+00
  0
ARC
  8
0
 62
7
 10
-1.34499952E+02
 20
-1.68619690E+02
 40
5.00000000E-01
 50
9.10002493E+01
 51
1.79999951E+02
  0
ARC
  8
0
 62
7
 10
-1.34499952E+02
 20
-2.78380310E+02
 40
5.00000000E-01
 50
1.79999977E+02
 51
2.68999679E+02
  0
ARC
  8
0
 62
7
 10
-1.34499983E+02
 20
-4.18619743E+02
 40
5.00000000E-01
 50
9.10002562E+01
 51
1.79999964E+02
  0
ARC
  8
0
 62
7
 10
-5.78499983E+02
 20
-4.73500000E+02
 40
9.10000000E+01
 50
1.30690575E+02
 51
1.39309453E+02
  0
ARC
  8
0
 62
7
 10
2.17159166E+02
 20
-4.70500046E+02
 40
6.84084702E+00
 50
3.33989137E+02
 51
2.60107947E+01
  0
ARC
  8
0
 62
7
 10
7.38408375E+01
 20
-4.70500046E+02
 40
6.84084702E+00
 50
1.53989169E+02
 51
2.06010827E+02
  0
ARC
  8
0
 62
7
 10
1.45500002E+02
 20
-4.73500000E+02
 40
9.10000000E+01
 50
1.30690533E+02
 51
1.39309413E+02
  0
ARC
  8
0
 62
7
 10
1.45500002E+02
 20
-4.73500000E+02
 40
9.10000000E+01
 50
4.06905105E+01
 51
4.93093896E+01
  0
ARC
  8
0
 62
7
 10
-5.78499983E+02
 20
-4.73500000E+02
 40
1.29999914E+01
 50
0.00000000E+00
 51
1.80000000E+02
  0
ARC
  8
0
 62
2
 10
-5.78499983E+02
 20
-4.73500000E+02
 40
1.21799841E+01
 50
0.00000000E+00
 51
1.80000000E+02
  0
CIRCLE
  8
0
 62
7
 10
-1.05999968E+02
 20
-2.41500031E+02
 40
2.59999990E+00
  0
CIRCLE
  8
0
 62
7
 10
-1.05999968E+02
 20
-2.41500031E+02
 40
5.00000000E+00
  0
ARC
  8
0
 62
7
 10
-3.26499952E+02
 20
-4.49971725E+02
 40
5.00000000E-01
 50
9.20007356E+01
 51
1.79999964E+02
  0
ARC
  8
0
 62
7
 10
-3.12499952E+02
 20
-4.49000000E+02
 40
5.00000000E-01
 50
8.99999818E+01
 51
1.79999964E+02
  0
ARC
  8
0
 62
7
 10
-1.34499968E+02
 20
-4.18619713E+02
 40
5.00000000E-01
 50
9.10002493E+01
 51
1.79999964E+02
  0
ARC
  8
0
 62
7
 10
-3.31499952E+02
 20
-4.50999985E+02
 40
5.00000000E-01
 50
8.99999818E+01
 51
1.79999964E+02
  0
ARC
  8
0
 62
7
 10
-1.34499952E+02
 20
-1.68619690E+02
 40
5.00000000E-01
 50
9.10002493E+01
 51
1.79999951E+02
  0
ARC
  8
0
 62
7
 10
-3.31499922E+02
 20
-2.00999939E+02
 40
5.00000000E-01
 50
8.99999818E+01
 51
1.79999951E+02
  0
ARC
  8
0
 62
7
 10
-3.26499922E+02
 20
-1.99971680E+02
 40
5.00000000E-01
 50
9.20007356E+01
 51
1.79999951E+02
  0
ARC
  8
0
 62
7
 10
-3.12499922E+02
 20
-1.98999939E+02
 40
5.00000000E-01
 50
8.99999818E+01
 51
1.79999951E+02
  0
ARC
  8
0
 62
7
 10
-3.26499922E+02
 20
-2.47028198E+02
 40
5.00000000E-01
 50
1.79999977E+02
 51
2.67999192E+02
  0
ARC
  8
0
 62
7
 10
-3.12499922E+02
 20
-2.47999939E+02
 40
5.00000000E-01
 50
1.79999977E+02
 51
2.69999974E+02
  0
ARC
  8
0
 62
7
 10
-3.31499922E+02
 20
-2.45999969E+02
 40
5.00000000E-01
 50
1.79999977E+02
 51
2.69999974E+02
  0
ARC
  8
0
 62
7
 10
-1.34499952E+02
 20
-2.78380280E+02
 40
5.00000000E-01
 50
1.79999977E+02
 51
2.68999679E+02
  0
CIRCLE
  8
0
 62
7
 10
-1.14999952E+02
 20
-2.11499939E+02
 40
9.25000000E+00
  0
ARC
  8
0
 62
7
 10
-1.28999937E+02
 20
-1.90499939E+02
 40
2.00000000E+00
 50
8.99999818E+01
 51
1.79999951E+02
  0
ARC
  8
0
 62
7
 10
-1.28999937E+02
 20
-2.56499939E+02
 40
2.00000000E+00
 50
1.79999977E+02
 51
2.70000028E+02
  0
CIRCLE
  8
0
 62
7
 10
-1.14999952E+02
 20
-2.11500000E+02
 40
1.10000000E+01
  0
ARC
  8
0
 62
7
 10
-5.78499861E+02
 20
-4.73499939E+02
 40
2.50000153E+01
 50
0.00000000E+00
 51
1.80000140E+02
  0
ARC
  8
0
 62
7
 10
-5.78499861E+02
 20
-4.73499939E+02
 40
2.35000153E+01
 50
0.00000000E+00
 51
1.80000149E+02
  0
ARC
  8
0
 62
7
 10
-5.78499983E+02
 20
-4.73500000E+02
 40
2.40000000E+01
 50
0.00000000E+00
 51
1.80000000E+02
  0
CIRCLE
  8
0
 62
2
 10
-1.14999983E+02
 20
-2.11500000E+02
 40
1.04775000E+01
  0
ARC
  8
0
 62
7
 10
-3.48999952E+02
 20
-4.73499985E+02
 40
1.50000248E+01
 50
3.59999942E+02
 51
2.99266002E+01
  0
ARC
  8
0
 62
7
 10
1.45499895E+02
 20
-4.73499939E+02
 40
2.50000153E+01
 50
0.00000000E+00
 51
1.80000140E+02
  0
ARC
  8
0
 62
7
 10
1.75658068E+02
 20
-4.27497612E+02
 40
1.00000000E+00
 50
3.41325670E+02
 51
9.18100369E+01
  0
ARC
  8
0
 62
7
 10
1.91502443E+02
 20
-4.43341858E+02
 40
1.00000000E+00
 50
3.58187399E+02
 51
1.08674648E+02
  0
ARC
  8
0
 62
7
 10
1.70516161E+02
 20
-4.22099968E+02
 40
1.00000000E+00
 50
3.55410354E+02
 51
9.00000162E+01
  0
ARC
  8
0
 62
7
 10
1.96899981E+02
 20
-4.48484039E+02
 40
1.00000000E+00
 50
3.59721781E-05
 51
9.45895342E+01
  0
ARC
  8
0
 62
7
 10
1.75500093E+02
 20
-4.22500130E+02
 40
4.00000000E+00
 50
1.75409585E+02
 51
2.71810493E+02
  0
ARC
  8
0
 62
7
 10
1.96499956E+02
 20
-4.43500061E+02
 40
4.00000000E+00
 50
1.78186904E+02
 51
2.74588685E+02
  0
CIRCLE
  8
0
 62
7
 10
1.87499956E+02
 20
-4.31500015E+02
 40
8.00000000E+00
  0
ARC
  8
0
 62
7
 10
1.96499956E+02
 20
-4.22499992E+02
 40
5.00000000E+00
 50
3.59721781E-05
 51
9.00000162E+01
  0
ARC
  8
0
 62
7
 10
1.96499956E+02
 20
-4.22499977E+02
 40
4.40000010E+00
 50
3.59721781E-05
 51
9.00000162E+01
  0
ARC
  8
0
 62
7
 10
1.87499956E+02
 20
-4.31500000E+02
 40
1.15000000E+01
 50
1.61325558E+02
 51
2.88675076E+02
  0
ARC
  8
0
 62
7
 10
1.47749956E+02
 20
-4.47597488E+02
 40
1.00000000E+00
 50
1.80000036E+02
 51
2.65035857E+02
  0
ARC
  8
0
 62
7
 10
1.62224840E+02
 20
-4.53593124E+02
 40
1.00000000E+00
 50
2.29964741E+02
 51
3.15000026E+02
  0
ARC
  8
0
 62
7
 10
1.65406908E+02
 20
-4.56775139E+02
 40
1.00000000E+00
 50
1.35000014E+02
 51
2.20035582E+02
  0
ARC
  8
0
 62
7
 10
1.71402498E+02
 20
-4.71250008E+02
 40
1.00000000E+00
 50
1.84964190E+02
 51
2.70000038E+02
  0
ARC
  8
0
 62
7
 10
1.47749956E+02
 20
-4.22099983E+02
 40
1.00000000E+00
 50
9.00000025E+01
 51
1.80000046E+02
  0
ARC
  8
0
 62
7
 10
1.96899981E+02
 20
-4.71250031E+02
 40
1.00000000E+00
 50
2.70000052E+02
 51
3.59721781E-05
  0
ARC
  8
0
 62
7
 10
1.80396532E+02
 20
-4.41785492E+02
 40
1.00000000E+00
 50
5.53696217E+01
 51
1.35000014E+02
  0
ARC
  8
0
 62
7
 10
1.77214464E+02
 20
-4.38603500E+02
 40
1.00000000E+00
 50
3.15000047E+02
 51
3.46303671E+01
  0
CIRCLE
  8
0
 62
7
 10
1.87499956E+02
 20
-4.31500015E+02
 40
8.69999981E+00
  0
CIRCLE
  8
0
 62
7
 10
1.87499956E+02
 20
-4.31500015E+02
 40
8.00000000E+00
  0
ARC
  8
0
 62
7
 10
9.45000935E+01
 20
-4.43499893E+02
 40
4.00000000E+00
 50
2.65409591E+02
 51
1.81044602E+00
  0
ARC
  8
0
 62
7
 10
1.15500048E+02
 20
-4.22499992E+02
 40
4.00000000E+00
 50
2.68187375E+02
 51
4.58865257E+00
  0
ARC
  8
0
 62
7
 10
1.03499987E+02
 20
-4.31500000E+02
 40
1.15000000E+01
 50
2.51325577E+02
 51
1.86749751E+01
  0
ARC
  8
0
 62
7
 10
9.94976063E+01
 20
-4.43341904E+02
 40
1.00000000E+00
 50
7.13256097E+01
 51
1.81810060E+02
  0
ARC
  8
0
 62
7
 10
1.15341814E+02
 20
-4.27497475E+02
 40
1.00000000E+00
 50
8.81864507E+01
 51
1.98675204E+02
  0
ARC
  8
0
 62
7
 10
1.20483980E+02
 20
-4.22099983E+02
 40
1.00000000E+00
 50
9.00000162E+01
 51
1.84587802E+02
  0
ARC
  8
0
 62
7
 10
9.40999622E+01
 20
-4.48483841E+02
 40
1.00000000E+00
 50
8.54104432E+01
 51
1.80000005E+02
  0
CIRCLE
  8
0
 62
2
 10
1.87499956E+02
 20
-4.31500000E+02
 40
5.00000000E+00
  0
CIRCLE
  8
0
 62
7
 10
1.03499987E+02
 20
-4.31500000E+02
 40
8.00000000E+00
  0
ARC
  8
0
 62
7
 10
9.44999866E+01
 20
-4.22499992E+02
 40
5.00000000E+00
 50
9.00000162E+01
 51
1.80000005E+02
  0
ARC
  8
0
 62
7
 10
9.44999866E+01
 20
-4.22499992E+02
 40
4.40000010E+00
 50
9.00000162E+01
 51
1.80000005E+02
  0
ARC
  8
0
 62
7
 10
9.40999622E+01
 20
-4.71250008E+02
 40
1.00000000E+00
 50
1.79999991E+02
 51
2.70000028E+02
  0
ARC
  8
0
 62
7
 10
1.19597445E+02
 20
-4.71250008E+02
 40
1.00000000E+00
 50
2.70000045E+02
 51
3.55035851E+02
  0
ARC
  8
0
 62
7
 10
1.43249941E+02
 20
-4.47597427E+02
 40
1.00000000E+00
 50
2.74964207E+02
 51
3.59721781E-05
  0
ARC
  8
0
 62
7
 10
1.43249941E+02
 20
-4.22099983E+02
 40
1.00000000E+00
 50
3.59721781E-05
 51
9.00000162E+01
  0
ARC
  8
0
 62
7
 10
1.28775148E+02
 20
-4.53593094E+02
 40
1.00000000E+00
 50
2.25000013E+02
 51
3.10035571E+02
  0
ARC
  8
0
 62
7
 10
1.25593126E+02
 20
-4.56775108E+02
 40
1.00000000E+00
 50
3.19964774E+02
 51
4.50000423E+01
  0
ARC
  8
0
 62
7
 10
1.13785418E+02
 20
-4.38603439E+02
 40
1.00000000E+00
 50
1.45369621E+02
 51
2.25000010E+02
  0
ARC
  8
0
 62
7
 10
1.10603456E+02
 20
-4.41785461E+02
 40
1.00000000E+00
 50
4.50000423E+01
 51
1.24630380E+02
  0
CIRCLE
  8
0
 62
2
 10
1.03499987E+02
 20
-4.31500000E+02
 40
5.00000000E+00
  0
CIRCLE
  8
0
 62
7
 10
1.03499987E+02
 20
-4.31500000E+02
 40
4.17999983E+00
  0
CIRCLE
  8
0
 62
7
 10
1.87499956E+02
 20
-4.31500000E+02
 40
4.17999983E+00
  0
CIRCLE
  8
0
 62
7
 10
1.03499987E+02
 20
-4.31500000E+02
 40
8.69999981E+00
  0
CIRCLE
  8
0
 62
7
 10
1.03499987E+02
 20
-4.31500000E+02
 40
8.00000000E+00
  0
INSERT
  8
0
  2
PP2
  6
BYBLOCK
 62
0
 10
0.00000000E+00
 20
0.00000000E+00
 41
1.00000000E+00
 42
1.00000000E+00
 50
0.00000000E+00
  0
ARC
  8
0
 62
4
 10
-5.78499983E+02
 20
-4.73500000E+02
 40
1.80000000E+01
 50
0.00000000E+00
 51
1.80000000E+02
  0
LINE
  8
0
 62
4
 10
-5.96499990E+02
 20
-4.63107697E+02
 11
-5.96499990E+02
 21
-4.73500000E+02
  0
LINE
  8
0
 62
4
 10
-5.60499983E+02
 20
-4.63107697E+02
 11
-5.60499983E+02
 21
-4.73500000E+02
  0
LINE
  8
0
 62
4
 10
-5.96500048E+02
 20
-4.63107731E+02
 11
-5.78500046E+02
 21
-4.52715427E+02
  0
LINE
  8
0
 62
4
 10
-5.78500125E+02
 20
-4.52715392E+02
 11
-5.60500120E+02
 21
-4.63107698E+02
  0
ARC
  8
0
 62
4
 10
-3.65299013E+02
 20
-4.57911545E+02
 40
9.20095253E+00
 50
1.45615726E+02
 51
2.14384256E+02
  0
ARC
  8
0
 62
4
 10
-3.40107702E+02
 20
-4.73500000E+02
 40
3.43922653E+01
 50
1.62412050E+02
 51
1.80000000E+02
  0
ARC
  8
0
 62
4
 10
-3.69700922E+02
 20
-4.57911545E+02
 40
9.20095253E+00
 50
3.25615707E+02
 51
3.43842378E+01
  0
ARC
  8
0
 62
4
 10
-3.94892233E+02
 20
-4.73500000E+02
 40
3.43922653E+01
 50
0.00000000E+00
 51
1.75879147E+01
  0
LINE
  8
0
 62
4
 10
-3.60499968E+02
 20
-4.55500000E+02
 11
-3.60499968E+02
 21
-4.73500000E+02
  0
LINE
  8
0
 62
4
 10
-3.60499967E+02
 20
-4.55499988E+02
 11
-3.62107648E+02
 21
-4.52715366E+02
  0
LINE
  8
0
 62
4
 10
-3.74499977E+02
 20
-4.55500001E+02
 11
-3.72892298E+02
 21
-4.52715392E+02
  0
LINE
  8
0
 62
4
 10
-3.72892271E+02
 20
-4.52715393E+02
 11
-3.62107664E+02
 21
-4.52715393E+02
  0
LINE
  8
0
 62
4
 10
-3.72892271E+02
 20
-4.63107697E+02
 11
-3.62107664E+02
 21
-4.63107697E+02
  0
LINE
  8
0
 62
4
 10
-3.74499968E+02
 20
-4.55500000E+02
 11
-3.74499968E+02
 21
-4.73500000E+02
  0
ARC
  8
0
 62
4
 10
-3.86497998E+02
 20
-2.32500004E+02
 40
2.59980309E+01
 50
3.39746143E+02
 51
2.02538569E+01
  0
ARC
  8
0
 62
4
 10
-3.86497998E+02
 20
-2.14499996E+02
 40
2.59980309E+01
 50
3.39746143E+02
 51
2.02538569E+01
  0
ARC
  8
0
 62
4
 10
-3.48501937E+02
 20
-2.14499996E+02
 40
2.59980309E+01
 50
1.59746143E+02
 51
2.00253857E+02
  0
ARC
  8
0
 62
4
 10
-3.48501937E+02
 20
-2.32500004E+02
 40
2.59980309E+01
 50
1.59746143E+02
 51
2.00253857E+02
  0
LINE
  8
0
 62
4
 10
-3.72892458E+02
 20
-2.23500000E+02
 11
-3.62107477E+02
 21
-2.23500000E+02
  0
LINE
  8
0
 62
4
 10
-3.60499968E+02
 20
-2.05499992E+02
 11
-3.60499968E+02
 21
-2.41499863E+02
  0
LINE
  8
0
 62
4
 10
-3.74499968E+02
 20
-2.05499992E+02
 11
-3.74499968E+02
 21
-2.41499863E+02
  0
LINE
  8
0
 62
4
 10
-3.74499968E+02
 20
-2.05499992E+02
 11
-3.60499968E+02
 21
-2.05499992E+02
  0
LINE
  8
0
 62
4
 10
-3.74499968E+02
 20
-2.41499863E+02
 11
-3.60499968E+02
 21
-2.41499863E+02
  0
LINE
  8
0
 62
7
 10
-3.60499968E+02
 20
-2.10500031E+02
 11
-3.48999952E+02
 21
-2.10500031E+02
  0
LINE
  8
0
 62
2
 10
-3.60499968E+02
 20
-2.11320038E+02
 11
-3.48999952E+02
 21
-2.11320038E+02
  0
LINE
  8
0
 62
7
 10
-3.60499968E+02
 20
-2.36500000E+02
 11
-3.48999952E+02
 21
-2.36500000E+02
  0
LINE
  8
0
 62
2
 10
-3.60499968E+02
 20
-2.35679993E+02
 11
-3.48999952E+02
 21
-2.35679993E+02
  0
LINE
  8
0
 62
7
 10
-3.60499968E+02
 20
-4.60500008E+02
 11
-3.48999952E+02
 21
-4.60500008E+02
  0
LINE
  8
0
 62
2
 10
-3.60499968E+02
 20
-4.61320015E+02
 11
-3.48999952E+02
 21
-4.61320015E+02
  0
LINE
  8
0
 62
7
 10
-9.89999981E+01
 20
-1.70000000E+02
 11
-2.33892667E+01
 21
-1.70000000E+02
  0
LINE
  8
0
 62
7
 10
-9.69999981E+01
 20
-1.76999969E+02
 11
-9.89999981E+01
 21
-1.76999969E+02
  0
LINE
  8
0
 62
7
 10
-7.59281412E+01
 20
-2.61000000E+02
 11
-9.89999981E+01
 21
-2.61000000E+02
  0
LINE
  8
0
 62
7
 10
-8.11243288E+01
 20
-2.70000061E+02
 11
-9.89999981E+01
 21
-2.70000061E+02
  0
LINE
  8
0
 62
7
 10
-2.74306965E+01
 20
-4.26999962E+02
 11
-9.89999981E+01
 21
-4.26999962E+02
  0
LINE
  8
0
 62
7
 10
-3.26268622E+01
 20
-4.35999985E+02
 11
-9.89999981E+01
 21
-4.35999985E+02
  0
TEXT
  8
0
 10
-1.14132812E+02
 20
4.80864332E+02
 40
1.25000000E+01
  1
STRETCH LINE
 41
1.05263158E+00
  7
MONOTXT
  0
LINE
  8
0
 62
7
 10
-8.20500000E+02
 20
-5.74500000E+02
 11
8.20500000E+02
 21
-5.74500000E+02
  0
LINE
  8
0
 62
7
 10
-8.20500000E+02
 20
5.74500000E+02
 11
-8.20500000E+02
 21
-5.74500000E+02
  0
LINE
  8
0
 62
7
 10
8.20500000E+02
 20
5.74500000E+02
 11
8.20500000E+02
 21
-5.74500000E+02
  0
LINE
  8
0
 62
7
 10
-8.20500000E+02
 20
5.74500000E+02
 11
8.20500000E+02
 21
5.74500000E+02
  0
LINE
  8
0
 62
7
 10
-8.20500000E+02
 20
5.24500000E+02
 11
-4.70500000E+02
 21
5.24500000E+02
  0
LINE
  8
0
 62
7
 10
4.70500000E+02
 20
-5.24500000E+02
 11
8.20500000E+02
 21
-5.24500000E+02
  0
LINE
  8
0
 62
7
 10
4.70500000E+02
 20
5.74500000E+02
 11
4.70500000E+02
 21
5.24500000E+02
  0
LINE
  8
0
 62
7
 10
-4.70500000E+02
 20
5.74500000E+02
 11
-4.70500000E+02
 21
5.24500000E+02
  0
LINE
  8
0
 62
7
 10
4.70500000E+02
 20
-5.24500000E+02
 11
4.70500000E+02
 21
-5.74500000E+02
  0
LINE
  8
0
 62
7
 10
4.70500000E+02
 20
5.24500000E+02
 11
8.20500000E+02
 21
5.24500000E+02
  0
TEXT
  8
0
 62
7
 10
-7.84358752E+02
 20
4.75500000E+02
 40
1.80000000E+01
  1
MODEL:DDAR100*75
 41
1.00000000E+00
  7
MONOTXT
  0
TEXT
  8
0
 62
7
 10
4.86570312E+02
 20
-5.62000000E+02
 40
2.50000000E+01
  1
KOGANEI CORP.
 41
1.04838710E+00
  7
MONOTXT
  0
TEXT
  8
0
 62
7
 10
5.76070624E+02
 20
5.40500000E+02
 40
1.80000000E+01
  1
Ver. 1.0
 41
1.08108108E+00
  7
MONOTXT
  0
TEXT
  8
0
 62
7
 10
-7.95929376E+02
 20
5.40500000E+02
 40
1.80000000E+01
  1
NEW DYNA CYLINDER
 41
1.07594937E+00
  7
MONOTXT
  0
ENDSEC
  0
EOF
