  0
SECTION
  2
HEADER
  9
$ACADVER
  1
AC1003
  9
$EXTMIN
 10
-2.81250000E+02
 20
-1.95000000E+02
  9
$EXTMAX
 10
2.82099854E+02
 20
1.95500000E+02
  9
$LIMMIN
 10
-2.81251000E+02
 20
-1.95001000E+02
  9
$LIMMAX
 10
2.82100854E+02
 20
1.95501000E+02
  9
$SNAPUNIT
 10
1
 20
1
  9
$SNAPBASE
 10
0
 20
0
  9
$GRIDMODE
 70
0
  9
$GRIDUNIT
 10
0
 20
0
  9
$LTSCALE
 40
9.38916423E+00
  9
$TEXTSIZE
 40
3.2
  9
$DIMTAD
 70
0
  9
$LUNITS
 70
2
  9
$LUPREC
 70
4
  9
$FILLETRAD
 40
0
  9
$AUNITS
 70
0
  9
$AUPREC
 70
0
  0
ENDSEC
  0
SECTION
  2
TABLES
  0
TABLE
  2
LTYPE
 70
2
  0
LTYPE
  2
CONTINUOUS
 70
64
  3
Solid-Line
 72
65
 73
0
 40
0
  0
LTYPE
  2
DASHED
 70
64
  3
DASHED
 72
65
 73
2
 40
.75
 49
.5
 49
-.25
  0
LTYPE
  2
HIDDEN
 70
64
  3
HIDDEN
 72
65
 73
2
 40
.375
 49
.25
 49
-.125
  0
LTYPE
  2
CENTER
 70
64
  3
CENTER
 72
65
 73
4
 40
2
 49
1.25
 49
-.25
 49
.25
 49
-.25
  0
LTYPE
  2
PHANTOM
 70
64
  3
PHANTOM
 72
65
 73
6
 40
2.5
 49
1.25
 49
-.25
 49
.25
 49
-.25
 49
.25
 49
-.25
  0
ENDTAB
  0
TABLE
  2
LAYER
 70
1
  0
LAYER
  2
1
 70
0
 62
7
  6
CONTINUOUS
 0
ENDTAB
  0
TABLE
  2
STYLE
 70
2
  0
STYLE
  2
MONOTXT
 70
0
 40
0
 41
1
 50
0
 71
0
 42
.2
  3
monotxt
  0
STYLE
  2
BIGFONT
 70
0
 40
0
 41
1
 50
0
 71
0
 42
.2
  3
txt
  4
bigfont
  0
ENDTAB
  0
ENDSEC
  0
SECTION
  2
ENTITIES
  0
LINE
  8
0
 62
4
 10
8.34280365E+01
 20
-1.21769624E+02
 11
8.34280365E+01
 21
-1.11519624E+02
  0
LINE
  8
0
  6
CENTER
 62
6
 10
9.07838257E+01
 20
-1.20769624E+02
 11
5.21963471E+01
 21
-1.20769624E+02
  0
LINE
  8
0
 62
4
 10
8.24280365E+01
 20
-1.11519624E+02
 11
8.34280365E+01
 21
-1.11519624E+02
  0
LINE
  8
0
 62
4
 10
8.24280365E+01
 20
-1.05769624E+02
 11
8.24280365E+01
 21
-1.11519624E+02
  0
LINE
  8
0
  6
CENTER
 62
6
 10
9.64280365E+01
 20
-1.17046067E+02
 11
9.64280365E+01
 21
-1.53551530E+02
  0
LINE
  8
0
 62
4
 10
6.04280365E+01
 20
-1.05769624E+02
 11
8.24280365E+01
 21
-1.05769624E+02
  0
LINE
  8
0
 62
4
 10
1.14427981E+02
 20
-1.47769599E+02
 11
1.11175064E+02
 21
-1.22530992E+02
  0
LINE
  8
0
 62
4
 10
6.04280365E+01
 20
-1.23769624E+02
 11
6.04280365E+01
 21
-1.47769624E+02
  0
LINE
  8
0
 62
4
 10
6.14280365E+01
 20
-1.22769624E+02
 11
8.24280365E+01
 21
-1.22769624E+02
  0
LINE
  8
0
 62
4
 10
5.84280365E+01
 20
-1.47769624E+02
 11
1.14427975E+02
 21
-1.47769624E+02
  0
LINE
  8
0
 62
4
 10
5.84280365E+01
 20
-1.07769624E+02
 11
5.84280365E+01
 21
-1.47769624E+02
  0
LINE
  8
0
 62
4
 10
8.04280365E+01
 20
-1.21769624E+02
 11
1.10203976E+02
 21
-1.21769624E+02
  0
ARC
  8
0
 62
4
 10
6.14280365E+01
 20
-1.23769624E+02
 40
1.00000000E+00
 50
8.99999818E+01
 51
1.79999964E+02
  0
ARC
  8
0
 62
4
 10
1.10203976E+02
 20
-1.22769624E+02
 40
1.00000000E+00
 50
1.38049461E+01
 51
9.00001457E+01
  0
ARC
  8
0
 62
4
 10
8.24280365E+01
 20
-1.21769624E+02
 40
1.00000000E+00
 50
2.69999998E+02
 51
0.00000000E+00
  0
ARC
  8
0
 62
4
 10
6.04280365E+01
 20
-1.07769624E+02
 40
2.00000000E+00
 50
8.99999818E+01
 51
1.79999964E+02
  0
ARC
  8
0
 62
4
 10
8.04280365E+01
 20
-1.22769624E+02
 40
1.00000000E+00
 50
8.99999818E+01
 51
1.79999964E+02
  0
LINE
  8
0
  6
CENTER
 62
6
 10
-1.31572017E+02
 20
-1.01786866E+02
 11
-1.31572017E+02
 21
-1.57769624E+02
  0
LINE
  8
0
  6
CENTER
 62
6
 10
-1.73572017E+02
 20
-1.12658784E+02
 11
-1.73572017E+02
 21
-1.39905663E+02
  0
LINE
  8
0
  6
CENTER
 62
6
 10
-8.95720322E+01
 20
-1.13094407E+02
 11
-8.95720322E+01
 21
-1.27905667E+02
  0
LINE
  8
0
  6
CENTER
 62
6
 10
-1.81810268E+02
 20
-1.20769624E+02
 11
-1.65692134E+02
 21
-1.20769624E+02
  0
LINE
  8
0
 62
4
 10
-2.15572017E+02
 20
-1.47769624E+02
 11
-4.75720322E+01
 21
-1.47769624E+02
  0
LINE
  8
0
 62
4
 10
-2.15572017E+02
 20
-1.22769624E+02
 11
-2.15572017E+02
 21
-1.47769624E+02
  0
LINE
  8
0
 62
4
 10
-1.81521907E+02
 20
-1.05769624E+02
 11
-1.65622127E+02
 21
-1.05769624E+02
  0
LINE
  8
0
  6
CENTER
 62
6
 10
-2.01572017E+02
 20
-1.10916276E+02
 11
-2.01572017E+02
 21
-1.58187592E+02
  0
LINE
  8
0
 62
4
 10
-2.14572017E+02
 20
-1.21769624E+02
 11
-1.89377742E+02
 21
-1.21769624E+02
  0
LINE
  8
0
 62
4
 10
-1.91007196E+02
 20
-1.47769600E+02
 11
-1.86445931E+02
 21
-1.09901372E+02
  0
LINE
  8
0
 62
4
 10
-1.60698047E+02
 20
-1.09901367E+02
 11
-1.56136782E+02
 21
-1.47769597E+02
  0
LINE
  8
0
 62
4
 10
-1.56355678E+02
 20
-1.41769624E+02
 11
-1.06788387E+02
 21
-1.41769624E+02
  0
LINE
  8
0
 62
4
 10
-1.59882198E+02
 20
-1.09769624E+02
 11
-1.03261836E+02
 21
-1.09769624E+02
  0
LINE
  8
0
 62
4
 10
-4.75720322E+01
 20
-1.22769624E+02
 11
-4.75720322E+01
 21
-1.47769624E+02
  0
LINE
  8
0
 62
4
 10
-9.75219071E+01
 20
-1.05769624E+02
 11
-8.16221420E+01
 21
-1.05769624E+02
  0
LINE
  8
0
  6
CENTER
 62
6
 10
-6.15720322E+01
 20
-1.58187592E+02
 11
-6.15720322E+01
 21
-1.13168366E+02
  0
LINE
  8
0
 62
4
 10
-7.37663071E+01
 20
-1.21769624E+02
 11
-4.85720322E+01
 21
-1.21769624E+02
  0
LINE
  8
0
 62
4
 10
-7.66981535E+01
 20
-1.09901351E+02
 11
-7.21368867E+01
 21
-1.47769589E+02
  0
LINE
  8
0
 62
4
 10
-1.07007266E+02
 20
-1.47769589E+02
 11
-1.02446001E+02
 21
-1.09901361E+02
  0
LINE
  8
0
  6
CENTER
 62
6
 10
-9.72989456E+01
 20
-1.20769624E+02
 11
-8.24876969E+01
 21
-1.20769624E+02
  0
ARC
  8
0
 62
4
 10
-2.14572017E+02
 20
-1.22769624E+02
 40
1.00000000E+00
 50
8.99999818E+01
 51
1.79999964E+02
  0
ARC
  8
0
 62
4
 10
-1.81521907E+02
 20
-1.10769624E+02
 40
5.00000000E+00
 50
8.99999274E+01
 51
1.69999966E+02
  0
ARC
  8
0
 62
4
 10
-1.65622127E+02
 20
-1.10769624E+02
 40
5.00000000E+00
 50
9.99999117E+00
 51
8.99999274E+01
  0
ARC
  8
0
 62
4
 10
-1.89377742E+02
 20
-1.20769624E+02
 40
1.00000000E+00
 50
2.70000892E+02
 51
3.50000152E+02
  0
ARC
  8
0
 62
4
 10
-1.59882198E+02
 20
-1.08769624E+02
 40
1.00000000E+00
 50
1.90000034E+02
 51
2.70000018E+02
  0
ARC
  8
0
 62
4
 10
-1.56355678E+02
 20
-1.40769624E+02
 40
1.00000000E+00
 50
1.90000034E+02
 51
2.70000073E+02
  0
ARC
  8
0
 62
4
 10
-4.85720322E+01
 20
-1.22769624E+02
 40
1.00000000E+00
 50
3.59721781E-05
 51
9.00000162E+01
  0
ARC
  8
0
 62
4
 10
-8.16221420E+01
 20
-1.10769624E+02
 40
5.00000000E+00
 50
1.00000321E+01
 51
9.00000369E+01
  0
ARC
  8
0
 62
4
 10
-9.75219071E+01
 20
-1.10769624E+02
 40
5.00000000E+00
 50
9.00000369E+01
 51
1.69999966E+02
  0
ARC
  8
0
 62
4
 10
-7.37663071E+01
 20
-1.20769624E+02
 40
1.00000000E+00
 50
1.89999870E+02
 51
2.69999144E+02
  0
ARC
  8
0
 62
4
 10
-1.03261836E+02
 20
-1.08769624E+02
 40
1.00000000E+00
 50
2.70000018E+02
 51
3.49999968E+02
  0
ARC
  8
0
 62
4
 10
-1.06788387E+02
 20
-1.40769624E+02
 40
1.00000000E+00
 50
2.69999963E+02
 51
3.49999968E+02
  0
CIRCLE
  8
0
 62
4
 10
-1.73572017E+02
 20
-1.20769624E+02
 40
4.84999990E+00
  0
CIRCLE
  8
0
 62
4
 10
-8.95720322E+01
 20
-1.20769624E+02
 40
4.84999990E+00
  0
LINE
  8
0
  6
CENTER
 62
6
 10
9.04866684E+01
 20
9.82303917E+01
 11
4.84477051E+01
 21
9.82303917E+01
  0
LINE
  8
0
  6
CENTER
 62
6
 10
5.21156586E+01
 20
5.62303459E+01
 11
9.12690972E+01
 21
5.62303459E+01
  0
LINE
  8
0
 62
4
 10
8.34280976E+01
 20
1.55230392E+02
 11
8.34280976E+01
 21
4.12304070E+01
  0
LINE
  8
0
  6
CENTER
 62
6
 10
5.21156586E+01
 20
1.40230392E+02
 11
8.82267731E+01
 21
1.40230392E+02
  0
LINE
  8
0
 62
4
 10
1.08428037E+02
 20
1.55230392E+02
 11
8.34280365E+01
 21
1.55230392E+02
  0
LINE
  8
0
 62
4
 10
1.08428037E+02
 20
4.12304070E+01
 11
8.34280365E+01
 21
4.12304070E+01
  0
LINE
  8
0
 62
4
 10
5.84280365E+01
 20
1.22795150E+02
 11
6.04280365E+01
 21
1.22795150E+02
  0
LINE
  8
0
 62
4
 10
5.84280365E+01
 20
1.22795150E+02
 11
5.84280365E+01
 21
1.57665572E+02
  0
LINE
  8
0
 62
4
 10
5.84280365E+01
 20
1.57665572E+02
 11
6.08434418E+01
 21
1.57665572E+02
  0
LINE
  8
0
 62
4
 10
7.44246185E+01
 20
1.82230392E+02
 11
1.04276852E+02
 21
1.82230392E+02
  0
LINE
  8
0
 62
4
 10
6.27620209E+01
 20
1.56230392E+02
 11
8.02725189E+01
 21
1.56230392E+02
  0
LINE
  8
0
 62
4
 10
8.24280365E+01
 20
6.83754112E+01
 11
7.73811615E+01
 21
6.83754112E+01
  0
LINE
  8
0
 62
4
 10
6.15414043E+01
 20
7.32975726E+01
 11
7.49724463E+01
 21
6.88566848E+01
  0
LINE
  8
0
 62
4
 10
7.73811615E+01
 20
1.28085372E+02
 11
8.24280365E+01
 21
1.28085372E+02
  0
LINE
  8
0
  6
CENTER
 62
6
 10
9.64280365E+01
 20
1.82304070E+01
 11
9.64280365E+01
 21
3.82304070E+01
  0
LINE
  8
0
 62
4
 10
7.49724910E+01
 20
1.27604098E+02
 11
6.15414490E+01
 21
1.23163210E+02
  0
LINE
  8
0
 62
4
 10
1.12172103E+02
 20
2.09400567E+01
 11
1.14349472E+02
 21
3.42626290E+01
  0
LINE
  8
0
 62
4
 10
6.08648024E+01
 20
3.75975024E+01
 11
6.68357552E+01
 21
1.96987719E+01
  0
LINE
  8
0
 62
4
 10
6.04280365E+01
 20
7.36656334E+01
 11
6.04280365E+01
 21
1.22795150E+02
  0
LINE
  8
0
  6
CENTER
 62
6
 10
8.64280365E+01
 20
1.68230392E+02
 11
1.06428037E+02
 21
1.68230392E+02
  0
LINE
  8
0
 62
4
 10
1.04276852E+02
 20
1.42304070E+01
 11
7.44246185E+01
 21
1.42304070E+01
  0
LINE
  8
0
  6
CENTER
 62
6
 10
9.64280365E+01
 20
1.58230392E+02
 11
9.64280365E+01
 21
1.78230392E+02
  0
LINE
  8
0
 62
4
 10
5.84280365E+01
 20
3.87952263E+01
 11
5.84280365E+01
 21
7.36656334E+01
  0
LINE
  8
0
 62
4
 10
6.04280365E+01
 20
7.36656334E+01
 11
5.84280365E+01
 21
7.36656334E+01
  0
LINE
  8
0
 62
4
 10
8.02725189E+01
 20
4.02304070E+01
 11
6.27620209E+01
 21
4.02304070E+01
  0
LINE
  8
0
  6
CENTER
 62
6
 10
1.06428037E+02
 20
2.82304070E+01
 11
8.64280365E+01
 21
2.82304070E+01
  0
LINE
  8
0
 62
4
 10
6.08434418E+01
 20
3.87952263E+01
 11
5.84280365E+01
 21
3.87952263E+01
  0
LINE
  8
0
 62
4
 10
1.12172099E+02
 20
1.75520761E+02
 11
1.14349468E+02
 21
1.62198189E+02
  0
LINE
  8
0
 62
4
 10
6.68357304E+01
 20
1.76762055E+02
 11
6.08647776E+01
 21
1.58863324E+02
  0
LINE
  8
0
 62
4
 10
8.24280365E+01
 20
1.53389632E+02
 11
8.24280365E+01
 21
4.30711815E+01
  0
LINE
  8
0
 62
4
 10
8.34280976E+01
 20
4.30711815E+01
 11
8.24280365E+01
 21
4.30711815E+01
  0
LINE
  8
0
 62
4
 10
8.34280976E+01
 20
1.53389632E+02
 11
8.24280365E+01
 21
1.53389632E+02
  0
ARC
  8
0
 62
4
 10
8.02725189E+01
 20
1.58230392E+02
 40
2.00000000E+00
 50
2.70000052E+02
 51
3.17568655E+01
  0
ARC
  8
0
 62
4
 10
9.64280365E+01
 20
1.68230392E+02
 40
1.70000000E+01
 50
1.24560316E+02
 51
2.29880754E+02
  0
ARC
  8
0
 62
4
 10
9.64280365E+01
 20
2.82304070E+01
 40
1.70000000E+01
 50
1.30119243E+02
 51
2.35439681E+02
  0
ARC
  8
0
 62
4
 10
1.04276852E+02
 20
1.74230392E+02
 40
8.00000000E+00
 50
9.28204439E+00
 51
9.00000707E+01
  0
ARC
  8
0
 62
4
 10
1.04276852E+02
 20
2.22304070E+01
 40
8.00000000E+00
 50
2.69999984E+02
 51
3.50717956E+02
  0
CIRCLE
  8
0
 62
4
 10
9.64280365E+01
 20
2.82304070E+01
 40
7.00000000E+00
  0
ARC
  8
0
 62
4
 10
9.64280365E+01
 20
1.68230392E+02
 40
1.70000000E+01
 50
3.10119091E+02
 51
3.58753973E+02
  0
CIRCLE
  8
0
 62
4
 10
9.64280365E+01
 20
1.68230392E+02
 40
7.00000000E+00
  0
ARC
  8
0
 62
4
 10
7.44246185E+01
 20
1.74230392E+02
 40
8.00000000E+00
 50
9.00000162E+01
 51
1.61551486E+02
  0
ARC
  8
0
 62
4
 10
6.27620209E+01
 20
1.58230392E+02
 40
2.00000000E+00
 50
1.61551486E+02
 51
2.70000356E+02
  0
ARC
  8
0
 62
4
 10
1.08428037E+02
 20
3.52304070E+01
 40
6.00000000E+00
 50
3.50717959E+02
 51
9.00000162E+01
  0
ARC
  8
0
 62
4
 10
9.64280365E+01
 20
2.82304070E+01
 40
1.70000000E+01
 50
1.24602639E+00
 51
4.98809637E+01
  0
ARC
  8
0
 62
4
 10
7.44246185E+01
 20
2.22304070E+01
 40
8.00000000E+00
 50
1.98448514E+02
 51
2.69999984E+02
  0
ARC
  8
0
 62
4
 10
6.27620209E+01
 20
3.82304070E+01
 40
2.00000000E+00
 50
8.99996335E+01
 51
1.98448510E+02
  0
ARC
  8
0
 62
4
 10
8.02725189E+01
 20
3.82304070E+01
 40
2.00000000E+00
 50
3.28243210E+02
 51
9.00000162E+01
  0
ARC
  8
0
 62
4
 10
1.08428037E+02
 20
1.61230392E+02
 40
6.00000000E+00
 50
2.70000052E+02
 51
9.28204439E+00
  0
TEXT
  8
0
 62
7
 10
-2.73900291E+02
 20
1.82350000E+02
 40
6.30000019E+00
  1
NEW DYNA CYLINDER
 41
1.07594953E+00
  7
MONOTXT
  0
TEXT
  8
0
 62
7
 10
-2.67600562E+02
 20
1.57350000E+02
 40
6.30000019E+00
  1
MODEL:DDAR100-2
 41
1.00000015E+00
  7
MONOTXT
  0
LINE
  8
0
 62
7
 10
2.82099854E+02
 20
1.95500000E+02
 11
2.82099854E+02
 21
-1.95000000E+02
  0
LINE
  8
0
 62
7
 10
-2.81250000E+02
 20
1.95500000E+02
 11
2.82099854E+02
 21
1.95500000E+02
  0
LINE
  8
0
 62
7
 10
-2.81250000E+02
 20
1.95500000E+02
 11
-2.81250000E+02
 21
-1.95000000E+02
  0
LINE
  8
0
 62
7
 10
-2.81250000E+02
 20
-1.95000000E+02
 11
2.82099854E+02
 21
-1.95000000E+02
  0
LINE
  8
0
 62
7
 10
1.62099976E+02
 20
-1.75000000E+02
 11
1.62099976E+02
 21
-1.95000000E+02
  0
LINE
  8
0
 62
7
 10
1.62099976E+02
 20
-1.75000000E+02
 11
2.82099854E+02
 21
-1.75000000E+02
  0
LINE
  8
0
 62
7
 10
1.62099976E+02
 20
1.75500000E+02
 11
2.82099854E+02
 21
1.75500000E+02
  0
LINE
  8
0
 62
7
 10
-2.81250000E+02
 20
1.75500000E+02
 11
-1.61250000E+02
 21
1.75500000E+02
  0
LINE
  8
0
 62
7
 10
1.62099976E+02
 20
1.95500000E+02
 11
1.62099976E+02
 21
1.75500000E+02
  0
LINE
  8
0
 62
7
 10
-1.61250000E+02
 20
1.95500000E+02
 11
-1.61250000E+02
 21
1.75500000E+02
  0
TEXT
  8
0
 62
7
 10
1.97799690E+02
 20
1.82350000E+02
 40
6.30000019E+00
  1
Ver. 1.0
 41
1.08108124E+00
  7
MONOTXT
  0
TEXT
  8
0
 62
7
 10
1.69885289E+02
 20
-1.89500000E+02
 40
9.00000000E+00
  1
KOGANEI CORP.
 41
1.04838710E+00
  7
MONOTXT
  0
ENDSEC
  0
EOF
