  0
SECTION
  2
HEADER
  9
$ACADVER
  1
AC1003
  9
$EXTMIN
 10
-4.19780226E+02
 20
-2.76750000E+02
  9
$EXTMAX
 10
3.99799805E+02
 20
2.76250000E+02
  9
$LIMMIN
 10
-4.19781226E+02
 20
-2.76751000E+02
  9
$LIMMAX
 10
3.99800805E+02
 20
2.76251000E+02
  9
$SNAPUNIT
 10
1
 20
1
  9
$SNAPBASE
 10
0
 20
0
  9
$GRIDMODE
 70
0
  9
$GRIDUNIT
 10
0
 20
0
  9
$LTSCALE
 40
1.36596672E+01
  9
$TEXTSIZE
 40
3.2
  9
$DIMTAD
 70
0
  9
$LUNITS
 70
2
  9
$LUPREC
 70
4
  9
$FILLETRAD
 40
0
  9
$AUNITS
 70
0
  9
$AUPREC
 70
0
  0
ENDSEC
  0
SECTION
  2
TABLES
  0
TABLE
  2
LTYPE
 70
2
  0
LTYPE
  2
CONTINUOUS
 70
64
  3
Solid-Line
 72
65
 73
0
 40
0
  0
LTYPE
  2
DASHED
 70
64
  3
DASHED
 72
65
 73
2
 40
.75
 49
.5
 49
-.25
  0
LTYPE
  2
HIDDEN
 70
64
  3
HIDDEN
 72
65
 73
2
 40
.375
 49
.25
 49
-.125
  0
LTYPE
  2
CENTER
 70
64
  3
CENTER
 72
65
 73
4
 40
2
 49
1.25
 49
-.25
 49
.25
 49
-.25
  0
LTYPE
  2
PHANTOM
 70
64
  3
PHANTOM
 72
65
 73
6
 40
2.5
 49
1.25
 49
-.25
 49
.25
 49
-.25
 49
.25
 49
-.25
  0
ENDTAB
  0
TABLE
  2
LAYER
 70
1
  0
LAYER
  2
1
 70
0
 62
7
  6
CONTINUOUS
 0
ENDTAB
  0
TABLE
  2
STYLE
 70
2
  0
STYLE
  2
MONOTXT
 70
0
 40
0
 41
1
 50
0
 71
0
 42
.2
  3
monotxt
  0
STYLE
  2
BIGFONT
 70
0
 40
0
 41
1
 50
0
 71
0
 42
.2
  3
txt
  4
bigfont
  0
ENDTAB
  0
ENDSEC
  0
SECTION
  2
ENTITIES
  0
LINE
  8
0
  6
PHANTOM
 10
-6.92500000E+01
 20
1.48945349E+02
 11
-6.92500000E+01
 21
4.71367846E+01
  0
LINE
  8
0
  6
PHANTOM
 10
7.72499695E+01
 20
1.50787267E+02
 11
7.72499695E+01
 21
4.71367846E+01
  0
LINE
  8
0
 62
2
 10
-1.92249992E+02
 20
8.01894720E+01
 11
-1.83249992E+02
 21
8.01894720E+01
  0
LINE
  8
0
 62
7
 10
-1.92249992E+02
 20
7.93694647E+01
 11
-1.83249992E+02
 21
7.93694647E+01
  0
LINE
  8
0
 62
2
 10
-1.92249992E+02
 20
9.65494573E+01
 11
-1.83249992E+02
 21
9.65494573E+01
  0
LINE
  8
0
 62
7
 10
-1.92249992E+02
 20
9.73694647E+01
 11
-1.83249992E+02
 21
9.73694647E+01
  0
LINE
  8
0
 62
4
 10
-1.92249992E+02
 20
7.48694647E+01
 11
-1.92249992E+02
 21
1.01869465E+02
  0
LINE
  8
0
 62
4
 10
-2.03249992E+02
 20
7.48694647E+01
 11
-2.03249992E+02
 21
1.01869465E+02
  0
ARC
  8
0
 62
4
 10
-1.77455764E+02
 20
8.83694647E+01
 40
2.57942282E+01
 50
1.62412046E+02
 51
1.97587954E+02
  0
ARC
  8
0
 62
4
 10
-2.18044221E+02
 20
8.83694647E+01
 40
2.57942282E+01
 50
3.42412046E+02
 51
1.75879541E+01
  0
ARC
  8
0
 62
4
 10
-1.99150714E+02
 20
1.00060808E+02
 40
6.90072132E+00
 50
3.25615752E+02
 51
3.43842480E+01
  0
ARC
  8
0
 62
4
 10
-1.96349271E+02
 20
1.00060808E+02
 40
6.90072132E+00
 50
1.45615752E+02
 51
2.14384248E+02
  0
LINE
  8
0
 62
4
 10
-1.93455764E+02
 20
1.03957922E+02
 11
-1.92249992E+02
 21
1.01869465E+02
  0
LINE
  8
0
 62
4
 10
-2.02044221E+02
 20
1.03957922E+02
 11
-2.03249992E+02
 21
1.01869465E+02
  0
LINE
  8
0
 62
4
 10
-2.02044221E+02
 20
9.61636933E+01
 11
-1.93455764E+02
 21
9.61636933E+01
  0
LINE
  8
0
 62
4
 10
-2.02044221E+02
 20
1.03957922E+02
 11
-1.93455764E+02
 21
1.03957922E+02
  0
ARC
  8
0
 62
4
 10
-1.99150714E+02
 20
7.66781217E+01
 40
6.90072132E+00
 50
3.25615752E+02
 51
3.43842480E+01
  0
ARC
  8
0
 62
4
 10
-1.96349271E+02
 20
7.66781217E+01
 40
6.90072132E+00
 50
1.45615752E+02
 51
2.14384248E+02
  0
LINE
  8
0
 62
4
 10
-2.03249992E+02
 20
7.48694647E+01
 11
-2.02044221E+02
 21
7.27810074E+01
  0
LINE
  8
0
 62
4
 10
-1.92249992E+02
 20
7.48694647E+01
 11
-1.93455764E+02
 21
7.27810074E+01
  0
LINE
  8
0
 62
4
 10
-2.02044221E+02
 20
8.05752360E+01
 11
-1.93455764E+02
 21
8.05752360E+01
  0
LINE
  8
0
 62
4
 10
-2.02044221E+02
 20
7.27810074E+01
 11
-1.93455764E+02
 21
7.27810074E+01
  0
ARC
  8
0
 62
7
 10
-1.81749992E+02
 20
8.83694647E+01
 40
9.99998474E+00
 50
3.28211647E+02
 51
0.00000000E+00
  0
ARC
  8
0
 62
7
 10
-1.81749992E+02
 20
8.83694647E+01
 40
9.99998474E+00
 50
0.00000000E+00
 51
3.17883527E+01
  0
ARC
  8
0
 62
7
 10
1.98750008E+02
 20
8.83694647E+01
 40
1.80000000E+01
 50
1.52734464E+02
 51
1.80000019E+02
  0
ARC
  8
0
 62
7
 10
3.92499771E+01
 20
1.06869465E+02
 40
5.00000000E-01
 50
0.00000000E+00
 51
8.99999818E+01
  0
ARC
  8
0
 62
7
 10
-1.56750038E+02
 20
1.06869480E+02
 40
5.00000000E-01
 50
9.00000369E+01
 51
1.80000019E+02
  0
ARC
  8
0
 62
7
 10
-1.65000008E+02
 20
1.05378010E+02
 40
2.50000000E-01
 50
9.19988643E+01
 51
1.80000019E+02
  0
ARC
  8
0
 62
7
 10
-1.69750031E+02
 20
1.04869434E+02
 40
5.00000000E-01
 50
9.00000369E+01
 51
1.80000019E+02
  0
ARC
  8
0
 62
7
 10
2.14257668E+02
 20
8.83694647E+01
 40
1.65077610E+01
 50
1.57376970E+02
 51
2.02623012E+02
  0
ARC
  8
0
 62
7
 10
1.91242226E+02
 20
8.83694647E+01
 40
1.65077610E+01
 50
3.37376952E+02
 51
2.26229935E+01
  0
ARC
  8
0
 62
7
 10
2.01971962E+02
 20
7.90008276E+01
 40
4.22211885E+00
 50
1.34359575E+02
 51
2.10000122E+02
  0
ARC
  8
0
 62
7
 10
2.03527794E+02
 20
7.90008276E+01
 40
4.22211885E+00
 50
3.29999842E+02
 51
4.56403895E+01
  0
ARC
  8
0
 62
7
 10
1.98750008E+02
 20
8.83694647E+01
 40
1.80000000E+01
 50
1.79999977E+02
 51
2.07265533E+02
  0
ARC
  8
0
 62
7
 10
3.92499771E+01
 20
6.98694799E+01
 40
5.00000000E-01
 50
2.70000018E+02
 51
0.00000000E+00
  0
ARC
  8
0
 62
7
 10
2.03527794E+02
 20
9.77381170E+01
 40
4.22208166E+00
 50
3.14359324E+02
 51
2.99999804E+01
  0
ARC
  8
0
 62
7
 10
2.01971962E+02
 20
9.77381170E+01
 40
4.22208166E+00
 50
1.49999983E+02
 51
2.25640640E+02
  0
ARC
  8
0
 62
7
 10
-1.56750038E+02
 20
6.98694647E+01
 40
5.00000000E-01
 50
1.79999977E+02
 51
2.69999974E+02
  0
ARC
  8
0
 62
7
 10
-1.65000008E+02
 20
7.13609274E+01
 40
2.50000000E-01
 50
1.79999977E+02
 51
2.68001132E+02
  0
ARC
  8
0
 62
7
 10
-1.69750031E+02
 20
7.18695028E+01
 40
5.00000000E-01
 50
1.79999977E+02
 51
2.69999974E+02
  0
LINE
  8
0
 62
7
 10
-1.83249992E+02
 20
8.01894720E+01
 11
-1.80249992E+02
 21
8.01894720E+01
  0
LINE
  8
0
 62
7
 10
-1.83249992E+02
 20
9.65494573E+01
 11
-1.80249992E+02
 21
9.65494573E+01
  0
LINE
  8
0
 62
7
 10
-1.80250000E+02
 20
7.93694769E+01
 11
-1.77250014E+02
 21
7.83694841E+01
  0
LINE
  8
0
 62
7
 10
-1.80249998E+02
 20
8.52470123E+01
 11
-1.77250021E+02
 21
8.31016629E+01
  0
LINE
  8
0
 62
7
 10
-1.80249979E+02
 20
9.14918986E+01
 11
-1.77249987E+02
 21
9.36373048E+01
  0
LINE
  8
0
 62
7
 10
-1.80250001E+02
 20
9.73694693E+01
 11
-1.77250013E+02
 21
9.83694552E+01
  0
LINE
  8
0
 62
7
 10
-1.77250099E+02
 20
9.83694494E+01
 11
-1.70250069E+02
 21
9.83694494E+01
  0
LINE
  8
0
 62
7
 10
-2.12250030E+02
 20
8.08695438E+01
 11
-2.10749995E+02
 21
7.93695543E+01
  0
LINE
  8
0
 62
2
 10
-2.11569939E+02
 20
8.01894720E+01
 11
-2.03249992E+02
 21
8.01894720E+01
  0
LINE
  8
0
 62
7
 10
-2.10749931E+02
 20
7.93694647E+01
 11
-2.03249992E+02
 21
7.93694647E+01
  0
LINE
  8
0
 62
7
 10
-2.12249935E+02
 20
9.58693309E+01
 11
-2.10749888E+02
 21
9.73693311E+01
  0
LINE
  8
0
 62
2
 10
-2.11569939E+02
 20
9.65494573E+01
 11
-2.03249992E+02
 21
9.65494573E+01
  0
LINE
  8
0
 62
7
 10
-2.10749931E+02
 20
9.73694647E+01
 11
-2.03249992E+02
 21
9.73694647E+01
  0
LINE
  8
0
 62
7
 10
-2.10749992E+02
 20
7.93694647E+01
 11
-2.10749992E+02
 21
9.73694647E+01
  0
LINE
  8
0
 62
7
 10
-2.12249992E+02
 20
8.08694952E+01
 11
-2.12249992E+02
 21
9.58693121E+01
  0
LINE
  8
0
 62
7
 10
-1.83249992E+02
 20
7.93694647E+01
 11
-1.83249992E+02
 21
9.73694647E+01
  0
LINE
  8
0
 62
7
 10
-1.73250038E+02
 20
8.31016577E+01
 11
-1.73250038E+02
 21
9.36373175E+01
  0
LINE
  8
0
 62
7
 10
-1.77250008E+02
 20
9.83694952E+01
 11
-1.77250008E+02
 21
9.36373175E+01
  0
LINE
  8
0
 62
7
 10
-1.77250099E+02
 20
7.83694799E+01
 11
-1.70250069E+02
 21
7.83694799E+01
  0
LINE
  8
0
 62
2
 10
-1.79283693E+02
 20
8.45559947E+01
 11
-1.73250011E+02
 21
9.36373129E+01
  0
LINE
  8
0
 62
2
 10
-1.79283678E+02
 20
9.21829452E+01
 11
-1.73250028E+02
 21
8.31016747E+01
  0
LINE
  8
0
 62
7
 10
-1.77250008E+02
 20
7.83694799E+01
 11
-1.77250008E+02
 21
8.31016577E+01
  0
LINE
  8
0
 62
7
 10
-1.77250099E+02
 20
8.31016577E+01
 11
-1.73250038E+02
 21
8.31016577E+01
  0
LINE
  8
0
 62
7
 10
-1.77250099E+02
 20
9.36373175E+01
 11
-1.73250038E+02
 21
9.36373175E+01
  0
LINE
  8
0
 62
7
 10
-1.80249992E+02
 20
9.73694647E+01
 11
-1.80249992E+02
 21
7.93694647E+01
  0
LINE
  8
0
 62
7
 10
3.77499466E+01
 20
1.07369465E+02
 11
3.92499390E+01
 21
1.07369465E+02
  0
LINE
  8
0
 62
7
 10
3.97499695E+01
 20
6.98694799E+01
 11
3.97499695E+01
 21
1.06869465E+02
  0
LINE
  8
0
 62
7
 10
3.77499657E+01
 20
5.73694647E+01
 11
3.77499657E+01
 21
1.19369480E+02
  0
LINE
  8
0
 62
7
 10
1.82749901E+02
 20
8.01234167E+01
 11
1.82749901E+02
 21
9.66155279E+01
  0
LINE
  8
0
 62
7
 10
1.14749962E+02
 20
7.03694723E+01
 11
1.14749962E+02
 21
1.06369480E+02
  0
LINE
  8
0
 62
7
 10
1.14749886E+02
 20
1.06369480E+02
 11
1.97749870E+02
 21
1.06369480E+02
  0
LINE
  8
0
 62
7
 10
1.19749886E+02
 20
7.03694723E+01
 11
1.19749886E+02
 21
1.06369480E+02
  0
LINE
  8
0
 62
2
 10
1.90249794E+02
 20
8.83694432E+01
 11
1.97749797E+02
 21
9.66155210E+01
  0
LINE
  8
0
 62
2
 10
1.82749784E+02
 20
9.66154904E+01
 11
1.90249785E+02
 21
8.83694147E+01
  0
LINE
  8
0
 62
7
 10
1.82749870E+02
 20
9.66155432E+01
 11
1.97749870E+02
 21
9.66155432E+01
  0
LINE
  8
0
 62
7
 10
1.14749939E+02
 20
9.83694494E+01
 11
3.97499695E+01
 21
9.83694494E+01
  0
LINE
  8
0
 62
7
 10
1.27499657E+01
 20
1.19369480E+02
 11
3.77499657E+01
 21
1.19369480E+02
  0
LINE
  8
0
 62
7
 10
-1.70250023E+02
 20
7.18695028E+01
 11
-1.70250023E+02
 21
1.04869434E+02
  0
LINE
  8
0
 62
7
 10
-1.56750038E+02
 20
1.07369465E+02
 11
-1.55250023E+02
 21
1.07369465E+02
  0
LINE
  8
0
 62
7
 10
-1.69750031E+02
 20
1.05369465E+02
 11
-1.65241478E+02
 21
1.05369465E+02
  0
LINE
  8
0
 62
7
 10
-1.65250023E+02
 20
1.05369465E+02
 11
-1.65250023E+02
 21
1.05378010E+02
  0
LINE
  8
0
 62
7
 10
-1.65008741E+02
 20
1.05627950E+02
 11
-1.57250066E+02
 21
1.05898889E+02
  0
LINE
  8
0
 62
7
 10
-1.57250031E+02
 20
6.98694647E+01
 11
-1.57250031E+02
 21
1.06869480E+02
  0
LINE
  8
0
 62
7
 10
-1.55250023E+02
 20
5.81550558E+01
 11
-1.55250023E+02
 21
1.18583881E+02
  0
LINE
  8
0
 62
7
 10
-1.50250023E+02
 20
1.19369480E+02
 11
-1.24250000E+02
 21
1.19369480E+02
  0
LINE
  8
0
 62
7
 10
-1.55249959E+02
 20
1.18583982E+02
 11
-1.24250003E+02
 21
1.19395744E+02
  0
LINE
  8
0
 62
7
 10
-1.50250023E+02
 20
1.18714878E+02
 11
-1.50250023E+02
 21
1.19369480E+02
  0
LINE
  8
0
 62
7
 10
1.27499657E+01
 20
5.73694647E+01
 11
1.27499657E+01
 21
1.19369480E+02
  0
LINE
  8
0
 62
7
 10
-1.82500196E+01
 20
5.73431814E+01
 11
-1.82500196E+01
 21
1.19395756E+02
  0
LINE
  8
0
 62
7
 10
7.74998474E+00
 20
1.19369480E+02
 11
-1.82500196E+01
 21
1.19369480E+02
  0
LINE
  8
0
 62
7
 10
1.27500097E+01
 20
1.18583988E+02
 11
-1.82500196E+01
 21
1.19395753E+02
  0
LINE
  8
0
 62
7
 10
7.74996567E+00
 20
1.18714878E+02
 11
7.74996567E+00
 21
1.19369480E+02
  0
LINE
  8
0
  6
CENTER
 62
2
 10
4.09647980E+01
 20
1.11869465E+02
 11
-1.59106300E+02
 21
1.11869465E+02
  0
LINE
  8
0
 62
7
 10
-1.82500196E+01
 20
1.15369449E+02
 11
-2.47500000E+01
 21
1.15369449E+02
  0
LINE
  8
0
 62
7
 10
3.77499466E+01
 20
6.93694723E+01
 11
3.92499390E+01
 21
6.93694723E+01
  0
LINE
  8
0
 62
7
 10
1.14749886E+02
 20
7.03694723E+01
 11
1.97749870E+02
 21
7.03694723E+01
  0
LINE
  8
0
 62
7
 10
1.97749901E+02
 20
1.06369480E+02
 11
1.97749901E+02
 21
7.03694723E+01
  0
LINE
  8
0
 62
2
 10
1.90249796E+02
 20
8.83694939E+01
 11
1.97749804E+02
 21
8.01234105E+01
  0
LINE
  8
0
 62
2
 10
1.82749785E+02
 20
8.01234326E+01
 11
1.90249788E+02
 21
8.83695104E+01
  0
LINE
  8
0
 62
7
 10
1.82749870E+02
 20
8.01233862E+01
 11
1.97749870E+02
 21
8.01233862E+01
  0
LINE
  8
0
 62
7
 10
2.06479820E+02
 20
8.20195043E+01
 11
1.99020103E+02
 21
8.20195043E+01
  0
LINE
  8
0
 62
7
 10
2.07750134E+02
 20
7.78696279E+01
 11
2.06479970E+02
 21
7.56696383E+01
  0
LINE
  8
0
 62
7
 10
1.99020390E+02
 20
7.56695450E+01
 11
1.97750229E+02
 21
7.78695279E+01
  0
LINE
  8
0
 62
7
 10
2.06479820E+02
 20
7.56694830E+01
 11
1.99020103E+02
 21
7.56694830E+01
  0
LINE
  8
0
 62
7
 10
2.11750069E+02
 20
8.18694773E+01
 11
2.10249991E+02
 21
8.03694447E+01
  0
LINE
  8
0
 62
2
 10
2.11069847E+02
 20
8.11894720E+01
 11
2.07750008E+02
 21
8.11894720E+01
  0
LINE
  8
0
 62
7
 10
2.10249809E+02
 20
8.03694647E+01
 11
2.07750008E+02
 21
8.03694647E+01
  0
LINE
  8
0
 62
7
 10
2.10249931E+02
 20
8.03694799E+01
 11
2.10249931E+02
 21
9.63694799E+01
  0
LINE
  8
0
 62
7
 10
2.06479820E+02
 20
9.47194403E+01
 11
1.99020103E+02
 21
9.47194403E+01
  0
LINE
  8
0
 62
7
 10
1.99020291E+02
 20
1.01069486E+02
 11
1.97750081E+02
 21
9.88694176E+01
  0
LINE
  8
0
 62
7
 10
2.07750358E+02
 20
9.88695999E+01
 11
2.06480179E+02
 21
1.01069614E+02
  0
LINE
  8
0
 62
7
 10
2.06479820E+02
 20
1.01069462E+02
 11
1.99020103E+02
 21
1.01069462E+02
  0
LINE
  8
0
 62
7
 10
2.07749962E+02
 20
9.88694799E+01
 11
2.07749962E+02
 21
7.78694647E+01
  0
LINE
  8
0
 62
7
 10
2.11749822E+02
 20
9.48693171E+01
 11
2.10249789E+02
 21
9.63693039E+01
  0
LINE
  8
0
 62
2
 10
2.11069847E+02
 20
9.55494726E+01
 11
2.07750008E+02
 21
9.55494726E+01
  0
LINE
  8
0
 62
7
 10
2.10249809E+02
 20
9.63694799E+01
 11
2.07750008E+02
 21
9.63694799E+01
  0
LINE
  8
0
 62
7
 10
2.11749992E+02
 20
8.18694799E+01
 11
2.11749992E+02
 21
9.48694799E+01
  0
LINE
  8
0
 62
7
 10
1.14749939E+02
 20
7.83694952E+01
 11
3.97499695E+01
 21
7.83694952E+01
  0
LINE
  8
0
 62
7
 10
1.27499657E+01
 20
5.73694647E+01
 11
3.77499657E+01
 21
5.73694647E+01
  0
LINE
  8
0
 62
7
 10
-1.82500196E+01
 20
6.13694952E+01
 11
-1.24250000E+02
 21
6.13694952E+01
  0
LINE
  8
0
  6
CENTER
 62
2
 10
4.09647980E+01
 20
6.48694799E+01
 11
-1.59106300E+02
 21
6.48694799E+01
  0
LINE
  8
0
  6
CENTER
 62
2
 10
-5.25002670E+00
 20
1.01905369E+02
 11
-5.25002670E+00
 21
1.22174946E+02
  0
LINE
  8
0
 62
7
 10
7.74996567E+00
 20
5.80240667E+01
 11
7.74996567E+00
 21
5.73694647E+01
  0
LINE
  8
0
 62
7
 10
1.27500098E+01
 20
5.81549498E+01
 11
-1.82500192E+01
 21
5.73431855E+01
  0
LINE
  8
0
 62
7
 10
7.74998474E+00
 20
5.73694647E+01
 11
-1.82500196E+01
 21
5.73694647E+01
  0
LINE
  8
0
  6
CENTER
 62
2
 10
-1.37250031E+02
 20
1.02136173E+02
 11
-1.37250031E+02
 21
1.22174946E+02
  0
LINE
  8
0
 62
7
 10
-1.65250023E+02
 20
7.13694723E+01
 11
-1.65250023E+02
 21
1.05369465E+02
  0
LINE
  8
0
 62
7
 10
-1.50250023E+02
 20
5.80240667E+01
 11
-1.50250023E+02
 21
5.73694647E+01
  0
LINE
  8
0
 62
7
 10
-1.55249959E+02
 20
5.81549718E+01
 11
-1.24250003E+02
 21
5.73432094E+01
  0
LINE
  8
0
 62
7
 10
-1.50250023E+02
 20
5.73694647E+01
 11
-1.24250000E+02
 21
5.73694647E+01
  0
LINE
  8
0
 62
7
 10
-1.24250000E+02
 20
5.73432043E+01
 11
-1.24250000E+02
 21
1.19395740E+02
  0
LINE
  8
0
 62
7
 10
-1.65008741E+02
 20
7.11109954E+01
 11
-1.57250065E+02
 21
7.08400565E+01
  0
LINE
  8
0
 62
7
 10
-1.65250023E+02
 20
7.13694723E+01
 11
-1.65250023E+02
 21
7.13609274E+01
  0
LINE
  8
0
 62
7
 10
-1.69750031E+02
 20
7.13694723E+01
 11
-1.65241478E+02
 21
7.13694723E+01
  0
LINE
  8
0
 62
7
 10
-1.56750038E+02
 20
6.93694723E+01
 11
-1.55250023E+02
 21
6.93694723E+01
  0
LINE
  8
0
  6
CENTER
 62
2
 10
-2.14190727E+02
 20
8.83694647E+01
 11
2.14027733E+02
 21
8.83694647E+01
  0
LINE
  8
0
 62
4
 10
-8.37500000E+01
 20
1.20359316E+02
 11
-8.37500000E+01
 21
1.31875902E+02
  0
LINE
  8
0
 62
6
 10
-7.54820508E+01
 20
1.15859316E+02
 11
-7.20179492E+01
 21
1.21859316E+02
  0
LINE
  8
0
 62
6
 10
-6.30178881E+01
 20
1.21859316E+02
 11
-6.64819897E+01
 21
1.15859316E+02
  0
LINE
  8
0
 62
4
 10
-5.47499390E+01
 20
1.20359316E+02
 11
-6.38839136E+01
 21
1.20359316E+02
  0
LINE
  8
0
  6
CENTER
 62
6
 10
-1.97499390E+01
 20
1.18859316E+02
 11
-6.67499390E+01
 21
1.18859316E+02
  0
LINE
  8
0
 62
4
 10
-5.47499390E+01
 20
1.17359316E+02
 11
-6.56159644E+01
 21
1.17359316E+02
  0
LINE
  8
0
 62
4
 10
-9.02500000E+01
 20
1.17359316E+02
 11
-7.46160254E+01
 21
1.17359316E+02
  0
LINE
  8
0
  6
CENTER
 62
6
 10
-1.18750000E+02
 20
1.18859316E+02
 11
-7.17500000E+01
 21
1.18859316E+02
  0
LINE
  8
0
 62
4
 10
-9.02500000E+01
 20
1.20359316E+02
 11
-7.28839746E+01
 21
1.20359316E+02
  0
LINE
  8
0
 62
4
 10
-8.37500000E+01
 20
1.15369449E+02
 11
-8.37500000E+01
 21
1.17359316E+02
  0
LINE
  8
0
 62
4
 10
-1.13750000E+02
 20
1.31875902E+02
 11
-1.13750000E+02
 21
1.21176228E+02
  0
LINE
  8
0
 62
4
 10
-9.02500000E+01
 20
1.21176228E+02
 11
-9.02500000E+01
 21
1.17103786E+02
  0
LINE
  8
0
  6
CENTER
 62
6
 10
-4.87500000E+01
 20
1.07699624E+02
 11
-5.37500000E+01
 21
1.07699624E+02
  0
LINE
  8
0
  6
CENTER
 62
6
 10
-5.12500000E+01
 20
1.10199624E+02
 11
-5.12500000E+01
 21
1.05199624E+02
  0
LINE
  8
0
  6
CENTER
 62
6
 10
-4.32500000E+01
 20
1.10199624E+02
 11
-4.32500000E+01
 21
1.05199624E+02
  0
LINE
  8
0
  6
CENTER
 62
6
 10
-4.07500000E+01
 20
1.07699624E+02
 11
-4.57500000E+01
 21
1.07699624E+02
  0
LINE
  8
0
 62
4
 10
-3.97500000E+01
 20
1.30087326E+02
 11
-3.97500000E+01
 21
1.02520866E+02
  0
LINE
  8
0
 62
4
 10
-5.47500000E+01
 20
1.31875902E+02
 11
-5.47500000E+01
 21
1.02520866E+02
  0
LINE
  8
0
 62
4
 10
-2.47500000E+01
 20
1.31875902E+02
 11
-2.47500000E+01
 21
1.14260943E+02
  0
LINE
  8
0
  6
CENTER
 62
6
 10
-3.22500000E+01
 20
1.29230288E+02
 11
-3.22500000E+01
 21
1.22081094E+02
  0
LINE
  8
0
  6
CENTER
 62
6
 10
-2.86754031E+01
 20
1.25655691E+02
 11
-3.58245969E+01
 21
1.25655691E+02
  0
LINE
  8
0
 62
4
 10
-5.47500000E+01
 20
1.31875902E+02
 11
-2.47500000E+01
 21
1.31875902E+02
  0
LINE
  8
0
 62
4
 10
-5.47500000E+01
 20
1.30087326E+02
 11
-2.47500000E+01
 21
1.30087326E+02
  0
LINE
  8
0
 62
4
 10
-5.47500000E+01
 20
1.28871789E+02
 11
-3.97500000E+01
 21
1.28871789E+02
  0
LINE
  8
0
 62
4
 10
-5.35884360E+01
 20
1.12897014E+02
 11
-4.10092527E+01
 21
1.12897014E+02
  0
LINE
  8
0
 62
4
 10
-5.47500000E+01
 20
1.02520866E+02
 11
-3.97500000E+01
 21
1.02520866E+02
  0
LINE
  8
0
 62
4
 10
-3.97500000E+01
 20
1.14260943E+02
 11
-2.47500000E+01
 21
1.14260943E+02
  0
LINE
  8
0
 62
4
 10
-3.97500000E+01
 20
1.21716460E+02
 11
-2.47500000E+01
 21
1.21716460E+02
  0
LINE
  8
0
 62
4
 10
-3.97500000E+01
 20
1.21647001E+02
 11
-2.47500000E+01
 21
1.21647001E+02
  0
POLYLINE
  8
0
 62
4
 66
1
  0
VERTEX
  8
0
 62
4
 10
-3.45000000E+01
 20
1.25655691E+02
  0
VERTEX
  8
0
 62
4
 10
-3.44914381E+01
 20
1.25462570E+02
  0
VERTEX
  8
0
 62
4
 10
-3.44658174E+01
 20
1.25270918E+02
  0
VERTEX
  8
0
 62
4
 10
-3.44233331E+01
 20
1.25082195E+02
  0
VERTEX
  8
0
 62
4
 10
-3.43643084E+01
 20
1.24897837E+02
  0
VERTEX
  8
0
 62
4
 10
-3.42891925E+01
 20
1.24719246E+02
  0
VERTEX
  8
0
 62
4
 10
-3.41985572E+01
 20
1.24547782E+02
  0
VERTEX
  8
0
 62
4
 10
-3.40930921E+01
 20
1.24384750E+02
  0
VERTEX
  8
0
 62
4
 10
-3.39736000E+01
 20
1.24231391E+02
  0
VERTEX
  8
0
 62
4
 10
-3.38409903E+01
 20
1.24088871E+02
  0
VERTEX
  8
0
 62
4
 10
-3.36962721E+01
 20
1.23958276E+02
  0
VERTEX
  8
0
 62
4
 10
-3.35405470E+01
 20
1.23840600E+02
  0
VERTEX
  8
0
 62
4
 10
-3.33750000E+01
 20
1.23736737E+02
  0
VERTEX
  8
0
 62
4
 10
-3.32008911E+01
 20
1.23647478E+02
  0
VERTEX
  8
0
 62
4
 10
-3.30195453E+01
 20
1.23573504E+02
  0
VERTEX
  8
0
 62
4
 10
-3.28323429E+01
 20
1.23515376E+02
  0
VERTEX
  8
0
 62
4
 10
-3.26407084E+01
 20
1.23473537E+02
  0
VERTEX
  8
0
 62
4
 10
-3.24461004E+01
 20
1.23448305E+02
  0
VERTEX
  8
0
 62
4
 10
-3.22500000E+01
 20
1.23439874E+02
  0
VERTEX
  8
0
 62
4
 10
-3.20538996E+01
 20
1.23448305E+02
  0
VERTEX
  8
0
 62
4
 10
-3.18592916E+01
 20
1.23473537E+02
  0
VERTEX
  8
0
 62
4
 10
-3.16676572E+01
 20
1.23515376E+02
  0
VERTEX
  8
0
 62
4
 10
-3.14804547E+01
 20
1.23573504E+02
  0
VERTEX
  8
0
 62
4
 10
-3.12991089E+01
 20
1.23647478E+02
  0
VERTEX
  8
0
 62
4
 10
-3.11250000E+01
 20
1.23736737E+02
  0
VERTEX
  8
0
 62
4
 10
-3.09594530E+01
 20
1.23840600E+02
  0
VERTEX
  8
0
 62
4
 10
-3.08037279E+01
 20
1.23958276E+02
  0
VERTEX
  8
0
 62
4
 10
-3.06590097E+01
 20
1.24088871E+02
  0
VERTEX
  8
0
 62
4
 10
-3.05264000E+01
 20
1.24231391E+02
  0
VERTEX
  8
0
 62
4
 10
-3.04069079E+01
 20
1.24384750E+02
  0
VERTEX
  8
0
 62
4
 10
-3.03014428E+01
 20
1.24547782E+02
  0
VERTEX
  8
0
 62
4
 10
-3.02108075E+01
 20
1.24719246E+02
  0
VERTEX
  8
0
 62
4
 10
-3.01356916E+01
 20
1.24897837E+02
  0
VERTEX
  8
0
 62
4
 10
-3.00766669E+01
 20
1.25082195E+02
  0
VERTEX
  8
0
 62
4
 10
-3.00341826E+01
 20
1.25270918E+02
  0
VERTEX
  8
0
 62
4
 10
-3.00085619E+01
 20
1.25462570E+02
  0
VERTEX
  8
0
 62
4
 10
-3.00000000E+01
 20
1.25655691E+02
  0
VERTEX
  8
0
 62
4
 10
-3.00085619E+01
 20
1.25848812E+02
  0
VERTEX
  8
0
 62
4
 10
-3.00341826E+01
 20
1.26040464E+02
  0
VERTEX
  8
0
 62
4
 10
-3.00766669E+01
 20
1.26229187E+02
  0
VERTEX
  8
0
 62
4
 10
-3.01356916E+01
 20
1.26413545E+02
  0
VERTEX
  8
0
 62
4
 10
-3.02108075E+01
 20
1.26592136E+02
  0
VERTEX
  8
0
 62
4
 10
-3.03014428E+01
 20
1.26763600E+02
  0
VERTEX
  8
0
 62
4
 10
-3.04069079E+01
 20
1.26926632E+02
  0
VERTEX
  8
0
 62
4
 10
-3.05264000E+01
 20
1.27079991E+02
  0
VERTEX
  8
0
 62
4
 10
-3.06590097E+01
 20
1.27222511E+02
  0
VERTEX
  8
0
 62
4
 10
-3.08037279E+01
 20
1.27353106E+02
  0
VERTEX
  8
0
 62
4
 10
-3.09594530E+01
 20
1.27470782E+02
  0
VERTEX
  8
0
 62
4
 10
-3.11250000E+01
 20
1.27574645E+02
  0
VERTEX
  8
0
 62
4
 10
-3.12991089E+01
 20
1.27663904E+02
  0
VERTEX
  8
0
 62
4
 10
-3.14804547E+01
 20
1.27737878E+02
  0
VERTEX
  8
0
 62
4
 10
-3.16676571E+01
 20
1.27796006E+02
  0
VERTEX
  8
0
 62
4
 10
-3.18592916E+01
 20
1.27837845E+02
  0
VERTEX
  8
0
 62
4
 10
-3.20538996E+01
 20
1.27863077E+02
  0
VERTEX
  8
0
 62
4
 10
-3.22500000E+01
 20
1.27871508E+02
  0
VERTEX
  8
0
 62
4
 10
-3.24461004E+01
 20
1.27863077E+02
  0
VERTEX
  8
0
 62
4
 10
-3.26407084E+01
 20
1.27837845E+02
  0
VERTEX
  8
0
 62
4
 10
-3.28323428E+01
 20
1.27796006E+02
  0
VERTEX
  8
0
 62
4
 10
-3.30195453E+01
 20
1.27737878E+02
  0
VERTEX
  8
0
 62
4
 10
-3.32008911E+01
 20
1.27663904E+02
  0
VERTEX
  8
0
 62
4
 10
-3.33750000E+01
 20
1.27574645E+02
  0
VERTEX
  8
0
 62
4
 10
-3.35405470E+01
 20
1.27470782E+02
  0
VERTEX
  8
0
 62
4
 10
-3.36962721E+01
 20
1.27353106E+02
  0
VERTEX
  8
0
 62
4
 10
-3.38409903E+01
 20
1.27222511E+02
  0
VERTEX
  8
0
 62
4
 10
-3.39736000E+01
 20
1.27079991E+02
  0
VERTEX
  8
0
 62
4
 10
-3.40930921E+01
 20
1.26926632E+02
  0
VERTEX
  8
0
 62
4
 10
-3.41985572E+01
 20
1.26763600E+02
  0
VERTEX
  8
0
 62
4
 10
-3.42891925E+01
 20
1.26592136E+02
  0
VERTEX
  8
0
 62
4
 10
-3.43643084E+01
 20
1.26413545E+02
  0
VERTEX
  8
0
 62
4
 10
-3.44233331E+01
 20
1.26229187E+02
  0
VERTEX
  8
0
 62
4
 10
-3.44658174E+01
 20
1.26040464E+02
  0
VERTEX
  8
0
 62
4
 10
-3.44914381E+01
 20
1.25848812E+02
  0
VERTEX
  8
0
 62
4
 10
-3.45000000E+01
 20
1.25655691E+02
  0
SEQEND
  8
0
  0
POLYLINE
  8
0
 62
4
 66
1
  0
VERTEX
  8
0
 62
4
 10
-4.12500000E+01
 20
1.07699624E+02
  0
VERTEX
  8
0
 62
4
 10
-4.12580514E+01
 20
1.07876179E+02
  0
VERTEX
  8
0
 62
4
 10
-4.12821408E+01
 20
1.08051312E+02
  0
VERTEX
  8
0
 62
4
 10
-4.13220743E+01
 20
1.08223614E+02
  0
VERTEX
  8
0
 62
4
 10
-4.13775303E+01
 20
1.08391697E+02
  0
VERTEX
  8
0
 62
4
 10
-4.14480623E+01
 20
1.08554208E+02
  0
VERTEX
  8
0
 62
4
 10
-4.15331024E+01
 20
1.08709838E+02
  0
VERTEX
  8
0
 62
4
 10
-4.16319660E+01
 20
1.08857335E+02
  0
VERTEX
  8
0
 62
4
 10
-4.17438571E+01
 20
1.08995510E+02
  0
VERTEX
  8
0
 62
4
 10
-4.18678747E+01
 20
1.09123252E+02
  0
VERTEX
  8
0
 62
4
 10
-4.20030204E+01
 20
1.09239531E+02
  0
VERTEX
  8
0
 62
4
 10
-4.21482060E+01
 20
1.09343412E+02
  0
VERTEX
  8
0
 62
4
 10
-4.23022627E+01
 20
1.09434059E+02
  0
VERTEX
  8
0
 62
4
 10
-4.24639499E+01
 20
1.09510740E+02
  0
VERTEX
  8
0
 62
4
 10
-4.26319660E+01
 20
1.09572840E+02
  0
VERTEX
  8
0
 62
4
 10
-4.28049581E+01
 20
1.09619857E+02
  0
VERTEX
  8
0
 62
4
 10
-4.29815335E+01
 20
1.09651414E+02
  0
VERTEX
  8
0
 62
4
 10
-4.31602703E+01
 20
1.09667256E+02
  0
VERTEX
  8
0
 62
4
 10
-4.33397296E+01
 20
1.09667256E+02
  0
VERTEX
  8
0
 62
4
 10
-4.35184665E+01
 20
1.09651414E+02
  0
VERTEX
  8
0
 62
4
 10
-4.36950419E+01
 20
1.09619857E+02
  0
VERTEX
  8
0
 62
4
 10
-4.38680340E+01
 20
1.09572840E+02
  0
VERTEX
  8
0
 62
4
 10
-4.40360500E+01
 20
1.09510740E+02
  0
VERTEX
  8
0
 62
4
 10
-4.41977373E+01
 20
1.09434059E+02
  0
VERTEX
  8
0
 62
4
 10
-4.43517939E+01
 20
1.09343412E+02
  0
VERTEX
  8
0
 62
4
 10
-4.44969796E+01
 20
1.09239531E+02
  0
VERTEX
  8
0
 62
4
 10
-4.46321253E+01
 20
1.09123252E+02
  0
VERTEX
  8
0
 62
4
 10
-4.47561429E+01
 20
1.08995510E+02
  0
VERTEX
  8
0
 62
4
 10
-4.48680340E+01
 20
1.08857335E+02
  0
VERTEX
  8
0
 62
4
 10
-4.49668976E+01
 20
1.08709838E+02
  0
VERTEX
  8
0
 62
4
 10
-4.50519377E+01
 20
1.08554208E+02
  0
VERTEX
  8
0
 62
4
 10
-4.51224697E+01
 20
1.08391697E+02
  0
VERTEX
  8
0
 62
4
 10
-4.51779257E+01
 20
1.08223614E+02
  0
VERTEX
  8
0
 62
4
 10
-4.52178592E+01
 20
1.08051312E+02
  0
VERTEX
  8
0
 62
4
 10
-4.52419486E+01
 20
1.07876179E+02
  0
VERTEX
  8
0
 62
4
 10
-4.52500000E+01
 20
1.07699624E+02
  0
SEQEND
  8
0
  0
POLYLINE
  8
0
 62
4
 66
1
  0
VERTEX
  8
0
 62
4
 10
-4.52500000E+01
 20
1.07163985E+02
  0
VERTEX
  8
0
 62
4
 10
-4.52423894E+01
 20
1.06992322E+02
  0
VERTEX
  8
0
 62
4
 10
-4.52196155E+01
 20
1.06821965E+02
  0
VERTEX
  8
0
 62
4
 10
-4.51818517E+01
 20
1.06654211E+02
  0
VERTEX
  8
0
 62
4
 10
-4.51293852E+01
 20
1.06490337E+02
  0
VERTEX
  8
0
 62
4
 10
-4.50626156E+01
 20
1.06331590E+02
  0
VERTEX
  8
0
 62
4
 10
-4.49820508E+01
 20
1.06179177E+02
  0
VERTEX
  8
0
 62
4
 10
-4.48883041E+01
 20
1.06034260E+02
  0
VERTEX
  8
0
 62
4
 10
-4.47820889E+01
 20
1.05897941E+02
  0
VERTEX
  8
0
 62
4
 10
-4.46642136E+01
 20
1.05771257E+02
  0
VERTEX
  8
0
 62
4
 10
-4.45355752E+01
 20
1.05655172E+02
  0
VERTEX
  8
0
 62
4
 10
-4.43971529E+01
 20
1.05550570E+02
  0
VERTEX
  8
0
 62
4
 10
-4.42500000E+01
 20
1.05458248E+02
  0
VERTEX
  8
0
 62
4
 10
-4.40952365E+01
 20
1.05378907E+02
  0
VERTEX
  8
0
 62
4
 10
-4.39340403E+01
 20
1.05313152E+02
  0
VERTEX
  8
0
 62
4
 10
-4.37676381E+01
 20
1.05261483E+02
  0
VERTEX
  8
0
 62
4
 10
-4.35972964E+01
 20
1.05224292E+02
  0
VERTEX
  8
0
 62
4
 10
-4.34243115E+01
 20
1.05201864E+02
  0
VERTEX
  8
0
 62
4
 10
-4.32500000E+01
 20
1.05194369E+02
  0
VERTEX
  8
0
 62
4
 10
-4.30756885E+01
 20
1.05201864E+02
  0
VERTEX
  8
0
 62
4
 10
-4.29027037E+01
 20
1.05224292E+02
  0
VERTEX
  8
0
 62
4
 10
-4.27323619E+01
 20
1.05261483E+02
  0
VERTEX
  8
0
 62
4
 10
-4.25659597E+01
 20
1.05313152E+02
  0
VERTEX
  8
0
 62
4
 10
-4.24047635E+01
 20
1.05378907E+02
  0
VERTEX
  8
0
 62
4
 10
-4.22500000E+01
 20
1.05458248E+02
  0
VERTEX
  8
0
 62
4
 10
-4.21028471E+01
 20
1.05550570E+02
  0
VERTEX
  8
0
 62
4
 10
-4.19644248E+01
 20
1.05655172E+02
  0
VERTEX
  8
0
 62
4
 10
-4.18357864E+01
 20
1.05771257E+02
  0
VERTEX
  8
0
 62
4
 10
-4.17179111E+01
 20
1.05897941E+02
  0
VERTEX
  8
0
 62
4
 10
-4.16116959E+01
 20
1.06034260E+02
  0
VERTEX
  8
0
 62
4
 10
-4.15179492E+01
 20
1.06179177E+02
  0
VERTEX
  8
0
 62
4
 10
-4.14373844E+01
 20
1.06331590E+02
  0
VERTEX
  8
0
 62
4
 10
-4.13706148E+01
 20
1.06490337E+02
  0
VERTEX
  8
0
 62
4
 10
-4.13181483E+01
 20
1.06654211E+02
  0
VERTEX
  8
0
 62
4
 10
-4.12803845E+01
 20
1.06821965E+02
  0
VERTEX
  8
0
 62
4
 10
-4.12576106E+01
 20
1.06992322E+02
  0
VERTEX
  8
0
 62
4
 10
-4.12500000E+01
 20
1.07163985E+02
  0
VERTEX
  8
0
 62
4
 10
-4.12576106E+01
 20
1.07335648E+02
  0
VERTEX
  8
0
 62
4
 10
-4.12803845E+01
 20
1.07506005E+02
  0
VERTEX
  8
0
 62
4
 10
-4.13181483E+01
 20
1.07673759E+02
  0
VERTEX
  8
0
 62
4
 10
-4.13706148E+01
 20
1.07837633E+02
  0
VERTEX
  8
0
 62
4
 10
-4.14373844E+01
 20
1.07996380E+02
  0
VERTEX
  8
0
 62
4
 10
-4.15179492E+01
 20
1.08148793E+02
  0
VERTEX
  8
0
 62
4
 10
-4.16116959E+01
 20
1.08293710E+02
  0
VERTEX
  8
0
 62
4
 10
-4.17179111E+01
 20
1.08430029E+02
  0
VERTEX
  8
0
 62
4
 10
-4.18357864E+01
 20
1.08556713E+02
  0
VERTEX
  8
0
 62
4
 10
-4.19644248E+01
 20
1.08672798E+02
  0
VERTEX
  8
0
 62
4
 10
-4.21028471E+01
 20
1.08777400E+02
  0
VERTEX
  8
0
 62
4
 10
-4.22500000E+01
 20
1.08869722E+02
  0
VERTEX
  8
0
 62
4
 10
-4.24047635E+01
 20
1.08949063E+02
  0
VERTEX
  8
0
 62
4
 10
-4.25659597E+01
 20
1.09014818E+02
  0
VERTEX
  8
0
 62
4
 10
-4.27323619E+01
 20
1.09066487E+02
  0
VERTEX
  8
0
 62
4
 10
-4.29027036E+01
 20
1.09103678E+02
  0
VERTEX
  8
0
 62
4
 10
-4.30756885E+01
 20
1.09126106E+02
  0
VERTEX
  8
0
 62
4
 10
-4.32500000E+01
 20
1.09133601E+02
  0
VERTEX
  8
0
 62
4
 10
-4.34243115E+01
 20
1.09126106E+02
  0
VERTEX
  8
0
 62
4
 10
-4.35972964E+01
 20
1.09103678E+02
  0
VERTEX
  8
0
 62
4
 10
-4.37676381E+01
 20
1.09066487E+02
  0
VERTEX
  8
0
 62
4
 10
-4.39340403E+01
 20
1.09014818E+02
  0
VERTEX
  8
0
 62
4
 10
-4.40952365E+01
 20
1.08949063E+02
  0
VERTEX
  8
0
 62
4
 10
-4.42500000E+01
 20
1.08869722E+02
  0
VERTEX
  8
0
 62
4
 10
-4.43971529E+01
 20
1.08777400E+02
  0
VERTEX
  8
0
 62
4
 10
-4.45355752E+01
 20
1.08672798E+02
  0
VERTEX
  8
0
 62
4
 10
-4.46642136E+01
 20
1.08556713E+02
  0
VERTEX
  8
0
 62
4
 10
-4.47820889E+01
 20
1.08430029E+02
  0
VERTEX
  8
0
 62
4
 10
-4.48883041E+01
 20
1.08293710E+02
  0
VERTEX
  8
0
 62
4
 10
-4.49820508E+01
 20
1.08148793E+02
  0
VERTEX
  8
0
 62
4
 10
-4.50626156E+01
 20
1.07996380E+02
  0
VERTEX
  8
0
 62
4
 10
-4.51293852E+01
 20
1.07837633E+02
  0
VERTEX
  8
0
 62
4
 10
-4.51818517E+01
 20
1.07673759E+02
  0
VERTEX
  8
0
 62
4
 10
-4.52196155E+01
 20
1.07506005E+02
  0
VERTEX
  8
0
 62
4
 10
-4.52423894E+01
 20
1.07335648E+02
  0
VERTEX
  8
0
 62
4
 10
-4.52500000E+01
 20
1.07163985E+02
  0
SEQEND
  8
0
  0
LINE
  8
0
 62
4
 10
-4.52500000E+01
 20
1.07163985E+02
 11
-4.52500000E+01
 21
1.07699624E+02
  0
LINE
  8
0
 62
4
 10
-4.12500000E+01
 20
1.07163985E+02
 11
-4.12500000E+01
 21
1.07699624E+02
  0
POLYLINE
  8
0
 62
6
 66
1
  0
VERTEX
  8
0
 62
6
 10
-4.17500000E+01
 20
1.07163985E+02
  0
VERTEX
  8
0
 62
6
 10
-4.17557080E+01
 20
1.07292732E+02
  0
VERTEX
  8
0
 62
6
 10
-4.17727884E+01
 20
1.07420500E+02
  0
VERTEX
  8
0
 62
6
 10
-4.18011113E+01
 20
1.07546316E+02
  0
VERTEX
  8
0
 62
6
 10
-4.18404611E+01
 20
1.07669221E+02
  0
VERTEX
  8
0
 62
6
 10
-4.18905383E+01
 20
1.07788282E+02
  0
VERTEX
  8
0
 62
6
 10
-4.19509619E+01
 20
1.07902591E+02
  0
VERTEX
  8
0
 62
6
 10
-4.20212719E+01
 20
1.08011279E+02
  0
VERTEX
  8
0
 62
6
 10
-4.21009333E+01
 20
1.08113518E+02
  0
VERTEX
  8
0
 62
6
 10
-4.21893398E+01
 20
1.08208531E+02
  0
VERTEX
  8
0
 62
6
 10
-4.22858186E+01
 20
1.08295595E+02
  0
VERTEX
  8
0
 62
6
 10
-4.23896353E+01
 20
1.08374046E+02
  0
VERTEX
  8
0
 62
6
 10
-4.25000000E+01
 20
1.08443288E+02
  0
VERTEX
  8
0
 62
6
 10
-4.26160726E+01
 20
1.08502793E+02
  0
VERTEX
  8
0
 62
6
 10
-4.27369698E+01
 20
1.08552110E+02
  0
VERTEX
  8
0
 62
6
 10
-4.28617714E+01
 20
1.08590862E+02
  0
VERTEX
  8
0
 62
6
 10
-4.29895277E+01
 20
1.08618754E+02
  0
VERTEX
  8
0
 62
6
 10
-4.31192664E+01
 20
1.08635575E+02
  0
VERTEX
  8
0
 62
6
 10
-4.32500000E+01
 20
1.08641197E+02
  0
VERTEX
  8
0
 62
6
 10
-4.33807336E+01
 20
1.08635575E+02
  0
VERTEX
  8
0
 62
6
 10
-4.35104723E+01
 20
1.08618754E+02
  0
VERTEX
  8
0
 62
6
 10
-4.36382286E+01
 20
1.08590862E+02
  0
VERTEX
  8
0
 62
6
 10
-4.37630302E+01
 20
1.08552110E+02
  0
VERTEX
  8
0
 62
6
 10
-4.38839274E+01
 20
1.08502793E+02
  0
VERTEX
  8
0
 62
6
 10
-4.40000000E+01
 20
1.08443288E+02
  0
VERTEX
  8
0
 62
6
 10
-4.41103647E+01
 20
1.08374046E+02
  0
VERTEX
  8
0
 62
6
 10
-4.42141814E+01
 20
1.08295595E+02
  0
VERTEX
  8
0
 62
6
 10
-4.43106602E+01
 20
1.08208531E+02
  0
VERTEX
  8
0
 62
6
 10
-4.43990667E+01
 20
1.08113518E+02
  0
VERTEX
  8
0
 62
6
 10
-4.44787281E+01
 20
1.08011279E+02
  0
VERTEX
  8
0
 62
6
 10
-4.45490381E+01
 20
1.07902591E+02
  0
VERTEX
  8
0
 62
6
 10
-4.46094617E+01
 20
1.07788282E+02
  0
VERTEX
  8
0
 62
6
 10
-4.46595389E+01
 20
1.07669221E+02
  0
VERTEX
  8
0
 62
6
 10
-4.46988887E+01
 20
1.07546316E+02
  0
VERTEX
  8
0
 62
6
 10
-4.47272116E+01
 20
1.07420500E+02
  0
VERTEX
  8
0
 62
6
 10
-4.47442920E+01
 20
1.07292732E+02
  0
VERTEX
  8
0
 62
6
 10
-4.47500000E+01
 20
1.07163985E+02
  0
VERTEX
  8
0
 62
6
 10
-4.47442920E+01
 20
1.07035238E+02
  0
VERTEX
  8
0
 62
6
 10
-4.47272116E+01
 20
1.06907470E+02
  0
VERTEX
  8
0
 62
6
 10
-4.46988887E+01
 20
1.06781654E+02
  0
VERTEX
  8
0
 62
6
 10
-4.46595389E+01
 20
1.06658749E+02
  0
VERTEX
  8
0
 62
6
 10
-4.46094617E+01
 20
1.06539688E+02
  0
VERTEX
  8
0
 62
6
 10
-4.45490381E+01
 20
1.06425379E+02
  0
VERTEX
  8
0
 62
6
 10
-4.44787281E+01
 20
1.06316691E+02
  0
VERTEX
  8
0
 62
6
 10
-4.43990667E+01
 20
1.06214452E+02
  0
VERTEX
  8
0
 62
6
 10
-4.43106602E+01
 20
1.06119439E+02
  0
VERTEX
  8
0
 62
6
 10
-4.42141814E+01
 20
1.06032375E+02
  0
VERTEX
  8
0
 62
6
 10
-4.41103647E+01
 20
1.05953924E+02
  0
VERTEX
  8
0
 62
6
 10
-4.40000000E+01
 20
1.05884682E+02
  0
VERTEX
  8
0
 62
6
 10
-4.38839274E+01
 20
1.05825177E+02
  0
VERTEX
  8
0
 62
6
 10
-4.37630302E+01
 20
1.05775860E+02
  0
VERTEX
  8
0
 62
6
 10
-4.36382286E+01
 20
1.05737108E+02
  0
VERTEX
  8
0
 62
6
 10
-4.35104723E+01
 20
1.05709216E+02
  0
VERTEX
  8
0
 62
6
 10
-4.33807336E+01
 20
1.05692395E+02
  0
VERTEX
  8
0
 62
6
 10
-4.32500000E+01
 20
1.05686773E+02
  0
VERTEX
  8
0
 62
6
 10
-4.31192664E+01
 20
1.05692395E+02
  0
VERTEX
  8
0
 62
6
 10
-4.29895277E+01
 20
1.05709216E+02
  0
VERTEX
  8
0
 62
6
 10
-4.28617714E+01
 20
1.05737108E+02
  0
VERTEX
  8
0
 62
6
 10
-4.27369698E+01
 20
1.05775860E+02
  0
VERTEX
  8
0
 62
6
 10
-4.26160726E+01
 20
1.05825177E+02
  0
VERTEX
  8
0
 62
6
 10
-4.25000000E+01
 20
1.05884682E+02
  0
VERTEX
  8
0
 62
6
 10
-4.23896353E+01
 20
1.05953924E+02
  0
VERTEX
  8
0
 62
6
 10
-4.22858186E+01
 20
1.06032375E+02
  0
VERTEX
  8
0
 62
6
 10
-4.21893398E+01
 20
1.06119439E+02
  0
VERTEX
  8
0
 62
6
 10
-4.21009333E+01
 20
1.06214452E+02
  0
VERTEX
  8
0
 62
6
 10
-4.20212719E+01
 20
1.06316691E+02
  0
VERTEX
  8
0
 62
6
 10
-4.19509619E+01
 20
1.06425379E+02
  0
VERTEX
  8
0
 62
6
 10
-4.18905383E+01
 20
1.06539688E+02
  0
VERTEX
  8
0
 62
6
 10
-4.18404611E+01
 20
1.06658749E+02
  0
VERTEX
  8
0
 62
6
 10
-4.18011113E+01
 20
1.06781655E+02
  0
VERTEX
  8
0
 62
6
 10
-4.17727884E+01
 20
1.06907470E+02
  0
VERTEX
  8
0
 62
6
 10
-4.17557080E+01
 20
1.07035238E+02
  0
VERTEX
  8
0
 62
6
 10
-4.17500000E+01
 20
1.07163985E+02
  0
SEQEND
  8
0
  0
LINE
  8
0
 62
4
 10
-4.42500000E+01
 20
1.07735174E+02
 11
-4.42500000E+01
 21
1.06592797E+02
  0
LINE
  8
0
 62
4
 10
-4.22500000E+01
 20
1.07735174E+02
 11
-4.22500000E+01
 21
1.06592797E+02
  0
LINE
  8
0
 62
4
 10
-4.32500000E+01
 20
1.08296514E+02
 11
-4.42500000E+01
 21
1.07735174E+02
  0
LINE
  8
0
 62
4
 10
-4.32500000E+01
 20
1.08296514E+02
 11
-4.22500000E+01
 21
1.07735174E+02
  0
LINE
  8
0
 62
4
 10
-4.22500000E+01
 20
1.06592797E+02
 11
-4.32500000E+01
 21
1.06021608E+02
  0
LINE
  8
0
 62
4
 10
-4.42500000E+01
 20
1.06592797E+02
 11
-4.32500000E+01
 21
1.06021608E+02
  0
LINE
  8
0
 62
4
 10
-5.22500000E+01
 20
1.06592797E+02
 11
-5.12500000E+01
 21
1.06021608E+02
  0
LINE
  8
0
 62
4
 10
-5.02500000E+01
 20
1.06592797E+02
 11
-5.12500000E+01
 21
1.06021608E+02
  0
LINE
  8
0
 62
4
 10
-5.12500000E+01
 20
1.08296514E+02
 11
-5.02500000E+01
 21
1.07735174E+02
  0
LINE
  8
0
 62
4
 10
-5.12500000E+01
 20
1.08296514E+02
 11
-5.22500000E+01
 21
1.07735174E+02
  0
LINE
  8
0
 62
4
 10
-5.02500000E+01
 20
1.07735174E+02
 11
-5.02500000E+01
 21
1.06592797E+02
  0
LINE
  8
0
 62
4
 10
-5.22500000E+01
 20
1.07735174E+02
 11
-5.22500000E+01
 21
1.06592797E+02
  0
POLYLINE
  8
0
 62
6
 66
1
  0
VERTEX
  8
0
 62
6
 10
-4.97500000E+01
 20
1.07163985E+02
  0
VERTEX
  8
0
 62
6
 10
-4.97557080E+01
 20
1.07292732E+02
  0
VERTEX
  8
0
 62
6
 10
-4.97727884E+01
 20
1.07420500E+02
  0
VERTEX
  8
0
 62
6
 10
-4.98011113E+01
 20
1.07546316E+02
  0
VERTEX
  8
0
 62
6
 10
-4.98404611E+01
 20
1.07669221E+02
  0
VERTEX
  8
0
 62
6
 10
-4.98905383E+01
 20
1.07788282E+02
  0
VERTEX
  8
0
 62
6
 10
-4.99509619E+01
 20
1.07902591E+02
  0
VERTEX
  8
0
 62
6
 10
-5.00212719E+01
 20
1.08011279E+02
  0
VERTEX
  8
0
 62
6
 10
-5.01009333E+01
 20
1.08113518E+02
  0
VERTEX
  8
0
 62
6
 10
-5.01893398E+01
 20
1.08208531E+02
  0
VERTEX
  8
0
 62
6
 10
-5.02858186E+01
 20
1.08295595E+02
  0
VERTEX
  8
0
 62
6
 10
-5.03896353E+01
 20
1.08374046E+02
  0
VERTEX
  8
0
 62
6
 10
-5.05000000E+01
 20
1.08443288E+02
  0
VERTEX
  8
0
 62
6
 10
-5.06160726E+01
 20
1.08502793E+02
  0
VERTEX
  8
0
 62
6
 10
-5.07369698E+01
 20
1.08552110E+02
  0
VERTEX
  8
0
 62
6
 10
-5.08617714E+01
 20
1.08590862E+02
  0
VERTEX
  8
0
 62
6
 10
-5.09895277E+01
 20
1.08618754E+02
  0
VERTEX
  8
0
 62
6
 10
-5.11192664E+01
 20
1.08635575E+02
  0
VERTEX
  8
0
 62
6
 10
-5.12500000E+01
 20
1.08641197E+02
  0
VERTEX
  8
0
 62
6
 10
-5.13807336E+01
 20
1.08635575E+02
  0
VERTEX
  8
0
 62
6
 10
-5.15104723E+01
 20
1.08618754E+02
  0
VERTEX
  8
0
 62
6
 10
-5.16382286E+01
 20
1.08590862E+02
  0
VERTEX
  8
0
 62
6
 10
-5.17630302E+01
 20
1.08552110E+02
  0
VERTEX
  8
0
 62
6
 10
-5.18839274E+01
 20
1.08502793E+02
  0
VERTEX
  8
0
 62
6
 10
-5.20000000E+01
 20
1.08443288E+02
  0
VERTEX
  8
0
 62
6
 10
-5.21103647E+01
 20
1.08374046E+02
  0
VERTEX
  8
0
 62
6
 10
-5.22141814E+01
 20
1.08295595E+02
  0
VERTEX
  8
0
 62
6
 10
-5.23106602E+01
 20
1.08208531E+02
  0
VERTEX
  8
0
 62
6
 10
-5.23990667E+01
 20
1.08113518E+02
  0
VERTEX
  8
0
 62
6
 10
-5.24787281E+01
 20
1.08011279E+02
  0
VERTEX
  8
0
 62
6
 10
-5.25490381E+01
 20
1.07902591E+02
  0
VERTEX
  8
0
 62
6
 10
-5.26094617E+01
 20
1.07788282E+02
  0
VERTEX
  8
0
 62
6
 10
-5.26595389E+01
 20
1.07669221E+02
  0
VERTEX
  8
0
 62
6
 10
-5.26988887E+01
 20
1.07546316E+02
  0
VERTEX
  8
0
 62
6
 10
-5.27272116E+01
 20
1.07420500E+02
  0
VERTEX
  8
0
 62
6
 10
-5.27442920E+01
 20
1.07292732E+02
  0
VERTEX
  8
0
 62
6
 10
-5.27500000E+01
 20
1.07163985E+02
  0
VERTEX
  8
0
 62
6
 10
-5.27442920E+01
 20
1.07035238E+02
  0
VERTEX
  8
0
 62
6
 10
-5.27272116E+01
 20
1.06907470E+02
  0
VERTEX
  8
0
 62
6
 10
-5.26988887E+01
 20
1.06781654E+02
  0
VERTEX
  8
0
 62
6
 10
-5.26595389E+01
 20
1.06658749E+02
  0
VERTEX
  8
0
 62
6
 10
-5.26094617E+01
 20
1.06539688E+02
  0
VERTEX
  8
0
 62
6
 10
-5.25490381E+01
 20
1.06425379E+02
  0
VERTEX
  8
0
 62
6
 10
-5.24787281E+01
 20
1.06316691E+02
  0
VERTEX
  8
0
 62
6
 10
-5.23990667E+01
 20
1.06214452E+02
  0
VERTEX
  8
0
 62
6
 10
-5.23106602E+01
 20
1.06119439E+02
  0
VERTEX
  8
0
 62
6
 10
-5.22141814E+01
 20
1.06032375E+02
  0
VERTEX
  8
0
 62
6
 10
-5.21103647E+01
 20
1.05953924E+02
  0
VERTEX
  8
0
 62
6
 10
-5.20000000E+01
 20
1.05884682E+02
  0
VERTEX
  8
0
 62
6
 10
-5.18839274E+01
 20
1.05825177E+02
  0
VERTEX
  8
0
 62
6
 10
-5.17630302E+01
 20
1.05775860E+02
  0
VERTEX
  8
0
 62
6
 10
-5.16382286E+01
 20
1.05737108E+02
  0
VERTEX
  8
0
 62
6
 10
-5.15104723E+01
 20
1.05709216E+02
  0
VERTEX
  8
0
 62
6
 10
-5.13807336E+01
 20
1.05692395E+02
  0
VERTEX
  8
0
 62
6
 10
-5.12500000E+01
 20
1.05686773E+02
  0
VERTEX
  8
0
 62
6
 10
-5.11192664E+01
 20
1.05692395E+02
  0
VERTEX
  8
0
 62
6
 10
-5.09895277E+01
 20
1.05709216E+02
  0
VERTEX
  8
0
 62
6
 10
-5.08617714E+01
 20
1.05737108E+02
  0
VERTEX
  8
0
 62
6
 10
-5.07369698E+01
 20
1.05775860E+02
  0
VERTEX
  8
0
 62
6
 10
-5.06160726E+01
 20
1.05825177E+02
  0
VERTEX
  8
0
 62
6
 10
-5.05000000E+01
 20
1.05884682E+02
  0
VERTEX
  8
0
 62
6
 10
-5.03896353E+01
 20
1.05953924E+02
  0
VERTEX
  8
0
 62
6
 10
-5.02858186E+01
 20
1.06032375E+02
  0
VERTEX
  8
0
 62
6
 10
-5.01893398E+01
 20
1.06119439E+02
  0
VERTEX
  8
0
 62
6
 10
-5.01009333E+01
 20
1.06214452E+02
  0
VERTEX
  8
0
 62
6
 10
-5.00212719E+01
 20
1.06316691E+02
  0
VERTEX
  8
0
 62
6
 10
-4.99509619E+01
 20
1.06425379E+02
  0
VERTEX
  8
0
 62
6
 10
-4.98905383E+01
 20
1.06539688E+02
  0
VERTEX
  8
0
 62
6
 10
-4.98404611E+01
 20
1.06658749E+02
  0
VERTEX
  8
0
 62
6
 10
-4.98011113E+01
 20
1.06781655E+02
  0
VERTEX
  8
0
 62
6
 10
-4.97727884E+01
 20
1.06907470E+02
  0
VERTEX
  8
0
 62
6
 10
-4.97557080E+01
 20
1.07035238E+02
  0
VERTEX
  8
0
 62
6
 10
-4.97500000E+01
 20
1.07163985E+02
  0
SEQEND
  8
0
  0
LINE
  8
0
 62
4
 10
-4.92500000E+01
 20
1.07163985E+02
 11
-4.92500000E+01
 21
1.07699624E+02
  0
LINE
  8
0
 62
4
 10
-5.32500000E+01
 20
1.07163985E+02
 11
-5.32500000E+01
 21
1.07699624E+02
  0
POLYLINE
  8
0
 62
4
 66
1
  0
VERTEX
  8
0
 62
4
 10
-5.32500000E+01
 20
1.07163985E+02
  0
VERTEX
  8
0
 62
4
 10
-5.32423894E+01
 20
1.06992322E+02
  0
VERTEX
  8
0
 62
4
 10
-5.32196155E+01
 20
1.06821965E+02
  0
VERTEX
  8
0
 62
4
 10
-5.31818517E+01
 20
1.06654211E+02
  0
VERTEX
  8
0
 62
4
 10
-5.31293852E+01
 20
1.06490337E+02
  0
VERTEX
  8
0
 62
4
 10
-5.30626156E+01
 20
1.06331590E+02
  0
VERTEX
  8
0
 62
4
 10
-5.29820508E+01
 20
1.06179177E+02
  0
VERTEX
  8
0
 62
4
 10
-5.28883041E+01
 20
1.06034260E+02
  0
VERTEX
  8
0
 62
4
 10
-5.27820889E+01
 20
1.05897941E+02
  0
VERTEX
  8
0
 62
4
 10
-5.26642136E+01
 20
1.05771257E+02
  0
VERTEX
  8
0
 62
4
 10
-5.25355752E+01
 20
1.05655172E+02
  0
VERTEX
  8
0
 62
4
 10
-5.23971529E+01
 20
1.05550570E+02
  0
VERTEX
  8
0
 62
4
 10
-5.22500000E+01
 20
1.05458248E+02
  0
VERTEX
  8
0
 62
4
 10
-5.20952365E+01
 20
1.05378907E+02
  0
VERTEX
  8
0
 62
4
 10
-5.19340403E+01
 20
1.05313152E+02
  0
VERTEX
  8
0
 62
4
 10
-5.17676381E+01
 20
1.05261483E+02
  0
VERTEX
  8
0
 62
4
 10
-5.15972964E+01
 20
1.05224292E+02
  0
VERTEX
  8
0
 62
4
 10
-5.14243115E+01
 20
1.05201864E+02
  0
VERTEX
  8
0
 62
4
 10
-5.12500000E+01
 20
1.05194369E+02
  0
VERTEX
  8
0
 62
4
 10
-5.10756885E+01
 20
1.05201864E+02
  0
VERTEX
  8
0
 62
4
 10
-5.09027037E+01
 20
1.05224292E+02
  0
VERTEX
  8
0
 62
4
 10
-5.07323619E+01
 20
1.05261483E+02
  0
VERTEX
  8
0
 62
4
 10
-5.05659597E+01
 20
1.05313152E+02
  0
VERTEX
  8
0
 62
4
 10
-5.04047635E+01
 20
1.05378907E+02
  0
VERTEX
  8
0
 62
4
 10
-5.02500000E+01
 20
1.05458248E+02
  0
VERTEX
  8
0
 62
4
 10
-5.01028471E+01
 20
1.05550570E+02
  0
VERTEX
  8
0
 62
4
 10
-4.99644248E+01
 20
1.05655172E+02
  0
VERTEX
  8
0
 62
4
 10
-4.98357864E+01
 20
1.05771257E+02
  0
VERTEX
  8
0
 62
4
 10
-4.97179111E+01
 20
1.05897941E+02
  0
VERTEX
  8
0
 62
4
 10
-4.96116959E+01
 20
1.06034260E+02
  0
VERTEX
  8
0
 62
4
 10
-4.95179492E+01
 20
1.06179177E+02
  0
VERTEX
  8
0
 62
4
 10
-4.94373844E+01
 20
1.06331590E+02
  0
VERTEX
  8
0
 62
4
 10
-4.93706148E+01
 20
1.06490337E+02
  0
VERTEX
  8
0
 62
4
 10
-4.93181483E+01
 20
1.06654211E+02
  0
VERTEX
  8
0
 62
4
 10
-4.92803845E+01
 20
1.06821965E+02
  0
VERTEX
  8
0
 62
4
 10
-4.92576106E+01
 20
1.06992322E+02
  0
VERTEX
  8
0
 62
4
 10
-4.92500000E+01
 20
1.07163985E+02
  0
VERTEX
  8
0
 62
4
 10
-4.92576106E+01
 20
1.07335648E+02
  0
VERTEX
  8
0
 62
4
 10
-4.92803845E+01
 20
1.07506005E+02
  0
VERTEX
  8
0
 62
4
 10
-4.93181483E+01
 20
1.07673759E+02
  0
VERTEX
  8
0
 62
4
 10
-4.93706148E+01
 20
1.07837633E+02
  0
VERTEX
  8
0
 62
4
 10
-4.94373844E+01
 20
1.07996380E+02
  0
VERTEX
  8
0
 62
4
 10
-4.95179492E+01
 20
1.08148793E+02
  0
VERTEX
  8
0
 62
4
 10
-4.96116959E+01
 20
1.08293710E+02
  0
VERTEX
  8
0
 62
4
 10
-4.97179111E+01
 20
1.08430029E+02
  0
VERTEX
  8
0
 62
4
 10
-4.98357864E+01
 20
1.08556713E+02
  0
VERTEX
  8
0
 62
4
 10
-4.99644248E+01
 20
1.08672798E+02
  0
VERTEX
  8
0
 62
4
 10
-5.01028471E+01
 20
1.08777400E+02
  0
VERTEX
  8
0
 62
4
 10
-5.02500000E+01
 20
1.08869722E+02
  0
VERTEX
  8
0
 62
4
 10
-5.04047635E+01
 20
1.08949063E+02
  0
VERTEX
  8
0
 62
4
 10
-5.05659597E+01
 20
1.09014818E+02
  0
VERTEX
  8
0
 62
4
 10
-5.07323619E+01
 20
1.09066487E+02
  0
VERTEX
  8
0
 62
4
 10
-5.09027036E+01
 20
1.09103678E+02
  0
VERTEX
  8
0
 62
4
 10
-5.10756885E+01
 20
1.09126106E+02
  0
VERTEX
  8
0
 62
4
 10
-5.12500000E+01
 20
1.09133601E+02
  0
VERTEX
  8
0
 62
4
 10
-5.14243115E+01
 20
1.09126106E+02
  0
VERTEX
  8
0
 62
4
 10
-5.15972964E+01
 20
1.09103678E+02
  0
VERTEX
  8
0
 62
4
 10
-5.17676381E+01
 20
1.09066487E+02
  0
VERTEX
  8
0
 62
4
 10
-5.19340403E+01
 20
1.09014818E+02
  0
VERTEX
  8
0
 62
4
 10
-5.20952365E+01
 20
1.08949063E+02
  0
VERTEX
  8
0
 62
4
 10
-5.22500000E+01
 20
1.08869722E+02
  0
VERTEX
  8
0
 62
4
 10
-5.23971529E+01
 20
1.08777400E+02
  0
VERTEX
  8
0
 62
4
 10
-5.25355752E+01
 20
1.08672798E+02
  0
VERTEX
  8
0
 62
4
 10
-5.26642136E+01
 20
1.08556713E+02
  0
VERTEX
  8
0
 62
4
 10
-5.27820889E+01
 20
1.08430029E+02
  0
VERTEX
  8
0
 62
4
 10
-5.28883041E+01
 20
1.08293710E+02
  0
VERTEX
  8
0
 62
4
 10
-5.29820508E+01
 20
1.08148793E+02
  0
VERTEX
  8
0
 62
4
 10
-5.30626156E+01
 20
1.07996380E+02
  0
VERTEX
  8
0
 62
4
 10
-5.31293852E+01
 20
1.07837633E+02
  0
VERTEX
  8
0
 62
4
 10
-5.31818517E+01
 20
1.07673759E+02
  0
VERTEX
  8
0
 62
4
 10
-5.32196155E+01
 20
1.07506005E+02
  0
VERTEX
  8
0
 62
4
 10
-5.32423894E+01
 20
1.07335648E+02
  0
VERTEX
  8
0
 62
4
 10
-5.32500000E+01
 20
1.07163985E+02
  0
SEQEND
  8
0
  0
POLYLINE
  8
0
 62
4
 66
1
  0
VERTEX
  8
0
 62
4
 10
-4.92500000E+01
 20
1.07699624E+02
  0
VERTEX
  8
0
 62
4
 10
-4.92580514E+01
 20
1.07876179E+02
  0
VERTEX
  8
0
 62
4
 10
-4.92821408E+01
 20
1.08051312E+02
  0
VERTEX
  8
0
 62
4
 10
-4.93220743E+01
 20
1.08223614E+02
  0
VERTEX
  8
0
 62
4
 10
-4.93775303E+01
 20
1.08391697E+02
  0
VERTEX
  8
0
 62
4
 10
-4.94480623E+01
 20
1.08554208E+02
  0
VERTEX
  8
0
 62
4
 10
-4.95331024E+01
 20
1.08709838E+02
  0
VERTEX
  8
0
 62
4
 10
-4.96319660E+01
 20
1.08857335E+02
  0
VERTEX
  8
0
 62
4
 10
-4.97438571E+01
 20
1.08995510E+02
  0
VERTEX
  8
0
 62
4
 10
-4.98678747E+01
 20
1.09123252E+02
  0
VERTEX
  8
0
 62
4
 10
-5.00030204E+01
 20
1.09239531E+02
  0
VERTEX
  8
0
 62
4
 10
-5.01482060E+01
 20
1.09343412E+02
  0
VERTEX
  8
0
 62
4
 10
-5.03022627E+01
 20
1.09434059E+02
  0
VERTEX
  8
0
 62
4
 10
-5.04639499E+01
 20
1.09510740E+02
  0
VERTEX
  8
0
 62
4
 10
-5.06319660E+01
 20
1.09572840E+02
  0
VERTEX
  8
0
 62
4
 10
-5.08049581E+01
 20
1.09619857E+02
  0
VERTEX
  8
0
 62
4
 10
-5.09815335E+01
 20
1.09651414E+02
  0
VERTEX
  8
0
 62
4
 10
-5.11602703E+01
 20
1.09667256E+02
  0
VERTEX
  8
0
 62
4
 10
-5.13397296E+01
 20
1.09667256E+02
  0
VERTEX
  8
0
 62
4
 10
-5.15184665E+01
 20
1.09651414E+02
  0
VERTEX
  8
0
 62
4
 10
-5.16950419E+01
 20
1.09619857E+02
  0
VERTEX
  8
0
 62
4
 10
-5.18680340E+01
 20
1.09572840E+02
  0
VERTEX
  8
0
 62
4
 10
-5.20360500E+01
 20
1.09510740E+02
  0
VERTEX
  8
0
 62
4
 10
-5.21977373E+01
 20
1.09434059E+02
  0
VERTEX
  8
0
 62
4
 10
-5.23517939E+01
 20
1.09343412E+02
  0
VERTEX
  8
0
 62
4
 10
-5.24969796E+01
 20
1.09239531E+02
  0
VERTEX
  8
0
 62
4
 10
-5.26321253E+01
 20
1.09123252E+02
  0
VERTEX
  8
0
 62
4
 10
-5.27561429E+01
 20
1.08995510E+02
  0
VERTEX
  8
0
 62
4
 10
-5.28680340E+01
 20
1.08857335E+02
  0
VERTEX
  8
0
 62
4
 10
-5.29668976E+01
 20
1.08709838E+02
  0
VERTEX
  8
0
 62
4
 10
-5.30519377E+01
 20
1.08554208E+02
  0
VERTEX
  8
0
 62
4
 10
-5.31224697E+01
 20
1.08391697E+02
  0
VERTEX
  8
0
 62
4
 10
-5.31779257E+01
 20
1.08223614E+02
  0
VERTEX
  8
0
 62
4
 10
-5.32178592E+01
 20
1.08051312E+02
  0
VERTEX
  8
0
 62
4
 10
-5.32419486E+01
 20
1.07876179E+02
  0
VERTEX
  8
0
 62
4
 10
-5.32500000E+01
 20
1.07699624E+02
  0
SEQEND
  8
0
  0
LINE
  8
0
 62
4
 10
-1.13750000E+02
 20
1.31875902E+02
 11
-8.37500000E+01
 21
1.31875902E+02
  0
LINE
  8
0
 62
4
 10
-1.13750000E+02
 20
1.16118978E+02
 11
-8.37500000E+01
 21
1.16118978E+02
  0
LINE
  8
0
 62
4
 10
-1.13750000E+02
 20
1.17103786E+02
 11
-8.37500000E+01
 21
1.17103786E+02
  0
LINE
  8
0
 62
4
 10
-1.13750000E+02
 20
1.21176228E+02
 11
-1.15250000E+02
 21
1.20168371E+02
  0
LINE
  8
0
 62
4
 10
-1.15250000E+02
 20
1.20168371E+02
 11
-1.15250000E+02
 21
1.17544468E+02
  0
LINE
  8
0
 62
4
 10
-1.15250000E+02
 20
1.17937781E+02
 11
-1.13750000E+02
 21
1.17236997E+02
  0
LINE
  8
0
 62
4
 10
-1.15250000E+02
 20
1.17544468E+02
 11
-1.13750000E+02
 21
1.16542404E+02
  0
LINE
  8
0
 62
4
 10
-1.13750000E+02
 20
1.21176228E+02
 11
-1.01687245E+02
 21
1.21176228E+02
  0
LINE
  8
0
 62
4
 10
-1.13750000E+02
 20
1.17236997E+02
 11
-9.02500000E+01
 21
1.17236997E+02
  0
LINE
  8
0
 62
4
 10
-1.13750000E+02
 20
1.21633902E+02
 11
-1.02087123E+02
 21
1.21633902E+02
  0
LINE
  8
0
 62
4
 10
-1.13750000E+02
 20
1.21176228E+02
 11
-1.13750000E+02
 21
1.17103786E+02
  0
LINE
  8
0
 62
4
 10
-1.13750000E+02
 20
1.17103786E+02
 11
-1.13750000E+02
 21
1.15369449E+02
  0
ARC
  8
0
 62
4
 10
-2.22431469E+02
 20
-5.19348503E+00
 40
1.86971513E+02
 50
4.46782203E+01
 51
4.61988768E+01
  0
ARC
  8
0
 62
4
 10
3.99314687E+01
 20
-5.19348503E+00
 40
1.86971513E+02
 50
1.33801123E+02
 51
1.35321779E+02
  0
LINE
  8
0
 62
4
 10
-8.78500000E+01
 20
1.27617916E+02
 11
-8.78500000E+01
 21
1.27814278E+02
  0
POLYLINE
  8
0
 62
4
 66
1
  0
VERTEX
  8
0
 62
4
 10
-9.46500000E+01
 20
1.27814278E+02
  0
VERTEX
  8
0
 62
4
 10
-9.46370620E+01
 20
1.27522450E+02
  0
VERTEX
  8
0
 62
4
 10
-9.45983464E+01
 20
1.27232844E+02
  0
VERTEX
  8
0
 62
4
 10
-9.45341478E+01
 20
1.26947662E+02
  0
VERTEX
  8
0
 62
4
 10
-9.44449549E+01
 20
1.26669076E+02
  0
VERTEX
  8
0
 62
4
 10
-9.43314465E+01
 20
1.26399206E+02
  0
VERTEX
  8
0
 62
4
 10
-9.41944864E+01
 20
1.26140105E+02
  0
VERTEX
  8
0
 62
4
 10
-9.40351170E+01
 20
1.25893745E+02
  0
VERTEX
  8
0
 62
4
 10
-9.38545511E+01
 20
1.25662002E+02
  0
VERTEX
  8
0
 62
4
 10
-9.36541631E+01
 20
1.25446639E+02
  0
VERTEX
  8
0
 62
4
 10
-9.34354779E+01
 20
1.25249296E+02
  0
VERTEX
  8
0
 62
4
 10
-9.32001599E+01
 20
1.25071473E+02
  0
VERTEX
  8
0
 62
4
 10
-9.29500000E+01
 20
1.24914525E+02
  0
VERTEX
  8
0
 62
4
 10
-9.26869021E+01
 20
1.24779645E+02
  0
VERTEX
  8
0
 62
4
 10
-9.24128685E+01
 20
1.24667861E+02
  0
VERTEX
  8
0
 62
4
 10
-9.21299848E+01
 20
1.24580023E+02
  0
VERTEX
  8
0
 62
4
 10
-9.18404038E+01
 20
1.24516800E+02
  0
VERTEX
  8
0
 62
4
 10
-9.15463295E+01
 20
1.24478673E+02
  0
VERTEX
  8
0
 62
4
 10
-9.12500000E+01
 20
1.24465931E+02
  0
VERTEX
  8
0
 62
4
 10
-9.09536705E+01
 20
1.24478673E+02
  0
VERTEX
  8
0
 62
4
 10
-9.06595962E+01
 20
1.24516800E+02
  0
VERTEX
  8
0
 62
4
 10
-9.03700152E+01
 20
1.24580023E+02
  0
VERTEX
  8
0
 62
4
 10
-9.00871315E+01
 20
1.24667861E+02
  0
VERTEX
  8
0
 62
4
 10
-8.98130979E+01
 20
1.24779645E+02
  0
VERTEX
  8
0
 62
4
 10
-8.95500000E+01
 20
1.24914525E+02
  0
VERTEX
  8
0
 62
4
 10
-8.92998401E+01
 20
1.25071473E+02
  0
VERTEX
  8
0
 62
4
 10
-8.90645221E+01
 20
1.25249296E+02
  0
VERTEX
  8
0
 62
4
 10
-8.88458369E+01
 20
1.25446639E+02
  0
VERTEX
  8
0
 62
4
 10
-8.86454489E+01
 20
1.25662002E+02
  0
VERTEX
  8
0
 62
4
 10
-8.84648830E+01
 20
1.25893745E+02
  0
VERTEX
  8
0
 62
4
 10
-8.83055136E+01
 20
1.26140105E+02
  0
VERTEX
  8
0
 62
4
 10
-8.81685535E+01
 20
1.26399206E+02
  0
VERTEX
  8
0
 62
4
 10
-8.80550451E+01
 20
1.26669076E+02
  0
VERTEX
  8
0
 62
4
 10
-8.79658522E+01
 20
1.26947662E+02
  0
VERTEX
  8
0
 62
4
 10
-8.79016536E+01
 20
1.27232844E+02
  0
VERTEX
  8
0
 62
4
 10
-8.78629380E+01
 20
1.27522450E+02
  0
VERTEX
  8
0
 62
4
 10
-8.78500000E+01
 20
1.27814278E+02
  0
VERTEX
  8
0
 62
4
 10
-8.78629380E+01
 20
1.28106106E+02
  0
VERTEX
  8
0
 62
4
 10
-8.79016536E+01
 20
1.28395712E+02
  0
VERTEX
  8
0
 62
4
 10
-8.79658522E+01
 20
1.28680894E+02
  0
VERTEX
  8
0
 62
4
 10
-8.80550451E+01
 20
1.28959480E+02
  0
VERTEX
  8
0
 62
4
 10
-8.81685535E+01
 20
1.29229350E+02
  0
VERTEX
  8
0
 62
4
 10
-8.83055136E+01
 20
1.29488451E+02
  0
VERTEX
  8
0
 62
4
 10
-8.84648830E+01
 20
1.29734811E+02
  0
VERTEX
  8
0
 62
4
 10
-8.86454489E+01
 20
1.29966554E+02
  0
VERTEX
  8
0
 62
4
 10
-8.88458369E+01
 20
1.30181917E+02
  0
VERTEX
  8
0
 62
4
 10
-8.90645221E+01
 20
1.30379260E+02
  0
VERTEX
  8
0
 62
4
 10
-8.92998401E+01
 20
1.30557083E+02
  0
VERTEX
  8
0
 62
4
 10
-8.95500000E+01
 20
1.30714031E+02
  0
VERTEX
  8
0
 62
4
 10
-8.98130979E+01
 20
1.30848911E+02
  0
VERTEX
  8
0
 62
4
 10
-9.00871315E+01
 20
1.30960695E+02
  0
VERTEX
  8
0
 62
4
 10
-9.03700152E+01
 20
1.31048533E+02
  0
VERTEX
  8
0
 62
4
 10
-9.06595962E+01
 20
1.31111756E+02
  0
VERTEX
  8
0
 62
4
 10
-9.09536705E+01
 20
1.31149883E+02
  0
VERTEX
  8
0
 62
4
 10
-9.12500000E+01
 20
1.31162625E+02
  0
VERTEX
  8
0
 62
4
 10
-9.15463295E+01
 20
1.31149883E+02
  0
VERTEX
  8
0
 62
4
 10
-9.18404038E+01
 20
1.31111756E+02
  0
VERTEX
  8
0
 62
4
 10
-9.21299848E+01
 20
1.31048533E+02
  0
VERTEX
  8
0
 62
4
 10
-9.24128685E+01
 20
1.30960695E+02
  0
VERTEX
  8
0
 62
4
 10
-9.26869021E+01
 20
1.30848911E+02
  0
VERTEX
  8
0
 62
4
 10
-9.29500000E+01
 20
1.30714031E+02
  0
VERTEX
  8
0
 62
4
 10
-9.32001599E+01
 20
1.30557083E+02
  0
VERTEX
  8
0
 62
4
 10
-9.34354779E+01
 20
1.30379260E+02
  0
VERTEX
  8
0
 62
4
 10
-9.36541631E+01
 20
1.30181917E+02
  0
VERTEX
  8
0
 62
4
 10
-9.38545511E+01
 20
1.29966554E+02
  0
VERTEX
  8
0
 62
4
 10
-9.40351170E+01
 20
1.29734811E+02
  0
VERTEX
  8
0
 62
4
 10
-9.41944864E+01
 20
1.29488451E+02
  0
VERTEX
  8
0
 62
4
 10
-9.43314465E+01
 20
1.29229350E+02
  0
VERTEX
  8
0
 62
4
 10
-9.44449549E+01
 20
1.28959480E+02
  0
VERTEX
  8
0
 62
4
 10
-9.45341478E+01
 20
1.28680894E+02
  0
VERTEX
  8
0
 62
4
 10
-9.45983464E+01
 20
1.28395712E+02
  0
VERTEX
  8
0
 62
4
 10
-9.46370620E+01
 20
1.28106106E+02
  0
VERTEX
  8
0
 62
4
 10
-9.46500000E+01
 20
1.27814278E+02
  0
SEQEND
  8
0
  0
POLYLINE
  8
0
 62
4
 66
1
  0
VERTEX
  8
0
 62
4
 10
-9.46500000E+01
 20
1.27617916E+02
  0
VERTEX
  8
0
 62
4
 10
-9.46363126E+01
 20
1.27317773E+02
  0
VERTEX
  8
0
 62
4
 10
-9.45953606E+01
 20
1.27020046E+02
  0
VERTEX
  8
0
 62
4
 10
-9.45274738E+01
 20
1.26727133E+02
  0
VERTEX
  8
0
 62
4
 10
-9.44331986E+01
 20
1.26441391E+02
  0
VERTEX
  8
0
 62
4
 10
-9.43132942E+01
 20
1.26165123E+02
  0
VERTEX
  8
0
 62
4
 10
-9.41687259E+01
 20
1.25900552E+02
  0
VERTEX
  8
0
 62
4
 10
-9.40006578E+01
 20
1.25649807E+02
  0
VERTEX
  8
0
 62
4
 10
-9.38104430E+01
 20
1.25414909E+02
  0
VERTEX
  8
0
 62
4
 10
-9.35996130E+01
 20
1.25197748E+02
  0
VERTEX
  8
0
 62
4
 10
-9.33698654E+01
 20
1.25000073E+02
  0
VERTEX
  8
0
 62
4
 10
-9.31230498E+01
 20
1.24823476E+02
  0
VERTEX
  8
0
 62
4
 10
-9.28611535E+01
 20
1.24669377E+02
  0
VERTEX
  8
0
 62
4
 10
-9.25862851E+01
 20
1.24539019E+02
  0
VERTEX
  8
0
 62
4
 10
-9.23006578E+01
 20
1.24433449E+02
  0
VERTEX
  8
0
 62
4
 10
-9.20065712E+01
 20
1.24353520E+02
  0
VERTEX
  8
0
 62
4
 10
-9.17063931E+01
 20
1.24299873E+02
  0
VERTEX
  8
0
 62
4
 10
-9.14025404E+01
 20
1.24272941E+02
  0
VERTEX
  8
0
 62
4
 10
-9.10974596E+01
 20
1.24272941E+02
  0
VERTEX
  8
0
 62
4
 10
-9.07936069E+01
 20
1.24299873E+02
  0
VERTEX
  8
0
 62
4
 10
-9.04934288E+01
 20
1.24353520E+02
  0
VERTEX
  8
0
 62
4
 10
-9.01993422E+01
 20
1.24433449E+02
  0
VERTEX
  8
0
 62
4
 10
-8.99137149E+01
 20
1.24539019E+02
  0
VERTEX
  8
0
 62
4
 10
-8.96388466E+01
 20
1.24669377E+02
  0
VERTEX
  8
0
 62
4
 10
-8.93769503E+01
 20
1.24823476E+02
  0
VERTEX
  8
0
 62
4
 10
-8.91301347E+01
 20
1.25000073E+02
  0
VERTEX
  8
0
 62
4
 10
-8.89003870E+01
 20
1.25197748E+02
  0
VERTEX
  8
0
 62
4
 10
-8.86895570E+01
 20
1.25414909E+02
  0
VERTEX
  8
0
 62
4
 10
-8.84993422E+01
 20
1.25649807E+02
  0
VERTEX
  8
0
 62
4
 10
-8.83312741E+01
 20
1.25900552E+02
  0
VERTEX
  8
0
 62
4
 10
-8.81867058E+01
 20
1.26165123E+02
  0
VERTEX
  8
0
 62
4
 10
-8.80668014E+01
 20
1.26441391E+02
  0
VERTEX
  8
0
 62
4
 10
-8.79725263E+01
 20
1.26727132E+02
  0
VERTEX
  8
0
 62
4
 10
-8.79046394E+01
 20
1.27020046E+02
  0
VERTEX
  8
0
 62
4
 10
-8.78636874E+01
 20
1.27317773E+02
  0
VERTEX
  8
0
 62
4
 10
-8.78500000E+01
 20
1.27617916E+02
  0
SEQEND
  8
0
  0
LINE
  8
0
 62
4
 10
-9.46500000E+01
 20
1.27617916E+02
 11
-9.46500000E+01
 21
1.27814278E+02
  0
LINE
  8
0
 62
4
 10
-8.74500000E+01
 20
1.27444268E+02
 11
-8.74500000E+01
 21
1.27617916E+02
  0
POLYLINE
  8
0
 62
4
 66
1
  0
VERTEX
  8
0
 62
4
 10
-9.50500000E+01
 20
1.27617916E+02
  0
VERTEX
  8
0
 62
4
 10
-9.50355399E+01
 20
1.27291756E+02
  0
VERTEX
  8
0
 62
4
 10
-9.49922695E+01
 20
1.26968078E+02
  0
VERTEX
  8
0
 62
4
 10
-9.49205182E+01
 20
1.26649345E+02
  0
VERTEX
  8
0
 62
4
 10
-9.48208320E+01
 20
1.26337984E+02
  0
VERTEX
  8
0
 62
4
 10
-9.46939696E+01
 20
1.26036365E+02
  0
VERTEX
  8
0
 62
4
 10
-9.45408966E+01
 20
1.25746781E+02
  0
VERTEX
  8
0
 62
4
 10
-9.43627778E+01
 20
1.25471438E+02
  0
VERTEX
  8
0
 62
4
 10
-9.41609689E+01
 20
1.25212432E+02
  0
VERTEX
  8
0
 62
4
 10
-9.39370058E+01
 20
1.24971732E+02
  0
VERTEX
  8
0
 62
4
 10
-9.36925929E+01
 20
1.24751171E+02
  0
VERTEX
  8
0
 62
4
 10
-9.34295905E+01
 20
1.24552428E+02
  0
VERTEX
  8
0
 62
4
 10
-9.31500000E+01
 20
1.24377016E+02
  0
VERTEX
  8
0
 62
4
 10
-9.28559494E+01
 20
1.24226268E+02
  0
VERTEX
  8
0
 62
4
 10
-9.25496766E+01
 20
1.24101333E+02
  0
VERTEX
  8
0
 62
4
 10
-9.22335124E+01
 20
1.24003161E+02
  0
VERTEX
  8
0
 62
4
 10
-9.19098631E+01
 20
1.23932500E+02
  0
VERTEX
  8
0
 62
4
 10
-9.15811918E+01
 20
1.23889887E+02
  0
VERTEX
  8
0
 62
4
 10
-9.12500000E+01
 20
1.23875647E+02
  0
VERTEX
  8
0
 62
4
 10
-9.09188082E+01
 20
1.23889887E+02
  0
VERTEX
  8
0
 62
4
 10
-9.05901369E+01
 20
1.23932500E+02
  0
VERTEX
  8
0
 62
4
 10
-9.02664876E+01
 20
1.24003161E+02
  0
VERTEX
  8
0
 62
4
 10
-8.99503235E+01
 20
1.24101333E+02
  0
VERTEX
  8
0
 62
4
 10
-8.96440506E+01
 20
1.24226268E+02
  0
VERTEX
  8
0
 62
4
 10
-8.93500000E+01
 20
1.24377016E+02
  0
VERTEX
  8
0
 62
4
 10
-8.90704095E+01
 20
1.24552428E+02
  0
VERTEX
  8
0
 62
4
 10
-8.88074071E+01
 20
1.24751171E+02
  0
VERTEX
  8
0
 62
4
 10
-8.85629942E+01
 20
1.24971732E+02
  0
VERTEX
  8
0
 62
4
 10
-8.83390311E+01
 20
1.25212432E+02
  0
VERTEX
  8
0
 62
4
 10
-8.81372222E+01
 20
1.25471438E+02
  0
VERTEX
  8
0
 62
4
 10
-8.79591034E+01
 20
1.25746781E+02
  0
VERTEX
  8
0
 62
4
 10
-8.78060304E+01
 20
1.26036365E+02
  0
VERTEX
  8
0
 62
4
 10
-8.76791680E+01
 20
1.26337984E+02
  0
VERTEX
  8
0
 62
4
 10
-8.75794818E+01
 20
1.26649345E+02
  0
VERTEX
  8
0
 62
4
 10
-8.75077305E+01
 20
1.26968078E+02
  0
VERTEX
  8
0
 62
4
 10
-8.74644601E+01
 20
1.27291756E+02
  0
VERTEX
  8
0
 62
4
 10
-8.74500000E+01
 20
1.27617916E+02
  0
VERTEX
  8
0
 62
4
 10
-8.74644601E+01
 20
1.27944076E+02
  0
VERTEX
  8
0
 62
4
 10
-8.75077305E+01
 20
1.28267754E+02
  0
VERTEX
  8
0
 62
4
 10
-8.75794818E+01
 20
1.28586487E+02
  0
VERTEX
  8
0
 62
4
 10
-8.76791680E+01
 20
1.28897848E+02
  0
VERTEX
  8
0
 62
4
 10
-8.78060304E+01
 20
1.29199467E+02
  0
VERTEX
  8
0
 62
4
 10
-8.79591034E+01
 20
1.29489051E+02
  0
VERTEX
  8
0
 62
4
 10
-8.81372222E+01
 20
1.29764394E+02
  0
VERTEX
  8
0
 62
4
 10
-8.83390311E+01
 20
1.30023400E+02
  0
VERTEX
  8
0
 62
4
 10
-8.85629942E+01
 20
1.30264100E+02
  0
VERTEX
  8
0
 62
4
 10
-8.88074071E+01
 20
1.30484661E+02
  0
VERTEX
  8
0
 62
4
 10
-8.90704095E+01
 20
1.30683404E+02
  0
VERTEX
  8
0
 62
4
 10
-8.93500000E+01
 20
1.30858816E+02
  0
VERTEX
  8
0
 62
4
 10
-8.96440506E+01
 20
1.31009564E+02
  0
VERTEX
  8
0
 62
4
 10
-8.99503234E+01
 20
1.31134499E+02
  0
VERTEX
  8
0
 62
4
 10
-9.02664876E+01
 20
1.31232671E+02
  0
VERTEX
  8
0
 62
4
 10
-9.05901369E+01
 20
1.31303332E+02
  0
VERTEX
  8
0
 62
4
 10
-9.09188082E+01
 20
1.31345945E+02
  0
VERTEX
  8
0
 62
4
 10
-9.12500000E+01
 20
1.31360185E+02
  0
VERTEX
  8
0
 62
4
 10
-9.15811918E+01
 20
1.31345945E+02
  0
VERTEX
  8
0
 62
4
 10
-9.19098631E+01
 20
1.31303332E+02
  0
VERTEX
  8
0
 62
4
 10
-9.22335124E+01
 20
1.31232671E+02
  0
VERTEX
  8
0
 62
4
 10
-9.25496766E+01
 20
1.31134499E+02
  0
VERTEX
  8
0
 62
4
 10
-9.28559494E+01
 20
1.31009564E+02
  0
VERTEX
  8
0
 62
4
 10
-9.31500000E+01
 20
1.30858816E+02
  0
VERTEX
  8
0
 62
4
 10
-9.34295905E+01
 20
1.30683404E+02
  0
VERTEX
  8
0
 62
4
 10
-9.36925929E+01
 20
1.30484661E+02
  0
VERTEX
  8
0
 62
4
 10
-9.39370058E+01
 20
1.30264100E+02
  0
VERTEX
  8
0
 62
4
 10
-9.41609689E+01
 20
1.30023400E+02
  0
VERTEX
  8
0
 62
4
 10
-9.43627778E+01
 20
1.29764394E+02
  0
VERTEX
  8
0
 62
4
 10
-9.45408966E+01
 20
1.29489051E+02
  0
VERTEX
  8
0
 62
4
 10
-9.46939696E+01
 20
1.29199467E+02
  0
VERTEX
  8
0
 62
4
 10
-9.48208320E+01
 20
1.28897848E+02
  0
VERTEX
  8
0
 62
4
 10
-9.49205182E+01
 20
1.28586487E+02
  0
VERTEX
  8
0
 62
4
 10
-9.49922695E+01
 20
1.28267754E+02
  0
VERTEX
  8
0
 62
4
 10
-9.50355399E+01
 20
1.27944076E+02
  0
VERTEX
  8
0
 62
4
 10
-9.50500000E+01
 20
1.27617916E+02
  0
SEQEND
  8
0
  0
POLYLINE
  8
0
 62
4
 66
1
  0
VERTEX
  8
0
 62
4
 10
-9.50500000E+01
 20
1.27444268E+02
  0
VERTEX
  8
0
 62
4
 10
-9.50347023E+01
 20
1.27108814E+02
  0
VERTEX
  8
0
 62
4
 10
-9.49889325E+01
 20
1.26776060E+02
  0
VERTEX
  8
0
 62
4
 10
-9.49130589E+01
 20
1.26448686E+02
  0
VERTEX
  8
0
 62
4
 10
-9.48076925E+01
 20
1.26129329E+02
  0
VERTEX
  8
0
 62
4
 10
-9.46736817E+01
 20
1.25820558E+02
  0
VERTEX
  8
0
 62
4
 10
-9.45121054E+01
 20
1.25524861E+02
  0
VERTEX
  8
0
 62
4
 10
-9.43242646E+01
 20
1.25244617E+02
  0
VERTEX
  8
0
 62
4
 10
-9.41116716E+01
 20
1.24982084E+02
  0
VERTEX
  8
0
 62
4
 10
-9.38760381E+01
 20
1.24739375E+02
  0
VERTEX
  8
0
 62
4
 10
-9.36192613E+01
 20
1.24518444E+02
  0
VERTEX
  8
0
 62
4
 10
-9.33434086E+01
 20
1.24321070E+02
  0
VERTEX
  8
0
 62
4
 10
-9.30507009E+01
 20
1.24148842E+02
  0
VERTEX
  8
0
 62
4
 10
-9.27434951E+01
 20
1.24003147E+02
  0
VERTEX
  8
0
 62
4
 10
-9.24242646E+01
 20
1.23885158E+02
  0
VERTEX
  8
0
 62
4
 10
-9.20955796E+01
 20
1.23795825E+02
  0
VERTEX
  8
0
 62
4
 10
-9.17600864E+01
 20
1.23735867E+02
  0
VERTEX
  8
0
 62
4
 10
-9.14204864E+01
 20
1.23705767E+02
  0
VERTEX
  8
0
 62
4
 10
-9.10795137E+01
 20
1.23705767E+02
  0
VERTEX
  8
0
 62
4
 10
-9.07399136E+01
 20
1.23735867E+02
  0
VERTEX
  8
0
 62
4
 10
-9.04044205E+01
 20
1.23795825E+02
  0
VERTEX
  8
0
 62
4
 10
-9.00757354E+01
 20
1.23885158E+02
  0
VERTEX
  8
0
 62
4
 10
-8.97565049E+01
 20
1.24003147E+02
  0
VERTEX
  8
0
 62
4
 10
-8.94492991E+01
 20
1.24148842E+02
  0
VERTEX
  8
0
 62
4
 10
-8.91565915E+01
 20
1.24321070E+02
  0
VERTEX
  8
0
 62
4
 10
-8.88807388E+01
 20
1.24518444E+02
  0
VERTEX
  8
0
 62
4
 10
-8.86239619E+01
 20
1.24739375E+02
  0
VERTEX
  8
0
 62
4
 10
-8.83883284E+01
 20
1.24982084E+02
  0
VERTEX
  8
0
 62
4
 10
-8.81757354E+01
 20
1.25244617E+02
  0
VERTEX
  8
0
 62
4
 10
-8.79878946E+01
 20
1.25524861E+02
  0
VERTEX
  8
0
 62
4
 10
-8.78263183E+01
 20
1.25820558E+02
  0
VERTEX
  8
0
 62
4
 10
-8.76923075E+01
 20
1.26129329E+02
  0
VERTEX
  8
0
 62
4
 10
-8.75869411E+01
 20
1.26448686E+02
  0
VERTEX
  8
0
 62
4
 10
-8.75110675E+01
 20
1.26776060E+02
  0
VERTEX
  8
0
 62
4
 10
-8.74652977E+01
 20
1.27108814E+02
  0
VERTEX
  8
0
 62
4
 10
-8.74500000E+01
 20
1.27444268E+02
  0
SEQEND
  8
0
  0
LINE
  8
0
 62
4
 10
-9.50500000E+01
 20
1.27444268E+02
 11
-9.50500000E+01
 21
1.27617916E+02
  0
ARC
  8
0
 62
4
 10
-2.31122535E+02
 20
-9.93015244E+00
 40
1.88657692E+02
 50
4.46816411E+01
 51
4.61887918E+01
  0
ARC
  8
0
 62
4
 10
3.36228232E+01
 20
-9.93044546E+00
 40
1.88658103E+02
 50
1.33811210E+02
 51
1.35318357E+02
  0
LINE
  8
0
 62
4
 10
-9.46000000E+01
 20
1.24063427E+02
 11
-9.46000000E+01
 21
1.24369047E+02
  0
LINE
  8
0
 62
4
 10
-1.02900000E+02
 20
1.24063427E+02
 11
-1.02900000E+02
 21
1.24369047E+02
  0
POLYLINE
  8
0
 62
4
 66
1
  0
VERTEX
  8
0
 62
4
 10
-9.46000000E+01
 20
1.24369047E+02
  0
VERTEX
  8
0
 62
4
 10
-9.46157920E+01
 20
1.24725248E+02
  0
VERTEX
  8
0
 62
4
 10
-9.46630478E+01
 20
1.25078739E+02
  0
VERTEX
  8
0
 62
4
 10
-9.47414078E+01
 20
1.25426828E+02
  0
VERTEX
  8
0
 62
4
 10
-9.48502756E+01
 20
1.25766867E+02
  0
VERTEX
  8
0
 62
4
 10
-9.49888227E+01
 20
1.26096268E+02
  0
VERTEX
  8
0
 62
4
 10
-9.51559946E+01
 20
1.26412523E+02
  0
VERTEX
  8
0
 62
4
 10
-9.53505190E+01
 20
1.26713226E+02
  0
VERTEX
  8
0
 62
4
 10
-9.55709156E+01
 20
1.26996089E+02
  0
VERTEX
  8
0
 62
4
 10
-9.58155069E+01
 20
1.27258959E+02
  0
VERTEX
  8
0
 62
4
 10
-9.60824314E+01
 20
1.27499834E+02
  0
VERTEX
  8
0
 62
4
 10
-9.63696578E+01
 20
1.27716882E+02
  0
VERTEX
  8
0
 62
4
 10
-9.66750000E+01
 20
1.27908451E+02
  0
VERTEX
  8
0
 62
4
 10
-9.69961342E+01
 20
1.28073084E+02
  0
VERTEX
  8
0
 62
4
 10
-9.73306164E+01
 20
1.28209526E+02
  0
VERTEX
  8
0
 62
4
 10
-9.76759010E+01
 20
1.28316740E+02
  0
VERTEX
  8
0
 62
4
 10
-9.80293601E+01
 20
1.28393909E+02
  0
VERTEX
  8
0
 62
4
 10
-9.83883037E+01
 20
1.28440447E+02
  0
VERTEX
  8
0
 62
4
 10
-9.87500000E+01
 20
1.28455999E+02
  0
VERTEX
  8
0
 62
4
 10
-9.91116963E+01
 20
1.28440447E+02
  0
VERTEX
  8
0
 62
4
 10
-9.94706399E+01
 20
1.28393909E+02
  0
VERTEX
  8
0
 62
4
 10
-9.98240990E+01
 20
1.28316740E+02
  0
VERTEX
  8
0
 62
4
 10
-1.00169384E+02
 20
1.28209526E+02
  0
VERTEX
  8
0
 62
4
 10
-1.00503866E+02
 20
1.28073084E+02
  0
VERTEX
  8
0
 62
4
 10
-1.00825000E+02
 20
1.27908451E+02
  0
VERTEX
  8
0
 62
4
 10
-1.01130342E+02
 20
1.27716882E+02
  0
VERTEX
  8
0
 62
4
 10
-1.01417569E+02
 20
1.27499834E+02
  0
VERTEX
  8
0
 62
4
 10
-1.01684493E+02
 20
1.27258959E+02
  0
VERTEX
  8
0
 62
4
 10
-1.01929084E+02
 20
1.26996089E+02
  0
VERTEX
  8
0
 62
4
 10
-1.02149481E+02
 20
1.26713226E+02
  0
VERTEX
  8
0
 62
4
 10
-1.02344005E+02
 20
1.26412523E+02
  0
VERTEX
  8
0
 62
4
 10
-1.02511177E+02
 20
1.26096268E+02
  0
VERTEX
  8
0
 62
4
 10
-1.02649724E+02
 20
1.25766867E+02
  0
VERTEX
  8
0
 62
4
 10
-1.02758592E+02
 20
1.25426828E+02
  0
VERTEX
  8
0
 62
4
 10
-1.02836952E+02
 20
1.25078739E+02
  0
VERTEX
  8
0
 62
4
 10
-1.02884208E+02
 20
1.24725248E+02
  0
VERTEX
  8
0
 62
4
 10
-1.02900000E+02
 20
1.24369047E+02
  0
VERTEX
  8
0
 62
4
 10
-1.02884208E+02
 20
1.24012846E+02
  0
VERTEX
  8
0
 62
4
 10
-1.02836952E+02
 20
1.23659355E+02
  0
VERTEX
  8
0
 62
4
 10
-1.02758592E+02
 20
1.23311266E+02
  0
VERTEX
  8
0
 62
4
 10
-1.02649724E+02
 20
1.22971227E+02
  0
VERTEX
  8
0
 62
4
 10
-1.02511177E+02
 20
1.22641826E+02
  0
VERTEX
  8
0
 62
4
 10
-1.02344005E+02
 20
1.22325571E+02
  0
VERTEX
  8
0
 62
4
 10
-1.02149481E+02
 20
1.22024868E+02
  0
VERTEX
  8
0
 62
4
 10
-1.01929084E+02
 20
1.21742005E+02
  0
VERTEX
  8
0
 62
4
 10
-1.01684493E+02
 20
1.21479135E+02
  0
VERTEX
  8
0
 62
4
 10
-1.01417569E+02
 20
1.21238260E+02
  0
VERTEX
  8
0
 62
4
 10
-1.01130342E+02
 20
1.21021212E+02
  0
VERTEX
  8
0
 62
4
 10
-1.00825000E+02
 20
1.20829643E+02
  0
VERTEX
  8
0
 62
4
 10
-1.00503866E+02
 20
1.20665010E+02
  0
VERTEX
  8
0
 62
4
 10
-1.00169384E+02
 20
1.20528568E+02
  0
VERTEX
  8
0
 62
4
 10
-9.98240990E+01
 20
1.20421354E+02
  0
VERTEX
  8
0
 62
4
 10
-9.94706399E+01
 20
1.20344185E+02
  0
VERTEX
  8
0
 62
4
 10
-9.91116963E+01
 20
1.20297647E+02
  0
VERTEX
  8
0
 62
4
 10
-9.87500000E+01
 20
1.20282095E+02
  0
VERTEX
  8
0
 62
4
 10
-9.83883037E+01
 20
1.20297647E+02
  0
VERTEX
  8
0
 62
4
 10
-9.80293601E+01
 20
1.20344185E+02
  0
VERTEX
  8
0
 62
4
 10
-9.76759010E+01
 20
1.20421354E+02
  0
VERTEX
  8
0
 62
4
 10
-9.73306164E+01
 20
1.20528568E+02
  0
VERTEX
  8
0
 62
4
 10
-9.69961342E+01
 20
1.20665010E+02
  0
VERTEX
  8
0
 62
4
 10
-9.66750000E+01
 20
1.20829643E+02
  0
VERTEX
  8
0
 62
4
 10
-9.63696578E+01
 20
1.21021212E+02
  0
VERTEX
  8
0
 62
4
 10
-9.60824314E+01
 20
1.21238260E+02
  0
VERTEX
  8
0
 62
4
 10
-9.58155069E+01
 20
1.21479135E+02
  0
VERTEX
  8
0
 62
4
 10
-9.55709156E+01
 20
1.21742005E+02
  0
VERTEX
  8
0
 62
4
 10
-9.53505190E+01
 20
1.22024868E+02
  0
VERTEX
  8
0
 62
4
 10
-9.51559946E+01
 20
1.22325571E+02
  0
VERTEX
  8
0
 62
4
 10
-9.49888227E+01
 20
1.22641826E+02
  0
VERTEX
  8
0
 62
4
 10
-9.48502756E+01
 20
1.22971227E+02
  0
VERTEX
  8
0
 62
4
 10
-9.47414078E+01
 20
1.23311266E+02
  0
VERTEX
  8
0
 62
4
 10
-9.46630478E+01
 20
1.23659355E+02
  0
VERTEX
  8
0
 62
4
 10
-9.46157920E+01
 20
1.24012846E+02
  0
VERTEX
  8
0
 62
4
 10
-9.46000000E+01
 20
1.24369047E+02
  0
SEQEND
  8
0
  0
POLYLINE
  8
0
 62
4
 66
1
  0
VERTEX
  8
0
 62
4
 10
-1.02900000E+02
 20
1.24063427E+02
  0
VERTEX
  8
0
 62
4
 10
-1.02883293E+02
 20
1.23697075E+02
  0
VERTEX
  8
0
 62
4
 10
-1.02833308E+02
 20
1.23333674E+02
  0
VERTEX
  8
0
 62
4
 10
-1.02750446E+02
 20
1.22976147E+02
  0
VERTEX
  8
0
 62
4
 10
-1.02635375E+02
 20
1.22627375E+02
  0
VERTEX
  8
0
 62
4
 10
-1.02489021E+02
 20
1.22290165E+02
  0
VERTEX
  8
0
 62
4
 10
-1.02312563E+02
 20
1.21967232E+02
  0
VERTEX
  8
0
 62
4
 10
-1.02107421E+02
 20
1.21661177E+02
  0
VERTEX
  8
0
 62
4
 10
-1.01875247E+02
 20
1.21374463E+02
  0
VERTEX
  8
0
 62
4
 10
-1.01617910E+02
 20
1.21109399E+02
  0
VERTEX
  8
0
 62
4
 10
-1.01337483E+02
 20
1.20868119E+02
  0
VERTEX
  8
0
 62
4
 10
-1.01036222E+02
 20
1.20652566E+02
  0
VERTEX
  8
0
 62
4
 10
-1.00716555E+02
 20
1.20464475E+02
  0
VERTEX
  8
0
 62
4
 10
-1.00381054E+02
 20
1.20305361E+02
  0
VERTEX
  8
0
 62
4
 10
-1.00032421E+02
 20
1.20176505E+02
  0
VERTEX
  8
0
 62
4
 10
-9.96734619E+01
 20
1.20078943E+02
  0
VERTEX
  8
0
 62
4
 10
-9.93070681E+01
 20
1.20013463E+02
  0
VERTEX
  8
0
 62
4
 10
-9.89361891E+01
 20
1.19980590E+02
  0
VERTEX
  8
0
 62
4
 10
-9.85638110E+01
 20
1.19980590E+02
  0
VERTEX
  8
0
 62
4
 10
-9.81929320E+01
 20
1.20013463E+02
  0
VERTEX
  8
0
 62
4
 10
-9.78265381E+01
 20
1.20078943E+02
  0
VERTEX
  8
0
 62
4
 10
-9.74675795E+01
 20
1.20176504E+02
  0
VERTEX
  8
0
 62
4
 10
-9.71189461E+01
 20
1.20305361E+02
  0
VERTEX
  8
0
 62
4
 10
-9.67834451E+01
 20
1.20464475E+02
  0
VERTEX
  8
0
 62
4
 10
-9.64637775E+01
 20
1.20652566E+02
  0
VERTEX
  8
0
 62
4
 10
-9.61625173E+01
 20
1.20868119E+02
  0
VERTEX
  8
0
 62
4
 10
-9.58820900E+01
 20
1.21109399E+02
  0
VERTEX
  8
0
 62
4
 10
-9.56247534E+01
 20
1.21374463E+02
  0
VERTEX
  8
0
 62
4
 10
-9.53925795E+01
 20
1.21661177E+02
  0
VERTEX
  8
0
 62
4
 10
-9.51874375E+01
 20
1.21967232E+02
  0
VERTEX
  8
0
 62
4
 10
-9.50109792E+01
 20
1.22290165E+02
  0
VERTEX
  8
0
 62
4
 10
-9.48646253E+01
 20
1.22627375E+02
  0
VERTEX
  8
0
 62
4
 10
-9.47495541E+01
 20
1.22976147E+02
  0
VERTEX
  8
0
 62
4
 10
-9.46666922E+01
 20
1.23333673E+02
  0
VERTEX
  8
0
 62
4
 10
-9.46167067E+01
 20
1.23697075E+02
  0
VERTEX
  8
0
 62
4
 10
-9.46000000E+01
 20
1.24063427E+02
  0
SEQEND
  8
0
  0
LINE
  8
0
  6
CENTER
 62
6
 10
-1.06250000E+02
 20
1.29944268E+02
 11
-1.06250000E+02
 21
1.24944268E+02
  0
LINE
  8
0
  6
CENTER
 62
6
 10
-1.03750000E+02
 20
1.27444268E+02
 11
-1.08750000E+02
 21
1.27444268E+02
  0
LINE
  8
0
  6
CENTER
 62
6
 10
-9.87500000E+01
 20
1.26497440E+02
 11
-9.87500000E+01
 21
1.21497440E+02
  0
LINE
  8
0
  6
CENTER
 62
6
 10
-9.62500000E+01
 20
1.23997440E+02
 11
-1.01250000E+02
 21
1.23997440E+02
  0
LINE
  8
0
  6
CENTER
 62
6
 10
-9.12500000E+01
 20
1.29944268E+02
 11
-9.12500000E+01
 21
1.24944268E+02
  0
LINE
  8
0
  6
CENTER
 62
6
 10
-8.87500000E+01
 20
1.27444268E+02
 11
-9.37500000E+01
 21
1.27444268E+02
  0
LINE
  8
0
 62
4
 10
-9.54128770E+01
 20
1.21633902E+02
 11
-8.37500000E+01
 21
1.21633902E+02
  0
LINE
  8
0
 62
4
 10
-9.58127552E+01
 20
1.21176228E+02
 11
-9.02500000E+01
 21
1.21176228E+02
  0
LINE
  8
0
 62
4
 10
-2.47500000E+01
 20
1.21176228E+02
 11
-2.32500000E+01
 21
1.20168371E+02
  0
LINE
  8
0
 62
4
 10
-2.32500000E+01
 20
1.17937781E+02
 11
-2.47500000E+01
 21
1.17236997E+02
  0
LINE
  8
0
 62
4
 10
-2.32500000E+01
 20
1.17544468E+02
 11
-2.47500000E+01
 21
1.16542404E+02
  0
LINE
  8
0
 62
4
 10
-2.32500000E+01
 20
1.20168371E+02
 11
-2.32500000E+01
 21
1.17544468E+02
  0
LINE
  8
0
 62
7
 10
-1.82500196E+01
 20
1.14519459E+02
 11
-2.47500000E+01
 21
1.14519459E+02
  0
LINE
  8
0
 62
7
 10
-1.82500196E+01
 20
1.09219471E+02
 11
-3.97500000E+01
 21
1.09219471E+02
  0
LINE
  8
0
 62
7
 10
-1.82500196E+01
 20
6.75194738E+01
 11
-1.24250000E+02
 21
6.75194738E+01
  0
LINE
  8
0
 62
7
 10
-1.82500196E+01
 20
6.22194860E+01
 11
-1.24250000E+02
 21
6.22194860E+01
  0
LINE
  8
0
 62
7
 10
-5.47500000E+01
 20
1.15369449E+02
 11
-1.24250000E+02
 21
1.15369449E+02
  0
LINE
  8
0
 62
7
 10
-5.47500000E+01
 20
1.14519459E+02
 11
-1.24250000E+02
 21
1.14519459E+02
  0
LINE
  8
0
 62
7
 10
-5.47500000E+01
 20
1.09219471E+02
 11
-1.24250000E+02
 21
1.09219471E+02
  0
CIRCLE
  8
0
 62
7
 10
-2.82249992E+02
 20
1.11869495E+02
 40
2.45850000E+00
  0
CIRCLE
  8
0
 62
7
 10
-2.82249947E+02
 20
6.48694799E+01
 40
2.45850000E+00
  0
CIRCLE
  8
0
 62
7
 10
-3.29249962E+02
 20
6.48694342E+01
 40
2.45850000E+00
  0
CIRCLE
  8
0
 62
7
 10
-3.29250008E+02
 20
1.11869449E+02
 40
2.45850000E+00
  0
LINE
  8
0
 62
4
 10
-2.92249977E+02
 20
9.61636933E+01
 11
-3.05749977E+02
 21
1.03957922E+02
  0
LINE
  8
0
 62
4
 10
-2.92249977E+02
 20
8.05752360E+01
 11
-2.92249977E+02
 21
9.61636933E+01
  0
LINE
  8
0
 62
4
 10
-3.05749977E+02
 20
7.27810074E+01
 11
-2.92249977E+02
 21
8.05752360E+01
  0
LINE
  8
0
 62
4
 10
-3.19249977E+02
 20
8.05752360E+01
 11
-3.05749977E+02
 21
7.27810074E+01
  0
LINE
  8
0
 62
4
 10
-3.19249977E+02
 20
9.61636933E+01
 11
-3.19249977E+02
 21
8.05752360E+01
  0
LINE
  8
0
 62
4
 10
-3.05749977E+02
 20
1.03957922E+02
 11
-3.19249977E+02
 21
9.61636933E+01
  0
CIRCLE
  8
0
 62
4
 10
-3.05749977E+02
 20
8.83694647E+01
 40
1.35000000E+01
  0
CIRCLE
  8
0
 62
2
 10
-3.05749977E+02
 20
8.83694647E+01
 40
8.18000031E+00
  0
CIRCLE
  8
0
 62
7
 10
-3.05749977E+02
 20
8.83694647E+01
 40
8.99999237E+00
  0
CIRCLE
  8
0
 62
2
 10
-2.82249992E+02
 20
1.11869449E+02
 40
3.00000000E+00
  0
CIRCLE
  8
0
 62
2
 10
-2.82250069E+02
 20
6.48694189E+01
 40
3.00000000E+00
  0
CIRCLE
  8
0
 62
2
 10
-3.29250038E+02
 20
6.48694189E+01
 40
3.00000000E+00
  0
CIRCLE
  8
0
 62
2
 10
-3.29250008E+02
 20
1.11869449E+02
 40
3.00000000E+00
  0
CIRCLE
  8
0
 62
7
 10
-3.05749977E+02
 20
8.83694647E+01
 40
1.70000000E+01
  0
CIRCLE
  8
0
 62
7
 10
-3.05749977E+02
 20
8.83694647E+01
 40
1.90000000E+01
  0
CIRCLE
  8
0
 62
7
 10
-3.05749977E+02
 20
8.83694647E+01
 40
1.75294495E+01
  0
ARC
  8
0
 62
7
 10
-2.78750053E+02
 20
7.78381079E+01
 40
1.00000000E+00
 50
2.77180808E+02
 51
0.00000000E+00
  0
ARC
  8
0
 62
7
 10
-2.78250053E+02
 20
7.38694799E+01
 40
3.00000000E+00
 50
9.71807782E+01
 51
1.79999964E+02
  0
ARC
  8
0
 62
7
 10
-2.82218681E+02
 20
7.28693960E+01
 40
1.00000000E+00
 50
2.69774478E+02
 51
3.52821034E+02
  0
ARC
  8
0
 62
7
 10
-2.82250069E+02
 20
6.48694570E+01
 40
7.00000000E+00
 50
8.97754328E+01
 51
1.80224705E+02
  0
ARC
  8
0
 62
7
 10
-2.90249992E+02
 20
6.48380850E+01
 40
1.00000000E+00
 50
2.77180808E+02
 51
2.24685903E-01
  0
ARC
  8
0
 62
7
 10
-2.91250008E+02
 20
6.08694494E+01
 40
3.00000000E+00
 50
8.99999818E+01
 51
1.72818977E+02
  0
ARC
  8
0
 62
7
 10
-2.95218636E+02
 20
6.13694799E+01
 40
1.00000000E+00
 50
2.70000018E+02
 51
3.52818438E+02
  0
CIRCLE
  8
0
 62
7
 10
-2.82250069E+02
 20
6.48694418E+01
 40
4.50000000E+00
  0
ARC
  8
0
 62
7
 10
-2.78249977E+02
 20
6.08695028E+01
 40
3.50000000E+00
 50
2.70000018E+02
 51
3.59999986E+02
  0
ARC
  8
0
 62
7
 10
-2.86313026E+02
 20
7.17608908E+01
 40
1.00000000E+00
 50
2.25000628E+02
 51
3.00522440E+02
  0
ARC
  8
0
 62
7
 10
-2.89141472E+02
 20
6.89324606E+01
 40
1.00000000E+00
 50
3.29477756E+02
 51
4.49993490E+01
  0
CIRCLE
  8
0
 62
7
 10
-2.82250069E+02
 20
6.48694418E+01
 40
5.00000000E+00
  0
ARC
  8
0
 62
7
 10
-2.78750053E+02
 20
8.63694799E+01
 40
1.00000000E+00
 50
3.59999986E+02
 51
8.99999681E+01
  0
ARC
  8
0
 62
7
 10
-2.78250053E+02
 20
6.08695028E+01
 40
3.00000000E+00
 50
2.70000018E+02
 51
3.59999986E+02
  0
ARC
  8
0
 62
7
 10
-3.03750008E+02
 20
6.13694952E+01
 40
1.00000000E+00
 50
1.79999951E+02
 51
2.70000001E+02
  0
ARC
  8
0
 62
7
 10
-2.85850273E+02
 20
8.63694799E+01
 40
1.00000000E+00
 50
8.99999681E+01
 51
1.74260502E+02
  0
ARC
  8
0
 62
7
 10
-2.90264519E+02
 20
7.57124365E+01
 40
1.00000000E+00
 50
1.40738985E+02
 51
2.24999982E+02
  0
ARC
  8
0
 62
7
 10
-2.93092964E+02
 20
7.28840139E+01
 40
1.00000000E+00
 50
4.49999637E+01
 51
1.29260961E+02
  0
ARC
  8
0
 62
7
 10
-3.03750008E+02
 20
6.84697149E+01
 40
1.00000000E+00
 50
9.57394445E+01
 51
1.79999951E+02
  0
ARC
  8
0
 62
7
 10
-3.32749992E+02
 20
9.89008367E+01
 40
1.00000000E+00
 50
9.71807714E+01
 51
1.79999964E+02
  0
ARC
  8
0
 62
7
 10
-3.29281364E+02
 20
1.03869556E+02
 40
1.00000000E+00
 50
8.97744422E+01
 51
1.72820998E+02
  0
ARC
  8
0
 62
7
 10
-3.21250053E+02
 20
1.11900867E+02
 40
1.00000000E+00
 50
9.71807714E+01
 51
1.80224650E+02
  0
ARC
  8
0
 62
7
 10
-3.16281364E+02
 20
1.15369449E+02
 40
1.00000000E+00
 50
8.99999818E+01
 51
1.72818402E+02
  0
ARC
  8
0
 62
7
 10
-3.20249992E+02
 20
1.15869480E+02
 40
3.00000000E+00
 50
2.70000018E+02
 51
3.52818957E+02
  0
ARC
  8
0
 62
7
 10
-3.33249977E+02
 20
1.02869465E+02
 40
3.00000000E+00
 50
2.77180753E+02
 51
0.00000000E+00
  0
CIRCLE
  8
0
 62
7
 10
-3.29250008E+02
 20
1.11869480E+02
 40
4.50000000E+00
  0
ARC
  8
0
 62
7
 10
-3.33249977E+02
 20
1.15869419E+02
 40
3.50000000E+00
 50
9.00000231E+01
 51
1.79999977E+02
  0
ARC
  8
0
 62
7
 10
-3.32749992E+02
 20
8.63694799E+01
 40
1.00000000E+00
 50
8.99999549E+01
 51
1.79999991E+02
  0
ARC
  8
0
 62
7
 10
-3.33249977E+02
 20
1.15869419E+02
 40
3.00000000E+00
 50
9.00000231E+01
 51
1.79999977E+02
  0
ARC
  8
0
 62
7
 10
-3.25186928E+02
 20
1.04978031E+02
 40
1.00000000E+00
 50
4.50006194E+01
 51
1.20522431E+02
  0
ARC
  8
0
 62
7
 10
-3.29250008E+02
 20
1.11869480E+02
 40
7.00000000E+00
 50
2.69775421E+02
 51
2.24686703E-01
  0
ARC
  8
0
 62
7
 10
-3.32749992E+02
 20
9.03694647E+01
 40
1.00000000E+00
 50
1.79999964E+02
 51
2.69999946E+02
  0
ARC
  8
0
 62
7
 10
-3.07749992E+02
 20
1.08269199E+02
 40
1.00000000E+00
 50
2.75739617E+02
 51
3.59999959E+02
  0
ARC
  8
0
 62
7
 10
-3.07749992E+02
 20
1.15369434E+02
 40
1.00000000E+00
 50
3.59999959E+02
 51
8.99999956E+01
  0
ARC
  8
0
 62
7
 10
-3.22358559E+02
 20
1.07806476E+02
 40
1.00000000E+00
 50
1.49477747E+02
 51
2.24999340E+02
  0
CIRCLE
  8
0
 62
7
 10
-3.29250008E+02
 20
1.11869480E+02
 40
5.00000000E+00
  0
ARC
  8
0
 62
7
 10
-3.25649773E+02
 20
8.63694799E+01
 40
1.00000000E+00
 50
5.73944893E+00
 51
8.99999549E+01
  0
ARC
  8
0
 62
7
 10
-3.25649773E+02
 20
9.03694647E+01
 40
1.00000000E+00
 50
2.69999963E+02
 51
3.54260510E+02
  0
ARC
  8
0
 62
7
 10
-3.18407036E+02
 20
1.03854923E+02
 40
1.00000000E+00
 50
2.24999972E+02
 51
3.09260983E+02
  0
ARC
  8
0
 62
7
 10
-3.21235481E+02
 20
1.01026508E+02
 40
1.00000000E+00
 50
3.20738994E+02
 51
4.49999910E+01
  0
ARC
  8
0
 62
7
 10
-3.16281364E+02
 20
6.13694799E+01
 40
1.00000000E+00
 50
1.87181597E+02
 51
2.70000018E+02
  0
ARC
  8
0
 62
7
 10
-3.20249992E+02
 20
6.08694494E+01
 40
3.00000000E+00
 50
7.18104317E+00
 51
8.99999818E+01
  0
ARC
  8
0
 62
7
 10
-3.21250053E+02
 20
6.48380850E+01
 40
1.00000000E+00
 50
1.79775333E+02
 51
2.62819204E+02
  0
ARC
  8
0
 62
7
 10
-3.29250008E+02
 20
6.48694570E+01
 40
7.00000000E+00
 50
3.59775313E+02
 51
9.02245790E+01
  0
ARC
  8
0
 62
7
 10
-3.29281364E+02
 20
7.28693960E+01
 40
1.00000000E+00
 50
1.87179002E+02
 51
2.70225557E+02
  0
ARC
  8
0
 62
7
 10
-3.33249977E+02
 20
7.38694799E+01
 40
3.00000000E+00
 50
0.00000000E+00
 51
8.28192405E+01
  0
ARC
  8
0
 62
7
 10
-3.32749992E+02
 20
7.78381079E+01
 40
1.00000000E+00
 50
1.80000036E+02
 51
2.62819228E+02
  0
ARC
  8
0
 62
7
 10
-2.95218636E+02
 20
1.15369449E+02
 40
1.00000000E+00
 50
7.18156141E+00
 51
8.99999818E+01
  0
ARC
  8
0
 62
7
 10
-2.91250008E+02
 20
1.15869480E+02
 40
3.00000000E+00
 50
1.87181024E+02
 51
2.70000018E+02
  0
ARC
  8
0
 62
7
 10
-2.90249992E+02
 20
1.11900867E+02
 40
1.00000000E+00
 50
3.59775314E+02
 51
8.28191923E+01
  0
ARC
  8
0
 62
7
 10
-2.82250069E+02
 20
1.11869480E+02
 40
7.00000000E+00
 50
1.79775278E+02
 51
2.70224550E+02
  0
ARC
  8
0
 62
7
 10
-2.82218681E+02
 20
1.03869556E+02
 40
1.00000000E+00
 50
7.17896597E+00
 51
9.02255215E+01
  0
ARC
  8
0
 62
7
 10
-2.78250053E+02
 20
1.02869465E+02
 40
3.00000000E+00
 50
1.79999977E+02
 51
2.62819232E+02
  0
ARC
  8
0
 62
7
 10
-2.78750053E+02
 20
9.89008367E+01
 40
1.00000000E+00
 50
0.00000000E+00
 51
8.28191923E+01
  0
CIRCLE
  8
0
 62
7
 10
-3.29250038E+02
 20
6.48694952E+01
 40
4.50000000E+00
  0
ARC
  8
0
 62
7
 10
-3.33249977E+02
 20
6.08694647E+01
 40
3.50000000E+00
 50
1.80000036E+02
 51
2.69999991E+02
  0
CIRCLE
  8
0
 62
7
 10
-2.82249992E+02
 20
1.11869449E+02
 40
4.50000000E+00
  0
ARC
  8
0
 62
7
 10
-2.78250053E+02
 20
1.15869465E+02
 40
3.50000000E+00
 50
0.00000000E+00
 51
8.99999818E+01
  0
ARC
  8
0
 62
7
 10
-3.22358559E+02
 20
6.89325216E+01
 40
1.00000000E+00
 50
1.35000615E+02
 51
2.10522426E+02
  0
ARC
  8
0
 62
7
 10
-3.25187004E+02
 20
7.17609213E+01
 40
1.00000000E+00
 50
2.39477760E+02
 51
3.14999353E+02
  0
CIRCLE
  8
0
 62
7
 10
-3.29250038E+02
 20
6.48694952E+01
 40
5.00000000E+00
  0
ARC
  8
0
 62
7
 10
-3.07749992E+02
 20
6.84697531E+01
 40
1.00000000E+00
 50
3.59999973E+02
 51
8.42604992E+01
  0
ARC
  8
0
 62
7
 10
-3.07749992E+02
 20
6.13694952E+01
 40
1.00000000E+00
 50
2.69999991E+02
 51
3.59999973E+02
  0
ARC
  8
0
 62
7
 10
-3.33249977E+02
 20
6.08695028E+01
 40
3.00000000E+00
 50
1.80000036E+02
 51
2.69999991E+02
  0
ARC
  8
0
 62
7
 10
-2.89141396E+02
 20
1.07806415E+02
 40
1.00000000E+00
 50
3.15000624E+02
 51
3.05224488E+01
  0
ARC
  8
0
 62
7
 10
-2.86312996E+02
 20
1.04978031E+02
 40
1.00000000E+00
 50
5.94777518E+01
 51
1.34999345E+02
  0
CIRCLE
  8
0
 62
7
 10
-2.82249992E+02
 20
1.11869449E+02
 40
5.00000000E+00
  0
ARC
  8
0
 62
7
 10
-3.03750008E+02
 20
1.08269199E+02
 40
1.00000000E+00
 50
1.79999964E+02
 51
2.64260484E+02
  0
ARC
  8
0
 62
7
 10
-3.03750008E+02
 20
1.15369434E+02
 40
1.00000000E+00
 50
8.99999818E+01
 51
1.79999964E+02
  0
ARC
  8
0
 62
7
 10
-2.78250053E+02
 20
1.15869449E+02
 40
3.00000000E+00
 50
0.00000000E+00
 51
8.99999818E+01
  0
ARC
  8
0
 62
7
 10
-2.78750053E+02
 20
9.03694647E+01
 40
1.00000000E+00
 50
2.69999963E+02
 51
0.00000000E+00
  0
ARC
  8
0
 62
7
 10
-2.85850273E+02
 20
9.03694647E+01
 40
1.00000000E+00
 50
1.85739458E+02
 51
2.69999963E+02
  0
ARC
  8
0
 62
7
 10
-2.93092964E+02
 20
1.03854954E+02
 40
1.00000000E+00
 50
2.30738998E+02
 51
3.14999995E+02
  0
ARC
  8
0
 62
7
 10
-2.90264519E+02
 20
1.01026508E+02
 40
1.00000000E+00
 50
1.34999959E+02
 51
2.19260957E+02
  0
ARC
  8
0
 62
7
 10
-3.18407036E+02
 20
7.28839910E+01
 40
1.00000000E+00
 50
5.07389892E+01
 51
1.34999987E+02
  0
ARC
  8
0
 62
7
 10
-3.21235481E+02
 20
7.57124288E+01
 40
1.00000000E+00
 50
3.14999968E+02
 51
3.92609655E+01
  0
LINE
  8
0
  6
CENTER
 62
2
 10
-3.20212685E+02
 20
6.48694189E+01
 11
-3.38982597E+02
 21
6.48694189E+01
  0
LINE
  8
0
  6
CENTER
 62
2
 10
-3.19862907E+02
 20
1.11869449E+02
 11
-3.38982597E+02
 21
1.11869449E+02
  0
LINE
  8
0
  6
CENTER
 62
2
 10
-2.73089684E+02
 20
8.83694647E+01
 11
-3.40265053E+02
 21
8.83694647E+01
  0
LINE
  8
0
 62
7
 10
-2.81250053E+02
 20
7.26207540E+01
 11
-2.81250053E+02
 21
7.38694799E+01
  0
LINE
  8
0
 62
7
 10
-2.90001579E+02
 20
6.38694189E+01
 11
-2.91249977E+02
 21
6.38694189E+01
  0
LINE
  8
0
 62
7
 10
-3.21498772E+02
 20
6.38695104E+01
 11
-3.20249992E+02
 21
6.38695104E+01
  0
LINE
  8
0
 62
7
 10
-3.30250069E+02
 20
7.26212347E+01
 11
-3.30250069E+02
 21
7.38694799E+01
  0
LINE
  8
0
 62
7
 10
-2.81250008E+02
 20
1.04117817E+02
 11
-2.81250008E+02
 21
1.02869465E+02
  0
LINE
  8
0
 62
7
 10
-2.90001274E+02
 20
1.12869434E+02
 11
-2.91249977E+02
 21
1.12869434E+02
  0
LINE
  8
0
 62
7
 10
-3.21498390E+02
 20
1.12869510E+02
 11
-3.20249992E+02
 21
1.12869510E+02
  0
LINE
  8
0
 62
7
 10
-3.30249992E+02
 20
1.04118061E+02
 11
-3.30249992E+02
 21
1.02869465E+02
  0
LINE
  8
0
 62
7
 10
-2.75250069E+02
 20
6.08695028E+01
 11
-2.75250069E+02
 21
1.15869449E+02
  0
LINE
  8
0
  6
CENTER
 62
2
 10
-2.82250069E+02
 20
5.52084005E+01
 11
-2.82250069E+02
 21
7.40654638E+01
  0
LINE
  8
0
 62
7
 10
-2.83750008E+02
 20
5.78694876E+01
 11
-2.83750008E+02
 21
5.73694876E+01
  0
LINE
  8
0
 62
7
 10
-3.27749992E+02
 20
5.78695181E+01
 11
-3.27749992E+02
 21
5.73694876E+01
  0
LINE
  8
0
 62
7
 10
-3.27749992E+02
 20
1.19369465E+02
 11
-3.27749992E+02
 21
1.18869480E+02
  0
LINE
  8
0
 62
7
 10
-2.83750008E+02
 20
1.19369465E+02
 11
-2.83750008E+02
 21
1.18869434E+02
  0
LINE
  8
0
 62
7
 10
-3.16281364E+02
 20
6.03694876E+01
 11
-2.95218636E+02
 21
6.03694876E+01
  0
LINE
  8
0
 62
7
 10
-2.77750069E+02
 20
7.78381079E+01
 11
-2.77750069E+02
 21
9.89008367E+01
  0
LINE
  8
0
  6
CENTER
 62
2
 10
-2.72063652E+02
 20
6.48694189E+01
 11
-2.91766289E+02
 21
6.48694189E+01
  0
LINE
  8
0
  6
CENTER
 62
2
 10
-3.05749977E+02
 20
1.23130131E+02
 11
-3.05749977E+02
 21
5.50425985E+01
  0
LINE
  8
0
 62
7
 10
-3.33249977E+02
 20
5.73694799E+01
 11
-2.78249977E+02
 21
5.73694799E+01
  0
LINE
  8
0
 62
7
 10
-2.74750038E+02
 20
6.08695028E+01
 11
-2.74750038E+02
 21
1.15869480E+02
  0
LINE
  8
0
 62
7
 10
-3.33249977E+02
 20
5.78695104E+01
 11
-2.78250053E+02
 21
5.78694876E+01
  0
LINE
  8
0
 62
7
 10
-2.78750053E+02
 20
8.73694647E+01
 11
-2.85850273E+02
 21
8.73694647E+01
  0
LINE
  8
0
 62
7
 10
-2.92385986E+02
 20
7.35911761E+01
 11
-2.88434460E+02
 21
6.96396488E+01
  0
LINE
  8
0
 62
7
 10
-2.90971705E+02
 20
7.50054137E+01
 11
-2.87020178E+02
 21
7.10538865E+01
  0
LINE
  8
0
 62
7
 10
-3.04750069E+02
 20
6.13695028E+01
 11
-3.04750069E+02
 21
6.84697225E+01
  0
LINE
  8
0
  6
CENTER
 62
2
 10
-3.29250008E+02
 20
1.21423145E+02
 11
-3.29250008E+02
 21
1.03985111E+02
  0
LINE
  8
0
  6
CENTER
 62
2
 10
-3.12749992E+02
 20
1.21731144E+02
 11
-3.12749992E+02
 21
1.00140308E+02
  0
LINE
  8
0
 62
7
 10
-3.36750008E+02
 20
6.08694723E+01
 11
-3.36750008E+02
 21
1.15869449E+02
  0
LINE
  8
0
 62
7
 10
-3.36250008E+02
 20
6.08695028E+01
 11
-3.36250008E+02
 21
1.15869449E+02
  0
LINE
  8
0
 62
7
 10
-3.33750008E+02
 20
7.78381079E+01
 11
-3.33750008E+02
 21
9.89008367E+01
  0
LINE
  8
0
 62
7
 10
-3.33249977E+02
 20
1.18869480E+02
 11
-2.78250053E+02
 21
1.18869434E+02
  0
LINE
  8
0
 62
7
 10
-3.32749992E+02
 20
8.73695104E+01
 11
-3.25649773E+02
 21
8.73695104E+01
  0
LINE
  8
0
 62
7
 10
-3.32749992E+02
 20
8.93695104E+01
 11
-3.25649773E+02
 21
8.93695104E+01
  0
LINE
  8
0
 62
7
 10
-3.20528516E+02
 20
1.01733476E+02
 11
-3.24480053E+02
 21
1.05685013E+02
  0
LINE
  8
0
 62
7
 10
-3.19114248E+02
 20
1.03147700E+02
 11
-3.23065829E+02
 21
1.07099281E+02
  0
LINE
  8
0
 62
7
 10
-3.16281364E+02
 20
1.16369449E+02
 11
-2.95218636E+02
 21
1.16369449E+02
  0
LINE
  8
0
  6
CENTER
 62
2
 10
-2.72296883E+02
 20
1.11869449E+02
 11
-2.91999443E+02
 21
1.11869449E+02
  0
LINE
  8
0
  6
CENTER
 62
2
 10
-2.82249992E+02
 20
1.21847721E+02
 11
-2.82249992E+02
 21
1.02145084E+02
  0
LINE
  8
0
  6
CENTER
 62
2
 10
-3.29250038E+02
 20
5.52785147E+01
 11
-3.29250038E+02
 21
7.41650427E+01
  0
LINE
  8
0
  6
CENTER
 62
2
 10
-2.93750008E+02
 20
1.21843754E+02
 11
-2.93750008E+02
 21
9.60319250E+01
  0
LINE
  8
0
 62
7
 10
-3.33249977E+02
 20
1.19369465E+02
 11
-2.78250053E+02
 21
1.19369465E+02
  0
LINE
  8
0
 62
7
 10
-3.04749992E+02
 20
1.15369449E+02
 11
-3.04749992E+02
 21
1.08269199E+02
  0
LINE
  8
0
 62
7
 10
-3.06750008E+02
 20
1.15369449E+02
 11
-3.06750008E+02
 21
1.08269199E+02
  0
LINE
  8
0
 62
7
 10
-2.78750053E+02
 20
8.93694494E+01
 11
-2.85850273E+02
 21
8.93694494E+01
  0
LINE
  8
0
 62
7
 10
-2.90971804E+02
 20
1.01733792E+02
 11
-2.87020292E+02
 21
1.05685303E+02
  0
LINE
  8
0
 62
7
 10
-2.92386036E+02
 20
1.03148052E+02
 11
-2.88434524E+02
 21
1.07099563E+02
  0
LINE
  8
0
 62
7
 10
-3.06750038E+02
 20
6.13695028E+01
 11
-3.06750038E+02
 21
6.84697225E+01
  0
LINE
  8
0
 62
7
 10
-3.20528547E+02
 20
7.50054924E+01
 11
-3.24480112E+02
 21
7.10539281E+01
  0
LINE
  8
0
 62
7
 10
-3.19114290E+02
 20
7.35913219E+01
 11
-3.23065844E+02
 21
6.96397684E+01
  0
LINE
  8
0
 62
6
 10
-3.39263110E+02
 20
1.05686743E+02
 11
-3.36749977E+02
 21
1.06129876E+02
  0
LINE
  8
0
 62
6
 10
-3.39784055E+02
 20
1.08641166E+02
 11
-3.36746293E+02
 21
1.09176805E+02
  0
LINE
  8
0
 62
4
 10
-3.39176286E+02
 20
1.05194339E+02
 11
-3.39870879E+02
 21
1.09133570E+02
  0
LINE
  8
0
 62
4
 10
-3.39176286E+02
 20
1.05194339E+02
 11
-3.36749977E+02
 21
1.05622163E+02
  0
LINE
  8
0
 62
4
 10
-3.39870879E+02
 20
1.09133570E+02
 11
-3.36833117E+02
 21
1.09669209E+02
  0
LINE
  8
0
 62
4
 10
-3.37402261E+02
 20
1.12896984E+02
 11
-3.36749977E+02
 21
1.09197700E+02
  0
LINE
  8
0
 62
4
 10
-3.24694264E+02
 20
1.30087296E+02
 11
-3.31587918E+02
 21
1.28871758E+02
  0
LINE
  8
0
 62
4
 10
-3.31587918E+02
 20
1.28871758E+02
 11
-3.35283582E+02
 21
1.18718007E+02
  0
LINE
  8
0
 62
4
 10
-3.23218255E+02
 20
1.21716430E+02
 11
-3.23710658E+02
 21
1.21629606E+02
  0
LINE
  8
0
 62
4
 10
-3.24116238E+02
 20
1.21050378E+02
 11
-3.23819848E+02
 21
1.19369465E+02
  0
ARC
  8
0
 62
4
 10
-3.23623834E+02
 20
1.21137202E+02
 40
5.00000000E-01
 50
9.99999999E+01
 51
1.90000000E+02
  0
LINE
  8
0
  6
CENTER
 62
6
 10
-3.24843518E+02
 20
1.21937565E+02
 11
-3.11993012E+02
 21
1.24203456E+02
  0
LINE
  8
0
  6
CENTER
 62
6
 10
-3.34685153E+02
 20
1.23756213E+02
 11
-3.12600781E+02
 21
1.27650283E+02
  0
LINE
  8
0
 62
4
 10
-3.15925209E+02
 20
1.20666909E+02
 11
-3.15600746E+02
 21
1.21130292E+02
  0
LINE
  8
0
 62
4
 10
-3.15600746E+02
 20
1.21130292E+02
 11
-3.12744803E+02
 21
1.21633871E+02
  0
LINE
  8
0
 62
4
 10
-3.16417613E+02
 20
1.20580085E+02
 11
-3.16204148E+02
 21
1.19369465E+02
  0
LINE
  8
0
 62
4
 10
-3.16417613E+02
 20
1.20580085E+02
 11
-3.15925209E+02
 21
1.20666909E+02
  0
LINE
  8
0
 62
4
 10
-3.24694264E+02
 20
1.30087296E+02
 11
-3.23218255E+02
 21
1.21716430E+02
  0
LINE
  8
0
 62
4
 10
-3.14550744E+02
 20
1.31875872E+02
 11
-3.24694264E+02
 21
1.30087296E+02
  0
LINE
  8
0
 62
4
 10
-3.23612178E+02
 20
1.21646971E+02
 11
-3.23210592E+02
 21
1.19369465E+02
  0
LINE
  8
0
 62
4
 10
-3.13166726E+02
 20
1.20168340E+02
 11
-3.13025863E+02
 21
1.19369465E+02
  0
LINE
  8
0
 62
4
 10
-3.12461018E+02
 20
1.21176197E+02
 11
-3.13166726E+02
 21
1.20168340E+02
  0
LINE
  8
0
 62
4
 10
-3.16400249E+02
 20
1.20481604E+02
 11
-3.15397316E+02
 21
1.19775027E+02
  0
LINE
  8
0
 62
4
 10
-3.15397316E+02
 20
1.19775027E+02
 11
-3.13166726E+02
 21
1.20168340E+02
  0
LINE
  8
0
 62
4
 10
-3.16400249E+02
 20
1.20481604E+02
 11
-3.12461018E+02
 21
1.21176197E+02
  0
LINE
  8
0
 62
4
 10
-3.12461018E+02
 20
1.21176197E+02
 11
-3.12142442E+02
 21
1.19369465E+02
  0
LINE
  8
0
  6
CENTER
 62
6
 10
-3.14604281E+02
 20
1.21813708E+02
 11
-3.14173295E+02
 21
1.19369465E+02
  0
LINE
  8
0
  6
CENTER
 62
6
 10
-3.17037760E+02
 20
1.18338341E+02
 11
-3.11128913E+02
 21
1.19380230E+02
  0
LINE
  8
0
 62
4
 10
-3.14429190E+02
 20
1.31186506E+02
 11
-3.13444383E+02
 21
1.31360155E+02
  0
ARC
  8
0
 62
4
 10
-3.11254141E+02
 20
1.25450708E+02
 40
1.00000000E+00
 50
3.28723662E+02
 51
3.57172490E+02
  0
ARC
  8
0
 62
4
 10
-3.12087652E+02
 20
1.30177786E+02
 40
1.00000000E+00
 50
2.28275100E+01
 51
9.99999999E+01
  0
ARC
  8
0
 62
4
 10
-3.22050981E+02
 20
1.25983958E+02
 40
1.18100000E+01
 50
3.57172490E+02
 51
2.28275100E+01
  0
LINE
  8
0
 62
4
 10
-3.13374923E+02
 20
1.30966232E+02
 11
-3.12262091E+02
 21
1.31162454E+02
  0
LINE
  8
0
 62
4
 10
-3.12897391E+02
 20
1.28258010E+02
 11
-3.13444383E+02
 21
1.31360155E+02
  0
LINE
  8
0
 62
4
 10
-3.12066692E+02
 20
1.19976444E+02
 11
-3.13507972E+02
 21
1.28150348E+02
  0
LINE
  8
0
 62
4
 10
-3.13856152E+02
 20
1.27936641E+02
 11
-3.13481925E+02
 21
1.28002627E+02
  0
LINE
  8
0
 62
4
 10
-3.12270005E+02
 20
1.20092909E+02
 11
-3.12092739E+02
 21
1.20124165E+02
  0
LINE
  8
0
 62
4
 10
-3.13507972E+02
 20
1.28150348E+02
 11
-3.11774710E+02
 21
1.28455969E+02
  0
LINE
  8
0
 62
4
 10
-3.12066692E+02
 20
1.19976444E+02
 11
-3.10333430E+02
 21
1.20282065E+02
  0
ARC
  8
0
 62
4
 10
-3.21947128E+02
 20
1.22456135E+02
 40
1.18100000E+01
 50
9.99999999E+00
 51
3.05326991E+01
  0
ARC
  8
0
 62
4
 10
-3.21944441E+02
 20
1.22440893E+02
 40
1.18100000E+01
 50
3.49467301E+02
 51
9.99999999E+00
  0
LINE
  8
0
 62
4
 10
-3.12657979E+02
 20
1.21141467E+02
 11
-3.14550744E+02
 21
1.31875872E+02
  0
LINE
  8
0
 62
4
 10
-2.72323668E+02
 20
1.05194339E+02
 11
-2.71629075E+02
 21
1.09133570E+02
  0
LINE
  8
0
 62
6
 10
-2.72236844E+02
 20
1.05686743E+02
 11
-2.74750038E+02
 21
1.06129887E+02
  0
LINE
  8
0
 62
6
 10
-2.71715900E+02
 20
1.08641166E+02
 11
-2.74753661E+02
 21
1.09176805E+02
  0
LINE
  8
0
 62
4
 10
-2.72323668E+02
 20
1.05194339E+02
 11
-2.74750038E+02
 21
1.05622173E+02
  0
LINE
  8
0
 62
4
 10
-2.71629076E+02
 20
1.09133570E+02
 11
-2.74666837E+02
 21
1.09669209E+02
  0
LINE
  8
0
  6
CENTER
 62
6
 10
-2.94462194E+02
 20
1.18338341E+02
 11
-3.00309989E+02
 21
1.19369465E+02
  0
LINE
  8
0
  6
CENTER
 62
6
 10
-2.96895673E+02
 20
1.21813708E+02
 11
-2.97326659E+02
 21
1.19369465E+02
  0
LINE
  8
0
 62
4
 10
-2.99038937E+02
 20
1.21176197E+02
 11
-2.99357512E+02
 21
1.19369465E+02
  0
LINE
  8
0
 62
4
 10
-2.95099706E+02
 20
1.20481604E+02
 11
-2.99038937E+02
 21
1.21176197E+02
  0
LINE
  8
0
 62
4
 10
-2.87887777E+02
 20
1.21646971E+02
 11
-2.88289362E+02
 21
1.19369465E+02
  0
LINE
  8
0
 62
4
 10
-2.96949210E+02
 20
1.31875872E+02
 11
-2.86805690E+02
 21
1.30087296E+02
  0
LINE
  8
0
 62
4
 10
-2.86805690E+02
 20
1.30087296E+02
 11
-2.88281700E+02
 21
1.21716430E+02
  0
LINE
  8
0
 62
4
 10
-2.95082341E+02
 20
1.20580085E+02
 11
-2.95574745E+02
 21
1.20666909E+02
  0
LINE
  8
0
 62
4
 10
-2.95082341E+02
 20
1.20580085E+02
 11
-2.95295806E+02
 21
1.19369465E+02
  0
LINE
  8
0
 62
4
 10
-2.95899209E+02
 20
1.21130292E+02
 11
-2.98755151E+02
 21
1.21633871E+02
  0
LINE
  8
0
 62
4
 10
-2.95574745E+02
 20
1.20666909E+02
 11
-2.95899209E+02
 21
1.21130292E+02
  0
LINE
  8
0
  6
CENTER
 62
6
 10
-2.76814801E+02
 20
1.23756213E+02
 11
-2.98899173E+02
 21
1.27650283E+02
  0
LINE
  8
0
  6
CENTER
 62
6
 10
-2.86656437E+02
 20
1.21937565E+02
 11
-2.99506942E+02
 21
1.24203456E+02
  0
LINE
  8
0
  6
CENTER
 62
6
 10
-2.80682029E+02
 20
1.08698997E+02
 11
-2.73216025E+02
 21
1.07382539E+02
  0
ARC
  8
0
 62
4
 10
-2.87876120E+02
 20
1.21137202E+02
 40
5.00000000E-01
 50
3.50000000E+02
 51
7.99999999E+01
  0
LINE
  8
0
 62
4
 10
-2.87383716E+02
 20
1.21050378E+02
 11
-2.87680106E+02
 21
1.19369465E+02
  0
LINE
  8
0
 62
4
 10
-2.88281700E+02
 20
1.21716430E+02
 11
-2.87789296E+02
 21
1.21629606E+02
  0
LINE
  8
0
 62
4
 10
-2.79912036E+02
 20
1.28871758E+02
 11
-2.76216374E+02
 21
1.18718010E+02
  0
LINE
  8
0
 62
4
 10
-2.86805690E+02
 20
1.30087296E+02
 11
-2.79912036E+02
 21
1.28871758E+02
  0
LINE
  8
0
 62
4
 10
-2.74097693E+02
 20
1.12896984E+02
 11
-2.74750038E+02
 21
1.09197353E+02
  0
ARC
  8
0
 62
4
 10
-2.97416618E+02
 20
1.18859285E+02
 40
1.50000000E+00
 50
1.98841649E+01
 51
1.60115835E+02
  0
ARC
  8
0
 62
4
 10
-2.97286381E+02
 20
1.19597891E+02
 40
3.00000000E-01
 50
3.10410364E+02
 51
2.29589636E+02
  0
ARC
  8
0
 62
4
 10
-2.97286381E+02
 20
1.19597891E+02
 40
5.00000000E-01
 50
3.32815800E+02
 51
2.07184200E+02
  0
LINE
  8
0
 62
4
 10
-2.98390490E+02
 20
1.23701968E+02
 11
-2.99375298E+02
 21
1.23875616E+02
  0
LINE
  8
0
 62
4
 10
-2.97070764E+02
 20
1.31186506E+02
 11
-2.98055572E+02
 21
1.31360155E+02
  0
ARC
  8
0
 62
4
 10
-3.00245813E+02
 20
1.25450708E+02
 40
1.00000000E+00
 50
1.82827510E+02
 51
2.60000000E+02
  0
ARC
  8
0
 62
4
 10
-2.99412302E+02
 20
1.30177786E+02
 40
1.00000000E+00
 50
7.99999999E+01
 51
1.57172490E+02
  0
ARC
  8
0
 62
4
 10
-2.89448974E+02
 20
1.25983958E+02
 40
1.18100000E+01
 50
1.57172490E+02
 51
1.82827510E+02
  0
LINE
  8
0
 62
4
 10
-2.99305838E+02
 20
1.24269539E+02
 11
-3.00418671E+02
 21
1.24465761E+02
  0
LINE
  8
0
 62
4
 10
-2.98125031E+02
 20
1.30966232E+02
 11
-2.99237864E+02
 21
1.31162454E+02
  0
LINE
  8
0
 62
4
 10
-2.99375298E+02
 20
1.23875616E+02
 11
-2.98055572E+02
 21
1.31360155E+02
  0
LINE
  8
0
 62
4
 10
-2.99433262E+02
 20
1.19976444E+02
 11
-2.98764717E+02
 21
1.23767954E+02
  0
LINE
  8
0
 62
4
 10
-2.99032988E+02
 20
1.20058179E+02
 11
-2.99407215E+02
 21
1.20124165E+02
  0
LINE
  8
0
 62
4
 10
-2.99433262E+02
 20
1.19976444E+02
 11
-3.01166524E+02
 21
1.20282065E+02
  0
ARC
  8
0
 62
4
 10
-2.89552826E+02
 20
1.22456135E+02
 40
1.18100000E+01
 50
1.67900933E+02
 51
1.70000000E+02
  0
ARC
  8
0
 62
4
 10
-2.89555514E+02
 20
1.22440893E+02
 40
1.18100000E+01
 50
1.70000000E+02
 51
1.90532699E+02
  0
LINE
  8
0
 62
4
 10
-2.99032988E+02
 20
1.20058179E+02
 11
-2.96949210E+02
 21
1.31875872E+02
  0
LINE
  8
0
 62
4
 10
-3.36749977E+02
 20
1.14689118E+02
 11
-3.37402261E+02
 21
1.12896984E+02
  0
LINE
  8
0
 62
4
 10
-2.74750038E+02
 20
1.14689286E+02
 11
-2.74097693E+02
 21
1.12896984E+02
  0
LINE
  8
0
  6
CENTER
 62
6
 10
-3.00309989E+02
 20
1.19369465E+02
 11
-3.00371041E+02
 21
1.19380230E+02
  0
LINE
  8
0
  6
CENTER
 62
6
 10
-2.97326659E+02
 20
1.19369465E+02
 11
-2.97937562E+02
 21
1.15904862E+02
  0
LINE
  8
0
 62
4
 10
-3.15325804E+02
 20
1.19369465E+02
 11
-3.15397316E+02
 21
1.19775027E+02
  0
LINE
  8
0
  6
CENTER
 62
6
 10
-3.14173295E+02
 20
1.19369465E+02
 11
-3.13562392E+02
 21
1.15904862E+02
  0
LINE
  8
0
  6
CENTER
 62
6
 10
-3.38283930E+02
 20
1.07382539E+02
 11
-3.30817925E+02
 21
1.08698997E+02
  0
CIRCLE
  8
0
 62
7
 10
3.32750053E+02
 20
6.48694799E+01
 40
2.45850000E+00
  0
CIRCLE
  8
0
 62
7
 10
2.85750038E+02
 20
6.48694342E+01
 40
2.45850000E+00
  0
CIRCLE
  8
0
 62
7
 10
2.85749992E+02
 20
1.11869449E+02
 40
2.45850000E+00
  0
CIRCLE
  8
0
 62
7
 10
3.32750008E+02
 20
1.11869495E+02
 40
2.45850000E+00
  0
LINE
  8
0
 62
7
 10
3.20250023E+02
 20
9.47203176E+01
 11
3.09250023E+02
 21
1.01071171E+02
  0
LINE
  8
0
 62
7
 10
3.20250023E+02
 20
8.20186117E+01
 11
3.20250023E+02
 21
9.47203176E+01
  0
LINE
  8
0
 62
7
 10
3.09250023E+02
 20
7.56677587E+01
 11
3.20250023E+02
 21
8.20186117E+01
  0
LINE
  8
0
 62
7
 10
2.98250023E+02
 20
8.20186117E+01
 11
3.09250023E+02
 21
7.56677587E+01
  0
LINE
  8
0
 62
7
 10
2.98250023E+02
 20
9.47203176E+01
 11
2.98250023E+02
 21
8.20186117E+01
  0
LINE
  8
0
 62
7
 10
3.09250023E+02
 20
1.01071171E+02
 11
2.98250023E+02
 21
9.47203176E+01
  0
CIRCLE
  8
0
 62
7
 10
3.09250023E+02
 20
8.83694647E+01
 40
1.10000000E+01
  0
LINE
  8
0
 62
7
 10
2.93250023E+02
 20
9.66157092E+01
 11
2.93250023E+02
 21
8.01232201E+01
  0
LINE
  8
0
 62
7
 10
3.25250023E+02
 20
9.66157092E+01
 11
3.25250023E+02
 21
8.01232201E+01
  0
CIRCLE
  8
0
 62
7
 10
3.09250023E+02
 20
8.83694647E+01
 40
1.80000153E+01
  0
CIRCLE
  8
0
 62
7
 10
3.09250023E+02
 20
8.83694647E+01
 40
6.49985238E+00
  0
CIRCLE
  8
0
 62
2
 10
3.09250023E+02
 20
8.83694647E+01
 40
7.18000793E+00
  0
CIRCLE
  8
0
 62
7
 10
3.09250023E+02
 20
8.83694647E+01
 40
8.00001526E+00
  0
LINE
  8
0
  6
CENTER
 62
6
 10
2.76716070E+02
 20
1.07382539E+02
 11
2.84182075E+02
 21
1.08698997E+02
  0
LINE
  8
0
 62
4
 10
2.99674196E+02
 20
1.19369465E+02
 11
2.99602684E+02
 21
1.19775027E+02
  0
LINE
  8
0
  6
CENTER
 62
6
 10
3.14690011E+02
 20
1.19369465E+02
 11
3.14628959E+02
 21
1.19380230E+02
  0
LINE
  8
0
 62
4
 10
3.40249962E+02
 20
1.14689286E+02
 11
3.40902307E+02
 21
1.12896984E+02
  0
LINE
  8
0
 62
4
 10
2.78250023E+02
 20
1.14689118E+02
 11
2.77597739E+02
 21
1.12896984E+02
  0
LINE
  8
0
 62
4
 10
3.15967012E+02
 20
1.20058179E+02
 11
3.18050790E+02
 21
1.31875872E+02
  0
ARC
  8
0
 62
4
 10
3.25444486E+02
 20
1.22440893E+02
 40
1.18100000E+01
 50
1.70000000E+02
 51
1.90532699E+02
  0
ARC
  8
0
 62
4
 10
3.25447174E+02
 20
1.22456135E+02
 40
1.18100000E+01
 50
1.67900933E+02
 51
1.70000000E+02
  0
LINE
  8
0
 62
4
 10
3.15566738E+02
 20
1.19976444E+02
 11
3.13833476E+02
 21
1.20282065E+02
  0
LINE
  8
0
 62
4
 10
3.15967012E+02
 20
1.20058179E+02
 11
3.15592785E+02
 21
1.20124165E+02
  0
LINE
  8
0
 62
4
 10
3.15566738E+02
 20
1.19976444E+02
 11
3.16235283E+02
 21
1.23767954E+02
  0
LINE
  8
0
 62
4
 10
3.15624702E+02
 20
1.23875616E+02
 11
3.16944428E+02
 21
1.31360155E+02
  0
LINE
  8
0
 62
4
 10
3.16874969E+02
 20
1.30966232E+02
 11
3.15762136E+02
 21
1.31162454E+02
  0
LINE
  8
0
 62
4
 10
3.15694162E+02
 20
1.24269539E+02
 11
3.14581329E+02
 21
1.24465761E+02
  0
ARC
  8
0
 62
4
 10
3.25551026E+02
 20
1.25983958E+02
 40
1.18100000E+01
 50
1.57172490E+02
 51
1.82827510E+02
  0
ARC
  8
0
 62
4
 10
3.15587698E+02
 20
1.30177786E+02
 40
1.00000000E+00
 50
7.99999999E+01
 51
1.57172490E+02
  0
ARC
  8
0
 62
4
 10
3.14754187E+02
 20
1.25450708E+02
 40
1.00000000E+00
 50
1.82827510E+02
 51
2.60000000E+02
  0
LINE
  8
0
 62
4
 10
3.17929236E+02
 20
1.31186506E+02
 11
3.16944428E+02
 21
1.31360155E+02
  0
LINE
  8
0
 62
4
 10
3.16609510E+02
 20
1.23701968E+02
 11
3.15624702E+02
 21
1.23875616E+02
  0
ARC
  8
0
 62
4
 10
3.17713619E+02
 20
1.19597891E+02
 40
5.00000000E-01
 50
3.32815800E+02
 51
2.07184200E+02
  0
ARC
  8
0
 62
4
 10
3.17713619E+02
 20
1.19597891E+02
 40
3.00000000E-01
 50
3.10410364E+02
 51
2.29589636E+02
  0
ARC
  8
0
 62
4
 10
3.17583382E+02
 20
1.18859285E+02
 40
1.50000000E+00
 50
1.98841649E+01
 51
1.60115835E+02
  0
LINE
  8
0
 62
4
 10
3.40902307E+02
 20
1.12896984E+02
 11
3.40249962E+02
 21
1.09197353E+02
  0
LINE
  8
0
 62
4
 10
3.28194310E+02
 20
1.30087296E+02
 11
3.35087964E+02
 21
1.28871758E+02
  0
LINE
  8
0
 62
4
 10
3.35087964E+02
 20
1.28871758E+02
 11
3.38783626E+02
 21
1.18718010E+02
  0
LINE
  8
0
 62
4
 10
3.26718300E+02
 20
1.21716430E+02
 11
3.27210704E+02
 21
1.21629606E+02
  0
LINE
  8
0
 62
4
 10
3.27616284E+02
 20
1.21050378E+02
 11
3.27319894E+02
 21
1.19369465E+02
  0
ARC
  8
0
 62
4
 10
3.27123880E+02
 20
1.21137202E+02
 40
5.00000000E-01
 50
3.50000000E+02
 51
7.99999999E+01
  0
LINE
  8
0
  6
CENTER
 62
6
 10
3.34317971E+02
 20
1.08698997E+02
 11
3.41783975E+02
 21
1.07382539E+02
  0
LINE
  8
0
  6
CENTER
 62
6
 10
3.28343563E+02
 20
1.21937565E+02
 11
3.15493058E+02
 21
1.24203456E+02
  0
LINE
  8
0
  6
CENTER
 62
6
 10
3.38185199E+02
 20
1.23756213E+02
 11
3.16100827E+02
 21
1.27650283E+02
  0
LINE
  8
0
 62
4
 10
3.19425255E+02
 20
1.20666909E+02
 11
3.19100791E+02
 21
1.21130292E+02
  0
LINE
  8
0
 62
4
 10
3.19100791E+02
 20
1.21130292E+02
 11
3.16244849E+02
 21
1.21633871E+02
  0
LINE
  8
0
 62
4
 10
3.19917659E+02
 20
1.20580085E+02
 11
3.19704194E+02
 21
1.19369465E+02
  0
LINE
  8
0
 62
4
 10
3.19917659E+02
 20
1.20580085E+02
 11
3.19425255E+02
 21
1.20666909E+02
  0
LINE
  8
0
 62
4
 10
3.28194310E+02
 20
1.30087296E+02
 11
3.26718300E+02
 21
1.21716430E+02
  0
LINE
  8
0
 62
4
 10
3.18050790E+02
 20
1.31875872E+02
 11
3.28194310E+02
 21
1.30087296E+02
  0
LINE
  8
0
 62
4
 10
3.27112223E+02
 20
1.21646971E+02
 11
3.26710638E+02
 21
1.19369465E+02
  0
LINE
  8
0
 62
4
 10
3.19900294E+02
 20
1.20481604E+02
 11
3.15961063E+02
 21
1.21176197E+02
  0
LINE
  8
0
 62
4
 10
3.15961063E+02
 20
1.21176197E+02
 11
3.15642488E+02
 21
1.19369465E+02
  0
LINE
  8
0
  6
CENTER
 62
6
 10
3.18104327E+02
 20
1.21813708E+02
 11
3.17673341E+02
 21
1.19369465E+02
  0
LINE
  8
0
 62
4
 10
3.43370924E+02
 20
1.09133570E+02
 11
3.40333163E+02
 21
1.09669209E+02
  0
LINE
  8
0
 62
4
 10
3.42676332E+02
 20
1.05194339E+02
 11
3.40249962E+02
 21
1.05622173E+02
  0
LINE
  8
0
 62
6
 10
3.43284100E+02
 20
1.08641166E+02
 11
3.40246339E+02
 21
1.09176805E+02
  0
LINE
  8
0
 62
6
 10
3.42763156E+02
 20
1.05686743E+02
 11
3.40249962E+02
 21
1.06129887E+02
  0
LINE
  8
0
 62
4
 10
3.42676332E+02
 20
1.05194339E+02
 11
3.43370925E+02
 21
1.09133570E+02
  0
LINE
  8
0
 62
4
 10
3.02342021E+02
 20
1.21141467E+02
 11
3.00449256E+02
 21
1.31875872E+02
  0
ARC
  8
0
 62
4
 10
2.93055559E+02
 20
1.22440893E+02
 40
1.18100000E+01
 50
3.49467301E+02
 51
9.99999999E+00
  0
ARC
  8
0
 62
4
 10
2.93052872E+02
 20
1.22456135E+02
 40
1.18100000E+01
 50
9.99999999E+00
 51
3.05326991E+01
  0
LINE
  8
0
 62
4
 10
3.02933308E+02
 20
1.19976444E+02
 11
3.04666570E+02
 21
1.20282065E+02
  0
LINE
  8
0
 62
4
 10
3.01492028E+02
 20
1.28150348E+02
 11
3.03225290E+02
 21
1.28455969E+02
  0
LINE
  8
0
 62
4
 10
3.02729995E+02
 20
1.20092909E+02
 11
3.02907261E+02
 21
1.20124165E+02
  0
LINE
  8
0
 62
4
 10
3.01143848E+02
 20
1.27936641E+02
 11
3.01518075E+02
 21
1.28002627E+02
  0
LINE
  8
0
 62
4
 10
3.02933308E+02
 20
1.19976444E+02
 11
3.01492028E+02
 21
1.28150348E+02
  0
LINE
  8
0
 62
4
 10
3.02102609E+02
 20
1.28258010E+02
 11
3.01555617E+02
 21
1.31360155E+02
  0
LINE
  8
0
 62
4
 10
3.01625077E+02
 20
1.30966232E+02
 11
3.02737909E+02
 21
1.31162454E+02
  0
ARC
  8
0
 62
4
 10
2.92949019E+02
 20
1.25983958E+02
 40
1.18100000E+01
 50
3.57172490E+02
 51
2.28275100E+01
  0
ARC
  8
0
 62
4
 10
3.02912348E+02
 20
1.30177786E+02
 40
1.00000000E+00
 50
2.28275100E+01
 51
9.99999999E+01
  0
ARC
  8
0
 62
4
 10
3.03745859E+02
 20
1.25450708E+02
 40
1.00000000E+00
 50
3.28723662E+02
 51
3.57172490E+02
  0
LINE
  8
0
 62
4
 10
3.00570810E+02
 20
1.31186506E+02
 11
3.01555617E+02
 21
1.31360155E+02
  0
LINE
  8
0
  6
CENTER
 62
6
 10
3.00395719E+02
 20
1.21813708E+02
 11
3.00826705E+02
 21
1.19369465E+02
  0
LINE
  8
0
 62
4
 10
3.02538982E+02
 20
1.21176197E+02
 11
3.02857558E+02
 21
1.19369465E+02
  0
LINE
  8
0
 62
4
 10
2.98599751E+02
 20
1.20481604E+02
 11
3.02538982E+02
 21
1.21176197E+02
  0
LINE
  8
0
 62
4
 10
2.99602684E+02
 20
1.19775027E+02
 11
3.01833274E+02
 21
1.20168340E+02
  0
LINE
  8
0
 62
4
 10
2.98599751E+02
 20
1.20481604E+02
 11
2.99602684E+02
 21
1.19775027E+02
  0
LINE
  8
0
 62
4
 10
3.02538982E+02
 20
1.21176197E+02
 11
3.01833274E+02
 21
1.20168340E+02
  0
LINE
  8
0
 62
4
 10
3.01833274E+02
 20
1.20168340E+02
 11
3.01974137E+02
 21
1.19369465E+02
  0
LINE
  8
0
 62
4
 10
2.91387822E+02
 20
1.21646971E+02
 11
2.91789408E+02
 21
1.19369465E+02
  0
LINE
  8
0
 62
4
 10
3.00449256E+02
 20
1.31875872E+02
 11
2.90305736E+02
 21
1.30087296E+02
  0
LINE
  8
0
 62
4
 10
2.90305736E+02
 20
1.30087296E+02
 11
2.91781745E+02
 21
1.21716430E+02
  0
LINE
  8
0
 62
4
 10
2.98582387E+02
 20
1.20580085E+02
 11
2.99074791E+02
 21
1.20666909E+02
  0
LINE
  8
0
 62
4
 10
2.98582387E+02
 20
1.20580085E+02
 11
2.98795852E+02
 21
1.19369465E+02
  0
LINE
  8
0
 62
4
 10
2.99399254E+02
 20
1.21130292E+02
 11
3.02255197E+02
 21
1.21633871E+02
  0
LINE
  8
0
 62
4
 10
2.99074791E+02
 20
1.20666909E+02
 11
2.99399254E+02
 21
1.21130292E+02
  0
LINE
  8
0
  6
CENTER
 62
6
 10
2.80314847E+02
 20
1.23756213E+02
 11
3.02399219E+02
 21
1.27650283E+02
  0
LINE
  8
0
  6
CENTER
 62
6
 10
2.90156482E+02
 20
1.21937565E+02
 11
3.03006988E+02
 21
1.24203456E+02
  0
ARC
  8
0
 62
4
 10
2.91376166E+02
 20
1.21137202E+02
 40
5.00000000E-01
 50
9.99999999E+01
 51
1.90000000E+02
  0
LINE
  8
0
 62
4
 10
2.90883762E+02
 20
1.21050378E+02
 11
2.91180152E+02
 21
1.19369465E+02
  0
LINE
  8
0
 62
4
 10
2.91781745E+02
 20
1.21716430E+02
 11
2.91289342E+02
 21
1.21629606E+02
  0
LINE
  8
0
 62
4
 10
2.83412082E+02
 20
1.28871758E+02
 11
2.79716418E+02
 21
1.18718007E+02
  0
LINE
  8
0
 62
4
 10
2.90305736E+02
 20
1.30087296E+02
 11
2.83412082E+02
 21
1.28871758E+02
  0
LINE
  8
0
 62
4
 10
2.77597739E+02
 20
1.12896984E+02
 11
2.78250023E+02
 21
1.09197700E+02
  0
LINE
  8
0
 62
4
 10
2.75129121E+02
 20
1.09133570E+02
 11
2.78166883E+02
 21
1.09669209E+02
  0
LINE
  8
0
 62
4
 10
2.75823714E+02
 20
1.05194339E+02
 11
2.78250023E+02
 21
1.05622163E+02
  0
LINE
  8
0
 62
4
 10
2.75823714E+02
 20
1.05194339E+02
 11
2.75129121E+02
 21
1.09133570E+02
  0
LINE
  8
0
 62
6
 10
2.75215945E+02
 20
1.08641166E+02
 11
2.78253707E+02
 21
1.09176805E+02
  0
LINE
  8
0
 62
6
 10
2.75736890E+02
 20
1.05686743E+02
 11
2.78250023E+02
 21
1.06129876E+02
  0
LINE
  8
0
 62
7
 10
2.81750023E+02
 20
1.19369465E+02
 11
3.36749947E+02
 21
1.19369465E+02
  0
LINE
  8
0
  6
CENTER
 62
2
 10
2.97250053E+02
 20
1.21843754E+02
 11
2.97250053E+02
 21
9.60319250E+01
  0
LINE
  8
0
  6
CENTER
 62
2
 10
2.85749962E+02
 20
5.52785147E+01
 11
2.85749962E+02
 21
7.41650427E+01
  0
LINE
  8
0
  6
CENTER
 62
2
 10
3.32750008E+02
 20
1.21847721E+02
 11
3.32750008E+02
 21
1.02145084E+02
  0
LINE
  8
0
  6
CENTER
 62
2
 10
3.42703117E+02
 20
1.11869449E+02
 11
3.23000557E+02
 21
1.11869449E+02
  0
LINE
  8
0
 62
7
 10
2.78249992E+02
 20
6.08694723E+01
 11
2.78249992E+02
 21
1.15869449E+02
  0
LINE
  8
0
  6
CENTER
 62
2
 10
3.16250038E+02
 20
1.21731144E+02
 11
3.16250038E+02
 21
1.00140308E+02
  0
LINE
  8
0
  6
CENTER
 62
2
 10
2.85749992E+02
 20
1.21423145E+02
 11
2.85749992E+02
 21
1.03985111E+02
  0
LINE
  8
0
 62
7
 10
3.40249962E+02
 20
6.08695028E+01
 11
3.40249962E+02
 21
1.15869480E+02
  0
LINE
  8
0
 62
7
 10
2.81750023E+02
 20
5.73694799E+01
 11
3.36750023E+02
 21
5.73694799E+01
  0
LINE
  8
0
  6
CENTER
 62
2
 10
3.09250023E+02
 20
1.23130131E+02
 11
3.09250023E+02
 21
5.50425985E+01
  0
LINE
  8
0
  6
CENTER
 62
2
 10
3.42936348E+02
 20
6.48694189E+01
 11
3.23233711E+02
 21
6.48694189E+01
  0
LINE
  8
0
  6
CENTER
 62
2
 10
3.32749931E+02
 20
5.52084005E+01
 11
3.32749931E+02
 21
7.40654638E+01
  0
LINE
  8
0
  6
CENTER
 62
2
 10
3.41910316E+02
 20
8.83694647E+01
 11
2.74734947E+02
 21
8.83694647E+01
  0
LINE
  8
0
  6
CENTER
 62
2
 10
2.95137093E+02
 20
1.11869449E+02
 11
2.76017403E+02
 21
1.11869449E+02
  0
LINE
  8
0
  6
CENTER
 62
2
 10
2.94787315E+02
 20
6.48694189E+01
 11
2.76017403E+02
 21
6.48694189E+01
  0
CIRCLE
  8
0
 62
7
 10
3.32750008E+02
 20
1.11869449E+02
 40
5.00000000E+00
  0
CIRCLE
  8
0
 62
7
 10
2.85749962E+02
 20
6.48694952E+01
 40
5.00000000E+00
  0
ARC
  8
0
 62
7
 10
3.36749947E+02
 20
1.15869465E+02
 40
3.50000000E+00
 50
0.00000000E+00
 51
8.99999818E+01
  0
CIRCLE
  8
0
 62
7
 10
3.32750008E+02
 20
1.11869449E+02
 40
4.50000000E+00
  0
ARC
  8
0
 62
7
 10
2.81750023E+02
 20
6.08694647E+01
 40
3.50000000E+00
 50
1.80000036E+02
 51
2.69999991E+02
  0
CIRCLE
  8
0
 62
7
 10
2.85749962E+02
 20
6.48694952E+01
 40
4.50000000E+00
  0
CIRCLE
  8
0
 62
7
 10
2.85749992E+02
 20
1.11869480E+02
 40
5.00000000E+00
  0
ARC
  8
0
 62
7
 10
2.81750023E+02
 20
1.15869419E+02
 40
3.50000000E+00
 50
9.00000231E+01
 51
1.79999977E+02
  0
CIRCLE
  8
0
 62
7
 10
2.85749992E+02
 20
1.11869480E+02
 40
4.50000000E+00
  0
CIRCLE
  8
0
 62
7
 10
3.32749931E+02
 20
6.48694418E+01
 40
5.00000000E+00
  0
ARC
  8
0
 62
7
 10
3.36750023E+02
 20
6.08695028E+01
 40
3.50000000E+00
 50
2.70000018E+02
 51
3.59999986E+02
  0
CIRCLE
  8
0
 62
7
 10
3.32749931E+02
 20
6.48694418E+01
 40
4.50000000E+00
  0
CIRCLE
  8
0
 62
7
 10
3.09250023E+02
 20
8.83694647E+01
 40
1.90000000E+01
  0
CIRCLE
  8
0
 62
2
 10
2.85749992E+02
 20
1.11869449E+02
 40
3.00000000E+00
  0
CIRCLE
  8
0
 62
2
 10
2.85749962E+02
 20
6.48694189E+01
 40
3.00000000E+00
  0
CIRCLE
  8
0
 62
2
 10
3.32749931E+02
 20
6.48694189E+01
 40
3.00000000E+00
  0
CIRCLE
  8
0
 62
2
 10
3.32750008E+02
 20
1.11869449E+02
 40
3.00000000E+00
  0
LINE
  8
0
  6
PHANTOM
 10
-6.92500000E+01
 20
2.47628397E+02
 11
-6.92500000E+01
 21
1.48945349E+02
  0
LINE
  8
0
  6
PHANTOM
 10
7.72499695E+01
 20
2.47628397E+02
 11
7.72499695E+01
 21
1.50787267E+02
  0
LINE
  8
0
 62
2
 10
-1.92249992E+02
 20
2.00189472E+02
 11
-1.83249992E+02
 21
2.00189472E+02
  0
LINE
  8
0
 62
7
 10
-1.92249992E+02
 20
1.99369465E+02
 11
-1.83249992E+02
 21
1.99369465E+02
  0
LINE
  8
0
 62
2
 10
-1.92249992E+02
 20
2.16549457E+02
 11
-1.83249992E+02
 21
2.16549457E+02
  0
LINE
  8
0
 62
7
 10
-1.92249992E+02
 20
2.17369465E+02
 11
-1.83249992E+02
 21
2.17369465E+02
  0
ARC
  8
0
 62
4
 10
-2.11746385E+02
 20
2.01619465E+02
 40
1.94963929E+01
 50
3.39743842E+02
 51
2.02561580E+01
  0
ARC
  8
0
 62
4
 10
-2.11746385E+02
 20
2.15119465E+02
 40
1.94963929E+01
 50
3.39743842E+02
 51
2.02561580E+01
  0
ARC
  8
0
 62
4
 10
-1.83753599E+02
 20
2.15119465E+02
 40
1.94963929E+01
 50
1.59743842E+02
 51
2.00256158E+02
  0
ARC
  8
0
 62
4
 10
-1.83753599E+02
 20
2.01619465E+02
 40
1.94963929E+01
 50
1.59743842E+02
 51
2.00256158E+02
  0
LINE
  8
0
 62
4
 10
-1.93455764E+02
 20
2.08369465E+02
 11
-2.02044221E+02
 21
2.08369465E+02
  0
LINE
  8
0
 62
4
 10
-1.92249992E+02
 20
1.94869465E+02
 11
-2.03249992E+02
 21
1.94869465E+02
  0
LINE
  8
0
 62
4
 10
-1.92249992E+02
 20
2.21869465E+02
 11
-2.03249992E+02
 21
2.21869465E+02
  0
LINE
  8
0
 62
4
 10
-2.03249992E+02
 20
2.21869465E+02
 11
-2.03249992E+02
 21
1.94869465E+02
  0
LINE
  8
0
 62
4
 10
-1.92249992E+02
 20
2.21869465E+02
 11
-1.92249992E+02
 21
1.94869465E+02
  0
ARC
  8
0
 62
7
 10
-1.31115349E+02
 20
2.17369373E+02
 40
1.00000000E+00
 50
1.80565203E+01
 51
9.00000025E+01
  0
ARC
  8
0
 62
7
 10
-1.43384789E+02
 20
2.17369373E+02
 40
1.00000000E+00
 50
9.00000025E+01
 51
1.61943485E+02
  0
ARC
  8
0
 62
7
 10
8.84733200E-01
 20
2.17369373E+02
 40
1.00000000E+00
 50
1.80565203E+01
 51
9.00000025E+01
  0
ARC
  8
0
 62
7
 10
-1.13847103E+01
 20
2.17369373E+02
 40
1.00000000E+00
 50
9.00000025E+01
 51
1.61943485E+02
  0
CIRCLE
  8
0
 62
7
 10
-5.24998856E+00
 20
2.15369388E+02
 40
7.45249987E+00
  0
CIRCLE
  8
0
 62
2
 10
-5.24998856E+00
 20
2.15369388E+02
 40
7.87849998E+00
  0
CIRCLE
  8
0
 62
7
 10
-5.24998856E+00
 20
2.15369388E+02
 40
8.75249958E+00
  0
CIRCLE
  8
0
 62
7
 10
-1.37250069E+02
 20
2.15369388E+02
 40
7.45249987E+00
  0
CIRCLE
  8
0
 62
2
 10
-1.37250069E+02
 20
2.15369388E+02
 40
8.33099937E+00
  0
CIRCLE
  8
0
 62
7
 10
-1.37250069E+02
 20
2.15369388E+02
 40
8.75249958E+00
  0
ARC
  8
0
 62
7
 10
3.92499771E+01
 20
2.26869465E+02
 40
5.00000000E-01
 50
0.00000000E+00
 51
8.99999818E+01
  0
ARC
  8
0
 62
7
 10
1.95207130E+02
 20
2.02869510E+02
 40
1.25428381E+01
 50
3.33992087E+02
 51
2.60080626E+01
  0
ARC
  8
0
 62
7
 10
2.10292931E+02
 20
2.13869495E+02
 40
1.25430393E+01
 50
1.79999964E+02
 51
2.06007617E+02
  0
ARC
  8
0
 62
7
 10
2.10292931E+02
 20
2.13869495E+02
 40
1.25430393E+01
 50
1.53992448E+02
 51
1.79999964E+02
  0
ARC
  8
0
 62
7
 10
1.95207130E+02
 20
2.13869495E+02
 40
1.25428381E+01
 50
3.33991937E+02
 51
2.60079123E+01
  0
ARC
  8
0
 62
7
 10
2.10292931E+02
 20
2.02869510E+02
 40
1.25430393E+01
 50
1.80000036E+02
 51
2.06007552E+02
  0
ARC
  8
0
 62
7
 10
2.10292931E+02
 20
2.02869510E+02
 40
1.25430393E+01
 50
1.53992366E+02
 51
1.80000019E+02
  0
ARC
  8
0
 62
7
 10
3.92499771E+01
 20
1.89869480E+02
 40
5.00000000E-01
 50
2.70000018E+02
 51
0.00000000E+00
  0
CIRCLE
  8
0
 62
7
 10
-1.31250046E+02
 20
1.96369449E+02
 40
2.59999990E+00
  0
CIRCLE
  8
0
 62
7
 10
-1.12500114E+01
 20
1.96369449E+02
 40
2.59999990E+00
  0
ARC
  8
0
 62
7
 10
-1.31250046E+02
 20
1.96369449E+02
 40
5.00000000E+00
 50
1.79999977E+02
 51
1.00179127E-05
  0
ARC
  8
0
 62
7
 10
-1.31250046E+02
 20
1.96369449E+02
 40
5.00000000E+00
 50
0.00000000E+00
 51
1.79999964E+02
  0
ARC
  8
0
 62
7
 10
-1.12500114E+01
 20
1.96369449E+02
 40
5.00000000E+00
 50
1.79999977E+02
 51
1.00179127E-05
  0
ARC
  8
0
 62
7
 10
-1.12500114E+01
 20
1.96369449E+02
 40
5.00000000E+00
 50
0.00000000E+00
 51
1.79999964E+02
  0
ARC
  8
0
 62
7
 10
5.74997711E+00
 20
2.28369465E+02
 40
2.00000000E+00
 50
5.46415133E-05
 51
9.00000913E+01
  0
ARC
  8
0
 62
7
 10
5.74997711E+00
 20
1.88369434E+02
 40
2.00000000E+00
 50
2.70000073E+02
 51
5.46415133E-05
  0
ARC
  8
0
 62
7
 10
-1.48250015E+02
 20
1.88369434E+02
 40
2.00000000E+00
 50
1.79999977E+02
 51
2.70000028E+02
  0
ARC
  8
0
 62
7
 10
-1.48250015E+02
 20
2.28369465E+02
 40
2.00000000E+00
 50
8.99999818E+01
 51
1.79999964E+02
  0
ARC
  8
0
 62
7
 10
-1.69750031E+02
 20
1.91869495E+02
 40
5.00000000E-01
 50
1.79999977E+02
 51
2.69999974E+02
  0
ARC
  8
0
 62
7
 10
-1.65000008E+02
 20
1.91360920E+02
 40
2.50000000E-01
 50
1.79999977E+02
 51
2.68001132E+02
  0
ARC
  8
0
 62
7
 10
-1.56750038E+02
 20
1.89869465E+02
 40
5.00000000E-01
 50
1.79999977E+02
 51
2.69999974E+02
  0
ARC
  8
0
 62
7
 10
-1.56750038E+02
 20
2.26869465E+02
 40
5.00000000E-01
 50
8.99999818E+01
 51
1.79999964E+02
  0
ARC
  8
0
 62
7
 10
-1.65000008E+02
 20
2.25378010E+02
 40
2.50000000E-01
 50
9.19988093E+01
 51
1.79999964E+02
  0
ARC
  8
0
 62
7
 10
-1.69750031E+02
 20
2.24869434E+02
 40
5.00000000E-01
 50
8.99999818E+01
 51
1.79999964E+02
  0
LINE
  8
0
 62
7
 10
-1.83249992E+02
 20
2.00189472E+02
 11
-1.80249992E+02
 21
2.00189472E+02
  0
LINE
  8
0
 62
7
 10
-1.83249992E+02
 20
2.16549457E+02
 11
-1.80249992E+02
 21
2.16549457E+02
  0
LINE
  8
0
 62
7
 10
-1.73250090E+02
 20
2.16869531E+02
 11
-1.71750061E+02
 21
2.18369560E+02
  0
LINE
  8
0
 62
7
 10
-1.73250051E+02
 20
1.99869475E+02
 11
-1.71750082E+02
 21
1.98369506E+02
  0
LINE
  8
0
 62
7
 10
-1.80249992E+02
 20
2.16869465E+02
 11
-1.73250038E+02
 21
2.16869465E+02
  0
LINE
  8
0
 62
7
 10
-1.80249992E+02
 20
1.99869465E+02
 11
-1.73250038E+02
 21
1.99869465E+02
  0
LINE
  8
0
 62
7
 10
-1.80249992E+02
 20
1.99869465E+02
 11
-1.80249992E+02
 21
2.16869465E+02
  0
LINE
  8
0
 62
7
 10
-2.12250029E+02
 20
2.00869543E+02
 11
-2.10749994E+02
 21
1.99369553E+02
  0
LINE
  8
0
 62
2
 10
-2.11569939E+02
 20
2.00189472E+02
 11
-2.03249992E+02
 21
2.00189472E+02
  0
LINE
  8
0
 62
7
 10
-2.10749931E+02
 20
1.99369465E+02
 11
-2.03249992E+02
 21
1.99369465E+02
  0
LINE
  8
0
 62
7
 10
-2.12249938E+02
 20
2.15869311E+02
 11
-2.10749892E+02
 21
2.17369312E+02
  0
LINE
  8
0
 62
2
 10
-2.11569939E+02
 20
2.16549457E+02
 11
-2.03249992E+02
 21
2.16549457E+02
  0
LINE
  8
0
 62
7
 10
-2.10749931E+02
 20
2.17369465E+02
 11
-2.03249992E+02
 21
2.17369465E+02
  0
LINE
  8
0
 62
7
 10
-2.10749992E+02
 20
1.99369465E+02
 11
-2.10749992E+02
 21
2.17369465E+02
  0
LINE
  8
0
 62
7
 10
-2.12249992E+02
 20
2.00869495E+02
 11
-2.12249992E+02
 21
2.15869312E+02
  0
LINE
  8
0
 62
7
 10
-1.83249992E+02
 20
1.99369465E+02
 11
-1.83249992E+02
 21
2.17369465E+02
  0
LINE
  8
0
 62
7
 10
-1.71749992E+02
 20
2.18369495E+02
 11
-1.70250023E+02
 21
2.18369495E+02
  0
LINE
  8
0
 62
7
 10
-1.71750053E+02
 20
1.98369480E+02
 11
-1.70250069E+02
 21
1.98369480E+02
  0
LINE
  8
0
 62
7
 10
-1.77250008E+02
 20
2.16869465E+02
 11
-1.77250008E+02
 21
1.99869465E+02
  0
LINE
  8
0
 62
7
 10
1.80749830E+02
 20
1.90369547E+02
 11
1.82749833E+02
 21
1.92369549E+02
  0
LINE
  8
0
 62
7
 10
1.80749976E+02
 20
2.26369566E+02
 11
1.82749989E+02
 21
2.24369553E+02
  0
LINE
  8
0
 62
7
 10
1.82749809E+02
 20
1.92369465E+02
 11
1.97749809E+02
 21
1.92369465E+02
  0
LINE
  8
0
 62
7
 10
1.82749809E+02
 20
2.24369495E+02
 11
1.97749809E+02
 21
2.24369495E+02
  0
LINE
  8
0
 62
7
 10
1.14749886E+02
 20
2.26369495E+02
 11
1.14749886E+02
 21
1.90369495E+02
  0
LINE
  8
0
 62
7
 10
1.14749886E+02
 20
2.26369465E+02
 11
1.80749809E+02
 21
2.26369465E+02
  0
LINE
  8
0
 62
7
 10
1.14749886E+02
 20
1.90369480E+02
 11
1.80749840E+02
 21
1.90369480E+02
  0
LINE
  8
0
 62
7
 10
1.19749847E+02
 20
2.26369495E+02
 11
1.19749847E+02
 21
1.90369495E+02
  0
LINE
  8
0
 62
7
 10
3.77499466E+01
 20
2.27369495E+02
 11
3.92499390E+01
 21
2.27369495E+02
  0
LINE
  8
0
 62
7
 10
3.77499466E+01
 20
1.89369449E+02
 11
3.92499390E+01
 21
1.89369449E+02
  0
LINE
  8
0
 62
7
 10
3.97499695E+01
 20
2.26869465E+02
 11
3.97499695E+01
 21
1.89869510E+02
  0
LINE
  8
0
 62
7
 10
3.77499657E+01
 20
2.39369465E+02
 11
3.77499657E+01
 21
1.77369465E+02
  0
LINE
  8
0
 62
7
 10
1.14749886E+02
 20
1.98369495E+02
 11
3.97499695E+01
 21
1.98369495E+02
  0
LINE
  8
0
 62
7
 10
1.14749886E+02
 20
2.18369510E+02
 11
3.97499695E+01
 21
2.18369510E+02
  0
LINE
  8
0
 62
7
 10
2.07750008E+02
 20
2.19369526E+02
 11
2.07750008E+02
 21
1.97369556E+02
  0
LINE
  8
0
 62
7
 10
2.06479790E+02
 20
2.08369495E+02
 11
1.99020073E+02
 21
2.08369495E+02
  0
LINE
  8
0
 62
7
 10
2.07750023E+02
 20
2.19369526E+02
 11
1.97749931E+02
 21
2.19369526E+02
  0
LINE
  8
0
 62
7
 10
2.07750023E+02
 20
1.97369510E+02
 11
1.97749931E+02
 21
1.97369510E+02
  0
LINE
  8
0
 62
7
 10
2.10749901E+02
 20
2.16369541E+02
 11
2.10749901E+02
 21
2.00369571E+02
  0
LINE
  8
0
 62
7
 10
2.11749984E+02
 20
2.01369549E+02
 11
2.10749940E+02
 21
2.00369505E+02
  0
LINE
  8
0
 62
7
 10
2.10750458E+02
 20
2.16370328E+02
 11
2.11750443E+02
 21
2.15370327E+02
  0
LINE
  8
0
 62
2
 10
2.11561852E+02
 20
2.01181507E+02
 11
2.07750008E+02
 21
2.01181507E+02
  0
LINE
  8
0
 62
2
 10
2.11561852E+02
 20
2.15557545E+02
 11
2.07750008E+02
 21
2.15557545E+02
  0
LINE
  8
0
 62
7
 10
2.10749962E+02
 20
2.00369510E+02
 11
2.07750008E+02
 21
2.00369510E+02
  0
LINE
  8
0
 62
7
 10
2.10749962E+02
 20
2.16369495E+02
 11
2.07750008E+02
 21
2.16369495E+02
  0
LINE
  8
0
 62
7
 10
2.11749992E+02
 20
2.15369571E+02
 11
2.11749992E+02
 21
2.01369541E+02
  0
LINE
  8
0
 62
7
 10
1.97749855E+02
 20
2.24369526E+02
 11
1.97749855E+02
 21
1.92369480E+02
  0
LINE
  8
0
 62
7
 10
1.27499657E+01
 20
2.39369465E+02
 11
3.77499657E+01
 21
2.39369465E+02
  0
LINE
  8
0
 62
7
 10
1.27499657E+01
 20
1.77369465E+02
 11
3.77499657E+01
 21
1.77369465E+02
  0
LINE
  8
0
 62
7
 10
-1.82500196E+01
 20
2.34519459E+02
 11
-8.37500000E+01
 21
2.34519459E+02
  0
LINE
  8
0
 62
7
 10
-1.82500196E+01
 20
2.29219471E+02
 11
-8.37500000E+01
 21
2.29219471E+02
  0
LINE
  8
0
  6
CENTER
 62
2
 10
4.20175781E+01
 20
2.31869465E+02
 11
-1.58156822E+02
 21
2.31869465E+02
  0
LINE
  8
0
 62
7
 10
-1.82500196E+01
 20
2.35369434E+02
 11
-8.37500000E+01
 21
2.35369434E+02
  0
LINE
  8
0
 62
7
 10
-1.29517899E+02
 20
1.96369340E+02
 11
-1.30383915E+02
 21
1.94869347E+02
  0
LINE
  8
0
 62
7
 10
-1.30383995E+02
 20
1.94869404E+02
 11
-1.32116020E+02
 21
1.94869404E+02
  0
LINE
  8
0
 62
7
 10
-1.32115950E+02
 20
1.94869399E+02
 11
-1.32981997E+02
 21
1.96369445E+02
  0
LINE
  8
0
 62
7
 10
-1.32981967E+02
 20
1.96369359E+02
 11
-1.32115958E+02
 21
1.97869339E+02
  0
LINE
  8
0
 62
7
 10
-1.30383995E+02
 20
1.97869434E+02
 11
-1.32116020E+02
 21
1.97869434E+02
  0
LINE
  8
0
 62
7
 10
-1.29517986E+02
 20
1.96369502E+02
 11
-1.30383995E+02
 21
1.97869482E+02
  0
LINE
  8
0
 62
7
 10
-9.51789620E+00
 20
1.96369392E+02
 11
-1.03839201E+01
 21
1.94869386E+02
  0
LINE
  8
0
 62
7
 10
-1.03839798E+01
 20
1.94869404E+02
 11
-1.21159859E+01
 21
1.94869404E+02
  0
LINE
  8
0
 62
7
 10
-1.21159928E+01
 20
1.94869356E+02
 11
-1.29820320E+01
 21
1.96369389E+02
  0
LINE
  8
0
 62
7
 10
-1.29819529E+01
 20
1.96369369E+02
 11
-1.21159443E+01
 21
1.97869349E+02
  0
LINE
  8
0
 62
7
 10
-1.03839798E+01
 20
1.97869434E+02
 11
-1.21159859E+01
 21
1.97869434E+02
  0
LINE
  8
0
 62
7
 10
-9.51793968E+00
 20
1.96369457E+02
 11
-1.03839636E+01
 21
1.97869464E+02
  0
LINE
  8
0
 62
7
 10
-1.82500196E+01
 20
1.81369495E+02
 11
-3.97500000E+01
 21
1.81369495E+02
  0
LINE
  8
0
 62
7
 10
-1.82500196E+01
 20
1.82219486E+02
 11
-3.97500000E+01
 21
1.82219486E+02
  0
LINE
  8
0
 62
7
 10
-1.82500196E+01
 20
1.87519474E+02
 11
-3.97500000E+01
 21
1.87519474E+02
  0
LINE
  8
0
  6
CENTER
 62
2
 10
4.23033752E+01
 20
1.84869480E+02
 11
-1.58394173E+02
 21
1.84869480E+02
  0
LINE
  8
0
 62
7
 10
8.84733200E-01
 20
2.18369373E+02
 11
-1.13847103E+01
 21
2.18369373E+02
  0
LINE
  8
0
 62
7
 10
5.74997711E+00
 20
2.30369434E+02
 11
-1.82500196E+01
 21
2.30369434E+02
  0
LINE
  8
0
 62
7
 10
5.74997711E+00
 20
1.86369449E+02
 11
-1.82500196E+01
 21
1.86369449E+02
  0
LINE
  8
0
 62
7
 10
1.27499456E+01
 20
2.38583962E+02
 11
-1.82500744E+01
 21
2.39395726E+02
  0
LINE
  8
0
 62
7
 10
-1.82500196E+01
 20
1.77343143E+02
 11
-1.82500196E+01
 21
2.39369404E+02
  0
LINE
  8
0
  6
CENTER
 62
2
 10
4.16014481E+00
 20
2.15369388E+02
 11
-1.51984901E+01
 21
2.15369388E+02
  0
LINE
  8
0
  6
CENTER
 62
2
 10
-5.24998856E+00
 20
2.04127338E+02
 11
-5.24998856E+00
 21
2.27713764E+02
  0
LINE
  8
0
 62
7
 10
7.74996567E+00
 20
2.28369434E+02
 11
7.74996567E+00
 21
1.88369434E+02
  0
LINE
  8
0
 62
7
 10
1.27499753E+01
 20
1.78154906E+02
 11
-1.82500824E+01
 21
1.77343141E+02
  0
LINE
  8
0
  6
CENTER
 62
2
 10
-2.40475845E+00
 20
1.96369449E+02
 11
-1.98792768E+01
 21
1.96369449E+02
  0
LINE
  8
0
  6
CENTER
 62
2
 10
-1.12500114E+01
 20
1.88898304E+02
 11
-1.12500114E+01
 21
2.05487308E+02
  0
LINE
  8
0
 62
7
 10
1.27499657E+01
 20
1.77369465E+02
 11
1.27499657E+01
 21
2.39369465E+02
  0
LINE
  8
0
 62
7
 10
-1.43384789E+02
 20
2.18369373E+02
 11
-1.31115349E+02
 21
2.18369373E+02
  0
LINE
  8
0
 62
7
 10
-1.48250015E+02
 20
1.86369449E+02
 11
-1.24250000E+02
 21
1.86369449E+02
  0
LINE
  8
0
 62
7
 10
-1.48250015E+02
 20
2.30369434E+02
 11
-1.24250000E+02
 21
2.30369434E+02
  0
LINE
  8
0
 62
7
 10
-1.55250112E+02
 20
1.78155055E+02
 11
-1.24250072E+02
 21
1.77343290E+02
  0
LINE
  8
0
 62
7
 10
-1.24250000E+02
 20
2.39395740E+02
 11
-1.24250000E+02
 21
1.77369465E+02
  0
LINE
  8
0
  6
CENTER
 62
2
 10
-1.46660202E+02
 20
2.15369388E+02
 11
-1.27301567E+02
 21
2.15369388E+02
  0
LINE
  8
0
  6
CENTER
 62
2
 10
-1.37250069E+02
 20
2.04127338E+02
 11
-1.37250069E+02
 21
2.27713764E+02
  0
LINE
  8
0
 62
7
 10
-1.50250023E+02
 20
1.88369434E+02
 11
-1.50250023E+02
 21
2.28369434E+02
  0
LINE
  8
0
 62
7
 10
-1.55250029E+02
 20
2.38584105E+02
 11
-1.24249951E+02
 21
2.39395870E+02
  0
LINE
  8
0
  6
CENTER
 62
2
 10
-1.40095299E+02
 20
1.96369449E+02
 11
-1.22620781E+02
 21
1.96369449E+02
  0
LINE
  8
0
  6
CENTER
 62
2
 10
-1.31250046E+02
 20
1.88898304E+02
 11
-1.31250046E+02
 21
2.05487308E+02
  0
LINE
  8
0
 62
7
 10
-1.55250023E+02
 20
2.38583973E+02
 11
-1.55250023E+02
 21
1.78155048E+02
  0
LINE
  8
0
 62
7
 10
-1.65008794E+02
 20
1.91111076E+02
 11
-1.57250080E+02
 21
1.90840135E+02
  0
LINE
  8
0
 62
7
 10
-1.65250023E+02
 20
1.91369465E+02
 11
-1.65250023E+02
 21
1.91360920E+02
  0
LINE
  8
0
 62
7
 10
-1.69750031E+02
 20
1.91369465E+02
 11
-1.65241478E+02
 21
1.91369465E+02
  0
LINE
  8
0
 62
7
 10
-1.56750038E+02
 20
1.89369480E+02
 11
-1.55250023E+02
 21
1.89369480E+02
  0
LINE
  8
0
 62
7
 10
-1.70250023E+02
 20
2.24869434E+02
 11
-1.70250023E+02
 21
1.91869495E+02
  0
LINE
  8
0
 62
7
 10
-1.65008738E+02
 20
2.25628136E+02
 11
-1.57250062E+02
 21
2.25899075E+02
  0
LINE
  8
0
 62
7
 10
-1.65250023E+02
 20
2.25369465E+02
 11
-1.65250023E+02
 21
2.25378010E+02
  0
LINE
  8
0
 62
7
 10
-1.69750031E+02
 20
2.25369465E+02
 11
-1.65241478E+02
 21
2.25369465E+02
  0
LINE
  8
0
 62
7
 10
-1.56750038E+02
 20
2.27369465E+02
 11
-1.55250023E+02
 21
2.27369465E+02
  0
LINE
  8
0
 62
7
 10
-1.65249985E+02
 20
2.25369495E+02
 11
-1.65249985E+02
 21
1.91369495E+02
  0
LINE
  8
0
 62
7
 10
-1.57249992E+02
 20
2.26869465E+02
 11
-1.57249992E+02
 21
1.89869510E+02
  0
LINE
  8
0
  6
CENTER
 62
2
 10
-2.14651009E+02
 20
2.08369465E+02
 11
2.14281120E+02
 21
2.08369465E+02
  0
LINE
  8
0
 62
6
 10
-6.30179492E+01
 20
2.03036136E+02
 11
-6.64820508E+01
 21
1.97036136E+02
  0
LINE
  8
0
 62
4
 10
-5.47500000E+01
 20
2.01536136E+02
 11
-6.38839746E+01
 21
2.01536136E+02
  0
LINE
  8
0
  6
CENTER
 62
6
 10
-1.97500000E+01
 20
2.00036136E+02
 11
-6.67500000E+01
 21
2.00036136E+02
  0
LINE
  8
0
 62
4
 10
-5.47500000E+01
 20
1.98536136E+02
 11
-6.56160254E+01
 21
1.98536136E+02
  0
LINE
  8
0
 62
6
 10
-7.54820508E+01
 20
2.13702824E+02
 11
-7.20179492E+01
 21
2.19702824E+02
  0
LINE
  8
0
 62
4
 10
-8.37500000E+01
 20
2.15202824E+02
 11
-7.46160254E+01
 21
2.15202824E+02
  0
LINE
  8
0
  6
CENTER
 62
6
 10
-1.18750000E+02
 20
2.16702824E+02
 11
-7.17500000E+01
 21
2.16702824E+02
  0
LINE
  8
0
 62
4
 10
-8.37500000E+01
 20
2.18202824E+02
 11
-7.28839746E+01
 21
2.18202824E+02
  0
LINE
  8
0
 62
6
 10
-4.97500000E+01
 20
1.74366175E+02
 11
-4.97500000E+01
 21
1.76717212E+02
  0
LINE
  8
0
 62
6
 10
-5.27500000E+01
 20
1.74366175E+02
 11
-5.27500000E+01
 21
1.76717212E+02
  0
LINE
  8
0
 62
4
 10
-4.92500000E+01
 20
1.74595890E+02
 11
-4.92500000E+01
 21
1.76717212E+02
  0
LINE
  8
0
 62
4
 10
-5.32500000E+01
 20
1.74595890E+02
 11
-5.32500000E+01
 21
1.76717212E+02
  0
LINE
  8
0
 62
4
 10
-3.97500000E+01
 20
1.76717212E+02
 11
-3.97500000E+01
 21
1.89425208E+02
  0
LINE
  8
0
 62
4
 10
-5.47500000E+01
 20
1.76717212E+02
 11
-5.47500000E+01
 21
2.02347099E+02
  0
LINE
  8
0
 62
4
 10
-2.47500000E+01
 20
1.89425208E+02
 11
-2.47500000E+01
 21
2.01374669E+02
  0
LINE
  8
0
  6
CENTER
 62
6
 10
-5.12500000E+01
 20
1.71253916E+02
 11
-5.12500000E+01
 21
1.81519495E+02
  0
LINE
  8
0
  6
CENTER
 62
6
 10
-4.32500000E+01
 20
1.71253916E+02
 11
-4.32500000E+01
 21
1.81519495E+02
  0
LINE
  8
0
  6
CENTER
 62
6
 10
-3.97500000E+01
 20
1.98457914E+02
 11
-3.97500000E+01
 21
2.03457914E+02
  0
LINE
  8
0
 62
4
 10
-3.97500000E+01
 20
1.76717212E+02
 11
-5.47500000E+01
 21
1.76717212E+02
  0
LINE
  8
0
 62
4
 10
-3.97500000E+01
 20
1.82531554E+02
 11
-5.47500000E+01
 21
1.82531554E+02
  0
LINE
  8
0
 62
4
 10
-2.47500000E+01
 20
1.89425208E+02
 11
-5.47500000E+01
 21
1.89425208E+02
  0
LINE
  8
0
 62
4
 10
-2.47500000E+01
 20
1.99568728E+02
 11
-5.47500000E+01
 21
1.99568728E+02
  0
LINE
  8
0
 62
4
 10
-5.06500000E+01
 20
2.02347099E+02
 11
-5.47500000E+01
 21
2.02347099E+02
  0
LINE
  8
0
 62
4
 10
-5.06500000E+01
 20
2.02173451E+02
 11
-5.47500000E+01
 21
2.02173451E+02
  0
LINE
  8
0
 62
4
 10
-2.47500000E+01
 20
2.01374669E+02
 11
-3.56000000E+01
 21
2.01374669E+02
  0
POLYLINE
  8
0
 62
4
 66
1
  0
VERTEX
  8
0
 62
4
 10
-5.32500000E+01
 20
1.74595890E+02
  0
VERTEX
  8
0
 62
4
 10
-5.32419486E+01
 20
1.74564759E+02
  0
VERTEX
  8
0
 62
4
 10
-5.32178592E+01
 20
1.74533878E+02
  0
VERTEX
  8
0
 62
4
 10
-5.31779257E+01
 20
1.74503496E+02
  0
VERTEX
  8
0
 62
4
 10
-5.31224697E+01
 20
1.74473859E+02
  0
VERTEX
  8
0
 62
4
 10
-5.30519377E+01
 20
1.74445204E+02
  0
VERTEX
  8
0
 62
4
 10
-5.29668976E+01
 20
1.74417762E+02
  0
VERTEX
  8
0
 62
4
 10
-5.28680340E+01
 20
1.74391754E+02
  0
VERTEX
  8
0
 62
4
 10
-5.27561429E+01
 20
1.74367390E+02
  0
VERTEX
  8
0
 62
4
 10
-5.26321253E+01
 20
1.74344866E+02
  0
VERTEX
  8
0
 62
4
 10
-5.24969796E+01
 20
1.74324363E+02
  0
VERTEX
  8
0
 62
4
 10
-5.23517940E+01
 20
1.74306046E+02
  0
VERTEX
  8
0
 62
4
 10
-5.21977373E+01
 20
1.74290062E+02
  0
VERTEX
  8
0
 62
4
 10
-5.20360501E+01
 20
1.74276541E+02
  0
VERTEX
  8
0
 62
4
 10
-5.18680340E+01
 20
1.74265592E+02
  0
VERTEX
  8
0
 62
4
 10
-5.16950419E+01
 20
1.74257301E+02
  0
VERTEX
  8
0
 62
4
 10
-5.15184665E+01
 20
1.74251737E+02
  0
VERTEX
  8
0
 62
4
 10
-5.13397297E+01
 20
1.74248943E+02
  0
VERTEX
  8
0
 62
4
 10
-5.11602704E+01
 20
1.74248943E+02
  0
VERTEX
  8
0
 62
4
 10
-5.09815335E+01
 20
1.74251737E+02
  0
VERTEX
  8
0
 62
4
 10
-5.08049581E+01
 20
1.74257301E+02
  0
VERTEX
  8
0
 62
4
 10
-5.06319660E+01
 20
1.74265592E+02
  0
VERTEX
  8
0
 62
4
 10
-5.04639499E+01
 20
1.74276541E+02
  0
VERTEX
  8
0
 62
4
 10
-5.03022627E+01
 20
1.74290062E+02
  0
VERTEX
  8
0
 62
4
 10
-5.01482060E+01
 20
1.74306046E+02
  0
VERTEX
  8
0
 62
4
 10
-5.00030204E+01
 20
1.74324363E+02
  0
VERTEX
  8
0
 62
4
 10
-4.98678747E+01
 20
1.74344866E+02
  0
VERTEX
  8
0
 62
4
 10
-4.97438571E+01
 20
1.74367390E+02
  0
VERTEX
  8
0
 62
4
 10
-4.96319660E+01
 20
1.74391754E+02
  0
VERTEX
  8
0
 62
4
 10
-4.95331024E+01
 20
1.74417762E+02
  0
VERTEX
  8
0
 62
4
 10
-4.94480623E+01
 20
1.74445204E+02
  0
VERTEX
  8
0
 62
4
 10
-4.93775303E+01
 20
1.74473859E+02
  0
VERTEX
  8
0
 62
4
 10
-4.93220743E+01
 20
1.74503496E+02
  0
VERTEX
  8
0
 62
4
 10
-4.92821408E+01
 20
1.74533878E+02
  0
VERTEX
  8
0
 62
4
 10
-4.92580514E+01
 20
1.74564759E+02
  0
VERTEX
  8
0
 62
4
 10
-4.92500000E+01
 20
1.74595890E+02
  0
SEQEND
  8
0
  0
LINE
  8
0
 62
6
 10
-4.17500000E+01
 20
1.74366175E+02
 11
-4.17500000E+01
 21
1.76717212E+02
  0
LINE
  8
0
 62
6
 10
-4.47500000E+01
 20
1.74366175E+02
 11
-4.47500000E+01
 21
1.76717212E+02
  0
LINE
  8
0
 62
4
 10
-4.12500000E+01
 20
1.74595890E+02
 11
-4.12500000E+01
 21
1.76717212E+02
  0
LINE
  8
0
 62
4
 10
-4.52500000E+01
 20
1.74595890E+02
 11
-4.52500000E+01
 21
1.76717212E+02
  0
POLYLINE
  8
0
 62
4
 66
1
  0
VERTEX
  8
0
 62
4
 10
-4.52500000E+01
 20
1.74595890E+02
  0
VERTEX
  8
0
 62
4
 10
-4.52419486E+01
 20
1.74564759E+02
  0
VERTEX
  8
0
 62
4
 10
-4.52178592E+01
 20
1.74533878E+02
  0
VERTEX
  8
0
 62
4
 10
-4.51779257E+01
 20
1.74503496E+02
  0
VERTEX
  8
0
 62
4
 10
-4.51224697E+01
 20
1.74473859E+02
  0
VERTEX
  8
0
 62
4
 10
-4.50519377E+01
 20
1.74445204E+02
  0
VERTEX
  8
0
 62
4
 10
-4.49668976E+01
 20
1.74417762E+02
  0
VERTEX
  8
0
 62
4
 10
-4.48680340E+01
 20
1.74391754E+02
  0
VERTEX
  8
0
 62
4
 10
-4.47561429E+01
 20
1.74367390E+02
  0
VERTEX
  8
0
 62
4
 10
-4.46321253E+01
 20
1.74344866E+02
  0
VERTEX
  8
0
 62
4
 10
-4.44969796E+01
 20
1.74324363E+02
  0
VERTEX
  8
0
 62
4
 10
-4.43517940E+01
 20
1.74306046E+02
  0
VERTEX
  8
0
 62
4
 10
-4.41977373E+01
 20
1.74290062E+02
  0
VERTEX
  8
0
 62
4
 10
-4.40360501E+01
 20
1.74276541E+02
  0
VERTEX
  8
0
 62
4
 10
-4.38680340E+01
 20
1.74265592E+02
  0
VERTEX
  8
0
 62
4
 10
-4.36950419E+01
 20
1.74257301E+02
  0
VERTEX
  8
0
 62
4
 10
-4.35184665E+01
 20
1.74251737E+02
  0
VERTEX
  8
0
 62
4
 10
-4.33397297E+01
 20
1.74248943E+02
  0
VERTEX
  8
0
 62
4
 10
-4.31602704E+01
 20
1.74248943E+02
  0
VERTEX
  8
0
 62
4
 10
-4.29815335E+01
 20
1.74251737E+02
  0
VERTEX
  8
0
 62
4
 10
-4.28049581E+01
 20
1.74257301E+02
  0
VERTEX
  8
0
 62
4
 10
-4.26319660E+01
 20
1.74265592E+02
  0
VERTEX
  8
0
 62
4
 10
-4.24639499E+01
 20
1.74276541E+02
  0
VERTEX
  8
0
 62
4
 10
-4.23022627E+01
 20
1.74290062E+02
  0
VERTEX
  8
0
 62
4
 10
-4.21482060E+01
 20
1.74306046E+02
  0
VERTEX
  8
0
 62
4
 10
-4.20030204E+01
 20
1.74324363E+02
  0
VERTEX
  8
0
 62
4
 10
-4.18678747E+01
 20
1.74344866E+02
  0
VERTEX
  8
0
 62
4
 10
-4.17438571E+01
 20
1.74367390E+02
  0
VERTEX
  8
0
 62
4
 10
-4.16319660E+01
 20
1.74391754E+02
  0
VERTEX
  8
0
 62
4
 10
-4.15331024E+01
 20
1.74417762E+02
  0
VERTEX
  8
0
 62
4
 10
-4.14480623E+01
 20
1.74445204E+02
  0
VERTEX
  8
0
 62
4
 10
-4.13775303E+01
 20
1.74473859E+02
  0
VERTEX
  8
0
 62
4
 10
-4.13220743E+01
 20
1.74503496E+02
  0
VERTEX
  8
0
 62
4
 10
-4.12821408E+01
 20
1.74533878E+02
  0
VERTEX
  8
0
 62
4
 10
-4.12580514E+01
 20
1.74564759E+02
  0
VERTEX
  8
0
 62
4
 10
-4.12500000E+01
 20
1.74595890E+02
  0
SEQEND
  8
0
  0
LINE
  8
0
 62
4
 10
-2.47500000E+01
 20
1.97719224E+02
 11
-2.32500000E+01
 21
1.98722156E+02
  0
LINE
  8
0
 62
4
 10
-2.32500000E+01
 20
1.98722156E+02
 11
-2.32500000E+01
 21
2.01346059E+02
  0
LINE
  8
0
 62
4
 10
-2.32500000E+01
 20
2.00952746E+02
 11
-2.47500000E+01
 21
2.01658455E+02
  0
LINE
  8
0
 62
4
 10
-2.32500000E+01
 20
2.01346059E+02
 11
-2.47500000E+01
 21
2.02353048E+02
  0
LINE
  8
0
 62
4
 10
-2.47500000E+01
 20
2.02353048E+02
 11
-3.56000000E+01
 21
2.02353048E+02
  0
LINE
  8
0
 62
4
 10
-2.47500000E+01
 20
2.01658455E+02
 11
-3.56000000E+01
 21
2.01658455E+02
  0
LINE
  8
0
 62
4
 10
-2.47500000E+01
 20
2.01374669E+02
 11
-2.47500000E+01
 21
2.02347099E+02
  0
POLYLINE
  8
0
 62
4
 66
1
  0
VERTEX
  8
0
 62
4
 10
-4.34500000E+01
 20
2.01005769E+02
  0
VERTEX
  8
0
 62
4
 10
-4.32681850E+01
 20
2.00949922E+02
  0
VERTEX
  8
0
 62
4
 10
-4.30584878E+01
 20
2.00897103E+02
  0
VERTEX
  8
0
 62
4
 10
-4.28225701E+01
 20
2.00847733E+02
  0
VERTEX
  8
0
 62
4
 10
-4.25623018E+01
 20
2.00802201E+02
  0
VERTEX
  8
0
 62
4
 10
-4.22797455E+01
 20
2.00760870E+02
  0
VERTEX
  8
0
 62
4
 10
-4.19771404E+01
 20
2.00724065E+02
  0
VERTEX
  8
0
 62
4
 10
-4.16568849E+01
 20
2.00692080E+02
  0
VERTEX
  8
0
 62
4
 10
-4.13215169E+01
 20
2.00665167E+02
  0
VERTEX
  8
0
 62
4
 10
-4.09736944E+01
 20
2.00643541E+02
  0
VERTEX
  8
0
 62
4
 10
-4.06161738E+01
 20
2.00627371E+02
  0
VERTEX
  8
0
 62
4
 10
-4.02517887E+01
 20
2.00616787E+02
  0
VERTEX
  8
0
 62
4
 10
-3.98834268E+01
 20
2.00611873E+02
  0
VERTEX
  8
0
 62
4
 10
-3.95140075E+01
 20
2.00612666E+02
  0
VERTEX
  8
0
 62
4
 10
-3.91464584E+01
 20
2.00619162E+02
  0
VERTEX
  8
0
 62
4
 10
-3.87836926E+01
 20
2.00631308E+02
  0
VERTEX
  8
0
 62
4
 10
-3.84285849E+01
 20
2.00649008E+02
  0
VERTEX
  8
0
 62
4
 10
-3.80839496E+01
 20
2.00672122E+02
  0
VERTEX
  8
0
 62
4
 10
-3.77525182E+01
 20
2.00700467E+02
  0
VERTEX
  8
0
 62
4
 10
-3.74369171E+01
 20
2.00733818E+02
  0
VERTEX
  8
0
 62
4
 10
-3.71396477E+01
 20
2.00771911E+02
  0
VERTEX
  8
0
 62
4
 10
-3.68630657E+01
 20
2.00814444E+02
  0
VERTEX
  8
0
 62
4
 10
-3.66093633E+01
 20
2.00861079E+02
  0
VERTEX
  8
0
 62
4
 10
-3.63805510E+01
 20
2.00911448E+02
  0
VERTEX
  8
0
 62
4
 10
-3.61784422E+01
 20
2.00965151E+02
  0
VERTEX
  8
0
 62
4
 10
-3.60046387E+01
 20
2.01021763E+02
  0
VERTEX
  8
0
 62
4
 10
-3.58605179E+01
 20
2.01080834E+02
  0
VERTEX
  8
0
 62
4
 10
-3.57472219E+01
 20
2.01141897E+02
  0
VERTEX
  8
0
 62
4
 10
-3.56656487E+01
 20
2.01204467E+02
  0
VERTEX
  8
0
 62
4
 10
-3.56164448E+01
 20
2.01268050E+02
  0
VERTEX
  8
0
 62
4
 10
-3.56000000E+01
 20
2.01332140E+02
  0
SEQEND
  8
0
  0
ARC
  8
0
 62
4
 10
-3.97577383E+01
 20
1.92175034E+02
 40
1.18100000E+01
 50
8.99624577E+01
 51
1.09675998E+02
  0
ARC
  8
0
 62
4
 10
-3.97422617E+01
 20
1.92175034E+02
 40
1.18100000E+01
 50
7.03240015E+01
 51
9.00375421E+01
  0
LINE
  8
0
 62
4
 10
-3.56000000E+01
 20
2.03060065E+02
 11
-3.56000000E+01
 21
2.01332140E+02
  0
LINE
  8
0
 62
4
 10
-4.39000000E+01
 20
2.03060065E+02
 11
-4.39000000E+01
 21
2.02920956E+02
  0
LINE
  8
0
 62
4
 10
-3.57500000E+01
 20
2.00957914E+02
 11
-3.57500000E+01
 21
2.01140143E+02
  0
POLYLINE
  8
0
 62
4
 66
1
  0
VERTEX
  8
0
 62
4
 10
-4.34500000E+01
 20
2.00693992E+02
  0
VERTEX
  8
0
 62
4
 10
-4.33006920E+01
 20
2.00638072E+02
  0
VERTEX
  8
0
 62
4
 10
-4.31234233E+01
 20
2.00584671E+02
  0
VERTEX
  8
0
 62
4
 10
-4.29195899E+01
 20
2.00534209E+02
  0
VERTEX
  8
0
 62
4
 10
-4.26907968E+01
 20
2.00487084E+02
  0
VERTEX
  8
0
 62
4
 10
-4.24388458E+01
 20
2.00443666E+02
  0
VERTEX
  8
0
 62
4
 10
-4.21657208E+01
 20
2.00404298E+02
  0
VERTEX
  8
0
 62
4
 10
-4.18735727E+01
 20
2.00369289E+02
  0
VERTEX
  8
0
 62
4
 10
-4.15647021E+01
 20
2.00338916E+02
  0
VERTEX
  8
0
 62
4
 10
-4.12415412E+01
 20
2.00313417E+02
  0
VERTEX
  8
0
 62
4
 10
-4.09066348E+01
 20
2.00292993E+02
  0
VERTEX
  8
0
 62
4
 10
-4.05626202E+01
 20
2.00277806E+02
  0
VERTEX
  8
0
 62
4
 10
-4.02122065E+01
 20
2.00267974E+02
  0
VERTEX
  8
0
 62
4
 10
-3.98581531E+01
 20
2.00263575E+02
  0
VERTEX
  8
0
 62
4
 10
-3.95032479E+01
 20
2.00264644E+02
  0
VERTEX
  8
0
 62
4
 10
-3.91502859E+01
 20
2.00271172E+02
  0
VERTEX
  8
0
 62
4
 10
-3.88020464E+01
 20
2.00283108E+02
  0
VERTEX
  8
0
 62
4
 10
-3.84612719E+01
 20
2.00300359E+02
  0
VERTEX
  8
0
 62
4
 10
-3.81306456E+01
 20
2.00322787E+02
  0
VERTEX
  8
0
 62
4
 10
-3.78127714E+01
 20
2.00350216E+02
  0
VERTEX
  8
0
 62
4
 10
-3.75101523E+01
 20
2.00382431E+02
  0
VERTEX
  8
0
 62
4
 10
-3.72251714E+01
 20
2.00419178E+02
  0
VERTEX
  8
0
 62
4
 10
-3.69600728E+01
 20
2.00460167E+02
  0
VERTEX
  8
0
 62
4
 10
-3.67169441E+01
 20
2.00505076E+02
  0
VERTEX
  8
0
 62
4
 10
-3.64976998E+01
 20
2.00553551E+02
  0
VERTEX
  8
0
 62
4
 10
-3.63040666E+01
 20
2.00605210E+02
  0
VERTEX
  8
0
 62
4
 10
-3.61375691E+01
 20
2.00659646E+02
  0
VERTEX
  8
0
 62
4
 10
-3.59995184E+01
 20
2.00716431E+02
  0
VERTEX
  8
0
 62
4
 10
-3.58910018E+01
 20
2.00775118E+02
  0
VERTEX
  8
0
 62
4
 10
-3.58128737E+01
 20
2.00835245E+02
  0
VERTEX
  8
0
 62
4
 10
-3.57657494E+01
 20
2.00896337E+02
  0
VERTEX
  8
0
 62
4
 10
-3.57500000E+01
 20
2.00957914E+02
  0
SEQEND
  8
0
  0
ARC
  8
0
 62
4
 10
-3.76313944E+01
 20
1.91473824E+02
 40
1.25124521E+01
 50
9.49416351E+01
 51
1.08095416E+02
  0
ARC
  8
0
 62
4
 10
-4.18686058E+01
 20
1.91473822E+02
 40
1.25124547E+01
 50
7.19045858E+01
 51
8.50583647E+01
  0
POLYLINE
  8
0
 62
4
 66
1
  0
VERTEX
  8
0
 62
4
 10
-4.39000000E+01
 20
2.03065402E+02
  0
VERTEX
  8
0
 62
4
 10
-4.38832933E+01
 20
2.03000804E+02
  0
VERTEX
  8
0
 62
4
 10
-4.38333078E+01
 20
2.02936727E+02
  0
VERTEX
  8
0
 62
4
 10
-4.37504459E+01
 20
2.02873685E+02
  0
VERTEX
  8
0
 62
4
 10
-4.36353747E+01
 20
2.02812187E+02
  0
VERTEX
  8
0
 62
4
 10
-4.34890208E+01
 20
2.02752728E+02
  0
VERTEX
  8
0
 62
4
 10
-4.33125625E+01
 20
2.02695786E+02
  0
VERTEX
  8
0
 62
4
 10
-4.31074205E+01
 20
2.02641820E+02
  0
VERTEX
  8
0
 62
4
 10
-4.28752466E+01
 20
2.02591265E+02
  0
VERTEX
  8
0
 62
4
 10
-4.26179100E+01
 20
2.02544527E+02
  0
VERTEX
  8
0
 62
4
 10
-4.23374827E+01
 20
2.02501983E+02
  0
VERTEX
  8
0
 62
4
 10
-4.20362225E+01
 20
2.02463975E+02
  0
VERTEX
  8
0
 62
4
 10
-4.17165550E+01
 20
2.02430810E+02
  0
VERTEX
  8
0
 62
4
 10
-4.13810539E+01
 20
2.02402754E+02
  0
VERTEX
  8
0
 62
4
 10
-4.10324205E+01
 20
2.02380033E+02
  0
VERTEX
  8
0
 62
4
 10
-4.06734619E+01
 20
2.02362830E+02
  0
VERTEX
  8
0
 62
4
 10
-4.03070681E+01
 20
2.02351284E+02
  0
VERTEX
  8
0
 62
4
 10
-3.99361891E+01
 20
2.02345488E+02
  0
VERTEX
  8
0
 62
4
 10
-3.95638110E+01
 20
2.02345488E+02
  0
VERTEX
  8
0
 62
4
 10
-3.91929320E+01
 20
2.02351284E+02
  0
VERTEX
  8
0
 62
4
 10
-3.88265381E+01
 20
2.02362830E+02
  0
VERTEX
  8
0
 62
4
 10
-3.84675795E+01
 20
2.02380033E+02
  0
VERTEX
  8
0
 62
4
 10
-3.81189461E+01
 20
2.02402754E+02
  0
VERTEX
  8
0
 62
4
 10
-3.77834451E+01
 20
2.02430810E+02
  0
VERTEX
  8
0
 62
4
 10
-3.74637775E+01
 20
2.02463975E+02
  0
VERTEX
  8
0
 62
4
 10
-3.71625173E+01
 20
2.02501983E+02
  0
VERTEX
  8
0
 62
4
 10
-3.68820900E+01
 20
2.02544527E+02
  0
VERTEX
  8
0
 62
4
 10
-3.66247534E+01
 20
2.02591265E+02
  0
VERTEX
  8
0
 62
4
 10
-3.63925795E+01
 20
2.02641820E+02
  0
VERTEX
  8
0
 62
4
 10
-3.61874375E+01
 20
2.02695786E+02
  0
VERTEX
  8
0
 62
4
 10
-3.60109792E+01
 20
2.02752728E+02
  0
VERTEX
  8
0
 62
4
 10
-3.58646253E+01
 20
2.02812187E+02
  0
VERTEX
  8
0
 62
4
 10
-3.57495541E+01
 20
2.02873685E+02
  0
VERTEX
  8
0
 62
4
 10
-3.56666922E+01
 20
2.02936727E+02
  0
VERTEX
  8
0
 62
4
 10
-3.56167067E+01
 20
2.03000804E+02
  0
VERTEX
  8
0
 62
4
 10
-3.56000000E+01
 20
2.03065402E+02
  0
SEQEND
  8
0
  0
ARC
  8
0
 62
4
 10
-3.58500000E+01
 20
2.03060065E+02
 40
2.50000000E-01
 50
0.00000000E+00
 51
7.03240015E+01
  0
ARC
  8
0
 62
4
 10
-4.36500000E+01
 20
2.03060065E+02
 40
2.50000000E-01
 50
1.09675998E+02
 51
1.80000000E+02
  0
LINE
  8
0
 62
4
 10
-4.34500000E+01
 20
2.01334953E+02
 11
-4.34500000E+01
 21
2.00350145E+02
  0
LINE
  8
0
 62
4
 10
-5.10500000E+01
 20
2.01334953E+02
 11
-5.10500000E+01
 21
2.00350145E+02
  0
POLYLINE
  8
0
 62
4
 66
1
  0
VERTEX
  8
0
 62
4
 10
-5.10500000E+01
 20
2.00350145E+02
  0
VERTEX
  8
0
 62
4
 10
-5.10347023E+01
 20
2.00290995E+02
  0
VERTEX
  8
0
 62
4
 10
-5.09889324E+01
 20
2.00232322E+02
  0
VERTEX
  8
0
 62
4
 10
-5.09130589E+01
 20
2.00174597E+02
  0
VERTEX
  8
0
 62
4
 10
-5.08076925E+01
 20
2.00118286E+02
  0
VERTEX
  8
0
 62
4
 10
-5.06736817E+01
 20
2.00063841E+02
  0
VERTEX
  8
0
 62
4
 10
-5.05121054E+01
 20
2.00011702E+02
  0
VERTEX
  8
0
 62
4
 10
-5.03242646E+01
 20
1.99962287E+02
  0
VERTEX
  8
0
 62
4
 10
-5.01116716E+01
 20
1.99915996E+02
  0
VERTEX
  8
0
 62
4
 10
-4.98760381E+01
 20
1.99873199E+02
  0
VERTEX
  8
0
 62
4
 10
-4.96192613E+01
 20
1.99834243E+02
  0
VERTEX
  8
0
 62
4
 10
-4.93434085E+01
 20
1.99799441E+02
  0
VERTEX
  8
0
 62
4
 10
-4.90507009E+01
 20
1.99769073E+02
  0
VERTEX
  8
0
 62
4
 10
-4.87434951E+01
 20
1.99743383E+02
  0
VERTEX
  8
0
 62
4
 10
-4.84242646E+01
 20
1.99722578E+02
  0
VERTEX
  8
0
 62
4
 10
-4.80955796E+01
 20
1.99706826E+02
  0
VERTEX
  8
0
 62
4
 10
-4.77600864E+01
 20
1.99696254E+02
  0
VERTEX
  8
0
 62
4
 10
-4.74204864E+01
 20
1.99690946E+02
  0
VERTEX
  8
0
 62
4
 10
-4.70795137E+01
 20
1.99690946E+02
  0
VERTEX
  8
0
 62
4
 10
-4.67399136E+01
 20
1.99696254E+02
  0
VERTEX
  8
0
 62
4
 10
-4.64044205E+01
 20
1.99706826E+02
  0
VERTEX
  8
0
 62
4
 10
-4.60757354E+01
 20
1.99722578E+02
  0
VERTEX
  8
0
 62
4
 10
-4.57565049E+01
 20
1.99743383E+02
  0
VERTEX
  8
0
 62
4
 10
-4.54492991E+01
 20
1.99769073E+02
  0
VERTEX
  8
0
 62
4
 10
-4.51565915E+01
 20
1.99799441E+02
  0
VERTEX
  8
0
 62
4
 10
-4.48807388E+01
 20
1.99834243E+02
  0
VERTEX
  8
0
 62
4
 10
-4.46239620E+01
 20
1.99873199E+02
  0
VERTEX
  8
0
 62
4
 10
-4.43883284E+01
 20
1.99915996E+02
  0
VERTEX
  8
0
 62
4
 10
-4.41757354E+01
 20
1.99962287E+02
  0
VERTEX
  8
0
 62
4
 10
-4.39878946E+01
 20
2.00011702E+02
  0
VERTEX
  8
0
 62
4
 10
-4.38263183E+01
 20
2.00063841E+02
  0
VERTEX
  8
0
 62
4
 10
-4.36923075E+01
 20
2.00118286E+02
  0
VERTEX
  8
0
 62
4
 10
-4.35869411E+01
 20
2.00174597E+02
  0
VERTEX
  8
0
 62
4
 10
-4.35110676E+01
 20
2.00232322E+02
  0
VERTEX
  8
0
 62
4
 10
-4.34652977E+01
 20
2.00290995E+02
  0
VERTEX
  8
0
 62
4
 10
-4.34500000E+01
 20
2.00350145E+02
  0
SEQEND
  8
0
  0
POLYLINE
  8
0
 62
4
 66
1
  0
VERTEX
  8
0
 62
4
 10
-5.06500000E+01
 20
2.01629644E+02
  0
VERTEX
  8
0
 62
4
 10
-5.07865817E+01
 20
2.01576355E+02
  0
VERTEX
  8
0
 62
4
 10
-5.08955295E+01
 20
2.01521179E+02
  0
VERTEX
  8
0
 62
4
 10
-5.09759923E+01
 20
2.01464549E+02
  0
VERTEX
  8
0
 62
4
 10
-5.10273413E+01
 20
2.01406906E+02
  0
VERTEX
  8
0
 62
4
 10
-5.10491753E+01
 20
2.01348700E+02
  0
VERTEX
  8
0
 62
4
 10
-5.10413236E+01
 20
2.01290387E+02
  0
VERTEX
  8
0
 62
4
 10
-5.10038476E+01
 20
2.01232423E+02
  0
VERTEX
  8
0
 62
4
 10
-5.09370402E+01
 20
2.01175260E+02
  0
VERTEX
  8
0
 62
4
 10
-5.08414234E+01
 20
2.01119344E+02
  0
VERTEX
  8
0
 62
4
 10
-5.07177442E+01
 20
2.01065113E+02
  0
VERTEX
  8
0
 62
4
 10
-5.05669691E+01
 20
2.01012991E+02
  0
VERTEX
  8
0
 62
4
 10
-5.03902762E+01
 20
2.00963384E+02
  0
VERTEX
  8
0
 62
4
 10
-5.01890462E+01
 20
2.00916680E+02
  0
VERTEX
  8
0
 62
4
 10
-4.99648512E+01
 20
2.00873245E+02
  0
VERTEX
  8
0
 62
4
 10
-4.97194433E+01
 20
2.00833418E+02
  0
VERTEX
  8
0
 62
4
 10
-4.94547398E+01
 20
2.00797509E+02
  0
VERTEX
  8
0
 62
4
 10
-4.91728092E+01
 20
2.00765800E+02
  0
VERTEX
  8
0
 62
4
 10
-4.88758543E+01
 20
2.00738538E+02
  0
VERTEX
  8
0
 62
4
 10
-4.85661954E+01
 20
2.00715936E+02
  0
VERTEX
  8
0
 62
4
 10
-4.82462522E+01
 20
2.00698171E+02
  0
VERTEX
  8
0
 62
4
 10
-4.79185246E+01
 20
2.00685382E+02
  0
VERTEX
  8
0
 62
4
 10
-4.75855733E+01
 20
2.00677668E+02
  0
VERTEX
  8
0
 62
4
 10
-4.72500000E+01
 20
2.00675090E+02
  0
VERTEX
  8
0
 62
4
 10
-4.69144266E+01
 20
2.00677668E+02
  0
VERTEX
  8
0
 62
4
 10
-4.65814754E+01
 20
2.00685382E+02
  0
VERTEX
  8
0
 62
4
 10
-4.62537477E+01
 20
2.00698171E+02
  0
VERTEX
  8
0
 62
4
 10
-4.59338045E+01
 20
2.00715936E+02
  0
VERTEX
  8
0
 62
4
 10
-4.56241457E+01
 20
2.00738538E+02
  0
VERTEX
  8
0
 62
4
 10
-4.53271908E+01
 20
2.00765800E+02
  0
VERTEX
  8
0
 62
4
 10
-4.50452601E+01
 20
2.00797509E+02
  0
VERTEX
  8
0
 62
4
 10
-4.47805567E+01
 20
2.00833418E+02
  0
VERTEX
  8
0
 62
4
 10
-4.45351487E+01
 20
2.00873245E+02
  0
VERTEX
  8
0
 62
4
 10
-4.43109538E+01
 20
2.00916680E+02
  0
VERTEX
  8
0
 62
4
 10
-4.41097237E+01
 20
2.00963384E+02
  0
VERTEX
  8
0
 62
4
 10
-4.39330308E+01
 20
2.01012991E+02
  0
VERTEX
  8
0
 62
4
 10
-4.37822558E+01
 20
2.01065113E+02
  0
VERTEX
  8
0
 62
4
 10
-4.36585766E+01
 20
2.01119344E+02
  0
VERTEX
  8
0
 62
4
 10
-4.35629598E+01
 20
2.01175260E+02
  0
VERTEX
  8
0
 62
4
 10
-4.34961524E+01
 20
2.01232423E+02
  0
VERTEX
  8
0
 62
4
 10
-4.34586764E+01
 20
2.01290387E+02
  0
VERTEX
  8
0
 62
4
 10
-4.34508248E+01
 20
2.01348700E+02
  0
VERTEX
  8
0
 62
4
 10
-4.34726587E+01
 20
2.01406906E+02
  0
VERTEX
  8
0
 62
4
 10
-4.35240077E+01
 20
2.01464549E+02
  0
VERTEX
  8
0
 62
4
 10
-4.36044705E+01
 20
2.01521179E+02
  0
VERTEX
  8
0
 62
4
 10
-4.37134183E+01
 20
2.01576355E+02
  0
VERTEX
  8
0
 62
4
 10
-4.38500000E+01
 20
2.01629644E+02
  0
SEQEND
  8
0
  0
LINE
  8
0
 62
4
 10
-4.38500000E+01
 20
2.02608705E+02
 11
-4.38500000E+01
 21
2.01334953E+02
  0
LINE
  8
0
 62
4
 10
-5.06500000E+01
 20
2.02608705E+02
 11
-5.06500000E+01
 21
2.01334953E+02
  0
POLYLINE
  8
0
 62
4
 66
1
  0
VERTEX
  8
0
 62
4
 10
-5.06500000E+01
 20
2.01334953E+02
  0
VERTEX
  8
0
 62
4
 10
-5.06363126E+01
 20
2.01282030E+02
  0
VERTEX
  8
0
 62
4
 10
-5.05953606E+01
 20
2.01229532E+02
  0
VERTEX
  8
0
 62
4
 10
-5.05274737E+01
 20
2.01177884E+02
  0
VERTEX
  8
0
 62
4
 10
-5.04331986E+01
 20
2.01127500E+02
  0
VERTEX
  8
0
 62
4
 10
-5.03132942E+01
 20
2.01078786E+02
  0
VERTEX
  8
0
 62
4
 10
-5.01687259E+01
 20
2.01032135E+02
  0
VERTEX
  8
0
 62
4
 10
-5.00006578E+01
 20
2.00987922E+02
  0
VERTEX
  8
0
 62
4
 10
-4.98104430E+01
 20
2.00946503E+02
  0
VERTEX
  8
0
 62
4
 10
-4.95996130E+01
 20
2.00908212E+02
  0
VERTEX
  8
0
 62
4
 10
-4.93698653E+01
 20
2.00873357E+02
  0
VERTEX
  8
0
 62
4
 10
-4.91230498E+01
 20
2.00842218E+02
  0
VERTEX
  8
0
 62
4
 10
-4.88611535E+01
 20
2.00815046E+02
  0
VERTEX
  8
0
 62
4
 10
-4.85862851E+01
 20
2.00792060E+02
  0
VERTEX
  8
0
 62
4
 10
-4.83006578E+01
 20
2.00773446E+02
  0
VERTEX
  8
0
 62
4
 10
-4.80065712E+01
 20
2.00759352E+02
  0
VERTEX
  8
0
 62
4
 10
-4.77063931E+01
 20
2.00749892E+02
  0
VERTEX
  8
0
 62
4
 10
-4.74025404E+01
 20
2.00745144E+02
  0
VERTEX
  8
0
 62
4
 10
-4.70974596E+01
 20
2.00745144E+02
  0
VERTEX
  8
0
 62
4
 10
-4.67936069E+01
 20
2.00749892E+02
  0
VERTEX
  8
0
 62
4
 10
-4.64934288E+01
 20
2.00759352E+02
  0
VERTEX
  8
0
 62
4
 10
-4.61993422E+01
 20
2.00773446E+02
  0
VERTEX
  8
0
 62
4
 10
-4.59137149E+01
 20
2.00792060E+02
  0
VERTEX
  8
0
 62
4
 10
-4.56388466E+01
 20
2.00815046E+02
  0
VERTEX
  8
0
 62
4
 10
-4.53769503E+01
 20
2.00842218E+02
  0
VERTEX
  8
0
 62
4
 10
-4.51301347E+01
 20
2.00873357E+02
  0
VERTEX
  8
0
 62
4
 10
-4.49003870E+01
 20
2.00908212E+02
  0
VERTEX
  8
0
 62
4
 10
-4.46895570E+01
 20
2.00946503E+02
  0
VERTEX
  8
0
 62
4
 10
-4.44993422E+01
 20
2.00987922E+02
  0
VERTEX
  8
0
 62
4
 10
-4.43312741E+01
 20
2.01032135E+02
  0
VERTEX
  8
0
 62
4
 10
-4.41867059E+01
 20
2.01078786E+02
  0
VERTEX
  8
0
 62
4
 10
-4.40668014E+01
 20
2.01127500E+02
  0
VERTEX
  8
0
 62
4
 10
-4.39725263E+01
 20
2.01177884E+02
  0
VERTEX
  8
0
 62
4
 10
-4.39046394E+01
 20
2.01229532E+02
  0
VERTEX
  8
0
 62
4
 10
-4.38636874E+01
 20
2.01282030E+02
  0
VERTEX
  8
0
 62
4
 10
-4.38500000E+01
 20
2.01334953E+02
  0
SEQEND
  8
0
  0
ARC
  8
0
 62
4
 10
-4.72500000E+01
 20
1.92068492E+02
 40
1.18100000E+01
 50
7.71724899E+01
 51
1.02827510E+02
  0
ARC
  8
0
 62
4
 10
-4.96500003E+01
 20
2.02608705E+02
 40
1.00000000E+00
 50
1.02827510E+02
 51
1.80000000E+02
  0
ARC
  8
0
 62
4
 10
-4.48499997E+01
 20
2.02608705E+02
 40
1.00000000E+00
 50
3.60000000E+02
 51
7.71724899E+01
  0
ARC
  8
0
 62
4
 10
-4.51282465E+01
 20
1.91349348E+02
 40
1.25306621E+01
 50
9.49686598E+01
 51
1.08083352E+02
  0
ARC
  8
0
 62
4
 10
-4.93717536E+01
 20
1.91349348E+02
 40
1.25306626E+01
 50
7.19166483E+01
 51
8.50313400E+01
  0
LINE
  8
0
  6
CENTER
 62
6
 10
-3.72500000E+01
 20
2.00957914E+02
 11
-4.22500000E+01
 21
2.00957914E+02
  0
LINE
  8
0
  6
CENTER
 62
6
 10
-4.72500000E+01
 20
1.97850145E+02
 11
-4.72500000E+01
 21
2.02850145E+02
  0
LINE
  8
0
  6
CENTER
 62
6
 10
-4.47500000E+01
 20
2.00350145E+02
 11
-4.97500000E+01
 21
2.00350145E+02
  0
LINE
  8
0
  6
CENTER
 62
6
 10
-3.22500000E+01
 20
1.97850145E+02
 11
-3.22500000E+01
 21
2.02850145E+02
  0
LINE
  8
0
  6
CENTER
 62
6
 10
-2.97500000E+01
 20
2.00350145E+02
 11
-3.47500000E+01
 21
2.00350145E+02
  0
LINE
  8
0
 62
4
 10
-5.10431106E+01
 20
2.01374669E+02
 11
-5.47500000E+01
 21
2.01374669E+02
  0
LINE
  8
0
 62
6
 10
-8.87500000E+01
 20
2.42372785E+02
 11
-8.87500000E+01
 21
2.40021748E+02
  0
LINE
  8
0
 62
6
 10
-8.57500000E+01
 20
2.42372785E+02
 11
-8.57500000E+01
 21
2.40021748E+02
  0
LINE
  8
0
 62
4
 10
-8.92500000E+01
 20
2.42143070E+02
 11
-8.92500000E+01
 21
2.40021748E+02
  0
LINE
  8
0
 62
4
 10
-8.52500000E+01
 20
2.42143070E+02
 11
-8.52500000E+01
 21
2.40021748E+02
  0
LINE
  8
0
 62
4
 10
-9.87500000E+01
 20
2.40021748E+02
 11
-9.87500000E+01
 21
2.27313752E+02
  0
LINE
  8
0
 62
4
 10
-8.37500000E+01
 20
2.40021748E+02
 11
-8.37500000E+01
 21
2.14391861E+02
  0
LINE
  8
0
 62
4
 10
-1.13750000E+02
 20
2.27313752E+02
 11
-1.13750000E+02
 21
2.15364291E+02
  0
LINE
  8
0
  6
CENTER
 62
6
 10
-8.72500000E+01
 20
2.45485044E+02
 11
-8.72500000E+01
 21
2.35219465E+02
  0
LINE
  8
0
  6
CENTER
 62
6
 10
-9.52500000E+01
 20
2.45485044E+02
 11
-9.52500000E+01
 21
2.35219465E+02
  0
LINE
  8
0
  6
CENTER
 62
6
 10
-9.87500000E+01
 20
2.18281046E+02
 11
-9.87500000E+01
 21
2.13281046E+02
  0
LINE
  8
0
 62
4
 10
-9.87500000E+01
 20
2.40021748E+02
 11
-8.37500000E+01
 21
2.40021748E+02
  0
LINE
  8
0
 62
4
 10
-9.87500000E+01
 20
2.34207406E+02
 11
-8.37500000E+01
 21
2.34207406E+02
  0
LINE
  8
0
 62
4
 10
-1.13750000E+02
 20
2.27313752E+02
 11
-8.37500000E+01
 21
2.27313752E+02
  0
LINE
  8
0
 62
4
 10
-1.13750000E+02
 20
2.17170232E+02
 11
-8.37500000E+01
 21
2.17170232E+02
  0
LINE
  8
0
 62
4
 10
-8.78500000E+01
 20
2.14391861E+02
 11
-8.37500000E+01
 21
2.14391861E+02
  0
LINE
  8
0
 62
4
 10
-8.78500000E+01
 20
2.14565509E+02
 11
-8.37500000E+01
 21
2.14565509E+02
  0
LINE
  8
0
 62
4
 10
-1.13750000E+02
 20
2.15364291E+02
 11
-1.02900000E+02
 21
2.15364291E+02
  0
POLYLINE
  8
0
 62
4
 66
1
  0
VERTEX
  8
0
 62
4
 10
-8.52500000E+01
 20
2.42143070E+02
  0
VERTEX
  8
0
 62
4
 10
-8.52580514E+01
 20
2.42174201E+02
  0
VERTEX
  8
0
 62
4
 10
-8.52821408E+01
 20
2.42205082E+02
  0
VERTEX
  8
0
 62
4
 10
-8.53220743E+01
 20
2.42235464E+02
  0
VERTEX
  8
0
 62
4
 10
-8.53775303E+01
 20
2.42265101E+02
  0
VERTEX
  8
0
 62
4
 10
-8.54480623E+01
 20
2.42293756E+02
  0
VERTEX
  8
0
 62
4
 10
-8.55331024E+01
 20
2.42321198E+02
  0
VERTEX
  8
0
 62
4
 10
-8.56319660E+01
 20
2.42347206E+02
  0
VERTEX
  8
0
 62
4
 10
-8.57438571E+01
 20
2.42371570E+02
  0
VERTEX
  8
0
 62
4
 10
-8.58678747E+01
 20
2.42394094E+02
  0
VERTEX
  8
0
 62
4
 10
-8.60030204E+01
 20
2.42414597E+02
  0
VERTEX
  8
0
 62
4
 10
-8.61482060E+01
 20
2.42432914E+02
  0
VERTEX
  8
0
 62
4
 10
-8.63022627E+01
 20
2.42448898E+02
  0
VERTEX
  8
0
 62
4
 10
-8.64639499E+01
 20
2.42462419E+02
  0
VERTEX
  8
0
 62
4
 10
-8.66319660E+01
 20
2.42473368E+02
  0
VERTEX
  8
0
 62
4
 10
-8.68049581E+01
 20
2.42481659E+02
  0
VERTEX
  8
0
 62
4
 10
-8.69815335E+01
 20
2.42487223E+02
  0
VERTEX
  8
0
 62
4
 10
-8.71602703E+01
 20
2.42490017E+02
  0
VERTEX
  8
0
 62
4
 10
-8.73397296E+01
 20
2.42490017E+02
  0
VERTEX
  8
0
 62
4
 10
-8.75184665E+01
 20
2.42487223E+02
  0
VERTEX
  8
0
 62
4
 10
-8.76950419E+01
 20
2.42481659E+02
  0
VERTEX
  8
0
 62
4
 10
-8.78680340E+01
 20
2.42473368E+02
  0
VERTEX
  8
0
 62
4
 10
-8.80360501E+01
 20
2.42462419E+02
  0
VERTEX
  8
0
 62
4
 10
-8.81977373E+01
 20
2.42448898E+02
  0
VERTEX
  8
0
 62
4
 10
-8.83517940E+01
 20
2.42432914E+02
  0
VERTEX
  8
0
 62
4
 10
-8.84969796E+01
 20
2.42414597E+02
  0
VERTEX
  8
0
 62
4
 10
-8.86321253E+01
 20
2.42394094E+02
  0
VERTEX
  8
0
 62
4
 10
-8.87561429E+01
 20
2.42371570E+02
  0
VERTEX
  8
0
 62
4
 10
-8.88680340E+01
 20
2.42347206E+02
  0
VERTEX
  8
0
 62
4
 10
-8.89668976E+01
 20
2.42321198E+02
  0
VERTEX
  8
0
 62
4
 10
-8.90519377E+01
 20
2.42293756E+02
  0
VERTEX
  8
0
 62
4
 10
-8.91224697E+01
 20
2.42265101E+02
  0
VERTEX
  8
0
 62
4
 10
-8.91779257E+01
 20
2.42235464E+02
  0
VERTEX
  8
0
 62
4
 10
-8.92178592E+01
 20
2.42205082E+02
  0
VERTEX
  8
0
 62
4
 10
-8.92419486E+01
 20
2.42174201E+02
  0
VERTEX
  8
0
 62
4
 10
-8.92500000E+01
 20
2.42143070E+02
  0
SEQEND
  8
0
  0
LINE
  8
0
 62
6
 10
-9.67500000E+01
 20
2.42372785E+02
 11
-9.67500000E+01
 21
2.40021748E+02
  0
LINE
  8
0
 62
6
 10
-9.37500000E+01
 20
2.42372785E+02
 11
-9.37500000E+01
 21
2.40021748E+02
  0
LINE
  8
0
 62
4
 10
-9.72500000E+01
 20
2.42143070E+02
 11
-9.72500000E+01
 21
2.40021748E+02
  0
LINE
  8
0
 62
4
 10
-9.32500000E+01
 20
2.42143070E+02
 11
-9.32500000E+01
 21
2.40021748E+02
  0
POLYLINE
  8
0
 62
4
 66
1
  0
VERTEX
  8
0
 62
4
 10
-9.32500000E+01
 20
2.42143070E+02
  0
VERTEX
  8
0
 62
4
 10
-9.32580514E+01
 20
2.42174201E+02
  0
VERTEX
  8
0
 62
4
 10
-9.32821408E+01
 20
2.42205082E+02
  0
VERTEX
  8
0
 62
4
 10
-9.33220743E+01
 20
2.42235464E+02
  0
VERTEX
  8
0
 62
4
 10
-9.33775303E+01
 20
2.42265101E+02
  0
VERTEX
  8
0
 62
4
 10
-9.34480623E+01
 20
2.42293756E+02
  0
VERTEX
  8
0
 62
4
 10
-9.35331024E+01
 20
2.42321198E+02
  0
VERTEX
  8
0
 62
4
 10
-9.36319660E+01
 20
2.42347206E+02
  0
VERTEX
  8
0
 62
4
 10
-9.37438571E+01
 20
2.42371570E+02
  0
VERTEX
  8
0
 62
4
 10
-9.38678747E+01
 20
2.42394094E+02
  0
VERTEX
  8
0
 62
4
 10
-9.40030204E+01
 20
2.42414597E+02
  0
VERTEX
  8
0
 62
4
 10
-9.41482060E+01
 20
2.42432914E+02
  0
VERTEX
  8
0
 62
4
 10
-9.43022627E+01
 20
2.42448898E+02
  0
VERTEX
  8
0
 62
4
 10
-9.44639499E+01
 20
2.42462419E+02
  0
VERTEX
  8
0
 62
4
 10
-9.46319660E+01
 20
2.42473368E+02
  0
VERTEX
  8
0
 62
4
 10
-9.48049581E+01
 20
2.42481659E+02
  0
VERTEX
  8
0
 62
4
 10
-9.49815335E+01
 20
2.42487223E+02
  0
VERTEX
  8
0
 62
4
 10
-9.51602703E+01
 20
2.42490017E+02
  0
VERTEX
  8
0
 62
4
 10
-9.53397296E+01
 20
2.42490017E+02
  0
VERTEX
  8
0
 62
4
 10
-9.55184665E+01
 20
2.42487223E+02
  0
VERTEX
  8
0
 62
4
 10
-9.56950419E+01
 20
2.42481659E+02
  0
VERTEX
  8
0
 62
4
 10
-9.58680340E+01
 20
2.42473368E+02
  0
VERTEX
  8
0
 62
4
 10
-9.60360501E+01
 20
2.42462419E+02
  0
VERTEX
  8
0
 62
4
 10
-9.61977373E+01
 20
2.42448898E+02
  0
VERTEX
  8
0
 62
4
 10
-9.63517940E+01
 20
2.42432914E+02
  0
VERTEX
  8
0
 62
4
 10
-9.64969796E+01
 20
2.42414597E+02
  0
VERTEX
  8
0
 62
4
 10
-9.66321253E+01
 20
2.42394094E+02
  0
VERTEX
  8
0
 62
4
 10
-9.67561429E+01
 20
2.42371570E+02
  0
VERTEX
  8
0
 62
4
 10
-9.68680340E+01
 20
2.42347206E+02
  0
VERTEX
  8
0
 62
4
 10
-9.69668976E+01
 20
2.42321198E+02
  0
VERTEX
  8
0
 62
4
 10
-9.70519377E+01
 20
2.42293756E+02
  0
VERTEX
  8
0
 62
4
 10
-9.71224697E+01
 20
2.42265101E+02
  0
VERTEX
  8
0
 62
4
 10
-9.71779257E+01
 20
2.42235464E+02
  0
VERTEX
  8
0
 62
4
 10
-9.72178592E+01
 20
2.42205082E+02
  0
VERTEX
  8
0
 62
4
 10
-9.72419486E+01
 20
2.42174201E+02
  0
VERTEX
  8
0
 62
4
 10
-9.72500000E+01
 20
2.42143070E+02
  0
SEQEND
  8
0
  0
LINE
  8
0
 62
4
 10
-1.13750000E+02
 20
2.19019736E+02
 11
-1.15250000E+02
 21
2.18016803E+02
  0
LINE
  8
0
 62
4
 10
-1.15250000E+02
 20
2.18016803E+02
 11
-1.15250000E+02
 21
2.15392901E+02
  0
LINE
  8
0
 62
4
 10
-1.15250000E+02
 20
2.15786214E+02
 11
-1.13750000E+02
 21
2.15080505E+02
  0
LINE
  8
0
 62
4
 10
-1.15250000E+02
 20
2.15392901E+02
 11
-1.13750000E+02
 21
2.14385912E+02
  0
LINE
  8
0
 62
4
 10
-1.13750000E+02
 20
2.14385912E+02
 11
-1.02900000E+02
 21
2.14385912E+02
  0
LINE
  8
0
 62
4
 10
-1.13750000E+02
 20
2.15080505E+02
 11
-1.02900000E+02
 21
2.15080505E+02
  0
LINE
  8
0
 62
4
 10
-1.13750000E+02
 20
2.15364291E+02
 11
-1.13750000E+02
 21
2.14391861E+02
  0
POLYLINE
  8
0
 62
4
 66
1
  0
VERTEX
  8
0
 62
4
 10
-9.50500000E+01
 20
2.15733190E+02
  0
VERTEX
  8
0
 62
4
 10
-9.52318150E+01
 20
2.15789037E+02
  0
VERTEX
  8
0
 62
4
 10
-9.54415122E+01
 20
2.15841856E+02
  0
VERTEX
  8
0
 62
4
 10
-9.56774299E+01
 20
2.15891226E+02
  0
VERTEX
  8
0
 62
4
 10
-9.59376982E+01
 20
2.15936758E+02
  0
VERTEX
  8
0
 62
4
 10
-9.62202545E+01
 20
2.15978089E+02
  0
VERTEX
  8
0
 62
4
 10
-9.65228596E+01
 20
2.16014894E+02
  0
VERTEX
  8
0
 62
4
 10
-9.68431151E+01
 20
2.16046879E+02
  0
VERTEX
  8
0
 62
4
 10
-9.71784831E+01
 20
2.16073792E+02
  0
VERTEX
  8
0
 62
4
 10
-9.75263056E+01
 20
2.16095418E+02
  0
VERTEX
  8
0
 62
4
 10
-9.78838262E+01
 20
2.16111588E+02
  0
VERTEX
  8
0
 62
4
 10
-9.82482113E+01
 20
2.16122172E+02
  0
VERTEX
  8
0
 62
4
 10
-9.86165732E+01
 20
2.16127086E+02
  0
VERTEX
  8
0
 62
4
 10
-9.89859925E+01
 20
2.16126293E+02
  0
VERTEX
  8
0
 62
4
 10
-9.93535416E+01
 20
2.16119797E+02
  0
VERTEX
  8
0
 62
4
 10
-9.97163074E+01
 20
2.16107651E+02
  0
VERTEX
  8
0
 62
4
 10
-1.00071415E+02
 20
2.16089951E+02
  0
VERTEX
  8
0
 62
4
 10
-1.00416050E+02
 20
2.16066837E+02
  0
VERTEX
  8
0
 62
4
 10
-1.00747482E+02
 20
2.16038492E+02
  0
VERTEX
  8
0
 62
4
 10
-1.01063083E+02
 20
2.16005141E+02
  0
VERTEX
  8
0
 62
4
 10
-1.01360352E+02
 20
2.15967048E+02
  0
VERTEX
  8
0
 62
4
 10
-1.01636934E+02
 20
2.15924515E+02
  0
VERTEX
  8
0
 62
4
 10
-1.01890637E+02
 20
2.15877880E+02
  0
VERTEX
  8
0
 62
4
 10
-1.02119449E+02
 20
2.15827511E+02
  0
VERTEX
  8
0
 62
4
 10
-1.02321558E+02
 20
2.15773808E+02
  0
VERTEX
  8
0
 62
4
 10
-1.02495361E+02
 20
2.15717196E+02
  0
VERTEX
  8
0
 62
4
 10
-1.02639482E+02
 20
2.15658125E+02
  0
VERTEX
  8
0
 62
4
 10
-1.02752778E+02
 20
2.15597062E+02
  0
VERTEX
  8
0
 62
4
 10
-1.02834351E+02
 20
2.15534492E+02
  0
VERTEX
  8
0
 62
4
 10
-1.02883555E+02
 20
2.15470909E+02
  0
VERTEX
  8
0
 62
4
 10
-1.02900000E+02
 20
2.15406819E+02
  0
SEQEND
  8
0
  0
ARC
  8
0
 62
4
 10
-9.87422617E+01
 20
2.24563926E+02
 40
1.18100000E+01
 50
2.69962458E+02
 51
2.89675999E+02
  0
ARC
  8
0
 62
4
 10
-9.87577383E+01
 20
2.24563926E+02
 40
1.18100000E+01
 50
2.50324001E+02
 51
2.70037542E+02
  0
LINE
  8
0
 62
4
 10
-1.02900000E+02
 20
2.13678895E+02
 11
-1.02900000E+02
 21
2.15406819E+02
  0
LINE
  8
0
 62
4
 10
-9.46000000E+01
 20
2.13678895E+02
 11
-9.46000000E+01
 21
2.13818004E+02
  0
LINE
  8
0
 62
4
 10
-1.02750000E+02
 20
2.15781046E+02
 11
-1.02750000E+02
 21
2.15598816E+02
  0
POLYLINE
  8
0
 62
4
 66
1
  0
VERTEX
  8
0
 62
4
 10
-9.50500000E+01
 20
2.16044968E+02
  0
VERTEX
  8
0
 62
4
 10
-9.51993080E+01
 20
2.16100888E+02
  0
VERTEX
  8
0
 62
4
 10
-9.53765767E+01
 20
2.16154289E+02
  0
VERTEX
  8
0
 62
4
 10
-9.55804101E+01
 20
2.16204751E+02
  0
VERTEX
  8
0
 62
4
 10
-9.58092032E+01
 20
2.16251876E+02
  0
VERTEX
  8
0
 62
4
 10
-9.60611542E+01
 20
2.16295294E+02
  0
VERTEX
  8
0
 62
4
 10
-9.63342792E+01
 20
2.16334662E+02
  0
VERTEX
  8
0
 62
4
 10
-9.66264273E+01
 20
2.16369671E+02
  0
VERTEX
  8
0
 62
4
 10
-9.69352979E+01
 20
2.16400044E+02
  0
VERTEX
  8
0
 62
4
 10
-9.72584588E+01
 20
2.16425543E+02
  0
VERTEX
  8
0
 62
4
 10
-9.75933652E+01
 20
2.16445967E+02
  0
VERTEX
  8
0
 62
4
 10
-9.79373798E+01
 20
2.16461154E+02
  0
VERTEX
  8
0
 62
4
 10
-9.82877935E+01
 20
2.16470986E+02
  0
VERTEX
  8
0
 62
4
 10
-9.86418469E+01
 20
2.16475385E+02
  0
VERTEX
  8
0
 62
4
 10
-9.89967521E+01
 20
2.16474316E+02
  0
VERTEX
  8
0
 62
4
 10
-9.93497141E+01
 20
2.16467788E+02
  0
VERTEX
  8
0
 62
4
 10
-9.96979536E+01
 20
2.16455852E+02
  0
VERTEX
  8
0
 62
4
 10
-1.00038728E+02
 20
2.16438601E+02
  0
VERTEX
  8
0
 62
4
 10
-1.00369354E+02
 20
2.16416173E+02
  0
VERTEX
  8
0
 62
4
 10
-1.00687229E+02
 20
2.16388744E+02
  0
VERTEX
  8
0
 62
4
 10
-1.00989848E+02
 20
2.16356529E+02
  0
VERTEX
  8
0
 62
4
 10
-1.01274829E+02
 20
2.16319782E+02
  0
VERTEX
  8
0
 62
4
 10
-1.01539927E+02
 20
2.16278793E+02
  0
VERTEX
  8
0
 62
4
 10
-1.01783056E+02
 20
2.16233884E+02
  0
VERTEX
  8
0
 62
4
 10
-1.02002300E+02
 20
2.16185409E+02
  0
VERTEX
  8
0
 62
4
 10
-1.02195933E+02
 20
2.16133750E+02
  0
VERTEX
  8
0
 62
4
 10
-1.02362431E+02
 20
2.16079314E+02
  0
VERTEX
  8
0
 62
4
 10
-1.02500482E+02
 20
2.16022529E+02
  0
VERTEX
  8
0
 62
4
 10
-1.02608998E+02
 20
2.15963842E+02
  0
VERTEX
  8
0
 62
4
 10
-1.02687126E+02
 20
2.15903716E+02
  0
VERTEX
  8
0
 62
4
 10
-1.02734251E+02
 20
2.15842623E+02
  0
VERTEX
  8
0
 62
4
 10
-1.02750000E+02
 20
2.15781046E+02
  0
SEQEND
  8
0
  0
ARC
  8
0
 62
4
 10
-1.00868606E+02
 20
2.25265135E+02
 40
1.25124521E+01
 50
2.74941635E+02
 51
2.88095416E+02
  0
ARC
  8
0
 62
4
 10
-9.66313942E+01
 20
2.25265138E+02
 40
1.25124547E+01
 50
2.51904586E+02
 51
2.65058365E+02
  0
POLYLINE
  8
0
 62
4
 66
1
  0
VERTEX
  8
0
 62
4
 10
-9.46000000E+01
 20
2.13673558E+02
  0
VERTEX
  8
0
 62
4
 10
-9.46167067E+01
 20
2.13738156E+02
  0
VERTEX
  8
0
 62
4
 10
-9.46666922E+01
 20
2.13802233E+02
  0
VERTEX
  8
0
 62
4
 10
-9.47495541E+01
 20
2.13865275E+02
  0
VERTEX
  8
0
 62
4
 10
-9.48646253E+01
 20
2.13926773E+02
  0
VERTEX
  8
0
 62
4
 10
-9.50109792E+01
 20
2.13986232E+02
  0
VERTEX
  8
0
 62
4
 10
-9.51874375E+01
 20
2.14043174E+02
  0
VERTEX
  8
0
 62
4
 10
-9.53925795E+01
 20
2.14097140E+02
  0
VERTEX
  8
0
 62
4
 10
-9.56247534E+01
 20
2.14147695E+02
  0
VERTEX
  8
0
 62
4
 10
-9.58820900E+01
 20
2.14194433E+02
  0
VERTEX
  8
0
 62
4
 10
-9.61625173E+01
 20
2.14236977E+02
  0
VERTEX
  8
0
 62
4
 10
-9.64637775E+01
 20
2.14274985E+02
  0
VERTEX
  8
0
 62
4
 10
-9.67834450E+01
 20
2.14308150E+02
  0
VERTEX
  8
0
 62
4
 10
-9.71189461E+01
 20
2.14336206E+02
  0
VERTEX
  8
0
 62
4
 10
-9.74675794E+01
 20
2.14358927E+02
  0
VERTEX
  8
0
 62
4
 10
-9.78265381E+01
 20
2.14376130E+02
  0
VERTEX
  8
0
 62
4
 10
-9.81929319E+01
 20
2.14387676E+02
  0
VERTEX
  8
0
 62
4
 10
-9.85638109E+01
 20
2.14393472E+02
  0
VERTEX
  8
0
 62
4
 10
-9.89361890E+01
 20
2.14393472E+02
  0
VERTEX
  8
0
 62
4
 10
-9.93070680E+01
 20
2.14387676E+02
  0
VERTEX
  8
0
 62
4
 10
-9.96734619E+01
 20
2.14376130E+02
  0
VERTEX
  8
0
 62
4
 10
-1.00032421E+02
 20
2.14358927E+02
  0
VERTEX
  8
0
 62
4
 10
-1.00381054E+02
 20
2.14336206E+02
  0
VERTEX
  8
0
 62
4
 10
-1.00716555E+02
 20
2.14308150E+02
  0
VERTEX
  8
0
 62
4
 10
-1.01036222E+02
 20
2.14274985E+02
  0
VERTEX
  8
0
 62
4
 10
-1.01337483E+02
 20
2.14236977E+02
  0
VERTEX
  8
0
 62
4
 10
-1.01617910E+02
 20
2.14194433E+02
  0
VERTEX
  8
0
 62
4
 10
-1.01875247E+02
 20
2.14147695E+02
  0
VERTEX
  8
0
 62
4
 10
-1.02107421E+02
 20
2.14097140E+02
  0
VERTEX
  8
0
 62
4
 10
-1.02312562E+02
 20
2.14043174E+02
  0
VERTEX
  8
0
 62
4
 10
-1.02489021E+02
 20
2.13986232E+02
  0
VERTEX
  8
0
 62
4
 10
-1.02635375E+02
 20
2.13926773E+02
  0
VERTEX
  8
0
 62
4
 10
-1.02750446E+02
 20
2.13865275E+02
  0
VERTEX
  8
0
 62
4
 10
-1.02833308E+02
 20
2.13802233E+02
  0
VERTEX
  8
0
 62
4
 10
-1.02883293E+02
 20
2.13738156E+02
  0
VERTEX
  8
0
 62
4
 10
-1.02900000E+02
 20
2.13673558E+02
  0
SEQEND
  8
0
  0
ARC
  8
0
 62
4
 10
-1.02650000E+02
 20
2.13678895E+02
 40
2.50000000E-01
 50
1.80000000E+02
 51
2.50324001E+02
  0
ARC
  8
0
 62
4
 10
-9.48500000E+01
 20
2.13678895E+02
 40
2.50000000E-01
 50
2.89675999E+02
 51
0.00000000E+00
  0
LINE
  8
0
 62
4
 10
-9.50500000E+01
 20
2.15404007E+02
 11
-9.50500000E+01
 21
2.16388815E+02
  0
LINE
  8
0
 62
4
 10
-8.74500000E+01
 20
2.15404007E+02
 11
-8.74500000E+01
 21
2.16388815E+02
  0
POLYLINE
  8
0
 62
4
 66
1
  0
VERTEX
  8
0
 62
4
 10
-8.74500000E+01
 20
2.16388815E+02
  0
VERTEX
  8
0
 62
4
 10
-8.74652977E+01
 20
2.16447965E+02
  0
VERTEX
  8
0
 62
4
 10
-8.75110676E+01
 20
2.16506638E+02
  0
VERTEX
  8
0
 62
4
 10
-8.75869411E+01
 20
2.16564363E+02
  0
VERTEX
  8
0
 62
4
 10
-8.76923075E+01
 20
2.16620674E+02
  0
VERTEX
  8
0
 62
4
 10
-8.78263183E+01
 20
2.16675119E+02
  0
VERTEX
  8
0
 62
4
 10
-8.79878946E+01
 20
2.16727258E+02
  0
VERTEX
  8
0
 62
4
 10
-8.81757354E+01
 20
2.16776673E+02
  0
VERTEX
  8
0
 62
4
 10
-8.83883284E+01
 20
2.16822964E+02
  0
VERTEX
  8
0
 62
4
 10
-8.86239619E+01
 20
2.16865761E+02
  0
VERTEX
  8
0
 62
4
 10
-8.88807387E+01
 20
2.16904717E+02
  0
VERTEX
  8
0
 62
4
 10
-8.91565915E+01
 20
2.16939519E+02
  0
VERTEX
  8
0
 62
4
 10
-8.94492991E+01
 20
2.16969887E+02
  0
VERTEX
  8
0
 62
4
 10
-8.97565049E+01
 20
2.16995577E+02
  0
VERTEX
  8
0
 62
4
 10
-9.00757354E+01
 20
2.17016382E+02
  0
VERTEX
  8
0
 62
4
 10
-9.04044204E+01
 20
2.17032134E+02
  0
VERTEX
  8
0
 62
4
 10
-9.07399136E+01
 20
2.17042706E+02
  0
VERTEX
  8
0
 62
4
 10
-9.10795136E+01
 20
2.17048014E+02
  0
VERTEX
  8
0
 62
4
 10
-9.14204863E+01
 20
2.17048014E+02
  0
VERTEX
  8
0
 62
4
 10
-9.17600864E+01
 20
2.17042706E+02
  0
VERTEX
  8
0
 62
4
 10
-9.20955795E+01
 20
2.17032134E+02
  0
VERTEX
  8
0
 62
4
 10
-9.24242646E+01
 20
2.17016382E+02
  0
VERTEX
  8
0
 62
4
 10
-9.27434951E+01
 20
2.16995577E+02
  0
VERTEX
  8
0
 62
4
 10
-9.30507009E+01
 20
2.16969887E+02
  0
VERTEX
  8
0
 62
4
 10
-9.33434085E+01
 20
2.16939519E+02
  0
VERTEX
  8
0
 62
4
 10
-9.36192612E+01
 20
2.16904717E+02
  0
VERTEX
  8
0
 62
4
 10
-9.38760380E+01
 20
2.16865761E+02
  0
VERTEX
  8
0
 62
4
 10
-9.41116716E+01
 20
2.16822964E+02
  0
VERTEX
  8
0
 62
4
 10
-9.43242646E+01
 20
2.16776673E+02
  0
VERTEX
  8
0
 62
4
 10
-9.45121054E+01
 20
2.16727258E+02
  0
VERTEX
  8
0
 62
4
 10
-9.46736817E+01
 20
2.16675119E+02
  0
VERTEX
  8
0
 62
4
 10
-9.48076925E+01
 20
2.16620674E+02
  0
VERTEX
  8
0
 62
4
 10
-9.49130589E+01
 20
2.16564363E+02
  0
VERTEX
  8
0
 62
4
 10
-9.49889324E+01
 20
2.16506638E+02
  0
VERTEX
  8
0
 62
4
 10
-9.50347023E+01
 20
2.16447965E+02
  0
VERTEX
  8
0
 62
4
 10
-9.50500000E+01
 20
2.16388815E+02
  0
SEQEND
  8
0
  0
POLYLINE
  8
0
 62
4
 66
1
  0
VERTEX
  8
0
 62
4
 10
-8.78500000E+01
 20
2.15109316E+02
  0
VERTEX
  8
0
 62
4
 10
-8.77134183E+01
 20
2.15162605E+02
  0
VERTEX
  8
0
 62
4
 10
-8.76044705E+01
 20
2.15217781E+02
  0
VERTEX
  8
0
 62
4
 10
-8.75240077E+01
 20
2.15274411E+02
  0
VERTEX
  8
0
 62
4
 10
-8.74726587E+01
 20
2.15332054E+02
  0
VERTEX
  8
0
 62
4
 10
-8.74508247E+01
 20
2.15390260E+02
  0
VERTEX
  8
0
 62
4
 10
-8.74586764E+01
 20
2.15448573E+02
  0
VERTEX
  8
0
 62
4
 10
-8.74961524E+01
 20
2.15506537E+02
  0
VERTEX
  8
0
 62
4
 10
-8.75629598E+01
 20
2.15563700E+02
  0
VERTEX
  8
0
 62
4
 10
-8.76585766E+01
 20
2.15619616E+02
  0
VERTEX
  8
0
 62
4
 10
-8.77822558E+01
 20
2.15673847E+02
  0
VERTEX
  8
0
 62
4
 10
-8.79330309E+01
 20
2.15725969E+02
  0
VERTEX
  8
0
 62
4
 10
-8.81097238E+01
 20
2.15775576E+02
  0
VERTEX
  8
0
 62
4
 10
-8.83109538E+01
 20
2.15822280E+02
  0
VERTEX
  8
0
 62
4
 10
-8.85351488E+01
 20
2.15865715E+02
  0
VERTEX
  8
0
 62
4
 10
-8.87805567E+01
 20
2.15905542E+02
  0
VERTEX
  8
0
 62
4
 10
-8.90452602E+01
 20
2.15941451E+02
  0
VERTEX
  8
0
 62
4
 10
-8.93271908E+01
 20
2.15973160E+02
  0
VERTEX
  8
0
 62
4
 10
-8.96241457E+01
 20
2.16000422E+02
  0
VERTEX
  8
0
 62
4
 10
-8.99338046E+01
 20
2.16023024E+02
  0
VERTEX
  8
0
 62
4
 10
-9.02537478E+01
 20
2.16040789E+02
  0
VERTEX
  8
0
 62
4
 10
-9.05814754E+01
 20
2.16053578E+02
  0
VERTEX
  8
0
 62
4
 10
-9.09144267E+01
 20
2.16061292E+02
  0
VERTEX
  8
0
 62
4
 10
-9.12500000E+01
 20
2.16063870E+02
  0
VERTEX
  8
0
 62
4
 10
-9.15855734E+01
 20
2.16061292E+02
  0
VERTEX
  8
0
 62
4
 10
-9.19185246E+01
 20
2.16053578E+02
  0
VERTEX
  8
0
 62
4
 10
-9.22462523E+01
 20
2.16040789E+02
  0
VERTEX
  8
0
 62
4
 10
-9.25661955E+01
 20
2.16023024E+02
  0
VERTEX
  8
0
 62
4
 10
-9.28758543E+01
 20
2.16000422E+02
  0
VERTEX
  8
0
 62
4
 10
-9.31728092E+01
 20
2.15973160E+02
  0
VERTEX
  8
0
 62
4
 10
-9.34547399E+01
 20
2.15941451E+02
  0
VERTEX
  8
0
 62
4
 10
-9.37194433E+01
 20
2.15905542E+02
  0
VERTEX
  8
0
 62
4
 10
-9.39648513E+01
 20
2.15865715E+02
  0
VERTEX
  8
0
 62
4
 10
-9.41890462E+01
 20
2.15822280E+02
  0
VERTEX
  8
0
 62
4
 10
-9.43902763E+01
 20
2.15775576E+02
  0
VERTEX
  8
0
 62
4
 10
-9.45669692E+01
 20
2.15725969E+02
  0
VERTEX
  8
0
 62
4
 10
-9.47177442E+01
 20
2.15673847E+02
  0
VERTEX
  8
0
 62
4
 10
-9.48414234E+01
 20
2.15619616E+02
  0
VERTEX
  8
0
 62
4
 10
-9.49370402E+01
 20
2.15563701E+02
  0
VERTEX
  8
0
 62
4
 10
-9.50038476E+01
 20
2.15506537E+02
  0
VERTEX
  8
0
 62
4
 10
-9.50413236E+01
 20
2.15448573E+02
  0
VERTEX
  8
0
 62
4
 10
-9.50491753E+01
 20
2.15390260E+02
  0
VERTEX
  8
0
 62
4
 10
-9.50273413E+01
 20
2.15332054E+02
  0
VERTEX
  8
0
 62
4
 10
-9.49759923E+01
 20
2.15274411E+02
  0
VERTEX
  8
0
 62
4
 10
-9.48955295E+01
 20
2.15217781E+02
  0
VERTEX
  8
0
 62
4
 10
-9.47865817E+01
 20
2.15162605E+02
  0
VERTEX
  8
0
 62
4
 10
-9.46500000E+01
 20
2.15109316E+02
  0
SEQEND
  8
0
  0
LINE
  8
0
 62
4
 10
-9.46500000E+01
 20
2.14130255E+02
 11
-9.46500000E+01
 21
2.15404007E+02
  0
LINE
  8
0
 62
4
 10
-8.78500000E+01
 20
2.14130255E+02
 11
-8.78500000E+01
 21
2.15404007E+02
  0
POLYLINE
  8
0
 62
4
 66
1
  0
VERTEX
  8
0
 62
4
 10
-8.78500000E+01
 20
2.15404007E+02
  0
VERTEX
  8
0
 62
4
 10
-8.78636874E+01
 20
2.15456930E+02
  0
VERTEX
  8
0
 62
4
 10
-8.79046394E+01
 20
2.15509428E+02
  0
VERTEX
  8
0
 62
4
 10
-8.79725263E+01
 20
2.15561076E+02
  0
VERTEX
  8
0
 62
4
 10
-8.80668014E+01
 20
2.15611460E+02
  0
VERTEX
  8
0
 62
4
 10
-8.81867058E+01
 20
2.15660174E+02
  0
VERTEX
  8
0
 62
4
 10
-8.83312741E+01
 20
2.15706825E+02
  0
VERTEX
  8
0
 62
4
 10
-8.84993422E+01
 20
2.15751038E+02
  0
VERTEX
  8
0
 62
4
 10
-8.86895570E+01
 20
2.15792457E+02
  0
VERTEX
  8
0
 62
4
 10
-8.89003870E+01
 20
2.15830748E+02
  0
VERTEX
  8
0
 62
4
 10
-8.91301347E+01
 20
2.15865603E+02
  0
VERTEX
  8
0
 62
4
 10
-8.93769502E+01
 20
2.15896742E+02
  0
VERTEX
  8
0
 62
4
 10
-8.96388465E+01
 20
2.15923914E+02
  0
VERTEX
  8
0
 62
4
 10
-8.99137149E+01
 20
2.15946900E+02
  0
VERTEX
  8
0
 62
4
 10
-9.01993422E+01
 20
2.15965514E+02
  0
VERTEX
  8
0
 62
4
 10
-9.04934288E+01
 20
2.15979608E+02
  0
VERTEX
  8
0
 62
4
 10
-9.07936069E+01
 20
2.15989068E+02
  0
VERTEX
  8
0
 62
4
 10
-9.10974596E+01
 20
2.15993816E+02
  0
VERTEX
  8
0
 62
4
 10
-9.14025404E+01
 20
2.15993816E+02
  0
VERTEX
  8
0
 62
4
 10
-9.17063931E+01
 20
2.15989068E+02
  0
VERTEX
  8
0
 62
4
 10
-9.20065712E+01
 20
2.15979608E+02
  0
VERTEX
  8
0
 62
4
 10
-9.23006578E+01
 20
2.15965514E+02
  0
VERTEX
  8
0
 62
4
 10
-9.25862851E+01
 20
2.15946900E+02
  0
VERTEX
  8
0
 62
4
 10
-9.28611534E+01
 20
2.15923914E+02
  0
VERTEX
  8
0
 62
4
 10
-9.31230497E+01
 20
2.15896742E+02
  0
VERTEX
  8
0
 62
4
 10
-9.33698653E+01
 20
2.15865603E+02
  0
VERTEX
  8
0
 62
4
 10
-9.35996130E+01
 20
2.15830748E+02
  0
VERTEX
  8
0
 62
4
 10
-9.38104430E+01
 20
2.15792457E+02
  0
VERTEX
  8
0
 62
4
 10
-9.40006578E+01
 20
2.15751038E+02
  0
VERTEX
  8
0
 62
4
 10
-9.41687259E+01
 20
2.15706825E+02
  0
VERTEX
  8
0
 62
4
 10
-9.43132941E+01
 20
2.15660174E+02
  0
VERTEX
  8
0
 62
4
 10
-9.44331986E+01
 20
2.15611460E+02
  0
VERTEX
  8
0
 62
4
 10
-9.45274737E+01
 20
2.15561076E+02
  0
VERTEX
  8
0
 62
4
 10
-9.45953606E+01
 20
2.15509428E+02
  0
VERTEX
  8
0
 62
4
 10
-9.46363126E+01
 20
2.15456930E+02
  0
VERTEX
  8
0
 62
4
 10
-9.46500000E+01
 20
2.15404007E+02
  0
SEQEND
  8
0
  0
ARC
  8
0
 62
4
 10
-9.12500000E+01
 20
2.24670468E+02
 40
1.18100000E+01
 50
2.57172490E+02
 51
2.82827510E+02
  0
ARC
  8
0
 62
4
 10
-8.88499997E+01
 20
2.14130255E+02
 40
1.00000000E+00
 50
2.82827510E+02
 51
5.08888749E-14
  0
ARC
  8
0
 62
4
 10
-9.36500003E+01
 20
2.14130255E+02
 40
1.00000000E+00
 50
1.80000000E+02
 51
2.57172490E+02
  0
ARC
  8
0
 62
4
 10
-9.33717535E+01
 20
2.25389611E+02
 40
1.25306621E+01
 50
2.74968660E+02
 51
2.88083352E+02
  0
ARC
  8
0
 62
4
 10
-8.91282464E+01
 20
2.25389612E+02
 40
1.25306626E+01
 50
2.51916648E+02
 51
2.65031340E+02
  0
LINE
  8
0
  6
CENTER
 62
6
 10
-1.01250000E+02
 20
2.15781046E+02
 11
-9.62500000E+01
 21
2.15781046E+02
  0
LINE
  8
0
  6
CENTER
 62
6
 10
-9.12500000E+01
 20
2.18888815E+02
 11
-9.12500000E+01
 21
2.13888815E+02
  0
LINE
  8
0
  6
CENTER
 62
6
 10
-9.37500000E+01
 20
2.16388815E+02
 11
-8.87500000E+01
 21
2.16388815E+02
  0
LINE
  8
0
  6
CENTER
 62
6
 10
-1.06250000E+02
 20
2.18888815E+02
 11
-1.06250000E+02
 21
2.13888815E+02
  0
LINE
  8
0
  6
CENTER
 62
6
 10
-1.08750000E+02
 20
2.16388815E+02
 11
-1.03750000E+02
 21
2.16388815E+02
  0
LINE
  8
0
 62
4
 10
-8.74568894E+01
 20
2.15364291E+02
 11
-8.37500000E+01
 21
2.15364291E+02
  0
LINE
  8
0
 62
7
 10
-9.87500000E+01
 20
2.34519459E+02
 11
-1.24250000E+02
 21
2.34519459E+02
  0
LINE
  8
0
 62
7
 10
-9.87500000E+01
 20
2.35369434E+02
 11
-1.24250000E+02
 21
2.35369434E+02
  0
LINE
  8
0
 62
7
 10
-9.87500000E+01
 20
2.29219471E+02
 11
-1.24250000E+02
 21
2.29219471E+02
  0
LINE
  8
0
 62
7
 10
-5.47500000E+01
 20
1.87519474E+02
 11
-1.24250000E+02
 21
1.87519474E+02
  0
LINE
  8
0
 62
7
 10
-5.47500000E+01
 20
1.81369495E+02
 11
-1.24250000E+02
 21
1.81369495E+02
  0
LINE
  8
0
 62
7
 10
-5.47500000E+01
 20
1.82219486E+02
 11
-1.24250000E+02
 21
1.82219486E+02
  0
POLYLINE
  8
0
 62
4
 66
1
  0
VERTEX
  8
0
 62
4
 10
-1.12146585E+02
 20
-2.02882099E+02
  0
VERTEX
  8
0
 62
4
 10
-1.12146944E+02
 20
-2.03174429E+02
  0
VERTEX
  8
0
 62
4
 10
-1.12121410E+02
 20
-2.03465676E+02
  0
VERTEX
  8
0
 62
4
 10
-1.12070178E+02
 20
-2.03753619E+02
  0
VERTEX
  8
0
 62
4
 10
-1.11993639E+02
 20
-2.04036064E+02
  0
VERTEX
  8
0
 62
4
 10
-1.11892376E+02
 20
-2.04310859E+02
  0
VERTEX
  8
0
 62
4
 10
-1.11767161E+02
 20
-2.04575907E+02
  0
VERTEX
  8
0
 62
4
 10
-1.11618949E+02
 20
-2.04829190E+02
  0
VERTEX
  8
0
 62
4
 10
-1.11448868E+02
 20
-2.05068777E+02
  0
VERTEX
  8
0
 62
4
 10
-1.11258216E+02
 20
-2.05292841E+02
  0
VERTEX
  8
0
 62
4
 10
-1.11048445E+02
 20
-2.05499674E+02
  0
VERTEX
  8
0
 62
4
 10
-1.10821155E+02
 20
-2.05687701E+02
  0
VERTEX
  8
0
 62
4
 10
-1.10578078E+02
 20
-2.05855487E+02
  0
VERTEX
  8
0
 62
4
 10
-1.10321067E+02
 20
-2.06001754E+02
  0
VERTEX
  8
0
 62
4
 10
-1.10052081E+02
 20
-2.06125387E+02
  0
VERTEX
  8
0
 62
4
 10
-1.09773170E+02
 20
-2.06225444E+02
  0
VERTEX
  8
0
 62
4
 10
-1.09486461E+02
 20
-2.06301161E+02
  0
VERTEX
  8
0
 62
4
 10
-1.09194138E+02
 20
-2.06351963E+02
  0
VERTEX
  8
0
 62
4
 10
-1.08898429E+02
 20
-2.06377461E+02
  0
VERTEX
  8
0
 62
4
 10
-1.08601589E+02
 20
-2.06377461E+02
  0
VERTEX
  8
0
 62
4
 10
-1.08305881E+02
 20
-2.06351963E+02
  0
VERTEX
  8
0
 62
4
 10
-1.08013558E+02
 20
-2.06301162E+02
  0
VERTEX
  8
0
 62
4
 10
-1.07726848E+02
 20
-2.06225444E+02
  0
VERTEX
  8
0
 62
4
 10
-1.07447937E+02
 20
-2.06125388E+02
  0
VERTEX
  8
0
 62
4
 10
-1.07178951E+02
 20
-2.06001755E+02
  0
VERTEX
  8
0
 62
4
 10
-1.06921940E+02
 20
-2.05855488E+02
  0
VERTEX
  8
0
 62
4
 10
-1.06678863E+02
 20
-2.05687702E+02
  0
VERTEX
  8
0
 62
4
 10
-1.06451573E+02
 20
-2.05499676E+02
  0
VERTEX
  8
0
 62
4
 10
-1.06241802E+02
 20
-2.05292843E+02
  0
VERTEX
  8
0
 62
4
 10
-1.06051150E+02
 20
-2.05068779E+02
  0
VERTEX
  8
0
 62
4
 10
-1.05881069E+02
 20
-2.04829192E+02
  0
VERTEX
  8
0
 62
4
 10
-1.05732856E+02
 20
-2.04575909E+02
  0
VERTEX
  8
0
 62
4
 10
-1.05607641E+02
 20
-2.04310861E+02
  0
VERTEX
  8
0
 62
4
 10
-1.05506377E+02
 20
-2.04036066E+02
  0
VERTEX
  8
0
 62
4
 10
-1.05429838E+02
 20
-2.03753621E+02
  0
VERTEX
  8
0
 62
4
 10
-1.05378606E+02
 20
-2.03465678E+02
  0
VERTEX
  8
0
 62
4
 10
-1.05353072E+02
 20
-2.03174431E+02
  0
VERTEX
  8
0
 62
4
 10
-1.05353431E+02
 20
-2.02882102E+02
  0
SEQEND
  8
0
  0
POLYLINE
  8
0
 62
4
 66
1
  0
VERTEX
  8
0
 62
4
 10
-1.12750008E+02
 20
-2.03032214E+02
  0
VERTEX
  8
0
 62
4
 10
-1.12734795E+02
 20
-2.03375541E+02
  0
VERTEX
  8
0
 62
4
 10
-1.12689255E+02
 20
-2.03716256E+02
  0
VERTEX
  8
0
 62
4
 10
-1.12613735E+02
 20
-2.04051765E+02
  0
VERTEX
  8
0
 62
4
 10
-1.12508809E+02
 20
-2.04379516E+02
  0
VERTEX
  8
0
 62
4
 10
-1.12375277E+02
 20
-2.04697014E+02
  0
VERTEX
  8
0
 62
4
 10
-1.12214155E+02
 20
-2.05001842E+02
  0
VERTEX
  8
0
 62
4
 10
-1.12026668E+02
 20
-2.05291681E+02
  0
VERTEX
  8
0
 62
4
 10
-1.11814244E+02
 20
-2.05564324E+02
  0
VERTEX
  8
0
 62
4
 10
-1.11578499E+02
 20
-2.05817698E+02
  0
VERTEX
  8
0
 62
4
 10
-1.11321228E+02
 20
-2.06049873E+02
  0
VERTEX
  8
0
 62
4
 10
-1.11044388E+02
 20
-2.06259082E+02
  0
VERTEX
  8
0
 62
4
 10
-1.10750086E+02
 20
-2.06443734E+02
  0
VERTEX
  8
0
 62
4
 10
-1.10440563E+02
 20
-2.06602423E+02
  0
VERTEX
  8
0
 62
4
 10
-1.10118174E+02
 20
-2.06733941E+02
  0
VERTEX
  8
0
 62
4
 10
-1.09785372E+02
 20
-2.06837287E+02
  0
VERTEX
  8
0
 62
4
 10
-1.09444690E+02
 20
-2.06911675E+02
  0
VERTEX
  8
0
 62
4
 10
-1.09098721E+02
 20
-2.06956539E+02
  0
VERTEX
  8
0
 62
4
 10
-1.08750098E+02
 20
-2.06971537E+02
  0
VERTEX
  8
0
 62
4
 10
-1.08401475E+02
 20
-2.06956555E+02
  0
VERTEX
  8
0
 62
4
 10
-1.08055504E+02
 20
-2.06911707E+02
  0
VERTEX
  8
0
 62
4
 10
-1.07714819E+02
 20
-2.06837335E+02
  0
VERTEX
  8
0
 62
4
 10
-1.07382012E+02
 20
-2.06734004E+02
  0
VERTEX
  8
0
 62
4
 10
-1.07059617E+02
 20
-2.06602501E+02
  0
VERTEX
  8
0
 62
4
 10
-1.06750086E+02
 20
-2.06443826E+02
  0
VERTEX
  8
0
 62
4
 10
-1.06455776E+02
 20
-2.06259188E+02
  0
VERTEX
  8
0
 62
4
 10
-1.06178927E+02
 20
-2.06049991E+02
  0
VERTEX
  8
0
 62
4
 10
-1.05921645E+02
 20
-2.05817828E+02
  0
VERTEX
  8
0
 62
4
 10
-1.05685888E+02
 20
-2.05564465E+02
  0
VERTEX
  8
0
 62
4
 10
-1.05473452E+02
 20
-2.05291831E+02
  0
VERTEX
  8
0
 62
4
 10
-1.05285952E+02
 20
-2.05002001E+02
  0
VERTEX
  8
0
 62
4
 10
-1.05124815E+02
 20
-2.04697180E+02
  0
VERTEX
  8
0
 62
4
 10
-1.04991268E+02
 20
-2.04379689E+02
  0
VERTEX
  8
0
 62
4
 10
-1.04886328E+02
 20
-2.04051943E+02
  0
VERTEX
  8
0
 62
4
 10
-1.04810793E+02
 20
-2.03716437E+02
  0
VERTEX
  8
0
 62
4
 10
-1.04765237E+02
 20
-2.03375724E+02
  0
VERTEX
  8
0
 62
4
 10
-1.04750008E+02
 20
-2.03032398E+02
  0
VERTEX
  8
0
 62
4
 10
-1.04765221E+02
 20
-2.02689071E+02
  0
VERTEX
  8
0
 62
4
 10
-1.04810761E+02
 20
-2.02348356E+02
  0
VERTEX
  8
0
 62
4
 10
-1.04886281E+02
 20
-2.02012847E+02
  0
VERTEX
  8
0
 62
4
 10
-1.04991207E+02
 20
-2.01685096E+02
  0
VERTEX
  8
0
 62
4
 10
-1.05124739E+02
 20
-2.01367598E+02
  0
VERTEX
  8
0
 62
4
 10
-1.05285861E+02
 20
-2.01062770E+02
  0
VERTEX
  8
0
 62
4
 10
-1.05473348E+02
 20
-2.00772931E+02
  0
VERTEX
  8
0
 62
4
 10
-1.05685772E+02
 20
-2.00500288E+02
  0
VERTEX
  8
0
 62
4
 10
-1.05921517E+02
 20
-2.00246914E+02
  0
VERTEX
  8
0
 62
4
 10
-1.06178788E+02
 20
-2.00014739E+02
  0
VERTEX
  8
0
 62
4
 10
-1.06455628E+02
 20
-1.99805530E+02
  0
VERTEX
  8
0
 62
4
 10
-1.06749930E+02
 20
-1.99620878E+02
  0
VERTEX
  8
0
 62
4
 10
-1.07059453E+02
 20
-1.99462189E+02
  0
VERTEX
  8
0
 62
4
 10
-1.07381842E+02
 20
-1.99330671E+02
  0
VERTEX
  8
0
 62
4
 10
-1.07714644E+02
 20
-1.99227325E+02
  0
VERTEX
  8
0
 62
4
 10
-1.08055326E+02
 20
-1.99152937E+02
  0
VERTEX
  8
0
 62
4
 10
-1.08401295E+02
 20
-1.99108073E+02
  0
VERTEX
  8
0
 62
4
 10
-1.08749918E+02
 20
-1.99093075E+02
  0
VERTEX
  8
0
 62
4
 10
-1.09098541E+02
 20
-1.99108057E+02
  0
VERTEX
  8
0
 62
4
 10
-1.09444512E+02
 20
-1.99152905E+02
  0
VERTEX
  8
0
 62
4
 10
-1.09785197E+02
 20
-1.99227277E+02
  0
VERTEX
  8
0
 62
4
 10
-1.10118004E+02
 20
-1.99330608E+02
  0
VERTEX
  8
0
 62
4
 10
-1.10440399E+02
 20
-1.99462111E+02
  0
VERTEX
  8
0
 62
4
 10
-1.10749930E+02
 20
-1.99620786E+02
  0
VERTEX
  8
0
 62
4
 10
-1.11044240E+02
 20
-1.99805424E+02
  0
VERTEX
  8
0
 62
4
 10
-1.11321089E+02
 20
-2.00014621E+02
  0
VERTEX
  8
0
 62
4
 10
-1.11578371E+02
 20
-2.00246784E+02
  0
VERTEX
  8
0
 62
4
 10
-1.11814128E+02
 20
-2.00500147E+02
  0
VERTEX
  8
0
 62
4
 10
-1.12026564E+02
 20
-2.00772781E+02
  0
VERTEX
  8
0
 62
4
 10
-1.12214064E+02
 20
-2.01062611E+02
  0
VERTEX
  8
0
 62
4
 10
-1.12375201E+02
 20
-2.01367432E+02
  0
VERTEX
  8
0
 62
4
 10
-1.12508748E+02
 20
-2.01684923E+02
  0
VERTEX
  8
0
 62
4
 10
-1.12613688E+02
 20
-2.02012669E+02
  0
VERTEX
  8
0
 62
4
 10
-1.12689223E+02
 20
-2.02348175E+02
  0
VERTEX
  8
0
 62
4
 10
-1.12734779E+02
 20
-2.02688888E+02
  0
VERTEX
  8
0
 62
4
 10
-1.12750008E+02
 20
-2.03032214E+02
  0
SEQEND
  8
0
  0
POLYLINE
  8
0
 62
4
 66
1
  0
VERTEX
  8
0
 62
4
 10
-1.12150008E+02
 20
-2.02731817E+02
  0
VERTEX
  8
0
 62
4
 10
-1.12137077E+02
 20
-2.03023645E+02
  0
VERTEX
  8
0
 62
4
 10
-1.12098368E+02
 20
-2.03313252E+02
  0
VERTEX
  8
0
 62
4
 10
-1.12034176E+02
 20
-2.03598435E+02
  0
VERTEX
  8
0
 62
4
 10
-1.11944989E+02
 20
-2.03877024E+02
  0
VERTEX
  8
0
 62
4
 10
-1.11831487E+02
 20
-2.04146897E+02
  0
VERTEX
  8
0
 62
4
 10
-1.11694533E+02
 20
-2.04406001E+02
  0
VERTEX
  8
0
 62
4
 10
-1.11535169E+02
 20
-2.04652364E+02
  0
VERTEX
  8
0
 62
4
 10
-1.11354609E+02
 20
-2.04884111E+02
  0
VERTEX
  8
0
 62
4
 10
-1.11154225E+02
 20
-2.05099478E+02
  0
VERTEX
  8
0
 62
4
 10
-1.10935545E+02
 20
-2.05296827E+02
  0
VERTEX
  8
0
 62
4
 10
-1.10700231E+02
 20
-2.05474655E+02
  0
VERTEX
  8
0
 62
4
 10
-1.10450075E+02
 20
-2.05631609E+02
  0
VERTEX
  8
0
 62
4
 10
-1.10186980E+02
 20
-2.05766494E+02
  0
VERTEX
  8
0
 62
4
 10
-1.09912949E+02
 20
-2.05878285E+02
  0
VERTEX
  8
0
 62
4
 10
-1.09630067E+02
 20
-2.05966129E+02
  0
VERTEX
  8
0
 62
4
 10
-1.09340488E+02
 20
-2.06029359E+02
  0
VERTEX
  8
0
 62
4
 10
-1.09046414E+02
 20
-2.06067493E+02
  0
VERTEX
  8
0
 62
4
 10
-1.08750085E+02
 20
-2.06080241E+02
  0
VERTEX
  8
0
 62
4
 10
-1.08453755E+02
 20
-2.06067507E+02
  0
VERTEX
  8
0
 62
4
 10
-1.08159680E+02
 20
-2.06029386E+02
  0
VERTEX
  8
0
 62
4
 10
-1.07870098E+02
 20
-2.05966169E+02
  0
VERTEX
  8
0
 62
4
 10
-1.07587212E+02
 20
-2.05878338E+02
  0
VERTEX
  8
0
 62
4
 10
-1.07313176E+02
 20
-2.05766560E+02
  0
VERTEX
  8
0
 62
4
 10
-1.07050075E+02
 20
-2.05631687E+02
  0
VERTEX
  8
0
 62
4
 10
-1.06799911E+02
 20
-2.05474745E+02
  0
VERTEX
  8
0
 62
4
 10
-1.06564589E+02
 20
-2.05296927E+02
  0
VERTEX
  8
0
 62
4
 10
-1.06345899E+02
 20
-2.05099589E+02
  0
VERTEX
  8
0
 62
4
 10
-1.06145506E+02
 20
-2.04884230E+02
  0
VERTEX
  8
0
 62
4
 10
-1.05964935E+02
 20
-2.04652492E+02
  0
VERTEX
  8
0
 62
4
 10
-1.05805560E+02
 20
-2.04406136E+02
  0
VERTEX
  8
0
 62
4
 10
-1.05668594E+02
 20
-2.04147038E+02
  0
VERTEX
  8
0
 62
4
 10
-1.05555079E+02
 20
-2.03877170E+02
  0
VERTEX
  8
0
 62
4
 10
-1.05465880E+02
 20
-2.03598586E+02
  0
VERTEX
  8
0
 62
4
 10
-1.05401675E+02
 20
-2.03313406E+02
  0
VERTEX
  8
0
 62
4
 10
-1.05362953E+02
 20
-2.03023800E+02
  0
VERTEX
  8
0
 62
4
 10
-1.05350008E+02
 20
-2.02731973E+02
  0
VERTEX
  8
0
 62
4
 10
-1.05362939E+02
 20
-2.02440145E+02
  0
VERTEX
  8
0
 62
4
 10
-1.05401648E+02
 20
-2.02150538E+02
  0
VERTEX
  8
0
 62
4
 10
-1.05465840E+02
 20
-2.01865355E+02
  0
VERTEX
  8
0
 62
4
 10
-1.05555027E+02
 20
-2.01586766E+02
  0
VERTEX
  8
0
 62
4
 10
-1.05668529E+02
 20
-2.01316893E+02
  0
VERTEX
  8
0
 62
4
 10
-1.05805483E+02
 20
-2.01057789E+02
  0
VERTEX
  8
0
 62
4
 10
-1.05964847E+02
 20
-2.00811426E+02
  0
VERTEX
  8
0
 62
4
 10
-1.06145407E+02
 20
-2.00579679E+02
  0
VERTEX
  8
0
 62
4
 10
-1.06345791E+02
 20
-2.00364312E+02
  0
VERTEX
  8
0
 62
4
 10
-1.06564471E+02
 20
-2.00166963E+02
  0
VERTEX
  8
0
 62
4
 10
-1.06799785E+02
 20
-1.99989135E+02
  0
VERTEX
  8
0
 62
4
 10
-1.07049941E+02
 20
-1.99832181E+02
  0
VERTEX
  8
0
 62
4
 10
-1.07313036E+02
 20
-1.99697296E+02
  0
VERTEX
  8
0
 62
4
 10
-1.07587067E+02
 20
-1.99585505E+02
  0
VERTEX
  8
0
 62
4
 10
-1.07869949E+02
 20
-1.99497661E+02
  0
VERTEX
  8
0
 62
4
 10
-1.08159528E+02
 20
-1.99434431E+02
  0
VERTEX
  8
0
 62
4
 10
-1.08453602E+02
 20
-1.99396297E+02
  0
VERTEX
  8
0
 62
4
 10
-1.08749931E+02
 20
-1.99383549E+02
  0
VERTEX
  8
0
 62
4
 10
-1.09046261E+02
 20
-1.99396283E+02
  0
VERTEX
  8
0
 62
4
 10
-1.09340336E+02
 20
-1.99434404E+02
  0
VERTEX
  8
0
 62
4
 10
-1.09629918E+02
 20
-1.99497621E+02
  0
VERTEX
  8
0
 62
4
 10
-1.09912804E+02
 20
-1.99585452E+02
  0
VERTEX
  8
0
 62
4
 10
-1.10186840E+02
 20
-1.99697230E+02
  0
VERTEX
  8
0
 62
4
 10
-1.10449941E+02
 20
-1.99832103E+02
  0
VERTEX
  8
0
 62
4
 10
-1.10700105E+02
 20
-1.99989045E+02
  0
VERTEX
  8
0
 62
4
 10
-1.10935427E+02
 20
-2.00166863E+02
  0
VERTEX
  8
0
 62
4
 10
-1.11154117E+02
 20
-2.00364201E+02
  0
VERTEX
  8
0
 62
4
 10
-1.11354510E+02
 20
-2.00579560E+02
  0
VERTEX
  8
0
 62
4
 10
-1.11535081E+02
 20
-2.00811298E+02
  0
VERTEX
  8
0
 62
4
 10
-1.11694456E+02
 20
-2.01057654E+02
  0
VERTEX
  8
0
 62
4
 10
-1.11831422E+02
 20
-2.01316752E+02
  0
VERTEX
  8
0
 62
4
 10
-1.11944937E+02
 20
-2.01586620E+02
  0
VERTEX
  8
0
 62
4
 10
-1.12034136E+02
 20
-2.01865204E+02
  0
VERTEX
  8
0
 62
4
 10
-1.12098341E+02
 20
-2.02150384E+02
  0
VERTEX
  8
0
 62
4
 10
-1.12137063E+02
 20
-2.02439990E+02
  0
VERTEX
  8
0
 62
4
 10
-1.12150008E+02
 20
-2.02731817E+02
  0
SEQEND
  8
0
  0
LINE
  8
0
 62
4
 10
-1.17749995E+02
 20
-2.15746781E+02
 11
-8.47499951E+01
 21
-2.15746757E+02
  0
LINE
  8
0
 62
4
 10
-8.17499994E+01
 20
-2.10505160E+02
 11
-8.47499951E+01
 21
-2.14965340E+02
  0
LINE
  8
0
 62
4
 10
-1.17749995E+02
 20
-2.14965364E+02
 11
-1.20749999E+02
 21
-2.10505188E+02
  0
LINE
  8
0
 62
4
 10
-8.47499951E+01
 20
-2.18557721E+02
 11
-8.47499951E+01
 21
-2.14965340E+02
  0
LINE
  8
0
 62
4
 10
-1.17749995E+02
 20
-2.18557721E+02
 11
-1.17749995E+02
 21
-2.14965364E+02
  0
LINE
  8
0
 62
4
 10
-1.17749995E+02
 20
-2.14965364E+02
 11
-8.47499951E+01
 21
-2.14965340E+02
  0
LINE
  8
0
 62
4
 10
-1.16250033E+02
 20
-1.67955075E+02
 11
-1.01250033E+02
 21
-1.67955064E+02
  0
LINE
  8
0
  6
CENTER
 62
6
 10
-1.08750004E+02
 20
-2.08911102E+02
 11
-1.08750013E+02
 21
-1.96111102E+02
  0
LINE
  8
0
  6
CENTER
 62
6
 10
-1.15150008E+02
 20
-2.02511107E+02
 11
-1.02350008E+02
 21
-2.02511097E+02
  0
LINE
  8
0
 62
4
 10
-1.18250016E+02
 20
-1.92227961E+02
 11
-9.92500158E+01
 21
-1.92227948E+02
  0
LINE
  8
0
 62
4
 10
-1.20750009E+02
 20
-1.97629072E+02
 11
-1.20749999E+02
 21
-2.10505188E+02
  0
LINE
  8
0
 62
4
 10
-1.18250016E+02
 20
-1.92227961E+02
 11
-1.18250013E+02
 21
-1.96129056E+02
  0
LINE
  8
0
 62
4
 10
-1.01250033E+02
 20
-1.67955064E+02
 11
-1.01250016E+02
 21
-1.92227961E+02
  0
LINE
  8
0
 62
4
 10
-1.16250033E+02
 20
-1.67955064E+02
 11
-1.16250016E+02
 21
-1.92227960E+02
  0
LINE
  8
0
 62
4
 10
-9.92500158E+01
 20
-1.92227961E+02
 11
-9.92500131E+01
 21
-1.96129057E+02
  0
LINE
  8
0
 62
4
 10
-1.16250016E+02
 20
-1.91590450E+02
 11
-1.01250016E+02
 21
-1.91590439E+02
  0
LINE
  8
0
 62
4
 10
-8.17500086E+01
 20
-1.97629044E+02
 11
-8.17499994E+01
 21
-2.10505160E+02
  0
LINE
  8
0
 62
4
 10
-1.20749999E+02
 20
-2.10505188E+02
 11
-8.17499994E+01
 21
-2.10505160E+02
  0
LINE
  8
0
 62
4
 10
-1.20750000E+02
 20
-2.09027977E+02
 11
-8.17500004E+01
 21
-2.09027949E+02
  0
LINE
  8
0
 62
4
 10
-1.19250010E+02
 20
-1.96129071E+02
 11
-8.32500096E+01
 21
-1.96129046E+02
  0
LINE
  8
0
 62
4
 10
-1.35750033E+02
 20
-1.67780214E+02
 11
-1.30750033E+02
 21
-1.67780210E+02
  0
LINE
  8
0
 62
4
 10
-1.35750031E+02
 20
-1.70344530E+02
 11
-1.30750031E+02
 21
-1.70344526E+02
  0
LINE
  8
0
 62
4
 10
-1.35750026E+02
 20
-1.77740436E+02
 11
-1.30750026E+02
 21
-1.77740432E+02
  0
LINE
  8
0
 62
4
 10
-1.35750023E+02
 20
-1.82562178E+02
 11
-1.30750023E+02
 21
-1.82562174E+02
  0
LINE
  8
0
 62
4
 10
-1.25250023E+02
 20
-1.82165133E+02
 11
-1.16750023E+02
 21
-1.82165127E+02
  0
LINE
  8
0
 62
4
 10
-1.16250033E+02
 20
-1.68165129E+02
 11
-1.25250033E+02
 21
-1.68165135E+02
  0
LINE
  8
0
 62
4
 10
-1.25750033E+02
 20
-1.68665135E+02
 11
-1.25750023E+02
 21
-1.81664626E+02
  0
LINE
  8
0
 62
4
 10
-1.35750033E+02
 20
-1.67780214E+02
 11
-1.35750023E+02
 21
-1.82562178E+02
  0
LINE
  8
0
 62
4
 10
-1.30750033E+02
 20
-1.67780210E+02
 11
-1.30750023E+02
 21
-1.82562178E+02
  0
LINE
  8
0
 62
4
 10
-1.30750032E+02
 20
-1.68915132E+02
 11
-1.25750032E+02
 21
-1.68915129E+02
  0
LINE
  8
0
 62
4
 10
-1.30750024E+02
 20
-1.81415132E+02
 11
-1.25750024E+02
 21
-1.81415129E+02
  0
LINE
  8
0
 62
4
 10
-1.29250032E+02
 20
-1.68915131E+02
 11
-1.29250024E+02
 21
-1.81415131E+02
  0
LINE
  8
0
 62
4
 10
-1.29250032E+02
 20
-1.69415131E+02
 11
-1.25750032E+02
 21
-1.69415129E+02
  0
LINE
  8
0
 62
4
 10
-1.29250024E+02
 20
-1.80915131E+02
 11
-1.25750024E+02
 21
-1.80915129E+02
  0
ARC
  8
0
 62
4
 10
-1.25250525E+02
 20
-1.68664643E+02
 40
4.99508251E-01
 50
8.99436074E+01
 51
1.80056475E+02
  0
ARC
  8
0
 62
4
 10
-1.16749515E+02
 20
-1.82664620E+02
 40
4.99492993E-01
 50
3.59941854E+02
 51
9.00582282E+01
  0
ARC
  8
0
 62
4
 10
-8.32495011E+01
 20
-1.97628538E+02
 40
1.49949266E+00
 50
3.59980652E+02
 51
9.00194298E+01
  0
ARC
  8
0
 62
4
 10
-1.25249516E+02
 20
-1.81664626E+02
 40
5.00508007E-01
 50
1.80058166E+02
 51
2.69941916E+02
  0
ARC
  8
0
 62
4
 10
-1.19250501E+02
 20
-1.97628579E+02
 40
1.49950792E+00
 50
8.99812358E+01
 51
1.80018846E+02
  0
LINE
  8
0
 62
6
 10
-1.10464943E+02
 20
-2.04446832E+02
 11
-1.07035073E+02
 21
-2.01016957E+02
  0
LINE
  8
0
 62
6
 10
-1.07035071E+02
 20
-2.04446830E+02
 11
-1.10464946E+02
 21
-2.01016960E+02
  0
LINE
  8
0
 62
4
 10
-3.31763057E+02
 20
-2.04070846E+02
 11
-3.24867943E+02
 21
-2.02855052E+02
  0
LINE
  8
0
 62
4
 10
-3.23884337E+02
 20
-2.11312742E+02
 11
-3.23391933E+02
 21
-2.11225917E+02
  0
LINE
  8
0
 62
4
 10
-3.24289917E+02
 20
-2.11891969E+02
 11
-3.23819878E+02
 21
-2.14557690E+02
  0
LINE
  8
0
 62
4
 10
-3.31763057E+02
 20
-2.04070846E+02
 11
-3.36123186E+02
 21
-2.16059024E+02
  0
LINE
  8
0
 62
4
 10
-3.25993050E+02
 20
-1.70559787E+02
 11
-3.21177340E+02
 21
-1.69710647E+02
  0
LINE
  8
0
 62
4
 10
-3.11220933E+02
 20
-1.67955064E+02
 11
-3.06879729E+02
 21
-1.92575258E+02
  0
LINE
  8
0
 62
4
 10
-3.25993050E+02
 20
-1.70559787E+02
 11
-3.21651845E+02
 21
-1.95179980E+02
  0
LINE
  8
0
 62
4
 10
-3.23621461E+02
 20
-1.95527277E+02
 11
-3.04910113E+02
 21
-1.92227961E+02
  0
LINE
  8
0
 62
4
 10
-3.21825493E+02
 20
-1.94195173E+02
 11
-3.07053377E+02
 21
-1.91590450E+02
  0
LINE
  8
0
 62
4
 10
-3.04910113E+02
 20
-1.92227961E+02
 11
-3.04215521E+02
 21
-1.96167192E+02
  0
LINE
  8
0
 62
4
 10
-3.23621461E+02
 20
-1.95527277E+02
 11
-3.22926868E+02
 21
-1.99466508E+02
  0
LINE
  8
0
 62
4
 10
-3.22926868E+02
 20
-1.99466508E+02
 11
-3.04215521E+02
 21
-1.96167192E+02
  0
LINE
  8
0
 62
4
 10
-3.22131659E+02
 20
-2.14557690E+02
 11
-2.99148779E+02
 21
-2.10505188E+02
  0
LINE
  8
0
 62
4
 10
-3.01319381E+02
 20
-1.98195091E+02
 11
-2.99148779E+02
 21
-2.10505188E+02
  0
LINE
  8
0
 62
4
 10
-3.24954767E+02
 20
-2.02362648E+02
 11
-3.22804452E+02
 21
-2.14557690E+02
  0
LINE
  8
0
 62
4
 10
-2.99148779E+02
 20
-2.10505188E+02
 11
-3.01202054E+02
 21
-2.14557690E+02
  0
LINE
  8
0
 62
4
 10
-3.23044637E+02
 20
-2.13195533E+02
 11
-2.99409251E+02
 21
-2.09027977E+02
  0
LINE
  8
0
 62
4
 10
-3.14151624E+02
 20
-2.06042609E+02
 11
-3.10212393E+02
 21
-2.05348016E+02
  0
LINE
  8
0
 62
4
 10
-3.13717504E+02
 20
-2.08504628E+02
 11
-3.09778273E+02
 21
-2.07810035E+02
  0
LINE
  8
0
 62
4
 10
-3.14151624E+02
 20
-2.06042609E+02
 11
-3.13717504E+02
 21
-2.08504628E+02
  0
LINE
  8
0
 62
4
 10
-3.10212393E+02
 20
-2.05348016E+02
 11
-3.09778273E+02
 21
-2.07810035E+02
  0
LINE
  8
0
 62
4
 10
-3.16261005E+02
 20
-1.82562178E+02
 11
-3.10510935E+02
 21
-1.77740436E+02
  0
LINE
  8
0
 62
4
 10
-3.24617533E+02
 20
-1.72601956E+02
 11
-3.18867464E+02
 21
-1.67780214E+02
  0
LINE
  8
0
 62
4
 10
-3.24617533E+02
 20
-1.72601956E+02
 11
-3.23313436E+02
 21
-1.79997862E+02
  0
LINE
  8
0
 62
4
 10
-3.11815033E+02
 20
-1.70344530E+02
 11
-3.10510935E+02
 21
-1.77740436E+02
  0
LINE
  8
0
 62
4
 10
-3.23313436E+02
 20
-1.79997862E+02
 11
-3.16261005E+02
 21
-1.82562178E+02
  0
LINE
  8
0
 62
4
 10
-3.18867464E+02
 20
-1.67780214E+02
 11
-3.11815033E+02
 21
-1.70344530E+02
  0
LINE
  8
0
 62
4
 10
-3.16046491E+02
 20
-1.68805940E+02
 11
-3.11220933E+02
 21
-1.67955064E+02
  0
LINE
  8
0
 62
4
 10
-3.01145733E+02
 20
-1.99179899E+02
 11
-3.00653329E+02
 21
-1.99093075E+02
  0
LINE
  8
0
 62
4
 10
-2.99756547E+02
 20
-2.07058361E+02
 11
-2.99264143E+02
 21
-2.06971537E+02
  0
LINE
  8
0
 62
4
 10
-3.00549140E+02
 20
-1.99683960E+02
 11
-2.98845422E+02
 21
-1.99383548E+02
  0
LINE
  8
0
 62
4
 10
-2.97664615E+02
 20
-2.06080241E+02
 11
-2.99368332E+02
 21
-2.06380652E+02
  0
LINE
  8
0
  6
CENTER
 62
6
 10
-3.31403648E+02
 20
-2.08576892E+02
 11
-2.94049889E+02
 21
-2.01990417E+02
  0
LINE
  8
0
 62
4
 10
-3.00653329E+02
 20
-1.99093075E+02
 11
-2.99264143E+02
 21
-2.06971537E+02
  0
ARC
  8
0
 62
4
 10
-3.23797512E+02
 20
-2.11805146E+02
 40
5.00000533E-01
 50
1.00000061E+02
 51
1.89999939E+02
  0
ARC
  8
0
 62
4
 10
-3.08634902E+02
 20
-2.04540499E+02
 40
1.18077645E+01
 50
3.57024145E+02
 51
2.27266957E+01
  0
ARC
  8
0
 62
4
 10
-3.22492726E+02
 20
-2.01928542E+02
 40
2.50001831E+00
 50
1.00000420E+02
 51
1.89999580E+02
  0
ARC
  8
0
 62
4
 10
-3.03780602E+02
 20
-1.98628071E+02
 40
2.49901570E+00
 50
9.97742809E+00
 51
1.00022572E+02
  0
CIRCLE
  8
0
 62
4
 10
-3.17564289E+02
 20
-1.75165129E+02
 40
3.75000000E+00
  0
ARC
  8
0
 62
4
 10
-2.97839958E+02
 20
-2.05097276E+02
 40
9.98481423E-01
 50
2.80114125E+02
 51
3.56771982E+02
  0
ARC
  8
0
 62
4
 10
-2.98674801E+02
 20
-2.00364940E+02
 40
9.96112687E-01
 50
2.25301420E+01
 51
9.98626848E+01
  0
ARC
  8
0
 62
4
 10
-3.17564289E+02
 20
-1.75165129E+02
 40
7.00000000E+00
 50
6.89816399E+01
 51
9.19142837E+01
  0
ARC
  8
0
 62
4
 10
-3.17564289E+02
 20
-1.75165129E+02
 40
7.00000000E+00
 50
1.08107658E+02
 51
1.31018360E+02
  0
LINE
  8
0
 62
4
 10
-3.36750008E+02
 20
-2.17782472E+02
 11
-3.37568150E+02
 21
-2.20031954E+02
  0
LINE
  8
0
 62
4
 10
-3.37568150E+02
 20
-2.20031954E+02
 11
-3.36750008E+02
 21
-2.24671868E+02
  0
LINE
  8
0
  6
CENTER
 62
6
 10
-3.39989886E+02
 20
-2.25819836E+02
 11
-3.36750008E+02
 21
-2.25248558E+02
  0
LINE
  8
0
 62
6
 10
-3.38515495E+02
 20
-2.27083001E+02
 11
-3.36750008E+02
 21
-2.26771698E+02
  0
LINE
  8
0
 62
4
 10
-3.38136719E+02
 20
-2.23472374E+02
 11
-3.36996948E+02
 21
-2.23271401E+02
  0
LINE
  8
0
 62
4
 10
-3.37443863E+02
 20
-2.27401757E+02
 11
-3.36750008E+02
 21
-2.27279411E+02
  0
LINE
  8
0
 62
4
 10
-3.39076379E+02
 20
-2.23902072E+02
 11
-3.38473819E+02
 21
-2.27319355E+02
  0
LINE
  8
0
 62
4
 10
-3.38136719E+02
 20
-2.23472374E+02
 11
-3.39076379E+02
 21
-2.23902072E+02
  0
LINE
  8
0
 62
4
 10
-3.37443863E+02
 20
-2.27401757E+02
 11
-3.38473819E+02
 21
-2.27319355E+02
  0
LINE
  8
0
 62
6
 10
-3.39036439E+02
 20
-2.24128578E+02
 11
-3.36911860E+02
 21
-2.23753957E+02
  0
LINE
  8
0
 62
4
 10
6.32630570E+01
 20
-2.04070846E+02
 11
6.76231856E+01
 21
-2.16059024E+02
  0
LINE
  8
0
 62
4
 10
5.53843371E+01
 20
-2.11312742E+02
 11
5.48919332E+01
 21
-2.11225917E+02
  0
ARC
  8
0
 62
4
 10
5.52975124E+01
 20
-2.11805146E+02
 40
5.00000533E-01
 50
3.50000061E+02
 51
7.99999392E+01
  0
LINE
  8
0
 62
4
 10
5.57899169E+01
 20
-2.11891969E+02
 11
5.53198784E+01
 21
-2.14557690E+02
  0
LINE
  8
0
 62
4
 10
3.06487785E+01
 20
-2.10505188E+02
 11
3.27020537E+01
 21
-2.14557690E+02
  0
LINE
  8
0
 62
4
 10
5.36316594E+01
 20
-2.14557690E+02
 11
3.06487785E+01
 21
-2.10505188E+02
  0
ARC
  8
0
 62
4
 10
4.90652359E+01
 20
-1.75165151E+02
 40
7.00000000E+00
 50
4.89793705E+01
 51
1.11020629E+02
  0
LINE
  8
0
 62
4
 10
4.27209332E+01
 20
-1.67955064E+02
 11
5.74930495E+01
 21
-1.70559787E+02
  0
LINE
  8
0
 62
4
 10
4.27209332E+01
 20
-1.67955064E+02
 11
3.83797288E+01
 21
-1.92575258E+02
  0
LINE
  8
0
 62
4
 10
5.74930495E+01
 20
-1.70559787E+02
 11
5.31518451E+01
 21
-1.95179980E+02
  0
LINE
  8
0
 62
4
 10
5.51214606E+01
 20
-1.95527277E+02
 11
3.64101133E+01
 21
-1.92227961E+02
  0
LINE
  8
0
 62
4
 10
5.33254933E+01
 20
-1.94195173E+02
 11
3.85533770E+01
 21
-1.91590450E+02
  0
LINE
  8
0
 62
4
 10
3.64101133E+01
 20
-1.92227961E+02
 11
3.57155206E+01
 21
-1.96167192E+02
  0
LINE
  8
0
 62
4
 10
5.51214606E+01
 20
-1.95527277E+02
 11
5.44268679E+01
 21
-1.99466508E+02
  0
LINE
  8
0
 62
4
 10
5.44268679E+01
 20
-1.99466508E+02
 11
3.57155206E+01
 21
-1.96167192E+02
  0
LINE
  8
0
 62
4
 10
4.56516243E+01
 20
-2.06042609E+02
 11
4.17123933E+01
 21
-2.05348016E+02
  0
LINE
  8
0
 62
4
 10
4.52175039E+01
 20
-2.08504628E+02
 11
4.12782729E+01
 21
-2.07810035E+02
  0
LINE
  8
0
 62
4
 10
4.56516243E+01
 20
-2.06042609E+02
 11
4.52175039E+01
 21
-2.08504628E+02
  0
LINE
  8
0
 62
4
 10
4.17123933E+01
 20
-2.05348016E+02
 11
4.12782729E+01
 21
-2.07810035E+02
  0
LINE
  8
0
 62
4
 10
5.12393508E+01
 20
-1.68511338E+02
 11
5.03674637E+01
 21
-1.67780214E+02
  0
LINE
  8
0
 62
4
 10
5.03674637E+01
 20
-1.67780214E+02
 11
4.92981434E+01
 21
-1.68169026E+02
  0
LINE
  8
0
 62
4
 10
3.26457326E+01
 20
-1.99179899E+02
 11
3.21533287E+01
 21
-1.99093075E+02
  0
LINE
  8
0
 62
4
 10
3.12565472E+01
 20
-2.07058361E+02
 11
3.07641433E+01
 21
-2.06971537E+02
  0
LINE
  8
0
 62
4
 10
3.20491398E+01
 20
-1.99683960E+02
 11
3.03454224E+01
 21
-1.99383548E+02
  0
LINE
  8
0
 62
4
 10
2.91646148E+01
 20
-2.06080241E+02
 11
3.08683322E+01
 21
-2.06380652E+02
  0
LINE
  8
0
 62
4
 10
3.21533287E+01
 20
-1.99093075E+02
 11
3.07641433E+01
 21
-2.06971537E+02
  0
ARC
  8
0
 62
4
 10
4.01349021E+01
 20
-2.04540499E+02
 40
1.18077645E+01
 50
1.57273305E+02
 51
1.82975855E+02
  0
ARC
  8
0
 62
4
 10
5.39927262E+01
 20
-2.01928542E+02
 40
2.50001831E+00
 50
3.50000420E+02
 51
7.99995805E+01
  0
ARC
  8
0
 62
4
 10
3.52806016E+01
 20
-1.98628071E+02
 40
2.49901570E+00
 50
7.99774282E+01
 51
1.70022572E+02
  0
ARC
  8
0
 62
4
 10
2.93399575E+01
 20
-2.05097276E+02
 40
9.98481423E-01
 50
1.83228018E+02
 51
2.59885875E+02
  0
ARC
  8
0
 62
4
 10
3.01748007E+01
 20
-2.00364940E+02
 40
9.96112687E-01
 50
8.01373150E+01
 51
1.57469858E+02
  0
LINE
  8
0
  6
CENTER
 62
6
 10
4.56332432E+01
 20
-1.94629314E+02
 11
4.48124588E+01
 21
-1.99284214E+02
  0
LINE
  8
0
 62
4
 10
4.16243675E+01
 20
-1.97209082E+02
 11
4.21525464E+01
 21
-1.96286787E+02
  0
LINE
  8
0
 62
4
 10
4.83371391E+01
 20
-1.97377298E+02
 11
4.85180217E+01
 21
-1.98424619E+02
  0
LINE
  8
0
 62
4
 10
4.21525464E+01
 20
-1.96286787E+02
 11
4.83371391E+01
 21
-1.97377298E+02
  0
LINE
  8
0
  6
CENTER
 62
6
 10
6.29036475E+01
 20
-2.08576892E+02
 11
2.55498895E+01
 21
-2.01990417E+02
  0
LINE
  8
0
 62
4
 10
5.45446369E+01
 20
-2.13195533E+02
 11
3.09092508E+01
 21
-2.09027977E+02
  0
LINE
  8
0
 62
4
 10
5.64547668E+01
 20
-2.02362648E+02
 11
5.43044518E+01
 21
-2.14557690E+02
  0
LINE
  8
0
 62
4
 10
3.28193808E+01
 20
-1.98195091E+02
 11
3.06487785E+01
 21
-2.10505188E+02
  0
LINE
  8
0
 62
4
 10
6.32630570E+01
 20
-2.04070846E+02
 11
5.63679427E+01
 21
-2.02855052E+02
  0
LINE
  8
0
 62
4
 10
6.89438631E+01
 20
-2.27401757E+02
 11
6.82500076E+01
 21
-2.27279411E+02
  0
LINE
  8
0
 62
4
 10
6.89438631E+01
 20
-2.27401757E+02
 11
6.99738194E+01
 21
-2.27319355E+02
  0
LINE
  8
0
 62
4
 10
6.96367193E+01
 20
-2.23472374E+02
 11
6.84969476E+01
 21
-2.23271401E+02
  0
LINE
  8
0
 62
4
 10
7.05763786E+01
 20
-2.23902072E+02
 11
6.99738194E+01
 21
-2.27319355E+02
  0
LINE
  8
0
 62
6
 10
7.05364395E+01
 20
-2.24128578E+02
 11
6.84118600E+01
 21
-2.23753957E+02
  0
LINE
  8
0
 62
4
 10
6.96367193E+01
 20
-2.23472374E+02
 11
7.05763786E+01
 21
-2.23902072E+02
  0
LINE
  8
0
 62
6
 10
7.00154949E+01
 20
-2.27083001E+02
 11
6.82500076E+01
 21
-2.26771698E+02
  0
LINE
  8
0
  6
CENTER
 62
6
 10
7.14898860E+01
 20
-2.25819836E+02
 11
6.82500076E+01
 21
-2.25248558E+02
  0
LINE
  8
0
 62
4
 10
6.82358858E+01
 20
-2.17743644E+02
 11
6.90681495E+01
 21
-2.20031954E+02
  0
LINE
  8
0
 62
4
 10
6.90681495E+01
 20
-2.20031954E+02
 11
6.82500076E+01
 21
-2.24671868E+02
  0
ARC
  8
0
 62
4
 10
-8.32494947E+01
 20
-1.08054697E+02
 40
1.49950029E+00
 50
2.69980903E+02
 51
1.90971113E-02
  0
ARC
  8
0
 62
4
 10
-1.19250498E+02
 20
-1.08054700E+02
 40
1.49949647E+00
 50
1.79980757E+02
 51
2.70019243E+02
  0
LINE
  8
0
 62
4
 10
-1.16249995E+02
 20
-1.04427969E+02
 11
-1.01249995E+02
 21
-1.04427969E+02
  0
LINE
  8
0
 62
4
 10
-1.18249995E+02
 20
-1.07092177E+02
 11
-9.92499945E+01
 21
-1.07092177E+02
  0
POLYLINE
  8
0
 62
4
 66
1
  0
VERTEX
  8
0
 62
4
 10
-8.92499945E+01
 20
-9.77365033E+01
  0
VERTEX
  8
0
 62
4
 10
-8.92633131E+01
 20
-9.74360925E+01
  0
VERTEX
  8
0
 62
4
 10
-8.93031674E+01
 20
-9.71379680E+01
  0
VERTEX
  8
0
 62
4
 10
-8.93692541E+01
 20
-9.68443988E+01
  0
VERTEX
  8
0
 62
4
 10
-8.94610703E+01
 20
-9.65576190E+01
  0
VERTEX
  8
0
 62
4
 10
-8.95779172E+01
 20
-9.62798112E+01
  0
VERTEX
  8
0
 62
4
 10
-8.97189056E+01
 20
-9.60130897E+01
  0
VERTEX
  8
0
 62
4
 10
-8.98829623E+01
 20
-9.57594845E+01
  0
VERTEX
  8
0
 62
4
 10
-9.00688389E+01
 20
-9.55209255E+01
  0
VERTEX
  8
0
 62
4
 10
-9.02751208E+01
 20
-9.52992285E+01
  0
VERTEX
  8
0
 62
4
 10
-9.05002379E+01
 20
-9.50960805E+01
  0
VERTEX
  8
0
 62
4
 10
-9.07424770E+01
 20
-9.49130278E+01
  0
VERTEX
  8
0
 62
4
 10
-9.09999945E+01
 20
-9.47514634E+01
  0
VERTEX
  8
0
 62
4
 10
-9.12708306E+01
 20
-9.46126170E+01
  0
VERTEX
  8
0
 62
4
 10
-9.15529240E+01
 20
-9.44975453E+01
  0
VERTEX
  8
0
 62
4
 10
-9.18441278E+01
 20
-9.44071239E+01
  0
VERTEX
  8
0
 62
4
 10
-9.21422259E+01
 20
-9.43420412E+01
  0
VERTEX
  8
0
 62
4
 10
-9.24449494E+01
 20
-9.43027924E+01
  0
VERTEX
  8
0
 62
4
 10
-9.27499945E+01
 20
-9.42896762E+01
  0
VERTEX
  8
0
 62
4
 10
-9.30550396E+01
 20
-9.43027924E+01
  0
VERTEX
  8
0
 62
4
 10
-9.33577631E+01
 20
-9.43420412E+01
  0
VERTEX
  8
0
 62
4
 10
-9.36558612E+01
 20
-9.44071239E+01
  0
VERTEX
  8
0
 62
4
 10
-9.39470650E+01
 20
-9.44975453E+01
  0
VERTEX
  8
0
 62
4
 10
-9.42291584E+01
 20
-9.46126170E+01
  0
VERTEX
  8
0
 62
4
 10
-9.44999945E+01
 20
-9.47514634E+01
  0
VERTEX
  8
0
 62
4
 10
-9.47575120E+01
 20
-9.49130278E+01
  0
VERTEX
  8
0
 62
4
 10
-9.49997511E+01
 20
-9.50960805E+01
  0
VERTEX
  8
0
 62
4
 10
-9.52248682E+01
 20
-9.52992285E+01
  0
VERTEX
  8
0
 62
4
 10
-9.54311501E+01
 20
-9.55209255E+01
  0
VERTEX
  8
0
 62
4
 10
-9.56170267E+01
 20
-9.57594845E+01
  0
VERTEX
  8
0
 62
4
 10
-9.57810834E+01
 20
-9.60130897E+01
  0
VERTEX
  8
0
 62
4
 10
-9.59220718E+01
 20
-9.62798112E+01
  0
VERTEX
  8
0
 62
4
 10
-9.60389187E+01
 20
-9.65576190E+01
  0
VERTEX
  8
0
 62
4
 10
-9.61307349E+01
 20
-9.68443988E+01
  0
VERTEX
  8
0
 62
4
 10
-9.61968216E+01
 20
-9.71379681E+01
  0
VERTEX
  8
0
 62
4
 10
-9.62366759E+01
 20
-9.74360925E+01
  0
VERTEX
  8
0
 62
4
 10
-9.62499945E+01
 20
-9.77365033E+01
  0
VERTEX
  8
0
 62
4
 10
-9.62366759E+01
 20
-9.80369141E+01
  0
VERTEX
  8
0
 62
4
 10
-9.61968216E+01
 20
-9.83350386E+01
  0
VERTEX
  8
0
 62
4
 10
-9.61307349E+01
 20
-9.86286078E+01
  0
VERTEX
  8
0
 62
4
 10
-9.60389187E+01
 20
-9.89153876E+01
  0
VERTEX
  8
0
 62
4
 10
-9.59220718E+01
 20
-9.91931954E+01
  0
VERTEX
  8
0
 62
4
 10
-9.57810834E+01
 20
-9.94599169E+01
  0
VERTEX
  8
0
 62
4
 10
-9.56170267E+01
 20
-9.97135221E+01
  0
VERTEX
  8
0
 62
4
 10
-9.54311500E+01
 20
-9.99520811E+01
  0
VERTEX
  8
0
 62
4
 10
-9.52248682E+01
 20
-1.00173778E+02
  0
VERTEX
  8
0
 62
4
 10
-9.49997511E+01
 20
-1.00376926E+02
  0
VERTEX
  8
0
 62
4
 10
-9.47575120E+01
 20
-1.00559979E+02
  0
VERTEX
  8
0
 62
4
 10
-9.44999945E+01
 20
-1.00721543E+02
  0
VERTEX
  8
0
 62
4
 10
-9.42291584E+01
 20
-1.00860390E+02
  0
VERTEX
  8
0
 62
4
 10
-9.39470650E+01
 20
-1.00975461E+02
  0
VERTEX
  8
0
 62
4
 10
-9.36558612E+01
 20
-1.01065883E+02
  0
VERTEX
  8
0
 62
4
 10
-9.33577631E+01
 20
-1.01130965E+02
  0
VERTEX
  8
0
 62
4
 10
-9.30550396E+01
 20
-1.01170214E+02
  0
VERTEX
  8
0
 62
4
 10
-9.27499945E+01
 20
-1.01183330E+02
  0
VERTEX
  8
0
 62
4
 10
-9.24449494E+01
 20
-1.01170214E+02
  0
VERTEX
  8
0
 62
4
 10
-9.21422259E+01
 20
-1.01130965E+02
  0
VERTEX
  8
0
 62
4
 10
-9.18441278E+01
 20
-1.01065883E+02
  0
VERTEX
  8
0
 62
4
 10
-9.15529240E+01
 20
-1.00975461E+02
  0
VERTEX
  8
0
 62
4
 10
-9.12708306E+01
 20
-1.00860390E+02
  0
VERTEX
  8
0
 62
4
 10
-9.09999945E+01
 20
-1.00721543E+02
  0
VERTEX
  8
0
 62
4
 10
-9.07424770E+01
 20
-1.00559979E+02
  0
VERTEX
  8
0
 62
4
 10
-9.05002379E+01
 20
-1.00376926E+02
  0
VERTEX
  8
0
 62
4
 10
-9.02751208E+01
 20
-1.00173778E+02
  0
VERTEX
  8
0
 62
4
 10
-9.00688389E+01
 20
-9.99520811E+01
  0
VERTEX
  8
0
 62
4
 10
-8.98829623E+01
 20
-9.97135221E+01
  0
VERTEX
  8
0
 62
4
 10
-8.97189056E+01
 20
-9.94599169E+01
  0
VERTEX
  8
0
 62
4
 10
-8.95779172E+01
 20
-9.91931954E+01
  0
VERTEX
  8
0
 62
4
 10
-8.94610703E+01
 20
-9.89153876E+01
  0
VERTEX
  8
0
 62
4
 10
-8.93692541E+01
 20
-9.86286078E+01
  0
VERTEX
  8
0
 62
4
 10
-8.93031674E+01
 20
-9.83350385E+01
  0
VERTEX
  8
0
 62
4
 10
-8.92633131E+01
 20
-9.80369141E+01
  0
VERTEX
  8
0
 62
4
 10
-8.92499945E+01
 20
-9.77365033E+01
  0
SEQEND
  8
0
  0
POLYLINE
  8
0
 62
4
 66
1
  0
VERTEX
  8
0
 62
4
 10
-8.96099945E+01
 20
-9.75628552E+01
  0
VERTEX
  8
0
 62
4
 10
-8.96219431E+01
 20
-9.72933438E+01
  0
VERTEX
  8
0
 62
4
 10
-8.96576982E+01
 20
-9.70258836E+01
  0
VERTEX
  8
0
 62
4
 10
-8.97169874E+01
 20
-9.67625100E+01
  0
VERTEX
  8
0
 62
4
 10
-8.97993597E+01
 20
-9.65052276E+01
  0
VERTEX
  8
0
 62
4
 10
-8.99041880E+01
 20
-9.62559943E+01
  0
VERTEX
  8
0
 62
4
 10
-9.00306747E+01
 20
-9.60167070E+01
  0
VERTEX
  8
0
 62
4
 10
-9.01778571E+01
 20
-9.57891869E+01
  0
VERTEX
  8
0
 62
4
 10
-9.03446149E+01
 20
-9.55751654E+01
  0
VERTEX
  8
0
 62
4
 10
-9.05296792E+01
 20
-9.53762715E+01
  0
VERTEX
  8
0
 62
4
 10
-9.07316414E+01
 20
-9.51940188E+01
  0
VERTEX
  8
0
 62
4
 10
-9.09489645E+01
 20
-9.50297943E+01
  0
VERTEX
  8
0
 62
4
 10
-9.11799945E+01
 20
-9.48848480E+01
  0
VERTEX
  8
0
 62
4
 10
-9.14229732E+01
 20
-9.47602829E+01
  0
VERTEX
  8
0
 62
4
 10
-9.16760513E+01
 20
-9.46570471E+01
  0
VERTEX
  8
0
 62
4
 10
-9.19373027E+01
 20
-9.45759263E+01
  0
VERTEX
  8
0
 62
4
 10
-9.22047392E+01
 20
-9.45175378E+01
  0
VERTEX
  8
0
 62
4
 10
-9.24763255E+01
 20
-9.44823260E+01
  0
VERTEX
  8
0
 62
4
 10
-9.27499945E+01
 20
-9.44705589E+01
  0
VERTEX
  8
0
 62
4
 10
-9.30236635E+01
 20
-9.44823260E+01
  0
VERTEX
  8
0
 62
4
 10
-9.32952498E+01
 20
-9.45175378E+01
  0
VERTEX
  8
0
 62
4
 10
-9.35626863E+01
 20
-9.45759263E+01
  0
VERTEX
  8
0
 62
4
 10
-9.38239378E+01
 20
-9.46570471E+01
  0
VERTEX
  8
0
 62
4
 10
-9.40770158E+01
 20
-9.47602829E+01
  0
VERTEX
  8
0
 62
4
 10
-9.43199945E+01
 20
-9.48848480E+01
  0
VERTEX
  8
0
 62
4
 10
-9.45510245E+01
 20
-9.50297943E+01
  0
VERTEX
  8
0
 62
4
 10
-9.47683476E+01
 20
-9.51940188E+01
  0
VERTEX
  8
0
 62
4
 10
-9.49703098E+01
 20
-9.53762715E+01
  0
VERTEX
  8
0
 62
4
 10
-9.51553741E+01
 20
-9.55751654E+01
  0
VERTEX
  8
0
 62
4
 10
-9.53221319E+01
 20
-9.57891869E+01
  0
VERTEX
  8
0
 62
4
 10
-9.54693143E+01
 20
-9.60167070E+01
  0
VERTEX
  8
0
 62
4
 10
-9.55958010E+01
 20
-9.62559943E+01
  0
VERTEX
  8
0
 62
4
 10
-9.57006293E+01
 20
-9.65052276E+01
  0
VERTEX
  8
0
 62
4
 10
-9.57830016E+01
 20
-9.67625100E+01
  0
VERTEX
  8
0
 62
4
 10
-9.58422908E+01
 20
-9.70258836E+01
  0
VERTEX
  8
0
 62
4
 10
-9.58780459E+01
 20
-9.72933438E+01
  0
VERTEX
  8
0
 62
4
 10
-9.58899945E+01
 20
-9.75628552E+01
  0
VERTEX
  8
0
 62
4
 10
-9.58780459E+01
 20
-9.78323666E+01
  0
VERTEX
  8
0
 62
4
 10
-9.58422908E+01
 20
-9.80998268E+01
  0
VERTEX
  8
0
 62
4
 10
-9.57830016E+01
 20
-9.83632004E+01
  0
VERTEX
  8
0
 62
4
 10
-9.57006293E+01
 20
-9.86204828E+01
  0
VERTEX
  8
0
 62
4
 10
-9.55958009E+01
 20
-9.88697161E+01
  0
VERTEX
  8
0
 62
4
 10
-9.54693143E+01
 20
-9.91090034E+01
  0
VERTEX
  8
0
 62
4
 10
-9.53221319E+01
 20
-9.93365235E+01
  0
VERTEX
  8
0
 62
4
 10
-9.51553740E+01
 20
-9.95505450E+01
  0
VERTEX
  8
0
 62
4
 10
-9.49703098E+01
 20
-9.97494389E+01
  0
VERTEX
  8
0
 62
4
 10
-9.47683476E+01
 20
-9.99316916E+01
  0
VERTEX
  8
0
 62
4
 10
-9.45510245E+01
 20
-1.00095916E+02
  0
VERTEX
  8
0
 62
4
 10
-9.43199945E+01
 20
-1.00240862E+02
  0
VERTEX
  8
0
 62
4
 10
-9.40770158E+01
 20
-1.00365427E+02
  0
VERTEX
  8
0
 62
4
 10
-9.38239377E+01
 20
-1.00468663E+02
  0
VERTEX
  8
0
 62
4
 10
-9.35626863E+01
 20
-1.00549784E+02
  0
VERTEX
  8
0
 62
4
 10
-9.32952498E+01
 20
-1.00608173E+02
  0
VERTEX
  8
0
 62
4
 10
-9.30236635E+01
 20
-1.00643384E+02
  0
VERTEX
  8
0
 62
4
 10
-9.27499945E+01
 20
-1.00655152E+02
  0
VERTEX
  8
0
 62
4
 10
-9.24763255E+01
 20
-1.00643384E+02
  0
VERTEX
  8
0
 62
4
 10
-9.22047392E+01
 20
-1.00608173E+02
  0
VERTEX
  8
0
 62
4
 10
-9.19373027E+01
 20
-1.00549784E+02
  0
VERTEX
  8
0
 62
4
 10
-9.16760512E+01
 20
-1.00468663E+02
  0
VERTEX
  8
0
 62
4
 10
-9.14229732E+01
 20
-1.00365427E+02
  0
VERTEX
  8
0
 62
4
 10
-9.11799945E+01
 20
-1.00240862E+02
  0
VERTEX
  8
0
 62
4
 10
-9.09489645E+01
 20
-1.00095916E+02
  0
VERTEX
  8
0
 62
4
 10
-9.07316414E+01
 20
-9.99316916E+01
  0
VERTEX
  8
0
 62
4
 10
-9.05296792E+01
 20
-9.97494389E+01
  0
VERTEX
  8
0
 62
4
 10
-9.03446149E+01
 20
-9.95505450E+01
  0
VERTEX
  8
0
 62
4
 10
-9.01778571E+01
 20
-9.93365235E+01
  0
VERTEX
  8
0
 62
4
 10
-9.00306747E+01
 20
-9.91090034E+01
  0
VERTEX
  8
0
 62
4
 10
-8.99041880E+01
 20
-9.88697161E+01
  0
VERTEX
  8
0
 62
4
 10
-8.97993597E+01
 20
-9.86204828E+01
  0
VERTEX
  8
0
 62
4
 10
-8.97169874E+01
 20
-9.83632004E+01
  0
VERTEX
  8
0
 62
4
 10
-8.96576982E+01
 20
-9.80998268E+01
  0
VERTEX
  8
0
 62
4
 10
-8.96219431E+01
 20
-9.78323666E+01
  0
VERTEX
  8
0
 62
4
 10
-8.96099945E+01
 20
-9.75628552E+01
  0
SEQEND
  8
0
  0
ARC
  8
0
 62
4
 10
-1.04514400E+02
 20
-1.02888271E+02
 40
1.21769740E+01
 50
2.40462101E+02
 51
2.52020214E+02
  0
ARC
  8
0
 62
4
 10
-1.12985590E+02
 20
-1.02888271E+02
 40
1.21769740E+01
 50
2.87979786E+02
 51
2.99537899E+02
  0
POLYLINE
  8
0
 62
4
 66
1
  0
VERTEX
  8
0
 62
4
 10
-1.05349995E+02
 20
-1.13471418E+02
  0
VERTEX
  8
0
 62
4
 10
-1.05362933E+02
 20
-1.13383465E+02
  0
VERTEX
  8
0
 62
4
 10
-1.05401649E+02
 20
-1.13296182E+02
  0
VERTEX
  8
0
 62
4
 10
-1.05465847E+02
 20
-1.13210233E+02
  0
VERTEX
  8
0
 62
4
 10
-1.05555040E+02
 20
-1.13126271E+02
  0
VERTEX
  8
0
 62
4
 10
-1.05668549E+02
 20
-1.13044936E+02
  0
VERTEX
  8
0
 62
4
 10
-1.05805509E+02
 20
-1.12966847E+02
  0
VERTEX
  8
0
 62
4
 10
-1.05964878E+02
 20
-1.12892598E+02
  0
VERTEX
  8
0
 62
4
 10
-1.06145444E+02
 20
-1.12822754E+02
  0
VERTEX
  8
0
 62
4
 10
-1.06345832E+02
 20
-1.12757847E+02
  0
VERTEX
  8
0
 62
4
 10
-1.06564517E+02
 20
-1.12698370E+02
  0
VERTEX
  8
0
 62
4
 10
-1.06799835E+02
 20
-1.12644777E+02
  0
VERTEX
  8
0
 62
4
 10
-1.07049995E+02
 20
-1.12597475E+02
  0
VERTEX
  8
0
 62
4
 10
-1.07313093E+02
 20
-1.12556824E+02
  0
VERTEX
  8
0
 62
4
 10
-1.07587127E+02
 20
-1.12523134E+02
  0
VERTEX
  8
0
 62
4
 10
-1.07870010E+02
 20
-1.12496661E+02
  0
VERTEX
  8
0
 62
4
 10
-1.08159591E+02
 20
-1.12477607E+02
  0
VERTEX
  8
0
 62
4
 10
-1.08453665E+02
 20
-1.12466116E+02
  0
VERTEX
  8
0
 62
4
 10
-1.08749995E+02
 20
-1.12462276E+02
  0
VERTEX
  8
0
 62
4
 10
-1.09046325E+02
 20
-1.12466116E+02
  0
VERTEX
  8
0
 62
4
 10
-1.09340399E+02
 20
-1.12477607E+02
  0
VERTEX
  8
0
 62
4
 10
-1.09629980E+02
 20
-1.12496661E+02
  0
VERTEX
  8
0
 62
4
 10
-1.09912863E+02
 20
-1.12523134E+02
  0
VERTEX
  8
0
 62
4
 10
-1.10186897E+02
 20
-1.12556824E+02
  0
VERTEX
  8
0
 62
4
 10
-1.10449995E+02
 20
-1.12597475E+02
  0
VERTEX
  8
0
 62
4
 10
-1.10700155E+02
 20
-1.12644777E+02
  0
VERTEX
  8
0
 62
4
 10
-1.10935473E+02
 20
-1.12698370E+02
  0
VERTEX
  8
0
 62
4
 10
-1.11154158E+02
 20
-1.12757847E+02
  0
VERTEX
  8
0
 62
4
 10
-1.11354546E+02
 20
-1.12822754E+02
  0
VERTEX
  8
0
 62
4
 10
-1.11535112E+02
 20
-1.12892598E+02
  0
VERTEX
  8
0
 62
4
 10
-1.11694481E+02
 20
-1.12966847E+02
  0
VERTEX
  8
0
 62
4
 10
-1.11831441E+02
 20
-1.13044936E+02
  0
VERTEX
  8
0
 62
4
 10
-1.11944950E+02
 20
-1.13126271E+02
  0
VERTEX
  8
0
 62
4
 10
-1.12034143E+02
 20
-1.13210233E+02
  0
VERTEX
  8
0
 62
4
 10
-1.12098341E+02
 20
-1.13296182E+02
  0
VERTEX
  8
0
 62
4
 10
-1.12137057E+02
 20
-1.13383465E+02
  0
VERTEX
  8
0
 62
4
 10
-1.12149995E+02
 20
-1.13471418E+02
  0
VERTEX
  8
0
 62
4
 10
-1.12137057E+02
 20
-1.13559371E+02
  0
VERTEX
  8
0
 62
4
 10
-1.12098341E+02
 20
-1.13646654E+02
  0
VERTEX
  8
0
 62
4
 10
-1.12034143E+02
 20
-1.13732603E+02
  0
VERTEX
  8
0
 62
4
 10
-1.11944950E+02
 20
-1.13816565E+02
  0
VERTEX
  8
0
 62
4
 10
-1.11831441E+02
 20
-1.13897900E+02
  0
VERTEX
  8
0
 62
4
 10
-1.11694481E+02
 20
-1.13975989E+02
  0
VERTEX
  8
0
 62
4
 10
-1.11535112E+02
 20
-1.14050238E+02
  0
VERTEX
  8
0
 62
4
 10
-1.11354546E+02
 20
-1.14120082E+02
  0
VERTEX
  8
0
 62
4
 10
-1.11154158E+02
 20
-1.14184989E+02
  0
VERTEX
  8
0
 62
4
 10
-1.10935473E+02
 20
-1.14244466E+02
  0
VERTEX
  8
0
 62
4
 10
-1.10700155E+02
 20
-1.14298059E+02
  0
VERTEX
  8
0
 62
4
 10
-1.10449995E+02
 20
-1.14345361E+02
  0
VERTEX
  8
0
 62
4
 10
-1.10186897E+02
 20
-1.14386012E+02
  0
VERTEX
  8
0
 62
4
 10
-1.09912863E+02
 20
-1.14419702E+02
  0
VERTEX
  8
0
 62
4
 10
-1.09629980E+02
 20
-1.14446175E+02
  0
VERTEX
  8
0
 62
4
 10
-1.09340399E+02
 20
-1.14465229E+02
  0
VERTEX
  8
0
 62
4
 10
-1.09046325E+02
 20
-1.14476720E+02
  0
VERTEX
  8
0
 62
4
 10
-1.08749995E+02
 20
-1.14480560E+02
  0
VERTEX
  8
0
 62
4
 10
-1.08453665E+02
 20
-1.14476720E+02
  0
VERTEX
  8
0
 62
4
 10
-1.08159591E+02
 20
-1.14465229E+02
  0
VERTEX
  8
0
 62
4
 10
-1.07870010E+02
 20
-1.14446175E+02
  0
VERTEX
  8
0
 62
4
 10
-1.07587127E+02
 20
-1.14419702E+02
  0
VERTEX
  8
0
 62
4
 10
-1.07313093E+02
 20
-1.14386012E+02
  0
VERTEX
  8
0
 62
4
 10
-1.07049995E+02
 20
-1.14345361E+02
  0
VERTEX
  8
0
 62
4
 10
-1.06799835E+02
 20
-1.14298059E+02
  0
VERTEX
  8
0
 62
4
 10
-1.06564517E+02
 20
-1.14244466E+02
  0
VERTEX
  8
0
 62
4
 10
-1.06345832E+02
 20
-1.14184989E+02
  0
VERTEX
  8
0
 62
4
 10
-1.06145444E+02
 20
-1.14120082E+02
  0
VERTEX
  8
0
 62
4
 10
-1.05964878E+02
 20
-1.14050238E+02
  0
VERTEX
  8
0
 62
4
 10
-1.05805509E+02
 20
-1.13975989E+02
  0
VERTEX
  8
0
 62
4
 10
-1.05668549E+02
 20
-1.13897900E+02
  0
VERTEX
  8
0
 62
4
 10
-1.05555040E+02
 20
-1.13816565E+02
  0
VERTEX
  8
0
 62
4
 10
-1.05465847E+02
 20
-1.13732603E+02
  0
VERTEX
  8
0
 62
4
 10
-1.05401649E+02
 20
-1.13646654E+02
  0
VERTEX
  8
0
 62
4
 10
-1.05362933E+02
 20
-1.13559371E+02
  0
VERTEX
  8
0
 62
4
 10
-1.05349995E+02
 20
-1.13471418E+02
  0
SEQEND
  8
0
  0
ARC
  8
0
 62
4
 10
-1.19249495E+02
 20
-8.78154533E+01
 40
1.50050004E+00
 50
9.00190906E+01
 51
1.34401209E+02
  0
ARC
  8
0
 62
4
 10
-1.25249494E+02
 20
-8.72439093E+01
 40
5.00500378E-01
 50
9.00572530E+01
 51
1.79942747E+02
  0
ARC
  8
0
 62
4
 10
-1.25250494E+02
 20
-1.00243909E+02
 40
4.99500622E-01
 50
1.79942690E+02
 51
2.70057311E+02
  0
ARC
  8
0
 62
4
 10
-8.32504983E+01
 20
-8.78154572E+01
 40
1.50050386E+00
 50
1.92364101E-02
 51
8.99807637E+01
  0
LINE
  8
0
 62
4
 10
-9.92499945E+01
 20
-8.76862373E+01
 11
-1.01249995E+02
 21
-8.76862373E+01
  0
LINE
  8
0
 62
4
 10
-1.19249995E+02
 20
-1.09554197E+02
 11
-8.32499945E+01
 21
-1.09554197E+02
  0
LINE
  8
0
 62
4
 10
-1.19249995E+02
 20
-8.63149534E+01
 11
-1.16249995E+02
 21
-8.63149534E+01
  0
LINE
  8
0
 62
4
 10
-1.18249995E+02
 20
-1.06397585E+02
 11
-9.92499945E+01
 21
-1.06397585E+02
  0
LINE
  8
0
 62
4
 10
-1.18249995E+02
 20
-1.00727761E+02
 11
-1.18249995E+02
 21
-1.07092177E+02
  0
LINE
  8
0
 62
4
 10
-1.20749995E+02
 20
-1.00727761E+02
 11
-1.20749995E+02
 21
-1.10658919E+02
  0
LINE
  8
0
 62
4
 10
-9.92499945E+01
 20
-8.76862373E+01
 11
-9.92499945E+01
 21
-1.07092177E+02
  0
LINE
  8
0
 62
4
 10
-8.17499945E+01
 20
-8.78149534E+01
 11
-8.17499945E+01
 21
-1.10659419E+02
  0
LINE
  8
0
 62
4
 10
-1.35749995E+02
 20
-8.66901645E+01
 11
-1.30749995E+02
 21
-8.66901645E+01
  0
LINE
  8
0
 62
4
 10
-1.16249995E+02
 20
-1.00086765E+02
 11
-1.01249995E+02
 21
-1.00086765E+02
  0
LINE
  8
0
 62
4
 10
-1.16249995E+02
 20
-8.53146484E+01
 11
-1.01249995E+02
 21
-8.53146484E+01
  0
LINE
  8
0
 62
4
 10
-1.01249995E+02
 20
-7.37395484E+01
 11
-1.01249995E+02
 21
-1.04427969E+02
  0
LINE
  8
0
 62
4
 10
-1.29249995E+02
 20
-9.94934092E+01
 11
-1.25749995E+02
 21
-9.94934092E+01
  0
LINE
  8
0
 62
4
 10
-1.29249995E+02
 20
-8.79934092E+01
 11
-1.25749995E+02
 21
-8.79934092E+01
  0
LINE
  8
0
 62
4
 10
-1.29249995E+02
 20
-8.74934092E+01
 11
-1.29249995E+02
 21
-9.99934092E+01
  0
LINE
  8
0
 62
4
 10
-1.30749995E+02
 20
-9.99934092E+01
 11
-1.25749995E+02
 21
-9.99934092E+01
  0
LINE
  8
0
 62
4
 10
-1.30749995E+02
 20
-8.74934092E+01
 11
-1.25749995E+02
 21
-8.74934092E+01
  0
LINE
  8
0
 62
4
 10
-1.30749995E+02
 20
-8.66901645E+01
 11
-1.30749995E+02
 21
-1.00796763E+02
  0
LINE
  8
0
 62
4
 10
-1.35749995E+02
 20
-8.66901645E+01
 11
-1.35749995E+02
 21
-1.00796763E+02
  0
LINE
  8
0
 62
4
 10
-1.25749995E+02
 20
-8.72277612E+01
 11
-1.25749995E+02
 21
-1.00227761E+02
  0
LINE
  8
0
 62
4
 10
-1.16249995E+02
 20
-8.67434092E+01
 11
-1.25249995E+02
 21
-8.67434092E+01
  0
LINE
  8
0
 62
4
 10
-1.25249995E+02
 20
-1.00743409E+02
 11
-1.16249995E+02
 21
-1.00743409E+02
  0
LINE
  8
0
  6
CENTER
 62
6
 10
-1.08749995E+02
 20
-7.20898900E+01
 11
-1.08749995E+02
 21
-1.15664706E+02
  0
LINE
  8
0
 62
4
 10
-1.12149995E+02
 20
-1.13471418E+02
 11
-1.12149995E+02
 21
-1.11348962E+02
  0
LINE
  8
0
 62
4
 10
-1.05349995E+02
 20
-1.11348962E+02
 11
-1.05349995E+02
 21
-1.13471418E+02
  0
LINE
  8
0
 62
4
 10
-1.12749995E+02
 20
-1.10856558E+02
 11
-1.12749995E+02
 21
-1.11348962E+02
  0
LINE
  8
0
 62
4
 10
-1.04749995E+02
 20
-1.11348962E+02
 11
-1.04749995E+02
 21
-1.10856558E+02
  0
LINE
  8
0
 62
6
 10
-1.11249995E+02
 20
-7.22313194E+01
 11
-1.11249995E+02
 21
-7.37395484E+01
  0
LINE
  8
0
 62
4
 10
-1.14749995E+02
 20
-7.32313194E+01
 11
-1.14489995E+02
 21
-7.22313194E+01
  0
LINE
  8
0
 62
4
 10
-1.10749995E+02
 20
-7.32313194E+01
 11
-1.11019995E+02
 21
-7.22313194E+01
  0
LINE
  8
0
 62
4
 10
-1.11019995E+02
 20
-7.22313194E+01
 11
-1.14489995E+02
 21
-7.22313194E+01
  0
LINE
  8
0
 62
4
 10
-1.14749995E+02
 20
-7.32313194E+01
 11
-1.14749995E+02
 21
-7.37395484E+01
  0
LINE
  8
0
 62
4
 10
-1.10749995E+02
 20
-7.32313194E+01
 11
-1.10749995E+02
 21
-7.37395484E+01
  0
LINE
  8
0
 62
6
 10
-1.14249995E+02
 20
-7.22313194E+01
 11
-1.14249995E+02
 21
-7.37395484E+01
  0
LINE
  8
0
  6
CENTER
 62
6
 10
-1.12749995E+02
 20
-7.09713194E+01
 11
-1.12749995E+02
 21
-8.14713194E+01
  0
LINE
  8
0
 62
4
 10
-1.01249995E+02
 20
-7.37395484E+01
 11
-1.16249995E+02
 21
-7.37395484E+01
  0
LINE
  8
0
 62
4
 10
-1.02249995E+02
 20
-7.95446409E+01
 11
-1.15249995E+02
 21
-7.95446409E+01
  0
LINE
  8
0
 62
4
 10
-1.16249995E+02
 20
-7.37395484E+01
 11
-1.16249995E+02
 21
-1.04427969E+02
  0
LINE
  8
0
 62
6
 10
-1.06249995E+02
 20
-7.22313194E+01
 11
-1.06249995E+02
 21
-7.37395484E+01
  0
LINE
  8
0
 62
6
 10
-1.03249995E+02
 20
-7.22313194E+01
 11
-1.03249995E+02
 21
-7.37395484E+01
  0
LINE
  8
0
 62
4
 10
-1.06749995E+02
 20
-7.32313194E+01
 11
-1.06489995E+02
 21
-7.22313194E+01
  0
LINE
  8
0
 62
4
 10
-1.02749995E+02
 20
-7.32313194E+01
 11
-1.03019995E+02
 21
-7.22313194E+01
  0
LINE
  8
0
 62
4
 10
-1.03019995E+02
 20
-7.22313194E+01
 11
-1.06489995E+02
 21
-7.22313194E+01
  0
LINE
  8
0
 62
4
 10
-1.06749995E+02
 20
-7.32313194E+01
 11
-1.06749995E+02
 21
-7.37395484E+01
  0
LINE
  8
0
 62
4
 10
-1.02749995E+02
 20
-7.32313194E+01
 11
-1.02749995E+02
 21
-7.37395484E+01
  0
LINE
  8
0
  6
CENTER
 62
6
 10
-1.04749995E+02
 20
-7.09713194E+01
 11
-1.04749995E+02
 21
-8.14713194E+01
  0
LINE
  8
0
 62
4
 10
-1.35749995E+02
 20
-9.24402343E+01
 11
-1.30749995E+02
 21
-9.24402343E+01
  0
LINE
  8
0
 62
4
 10
-1.35749995E+02
 20
-1.00796763E+02
 11
-1.30749995E+02
 21
-1.00796763E+02
  0
LINE
  8
0
 62
4
 10
-1.01249995E+02
 20
-8.63149534E+01
 11
-8.32499945E+01
 21
-8.63149534E+01
  0
ARC
  8
0
 62
4
 10
-8.32494947E+01
 20
-1.10659419E+02
 40
1.49950029E+00
 50
2.69980903E+02
 51
1.90971113E-02
  0
LINE
  8
0
 62
4
 10
-1.19249995E+02
 20
-1.12158919E+02
 11
-1.12149995E+02
 21
-1.12158919E+02
  0
ARC
  8
0
 62
4
 10
-1.19250498E+02
 20
-1.10659423E+02
 40
1.49949647E+00
 50
1.79980757E+02
 51
2.70019243E+02
  0
LINE
  8
0
 62
4
 10
-1.35749995E+02
 20
-9.94926653E+01
 11
-1.30749995E+02
 21
-9.94926653E+01
  0
POLYLINE
  8
0
 62
4
 66
1
  0
VERTEX
  8
0
 62
4
 10
-1.05749995E+02
 20
-9.27007065E+01
  0
VERTEX
  8
0
 62
4
 10
-1.05761411E+02
 20
-9.24432115E+01
  0
VERTEX
  8
0
 62
4
 10
-1.05795572E+02
 20
-9.21876763E+01
  0
VERTEX
  8
0
 62
4
 10
-1.05852218E+02
 20
-9.19360455E+01
  0
VERTEX
  8
0
 62
4
 10
-1.05930917E+02
 20
-9.16902342E+01
  0
VERTEX
  8
0
 62
4
 10
-1.06031072E+02
 20
-9.14521133E+01
  0
VERTEX
  8
0
 62
4
 10
-1.06151919E+02
 20
-9.12234949E+01
  0
VERTEX
  8
0
 62
4
 10
-1.06292539E+02
 20
-9.10061189E+01
  0
VERTEX
  8
0
 62
4
 10
-1.06451862E+02
 20
-9.08016398E+01
  0
VERTEX
  8
0
 62
4
 10
-1.06628675E+02
 20
-9.06116138E+01
  0
VERTEX
  8
0
 62
4
 10
-1.06821632E+02
 20
-9.04374870E+01
  0
VERTEX
  8
0
 62
4
 10
-1.07029266E+02
 20
-9.02805846E+01
  0
VERTEX
  8
0
 62
4
 10
-1.07249995E+02
 20
-9.01421009E+01
  0
VERTEX
  8
0
 62
4
 10
-1.07482140E+02
 20
-9.00230897E+01
  0
VERTEX
  8
0
 62
4
 10
-1.07723935E+02
 20
-8.99244568E+01
  0
VERTEX
  8
0
 62
4
 10
-1.07973538E+02
 20
-8.98469528E+01
  0
VERTEX
  8
0
 62
4
 10
-1.08229050E+02
 20
-8.97911676E+01
  0
VERTEX
  8
0
 62
4
 10
-1.08488528E+02
 20
-8.97575257E+01
  0
VERTEX
  8
0
 62
4
 10
-1.08749995E+02
 20
-8.97462832E+01
  0
VERTEX
  8
0
 62
4
 10
-1.09011462E+02
 20
-8.97575257E+01
  0
VERTEX
  8
0
 62
4
 10
-1.09270940E+02
 20
-8.97911676E+01
  0
VERTEX
  8
0
 62
4
 10
-1.09526452E+02
 20
-8.98469528E+01
  0
VERTEX
  8
0
 62
4
 10
-1.09776055E+02
 20
-8.99244568E+01
  0
VERTEX
  8
0
 62
4
 10
-1.10017850E+02
 20
-9.00230897E+01
  0
VERTEX
  8
0
 62
4
 10
-1.10249995E+02
 20
-9.01421009E+01
  0
VERTEX
  8
0
 62
4
 10
-1.10470724E+02
 20
-9.02805846E+01
  0
VERTEX
  8
0
 62
4
 10
-1.10678358E+02
 20
-9.04374870E+01
  0
VERTEX
  8
0
 62
4
 10
-1.10871315E+02
 20
-9.06116138E+01
  0
VERTEX
  8
0
 62
4
 10
-1.11048128E+02
 20
-9.08016398E+01
  0
VERTEX
  8
0
 62
4
 10
-1.11207451E+02
 20
-9.10061189E+01
  0
VERTEX
  8
0
 62
4
 10
-1.11348071E+02
 20
-9.12234949E+01
  0
VERTEX
  8
0
 62
4
 10
-1.11468918E+02
 20
-9.14521133E+01
  0
VERTEX
  8
0
 62
4
 10
-1.11569073E+02
 20
-9.16902342E+01
  0
VERTEX
  8
0
 62
4
 10
-1.11647772E+02
 20
-9.19360455E+01
  0
VERTEX
  8
0
 62
4
 10
-1.11704418E+02
 20
-9.21876763E+01
  0
VERTEX
  8
0
 62
4
 10
-1.11738579E+02
 20
-9.24432116E+01
  0
VERTEX
  8
0
 62
4
 10
-1.11749995E+02
 20
-9.27007065E+01
  0
VERTEX
  8
0
 62
4
 10
-1.11738579E+02
 20
-9.29582015E+01
  0
VERTEX
  8
0
 62
4
 10
-1.11704418E+02
 20
-9.32137367E+01
  0
VERTEX
  8
0
 62
4
 10
-1.11647772E+02
 20
-9.34653675E+01
  0
VERTEX
  8
0
 62
4
 10
-1.11569073E+02
 20
-9.37111788E+01
  0
VERTEX
  8
0
 62
4
 10
-1.11468918E+02
 20
-9.39492997E+01
  0
VERTEX
  8
0
 62
4
 10
-1.11348071E+02
 20
-9.41779181E+01
  0
VERTEX
  8
0
 62
4
 10
-1.11207451E+02
 20
-9.43952941E+01
  0
VERTEX
  8
0
 62
4
 10
-1.11048128E+02
 20
-9.45997732E+01
  0
VERTEX
  8
0
 62
4
 10
-1.10871315E+02
 20
-9.47897992E+01
  0
VERTEX
  8
0
 62
4
 10
-1.10678358E+02
 20
-9.49639260E+01
  0
VERTEX
  8
0
 62
4
 10
-1.10470724E+02
 20
-9.51208284E+01
  0
VERTEX
  8
0
 62
4
 10
-1.10249995E+02
 20
-9.52593121E+01
  0
VERTEX
  8
0
 62
4
 10
-1.10017850E+02
 20
-9.53783233E+01
  0
VERTEX
  8
0
 62
4
 10
-1.09776055E+02
 20
-9.54769562E+01
  0
VERTEX
  8
0
 62
4
 10
-1.09526452E+02
 20
-9.55544602E+01
  0
VERTEX
  8
0
 62
4
 10
-1.09270940E+02
 20
-9.56102454E+01
  0
VERTEX
  8
0
 62
4
 10
-1.09011462E+02
 20
-9.56438873E+01
  0
VERTEX
  8
0
 62
4
 10
-1.08749995E+02
 20
-9.56551298E+01
  0
VERTEX
  8
0
 62
4
 10
-1.08488528E+02
 20
-9.56438873E+01
  0
VERTEX
  8
0
 62
4
 10
-1.08229050E+02
 20
-9.56102454E+01
  0
VERTEX
  8
0
 62
4
 10
-1.07973538E+02
 20
-9.55544602E+01
  0
VERTEX
  8
0
 62
4
 10
-1.07723935E+02
 20
-9.54769562E+01
  0
VERTEX
  8
0
 62
4
 10
-1.07482140E+02
 20
-9.53783233E+01
  0
VERTEX
  8
0
 62
4
 10
-1.07249995E+02
 20
-9.52593121E+01
  0
VERTEX
  8
0
 62
4
 10
-1.07029266E+02
 20
-9.51208283E+01
  0
VERTEX
  8
0
 62
4
 10
-1.06821632E+02
 20
-9.49639260E+01
  0
VERTEX
  8
0
 62
4
 10
-1.06628675E+02
 20
-9.47897992E+01
  0
VERTEX
  8
0
 62
4
 10
-1.06451862E+02
 20
-9.45997732E+01
  0
VERTEX
  8
0
 62
4
 10
-1.06292539E+02
 20
-9.43952941E+01
  0
VERTEX
  8
0
 62
4
 10
-1.06151919E+02
 20
-9.41779181E+01
  0
VERTEX
  8
0
 62
4
 10
-1.06031072E+02
 20
-9.39492997E+01
  0
VERTEX
  8
0
 62
4
 10
-1.05930917E+02
 20
-9.37111788E+01
  0
VERTEX
  8
0
 62
4
 10
-1.05852218E+02
 20
-9.34653675E+01
  0
VERTEX
  8
0
 62
4
 10
-1.05795572E+02
 20
-9.32137367E+01
  0
VERTEX
  8
0
 62
4
 10
-1.05761411E+02
 20
-9.29582014E+01
  0
VERTEX
  8
0
 62
4
 10
-1.05749995E+02
 20
-9.27007065E+01
  0
SEQEND
  8
0
  0
LINE
  8
0
  6
CENTER
 62
6
 10
-1.14236560E+02
 20
-9.27007065E+01
 11
-1.03263429E+02
 21
-9.27007065E+01
  0
LINE
  8
0
  6
CENTER
 62
6
 10
-9.27499945E+01
 20
-9.20408033E+01
 11
-9.27499945E+01
 21
-1.03084907E+02
  0
LINE
  8
0
  6
CENTER
 62
6
 10
-9.82720464E+01
 20
-9.75628552E+01
 11
-8.72279427E+01
 21
-9.75628552E+01
  0
POLYLINE
  8
0
 62
4
 66
1
  0
VERTEX
  8
0
 62
4
 10
-1.04749995E+02
 20
-1.10856558E+02
  0
VERTEX
  8
0
 62
4
 10
-1.04766098E+02
 20
-1.10794295E+02
  0
VERTEX
  8
0
 62
4
 10
-1.04814277E+02
 20
-1.10732534E+02
  0
VERTEX
  8
0
 62
4
 10
-1.04894144E+02
 20
-1.10671771E+02
  0
VERTEX
  8
0
 62
4
 10
-1.05005056E+02
 20
-1.10612496E+02
  0
VERTEX
  8
0
 62
4
 10
-1.05146120E+02
 20
-1.10555186E+02
  0
VERTEX
  8
0
 62
4
 10
-1.05316200E+02
 20
-1.10500302E+02
  0
VERTEX
  8
0
 62
4
 10
-1.05513927E+02
 20
-1.10448287E+02
  0
VERTEX
  8
0
 62
4
 10
-1.05737709E+02
 20
-1.10399559E+02
  0
VERTEX
  8
0
 62
4
 10
-1.05985744E+02
 20
-1.10354510E+02
  0
VERTEX
  8
0
 62
4
 10
-1.06256036E+02
 20
-1.10313504E+02
  0
VERTEX
  8
0
 62
4
 10
-1.06546407E+02
 20
-1.10276870E+02
  0
VERTEX
  8
0
 62
4
 10
-1.06854520E+02
 20
-1.10244903E+02
  0
VERTEX
  8
0
 62
4
 10
-1.07177895E+02
 20
-1.10217861E+02
  0
VERTEX
  8
0
 62
4
 10
-1.07513927E+02
 20
-1.10195961E+02
  0
VERTEX
  8
0
 62
4
 10
-1.07859911E+02
 20
-1.10179380E+02
  0
VERTEX
  8
0
 62
4
 10
-1.08213062E+02
 20
-1.10168252E+02
  0
VERTEX
  8
0
 62
4
 10
-1.08570536E+02
 20
-1.10162665E+02
  0
VERTEX
  8
0
 62
4
 10
-1.08929454E+02
 20
-1.10162665E+02
  0
VERTEX
  8
0
 62
4
 10
-1.09286928E+02
 20
-1.10168252E+02
  0
VERTEX
  8
0
 62
4
 10
-1.09640079E+02
 20
-1.10179380E+02
  0
VERTEX
  8
0
 62
4
 10
-1.09986063E+02
 20
-1.10195961E+02
  0
VERTEX
  8
0
 62
4
 10
-1.10322095E+02
 20
-1.10217861E+02
  0
VERTEX
  8
0
 62
4
 10
-1.10645470E+02
 20
-1.10244903E+02
  0
VERTEX
  8
0
 62
4
 10
-1.10953583E+02
 20
-1.10276870E+02
  0
VERTEX
  8
0
 62
4
 10
-1.11243954E+02
 20
-1.10313504E+02
  0
VERTEX
  8
0
 62
4
 10
-1.11514246E+02
 20
-1.10354510E+02
  0
VERTEX
  8
0
 62
4
 10
-1.11762281E+02
 20
-1.10399559E+02
  0
VERTEX
  8
0
 62
4
 10
-1.11986063E+02
 20
-1.10448287E+02
  0
VERTEX
  8
0
 62
4
 10
-1.12183790E+02
 20
-1.10500302E+02
  0
VERTEX
  8
0
 62
4
 10
-1.12353870E+02
 20
-1.10555186E+02
  0
VERTEX
  8
0
 62
4
 10
-1.12494934E+02
 20
-1.10612496E+02
  0
VERTEX
  8
0
 62
4
 10
-1.12605846E+02
 20
-1.10671771E+02
  0
VERTEX
  8
0
 62
4
 10
-1.12685713E+02
 20
-1.10732534E+02
  0
VERTEX
  8
0
 62
4
 10
-1.12733892E+02
 20
-1.10794295E+02
  0
VERTEX
  8
0
 62
4
 10
-1.12749995E+02
 20
-1.10856558E+02
  0
SEQEND
  8
0
  0
POLYLINE
  8
0
 62
4
 66
1
  0
VERTEX
  8
0
 62
4
 10
-1.05349995E+02
 20
-1.11714861E+02
  0
VERTEX
  8
0
 62
4
 10
-1.05176943E+02
 20
-1.11661205E+02
  0
VERTEX
  8
0
 62
4
 10
-1.05031900E+02
 20
-1.11605102E+02
  0
VERTEX
  8
0
 62
4
 10
-1.04916003E+02
 20
-1.11546990E+02
  0
VERTEX
  8
0
 62
4
 10
-1.04830161E+02
 20
-1.11487326E+02
  0
VERTEX
  8
0
 62
4
 10
-1.04775046E+02
 20
-1.11426577E+02
  0
VERTEX
  8
0
 62
4
 10
-1.04751091E+02
 20
-1.11365220E+02
  0
VERTEX
  8
0
 62
4
 10
-1.04758483E+02
 20
-1.11303736E+02
  0
VERTEX
  8
0
 62
4
 10
-1.04797165E+02
 20
-1.11242606E+02
  0
VERTEX
  8
0
 62
4
 10
-1.04866832E+02
 20
-1.11182310E+02
  0
VERTEX
  8
0
 62
4
 10
-1.04966940E+02
 20
-1.11123320E+02
  0
VERTEX
  8
0
 62
4
 10
-1.05096703E+02
 20
-1.11066099E+02
  0
VERTEX
  8
0
 62
4
 10
-1.05255104E+02
 20
-1.11011095E+02
  0
VERTEX
  8
0
 62
4
 10
-1.05440902E+02
 20
-1.10958740E+02
  0
VERTEX
  8
0
 62
4
 10
-1.05652639E+02
 20
-1.10909444E+02
  0
VERTEX
  8
0
 62
4
 10
-1.05888657E+02
 20
-1.10863593E+02
  0
VERTEX
  8
0
 62
4
 10
-1.06147104E+02
 20
-1.10821547E+02
  0
VERTEX
  8
0
 62
4
 10
-1.06425956E+02
 20
-1.10783635E+02
  0
VERTEX
  8
0
 62
4
 10
-1.06723026E+02
 20
-1.10750155E+02
  0
VERTEX
  8
0
 62
4
 10
-1.07035985E+02
 20
-1.10721369E+02
  0
VERTEX
  8
0
 62
4
 10
-1.07362380E+02
 20
-1.10697503E+02
  0
VERTEX
  8
0
 62
4
 10
-1.07699652E+02
 20
-1.10678743E+02
  0
VERTEX
  8
0
 62
4
 10
-1.08045159E+02
 20
-1.10665238E+02
  0
VERTEX
  8
0
 62
4
 10
-1.08396190E+02
 20
-1.10657092E+02
  0
VERTEX
  8
0
 62
4
 10
-1.08749995E+02
 20
-1.10654369E+02
  0
VERTEX
  8
0
 62
4
 10
-1.09103800E+02
 20
-1.10657092E+02
  0
VERTEX
  8
0
 62
4
 10
-1.09454831E+02
 20
-1.10665238E+02
  0
VERTEX
  8
0
 62
4
 10
-1.09800338E+02
 20
-1.10678743E+02
  0
VERTEX
  8
0
 62
4
 10
-1.10137610E+02
 20
-1.10697503E+02
  0
VERTEX
  8
0
 62
4
 10
-1.10464005E+02
 20
-1.10721369E+02
  0
VERTEX
  8
0
 62
4
 10
-1.10776964E+02
 20
-1.10750155E+02
  0
VERTEX
  8
0
 62
4
 10
-1.11074034E+02
 20
-1.10783635E+02
  0
VERTEX
  8
0
 62
4
 10
-1.11352886E+02
 20
-1.10821547E+02
  0
VERTEX
  8
0
 62
4
 10
-1.11611333E+02
 20
-1.10863593E+02
  0
VERTEX
  8
0
 62
4
 10
-1.11847351E+02
 20
-1.10909444E+02
  0
VERTEX
  8
0
 62
4
 10
-1.12059088E+02
 20
-1.10958740E+02
  0
VERTEX
  8
0
 62
4
 10
-1.12244886E+02
 20
-1.11011095E+02
  0
VERTEX
  8
0
 62
4
 10
-1.12403287E+02
 20
-1.11066099E+02
  0
VERTEX
  8
0
 62
4
 10
-1.12533050E+02
 20
-1.11123320E+02
  0
VERTEX
  8
0
 62
4
 10
-1.12633158E+02
 20
-1.11182310E+02
  0
VERTEX
  8
0
 62
4
 10
-1.12702825E+02
 20
-1.11242606E+02
  0
VERTEX
  8
0
 62
4
 10
-1.12741507E+02
 20
-1.11303736E+02
  0
VERTEX
  8
0
 62
4
 10
-1.12748899E+02
 20
-1.11365220E+02
  0
VERTEX
  8
0
 62
4
 10
-1.12724944E+02
 20
-1.11426577E+02
  0
VERTEX
  8
0
 62
4
 10
-1.12669829E+02
 20
-1.11487326E+02
  0
VERTEX
  8
0
 62
4
 10
-1.12583987E+02
 20
-1.11546990E+02
  0
VERTEX
  8
0
 62
4
 10
-1.12468090E+02
 20
-1.11605102E+02
  0
VERTEX
  8
0
 62
4
 10
-1.12323047E+02
 20
-1.11661205E+02
  0
VERTEX
  8
0
 62
4
 10
-1.12149995E+02
 20
-1.11714861E+02
  0
SEQEND
  8
0
  0
POLYLINE
  8
0
 62
4
 66
1
  0
VERTEX
  8
0
 62
4
 10
-1.05349995E+02
 20
-1.11348962E+02
  0
VERTEX
  8
0
 62
4
 10
-1.05363682E+02
 20
-1.11296039E+02
  0
VERTEX
  8
0
 62
4
 10
-1.05404634E+02
 20
-1.11243541E+02
  0
VERTEX
  8
0
 62
4
 10
-1.05472521E+02
 20
-1.11191893E+02
  0
VERTEX
  8
0
 62
4
 10
-1.05566796E+02
 20
-1.11141509E+02
  0
VERTEX
  8
0
 62
4
 10
-1.05686701E+02
 20
-1.11092795E+02
  0
VERTEX
  8
0
 62
4
 10
-1.05831269E+02
 20
-1.11046144E+02
  0
VERTEX
  8
0
 62
4
 10
-1.05999337E+02
 20
-1.11001931E+02
  0
VERTEX
  8
0
 62
4
 10
-1.06189552E+02
 20
-1.10960512E+02
  0
VERTEX
  8
0
 62
4
 10
-1.06400382E+02
 20
-1.10922221E+02
  0
VERTEX
  8
0
 62
4
 10
-1.06630130E+02
 20
-1.10887366E+02
  0
VERTEX
  8
0
 62
4
 10
-1.06876945E+02
 20
-1.10856227E+02
  0
VERTEX
  8
0
 62
4
 10
-1.07138842E+02
 20
-1.10829055E+02
  0
VERTEX
  8
0
 62
4
 10
-1.07413710E+02
 20
-1.10806069E+02
  0
VERTEX
  8
0
 62
4
 10
-1.07699337E+02
 20
-1.10787455E+02
  0
VERTEX
  8
0
 62
4
 10
-1.07993424E+02
 20
-1.10773361E+02
  0
VERTEX
  8
0
 62
4
 10
-1.08293602E+02
 20
-1.10763901E+02
  0
VERTEX
  8
0
 62
4
 10
-1.08597455E+02
 20
-1.10759153E+02
  0
VERTEX
  8
0
 62
4
 10
-1.08902535E+02
 20
-1.10759153E+02
  0
VERTEX
  8
0
 62
4
 10
-1.09206388E+02
 20
-1.10763901E+02
  0
VERTEX
  8
0
 62
4
 10
-1.09506566E+02
 20
-1.10773361E+02
  0
VERTEX
  8
0
 62
4
 10
-1.09800653E+02
 20
-1.10787455E+02
  0
VERTEX
  8
0
 62
4
 10
-1.10086280E+02
 20
-1.10806069E+02
  0
VERTEX
  8
0
 62
4
 10
-1.10361148E+02
 20
-1.10829055E+02
  0
VERTEX
  8
0
 62
4
 10
-1.10623045E+02
 20
-1.10856227E+02
  0
VERTEX
  8
0
 62
4
 10
-1.10869860E+02
 20
-1.10887366E+02
  0
VERTEX
  8
0
 62
4
 10
-1.11099608E+02
 20
-1.10922221E+02
  0
VERTEX
  8
0
 62
4
 10
-1.11310438E+02
 20
-1.10960512E+02
  0
VERTEX
  8
0
 62
4
 10
-1.11500653E+02
 20
-1.11001931E+02
  0
VERTEX
  8
0
 62
4
 10
-1.11668721E+02
 20
-1.11046144E+02
  0
VERTEX
  8
0
 62
4
 10
-1.11813289E+02
 20
-1.11092795E+02
  0
VERTEX
  8
0
 62
4
 10
-1.11933194E+02
 20
-1.11141509E+02
  0
VERTEX
  8
0
 62
4
 10
-1.12027469E+02
 20
-1.11191893E+02
  0
VERTEX
  8
0
 62
4
 10
-1.12095356E+02
 20
-1.11243541E+02
  0
VERTEX
  8
0
 62
4
 10
-1.12136308E+02
 20
-1.11296039E+02
  0
VERTEX
  8
0
 62
4
 10
-1.12149995E+02
 20
-1.11348962E+02
  0
SEQEND
  8
0
  0
LINE
  8
0
 62
4
 10
-1.05349995E+02
 20
-1.12158919E+02
 11
-8.32499945E+01
 21
-1.12158919E+02
  0
LINE
  8
0
 62
4
 10
1.95825684E+02
 20
-1.96832042E+02
 11
1.96178365E+02
 21
-1.97777567E+02
  0
LINE
  8
0
 62
4
 10
1.89545684E+02
 20
-1.96832042E+02
 11
1.89193003E+02
 21
-1.97777567E+02
  0
POLYLINE
  8
0
 62
4
 66
1
  0
VERTEX
  8
0
 62
4
 10
1.89193003E+02
 20
-1.97777567E+02
  0
VERTEX
  8
0
 62
4
 10
1.89186669E+02
 20
-1.97831267E+02
  0
VERTEX
  8
0
 62
4
 10
1.89207663E+02
 20
-1.97884855E+02
  0
VERTEX
  8
0
 62
4
 10
1.89255821E+02
 20
-1.97937912E+02
  0
VERTEX
  8
0
 62
4
 10
1.89330768E+02
 20
-1.97990023E+02
  0
VERTEX
  8
0
 62
4
 10
1.89431916E+02
 20
-1.98040782E+02
  0
VERTEX
  8
0
 62
4
 10
1.89558478E+02
 20
-1.98089792E+02
  0
VERTEX
  8
0
 62
4
 10
1.89709463E+02
 20
-1.98136670E+02
  0
VERTEX
  8
0
 62
4
 10
1.89883694E+02
 20
-1.98181050E+02
  0
VERTEX
  8
0
 62
4
 10
1.90079808E+02
 20
-1.98222586E+02
  0
VERTEX
  8
0
 62
4
 10
1.90296275E+02
 20
-1.98260952E+02
  0
VERTEX
  8
0
 62
4
 10
1.90531404E+02
 20
-1.98295851E+02
  0
VERTEX
  8
0
 62
4
 10
1.90783358E+02
 20
-1.98327008E+02
  0
VERTEX
  8
0
 62
4
 10
1.91050170E+02
 20
-1.98354181E+02
  0
VERTEX
  8
0
 62
4
 10
1.91329755E+02
 20
-1.98377157E+02
  0
VERTEX
  8
0
 62
4
 10
1.91619930E+02
 20
-1.98395757E+02
  0
VERTEX
  8
0
 62
4
 10
1.91918430E+02
 20
-1.98409836E+02
  0
VERTEX
  8
0
 62
4
 10
1.92222921E+02
 20
-1.98419283E+02
  0
VERTEX
  8
0
 62
4
 10
1.92531027E+02
 20
-1.98424025E+02
  0
VERTEX
  8
0
 62
4
 10
1.92840341E+02
 20
-1.98424025E+02
  0
VERTEX
  8
0
 62
4
 10
1.93148447E+02
 20
-1.98419283E+02
  0
VERTEX
  8
0
 62
4
 10
1.93452938E+02
 20
-1.98409836E+02
  0
VERTEX
  8
0
 62
4
 10
1.93751438E+02
 20
-1.98395757E+02
  0
VERTEX
  8
0
 62
4
 10
1.94041613E+02
 20
-1.98377157E+02
  0
VERTEX
  8
0
 62
4
 10
1.94321198E+02
 20
-1.98354181E+02
  0
VERTEX
  8
0
 62
4
 10
1.94588010E+02
 20
-1.98327008E+02
  0
VERTEX
  8
0
 62
4
 10
1.94839964E+02
 20
-1.98295851E+02
  0
VERTEX
  8
0
 62
4
 10
1.95075093E+02
 20
-1.98260952E+02
  0
VERTEX
  8
0
 62
4
 10
1.95291560E+02
 20
-1.98222586E+02
  0
VERTEX
  8
0
 62
4
 10
1.95487674E+02
 20
-1.98181050E+02
  0
VERTEX
  8
0
 62
4
 10
1.95661905E+02
 20
-1.98136670E+02
  0
VERTEX
  8
0
 62
4
 10
1.95812890E+02
 20
-1.98089792E+02
  0
VERTEX
  8
0
 62
4
 10
1.95939452E+02
 20
-1.98040782E+02
  0
VERTEX
  8
0
 62
4
 10
1.96040600E+02
 20
-1.97990023E+02
  0
VERTEX
  8
0
 62
4
 10
1.96115547E+02
 20
-1.97937912E+02
  0
VERTEX
  8
0
 62
4
 10
1.96163705E+02
 20
-1.97884855E+02
  0
VERTEX
  8
0
 62
4
 10
1.96184699E+02
 20
-1.97831267E+02
  0
VERTEX
  8
0
 62
4
 10
1.96178365E+02
 20
-1.97777567E+02
  0
SEQEND
  8
0
  0
POLYLINE
  8
0
 62
4
 66
1
  0
VERTEX
  8
0
 62
4
 10
1.95825684E+02
 20
-1.96832042E+02
  0
VERTEX
  8
0
 62
4
 10
1.95813735E+02
 20
-1.96784520E+02
  0
VERTEX
  8
0
 62
4
 10
1.95777980E+02
 20
-1.96737359E+02
  0
VERTEX
  8
0
 62
4
 10
1.95718691E+02
 20
-1.96690920E+02
  0
VERTEX
  8
0
 62
4
 10
1.95636319E+02
 20
-1.96645554E+02
  0
VERTEX
  8
0
 62
4
 10
1.95531490E+02
 20
-1.96601607E+02
  0
VERTEX
  8
0
 62
4
 10
1.95405004E+02
 20
-1.96559414E+02
  0
VERTEX
  8
0
 62
4
 10
1.95257821E+02
 20
-1.96519296E+02
  0
VERTEX
  8
0
 62
4
 10
1.95091064E+02
 20
-1.96481559E+02
  0
VERTEX
  8
0
 62
4
 10
1.94905999E+02
 20
-1.96446488E+02
  0
VERTEX
  8
0
 62
4
 10
1.94704037E+02
 20
-1.96414352E+02
  0
VERTEX
  8
0
 62
4
 10
1.94486714E+02
 20
-1.96385395E+02
  0
VERTEX
  8
0
 62
4
 10
1.94255684E+02
 20
-1.96359837E+02
  0
VERTEX
  8
0
 62
4
 10
1.94012705E+02
 20
-1.96337873E+02
  0
VERTEX
  8
0
 62
4
 10
1.93759627E+02
 20
-1.96319670E+02
  0
VERTEX
  8
0
 62
4
 10
1.93498376E+02
 20
-1.96305366E+02
  0
VERTEX
  8
0
 62
4
 10
1.93230939E+02
 20
-1.96295070E+02
  0
VERTEX
  8
0
 62
4
 10
1.92959353E+02
 20
-1.96288862E+02
  0
VERTEX
  8
0
 62
4
 10
1.92685684E+02
 20
-1.96286787E+02
  0
VERTEX
  8
0
 62
4
 10
1.92412015E+02
 20
-1.96288862E+02
  0
VERTEX
  8
0
 62
4
 10
1.92140429E+02
 20
-1.96295070E+02
  0
VERTEX
  8
0
 62
4
 10
1.91872992E+02
 20
-1.96305366E+02
  0
VERTEX
  8
0
 62
4
 10
1.91611741E+02
 20
-1.96319670E+02
  0
VERTEX
  8
0
 62
4
 10
1.91358663E+02
 20
-1.96337873E+02
  0
VERTEX
  8
0
 62
4
 10
1.91115684E+02
 20
-1.96359837E+02
  0
VERTEX
  8
0
 62
4
 10
1.90884654E+02
 20
-1.96385395E+02
  0
VERTEX
  8
0
 62
4
 10
1.90667331E+02
 20
-1.96414352E+02
  0
VERTEX
  8
0
 62
4
 10
1.90465369E+02
 20
-1.96446488E+02
  0
VERTEX
  8
0
 62
4
 10
1.90280304E+02
 20
-1.96481559E+02
  0
VERTEX
  8
0
 62
4
 10
1.90113547E+02
 20
-1.96519296E+02
  0
VERTEX
  8
0
 62
4
 10
1.89966364E+02
 20
-1.96559414E+02
  0
VERTEX
  8
0
 62
4
 10
1.89839878E+02
 20
-1.96601607E+02
  0
VERTEX
  8
0
 62
4
 10
1.89735049E+02
 20
-1.96645554E+02
  0
VERTEX
  8
0
 62
4
 10
1.89652677E+02
 20
-1.96690920E+02
  0
VERTEX
  8
0
 62
4
 10
1.89593388E+02
 20
-1.96737359E+02
  0
VERTEX
  8
0
 62
4
 10
1.89557633E+02
 20
-1.96784520E+02
  0
VERTEX
  8
0
 62
4
 10
1.89545684E+02
 20
-1.96832042E+02
  0
VERTEX
  8
0
 62
4
 10
1.89557633E+02
 20
-1.96879564E+02
  0
VERTEX
  8
0
 62
4
 10
1.89593388E+02
 20
-1.96926725E+02
  0
VERTEX
  8
0
 62
4
 10
1.89652677E+02
 20
-1.96973164E+02
  0
VERTEX
  8
0
 62
4
 10
1.89735049E+02
 20
-1.97018530E+02
  0
VERTEX
  8
0
 62
4
 10
1.89839878E+02
 20
-1.97062477E+02
  0
VERTEX
  8
0
 62
4
 10
1.89966364E+02
 20
-1.97104670E+02
  0
VERTEX
  8
0
 62
4
 10
1.90113547E+02
 20
-1.97144788E+02
  0
VERTEX
  8
0
 62
4
 10
1.90280304E+02
 20
-1.97182525E+02
  0
VERTEX
  8
0
 62
4
 10
1.90465369E+02
 20
-1.97217596E+02
  0
VERTEX
  8
0
 62
4
 10
1.90667331E+02
 20
-1.97249732E+02
  0
VERTEX
  8
0
 62
4
 10
1.90884654E+02
 20
-1.97278689E+02
  0
VERTEX
  8
0
 62
4
 10
1.91115684E+02
 20
-1.97304247E+02
  0
VERTEX
  8
0
 62
4
 10
1.91358663E+02
 20
-1.97326211E+02
  0
VERTEX
  8
0
 62
4
 10
1.91611741E+02
 20
-1.97344414E+02
  0
VERTEX
  8
0
 62
4
 10
1.91872992E+02
 20
-1.97358718E+02
  0
VERTEX
  8
0
 62
4
 10
1.92140429E+02
 20
-1.97369014E+02
  0
VERTEX
  8
0
 62
4
 10
1.92412015E+02
 20
-1.97375222E+02
  0
VERTEX
  8
0
 62
4
 10
1.92685684E+02
 20
-1.97377297E+02
  0
VERTEX
  8
0
 62
4
 10
1.92959353E+02
 20
-1.97375222E+02
  0
VERTEX
  8
0
 62
4
 10
1.93230939E+02
 20
-1.97369014E+02
  0
VERTEX
  8
0
 62
4
 10
1.93498376E+02
 20
-1.97358718E+02
  0
VERTEX
  8
0
 62
4
 10
1.93759627E+02
 20
-1.97344414E+02
  0
VERTEX
  8
0
 62
4
 10
1.94012705E+02
 20
-1.97326211E+02
  0
VERTEX
  8
0
 62
4
 10
1.94255684E+02
 20
-1.97304247E+02
  0
VERTEX
  8
0
 62
4
 10
1.94486714E+02
 20
-1.97278689E+02
  0
VERTEX
  8
0
 62
4
 10
1.94704037E+02
 20
-1.97249732E+02
  0
VERTEX
  8
0
 62
4
 10
1.94905999E+02
 20
-1.97217596E+02
  0
VERTEX
  8
0
 62
4
 10
1.95091064E+02
 20
-1.97182525E+02
  0
VERTEX
  8
0
 62
4
 10
1.95257821E+02
 20
-1.97144788E+02
  0
VERTEX
  8
0
 62
4
 10
1.95405004E+02
 20
-1.97104670E+02
  0
VERTEX
  8
0
 62
4
 10
1.95531490E+02
 20
-1.97062477E+02
  0
VERTEX
  8
0
 62
4
 10
1.95636319E+02
 20
-1.97018530E+02
  0
VERTEX
  8
0
 62
4
 10
1.95718691E+02
 20
-1.96973164E+02
  0
VERTEX
  8
0
 62
4
 10
1.95777980E+02
 20
-1.96926725E+02
  0
VERTEX
  8
0
 62
4
 10
1.95813735E+02
 20
-1.96879564E+02
  0
VERTEX
  8
0
 62
4
 10
1.95825684E+02
 20
-1.96832042E+02
  0
SEQEND
  8
0
  0
LINE
  8
0
  6
CENTER
 62
6
 10
1.92685684E+02
 20
-1.94677911E+02
 11
1.92685684E+02
 21
-1.96832042E+02
  0
LINE
  8
0
 62
4
 10
2.35685684E+02
 20
-1.67780214E+02
 11
2.30685684E+02
 21
-1.67780214E+02
  0
LINE
  8
0
 62
4
 10
2.19185684E+02
 20
-1.98914027E+02
 11
2.19185684E+02
 21
-1.96809929E+02
  0
LINE
  8
0
 62
4
 10
1.83185684E+02
 20
-1.98914027E+02
 11
1.83185684E+02
 21
-1.96809929E+02
  0
LINE
  8
0
 62
4
 10
1.99185684E+02
 20
-1.96129056E+02
 11
1.83185684E+02
 21
-1.96129056E+02
  0
ARC
  8
0
 62
4
 10
2.19186184E+02
 20
-1.97628556E+02
 40
1.49950029E+00
 50
3.59980903E+02
 51
9.00190969E+01
  0
LINE
  8
0
 62
4
 10
2.19185684E+02
 20
-1.96129056E+02
 11
2.18185684E+02
 21
-1.96129056E+02
  0
ARC
  8
0
 62
4
 10
1.83185184E+02
 20
-1.97628556E+02
 40
1.49950029E+00
 50
8.99809029E+01
 51
1.80019097E+02
  0
POLYLINE
  8
0
 62
4
 66
1
  0
VERTEX
  8
0
 62
4
 10
2.14685684E+02
 20
-2.25236093E+02
  0
VERTEX
  8
0
 62
4
 10
2.14677824E+02
 20
-2.25062077E+02
  0
VERTEX
  8
0
 62
4
 10
2.14654304E+02
 20
-2.24889429E+02
  0
VERTEX
  8
0
 62
4
 10
2.14615311E+02
 20
-2.24719506E+02
  0
VERTEX
  8
0
 62
4
 10
2.14561150E+02
 20
-2.24553643E+02
  0
VERTEX
  8
0
 62
4
 10
2.14492247E+02
 20
-2.24393145E+02
  0
VERTEX
  8
0
 62
4
 10
2.14409144E+02
 20
-2.24239273E+02
  0
VERTEX
  8
0
 62
4
 10
2.14312494E+02
 20
-2.24093236E+02
  0
VERTEX
  8
0
 62
4
 10
2.14203056E+02
 20
-2.23956182E+02
  0
VERTEX
  8
0
 62
4
 10
2.14081692E+02
 20
-2.23829189E+02
  0
VERTEX
  8
0
 62
4
 10
2.13949354E+02
 20
-2.23713255E+02
  0
VERTEX
  8
0
 62
4
 10
2.13807083E+02
 20
-2.23609291E+02
  0
VERTEX
  8
0
 62
4
 10
2.13655998E+02
 20
-2.23518114E+02
  0
VERTEX
  8
0
 62
4
 10
2.13497286E+02
 20
-2.23440441E+02
  0
VERTEX
  8
0
 62
4
 10
2.13332194E+02
 20
-2.23376882E+02
  0
VERTEX
  8
0
 62
4
 10
2.13162020E+02
 20
-2.23327938E+02
  0
VERTEX
  8
0
 62
4
 10
2.12988102E+02
 20
-2.23293992E+02
  0
VERTEX
  8
0
 62
4
 10
2.12811807E+02
 20
-2.23275312E+02
  0
VERTEX
  8
0
 62
4
 10
2.12634521E+02
 20
-2.23272044E+02
  0
VERTEX
  8
0
 62
4
 10
2.12457637E+02
 20
-2.23284215E+02
  0
VERTEX
  8
0
 62
4
 10
2.12282545E+02
 20
-2.23311728E+02
  0
VERTEX
  8
0
 62
4
 10
2.12110623E+02
 20
-2.23354368E+02
  0
VERTEX
  8
0
 62
4
 10
2.11943220E+02
 20
-2.23411798E+02
  0
VERTEX
  8
0
 62
4
 10
2.11781654E+02
 20
-2.23483568E+02
  0
VERTEX
  8
0
 62
4
 10
2.11627193E+02
 20
-2.23569114E+02
  0
VERTEX
  8
0
 62
4
 10
2.11481053E+02
 20
-2.23667762E+02
  0
VERTEX
  8
0
 62
4
 10
2.11344381E+02
 20
-2.23778739E+02
  0
VERTEX
  8
0
 62
4
 10
2.11218253E+02
 20
-2.23901170E+02
  0
VERTEX
  8
0
 62
4
 10
2.11103659E+02
 20
-2.24034095E+02
  0
VERTEX
  8
0
 62
4
 10
2.11001500E+02
 20
-2.24176468E+02
  0
VERTEX
  8
0
 62
4
 10
2.10912580E+02
 20
-2.24327170E+02
  0
VERTEX
  8
0
 62
4
 10
2.10837597E+02
 20
-2.24485016E+02
  0
VERTEX
  8
0
 62
4
 10
2.10777141E+02
 20
-2.24648766E+02
  0
VERTEX
  8
0
 62
4
 10
2.10731686E+02
 20
-2.24817133E+02
  0
VERTEX
  8
0
 62
4
 10
2.10701591E+02
 20
-2.24988792E+02
  0
VERTEX
  8
0
 62
4
 10
2.10687092E+02
 20
-2.25162396E+02
  0
VERTEX
  8
0
 62
4
 10
2.10688302E+02
 20
-2.25336579E+02
  0
SEQEND
  8
0
  0
POLYLINE
  8
0
 62
4
 66
1
  0
VERTEX
  8
0
 62
4
 10
2.14420684E+02
 20
-2.25610714E+02
  0
VERTEX
  8
0
 62
4
 10
2.14414082E+02
 20
-2.25461796E+02
  0
VERTEX
  8
0
 62
4
 10
2.14394325E+02
 20
-2.25314012E+02
  0
VERTEX
  8
0
 62
4
 10
2.14361565E+02
 20
-2.25168485E+02
  0
VERTEX
  8
0
 62
4
 10
2.14316051E+02
 20
-2.25026324E+02
  0
VERTEX
  8
0
 62
4
 10
2.14258128E+02
 20
-2.24888611E+02
  0
VERTEX
  8
0
 62
4
 10
2.14188238E+02
 20
-2.24756393E+02
  0
VERTEX
  8
0
 62
4
 10
2.14106913E+02
 20
-2.24630678E+02
  0
VERTEX
  8
0
 62
4
 10
2.14014771E+02
 20
-2.24512420E+02
  0
VERTEX
  8
0
 62
4
 10
2.13912514E+02
 20
-2.24402522E+02
  0
VERTEX
  8
0
 62
4
 10
2.13800921E+02
 20
-2.24301819E+02
  0
VERTEX
  8
0
 62
4
 10
2.13680839E+02
 20
-2.24211077E+02
  0
VERTEX
  8
0
 62
4
 10
2.13553184E+02
 20
-2.24130987E+02
  0
VERTEX
  8
0
 62
4
 10
2.13418927E+02
 20
-2.24062159E+02
  0
VERTEX
  8
0
 62
4
 10
2.13279089E+02
 20
-2.24005116E+02
  0
VERTEX
  8
0
 62
4
 10
2.13134735E+02
 20
-2.23960293E+02
  0
VERTEX
  8
0
 62
4
 10
2.12986964E+02
 20
-2.23928031E+02
  0
VERTEX
  8
0
 62
4
 10
2.12836899E+02
 20
-2.23908574E+02
  0
VERTEX
  8
0
 62
4
 10
2.12685684E+02
 20
-2.23902073E+02
  0
VERTEX
  8
0
 62
4
 10
2.12534469E+02
 20
-2.23908574E+02
  0
VERTEX
  8
0
 62
4
 10
2.12384404E+02
 20
-2.23928031E+02
  0
VERTEX
  8
0
 62
4
 10
2.12236633E+02
 20
-2.23960293E+02
  0
VERTEX
  8
0
 62
4
 10
2.12092279E+02
 20
-2.24005116E+02
  0
VERTEX
  8
0
 62
4
 10
2.11952441E+02
 20
-2.24062159E+02
  0
VERTEX
  8
0
 62
4
 10
2.11818184E+02
 20
-2.24130987E+02
  0
VERTEX
  8
0
 62
4
 10
2.11690529E+02
 20
-2.24211077E+02
  0
VERTEX
  8
0
 62
4
 10
2.11570447E+02
 20
-2.24301819E+02
  0
VERTEX
  8
0
 62
4
 10
2.11458854E+02
 20
-2.24402522E+02
  0
VERTEX
  8
0
 62
4
 10
2.11356597E+02
 20
-2.24512420E+02
  0
VERTEX
  8
0
 62
4
 10
2.11264455E+02
 20
-2.24630678E+02
  0
VERTEX
  8
0
 62
4
 10
2.11183130E+02
 20
-2.24756393E+02
  0
VERTEX
  8
0
 62
4
 10
2.11113240E+02
 20
-2.24888611E+02
  0
VERTEX
  8
0
 62
4
 10
2.11055317E+02
 20
-2.25026324E+02
  0
VERTEX
  8
0
 62
4
 10
2.11009803E+02
 20
-2.25168485E+02
  0
VERTEX
  8
0
 62
4
 10
2.10977043E+02
 20
-2.25314012E+02
  0
VERTEX
  8
0
 62
4
 10
2.10957286E+02
 20
-2.25461796E+02
  0
VERTEX
  8
0
 62
4
 10
2.10950684E+02
 20
-2.25610714E+02
  0
VERTEX
  8
0
 62
4
 10
2.10957286E+02
 20
-2.25759632E+02
  0
VERTEX
  8
0
 62
4
 10
2.10977043E+02
 20
-2.25907416E+02
  0
VERTEX
  8
0
 62
4
 10
2.11009803E+02
 20
-2.26052943E+02
  0
VERTEX
  8
0
 62
4
 10
2.11055317E+02
 20
-2.26195104E+02
  0
VERTEX
  8
0
 62
4
 10
2.11113240E+02
 20
-2.26332817E+02
  0
VERTEX
  8
0
 62
4
 10
2.11183130E+02
 20
-2.26465035E+02
  0
VERTEX
  8
0
 62
4
 10
2.11264455E+02
 20
-2.26590750E+02
  0
VERTEX
  8
0
 62
4
 10
2.11356597E+02
 20
-2.26709008E+02
  0
VERTEX
  8
0
 62
4
 10
2.11458854E+02
 20
-2.26818906E+02
  0
VERTEX
  8
0
 62
4
 10
2.11570447E+02
 20
-2.26919609E+02
  0
VERTEX
  8
0
 62
4
 10
2.11690529E+02
 20
-2.27010351E+02
  0
VERTEX
  8
0
 62
4
 10
2.11818184E+02
 20
-2.27090441E+02
  0
VERTEX
  8
0
 62
4
 10
2.11952441E+02
 20
-2.27159269E+02
  0
VERTEX
  8
0
 62
4
 10
2.12092279E+02
 20
-2.27216312E+02
  0
VERTEX
  8
0
 62
4
 10
2.12236633E+02
 20
-2.27261135E+02
  0
VERTEX
  8
0
 62
4
 10
2.12384404E+02
 20
-2.27293397E+02
  0
VERTEX
  8
0
 62
4
 10
2.12534469E+02
 20
-2.27312854E+02
  0
VERTEX
  8
0
 62
4
 10
2.12685684E+02
 20
-2.27319355E+02
  0
VERTEX
  8
0
 62
4
 10
2.12836899E+02
 20
-2.27312854E+02
  0
VERTEX
  8
0
 62
4
 10
2.12986964E+02
 20
-2.27293397E+02
  0
VERTEX
  8
0
 62
4
 10
2.13134735E+02
 20
-2.27261135E+02
  0
VERTEX
  8
0
 62
4
 10
2.13279089E+02
 20
-2.27216312E+02
  0
VERTEX
  8
0
 62
4
 10
2.13418927E+02
 20
-2.27159269E+02
  0
VERTEX
  8
0
 62
4
 10
2.13553184E+02
 20
-2.27090441E+02
  0
VERTEX
  8
0
 62
4
 10
2.13680839E+02
 20
-2.27010351E+02
  0
VERTEX
  8
0
 62
4
 10
2.13800921E+02
 20
-2.26919609E+02
  0
VERTEX
  8
0
 62
4
 10
2.13912514E+02
 20
-2.26818906E+02
  0
VERTEX
  8
0
 62
4
 10
2.14014771E+02
 20
-2.26709008E+02
  0
VERTEX
  8
0
 62
4
 10
2.14106913E+02
 20
-2.26590750E+02
  0
VERTEX
  8
0
 62
4
 10
2.14188238E+02
 20
-2.26465035E+02
  0
VERTEX
  8
0
 62
4
 10
2.14258128E+02
 20
-2.26332817E+02
  0
VERTEX
  8
0
 62
4
 10
2.14316051E+02
 20
-2.26195104E+02
  0
VERTEX
  8
0
 62
4
 10
2.14361565E+02
 20
-2.26052943E+02
  0
VERTEX
  8
0
 62
4
 10
2.14394325E+02
 20
-2.25907416E+02
  0
VERTEX
  8
0
 62
4
 10
2.14414082E+02
 20
-2.25759632E+02
  0
VERTEX
  8
0
 62
4
 10
2.14420684E+02
 20
-2.25610714E+02
  0
SEQEND
  8
0
  0
POLYLINE
  8
0
 62
4
 66
1
  0
VERTEX
  8
0
 62
4
 10
2.14685684E+02
 20
-2.25437065E+02
  0
VERTEX
  8
0
 62
4
 10
2.14678073E+02
 20
-2.25265831E+02
  0
VERTEX
  8
0
 62
4
 10
2.14655300E+02
 20
-2.25095900E+02
  0
VERTEX
  8
0
 62
4
 10
2.14617536E+02
 20
-2.24928565E+02
  0
VERTEX
  8
0
 62
4
 10
2.14565069E+02
 20
-2.24765101E+02
  0
VERTEX
  8
0
 62
4
 10
2.14498300E+02
 20
-2.24606751E+02
  0
VERTEX
  8
0
 62
4
 10
2.14417735E+02
 20
-2.24454719E+02
  0
VERTEX
  8
0
 62
4
 10
2.14323988E+02
 20
-2.24310164E+02
  0
VERTEX
  8
0
 62
4
 10
2.14217773E+02
 20
-2.24174186E+02
  0
VERTEX
  8
0
 62
4
 10
2.14099898E+02
 20
-2.24047818E+02
  0
VERTEX
  8
0
 62
4
 10
2.13971259E+02
 20
-2.23932024E+02
  0
VERTEX
  8
0
 62
4
 10
2.13832837E+02
 20
-2.23827684E+02
  0
VERTEX
  8
0
 62
4
 10
2.13685684E+02
 20
-2.23735592E+02
  0
VERTEX
  8
0
 62
4
 10
2.13530921E+02
 20
-2.23656450E+02
  0
VERTEX
  8
0
 62
4
 10
2.13369724E+02
 20
-2.23590859E+02
  0
VERTEX
  8
0
 62
4
 10
2.13203322E+02
 20
-2.23539319E+02
  0
VERTEX
  8
0
 62
4
 10
2.13032980E+02
 20
-2.23502222E+02
  0
VERTEX
  8
0
 62
4
 10
2.12859995E+02
 20
-2.23479850E+02
  0
VERTEX
  8
0
 62
4
 10
2.12685684E+02
 20
-2.23472374E+02
  0
VERTEX
  8
0
 62
4
 10
2.12511373E+02
 20
-2.23479850E+02
  0
VERTEX
  8
0
 62
4
 10
2.12338388E+02
 20
-2.23502222E+02
  0
VERTEX
  8
0
 62
4
 10
2.12168046E+02
 20
-2.23539319E+02
  0
VERTEX
  8
0
 62
4
 10
2.12001644E+02
 20
-2.23590859E+02
  0
VERTEX
  8
0
 62
4
 10
2.11840447E+02
 20
-2.23656450E+02
  0
VERTEX
  8
0
 62
4
 10
2.11685684E+02
 20
-2.23735592E+02
  0
VERTEX
  8
0
 62
4
 10
2.11538531E+02
 20
-2.23827684E+02
  0
VERTEX
  8
0
 62
4
 10
2.11400109E+02
 20
-2.23932024E+02
  0
VERTEX
  8
0
 62
4
 10
2.11271470E+02
 20
-2.24047818E+02
  0
VERTEX
  8
0
 62
4
 10
2.11153595E+02
 20
-2.24174186E+02
  0
VERTEX
  8
0
 62
4
 10
2.11047380E+02
 20
-2.24310164E+02
  0
VERTEX
  8
0
 62
4
 10
2.10953633E+02
 20
-2.24454719E+02
  0
VERTEX
  8
0
 62
4
 10
2.10873068E+02
 20
-2.24606751E+02
  0
VERTEX
  8
0
 62
4
 10
2.10806299E+02
 20
-2.24765101E+02
  0
VERTEX
  8
0
 62
4
 10
2.10753832E+02
 20
-2.24928565E+02
  0
VERTEX
  8
0
 62
4
 10
2.10716068E+02
 20
-2.25095900E+02
  0
VERTEX
  8
0
 62
4
 10
2.10693295E+02
 20
-2.25265831E+02
  0
VERTEX
  8
0
 62
4
 10
2.10685684E+02
 20
-2.25437065E+02
  0
VERTEX
  8
0
 62
4
 10
2.10693295E+02
 20
-2.25608299E+02
  0
VERTEX
  8
0
 62
4
 10
2.10716068E+02
 20
-2.25778230E+02
  0
VERTEX
  8
0
 62
4
 10
2.10753832E+02
 20
-2.25945565E+02
  0
VERTEX
  8
0
 62
4
 10
2.10806299E+02
 20
-2.26109029E+02
  0
VERTEX
  8
0
 62
4
 10
2.10873068E+02
 20
-2.26267379E+02
  0
VERTEX
  8
0
 62
4
 10
2.10953633E+02
 20
-2.26419411E+02
  0
VERTEX
  8
0
 62
4
 10
2.11047380E+02
 20
-2.26563966E+02
  0
VERTEX
  8
0
 62
4
 10
2.11153595E+02
 20
-2.26699944E+02
  0
VERTEX
  8
0
 62
4
 10
2.11271470E+02
 20
-2.26826312E+02
  0
VERTEX
  8
0
 62
4
 10
2.11400109E+02
 20
-2.26942106E+02
  0
VERTEX
  8
0
 62
4
 10
2.11538531E+02
 20
-2.27046446E+02
  0
VERTEX
  8
0
 62
4
 10
2.11685684E+02
 20
-2.27138538E+02
  0
VERTEX
  8
0
 62
4
 10
2.11840447E+02
 20
-2.27217680E+02
  0
VERTEX
  8
0
 62
4
 10
2.12001644E+02
 20
-2.27283271E+02
  0
VERTEX
  8
0
 62
4
 10
2.12168046E+02
 20
-2.27334811E+02
  0
VERTEX
  8
0
 62
4
 10
2.12338388E+02
 20
-2.27371908E+02
  0
VERTEX
  8
0
 62
4
 10
2.12511373E+02
 20
-2.27394280E+02
  0
VERTEX
  8
0
 62
4
 10
2.12685684E+02
 20
-2.27401756E+02
  0
VERTEX
  8
0
 62
4
 10
2.12859995E+02
 20
-2.27394280E+02
  0
VERTEX
  8
0
 62
4
 10
2.13032980E+02
 20
-2.27371908E+02
  0
VERTEX
  8
0
 62
4
 10
2.13203322E+02
 20
-2.27334811E+02
  0
VERTEX
  8
0
 62
4
 10
2.13369724E+02
 20
-2.27283271E+02
  0
VERTEX
  8
0
 62
4
 10
2.13530921E+02
 20
-2.27217680E+02
  0
VERTEX
  8
0
 62
4
 10
2.13685684E+02
 20
-2.27138538E+02
  0
VERTEX
  8
0
 62
4
 10
2.13832837E+02
 20
-2.27046446E+02
  0
VERTEX
  8
0
 62
4
 10
2.13971259E+02
 20
-2.26942106E+02
  0
VERTEX
  8
0
 62
4
 10
2.14099898E+02
 20
-2.26826312E+02
  0
VERTEX
  8
0
 62
4
 10
2.14217773E+02
 20
-2.26699944E+02
  0
VERTEX
  8
0
 62
4
 10
2.14323988E+02
 20
-2.26563966E+02
  0
VERTEX
  8
0
 62
4
 10
2.14417735E+02
 20
-2.26419411E+02
  0
VERTEX
  8
0
 62
4
 10
2.14498300E+02
 20
-2.26267379E+02
  0
VERTEX
  8
0
 62
4
 10
2.14565069E+02
 20
-2.26109029E+02
  0
VERTEX
  8
0
 62
4
 10
2.14617536E+02
 20
-2.25945565E+02
  0
VERTEX
  8
0
 62
4
 10
2.14655300E+02
 20
-2.25778230E+02
  0
VERTEX
  8
0
 62
4
 10
2.14678073E+02
 20
-2.25608299E+02
  0
VERTEX
  8
0
 62
4
 10
2.14685684E+02
 20
-2.25437065E+02
  0
SEQEND
  8
0
  0
POLYLINE
  8
0
 62
6
 66
1
  0
VERTEX
  8
0
 62
6
 10
2.14185684E+02
 20
-2.25605789E+02
  0
VERTEX
  8
0
 62
6
 10
2.14179976E+02
 20
-2.25477042E+02
  0
VERTEX
  8
0
 62
6
 10
2.14162896E+02
 20
-2.25349274E+02
  0
VERTEX
  8
0
 62
6
 10
2.14134573E+02
 20
-2.25223458E+02
  0
VERTEX
  8
0
 62
6
 10
2.14095223E+02
 20
-2.25100553E+02
  0
VERTEX
  8
0
 62
6
 10
2.14045146E+02
 20
-2.24981492E+02
  0
VERTEX
  8
0
 62
6
 10
2.13984722E+02
 20
-2.24867183E+02
  0
VERTEX
  8
0
 62
6
 10
2.13914412E+02
 20
-2.24758495E+02
  0
VERTEX
  8
0
 62
6
 10
2.13834751E+02
 20
-2.24656256E+02
  0
VERTEX
  8
0
 62
6
 10
2.13746344E+02
 20
-2.24561243E+02
  0
VERTEX
  8
0
 62
6
 10
2.13649865E+02
 20
-2.24474179E+02
  0
VERTEX
  8
0
 62
6
 10
2.13546049E+02
 20
-2.24395728E+02
  0
VERTEX
  8
0
 62
6
 10
2.13435684E+02
 20
-2.24326486E+02
  0
VERTEX
  8
0
 62
6
 10
2.13319611E+02
 20
-2.24266981E+02
  0
VERTEX
  8
0
 62
6
 10
2.13198714E+02
 20
-2.24217664E+02
  0
VERTEX
  8
0
 62
6
 10
2.13073913E+02
 20
-2.24178912E+02
  0
VERTEX
  8
0
 62
6
 10
2.12946156E+02
 20
-2.24151020E+02
  0
VERTEX
  8
0
 62
6
 10
2.12816418E+02
 20
-2.24134199E+02
  0
VERTEX
  8
0
 62
6
 10
2.12685684E+02
 20
-2.24128577E+02
  0
VERTEX
  8
0
 62
6
 10
2.12554950E+02
 20
-2.24134199E+02
  0
VERTEX
  8
0
 62
6
 10
2.12425212E+02
 20
-2.24151020E+02
  0
VERTEX
  8
0
 62
6
 10
2.12297455E+02
 20
-2.24178912E+02
  0
VERTEX
  8
0
 62
6
 10
2.12172654E+02
 20
-2.24217664E+02
  0
VERTEX
  8
0
 62
6
 10
2.12051757E+02
 20
-2.24266981E+02
  0
VERTEX
  8
0
 62
6
 10
2.11935684E+02
 20
-2.24326486E+02
  0
VERTEX
  8
0
 62
6
 10
2.11825319E+02
 20
-2.24395728E+02
  0
VERTEX
  8
0
 62
6
 10
2.11721503E+02
 20
-2.24474179E+02
  0
VERTEX
  8
0
 62
6
 10
2.11625024E+02
 20
-2.24561243E+02
  0
VERTEX
  8
0
 62
6
 10
2.11536617E+02
 20
-2.24656256E+02
  0
VERTEX
  8
0
 62
6
 10
2.11456956E+02
 20
-2.24758495E+02
  0
VERTEX
  8
0
 62
6
 10
2.11386646E+02
 20
-2.24867183E+02
  0
VERTEX
  8
0
 62
6
 10
2.11326222E+02
 20
-2.24981492E+02
  0
VERTEX
  8
0
 62
6
 10
2.11276145E+02
 20
-2.25100553E+02
  0
VERTEX
  8
0
 62
6
 10
2.11236795E+02
 20
-2.25223458E+02
  0
VERTEX
  8
0
 62
6
 10
2.11208472E+02
 20
-2.25349274E+02
  0
VERTEX
  8
0
 62
6
 10
2.11191392E+02
 20
-2.25477042E+02
  0
VERTEX
  8
0
 62
6
 10
2.11185684E+02
 20
-2.25605789E+02
  0
VERTEX
  8
0
 62
6
 10
2.11191392E+02
 20
-2.25734536E+02
  0
VERTEX
  8
0
 62
6
 10
2.11208472E+02
 20
-2.25862304E+02
  0
VERTEX
  8
0
 62
6
 10
2.11236795E+02
 20
-2.25988120E+02
  0
VERTEX
  8
0
 62
6
 10
2.11276145E+02
 20
-2.26111025E+02
  0
VERTEX
  8
0
 62
6
 10
2.11326222E+02
 20
-2.26230086E+02
  0
VERTEX
  8
0
 62
6
 10
2.11386646E+02
 20
-2.26344395E+02
  0
VERTEX
  8
0
 62
6
 10
2.11456956E+02
 20
-2.26453083E+02
  0
VERTEX
  8
0
 62
6
 10
2.11536617E+02
 20
-2.26555322E+02
  0
VERTEX
  8
0
 62
6
 10
2.11625024E+02
 20
-2.26650335E+02
  0
VERTEX
  8
0
 62
6
 10
2.11721503E+02
 20
-2.26737399E+02
  0
VERTEX
  8
0
 62
6
 10
2.11825319E+02
 20
-2.26815850E+02
  0
VERTEX
  8
0
 62
6
 10
2.11935684E+02
 20
-2.26885092E+02
  0
VERTEX
  8
0
 62
6
 10
2.12051757E+02
 20
-2.26944597E+02
  0
VERTEX
  8
0
 62
6
 10
2.12172654E+02
 20
-2.26993914E+02
  0
VERTEX
  8
0
 62
6
 10
2.12297455E+02
 20
-2.27032666E+02
  0
VERTEX
  8
0
 62
6
 10
2.12425212E+02
 20
-2.27060558E+02
  0
VERTEX
  8
0
 62
6
 10
2.12554950E+02
 20
-2.27077379E+02
  0
VERTEX
  8
0
 62
6
 10
2.12685684E+02
 20
-2.27083001E+02
  0
VERTEX
  8
0
 62
6
 10
2.12816418E+02
 20
-2.27077379E+02
  0
VERTEX
  8
0
 62
6
 10
2.12946156E+02
 20
-2.27060558E+02
  0
VERTEX
  8
0
 62
6
 10
2.13073913E+02
 20
-2.27032666E+02
  0
VERTEX
  8
0
 62
6
 10
2.13198714E+02
 20
-2.26993914E+02
  0
VERTEX
  8
0
 62
6
 10
2.13319611E+02
 20
-2.26944597E+02
  0
VERTEX
  8
0
 62
6
 10
2.13435684E+02
 20
-2.26885092E+02
  0
VERTEX
  8
0
 62
6
 10
2.13546049E+02
 20
-2.26815850E+02
  0
VERTEX
  8
0
 62
6
 10
2.13649865E+02
 20
-2.26737399E+02
  0
VERTEX
  8
0
 62
6
 10
2.13746344E+02
 20
-2.26650335E+02
  0
VERTEX
  8
0
 62
6
 10
2.13834751E+02
 20
-2.26555322E+02
  0
VERTEX
  8
0
 62
6
 10
2.13914412E+02
 20
-2.26453083E+02
  0
VERTEX
  8
0
 62
6
 10
2.13984722E+02
 20
-2.26344395E+02
  0
VERTEX
  8
0
 62
6
 10
2.14045146E+02
 20
-2.26230086E+02
  0
VERTEX
  8
0
 62
6
 10
2.14095223E+02
 20
-2.26111025E+02
  0
VERTEX
  8
0
 62
6
 10
2.14134573E+02
 20
-2.25988119E+02
  0
VERTEX
  8
0
 62
6
 10
2.14162896E+02
 20
-2.25862304E+02
  0
VERTEX
  8
0
 62
6
 10
2.14179976E+02
 20
-2.25734536E+02
  0
VERTEX
  8
0
 62
6
 10
2.14185684E+02
 20
-2.25605789E+02
  0
SEQEND
  8
0
  0
POLYLINE
  8
0
 62
4
 66
1
  0
VERTEX
  8
0
 62
4
 10
2.06685684E+02
 20
-2.25236093E+02
  0
VERTEX
  8
0
 62
4
 10
2.06677824E+02
 20
-2.25062077E+02
  0
VERTEX
  8
0
 62
4
 10
2.06654304E+02
 20
-2.24889429E+02
  0
VERTEX
  8
0
 62
4
 10
2.06615311E+02
 20
-2.24719506E+02
  0
VERTEX
  8
0
 62
4
 10
2.06561150E+02
 20
-2.24553643E+02
  0
VERTEX
  8
0
 62
4
 10
2.06492247E+02
 20
-2.24393145E+02
  0
VERTEX
  8
0
 62
4
 10
2.06409144E+02
 20
-2.24239273E+02
  0
VERTEX
  8
0
 62
4
 10
2.06312494E+02
 20
-2.24093236E+02
  0
VERTEX
  8
0
 62
4
 10
2.06203056E+02
 20
-2.23956182E+02
  0
VERTEX
  8
0
 62
4
 10
2.06081692E+02
 20
-2.23829189E+02
  0
VERTEX
  8
0
 62
4
 10
2.05949354E+02
 20
-2.23713255E+02
  0
VERTEX
  8
0
 62
4
 10
2.05807083E+02
 20
-2.23609291E+02
  0
VERTEX
  8
0
 62
4
 10
2.05655998E+02
 20
-2.23518114E+02
  0
VERTEX
  8
0
 62
4
 10
2.05497286E+02
 20
-2.23440441E+02
  0
VERTEX
  8
0
 62
4
 10
2.05332194E+02
 20
-2.23376882E+02
  0
VERTEX
  8
0
 62
4
 10
2.05162020E+02
 20
-2.23327938E+02
  0
VERTEX
  8
0
 62
4
 10
2.04988102E+02
 20
-2.23293992E+02
  0
VERTEX
  8
0
 62
4
 10
2.04811807E+02
 20
-2.23275312E+02
  0
VERTEX
  8
0
 62
4
 10
2.04634521E+02
 20
-2.23272044E+02
  0
VERTEX
  8
0
 62
4
 10
2.04457637E+02
 20
-2.23284215E+02
  0
VERTEX
  8
0
 62
4
 10
2.04282545E+02
 20
-2.23311728E+02
  0
VERTEX
  8
0
 62
4
 10
2.04110623E+02
 20
-2.23354368E+02
  0
VERTEX
  8
0
 62
4
 10
2.03943220E+02
 20
-2.23411798E+02
  0
VERTEX
  8
0
 62
4
 10
2.03781654E+02
 20
-2.23483568E+02
  0
VERTEX
  8
0
 62
4
 10
2.03627193E+02
 20
-2.23569114E+02
  0
VERTEX
  8
0
 62
4
 10
2.03481053E+02
 20
-2.23667762E+02
  0
VERTEX
  8
0
 62
4
 10
2.03344381E+02
 20
-2.23778739E+02
  0
VERTEX
  8
0
 62
4
 10
2.03218253E+02
 20
-2.23901170E+02
  0
VERTEX
  8
0
 62
4
 10
2.03103659E+02
 20
-2.24034095E+02
  0
VERTEX
  8
0
 62
4
 10
2.03001500E+02
 20
-2.24176468E+02
  0
VERTEX
  8
0
 62
4
 10
2.02912580E+02
 20
-2.24327170E+02
  0
VERTEX
  8
0
 62
4
 10
2.02837597E+02
 20
-2.24485016E+02
  0
VERTEX
  8
0
 62
4
 10
2.02777141E+02
 20
-2.24648766E+02
  0
VERTEX
  8
0
 62
4
 10
2.02731686E+02
 20
-2.24817133E+02
  0
VERTEX
  8
0
 62
4
 10
2.02701591E+02
 20
-2.24988792E+02
  0
VERTEX
  8
0
 62
4
 10
2.02687092E+02
 20
-2.25162396E+02
  0
VERTEX
  8
0
 62
4
 10
2.02688302E+02
 20
-2.25336579E+02
  0
SEQEND
  8
0
  0
POLYLINE
  8
0
 62
4
 66
1
  0
VERTEX
  8
0
 62
4
 10
2.06420684E+02
 20
-2.25610714E+02
  0
VERTEX
  8
0
 62
4
 10
2.06414082E+02
 20
-2.25461796E+02
  0
VERTEX
  8
0
 62
4
 10
2.06394325E+02
 20
-2.25314012E+02
  0
VERTEX
  8
0
 62
4
 10
2.06361565E+02
 20
-2.25168485E+02
  0
VERTEX
  8
0
 62
4
 10
2.06316051E+02
 20
-2.25026324E+02
  0
VERTEX
  8
0
 62
4
 10
2.06258128E+02
 20
-2.24888611E+02
  0
VERTEX
  8
0
 62
4
 10
2.06188238E+02
 20
-2.24756393E+02
  0
VERTEX
  8
0
 62
4
 10
2.06106913E+02
 20
-2.24630678E+02
  0
VERTEX
  8
0
 62
4
 10
2.06014771E+02
 20
-2.24512420E+02
  0
VERTEX
  8
0
 62
4
 10
2.05912514E+02
 20
-2.24402522E+02
  0
VERTEX
  8
0
 62
4
 10
2.05800921E+02
 20
-2.24301819E+02
  0
VERTEX
  8
0
 62
4
 10
2.05680839E+02
 20
-2.24211077E+02
  0
VERTEX
  8
0
 62
4
 10
2.05553184E+02
 20
-2.24130987E+02
  0
VERTEX
  8
0
 62
4
 10
2.05418927E+02
 20
-2.24062159E+02
  0
VERTEX
  8
0
 62
4
 10
2.05279089E+02
 20
-2.24005116E+02
  0
VERTEX
  8
0
 62
4
 10
2.05134735E+02
 20
-2.23960293E+02
  0
VERTEX
  8
0
 62
4
 10
2.04986964E+02
 20
-2.23928031E+02
  0
VERTEX
  8
0
 62
4
 10
2.04836899E+02
 20
-2.23908574E+02
  0
VERTEX
  8
0
 62
4
 10
2.04685684E+02
 20
-2.23902073E+02
  0
VERTEX
  8
0
 62
4
 10
2.04534469E+02
 20
-2.23908574E+02
  0
VERTEX
  8
0
 62
4
 10
2.04384404E+02
 20
-2.23928031E+02
  0
VERTEX
  8
0
 62
4
 10
2.04236633E+02
 20
-2.23960293E+02
  0
VERTEX
  8
0
 62
4
 10
2.04092279E+02
 20
-2.24005116E+02
  0
VERTEX
  8
0
 62
4
 10
2.03952441E+02
 20
-2.24062159E+02
  0
VERTEX
  8
0
 62
4
 10
2.03818184E+02
 20
-2.24130987E+02
  0
VERTEX
  8
0
 62
4
 10
2.03690529E+02
 20
-2.24211077E+02
  0
VERTEX
  8
0
 62
4
 10
2.03570447E+02
 20
-2.24301819E+02
  0
VERTEX
  8
0
 62
4
 10
2.03458854E+02
 20
-2.24402522E+02
  0
VERTEX
  8
0
 62
4
 10
2.03356597E+02
 20
-2.24512420E+02
  0
VERTEX
  8
0
 62
4
 10
2.03264455E+02
 20
-2.24630678E+02
  0
VERTEX
  8
0
 62
4
 10
2.03183130E+02
 20
-2.24756393E+02
  0
VERTEX
  8
0
 62
4
 10
2.03113240E+02
 20
-2.24888611E+02
  0
VERTEX
  8
0
 62
4
 10
2.03055317E+02
 20
-2.25026324E+02
  0
VERTEX
  8
0
 62
4
 10
2.03009803E+02
 20
-2.25168485E+02
  0
VERTEX
  8
0
 62
4
 10
2.02977043E+02
 20
-2.25314012E+02
  0
VERTEX
  8
0
 62
4
 10
2.02957286E+02
 20
-2.25461796E+02
  0
VERTEX
  8
0
 62
4
 10
2.02950684E+02
 20
-2.25610714E+02
  0
VERTEX
  8
0
 62
4
 10
2.02957286E+02
 20
-2.25759632E+02
  0
VERTEX
  8
0
 62
4
 10
2.02977043E+02
 20
-2.25907416E+02
  0
VERTEX
  8
0
 62
4
 10
2.03009803E+02
 20
-2.26052943E+02
  0
VERTEX
  8
0
 62
4
 10
2.03055317E+02
 20
-2.26195104E+02
  0
VERTEX
  8
0
 62
4
 10
2.03113240E+02
 20
-2.26332817E+02
  0
VERTEX
  8
0
 62
4
 10
2.03183130E+02
 20
-2.26465035E+02
  0
VERTEX
  8
0
 62
4
 10
2.03264455E+02
 20
-2.26590750E+02
  0
VERTEX
  8
0
 62
4
 10
2.03356597E+02
 20
-2.26709008E+02
  0
VERTEX
  8
0
 62
4
 10
2.03458854E+02
 20
-2.26818906E+02
  0
VERTEX
  8
0
 62
4
 10
2.03570447E+02
 20
-2.26919609E+02
  0
VERTEX
  8
0
 62
4
 10
2.03690529E+02
 20
-2.27010351E+02
  0
VERTEX
  8
0
 62
4
 10
2.03818184E+02
 20
-2.27090441E+02
  0
VERTEX
  8
0
 62
4
 10
2.03952441E+02
 20
-2.27159269E+02
  0
VERTEX
  8
0
 62
4
 10
2.04092279E+02
 20
-2.27216312E+02
  0
VERTEX
  8
0
 62
4
 10
2.04236633E+02
 20
-2.27261135E+02
  0
VERTEX
  8
0
 62
4
 10
2.04384404E+02
 20
-2.27293397E+02
  0
VERTEX
  8
0
 62
4
 10
2.04534469E+02
 20
-2.27312854E+02
  0
VERTEX
  8
0
 62
4
 10
2.04685684E+02
 20
-2.27319355E+02
  0
VERTEX
  8
0
 62
4
 10
2.04836899E+02
 20
-2.27312854E+02
  0
VERTEX
  8
0
 62
4
 10
2.04986964E+02
 20
-2.27293397E+02
  0
VERTEX
  8
0
 62
4
 10
2.05134735E+02
 20
-2.27261135E+02
  0
VERTEX
  8
0
 62
4
 10
2.05279089E+02
 20
-2.27216312E+02
  0
VERTEX
  8
0
 62
4
 10
2.05418927E+02
 20
-2.27159269E+02
  0
VERTEX
  8
0
 62
4
 10
2.05553184E+02
 20
-2.27090441E+02
  0
VERTEX
  8
0
 62
4
 10
2.05680839E+02
 20
-2.27010351E+02
  0
VERTEX
  8
0
 62
4
 10
2.05800921E+02
 20
-2.26919609E+02
  0
VERTEX
  8
0
 62
4
 10
2.05912514E+02
 20
-2.26818906E+02
  0
VERTEX
  8
0
 62
4
 10
2.06014771E+02
 20
-2.26709008E+02
  0
VERTEX
  8
0
 62
4
 10
2.06106913E+02
 20
-2.26590750E+02
  0
VERTEX
  8
0
 62
4
 10
2.06188238E+02
 20
-2.26465035E+02
  0
VERTEX
  8
0
 62
4
 10
2.06258128E+02
 20
-2.26332817E+02
  0
VERTEX
  8
0
 62
4
 10
2.06316051E+02
 20
-2.26195104E+02
  0
VERTEX
  8
0
 62
4
 10
2.06361565E+02
 20
-2.26052943E+02
  0
VERTEX
  8
0
 62
4
 10
2.06394325E+02
 20
-2.25907416E+02
  0
VERTEX
  8
0
 62
4
 10
2.06414082E+02
 20
-2.25759632E+02
  0
VERTEX
  8
0
 62
4
 10
2.06420684E+02
 20
-2.25610714E+02
  0
SEQEND
  8
0
  0
POLYLINE
  8
0
 62
4
 66
1
  0
VERTEX
  8
0
 62
4
 10
2.06685684E+02
 20
-2.25437065E+02
  0
VERTEX
  8
0
 62
4
 10
2.06678073E+02
 20
-2.25265831E+02
  0
VERTEX
  8
0
 62
4
 10
2.06655300E+02
 20
-2.25095900E+02
  0
VERTEX
  8
0
 62
4
 10
2.06617536E+02
 20
-2.24928565E+02
  0
VERTEX
  8
0
 62
4
 10
2.06565069E+02
 20
-2.24765101E+02
  0
VERTEX
  8
0
 62
4
 10
2.06498300E+02
 20
-2.24606751E+02
  0
VERTEX
  8
0
 62
4
 10
2.06417735E+02
 20
-2.24454719E+02
  0
VERTEX
  8
0
 62
4
 10
2.06323988E+02
 20
-2.24310164E+02
  0
VERTEX
  8
0
 62
4
 10
2.06217773E+02
 20
-2.24174186E+02
  0
VERTEX
  8
0
 62
4
 10
2.06099898E+02
 20
-2.24047818E+02
  0
VERTEX
  8
0
 62
4
 10
2.05971259E+02
 20
-2.23932024E+02
  0
VERTEX
  8
0
 62
4
 10
2.05832837E+02
 20
-2.23827684E+02
  0
VERTEX
  8
0
 62
4
 10
2.05685684E+02
 20
-2.23735592E+02
  0
VERTEX
  8
0
 62
4
 10
2.05530921E+02
 20
-2.23656450E+02
  0
VERTEX
  8
0
 62
4
 10
2.05369724E+02
 20
-2.23590859E+02
  0
VERTEX
  8
0
 62
4
 10
2.05203322E+02
 20
-2.23539319E+02
  0
VERTEX
  8
0
 62
4
 10
2.05032980E+02
 20
-2.23502222E+02
  0
VERTEX
  8
0
 62
4
 10
2.04859995E+02
 20
-2.23479850E+02
  0
VERTEX
  8
0
 62
4
 10
2.04685684E+02
 20
-2.23472374E+02
  0
VERTEX
  8
0
 62
4
 10
2.04511373E+02
 20
-2.23479850E+02
  0
VERTEX
  8
0
 62
4
 10
2.04338388E+02
 20
-2.23502222E+02
  0
VERTEX
  8
0
 62
4
 10
2.04168046E+02
 20
-2.23539319E+02
  0
VERTEX
  8
0
 62
4
 10
2.04001644E+02
 20
-2.23590859E+02
  0
VERTEX
  8
0
 62
4
 10
2.03840447E+02
 20
-2.23656450E+02
  0
VERTEX
  8
0
 62
4
 10
2.03685684E+02
 20
-2.23735592E+02
  0
VERTEX
  8
0
 62
4
 10
2.03538531E+02
 20
-2.23827684E+02
  0
VERTEX
  8
0
 62
4
 10
2.03400109E+02
 20
-2.23932024E+02
  0
VERTEX
  8
0
 62
4
 10
2.03271470E+02
 20
-2.24047818E+02
  0
VERTEX
  8
0
 62
4
 10
2.03153595E+02
 20
-2.24174186E+02
  0
VERTEX
  8
0
 62
4
 10
2.03047380E+02
 20
-2.24310164E+02
  0
VERTEX
  8
0
 62
4
 10
2.02953633E+02
 20
-2.24454719E+02
  0
VERTEX
  8
0
 62
4
 10
2.02873068E+02
 20
-2.24606751E+02
  0
VERTEX
  8
0
 62
4
 10
2.02806299E+02
 20
-2.24765101E+02
  0
VERTEX
  8
0
 62
4
 10
2.02753832E+02
 20
-2.24928565E+02
  0
VERTEX
  8
0
 62
4
 10
2.02716068E+02
 20
-2.25095900E+02
  0
VERTEX
  8
0
 62
4
 10
2.02693295E+02
 20
-2.25265831E+02
  0
VERTEX
  8
0
 62
4
 10
2.02685684E+02
 20
-2.25437065E+02
  0
VERTEX
  8
0
 62
4
 10
2.02693295E+02
 20
-2.25608299E+02
  0
VERTEX
  8
0
 62
4
 10
2.02716068E+02
 20
-2.25778230E+02
  0
VERTEX
  8
0
 62
4
 10
2.02753832E+02
 20
-2.25945565E+02
  0
VERTEX
  8
0
 62
4
 10
2.02806299E+02
 20
-2.26109029E+02
  0
VERTEX
  8
0
 62
4
 10
2.02873068E+02
 20
-2.26267379E+02
  0
VERTEX
  8
0
 62
4
 10
2.02953633E+02
 20
-2.26419411E+02
  0
VERTEX
  8
0
 62
4
 10
2.03047380E+02
 20
-2.26563966E+02
  0
VERTEX
  8
0
 62
4
 10
2.03153595E+02
 20
-2.26699944E+02
  0
VERTEX
  8
0
 62
4
 10
2.03271470E+02
 20
-2.26826312E+02
  0
VERTEX
  8
0
 62
4
 10
2.03400109E+02
 20
-2.26942106E+02
  0
VERTEX
  8
0
 62
4
 10
2.03538531E+02
 20
-2.27046446E+02
  0
VERTEX
  8
0
 62
4
 10
2.03685684E+02
 20
-2.27138538E+02
  0
VERTEX
  8
0
 62
4
 10
2.03840447E+02
 20
-2.27217680E+02
  0
VERTEX
  8
0
 62
4
 10
2.04001644E+02
 20
-2.27283271E+02
  0
VERTEX
  8
0
 62
4
 10
2.04168046E+02
 20
-2.27334811E+02
  0
VERTEX
  8
0
 62
4
 10
2.04338388E+02
 20
-2.27371908E+02
  0
VERTEX
  8
0
 62
4
 10
2.04511373E+02
 20
-2.27394280E+02
  0
VERTEX
  8
0
 62
4
 10
2.04685684E+02
 20
-2.27401756E+02
  0
VERTEX
  8
0
 62
4
 10
2.04859995E+02
 20
-2.27394280E+02
  0
VERTEX
  8
0
 62
4
 10
2.05032980E+02
 20
-2.27371908E+02
  0
VERTEX
  8
0
 62
4
 10
2.05203322E+02
 20
-2.27334811E+02
  0
VERTEX
  8
0
 62
4
 10
2.05369724E+02
 20
-2.27283271E+02
  0
VERTEX
  8
0
 62
4
 10
2.05530921E+02
 20
-2.27217680E+02
  0
VERTEX
  8
0
 62
4
 10
2.05685684E+02
 20
-2.27138538E+02
  0
VERTEX
  8
0
 62
4
 10
2.05832837E+02
 20
-2.27046446E+02
  0
VERTEX
  8
0
 62
4
 10
2.05971259E+02
 20
-2.26942106E+02
  0
VERTEX
  8
0
 62
4
 10
2.06099898E+02
 20
-2.26826312E+02
  0
VERTEX
  8
0
 62
4
 10
2.06217773E+02
 20
-2.26699944E+02
  0
VERTEX
  8
0
 62
4
 10
2.06323988E+02
 20
-2.26563966E+02
  0
VERTEX
  8
0
 62
4
 10
2.06417735E+02
 20
-2.26419411E+02
  0
VERTEX
  8
0
 62
4
 10
2.06498300E+02
 20
-2.26267379E+02
  0
VERTEX
  8
0
 62
4
 10
2.06565069E+02
 20
-2.26109029E+02
  0
VERTEX
  8
0
 62
4
 10
2.06617536E+02
 20
-2.25945565E+02
  0
VERTEX
  8
0
 62
4
 10
2.06655300E+02
 20
-2.25778230E+02
  0
VERTEX
  8
0
 62
4
 10
2.06678073E+02
 20
-2.25608299E+02
  0
VERTEX
  8
0
 62
4
 10
2.06685684E+02
 20
-2.25437065E+02
  0
SEQEND
  8
0
  0
POLYLINE
  8
0
 62
6
 66
1
  0
VERTEX
  8
0
 62
6
 10
2.06185684E+02
 20
-2.25605789E+02
  0
VERTEX
  8
0
 62
6
 10
2.06179976E+02
 20
-2.25477042E+02
  0
VERTEX
  8
0
 62
6
 10
2.06162896E+02
 20
-2.25349274E+02
  0
VERTEX
  8
0
 62
6
 10
2.06134573E+02
 20
-2.25223458E+02
  0
VERTEX
  8
0
 62
6
 10
2.06095223E+02
 20
-2.25100553E+02
  0
VERTEX
  8
0
 62
6
 10
2.06045146E+02
 20
-2.24981492E+02
  0
VERTEX
  8
0
 62
6
 10
2.05984722E+02
 20
-2.24867183E+02
  0
VERTEX
  8
0
 62
6
 10
2.05914412E+02
 20
-2.24758495E+02
  0
VERTEX
  8
0
 62
6
 10
2.05834751E+02
 20
-2.24656256E+02
  0
VERTEX
  8
0
 62
6
 10
2.05746344E+02
 20
-2.24561243E+02
  0
VERTEX
  8
0
 62
6
 10
2.05649865E+02
 20
-2.24474179E+02
  0
VERTEX
  8
0
 62
6
 10
2.05546049E+02
 20
-2.24395728E+02
  0
VERTEX
  8
0
 62
6
 10
2.05435684E+02
 20
-2.24326486E+02
  0
VERTEX
  8
0
 62
6
 10
2.05319611E+02
 20
-2.24266981E+02
  0
VERTEX
  8
0
 62
6
 10
2.05198714E+02
 20
-2.24217664E+02
  0
VERTEX
  8
0
 62
6
 10
2.05073913E+02
 20
-2.24178912E+02
  0
VERTEX
  8
0
 62
6
 10
2.04946156E+02
 20
-2.24151020E+02
  0
VERTEX
  8
0
 62
6
 10
2.04816418E+02
 20
-2.24134199E+02
  0
VERTEX
  8
0
 62
6
 10
2.04685684E+02
 20
-2.24128577E+02
  0
VERTEX
  8
0
 62
6
 10
2.04554950E+02
 20
-2.24134199E+02
  0
VERTEX
  8
0
 62
6
 10
2.04425212E+02
 20
-2.24151020E+02
  0
VERTEX
  8
0
 62
6
 10
2.04297455E+02
 20
-2.24178912E+02
  0
VERTEX
  8
0
 62
6
 10
2.04172654E+02
 20
-2.24217664E+02
  0
VERTEX
  8
0
 62
6
 10
2.04051757E+02
 20
-2.24266981E+02
  0
VERTEX
  8
0
 62
6
 10
2.03935684E+02
 20
-2.24326486E+02
  0
VERTEX
  8
0
 62
6
 10
2.03825319E+02
 20
-2.24395728E+02
  0
VERTEX
  8
0
 62
6
 10
2.03721503E+02
 20
-2.24474179E+02
  0
VERTEX
  8
0
 62
6
 10
2.03625024E+02
 20
-2.24561243E+02
  0
VERTEX
  8
0
 62
6
 10
2.03536617E+02
 20
-2.24656256E+02
  0
VERTEX
  8
0
 62
6
 10
2.03456956E+02
 20
-2.24758495E+02
  0
VERTEX
  8
0
 62
6
 10
2.03386646E+02
 20
-2.24867183E+02
  0
VERTEX
  8
0
 62
6
 10
2.03326222E+02
 20
-2.24981492E+02
  0
VERTEX
  8
0
 62
6
 10
2.03276145E+02
 20
-2.25100553E+02
  0
VERTEX
  8
0
 62
6
 10
2.03236795E+02
 20
-2.25223458E+02
  0
VERTEX
  8
0
 62
6
 10
2.03208472E+02
 20
-2.25349274E+02
  0
VERTEX
  8
0
 62
6
 10
2.03191392E+02
 20
-2.25477042E+02
  0
VERTEX
  8
0
 62
6
 10
2.03185684E+02
 20
-2.25605789E+02
  0
VERTEX
  8
0
 62
6
 10
2.03191392E+02
 20
-2.25734536E+02
  0
VERTEX
  8
0
 62
6
 10
2.03208472E+02
 20
-2.25862304E+02
  0
VERTEX
  8
0
 62
6
 10
2.03236795E+02
 20
-2.25988120E+02
  0
VERTEX
  8
0
 62
6
 10
2.03276145E+02
 20
-2.26111025E+02
  0
VERTEX
  8
0
 62
6
 10
2.03326222E+02
 20
-2.26230086E+02
  0
VERTEX
  8
0
 62
6
 10
2.03386646E+02
 20
-2.26344395E+02
  0
VERTEX
  8
0
 62
6
 10
2.03456956E+02
 20
-2.26453083E+02
  0
VERTEX
  8
0
 62
6
 10
2.03536617E+02
 20
-2.26555322E+02
  0
VERTEX
  8
0
 62
6
 10
2.03625024E+02
 20
-2.26650335E+02
  0
VERTEX
  8
0
 62
6
 10
2.03721503E+02
 20
-2.26737399E+02
  0
VERTEX
  8
0
 62
6
 10
2.03825319E+02
 20
-2.26815850E+02
  0
VERTEX
  8
0
 62
6
 10
2.03935684E+02
 20
-2.26885092E+02
  0
VERTEX
  8
0
 62
6
 10
2.04051757E+02
 20
-2.26944597E+02
  0
VERTEX
  8
0
 62
6
 10
2.04172654E+02
 20
-2.26993914E+02
  0
VERTEX
  8
0
 62
6
 10
2.04297455E+02
 20
-2.27032666E+02
  0
VERTEX
  8
0
 62
6
 10
2.04425212E+02
 20
-2.27060558E+02
  0
VERTEX
  8
0
 62
6
 10
2.04554950E+02
 20
-2.27077379E+02
  0
VERTEX
  8
0
 62
6
 10
2.04685684E+02
 20
-2.27083001E+02
  0
VERTEX
  8
0
 62
6
 10
2.04816418E+02
 20
-2.27077379E+02
  0
VERTEX
  8
0
 62
6
 10
2.04946156E+02
 20
-2.27060558E+02
  0
VERTEX
  8
0
 62
6
 10
2.05073913E+02
 20
-2.27032666E+02
  0
VERTEX
  8
0
 62
6
 10
2.05198714E+02
 20
-2.26993914E+02
  0
VERTEX
  8
0
 62
6
 10
2.05319611E+02
 20
-2.26944597E+02
  0
VERTEX
  8
0
 62
6
 10
2.05435684E+02
 20
-2.26885092E+02
  0
VERTEX
  8
0
 62
6
 10
2.05546049E+02
 20
-2.26815850E+02
  0
VERTEX
  8
0
 62
6
 10
2.05649865E+02
 20
-2.26737399E+02
  0
VERTEX
  8
0
 62
6
 10
2.05746344E+02
 20
-2.26650335E+02
  0
VERTEX
  8
0
 62
6
 10
2.05834751E+02
 20
-2.26555322E+02
  0
VERTEX
  8
0
 62
6
 10
2.05914412E+02
 20
-2.26453083E+02
  0
VERTEX
  8
0
 62
6
 10
2.05984722E+02
 20
-2.26344395E+02
  0
VERTEX
  8
0
 62
6
 10
2.06045146E+02
 20
-2.26230086E+02
  0
VERTEX
  8
0
 62
6
 10
2.06095223E+02
 20
-2.26111025E+02
  0
VERTEX
  8
0
 62
6
 10
2.06134573E+02
 20
-2.25988119E+02
  0
VERTEX
  8
0
 62
6
 10
2.06162896E+02
 20
-2.25862304E+02
  0
VERTEX
  8
0
 62
6
 10
2.06179976E+02
 20
-2.25734536E+02
  0
VERTEX
  8
0
 62
6
 10
2.06185684E+02
 20
-2.25605789E+02
  0
SEQEND
  8
0
  0
LINE
  8
0
 62
4
 10
1.84685684E+02
 20
-2.18091031E+02
 11
1.84685684E+02
 21
-2.19407712E+02
  0
LINE
  8
0
 62
4
 10
2.17685684E+02
 20
-2.18091031E+02
 11
2.17685684E+02
 21
-2.19407712E+02
  0
LINE
  8
0
 62
4
 10
2.17685684E+02
 20
-2.18094195E+02
 11
2.20685684E+02
 21
-2.14675908E+02
  0
LINE
  8
0
 62
4
 10
1.84685684E+02
 20
-2.18094195E+02
 11
1.81685684E+02
 21
-2.14675908E+02
  0
LINE
  8
0
  6
CENTER
 62
6
 10
2.12685684E+02
 20
-2.20612467E+02
 11
2.12685684E+02
 21
-2.30602467E+02
  0
LINE
  8
0
 62
4
 10
2.16185684E+02
 20
-1.94195173E+02
 11
2.01185684E+02
 21
-1.94195173E+02
  0
LINE
  8
0
 62
4
 10
2.14747874E+02
 20
-2.20035118E+02
 11
2.02737974E+02
 21
-2.20035118E+02
  0
LINE
  8
0
 62
4
 10
2.16185684E+02
 20
-1.67955064E+02
 11
2.01185684E+02
 21
-1.67955064E+02
  0
LINE
  8
0
 62
4
 10
2.01185684E+02
 20
-2.04070846E+02
 11
2.16185684E+02
 21
-2.04070846E+02
  0
LINE
  8
0
 62
4
 10
2.01185684E+02
 20
-2.30411380E+02
 11
2.16185684E+02
 21
-2.30411380E+02
  0
LINE
  8
0
 62
4
 10
2.16185684E+02
 20
-2.04070846E+02
 11
2.16185684E+02
 21
-2.30411380E+02
  0
LINE
  8
0
 62
4
 10
2.01185684E+02
 20
-2.04070846E+02
 11
2.01185684E+02
 21
-2.30411380E+02
  0
LINE
  8
0
  6
CENTER
 62
6
 10
2.04685684E+02
 20
-2.20612467E+02
 11
2.04685684E+02
 21
-2.30602467E+02
  0
LINE
  8
0
  6
CENTER
 62
6
 10
1.99685684E+02
 20
-2.25605789E+02
 11
2.17685684E+02
 21
-2.25605789E+02
  0
LINE
  8
0
 62
4
 10
2.29185684E+02
 20
-1.69415151E+02
 11
2.25685684E+02
 21
-1.69415151E+02
  0
LINE
  8
0
 62
4
 10
2.19185684E+02
 20
-1.99466508E+02
 11
1.83185684E+02
 21
-1.99466508E+02
  0
LINE
  8
0
 62
4
 10
2.35685684E+02
 20
-1.72601956E+02
 11
2.30685684E+02
 21
-1.72601956E+02
  0
LINE
  8
0
 62
4
 10
2.35685684E+02
 20
-1.79997862E+02
 11
2.30685684E+02
 21
-1.79997862E+02
  0
LINE
  8
0
 62
4
 10
2.16185684E+02
 20
-1.68165151E+02
 11
2.25185684E+02
 21
-1.68165151E+02
  0
LINE
  8
0
 62
4
 10
2.25685684E+02
 20
-1.68668293E+02
 11
2.25685684E+02
 21
-1.81668293E+02
  0
LINE
  8
0
 62
4
 10
2.35685684E+02
 20
-1.67780214E+02
 11
2.35685684E+02
 21
-1.82562178E+02
  0
LINE
  8
0
 62
4
 10
2.30685684E+02
 20
-1.67780214E+02
 11
2.30685684E+02
 21
-1.82562178E+02
  0
LINE
  8
0
 62
4
 10
2.30685684E+02
 20
-1.68915151E+02
 11
2.25685684E+02
 21
-1.68915151E+02
  0
LINE
  8
0
 62
4
 10
2.30685684E+02
 20
-1.81415151E+02
 11
2.25685684E+02
 21
-1.81415151E+02
  0
LINE
  8
0
 62
4
 10
2.29185684E+02
 20
-1.68915151E+02
 11
2.29185684E+02
 21
-1.81415151E+02
  0
LINE
  8
0
 62
4
 10
2.29185684E+02
 20
-1.80915151E+02
 11
2.25685684E+02
 21
-1.80915151E+02
  0
LINE
  8
0
 62
4
 10
2.25185684E+02
 20
-1.82165151E+02
 11
2.16685684E+02
 21
-1.82165151E+02
  0
LINE
  8
0
 62
4
 10
2.01185684E+02
 20
-2.18091031E+02
 11
1.84685684E+02
 21
-2.18091031E+02
  0
LINE
  8
0
 62
4
 10
2.35685684E+02
 20
-1.82562178E+02
 11
2.30685684E+02
 21
-1.82562178E+02
  0
LINE
  8
0
 62
4
 10
2.01185684E+02
 20
-2.14672745E+02
 11
1.81685684E+02
 21
-2.14672745E+02
  0
LINE
  8
0
 62
4
 10
2.01185684E+02
 20
-2.13195533E+02
 11
1.81685684E+02
 21
-2.13195533E+02
  0
LINE
  8
0
 62
4
 10
2.16185684E+02
 20
-1.70559787E+02
 11
2.01185684E+02
 21
-1.70559787E+02
  0
LINE
  8
0
 62
4
 10
2.18185684E+02
 20
-1.95527277E+02
 11
1.99185684E+02
 21
-1.95527277E+02
  0
LINE
  8
0
 62
4
 10
2.20685684E+02
 20
-1.97629056E+02
 11
2.20685684E+02
 21
-2.14672745E+02
  0
LINE
  8
0
 62
4
 10
2.20685684E+02
 20
-2.14672745E+02
 11
2.16185684E+02
 21
-2.14672745E+02
  0
LINE
  8
0
 62
4
 10
2.20685684E+02
 20
-2.13195533E+02
 11
2.16185684E+02
 21
-2.13195533E+02
  0
LINE
  8
0
 62
4
 10
2.18185684E+02
 20
-1.95527277E+02
 11
2.18185684E+02
 21
-1.99466508E+02
  0
LINE
  8
0
 62
4
 10
2.01185684E+02
 20
-1.67955064E+02
 11
2.01185684E+02
 21
-1.95527277E+02
  0
LINE
  8
0
 62
4
 10
2.16185684E+02
 20
-1.67955064E+02
 11
2.16185684E+02
 21
-1.95527277E+02
  0
LINE
  8
0
 62
4
 10
1.99185684E+02
 20
-1.95527277E+02
 11
1.99185684E+02
 21
-1.99466508E+02
  0
LINE
  8
0
 62
4
 10
1.81685684E+02
 20
-1.97629056E+02
 11
1.81685684E+02
 21
-2.14672745E+02
  0
LINE
  8
0
 62
4
 10
2.17685684E+02
 20
-2.18091031E+02
 11
2.16185684E+02
 21
-2.18091031E+02
  0
ARC
  8
0
 62
4
 10
2.25186184E+02
 20
-1.68664651E+02
 40
4.99500622E-01
 50
3.59942689E+02
 51
9.00573103E+01
  0
ARC
  8
0
 62
4
 10
2.16685184E+02
 20
-1.82664651E+02
 40
4.99500622E-01
 50
8.99426895E+01
 51
1.80057310E+02
  0
ARC
  8
0
 62
4
 10
1.83185184E+02
 20
-2.00966008E+02
 40
1.49950029E+00
 50
8.99809029E+01
 51
1.80019097E+02
  0
ARC
  8
0
 62
4
 10
2.25185184E+02
 20
-1.81664650E+02
 40
5.00500378E-01
 50
2.70057253E+02
 51
3.59942747E+02
  0
ARC
  8
0
 62
4
 10
2.19186184E+02
 20
-2.00966008E+02
 40
1.49950029E+00
 50
3.59980903E+02
 51
9.00190969E+01
  0
CIRCLE
  8
0
 62
7
 10
6.07499619E+01
 20
-2.22057675E+02
 40
2.45850000E+00
  0
CIRCLE
  8
0
 62
7
 10
1.37499466E+01
 20
-2.22057721E+02
 40
2.45850000E+00
  0
CIRCLE
  8
0
 62
7
 10
-2.82249992E+02
 20
-2.22057675E+02
 40
2.45850000E+00
  0
CIRCLE
  8
0
 62
7
 10
-3.29250008E+02
 20
-2.22057721E+02
 40
2.45850000E+00
  0
LINE
  8
0
 62
2
 10
-7.76674855E+01
 20
-2.52083743E+02
 11
-5.41204834E+01
 21
-2.11299139E+02
  0
LINE
  8
0
 62
7
 10
6.82499161E+01
 20
-2.45557706E+02
 11
6.82499161E+01
 21
-2.18057690E+02
  0
LINE
  8
0
 62
7
 10
6.24994659E+00
 20
-2.45557706E+02
 11
6.24994659E+00
 21
-2.18057721E+02
  0
LINE
  8
0
 62
7
 10
4.82499771E+01
 20
-2.45557706E+02
 11
4.82499771E+01
 21
-2.39206853E+02
  0
CIRCLE
  8
0
 62
2
 10
6.07499619E+01
 20
-2.22057721E+02
 40
3.00000000E+00
  0
CIRCLE
  8
0
 62
2
 10
1.37499466E+01
 20
-2.22057721E+02
 40
3.00000000E+00
  0
ARC
  8
0
 62
7
 10
3.72499771E+01
 20
-2.45557706E+02
 40
1.90000000E+01
 50
0.00000000E+00
 51
1.80000000E+02
  0
CIRCLE
  8
0
 62
7
 10
1.37499466E+01
 20
-2.22057690E+02
 40
4.50000000E+00
  0
ARC
  8
0
 62
7
 10
9.74997711E+00
 20
-2.18057751E+02
 40
3.50000000E+00
 50
9.00000231E+01
 51
1.79999977E+02
  0
CIRCLE
  8
0
 62
7
 10
1.37499466E+01
 20
-2.22057690E+02
 40
5.00000000E+00
  0
CIRCLE
  8
0
 62
7
 10
6.07499619E+01
 20
-2.22057721E+02
 40
4.50000000E+00
  0
ARC
  8
0
 62
7
 10
6.47499008E+01
 20
-2.18057706E+02
 40
3.50000000E+00
 50
0.00000000E+00
 51
8.99999818E+01
  0
CIRCLE
  8
0
 62
7
 10
6.07499619E+01
 20
-2.22057721E+02
 40
5.00000000E+00
  0
LINE
  8
0
  6
CENTER
 62
2
 10
2.31370468E+01
 20
-2.22057721E+02
 11
4.01735687E+00
 21
-2.22057721E+02
  0
LINE
  8
0
  6
CENTER
 62
2
 10
6.99102707E+01
 20
-2.45557706E+02
 11
2.73490143E+00
 21
-2.45557706E+02
  0
LINE
  8
0
  6
CENTER
 62
2
 10
3.72499771E+01
 20
-2.10797040E+02
 11
3.72499771E+01
 21
-2.45557706E+02
  0
LINE
  8
0
  6
CENTER
 62
2
 10
1.37499466E+01
 20
-2.12504025E+02
 11
1.37499466E+01
 21
-2.29942059E+02
  0
LINE
  8
0
  6
CENTER
 62
2
 10
4.42499924E+01
 20
-2.12196026E+02
 11
4.42499924E+01
 21
-2.33786862E+02
  0
LINE
  8
0
  6
CENTER
 62
2
 10
7.07030716E+01
 20
-2.22057721E+02
 11
5.10005112E+01
 21
-2.22057721E+02
  0
LINE
  8
0
  6
CENTER
 62
2
 10
6.07499619E+01
 20
-2.12079449E+02
 11
6.07499619E+01
 21
-2.31782086E+02
  0
LINE
  8
0
  6
CENTER
 62
2
 10
2.52500076E+01
 20
-2.12083417E+02
 11
2.52500076E+01
 21
-2.37895245E+02
  0
LINE
  8
0
 62
7
 10
9.74997711E+00
 20
-2.14557706E+02
 11
6.47499008E+01
 21
-2.14557706E+02
  0
ARC
  8
0
 62
7
 10
3.72499771E+01
 20
-2.45557706E+02
 40
8.00001526E+00
 50
0.00000000E+00
 51
1.80000000E+02
  0
ARC
  8
0
 62
2
 10
3.72499771E+01
 20
-2.45557706E+02
 40
7.18000793E+00
 50
0.00000000E+00
 51
1.80000000E+02
  0
ARC
  8
0
 62
7
 10
3.72499771E+01
 20
-2.45557706E+02
 40
6.49985238E+00
 50
0.00000000E+00
 51
1.80000000E+02
  0
ARC
  8
0
 62
7
 10
3.72499771E+01
 20
-2.45557706E+02
 40
1.80000153E+01
 50
0.00000000E+00
 51
1.80000000E+02
  0
LINE
  8
0
 62
7
 10
5.32499771E+01
 20
-2.37311461E+02
 11
5.32499771E+01
 21
-2.45557706E+02
  0
LINE
  8
0
 62
7
 10
2.12499771E+01
 20
-2.37311461E+02
 11
2.12499771E+01
 21
-2.45557706E+02
  0
ARC
  8
0
 62
7
 10
3.72499771E+01
 20
-2.45557706E+02
 40
1.10000000E+01
 50
0.00000000E+00
 51
1.80000000E+02
  0
LINE
  8
0
 62
7
 10
3.72499771E+01
 20
-2.32856000E+02
 11
2.62499771E+01
 21
-2.39206853E+02
  0
LINE
  8
0
 62
7
 10
2.62499771E+01
 20
-2.39206853E+02
 11
2.62499771E+01
 21
-2.45557706E+02
  0
LINE
  8
0
 62
7
 10
4.82499771E+01
 20
-2.39206853E+02
 11
3.72499771E+01
 21
-2.32856000E+02
  0
TEXT
  8
0
 10
3.40496807E+01
 20
2.49478397E+02
 40
6.30000019E+00
  1
STRETCH LINE B
 41
1.09375016E+00
  7
MONOTXT
  0
TEXT
  8
0
 62
7
 10
-6.86484436E+01
 20
-3.02419180E+01
 40
6.30000019E+00
  1
75
 41
1.00000000E+00
  7
MONOTXT
  0
TEXT
  8
0
 62
7
 10
-4.65984437E+01
 20
-3.02419180E+01
 40
6.30000019E+00
  1
125
 41
1.00000000E+00
  7
MONOTXT
  0
TEXT
  8
0
 62
7
 10
-2.13984437E+01
 20
-3.02419180E+01
 40
6.30000019E+00
  1
175
 41
1.00000000E+00
  7
MONOTXT
  0
TEXT
  8
0
 62
7
 10
3.80155631E+00
 20
-3.02419180E+01
 40
6.30000019E+00
  1
225
 41
1.00000000E+00
  7
MONOTXT
  0
TEXT
  8
0
 62
7
 10
2.90015563E+01
 20
-3.02419180E+01
 40
6.30000019E+00
  1
275
 41
1.00000000E+00
  7
MONOTXT
  0
TEXT
  8
0
 62
7
 10
5.42015563E+01
 20
-3.02419180E+01
 40
6.30000019E+00
  1
325
 41
1.00000000E+00
  7
MONOTXT
  0
TEXT
  8
0
 62
7
 10
7.94015563E+01
 20
-3.02419180E+01
 40
6.30000019E+00
  1
375
 41
1.00000000E+00
  7
MONOTXT
  0
TEXT
  8
0
 62
7
 10
1.04601557E+02
 20
-3.02419180E+01
 40
6.30000019E+00
  1
425
 41
1.00000000E+00
  7
MONOTXT
  0
TEXT
  8
0
 62
7
 10
1.29801557E+02
 20
-3.02419180E+01
 40
6.30000019E+00
  1
525
 41
1.00000000E+00
  7
MONOTXT
  0
TEXT
  8
0
 62
7
 10
1.55001557E+02
 20
-3.02419180E+01
 40
6.30000019E+00
  1
625
 41
1.00000000E+00
  7
MONOTXT
  0
TEXT
  8
0
 62
7
 10
1.55001557E+02
 20
-2.02419180E+01
 40
6.30000019E+00
  1
625
 41
1.00000000E+00
  7
MONOTXT
  0
TEXT
  8
0
 62
7
 10
1.55001557E+02
 20
-2.41917975E-01
 40
6.30000019E+00
  1
700
 41
1.00000000E+00
  7
MONOTXT
  0
TEXT
  8
0
 62
7
 10
1.29801557E+02
 20
-2.02419180E+01
 40
6.30000019E+00
  1
525
 41
1.00000000E+00
  7
MONOTXT
  0
TEXT
  8
0
 62
7
 10
1.29801557E+02
 20
-2.41917975E-01
 40
6.30000019E+00
  1
600
 41
1.00000000E+00
  7
MONOTXT
  0
TEXT
  8
0
 62
7
 10
1.04601557E+02
 20
-2.02419180E+01
 40
6.30000019E+00
  1
425
 41
1.00000000E+00
  7
MONOTXT
  0
TEXT
  8
0
 62
7
 10
1.04601557E+02
 20
-2.41917975E-01
 40
6.30000019E+00
  1
500
 41
1.00000000E+00
  7
MONOTXT
  0
TEXT
  8
0
 62
7
 10
7.94015563E+01
 20
-2.02419180E+01
 40
6.30000019E+00
  1
375
 41
1.00000000E+00
  7
MONOTXT
  0
TEXT
  8
0
 62
7
 10
7.94015563E+01
 20
-2.41917975E-01
 40
6.30000019E+00
  1
450
 41
1.00000000E+00
  7
MONOTXT
  0
TEXT
  8
0
 62
7
 10
5.42015563E+01
 20
-2.02419180E+01
 40
6.30000019E+00
  1
325
 41
1.00000000E+00
  7
MONOTXT
  0
TEXT
  8
0
 62
7
 10
5.42015563E+01
 20
-2.41917975E-01
 40
6.30000019E+00
  1
400
 41
1.00000000E+00
  7
MONOTXT
  0
TEXT
  8
0
 62
7
 10
2.90015563E+01
 20
-2.02419180E+01
 40
6.30000019E+00
  1
275
 41
1.00000000E+00
  7
MONOTXT
  0
TEXT
  8
0
 62
7
 10
2.90015563E+01
 20
-2.41917975E-01
 40
6.30000019E+00
  1
350
 41
1.00000000E+00
  7
MONOTXT
  0
TEXT
  8
0
 62
7
 10
3.80155631E+00
 20
-2.02419180E+01
 40
6.30000019E+00
  1
225
 41
1.00000000E+00
  7
MONOTXT
  0
TEXT
  8
0
 62
7
 10
3.80155631E+00
 20
-2.41917975E-01
 40
6.30000019E+00
  1
300
 41
1.00000000E+00
  7
MONOTXT
  0
TEXT
  8
0
 62
7
 10
-2.13984437E+01
 20
-2.02419180E+01
 40
6.30000019E+00
  1
175
 41
1.00000000E+00
  7
MONOTXT
  0
TEXT
  8
0
 62
7
 10
-2.13984437E+01
 20
-2.41917975E-01
 40
6.30000019E+00
  1
250
 41
1.00000000E+00
  7
MONOTXT
  0
TEXT
  8
0
 62
7
 10
-4.65984437E+01
 20
-2.02419180E+01
 40
6.30000019E+00
  1
125
 41
1.00000000E+00
  7
MONOTXT
  0
TEXT
  8
0
 62
7
 10
-4.65984437E+01
 20
-2.41917975E-01
 40
6.30000019E+00
  1
200
 41
1.00000000E+00
  7
MONOTXT
  0
TEXT
  8
0
 62
7
 10
-6.86484436E+01
 20
-2.02419180E+01
 40
6.30000019E+00
  1
75
 41
1.00000000E+00
  7
MONOTXT
  0
TEXT
  8
0
 62
7
 10
-7.17984437E+01
 20
-2.41917975E-01
 40
6.30000019E+00
  1
150
 41
1.00000000E+00
  7
MONOTXT
  0
TEXT
  8
0
 62
7
 10
-9.38484436E+01
 20
-2.02419180E+01
 40
6.30000019E+00
  1
25
 41
1.00000000E+00
  7
MONOTXT
  0
TEXT
  8
0
 62
7
 10
-9.69984437E+01
 20
-2.41917975E-01
 40
6.30000019E+00
  1
100
 41
1.00000000E+00
  7
MONOTXT
  0
TEXT
  8
0
 62
7
 10
-1.15898443E+02
 20
-2.02419180E+01
 40
6.30000019E+00
  1
0
 41
1.00000000E+00
  7
MONOTXT
  0
TEXT
  8
0
 62
7
 10
-1.19048443E+02
 20
-2.41917975E-01
 40
6.30000019E+00
  1
75
 41
1.00000000E+00
  7
MONOTXT
  0
TEXT
  8
0
 62
7
 10
-2.07798444E+02
 20
-2.41917975E-01
 40
6.30000019E+00
  1
STRETCH
 41
1.00000000E+00
  7
MONOTXT
  0
TEXT
  8
0
 62
7
 10
-2.04648444E+02
 20
9.75808200E+00
 40
6.30000019E+00
  1
STROKE
 41
1.00000000E+00
  7
MONOTXT
  0
TEXT
  8
0
 62
7
 10
-1.47398443E+02
 20
-2.02419180E+01
 40
6.30000019E+00
  1
-25
 41
1.00000000E+00
  7
MONOTXT
  0
TEXT
  8
0
 62
7
 10
-1.44248443E+02
 20
-2.41917975E-01
 40
6.30000019E+00
  1
50
 41
1.00000000E+00
  7
MONOTXT
  0
LINE
  8
0
 62
7
 10
1.76362494E+02
 20
-3.20919179E+01
 11
1.76362494E+02
 21
1.79080821E+01
  0
LINE
  8
0
 62
7
 10
1.51162494E+02
 20
-3.20919179E+01
 11
1.51162494E+02
 21
1.79080821E+01
  0
LINE
  8
0
 62
7
 10
1.25962494E+02
 20
-3.20919179E+01
 11
1.25962494E+02
 21
1.79080821E+01
  0
LINE
  8
0
 62
7
 10
1.00762494E+02
 20
-3.20919179E+01
 11
1.00762494E+02
 21
1.79080821E+01
  0
LINE
  8
0
 62
7
 10
7.55624940E+01
 20
-3.20919179E+01
 11
7.55624940E+01
 21
1.79080821E+01
  0
LINE
  8
0
 62
7
 10
5.03624940E+01
 20
-3.20919179E+01
 11
5.03624940E+01
 21
1.79080821E+01
  0
LINE
  8
0
 62
7
 10
2.51624940E+01
 20
-3.20919179E+01
 11
2.51624940E+01
 21
1.79080821E+01
  0
LINE
  8
0
 62
7
 10
-3.75060018E-02
 20
-3.20919179E+01
 11
-3.75060018E-02
 21
1.79080821E+01
  0
LINE
  8
0
 62
7
 10
-2.52375060E+01
 20
-3.20919179E+01
 11
-2.52375060E+01
 21
1.79080821E+01
  0
LINE
  8
0
 62
7
 10
-5.04375060E+01
 20
-3.20919179E+01
 11
-5.04375060E+01
 21
1.79080821E+01
  0
LINE
  8
0
 62
7
 10
-7.56375060E+01
 20
-3.20919179E+01
 11
-7.56375060E+01
 21
1.79080821E+01
  0
LINE
  8
0
 62
7
 10
-1.00837506E+02
 20
-3.20919179E+01
 11
-1.00837506E+02
 21
1.79080821E+01
  0
LINE
  8
0
 62
7
 10
-1.26037506E+02
 20
-3.20919179E+01
 11
-1.26037506E+02
 21
1.79080821E+01
  0
LINE
  8
0
 62
7
 10
-1.51237506E+02
 20
-3.20919179E+01
 11
-1.51237506E+02
 21
1.79080821E+01
  0
LINE
  8
0
 62
7
 10
-2.11637506E+02
 20
-1.20919179E+01
 11
1.76362494E+02
 21
-1.20919179E+01
  0
LINE
  8
0
 62
7
 10
-2.11637506E+02
 20
7.90808212E+00
 11
-1.63037506E+02
 21
7.90808212E+00
  0
LINE
  8
0
 62
7
 10
-2.11637506E+02
 20
-3.20919179E+01
 11
-2.11637506E+02
 21
1.79080821E+01
  0
LINE
  8
0
 62
7
 10
-2.11637506E+02
 20
-2.20919179E+01
 11
1.76362494E+02
 21
-2.20919179E+01
  0
LINE
  8
0
 62
7
 10
-2.11637506E+02
 20
-3.20919179E+01
 11
1.76362494E+02
 21
-3.20919179E+01
  0
TEXT
  8
0
 62
7
 10
-9.38484436E+01
 20
-3.02419180E+01
 40
6.30000019E+00
  1
25
 41
1.00000000E+00
  7
MONOTXT
  0
TEXT
  8
0
 62
7
 10
-1.15898443E+02
 20
-3.02419180E+01
 40
6.30000019E+00
  1
0
 41
1.00000000E+00
  7
MONOTXT
  0
TEXT
  8
0
 62
7
 10
-1.47398443E+02
 20
-3.02419180E+01
 40
6.30000019E+00
  1
-25
 41
1.00000000E+00
  7
MONOTXT
  0
LINE
  8
0
 62
7
 10
-2.11637506E+02
 20
1.79080821E+01
 11
1.76362494E+02
 21
1.79080821E+01
  0
TEXT
  8
0
 62
7
 10
-2.07798444E+02
 20
-1.02419180E+01
 40
6.30000019E+00
  1
  PLACE
 41
1.20689655E+00
  7
MONOTXT
  0
LINE
  8
0
 62
7
 10
-1.63037506E+02
 20
7.90808212E+00
 11
-1.51237506E+02
 21
-1.20919179E+01
  0
TEXT
  8
0
 62
7
 10
-1.83898443E+02
 20
-2.02419180E+01
 40
6.30000019E+00
  1
A
 41
1.00000000E+00
  7
MONOTXT
  0
TEXT
  8
0
 62
7
 10
-1.83898443E+02
 20
-3.02419180E+01
 40
6.30000019E+00
  1
B
 41
1.00000000E+00
  7
MONOTXT
  0
TEXT
  8
0
 62
7
 10
-5.47484446E+01
 20
2.17580820E+01
 40
6.30000019E+00
  1
STRETCH LIST
 41
1.05263158E+00
  7
MONOTXT
  0
TEXT
  8
0
 62
7
 10
1.50451557E+02
 20
2.17580820E+01
 40
6.30000019E+00
  1
(mm)
 41
1.00000000E+00
  7
MONOTXT
  0
LINE
  8
0
 62
7
 10
-6.18619194E+01
 20
-2.24707699E+02
 11
-1.24250000E+02
 21
-2.24707699E+02
  0
LINE
  8
0
 62
7
 10
-5.88019700E+01
 20
-2.19407712E+02
 11
-1.24250000E+02
 21
-2.19407712E+02
  0
LINE
  8
0
 62
7
 10
-5.83112275E+01
 20
-2.18557721E+02
 11
-1.24250000E+02
 21
-2.18557721E+02
  0
LINE
  8
0
 62
7
 10
-8.89973732E+01
 20
-1.31707684E+02
 11
-1.24250000E+02
 21
-1.31707684E+02
  0
LINE
  8
0
 62
7
 10
-8.94881157E+01
 20
-1.32557675E+02
 11
-1.24250000E+02
 21
-1.32557675E+02
  0
LINE
  8
0
 62
7
 10
-8.59374239E+01
 20
-1.26407696E+02
 11
-1.24250000E+02
 21
-1.26407696E+02
  0
LINE
  8
0
 62
7
 10
-1.16249995E+02
 20
-8.47076995E+01
 11
-1.24250000E+02
 21
-8.47076995E+01
  0
LINE
  8
0
 62
7
 10
-1.16249995E+02
 20
-7.85577361E+01
 11
-1.24250000E+02
 21
-7.85577361E+01
  0
LINE
  8
0
 62
7
 10
-1.16249995E+02
 20
-7.94077117E+01
 11
-1.24250000E+02
 21
-7.94077117E+01
  0
LINE
  8
0
  6
CENTER
 62
2
 10
-2.14651009E+02
 20
-1.05557706E+02
 11
-1.20749995E+02
 21
-1.05557706E+02
  0
LINE
  8
0
  6
CENTER
 62
2
 10
-2.14190727E+02
 20
-2.45557706E+02
 11
-7.38996760E+01
 21
-2.45557706E+02
  0
LINE
  8
0
 62
7
 10
-1.57249992E+02
 20
-8.70577056E+01
 11
-1.57249992E+02
 21
-1.24057660E+02
  0
LINE
  8
0
 62
7
 10
-1.65249985E+02
 20
-8.85576750E+01
 11
-1.65249985E+02
 21
-1.22557675E+02
  0
LINE
  8
0
 62
7
 10
-1.56750038E+02
 20
-8.65577056E+01
 11
-1.55250023E+02
 21
-8.65577056E+01
  0
LINE
  8
0
 62
7
 10
-1.69750031E+02
 20
-8.85577056E+01
 11
-1.65241478E+02
 21
-8.85577056E+01
  0
LINE
  8
0
 62
7
 10
-1.65250023E+02
 20
-8.85577056E+01
 11
-1.65250023E+02
 21
-8.85491606E+01
  0
LINE
  8
0
 62
7
 10
-1.65008738E+02
 20
-8.82990345E+01
 11
-1.57250062E+02
 21
-8.80280956E+01
  0
LINE
  8
0
 62
7
 10
-2.92386036E+02
 20
-2.30779118E+02
 11
-2.88434524E+02
 21
-2.26827607E+02
  0
LINE
  8
0
 62
7
 10
-2.90971804E+02
 20
-2.32193378E+02
 11
-2.87020292E+02
 21
-2.28241867E+02
  0
LINE
  8
0
 62
7
 10
-2.78750053E+02
 20
-2.44557721E+02
 11
-2.85850273E+02
 21
-2.44557721E+02
  0
LINE
  8
0
 62
7
 10
-1.70250023E+02
 20
-8.90577361E+01
 11
-1.70250023E+02
 21
-1.22057675E+02
  0
LINE
  8
0
 62
7
 10
-1.56750038E+02
 20
-1.24557690E+02
 11
-1.55250023E+02
 21
-1.24557690E+02
  0
LINE
  8
0
 62
7
 10
-1.69750031E+02
 20
-1.22557706E+02
 11
-1.65241478E+02
 21
-1.22557706E+02
  0
LINE
  8
0
 62
7
 10
-1.65250023E+02
 20
-1.22557706E+02
 11
-1.65250023E+02
 21
-1.22566250E+02
  0
LINE
  8
0
 62
7
 10
-1.65008794E+02
 20
-1.22816095E+02
 11
-1.57250080E+02
 21
-1.23087035E+02
  0
LINE
  8
0
 62
7
 10
-3.06750008E+02
 20
-2.18557721E+02
 11
-3.06750008E+02
 21
-2.25657971E+02
  0
LINE
  8
0
 62
7
 10
-3.04749992E+02
 20
-2.18557721E+02
 11
-3.04749992E+02
 21
-2.25657971E+02
  0
LINE
  8
0
 62
7
 10
-3.33249977E+02
 20
-2.14557706E+02
 11
-2.78250053E+02
 21
-2.14557706E+02
  0
LINE
  8
0
  6
CENTER
 62
2
 10
-2.93750008E+02
 20
-2.12083417E+02
 11
-2.93750008E+02
 21
-2.37895245E+02
  0
LINE
  8
0
  6
CENTER
 62
2
 10
-2.82249992E+02
 20
-2.12079449E+02
 11
-2.82249992E+02
 21
-2.31782086E+02
  0
LINE
  8
0
  6
CENTER
 62
2
 10
-2.72296883E+02
 20
-2.22057721E+02
 11
-2.91999443E+02
 21
-2.22057721E+02
  0
LINE
  8
0
 62
7
 10
-3.16281364E+02
 20
-2.17557721E+02
 11
-2.95218636E+02
 21
-2.17557721E+02
  0
LINE
  8
0
 62
7
 10
-1.55250023E+02
 20
-7.53431975E+01
 11
-1.55250023E+02
 21
-1.35772122E+02
  0
LINE
  8
0
  6
CENTER
 62
2
 10
-1.31250046E+02
 20
-1.25028866E+02
 11
-1.31250046E+02
 21
-1.08439862E+02
  0
LINE
  8
0
  6
CENTER
 62
2
 10
-1.40095299E+02
 20
-1.17557721E+02
 11
-1.22620781E+02
 21
-1.17557721E+02
  0
LINE
  8
0
 62
7
 10
-1.55250029E+02
 20
-7.53430655E+01
 11
-1.24249951E+02
 21
-7.45312999E+01
  0
LINE
  8
0
 62
7
 10
-1.50250023E+02
 20
-1.25557736E+02
 11
-1.50250023E+02
 21
-8.55577361E+01
  0
LINE
  8
0
  6
CENTER
 62
2
 10
-1.37250069E+02
 20
-1.09799832E+02
 11
-1.37250069E+02
 21
-8.62134062E+01
  0
LINE
  8
0
  6
CENTER
 62
2
 10
-1.46660202E+02
 20
-9.85577818E+01
 11
-1.35749995E+02
 21
-9.85577818E+01
  0
LINE
  8
0
 62
7
 10
-1.24250000E+02
 20
-7.45314299E+01
 11
-1.24250000E+02
 21
-8.67434092E+01
  0
LINE
  8
0
 62
7
 10
-1.55250112E+02
 20
-1.35772115E+02
 11
-1.24250072E+02
 21
-1.36583880E+02
  0
LINE
  8
0
 62
7
 10
-1.48250015E+02
 20
-8.35577361E+01
 11
-1.24250000E+02
 21
-8.35577361E+01
  0
LINE
  8
0
 62
7
 10
-1.48250015E+02
 20
-1.27557721E+02
 11
-1.24250000E+02
 21
-1.27557721E+02
  0
LINE
  8
0
 62
7
 10
-3.19114248E+02
 20
-2.30779470E+02
 11
-3.23065829E+02
 21
-2.26827890E+02
  0
LINE
  8
0
 62
7
 10
-3.20528516E+02
 20
-2.32193695E+02
 11
-3.24480053E+02
 21
-2.28242157E+02
  0
LINE
  8
0
 62
7
 10
-3.32749992E+02
 20
-2.44557660E+02
 11
-3.25649773E+02
 21
-2.44557660E+02
  0
LINE
  8
0
 62
7
 10
-3.33249977E+02
 20
-2.15057690E+02
 11
-2.78250053E+02
 21
-2.15057736E+02
  0
LINE
  8
0
 62
7
 10
-3.33750008E+02
 20
-2.45557706E+02
 11
-3.33750008E+02
 21
-2.35026333E+02
  0
LINE
  8
0
 62
7
 10
-3.36250008E+02
 20
-2.45557706E+02
 11
-3.36250008E+02
 21
-2.18057721E+02
  0
LINE
  8
0
 62
7
 10
-3.36750008E+02
 20
-2.45557706E+02
 11
-3.36750008E+02
 21
-2.18057721E+02
  0
LINE
  8
0
  6
CENTER
 62
2
 10
-3.12749992E+02
 20
-2.12196026E+02
 11
-3.12749992E+02
 21
-2.33786862E+02
  0
LINE
  8
0
  6
CENTER
 62
2
 10
-3.29250008E+02
 20
-2.12504025E+02
 11
-3.29250008E+02
 21
-2.29942059E+02
  0
LINE
  8
0
 62
7
 10
-1.24250000E+02
 20
-2.45557706E+02
 11
-1.24250000E+02
 21
-2.14531430E+02
  0
LINE
  8
0
 62
7
 10
-2.74750038E+02
 20
-2.45557706E+02
 11
-2.74750038E+02
 21
-2.18057690E+02
  0
LINE
  8
0
  6
CENTER
 62
2
 10
-3.05749977E+02
 20
-2.10797040E+02
 11
-3.05749977E+02
 21
-2.45557706E+02
  0
LINE
  8
0
 62
7
 10
-2.77750069E+02
 20
-2.45557706E+02
 11
-2.77750069E+02
 21
-2.35026333E+02
  0
LINE
  8
0
 62
7
 10
-2.83750008E+02
 20
-2.14557706E+02
 11
-2.83750008E+02
 21
-2.15057736E+02
  0
LINE
  8
0
 62
7
 10
-3.27749992E+02
 20
-2.14557706E+02
 11
-3.27749992E+02
 21
-2.15057690E+02
  0
LINE
  8
0
 62
7
 10
-2.75250069E+02
 20
-2.45557706E+02
 11
-2.75250069E+02
 21
-2.18057721E+02
  0
LINE
  8
0
 62
7
 10
-1.43384789E+02
 20
-9.55577971E+01
 11
-1.35749995E+02
 21
-9.55577971E+01
  0
LINE
  8
0
 62
7
 10
-3.30249992E+02
 20
-2.29809109E+02
 11
-3.30249992E+02
 21
-2.31057706E+02
  0
LINE
  8
0
 62
7
 10
-3.21498390E+02
 20
-2.21057660E+02
 11
-3.20249992E+02
 21
-2.21057660E+02
  0
LINE
  8
0
 62
7
 10
-2.90001274E+02
 20
-2.21057736E+02
 11
-2.91249977E+02
 21
-2.21057736E+02
  0
LINE
  8
0
 62
7
 10
-2.81250008E+02
 20
-2.29809354E+02
 11
-2.81250008E+02
 21
-2.31057706E+02
  0
LINE
  8
0
  6
CENTER
 62
2
 10
-2.73089684E+02
 20
-2.45557706E+02
 11
-3.40265053E+02
 21
-2.45557706E+02
  0
LINE
  8
0
  6
CENTER
 62
2
 10
-3.19862907E+02
 20
-2.22057721E+02
 11
-3.38982597E+02
 21
-2.22057721E+02
  0
LINE
  8
0
 62
7
 10
-1.65250023E+02
 20
-2.45557706E+02
 11
-1.65250023E+02
 21
-2.28557706E+02
  0
LINE
  8
0
  6
CENTER
 62
2
 10
-1.37250031E+02
 20
-2.31790997E+02
 11
-1.37250031E+02
 21
-2.11752225E+02
  0
LINE
  8
0
  6
CENTER
 62
2
 10
-8.74673986E+01
 20
-1.29057690E+02
 11
-1.58394173E+02
 21
-1.29057690E+02
  0
LINE
  8
0
 62
7
 10
-1.29517986E+02
 20
-1.17557669E+02
 11
-1.30383995E+02
 21
-1.16057688E+02
  0
LINE
  8
0
 62
7
 10
-1.30383995E+02
 20
-1.16057736E+02
 11
-1.32116020E+02
 21
-1.16057736E+02
  0
LINE
  8
0
 62
7
 10
-1.32981967E+02
 20
-1.17557811E+02
 11
-1.32115958E+02
 21
-1.16057831E+02
  0
LINE
  8
0
 62
7
 10
-1.32115950E+02
 20
-1.19057771E+02
 11
-1.32981997E+02
 21
-1.17557725E+02
  0
LINE
  8
0
 62
7
 10
-1.30383995E+02
 20
-1.19057767E+02
 11
-1.32116020E+02
 21
-1.19057767E+02
  0
LINE
  8
0
 62
7
 10
-1.29517899E+02
 20
-1.17557830E+02
 11
-1.30383915E+02
 21
-1.19057823E+02
  0
LINE
  8
0
 62
7
 10
-5.83112364E+01
 20
-7.85577361E+01
 11
-1.01249995E+02
 21
-7.85577361E+01
  0
LINE
  8
0
  6
CENTER
 62
2
 10
-6.03319447E+01
 20
-8.20577056E+01
 11
-1.01249995E+02
 21
-8.20577056E+01
  0
LINE
  8
0
 62
7
 10
-6.18619194E+01
 20
-8.47076995E+01
 11
-1.01249995E+02
 21
-8.47076995E+01
  0
LINE
  8
0
 62
7
 10
-5.88019700E+01
 20
-7.94077117E+01
 11
-1.01249995E+02
 21
-7.94077117E+01
  0
LINE
  8
0
  6
CENTER
 62
2
 10
-6.03319447E+01
 20
-2.22057706E+02
 11
-1.59106300E+02
 21
-2.22057706E+02
  0
LINE
  8
0
 62
7
 10
-1.50250023E+02
 20
-2.15212292E+02
 11
-1.50250023E+02
 21
-2.14557690E+02
  0
LINE
  8
0
 62
7
 10
-1.55249959E+02
 20
-2.15343189E+02
 11
-1.24250003E+02
 21
-2.14531426E+02
  0
LINE
  8
0
 62
7
 10
-1.50250023E+02
 20
-2.14557690E+02
 11
-1.24250000E+02
 21
-2.14557690E+02
  0
LINE
  8
0
 62
7
 10
-1.55250023E+02
 20
-2.45557706E+02
 11
-1.55250023E+02
 21
-2.15343289E+02
  0
LINE
  8
0
 62
7
 10
-1.57250031E+02
 20
-2.45557706E+02
 11
-1.57250031E+02
 21
-2.27057690E+02
  0
LINE
  8
0
 62
7
 10
-1.65008741E+02
 20
-2.28299220E+02
 11
-1.57250066E+02
 21
-2.28028281E+02
  0
LINE
  8
0
 62
7
 10
-1.65250023E+02
 20
-2.28557706E+02
 11
-1.65250023E+02
 21
-2.28549161E+02
  0
LINE
  8
0
 62
7
 10
-1.69750031E+02
 20
-2.28557706E+02
 11
-1.65241478E+02
 21
-2.28557706E+02
  0
LINE
  8
0
 62
7
 10
-1.56750038E+02
 20
-2.26557706E+02
 11
-1.55250023E+02
 21
-2.26557706E+02
  0
LINE
  8
0
 62
7
 10
-1.70250023E+02
 20
-2.45557706E+02
 11
-1.70250023E+02
 21
-2.29057736E+02
  0
LINE
  8
0
 62
7
 10
-1.80249992E+02
 20
-2.36557706E+02
 11
-1.80249992E+02
 21
-2.45557706E+02
  0
LINE
  8
0
 62
7
 10
-1.77250099E+02
 20
-2.40289853E+02
 11
-1.73250038E+02
 21
-2.40289853E+02
  0
LINE
  8
0
 62
2
 10
-1.79283678E+02
 20
-2.41744225E+02
 11
-1.76749979E+02
 21
-2.45557706E+02
  0
LINE
  8
0
 62
2
 10
-1.76750001E+02
 20
-2.45557706E+02
 11
-1.73250011E+02
 21
-2.40289857E+02
  0
LINE
  8
0
 62
7
 10
-1.77250008E+02
 20
-2.35557675E+02
 11
-1.77250008E+02
 21
-2.40289853E+02
  0
LINE
  8
0
 62
7
 10
-1.73250038E+02
 20
-2.45557706E+02
 11
-1.73250038E+02
 21
-2.40289853E+02
  0
LINE
  8
0
 62
7
 10
-1.83249992E+02
 20
-2.45557706E+02
 11
-1.83249992E+02
 21
-2.36557706E+02
  0
LINE
  8
0
 62
7
 10
-2.12249992E+02
 20
-2.45557706E+02
 11
-2.12249992E+02
 21
-2.38057858E+02
  0
LINE
  8
0
 62
7
 10
-2.10749992E+02
 20
-2.45557706E+02
 11
-2.10749992E+02
 21
-2.36557706E+02
  0
LINE
  8
0
 62
7
 10
-2.10749931E+02
 20
-2.36557706E+02
 11
-2.03249992E+02
 21
-2.36557706E+02
  0
LINE
  8
0
 62
2
 10
-2.11569939E+02
 20
-2.37377713E+02
 11
-2.03249992E+02
 21
-2.37377713E+02
  0
LINE
  8
0
 62
7
 10
-2.12249935E+02
 20
-2.38057839E+02
 11
-2.10749888E+02
 21
-2.36557839E+02
  0
LINE
  8
0
 62
7
 10
-1.77250099E+02
 20
-2.35557721E+02
 11
-1.70250069E+02
 21
-2.35557721E+02
  0
LINE
  8
0
 62
7
 10
-1.80250001E+02
 20
-2.36557701E+02
 11
-1.77250013E+02
 21
-2.35557715E+02
  0
LINE
  8
0
 62
7
 10
-1.80249979E+02
 20
-2.42435272E+02
 11
-1.77249987E+02
 21
-2.40289865E+02
  0
LINE
  8
0
 62
7
 10
-1.83249992E+02
 20
-2.37377713E+02
 11
-1.80249992E+02
 21
-2.37377713E+02
  0
LINE
  8
0
 62
7
 10
-1.77250008E+02
 20
-9.70577056E+01
 11
-1.77250008E+02
 21
-1.14057706E+02
  0
LINE
  8
0
 62
7
 10
-1.71750053E+02
 20
-1.15557690E+02
 11
-1.70250069E+02
 21
-1.15557690E+02
  0
LINE
  8
0
 62
7
 10
-1.71749992E+02
 20
-9.55576750E+01
 11
-1.70250023E+02
 21
-9.55576750E+01
  0
LINE
  8
0
 62
7
 10
-1.83249992E+02
 20
-1.14557706E+02
 11
-1.83249992E+02
 21
-9.65577056E+01
  0
LINE
  8
0
 62
7
 10
-2.12249992E+02
 20
-1.13057675E+02
 11
-2.12249992E+02
 21
-9.80578581E+01
  0
LINE
  8
0
 62
7
 10
-2.10749992E+02
 20
-1.14557706E+02
 11
-2.10749992E+02
 21
-9.65577056E+01
  0
LINE
  8
0
 62
7
 10
-2.10749931E+02
 20
-9.65577056E+01
 11
-2.03249992E+02
 21
-9.65577056E+01
  0
LINE
  8
0
 62
2
 10
-2.11569939E+02
 20
-9.73777129E+01
 11
-2.03249992E+02
 21
-9.73777129E+01
  0
LINE
  8
0
 62
7
 10
-2.12249938E+02
 20
-9.80578588E+01
 11
-2.10749892E+02
 21
-9.65578585E+01
  0
LINE
  8
0
 62
7
 10
-2.10749931E+02
 20
-1.14557706E+02
 11
-2.03249992E+02
 21
-1.14557706E+02
  0
LINE
  8
0
 62
2
 10
-2.11569939E+02
 20
-1.13737698E+02
 11
-2.03249992E+02
 21
-1.13737698E+02
  0
LINE
  8
0
 62
7
 10
-2.12250029E+02
 20
-1.13057628E+02
 11
-2.10749994E+02
 21
-1.14557617E+02
  0
LINE
  8
0
 62
7
 10
-1.80249992E+02
 20
-1.14057706E+02
 11
-1.80249992E+02
 21
-9.70577056E+01
  0
LINE
  8
0
 62
7
 10
-1.80249992E+02
 20
-1.14057706E+02
 11
-1.73250038E+02
 21
-1.14057706E+02
  0
LINE
  8
0
 62
7
 10
-1.80249992E+02
 20
-9.70577056E+01
 11
-1.73250038E+02
 21
-9.70577056E+01
  0
LINE
  8
0
 62
7
 10
-1.73250051E+02
 20
-1.14057695E+02
 11
-1.71750082E+02
 21
-1.15557664E+02
  0
LINE
  8
0
 62
7
 10
-1.73250090E+02
 20
-9.70576389E+01
 11
-1.71750061E+02
 21
-9.55576103E+01
  0
LINE
  8
0
 62
7
 10
-1.83249992E+02
 20
-9.73777129E+01
 11
-1.80249992E+02
 21
-9.73777129E+01
  0
LINE
  8
0
 62
7
 10
-1.83249992E+02
 20
-1.13737698E+02
 11
-1.80249992E+02
 21
-1.13737698E+02
  0
ARC
  8
0
 62
7
 10
-1.69750031E+02
 20
-8.90577361E+01
 40
5.00000000E-01
 50
8.99999818E+01
 51
1.79999964E+02
  0
ARC
  8
0
 62
7
 10
-1.65000008E+02
 20
-8.85491606E+01
 40
2.50000000E-01
 50
9.19988093E+01
 51
1.79999964E+02
  0
ARC
  8
0
 62
7
 10
-1.56750038E+02
 20
-8.70577056E+01
 40
5.00000000E-01
 50
8.99999818E+01
 51
1.79999964E+02
  0
ARC
  8
0
 62
7
 10
-2.90264519E+02
 20
-2.32900662E+02
 40
1.00000000E+00
 50
1.34999959E+02
 51
2.19260957E+02
  0
ARC
  8
0
 62
7
 10
-2.93092964E+02
 20
-2.30072217E+02
 40
1.00000000E+00
 50
2.30738998E+02
 51
3.14999995E+02
  0
ARC
  8
0
 62
7
 10
-2.85850273E+02
 20
-2.43557706E+02
 40
1.00000000E+00
 50
1.85739458E+02
 51
2.69999963E+02
  0
ARC
  8
0
 62
7
 10
-1.56750038E+02
 20
-1.24057706E+02
 40
5.00000000E-01
 50
1.79999977E+02
 51
2.69999974E+02
  0
ARC
  8
0
 62
7
 10
-1.65000008E+02
 20
-1.22566250E+02
 40
2.50000000E-01
 50
1.79999977E+02
 51
2.68001132E+02
  0
ARC
  8
0
 62
7
 10
-1.69750031E+02
 20
-1.22057675E+02
 40
5.00000000E-01
 50
1.79999977E+02
 51
2.69999974E+02
  0
ARC
  8
0
 62
7
 10
-2.78750053E+02
 20
-2.43557706E+02
 40
1.00000000E+00
 50
2.69999963E+02
 51
0.00000000E+00
  0
ARC
  8
0
 62
7
 10
-2.78250053E+02
 20
-2.18057721E+02
 40
3.00000000E+00
 50
0.00000000E+00
 51
8.99999818E+01
  0
ARC
  8
0
 62
7
 10
-3.03750008E+02
 20
-2.18557736E+02
 40
1.00000000E+00
 50
8.99999818E+01
 51
1.79999964E+02
  0
ARC
  8
0
 62
7
 10
-3.03750008E+02
 20
-2.25657971E+02
 40
1.00000000E+00
 50
1.79999964E+02
 51
2.64260484E+02
  0
CIRCLE
  8
0
 62
7
 10
-2.82249992E+02
 20
-2.22057721E+02
 40
5.00000000E+00
  0
ARC
  8
0
 62
7
 10
-2.86312996E+02
 20
-2.28949139E+02
 40
1.00000000E+00
 50
5.94777518E+01
 51
1.34999345E+02
  0
ARC
  8
0
 62
7
 10
-2.89141396E+02
 20
-2.26120755E+02
 40
1.00000000E+00
 50
3.15000624E+02
 51
3.05224488E+01
  0
ARC
  8
0
 62
7
 10
-2.78250053E+02
 20
-2.18057706E+02
 40
3.50000000E+00
 50
0.00000000E+00
 51
8.99999818E+01
  0
CIRCLE
  8
0
 62
7
 10
-2.82249992E+02
 20
-2.22057721E+02
 40
4.50000000E+00
  0
ARC
  8
0
 62
7
 10
-2.78750053E+02
 20
-2.35026333E+02
 40
1.00000000E+00
 50
0.00000000E+00
 51
8.28191923E+01
  0
ARC
  8
0
 62
7
 10
-2.78250053E+02
 20
-2.31057706E+02
 40
3.00000000E+00
 50
1.79999977E+02
 51
2.62819232E+02
  0
ARC
  8
0
 62
7
 10
-2.82218681E+02
 20
-2.30057614E+02
 40
1.00000000E+00
 50
7.17896597E+00
 51
9.02255215E+01
  0
ARC
  8
0
 62
7
 10
-2.82250069E+02
 20
-2.22057690E+02
 40
7.00000000E+00
 50
1.79775278E+02
 51
2.70224550E+02
  0
ARC
  8
0
 62
7
 10
-2.90249992E+02
 20
-2.22026303E+02
 40
1.00000000E+00
 50
3.59775314E+02
 51
8.28191923E+01
  0
ARC
  8
0
 62
7
 10
-2.91250008E+02
 20
-2.18057690E+02
 40
3.00000000E+00
 50
1.87181024E+02
 51
2.70000018E+02
  0
ARC
  8
0
 62
7
 10
-2.95218636E+02
 20
-2.18557721E+02
 40
1.00000000E+00
 50
7.18156141E+00
 51
8.99999818E+01
  0
ARC
  8
0
 62
7
 10
-1.48250015E+02
 20
-8.55577056E+01
 40
2.00000000E+00
 50
8.99999818E+01
 51
1.79999964E+02
  0
ARC
  8
0
 62
7
 10
-1.48250015E+02
 20
-1.25557736E+02
 40
2.00000000E+00
 50
1.79999977E+02
 51
2.70000028E+02
  0
ARC
  8
0
 62
7
 10
-3.21235481E+02
 20
-2.32900662E+02
 40
1.00000000E+00
 50
3.20738994E+02
 51
4.49999910E+01
  0
ARC
  8
0
 62
7
 10
-3.18407036E+02
 20
-2.30072247E+02
 40
1.00000000E+00
 50
2.24999972E+02
 51
3.09260983E+02
  0
ARC
  8
0
 62
7
 10
-3.25649773E+02
 20
-2.43557706E+02
 40
1.00000000E+00
 50
2.69999963E+02
 51
3.54260510E+02
  0
CIRCLE
  8
0
 62
7
 10
-3.29250008E+02
 20
-2.22057690E+02
 40
5.00000000E+00
  0
ARC
  8
0
 62
7
 10
-3.22358559E+02
 20
-2.26120694E+02
 40
1.00000000E+00
 50
1.49477747E+02
 51
2.24999340E+02
  0
ARC
  8
0
 62
7
 10
-3.07749992E+02
 20
-2.18557736E+02
 40
1.00000000E+00
 50
3.59999959E+02
 51
8.99999956E+01
  0
ARC
  8
0
 62
7
 10
-3.07749992E+02
 20
-2.25657971E+02
 40
1.00000000E+00
 50
2.75739617E+02
 51
3.59999959E+02
  0
ARC
  8
0
 62
7
 10
-3.32749992E+02
 20
-2.43557706E+02
 40
1.00000000E+00
 50
1.79999964E+02
 51
2.69999946E+02
  0
ARC
  8
0
 62
7
 10
-3.29250008E+02
 20
-2.22057690E+02
 40
7.00000000E+00
 50
2.69775421E+02
 51
2.24686703E-01
  0
ARC
  8
0
 62
7
 10
-3.25186928E+02
 20
-2.28949139E+02
 40
1.00000000E+00
 50
4.50006194E+01
 51
1.20522431E+02
  0
ARC
  8
0
 62
7
 10
-3.33249977E+02
 20
-2.18057751E+02
 40
3.00000000E+00
 50
9.00000231E+01
 51
1.79999977E+02
  0
ARC
  8
0
 62
7
 10
-3.33249977E+02
 20
-2.18057751E+02
 40
3.50000000E+00
 50
9.00000231E+01
 51
1.79999977E+02
  0
CIRCLE
  8
0
 62
7
 10
-3.29250008E+02
 20
-2.22057690E+02
 40
4.50000000E+00
  0
ARC
  8
0
 62
7
 10
-3.33249977E+02
 20
-2.31057706E+02
 40
3.00000000E+00
 50
2.77180753E+02
 51
0.00000000E+00
  0
ARC
  8
0
 62
7
 10
-3.20249992E+02
 20
-2.18057690E+02
 40
3.00000000E+00
 50
2.70000018E+02
 51
3.52818957E+02
  0
ARC
  8
0
 62
7
 10
-3.16281364E+02
 20
-2.18557721E+02
 40
1.00000000E+00
 50
8.99999818E+01
 51
1.72818402E+02
  0
ARC
  8
0
 62
7
 10
-3.21250053E+02
 20
-2.22026303E+02
 40
1.00000000E+00
 50
9.71807714E+01
 51
1.80224650E+02
  0
ARC
  8
0
 62
7
 10
-3.29281364E+02
 20
-2.30057614E+02
 40
1.00000000E+00
 50
8.97744422E+01
 51
1.72820998E+02
  0
ARC
  8
0
 62
7
 10
-3.32749992E+02
 20
-2.35026333E+02
 40
1.00000000E+00
 50
9.71807714E+01
 51
1.79999964E+02
  0
ARC
  8
0
 62
7
 10
-3.05749977E+02
 20
-2.45557706E+02
 40
1.75294495E+01
 50
0.00000000E+00
 51
1.80000000E+02
  0
ARC
  8
0
 62
7
 10
-3.05749977E+02
 20
-2.45557706E+02
 40
1.90000000E+01
 50
0.00000000E+00
 51
1.80000000E+02
  0
ARC
  8
0
 62
7
 10
-3.05749977E+02
 20
-2.45557706E+02
 40
1.70000000E+01
 50
0.00000000E+00
 51
1.80000000E+02
  0
ARC
  8
0
 62
7
 10
-1.31250046E+02
 20
-1.17557721E+02
 40
5.00000000E+00
 50
0.00000000E+00
 51
1.79999964E+02
  0
ARC
  8
0
 62
7
 10
-1.31250046E+02
 20
-1.17557721E+02
 40
5.00000000E+00
 50
1.79999977E+02
 51
1.00179127E-05
  0
CIRCLE
  8
0
 62
2
 10
-3.29250008E+02
 20
-2.22057721E+02
 40
3.00000000E+00
  0
CIRCLE
  8
0
 62
2
 10
-2.82249992E+02
 20
-2.22057721E+02
 40
3.00000000E+00
  0
CIRCLE
  8
0
 62
7
 10
-1.31250046E+02
 20
-1.17557721E+02
 40
2.59999990E+00
  0
ARC
  8
0
 62
7
 10
-1.69750031E+02
 20
-2.29057736E+02
 40
5.00000000E-01
 50
9.00000369E+01
 51
1.80000019E+02
  0
ARC
  8
0
 62
7
 10
-1.65000008E+02
 20
-2.28549161E+02
 40
2.50000000E-01
 50
9.19988643E+01
 51
1.80000019E+02
  0
ARC
  8
0
 62
7
 10
-1.56750038E+02
 20
-2.27057690E+02
 40
5.00000000E-01
 50
9.00000369E+01
 51
1.80000019E+02
  0
ARC
  8
0
 62
7
 10
-1.81749992E+02
 20
-2.45557706E+02
 40
9.99998474E+00
 50
0.00000000E+00
 51
3.17883527E+01
  0
ARC
  8
0
 62
7
 10
-3.05749977E+02
 20
-2.45557706E+02
 40
8.99999237E+00
 50
0.00000000E+00
 51
1.80000000E+02
  0
ARC
  8
0
 62
2
 10
-3.05749977E+02
 20
-2.45557706E+02
 40
8.18000031E+00
 50
0.00000000E+00
 51
1.80000000E+02
  0
ARC
  8
0
 62
7
 10
-1.37250069E+02
 20
-9.85577818E+01
 40
8.75249958E+00
 50
8.01314651E+01
 51
3.50559410E+02
  0
ARC
  8
0
 62
2
 10
-1.37250069E+02
 20
-9.85577818E+01
 40
8.33099937E+00
 50
7.96267844E+01
 51
3.50077058E+02
  0
ARC
  8
0
 62
7
 10
-1.37250069E+02
 20
-9.85577818E+01
 40
7.45249987E+00
 50
7.83879058E+01
 51
3.48893282E+02
  0
ARC
  8
0
 62
7
 10
-1.43384789E+02
 20
-9.65577971E+01
 40
1.00000000E+00
 50
9.00000025E+01
 51
1.61943485E+02
  0
LINE
  8
0
 62
4
 10
-1.92249992E+02
 20
-9.20577056E+01
 11
-1.92249992E+02
 21
-1.19057706E+02
  0
LINE
  8
0
 62
4
 10
-2.03249992E+02
 20
-9.20577056E+01
 11
-2.03249992E+02
 21
-1.19057706E+02
  0
LINE
  8
0
 62
4
 10
-1.92249992E+02
 20
-9.20577056E+01
 11
-2.03249992E+02
 21
-9.20577056E+01
  0
LINE
  8
0
 62
4
 10
-1.92249992E+02
 20
-1.19057706E+02
 11
-2.03249992E+02
 21
-1.19057706E+02
  0
LINE
  8
0
 62
4
 10
-1.93455764E+02
 20
-1.05557706E+02
 11
-2.02044221E+02
 21
-1.05557706E+02
  0
ARC
  8
0
 62
4
 10
-1.83753599E+02
 20
-1.12307706E+02
 40
1.94963929E+01
 50
1.59743842E+02
 51
2.00256158E+02
  0
ARC
  8
0
 62
4
 10
-1.83753599E+02
 20
-9.88077056E+01
 40
1.94963929E+01
 50
1.59743842E+02
 51
2.00256158E+02
  0
ARC
  8
0
 62
4
 10
-2.11746385E+02
 20
-9.88077056E+01
 40
1.94963929E+01
 50
3.39743842E+02
 51
2.02561580E+01
  0
ARC
  8
0
 62
4
 10
-2.11746385E+02
 20
-1.12307706E+02
 40
1.94963929E+01
 50
3.39743842E+02
 51
2.02561580E+01
  0
LINE
  8
0
 62
4
 10
-2.02044221E+02
 20
-2.29969248E+02
 11
-1.93455764E+02
 21
-2.29969248E+02
  0
LINE
  8
0
 62
4
 10
-2.02044221E+02
 20
-2.37763477E+02
 11
-1.93455764E+02
 21
-2.37763477E+02
  0
LINE
  8
0
 62
4
 10
-2.02044221E+02
 20
-2.29969248E+02
 11
-2.03249992E+02
 21
-2.32057706E+02
  0
LINE
  8
0
 62
4
 10
-1.93455764E+02
 20
-2.29969248E+02
 11
-1.92249992E+02
 21
-2.32057706E+02
  0
ARC
  8
0
 62
4
 10
-1.96349271E+02
 20
-2.33866363E+02
 40
6.90072132E+00
 50
1.45615752E+02
 51
2.14384248E+02
  0
ARC
  8
0
 62
4
 10
-1.99150714E+02
 20
-2.33866363E+02
 40
6.90072132E+00
 50
3.25615752E+02
 51
3.43842480E+01
  0
ARC
  8
0
 62
4
 10
-2.18044221E+02
 20
-2.45557706E+02
 40
2.57942282E+01
 50
3.60000000E+02
 51
1.75879541E+01
  0
ARC
  8
0
 62
4
 10
-1.77455764E+02
 20
-2.45557706E+02
 40
2.57942282E+01
 50
1.62412046E+02
 51
1.80000000E+02
  0
LINE
  8
0
 62
4
 10
-2.03249992E+02
 20
-2.45557706E+02
 11
-2.03249992E+02
 21
-2.32057706E+02
  0
LINE
  8
0
 62
4
 10
-1.92249992E+02
 20
-2.45557706E+02
 11
-1.92249992E+02
 21
-2.32057706E+02
  0
ARC
  8
0
 62
4
 10
-3.05749977E+02
 20
-2.45557706E+02
 40
1.35000000E+01
 50
0.00000000E+00
 51
1.80000000E+02
  0
LINE
  8
0
 62
4
 10
-3.05749977E+02
 20
-2.29969248E+02
 11
-3.19249977E+02
 21
-2.37763477E+02
  0
LINE
  8
0
 62
4
 10
-3.19249977E+02
 20
-2.37763477E+02
 11
-3.19249977E+02
 21
-2.45557706E+02
  0
LINE
  8
0
 62
4
 10
-2.92249977E+02
 20
-2.45557706E+02
 11
-2.92249977E+02
 21
-2.37763477E+02
  0
LINE
  8
0
 62
4
 10
-2.92249977E+02
 20
-2.37763477E+02
 11
-3.05749977E+02
 21
-2.29969248E+02
  0
LINE
  8
0
 62
7
 10
-1.92249992E+02
 20
-9.65577056E+01
 11
-1.83249992E+02
 21
-9.65577056E+01
  0
LINE
  8
0
 62
2
 10
-1.92249992E+02
 20
-9.73777129E+01
 11
-1.83249992E+02
 21
-9.73777129E+01
  0
LINE
  8
0
 62
7
 10
-1.92249992E+02
 20
-1.14557706E+02
 11
-1.83249992E+02
 21
-1.14557706E+02
  0
LINE
  8
0
 62
2
 10
-1.92249992E+02
 20
-1.13737698E+02
 11
-1.83249992E+02
 21
-1.13737698E+02
  0
LINE
  8
0
 62
7
 10
-1.92249992E+02
 20
-2.36557706E+02
 11
-1.83249992E+02
 21
-2.36557706E+02
  0
LINE
  8
0
 62
2
 10
-1.92249992E+02
 20
-2.37377713E+02
 11
-1.83249992E+02
 21
-2.37377713E+02
  0
LINE
  8
0
  6
CENTER
 62
2
 10
-8.17499945E+01
 20
-1.05557706E+02
 11
-7.38996760E+01
 21
-1.05557706E+02
  0
LINE
  8
0
 62
7
 10
-1.24250000E+02
 20
-1.00743409E+02
 11
-1.24250000E+02
 21
-1.36557706E+02
  0
LINE
  8
0
  6
CENTER
 62
2
 10
-1.16249995E+02
 20
-8.20577056E+01
 11
-1.58156822E+02
 21
-8.20577056E+01
  0
LINE
  8
0
 62
2
 10
-9.57050435E+01
 20
-1.43325710E+02
 11
-5.41204834E+01
 21
-7.12991390E+01
  0
LINE
  8
0
 62
7
 10
1.54696220E+02
 20
-2.24707699E+02
 11
2.01185684E+02
 21
-2.24707699E+02
  0
LINE
  8
0
 62
7
 10
1.57756169E+02
 20
-2.19407712E+02
 11
2.01185684E+02
 21
-2.19407712E+02
  0
LINE
  8
0
 62
7
 10
1.58246911E+02
 20
-2.18557721E+02
 11
1.84685684E+02
 21
-2.18557721E+02
  0
LINE
  8
0
  6
CENTER
 62
2
 10
3.14126411E+02
 20
-2.45557706E+02
 11
1.42658463E+02
 21
-2.45557706E+02
  0
LINE
  8
0
  6
CENTER
 62
2
 10
1.56226194E+02
 20
-2.22057706E+02
 11
2.01185684E+02
 21
-2.22057706E+02
  0
LINE
  8
0
 62
2
 10
2.92185676E+02
 20
-2.37377713E+02
 11
2.83185676E+02
 21
-2.37377713E+02
  0
LINE
  8
0
 62
7
 10
2.92185676E+02
 20
-2.36557706E+02
 11
2.83185676E+02
 21
-2.36557706E+02
  0
LINE
  8
0
 62
4
 10
2.92185676E+02
 20
-2.45557706E+02
 11
2.92185676E+02
 21
-2.32057706E+02
  0
LINE
  8
0
 62
4
 10
3.03185676E+02
 20
-2.45557706E+02
 11
3.03185676E+02
 21
-2.32057706E+02
  0
ARC
  8
0
 62
4
 10
2.77391448E+02
 20
-2.45557706E+02
 40
2.57942282E+01
 50
2.54444375E-13
 51
1.75879541E+01
  0
ARC
  8
0
 62
4
 10
3.17979904E+02
 20
-2.45557706E+02
 40
2.57942282E+01
 50
1.62412046E+02
 51
1.80000000E+02
  0
ARC
  8
0
 62
4
 10
2.99086398E+02
 20
-2.33866363E+02
 40
6.90072132E+00
 50
1.45615752E+02
 51
2.14384248E+02
  0
ARC
  8
0
 62
4
 10
2.96284955E+02
 20
-2.33866363E+02
 40
6.90072132E+00
 50
3.25615752E+02
 51
3.43842480E+01
  0
LINE
  8
0
 62
4
 10
2.93391448E+02
 20
-2.29969248E+02
 11
2.92185676E+02
 21
-2.32057706E+02
  0
LINE
  8
0
 62
4
 10
3.01979905E+02
 20
-2.29969248E+02
 11
3.03185676E+02
 21
-2.32057706E+02
  0
LINE
  8
0
 62
4
 10
3.01979905E+02
 20
-2.37763477E+02
 11
2.93391448E+02
 21
-2.37763477E+02
  0
LINE
  8
0
 62
4
 10
3.01979905E+02
 20
-2.29969248E+02
 11
2.93391448E+02
 21
-2.29969248E+02
  0
ARC
  8
0
 62
7
 10
2.81685676E+02
 20
-2.45557706E+02
 40
9.99998474E+00
 50
1.48211648E+02
 51
1.80000000E+02
  0
ARC
  8
0
 62
7
 10
2.56685722E+02
 20
-2.27057690E+02
 40
5.00000000E-01
 50
3.59999981E+02
 51
8.99999635E+01
  0
ARC
  8
0
 62
7
 10
2.64935692E+02
 20
-2.28549161E+02
 40
2.50000000E-01
 50
3.59999981E+02
 51
8.80011361E+01
  0
ARC
  8
0
 62
7
 10
2.69685714E+02
 20
-2.29057736E+02
 40
5.00000000E-01
 50
3.59999981E+02
 51
8.99999635E+01
  0
LINE
  8
0
 62
7
 10
2.83185676E+02
 20
-2.37377713E+02
 11
2.80185676E+02
 21
-2.37377713E+02
  0
LINE
  8
0
 62
7
 10
2.80185663E+02
 20
-2.42435272E+02
 11
2.77185671E+02
 21
-2.40289865E+02
  0
LINE
  8
0
 62
7
 10
2.80185685E+02
 20
-2.36557701E+02
 11
2.77185697E+02
 21
-2.35557715E+02
  0
LINE
  8
0
 62
7
 10
2.77185783E+02
 20
-2.35557721E+02
 11
2.70185753E+02
 21
-2.35557721E+02
  0
LINE
  8
0
 62
7
 10
3.12185618E+02
 20
-2.38057839E+02
 11
3.10685572E+02
 21
-2.36557839E+02
  0
LINE
  8
0
 62
2
 10
3.11505623E+02
 20
-2.37377713E+02
 11
3.03185676E+02
 21
-2.37377713E+02
  0
LINE
  8
0
 62
7
 10
3.10685615E+02
 20
-2.36557706E+02
 11
3.03185676E+02
 21
-2.36557706E+02
  0
LINE
  8
0
 62
7
 10
3.10685676E+02
 20
-2.45557706E+02
 11
3.10685676E+02
 21
-2.36557706E+02
  0
LINE
  8
0
 62
7
 10
3.12185676E+02
 20
-2.45557706E+02
 11
3.12185676E+02
 21
-2.38057858E+02
  0
LINE
  8
0
 62
7
 10
2.83185676E+02
 20
-2.45557706E+02
 11
2.83185676E+02
 21
-2.36557706E+02
  0
LINE
  8
0
 62
7
 10
2.73185722E+02
 20
-2.45557706E+02
 11
2.73185722E+02
 21
-2.40289853E+02
  0
LINE
  8
0
 62
7
 10
2.77185692E+02
 20
-2.35557675E+02
 11
2.77185692E+02
 21
-2.40289853E+02
  0
LINE
  8
0
 62
2
 10
2.76685685E+02
 20
-2.45557706E+02
 11
2.73185695E+02
 21
-2.40289857E+02
  0
LINE
  8
0
 62
2
 10
2.79219362E+02
 20
-2.41744225E+02
 11
2.76685663E+02
 21
-2.45557706E+02
  0
LINE
  8
0
 62
7
 10
2.77185783E+02
 20
-2.40289853E+02
 11
2.73185722E+02
 21
-2.40289853E+02
  0
LINE
  8
0
 62
7
 10
2.80185676E+02
 20
-2.36557706E+02
 11
2.80185676E+02
 21
-2.45557706E+02
  0
LINE
  8
0
 62
7
 10
2.70185707E+02
 20
-2.45557706E+02
 11
2.70185707E+02
 21
-2.29057736E+02
  0
LINE
  8
0
 62
7
 10
2.56685722E+02
 20
-2.26557706E+02
 11
2.55185707E+02
 21
-2.26557706E+02
  0
LINE
  8
0
 62
7
 10
2.69685714E+02
 20
-2.28557706E+02
 11
2.65177162E+02
 21
-2.28557706E+02
  0
LINE
  8
0
 62
7
 10
2.65185707E+02
 20
-2.28557706E+02
 11
2.65185707E+02
 21
-2.28549161E+02
  0
LINE
  8
0
 62
7
 10
2.64944425E+02
 20
-2.28299220E+02
 11
2.57185750E+02
 21
-2.28028281E+02
  0
LINE
  8
0
 62
7
 10
2.57185714E+02
 20
-2.45557706E+02
 11
2.57185714E+02
 21
-2.27057690E+02
  0
LINE
  8
0
 62
7
 10
2.55185707E+02
 20
-2.45557706E+02
 11
2.55185707E+02
 21
-2.15343289E+02
  0
LINE
  8
0
 62
7
 10
2.50185707E+02
 20
-2.14557690E+02
 11
2.24185684E+02
 21
-2.14557690E+02
  0
LINE
  8
0
 62
7
 10
2.55185643E+02
 20
-2.15343189E+02
 11
2.24185687E+02
 21
-2.14531426E+02
  0
LINE
  8
0
 62
7
 10
2.50185707E+02
 20
-2.15212292E+02
 11
2.50185707E+02
 21
-2.14557690E+02
  0
LINE
  8
0
  6
CENTER
 62
2
 10
2.37185714E+02
 20
-2.31790997E+02
 11
2.37185714E+02
 21
-2.11752225E+02
  0
LINE
  8
0
 62
7
 10
2.65185707E+02
 20
-2.45557706E+02
 11
2.65185707E+02
 21
-2.28557706E+02
  0
LINE
  8
0
 62
7
 10
2.24185684E+02
 20
-2.45557706E+02
 11
2.24185684E+02
 21
-2.14531430E+02
  0
LINE
  8
0
 62
2
 10
1.39473539E+02
 20
-2.51074155E+02
 11
1.62090778E+02
 21
-2.11899949E+02
  0
LINE
  8
0
 62
7
 10
2.17685684E+02
 20
-2.18557721E+02
 11
2.24185684E+02
 21
-2.18557721E+02
  0
LINE
  8
0
 62
7
 10
2.16185684E+02
 20
-2.19407712E+02
 11
2.24185684E+02
 21
-2.19407712E+02
  0
LINE
  8
0
 62
7
 10
2.16185684E+02
 20
-2.24707699E+02
 11
2.24185684E+02
 21
-2.24707699E+02
  0
LINE
  8
0
  6
CENTER
 62
2
 10
2.16185684E+02
 20
-2.22057706E+02
 11
2.59041984E+02
 21
-2.22057706E+02
  0
TEXT
  8
0
 10
-1.12450289E+02
 20
2.49478397E+02
 40
6.30000019E+00
  1
STRETCH LINE A
 41
1.09375016E+00
  7
MONOTXT
  0
LINE
  8
0
 62
7
 10
2.79799927E+02
 20
-2.56750000E+02
 11
3.99799805E+02
 21
-2.56750000E+02
  0
LINE
  8
0
 62
7
 10
2.79799927E+02
 20
-2.56750000E+02
 11
2.79799927E+02
 21
-2.76750000E+02
  0
TEXT
  8
0
 62
7
 10
2.87585240E+02
 20
-2.71250000E+02
 40
9.00000000E+00
  1
KOGANEI CORP.
 41
1.04838710E+00
  7
MONOTXT
  0
TEXT
  8
0
 62
7
 10
3.15499641E+02
 20
2.63100000E+02
 40
6.30000019E+00
  1
Ver. 1.0
 41
1.08108124E+00
  7
MONOTXT
  0
LINE
  8
0
 62
7
 10
2.79799927E+02
 20
2.56250000E+02
 11
3.99799805E+02
 21
2.56250000E+02
  0
LINE
  8
0
 62
7
 10
2.79799927E+02
 20
2.76250000E+02
 11
2.79799927E+02
 21
2.56250000E+02
  0
TEXT
  8
0
 62
7
 10
-3.85600562E+02
 20
2.38100000E+02
 40
6.30000019E+00
  1
MODEL:DDAP50*75
 41
1.00000015E+00
  7
MONOTXT
  0
LINE
  8
0
 62
7
 10
-3.99250000E+02
 20
2.56250000E+02
 11
-2.79250000E+02
 21
2.56250000E+02
  0
LINE
  8
0
 62
7
 10
-2.79250000E+02
 20
2.76250000E+02
 11
-2.79250000E+02
 21
2.56250000E+02
  0
TEXT
  8
0
 62
7
 10
-3.91900291E+02
 20
2.63100000E+02
 40
6.30000019E+00
  1
NEW DYNA CYLINDER
 41
1.07594953E+00
  7
MONOTXT
  0
LINE
  8
0
 62
7
 10
-3.99250000E+02
 20
-2.76750000E+02
 11
3.99799805E+02
 21
-2.76750000E+02
  0
LINE
  8
0
 62
7
 10
-3.99250000E+02
 20
2.76250000E+02
 11
3.99799805E+02
 21
2.76250000E+02
  0
LINE
  8
0
 62
7
 10
-3.99250000E+02
 20
2.76250000E+02
 11
-3.99250000E+02
 21
-2.76750000E+02
  0
LINE
  8
0
 62
7
 10
3.99799805E+02
 20
2.76250000E+02
 11
3.99799805E+02
 21
-2.76750000E+02
  0
ENDSEC
  0
EOF
