  0
SECTION
  2
HEADER
  9
$ACADVER
  1
AC1003
  9
$EXTMIN
 10
-5.64500000E+02
 20
-4.00500000E+02
  9
$EXTMAX
 10
5.74500000E+02
 20
4.00500000E+02
  9
$LIMMIN
 10
-5.64501000E+02
 20
-4.00501000E+02
  9
$LIMMAX
 10
5.74501000E+02
 20
4.00501000E+02
  9
$SNAPUNIT
 10
1
 20
1
  9
$SNAPBASE
 10
0
 20
0
  9
$GRIDMODE
 70
0
  9
$GRIDUNIT
 10
0
 20
0
  9
$LTSCALE
 40
1.89833333E+01
  9
$TEXTSIZE
 40
3.2
  9
$DIMTAD
 70
0
  9
$LUNITS
 70
2
  9
$LUPREC
 70
4
  9
$FILLETRAD
 40
0
  9
$AUNITS
 70
0
  9
$AUPREC
 70
0
  0
ENDSEC
  0
SECTION
  2
TABLES
  0
TABLE
  2
LTYPE
 70
2
  0
LTYPE
  2
CONTINUOUS
 70
64
  3
Solid-Line
 72
65
 73
0
 40
0
  0
LTYPE
  2
DASHED
 70
64
  3
DASHED
 72
65
 73
2
 40
.75
 49
.5
 49
-.25
  0
LTYPE
  2
HIDDEN
 70
64
  3
HIDDEN
 72
65
 73
2
 40
.375
 49
.25
 49
-.125
  0
LTYPE
  2
CENTER
 70
64
  3
CENTER
 72
65
 73
4
 40
2
 49
1.25
 49
-.25
 49
.25
 49
-.25
  0
LTYPE
  2
PHANTOM
 70
64
  3
PHANTOM
 72
65
 73
6
 40
2.5
 49
1.25
 49
-.25
 49
.25
 49
-.25
 49
.25
 49
-.25
  0
ENDTAB
  0
TABLE
  2
LAYER
 70
1
  0
LAYER
  2
1
 70
0
 62
7
  6
CONTINUOUS
 0
ENDTAB
  0
TABLE
  2
STYLE
 70
2
  0
STYLE
  2
MONOTXT
 70
0
 40
0
 41
1
 50
0
 71
0
 42
.2
  3
monotxt
  0
STYLE
  2
BIGFONT
 70
0
 40
0
 41
1
 50
0
 71
0
 42
.2
  3
txt
  4
bigfont
  0
ENDTAB
  0
ENDSEC
  0
SECTION
  2
ENTITIES
  0
LINE
  8
0
  6
PHANTOM
 10
-2.45000000E+01
 20
2.81313474E+01
 11
-2.45000000E+01
 21
1.88056721E+02
  0
LINE
  8
0
  6
CENTER
 62
2
 10
-1.72773201E+02
 20
1.00500000E+02
 11
6.52532616E+01
 21
1.00500000E+02
  0
LINE
  8
0
 62
7
 10
-1.26999992E+02
 20
8.40000305E+01
 11
-1.26999992E+02
 21
1.16999985E+02
  0
LINE
  8
0
 62
7
 10
-1.13499992E+02
 20
8.15000076E+01
 11
-1.11999992E+02
 21
8.15000076E+01
  0
LINE
  8
0
 62
7
 10
-1.26500008E+02
 20
8.35000000E+01
 11
-1.21991447E+02
 21
8.35000000E+01
  0
LINE
  8
0
 62
7
 10
-1.21999992E+02
 20
8.35000000E+01
 11
-1.21999992E+02
 21
8.34914551E+01
  0
LINE
  8
0
 62
7
 10
-1.21758675E+02
 20
8.32415223E+01
 11
-1.13999961E+02
 21
8.29705821E+01
  0
LINE
  8
0
 62
7
 10
5.89999809E+01
 20
1.36950073E+02
 11
5.89999809E+01
 21
6.40499268E+01
  0
LINE
  8
0
 62
7
 10
2.69999771E+01
 20
1.38000000E+02
 11
2.69999771E+01
 21
6.30000000E+01
  0
LINE
  8
0
 62
7
 10
5.85087218E+01
 20
6.35500395E+01
 11
2.70000170E+01
 21
6.30000530E+01
  0
LINE
  8
0
 62
7
 10
-1.14000008E+02
 20
1.19000000E+02
 11
-1.14000008E+02
 21
8.20000000E+01
  0
LINE
  8
0
 62
7
 10
5.49999847E+01
 20
6.30000000E+01
 11
2.69999771E+01
 21
6.30000000E+01
  0
LINE
  8
0
 62
7
 10
5.49999847E+01
 20
6.34887695E+01
 11
5.49999847E+01
 21
6.30000000E+01
  0
LINE
  8
0
 62
7
 10
-1.21999992E+02
 20
8.35000000E+01
 11
-1.21999992E+02
 21
1.17500015E+02
  0
LINE
  8
0
 62
7
 10
6.04999924E+01
 20
8.15000076E+01
 11
5.89999924E+01
 21
8.15000076E+01
  0
LINE
  8
0
 62
7
 10
-1.11999992E+02
 20
1.36950073E+02
 11
-1.11999992E+02
 21
6.40499268E+01
  0
LINE
  8
0
 62
7
 10
-8.00000076E+01
 20
1.38000000E+02
 11
-8.00000076E+01
 21
6.30000000E+01
  0
LINE
  8
0
 62
7
 10
-1.11508717E+02
 20
6.35500483E+01
 11
-8.00000277E+01
 21
6.30000621E+01
  0
LINE
  8
0
 62
7
 10
6.09999886E+01
 20
1.19000000E+02
 11
6.09999886E+01
 21
8.20000000E+01
  0
LINE
  8
0
 62
7
 10
-1.08000008E+02
 20
6.30000000E+01
 11
-8.00000076E+01
 21
6.30000000E+01
  0
LINE
  8
0
 62
7
 10
-1.08000008E+02
 20
6.34887695E+01
 11
-1.08000008E+02
 21
6.30000000E+01
  0
LINE
  8
0
  6
CENTER
 62
2
 10
6.32292213E+01
 20
7.24999924E+01
 11
-1.15248100E+02
 21
7.24999924E+01
  0
LINE
  8
0
 62
7
 10
2.69999771E+01
 20
7.61000366E+01
 11
-8.00000076E+01
 21
7.61000366E+01
  0
LINE
  8
0
 62
7
 10
2.69999771E+01
 20
6.89000244E+01
 11
-8.00000076E+01
 21
6.89000244E+01
  0
LINE
  8
0
 62
7
 10
2.69999771E+01
 20
6.65000229E+01
 11
-8.00000076E+01
 21
6.65000229E+01
  0
LINE
  8
0
  6
CENTER
 62
2
 10
4.10000458E+01
 20
1.40185059E+02
 11
4.10000458E+01
 21
1.28299774E+02
  0
LINE
  8
0
 62
7
 10
-1.13499992E+02
 20
1.19500000E+02
 11
-1.11999992E+02
 21
1.19500000E+02
  0
LINE
  8
0
 62
7
 10
-1.26500008E+02
 20
1.17500015E+02
 11
-1.21991447E+02
 21
1.17500015E+02
  0
LINE
  8
0
 62
7
 10
-1.21999992E+02
 20
1.17500015E+02
 11
-1.21999992E+02
 21
1.17508560E+02
  0
LINE
  8
0
 62
7
 10
-1.21758667E+02
 20
1.17758481E+02
 11
-1.13999954E+02
 21
1.18029421E+02
  0
LINE
  8
0
 62
7
 10
5.85087308E+01
 20
1.37449980E+02
 11
2.70000336E+01
 21
1.37999966E+02
  0
LINE
  8
0
 62
7
 10
5.49999847E+01
 20
1.38000000E+02
 11
2.69999771E+01
 21
1.38000000E+02
  0
LINE
  8
0
 62
7
 10
5.49999847E+01
 20
1.37511215E+02
 11
5.49999847E+01
 21
1.38000000E+02
  0
LINE
  8
0
 62
7
 10
2.69999771E+01
 20
1.34499969E+02
 11
2.09193843E+01
 21
1.34499969E+02
  0
LINE
  8
0
 62
7
 10
6.04999924E+01
 20
1.19500000E+02
 11
5.89999924E+01
 21
1.19500000E+02
  0
LINE
  8
0
 62
7
 10
-1.11508741E+02
 20
1.37449956E+02
 11
-8.00000364E+01
 21
1.37999942E+02
  0
LINE
  8
0
 62
7
 10
-1.08000008E+02
 20
1.38000000E+02
 11
-8.00000076E+01
 21
1.38000000E+02
  0
LINE
  8
0
 62
7
 10
-1.08000008E+02
 20
1.37511215E+02
 11
-1.08000008E+02
 21
1.38000000E+02
  0
LINE
  8
0
  6
CENTER
 62
2
 10
6.32292213E+01
 20
1.28500015E+02
 11
-1.15248100E+02
 21
1.28500015E+02
  0
LINE
  8
0
 62
7
 10
2.69999771E+01
 20
1.24899963E+02
 11
4.99997711E+00
 21
1.24899963E+02
  0
LINE
  8
0
 62
7
 10
2.69999771E+01
 20
1.32099976E+02
 11
1.99999771E+01
 21
1.32099976E+02
  0
LINE
  8
0
  6
CENTER
 62
2
 10
-9.40000687E+01
 20
1.40185059E+02
 11
-9.40000687E+01
 21
1.28299774E+02
  0
LINE
  8
0
 62
7
 10
-1.36999962E+02
 20
1.09500000E+02
 11
-1.36999962E+02
 21
9.15000076E+01
  0
LINE
  8
0
 62
7
 10
-1.35626198E+02
 20
9.10000000E+01
 11
-1.26999992E+02
 21
9.10000000E+01
  0
LINE
  8
0
 62
7
 10
-1.35626167E+02
 20
1.10000000E+02
 11
-1.26999992E+02
 21
1.10000000E+02
  0
LINE
  8
0
 62
7
 10
-1.39999962E+02
 20
9.15000076E+01
 11
-1.39999962E+02
 21
1.09500000E+02
  0
LINE
  8
0
 62
7
 10
-1.68999977E+02
 20
9.30000305E+01
 11
-1.68999977E+02
 21
1.07999847E+02
  0
LINE
  8
0
 62
7
 10
-1.67499977E+02
 20
9.15000076E+01
 11
-1.67499977E+02
 21
1.09500000E+02
  0
LINE
  8
0
 62
7
 10
-1.31642311E+02
 20
1.00500000E+02
 11
-1.26999992E+02
 21
1.00500000E+02
  0
LINE
  8
0
 62
7
 10
-1.36999933E+02
 20
9.15000004E+01
 11
-1.35626169E+02
 21
9.09999911E+01
  0
LINE
  8
0
 62
7
 10
-1.67499916E+02
 20
1.09500000E+02
 11
-1.59999977E+02
 21
1.09500000E+02
  0
LINE
  8
0
 62
2
 10
-1.68319923E+02
 20
1.08679993E+02
 11
-1.59999977E+02
 21
1.08679993E+02
  0
LINE
  8
0
 62
7
 10
-1.68999899E+02
 20
1.07999862E+02
 11
-1.67499853E+02
 21
1.09499862E+02
  0
LINE
  8
0
 62
7
 10
-1.67499916E+02
 20
9.15000076E+01
 11
-1.59999977E+02
 21
9.15000076E+01
  0
LINE
  8
0
 62
2
 10
-1.68319923E+02
 20
9.23199997E+01
 11
-1.59999977E+02
 21
9.23199997E+01
  0
LINE
  8
0
 62
7
 10
-1.68999984E+02
 20
9.30000725E+01
 11
-1.67499949E+02
 21
9.15000830E+01
  0
LINE
  8
0
 62
7
 10
-1.36999935E+02
 20
1.09499966E+02
 11
-1.35626113E+02
 21
1.09999996E+02
  0
LINE
  8
0
 62
7
 10
-1.39999962E+02
 20
1.08679993E+02
 11
-1.36999962E+02
 21
1.08679993E+02
  0
LINE
  8
0
 62
7
 10
-1.39999962E+02
 20
9.23199997E+01
 11
-1.36999962E+02
 21
9.23199997E+01
  0
ARC
  8
0
 62
7
 10
-1.13499992E+02
 20
8.20000000E+01
 40
5.00000000E-01
 50
1.79999977E+02
 51
2.69999974E+02
  0
ARC
  8
0
 62
7
 10
5.84999886E+01
 20
6.40499268E+01
 40
5.00000000E-01
 50
2.71000258E+02
 51
3.59999993E+02
  0
ARC
  8
0
 62
7
 10
-1.21750008E+02
 20
8.34914551E+01
 40
2.50000000E-01
 50
1.79999977E+02
 51
2.68001132E+02
  0
ARC
  8
0
 62
7
 10
-1.26500008E+02
 20
8.40000305E+01
 40
5.00000000E-01
 50
1.79999977E+02
 51
2.69999974E+02
  0
ARC
  8
0
 62
7
 10
6.04999962E+01
 20
1.19000000E+02
 40
5.00000000E-01
 50
5.46415133E-05
 51
9.00000369E+01
  0
ARC
  8
0
 62
7
 10
6.04999962E+01
 20
8.20000000E+01
 40
5.00000000E-01
 50
2.70000073E+02
 51
5.46415133E-05
  0
ARC
  8
0
 62
7
 10
-1.11500008E+02
 20
6.40499268E+01
 40
5.00000000E-01
 50
1.79999909E+02
 51
2.68999651E+02
  0
ARC
  8
0
 62
7
 10
-1.13499992E+02
 20
1.19000000E+02
 40
5.00000000E-01
 50
8.99999818E+01
 51
1.79999964E+02
  0
ARC
  8
0
 62
7
 10
5.84999886E+01
 20
1.36950073E+02
 40
5.00000000E-01
 50
3.59999952E+02
 51
8.89996869E+01
  0
ARC
  8
0
 62
7
 10
-1.26500008E+02
 20
1.16999985E+02
 40
5.00000000E-01
 50
8.99999818E+01
 51
1.79999964E+02
  0
ARC
  8
0
 62
7
 10
-1.11500008E+02
 20
1.36950073E+02
 40
5.00000000E-01
 50
9.10002768E+01
 51
1.80000019E+02
  0
ARC
  8
0
 62
7
 10
-1.21750008E+02
 20
1.17508560E+02
 40
2.50000000E-01
 50
9.19988230E+01
 51
1.79999977E+02
  0
POLYLINE
  8
0
 62
7
 66
1
  0
VERTEX
  8
0
 62
7
 10
-1.31642311E+02
 20
1.10000000E+02
  0
VERTEX
  8
0
 62
7
 10
-1.31999421E+02
 20
1.09980878E+02
  0
VERTEX
  8
0
 62
7
 10
-1.32353656E+02
 20
1.09923666E+02
  0
VERTEX
  8
0
 62
7
 10
-1.32702164E+02
 20
1.09828824E+02
  0
VERTEX
  8
0
 62
7
 10
-1.33042138E+02
 20
1.09697116E+02
  0
VERTEX
  8
0
 62
7
 10
-1.33370841E+02
 20
1.09529602E+02
  0
VERTEX
  8
0
 62
7
 10
-1.33685628E+02
 20
1.09327632E+02
  0
VERTEX
  8
0
 62
7
 10
-1.33983963E+02
 20
1.09092831E+02
  0
VERTEX
  8
0
 62
7
 10
-1.34263444E+02
 20
1.08827089E+02
  0
VERTEX
  8
0
 62
7
 10
-1.34521822E+02
 20
1.08532548E+02
  0
VERTEX
  8
0
 62
7
 10
-1.34757015E+02
 20
1.08211577E+02
  0
VERTEX
  8
0
 62
7
 10
-1.34967131E+02
 20
1.07866761E+02
  0
VERTEX
  8
0
 62
7
 10
-1.35150477E+02
 20
1.07500876E+02
  0
VERTEX
  8
0
 62
7
 10
-1.35305577E+02
 20
1.07116869E+02
  0
VERTEX
  8
0
 62
7
 10
-1.35431183E+02
 20
1.06717831E+02
  0
VERTEX
  8
0
 62
7
 10
-1.35526284E+02
 20
1.06306974E+02
  0
VERTEX
  8
0
 62
7
 10
-1.35590112E+02
 20
1.05887608E+02
  0
VERTEX
  8
0
 62
7
 10
-1.35622156E+02
 20
1.05463108E+02
  0
VERTEX
  8
0
 62
7
 10
-1.35622156E+02
 20
1.05036892E+02
  0
VERTEX
  8
0
 62
7
 10
-1.35590112E+02
 20
1.04612392E+02
  0
VERTEX
  8
0
 62
7
 10
-1.35526284E+02
 20
1.04193026E+02
  0
VERTEX
  8
0
 62
7
 10
-1.35431183E+02
 20
1.03782169E+02
  0
VERTEX
  8
0
 62
7
 10
-1.35305577E+02
 20
1.03383131E+02
  0
VERTEX
  8
0
 62
7
 10
-1.35150477E+02
 20
1.02999124E+02
  0
VERTEX
  8
0
 62
7
 10
-1.34967131E+02
 20
1.02633239E+02
  0
VERTEX
  8
0
 62
7
 10
-1.34757015E+02
 20
1.02288423E+02
  0
VERTEX
  8
0
 62
7
 10
-1.34521822E+02
 20
1.01967452E+02
  0
VERTEX
  8
0
 62
7
 10
-1.34263444E+02
 20
1.01672911E+02
  0
VERTEX
  8
0
 62
7
 10
-1.33983963E+02
 20
1.01407169E+02
  0
VERTEX
  8
0
 62
7
 10
-1.33685628E+02
 20
1.01172368E+02
  0
VERTEX
  8
0
 62
7
 10
-1.33370841E+02
 20
1.00970398E+02
  0
VERTEX
  8
0
 62
7
 10
-1.33042138E+02
 20
1.00802884E+02
  0
VERTEX
  8
0
 62
7
 10
-1.32702164E+02
 20
1.00671176E+02
  0
VERTEX
  8
0
 62
7
 10
-1.32353656E+02
 20
1.00576334E+02
  0
VERTEX
  8
0
 62
7
 10
-1.31999421E+02
 20
1.00519122E+02
  0
VERTEX
  8
0
 62
7
 10
-1.31642311E+02
 20
1.00500000E+02
  0
SEQEND
  8
0
  0
POLYLINE
  8
0
 62
7
 66
1
  0
VERTEX
  8
0
 62
7
 10
-1.31642311E+02
 20
1.00500000E+02
  0
VERTEX
  8
0
 62
7
 10
-1.31999421E+02
 20
1.00480878E+02
  0
VERTEX
  8
0
 62
7
 10
-1.32353656E+02
 20
1.00423666E+02
  0
VERTEX
  8
0
 62
7
 10
-1.32702164E+02
 20
1.00328824E+02
  0
VERTEX
  8
0
 62
7
 10
-1.33042138E+02
 20
1.00197116E+02
  0
VERTEX
  8
0
 62
7
 10
-1.33370841E+02
 20
1.00029602E+02
  0
VERTEX
  8
0
 62
7
 10
-1.33685628E+02
 20
9.98276318E+01
  0
VERTEX
  8
0
 62
7
 10
-1.33983963E+02
 20
9.95928307E+01
  0
VERTEX
  8
0
 62
7
 10
-1.34263444E+02
 20
9.93270895E+01
  0
VERTEX
  8
0
 62
7
 10
-1.34521822E+02
 20
9.90325476E+01
  0
VERTEX
  8
0
 62
7
 10
-1.34757015E+02
 20
9.87115766E+01
  0
VERTEX
  8
0
 62
7
 10
-1.34967131E+02
 20
9.83667607E+01
  0
VERTEX
  8
0
 62
7
 10
-1.35150477E+02
 20
9.80008762E+01
  0
VERTEX
  8
0
 62
7
 10
-1.35305577E+02
 20
9.76168689E+01
  0
VERTEX
  8
0
 62
7
 10
-1.35431183E+02
 20
9.72178307E+01
  0
VERTEX
  8
0
 62
7
 10
-1.35526284E+02
 20
9.68069745E+01
  0
VERTEX
  8
0
 62
7
 10
-1.35590112E+02
 20
9.63876080E+01
  0
VERTEX
  8
0
 62
7
 10
-1.35622156E+02
 20
9.59631080E+01
  0
VERTEX
  8
0
 62
7
 10
-1.35622156E+02
 20
9.55368921E+01
  0
VERTEX
  8
0
 62
7
 10
-1.35590112E+02
 20
9.51123920E+01
  0
VERTEX
  8
0
 62
7
 10
-1.35526284E+02
 20
9.46930256E+01
  0
VERTEX
  8
0
 62
7
 10
-1.35431183E+02
 20
9.42821693E+01
  0
VERTEX
  8
0
 62
7
 10
-1.35305577E+02
 20
9.38831311E+01
  0
VERTEX
  8
0
 62
7
 10
-1.35150477E+02
 20
9.34991239E+01
  0
VERTEX
  8
0
 62
7
 10
-1.34967131E+02
 20
9.31332394E+01
  0
VERTEX
  8
0
 62
7
 10
-1.34757015E+02
 20
9.27884235E+01
  0
VERTEX
  8
0
 62
7
 10
-1.34521822E+02
 20
9.24674524E+01
  0
VERTEX
  8
0
 62
7
 10
-1.34263444E+02
 20
9.21729106E+01
  0
VERTEX
  8
0
 62
7
 10
-1.33983963E+02
 20
9.19071693E+01
  0
VERTEX
  8
0
 62
7
 10
-1.33685628E+02
 20
9.16723682E+01
  0
VERTEX
  8
0
 62
7
 10
-1.33370841E+02
 20
9.14703979E+01
  0
VERTEX
  8
0
 62
7
 10
-1.33042138E+02
 20
9.13028844E+01
  0
VERTEX
  8
0
 62
7
 10
-1.32702164E+02
 20
9.11711764E+01
  0
VERTEX
  8
0
 62
7
 10
-1.32353656E+02
 20
9.10763345E+01
  0
VERTEX
  8
0
 62
7
 10
-1.31999421E+02
 20
9.10191221E+01
  0
VERTEX
  8
0
 62
7
 10
-1.31642311E+02
 20
9.10000000E+01
  0
SEQEND
  8
0
  0
LINE
  8
0
 62
4
 10
-1.48999977E+02
 20
8.70000000E+01
 11
-1.48999977E+02
 21
1.14000000E+02
  0
LINE
  8
0
 62
4
 10
-1.59999977E+02
 20
8.70000000E+01
 11
-1.59999977E+02
 21
1.14000000E+02
  0
ARC
  8
0
 62
4
 10
-1.34205749E+02
 20
1.00500000E+02
 40
2.57942282E+01
 50
1.62412046E+02
 51
1.97587954E+02
  0
ARC
  8
0
 62
4
 10
-1.74794205E+02
 20
1.00500000E+02
 40
2.57942282E+01
 50
3.42412046E+02
 51
1.75879541E+01
  0
ARC
  8
0
 62
4
 10
-1.55900698E+02
 20
1.12191343E+02
 40
6.90072132E+00
 50
3.25615752E+02
 51
3.43842480E+01
  0
ARC
  8
0
 62
4
 10
-1.53099256E+02
 20
1.12191343E+02
 40
6.90072132E+00
 50
1.45615752E+02
 51
2.14384248E+02
  0
LINE
  8
0
 62
4
 10
-1.50205748E+02
 20
1.16088457E+02
 11
-1.48999977E+02
 21
1.14000000E+02
  0
LINE
  8
0
 62
4
 10
-1.58794206E+02
 20
1.16088457E+02
 11
-1.59999977E+02
 21
1.14000000E+02
  0
LINE
  8
0
 62
4
 10
-1.58794206E+02
 20
1.08294229E+02
 11
-1.50205748E+02
 21
1.08294229E+02
  0
LINE
  8
0
 62
4
 10
-1.58794206E+02
 20
1.16088457E+02
 11
-1.50205748E+02
 21
1.16088457E+02
  0
ARC
  8
0
 62
4
 10
-1.55900698E+02
 20
8.88086570E+01
 40
6.90072132E+00
 50
3.25615752E+02
 51
3.43842480E+01
  0
ARC
  8
0
 62
4
 10
-1.53099256E+02
 20
8.88086570E+01
 40
6.90072132E+00
 50
1.45615752E+02
 51
2.14384248E+02
  0
LINE
  8
0
 62
4
 10
-1.59999977E+02
 20
8.70000000E+01
 11
-1.58794206E+02
 21
8.49115427E+01
  0
LINE
  8
0
 62
4
 10
-1.48999977E+02
 20
8.70000000E+01
 11
-1.50205748E+02
 21
8.49115427E+01
  0
LINE
  8
0
 62
4
 10
-1.58794206E+02
 20
9.27057714E+01
 11
-1.50205748E+02
 21
9.27057714E+01
  0
LINE
  8
0
 62
4
 10
-1.58794206E+02
 20
8.49115427E+01
 11
-1.50205748E+02
 21
8.49115427E+01
  0
LINE
  8
0
 62
7
 10
-1.48999977E+02
 20
1.09500000E+02
 11
-1.39999962E+02
 21
1.09500000E+02
  0
LINE
  8
0
 62
2
 10
-1.48999977E+02
 20
1.08679993E+02
 11
-1.39999962E+02
 21
1.08679993E+02
  0
LINE
  8
0
 62
7
 10
-1.48999977E+02
 20
9.15000076E+01
 11
-1.39999962E+02
 21
9.15000076E+01
  0
LINE
  8
0
 62
2
 10
-1.48999977E+02
 20
9.23199997E+01
 11
-1.39999962E+02
 21
9.23199997E+01
  0
LINE
  8
0
  6
CENTER
 62
6
 10
2.50000381E+01
 20
1.36352058E+02
 11
-2.19999619E+01
 21
1.36352058E+02
  0
LINE
  8
0
 62
6
 10
-1.82679110E+01
 20
1.39352059E+02
 11
-2.17320126E+01
 21
1.33352059E+02
  0
LINE
  8
0
 62
4
 10
-9.99996185E+00
 20
1.37852058E+02
 11
-1.91339365E+01
 21
1.37852058E+02
  0
LINE
  8
0
 62
4
 10
-9.99996185E+00
 20
1.34852058E+02
 11
-2.08659873E+01
 21
1.34852058E+02
  0
LINE
  8
0
 62
4
 10
1.99999771E+01
 20
1.49176918E+02
 11
1.99999771E+01
 21
1.30653532E+02
  0
LINE
  8
0
  6
CENTER
 62
6
 10
-1.00000229E+01
 20
1.22516172E+02
 11
-3.00002289E+00
 21
1.22516172E+02
  0
LINE
  8
0
  6
CENTER
 62
6
 10
-2.00002289E+00
 20
1.22516172E+02
 11
4.99997711E+00
 21
1.22516172E+02
  0
LINE
  8
0
  6
CENTER
 62
6
 10
1.49997711E+00
 20
1.19016172E+02
 11
1.49997711E+00
 21
1.26016172E+02
  0
LINE
  8
0
  6
CENTER
 62
6
 10
-6.50002289E+00
 20
1.19016172E+02
 11
-6.50002289E+00
 21
1.26016172E+02
  0
LINE
  8
0
 62
4
 10
-1.00000229E+01
 20
1.17675471E+02
 11
-1.00000229E+01
 21
1.49176918E+02
  0
LINE
  8
0
 62
4
 10
4.99997711E+00
 20
1.45994043E+02
 11
4.99997711E+00
 21
1.17675471E+02
  0
LINE
  8
0
  6
CENTER
 62
6
 10
1.60745740E+01
 20
1.41714289E+02
 11
8.92538022E+00
 21
1.41714289E+02
  0
LINE
  8
0
  6
CENTER
 62
6
 10
1.24999771E+01
 20
1.45288886E+02
 11
1.24999771E+01
 21
1.38139692E+02
  0
LINE
  8
0
 62
4
 10
-1.00000229E+01
 20
1.49176918E+02
 11
1.99999771E+01
 21
1.49176918E+02
  0
LINE
  8
0
 62
4
 10
-1.00000229E+01
 20
1.17675471E+02
 11
4.99997711E+00
 21
1.17675471E+02
  0
LINE
  8
0
 62
4
 10
-1.00000229E+01
 20
1.45994043E+02
 11
1.99999771E+01
 21
1.45994043E+02
  0
LINE
  8
0
 62
4
 10
-1.00000229E+01
 20
1.44603467E+02
 11
4.99997711E+00
 21
1.44603467E+02
  0
LINE
  8
0
 62
4
 10
-9.00002290E+00
 20
1.28222511E+02
 11
3.99997710E+00
 21
1.28222511E+02
  0
LINE
  8
0
 62
4
 10
4.99997711E+00
 20
1.37910063E+02
 11
1.99999771E+01
 21
1.37910063E+02
  0
LINE
  8
0
 62
4
 10
4.99997711E+00
 20
1.37786456E+02
 11
1.99999771E+01
 21
1.37786456E+02
  0
LINE
  8
0
 62
4
 10
4.99997710E+00
 20
1.30653532E+02
 11
1.99999771E+01
 21
1.30653532E+02
  0
POLYLINE
  8
0
 62
4
 66
1
  0
VERTEX
  8
0
 62
4
 10
1.02499771E+01
 20
1.41714289E+02
  0
VERTEX
  8
0
 62
4
 10
1.02585390E+01
 20
1.41527786E+02
  0
VERTEX
  8
0
 62
4
 10
1.02841597E+01
 20
1.41342703E+02
  0
VERTEX
  8
0
 62
4
 10
1.03266440E+01
 20
1.41160448E+02
  0
VERTEX
  8
0
 62
4
 10
1.03856687E+01
 20
1.40982408E+02
  0
VERTEX
  8
0
 62
4
 10
1.04607846E+01
 20
1.40809938E+02
  0
VERTEX
  8
0
 62
4
 10
1.05514199E+01
 20
1.40644350E+02
  0
VERTEX
  8
0
 62
4
 10
1.06568850E+01
 20
1.40486906E+02
  0
VERTEX
  8
0
 62
4
 10
1.07763771E+01
 20
1.40338802E+02
  0
VERTEX
  8
0
 62
4
 10
1.09089868E+01
 20
1.40201167E+02
  0
VERTEX
  8
0
 62
4
 10
1.10537050E+01
 20
1.40075048E+02
  0
VERTEX
  8
0
 62
4
 10
1.12094301E+01
 20
1.39961404E+02
  0
VERTEX
  8
0
 62
4
 10
1.13749771E+01
 20
1.39861101E+02
  0
VERTEX
  8
0
 62
4
 10
1.15490860E+01
 20
1.39774902E+02
  0
VERTEX
  8
0
 62
4
 10
1.17304318E+01
 20
1.39703462E+02
  0
VERTEX
  8
0
 62
4
 10
1.19176342E+01
 20
1.39647326E+02
  0
VERTEX
  8
0
 62
4
 10
1.21092687E+01
 20
1.39606921E+02
  0
VERTEX
  8
0
 62
4
 10
1.23038767E+01
 20
1.39582555E+02
  0
VERTEX
  8
0
 62
4
 10
1.24999771E+01
 20
1.39574412E+02
  0
VERTEX
  8
0
 62
4
 10
1.26960775E+01
 20
1.39582555E+02
  0
VERTEX
  8
0
 62
4
 10
1.28906855E+01
 20
1.39606921E+02
  0
VERTEX
  8
0
 62
4
 10
1.30823199E+01
 20
1.39647326E+02
  0
VERTEX
  8
0
 62
4
 10
1.32695224E+01
 20
1.39703462E+02
  0
VERTEX
  8
0
 62
4
 10
1.34508682E+01
 20
1.39774902E+02
  0
VERTEX
  8
0
 62
4
 10
1.36249771E+01
 20
1.39861101E+02
  0
VERTEX
  8
0
 62
4
 10
1.37905241E+01
 20
1.39961404E+02
  0
VERTEX
  8
0
 62
4
 10
1.39462492E+01
 20
1.40075048E+02
  0
VERTEX
  8
0
 62
4
 10
1.40909674E+01
 20
1.40201167E+02
  0
VERTEX
  8
0
 62
4
 10
1.42235771E+01
 20
1.40338802E+02
  0
VERTEX
  8
0
 62
4
 10
1.43430692E+01
 20
1.40486906E+02
  0
VERTEX
  8
0
 62
4
 10
1.44485343E+01
 20
1.40644350E+02
  0
VERTEX
  8
0
 62
4
 10
1.45391696E+01
 20
1.40809938E+02
  0
VERTEX
  8
0
 62
4
 10
1.46142855E+01
 20
1.40982408E+02
  0
VERTEX
  8
0
 62
4
 10
1.46733102E+01
 20
1.41160448E+02
  0
VERTEX
  8
0
 62
4
 10
1.47157945E+01
 20
1.41342703E+02
  0
VERTEX
  8
0
 62
4
 10
1.47414152E+01
 20
1.41527786E+02
  0
VERTEX
  8
0
 62
4
 10
1.47499771E+01
 20
1.41714289E+02
  0
VERTEX
  8
0
 62
4
 10
1.47414152E+01
 20
1.41900792E+02
  0
VERTEX
  8
0
 62
4
 10
1.47157945E+01
 20
1.42085875E+02
  0
VERTEX
  8
0
 62
4
 10
1.46733102E+01
 20
1.42268130E+02
  0
VERTEX
  8
0
 62
4
 10
1.46142855E+01
 20
1.42446170E+02
  0
VERTEX
  8
0
 62
4
 10
1.45391696E+01
 20
1.42618640E+02
  0
VERTEX
  8
0
 62
4
 10
1.44485343E+01
 20
1.42784228E+02
  0
VERTEX
  8
0
 62
4
 10
1.43430692E+01
 20
1.42941672E+02
  0
VERTEX
  8
0
 62
4
 10
1.42235771E+01
 20
1.43089776E+02
  0
VERTEX
  8
0
 62
4
 10
1.40909674E+01
 20
1.43227411E+02
  0
VERTEX
  8
0
 62
4
 10
1.39462492E+01
 20
1.43353530E+02
  0
VERTEX
  8
0
 62
4
 10
1.37905241E+01
 20
1.43467174E+02
  0
VERTEX
  8
0
 62
4
 10
1.36249771E+01
 20
1.43567477E+02
  0
VERTEX
  8
0
 62
4
 10
1.34508682E+01
 20
1.43653676E+02
  0
VERTEX
  8
0
 62
4
 10
1.32695224E+01
 20
1.43725116E+02
  0
VERTEX
  8
0
 62
4
 10
1.30823200E+01
 20
1.43781252E+02
  0
VERTEX
  8
0
 62
4
 10
1.28906855E+01
 20
1.43821657E+02
  0
VERTEX
  8
0
 62
4
 10
1.26960775E+01
 20
1.43846023E+02
  0
VERTEX
  8
0
 62
4
 10
1.24999771E+01
 20
1.43854166E+02
  0
VERTEX
  8
0
 62
4
 10
1.23038767E+01
 20
1.43846023E+02
  0
VERTEX
  8
0
 62
4
 10
1.21092687E+01
 20
1.43821657E+02
  0
VERTEX
  8
0
 62
4
 10
1.19176343E+01
 20
1.43781252E+02
  0
VERTEX
  8
0
 62
4
 10
1.17304318E+01
 20
1.43725116E+02
  0
VERTEX
  8
0
 62
4
 10
1.15490860E+01
 20
1.43653676E+02
  0
VERTEX
  8
0
 62
4
 10
1.13749771E+01
 20
1.43567477E+02
  0
VERTEX
  8
0
 62
4
 10
1.12094301E+01
 20
1.43467174E+02
  0
VERTEX
  8
0
 62
4
 10
1.10537050E+01
 20
1.43353530E+02
  0
VERTEX
  8
0
 62
4
 10
1.09089868E+01
 20
1.43227411E+02
  0
VERTEX
  8
0
 62
4
 10
1.07763771E+01
 20
1.43089776E+02
  0
VERTEX
  8
0
 62
4
 10
1.06568850E+01
 20
1.42941672E+02
  0
VERTEX
  8
0
 62
4
 10
1.05514199E+01
 20
1.42784228E+02
  0
VERTEX
  8
0
 62
4
 10
1.04607846E+01
 20
1.42618640E+02
  0
VERTEX
  8
0
 62
4
 10
1.03856687E+01
 20
1.42446170E+02
  0
VERTEX
  8
0
 62
4
 10
1.03266440E+01
 20
1.42268130E+02
  0
VERTEX
  8
0
 62
4
 10
1.02841597E+01
 20
1.42085875E+02
  0
VERTEX
  8
0
 62
4
 10
1.02585390E+01
 20
1.41900792E+02
  0
VERTEX
  8
0
 62
4
 10
1.02499771E+01
 20
1.41714289E+02
  0
SEQEND
  8
0
  0
POLYLINE
  8
0
 62
4
 66
1
  0
VERTEX
  8
0
 62
4
 10
3.49997711E+00
 20
1.22516172E+02
  0
VERTEX
  8
0
 62
4
 10
3.49192570E+00
 20
1.22686676E+02
  0
VERTEX
  8
0
 62
4
 10
3.46783629E+00
 20
1.22855807E+02
  0
VERTEX
  8
0
 62
4
 10
3.42790283E+00
 20
1.23022204E+02
  0
VERTEX
  8
0
 62
4
 10
3.37244685E+00
 20
1.23184527E+02
  0
VERTEX
  8
0
 62
4
 10
3.30191485E+00
 20
1.23341468E+02
  0
VERTEX
  8
0
 62
4
 10
3.21687470E+00
 20
1.23491764E+02
  0
VERTEX
  8
0
 62
4
 10
3.11801110E+00
 20
1.23634206E+02
  0
VERTEX
  8
0
 62
4
 10
3.00612004E+00
 20
1.23767646E+02
  0
VERTEX
  8
0
 62
4
 10
2.88210241E+00
 20
1.23891010E+02
  0
VERTEX
  8
0
 62
4
 10
2.74695672E+00
 20
1.24003304E+02
  0
VERTEX
  8
0
 62
4
 10
2.60177107E+00
 20
1.24103625E+02
  0
VERTEX
  8
0
 62
4
 10
2.44771444E+00
 20
1.24191164E+02
  0
VERTEX
  8
0
 62
4
 10
2.28602718E+00
 20
1.24265218E+02
  0
VERTEX
  8
0
 62
4
 10
2.11801110E+00
 20
1.24325189E+02
  0
VERTEX
  8
0
 62
4
 10
1.94501898E+00
 20
1.24370595E+02
  0
VERTEX
  8
0
 62
4
 10
1.76844364E+00
 20
1.24401070E+02
  0
VERTEX
  8
0
 62
4
 10
1.58970677E+00
 20
1.24416370E+02
  0
VERTEX
  8
0
 62
4
 10
1.41024745E+00
 20
1.24416370E+02
  0
VERTEX
  8
0
 62
4
 10
1.23151058E+00
 20
1.24401070E+02
  0
VERTEX
  8
0
 62
4
 10
1.05493525E+00
 20
1.24370595E+02
  0
VERTEX
  8
0
 62
4
 10
8.81943125E-01
 20
1.24325189E+02
  0
VERTEX
  8
0
 62
4
 10
7.13927051E-01
 20
1.24265218E+02
  0
VERTEX
  8
0
 62
4
 10
5.52239789E-01
 20
1.24191164E+02
  0
VERTEX
  8
0
 62
4
 10
3.98183151E-01
 20
1.24103625E+02
  0
VERTEX
  8
0
 62
4
 10
2.52997510E-01
 20
1.24003304E+02
  0
VERTEX
  8
0
 62
4
 10
1.17851816E-01
 20
1.23891010E+02
  0
VERTEX
  8
0
 62
4
 10
-6.16581836E-03
 20
1.23767646E+02
  0
VERTEX
  8
0
 62
4
 10
-1.18056875E-01
 20
1.23634206E+02
  0
VERTEX
  8
0
 62
4
 10
-2.16920474E-01
 20
1.23491764E+02
  0
VERTEX
  8
0
 62
4
 10
-3.01960623E-01
 20
1.23341468E+02
  0
VERTEX
  8
0
 62
4
 10
-3.72492629E-01
 20
1.23184527E+02
  0
VERTEX
  8
0
 62
4
 10
-4.27948610E-01
 20
1.23022204E+02
  0
VERTEX
  8
0
 62
4
 10
-4.67882066E-01
 20
1.22855807E+02
  0
VERTEX
  8
0
 62
4
 10
-4.91971477E-01
 20
1.22686676E+02
  0
VERTEX
  8
0
 62
4
 10
-5.00022890E-01
 20
1.22516172E+02
  0
SEQEND
  8
0
  0
POLYLINE
  8
0
 62
4
 66
1
  0
VERTEX
  8
0
 62
4
 10
3.49997711E+00
 20
1.21640831E+02
  0
VERTEX
  8
0
 62
4
 10
3.49236651E+00
 20
1.21806611E+02
  0
VERTEX
  8
0
 62
4
 10
3.46959262E+00
 20
1.21971129E+02
  0
VERTEX
  8
0
 62
4
 10
3.43182876E+00
 20
1.22133134E+02
  0
VERTEX
  8
0
 62
4
 10
3.37936235E+00
 20
1.22291392E+02
  0
VERTEX
  8
0
 62
4
 10
3.31259268E+00
 20
1.22444699E+02
  0
VERTEX
  8
0
 62
4
 10
3.23202792E+00
 20
1.22591888E+02
  0
VERTEX
  8
0
 62
4
 10
3.13828120E+00
 20
1.22731838E+02
  0
VERTEX
  8
0
 62
4
 10
3.03206600E+00
 20
1.22863486E+02
  0
VERTEX
  8
0
 62
4
 10
2.91419067E+00
 20
1.22985828E+02
  0
VERTEX
  8
0
 62
4
 10
2.78555233E+00
 20
1.23097934E+02
  0
VERTEX
  8
0
 62
4
 10
2.64712998E+00
 20
1.23198951E+02
  0
VERTEX
  8
0
 62
4
 10
2.49997711E+00
 20
1.23288109E+02
  0
VERTEX
  8
0
 62
4
 10
2.34521363E+00
 20
1.23364731E+02
  0
VERTEX
  8
0
 62
4
 10
2.18401740E+00
 20
1.23428233E+02
  0
VERTEX
  8
0
 62
4
 10
2.01761520E+00
 20
1.23478131E+02
  0
VERTEX
  8
0
 62
4
 10
1.84727346E+00
 20
1.23514047E+02
  0
VERTEX
  8
0
 62
4
 10
1.67428859E+00
 20
1.23535706E+02
  0
VERTEX
  8
0
 62
4
 10
1.49997711E+00
 20
1.23542944E+02
  0
VERTEX
  8
0
 62
4
 10
1.32566562E+00
 20
1.23535706E+02
  0
VERTEX
  8
0
 62
4
 10
1.15268075E+00
 20
1.23514047E+02
  0
VERTEX
  8
0
 62
4
 10
9.82339018E-01
 20
1.23478131E+02
  0
VERTEX
  8
0
 62
4
 10
8.15936822E-01
 20
1.23428233E+02
  0
VERTEX
  8
0
 62
4
 10
6.54740585E-01
 20
1.23364731E+02
  0
VERTEX
  8
0
 62
4
 10
4.99977108E-01
 20
1.23288109E+02
  0
VERTEX
  8
0
 62
4
 10
3.52824236E-01
 20
1.23198951E+02
  0
VERTEX
  8
0
 62
4
 10
2.14401889E-01
 20
1.23097934E+02
  0
VERTEX
  8
0
 62
4
 10
8.57635461E-02
 20
1.22985828E+02
  0
VERTEX
  8
0
 62
4
 10
-3.21117776E-02
 20
1.22863486E+02
  0
VERTEX
  8
0
 62
4
 10
-1.38326980E-01
 20
1.22731838E+02
  0
VERTEX
  8
0
 62
4
 10
-2.32073699E-01
 20
1.22591888E+02
  0
VERTEX
  8
0
 62
4
 10
-3.12638465E-01
 20
1.22444699E+02
  0
VERTEX
  8
0
 62
4
 10
-3.79408132E-01
 20
1.22291392E+02
  0
VERTEX
  8
0
 62
4
 10
-4.31874543E-01
 20
1.22133134E+02
  0
VERTEX
  8
0
 62
4
 10
-4.69638396E-01
 20
1.21971129E+02
  0
VERTEX
  8
0
 62
4
 10
-4.92412286E-01
 20
1.21806611E+02
  0
VERTEX
  8
0
 62
4
 10
-5.00022890E-01
 20
1.21640831E+02
  0
VERTEX
  8
0
 62
4
 10
-4.92412286E-01
 20
1.21475051E+02
  0
VERTEX
  8
0
 62
4
 10
-4.69638396E-01
 20
1.21310533E+02
  0
VERTEX
  8
0
 62
4
 10
-4.31874542E-01
 20
1.21148528E+02
  0
VERTEX
  8
0
 62
4
 10
-3.79408130E-01
 20
1.20990270E+02
  0
VERTEX
  8
0
 62
4
 10
-3.12638463E-01
 20
1.20836963E+02
  0
VERTEX
  8
0
 62
4
 10
-2.32073696E-01
 20
1.20689774E+02
  0
VERTEX
  8
0
 62
4
 10
-1.38326977E-01
 20
1.20549824E+02
  0
VERTEX
  8
0
 62
4
 10
-3.21117740E-02
 20
1.20418176E+02
  0
VERTEX
  8
0
 62
4
 10
8.57635501E-02
 20
1.20295834E+02
  0
VERTEX
  8
0
 62
4
 10
2.14401893E-01
 20
1.20183728E+02
  0
VERTEX
  8
0
 62
4
 10
3.52824240E-01
 20
1.20082711E+02
  0
VERTEX
  8
0
 62
4
 10
4.99977113E-01
 20
1.19993553E+02
  0
VERTEX
  8
0
 62
4
 10
6.54740590E-01
 20
1.19916931E+02
  0
VERTEX
  8
0
 62
4
 10
8.15936827E-01
 20
1.19853429E+02
  0
VERTEX
  8
0
 62
4
 10
9.82339024E-01
 20
1.19803531E+02
  0
VERTEX
  8
0
 62
4
 10
1.15268076E+00
 20
1.19767615E+02
  0
VERTEX
  8
0
 62
4
 10
1.32566563E+00
 20
1.19745956E+02
  0
VERTEX
  8
0
 62
4
 10
1.49997711E+00
 20
1.19738718E+02
  0
VERTEX
  8
0
 62
4
 10
1.67428860E+00
 20
1.19745956E+02
  0
VERTEX
  8
0
 62
4
 10
1.84727347E+00
 20
1.19767615E+02
  0
VERTEX
  8
0
 62
4
 10
2.01761520E+00
 20
1.19803531E+02
  0
VERTEX
  8
0
 62
4
 10
2.18401740E+00
 20
1.19853429E+02
  0
VERTEX
  8
0
 62
4
 10
2.34521364E+00
 20
1.19916931E+02
  0
VERTEX
  8
0
 62
4
 10
2.49997711E+00
 20
1.19993553E+02
  0
VERTEX
  8
0
 62
4
 10
2.64712999E+00
 20
1.20082711E+02
  0
VERTEX
  8
0
 62
4
 10
2.78555233E+00
 20
1.20183728E+02
  0
VERTEX
  8
0
 62
4
 10
2.91419068E+00
 20
1.20295834E+02
  0
VERTEX
  8
0
 62
4
 10
3.03206600E+00
 20
1.20418176E+02
  0
VERTEX
  8
0
 62
4
 10
3.13828120E+00
 20
1.20549824E+02
  0
VERTEX
  8
0
 62
4
 10
3.23202792E+00
 20
1.20689774E+02
  0
VERTEX
  8
0
 62
4
 10
3.31259269E+00
 20
1.20836963E+02
  0
VERTEX
  8
0
 62
4
 10
3.37936235E+00
 20
1.20990270E+02
  0
VERTEX
  8
0
 62
4
 10
3.43182876E+00
 20
1.21148528E+02
  0
VERTEX
  8
0
 62
4
 10
3.46959262E+00
 20
1.21310533E+02
  0
VERTEX
  8
0
 62
4
 10
3.49236651E+00
 20
1.21475051E+02
  0
VERTEX
  8
0
 62
4
 10
3.49997711E+00
 20
1.21640831E+02
  0
SEQEND
  8
0
  0
LINE
  8
0
 62
4
 10
-5.00022888E-01
 20
1.21640831E+02
 11
-5.00022888E-01
 21
1.22516172E+02
  0
LINE
  8
0
 62
4
 10
3.49997711E+00
 20
1.21640831E+02
 11
3.49997711E+00
 21
1.22516172E+02
  0
POLYLINE
  8
0
 62
6
 66
1
  0
VERTEX
  8
0
 62
6
 10
-2.28900000E-05
 20
1.21640831E+02
  0
VERTEX
  8
0
 62
6
 10
5.68506242E-03
 20
1.21516496E+02
  0
VERTEX
  8
0
 62
6
 10
2.27654796E-02
 20
1.21393107E+02
  0
VERTEX
  8
0
 62
6
 10
5.10883693E-02
 20
1.21271604E+02
  0
VERTEX
  8
0
 62
6
 10
9.04381771E-02
 20
1.21152910E+02
  0
VERTEX
  8
0
 62
6
 10
1.40515427E-01
 20
1.21037930E+02
  0
VERTEX
  8
0
 62
6
 10
2.00939002E-01
 20
1.20927539E+02
  0
VERTEX
  8
0
 62
6
 10
2.71249041E-01
 20
1.20822576E+02
  0
VERTEX
  8
0
 62
6
 10
3.50910442E-01
 20
1.20723840E+02
  0
VERTEX
  8
0
 62
6
 10
4.39316935E-01
 20
1.20632083E+02
  0
VERTEX
  8
0
 62
6
 10
5.35795692E-01
 20
1.20548004E+02
  0
VERTEX
  8
0
 62
6
 10
6.39612452E-01
 20
1.20472241E+02
  0
VERTEX
  8
0
 62
6
 10
7.49977106E-01
 20
1.20405372E+02
  0
VERTEX
  8
0
 62
6
 10
8.66049713E-01
 20
1.20347906E+02
  0
VERTEX
  8
0
 62
6
 10
9.86946891E-01
 20
1.20300280E+02
  0
VERTEX
  8
0
 62
6
 10
1.11174854E+00
 20
1.20262856E+02
  0
VERTEX
  8
0
 62
6
 10
1.23950484E+00
 20
1.20235919E+02
  0
VERTEX
  8
0
 62
6
 10
1.36924349E+00
 20
1.20219675E+02
  0
VERTEX
  8
0
 62
6
 10
1.49997711E+00
 20
1.20214246E+02
  0
VERTEX
  8
0
 62
6
 10
1.63071072E+00
 20
1.20219675E+02
  0
VERTEX
  8
0
 62
6
 10
1.76044937E+00
 20
1.20235919E+02
  0
VERTEX
  8
0
 62
6
 10
1.88820567E+00
 20
1.20262856E+02
  0
VERTEX
  8
0
 62
6
 10
2.01300732E+00
 20
1.20300280E+02
  0
VERTEX
  8
0
 62
6
 10
2.13390450E+00
 20
1.20347906E+02
  0
VERTEX
  8
0
 62
6
 10
2.24997711E+00
 20
1.20405372E+02
  0
VERTEX
  8
0
 62
6
 10
2.36034176E+00
 20
1.20472241E+02
  0
VERTEX
  8
0
 62
6
 10
2.46415852E+00
 20
1.20548004E+02
  0
VERTEX
  8
0
 62
6
 10
2.56063728E+00
 20
1.20632083E+02
  0
VERTEX
  8
0
 62
6
 10
2.64904377E+00
 20
1.20723840E+02
  0
VERTEX
  8
0
 62
6
 10
2.72870517E+00
 20
1.20822576E+02
  0
VERTEX
  8
0
 62
6
 10
2.79901521E+00
 20
1.20927539E+02
  0
VERTEX
  8
0
 62
6
 10
2.85943879E+00
 20
1.21037930E+02
  0
VERTEX
  8
0
 62
6
 10
2.90951604E+00
 20
1.21152910E+02
  0
VERTEX
  8
0
 62
6
 10
2.94886585E+00
 20
1.21271604E+02
  0
VERTEX
  8
0
 62
6
 10
2.97718874E+00
 20
1.21393107E+02
  0
VERTEX
  8
0
 62
6
 10
2.99426916E+00
 20
1.21516496E+02
  0
VERTEX
  8
0
 62
6
 10
2.99997711E+00
 20
1.21640831E+02
  0
VERTEX
  8
0
 62
6
 10
2.99426916E+00
 20
1.21765166E+02
  0
VERTEX
  8
0
 62
6
 10
2.97718874E+00
 20
1.21888555E+02
  0
VERTEX
  8
0
 62
6
 10
2.94886585E+00
 20
1.22010058E+02
  0
VERTEX
  8
0
 62
6
 10
2.90951604E+00
 20
1.22128752E+02
  0
VERTEX
  8
0
 62
6
 10
2.85943879E+00
 20
1.22243732E+02
  0
VERTEX
  8
0
 62
6
 10
2.79901522E+00
 20
1.22354123E+02
  0
VERTEX
  8
0
 62
6
 10
2.72870518E+00
 20
1.22459086E+02
  0
VERTEX
  8
0
 62
6
 10
2.64904378E+00
 20
1.22557822E+02
  0
VERTEX
  8
0
 62
6
 10
2.56063728E+00
 20
1.22649579E+02
  0
VERTEX
  8
0
 62
6
 10
2.46415853E+00
 20
1.22733658E+02
  0
VERTEX
  8
0
 62
6
 10
2.36034177E+00
 20
1.22809421E+02
  0
VERTEX
  8
0
 62
6
 10
2.24997711E+00
 20
1.22876290E+02
  0
VERTEX
  8
0
 62
6
 10
2.13390450E+00
 20
1.22933756E+02
  0
VERTEX
  8
0
 62
6
 10
2.01300733E+00
 20
1.22981382E+02
  0
VERTEX
  8
0
 62
6
 10
1.88820568E+00
 20
1.23018806E+02
  0
VERTEX
  8
0
 62
6
 10
1.76044938E+00
 20
1.23045743E+02
  0
VERTEX
  8
0
 62
6
 10
1.63071073E+00
 20
1.23061987E+02
  0
VERTEX
  8
0
 62
6
 10
1.49997711E+00
 20
1.23067416E+02
  0
VERTEX
  8
0
 62
6
 10
1.36924350E+00
 20
1.23061987E+02
  0
VERTEX
  8
0
 62
6
 10
1.23950485E+00
 20
1.23045743E+02
  0
VERTEX
  8
0
 62
6
 10
1.11174854E+00
 20
1.23018806E+02
  0
VERTEX
  8
0
 62
6
 10
9.86946897E-01
 20
1.22981382E+02
  0
VERTEX
  8
0
 62
6
 10
8.66049719E-01
 20
1.22933756E+02
  0
VERTEX
  8
0
 62
6
 10
7.49977111E-01
 20
1.22876290E+02
  0
VERTEX
  8
0
 62
6
 10
6.39612457E-01
 20
1.22809421E+02
  0
VERTEX
  8
0
 62
6
 10
5.35795697E-01
 20
1.22733658E+02
  0
VERTEX
  8
0
 62
6
 10
4.39316939E-01
 20
1.22649579E+02
  0
VERTEX
  8
0
 62
6
 10
3.50910446E-01
 20
1.22557822E+02
  0
VERTEX
  8
0
 62
6
 10
2.71249044E-01
 20
1.22459086E+02
  0
VERTEX
  8
0
 62
6
 10
2.00939005E-01
 20
1.22354123E+02
  0
VERTEX
  8
0
 62
6
 10
1.40515430E-01
 20
1.22243732E+02
  0
VERTEX
  8
0
 62
6
 10
9.04381792E-02
 20
1.22128752E+02
  0
VERTEX
  8
0
 62
6
 10
5.10883708E-02
 20
1.22010058E+02
  0
VERTEX
  8
0
 62
6
 10
2.27654807E-02
 20
1.21888555E+02
  0
VERTEX
  8
0
 62
6
 10
5.68506295E-03
 20
1.21765166E+02
  0
VERTEX
  8
0
 62
6
 10
-2.28900000E-05
 20
1.21640831E+02
  0
SEQEND
  8
0
  0
LINE
  8
0
 62
4
 10
4.99977112E-01
 20
1.21089219E+02
 11
4.99977112E-01
 21
1.22192444E+02
  0
LINE
  8
0
 62
4
 10
2.49997711E+00
 20
1.21089219E+02
 11
2.49997711E+00
 21
1.22192444E+02
  0
LINE
  8
0
 62
4
 10
1.49997711E+00
 20
1.22734546E+02
 11
4.99977112E-01
 21
1.22192444E+02
  0
LINE
  8
0
 62
4
 10
1.49997711E+00
 20
1.22734546E+02
 11
2.49997711E+00
 21
1.22192444E+02
  0
LINE
  8
0
 62
4
 10
2.49997711E+00
 20
1.21089219E+02
 11
1.49997711E+00
 21
1.20537606E+02
  0
LINE
  8
0
 62
4
 10
1.49997711E+00
 20
1.20537606E+02
 11
4.99977112E-01
 21
1.21089219E+02
  0
LINE
  8
0
 62
4
 10
-6.50002289E+00
 20
1.20537606E+02
 11
-7.50002289E+00
 21
1.21089219E+02
  0
LINE
  8
0
 62
4
 10
-5.50002289E+00
 20
1.21089219E+02
 11
-6.50002289E+00
 21
1.20537606E+02
  0
LINE
  8
0
 62
4
 10
-6.50002289E+00
 20
1.22734546E+02
 11
-5.50002289E+00
 21
1.22192444E+02
  0
LINE
  8
0
 62
4
 10
-6.50002289E+00
 20
1.22734546E+02
 11
-7.50002289E+00
 21
1.22192444E+02
  0
LINE
  8
0
 62
4
 10
-5.50002289E+00
 20
1.21089219E+02
 11
-5.50002289E+00
 21
1.22192444E+02
  0
LINE
  8
0
 62
4
 10
-7.50002289E+00
 20
1.21089219E+02
 11
-7.50002289E+00
 21
1.22192444E+02
  0
POLYLINE
  8
0
 62
6
 66
1
  0
VERTEX
  8
0
 62
6
 10
-8.00002289E+00
 20
1.21640831E+02
  0
VERTEX
  8
0
 62
6
 10
-7.99431494E+00
 20
1.21516496E+02
  0
VERTEX
  8
0
 62
6
 10
-7.97723452E+00
 20
1.21393107E+02
  0
VERTEX
  8
0
 62
6
 10
-7.94891163E+00
 20
1.21271604E+02
  0
VERTEX
  8
0
 62
6
 10
-7.90956182E+00
 20
1.21152910E+02
  0
VERTEX
  8
0
 62
6
 10
-7.85948457E+00
 20
1.21037930E+02
  0
VERTEX
  8
0
 62
6
 10
-7.79906100E+00
 20
1.20927539E+02
  0
VERTEX
  8
0
 62
6
 10
-7.72875096E+00
 20
1.20822576E+02
  0
VERTEX
  8
0
 62
6
 10
-7.64908956E+00
 20
1.20723840E+02
  0
VERTEX
  8
0
 62
6
 10
-7.56068307E+00
 20
1.20632083E+02
  0
VERTEX
  8
0
 62
6
 10
-7.46420431E+00
 20
1.20548004E+02
  0
VERTEX
  8
0
 62
6
 10
-7.36038755E+00
 20
1.20472241E+02
  0
VERTEX
  8
0
 62
6
 10
-7.25002289E+00
 20
1.20405372E+02
  0
VERTEX
  8
0
 62
6
 10
-7.13395029E+00
 20
1.20347906E+02
  0
VERTEX
  8
0
 62
6
 10
-7.01305311E+00
 20
1.20300280E+02
  0
VERTEX
  8
0
 62
6
 10
-6.88825146E+00
 20
1.20262856E+02
  0
VERTEX
  8
0
 62
6
 10
-6.76049516E+00
 20
1.20235919E+02
  0
VERTEX
  8
0
 62
6
 10
-6.63075651E+00
 20
1.20219675E+02
  0
VERTEX
  8
0
 62
6
 10
-6.50002289E+00
 20
1.20214246E+02
  0
VERTEX
  8
0
 62
6
 10
-6.36928928E+00
 20
1.20219675E+02
  0
VERTEX
  8
0
 62
6
 10
-6.23955063E+00
 20
1.20235919E+02
  0
VERTEX
  8
0
 62
6
 10
-6.11179433E+00
 20
1.20262856E+02
  0
VERTEX
  8
0
 62
6
 10
-5.98699268E+00
 20
1.20300280E+02
  0
VERTEX
  8
0
 62
6
 10
-5.86609550E+00
 20
1.20347906E+02
  0
VERTEX
  8
0
 62
6
 10
-5.75002289E+00
 20
1.20405372E+02
  0
VERTEX
  8
0
 62
6
 10
-5.63965824E+00
 20
1.20472241E+02
  0
VERTEX
  8
0
 62
6
 10
-5.53584148E+00
 20
1.20548004E+02
  0
VERTEX
  8
0
 62
6
 10
-5.43936272E+00
 20
1.20632083E+02
  0
VERTEX
  8
0
 62
6
 10
-5.35095623E+00
 20
1.20723840E+02
  0
VERTEX
  8
0
 62
6
 10
-5.27129483E+00
 20
1.20822576E+02
  0
VERTEX
  8
0
 62
6
 10
-5.20098479E+00
 20
1.20927539E+02
  0
VERTEX
  8
0
 62
6
 10
-5.14056121E+00
 20
1.21037930E+02
  0
VERTEX
  8
0
 62
6
 10
-5.09048396E+00
 20
1.21152910E+02
  0
VERTEX
  8
0
 62
6
 10
-5.05113415E+00
 20
1.21271604E+02
  0
VERTEX
  8
0
 62
6
 10
-5.02281126E+00
 20
1.21393107E+02
  0
VERTEX
  8
0
 62
6
 10
-5.00573084E+00
 20
1.21516496E+02
  0
VERTEX
  8
0
 62
6
 10
-5.00002289E+00
 20
1.21640831E+02
  0
VERTEX
  8
0
 62
6
 10
-5.00573084E+00
 20
1.21765166E+02
  0
VERTEX
  8
0
 62
6
 10
-5.02281126E+00
 20
1.21888555E+02
  0
VERTEX
  8
0
 62
6
 10
-5.05113415E+00
 20
1.22010058E+02
  0
VERTEX
  8
0
 62
6
 10
-5.09048396E+00
 20
1.22128752E+02
  0
VERTEX
  8
0
 62
6
 10
-5.14056121E+00
 20
1.22243732E+02
  0
VERTEX
  8
0
 62
6
 10
-5.20098478E+00
 20
1.22354123E+02
  0
VERTEX
  8
0
 62
6
 10
-5.27129482E+00
 20
1.22459086E+02
  0
VERTEX
  8
0
 62
6
 10
-5.35095622E+00
 20
1.22557822E+02
  0
VERTEX
  8
0
 62
6
 10
-5.43936272E+00
 20
1.22649579E+02
  0
VERTEX
  8
0
 62
6
 10
-5.53584147E+00
 20
1.22733658E+02
  0
VERTEX
  8
0
 62
6
 10
-5.63965823E+00
 20
1.22809421E+02
  0
VERTEX
  8
0
 62
6
 10
-5.75002289E+00
 20
1.22876290E+02
  0
VERTEX
  8
0
 62
6
 10
-5.86609550E+00
 20
1.22933756E+02
  0
VERTEX
  8
0
 62
6
 10
-5.98699267E+00
 20
1.22981382E+02
  0
VERTEX
  8
0
 62
6
 10
-6.11179432E+00
 20
1.23018806E+02
  0
VERTEX
  8
0
 62
6
 10
-6.23955062E+00
 20
1.23045743E+02
  0
VERTEX
  8
0
 62
6
 10
-6.36928927E+00
 20
1.23061987E+02
  0
VERTEX
  8
0
 62
6
 10
-6.50002289E+00
 20
1.23067416E+02
  0
VERTEX
  8
0
 62
6
 10
-6.63075650E+00
 20
1.23061987E+02
  0
VERTEX
  8
0
 62
6
 10
-6.76049515E+00
 20
1.23045743E+02
  0
VERTEX
  8
0
 62
6
 10
-6.88825146E+00
 20
1.23018806E+02
  0
VERTEX
  8
0
 62
6
 10
-7.01305310E+00
 20
1.22981382E+02
  0
VERTEX
  8
0
 62
6
 10
-7.13395028E+00
 20
1.22933756E+02
  0
VERTEX
  8
0
 62
6
 10
-7.25002289E+00
 20
1.22876290E+02
  0
VERTEX
  8
0
 62
6
 10
-7.36038754E+00
 20
1.22809421E+02
  0
VERTEX
  8
0
 62
6
 10
-7.46420430E+00
 20
1.22733658E+02
  0
VERTEX
  8
0
 62
6
 10
-7.56068306E+00
 20
1.22649579E+02
  0
VERTEX
  8
0
 62
6
 10
-7.64908955E+00
 20
1.22557822E+02
  0
VERTEX
  8
0
 62
6
 10
-7.72875096E+00
 20
1.22459086E+02
  0
VERTEX
  8
0
 62
6
 10
-7.79906100E+00
 20
1.22354123E+02
  0
VERTEX
  8
0
 62
6
 10
-7.85948457E+00
 20
1.22243732E+02
  0
VERTEX
  8
0
 62
6
 10
-7.90956182E+00
 20
1.22128752E+02
  0
VERTEX
  8
0
 62
6
 10
-7.94891163E+00
 20
1.22010058E+02
  0
VERTEX
  8
0
 62
6
 10
-7.97723452E+00
 20
1.21888555E+02
  0
VERTEX
  8
0
 62
6
 10
-7.99431494E+00
 20
1.21765166E+02
  0
VERTEX
  8
0
 62
6
 10
-8.00002289E+00
 20
1.21640831E+02
  0
SEQEND
  8
0
  0
LINE
  8
0
 62
4
 10
-4.50002289E+00
 20
1.21640831E+02
 11
-4.50002289E+00
 21
1.22516172E+02
  0
LINE
  8
0
 62
4
 10
-8.50002289E+00
 20
1.21640831E+02
 11
-8.50002289E+00
 21
1.22516172E+02
  0
POLYLINE
  8
0
 62
4
 66
1
  0
VERTEX
  8
0
 62
4
 10
-4.50002289E+00
 20
1.21640831E+02
  0
VERTEX
  8
0
 62
4
 10
-4.50763349E+00
 20
1.21806611E+02
  0
VERTEX
  8
0
 62
4
 10
-4.53040738E+00
 20
1.21971129E+02
  0
VERTEX
  8
0
 62
4
 10
-4.56817124E+00
 20
1.22133134E+02
  0
VERTEX
  8
0
 62
4
 10
-4.62063765E+00
 20
1.22291392E+02
  0
VERTEX
  8
0
 62
4
 10
-4.68740732E+00
 20
1.22444699E+02
  0
VERTEX
  8
0
 62
4
 10
-4.76797208E+00
 20
1.22591888E+02
  0
VERTEX
  8
0
 62
4
 10
-4.86171880E+00
 20
1.22731838E+02
  0
VERTEX
  8
0
 62
4
 10
-4.96793400E+00
 20
1.22863486E+02
  0
VERTEX
  8
0
 62
4
 10
-5.08580933E+00
 20
1.22985828E+02
  0
VERTEX
  8
0
 62
4
 10
-5.21444767E+00
 20
1.23097934E+02
  0
VERTEX
  8
0
 62
4
 10
-5.35287002E+00
 20
1.23198951E+02
  0
VERTEX
  8
0
 62
4
 10
-5.50002289E+00
 20
1.23288109E+02
  0
VERTEX
  8
0
 62
4
 10
-5.65478637E+00
 20
1.23364731E+02
  0
VERTEX
  8
0
 62
4
 10
-5.81598260E+00
 20
1.23428233E+02
  0
VERTEX
  8
0
 62
4
 10
-5.98238480E+00
 20
1.23478131E+02
  0
VERTEX
  8
0
 62
4
 10
-6.15272654E+00
 20
1.23514047E+02
  0
VERTEX
  8
0
 62
4
 10
-6.32571141E+00
 20
1.23535706E+02
  0
VERTEX
  8
0
 62
4
 10
-6.50002289E+00
 20
1.23542944E+02
  0
VERTEX
  8
0
 62
4
 10
-6.67433438E+00
 20
1.23535706E+02
  0
VERTEX
  8
0
 62
4
 10
-6.84731925E+00
 20
1.23514047E+02
  0
VERTEX
  8
0
 62
4
 10
-7.01766098E+00
 20
1.23478131E+02
  0
VERTEX
  8
0
 62
4
 10
-7.18406318E+00
 20
1.23428233E+02
  0
VERTEX
  8
0
 62
4
 10
-7.34525942E+00
 20
1.23364731E+02
  0
VERTEX
  8
0
 62
4
 10
-7.50002289E+00
 20
1.23288109E+02
  0
VERTEX
  8
0
 62
4
 10
-7.64717576E+00
 20
1.23198951E+02
  0
VERTEX
  8
0
 62
4
 10
-7.78559811E+00
 20
1.23097934E+02
  0
VERTEX
  8
0
 62
4
 10
-7.91423645E+00
 20
1.22985828E+02
  0
VERTEX
  8
0
 62
4
 10
-8.03211178E+00
 20
1.22863486E+02
  0
VERTEX
  8
0
 62
4
 10
-8.13832698E+00
 20
1.22731838E+02
  0
VERTEX
  8
0
 62
4
 10
-8.23207370E+00
 20
1.22591888E+02
  0
VERTEX
  8
0
 62
4
 10
-8.31263847E+00
 20
1.22444699E+02
  0
VERTEX
  8
0
 62
4
 10
-8.37940813E+00
 20
1.22291392E+02
  0
VERTEX
  8
0
 62
4
 10
-8.43187454E+00
 20
1.22133134E+02
  0
VERTEX
  8
0
 62
4
 10
-8.46963840E+00
 20
1.21971129E+02
  0
VERTEX
  8
0
 62
4
 10
-8.49241229E+00
 20
1.21806611E+02
  0
VERTEX
  8
0
 62
4
 10
-8.50002289E+00
 20
1.21640831E+02
  0
VERTEX
  8
0
 62
4
 10
-8.49241229E+00
 20
1.21475051E+02
  0
VERTEX
  8
0
 62
4
 10
-8.46963840E+00
 20
1.21310533E+02
  0
VERTEX
  8
0
 62
4
 10
-8.43187454E+00
 20
1.21148528E+02
  0
VERTEX
  8
0
 62
4
 10
-8.37940813E+00
 20
1.20990270E+02
  0
VERTEX
  8
0
 62
4
 10
-8.31263846E+00
 20
1.20836963E+02
  0
VERTEX
  8
0
 62
4
 10
-8.23207370E+00
 20
1.20689774E+02
  0
VERTEX
  8
0
 62
4
 10
-8.13832698E+00
 20
1.20549824E+02
  0
VERTEX
  8
0
 62
4
 10
-8.03211177E+00
 20
1.20418176E+02
  0
VERTEX
  8
0
 62
4
 10
-7.91423645E+00
 20
1.20295834E+02
  0
VERTEX
  8
0
 62
4
 10
-7.78559811E+00
 20
1.20183728E+02
  0
VERTEX
  8
0
 62
4
 10
-7.64717576E+00
 20
1.20082711E+02
  0
VERTEX
  8
0
 62
4
 10
-7.50002289E+00
 20
1.19993553E+02
  0
VERTEX
  8
0
 62
4
 10
-7.34525941E+00
 20
1.19916931E+02
  0
VERTEX
  8
0
 62
4
 10
-7.18406317E+00
 20
1.19853429E+02
  0
VERTEX
  8
0
 62
4
 10
-7.01766098E+00
 20
1.19803531E+02
  0
VERTEX
  8
0
 62
4
 10
-6.84731924E+00
 20
1.19767615E+02
  0
VERTEX
  8
0
 62
4
 10
-6.67433437E+00
 20
1.19745956E+02
  0
VERTEX
  8
0
 62
4
 10
-6.50002289E+00
 20
1.19738718E+02
  0
VERTEX
  8
0
 62
4
 10
-6.32571140E+00
 20
1.19745956E+02
  0
VERTEX
  8
0
 62
4
 10
-6.15272653E+00
 20
1.19767615E+02
  0
VERTEX
  8
0
 62
4
 10
-5.98238480E+00
 20
1.19803531E+02
  0
VERTEX
  8
0
 62
4
 10
-5.81598260E+00
 20
1.19853429E+02
  0
VERTEX
  8
0
 62
4
 10
-5.65478636E+00
 20
1.19916931E+02
  0
VERTEX
  8
0
 62
4
 10
-5.50002289E+00
 20
1.19993553E+02
  0
VERTEX
  8
0
 62
4
 10
-5.35287001E+00
 20
1.20082711E+02
  0
VERTEX
  8
0
 62
4
 10
-5.21444767E+00
 20
1.20183728E+02
  0
VERTEX
  8
0
 62
4
 10
-5.08580932E+00
 20
1.20295834E+02
  0
VERTEX
  8
0
 62
4
 10
-4.96793400E+00
 20
1.20418176E+02
  0
VERTEX
  8
0
 62
4
 10
-4.86171880E+00
 20
1.20549824E+02
  0
VERTEX
  8
0
 62
4
 10
-4.76797208E+00
 20
1.20689774E+02
  0
VERTEX
  8
0
 62
4
 10
-4.68740731E+00
 20
1.20836963E+02
  0
VERTEX
  8
0
 62
4
 10
-4.62063765E+00
 20
1.20990270E+02
  0
VERTEX
  8
0
 62
4
 10
-4.56817124E+00
 20
1.21148528E+02
  0
VERTEX
  8
0
 62
4
 10
-4.53040738E+00
 20
1.21310533E+02
  0
VERTEX
  8
0
 62
4
 10
-4.50763349E+00
 20
1.21475051E+02
  0
VERTEX
  8
0
 62
4
 10
-4.50002289E+00
 20
1.21640831E+02
  0
SEQEND
  8
0
  0
POLYLINE
  8
0
 62
4
 66
1
  0
VERTEX
  8
0
 62
4
 10
-4.50002289E+00
 20
1.22516172E+02
  0
VERTEX
  8
0
 62
4
 10
-4.50807430E+00
 20
1.22686676E+02
  0
VERTEX
  8
0
 62
4
 10
-4.53216371E+00
 20
1.22855807E+02
  0
VERTEX
  8
0
 62
4
 10
-4.57209717E+00
 20
1.23022204E+02
  0
VERTEX
  8
0
 62
4
 10
-4.62755315E+00
 20
1.23184527E+02
  0
VERTEX
  8
0
 62
4
 10
-4.69808515E+00
 20
1.23341468E+02
  0
VERTEX
  8
0
 62
4
 10
-4.78312530E+00
 20
1.23491764E+02
  0
VERTEX
  8
0
 62
4
 10
-4.88198890E+00
 20
1.23634206E+02
  0
VERTEX
  8
0
 62
4
 10
-4.99387996E+00
 20
1.23767646E+02
  0
VERTEX
  8
0
 62
4
 10
-5.11789759E+00
 20
1.23891010E+02
  0
VERTEX
  8
0
 62
4
 10
-5.25304328E+00
 20
1.24003304E+02
  0
VERTEX
  8
0
 62
4
 10
-5.39822893E+00
 20
1.24103625E+02
  0
VERTEX
  8
0
 62
4
 10
-5.55228556E+00
 20
1.24191164E+02
  0
VERTEX
  8
0
 62
4
 10
-5.71397282E+00
 20
1.24265218E+02
  0
VERTEX
  8
0
 62
4
 10
-5.88198890E+00
 20
1.24325189E+02
  0
VERTEX
  8
0
 62
4
 10
-6.05498102E+00
 20
1.24370595E+02
  0
VERTEX
  8
0
 62
4
 10
-6.23155636E+00
 20
1.24401070E+02
  0
VERTEX
  8
0
 62
4
 10
-6.41029323E+00
 20
1.24416370E+02
  0
VERTEX
  8
0
 62
4
 10
-6.58975255E+00
 20
1.24416370E+02
  0
VERTEX
  8
0
 62
4
 10
-6.76848942E+00
 20
1.24401070E+02
  0
VERTEX
  8
0
 62
4
 10
-6.94506475E+00
 20
1.24370595E+02
  0
VERTEX
  8
0
 62
4
 10
-7.11805687E+00
 20
1.24325189E+02
  0
VERTEX
  8
0
 62
4
 10
-7.28607295E+00
 20
1.24265218E+02
  0
VERTEX
  8
0
 62
4
 10
-7.44776021E+00
 20
1.24191164E+02
  0
VERTEX
  8
0
 62
4
 10
-7.60181685E+00
 20
1.24103625E+02
  0
VERTEX
  8
0
 62
4
 10
-7.74700249E+00
 20
1.24003304E+02
  0
VERTEX
  8
0
 62
4
 10
-7.88214818E+00
 20
1.23891010E+02
  0
VERTEX
  8
0
 62
4
 10
-8.00616582E+00
 20
1.23767646E+02
  0
VERTEX
  8
0
 62
4
 10
-8.11805688E+00
 20
1.23634206E+02
  0
VERTEX
  8
0
 62
4
 10
-8.21692047E+00
 20
1.23491764E+02
  0
VERTEX
  8
0
 62
4
 10
-8.30196062E+00
 20
1.23341468E+02
  0
VERTEX
  8
0
 62
4
 10
-8.37249263E+00
 20
1.23184527E+02
  0
VERTEX
  8
0
 62
4
 10
-8.42794861E+00
 20
1.23022204E+02
  0
VERTEX
  8
0
 62
4
 10
-8.46788207E+00
 20
1.22855807E+02
  0
VERTEX
  8
0
 62
4
 10
-8.49197148E+00
 20
1.22686676E+02
  0
VERTEX
  8
0
 62
4
 10
-8.50002289E+00
 20
1.22516172E+02
  0
SEQEND
  8
0
  0
LINE
  8
0
 62
4
 10
-3.90000076E+01
 20
1.37852058E+02
 11
-3.90000076E+01
 21
1.49176918E+02
  0
LINE
  8
0
 62
6
 10
-3.07320737E+01
 20
1.33352058E+02
 11
-2.72679721E+01
 21
1.39352058E+02
  0
LINE
  8
0
 62
4
 10
-3.90000076E+01
 20
1.34852058E+02
 11
-2.98660483E+01
 21
1.34852058E+02
  0
LINE
  8
0
  6
CENTER
 62
6
 10
-7.40000229E+01
 20
1.36352058E+02
 11
-2.70000229E+01
 21
1.36352058E+02
  0
LINE
  8
0
 62
4
 10
-4.55000229E+01
 20
1.37852058E+02
 11
-2.81339975E+01
 21
1.37852058E+02
  0
LINE
  8
0
 62
4
 10
-3.90000076E+01
 20
1.34499969E+02
 11
-3.90000076E+01
 21
1.34911070E+02
  0
LINE
  8
0
 62
4
 10
-4.55000076E+01
 20
1.38872205E+02
 11
-4.55000076E+01
 21
1.34911070E+02
  0
LINE
  8
0
 62
4
 10
-6.90000076E+01
 20
1.49176918E+02
 11
-6.90000076E+01
 21
1.38872205E+02
  0
LINE
  8
0
  6
CENTER
 62
6
 10
-4.93500076E+01
 20
1.41568466E+02
 11
-5.86500076E+01
 21
1.41568466E+02
  0
LINE
  8
0
  6
CENTER
 62
6
 10
-5.40000076E+01
 20
1.46218466E+02
 11
-5.40000076E+01
 21
1.36918466E+02
  0
LINE
  8
0
 62
4
 10
-6.90000076E+01
 20
1.49176918E+02
 11
-3.90000076E+01
 21
1.49176918E+02
  0
LINE
  8
0
  6
CENTER
 62
6
 10
-4.17000077E+01
 20
1.44897164E+02
 11
-5.13000077E+01
 21
1.44897164E+02
  0
LINE
  8
0
  6
CENTER
 62
6
 10
-4.65000076E+01
 20
1.49697164E+02
 11
-4.65000076E+01
 21
1.40097164E+02
  0
LINE
  8
0
  6
CENTER
 62
6
 10
-5.79254107E+01
 20
1.44897164E+02
 11
-6.50746045E+01
 21
1.44897164E+02
  0
LINE
  8
0
  6
CENTER
 62
6
 10
-6.15000076E+01
 20
1.48471761E+02
 11
-6.15000076E+01
 21
1.41322567E+02
  0
LINE
  8
0
 62
4
 10
-6.90000076E+01
 20
1.38872205E+02
 11
-7.05000076E+01
 21
1.37775942E+02
  0
LINE
  8
0
 62
4
 10
-7.05000076E+01
 20
1.37775942E+02
 11
-7.05000076E+01
 21
1.34921875E+02
  0
LINE
  8
0
 62
4
 10
-7.05000076E+01
 20
1.35621799E+02
 11
-6.90000076E+01
 21
1.35067979E+02
  0
LINE
  8
0
 62
4
 10
-7.05000076E+01
 20
1.34921875E+02
 11
-6.99193843E+01
 21
1.34499969E+02
  0
LINE
  8
0
 62
4
 10
-6.90000076E+01
 20
1.35067979E+02
 11
-4.55000076E+01
 21
1.35067979E+02
  0
LINE
  8
0
 62
4
 10
-6.90000076E+01
 20
1.38872205E+02
 11
-5.69103106E+01
 21
1.38872205E+02
  0
LINE
  8
0
 62
4
 10
-6.90000076E+01
 20
1.39285930E+02
 11
-5.72946399E+01
 21
1.39285930E+02
  0
LINE
  8
0
 62
4
 10
-6.90000076E+01
 20
1.34911070E+02
 11
-3.90000076E+01
 21
1.34911070E+02
  0
LINE
  8
0
 62
4
 10
-6.90000076E+01
 20
1.38872205E+02
 11
-6.90000076E+01
 21
1.34911070E+02
  0
LINE
  8
0
 62
4
 10
-6.90000076E+01
 20
1.34911070E+02
 11
-6.90000076E+01
 21
1.34499969E+02
  0
POLYLINE
  8
0
 62
4
 66
1
  0
VERTEX
  8
0
 62
4
 10
-5.81500076E+01
 20
1.42229762E+02
  0
VERTEX
  8
0
 62
4
 10
-5.81342156E+01
 20
1.41885768E+02
  0
VERTEX
  8
0
 62
4
 10
-5.80869598E+01
 20
1.41544393E+02
  0
VERTEX
  8
0
 62
4
 10
-5.80085998E+01
 20
1.41208233E+02
  0
VERTEX
  8
0
 62
4
 10
-5.78997320E+01
 20
1.40879848E+02
  0
VERTEX
  8
0
 62
4
 10
-5.77611849E+01
 20
1.40561737E+02
  0
VERTEX
  8
0
 62
4
 10
-5.75940130E+01
 20
1.40256320E+02
  0
VERTEX
  8
0
 62
4
 10
-5.73994886E+01
 20
1.39965922E+02
  0
VERTEX
  8
0
 62
4
 10
-5.71790920E+01
 20
1.39692754E+02
  0
VERTEX
  8
0
 62
4
 10
-5.69345008E+01
 20
1.39438893E+02
  0
VERTEX
  8
0
 62
4
 10
-5.66675762E+01
 20
1.39206273E+02
  0
VERTEX
  8
0
 62
4
 10
-5.63803498E+01
 20
1.38996663E+02
  0
VERTEX
  8
0
 62
4
 10
-5.60750076E+01
 20
1.38811660E+02
  0
VERTEX
  8
0
 62
4
 10
-5.57538734E+01
 20
1.38652670E+02
  0
VERTEX
  8
0
 62
4
 10
-5.54193912E+01
 20
1.38520904E+02
  0
VERTEX
  8
0
 62
4
 10
-5.50741066E+01
 20
1.38417364E+02
  0
VERTEX
  8
0
 62
4
 10
-5.47206475E+01
 20
1.38342840E+02
  0
VERTEX
  8
0
 62
4
 10
-5.43617039E+01
 20
1.38297897E+02
  0
VERTEX
  8
0
 62
4
 10
-5.40000076E+01
 20
1.38282877E+02
  0
VERTEX
  8
0
 62
4
 10
-5.36383113E+01
 20
1.38297897E+02
  0
VERTEX
  8
0
 62
4
 10
-5.32793677E+01
 20
1.38342840E+02
  0
VERTEX
  8
0
 62
4
 10
-5.29259086E+01
 20
1.38417364E+02
  0
VERTEX
  8
0
 62
4
 10
-5.25806240E+01
 20
1.38520904E+02
  0
VERTEX
  8
0
 62
4
 10
-5.22461418E+01
 20
1.38652670E+02
  0
VERTEX
  8
0
 62
4
 10
-5.19250076E+01
 20
1.38811660E+02
  0
VERTEX
  8
0
 62
4
 10
-5.16196654E+01
 20
1.38996663E+02
  0
VERTEX
  8
0
 62
4
 10
-5.13324390E+01
 20
1.39206273E+02
  0
VERTEX
  8
0
 62
4
 10
-5.10655145E+01
 20
1.39438893E+02
  0
VERTEX
  8
0
 62
4
 10
-5.08209232E+01
 20
1.39692754E+02
  0
VERTEX
  8
0
 62
4
 10
-5.06005266E+01
 20
1.39965922E+02
  0
VERTEX
  8
0
 62
4
 10
-5.04060022E+01
 20
1.40256320E+02
  0
VERTEX
  8
0
 62
4
 10
-5.02388303E+01
 20
1.40561737E+02
  0
VERTEX
  8
0
 62
4
 10
-5.01002832E+01
 20
1.40879848E+02
  0
VERTEX
  8
0
 62
4
 10
-4.99914154E+01
 20
1.41208233E+02
  0
VERTEX
  8
0
 62
4
 10
-4.99130554E+01
 20
1.41544393E+02
  0
VERTEX
  8
0
 62
4
 10
-4.98657996E+01
 20
1.41885768E+02
  0
VERTEX
  8
0
 62
4
 10
-4.98500076E+01
 20
1.42229762E+02
  0
VERTEX
  8
0
 62
4
 10
-4.98657996E+01
 20
1.42573756E+02
  0
VERTEX
  8
0
 62
4
 10
-4.99130554E+01
 20
1.42915131E+02
  0
VERTEX
  8
0
 62
4
 10
-4.99914154E+01
 20
1.43251291E+02
  0
VERTEX
  8
0
 62
4
 10
-5.01002832E+01
 20
1.43579676E+02
  0
VERTEX
  8
0
 62
4
 10
-5.02388303E+01
 20
1.43897787E+02
  0
VERTEX
  8
0
 62
4
 10
-5.04060022E+01
 20
1.44203204E+02
  0
VERTEX
  8
0
 62
4
 10
-5.06005266E+01
 20
1.44493602E+02
  0
VERTEX
  8
0
 62
4
 10
-5.08209232E+01
 20
1.44766770E+02
  0
VERTEX
  8
0
 62
4
 10
-5.10655145E+01
 20
1.45020631E+02
  0
VERTEX
  8
0
 62
4
 10
-5.13324390E+01
 20
1.45253251E+02
  0
VERTEX
  8
0
 62
4
 10
-5.16196654E+01
 20
1.45462861E+02
  0
VERTEX
  8
0
 62
4
 10
-5.19250076E+01
 20
1.45647864E+02
  0
VERTEX
  8
0
 62
4
 10
-5.22461418E+01
 20
1.45806854E+02
  0
VERTEX
  8
0
 62
4
 10
-5.25806240E+01
 20
1.45938620E+02
  0
VERTEX
  8
0
 62
4
 10
-5.29259086E+01
 20
1.46042160E+02
  0
VERTEX
  8
0
 62
4
 10
-5.32793677E+01
 20
1.46116684E+02
  0
VERTEX
  8
0
 62
4
 10
-5.36383113E+01
 20
1.46161627E+02
  0
VERTEX
  8
0
 62
4
 10
-5.40000076E+01
 20
1.46176647E+02
  0
VERTEX
  8
0
 62
4
 10
-5.43617039E+01
 20
1.46161627E+02
  0
VERTEX
  8
0
 62
4
 10
-5.47206475E+01
 20
1.46116684E+02
  0
VERTEX
  8
0
 62
4
 10
-5.50741066E+01
 20
1.46042160E+02
  0
VERTEX
  8
0
 62
4
 10
-5.54193912E+01
 20
1.45938620E+02
  0
VERTEX
  8
0
 62
4
 10
-5.57538734E+01
 20
1.45806854E+02
  0
VERTEX
  8
0
 62
4
 10
-5.60750076E+01
 20
1.45647864E+02
  0
VERTEX
  8
0
 62
4
 10
-5.63803498E+01
 20
1.45462861E+02
  0
VERTEX
  8
0
 62
4
 10
-5.66675762E+01
 20
1.45253251E+02
  0
VERTEX
  8
0
 62
4
 10
-5.69345007E+01
 20
1.45020631E+02
  0
VERTEX
  8
0
 62
4
 10
-5.71790920E+01
 20
1.44766770E+02
  0
VERTEX
  8
0
 62
4
 10
-5.73994886E+01
 20
1.44493602E+02
  0
VERTEX
  8
0
 62
4
 10
-5.75940130E+01
 20
1.44203204E+02
  0
VERTEX
  8
0
 62
4
 10
-5.77611849E+01
 20
1.43897787E+02
  0
VERTEX
  8
0
 62
4
 10
-5.78997320E+01
 20
1.43579676E+02
  0
VERTEX
  8
0
 62
4
 10
-5.80085998E+01
 20
1.43251291E+02
  0
VERTEX
  8
0
 62
4
 10
-5.80869598E+01
 20
1.42915131E+02
  0
VERTEX
  8
0
 62
4
 10
-5.81342156E+01
 20
1.42573756E+02
  0
VERTEX
  8
0
 62
4
 10
-5.81500076E+01
 20
1.42229762E+02
  0
SEQEND
  8
0
  0
ARC
  8
0
 62
4
 10
1.79293589E+01
 20
6.67969992E+01
 40
1.04392782E+02
 50
1.32228766E+02
 51
1.34907157E+02
  0
ARC
  8
0
 62
4
 10
-1.25929150E+02
 20
6.67972345E+01
 40
1.04392457E+02
 50
4.50928385E+01
 51
4.77712376E+01
  0
POLYLINE
  8
0
 62
4
 66
1
  0
VERTEX
  8
0
 62
4
 10
-5.81500076E+01
 20
1.41685892E+02
  0
VERTEX
  8
0
 62
4
 10
-5.81333009E+01
 20
1.41332096E+02
  0
VERTEX
  8
0
 62
4
 10
-5.80833154E+01
 20
1.40981149E+02
  0
VERTEX
  8
0
 62
4
 10
-5.80004535E+01
 20
1.40635875E+02
  0
VERTEX
  8
0
 62
4
 10
-5.78853823E+01
 20
1.40299056E+02
  0
VERTEX
  8
0
 62
4
 10
-5.77390284E+01
 20
1.39973403E+02
  0
VERTEX
  8
0
 62
4
 10
-5.75625701E+01
 20
1.39661538E+02
  0
VERTEX
  8
0
 62
4
 10
-5.73574281E+01
 20
1.39365971E+02
  0
VERTEX
  8
0
 62
4
 10
-5.71252542E+01
 20
1.39089084E+02
  0
VERTEX
  8
0
 62
4
 10
-5.68679176E+01
 20
1.38833104E+02
  0
VERTEX
  8
0
 62
4
 10
-5.65874903E+01
 20
1.38600093E+02
  0
VERTEX
  8
0
 62
4
 10
-5.62862301E+01
 20
1.38391928E+02
  0
VERTEX
  8
0
 62
4
 10
-5.59665626E+01
 20
1.38210283E+02
  0
VERTEX
  8
0
 62
4
 10
-5.56310615E+01
 20
1.38056622E+02
  0
VERTEX
  8
0
 62
4
 10
-5.52824281E+01
 20
1.37932182E+02
  0
VERTEX
  8
0
 62
4
 10
-5.49234695E+01
 20
1.37837964E+02
  0
VERTEX
  8
0
 62
4
 10
-5.45570757E+01
 20
1.37774728E+02
  0
VERTEX
  8
0
 62
4
 10
-5.41861967E+01
 20
1.37742982E+02
  0
VERTEX
  8
0
 62
4
 10
-5.38138186E+01
 20
1.37742982E+02
  0
VERTEX
  8
0
 62
4
 10
-5.34429396E+01
 20
1.37774728E+02
  0
VERTEX
  8
0
 62
4
 10
-5.30765457E+01
 20
1.37837964E+02
  0
VERTEX
  8
0
 62
4
 10
-5.27175871E+01
 20
1.37932182E+02
  0
VERTEX
  8
0
 62
4
 10
-5.23689537E+01
 20
1.38056622E+02
  0
VERTEX
  8
0
 62
4
 10
-5.20334527E+01
 20
1.38210283E+02
  0
VERTEX
  8
0
 62
4
 10
-5.17137851E+01
 20
1.38391928E+02
  0
VERTEX
  8
0
 62
4
 10
-5.14125249E+01
 20
1.38600093E+02
  0
VERTEX
  8
0
 62
4
 10
-5.11320976E+01
 20
1.38833104E+02
  0
VERTEX
  8
0
 62
4
 10
-5.08747610E+01
 20
1.39089084E+02
  0
VERTEX
  8
0
 62
4
 10
-5.06425871E+01
 20
1.39365971E+02
  0
VERTEX
  8
0
 62
4
 10
-5.04374451E+01
 20
1.39661538E+02
  0
VERTEX
  8
0
 62
4
 10
-5.02609868E+01
 20
1.39973403E+02
  0
VERTEX
  8
0
 62
4
 10
-5.01146329E+01
 20
1.40299056E+02
  0
VERTEX
  8
0
 62
4
 10
-4.99995617E+01
 20
1.40635875E+02
  0
VERTEX
  8
0
 62
4
 10
-4.99166998E+01
 20
1.40981149E+02
  0
VERTEX
  8
0
 62
4
 10
-4.98667143E+01
 20
1.41332096E+02
  0
VERTEX
  8
0
 62
4
 10
-4.98500076E+01
 20
1.41685892E+02
  0
SEQEND
  8
0
  0
LINE
  8
0
 62
4
 10
-5.81500076E+01
 20
1.41685892E+02
 11
-5.81500076E+01
 21
1.42229762E+02
  0
LINE
  8
0
 62
4
 10
-4.98500076E+01
 20
1.41685892E+02
 11
-4.98500076E+01
 21
1.42229762E+02
  0
POLYLINE
  8
0
 62
4
 66
1
  0
VERTEX
  8
0
 62
4
 10
-5.03000076E+01
 20
1.44897164E+02
  0
VERTEX
  8
0
 62
4
 10
-5.02847099E+01
 20
1.44573206E+02
  0
VERTEX
  8
0
 62
4
 10
-5.02389401E+01
 20
1.44251857E+02
  0
VERTEX
  8
0
 62
4
 10
-5.01630665E+01
 20
1.43935703E+02
  0
VERTEX
  8
0
 62
4
 10
-5.00577001E+01
 20
1.43627290E+02
  0
VERTEX
  8
0
 62
4
 10
-4.99236893E+01
 20
1.43329102E+02
  0
VERTEX
  8
0
 62
4
 10
-4.97621130E+01
 20
1.43043538E+02
  0
VERTEX
  8
0
 62
4
 10
-4.95742722E+01
 20
1.42772899E+02
  0
VERTEX
  8
0
 62
4
 10
-4.93616792E+01
 20
1.42519364E+02
  0
VERTEX
  8
0
 62
4
 10
-4.91260457E+01
 20
1.42284973E+02
  0
VERTEX
  8
0
 62
4
 10
-4.88692689E+01
 20
1.42071613E+02
  0
VERTEX
  8
0
 62
4
 10
-4.85934162E+01
 20
1.41881004E+02
  0
VERTEX
  8
0
 62
4
 10
-4.83007085E+01
 20
1.41714679E+02
  0
VERTEX
  8
0
 62
4
 10
-4.79935027E+01
 20
1.41573977E+02
  0
VERTEX
  8
0
 62
4
 10
-4.76742722E+01
 20
1.41460032E+02
  0
VERTEX
  8
0
 62
4
 10
-4.73455872E+01
 20
1.41373760E+02
  0
VERTEX
  8
0
 62
4
 10
-4.70100940E+01
 20
1.41315857E+02
  0
VERTEX
  8
0
 62
4
 10
-4.66704940E+01
 20
1.41286788E+02
  0
VERTEX
  8
0
 62
4
 10
-4.63295213E+01
 20
1.41286788E+02
  0
VERTEX
  8
0
 62
4
 10
-4.59899212E+01
 20
1.41315857E+02
  0
VERTEX
  8
0
 62
4
 10
-4.56544281E+01
 20
1.41373760E+02
  0
VERTEX
  8
0
 62
4
 10
-4.53257430E+01
 20
1.41460032E+02
  0
VERTEX
  8
0
 62
4
 10
-4.50065125E+01
 20
1.41573977E+02
  0
VERTEX
  8
0
 62
4
 10
-4.46993067E+01
 20
1.41714679E+02
  0
VERTEX
  8
0
 62
4
 10
-4.44065991E+01
 20
1.41881004E+02
  0
VERTEX
  8
0
 62
4
 10
-4.41307464E+01
 20
1.42071613E+02
  0
VERTEX
  8
0
 62
4
 10
-4.38739695E+01
 20
1.42284973E+02
  0
VERTEX
  8
0
 62
4
 10
-4.36383360E+01
 20
1.42519364E+02
  0
VERTEX
  8
0
 62
4
 10
-4.34257430E+01
 20
1.42772899E+02
  0
VERTEX
  8
0
 62
4
 10
-4.32379022E+01
 20
1.43043538E+02
  0
VERTEX
  8
0
 62
4
 10
-4.30763259E+01
 20
1.43329102E+02
  0
VERTEX
  8
0
 62
4
 10
-4.29423151E+01
 20
1.43627290E+02
  0
VERTEX
  8
0
 62
4
 10
-4.28369487E+01
 20
1.43935703E+02
  0
VERTEX
  8
0
 62
4
 10
-4.27610751E+01
 20
1.44251857E+02
  0
VERTEX
  8
0
 62
4
 10
-4.27153053E+01
 20
1.44573206E+02
  0
VERTEX
  8
0
 62
4
 10
-4.27000076E+01
 20
1.44897164E+02
  0
SEQEND
  8
0
  0
POLYLINE
  8
0
 62
4
 66
1
  0
VERTEX
  8
0
 62
4
 10
-5.03000076E+01
 20
1.45206181E+02
  0
VERTEX
  8
0
 62
4
 10
-5.02855475E+01
 20
1.44891199E+02
  0
VERTEX
  8
0
 62
4
 10
-5.02422771E+01
 20
1.44578614E+02
  0
VERTEX
  8
0
 62
4
 10
-5.01705258E+01
 20
1.44270805E+02
  0
VERTEX
  8
0
 62
4
 10
-5.00708396E+01
 20
1.43970115E+02
  0
VERTEX
  8
0
 62
4
 10
-4.99439772E+01
 20
1.43678832E+02
  0
VERTEX
  8
0
 62
4
 10
-4.97909042E+01
 20
1.43399174E+02
  0
VERTEX
  8
0
 62
4
 10
-4.96127854E+01
 20
1.43133267E+02
  0
VERTEX
  8
0
 62
4
 10
-4.94109765E+01
 20
1.42883137E+02
  0
VERTEX
  8
0
 62
4
 10
-4.91870134E+01
 20
1.42650687E+02
  0
VERTEX
  8
0
 62
4
 10
-4.89426005E+01
 20
1.42437685E+02
  0
VERTEX
  8
0
 62
4
 10
-4.86795981E+01
 20
1.42245753E+02
  0
VERTEX
  8
0
 62
4
 10
-4.84000076E+01
 20
1.42076352E+02
  0
VERTEX
  8
0
 62
4
 10
-4.81059570E+01
 20
1.41930771E+02
  0
VERTEX
  8
0
 62
4
 10
-4.77996842E+01
 20
1.41810118E+02
  0
VERTEX
  8
0
 62
4
 10
-4.74835200E+01
 20
1.41715311E+02
  0
VERTEX
  8
0
 62
4
 10
-4.71598707E+01
 20
1.41647071E+02
  0
VERTEX
  8
0
 62
4
 10
-4.68311994E+01
 20
1.41605919E+02
  0
VERTEX
  8
0
 62
4
 10
-4.65000076E+01
 20
1.41592166E+02
  0
VERTEX
  8
0
 62
4
 10
-4.61688158E+01
 20
1.41605919E+02
  0
VERTEX
  8
0
 62
4
 10
-4.58401445E+01
 20
1.41647071E+02
  0
VERTEX
  8
0
 62
4
 10
-4.55164952E+01
 20
1.41715311E+02
  0
VERTEX
  8
0
 62
4
 10
-4.52003311E+01
 20
1.41810118E+02
  0
VERTEX
  8
0
 62
4
 10
-4.48940582E+01
 20
1.41930771E+02
  0
VERTEX
  8
0
 62
4
 10
-4.46000076E+01
 20
1.42076352E+02
  0
VERTEX
  8
0
 62
4
 10
-4.43204171E+01
 20
1.42245753E+02
  0
VERTEX
  8
0
 62
4
 10
-4.40574147E+01
 20
1.42437685E+02
  0
VERTEX
  8
0
 62
4
 10
-4.38130018E+01
 20
1.42650687E+02
  0
VERTEX
  8
0
 62
4
 10
-4.35890387E+01
 20
1.42883137E+02
  0
VERTEX
  8
0
 62
4
 10
-4.33872298E+01
 20
1.43133267E+02
  0
VERTEX
  8
0
 62
4
 10
-4.32091110E+01
 20
1.43399174E+02
  0
VERTEX
  8
0
 62
4
 10
-4.30560380E+01
 20
1.43678832E+02
  0
VERTEX
  8
0
 62
4
 10
-4.29291756E+01
 20
1.43970115E+02
  0
VERTEX
  8
0
 62
4
 10
-4.28294894E+01
 20
1.44270805E+02
  0
VERTEX
  8
0
 62
4
 10
-4.27577381E+01
 20
1.44578614E+02
  0
VERTEX
  8
0
 62
4
 10
-4.27144677E+01
 20
1.44891199E+02
  0
VERTEX
  8
0
 62
4
 10
-4.27000076E+01
 20
1.45206181E+02
  0
VERTEX
  8
0
 62
4
 10
-4.27144677E+01
 20
1.45521163E+02
  0
VERTEX
  8
0
 62
4
 10
-4.27577381E+01
 20
1.45833748E+02
  0
VERTEX
  8
0
 62
4
 10
-4.28294894E+01
 20
1.46141557E+02
  0
VERTEX
  8
0
 62
4
 10
-4.29291756E+01
 20
1.46442247E+02
  0
VERTEX
  8
0
 62
4
 10
-4.30560380E+01
 20
1.46733530E+02
  0
VERTEX
  8
0
 62
4
 10
-4.32091110E+01
 20
1.47013188E+02
  0
VERTEX
  8
0
 62
4
 10
-4.33872298E+01
 20
1.47279095E+02
  0
VERTEX
  8
0
 62
4
 10
-4.35890387E+01
 20
1.47529225E+02
  0
VERTEX
  8
0
 62
4
 10
-4.38130018E+01
 20
1.47761675E+02
  0
VERTEX
  8
0
 62
4
 10
-4.40574147E+01
 20
1.47974677E+02
  0
VERTEX
  8
0
 62
4
 10
-4.43204171E+01
 20
1.48166609E+02
  0
VERTEX
  8
0
 62
4
 10
-4.46000076E+01
 20
1.48336010E+02
  0
VERTEX
  8
0
 62
4
 10
-4.48940582E+01
 20
1.48481591E+02
  0
VERTEX
  8
0
 62
4
 10
-4.52003310E+01
 20
1.48602244E+02
  0
VERTEX
  8
0
 62
4
 10
-4.55164952E+01
 20
1.48697051E+02
  0
VERTEX
  8
0
 62
4
 10
-4.58401445E+01
 20
1.48765291E+02
  0
VERTEX
  8
0
 62
4
 10
-4.61688158E+01
 20
1.48806443E+02
  0
VERTEX
  8
0
 62
4
 10
-4.65000076E+01
 20
1.48820196E+02
  0
VERTEX
  8
0
 62
4
 10
-4.68311994E+01
 20
1.48806443E+02
  0
VERTEX
  8
0
 62
4
 10
-4.71598707E+01
 20
1.48765291E+02
  0
VERTEX
  8
0
 62
4
 10
-4.74835200E+01
 20
1.48697051E+02
  0
VERTEX
  8
0
 62
4
 10
-4.77996842E+01
 20
1.48602244E+02
  0
VERTEX
  8
0
 62
4
 10
-4.81059570E+01
 20
1.48481591E+02
  0
VERTEX
  8
0
 62
4
 10
-4.84000076E+01
 20
1.48336010E+02
  0
VERTEX
  8
0
 62
4
 10
-4.86795981E+01
 20
1.48166609E+02
  0
VERTEX
  8
0
 62
4
 10
-4.89426005E+01
 20
1.47974677E+02
  0
VERTEX
  8
0
 62
4
 10
-4.91870134E+01
 20
1.47761675E+02
  0
VERTEX
  8
0
 62
4
 10
-4.94109765E+01
 20
1.47529225E+02
  0
VERTEX
  8
0
 62
4
 10
-4.96127854E+01
 20
1.47279095E+02
  0
VERTEX
  8
0
 62
4
 10
-4.97909042E+01
 20
1.47013188E+02
  0
VERTEX
  8
0
 62
4
 10
-4.99439772E+01
 20
1.46733530E+02
  0
VERTEX
  8
0
 62
4
 10
-5.00708396E+01
 20
1.46442247E+02
  0
VERTEX
  8
0
 62
4
 10
-5.01705258E+01
 20
1.46141557E+02
  0
VERTEX
  8
0
 62
4
 10
-5.02422771E+01
 20
1.45833748E+02
  0
VERTEX
  8
0
 62
4
 10
-5.02855475E+01
 20
1.45521163E+02
  0
VERTEX
  8
0
 62
4
 10
-5.03000076E+01
 20
1.45206181E+02
  0
SEQEND
  8
0
  0
LINE
  8
0
 62
4
 10
-5.03000077E+01
 20
1.44897164E+02
 11
-5.03000077E+01
 21
1.45206181E+02
  0
LINE
  8
0
 62
4
 10
-4.27000077E+01
 20
1.44897164E+02
 11
-4.27000077E+01
 21
1.45206181E+02
  0
POLYLINE
  8
0
 62
4
 66
1
  0
VERTEX
  8
0
 62
4
 10
-4.99000076E+01
 20
1.45206181E+02
  0
VERTEX
  8
0
 62
4
 10
-4.98863202E+01
 20
1.44916324E+02
  0
VERTEX
  8
0
 62
4
 10
-4.98453682E+01
 20
1.44628801E+02
  0
VERTEX
  8
0
 62
4
 10
-4.97774814E+01
 20
1.44345926E+02
  0
VERTEX
  8
0
 62
4
 10
-4.96832062E+01
 20
1.44069978E+02
  0
VERTEX
  8
0
 62
4
 10
-4.95633018E+01
 20
1.43803178E+02
  0
VERTEX
  8
0
 62
4
 10
-4.94187335E+01
 20
1.43547674E+02
  0
VERTEX
  8
0
 62
4
 10
-4.92506654E+01
 20
1.43305523E+02
  0
VERTEX
  8
0
 62
4
 10
-4.90604506E+01
 20
1.43078676E+02
  0
VERTEX
  8
0
 62
4
 10
-4.88496206E+01
 20
1.42868957E+02
  0
VERTEX
  8
0
 62
4
 10
-4.86198730E+01
 20
1.42678057E+02
  0
VERTEX
  8
0
 62
4
 10
-4.83730574E+01
 20
1.42507511E+02
  0
VERTEX
  8
0
 62
4
 10
-4.81111611E+01
 20
1.42358694E+02
  0
VERTEX
  8
0
 62
4
 10
-4.78362927E+01
 20
1.42232803E+02
  0
VERTEX
  8
0
 62
4
 10
-4.75506654E+01
 20
1.42130852E+02
  0
VERTEX
  8
0
 62
4
 10
-4.72565788E+01
 20
1.42053662E+02
  0
VERTEX
  8
0
 62
4
 10
-4.69564007E+01
 20
1.42001854E+02
  0
VERTEX
  8
0
 62
4
 10
-4.66525480E+01
 20
1.41975845E+02
  0
VERTEX
  8
0
 62
4
 10
-4.63474672E+01
 20
1.41975845E+02
  0
VERTEX
  8
0
 62
4
 10
-4.60436145E+01
 20
1.42001854E+02
  0
VERTEX
  8
0
 62
4
 10
-4.57434364E+01
 20
1.42053662E+02
  0
VERTEX
  8
0
 62
4
 10
-4.54493498E+01
 20
1.42130852E+02
  0
VERTEX
  8
0
 62
4
 10
-4.51637225E+01
 20
1.42232803E+02
  0
VERTEX
  8
0
 62
4
 10
-4.48888542E+01
 20
1.42358694E+02
  0
VERTEX
  8
0
 62
4
 10
-4.46269579E+01
 20
1.42507511E+02
  0
VERTEX
  8
0
 62
4
 10
-4.43801423E+01
 20
1.42678057E+02
  0
VERTEX
  8
0
 62
4
 10
-4.41503946E+01
 20
1.42868957E+02
  0
VERTEX
  8
0
 62
4
 10
-4.39395646E+01
 20
1.43078675E+02
  0
VERTEX
  8
0
 62
4
 10
-4.37493498E+01
 20
1.43305523E+02
  0
VERTEX
  8
0
 62
4
 10
-4.35812817E+01
 20
1.43547674E+02
  0
VERTEX
  8
0
 62
4
 10
-4.34367134E+01
 20
1.43803178E+02
  0
VERTEX
  8
0
 62
4
 10
-4.33168090E+01
 20
1.44069978E+02
  0
VERTEX
  8
0
 62
4
 10
-4.32225339E+01
 20
1.44345926E+02
  0
VERTEX
  8
0
 62
4
 10
-4.31546470E+01
 20
1.44628801E+02
  0
VERTEX
  8
0
 62
4
 10
-4.31136950E+01
 20
1.44916324E+02
  0
VERTEX
  8
0
 62
4
 10
-4.31000076E+01
 20
1.45206181E+02
  0
SEQEND
  8
0
  0
LINE
  8
0
 62
4
 10
-4.31000076E+01
 20
1.45604562E+02
 11
-4.31000076E+01
 21
1.45206181E+02
  0
LINE
  8
0
 62
4
 10
-4.99000076E+01
 20
1.45206181E+02
 11
-4.99000076E+01
 21
1.45604562E+02
  0
POLYLINE
  8
0
 62
4
 66
1
  0
VERTEX
  8
0
 62
4
 10
-4.99000076E+01
 20
1.45604562E+02
  0
VERTEX
  8
0
 62
4
 10
-4.98870696E+01
 20
1.45322736E+02
  0
VERTEX
  8
0
 62
4
 10
-4.98483540E+01
 20
1.45043055E+02
  0
VERTEX
  8
0
 62
4
 10
-4.97841554E+01
 20
1.44767647E+02
  0
VERTEX
  8
0
 62
4
 10
-4.96949625E+01
 20
1.44498608E+02
  0
VERTEX
  8
0
 62
4
 10
-4.95814541E+01
 20
1.44237987E+02
  0
VERTEX
  8
0
 62
4
 10
-4.94444940E+01
 20
1.43987766E+02
  0
VERTEX
  8
0
 62
4
 10
-4.92851246E+01
 20
1.43749850E+02
  0
VERTEX
  8
0
 62
4
 10
-4.91045587E+01
 20
1.43526049E+02
  0
VERTEX
  8
0
 62
4
 10
-4.89041707E+01
 20
1.43318067E+02
  0
VERTEX
  8
0
 62
4
 10
-4.86854855E+01
 20
1.43127487E+02
  0
VERTEX
  8
0
 62
4
 10
-4.84501675E+01
 20
1.42955758E+02
  0
VERTEX
  8
0
 62
4
 10
-4.82000076E+01
 20
1.42804189E+02
  0
VERTEX
  8
0
 62
4
 10
-4.79369097E+01
 20
1.42673932E+02
  0
VERTEX
  8
0
 62
4
 10
-4.76628761E+01
 20
1.42565979E+02
  0
VERTEX
  8
0
 62
4
 10
-4.73799924E+01
 20
1.42481152E+02
  0
VERTEX
  8
0
 62
4
 10
-4.70904114E+01
 20
1.42420095E+02
  0
VERTEX
  8
0
 62
4
 10
-4.67963371E+01
 20
1.42383275E+02
  0
VERTEX
  8
0
 62
4
 10
-4.65000076E+01
 20
1.42370970E+02
  0
VERTEX
  8
0
 62
4
 10
-4.62036781E+01
 20
1.42383275E+02
  0
VERTEX
  8
0
 62
4
 10
-4.59096038E+01
 20
1.42420095E+02
  0
VERTEX
  8
0
 62
4
 10
-4.56200228E+01
 20
1.42481152E+02
  0
VERTEX
  8
0
 62
4
 10
-4.53371391E+01
 20
1.42565979E+02
  0
VERTEX
  8
0
 62
4
 10
-4.50631055E+01
 20
1.42673932E+02
  0
VERTEX
  8
0
 62
4
 10
-4.48000076E+01
 20
1.42804189E+02
  0
VERTEX
  8
0
 62
4
 10
-4.45498477E+01
 20
1.42955758E+02
  0
VERTEX
  8
0
 62
4
 10
-4.43145297E+01
 20
1.43127487E+02
  0
VERTEX
  8
0
 62
4
 10
-4.40958445E+01
 20
1.43318067E+02
  0
VERTEX
  8
0
 62
4
 10
-4.38954565E+01
 20
1.43526049E+02
  0
VERTEX
  8
0
 62
4
 10
-4.37148906E+01
 20
1.43749850E+02
  0
VERTEX
  8
0
 62
4
 10
-4.35555212E+01
 20
1.43987766E+02
  0
VERTEX
  8
0
 62
4
 10
-4.34185611E+01
 20
1.44237987E+02
  0
VERTEX
  8
0
 62
4
 10
-4.33050527E+01
 20
1.44498608E+02
  0
VERTEX
  8
0
 62
4
 10
-4.32158598E+01
 20
1.44767647E+02
  0
VERTEX
  8
0
 62
4
 10
-4.31516612E+01
 20
1.45043055E+02
  0
VERTEX
  8
0
 62
4
 10
-4.31129456E+01
 20
1.45322736E+02
  0
VERTEX
  8
0
 62
4
 10
-4.31000076E+01
 20
1.45604562E+02
  0
VERTEX
  8
0
 62
4
 10
-4.31129456E+01
 20
1.45886388E+02
  0
VERTEX
  8
0
 62
4
 10
-4.31516612E+01
 20
1.46166069E+02
  0
VERTEX
  8
0
 62
4
 10
-4.32158598E+01
 20
1.46441477E+02
  0
VERTEX
  8
0
 62
4
 10
-4.33050527E+01
 20
1.46710516E+02
  0
VERTEX
  8
0
 62
4
 10
-4.34185611E+01
 20
1.46971137E+02
  0
VERTEX
  8
0
 62
4
 10
-4.35555212E+01
 20
1.47221358E+02
  0
VERTEX
  8
0
 62
4
 10
-4.37148906E+01
 20
1.47459274E+02
  0
VERTEX
  8
0
 62
4
 10
-4.38954565E+01
 20
1.47683075E+02
  0
VERTEX
  8
0
 62
4
 10
-4.40958445E+01
 20
1.47891057E+02
  0
VERTEX
  8
0
 62
4
 10
-4.43145297E+01
 20
1.48081637E+02
  0
VERTEX
  8
0
 62
4
 10
-4.45498477E+01
 20
1.48253366E+02
  0
VERTEX
  8
0
 62
4
 10
-4.48000076E+01
 20
1.48404935E+02
  0
VERTEX
  8
0
 62
4
 10
-4.50631055E+01
 20
1.48535192E+02
  0
VERTEX
  8
0
 62
4
 10
-4.53371391E+01
 20
1.48643145E+02
  0
VERTEX
  8
0
 62
4
 10
-4.56200228E+01
 20
1.48727972E+02
  0
VERTEX
  8
0
 62
4
 10
-4.59096038E+01
 20
1.48789029E+02
  0
VERTEX
  8
0
 62
4
 10
-4.62036781E+01
 20
1.48825849E+02
  0
VERTEX
  8
0
 62
4
 10
-4.65000076E+01
 20
1.48838154E+02
  0
VERTEX
  8
0
 62
4
 10
-4.67963371E+01
 20
1.48825849E+02
  0
VERTEX
  8
0
 62
4
 10
-4.70904114E+01
 20
1.48789029E+02
  0
VERTEX
  8
0
 62
4
 10
-4.73799924E+01
 20
1.48727972E+02
  0
VERTEX
  8
0
 62
4
 10
-4.76628761E+01
 20
1.48643145E+02
  0
VERTEX
  8
0
 62
4
 10
-4.79369097E+01
 20
1.48535192E+02
  0
VERTEX
  8
0
 62
4
 10
-4.82000076E+01
 20
1.48404935E+02
  0
VERTEX
  8
0
 62
4
 10
-4.84501675E+01
 20
1.48253366E+02
  0
VERTEX
  8
0
 62
4
 10
-4.86854855E+01
 20
1.48081637E+02
  0
VERTEX
  8
0
 62
4
 10
-4.89041707E+01
 20
1.47891057E+02
  0
VERTEX
  8
0
 62
4
 10
-4.91045587E+01
 20
1.47683075E+02
  0
VERTEX
  8
0
 62
4
 10
-4.92851246E+01
 20
1.47459274E+02
  0
VERTEX
  8
0
 62
4
 10
-4.94444940E+01
 20
1.47221358E+02
  0
VERTEX
  8
0
 62
4
 10
-4.95814541E+01
 20
1.46971137E+02
  0
VERTEX
  8
0
 62
4
 10
-4.96949625E+01
 20
1.46710516E+02
  0
VERTEX
  8
0
 62
4
 10
-4.97841554E+01
 20
1.46441477E+02
  0
VERTEX
  8
0
 62
4
 10
-4.98483540E+01
 20
1.46166069E+02
  0
VERTEX
  8
0
 62
4
 10
-4.98870696E+01
 20
1.45886388E+02
  0
VERTEX
  8
0
 62
4
 10
-4.99000076E+01
 20
1.45604562E+02
  0
SEQEND
  8
0
  0
ARC
  8
0
 62
4
 10
2.23145117E+01
 20
7.35510205E+01
 40
9.98837386E+01
 50
1.32163454E+02
 51
1.34962547E+02
  0
ARC
  8
0
 62
4
 10
-1.15314527E+02
 20
7.35510205E+01
 40
9.98837386E+01
 50
4.50374523E+01
 51
4.78365464E+01
  0
LINE
  8
0
 62
4
 10
-5.07053754E+01
 20
1.39285930E+02
 11
-3.90000076E+01
 21
1.39285930E+02
  0
LINE
  8
0
 62
4
 10
-5.10897047E+01
 20
1.38872205E+02
 11
-4.55000076E+01
 21
1.38872205E+02
  0
LINE
  8
0
 62
7
 10
-1.00000229E+01
 20
1.34499969E+02
 11
-8.00000076E+01
 21
1.34499969E+02
  0
LINE
  8
0
 62
7
 10
-1.00000229E+01
 20
1.32099976E+02
 11
-8.00000076E+01
 21
1.32099976E+02
  0
LINE
  8
0
 62
7
 10
-1.00000229E+01
 20
1.24899963E+02
 11
-8.00000076E+01
 21
1.24899963E+02
  0
LINE
  8
0
 62
4
 10
2.15000076E+01
 20
1.37775942E+02
 11
2.15000076E+01
 21
1.34921875E+02
  0
LINE
  8
0
 62
4
 10
2.00000076E+01
 20
1.38872205E+02
 11
2.15000076E+01
 21
1.37775942E+02
  0
LINE
  8
0
 62
4
 10
1.99999771E+01
 20
1.37636138E+02
 11
2.15000076E+01
 21
1.37076018E+02
  0
LINE
  8
0
 62
4
 10
2.15000076E+01
 20
1.34921875E+02
 11
1.99999771E+01
 21
1.33831889E+02
  0
LINE
  8
0
  6
DASHED
 62
7
 10
-3.15000114E+02
 20
1.37500137E+02
 11
-3.05000023E+02
 21
1.37500137E+02
  0
LINE
  8
0
 62
7
 10
-3.35364266E+02
 20
1.15278120E+02
 11
-3.42726113E+02
 21
1.22639967E+02
  0
LINE
  8
0
 62
7
 10
-3.36778566E+02
 20
8.71360759E+01
 11
-3.44140403E+02
 21
7.97742395E+01
  0
LINE
  8
0
 62
7
 10
-3.35000084E+02
 20
1.35000031E+02
 11
-3.08999901E+02
 21
1.35000031E+02
  0
LINE
  8
0
 62
7
 10
-3.23000023E+02
 20
1.34000000E+02
 11
-3.23000023E+02
 21
1.20399750E+02
  0
LINE
  8
0
 62
7
 10
-3.55500053E+02
 20
9.94999695E+01
 11
-3.41899803E+02
 21
9.94999695E+01
  0
LINE
  8
0
 62
7
 10
-3.35364320E+02
 20
8.57218083E+01
 11
-3.42726168E+02
 21
7.83599611E+01
  0
LINE
  8
0
 62
7
 10
-3.36778468E+02
 20
1.13863961E+02
 11
-3.44140316E+02
 21
1.21225808E+02
  0
LINE
  8
0
 62
7
 10
-3.21000023E+02
 20
1.34000015E+02
 11
-3.21000023E+02
 21
1.20399750E+02
  0
LINE
  8
0
 62
7
 10
-3.59000084E+02
 20
6.69999695E+01
 11
-3.59000084E+02
 21
1.34000000E+02
  0
LINE
  8
0
 62
7
 10
-3.55499992E+02
 20
6.35000000E+01
 11
-2.88500023E+02
 21
6.35000000E+01
  0
LINE
  8
0
 62
7
 10
-3.56500084E+02
 20
8.74998779E+01
 11
-3.56500084E+02
 21
1.13500076E+02
  0
LINE
  8
0
 62
7
 10
-3.55499992E+02
 20
1.01499969E+02
 11
-3.41899803E+02
 21
1.01499969E+02
  0
LINE
  8
0
 62
7
 10
-3.23000053E+02
 20
6.69999695E+01
 11
-3.23000053E+02
 21
8.06002502E+01
  0
LINE
  8
0
 62
7
 10
-3.59500084E+02
 20
6.69999695E+01
 11
-3.59500084E+02
 21
1.34000000E+02
  0
LINE
  8
0
  6
CENTER
 62
2
 10
-3.50000145E+02
 20
6.10016174E+01
 11
-3.50000145E+02
 21
8.35345917E+01
  0
LINE
  8
0
  6
CENTER
 62
2
 10
-3.50000084E+02
 20
1.17270401E+02
 11
-3.50000084E+02
 21
1.40057983E+02
  0
LINE
  8
0
  6
CENTER
 62
2
 10
-3.21999992E+02
 20
1.41967545E+02
 11
-3.21999992E+02
 21
5.94739532E+01
  0
LINE
  8
0
 62
7
 10
-3.08636099E+02
 20
1.15278619E+02
 11
-3.01274283E+02
 21
1.22640433E+02
  0
LINE
  8
0
 62
7
 10
-3.07221886E+02
 20
1.13864405E+02
 11
-2.99860037E+02
 21
1.21226251E+02
  0
LINE
  8
0
 62
7
 10
-3.55500053E+02
 20
1.37500031E+02
 11
-2.88500023E+02
 21
1.37500031E+02
  0
LINE
  8
0
 62
7
 10
-2.87499992E+02
 20
8.74998779E+01
 11
-2.87499992E+02
 21
1.13500076E+02
  0
LINE
  8
0
 62
7
 10
-2.88500023E+02
 20
1.01499985E+02
 11
-3.02100304E+02
 21
1.01499985E+02
  0
LINE
  8
0
  6
CENTER
 62
2
 10
-2.93999931E+02
 20
1.40185287E+02
 11
-2.93999931E+02
 21
1.17270401E+02
  0
LINE
  8
0
 62
7
 10
-2.84999992E+02
 20
6.70000000E+01
 11
-2.84999992E+02
 21
1.34000015E+02
  0
LINE
  8
0
  6
CENTER
 62
2
 10
-2.81232292E+02
 20
1.00500000E+02
 11
-3.64477715E+02
 21
1.00500000E+02
  0
LINE
  8
0
  6
CENTER
 62
2
 10
-3.29999992E+02
 20
1.40185287E+02
 11
-3.29999992E+02
 21
1.28300018E+02
  0
LINE
  8
0
  6
CENTER
 62
2
 10
-3.62045097E+02
 20
1.28500061E+02
 11
-3.39894035E+02
 21
1.28500061E+02
  0
LINE
  8
0
 62
7
 10
-3.21000053E+02
 20
6.70000000E+01
 11
-3.21000053E+02
 21
8.06002502E+01
  0
LINE
  8
0
 62
7
 10
-3.07221706E+02
 20
8.71357693E+01
 11
-2.99859881E+02
 21
7.97739424E+01
  0
LINE
  8
0
 62
7
 10
-3.08636017E+02
 20
8.57215882E+01
 11
-3.01274171E+02
 21
7.83597398E+01
  0
LINE
  8
0
 62
7
 10
-3.35000114E+02
 20
6.59999924E+01
 11
-3.08999931E+02
 21
6.59999924E+01
  0
LINE
  8
0
 62
7
 10
-2.88500023E+02
 20
9.95000000E+01
 11
-3.02100304E+02
 21
9.95000000E+01
  0
LINE
  8
0
 62
7
 10
-2.84499992E+02
 20
6.70000000E+01
 11
-2.84499992E+02
 21
1.34000015E+02
  0
LINE
  8
0
 62
7
 10
-3.55499992E+02
 20
6.30000000E+01
 11
-2.88500023E+02
 21
6.30000000E+01
  0
LINE
  8
0
  6
CENTER
 62
2
 10
-2.81970299E+02
 20
7.24999695E+01
 11
-3.04503258E+02
 21
7.24999695E+01
  0
LINE
  8
0
 62
7
 10
-3.46999992E+02
 20
1.38000031E+02
 11
-3.46999992E+02
 21
1.37500031E+02
  0
LINE
  8
0
 62
7
 10
-2.96999992E+02
 20
1.38000031E+02
 11
-2.96999992E+02
 21
1.37500031E+02
  0
LINE
  8
0
 62
7
 10
-3.46999992E+02
 20
6.35000000E+01
 11
-3.46999992E+02
 21
6.30000000E+01
  0
LINE
  8
0
 62
7
 10
-2.96999992E+02
 20
6.35000000E+01
 11
-2.96999992E+02
 21
6.30000000E+01
  0
LINE
  8
0
 62
7
 10
-2.88500023E+02
 20
1.38000031E+02
 11
-3.55500055E+02
 21
1.38000031E+02
  0
LINE
  8
0
 62
7
 10
-3.39500084E+02
 20
1.30500214E+02
 11
-3.40763634E+02
 21
1.30500214E+02
  0
LINE
  8
0
 62
7
 10
-3.52000267E+02
 20
1.18000061E+02
 11
-3.52000267E+02
 21
1.19263657E+02
  0
LINE
  8
0
 62
7
 10
-3.04499901E+02
 20
1.30500244E+02
 11
-3.03236473E+02
 21
1.30500244E+02
  0
LINE
  8
0
 62
7
 10
-2.91999809E+02
 20
1.18000061E+02
 11
-2.91999809E+02
 21
1.19263794E+02
  0
LINE
  8
0
 62
7
 10
-3.04499931E+02
 20
7.04998093E+01
 11
-3.03236198E+02
 21
7.04998093E+01
  0
LINE
  8
0
 62
7
 10
-2.91999809E+02
 20
8.29998779E+01
 11
-2.91999809E+02
 21
8.17363129E+01
  0
LINE
  8
0
 62
7
 10
-3.52000267E+02
 20
8.29998779E+01
 11
-3.52000267E+02
 21
8.17364655E+01
  0
LINE
  8
0
 62
7
 10
-3.39500114E+02
 20
7.04997940E+01
 11
-3.40763664E+02
 21
7.04997940E+01
  0
LINE
  8
0
  6
CENTER
 62
2
 10
-3.39766685E+02
 20
7.24999695E+01
 11
-3.62045097E+02
 21
7.24999695E+01
  0
LINE
  8
0
  6
CENTER
 62
2
 10
-3.04630547E+02
 20
1.28500061E+02
 11
-2.82097588E+02
 21
1.28500061E+02
  0
LINE
  8
0
  6
CENTER
 62
2
 10
-2.94000023E+02
 20
8.25604782E+01
 11
-2.94000023E+02
 21
6.10041046E+01
  0
CIRCLE
  8
0
 62
7
 10
-3.50000084E+02
 20
1.28500061E+02
 40
6.50000048E+00
  0
ARC
  8
0
 62
7
 10
-3.44847282E+02
 20
1.20518860E+02
 40
1.00000000E+00
 50
4.49999910E+01
 51
1.22846171E+02
  0
ARC
  8
0
 62
7
 10
-3.42018883E+02
 20
1.23347290E+02
 40
1.00000000E+00
 50
1.47153243E+02
 51
2.24999955E+02
  0
CIRCLE
  8
0
 62
7
 10
-3.50000084E+02
 20
7.24999695E+01
 40
6.50000048E+00
  0
ARC
  8
0
 62
7
 10
-3.37485497E+02
 20
1.13157028E+02
 40
1.00000000E+00
 50
3.20738994E+02
 51
4.49999910E+01
  0
ARC
  8
0
 62
7
 10
-3.34657066E+02
 20
1.15985458E+02
 40
1.00000000E+00
 50
2.24999972E+02
 51
3.09260983E+02
  0
ARC
  8
0
 62
7
 10
-3.24000023E+02
 20
1.20399750E+02
 40
1.00000000E+00
 50
2.75739453E+02
 51
3.59999959E+02
  0
ARC
  8
0
 62
7
 10
-3.41899803E+02
 20
9.85000000E+01
 40
1.00000000E+00
 50
5.73948995E+00
 51
9.00000369E+01
  0
ARC
  8
0
 62
7
 10
-3.55500053E+02
 20
9.85000000E+01
 40
1.00000000E+00
 50
9.00000369E+01
 51
1.80000019E+02
  0
ARC
  8
0
 62
7
 10
-2.93999931E+02
 20
1.28500031E+02
 40
8.50000000E+00
 50
1.73823315E+02
 51
2.76176459E+02
  0
ARC
  8
0
 62
7
 10
-3.37485497E+02
 20
8.78429565E+01
 40
1.00000000E+00
 50
3.14999968E+02
 51
3.92609655E+01
  0
ARC
  8
0
 62
7
 10
-3.34657066E+02
 20
8.50145264E+01
 40
1.00000000E+00
 50
5.07389892E+01
 51
1.34999987E+02
  0
ARC
  8
0
 62
7
 10
-3.42018883E+02
 20
7.76526947E+01
 40
1.00000000E+00
 50
1.34999987E+02
 51
2.12846166E+02
  0
ARC
  8
0
 62
7
 10
-3.44847282E+02
 20
8.04811172E+01
 40
1.00000000E+00
 50
2.37153256E+02
 51
3.14999968E+02
  0
ARC
  8
0
 62
7
 10
-3.55500053E+02
 20
1.34000000E+02
 40
3.50000000E+00
 50
9.00000231E+01
 51
1.79999977E+02
  0
ARC
  8
0
 62
7
 10
-3.24000023E+02
 20
1.34000000E+02
 40
1.00000000E+00
 50
3.59999959E+02
 51
8.99999956E+01
  0
ARC
  8
0
 62
7
 10
-3.19999992E+02
 20
1.20399750E+02
 40
1.00000000E+00
 50
1.79999964E+02
 51
2.64260484E+02
  0
ARC
  8
0
 62
7
 10
-3.19999992E+02
 20
1.34000015E+02
 40
1.00000000E+00
 50
8.99999818E+01
 51
1.79999964E+02
  0
ARC
  8
0
 62
7
 10
-3.55500023E+02
 20
6.69999695E+01
 40
3.50000000E+00
 50
1.80000036E+02
 51
2.69999991E+02
  0
ARC
  8
0
 62
7
 10
-3.55500023E+02
 20
1.02500000E+02
 40
1.00000000E+00
 50
1.80000008E+02
 51
2.70000045E+02
  0
ARC
  8
0
 62
7
 10
-3.41899803E+02
 20
1.02500000E+02
 40
1.00000000E+00
 50
2.70000045E+02
 51
3.54260551E+02
  0
ARC
  8
0
 62
7
 10
-3.24000023E+02
 20
8.06002502E+01
 40
1.00000000E+00
 50
3.59999973E+02
 51
8.42604992E+01
  0
ARC
  8
0
 62
7
 10
-3.24000023E+02
 20
6.69999695E+01
 40
1.00000000E+00
 50
2.69999991E+02
 51
3.59999973E+02
  0
ARC
  8
0
 62
7
 10
-3.55500053E+02
 20
1.34000000E+02
 40
4.00000000E+00
 50
9.00000231E+01
 51
1.79999977E+02
  0
ARC
  8
0
 62
7
 10
-3.55500023E+02
 20
6.69999695E+01
 40
4.00000000E+00
 50
1.80000036E+02
 51
2.69999991E+02
  0
CIRCLE
  8
0
 62
7
 10
-3.50000084E+02
 20
7.24999695E+01
 40
6.00000000E+00
  0
CIRCLE
  8
0
 62
7
 10
-3.50000084E+02
 20
1.28500061E+02
 40
6.00000000E+00
  0
CIRCLE
  8
0
 62
7
 10
-2.93999931E+02
 20
1.28500031E+02
 40
6.50000048E+00
  0
ARC
  8
0
 62
7
 10
-3.06514549E+02
 20
1.13157059E+02
 40
1.00000000E+00
 50
1.34999959E+02
 51
2.19260957E+02
  0
ARC
  8
0
 62
7
 10
-3.09342949E+02
 20
1.15985474E+02
 40
1.00000000E+00
 50
2.30738998E+02
 51
3.14999995E+02
  0
ARC
  8
0
 62
7
 10
-3.01981163E+02
 20
1.23347305E+02
 40
1.00000000E+00
 50
3.14999995E+02
 51
3.28461612E+01
  0
ARC
  8
0
 62
7
 10
-2.99152702E+02
 20
1.20518890E+02
 40
1.00000000E+00
 50
5.71532472E+01
 51
1.34999959E+02
  0
ARC
  8
0
 62
7
 10
-2.88500023E+02
 20
1.34000015E+02
 40
3.50000000E+00
 50
0.00000000E+00
 51
8.99999818E+01
  0
ARC
  8
0
 62
7
 10
-2.88500023E+02
 20
1.02499992E+02
 40
1.00000000E+00
 50
2.69999963E+02
 51
0.00000000E+00
  0
ARC
  8
0
 62
7
 10
-3.02100304E+02
 20
1.02499992E+02
 40
1.00000000E+00
 50
1.85739458E+02
 51
2.69999963E+02
  0
ARC
  8
0
 62
7
 10
-2.88500023E+02
 20
1.34000015E+02
 40
4.00000000E+00
 50
0.00000000E+00
 51
8.99999818E+01
  0
CIRCLE
  8
0
 62
7
 10
-2.93999931E+02
 20
1.28500031E+02
 40
6.00000000E+00
  0
ARC
  8
0
 62
7
 10
-3.04499901E+02
 20
1.34000153E+02
 40
3.50000000E+00
 50
1.80001511E+02
 51
2.70000018E+02
  0
ARC
  8
0
 62
7
 10
-3.08999901E+02
 20
1.34000015E+02
 40
1.00000000E+00
 50
1.77584919E-03
 51
8.99999549E+01
  0
ARC
  8
0
 62
7
 10
-3.03444817E+02
 20
1.29522171E+02
 40
1.00000000E+00
 50
3.53822790E+02
 51
8.43256382E+01
  0
ARC
  8
0
 62
7
 10
-2.88499870E+02
 20
1.18000061E+02
 40
3.50000000E+00
 50
1.79999977E+02
 51
2.69999017E+02
  0
ARC
  8
0
 62
7
 10
-2.92977867E+02
 20
1.19055191E+02
 40
1.00000000E+00
 50
5.67452116E+00
 51
9.61763036E+01
  0
ARC
  8
0
 62
7
 10
-2.88500023E+02
 20
1.13500076E+02
 40
1.00000000E+00
 50
3.59999986E+02
 51
8.99982469E+01
  0
ARC
  8
0
 62
7
 10
-3.55500053E+02
 20
8.74998779E+01
 40
1.00000000E+00
 50
1.80000036E+02
 51
2.69998235E+02
  0
ARC
  8
0
 62
7
 10
-3.55500175E+02
 20
8.29998703E+01
 40
3.50000000E+00
 50
0.00000000E+00
 51
8.99984996E+01
  0
ARC
  8
0
 62
7
 10
-3.51022209E+02
 20
8.19448013E+01
 40
1.00000000E+00
 50
1.85674380E+02
 51
2.76177221E+02
  0
ARC
  8
0
 62
7
 10
-3.50000084E+02
 20
7.24999313E+01
 40
8.50000000E+00
 50
3.53823551E+02
 51
9.61766726E+01
  0
ARC
  8
0
 62
7
 10
-3.40555199E+02
 20
1.29522171E+02
 40
1.00000000E+00
 50
9.56745100E+01
 51
1.86176313E+02
  0
ARC
  8
0
 62
7
 10
-3.39500084E+02
 20
1.34000122E+02
 40
3.50000000E+00
 50
2.70000018E+02
 51
3.59999001E+02
  0
ARC
  8
0
 62
7
 10
-3.35000084E+02
 20
1.34000015E+02
 40
1.00000000E+00
 50
8.99999818E+01
 51
1.79998270E+02
  0
ARC
  8
0
 62
7
 10
-3.35000145E+02
 20
6.69999695E+01
 40
1.00000000E+00
 50
1.80001785E+02
 51
2.69999963E+02
  0
ARC
  8
0
 62
7
 10
-3.39500114E+02
 20
6.69998474E+01
 40
3.50000000E+00
 50
1.49581143E-03
 51
8.99999818E+01
  0
ARC
  8
0
 62
7
 10
-3.40555260E+02
 20
7.14778137E+01
 40
1.00000000E+00
 50
1.73822768E+02
 51
2.64325616E+02
  0
ARC
  8
0
 62
7
 10
-3.50000084E+02
 20
1.28500031E+02
 40
8.50000000E+00
 50
2.63823553E+02
 51
6.17667669E+00
  0
ARC
  8
0
 62
7
 10
-3.51022209E+02
 20
1.19055191E+02
 40
1.00000000E+00
 50
8.38236876E+01
 51
1.74325470E+02
  0
ARC
  8
0
 62
7
 10
-3.55500145E+02
 20
1.18000061E+02
 40
3.50000000E+00
 50
2.70001002E+02
 51
0.00000000E+00
  0
ARC
  8
0
 62
7
 10
-3.55500053E+02
 20
1.13500076E+02
 40
1.00000000E+00
 50
9.00017305E+01
 51
1.80000005E+02
  0
ARC
  8
0
 62
7
 10
-3.04499962E+02
 20
6.69998856E+01
 40
3.50000000E+00
 50
8.99999818E+01
 51
1.79998994E+02
  0
ARC
  8
0
 62
7
 10
-3.08999931E+02
 20
6.69999695E+01
 40
1.00000000E+00
 50
2.70000018E+02
 51
3.59998251E+02
  0
ARC
  8
0
 62
7
 10
-3.19999992E+02
 20
6.70000000E+01
 40
1.00000000E+00
 50
1.79999951E+02
 51
2.70000001E+02
  0
ARC
  8
0
 62
7
 10
-3.19999992E+02
 20
8.06002502E+01
 40
1.00000000E+00
 50
9.57394445E+01
 51
1.79999951E+02
  0
CIRCLE
  8
0
 62
7
 10
-3.21999992E+02
 20
1.00500000E+02
 40
1.75294495E+01
  0
CIRCLE
  8
0
 62
7
 10
-3.21999992E+02
 20
1.00500000E+02
 40
1.90000000E+01
  0
CIRCLE
  8
0
 62
7
 10
-2.94000023E+02
 20
7.24999313E+01
 40
6.50000048E+00
  0
ARC
  8
0
 62
7
 10
-3.09342949E+02
 20
8.50145416E+01
 40
1.00000000E+00
 50
4.49999637E+01
 51
1.29260961E+02
  0
ARC
  8
0
 62
7
 10
-3.06514549E+02
 20
8.78429718E+01
 40
1.00000000E+00
 50
1.40738985E+02
 51
2.24999982E+02
  0
ARC
  8
0
 62
7
 10
-2.99152702E+02
 20
8.04811401E+01
 40
1.00000000E+00
 50
2.25000000E+02
 51
3.02846179E+02
  0
ARC
  8
0
 62
7
 10
-3.01981163E+02
 20
7.76527100E+01
 40
1.00000000E+00
 50
3.27153252E+02
 51
4.49999637E+01
  0
ARC
  8
0
 62
7
 10
-2.88500023E+02
 20
6.70000000E+01
 40
3.50000000E+00
 50
2.70000018E+02
 51
3.59999986E+02
  0
ARC
  8
0
 62
7
 10
-3.02100304E+02
 20
9.85000000E+01
 40
1.00000000E+00
 50
8.99999681E+01
 51
1.74260502E+02
  0
ARC
  8
0
 62
7
 10
-2.88500023E+02
 20
9.85000000E+01
 40
1.00000000E+00
 50
3.59999986E+02
 51
8.99999681E+01
  0
ARC
  8
0
 62
7
 10
-2.88500023E+02
 20
6.70000000E+01
 40
4.00000000E+00
 50
2.70000018E+02
 51
3.59999986E+02
  0
CIRCLE
  8
0
 62
7
 10
-2.94000023E+02
 20
7.24999313E+01
 40
6.00000000E+00
  0
ARC
  8
0
 62
7
 10
-2.88500023E+02
 20
8.74998779E+01
 40
1.00000000E+00
 50
2.70001780E+02
 51
3.59999959E+02
  0
ARC
  8
0
 62
7
 10
-2.88499870E+02
 20
8.29998703E+01
 40
3.50000000E+00
 50
9.00014916E+01
 51
1.79999964E+02
  0
ARC
  8
0
 62
7
 10
-2.92977867E+02
 20
8.19448013E+01
 40
1.00000000E+00
 50
2.63822795E+02
 51
3.54325643E+02
  0
ARC
  8
0
 62
7
 10
-2.94000023E+02
 20
7.24999313E+01
 40
8.50000000E+00
 50
8.38233192E+01
 51
1.86176449E+02
  0
ARC
  8
0
 62
7
 10
-3.03444817E+02
 20
7.14778137E+01
 40
1.00000000E+00
 50
2.75674525E+02
 51
6.17630782E+00
  0
CIRCLE
  8
0
 62
2
 10
-3.50000084E+02
 20
1.28500061E+02
 40
4.00000000E+00
  0
CIRCLE
  8
0
 62
2
 10
-2.93999931E+02
 20
1.28500061E+02
 40
4.00000000E+00
  0
CIRCLE
  8
0
 62
2
 10
-2.94000023E+02
 20
7.24999695E+01
 40
4.00000000E+00
  0
CIRCLE
  8
0
 62
2
 10
-3.50000145E+02
 20
7.24999695E+01
 40
4.00000000E+00
  0
CIRCLE
  8
0
 62
7
 10
-3.50000145E+02
 20
7.24999695E+01
 40
3.32000017E+00
  0
CIRCLE
  8
0
 62
7
 10
-3.50000084E+02
 20
1.28500061E+02
 40
3.32000017E+00
  0
CIRCLE
  8
0
 62
7
 10
-2.93999931E+02
 20
1.28500061E+02
 40
3.32000017E+00
  0
CIRCLE
  8
0
 62
7
 10
-2.94000023E+02
 20
7.24999695E+01
 40
3.32000017E+00
  0
LINE
  8
0
 62
4
 10
-3.08499992E+02
 20
1.08294229E+02
 11
-3.21999992E+02
 21
1.16088457E+02
  0
LINE
  8
0
 62
4
 10
-3.08499992E+02
 20
9.27057714E+01
 11
-3.08499992E+02
 21
1.08294229E+02
  0
LINE
  8
0
 62
4
 10
-3.21999992E+02
 20
8.49115427E+01
 11
-3.08499992E+02
 21
9.27057714E+01
  0
LINE
  8
0
 62
4
 10
-3.35499992E+02
 20
9.27057714E+01
 11
-3.21999992E+02
 21
8.49115427E+01
  0
LINE
  8
0
 62
4
 10
-3.35499992E+02
 20
1.08294229E+02
 11
-3.35499992E+02
 21
9.27057714E+01
  0
LINE
  8
0
 62
4
 10
-3.21999992E+02
 20
1.16088457E+02
 11
-3.35499992E+02
 21
1.08294229E+02
  0
CIRCLE
  8
0
 62
4
 10
-3.21999992E+02
 20
1.00500000E+02
 40
1.35000000E+01
  0
CIRCLE
  8
0
 62
7
 10
-3.21999992E+02
 20
1.00500000E+02
 40
9.00000000E+00
  0
CIRCLE
  8
0
 62
2
 10
-3.21999992E+02
 20
1.00500000E+02
 40
8.17999268E+00
  0
LINE
  8
0
  6
CENTER
 62
6
 10
-3.35498414E+02
 20
1.39205274E+02
 11
-3.33644312E+02
 21
1.33498935E+02
  0
LINE
  8
0
  6
CENTER
 62
6
 10
-3.55654205E+02
 20
1.38334156E+02
 11
-3.30259150E+02
 21
1.46585510E+02
  0
LINE
  8
0
  6
CENTER
 62
6
 10
-3.08501601E+02
 20
1.39205274E+02
 11
-3.10355703E+02
 21
1.33498935E+02
  0
LINE
  8
0
 62
4
 10
-3.10785840E+02
 20
1.38000031E+02
 11
-3.07154234E+02
 21
1.49176964E+02
  0
ARC
  8
0
 62
4
 10
-3.01145588E+02
 20
1.38804802E+02
 40
1.18100000E+01
 50
1.62000000E+02
 51
1.82532699E+02
  0
ARC
  8
0
 62
4
 10
-3.01140806E+02
 20
1.38819521E+02
 40
1.18100000E+01
 50
1.59900933E+02
 51
1.62000000E+02
  0
LINE
  8
0
 62
4
 10
-3.12073396E+02
 20
1.38000031E+02
 11
-3.12944052E+02
 21
1.38282924E+02
  0
LINE
  8
0
 62
4
 10
-3.11185396E+02
 20
1.38000031E+02
 11
-3.10080477E+02
 21
1.41400621E+02
  0
ARC
  8
0
 62
4
 10
-3.00546986E+02
 20
1.42298559E+02
 40
1.18100000E+01
 50
1.49172490E+02
 51
1.74827510E+02
  0
LINE
  8
0
 62
4
 10
-3.10670132E+02
 20
1.41592212E+02
 11
-3.08321603E+02
 21
1.48820241E+02
  0
LINE
  8
0
 62
4
 10
-3.08445210E+02
 20
1.48439819E+02
 11
-3.09519903E+02
 21
1.48789008E+02
  0
LINE
  8
0
 62
4
 10
-3.10546525E+02
 20
1.41972634E+02
 11
-3.11621219E+02
 21
1.42321824E+02
  0
ARC
  8
0
 62
4
 10
-3.09829683E+02
 20
1.47838200E+02
 40
1.00000000E+00
 50
7.19999999E+01
 51
1.49172490E+02
  0
ARC
  8
0
 62
4
 10
-3.11312965E+02
 20
1.43273128E+02
 40
1.00000000E+00
 50
1.74827510E+02
 51
2.52000000E+02
  0
LINE
  8
0
 62
4
 10
-3.07370546E+02
 20
1.48511224E+02
 11
-3.08321603E+02
 21
1.48820241E+02
  0
LINE
  8
0
 62
4
 10
-3.09719075E+02
 20
1.41283195E+02
 11
-3.10670132E+02
 21
1.41592212E+02
  0
LINE
  8
0
 62
4
 10
-2.97358352E+02
 20
1.45994089E+02
 11
-2.99955779E+02
 21
1.38000031E+02
  0
LINE
  8
0
 62
4
 10
-2.93078598E+02
 20
1.44603512E+02
 11
-2.97358352E+02
 21
1.45994089E+02
  0
LINE
  8
0
 62
4
 10
-2.89713956E+02
 20
1.38000031E+02
 11
-2.93078598E+02
 21
1.44603512E+02
  0
LINE
  8
0
  6
CENTER
 62
6
 10
-3.06575482E+02
 20
1.35425053E+02
 11
-3.12281821E+02
 21
1.37279155E+02
  0
LINE
  8
0
 62
4
 10
-3.10712731E+02
 20
1.38872251E+02
 11
-3.10996133E+02
 21
1.38000031E+02
  0
LINE
  8
0
 62
4
 10
-3.08028312E+02
 20
1.38000031E+02
 11
-3.10712731E+02
 21
1.38872251E+02
  0
LINE
  8
0
 62
4
 10
-3.07154234E+02
 20
1.49176964E+02
 11
-2.97358352E+02
 21
1.45994089E+02
  0
LINE
  8
0
 62
4
 10
-3.07609947E+02
 20
1.38389827E+02
 11
-3.10368011E+02
 21
1.39285976E+02
  0
LINE
  8
0
 62
4
 10
-3.07411336E+02
 20
1.38000031E+02
 11
-3.07609947E+02
 21
1.38389827E+02
  0
LINE
  8
0
  6
CENTER
 62
6
 10
-2.88345810E+02
 20
1.38334156E+02
 11
-3.13382248E+02
 21
1.46468988E+02
  0
LINE
  8
0
  6
CENTER
 62
6
 10
-2.98344774E+02
 20
1.37902899E+02
 11
-3.14463807E+02
 21
1.43140290E+02
  0
LINE
  8
0
 62
4
 10
-3.33214175E+02
 20
1.38000031E+02
 11
-3.36845781E+02
 21
1.49176964E+02
  0
ARC
  8
0
 62
4
 10
-3.42854427E+02
 20
1.38804802E+02
 40
1.18100000E+01
 50
3.57467301E+02
 51
1.80000000E+01
  0
ARC
  8
0
 62
4
 10
-3.42859210E+02
 20
1.38819521E+02
 40
1.18100000E+01
 50
1.80000000E+01
 51
3.85326990E+01
  0
LINE
  8
0
 62
4
 10
-3.31926619E+02
 20
1.38000031E+02
 11
-3.31055963E+02
 21
1.38282924E+02
  0
LINE
  8
0
 62
4
 10
-3.35294664E+02
 20
1.45632823E+02
 11
-3.33620805E+02
 21
1.46176693E+02
  0
LINE
  8
0
 62
4
 10
-3.35609713E+02
 20
1.45372738E+02
 11
-3.35248311E+02
 21
1.45490164E+02
  0
LINE
  8
0
 62
4
 10
-3.32814619E+02
 20
1.38000031E+02
 11
-3.35294664E+02
 21
1.45632823E+02
  0
LINE
  8
0
 62
4
 10
-3.34705009E+02
 20
1.45824413E+02
 11
-3.35678412E+02
 21
1.48820241E+02
  0
LINE
  8
0
 62
4
 10
-3.35554806E+02
 20
1.48439819E+02
 11
-3.34480112E+02
 21
1.48789008E+02
  0
ARC
  8
0
 62
4
 10
-3.43453030E+02
 20
1.42298559E+02
 40
1.18100000E+01
 50
5.17248996E+00
 51
3.08275100E+01
  0
ARC
  8
0
 62
4
 10
-3.34170332E+02
 20
1.47838200E+02
 40
1.00000000E+00
 50
3.08275100E+01
 51
1.08000000E+02
  0
ARC
  8
0
 62
4
 10
-3.32687050E+02
 20
1.43273128E+02
 40
1.00000000E+00
 50
3.36723662E+02
 51
5.17248996E+00
  0
LINE
  8
0
 62
4
 10
-3.36629469E+02
 20
1.48511224E+02
 11
-3.35678412E+02
 21
1.48820241E+02
  0
LINE
  8
0
 62
4
 10
-3.54286059E+02
 20
1.38000031E+02
 11
-3.50921417E+02
 21
1.44603512E+02
  0
LINE
  8
0
 62
4
 10
-3.44044236E+02
 20
1.38000031E+02
 11
-3.46641663E+02
 21
1.45994089E+02
  0
LINE
  8
0
 62
4
 10
-3.50921417E+02
 20
1.44603512E+02
 11
-3.46641663E+02
 21
1.45994089E+02
  0
LINE
  8
0
  6
CENTER
 62
6
 10
-3.45655241E+02
 20
1.37902899E+02
 11
-3.29177590E+02
 21
1.43256812E+02
  0
LINE
  8
0
 62
4
 10
-3.36588679E+02
 20
1.38000031E+02
 11
-3.36390068E+02
 21
1.38389827E+02
  0
LINE
  8
0
 62
4
 10
-3.36390068E+02
 20
1.38389827E+02
 11
-3.33632004E+02
 21
1.39285976E+02
  0
LINE
  8
0
 62
4
 10
-3.36845781E+02
 20
1.49176964E+02
 11
-3.46641663E+02
 21
1.45994089E+02
  0
LINE
  8
0
 62
4
 10
-3.33287284E+02
 20
1.38872251E+02
 11
-3.33731703E+02
 21
1.38000031E+02
  0
LINE
  8
0
 62
4
 10
-3.35971704E+02
 20
1.38000031E+02
 11
-3.33287284E+02
 21
1.38872251E+02
  0
LINE
  8
0
 62
4
 10
-3.33287284E+02
 20
1.38872251E+02
 11
-3.33003883E+02
 21
1.38000031E+02
  0
LINE
  8
0
  6
CENTER
 62
6
 10
-3.37424533E+02
 20
1.35425053E+02
 11
-3.31718194E+02
 21
1.37279155E+02
  0
LINE
  8
0
 62
6
 10
-2.84355691E+02
 20
1.20214292E+02
 11
-2.84499992E+02
 21
1.20261179E+02
  0
LINE
  8
0
 62
6
 10
-2.83428640E+02
 20
1.23067462E+02
 11
-2.84499992E+02
 21
1.23415566E+02
  0
LINE
  8
0
 62
4
 10
-2.83274131E+02
 20
1.23542990E+02
 11
-2.84499992E+02
 21
1.23941297E+02
  0
LINE
  8
0
 62
4
 10
-2.84499992E+02
 20
1.19770178E+02
 11
-2.83274131E+02
 21
1.23542990E+02
  0
LINE
  8
0
 62
6
 10
-3.59644324E+02
 20
1.20214292E+02
 11
-3.59500084E+02
 21
1.20261159E+02
  0
LINE
  8
0
 62
6
 10
-3.60571375E+02
 20
1.23067462E+02
 11
-3.59500084E+02
 21
1.23415546E+02
  0
LINE
  8
0
 62
4
 10
-3.59500084E+02
 20
1.19770366E+02
 11
-3.60725884E+02
 21
1.23542990E+02
  0
LINE
  8
0
 62
4
 10
-3.60725884E+02
 20
1.23542990E+02
 11
-3.59500084E+02
 21
1.23941277E+02
  0
LINE
  8
0
  6
DASHED
 62
7
 10
2.41000116E+02
 20
1.37500137E+02
 11
2.31000040E+02
 21
1.37500137E+02
  0
LINE
  8
0
 62
7
 10
2.61364255E+02
 20
1.15278112E+02
 11
2.68726103E+02
 21
1.22639960E+02
  0
LINE
  8
0
 62
7
 10
2.62778555E+02
 20
8.71360730E+01
 11
2.70140391E+02
 21
7.97742379E+01
  0
LINE
  8
0
 62
7
 10
2.49000031E+02
 20
1.34000000E+02
 11
2.49000031E+02
 21
1.20399750E+02
  0
LINE
  8
0
 62
7
 10
2.81500072E+02
 20
9.94999695E+01
 11
2.67899796E+02
 21
9.94999695E+01
  0
LINE
  8
0
 62
7
 10
2.61364323E+02
 20
8.57218134E+01
 11
2.68726172E+02
 21
7.83599649E+01
  0
LINE
  8
0
 62
7
 10
2.62778466E+02
 20
1.13863966E+02
 11
2.70140313E+02
 21
1.21225813E+02
  0
LINE
  8
0
 62
7
 10
2.47000023E+02
 20
1.34000015E+02
 11
2.47000023E+02
 21
1.20399750E+02
  0
LINE
  8
0
 62
7
 10
2.85000095E+02
 20
6.69999695E+01
 11
2.85000095E+02
 21
1.34000000E+02
  0
LINE
  8
0
 62
7
 10
2.34999941E+02
 20
6.59999924E+01
 11
2.61000114E+02
 21
6.59999924E+01
  0
LINE
  8
0
 62
7
 10
2.82500095E+02
 20
8.74998779E+01
 11
2.82500095E+02
 21
1.13500076E+02
  0
LINE
  8
0
 62
7
 10
2.81499996E+02
 20
1.01499969E+02
 11
2.67899796E+02
 21
1.01499969E+02
  0
LINE
  8
0
 62
7
 10
2.49000069E+02
 20
6.69999695E+01
 11
2.49000069E+02
 21
8.06002502E+01
  0
LINE
  8
0
 62
7
 10
2.14500025E+02
 20
1.38000031E+02
 11
2.81500072E+02
 21
1.38000031E+02
  0
LINE
  8
0
 62
7
 10
2.85500088E+02
 20
6.69999695E+01
 11
2.85500088E+02
 21
1.34000000E+02
  0
LINE
  8
0
 62
7
 10
2.14500025E+02
 20
6.30000000E+01
 11
2.81499996E+02
 21
6.30000000E+01
  0
LINE
  8
0
  6
CENTER
 62
2
 10
2.76000153E+02
 20
6.10016174E+01
 11
2.76000153E+02
 21
8.35345917E+01
  0
LINE
  8
0
  6
CENTER
 62
2
 10
2.76000076E+02
 20
1.17270401E+02
 11
2.76000076E+02
 21
1.40057983E+02
  0
LINE
  8
0
  6
CENTER
 62
2
 10
2.48000008E+02
 20
1.41967545E+02
 11
2.48000008E+02
 21
5.94739532E+01
  0
LINE
  8
0
 62
7
 10
2.34636094E+02
 20
1.15278621E+02
 11
2.27274272E+02
 21
1.22640440E+02
  0
LINE
  8
0
 62
7
 10
2.33221875E+02
 20
1.13864401E+02
 11
2.25860026E+02
 21
1.21226247E+02
  0
LINE
  8
0
 62
7
 10
2.14500025E+02
 20
1.37500031E+02
 11
2.81500072E+02
 21
1.37500031E+02
  0
LINE
  8
0
 62
7
 10
2.14500025E+02
 20
1.01499985E+02
 11
2.28100298E+02
 21
1.01499985E+02
  0
LINE
  8
0
 62
7
 10
2.10500010E+02
 20
6.70000000E+01
 11
2.10500010E+02
 21
1.34000015E+02
  0
LINE
  8
0
  6
CENTER
 62
2
 10
2.19999941E+02
 20
1.40185287E+02
 11
2.19999941E+02
 21
1.17270401E+02
  0
LINE
  8
0
  6
CENTER
 62
2
 10
2.07232302E+02
 20
1.00500000E+02
 11
2.90477734E+02
 21
1.00500000E+02
  0
LINE
  8
0
  6
CENTER
 62
2
 10
2.56000000E+02
 20
1.40185287E+02
 11
2.56000000E+02
 21
1.28300018E+02
  0
LINE
  8
0
  6
CENTER
 62
2
 10
2.88045101E+02
 20
1.28500061E+02
 11
2.65894028E+02
 21
1.28500061E+02
  0
LINE
  8
0
 62
7
 10
2.47000061E+02
 20
6.70000000E+01
 11
2.47000061E+02
 21
8.06002502E+01
  0
LINE
  8
0
 62
7
 10
2.33221709E+02
 20
8.71357685E+01
 11
2.25859890E+02
 21
7.97739471E+01
  0
LINE
  8
0
 62
7
 10
2.34636009E+02
 20
8.57215767E+01
 11
2.27274163E+02
 21
7.83597282E+01
  0
LINE
  8
0
 62
7
 10
2.14500025E+02
 20
6.35000000E+01
 11
2.81499996E+02
 21
6.35000000E+01
  0
LINE
  8
0
 62
7
 10
2.11000002E+02
 20
6.70000000E+01
 11
2.11000002E+02
 21
1.34000015E+02
  0
LINE
  8
0
 62
7
 10
2.13500002E+02
 20
8.74998779E+01
 11
2.13500002E+02
 21
1.13500076E+02
  0
LINE
  8
0
 62
7
 10
2.14500025E+02
 20
9.95000000E+01
 11
2.28100298E+02
 21
9.95000000E+01
  0
LINE
  8
0
  6
CENTER
 62
2
 10
2.07970293E+02
 20
7.24999695E+01
 11
2.30503252E+02
 21
7.24999695E+01
  0
LINE
  8
0
 62
7
 10
2.73000008E+02
 20
1.38000031E+02
 11
2.73000008E+02
 21
1.37500031E+02
  0
LINE
  8
0
 62
7
 10
2.23000010E+02
 20
1.38000031E+02
 11
2.23000010E+02
 21
1.37500031E+02
  0
LINE
  8
0
 62
7
 10
2.73000008E+02
 20
6.35000000E+01
 11
2.73000008E+02
 21
6.30000000E+01
  0
LINE
  8
0
 62
7
 10
2.23000010E+02
 20
6.35000000E+01
 11
2.23000010E+02
 21
6.30000000E+01
  0
LINE
  8
0
 62
7
 10
2.34999903E+02
 20
1.35000031E+02
 11
2.61000076E+02
 21
1.35000031E+02
  0
LINE
  8
0
 62
7
 10
2.65500084E+02
 20
1.30500214E+02
 11
2.66763626E+02
 21
1.30500214E+02
  0
LINE
  8
0
 62
7
 10
2.78000278E+02
 20
1.18000061E+02
 11
2.78000278E+02
 21
1.19263657E+02
  0
LINE
  8
0
 62
7
 10
2.30499895E+02
 20
1.30500244E+02
 11
2.29236467E+02
 21
1.30500244E+02
  0
LINE
  8
0
 62
7
 10
2.17999819E+02
 20
1.18000061E+02
 11
2.17999819E+02
 21
1.19263794E+02
  0
LINE
  8
0
 62
7
 10
2.30499933E+02
 20
7.04998093E+01
 11
2.29236200E+02
 21
7.04998093E+01
  0
LINE
  8
0
 62
7
 10
2.17999819E+02
 20
8.29998779E+01
 11
2.17999819E+02
 21
8.17363129E+01
  0
LINE
  8
0
 62
7
 10
2.78000278E+02
 20
8.29998779E+01
 11
2.78000278E+02
 21
8.17364655E+01
  0
LINE
  8
0
 62
7
 10
2.65500122E+02
 20
7.04997940E+01
 11
2.66763664E+02
 21
7.04997940E+01
  0
LINE
  8
0
  6
CENTER
 62
2
 10
2.65766693E+02
 20
7.24999695E+01
 11
2.88045101E+02
 21
7.24999695E+01
  0
LINE
  8
0
  6
CENTER
 62
2
 10
2.30630548E+02
 20
1.28500061E+02
 11
2.08097589E+02
 21
1.28500061E+02
  0
LINE
  8
0
  6
CENTER
 62
2
 10
2.20000017E+02
 20
8.25604782E+01
 11
2.20000017E+02
 21
6.10041046E+01
  0
LINE
  8
0
 62
7
 10
2.76000075E+02
 20
1.33118872E+02
 11
2.72000073E+02
 21
1.30809470E+02
  0
LINE
  8
0
 62
7
 10
2.72000076E+02
 20
1.30809464E+02
 11
2.72000076E+02
 21
1.26190674E+02
  0
LINE
  8
0
 62
7
 10
2.76000076E+02
 20
1.23881262E+02
 11
2.72000077E+02
 21
1.26190663E+02
  0
LINE
  8
0
 62
7
 10
2.80000075E+02
 20
1.26190669E+02
 11
2.76000073E+02
 21
1.23881267E+02
  0
LINE
  8
0
 62
7
 10
2.80000080E+02
 20
1.30809464E+02
 11
2.80000080E+02
 21
1.26190674E+02
  0
LINE
  8
0
 62
7
 10
2.76000077E+02
 20
1.33118866E+02
 11
2.80000076E+02
 21
1.30809466E+02
  0
LINE
  8
0
 62
7
 10
2.76000151E+02
 20
7.71187729E+01
 11
2.72000149E+02
 21
7.48093705E+01
  0
LINE
  8
0
 62
7
 10
2.72000153E+02
 20
7.48093719E+01
 11
2.72000153E+02
 21
7.01905670E+01
  0
LINE
  8
0
 62
7
 10
2.76000154E+02
 20
6.78811670E+01
 11
2.72000154E+02
 21
7.01905681E+01
  0
LINE
  8
0
 62
7
 10
2.80000151E+02
 20
7.01905698E+01
 11
2.76000149E+02
 21
6.78811674E+01
  0
LINE
  8
0
 62
7
 10
2.80000156E+02
 20
7.48093719E+01
 11
2.80000156E+02
 21
7.01905670E+01
  0
LINE
  8
0
 62
7
 10
2.76000154E+02
 20
7.71187712E+01
 11
2.80000154E+02
 21
7.48093701E+01
  0
LINE
  8
0
 62
7
 10
2.20000018E+02
 20
7.71187702E+01
 11
2.16000016E+02
 21
7.48093678E+01
  0
LINE
  8
0
 62
7
 10
2.16000017E+02
 20
7.48093719E+01
 11
2.16000017E+02
 21
7.01905670E+01
  0
LINE
  8
0
 62
7
 10
2.20000016E+02
 20
6.78811679E+01
 11
2.16000017E+02
 21
7.01905684E+01
  0
LINE
  8
0
 62
7
 10
2.24000018E+02
 20
7.01905671E+01
 11
2.20000016E+02
 21
6.78811646E+01
  0
LINE
  8
0
 62
7
 10
2.24000017E+02
 20
7.48093719E+01
 11
2.24000017E+02
 21
7.01905670E+01
  0
LINE
  8
0
 62
7
 10
2.20000017E+02
 20
7.71187715E+01
 11
2.24000016E+02
 21
7.48093710E+01
  0
LINE
  8
0
 62
7
 10
2.19999941E+02
 20
1.33118864E+02
 11
2.15999939E+02
 21
1.30809462E+02
  0
LINE
  8
0
 62
7
 10
2.15999941E+02
 20
1.30809464E+02
 11
2.15999941E+02
 21
1.26190674E+02
  0
LINE
  8
0
 62
7
 10
2.19999940E+02
 20
1.23881263E+02
 11
2.15999937E+02
 21
1.26190665E+02
  0
LINE
  8
0
 62
7
 10
2.23999937E+02
 20
1.26190668E+02
 11
2.19999935E+02
 21
1.23881266E+02
  0
LINE
  8
0
 62
7
 10
2.23999941E+02
 20
1.30809464E+02
 11
2.23999941E+02
 21
1.26190674E+02
  0
LINE
  8
0
 62
7
 10
2.19999941E+02
 20
1.33118875E+02
 11
2.23999944E+02
 21
1.30809473E+02
  0
CIRCLE
  8
0
 62
7
 10
2.76000076E+02
 20
1.28500061E+02
 40
6.50000048E+00
  0
ARC
  8
0
 62
7
 10
2.70847298E+02
 20
1.20518860E+02
 40
1.00000000E+00
 50
5.71538311E+01
 51
1.35000014E+02
  0
ARC
  8
0
 62
7
 10
2.68018890E+02
 20
1.23347290E+02
 40
1.00000000E+00
 50
3.15000047E+02
 51
3.28467588E+01
  0
CIRCLE
  8
0
 62
7
 10
2.76000076E+02
 20
7.24999695E+01
 40
6.50000048E+00
  0
ARC
  8
0
 62
7
 10
2.63485504E+02
 20
1.13157028E+02
 40
1.00000000E+00
 50
1.35000014E+02
 51
2.19261011E+02
  0
ARC
  8
0
 62
7
 10
2.60657059E+02
 20
1.15985458E+02
 40
1.00000000E+00
 50
2.30739011E+02
 51
3.15000026E+02
  0
ARC
  8
0
 62
7
 10
2.50000015E+02
 20
1.20399750E+02
 40
1.00000000E+00
 50
1.80000036E+02
 51
2.64260549E+02
  0
ARC
  8
0
 62
7
 10
2.67899796E+02
 20
9.85000000E+01
 40
1.00000000E+00
 50
8.99999618E+01
 51
1.74260515E+02
  0
ARC
  8
0
 62
7
 10
2.81500072E+02
 20
9.85000000E+01
 40
1.00000000E+00
 50
3.59999981E+02
 51
8.99999618E+01
  0
ARC
  8
0
 62
7
 10
2.19999941E+02
 20
1.28500031E+02
 40
8.50000000E+00
 50
2.63823540E+02
 51
6.17668522E+00
  0
ARC
  8
0
 62
7
 10
2.63485504E+02
 20
8.78429565E+01
 40
1.00000000E+00
 50
1.40739039E+02
 51
2.25000037E+02
  0
ARC
  8
0
 62
7
 10
2.60657059E+02
 20
8.50145264E+01
 40
1.00000000E+00
 50
4.50000149E+01
 51
1.29261016E+02
  0
ARC
  8
0
 62
7
 10
2.68018890E+02
 20
7.76526947E+01
 40
1.00000000E+00
 50
3.27153835E+02
 51
4.50000149E+01
  0
ARC
  8
0
 62
7
 10
2.70847298E+02
 20
8.04811172E+01
 40
1.00000000E+00
 50
2.25000027E+02
 51
3.02846743E+02
  0
ARC
  8
0
 62
7
 10
2.81500072E+02
 20
1.34000000E+02
 40
3.50000000E+00
 50
2.23117997E-05
 51
8.99999750E+01
  0
ARC
  8
0
 62
7
 10
2.50000015E+02
 20
1.34000000E+02
 40
1.00000000E+00
 50
9.00000025E+01
 51
1.80000046E+02
  0
ARC
  8
0
 62
7
 10
2.46000000E+02
 20
1.20399750E+02
 40
1.00000000E+00
 50
2.75739515E+02
 51
3.59721781E-05
  0
ARC
  8
0
 62
7
 10
2.46000000E+02
 20
1.34000015E+02
 40
1.00000000E+00
 50
3.59721781E-05
 51
9.00000162E+01
  0
ARC
  8
0
 62
7
 10
2.81500034E+02
 20
6.69999695E+01
 40
3.50000000E+00
 50
2.70000011E+02
 51
3.59999964E+02
  0
ARC
  8
0
 62
7
 10
2.81500034E+02
 20
1.02500000E+02
 40
1.00000000E+00
 50
2.69999956E+02
 51
3.59999992E+02
  0
ARC
  8
0
 62
7
 10
2.67899796E+02
 20
1.02500000E+02
 40
1.00000000E+00
 50
1.85739444E+02
 51
2.69999956E+02
  0
ARC
  8
0
 62
7
 10
2.50000015E+02
 20
8.06002502E+01
 40
1.00000000E+00
 50
9.57394995E+01
 51
1.80000032E+02
  0
ARC
  8
0
 62
7
 10
2.50000015E+02
 20
6.69999695E+01
 40
1.00000000E+00
 50
1.80000022E+02
 51
2.70000011E+02
  0
ARC
  8
0
 62
7
 10
2.81500072E+02
 20
1.34000000E+02
 40
4.00000000E+00
 50
2.23117997E-05
 51
8.99999750E+01
  0
ARC
  8
0
 62
7
 10
2.81500034E+02
 20
6.69999695E+01
 40
4.00000000E+00
 50
2.70000011E+02
 51
3.59999964E+02
  0
CIRCLE
  8
0
 62
7
 10
2.76000076E+02
 20
7.24999695E+01
 40
6.00000000E+00
  0
CIRCLE
  8
0
 62
2
 10
2.19999941E+02
 20
1.28500061E+02
 40
4.00000000E+00
  0
CIRCLE
  8
0
 62
7
 10
2.76000076E+02
 20
1.28500061E+02
 40
6.00000000E+00
  0
CIRCLE
  8
0
 62
7
 10
2.19999941E+02
 20
1.28500031E+02
 40
6.50000048E+00
  0
ARC
  8
0
 62
7
 10
2.32514551E+02
 20
1.13157059E+02
 40
1.00000000E+00
 50
3.20739045E+02
 51
4.50000423E+01
  0
ARC
  8
0
 62
7
 10
2.35342958E+02
 20
1.15985474E+02
 40
1.00000000E+00
 50
2.25000000E+02
 51
3.09261001E+02
  0
ARC
  8
0
 62
7
 10
2.27981165E+02
 20
1.23347305E+02
 40
1.00000000E+00
 50
1.47153844E+02
 51
2.25000010E+02
  0
ARC
  8
0
 62
7
 10
2.25152719E+02
 20
1.20518890E+02
 40
1.00000000E+00
 50
4.50000423E+01
 51
1.22846758E+02
  0
ARC
  8
0
 62
7
 10
2.14500025E+02
 20
1.34000015E+02
 40
3.50000000E+00
 50
9.00000162E+01
 51
1.80000005E+02
  0
ARC
  8
0
 62
7
 10
2.14500025E+02
 20
1.02499992E+02
 40
1.00000000E+00
 50
1.79999995E+02
 51
2.70000038E+02
  0
ARC
  8
0
 62
7
 10
2.28100298E+02
 20
1.02499992E+02
 40
1.00000000E+00
 50
2.70000038E+02
 51
3.54260543E+02
  0
ARC
  8
0
 62
7
 10
2.14500025E+02
 20
1.34000015E+02
 40
4.00000000E+00
 50
9.00000162E+01
 51
1.80000005E+02
  0
CIRCLE
  8
0
 62
7
 10
2.19999941E+02
 20
1.28500031E+02
 40
6.00000000E+00
  0
ARC
  8
0
 62
7
 10
2.30499895E+02
 20
1.34000153E+02
 40
3.50000000E+00
 50
2.69999984E+02
 51
3.59998489E+02
  0
ARC
  8
0
 62
7
 10
2.34999903E+02
 20
1.34000015E+02
 40
1.00000000E+00
 50
9.00000437E+01
 51
1.79998229E+02
  0
ARC
  8
0
 62
7
 10
2.29444826E+02
 20
1.29522171E+02
 40
1.00000000E+00
 50
9.56743599E+01
 51
1.86177214E+02
  0
ARC
  8
0
 62
7
 10
2.14499872E+02
 20
1.18000061E+02
 40
3.50000000E+00
 50
2.70000995E+02
 51
1.86693353E-05
  0
ARC
  8
0
 62
7
 10
2.18977869E+02
 20
1.19055191E+02
 40
1.00000000E+00
 50
8.38236945E+01
 51
1.74325484E+02
  0
ARC
  8
0
 62
7
 10
2.14500025E+02
 20
1.13500076E+02
 40
1.00000000E+00
 50
9.00017511E+01
 51
1.80000019E+02
  0
ARC
  8
0
 62
7
 10
2.81500072E+02
 20
8.74998779E+01
 40
1.00000000E+00
 50
2.70001766E+02
 51
3.59999964E+02
  0
ARC
  8
0
 62
7
 10
2.81500187E+02
 20
8.29998703E+01
 40
3.50000000E+00
 50
9.00014985E+01
 51
1.80000005E+02
  0
ARC
  8
0
 62
7
 10
2.77022224E+02
 20
8.19448013E+01
 40
1.00000000E+00
 50
2.63822781E+02
 51
3.54325620E+02
  0
ARC
  8
0
 62
7
 10
2.76000076E+02
 20
7.24999313E+01
 40
8.50000000E+00
 50
8.38233261E+01
 51
1.86176449E+02
  0
ARC
  8
0
 62
7
 10
2.66555191E+02
 20
1.29522171E+02
 40
1.00000000E+00
 50
3.53823687E+02
 51
8.43254881E+01
  0
ARC
  8
0
 62
7
 10
2.65500084E+02
 20
1.34000122E+02
 40
3.50000000E+00
 50
1.80001006E+02
 51
2.69999984E+02
  0
ARC
  8
0
 62
7
 10
2.61000076E+02
 20
1.34000015E+02
 40
1.00000000E+00
 50
1.72985911E-03
 51
9.00000162E+01
  0
ARC
  8
0
 62
7
 10
2.61000153E+02
 20
6.69999695E+01
 40
1.00000000E+00
 50
2.70000038E+02
 51
3.59998215E+02
  0
ARC
  8
0
 62
7
 10
2.65500122E+02
 20
6.69998474E+01
 40
3.50000000E+00
 50
9.00000162E+01
 51
1.79998502E+02
  0
ARC
  8
0
 62
7
 10
2.66555267E+02
 20
7.14778137E+01
 40
1.00000000E+00
 50
2.75674382E+02
 51
6.17723160E+00
  0
ARC
  8
0
 62
7
 10
2.76000076E+02
 20
1.28500031E+02
 40
8.50000000E+00
 50
1.73823329E+02
 51
2.76176459E+02
  0
ARC
  8
0
 62
7
 10
2.77022224E+02
 20
1.19055191E+02
 40
1.00000000E+00
 50
5.67452970E+00
 51
9.61763105E+01
  0
ARC
  8
0
 62
7
 10
2.81500149E+02
 20
1.18000061E+02
 40
3.50000000E+00
 50
1.79999995E+02
 51
2.69999000E+02
  0
ARC
  8
0
 62
7
 10
2.81500072E+02
 20
1.13500076E+02
 40
1.00000000E+00
 50
3.59999995E+02
 51
8.99982676E+01
  0
ARC
  8
0
 62
7
 10
2.30499971E+02
 20
6.69998856E+01
 40
3.50000000E+00
 50
1.00585906E-03
 51
9.00000162E+01
  0
ARC
  8
0
 62
7
 10
2.34999941E+02
 20
6.69999695E+01
 40
1.00000000E+00
 50
1.80001743E+02
 51
2.69999984E+02
  0
ARC
  8
0
 62
7
 10
2.46000000E+02
 20
6.70000000E+01
 40
1.00000000E+00
 50
2.69999998E+02
 51
4.96325564E-05
  0
ARC
  8
0
 62
7
 10
2.46000000E+02
 20
8.06002502E+01
 40
1.00000000E+00
 50
4.96325564E-05
 51
8.42605536E+01
  0
CIRCLE
  8
0
 62
7
 10
2.48000008E+02
 20
1.00500000E+02
 40
1.90000000E+01
  0
CIRCLE
  8
0
 62
7
 10
2.20000017E+02
 20
7.24999313E+01
 40
6.50000048E+00
  0
ARC
  8
0
 62
7
 10
2.35342958E+02
 20
8.50145416E+01
 40
1.00000000E+00
 50
5.07390404E+01
 51
1.35000041E+02
  0
ARC
  8
0
 62
7
 10
2.32514551E+02
 20
8.78429718E+01
 40
1.00000000E+00
 50
3.15000019E+02
 51
3.92610168E+01
  0
ARC
  8
0
 62
7
 10
2.25152719E+02
 20
8.04811401E+01
 40
1.00000000E+00
 50
2.37153816E+02
 51
3.14999999E+02
  0
ARC
  8
0
 62
7
 10
2.27981165E+02
 20
7.76527100E+01
 40
1.00000000E+00
 50
1.35000041E+02
 51
2.12846753E+02
  0
ARC
  8
0
 62
7
 10
2.14500025E+02
 20
6.70000000E+01
 40
3.50000000E+00
 50
1.80000008E+02
 51
2.69999984E+02
  0
ARC
  8
0
 62
7
 10
2.28100298E+02
 20
9.85000000E+01
 40
1.00000000E+00
 50
5.73949849E+00
 51
9.00000300E+01
  0
ARC
  8
0
 62
7
 10
2.14500025E+02
 20
9.85000000E+01
 40
1.00000000E+00
 50
9.00000300E+01
 51
1.80000019E+02
  0
ARC
  8
0
 62
7
 10
2.14500025E+02
 20
6.70000000E+01
 40
4.00000000E+00
 50
1.80000008E+02
 51
2.69999984E+02
  0
CIRCLE
  8
0
 62
7
 10
2.20000017E+02
 20
7.24999313E+01
 40
6.00000000E+00
  0
CIRCLE
  8
0
 62
2
 10
2.76000076E+02
 20
1.28500061E+02
 40
4.00000000E+00
  0
ARC
  8
0
 62
7
 10
2.14500025E+02
 20
8.74998779E+01
 40
1.00000000E+00
 50
1.80000036E+02
 51
2.69998222E+02
  0
ARC
  8
0
 62
7
 10
2.14499872E+02
 20
8.29998703E+01
 40
3.50000000E+00
 50
3.59721781E-05
 51
8.99985065E+01
  0
ARC
  8
0
 62
7
 10
2.18977869E+02
 20
8.19448013E+01
 40
1.00000000E+00
 50
1.85674352E+02
 51
2.76177207E+02
  0
ARC
  8
0
 62
7
 10
2.20000017E+02
 20
7.24999313E+01
 40
8.50000000E+00
 50
3.53823551E+02
 51
9.61766794E+01
  0
ARC
  8
0
 62
7
 10
2.29444826E+02
 20
7.14778137E+01
 40
1.00000000E+00
 50
1.73823697E+02
 51
2.64325479E+02
  0
CIRCLE
  8
0
 62
2
 10
2.76000153E+02
 20
7.24999695E+01
 40
4.00000000E+00
  0
CIRCLE
  8
0
 62
7
 10
2.76000153E+02
 20
7.24999695E+01
 40
3.32000017E+00
  0
CIRCLE
  8
0
 62
7
 10
2.76000076E+02
 20
1.28500061E+02
 40
3.32000017E+00
  0
CIRCLE
  8
0
 62
7
 10
2.19999941E+02
 20
1.28500061E+02
 40
3.32000017E+00
  0
CIRCLE
  8
0
 62
7
 10
2.20000017E+02
 20
7.24999695E+01
 40
3.32000017E+00
  0
CIRCLE
  8
0
 62
2
 10
2.20000017E+02
 20
7.24999695E+01
 40
4.00000000E+00
  0
LINE
  8
0
  6
CENTER
 62
6
 10
2.34501586E+02
 20
1.39205274E+02
 11
2.36355688E+02
 21
1.33498935E+02
  0
LINE
  8
0
  6
CENTER
 62
6
 10
2.14345795E+02
 20
1.38334156E+02
 11
2.39740850E+02
 21
1.46585510E+02
  0
LINE
  8
0
  6
CENTER
 62
6
 10
2.61498399E+02
 20
1.39205274E+02
 11
2.59644297E+02
 21
1.33498935E+02
  0
LINE
  8
0
 62
4
 10
2.59214160E+02
 20
1.38000031E+02
 11
2.62845766E+02
 21
1.49176964E+02
  0
ARC
  8
0
 62
4
 10
2.68854412E+02
 20
1.38804802E+02
 40
1.18100000E+01
 50
1.62000000E+02
 51
1.82532699E+02
  0
ARC
  8
0
 62
4
 10
2.68859194E+02
 20
1.38819521E+02
 40
1.18100000E+01
 50
1.59900933E+02
 51
1.62000000E+02
  0
LINE
  8
0
 62
4
 10
2.57926604E+02
 20
1.38000031E+02
 11
2.57055948E+02
 21
1.38282924E+02
  0
LINE
  8
0
 62
4
 10
2.58814604E+02
 20
1.38000031E+02
 11
2.59919523E+02
 21
1.41400621E+02
  0
ARC
  8
0
 62
4
 10
2.69453014E+02
 20
1.42298559E+02
 40
1.18100000E+01
 50
1.49172490E+02
 51
1.74827510E+02
  0
LINE
  8
0
 62
4
 10
2.59329868E+02
 20
1.41592212E+02
 11
2.61678397E+02
 21
1.48820241E+02
  0
LINE
  8
0
 62
4
 10
2.61554790E+02
 20
1.48439819E+02
 11
2.60480097E+02
 21
1.48789008E+02
  0
LINE
  8
0
 62
4
 10
2.59453475E+02
 20
1.41972634E+02
 11
2.58378781E+02
 21
1.42321824E+02
  0
ARC
  8
0
 62
4
 10
2.60170317E+02
 20
1.47838200E+02
 40
1.00000000E+00
 50
7.19999999E+01
 51
1.49172490E+02
  0
ARC
  8
0
 62
4
 10
2.58687035E+02
 20
1.43273128E+02
 40
1.00000000E+00
 50
1.74827510E+02
 51
2.52000000E+02
  0
LINE
  8
0
 62
4
 10
2.62629454E+02
 20
1.48511224E+02
 11
2.61678397E+02
 21
1.48820241E+02
  0
LINE
  8
0
 62
4
 10
2.60280925E+02
 20
1.41283195E+02
 11
2.59329868E+02
 21
1.41592212E+02
  0
LINE
  8
0
 62
4
 10
2.72641648E+02
 20
1.45994089E+02
 11
2.70044221E+02
 21
1.38000031E+02
  0
LINE
  8
0
 62
4
 10
2.76921402E+02
 20
1.44603512E+02
 11
2.72641648E+02
 21
1.45994089E+02
  0
LINE
  8
0
 62
4
 10
2.80286044E+02
 20
1.38000031E+02
 11
2.76921402E+02
 21
1.44603512E+02
  0
LINE
  8
0
  6
CENTER
 62
6
 10
2.63424518E+02
 20
1.35425053E+02
 11
2.57718179E+02
 21
1.37279155E+02
  0
LINE
  8
0
 62
4
 10
2.59287269E+02
 20
1.38872251E+02
 11
2.59003867E+02
 21
1.38000031E+02
  0
LINE
  8
0
 62
4
 10
2.61971688E+02
 20
1.38000031E+02
 11
2.59287269E+02
 21
1.38872251E+02
  0
LINE
  8
0
 62
4
 10
2.62845766E+02
 20
1.49176964E+02
 11
2.72641648E+02
 21
1.45994089E+02
  0
LINE
  8
0
 62
4
 10
2.62390053E+02
 20
1.38389827E+02
 11
2.59631989E+02
 21
1.39285976E+02
  0
LINE
  8
0
 62
4
 10
2.62588664E+02
 20
1.38000031E+02
 11
2.62390053E+02
 21
1.38389827E+02
  0
LINE
  8
0
  6
CENTER
 62
6
 10
2.81654190E+02
 20
1.38334156E+02
 11
2.56617752E+02
 21
1.46468988E+02
  0
LINE
  8
0
  6
CENTER
 62
6
 10
2.71655226E+02
 20
1.37902899E+02
 11
2.55536193E+02
 21
1.43140290E+02
  0
LINE
  8
0
 62
4
 10
2.36785825E+02
 20
1.38000031E+02
 11
2.33154219E+02
 21
1.49176964E+02
  0
ARC
  8
0
 62
4
 10
2.27145573E+02
 20
1.38804802E+02
 40
1.18100000E+01
 50
3.57467301E+02
 51
1.80000000E+01
  0
ARC
  8
0
 62
4
 10
2.27140790E+02
 20
1.38819521E+02
 40
1.18100000E+01
 50
1.80000000E+01
 51
3.85326990E+01
  0
LINE
  8
0
 62
4
 10
2.38073381E+02
 20
1.38000031E+02
 11
2.38944037E+02
 21
1.38282924E+02
  0
LINE
  8
0
 62
4
 10
2.34705336E+02
 20
1.45632823E+02
 11
2.36379195E+02
 21
1.46176693E+02
  0
LINE
  8
0
 62
4
 10
2.34390287E+02
 20
1.45372738E+02
 11
2.34751689E+02
 21
1.45490164E+02
  0
LINE
  8
0
 62
4
 10
2.37185381E+02
 20
1.38000031E+02
 11
2.34705336E+02
 21
1.45632823E+02
  0
LINE
  8
0
 62
4
 10
2.35294991E+02
 20
1.45824413E+02
 11
2.34321588E+02
 21
1.48820241E+02
  0
LINE
  8
0
 62
4
 10
2.34445194E+02
 20
1.48439819E+02
 11
2.35519888E+02
 21
1.48789008E+02
  0
ARC
  8
0
 62
4
 10
2.26546970E+02
 20
1.42298559E+02
 40
1.18100000E+01
 50
5.17248996E+00
 51
3.08275100E+01
  0
ARC
  8
0
 62
4
 10
2.35829668E+02
 20
1.47838200E+02
 40
1.00000000E+00
 50
3.08275100E+01
 51
1.08000000E+02
  0
ARC
  8
0
 62
4
 10
2.37312950E+02
 20
1.43273128E+02
 40
1.00000000E+00
 50
3.36723662E+02
 51
5.17248996E+00
  0
LINE
  8
0
 62
4
 10
2.33370531E+02
 20
1.48511224E+02
 11
2.34321588E+02
 21
1.48820241E+02
  0
LINE
  8
0
 62
4
 10
2.15713941E+02
 20
1.38000031E+02
 11
2.19078583E+02
 21
1.44603512E+02
  0
LINE
  8
0
 62
4
 10
2.25955764E+02
 20
1.38000031E+02
 11
2.23358337E+02
 21
1.45994089E+02
  0
LINE
  8
0
 62
4
 10
2.19078583E+02
 20
1.44603512E+02
 11
2.23358337E+02
 21
1.45994089E+02
  0
LINE
  8
0
  6
CENTER
 62
6
 10
2.24344759E+02
 20
1.37902899E+02
 11
2.40822410E+02
 21
1.43256812E+02
  0
LINE
  8
0
 62
4
 10
2.33411321E+02
 20
1.38000031E+02
 11
2.33609932E+02
 21
1.38389827E+02
  0
LINE
  8
0
 62
4
 10
2.33609932E+02
 20
1.38389827E+02
 11
2.36367996E+02
 21
1.39285976E+02
  0
LINE
  8
0
 62
4
 10
2.33154219E+02
 20
1.49176964E+02
 11
2.23358337E+02
 21
1.45994089E+02
  0
LINE
  8
0
 62
4
 10
2.36712716E+02
 20
1.38872251E+02
 11
2.36268297E+02
 21
1.38000031E+02
  0
LINE
  8
0
 62
4
 10
2.34028296E+02
 20
1.38000031E+02
 11
2.36712716E+02
 21
1.38872251E+02
  0
LINE
  8
0
 62
4
 10
2.36712716E+02
 20
1.38872251E+02
 11
2.36996117E+02
 21
1.38000031E+02
  0
LINE
  8
0
  6
CENTER
 62
6
 10
2.32575467E+02
 20
1.35425053E+02
 11
2.38281806E+02
 21
1.37279155E+02
  0
LINE
  8
0
 62
6
 10
2.85644309E+02
 20
1.20214292E+02
 11
2.85500008E+02
 21
1.20261179E+02
  0
LINE
  8
0
 62
6
 10
2.86571360E+02
 20
1.23067462E+02
 11
2.85500008E+02
 21
1.23415566E+02
  0
LINE
  8
0
 62
4
 10
2.86725869E+02
 20
1.23542990E+02
 11
2.85500008E+02
 21
1.23941297E+02
  0
LINE
  8
0
 62
4
 10
2.85500008E+02
 20
1.19770178E+02
 11
2.86725869E+02
 21
1.23542990E+02
  0
LINE
  8
0
 62
6
 10
2.10355676E+02
 20
1.20214292E+02
 11
2.10499916E+02
 21
1.20261159E+02
  0
LINE
  8
0
 62
6
 10
2.09428625E+02
 20
1.23067462E+02
 11
2.10499916E+02
 21
1.23415546E+02
  0
LINE
  8
0
 62
4
 10
2.10499916E+02
 20
1.19770366E+02
 11
2.09274116E+02
 21
1.23542990E+02
  0
LINE
  8
0
 62
4
 10
2.09274116E+02
 20
1.23542990E+02
 11
2.10499916E+02
 21
1.23941277E+02
  0
LINE
  8
0
  6
PHANTOM
 10
-2.45000000E+01
 20
1.88056721E+02
 11
-2.45000000E+01
 21
3.53816712E+02
  0
LINE
  8
0
  6
CENTER
 62
2
 10
-1.72033272E+02
 20
2.80500000E+02
 11
6.47908058E+01
 21
2.80500000E+02
  0
LINE
  8
0
  6
CENTER
 62
2
 10
-1.04364861E+02
 20
2.88500000E+02
 11
-8.27606888E+01
 21
2.88500000E+02
  0
LINE
  8
0
  6
CENTER
 62
2
 10
-9.40000687E+01
 20
2.78499985E+02
 11
-9.40000687E+01
 21
2.99046265E+02
  0
LINE
  8
0
 62
7
 10
-1.13499992E+02
 20
2.61499985E+02
 11
-1.11999992E+02
 21
2.61499985E+02
  0
LINE
  8
0
 62
7
 10
-1.26500008E+02
 20
2.63500000E+02
 11
-1.21991447E+02
 21
2.63500000E+02
  0
LINE
  8
0
 62
7
 10
-1.21999992E+02
 20
2.63499985E+02
 11
-1.21999992E+02
 21
2.63491440E+02
  0
LINE
  8
0
 62
7
 10
-1.21758764E+02
 20
2.63241520E+02
 11
-1.14000066E+02
 21
2.62970580E+02
  0
LINE
  8
0
 62
7
 10
-1.11508758E+02
 20
2.43550071E+02
 11
-8.00000536E+01
 21
2.43000085E+02
  0
LINE
  8
0
 62
7
 10
-1.26999992E+02
 20
2.64000015E+02
 11
-1.26999992E+02
 21
2.96999969E+02
  0
LINE
  8
0
 62
7
 10
-1.13499992E+02
 20
2.99500000E+02
 11
-1.11999992E+02
 21
2.99500000E+02
  0
LINE
  8
0
 62
7
 10
-1.26500008E+02
 20
2.97499969E+02
 11
-1.21991447E+02
 21
2.97499969E+02
  0
LINE
  8
0
 62
7
 10
-1.21999992E+02
 20
2.97500000E+02
 11
-1.21999992E+02
 21
2.97508545E+02
  0
LINE
  8
0
 62
7
 10
-1.21758735E+02
 20
2.97758618E+02
 11
-1.14000052E+02
 21
2.98029557E+02
  0
LINE
  8
0
 62
7
 10
-1.11999992E+02
 20
2.44049911E+02
 11
-1.11999992E+02
 21
3.16950073E+02
  0
LINE
  8
0
 62
7
 10
-7.99999924E+01
 20
2.43000031E+02
 11
-7.99999924E+01
 21
3.18000000E+02
  0
LINE
  8
0
 62
7
 10
-1.11508731E+02
 20
3.17450001E+02
 11
-8.00000108E+01
 21
3.17999988E+02
  0
LINE
  8
0
 62
7
 10
-1.14000008E+02
 20
2.61999985E+02
 11
-1.14000008E+02
 21
2.99000015E+02
  0
LINE
  8
0
 62
7
 10
-1.21999992E+02
 20
2.97500000E+02
 11
-1.21999992E+02
 21
2.63499985E+02
  0
LINE
  8
0
 62
7
 10
-1.05999992E+02
 20
3.05500000E+02
 11
-7.99999924E+01
 21
3.05500000E+02
  0
LINE
  8
0
 62
7
 10
-1.05999992E+02
 20
2.55499985E+02
 11
-7.99999924E+01
 21
2.55499985E+02
  0
LINE
  8
0
 62
7
 10
-1.08000008E+02
 20
3.03500000E+02
 11
-1.08000008E+02
 21
2.57500000E+02
  0
LINE
  8
0
  6
CENTER
 62
2
 10
5.13648529E+01
 20
2.88500000E+02
 11
2.97606735E+01
 21
2.88500000E+02
  0
LINE
  8
0
  6
CENTER
 62
2
 10
4.10000458E+01
 20
2.78499985E+02
 11
4.10000458E+01
 21
2.99046265E+02
  0
LINE
  8
0
 62
7
 10
6.04999924E+01
 20
2.99499985E+02
 11
5.89999924E+01
 21
2.99499985E+02
  0
LINE
  8
0
 62
7
 10
5.85087352E+01
 20
3.17449995E+02
 11
2.70000456E+01
 21
3.17999981E+02
  0
LINE
  8
0
 62
7
 10
6.04999924E+01
 20
2.61499985E+02
 11
5.89999924E+01
 21
2.61499985E+02
  0
LINE
  8
0
 62
7
 10
5.89999809E+01
 20
3.16950073E+02
 11
5.89999809E+01
 21
2.44049911E+02
  0
LINE
  8
0
 62
7
 10
2.69999924E+01
 20
3.17999939E+02
 11
2.69999924E+01
 21
2.42999969E+02
  0
LINE
  8
0
 62
7
 10
5.85087298E+01
 20
2.43550001E+02
 11
2.70000135E+01
 21
2.43000014E+02
  0
LINE
  8
0
 62
7
 10
6.09999886E+01
 20
2.98999985E+02
 11
6.09999886E+01
 21
2.61999985E+02
  0
LINE
  8
0
 62
7
 10
5.29999847E+01
 20
2.55499985E+02
 11
2.69999924E+01
 21
2.55499985E+02
  0
LINE
  8
0
 62
7
 10
5.29999847E+01
 20
3.05500000E+02
 11
2.69999924E+01
 21
3.05500000E+02
  0
LINE
  8
0
 62
7
 10
5.49999847E+01
 20
2.57500000E+02
 11
5.49999847E+01
 21
3.03500000E+02
  0
LINE
  8
0
  6
CENTER
 62
2
 10
6.32292404E+01
 20
2.52499969E+02
 11
-1.15248085E+02
 21
2.52499969E+02
  0
LINE
  8
0
 62
7
 10
2.69999924E+01
 20
2.56100021E+02
 11
1.99999924E+01
 21
2.56100021E+02
  0
LINE
  8
0
 62
7
 10
2.69999924E+01
 20
2.48900009E+02
 11
4.99999237E+00
 21
2.48900009E+02
  0
LINE
  8
0
 62
7
 10
2.69999924E+01
 20
2.46500031E+02
 11
4.99999237E+00
 21
2.46500031E+02
  0
LINE
  8
0
  6
CENTER
 62
2
 10
3.40000229E+01
 20
2.74911148E+02
 11
3.40000229E+01
 21
2.61434402E+02
  0
LINE
  8
0
  6
CENTER
 62
2
 10
2.73342972E+01
 20
2.68500000E+02
 11
4.01630478E+01
 21
2.68500000E+02
  0
LINE
  8
0
 62
7
 10
3.57320801E+01
 20
2.68499894E+02
 11
3.48660485E+01
 21
2.69999913E+02
  0
LINE
  8
0
 62
7
 10
3.48660355E+01
 20
2.70000015E+02
 11
3.31339722E+01
 21
2.70000015E+02
  0
LINE
  8
0
 62
7
 10
3.22681294E+01
 20
2.68499876E+02
 11
3.31341380E+01
 21
2.69999856E+02
  0
LINE
  8
0
 62
7
 10
3.31340299E+01
 20
2.66999971E+02
 11
3.22679831E+01
 21
2.68500017E+02
  0
LINE
  8
0
 62
7
 10
3.48660355E+01
 20
2.66999985E+02
 11
3.31339722E+01
 21
2.66999985E+02
  0
LINE
  8
0
 62
7
 10
3.57321521E+01
 20
2.68499901E+02
 11
3.48661205E+01
 21
2.66999882E+02
  0
LINE
  8
0
 62
7
 10
-8.52679675E+01
 20
2.68499922E+02
 11
-8.61339914E+01
 21
2.69999929E+02
  0
LINE
  8
0
 62
7
 10
-8.61340256E+01
 20
2.70000015E+02
 11
-8.78660965E+01
 21
2.70000015E+02
  0
LINE
  8
0
 62
7
 10
-8.87319309E+01
 20
2.68499864E+02
 11
-8.78659108E+01
 21
2.69999864E+02
  0
LINE
  8
0
 62
7
 10
-8.78659882E+01
 20
2.66999963E+02
 11
-8.87320273E+01
 21
2.68499996E+02
  0
LINE
  8
0
 62
7
 10
-8.61340256E+01
 20
2.66999985E+02
 11
-8.78660965E+01
 21
2.66999985E+02
  0
LINE
  8
0
 62
7
 10
-8.52679441E+01
 20
2.68499918E+02
 11
-8.61339794E+01
 21
2.66999892E+02
  0
LINE
  8
0
  6
CENTER
 62
2
 10
-9.36657639E+01
 20
2.68500000E+02
 11
-8.08370132E+01
 21
2.68500000E+02
  0
LINE
  8
0
  6
CENTER
 62
2
 10
-8.70000381E+01
 20
2.74911148E+02
 11
-8.70000381E+01
 21
2.61434402E+02
  0
LINE
  8
0
  6
CENTER
 62
2
 10
6.32292404E+01
 20
3.08500031E+02
 11
-1.15248085E+02
 21
3.08500031E+02
  0
LINE
  8
0
 62
7
 10
2.69999924E+01
 20
3.04899994E+02
 11
-3.89999924E+01
 21
3.04899994E+02
  0
LINE
  8
0
 62
7
 10
2.69999924E+01
 20
3.12100006E+02
 11
-3.89999924E+01
 21
3.12100006E+02
  0
LINE
  8
0
 62
7
 10
2.69999924E+01
 20
3.14499969E+02
 11
-3.89999924E+01
 21
3.14499969E+02
  0
LINE
  8
0
 62
7
 10
-1.36999962E+02
 20
2.71500000E+02
 11
-1.36999962E+02
 21
2.89499985E+02
  0
LINE
  8
0
 62
7
 10
-1.31642311E+02
 20
2.69549973E+02
 11
-1.26999992E+02
 21
2.69549973E+02
  0
LINE
  8
0
 62
7
 10
-1.68999977E+02
 20
2.73000015E+02
 11
-1.68999977E+02
 21
2.87999832E+02
  0
LINE
  8
0
 62
7
 10
-1.67499977E+02
 20
2.71499985E+02
 11
-1.67499977E+02
 21
2.89499985E+02
  0
LINE
  8
0
 62
7
 10
-1.67499916E+02
 20
2.89499985E+02
 11
-1.59999977E+02
 21
2.89499985E+02
  0
LINE
  8
0
 62
2
 10
-1.68319923E+02
 20
2.88679977E+02
 11
-1.59999977E+02
 21
2.88679977E+02
  0
LINE
  8
0
 62
7
 10
-1.68999907E+02
 20
2.87999833E+02
 11
-1.67499861E+02
 21
2.89499833E+02
  0
LINE
  8
0
 62
7
 10
-1.67499916E+02
 20
2.71499985E+02
 11
-1.59999977E+02
 21
2.71499985E+02
  0
LINE
  8
0
 62
2
 10
-1.68319923E+02
 20
2.72319992E+02
 11
-1.59999977E+02
 21
2.72319992E+02
  0
LINE
  8
0
 62
7
 10
-1.68999984E+02
 20
2.73000051E+02
 11
-1.67499949E+02
 21
2.71500061E+02
  0
LINE
  8
0
 62
7
 10
-1.31642296E+02
 20
2.75024979E+02
 11
-1.26999992E+02
 21
2.75024979E+02
  0
LINE
  8
0
 62
7
 10
-1.31642296E+02
 20
2.85974991E+02
 11
-1.26999992E+02
 21
2.85974991E+02
  0
LINE
  8
0
 62
7
 10
-1.36999973E+02
 20
2.71499999E+02
 11
-1.31642309E+02
 21
2.69549968E+02
  0
LINE
  8
0
 62
7
 10
-1.31642326E+02
 20
2.91449997E+02
 11
-1.26999992E+02
 21
2.91449997E+02
  0
LINE
  8
0
 62
7
 10
-1.39999962E+02
 20
2.71499985E+02
 11
-1.39999962E+02
 21
2.89499985E+02
  0
LINE
  8
0
 62
7
 10
-1.36999944E+02
 20
2.89499966E+02
 11
-1.31642294E+02
 21
2.91449991E+02
  0
LINE
  8
0
 62
7
 10
-1.39999962E+02
 20
2.88679977E+02
 11
-1.36999962E+02
 21
2.88679977E+02
  0
LINE
  8
0
 62
7
 10
-1.39999962E+02
 20
2.72319992E+02
 11
-1.36999962E+02
 21
2.72319992E+02
  0
ARC
  8
0
 62
7
 10
-1.26500008E+02
 20
2.64000031E+02
 40
5.00000000E-01
 50
1.79999977E+02
 51
2.69999974E+02
  0
ARC
  8
0
 62
7
 10
-1.21750008E+02
 20
2.63491455E+02
 40
2.50000000E-01
 50
1.79999977E+02
 51
2.68001132E+02
  0
ARC
  8
0
 62
7
 10
-1.11500008E+02
 20
2.44049927E+02
 40
5.00000000E-01
 50
1.79999977E+02
 51
2.68999706E+02
  0
ARC
  8
0
 62
7
 10
-1.13499992E+02
 20
2.61999985E+02
 40
5.00000000E-01
 50
1.79999977E+02
 51
2.69999974E+02
  0
ARC
  8
0
 62
7
 10
-1.26500008E+02
 20
2.96999939E+02
 40
5.00000000E-01
 50
8.99999818E+01
 51
1.79999964E+02
  0
ARC
  8
0
 62
7
 10
-1.21750008E+02
 20
2.97508514E+02
 40
2.50000000E-01
 50
9.19988230E+01
 51
1.79999977E+02
  0
ARC
  8
0
 62
7
 10
-1.11500008E+02
 20
3.16950073E+02
 40
5.00000000E-01
 50
9.10002223E+01
 51
1.79999964E+02
  0
ARC
  8
0
 62
7
 10
-1.13499992E+02
 20
2.98999985E+02
 40
5.00000000E-01
 50
8.99999818E+01
 51
1.79999964E+02
  0
CIRCLE
  8
0
 62
7
 10
-9.40000687E+01
 20
2.88500000E+02
 40
8.71000004E+00
  0
CIRCLE
  8
0
 62
7
 10
-9.40000687E+01
 20
2.88500000E+02
 40
7.44000006E+00
  0
ARC
  8
0
 62
7
 10
-1.05999992E+02
 20
3.03500000E+02
 40
2.00000000E+00
 50
8.99999818E+01
 51
1.79999964E+02
  0
ARC
  8
0
 62
7
 10
-1.05999992E+02
 20
2.57499969E+02
 40
2.00000000E+00
 50
1.79999977E+02
 51
2.70000028E+02
  0
CIRCLE
  8
0
 62
2
 10
-9.40000687E+01
 20
2.88500000E+02
 40
8.32999992E+00
  0
ARC
  8
0
 62
7
 10
5.84999886E+01
 20
3.16950073E+02
 40
5.00000000E-01
 50
5.46415133E-05
 51
8.89997964E+01
  0
ARC
  8
0
 62
7
 10
6.04999962E+01
 20
2.98999985E+02
 40
5.00000000E-01
 50
5.46415133E-05
 51
9.00000369E+01
  0
ARC
  8
0
 62
7
 10
5.84999886E+01
 20
2.44049881E+02
 40
5.00000000E-01
 50
2.71000313E+02
 51
5.46415133E-05
  0
ARC
  8
0
 62
7
 10
6.04999962E+01
 20
2.61999985E+02
 40
5.00000000E-01
 50
2.70000073E+02
 51
5.46415133E-05
  0
CIRCLE
  8
0
 62
7
 10
4.10000458E+01
 20
2.88500000E+02
 40
8.71000004E+00
  0
CIRCLE
  8
0
 62
7
 10
4.10000458E+01
 20
2.88500000E+02
 40
7.44000006E+00
  0
ARC
  8
0
 62
7
 10
5.30000000E+01
 20
2.57499969E+02
 40
2.00000000E+00
 50
2.70000073E+02
 51
5.46415133E-05
  0
ARC
  8
0
 62
7
 10
5.30000000E+01
 20
3.03500000E+02
 40
2.00000000E+00
 50
5.46415133E-05
 51
9.00000913E+01
  0
CIRCLE
  8
0
 62
2
 10
4.10000458E+01
 20
2.88500000E+02
 40
8.32999992E+00
  0
CIRCLE
  8
0
 62
7
 10
3.40000229E+01
 20
2.68500000E+02
 40
5.00000000E+00
  0
CIRCLE
  8
0
 62
7
 10
-8.70000381E+01
 20
2.68500000E+02
 40
5.00000000E+00
  0
CIRCLE
  8
0
 62
7
 10
-8.70000381E+01
 20
2.68500000E+02
 40
2.59999990E+00
  0
CIRCLE
  8
0
 62
7
 10
3.40000229E+01
 20
2.68500000E+02
 40
2.59999990E+00
  0
POLYLINE
  8
0
 62
7
 66
1
  0
VERTEX
  8
0
 62
7
 10
-1.31642296E+02
 20
2.75024971E+02
  0
VERTEX
  8
0
 62
7
 10
-1.31989874E+02
 20
2.75015295E+02
  0
VERTEX
  8
0
 62
7
 10
-1.32334801E+02
 20
2.74986341E+02
  0
VERTEX
  8
0
 62
7
 10
-1.32674447E+02
 20
2.74938329E+02
  0
VERTEX
  8
0
 62
7
 10
-1.33006221E+02
 20
2.74871626E+02
  0
VERTEX
  8
0
 62
7
 10
-1.33327593E+02
 20
2.74786740E+02
  0
VERTEX
  8
0
 62
7
 10
-1.33636112E+02
 20
2.74684319E+02
  0
VERTEX
  8
0
 62
7
 10
-1.33929426E+02
 20
2.74565144E+02
  0
VERTEX
  8
0
 62
7
 10
-1.34205296E+02
 20
2.74430124E+02
  0
VERTEX
  8
0
 62
7
 10
-1.34461621E+02
 20
2.74280288E+02
  0
VERTEX
  8
0
 62
7
 10
-1.34696444E+02
 20
2.74116779E+02
  0
VERTEX
  8
0
 62
7
 10
-1.34907974E+02
 20
2.73940845E+02
  0
VERTEX
  8
0
 62
7
 10
-1.35094599E+02
 20
2.73753826E+02
  0
VERTEX
  8
0
 62
7
 10
-1.35254896E+02
 20
2.73557150E+02
  0
VERTEX
  8
0
 62
7
 10
-1.35387640E+02
 20
2.73352315E+02
  0
VERTEX
  8
0
 62
7
 10
-1.35491822E+02
 20
2.73140885E+02
  0
VERTEX
  8
0
 62
7
 10
-1.35566645E+02
 20
2.72924472E+02
  0
VERTEX
  8
0
 62
7
 10
-1.35611539E+02
 20
2.72704726E+02
  0
VERTEX
  8
0
 62
7
 10
-1.35626162E+02
 20
2.72483324E+02
  0
VERTEX
  8
0
 62
7
 10
-1.35610402E+02
 20
2.72261953E+02
  0
VERTEX
  8
0
 62
7
 10
-1.35564380E+02
 20
2.72042302E+02
  0
VERTEX
  8
0
 62
7
 10
-1.35488446E+02
 20
2.71826045E+02
  0
VERTEX
  8
0
 62
7
 10
-1.35383180E+02
 20
2.71614834E+02
  0
VERTEX
  8
0
 62
7
 10
-1.35249384E+02
 20
2.71410277E+02
  0
VERTEX
  8
0
 62
7
 10
-1.35088079E+02
 20
2.71213936E+02
  0
VERTEX
  8
0
 62
7
 10
-1.34900495E+02
 20
2.71027307E+02
  0
VERTEX
  8
0
 62
7
 10
-1.34688062E+02
 20
2.70851814E+02
  0
VERTEX
  8
0
 62
7
 10
-1.34452401E+02
 20
2.70688795E+02
  0
VERTEX
  8
0
 62
7
 10
-1.34195308E+02
 20
2.70539494E+02
  0
VERTEX
  8
0
 62
7
 10
-1.33918746E+02
 20
2.70405049E+02
  0
VERTEX
  8
0
 62
7
 10
-1.33624822E+02
 20
2.70286485E+02
  0
SEQEND
  8
0
  0
POLYLINE
  8
0
 62
7
 66
1
  0
VERTEX
  8
0
 62
7
 10
-1.33624822E+02
 20
2.90713485E+02
  0
VERTEX
  8
0
 62
7
 10
-1.33918746E+02
 20
2.90594921E+02
  0
VERTEX
  8
0
 62
7
 10
-1.34195308E+02
 20
2.90460476E+02
  0
VERTEX
  8
0
 62
7
 10
-1.34452401E+02
 20
2.90311175E+02
  0
VERTEX
  8
0
 62
7
 10
-1.34688062E+02
 20
2.90148156E+02
  0
VERTEX
  8
0
 62
7
 10
-1.34900495E+02
 20
2.89972663E+02
  0
VERTEX
  8
0
 62
7
 10
-1.35088079E+02
 20
2.89786034E+02
  0
VERTEX
  8
0
 62
7
 10
-1.35249384E+02
 20
2.89589693E+02
  0
VERTEX
  8
0
 62
7
 10
-1.35383180E+02
 20
2.89385136E+02
  0
VERTEX
  8
0
 62
7
 10
-1.35488446E+02
 20
2.89173925E+02
  0
VERTEX
  8
0
 62
7
 10
-1.35564380E+02
 20
2.88957668E+02
  0
VERTEX
  8
0
 62
7
 10
-1.35610402E+02
 20
2.88738017E+02
  0
VERTEX
  8
0
 62
7
 10
-1.35626162E+02
 20
2.88516646E+02
  0
VERTEX
  8
0
 62
7
 10
-1.35611539E+02
 20
2.88295244E+02
  0
VERTEX
  8
0
 62
7
 10
-1.35566645E+02
 20
2.88075498E+02
  0
VERTEX
  8
0
 62
7
 10
-1.35491822E+02
 20
2.87859085E+02
  0
VERTEX
  8
0
 62
7
 10
-1.35387640E+02
 20
2.87647655E+02
  0
VERTEX
  8
0
 62
7
 10
-1.35254896E+02
 20
2.87442820E+02
  0
VERTEX
  8
0
 62
7
 10
-1.35094599E+02
 20
2.87246144E+02
  0
VERTEX
  8
0
 62
7
 10
-1.34907974E+02
 20
2.87059125E+02
  0
VERTEX
  8
0
 62
7
 10
-1.34696444E+02
 20
2.86883191E+02
  0
VERTEX
  8
0
 62
7
 10
-1.34461621E+02
 20
2.86719682E+02
  0
VERTEX
  8
0
 62
7
 10
-1.34205296E+02
 20
2.86569846E+02
  0
VERTEX
  8
0
 62
7
 10
-1.33929426E+02
 20
2.86434826E+02
  0
VERTEX
  8
0
 62
7
 10
-1.33636112E+02
 20
2.86315651E+02
  0
VERTEX
  8
0
 62
7
 10
-1.33327593E+02
 20
2.86213230E+02
  0
VERTEX
  8
0
 62
7
 10
-1.33006221E+02
 20
2.86128344E+02
  0
VERTEX
  8
0
 62
7
 10
-1.32674446E+02
 20
2.86061641E+02
  0
VERTEX
  8
0
 62
7
 10
-1.32334801E+02
 20
2.86013629E+02
  0
VERTEX
  8
0
 62
7
 10
-1.31989874E+02
 20
2.85984675E+02
  0
VERTEX
  8
0
 62
7
 10
-1.31642296E+02
 20
2.85974999E+02
  0
SEQEND
  8
0
  0
POLYLINE
  8
0
 62
7
 66
1
  0
VERTEX
  8
0
 62
7
 10
-1.31642296E+02
 20
2.85974991E+02
  0
VERTEX
  8
0
 62
7
 10
-1.31999407E+02
 20
2.85952950E+02
  0
VERTEX
  8
0
 62
7
 10
-1.32353644E+02
 20
2.85887006E+02
  0
VERTEX
  8
0
 62
7
 10
-1.32702153E+02
 20
2.85777688E+02
  0
VERTEX
  8
0
 62
7
 10
-1.33042128E+02
 20
2.85625877E+02
  0
VERTEX
  8
0
 62
7
 10
-1.33370833E+02
 20
2.85432795E+02
  0
VERTEX
  8
0
 62
7
 10
-1.33685621E+02
 20
2.85199997E+02
  0
VERTEX
  8
0
 62
7
 10
-1.33983957E+02
 20
2.84929358E+02
  0
VERTEX
  8
0
 62
7
 10
-1.34263439E+02
 20
2.84623056E+02
  0
VERTEX
  8
0
 62
7
 10
-1.34521818E+02
 20
2.84283557E+02
  0
VERTEX
  8
0
 62
7
 10
-1.34757012E+02
 20
2.83913595E+02
  0
VERTEX
  8
0
 62
7
 10
-1.34967129E+02
 20
2.83516149E+02
  0
VERTEX
  8
0
 62
7
 10
-1.35150475E+02
 20
2.83094419E+02
  0
VERTEX
  8
0
 62
7
 10
-1.35305576E+02
 20
2.82651799E+02
  0
VERTEX
  8
0
 62
7
 10
-1.35431183E+02
 20
2.82191855E+02
  0
VERTEX
  8
0
 62
7
 10
-1.35526283E+02
 20
2.81718288E+02
  0
VERTEX
  8
0
 62
7
 10
-1.35590112E+02
 20
2.81234913E+02
  0
VERTEX
  8
0
 62
7
 10
-1.35622156E+02
 20
2.80745620E+02
  0
VERTEX
  8
0
 62
7
 10
-1.35622156E+02
 20
2.80254350E+02
  0
VERTEX
  8
0
 62
7
 10
-1.35590112E+02
 20
2.79765057E+02
  0
VERTEX
  8
0
 62
7
 10
-1.35526283E+02
 20
2.79281682E+02
  0
VERTEX
  8
0
 62
7
 10
-1.35431183E+02
 20
2.78808115E+02
  0
VERTEX
  8
0
 62
7
 10
-1.35305576E+02
 20
2.78348171E+02
  0
VERTEX
  8
0
 62
7
 10
-1.35150475E+02
 20
2.77905551E+02
  0
VERTEX
  8
0
 62
7
 10
-1.34967129E+02
 20
2.77483821E+02
  0
VERTEX
  8
0
 62
7
 10
-1.34757012E+02
 20
2.77086375E+02
  0
VERTEX
  8
0
 62
7
 10
-1.34521818E+02
 20
2.76716413E+02
  0
VERTEX
  8
0
 62
7
 10
-1.34263439E+02
 20
2.76376914E+02
  0
VERTEX
  8
0
 62
7
 10
-1.33983957E+02
 20
2.76070612E+02
  0
VERTEX
  8
0
 62
7
 10
-1.33685621E+02
 20
2.75799973E+02
  0
VERTEX
  8
0
 62
7
 10
-1.33370833E+02
 20
2.75567175E+02
  0
VERTEX
  8
0
 62
7
 10
-1.33042128E+02
 20
2.75374093E+02
  0
VERTEX
  8
0
 62
7
 10
-1.32702153E+02
 20
2.75222282E+02
  0
VERTEX
  8
0
 62
7
 10
-1.32353644E+02
 20
2.75112965E+02
  0
VERTEX
  8
0
 62
7
 10
-1.31999408E+02
 20
2.75047020E+02
  0
VERTEX
  8
0
 62
7
 10
-1.31642296E+02
 20
2.75024979E+02
  0
SEQEND
  8
0
  0
ARC
  8
0
 62
4
 10
-1.68496370E+02
 20
2.73750000E+02
 40
1.94963929E+01
 50
3.39743842E+02
 51
2.02561580E+01
  0
ARC
  8
0
 62
4
 10
-1.68496370E+02
 20
2.87250000E+02
 40
1.94963929E+01
 50
3.39743842E+02
 51
2.02561580E+01
  0
ARC
  8
0
 62
4
 10
-1.40503584E+02
 20
2.87250000E+02
 40
1.94963929E+01
 50
1.59743842E+02
 51
2.00256158E+02
  0
ARC
  8
0
 62
4
 10
-1.40503584E+02
 20
2.73750000E+02
 40
1.94963929E+01
 50
1.59743842E+02
 51
2.00256158E+02
  0
LINE
  8
0
 62
4
 10
-1.50205748E+02
 20
2.80500000E+02
 11
-1.58794206E+02
 21
2.80500000E+02
  0
LINE
  8
0
 62
4
 10
-1.48999977E+02
 20
2.67000000E+02
 11
-1.59999977E+02
 21
2.67000000E+02
  0
LINE
  8
0
 62
4
 10
-1.48999977E+02
 20
2.94000000E+02
 11
-1.59999977E+02
 21
2.94000000E+02
  0
LINE
  8
0
 62
4
 10
-1.59999977E+02
 20
2.94000000E+02
 11
-1.59999977E+02
 21
2.67000000E+02
  0
LINE
  8
0
 62
4
 10
-1.48999977E+02
 20
2.94000000E+02
 11
-1.48999977E+02
 21
2.67000000E+02
  0
LINE
  8
0
 62
7
 10
-1.48999977E+02
 20
2.89499985E+02
 11
-1.39999962E+02
 21
2.89499985E+02
  0
LINE
  8
0
 62
2
 10
-1.48999977E+02
 20
2.88679977E+02
 11
-1.39999962E+02
 21
2.88679977E+02
  0
LINE
  8
0
 62
7
 10
-1.48999977E+02
 20
2.71499985E+02
 11
-1.39999962E+02
 21
2.71499985E+02
  0
LINE
  8
0
 62
2
 10
-1.48999977E+02
 20
2.72319992E+02
 11
-1.39999962E+02
 21
2.72319992E+02
  0
LINE
  8
0
 62
6
 10
-3.07320432E+01
 20
2.90071310E+02
 11
-2.72679416E+01
 21
2.96071310E+02
  0
LINE
  8
0
 62
4
 10
-3.89999924E+01
 20
2.91571310E+02
 11
-2.98660178E+01
 21
2.91571310E+02
  0
LINE
  8
0
  6
CENTER
 62
6
 10
-7.39999924E+01
 20
2.93071310E+02
 11
-2.69999924E+01
 21
2.93071310E+02
  0
LINE
  8
0
 62
4
 10
-3.89999924E+01
 20
2.94571310E+02
 11
-2.81339670E+01
 21
2.94571310E+02
  0
LINE
  8
0
 62
4
 10
-4.84999923E+01
 20
3.18607797E+02
 11
-4.84999923E+01
 21
3.17767878E+02
  0
LINE
  8
0
 62
4
 10
-5.24999923E+01
 20
3.18607797E+02
 11
-5.24999923E+01
 21
3.17767878E+02
  0
LINE
  8
0
 62
6
 10
-4.89999923E+01
 20
3.19016588E+02
 11
-4.89999923E+01
 21
3.17767878E+02
  0
LINE
  8
0
 62
6
 10
-5.19999923E+01
 20
3.19016588E+02
 11
-5.19999923E+01
 21
3.17767878E+02
  0
LINE
  8
0
  6
CENTER
 62
6
 10
-6.14999924E+01
 20
2.96455151E+02
 11
-6.14999924E+01
 21
2.91455151E+02
  0
LINE
  8
0
  6
CENTER
 62
6
 10
-5.04999923E+01
 20
3.23165609E+02
 11
-5.04999923E+01
 21
3.12900031E+02
  0
LINE
  8
0
  6
CENTER
 62
6
 10
-4.24999923E+01
 20
3.23165609E+02
 11
-4.24999923E+01
 21
3.12900031E+02
  0
LINE
  8
0
 62
4
 10
-6.89999924E+01
 20
3.05141610E+02
 11
-6.89999924E+01
 21
2.92131951E+02
  0
LINE
  8
0
 62
4
 10
-3.89999924E+01
 20
3.17767878E+02
 11
-3.89999924E+01
 21
2.90401456E+02
  0
LINE
  8
0
 62
4
 10
-5.39999924E+01
 20
3.17767878E+02
 11
-5.39999924E+01
 21
3.05141610E+02
  0
LINE
  8
0
 62
4
 10
-7.04999924E+01
 20
2.94499948E+02
 11
-7.04999924E+01
 21
2.91645882E+02
  0
LINE
  8
0
 62
4
 10
-5.39999924E+01
 20
3.17767878E+02
 11
-3.89999924E+01
 21
3.17767878E+02
  0
LINE
  8
0
 62
4
 10
-5.39999924E+01
 20
3.09421364E+02
 11
-3.89999924E+01
 21
3.09421364E+02
  0
LINE
  8
0
 62
4
 10
-6.89999924E+01
 20
3.05141610E+02
 11
-3.89999924E+01
 21
3.05141610E+02
  0
LINE
  8
0
 62
4
 10
-6.89999924E+01
 20
2.95345727E+02
 11
-3.89999924E+01
 21
2.95345727E+02
  0
LINE
  8
0
 62
4
 10
-6.89999924E+01
 20
2.90401456E+02
 11
-5.79017600E+01
 21
2.90401456E+02
  0
POLYLINE
  8
0
 62
4
 66
1
  0
VERTEX
  8
0
 62
4
 10
-4.84999923E+01
 20
3.18607797E+02
  0
VERTEX
  8
0
 62
4
 10
-4.85080437E+01
 20
3.18663197E+02
  0
VERTEX
  8
0
 62
4
 10
-4.85321331E+01
 20
3.18718151E+02
  0
VERTEX
  8
0
 62
4
 10
-4.85720666E+01
 20
3.18772217E+02
  0
VERTEX
  8
0
 62
4
 10
-4.86275226E+01
 20
3.18824959E+02
  0
VERTEX
  8
0
 62
4
 10
-4.86980546E+01
 20
3.18875952E+02
  0
VERTEX
  8
0
 62
4
 10
-4.87830947E+01
 20
3.18924786E+02
  0
VERTEX
  8
0
 62
4
 10
-4.88819583E+01
 20
3.18971068E+02
  0
VERTEX
  8
0
 62
4
 10
-4.89938494E+01
 20
3.19014425E+02
  0
VERTEX
  8
0
 62
4
 10
-4.91178670E+01
 20
3.19054509E+02
  0
VERTEX
  8
0
 62
4
 10
-4.92530127E+01
 20
3.19090995E+02
  0
VERTEX
  8
0
 62
4
 10
-4.93981983E+01
 20
3.19123592E+02
  0
VERTEX
  8
0
 62
4
 10
-4.95522550E+01
 20
3.19152035E+02
  0
VERTEX
  8
0
 62
4
 10
-4.97139422E+01
 20
3.19176096E+02
  0
VERTEX
  8
0
 62
4
 10
-4.98819583E+01
 20
3.19195582E+02
  0
VERTEX
  8
0
 62
4
 10
-5.00549504E+01
 20
3.19210336E+02
  0
VERTEX
  8
0
 62
4
 10
-5.02315258E+01
 20
3.19220238E+02
  0
VERTEX
  8
0
 62
4
 10
-5.04102626E+01
 20
3.19225209E+02
  0
VERTEX
  8
0
 62
4
 10
-5.05897219E+01
 20
3.19225209E+02
  0
VERTEX
  8
0
 62
4
 10
-5.07684588E+01
 20
3.19220238E+02
  0
VERTEX
  8
0
 62
4
 10
-5.09450342E+01
 20
3.19210336E+02
  0
VERTEX
  8
0
 62
4
 10
-5.11180263E+01
 20
3.19195582E+02
  0
VERTEX
  8
0
 62
4
 10
-5.12860424E+01
 20
3.19176096E+02
  0
VERTEX
  8
0
 62
4
 10
-5.14477296E+01
 20
3.19152035E+02
  0
VERTEX
  8
0
 62
4
 10
-5.16017863E+01
 20
3.19123592E+02
  0
VERTEX
  8
0
 62
4
 10
-5.17469719E+01
 20
3.19090995E+02
  0
VERTEX
  8
0
 62
4
 10
-5.18821176E+01
 20
3.19054509E+02
  0
VERTEX
  8
0
 62
4
 10
-5.20061352E+01
 20
3.19014426E+02
  0
VERTEX
  8
0
 62
4
 10
-5.21180263E+01
 20
3.18971068E+02
  0
VERTEX
  8
0
 62
4
 10
-5.22168899E+01
 20
3.18924786E+02
  0
VERTEX
  8
0
 62
4
 10
-5.23019300E+01
 20
3.18875952E+02
  0
VERTEX
  8
0
 62
4
 10
-5.23724620E+01
 20
3.18824959E+02
  0
VERTEX
  8
0
 62
4
 10
-5.24279180E+01
 20
3.18772217E+02
  0
VERTEX
  8
0
 62
4
 10
-5.24678515E+01
 20
3.18718151E+02
  0
VERTEX
  8
0
 62
4
 10
-5.24919409E+01
 20
3.18663197E+02
  0
VERTEX
  8
0
 62
4
 10
-5.24999923E+01
 20
3.18607797E+02
  0
SEQEND
  8
0
  0
LINE
  8
0
 62
4
 10
-4.04999923E+01
 20
3.18607797E+02
 11
-4.04999923E+01
 21
3.17767878E+02
  0
LINE
  8
0
 62
6
 10
-4.09999923E+01
 20
3.19016588E+02
 11
-4.09999923E+01
 21
3.17767878E+02
  0
POLYLINE
  8
0
 62
4
 66
1
  0
VERTEX
  8
0
 62
4
 10
-4.04999923E+01
 20
3.18607797E+02
  0
VERTEX
  8
0
 62
4
 10
-4.05080437E+01
 20
3.18663197E+02
  0
VERTEX
  8
0
 62
4
 10
-4.05321331E+01
 20
3.18718151E+02
  0
VERTEX
  8
0
 62
4
 10
-4.05720666E+01
 20
3.18772217E+02
  0
VERTEX
  8
0
 62
4
 10
-4.06275226E+01
 20
3.18824959E+02
  0
VERTEX
  8
0
 62
4
 10
-4.06980546E+01
 20
3.18875952E+02
  0
VERTEX
  8
0
 62
4
 10
-4.07830947E+01
 20
3.18924786E+02
  0
VERTEX
  8
0
 62
4
 10
-4.08819583E+01
 20
3.18971068E+02
  0
VERTEX
  8
0
 62
4
 10
-4.09938494E+01
 20
3.19014425E+02
  0
VERTEX
  8
0
 62
4
 10
-4.11178670E+01
 20
3.19054509E+02
  0
VERTEX
  8
0
 62
4
 10
-4.12530127E+01
 20
3.19090995E+02
  0
VERTEX
  8
0
 62
4
 10
-4.13981983E+01
 20
3.19123592E+02
  0
VERTEX
  8
0
 62
4
 10
-4.15522550E+01
 20
3.19152035E+02
  0
VERTEX
  8
0
 62
4
 10
-4.17139422E+01
 20
3.19176096E+02
  0
VERTEX
  8
0
 62
4
 10
-4.18819583E+01
 20
3.19195582E+02
  0
VERTEX
  8
0
 62
4
 10
-4.20549504E+01
 20
3.19210336E+02
  0
VERTEX
  8
0
 62
4
 10
-4.22315258E+01
 20
3.19220238E+02
  0
VERTEX
  8
0
 62
4
 10
-4.24102626E+01
 20
3.19225209E+02
  0
VERTEX
  8
0
 62
4
 10
-4.25897219E+01
 20
3.19225209E+02
  0
VERTEX
  8
0
 62
4
 10
-4.27684588E+01
 20
3.19220238E+02
  0
VERTEX
  8
0
 62
4
 10
-4.29450342E+01
 20
3.19210336E+02
  0
VERTEX
  8
0
 62
4
 10
-4.31180263E+01
 20
3.19195582E+02
  0
VERTEX
  8
0
 62
4
 10
-4.32860424E+01
 20
3.19176096E+02
  0
VERTEX
  8
0
 62
4
 10
-4.34477296E+01
 20
3.19152035E+02
  0
VERTEX
  8
0
 62
4
 10
-4.36017863E+01
 20
3.19123592E+02
  0
VERTEX
  8
0
 62
4
 10
-4.37469719E+01
 20
3.19090995E+02
  0
VERTEX
  8
0
 62
4
 10
-4.38821176E+01
 20
3.19054509E+02
  0
VERTEX
  8
0
 62
4
 10
-4.40061352E+01
 20
3.19014426E+02
  0
VERTEX
  8
0
 62
4
 10
-4.41180263E+01
 20
3.18971068E+02
  0
VERTEX
  8
0
 62
4
 10
-4.42168899E+01
 20
3.18924786E+02
  0
VERTEX
  8
0
 62
4
 10
-4.43019300E+01
 20
3.18875952E+02
  0
VERTEX
  8
0
 62
4
 10
-4.43724620E+01
 20
3.18824959E+02
  0
VERTEX
  8
0
 62
4
 10
-4.44279180E+01
 20
3.18772217E+02
  0
VERTEX
  8
0
 62
4
 10
-4.44678515E+01
 20
3.18718151E+02
  0
VERTEX
  8
0
 62
4
 10
-4.44919409E+01
 20
3.18663197E+02
  0
VERTEX
  8
0
 62
4
 10
-4.44999923E+01
 20
3.18607797E+02
  0
SEQEND
  8
0
  0
LINE
  8
0
 62
4
 10
-4.44999923E+01
 20
3.18607797E+02
 11
-4.44999923E+01
 21
3.17767878E+02
  0
LINE
  8
0
 62
6
 10
-4.39999923E+01
 20
3.19016588E+02
 11
-4.39999923E+01
 21
3.17767878E+02
  0
LINE
  8
0
 62
4
 10
-6.89999924E+01
 20
2.95591457E+02
 11
-7.04999924E+01
 21
2.94499948E+02
  0
LINE
  8
0
 62
4
 10
-7.04999924E+01
 20
2.92345805E+02
 11
-6.89999924E+01
 21
2.91787231E+02
  0
LINE
  8
0
 62
4
 10
-6.89999924E+01
 20
2.90551163E+02
 11
-7.04999924E+01
 21
2.91645882E+02
  0
LINE
  8
0
 62
4
 10
-6.89999924E+01
 20
2.92131951E+02
 11
-5.81499924E+01
 21
2.92131951E+02
  0
LINE
  8
0
 62
4
 10
-4.34343943E+01
 20
2.90710473E+02
 11
-3.89999924E+01
 21
2.90710473E+02
  0
LINE
  8
0
 62
4
 10
-6.89999924E+01
 20
2.91787231E+02
 11
-5.81499924E+01
 21
2.91787231E+02
  0
LINE
  8
0
 62
4
 10
-6.89999924E+01
 20
2.90551163E+02
 11
-5.80446076E+01
 21
2.90551163E+02
  0
LINE
  8
0
 62
4
 10
-6.89999924E+01
 20
2.92131951E+02
 11
-6.89999924E+01
 21
2.90551163E+02
  0
LINE
  8
0
 62
4
 10
-6.89999924E+01
 20
2.90551163E+02
 11
-6.89999924E+01
 21
2.90401456E+02
  0
ARC
  8
0
 62
4
 10
-4.88999927E+01
 20
2.91456783E+02
 40
1.00000000E+00
 50
1.80000000E+02
 51
2.57172490E+02
  0
ARC
  8
0
 62
4
 10
-4.40999920E+01
 20
2.91456783E+02
 40
1.00000000E+00
 50
2.82827510E+02
 51
0.00000000E+00
  0
ARC
  8
0
 62
4
 10
-4.64999924E+01
 20
3.01996997E+02
 40
1.18100000E+01
 50
2.57172490E+02
 51
2.82827510E+02
  0
LINE
  8
0
 62
4
 10
-5.81499924E+01
 20
2.90838331E+02
 11
-5.81499924E+01
 21
2.92512190E+02
  0
LINE
  8
0
 62
4
 10
-4.98499924E+01
 20
2.90838331E+02
 11
-4.98499924E+01
 21
2.91144532E+02
  0
POLYLINE
  8
0
 62
4
 66
1
  0
VERTEX
  8
0
 62
4
 10
-5.02999924E+01
 20
2.93092986E+02
  0
VERTEX
  8
0
 62
4
 10
-5.04818074E+01
 20
2.93192370E+02
  0
VERTEX
  8
0
 62
4
 10
-5.06915046E+01
 20
2.93286363E+02
  0
VERTEX
  8
0
 62
4
 10
-5.09274223E+01
 20
2.93374221E+02
  0
VERTEX
  8
0
 62
4
 10
-5.11876906E+01
 20
2.93455247E+02
  0
VERTEX
  8
0
 62
4
 10
-5.14702469E+01
 20
2.93528799E+02
  0
VERTEX
  8
0
 62
4
 10
-5.17728520E+01
 20
2.93594294E+02
  0
VERTEX
  8
0
 62
4
 10
-5.20931075E+01
 20
2.93651214E+02
  0
VERTEX
  8
0
 62
4
 10
-5.24284755E+01
 20
2.93699106E+02
  0
VERTEX
  8
0
 62
4
 10
-5.27762980E+01
 20
2.93737592E+02
  0
VERTEX
  8
0
 62
4
 10
-5.31338186E+01
 20
2.93766367E+02
  0
VERTEX
  8
0
 62
4
 10
-5.34982037E+01
 20
2.93785202E+02
  0
VERTEX
  8
0
 62
4
 10
-5.38665656E+01
 20
2.93793948E+02
  0
VERTEX
  8
0
 62
4
 10
-5.42359849E+01
 20
2.93792535E+02
  0
VERTEX
  8
0
 62
4
 10
-5.46035340E+01
 20
2.93780976E+02
  0
VERTEX
  8
0
 62
4
 10
-5.49662998E+01
 20
2.93759362E+02
  0
VERTEX
  8
0
 62
4
 10
-5.53214075E+01
 20
2.93727863E+02
  0
VERTEX
  8
0
 62
4
 10
-5.56660428E+01
 20
2.93686730E+02
  0
VERTEX
  8
0
 62
4
 10
-5.59974742E+01
 20
2.93636289E+02
  0
VERTEX
  8
0
 62
4
 10
-5.63130753E+01
 20
2.93576938E+02
  0
VERTEX
  8
0
 62
4
 10
-5.66103447E+01
 20
2.93509150E+02
  0
VERTEX
  8
0
 62
4
 10
-5.68869267E+01
 20
2.93433460E+02
  0
VERTEX
  8
0
 62
4
 10
-5.71406291E+01
 20
2.93350470E+02
  0
VERTEX
  8
0
 62
4
 10
-5.73694414E+01
 20
2.93260835E+02
  0
VERTEX
  8
0
 62
4
 10
-5.75715502E+01
 20
2.93165268E+02
  0
VERTEX
  8
0
 62
4
 10
-5.77453537E+01
 20
2.93064524E+02
  0
VERTEX
  8
0
 62
4
 10
-5.78894745E+01
 20
2.92959404E+02
  0
VERTEX
  8
0
 62
4
 10
-5.80027705E+01
 20
2.92850739E+02
  0
VERTEX
  8
0
 62
4
 10
-5.80843437E+01
 20
2.92739391E+02
  0
VERTEX
  8
0
 62
4
 10
-5.81335476E+01
 20
2.92626242E+02
  0
VERTEX
  8
0
 62
4
 10
-5.81499924E+01
 20
2.92512190E+02
  0
SEQEND
  8
0
  0
POLYLINE
  8
0
 62
4
 66
1
  0
VERTEX
  8
0
 62
4
 10
-5.81499924E+01
 20
2.90838331E+02
  0
VERTEX
  8
0
 62
4
 10
-5.81342004E+01
 20
2.90726561E+02
  0
VERTEX
  8
0
 62
4
 10
-5.80869446E+01
 20
2.90615641E+02
  0
VERTEX
  8
0
 62
4
 10
-5.80085846E+01
 20
2.90506416E+02
  0
VERTEX
  8
0
 62
4
 10
-5.78997168E+01
 20
2.90399717E+02
  0
VERTEX
  8
0
 62
4
 10
-5.77611697E+01
 20
2.90296357E+02
  0
VERTEX
  8
0
 62
4
 10
-5.75939978E+01
 20
2.90197121E+02
  0
VERTEX
  8
0
 62
4
 10
-5.73994734E+01
 20
2.90102765E+02
  0
VERTEX
  8
0
 62
4
 10
-5.71790768E+01
 20
2.90014007E+02
  0
VERTEX
  8
0
 62
4
 10
-5.69344856E+01
 20
2.89931523E+02
  0
VERTEX
  8
0
 62
4
 10
-5.66675610E+01
 20
2.89855940E+02
  0
VERTEX
  8
0
 62
4
 10
-5.63803346E+01
 20
2.89787834E+02
  0
VERTEX
  8
0
 62
4
 10
-5.60749924E+01
 20
2.89727722E+02
  0
VERTEX
  8
0
 62
4
 10
-5.57538582E+01
 20
2.89676063E+02
  0
VERTEX
  8
0
 62
4
 10
-5.54193760E+01
 20
2.89633250E+02
  0
VERTEX
  8
0
 62
4
 10
-5.50740914E+01
 20
2.89599608E+02
  0
VERTEX
  8
0
 62
4
 10
-5.47206323E+01
 20
2.89575393E+02
  0
VERTEX
  8
0
 62
4
 10
-5.43616887E+01
 20
2.89560790E+02
  0
VERTEX
  8
0
 62
4
 10
-5.39999924E+01
 20
2.89555910E+02
  0
VERTEX
  8
0
 62
4
 10
-5.36382961E+01
 20
2.89560790E+02
  0
VERTEX
  8
0
 62
4
 10
-5.32793525E+01
 20
2.89575393E+02
  0
VERTEX
  8
0
 62
4
 10
-5.29258934E+01
 20
2.89599608E+02
  0
VERTEX
  8
0
 62
4
 10
-5.25806088E+01
 20
2.89633250E+02
  0
VERTEX
  8
0
 62
4
 10
-5.22461266E+01
 20
2.89676063E+02
  0
VERTEX
  8
0
 62
4
 10
-5.19249924E+01
 20
2.89727722E+02
  0
VERTEX
  8
0
 62
4
 10
-5.16196502E+01
 20
2.89787834E+02
  0
VERTEX
  8
0
 62
4
 10
-5.13324238E+01
 20
2.89855940E+02
  0
VERTEX
  8
0
 62
4
 10
-5.10654993E+01
 20
2.89931523E+02
  0
VERTEX
  8
0
 62
4
 10
-5.08209080E+01
 20
2.90014007E+02
  0
VERTEX
  8
0
 62
4
 10
-5.06005114E+01
 20
2.90102765E+02
  0
VERTEX
  8
0
 62
4
 10
-5.04059870E+01
 20
2.90197121E+02
  0
VERTEX
  8
0
 62
4
 10
-5.02388151E+01
 20
2.90296357E+02
  0
VERTEX
  8
0
 62
4
 10
-5.01002680E+01
 20
2.90399717E+02
  0
VERTEX
  8
0
 62
4
 10
-4.99914002E+01
 20
2.90506416E+02
  0
VERTEX
  8
0
 62
4
 10
-4.99130402E+01
 20
2.90615641E+02
  0
VERTEX
  8
0
 62
4
 10
-4.98657844E+01
 20
2.90726561E+02
  0
VERTEX
  8
0
 62
4
 10
-4.98499924E+01
 20
2.90838331E+02
  0
VERTEX
  8
0
 62
4
 10
-4.98657844E+01
 20
2.90950101E+02
  0
VERTEX
  8
0
 62
4
 10
-4.99130402E+01
 20
2.91061021E+02
  0
VERTEX
  8
0
 62
4
 10
-4.99914002E+01
 20
2.91170246E+02
  0
VERTEX
  8
0
 62
4
 10
-5.01002680E+01
 20
2.91276945E+02
  0
VERTEX
  8
0
 62
4
 10
-5.02388151E+01
 20
2.91380305E+02
  0
VERTEX
  8
0
 62
4
 10
-5.04059870E+01
 20
2.91479541E+02
  0
VERTEX
  8
0
 62
4
 10
-5.06005114E+01
 20
2.91573897E+02
  0
VERTEX
  8
0
 62
4
 10
-5.08209080E+01
 20
2.91662655E+02
  0
VERTEX
  8
0
 62
4
 10
-5.10654993E+01
 20
2.91745139E+02
  0
VERTEX
  8
0
 62
4
 10
-5.13324238E+01
 20
2.91820722E+02
  0
VERTEX
  8
0
 62
4
 10
-5.16196502E+01
 20
2.91888828E+02
  0
VERTEX
  8
0
 62
4
 10
-5.19249924E+01
 20
2.91948940E+02
  0
VERTEX
  8
0
 62
4
 10
-5.22461266E+01
 20
2.92000599E+02
  0
VERTEX
  8
0
 62
4
 10
-5.25806088E+01
 20
2.92043412E+02
  0
VERTEX
  8
0
 62
4
 10
-5.29258934E+01
 20
2.92077054E+02
  0
VERTEX
  8
0
 62
4
 10
-5.32793525E+01
 20
2.92101269E+02
  0
VERTEX
  8
0
 62
4
 10
-5.36382961E+01
 20
2.92115872E+02
  0
VERTEX
  8
0
 62
4
 10
-5.39999924E+01
 20
2.92120751E+02
  0
VERTEX
  8
0
 62
4
 10
-5.43616887E+01
 20
2.92115872E+02
  0
VERTEX
  8
0
 62
4
 10
-5.47206323E+01
 20
2.92101269E+02
  0
VERTEX
  8
0
 62
4
 10
-5.50740914E+01
 20
2.92077054E+02
  0
VERTEX
  8
0
 62
4
 10
-5.54193760E+01
 20
2.92043412E+02
  0
VERTEX
  8
0
 62
4
 10
-5.57538582E+01
 20
2.92000599E+02
  0
VERTEX
  8
0
 62
4
 10
-5.60749924E+01
 20
2.91948940E+02
  0
VERTEX
  8
0
 62
4
 10
-5.63803346E+01
 20
2.91888828E+02
  0
VERTEX
  8
0
 62
4
 10
-5.66675610E+01
 20
2.91820722E+02
  0
VERTEX
  8
0
 62
4
 10
-5.69344856E+01
 20
2.91745139E+02
  0
VERTEX
  8
0
 62
4
 10
-5.71790769E+01
 20
2.91662655E+02
  0
VERTEX
  8
0
 62
4
 10
-5.73994734E+01
 20
2.91573897E+02
  0
VERTEX
  8
0
 62
4
 10
-5.75939978E+01
 20
2.91479541E+02
  0
VERTEX
  8
0
 62
4
 10
-5.77611697E+01
 20
2.91380305E+02
  0
VERTEX
  8
0
 62
4
 10
-5.78997168E+01
 20
2.91276945E+02
  0
VERTEX
  8
0
 62
4
 10
-5.80085846E+01
 20
2.91170246E+02
  0
VERTEX
  8
0
 62
4
 10
-5.80869446E+01
 20
2.91061021E+02
  0
VERTEX
  8
0
 62
4
 10
-5.81342004E+01
 20
2.90950101E+02
  0
VERTEX
  8
0
 62
4
 10
-5.81499924E+01
 20
2.90838331E+02
  0
SEQEND
  8
0
  0
LINE
  8
0
 62
4
 10
-5.79999924E+01
 20
2.92853860E+02
 11
-5.79999924E+01
 21
2.92873592E+02
  0
POLYLINE
  8
0
 62
4
 66
1
  0
VERTEX
  8
0
 62
4
 10
-5.02999924E+01
 20
2.93343257E+02
  0
VERTEX
  8
0
 62
4
 10
-5.04493004E+01
 20
2.93442770E+02
  0
VERTEX
  8
0
 62
4
 10
-5.06265691E+01
 20
2.93537800E+02
  0
VERTEX
  8
0
 62
4
 10
-5.08304025E+01
 20
2.93627600E+02
  0
VERTEX
  8
0
 62
4
 10
-5.10591956E+01
 20
2.93711462E+02
  0
VERTEX
  8
0
 62
4
 10
-5.13111466E+01
 20
2.93788726E+02
  0
VERTEX
  8
0
 62
4
 10
-5.15842716E+01
 20
2.93858784E+02
  0
VERTEX
  8
0
 62
4
 10
-5.18764197E+01
 20
2.93921084E+02
  0
VERTEX
  8
0
 62
4
 10
-5.21852903E+01
 20
2.93975135E+02
  0
VERTEX
  8
0
 62
4
 10
-5.25084512E+01
 20
2.94020512E+02
  0
VERTEX
  8
0
 62
4
 10
-5.28433576E+01
 20
2.94056857E+02
  0
VERTEX
  8
0
 62
4
 10
-5.31873722E+01
 20
2.94083884E+02
  0
VERTEX
  8
0
 62
4
 10
-5.35377859E+01
 20
2.94101380E+02
  0
VERTEX
  8
0
 62
4
 10
-5.38918393E+01
 20
2.94109208E+02
  0
VERTEX
  8
0
 62
4
 10
-5.42467445E+01
 20
2.94107306E+02
  0
VERTEX
  8
0
 62
4
 10
-5.45997065E+01
 20
2.94095689E+02
  0
VERTEX
  8
0
 62
4
 10
-5.49479460E+01
 20
2.94074447E+02
  0
VERTEX
  8
0
 62
4
 10
-5.52887205E+01
 20
2.94043750E+02
  0
VERTEX
  8
0
 62
4
 10
-5.56193467E+01
 20
2.94003838E+02
  0
VERTEX
  8
0
 62
4
 10
-5.59372210E+01
 20
2.93955025E+02
  0
VERTEX
  8
0
 62
4
 10
-5.62398401E+01
 20
2.93897697E+02
  0
VERTEX
  8
0
 62
4
 10
-5.65248210E+01
 20
2.93832304E+02
  0
VERTEX
  8
0
 62
4
 10
-5.67899196E+01
 20
2.93759361E+02
  0
VERTEX
  8
0
 62
4
 10
-5.70330483E+01
 20
2.93679444E+02
  0
VERTEX
  8
0
 62
4
 10
-5.72522926E+01
 20
2.93593180E+02
  0
VERTEX
  8
0
 62
4
 10
-5.74459258E+01
 20
2.93501250E+02
  0
VERTEX
  8
0
 62
4
 10
-5.76124233E+01
 20
2.93404377E+02
  0
VERTEX
  8
0
 62
4
 10
-5.77504739E+01
 20
2.93303324E+02
  0
VERTEX
  8
0
 62
4
 10
-5.78589906E+01
 20
2.93198888E+02
  0
VERTEX
  8
0
 62
4
 10
-5.79371186E+01
 20
2.93091889E+02
  0
VERTEX
  8
0
 62
4
 10
-5.79842430E+01
 20
2.92983172E+02
  0
VERTEX
  8
0
 62
4
 10
-5.79999924E+01
 20
2.92873592E+02
  0
SEQEND
  8
0
  0
ARC
  8
0
 62
4
 10
-5.81876144E+01
 20
3.03826828E+02
 40
1.43299558E+01
 50
2.79721944E+02
 51
2.94556489E+02
  0
ARC
  8
0
 62
4
 10
-4.98123689E+01
 20
3.03826833E+02
 40
1.43299613E+01
 50
2.45443514E+02
 51
2.60278053E+02
  0
LINE
  8
0
 62
4
 10
-5.02999924E+01
 20
2.93004094E+02
 11
-5.02999924E+01
 21
2.93955151E+02
  0
POLYLINE
  8
0
 62
4
 66
1
  0
VERTEX
  8
0
 62
4
 10
-4.26999924E+01
 20
2.93955151E+02
  0
VERTEX
  8
0
 62
4
 10
-4.27152901E+01
 20
2.94060411E+02
  0
VERTEX
  8
0
 62
4
 10
-4.27610600E+01
 20
2.94164824E+02
  0
VERTEX
  8
0
 62
4
 10
-4.28369335E+01
 20
2.94267549E+02
  0
VERTEX
  8
0
 62
4
 10
-4.29422999E+01
 20
2.94367758E+02
  0
VERTEX
  8
0
 62
4
 10
-4.30763107E+01
 20
2.94464645E+02
  0
VERTEX
  8
0
 62
4
 10
-4.32378870E+01
 20
2.94557430E+02
  0
VERTEX
  8
0
 62
4
 10
-4.34257278E+01
 20
2.94645366E+02
  0
VERTEX
  8
0
 62
4
 10
-4.36383208E+01
 20
2.94727745E+02
  0
VERTEX
  8
0
 62
4
 10
-4.38739543E+01
 20
2.94803903E+02
  0
VERTEX
  8
0
 62
4
 10
-4.41307311E+01
 20
2.94873228E+02
  0
VERTEX
  8
0
 62
4
 10
-4.44065839E+01
 20
2.94935161E+02
  0
VERTEX
  8
0
 62
4
 10
-4.46992915E+01
 20
2.94989203E+02
  0
VERTEX
  8
0
 62
4
 10
-4.50064973E+01
 20
2.95034920E+02
  0
VERTEX
  8
0
 62
4
 10
-4.53257278E+01
 20
2.95071943E+02
  0
VERTEX
  8
0
 62
4
 10
-4.56544128E+01
 20
2.95099974E+02
  0
VERTEX
  8
0
 62
4
 10
-4.59899060E+01
 20
2.95118788E+02
  0
VERTEX
  8
0
 62
4
 10
-4.63295060E+01
 20
2.95128233E+02
  0
VERTEX
  8
0
 62
4
 10
-4.66704787E+01
 20
2.95128233E+02
  0
VERTEX
  8
0
 62
4
 10
-4.70100788E+01
 20
2.95118788E+02
  0
VERTEX
  8
0
 62
4
 10
-4.73455719E+01
 20
2.95099974E+02
  0
VERTEX
  8
0
 62
4
 10
-4.76742570E+01
 20
2.95071943E+02
  0
VERTEX
  8
0
 62
4
 10
-4.79934875E+01
 20
2.95034920E+02
  0
VERTEX
  8
0
 62
4
 10
-4.83006933E+01
 20
2.94989203E+02
  0
VERTEX
  8
0
 62
4
 10
-4.85934009E+01
 20
2.94935161E+02
  0
VERTEX
  8
0
 62
4
 10
-4.88692536E+01
 20
2.94873228E+02
  0
VERTEX
  8
0
 62
4
 10
-4.91260304E+01
 20
2.94803903E+02
  0
VERTEX
  8
0
 62
4
 10
-4.93616640E+01
 20
2.94727745E+02
  0
VERTEX
  8
0
 62
4
 10
-4.95742570E+01
 20
2.94645366E+02
  0
VERTEX
  8
0
 62
4
 10
-4.97620978E+01
 20
2.94557430E+02
  0
VERTEX
  8
0
 62
4
 10
-4.99236741E+01
 20
2.94464645E+02
  0
VERTEX
  8
0
 62
4
 10
-5.00576849E+01
 20
2.94367758E+02
  0
VERTEX
  8
0
 62
4
 10
-5.01630513E+01
 20
2.94267549E+02
  0
VERTEX
  8
0
 62
4
 10
-5.02389248E+01
 20
2.94164824E+02
  0
VERTEX
  8
0
 62
4
 10
-5.02846947E+01
 20
2.94060411E+02
  0
VERTEX
  8
0
 62
4
 10
-5.02999924E+01
 20
2.93955151E+02
  0
SEQEND
  8
0
  0
POLYLINE
  8
0
 62
4
 66
1
  0
VERTEX
  8
0
 62
4
 10
-4.30999924E+01
 20
2.92479675E+02
  0
VERTEX
  8
0
 62
4
 10
-4.29634107E+01
 20
2.92574506E+02
  0
VERTEX
  8
0
 62
4
 10
-4.28544629E+01
 20
2.92672694E+02
  0
VERTEX
  8
0
 62
4
 10
-4.27740001E+01
 20
2.92773471E+02
  0
VERTEX
  8
0
 62
4
 10
-4.27226511E+01
 20
2.92876050E+02
  0
VERTEX
  8
0
 62
4
 10
-4.27008171E+01
 20
2.92979630E+02
  0
VERTEX
  8
0
 62
4
 10
-4.27086688E+01
 20
2.93083401E+02
  0
VERTEX
  8
0
 62
4
 10
-4.27461448E+01
 20
2.93186552E+02
  0
VERTEX
  8
0
 62
4
 10
-4.28129522E+01
 20
2.93288278E+02
  0
VERTEX
  8
0
 62
4
 10
-4.29085690E+01
 20
2.93387783E+02
  0
VERTEX
  8
0
 62
4
 10
-4.30322482E+01
 20
2.93484290E+02
  0
VERTEX
  8
0
 62
4
 10
-4.31830233E+01
 20
2.93577045E+02
  0
VERTEX
  8
0
 62
4
 10
-4.33597162E+01
 20
2.93665323E+02
  0
VERTEX
  8
0
 62
4
 10
-4.35609462E+01
 20
2.93748434E+02
  0
VERTEX
  8
0
 62
4
 10
-4.37851412E+01
 20
2.93825730E+02
  0
VERTEX
  8
0
 62
4
 10
-4.40305491E+01
 20
2.93896605E+02
  0
VERTEX
  8
0
 62
4
 10
-4.42952526E+01
 20
2.93960506E+02
  0
VERTEX
  8
0
 62
4
 10
-4.45771832E+01
 20
2.94016935E+02
  0
VERTEX
  8
0
 62
4
 10
-4.48741381E+01
 20
2.94065449E+02
  0
VERTEX
  8
0
 62
4
 10
-4.51837970E+01
 20
2.94105670E+02
  0
VERTEX
  8
0
 62
4
 10
-4.55037402E+01
 20
2.94137284E+02
  0
VERTEX
  8
0
 62
4
 10
-4.58314678E+01
 20
2.94160044E+02
  0
VERTEX
  8
0
 62
4
 10
-4.61644191E+01
 20
2.94173771E+02
  0
VERTEX
  8
0
 62
4
 10
-4.64999924E+01
 20
2.94178359E+02
  0
VERTEX
  8
0
 62
4
 10
-4.68355658E+01
 20
2.94173771E+02
  0
VERTEX
  8
0
 62
4
 10
-4.71685170E+01
 20
2.94160044E+02
  0
VERTEX
  8
0
 62
4
 10
-4.74962447E+01
 20
2.94137284E+02
  0
VERTEX
  8
0
 62
4
 10
-4.78161879E+01
 20
2.94105670E+02
  0
VERTEX
  8
0
 62
4
 10
-4.81258467E+01
 20
2.94065449E+02
  0
VERTEX
  8
0
 62
4
 10
-4.84228016E+01
 20
2.94016935E+02
  0
VERTEX
  8
0
 62
4
 10
-4.87047322E+01
 20
2.93960506E+02
  0
VERTEX
  8
0
 62
4
 10
-4.89694357E+01
 20
2.93896605E+02
  0
VERTEX
  8
0
 62
4
 10
-4.92148437E+01
 20
2.93825730E+02
  0
VERTEX
  8
0
 62
4
 10
-4.94390386E+01
 20
2.93748434E+02
  0
VERTEX
  8
0
 62
4
 10
-4.96402687E+01
 20
2.93665323E+02
  0
VERTEX
  8
0
 62
4
 10
-4.98169616E+01
 20
2.93577045E+02
  0
VERTEX
  8
0
 62
4
 10
-4.99677366E+01
 20
2.93484290E+02
  0
VERTEX
  8
0
 62
4
 10
-5.00914158E+01
 20
2.93387783E+02
  0
VERTEX
  8
0
 62
4
 10
-5.01870326E+01
 20
2.93288278E+02
  0
VERTEX
  8
0
 62
4
 10
-5.02538400E+01
 20
2.93186552E+02
  0
VERTEX
  8
0
 62
4
 10
-5.02913160E+01
 20
2.93083401E+02
  0
VERTEX
  8
0
 62
4
 10
-5.02991677E+01
 20
2.92979630E+02
  0
VERTEX
  8
0
 62
4
 10
-5.02773337E+01
 20
2.92876050E+02
  0
VERTEX
  8
0
 62
4
 10
-5.02259847E+01
 20
2.92773471E+02
  0
VERTEX
  8
0
 62
4
 10
-5.01455219E+01
 20
2.92672694E+02
  0
VERTEX
  8
0
 62
4
 10
-5.00365741E+01
 20
2.92574506E+02
  0
VERTEX
  8
0
 62
4
 10
-4.98999924E+01
 20
2.92479675E+02
  0
SEQEND
  8
0
  0
LINE
  8
0
 62
4
 10
-4.26999924E+01
 20
2.93004094E+02
 11
-4.26999924E+01
 21
2.93955151E+02
  0
LINE
  8
0
 62
4
 10
-4.98999924E+01
 20
2.91456783E+02
 11
-4.98999924E+01
 21
2.93004094E+02
  0
POLYLINE
  8
0
 62
4
 66
1
  0
VERTEX
  8
0
 62
4
 10
-4.30999924E+01
 20
2.93004094E+02
  0
VERTEX
  8
0
 62
4
 10
-4.31136798E+01
 20
2.93098274E+02
  0
VERTEX
  8
0
 62
4
 10
-4.31546318E+01
 20
2.93191696E+02
  0
VERTEX
  8
0
 62
4
 10
-4.32225187E+01
 20
2.93283608E+02
  0
VERTEX
  8
0
 62
4
 10
-4.33167938E+01
 20
2.93373269E+02
  0
VERTEX
  8
0
 62
4
 10
-4.34366982E+01
 20
2.93459957E+02
  0
VERTEX
  8
0
 62
4
 10
-4.35812665E+01
 20
2.93542976E+02
  0
VERTEX
  8
0
 62
4
 10
-4.37493346E+01
 20
2.93621655E+02
  0
VERTEX
  8
0
 62
4
 10
-4.39395494E+01
 20
2.93695362E+02
  0
VERTEX
  8
0
 62
4
 10
-4.41503794E+01
 20
2.93763504E+02
  0
VERTEX
  8
0
 62
4
 10
-4.43801271E+01
 20
2.93825531E+02
  0
VERTEX
  8
0
 62
4
 10
-4.46269426E+01
 20
2.93880945E+02
  0
VERTEX
  8
0
 62
4
 10
-4.48888389E+01
 20
2.93929299E+02
  0
VERTEX
  8
0
 62
4
 10
-4.51637073E+01
 20
2.93970203E+02
  0
VERTEX
  8
0
 62
4
 10
-4.54493346E+01
 20
2.94003329E+02
  0
VERTEX
  8
0
 62
4
 10
-4.57434212E+01
 20
2.94028410E+02
  0
VERTEX
  8
0
 62
4
 10
-4.60435993E+01
 20
2.94045243E+02
  0
VERTEX
  8
0
 62
4
 10
-4.63474520E+01
 20
2.94053694E+02
  0
VERTEX
  8
0
 62
4
 10
-4.66525328E+01
 20
2.94053694E+02
  0
VERTEX
  8
0
 62
4
 10
-4.69563855E+01
 20
2.94045243E+02
  0
VERTEX
  8
0
 62
4
 10
-4.72565636E+01
 20
2.94028410E+02
  0
VERTEX
  8
0
 62
4
 10
-4.75506502E+01
 20
2.94003329E+02
  0
VERTEX
  8
0
 62
4
 10
-4.78362775E+01
 20
2.93970203E+02
  0
VERTEX
  8
0
 62
4
 10
-4.81111458E+01
 20
2.93929299E+02
  0
VERTEX
  8
0
 62
4
 10
-4.83730421E+01
 20
2.93880945E+02
  0
VERTEX
  8
0
 62
4
 10
-4.86198577E+01
 20
2.93825531E+02
  0
VERTEX
  8
0
 62
4
 10
-4.88496054E+01
 20
2.93763504E+02
  0
VERTEX
  8
0
 62
4
 10
-4.90604354E+01
 20
2.93695362E+02
  0
VERTEX
  8
0
 62
4
 10
-4.92506502E+01
 20
2.93621655E+02
  0
VERTEX
  8
0
 62
4
 10
-4.94187183E+01
 20
2.93542976E+02
  0
VERTEX
  8
0
 62
4
 10
-4.95632865E+01
 20
2.93459957E+02
  0
VERTEX
  8
0
 62
4
 10
-4.96831910E+01
 20
2.93373269E+02
  0
VERTEX
  8
0
 62
4
 10
-4.97774661E+01
 20
2.93283608E+02
  0
VERTEX
  8
0
 62
4
 10
-4.98453530E+01
 20
2.93191696E+02
  0
VERTEX
  8
0
 62
4
 10
-4.98863050E+01
 20
2.93098274E+02
  0
VERTEX
  8
0
 62
4
 10
-4.98999924E+01
 20
2.93004094E+02
  0
SEQEND
  8
0
  0
LINE
  8
0
 62
4
 10
-4.30999924E+01
 20
2.91456783E+02
 11
-4.30999924E+01
 21
2.93004094E+02
  0
POLYLINE
  8
0
 62
4
 66
1
  0
VERTEX
  8
0
 62
4
 10
-4.30999924E+01
 20
2.91456789E+02
  0
VERTEX
  8
0
 62
4
 10
-4.31136816E+01
 20
2.91550969E+02
  0
VERTEX
  8
0
 62
4
 10
-4.31546354E+01
 20
2.91644391E+02
  0
VERTEX
  8
0
 62
4
 10
-4.32225241E+01
 20
2.91736303E+02
  0
VERTEX
  8
0
 62
4
 10
-4.33168010E+01
 20
2.91825964E+02
  0
VERTEX
  8
0
 62
4
 10
-4.34367071E+01
 20
2.91912652E+02
  0
VERTEX
  8
0
 62
4
 10
-4.35812770E+01
 20
2.91995670E+02
  0
VERTEX
  8
0
 62
4
 10
-4.37493466E+01
 20
2.92074349E+02
  0
VERTEX
  8
0
 62
4
 10
-4.39395628E+01
 20
2.92148056E+02
  0
VERTEX
  8
0
 62
4
 10
-4.41503941E+01
 20
2.92216197E+02
  0
VERTEX
  8
0
 62
4
 10
-4.43801430E+01
 20
2.92278224E+02
  0
VERTEX
  8
0
 62
4
 10
-4.46269597E+01
 20
2.92333637E+02
  0
VERTEX
  8
0
 62
4
 10
-4.48888569E+01
 20
2.92381991E+02
  0
VERTEX
  8
0
 62
4
 10
-4.51637260E+01
 20
2.92422894E+02
  0
VERTEX
  8
0
 62
4
 10
-4.54493540E+01
 20
2.92456020E+02
  0
VERTEX
  8
0
 62
4
 10
-4.57434411E+01
 20
2.92481100E+02
  0
VERTEX
  8
0
 62
4
 10
-4.60436195E+01
 20
2.92497933E+02
  0
VERTEX
  8
0
 62
4
 10
-4.63474723E+01
 20
2.92506383E+02
  0
VERTEX
  8
0
 62
4
 10
-4.66525532E+01
 20
2.92506383E+02
  0
VERTEX
  8
0
 62
4
 10
-4.69564057E+01
 20
2.92497931E+02
  0
VERTEX
  8
0
 62
4
 10
-4.72565834E+01
 20
2.92481097E+02
  0
VERTEX
  8
0
 62
4
 10
-4.75506696E+01
 20
2.92456016E+02
  0
VERTEX
  8
0
 62
4
 10
-4.78362962E+01
 20
2.92422890E+02
  0
VERTEX
  8
0
 62
4
 10
-4.81111638E+01
 20
2.92381985E+02
  0
VERTEX
  8
0
 62
4
 10
-4.83730591E+01
 20
2.92333630E+02
  0
VERTEX
  8
0
 62
4
 10
-4.86198737E+01
 20
2.92278216E+02
  0
VERTEX
  8
0
 62
4
 10
-4.88496201E+01
 20
2.92216189E+02
  0
VERTEX
  8
0
 62
4
 10
-4.90604488E+01
 20
2.92148047E+02
  0
VERTEX
  8
0
 62
4
 10
-4.92506622E+01
 20
2.92074339E+02
  0
VERTEX
  8
0
 62
4
 10
-4.94187287E+01
 20
2.91995659E+02
  0
VERTEX
  8
0
 62
4
 10
-4.95632954E+01
 20
2.91912641E+02
  0
VERTEX
  8
0
 62
4
 10
-4.96831981E+01
 20
2.91825952E+02
  0
VERTEX
  8
0
 62
4
 10
-4.97774715E+01
 20
2.91736291E+02
  0
VERTEX
  8
0
 62
4
 10
-4.98453566E+01
 20
2.91644379E+02
  0
VERTEX
  8
0
 62
4
 10
-4.98863068E+01
 20
2.91550957E+02
  0
VERTEX
  8
0
 62
4
 10
-4.98999924E+01
 20
2.91456777E+02
  0
SEQEND
  8
0
  0
ARC
  8
0
 62
4
 10
-5.06604923E+01
 20
3.04311200E+02
 40
1.42127873E+01
 50
2.79930719E+02
 51
2.94652135E+02
  0
ARC
  8
0
 62
4
 10
-4.23394922E+01
 20
3.04311201E+02
 40
1.42127883E+01
 50
2.45347865E+02
 51
2.60069281E+02
  0
LINE
  8
0
  6
CENTER
 62
6
 10
-6.39999924E+01
 20
2.93955151E+02
 11
-5.89999924E+01
 21
2.93955151E+02
  0
LINE
  8
0
  6
CENTER
 62
6
 10
-5.39999924E+01
 20
2.95373592E+02
 11
-5.39999924E+01
 21
2.90373592E+02
  0
LINE
  8
0
  6
CENTER
 62
6
 10
-5.64999924E+01
 20
2.92873592E+02
 11
-5.14999924E+01
 21
2.92873592E+02
  0
LINE
  8
0
  6
CENTER
 62
6
 10
-4.64999924E+01
 20
2.96455151E+02
 11
-4.64999924E+01
 21
2.91455151E+02
  0
LINE
  8
0
  6
CENTER
 62
6
 10
-4.89999924E+01
 20
2.93955151E+02
 11
-4.39999924E+01
 21
2.93955151E+02
  0
LINE
  8
0
 62
4
 10
-5.00982248E+01
 20
2.90401456E+02
 11
-4.87404226E+01
 21
2.90401456E+02
  0
LINE
  8
0
 62
4
 10
-4.99553771E+01
 20
2.90551163E+02
 11
-4.93240822E+01
 21
2.90551163E+02
  0
LINE
  8
0
 62
4
 10
-4.30999924E+01
 20
2.92131951E+02
 11
-3.89999924E+01
 21
2.92131951E+02
  0
LINE
  8
0
 62
4
 10
-4.42595621E+01
 20
2.90401456E+02
 11
-3.89999924E+01
 21
2.90401456E+02
  0
LINE
  8
0
  6
CENTER
 62
6
 10
2.49999924E+01
 20
2.67928690E+02
 11
-2.20000076E+01
 21
2.67928690E+02
  0
LINE
  8
0
 62
6
 10
-1.82679568E+01
 20
2.70928690E+02
 11
-2.17320584E+01
 21
2.64928690E+02
  0
LINE
  8
0
 62
4
 10
-1.00000076E+01
 20
2.69428690E+02
 11
-1.91339822E+01
 21
2.69428690E+02
  0
LINE
  8
0
 62
4
 10
-1.00000076E+01
 20
2.66428690E+02
 11
-2.08660330E+01
 21
2.66428690E+02
  0
LINE
  8
0
 62
4
 10
-5.00007659E-01
 20
2.42392203E+02
 11
-5.00007659E-01
 21
2.43232122E+02
  0
LINE
  8
0
 62
4
 10
3.49999234E+00
 20
2.42392203E+02
 11
3.49999234E+00
 21
2.43232122E+02
  0
LINE
  8
0
 62
6
 10
-7.65877650E-06
 20
2.41983412E+02
 11
-7.65877650E-06
 21
2.43232122E+02
  0
LINE
  8
0
 62
6
 10
2.99999234E+00
 20
2.41983412E+02
 11
2.99999234E+00
 21
2.43232122E+02
  0
LINE
  8
0
  6
CENTER
 62
6
 10
1.24999924E+01
 20
2.64544849E+02
 11
1.24999924E+01
 21
2.69544849E+02
  0
LINE
  8
0
  6
CENTER
 62
6
 10
1.49999234E+00
 20
2.37834391E+02
 11
1.49999234E+00
 21
2.48099969E+02
  0
LINE
  8
0
  6
CENTER
 62
6
 10
-6.50000766E+00
 20
2.37834391E+02
 11
-6.50000766E+00
 21
2.48099969E+02
  0
LINE
  8
0
 62
4
 10
1.99999924E+01
 20
2.55858390E+02
 11
1.99999924E+01
 21
2.68868049E+02
  0
LINE
  8
0
 62
4
 10
-1.00000076E+01
 20
2.43232122E+02
 11
-1.00000076E+01
 21
2.70598544E+02
  0
LINE
  8
0
 62
4
 10
4.99999237E+00
 20
2.43232122E+02
 11
4.99999237E+00
 21
2.55858390E+02
  0
LINE
  8
0
 62
4
 10
2.14999924E+01
 20
2.66500052E+02
 11
2.14999924E+01
 21
2.69354118E+02
  0
LINE
  8
0
 62
4
 10
4.99999237E+00
 20
2.43232122E+02
 11
-1.00000076E+01
 21
2.43232122E+02
  0
LINE
  8
0
 62
4
 10
4.99999237E+00
 20
2.51578636E+02
 11
-1.00000076E+01
 21
2.51578636E+02
  0
LINE
  8
0
 62
4
 10
1.99999924E+01
 20
2.55858390E+02
 11
-1.00000076E+01
 21
2.55858390E+02
  0
LINE
  8
0
 62
4
 10
1.99999924E+01
 20
2.65654273E+02
 11
-1.00000076E+01
 21
2.65654273E+02
  0
LINE
  8
0
 62
4
 10
1.99999924E+01
 20
2.70598544E+02
 11
8.90175995E+00
 21
2.70598544E+02
  0
POLYLINE
  8
0
 62
4
 66
1
  0
VERTEX
  8
0
 62
4
 10
-5.00007660E-01
 20
2.42392203E+02
  0
VERTEX
  8
0
 62
4
 10
-4.91956249E-01
 20
2.42336803E+02
  0
VERTEX
  8
0
 62
4
 10
-4.67866839E-01
 20
2.42281849E+02
  0
VERTEX
  8
0
 62
4
 10
-4.27933383E-01
 20
2.42227783E+02
  0
VERTEX
  8
0
 62
4
 10
-3.72477404E-01
 20
2.42175041E+02
  0
VERTEX
  8
0
 62
4
 10
-3.01945399E-01
 20
2.42124048E+02
  0
VERTEX
  8
0
 62
4
 10
-2.16905252E-01
 20
2.42075214E+02
  0
VERTEX
  8
0
 62
4
 10
-1.18041654E-01
 20
2.42028932E+02
  0
VERTEX
  8
0
 62
4
 10
-6.15059781E-03
 20
2.41985575E+02
  0
VERTEX
  8
0
 62
4
 10
1.17867036E-01
 20
2.41945491E+02
  0
VERTEX
  8
0
 62
4
 10
2.53012729E-01
 20
2.41909005E+02
  0
VERTEX
  8
0
 62
4
 10
3.98198369E-01
 20
2.41876408E+02
  0
VERTEX
  8
0
 62
4
 10
5.52255007E-01
 20
2.41847965E+02
  0
VERTEX
  8
0
 62
4
 10
7.13942268E-01
 20
2.41823904E+02
  0
VERTEX
  8
0
 62
4
 10
8.81958342E-01
 20
2.41804418E+02
  0
VERTEX
  8
0
 62
4
 10
1.05495046E+00
 20
2.41789664E+02
  0
VERTEX
  8
0
 62
4
 10
1.23152580E+00
 20
2.41779762E+02
  0
VERTEX
  8
0
 62
4
 10
1.41026267E+00
 20
2.41774791E+02
  0
VERTEX
  8
0
 62
4
 10
1.58972199E+00
 20
2.41774791E+02
  0
VERTEX
  8
0
 62
4
 10
1.76845886E+00
 20
2.41779762E+02
  0
VERTEX
  8
0
 62
4
 10
1.94503420E+00
 20
2.41789664E+02
  0
VERTEX
  8
0
 62
4
 10
2.11802632E+00
 20
2.41804418E+02
  0
VERTEX
  8
0
 62
4
 10
2.28604239E+00
 20
2.41823904E+02
  0
VERTEX
  8
0
 62
4
 10
2.44772965E+00
 20
2.41847965E+02
  0
VERTEX
  8
0
 62
4
 10
2.60178629E+00
 20
2.41876408E+02
  0
VERTEX
  8
0
 62
4
 10
2.74697193E+00
 20
2.41909005E+02
  0
VERTEX
  8
0
 62
4
 10
2.88211763E+00
 20
2.41945491E+02
  0
VERTEX
  8
0
 62
4
 10
3.00613526E+00
 20
2.41985575E+02
  0
VERTEX
  8
0
 62
4
 10
3.11802632E+00
 20
2.42028932E+02
  0
VERTEX
  8
0
 62
4
 10
3.21688992E+00
 20
2.42075214E+02
  0
VERTEX
  8
0
 62
4
 10
3.30193007E+00
 20
2.42124048E+02
  0
VERTEX
  8
0
 62
4
 10
3.37246208E+00
 20
2.42175041E+02
  0
VERTEX
  8
0
 62
4
 10
3.42791806E+00
 20
2.42227783E+02
  0
VERTEX
  8
0
 62
4
 10
3.46785151E+00
 20
2.42281849E+02
  0
VERTEX
  8
0
 62
4
 10
3.49194093E+00
 20
2.42336803E+02
  0
VERTEX
  8
0
 62
4
 10
3.49999234E+00
 20
2.42392203E+02
  0
SEQEND
  8
0
  0
LINE
  8
0
 62
4
 10
-8.50000766E+00
 20
2.42392203E+02
 11
-8.50000766E+00
 21
2.43232122E+02
  0
LINE
  8
0
 62
6
 10
-8.00000766E+00
 20
2.41983412E+02
 11
-8.00000766E+00
 21
2.43232122E+02
  0
POLYLINE
  8
0
 62
4
 66
1
  0
VERTEX
  8
0
 62
4
 10
-8.50000766E+00
 20
2.42392203E+02
  0
VERTEX
  8
0
 62
4
 10
-8.49195625E+00
 20
2.42336803E+02
  0
VERTEX
  8
0
 62
4
 10
-8.46786684E+00
 20
2.42281849E+02
  0
VERTEX
  8
0
 62
4
 10
-8.42793338E+00
 20
2.42227783E+02
  0
VERTEX
  8
0
 62
4
 10
-8.37247740E+00
 20
2.42175041E+02
  0
VERTEX
  8
0
 62
4
 10
-8.30194540E+00
 20
2.42124048E+02
  0
VERTEX
  8
0
 62
4
 10
-8.21690525E+00
 20
2.42075214E+02
  0
VERTEX
  8
0
 62
4
 10
-8.11804165E+00
 20
2.42028932E+02
  0
VERTEX
  8
0
 62
4
 10
-8.00615060E+00
 20
2.41985575E+02
  0
VERTEX
  8
0
 62
4
 10
-7.88213296E+00
 20
2.41945491E+02
  0
VERTEX
  8
0
 62
4
 10
-7.74698727E+00
 20
2.41909005E+02
  0
VERTEX
  8
0
 62
4
 10
-7.60180163E+00
 20
2.41876408E+02
  0
VERTEX
  8
0
 62
4
 10
-7.44774499E+00
 20
2.41847965E+02
  0
VERTEX
  8
0
 62
4
 10
-7.28605773E+00
 20
2.41823904E+02
  0
VERTEX
  8
0
 62
4
 10
-7.11804166E+00
 20
2.41804418E+02
  0
VERTEX
  8
0
 62
4
 10
-6.94504954E+00
 20
2.41789664E+02
  0
VERTEX
  8
0
 62
4
 10
-6.76847420E+00
 20
2.41779762E+02
  0
VERTEX
  8
0
 62
4
 10
-6.58973733E+00
 20
2.41774791E+02
  0
VERTEX
  8
0
 62
4
 10
-6.41027801E+00
 20
2.41774791E+02
  0
VERTEX
  8
0
 62
4
 10
-6.23154114E+00
 20
2.41779762E+02
  0
VERTEX
  8
0
 62
4
 10
-6.05496580E+00
 20
2.41789664E+02
  0
VERTEX
  8
0
 62
4
 10
-5.88197368E+00
 20
2.41804418E+02
  0
VERTEX
  8
0
 62
4
 10
-5.71395761E+00
 20
2.41823904E+02
  0
VERTEX
  8
0
 62
4
 10
-5.55227035E+00
 20
2.41847965E+02
  0
VERTEX
  8
0
 62
4
 10
-5.39821371E+00
 20
2.41876408E+02
  0
VERTEX
  8
0
 62
4
 10
-5.25302807E+00
 20
2.41909005E+02
  0
VERTEX
  8
0
 62
4
 10
-5.11788237E+00
 20
2.41945491E+02
  0
VERTEX
  8
0
 62
4
 10
-4.99386474E+00
 20
2.41985575E+02
  0
VERTEX
  8
0
 62
4
 10
-4.88197368E+00
 20
2.42028932E+02
  0
VERTEX
  8
0
 62
4
 10
-4.78311008E+00
 20
2.42075214E+02
  0
VERTEX
  8
0
 62
4
 10
-4.69806993E+00
 20
2.42124048E+02
  0
VERTEX
  8
0
 62
4
 10
-4.62753792E+00
 20
2.42175041E+02
  0
VERTEX
  8
0
 62
4
 10
-4.57208194E+00
 20
2.42227783E+02
  0
VERTEX
  8
0
 62
4
 10
-4.53214849E+00
 20
2.42281849E+02
  0
VERTEX
  8
0
 62
4
 10
-4.50805907E+00
 20
2.42336803E+02
  0
VERTEX
  8
0
 62
4
 10
-4.50000766E+00
 20
2.42392203E+02
  0
SEQEND
  8
0
  0
LINE
  8
0
 62
4
 10
-4.50000766E+00
 20
2.42392203E+02
 11
-4.50000766E+00
 21
2.43232122E+02
  0
LINE
  8
0
 62
6
 10
-5.00000766E+00
 20
2.41983412E+02
 11
-5.00000766E+00
 21
2.43232122E+02
  0
LINE
  8
0
 62
4
 10
1.99999924E+01
 20
2.65408543E+02
 11
2.14999924E+01
 21
2.66500052E+02
  0
LINE
  8
0
 62
4
 10
2.14999924E+01
 20
2.68654195E+02
 11
1.99999924E+01
 21
2.69212769E+02
  0
LINE
  8
0
 62
4
 10
1.99999924E+01
 20
2.70448837E+02
 11
2.14999924E+01
 21
2.69354118E+02
  0
LINE
  8
0
 62
4
 10
1.99999924E+01
 20
2.68868049E+02
 11
9.14999239E+00
 21
2.68868049E+02
  0
LINE
  8
0
 62
4
 10
-5.56560573E+00
 20
2.70289527E+02
 11
-1.00000076E+01
 21
2.70289527E+02
  0
LINE
  8
0
 62
4
 10
1.99999924E+01
 20
2.69212769E+02
 11
9.14999239E+00
 21
2.69212769E+02
  0
LINE
  8
0
 62
4
 10
1.99999924E+01
 20
2.70448837E+02
 11
9.04460764E+00
 21
2.70448837E+02
  0
LINE
  8
0
 62
4
 10
1.99999924E+01
 20
2.68868049E+02
 11
1.99999924E+01
 21
2.70448837E+02
  0
LINE
  8
0
 62
4
 10
1.99999924E+01
 20
2.70448837E+02
 11
1.99999924E+01
 21
2.70598544E+02
  0
ARC
  8
0
 62
4
 10
-1.00007307E-01
 20
2.69543217E+02
 40
1.00000000E+00
 50
3.60000000E+02
 51
7.71724899E+01
  0
ARC
  8
0
 62
4
 10
-4.90000795E+00
 20
2.69543217E+02
 40
1.00000000E+00
 50
1.02827510E+02
 51
1.80000000E+02
  0
ARC
  8
0
 62
4
 10
-2.50000763E+00
 20
2.59003003E+02
 40
1.18100000E+01
 50
7.71724899E+01
 51
1.02827510E+02
  0
LINE
  8
0
 62
4
 10
9.14999239E+00
 20
2.70161669E+02
 11
9.14999239E+00
 21
2.68487810E+02
  0
LINE
  8
0
 62
4
 10
8.49992385E-01
 20
2.70161669E+02
 11
8.49992385E-01
 21
2.69855468E+02
  0
POLYLINE
  8
0
 62
4
 66
1
  0
VERTEX
  8
0
 62
4
 10
1.29999238E+00
 20
2.67907014E+02
  0
VERTEX
  8
0
 62
4
 10
1.48180736E+00
 20
2.67807630E+02
  0
VERTEX
  8
0
 62
4
 10
1.69150461E+00
 20
2.67713637E+02
  0
VERTEX
  8
0
 62
4
 10
1.92742225E+00
 20
2.67625779E+02
  0
VERTEX
  8
0
 62
4
 10
2.18769057E+00
 20
2.67544753E+02
  0
VERTEX
  8
0
 62
4
 10
2.47024691E+00
 20
2.67471201E+02
  0
VERTEX
  8
0
 62
4
 10
2.77285196E+00
 20
2.67405706E+02
  0
VERTEX
  8
0
 62
4
 10
3.09310751E+00
 20
2.67348786E+02
  0
VERTEX
  8
0
 62
4
 10
3.42847548E+00
 20
2.67300894E+02
  0
VERTEX
  8
0
 62
4
 10
3.77629801E+00
 20
2.67262408E+02
  0
VERTEX
  8
0
 62
4
 10
4.13381855E+00
 20
2.67233633E+02
  0
VERTEX
  8
0
 62
4
 10
4.49820367E+00
 20
2.67214798E+02
  0
VERTEX
  8
0
 62
4
 10
4.86656557E+00
 20
2.67206052E+02
  0
VERTEX
  8
0
 62
4
 10
5.23598489E+00
 20
2.67207465E+02
  0
VERTEX
  8
0
 62
4
 10
5.60353394E+00
 20
2.67219024E+02
  0
VERTEX
  8
0
 62
4
 10
5.96629980E+00
 20
2.67240638E+02
  0
VERTEX
  8
0
 62
4
 10
6.32140750E+00
 20
2.67272137E+02
  0
VERTEX
  8
0
 62
4
 10
6.66604273E+00
 20
2.67313270E+02
  0
VERTEX
  8
0
 62
4
 10
6.99747421E+00
 20
2.67363711E+02
  0
VERTEX
  8
0
 62
4
 10
7.31307527E+00
 20
2.67423062E+02
  0
VERTEX
  8
0
 62
4
 10
7.61034472E+00
 20
2.67490850E+02
  0
VERTEX
  8
0
 62
4
 10
7.88692663E+00
 20
2.67566540E+02
  0
VERTEX
  8
0
 62
4
 10
8.14062906E+00
 20
2.67649531E+02
  0
VERTEX
  8
0
 62
4
 10
8.36944135E+00
 20
2.67739165E+02
  0
VERTEX
  8
0
 62
4
 10
8.57155014E+00
 20
2.67834732E+02
  0
VERTEX
  8
0
 62
4
 10
8.74535366E+00
 20
2.67935476E+02
  0
VERTEX
  8
0
 62
4
 10
8.88947450E+00
 20
2.68040596E+02
  0
VERTEX
  8
0
 62
4
 10
9.00277046E+00
 20
2.68149261E+02
  0
VERTEX
  8
0
 62
4
 10
9.08434366E+00
 20
2.68260609E+02
  0
VERTEX
  8
0
 62
4
 10
9.13354762E+00
 20
2.68373758E+02
  0
VERTEX
  8
0
 62
4
 10
9.14999238E+00
 20
2.68487810E+02
  0
SEQEND
  8
0
  0
POLYLINE
  8
0
 62
4
 66
1
  0
VERTEX
  8
0
 62
4
 10
9.14999238E+00
 20
2.70161669E+02
  0
VERTEX
  8
0
 62
4
 10
9.13420038E+00
 20
2.70273439E+02
  0
VERTEX
  8
0
 62
4
 10
9.08694455E+00
 20
2.70384359E+02
  0
VERTEX
  8
0
 62
4
 10
9.00858456E+00
 20
2.70493584E+02
  0
VERTEX
  8
0
 62
4
 10
8.89971676E+00
 20
2.70600283E+02
  0
VERTEX
  8
0
 62
4
 10
8.76116969E+00
 20
2.70703643E+02
  0
VERTEX
  8
0
 62
4
 10
8.59399780E+00
 20
2.70802879E+02
  0
VERTEX
  8
0
 62
4
 10
8.39947336E+00
 20
2.70897235E+02
  0
VERTEX
  8
0
 62
4
 10
8.17907682E+00
 20
2.70985993E+02
  0
VERTEX
  8
0
 62
4
 10
7.93448552E+00
 20
2.71068477E+02
  0
VERTEX
  8
0
 62
4
 10
7.66756096E+00
 20
2.71144060E+02
  0
VERTEX
  8
0
 62
4
 10
7.38033459E+00
 20
2.71212166E+02
  0
VERTEX
  8
0
 62
4
 10
7.07499237E+00
 20
2.71272278E+02
  0
VERTEX
  8
0
 62
4
 10
6.75385816E+00
 20
2.71323937E+02
  0
VERTEX
  8
0
 62
4
 10
6.41937597E+00
 20
2.71366750E+02
  0
VERTEX
  8
0
 62
4
 10
6.07409141E+00
 20
2.71400392E+02
  0
VERTEX
  8
0
 62
4
 10
5.72063231E+00
 20
2.71424607E+02
  0
VERTEX
  8
0
 62
4
 10
5.36168870E+00
 20
2.71439210E+02
  0
VERTEX
  8
0
 62
4
 10
4.99999237E+00
 20
2.71444090E+02
  0
VERTEX
  8
0
 62
4
 10
4.63829603E+00
 20
2.71439210E+02
  0
VERTEX
  8
0
 62
4
 10
4.27935243E+00
 20
2.71424607E+02
  0
VERTEX
  8
0
 62
4
 10
3.92589333E+00
 20
2.71400392E+02
  0
VERTEX
  8
0
 62
4
 10
3.58060877E+00
 20
2.71366750E+02
  0
VERTEX
  8
0
 62
4
 10
3.24612658E+00
 20
2.71323937E+02
  0
VERTEX
  8
0
 62
4
 10
2.92499236E+00
 20
2.71272278E+02
  0
VERTEX
  8
0
 62
4
 10
2.61965015E+00
 20
2.71212166E+02
  0
VERTEX
  8
0
 62
4
 10
2.33242378E+00
 20
2.71144060E+02
  0
VERTEX
  8
0
 62
4
 10
2.06549922E+00
 20
2.71068477E+02
  0
VERTEX
  8
0
 62
4
 10
1.82090792E+00
 20
2.70985993E+02
  0
VERTEX
  8
0
 62
4
 10
1.60051138E+00
 20
2.70897235E+02
  0
VERTEX
  8
0
 62
4
 10
1.40598693E+00
 20
2.70802879E+02
  0
VERTEX
  8
0
 62
4
 10
1.23881504E+00
 20
2.70703643E+02
  0
VERTEX
  8
0
 62
4
 10
1.10026798E+00
 20
2.70600283E+02
  0
VERTEX
  8
0
 62
4
 10
9.91400180E-01
 20
2.70493584E+02
  0
VERTEX
  8
0
 62
4
 10
9.13040184E-01
 20
2.70384359E+02
  0
VERTEX
  8
0
 62
4
 10
8.65784362E-01
 20
2.70273439E+02
  0
VERTEX
  8
0
 62
4
 10
8.49992360E-01
 20
2.70161669E+02
  0
VERTEX
  8
0
 62
4
 10
8.65784363E-01
 20
2.70049899E+02
  0
VERTEX
  8
0
 62
4
 10
9.13040186E-01
 20
2.69938979E+02
  0
VERTEX
  8
0
 62
4
 10
9.91400183E-01
 20
2.69829754E+02
  0
VERTEX
  8
0
 62
4
 10
1.10026799E+00
 20
2.69723055E+02
  0
VERTEX
  8
0
 62
4
 10
1.23881505E+00
 20
2.69619695E+02
  0
VERTEX
  8
0
 62
4
 10
1.40598694E+00
 20
2.69520459E+02
  0
VERTEX
  8
0
 62
4
 10
1.60051138E+00
 20
2.69426103E+02
  0
VERTEX
  8
0
 62
4
 10
1.82090793E+00
 20
2.69337345E+02
  0
VERTEX
  8
0
 62
4
 10
2.06549923E+00
 20
2.69254861E+02
  0
VERTEX
  8
0
 62
4
 10
2.33242379E+00
 20
2.69179278E+02
  0
VERTEX
  8
0
 62
4
 10
2.61965016E+00
 20
2.69111172E+02
  0
VERTEX
  8
0
 62
4
 10
2.92499237E+00
 20
2.69051060E+02
  0
VERTEX
  8
0
 62
4
 10
3.24612659E+00
 20
2.68999401E+02
  0
VERTEX
  8
0
 62
4
 10
3.58060878E+00
 20
2.68956588E+02
  0
VERTEX
  8
0
 62
4
 10
3.92589334E+00
 20
2.68922946E+02
  0
VERTEX
  8
0
 62
4
 10
4.27935244E+00
 20
2.68898731E+02
  0
VERTEX
  8
0
 62
4
 10
4.63829605E+00
 20
2.68884128E+02
  0
VERTEX
  8
0
 62
4
 10
4.99999238E+00
 20
2.68879249E+02
  0
VERTEX
  8
0
 62
4
 10
5.36168871E+00
 20
2.68884128E+02
  0
VERTEX
  8
0
 62
4
 10
5.72063232E+00
 20
2.68898731E+02
  0
VERTEX
  8
0
 62
4
 10
6.07409142E+00
 20
2.68922946E+02
  0
VERTEX
  8
0
 62
4
 10
6.41937598E+00
 20
2.68956588E+02
  0
VERTEX
  8
0
 62
4
 10
6.75385817E+00
 20
2.68999401E+02
  0
VERTEX
  8
0
 62
4
 10
7.07499238E+00
 20
2.69051060E+02
  0
VERTEX
  8
0
 62
4
 10
7.38033459E+00
 20
2.69111172E+02
  0
VERTEX
  8
0
 62
4
 10
7.66756096E+00
 20
2.69179278E+02
  0
VERTEX
  8
0
 62
4
 10
7.93448553E+00
 20
2.69254861E+02
  0
VERTEX
  8
0
 62
4
 10
8.17907682E+00
 20
2.69337345E+02
  0
VERTEX
  8
0
 62
4
 10
8.39947337E+00
 20
2.69426103E+02
  0
VERTEX
  8
0
 62
4
 10
8.59399781E+00
 20
2.69520459E+02
  0
VERTEX
  8
0
 62
4
 10
8.76116970E+00
 20
2.69619695E+02
  0
VERTEX
  8
0
 62
4
 10
8.89971676E+00
 20
2.69723055E+02
  0
VERTEX
  8
0
 62
4
 10
9.00858456E+00
 20
2.69829754E+02
  0
VERTEX
  8
0
 62
4
 10
9.08694456E+00
 20
2.69938979E+02
  0
VERTEX
  8
0
 62
4
 10
9.13420038E+00
 20
2.70049899E+02
  0
VERTEX
  8
0
 62
4
 10
9.14999238E+00
 20
2.70161669E+02
  0
SEQEND
  8
0
  0
LINE
  8
0
 62
4
 10
8.99999237E+00
 20
2.68146140E+02
 11
8.99999237E+00
 21
2.68126408E+02
  0
POLYLINE
  8
0
 62
4
 66
1
  0
VERTEX
  8
0
 62
4
 10
1.29999238E+00
 20
2.67656743E+02
  0
VERTEX
  8
0
 62
4
 10
1.44930035E+00
 20
2.67557230E+02
  0
VERTEX
  8
0
 62
4
 10
1.62656903E+00
 20
2.67462200E+02
  0
VERTEX
  8
0
 62
4
 10
1.83040248E+00
 20
2.67372400E+02
  0
VERTEX
  8
0
 62
4
 10
2.05919557E+00
 20
2.67288538E+02
  0
VERTEX
  8
0
 62
4
 10
2.31114662E+00
 20
2.67211274E+02
  0
VERTEX
  8
0
 62
4
 10
2.58427158E+00
 20
2.67141216E+02
  0
VERTEX
  8
0
 62
4
 10
2.87641967E+00
 20
2.67078916E+02
  0
VERTEX
  8
0
 62
4
 10
3.18529030E+00
 20
2.67024865E+02
  0
VERTEX
  8
0
 62
4
 10
3.50845121E+00
 20
2.66979488E+02
  0
VERTEX
  8
0
 62
4
 10
3.84335758E+00
 20
2.66943143E+02
  0
VERTEX
  8
0
 62
4
 10
4.18737214E+00
 20
2.66916116E+02
  0
VERTEX
  8
0
 62
4
 10
4.53778585E+00
 20
2.66898620E+02
  0
VERTEX
  8
0
 62
4
 10
4.89183931E+00
 20
2.66890792E+02
  0
VERTEX
  8
0
 62
4
 10
5.24674445E+00
 20
2.66892694E+02
  0
VERTEX
  8
0
 62
4
 10
5.59970648E+00
 20
2.66904311E+02
  0
VERTEX
  8
0
 62
4
 10
5.94794594E+00
 20
2.66925553E+02
  0
VERTEX
  8
0
 62
4
 10
6.28872052E+00
 20
2.66956250E+02
  0
VERTEX
  8
0
 62
4
 10
6.61934672E+00
 20
2.66996162E+02
  0
VERTEX
  8
0
 62
4
 10
6.93722096E+00
 20
2.67044975E+02
  0
VERTEX
  8
0
 62
4
 10
7.23984006E+00
 20
2.67102303E+02
  0
VERTEX
  8
0
 62
4
 10
7.52482099E+00
 20
2.67167696E+02
  0
VERTEX
  8
0
 62
4
 10
7.78991959E+00
 20
2.67240639E+02
  0
VERTEX
  8
0
 62
4
 10
8.03304830E+00
 20
2.67320556E+02
  0
VERTEX
  8
0
 62
4
 10
8.25229253E+00
 20
2.67406820E+02
  0
VERTEX
  8
0
 62
4
 10
8.44592580E+00
 20
2.67498750E+02
  0
VERTEX
  8
0
 62
4
 10
8.61242330E+00
 20
2.67595623E+02
  0
VERTEX
  8
0
 62
4
 10
8.75047392E+00
 20
2.67696676E+02
  0
VERTEX
  8
0
 62
4
 10
8.85899054E+00
 20
2.67801112E+02
  0
VERTEX
  8
0
 62
4
 10
8.93711862E+00
 20
2.67908111E+02
  0
VERTEX
  8
0
 62
4
 10
8.98424293E+00
 20
2.68016828E+02
  0
VERTEX
  8
0
 62
4
 10
8.99999237E+00
 20
2.68126408E+02
  0
SEQEND
  8
0
  0
ARC
  8
0
 62
4
 10
9.18761442E+00
 20
2.57173172E+02
 40
1.43299558E+01
 50
9.97219440E+01
 51
1.14556488E+02
  0
ARC
  8
0
 62
4
 10
8.12368852E-01
 20
2.57173167E+02
 40
1.43299613E+01
 50
6.54435144E+01
 51
8.02780535E+01
  0
LINE
  8
0
 62
4
 10
1.29999237E+00
 20
2.67995906E+02
 11
1.29999237E+00
 21
2.67044849E+02
  0
POLYLINE
  8
0
 62
4
 66
1
  0
VERTEX
  8
0
 62
4
 10
-6.30000763E+00
 20
2.67044849E+02
  0
VERTEX
  8
0
 62
4
 10
-6.28470995E+00
 20
2.66939589E+02
  0
VERTEX
  8
0
 62
4
 10
-6.23894007E+00
 20
2.66835176E+02
  0
VERTEX
  8
0
 62
4
 10
-6.16306650E+00
 20
2.66732451E+02
  0
VERTEX
  8
0
 62
4
 10
-6.05770014E+00
 20
2.66632242E+02
  0
VERTEX
  8
0
 62
4
 10
-5.92368933E+00
 20
2.66535355E+02
  0
VERTEX
  8
0
 62
4
 10
-5.76211305E+00
 20
2.66442570E+02
  0
VERTEX
  8
0
 62
4
 10
-5.57427222E+00
 20
2.66354634E+02
  0
VERTEX
  8
0
 62
4
 10
-5.36167921E+00
 20
2.66272255E+02
  0
VERTEX
  8
0
 62
4
 10
-5.12604571E+00
 20
2.66196097E+02
  0
VERTEX
  8
0
 62
4
 10
-4.86926889E+00
 20
2.66126772E+02
  0
VERTEX
  8
0
 62
4
 10
-4.59341617E+00
 20
2.66064839E+02
  0
VERTEX
  8
0
 62
4
 10
-4.30070856E+00
 20
2.66010797E+02
  0
VERTEX
  8
0
 62
4
 10
-3.99350277E+00
 20
2.65965080E+02
  0
VERTEX
  8
0
 62
4
 10
-3.67427223E+00
 20
2.65928057E+02
  0
VERTEX
  8
0
 62
4
 10
-3.34558720E+00
 20
2.65900026E+02
  0
VERTEX
  8
0
 62
4
 10
-3.01009406E+00
 20
2.65881212E+02
  0
VERTEX
  8
0
 62
4
 10
-2.67049401E+00
 20
2.65871767E+02
  0
VERTEX
  8
0
 62
4
 10
-2.32952130E+00
 20
2.65871767E+02
  0
VERTEX
  8
0
 62
4
 10
-1.98992124E+00
 20
2.65881212E+02
  0
VERTEX
  8
0
 62
4
 10
-1.65442810E+00
 20
2.65900026E+02
  0
VERTEX
  8
0
 62
4
 10
-1.32574307E+00
 20
2.65928057E+02
  0
VERTEX
  8
0
 62
4
 10
-1.00651253E+00
 20
2.65965080E+02
  0
VERTEX
  8
0
 62
4
 10
-6.99306733E-01
 20
2.66010797E+02
  0
VERTEX
  8
0
 62
4
 10
-4.06599120E-01
 20
2.66064839E+02
  0
VERTEX
  8
0
 62
4
 10
-1.30746401E-01
 20
2.66126772E+02
  0
VERTEX
  8
0
 62
4
 10
1.26030419E-01
 20
2.66196097E+02
  0
VERTEX
  8
0
 62
4
 10
3.61663925E-01
 20
2.66272255E+02
  0
VERTEX
  8
0
 62
4
 10
5.74256934E-01
 20
2.66354634E+02
  0
VERTEX
  8
0
 62
4
 10
7.62097773E-01
 20
2.66442570E+02
  0
VERTEX
  8
0
 62
4
 10
9.23674057E-01
 20
2.66535355E+02
  0
VERTEX
  8
0
 62
4
 10
1.05768487E+00
 20
2.66632242E+02
  0
VERTEX
  8
0
 62
4
 10
1.16305123E+00
 20
2.66732451E+02
  0
VERTEX
  8
0
 62
4
 10
1.23892480E+00
 20
2.66835176E+02
  0
VERTEX
  8
0
 62
4
 10
1.28469468E+00
 20
2.66939589E+02
  0
VERTEX
  8
0
 62
4
 10
1.29999237E+00
 20
2.67044849E+02
  0
SEQEND
  8
0
  0
POLYLINE
  8
0
 62
4
 66
1
  0
VERTEX
  8
0
 62
4
 10
-5.90000764E+00
 20
2.68520325E+02
  0
VERTEX
  8
0
 62
4
 10
-6.03658930E+00
 20
2.68425494E+02
  0
VERTEX
  8
0
 62
4
 10
-6.14553717E+00
 20
2.68327306E+02
  0
VERTEX
  8
0
 62
4
 10
-6.22599995E+00
 20
2.68226529E+02
  0
VERTEX
  8
0
 62
4
 10
-6.27734893E+00
 20
2.68123950E+02
  0
VERTEX
  8
0
 62
4
 10
-6.29918288E+00
 20
2.68020370E+02
  0
VERTEX
  8
0
 62
4
 10
-6.29133121E+00
 20
2.67916599E+02
  0
VERTEX
  8
0
 62
4
 10
-6.25385526E+00
 20
2.67813448E+02
  0
VERTEX
  8
0
 62
4
 10
-6.18704785E+00
 20
2.67711722E+02
  0
VERTEX
  8
0
 62
4
 10
-6.09143101E+00
 20
2.67612217E+02
  0
VERTEX
  8
0
 62
4
 10
-5.96775185E+00
 20
2.67515710E+02
  0
VERTEX
  8
0
 62
4
 10
-5.81697677E+00
 20
2.67422955E+02
  0
VERTEX
  8
0
 62
4
 10
-5.64028387E+00
 20
2.67334677E+02
  0
VERTEX
  8
0
 62
4
 10
-5.43905379E+00
 20
2.67251566E+02
  0
VERTEX
  8
0
 62
4
 10
-5.21485887E+00
 20
2.67174270E+02
  0
VERTEX
  8
0
 62
4
 10
-4.96945091E+00
 20
2.67103395E+02
  0
VERTEX
  8
0
 62
4
 10
-4.70474745E+00
 20
2.67039494E+02
  0
VERTEX
  8
0
 62
4
 10
-4.42281681E+00
 20
2.66983065E+02
  0
VERTEX
  8
0
 62
4
 10
-4.12586191E+00
 20
2.66934551E+02
  0
VERTEX
  8
0
 62
4
 10
-3.81620307E+00
 20
2.66894330E+02
  0
VERTEX
  8
0
 62
4
 10
-3.49625986E+00
 20
2.66862716E+02
  0
VERTEX
  8
0
 62
4
 10
-3.16853224E+00
 20
2.66839956E+02
  0
VERTEX
  8
0
 62
4
 10
-2.83558096E+00
 20
2.66826229E+02
  0
VERTEX
  8
0
 62
4
 10
-2.50000761E+00
 20
2.66821641E+02
  0
VERTEX
  8
0
 62
4
 10
-2.16443426E+00
 20
2.66826229E+02
  0
VERTEX
  8
0
 62
4
 10
-1.83148299E+00
 20
2.66839956E+02
  0
VERTEX
  8
0
 62
4
 10
-1.50375536E+00
 20
2.66862716E+02
  0
VERTEX
  8
0
 62
4
 10
-1.18381216E+00
 20
2.66894330E+02
  0
VERTEX
  8
0
 62
4
 10
-8.74153316E-01
 20
2.66934551E+02
  0
VERTEX
  8
0
 62
4
 10
-5.77198416E-01
 20
2.66983065E+02
  0
VERTEX
  8
0
 62
4
 10
-2.95267777E-01
 20
2.67039494E+02
  0
VERTEX
  8
0
 62
4
 10
-3.05643209E-02
 20
2.67103395E+02
  0
VERTEX
  8
0
 62
4
 10
2.14843637E-01
 20
2.67174270E+02
  0
VERTEX
  8
0
 62
4
 10
4.39038553E-01
 20
2.67251566E+02
  0
VERTEX
  8
0
 62
4
 10
6.40268634E-01
 20
2.67334677E+02
  0
VERTEX
  8
0
 62
4
 10
8.16961528E-01
 20
2.67422955E+02
  0
VERTEX
  8
0
 62
4
 10
9.67736608E-01
 20
2.67515710E+02
  0
VERTEX
  8
0
 62
4
 10
1.09141576E+00
 20
2.67612217E+02
  0
VERTEX
  8
0
 62
4
 10
1.18703260E+00
 20
2.67711722E+02
  0
VERTEX
  8
0
 62
4
 10
1.25384000E+00
 20
2.67813448E+02
  0
VERTEX
  8
0
 62
4
 10
1.29131595E+00
 20
2.67916599E+02
  0
VERTEX
  8
0
 62
4
 10
1.29916762E+00
 20
2.68020370E+02
  0
VERTEX
  8
0
 62
4
 10
1.27733366E+00
 20
2.68123950E+02
  0
VERTEX
  8
0
 62
4
 10
1.22598468E+00
 20
2.68226529E+02
  0
VERTEX
  8
0
 62
4
 10
1.14552190E+00
 20
2.68327306E+02
  0
VERTEX
  8
0
 62
4
 10
1.03657403E+00
 20
2.68425494E+02
  0
VERTEX
  8
0
 62
4
 10
8.99992362E-01
 20
2.68520325E+02
  0
SEQEND
  8
0
  0
LINE
  8
0
 62
4
 10
-6.30000763E+00
 20
2.67995906E+02
 11
-6.30000763E+00
 21
2.67044849E+02
  0
LINE
  8
0
 62
4
 10
8.99992371E-01
 20
2.69543217E+02
 11
8.99992371E-01
 21
2.67995906E+02
  0
POLYLINE
  8
0
 62
4
 66
1
  0
VERTEX
  8
0
 62
4
 10
-5.90000763E+00
 20
2.67995906E+02
  0
VERTEX
  8
0
 62
4
 10
-5.88632023E+00
 20
2.67901726E+02
  0
VERTEX
  8
0
 62
4
 10
-5.84536823E+00
 20
2.67808304E+02
  0
VERTEX
  8
0
 62
4
 10
-5.77748136E+00
 20
2.67716392E+02
  0
VERTEX
  8
0
 62
4
 10
-5.68320619E+00
 20
2.67626731E+02
  0
VERTEX
  8
0
 62
4
 10
-5.56330179E+00
 20
2.67540043E+02
  0
VERTEX
  8
0
 62
4
 10
-5.41873354E+00
 20
2.67457024E+02
  0
VERTEX
  8
0
 62
4
 10
-5.25066542E+00
 20
2.67378345E+02
  0
VERTEX
  8
0
 62
4
 10
-5.06045062E+00
 20
2.67304638E+02
  0
VERTEX
  8
0
 62
4
 10
-4.84962065E+00
 20
2.67236496E+02
  0
VERTEX
  8
0
 62
4
 10
-4.61987297E+00
 20
2.67174469E+02
  0
VERTEX
  8
0
 62
4
 10
-4.37305738E+00
 20
2.67119055E+02
  0
VERTEX
  8
0
 62
4
 10
-4.11116110E+00
 20
2.67070701E+02
  0
VERTEX
  8
0
 62
4
 10
-3.83629275E+00
 20
2.67029797E+02
  0
VERTEX
  8
0
 62
4
 10
-3.55066543E+00
 20
2.66996671E+02
  0
VERTEX
  8
0
 62
4
 10
-3.25657882E+00
 20
2.66971590E+02
  0
VERTEX
  8
0
 62
4
 10
-2.95640075E+00
 20
2.66954757E+02
  0
VERTEX
  8
0
 62
4
 10
-2.65254807E+00
 20
2.66946306E+02
  0
VERTEX
  8
0
 62
4
 10
-2.34746723E+00
 20
2.66946306E+02
  0
VERTEX
  8
0
 62
4
 10
-2.04361454E+00
 20
2.66954757E+02
  0
VERTEX
  8
0
 62
4
 10
-1.74343647E+00
 20
2.66971590E+02
  0
VERTEX
  8
0
 62
4
 10
-1.44934987E+00
 20
2.66996671E+02
  0
VERTEX
  8
0
 62
4
 10
-1.16372254E+00
 20
2.67029797E+02
  0
VERTEX
  8
0
 62
4
 10
-8.88854195E-01
 20
2.67070701E+02
  0
VERTEX
  8
0
 62
4
 10
-6.26957910E-01
 20
2.67119055E+02
  0
VERTEX
  8
0
 62
4
 10
-3.80142320E-01
 20
2.67174469E+02
  0
VERTEX
  8
0
 62
4
 10
-1.50394639E-01
 20
2.67236496E+02
  0
VERTEX
  8
0
 62
4
 10
6.04353402E-02
 20
2.67304638E+02
  0
VERTEX
  8
0
 62
4
 10
2.50650138E-01
 20
2.67378345E+02
  0
VERTEX
  8
0
 62
4
 10
4.18718257E-01
 20
2.67457024E+02
  0
VERTEX
  8
0
 62
4
 10
5.63286511E-01
 20
2.67540043E+02
  0
VERTEX
  8
0
 62
4
 10
6.83190922E-01
 20
2.67626731E+02
  0
VERTEX
  8
0
 62
4
 10
7.77466090E-01
 20
2.67716392E+02
  0
VERTEX
  8
0
 62
4
 10
8.45352967E-01
 20
2.67808304E+02
  0
VERTEX
  8
0
 62
4
 10
8.86304967E-01
 20
2.67901726E+02
  0
VERTEX
  8
0
 62
4
 10
8.99992370E-01
 20
2.67995906E+02
  0
SEQEND
  8
0
  0
LINE
  8
0
 62
4
 10
-5.90000763E+00
 20
2.69543217E+02
 11
-5.90000763E+00
 21
2.67995906E+02
  0
POLYLINE
  8
0
 62
4
 66
1
  0
VERTEX
  8
0
 62
4
 10
-5.90000763E+00
 20
2.69543211E+02
  0
VERTEX
  8
0
 62
4
 10
-5.88631840E+00
 20
2.69449030E+02
  0
VERTEX
  8
0
 62
4
 10
-5.84536459E+00
 20
2.69355609E+02
  0
VERTEX
  8
0
 62
4
 10
-5.77747593E+00
 20
2.69263697E+02
  0
VERTEX
  8
0
 62
4
 10
-5.68319903E+00
 20
2.69174036E+02
  0
VERTEX
  8
0
 62
4
 10
-5.56329294E+00
 20
2.69087348E+02
  0
VERTEX
  8
0
 62
4
 10
-5.41872307E+00
 20
2.69004330E+02
  0
VERTEX
  8
0
 62
4
 10
-5.25065343E+00
 20
2.68925651E+02
  0
VERTEX
  8
0
 62
4
 10
-5.06043720E+00
 20
2.68851944E+02
  0
VERTEX
  8
0
 62
4
 10
-4.84960590E+00
 20
2.68783803E+02
  0
VERTEX
  8
0
 62
4
 10
-4.61985702E+00
 20
2.68721776E+02
  0
VERTEX
  8
0
 62
4
 10
-4.37304035E+00
 20
2.68666363E+02
  0
VERTEX
  8
0
 62
4
 10
-4.11114313E+00
 20
2.68618009E+02
  0
VERTEX
  8
0
 62
4
 10
-3.83627399E+00
 20
2.68577106E+02
  0
VERTEX
  8
0
 62
4
 10
-3.55064603E+00
 20
2.68543980E+02
  0
VERTEX
  8
0
 62
4
 10
-3.25655893E+00
 20
2.68518900E+02
  0
VERTEX
  8
0
 62
4
 10
-2.95638054E+00
 20
2.68502067E+02
  0
VERTEX
  8
0
 62
4
 10
-2.65252769E+00
 20
2.68493617E+02
  0
VERTEX
  8
0
 62
4
 10
-2.34744685E+00
 20
2.68493617E+02
  0
VERTEX
  8
0
 62
4
 10
-2.04359433E+00
 20
2.68502069E+02
  0
VERTEX
  8
0
 62
4
 10
-1.74341658E+00
 20
2.68518903E+02
  0
VERTEX
  8
0
 62
4
 10
-1.44933047E+00
 20
2.68543984E+02
  0
VERTEX
  8
0
 62
4
 10
-1.16370378E+00
 20
2.68577110E+02
  0
VERTEX
  8
0
 62
4
 10
-8.88836231E-01
 20
2.68618015E+02
  0
VERTEX
  8
0
 62
4
 10
-6.26940885E-01
 20
2.68666370E+02
  0
VERTEX
  8
0
 62
4
 10
-3.80126371E-01
 20
2.68721784E+02
  0
VERTEX
  8
0
 62
4
 10
-1.50379894E-01
 20
2.68783811E+02
  0
VERTEX
  8
0
 62
4
 10
6.04487621E-02
 20
2.68851953E+02
  0
VERTEX
  8
0
 62
4
 10
2.50662129E-01
 20
2.68925661E+02
  0
VERTEX
  8
0
 62
4
 10
4.18728720E-01
 20
2.69004341E+02
  0
VERTEX
  8
0
 62
4
 10
5.63295362E-01
 20
2.69087359E+02
  0
VERTEX
  8
0
 62
4
 10
6.83198090E-01
 20
2.69174048E+02
  0
VERTEX
  8
0
 62
4
 10
7.77471517E-01
 20
2.69263709E+02
  0
VERTEX
  8
0
 62
4
 10
8.45356610E-01
 20
2.69355621E+02
  0
VERTEX
  8
0
 62
4
 10
8.86306796E-01
 20
2.69449043E+02
  0
VERTEX
  8
0
 62
4
 10
8.99992370E-01
 20
2.69543223E+02
  0
SEQEND
  8
0
  0
ARC
  8
0
 62
4
 10
1.66049226E+00
 20
2.56688800E+02
 40
1.42127873E+01
 50
9.99307184E+01
 51
1.14652136E+02
  0
ARC
  8
0
 62
4
 10
-6.66050779E+00
 20
2.56688799E+02
 40
1.42127883E+01
 50
6.53478648E+01
 51
8.00692808E+01
  0
LINE
  8
0
  6
CENTER
 62
6
 10
1.49999924E+01
 20
2.67044849E+02
 11
9.99999237E+00
 21
2.67044849E+02
  0
LINE
  8
0
  6
CENTER
 62
6
 10
4.99999237E+00
 20
2.65626408E+02
 11
4.99999237E+00
 21
2.70626408E+02
  0
LINE
  8
0
  6
CENTER
 62
6
 10
7.49999237E+00
 20
2.68126408E+02
 11
2.49999237E+00
 21
2.68126408E+02
  0
LINE
  8
0
  6
CENTER
 62
6
 10
-2.50000763E+00
 20
2.64544849E+02
 11
-2.50000763E+00
 21
2.69544849E+02
  0
LINE
  8
0
  6
CENTER
 62
6
 10
-7.62939442E-06
 20
2.67044849E+02
 11
-5.00000763E+00
 21
2.67044849E+02
  0
LINE
  8
0
 62
4
 10
1.09822479E+00
 20
2.70598544E+02
 11
-2.59577351E-01
 21
2.70598544E+02
  0
LINE
  8
0
 62
4
 10
9.55377099E-01
 20
2.70448837E+02
 11
3.24082242E-01
 21
2.70448837E+02
  0
LINE
  8
0
 62
4
 10
-5.90000763E+00
 20
2.68868049E+02
 11
-1.00000076E+01
 21
2.68868049E+02
  0
LINE
  8
0
 62
4
 10
-4.74043791E+00
 20
2.70598544E+02
 11
-1.00000076E+01
 21
2.70598544E+02
  0
LINE
  8
0
 62
7
 10
-5.39999924E+01
 20
3.12100006E+02
 11
-7.99999924E+01
 21
3.12100006E+02
  0
LINE
  8
0
 62
7
 10
-5.39999924E+01
 20
3.14499969E+02
 11
-7.99999924E+01
 21
3.14499969E+02
  0
LINE
  8
0
 62
7
 10
-6.89999924E+01
 20
3.04899994E+02
 11
-7.99999924E+01
 21
3.04899994E+02
  0
LINE
  8
0
 62
7
 10
-1.00000076E+01
 20
2.56100021E+02
 11
-7.99999924E+01
 21
2.56100021E+02
  0
LINE
  8
0
 62
7
 10
-1.00000076E+01
 20
2.48900009E+02
 11
-7.99999924E+01
 21
2.48900009E+02
  0
LINE
  8
0
 62
7
 10
-1.00000076E+01
 20
2.46500031E+02
 11
-7.99999924E+01
 21
2.46500031E+02
  0
LINE
  8
0
 62
4
 10
-9.10000966E+01
 20
-2.38358818E+02
 11
-8.60000966E+01
 21
-2.38358809E+02
  0
LINE
  8
0
 62
4
 10
-7.30000005E+01
 20
-2.83696990E+02
 11
-4.00000005E+01
 21
-2.83696931E+02
  0
LINE
  8
0
 62
4
 10
-4.00000005E+01
 20
-2.85500031E+02
 11
-4.00000005E+01
 21
-2.82231815E+02
  0
LINE
  8
0
 62
4
 10
-7.30000005E+01
 20
-2.85500031E+02
 11
-7.30000005E+01
 21
-2.82231874E+02
  0
LINE
  8
0
 62
4
 10
-3.70000103E+01
 20
-2.77482480E+02
 11
-4.00000005E+01
 21
-2.82231815E+02
  0
LINE
  8
0
 62
4
 10
-7.60000103E+01
 20
-2.77482550E+02
 11
-7.30000005E+01
 21
-2.82231874E+02
  0
POLYLINE
  8
0
 62
4
 66
1
  0
VERTEX
  8
0
 62
4
 10
-6.80000193E+01
 20
-2.70228316E+02
  0
VERTEX
  8
0
 62
4
 10
-6.79848031E+01
 20
-2.70557946E+02
  0
VERTEX
  8
0
 62
4
 10
-6.79392603E+01
 20
-2.70885068E+02
  0
VERTEX
  8
0
 62
4
 10
-6.78637374E+01
 20
-2.71207191E+02
  0
VERTEX
  8
0
 62
4
 10
-6.77588094E+01
 20
-2.71521866E+02
  0
VERTEX
  8
0
 62
4
 10
-6.76252747E+01
 20
-2.71826696E+02
  0
VERTEX
  8
0
 62
4
 10
-6.74641496E+01
 20
-2.72119362E+02
  0
VERTEX
  8
0
 62
4
 10
-6.72766603E+01
 20
-2.72397636E+02
  0
VERTEX
  8
0
 62
4
 10
-6.70642339E+01
 20
-2.72659401E+02
  0
VERTEX
  8
0
 62
4
 10
-6.68284869E+01
 20
-2.72902665E+02
  0
VERTEX
  8
0
 62
4
 10
-6.65712136E+01
 20
-2.73125575E+02
  0
VERTEX
  8
0
 62
4
 10
-6.62943720E+01
 20
-2.73326436E+02
  0
VERTEX
  8
0
 62
4
 10
-6.60000689E+01
 20
-2.73503719E+02
  0
VERTEX
  8
0
 62
4
 10
-6.56905443E+01
 20
-2.73656075E+02
  0
VERTEX
  8
0
 62
4
 10
-6.53681537E+01
 20
-2.73782344E+02
  0
VERTEX
  8
0
 62
4
 10
-6.50353508E+01
 20
-2.73881565E+02
  0
VERTEX
  8
0
 62
4
 10
-6.46946684E+01
 20
-2.73952983E+02
  0
VERTEX
  8
0
 62
4
 10
-6.43486993E+01
 20
-2.73996054E+02
  0
VERTEX
  8
0
 62
4
 10
-6.40000766E+01
 20
-2.74010451E+02
  0
VERTEX
  8
0
 62
4
 10
-6.36514534E+01
 20
-2.73996065E+02
  0
VERTEX
  8
0
 62
4
 10
-6.33054830E+01
 20
-2.73953004E+02
  0
VERTEX
  8
0
 62
4
 10
-6.29647984E+01
 20
-2.73881596E+02
  0
VERTEX
  8
0
 62
4
 10
-6.26319925E+01
 20
-2.73782385E+02
  0
VERTEX
  8
0
 62
4
 10
-6.23095982E+01
 20
-2.73656126E+02
  0
VERTEX
  8
0
 62
4
 10
-6.20000689E+01
 20
-2.73503780E+02
  0
VERTEX
  8
0
 62
4
 10
-6.17057605E+01
 20
-2.73326506E+02
  0
VERTEX
  8
0
 62
4
 10
-6.14289127E+01
 20
-2.73125653E+02
  0
VERTEX
  8
0
 62
4
 10
-6.11716327E+01
 20
-2.72902750E+02
  0
VERTEX
  8
0
 62
4
 10
-6.09358783E+01
 20
-2.72659494E+02
  0
VERTEX
  8
0
 62
4
 10
-6.07234440E+01
 20
-2.72397735E+02
  0
VERTEX
  8
0
 62
4
 10
-6.05359463E+01
 20
-2.72119467E+02
  0
VERTEX
  8
0
 62
4
 10
-6.03748124E+01
 20
-2.71826806E+02
  0
VERTEX
  8
0
 62
4
 10
-6.02412684E+01
 20
-2.71521980E+02
  0
VERTEX
  8
0
 62
4
 10
-6.01363308E+01
 20
-2.71207308E+02
  0
VERTEX
  8
0
 62
4
 10
-6.00607982E+01
 20
-2.70885187E+02
  0
VERTEX
  8
0
 62
4
 10
-6.00152455E+01
 20
-2.70558067E+02
  0
VERTEX
  8
0
 62
4
 10
-6.00000193E+01
 20
-2.70228438E+02
  0
VERTEX
  8
0
 62
4
 10
-6.00152355E+01
 20
-2.69898808E+02
  0
VERTEX
  8
0
 62
4
 10
-6.00607783E+01
 20
-2.69571686E+02
  0
VERTEX
  8
0
 62
4
 10
-6.01363012E+01
 20
-2.69249563E+02
  0
VERTEX
  8
0
 62
4
 10
-6.02412292E+01
 20
-2.68934888E+02
  0
VERTEX
  8
0
 62
4
 10
-6.03747639E+01
 20
-2.68630058E+02
  0
VERTEX
  8
0
 62
4
 10
-6.05358891E+01
 20
-2.68337392E+02
  0
VERTEX
  8
0
 62
4
 10
-6.07233783E+01
 20
-2.68059118E+02
  0
VERTEX
  8
0
 62
4
 10
-6.09358047E+01
 20
-2.67797353E+02
  0
VERTEX
  8
0
 62
4
 10
-6.11715517E+01
 20
-2.67554089E+02
  0
VERTEX
  8
0
 62
4
 10
-6.14288250E+01
 20
-2.67331179E+02
  0
VERTEX
  8
0
 62
4
 10
-6.17056666E+01
 20
-2.67130318E+02
  0
VERTEX
  8
0
 62
4
 10
-6.19999697E+01
 20
-2.66953035E+02
  0
VERTEX
  8
0
 62
4
 10
-6.23094944E+01
 20
-2.66800679E+02
  0
VERTEX
  8
0
 62
4
 10
-6.26318849E+01
 20
-2.66674410E+02
  0
VERTEX
  8
0
 62
4
 10
-6.29646878E+01
 20
-2.66575189E+02
  0
VERTEX
  8
0
 62
4
 10
-6.33053702E+01
 20
-2.66503771E+02
  0
VERTEX
  8
0
 62
4
 10
-6.36513393E+01
 20
-2.66460700E+02
  0
VERTEX
  8
0
 62
4
 10
-6.39999620E+01
 20
-2.66446303E+02
  0
VERTEX
  8
0
 62
4
 10
-6.43485852E+01
 20
-2.66460689E+02
  0
VERTEX
  8
0
 62
4
 10
-6.46945556E+01
 20
-2.66503750E+02
  0
VERTEX
  8
0
 62
4
 10
-6.50352402E+01
 20
-2.66575158E+02
  0
VERTEX
  8
0
 62
4
 10
-6.53680461E+01
 20
-2.66674369E+02
  0
VERTEX
  8
0
 62
4
 10
-6.56904404E+01
 20
-2.66800628E+02
  0
VERTEX
  8
0
 62
4
 10
-6.59999697E+01
 20
-2.66952974E+02
  0
VERTEX
  8
0
 62
4
 10
-6.62942781E+01
 20
-2.67130248E+02
  0
VERTEX
  8
0
 62
4
 10
-6.65711259E+01
 20
-2.67331101E+02
  0
VERTEX
  8
0
 62
4
 10
-6.68284059E+01
 20
-2.67554004E+02
  0
VERTEX
  8
0
 62
4
 10
-6.70641603E+01
 20
-2.67797260E+02
  0
VERTEX
  8
0
 62
4
 10
-6.72765946E+01
 20
-2.68059019E+02
  0
VERTEX
  8
0
 62
4
 10
-6.74640923E+01
 20
-2.68337287E+02
  0
VERTEX
  8
0
 62
4
 10
-6.76252262E+01
 20
-2.68629948E+02
  0
VERTEX
  8
0
 62
4
 10
-6.77587702E+01
 20
-2.68934774E+02
  0
VERTEX
  8
0
 62
4
 10
-6.78637078E+01
 20
-2.69249446E+02
  0
VERTEX
  8
0
 62
4
 10
-6.79392404E+01
 20
-2.69571567E+02
  0
VERTEX
  8
0
 62
4
 10
-6.79847931E+01
 20
-2.69898687E+02
  0
VERTEX
  8
0
 62
4
 10
-6.80000193E+01
 20
-2.70228316E+02
  0
SEQEND
  8
0
  0
POLYLINE
  8
0
 62
4
 66
1
  0
VERTEX
  8
0
 62
4
 10
-6.74000204E+01
 20
-2.69636748E+02
  0
VERTEX
  8
0
 62
4
 10
-6.73870875E+01
 20
-2.69919403E+02
  0
VERTEX
  8
0
 62
4
 10
-6.73483770E+01
 20
-2.70199907E+02
  0
VERTEX
  8
0
 62
4
 10
-6.72841834E+01
 20
-2.70476126E+02
  0
VERTEX
  8
0
 62
4
 10
-6.71949954E+01
 20
-2.70745957E+02
  0
VERTEX
  8
0
 62
4
 10
-6.70814917E+01
 20
-2.71007346E+02
  0
VERTEX
  8
0
 62
4
 10
-6.69445361E+01
 20
-2.71258305E+02
  0
VERTEX
  8
0
 62
4
 10
-6.67851710E+01
 20
-2.71496924E+02
  0
VERTEX
  8
0
 62
4
 10
-6.66046093E+01
 20
-2.71721386E+02
  0
VERTEX
  8
0
 62
4
 10
-6.64042250E+01
 20
-2.71929983E+02
  0
VERTEX
  8
0
 62
4
 10
-6.61855433E+01
 20
-2.72121127E+02
  0
VERTEX
  8
0
 62
4
 10
-6.59502284E+01
 20
-2.72293365E+02
  0
VERTEX
  8
0
 62
4
 10
-6.57000713E+01
 20
-2.72445384E+02
  0
VERTEX
  8
0
 62
4
 10
-6.54369757E+01
 20
-2.72576028E+02
  0
VERTEX
  8
0
 62
4
 10
-6.51629441E+01
 20
-2.72684304E+02
  0
VERTEX
  8
0
 62
4
 10
-6.48800619E+01
 20
-2.72769386E+02
  0
VERTEX
  8
0
 62
4
 10
-6.45904821E+01
 20
-2.72830627E+02
  0
VERTEX
  8
0
 62
4
 10
-6.42964084E+01
 20
-2.72867561E+02
  0
VERTEX
  8
0
 62
4
 10
-6.40000791E+01
 20
-2.72879907E+02
  0
VERTEX
  8
0
 62
4
 10
-6.37037494E+01
 20
-2.72867572E+02
  0
VERTEX
  8
0
 62
4
 10
-6.34096744E+01
 20
-2.72830648E+02
  0
VERTEX
  8
0
 62
4
 10
-6.31200924E+01
 20
-2.72769417E+02
  0
VERTEX
  8
0
 62
4
 10
-6.28372071E+01
 20
-2.72684346E+02
  0
VERTEX
  8
0
 62
4
 10
-6.25631715E+01
 20
-2.72576080E+02
  0
VERTEX
  8
0
 62
4
 10
-6.23000713E+01
 20
-2.72445446E+02
  0
VERTEX
  8
0
 62
4
 10
-6.20499086E+01
 20
-2.72293435E+02
  0
VERTEX
  8
0
 62
4
 10
-6.18145875E+01
 20
-2.72121206E+02
  0
VERTEX
  8
0
 62
4
 10
-6.15958989E+01
 20
-2.71930070E+02
  0
VERTEX
  8
0
 62
4
 10
-6.13955071E+01
 20
-2.71721480E+02
  0
VERTEX
  8
0
 62
4
 10
-6.12149371E+01
 20
-2.71497025E+02
  0
VERTEX
  8
0
 62
4
 10
-6.10555634E+01
 20
-2.71258412E+02
  0
VERTEX
  8
0
 62
4
 10
-6.09185987E+01
 20
-2.71007458E+02
  0
VERTEX
  8
0
 62
4
 10
-6.08050856E+01
 20
-2.70746073E+02
  0
VERTEX
  8
0
 62
4
 10
-6.07158878E+01
 20
-2.70476245E+02
  0
VERTEX
  8
0
 62
4
 10
-6.06516842E+01
 20
-2.70200029E+02
  0
VERTEX
  8
0
 62
4
 10
-6.06129635E+01
 20
-2.69919526E+02
  0
VERTEX
  8
0
 62
4
 10
-6.06000204E+01
 20
-2.69636872E+02
  0
VERTEX
  8
0
 62
4
 10
-6.06129533E+01
 20
-2.69354217E+02
  0
VERTEX
  8
0
 62
4
 10
-6.06516638E+01
 20
-2.69073713E+02
  0
VERTEX
  8
0
 62
4
 10
-6.07158574E+01
 20
-2.68797494E+02
  0
VERTEX
  8
0
 62
4
 10
-6.08050454E+01
 20
-2.68527663E+02
  0
VERTEX
  8
0
 62
4
 10
-6.09185491E+01
 20
-2.68266274E+02
  0
VERTEX
  8
0
 62
4
 10
-6.10555047E+01
 20
-2.68015315E+02
  0
VERTEX
  8
0
 62
4
 10
-6.12148698E+01
 20
-2.67776696E+02
  0
VERTEX
  8
0
 62
4
 10
-6.13954315E+01
 20
-2.67552234E+02
  0
VERTEX
  8
0
 62
4
 10
-6.15958158E+01
 20
-2.67343637E+02
  0
VERTEX
  8
0
 62
4
 10
-6.18144975E+01
 20
-2.67152493E+02
  0
VERTEX
  8
0
 62
4
 10
-6.20498124E+01
 20
-2.66980255E+02
  0
VERTEX
  8
0
 62
4
 10
-6.22999695E+01
 20
-2.66828236E+02
  0
VERTEX
  8
0
 62
4
 10
-6.25630651E+01
 20
-2.66697592E+02
  0
VERTEX
  8
0
 62
4
 10
-6.28370967E+01
 20
-2.66589316E+02
  0
VERTEX
  8
0
 62
4
 10
-6.31199789E+01
 20
-2.66504234E+02
  0
VERTEX
  8
0
 62
4
 10
-6.34095588E+01
 20
-2.66442993E+02
  0
VERTEX
  8
0
 62
4
 10
-6.37036324E+01
 20
-2.66406059E+02
  0
VERTEX
  8
0
 62
4
 10
-6.39999617E+01
 20
-2.66393713E+02
  0
VERTEX
  8
0
 62
4
 10
-6.42962914E+01
 20
-2.66406048E+02
  0
VERTEX
  8
0
 62
4
 10
-6.45903664E+01
 20
-2.66442972E+02
  0
VERTEX
  8
0
 62
4
 10
-6.48799484E+01
 20
-2.66504203E+02
  0
VERTEX
  8
0
 62
4
 10
-6.51628337E+01
 20
-2.66589274E+02
  0
VERTEX
  8
0
 62
4
 10
-6.54368693E+01
 20
-2.66697540E+02
  0
VERTEX
  8
0
 62
4
 10
-6.56999695E+01
 20
-2.66828174E+02
  0
VERTEX
  8
0
 62
4
 10
-6.59501322E+01
 20
-2.66980185E+02
  0
VERTEX
  8
0
 62
4
 10
-6.61854533E+01
 20
-2.67152414E+02
  0
VERTEX
  8
0
 62
4
 10
-6.64041419E+01
 20
-2.67343550E+02
  0
VERTEX
  8
0
 62
4
 10
-6.66045338E+01
 20
-2.67552140E+02
  0
VERTEX
  8
0
 62
4
 10
-6.67851037E+01
 20
-2.67776595E+02
  0
VERTEX
  8
0
 62
4
 10
-6.69444774E+01
 20
-2.68015208E+02
  0
VERTEX
  8
0
 62
4
 10
-6.70814421E+01
 20
-2.68266162E+02
  0
VERTEX
  8
0
 62
4
 10
-6.71949552E+01
 20
-2.68527547E+02
  0
VERTEX
  8
0
 62
4
 10
-6.72841530E+01
 20
-2.68797375E+02
  0
VERTEX
  8
0
 62
4
 10
-6.73483566E+01
 20
-2.69073591E+02
  0
VERTEX
  8
0
 62
4
 10
-6.73870773E+01
 20
-2.69354094E+02
  0
VERTEX
  8
0
 62
4
 10
-6.74000204E+01
 20
-2.69636748E+02
  0
SEQEND
  8
0
  0
POLYLINE
  8
0
 62
4
 66
1
  0
VERTEX
  8
0
 62
4
 10
-6.74000193E+01
 20
-2.70228326E+02
  0
VERTEX
  8
0
 62
4
 10
-6.73870496E+01
 20
-2.70508899E+02
  0
VERTEX
  8
0
 62
4
 10
-6.73482310E+01
 20
-2.70787331E+02
  0
VERTEX
  8
0
 62
4
 10
-6.72838597E+01
 20
-2.71061498E+02
  0
VERTEX
  8
0
 62
4
 10
-6.71944270E+01
 20
-2.71329306E+02
  0
VERTEX
  8
0
 62
4
 10
-6.70806154E+01
 20
-2.71588713E+02
  0
VERTEX
  8
0
 62
4
 10
-6.69432936E+01
 20
-2.71837737E+02
  0
VERTEX
  8
0
 62
4
 10
-6.67835094E+01
 20
-2.72074480E+02
  0
VERTEX
  8
0
 62
4
 10
-6.66024824E+01
 20
-2.72297133E+02
  0
VERTEX
  8
0
 62
4
 10
-6.64015941E+01
 20
-2.72503999E+02
  0
VERTEX
  8
0
 62
4
 10
-6.61823776E+01
 20
-2.72693497E+02
  0
VERTEX
  8
0
 62
4
 10
-6.59465059E+01
 20
-2.72864182E+02
  0
VERTEX
  8
0
 62
4
 10
-6.56957792E+01
 20
-2.73014752E+02
  0
VERTEX
  8
0
 62
4
 10
-6.54321109E+01
 20
-2.73144056E+02
  0
VERTEX
  8
0
 62
4
 10
-6.51575132E+01
 20
-2.73251109E+02
  0
VERTEX
  8
0
 62
4
 10
-6.48740818E+01
 20
-2.73335093E+02
  0
VERTEX
  8
0
 62
4
 10
-6.45839798E+01
 20
-2.73395368E+02
  0
VERTEX
  8
0
 62
4
 10
-6.42894212E+01
 20
-2.73431473E+02
  0
VERTEX
  8
0
 62
4
 10
-6.39926539E+01
 20
-2.73443133E+02
  0
VERTEX
  8
0
 62
4
 10
-6.36959429E+01
 20
-2.73430258E+02
  0
VERTEX
  8
0
 62
4
 10
-6.34015525E+01
 20
-2.73392948E+02
  0
VERTEX
  8
0
 62
4
 10
-6.31117294E+01
 20
-2.73331486E+02
  0
VERTEX
  8
0
 62
4
 10
-6.28286855E+01
 20
-2.73246343E+02
  0
VERTEX
  8
0
 62
4
 10
-6.25545809E+01
 20
-2.73138167E+02
  0
VERTEX
  8
0
 62
4
 10
-6.22915076E+01
 20
-2.73007784E+02
  0
VERTEX
  8
0
 62
4
 10
-6.20414731E+01
 20
-2.72856190E+02
  0
VERTEX
  8
0
 62
4
 10
-6.18063858E+01
 20
-2.72684541E+02
  0
VERTEX
  8
0
 62
4
 10
-6.15880396E+01
 20
-2.72494147E+02
  0
VERTEX
  8
0
 62
4
 10
-6.13881011E+01
 20
-2.72286461E+02
  0
VERTEX
  8
0
 62
4
 10
-6.12080960E+01
 20
-2.72063069E+02
  0
VERTEX
  8
0
 62
4
 10
-6.10493982E+01
 20
-2.71825674E+02
  0
VERTEX
  8
0
 62
4
 10
-6.09132187E+01
 20
-2.71576090E+02
  0
VERTEX
  8
0
 62
4
 10
-6.08005969E+01
 20
-2.71316220E+02
  0
VERTEX
  8
0
 62
4
 10
-6.07123922E+01
 20
-2.71048048E+02
  0
VERTEX
  8
0
 62
4
 10
-6.06492778E+01
 20
-2.70773621E+02
  0
VERTEX
  8
0
 62
4
 10
-6.06117354E+01
 20
-2.70495032E+02
  0
VERTEX
  8
0
 62
4
 10
-6.06000514E+01
 20
-2.70214408E+02
  0
VERTEX
  8
0
 62
4
 10
-6.06143151E+01
 20
-2.69933891E+02
  0
SEQEND
  8
0
  0
LINE
  8
0
  6
CENTER
 62
6
 10
-6.40000096E+01
 20
-2.75651761E+02
 11
-6.40000326E+01
 21
-2.62851761E+02
  0
LINE
  8
0
  6
CENTER
 62
6
 10
-7.04000211E+01
 20
-2.69251773E+02
 11
-5.76000211E+01
 21
-2.69251750E+02
  0
LINE
  8
0
 62
4
 10
-7.15000984E+01
 20
-2.37344817E+02
 11
-5.65000984E+01
 21
-2.37344790E+02
  0
LINE
  8
0
 62
4
 10
-7.35000571E+01
 20
-2.60331648E+02
 11
-5.45000571E+01
 21
-2.60331614E+02
  0
LINE
  8
0
 62
4
 10
-7.60000319E+01
 20
-2.65476157E+02
 11
-7.60000103E+01
 21
-2.77482550E+02
  0
LINE
  8
0
 62
4
 10
-7.35000571E+01
 20
-2.60331648E+02
 11
-7.35000506E+01
 21
-2.63976132E+02
  0
LINE
  8
0
 62
4
 10
-5.65000984E+01
 20
-2.37344790E+02
 11
-5.65000571E+01
 21
-2.60331618E+02
  0
LINE
  8
0
 62
4
 10
-7.15000984E+01
 20
-2.37344790E+02
 11
-7.15000571E+01
 21
-2.60331645E+02
  0
LINE
  8
0
 62
4
 10
-5.45000571E+01
 20
-2.60331614E+02
 11
-5.45000506E+01
 21
-2.63976118E+02
  0
LINE
  8
0
 62
4
 10
-7.15000576E+01
 20
-2.60037262E+02
 11
-5.65000576E+01
 21
-2.60037235E+02
  0
LINE
  8
0
 62
4
 10
-3.70000319E+01
 20
-2.65476087E+02
 11
-3.70000103E+01
 21
-2.77482480E+02
  0
LINE
  8
0
 62
4
 10
-7.30000005E+01
 20
-2.82231874E+02
 11
-4.00000005E+01
 21
-2.82231815E+02
  0
LINE
  8
0
 62
4
 10
-7.60000103E+01
 20
-2.77482550E+02
 11
-3.70000103E+01
 21
-2.77482480E+02
  0
LINE
  8
0
 62
4
 10
-7.60000129E+01
 20
-2.76064272E+02
 11
-3.70000129E+01
 21
-2.76064202E+02
  0
LINE
  8
0
 62
4
 10
-7.45000346E+01
 20
-2.63976154E+02
 11
-3.85000346E+01
 21
-2.63976089E+02
  0
LINE
  8
0
 62
4
 10
-9.10000940E+01
 20
-2.39797775E+02
 11
-8.60000940E+01
 21
-2.39797766E+02
  0
LINE
  8
0
 62
4
 10
-9.10000813E+01
 20
-2.46889164E+02
 11
-8.60000813E+01
 21
-2.46889155E+02
  0
LINE
  8
0
 62
4
 10
-9.10000711E+01
 20
-2.52560507E+02
 11
-8.60000711E+01
 21
-2.52560498E+02
  0
LINE
  8
0
 62
4
 10
-8.05000633E+01
 20
-2.52453340E+02
 11
-7.20000633E+01
 21
-2.52453325E+02
  0
LINE
  8
0
 62
4
 10
-7.15000964E+01
 20
-2.38453331E+02
 11
-8.05000964E+01
 21
-2.38453347E+02
  0
LINE
  8
0
 62
4
 10
-8.10000955E+01
 20
-2.38953348E+02
 11
-8.10000722E+01
 21
-2.51953348E+02
  0
LINE
  8
0
 62
4
 10
-9.10000966E+01
 20
-2.38358818E+02
 11
-9.10000711E+01
 21
-2.52560507E+02
  0
LINE
  8
0
 62
4
 10
-8.60000966E+01
 20
-2.38358818E+02
 11
-8.60000711E+01
 21
-2.52560507E+02
  0
LINE
  8
0
 62
4
 10
-8.60000950E+01
 20
-2.39203340E+02
 11
-8.10000950E+01
 21
-2.39203331E+02
  0
LINE
  8
0
 62
4
 10
-8.60000726E+01
 20
-2.51703340E+02
 11
-8.10000726E+01
 21
-2.51703331E+02
  0
LINE
  8
0
 62
4
 10
-8.45000950E+01
 20
-2.39203337E+02
 11
-8.45000726E+01
 21
-2.51703337E+02
  0
LINE
  8
0
 62
4
 10
-8.45000941E+01
 20
-2.39703337E+02
 11
-8.10000941E+01
 21
-2.39703331E+02
  0
LINE
  8
0
 62
4
 10
-8.45000735E+01
 20
-2.51203337E+02
 11
-8.10000735E+01
 21
-2.51203331E+02
  0
ARC
  8
0
 62
4
 10
-8.05025704E+01
 20
-2.38950872E+02
 40
4.97531232E-01
 50
8.97150889E+01
 51
1.80285117E+02
  0
ARC
  8
0
 62
4
 10
-7.19975875E+01
 20
-2.52950850E+02
 40
4.97531232E-01
 50
3.59715089E+02
 51
9.02851166E+01
  0
ARC
  8
0
 62
4
 10
-3.84975528E+01
 20
-2.65473610E+02
 40
1.49752302E+00
 50
3.59905254E+02
 51
9.00949513E+01
  0
ARC
  8
0
 62
4
 10
-8.04975769E+01
 20
-2.51950853E+02
 40
5.02493390E-01
 50
1.80283706E+02
 51
2.69716500E+02
  0
ARC
  8
0
 62
4
 10
-7.45025109E+01
 20
-2.65473675E+02
 40
1.49752302E+00
 50
8.99052542E+01
 51
1.80094952E+02
  0
LINE
  8
0
 62
6
 10
-6.22850831E+01
 20
-2.71351745E+02
 11
-6.57149577E+01
 21
-2.67921875E+02
  0
LINE
  8
0
 62
6
 10
-6.57149553E+01
 20
-2.71351747E+02
 11
-6.22850856E+01
 21
-2.67921872E+02
  0
ARC
  8
0
 62
4
 10
-3.44062936E+02
 20
-2.45453331E+02
 40
7.00000000E+00
 50
7.79182752E+01
 51
1.00872928E+02
  0
ARC
  8
0
 62
4
 10
-3.44062936E+02
 20
-2.45453331E+02
 40
7.00000000E+00
 50
1.17236957E+02
 51
1.40081725E+02
  0
ARC
  8
0
 62
4
 10
-3.26778532E+02
 20
-2.66471152E+02
 40
2.49501993E+00
 50
1.88855230E+01
 51
1.09114477E+02
  0
ARC
  8
0
 62
4
 10
-3.44746454E+02
 20
-2.72663294E+02
 40
2.50001642E+00
 50
1.09000376E+02
 51
1.98999623E+02
  0
CIRCLE
  8
0
 62
4
 10
-3.44062936E+02
 20
-2.45453331E+02
 40
3.75000000E+00
  0
ARC
  8
0
 62
4
 10
-3.21457138E+02
 20
-2.67390322E+02
 40
9.96609194E-01
 50
3.15516728E+01
 51
1.09414475E+02
  0
ARC
  8
0
 62
4
 10
-3.30651090E+02
 20
-2.73076392E+02
 40
1.18067922E+01
 50
6.08754926E+00
 51
3.17195580E+01
  0
ARC
  8
0
 62
4
 10
-3.19898795E+02
 20
-2.71931064E+02
 40
1.00271607E+00
 50
2.88866852E+02
 51
6.16700057E+00
  0
LINE
  8
0
 62
4
 10
-3.23619498E+02
 20
-2.66446303E+02
 11
-3.21014953E+02
 21
-2.74010451E+02
  0
LINE
  8
0
  6
CENTER
 62
6
 10
-3.52507634E+02
 20
-2.80623768E+02
 11
-3.16644114E+02
 21
-2.68274968E+02
  0
LINE
  8
0
 62
4
 10
-3.19574547E+02
 20
-2.72879907E+02
 11
-3.21210294E+02
 21
-2.73443140E+02
  0
LINE
  8
0
 62
4
 10
-3.23424157E+02
 20
-2.67013614E+02
 11
-3.21788410E+02
 21
-2.66450381E+02
  0
LINE
  8
0
 62
4
 10
-3.21487712E+02
 20
-2.74173235E+02
 11
-3.21014953E+02
 21
-2.74010451E+02
  0
LINE
  8
0
 62
4
 10
-3.24092257E+02
 20
-2.66609087E+02
 11
-3.23619498E+02
 21
-2.66446303E+02
  0
LINE
  8
0
 62
4
 10
-3.43551642E+02
 20
-2.38936818E+02
 11
-3.38928056E+02
 21
-2.37344790E+02
  0
LINE
  8
0
 62
4
 10
-3.46511053E+02
 20
-2.38358818E+02
 11
-3.39141046E+02
 21
-2.39797775E+02
  0
LINE
  8
0
 62
4
 10
-3.48991027E+02
 20
-2.51121550E+02
 11
-3.41621020E+02
 21
-2.52560507E+02
  0
LINE
  8
0
 62
4
 10
-3.39141046E+02
 20
-2.39797775E+02
 11
-3.36699285E+02
 21
-2.46889164E+02
  0
LINE
  8
0
 62
4
 10
-3.51432788E+02
 20
-2.44030161E+02
 11
-3.48991027E+02
 21
-2.51121550E+02
  0
LINE
  8
0
 62
4
 10
-3.51432788E+02
 20
-2.44030161E+02
 11
-3.46511053E+02
 21
-2.38358818E+02
  0
LINE
  8
0
 62
4
 10
-3.41621020E+02
 20
-2.52560507E+02
 11
-3.36699285E+02
 21
-2.46889164E+02
  0
LINE
  8
0
 62
4
 10
-3.32082387E+02
 20
-2.74119602E+02
 11
-3.31268466E+02
 21
-2.76483398E+02
  0
LINE
  8
0
 62
4
 10
-3.35864461E+02
 20
-2.75421874E+02
 11
-3.35050540E+02
 21
-2.77785671E+02
  0
LINE
  8
0
 62
4
 10
-3.35050540E+02
 20
-2.77785671E+02
 11
-3.31268466E+02
 21
-2.76483398E+02
  0
LINE
  8
0
 62
4
 10
-3.35864461E+02
 20
-2.75421874E+02
 11
-3.32082387E+02
 21
-2.74119602E+02
  0
LINE
  8
0
 62
4
 10
-3.38075092E+02
 20
-2.81999969E+02
 11
-3.20836576E+02
 21
-2.76064272E+02
  0
LINE
  8
0
 62
4
 10
-3.20348224E+02
 20
-2.77482550E+02
 11
-3.21810686E+02
 21
-2.81999969E+02
  0
LINE
  8
0
 62
4
 10
-3.47110271E+02
 20
-2.73477204E+02
 11
-3.44175648E+02
 21
-2.81999969E+02
  0
LINE
  8
0
 62
4
 10
-3.24417826E+02
 20
-2.65663568E+02
 11
-3.20348224E+02
 21
-2.77482550E+02
  0
LINE
  8
0
 62
4
 10
-3.33467762E+02
 20
-2.81999969E+02
 11
-3.20348224E+02
 21
-2.77482550E+02
  0
LINE
  8
0
 62
4
 10
-3.45560395E+02
 20
-2.70299487E+02
 11
-3.27595542E+02
 21
-2.64113692E+02
  0
LINE
  8
0
 62
4
 10
-3.46862668E+02
 20
-2.66517413E+02
 11
-3.45560395E+02
 21
-2.70299487E+02
  0
LINE
  8
0
 62
4
 10
-3.28897815E+02
 20
-2.60331618E+02
 11
-3.27595542E+02
 21
-2.64113692E+02
  0
LINE
  8
0
 62
4
 10
-3.45297199E+02
 20
-2.64920758E+02
 11
-3.31114420E+02
 21
-2.60037235E+02
  0
LINE
  8
0
 62
4
 10
-3.46862668E+02
 20
-2.66517413E+02
 11
-3.28897815E+02
 21
-2.60331618E+02
  0
LINE
  8
0
 62
4
 10
-3.53110835E+02
 20
-2.42228312E+02
 11
-3.44971631E+02
 21
-2.65866276E+02
  0
LINE
  8
0
 62
4
 10
-3.38928056E+02
 20
-2.37344790E+02
 11
-3.30788852E+02
 21
-2.60982754E+02
  0
LINE
  8
0
 62
4
 10
-3.53110835E+02
 20
-2.42228312E+02
 11
-3.48487249E+02
 21
-2.40636284E+02
  0
LINE
  8
0
 62
4
 10
-3.52148086E+02
 20
-2.75740673E+02
 11
-3.55197464E+02
 21
-2.81999969E+02
  0
LINE
  8
0
 62
4
 10
-3.52148086E+02
 20
-2.75740673E+02
 11
-3.46947487E+02
 21
-2.73949963E+02
  0
LINE
  8
0
 62
6
 10
-2.84355691E+02
 20
-2.99785708E+02
 11
-2.84499992E+02
 21
-2.99738821E+02
  0
LINE
  8
0
 62
4
 10
1.39934601E+02
 20
-2.65238787E+02
 11
1.45872458E+02
 21
-2.67283355E+02
  0
LINE
  8
0
 62
4
 10
1.45872458E+02
 20
-2.67283355E+02
 11
1.45887276E+02
 21
-2.68346078E+02
  0
LINE
  8
0
 62
4
 10
1.39268646E+02
 20
-2.66067101E+02
 11
1.39934601E+02
 21
-2.65238787E+02
  0
LINE
  8
0
  6
CENTER
 62
6
 10
1.43600402E+02
 20
-2.64237207E+02
 11
1.42092865E+02
 21
-2.68615412E+02
  0
ARC
  8
0
 62
4
 10
1.50067649E+02
 20
-2.45454956E+02
 40
7.00000000E+00
 50
3.99182754E+01
 51
1.02081725E+02
  0
LINE
  8
0
 62
4
 10
1.57760169E+02
 20
-2.75607105E+02
 11
1.52947480E+02
 21
-2.73949963E+02
  0
LINE
  8
0
 62
4
 10
1.58327618E+02
 20
-2.76109203E+02
 11
1.61197457E+02
 21
-2.81999969E+02
  0
LINE
  8
0
 62
4
 10
1.44928048E+02
 20
-2.37344790E+02
 11
1.59110827E+02
 21
-2.42228312E+02
  0
LINE
  8
0
 62
4
 10
1.44928048E+02
 20
-2.37344790E+02
 11
1.36788845E+02
 21
-2.60982754E+02
  0
LINE
  8
0
 62
4
 10
1.59110827E+02
 20
-2.42228312E+02
 11
1.50971623E+02
 21
-2.65866276E+02
  0
LINE
  8
0
 62
4
 10
1.52862660E+02
 20
-2.66517413E+02
 11
1.34897807E+02
 21
-2.60331618E+02
  0
LINE
  8
0
 62
4
 10
1.51297191E+02
 20
-2.64920758E+02
 11
1.37114413E+02
 21
-2.60037235E+02
  0
LINE
  8
0
 62
4
 10
1.34897807E+02
 20
-2.60331618E+02
 11
1.33595535E+02
 21
-2.64113692E+02
  0
LINE
  8
0
 62
4
 10
1.52862660E+02
 20
-2.66517413E+02
 11
1.51560388E+02
 21
-2.70299487E+02
  0
LINE
  8
0
 62
4
 10
1.51560388E+02
 20
-2.70299487E+02
 11
1.33595535E+02
 21
-2.64113692E+02
  0
LINE
  8
0
 62
4
 10
1.39467754E+02
 20
-2.81999969E+02
 11
1.26348216E+02
 21
-2.77482550E+02
  0
LINE
  8
0
 62
4
 10
1.30417818E+02
 20
-2.65663568E+02
 11
1.26348216E+02
 21
-2.77482550E+02
  0
LINE
  8
0
 62
4
 10
1.53110264E+02
 20
-2.73477204E+02
 11
1.50175640E+02
 21
-2.81999969E+02
  0
LINE
  8
0
 62
4
 10
1.26348216E+02
 20
-2.77482550E+02
 11
1.27810679E+02
 21
-2.81999969E+02
  0
LINE
  8
0
 62
4
 10
1.44075084E+02
 20
-2.81999969E+02
 11
1.26836568E+02
 21
-2.76064272E+02
  0
LINE
  8
0
 62
4
 10
1.41864453E+02
 20
-2.75421874E+02
 11
1.38082379E+02
 21
-2.74119602E+02
  0
LINE
  8
0
 62
4
 10
1.41050533E+02
 20
-2.77785671E+02
 11
1.37268459E+02
 21
-2.76483398E+02
  0
LINE
  8
0
 62
4
 10
1.41864453E+02
 20
-2.75421874E+02
 11
1.41050533E+02
 21
-2.77785671E+02
  0
LINE
  8
0
 62
4
 10
1.38082379E+02
 20
-2.74119602E+02
 11
1.37268459E+02
 21
-2.76483398E+02
  0
LINE
  8
0
 62
4
 10
1.53265373E+02
 20
-2.39228034E+02
 11
1.52511046E+02
 21
-2.38358818E+02
  0
LINE
  8
0
 62
4
 10
1.52511046E+02
 20
-2.38358818E+02
 11
1.51381485E+02
 21
-2.38579359E+02
  0
LINE
  8
0
 62
4
 10
1.30092250E+02
 20
-2.66609087E+02
 11
1.29619491E+02
 21
-2.66446303E+02
  0
LINE
  8
0
 62
4
 10
1.27487705E+02
 20
-2.74173235E+02
 11
1.27014945E+02
 21
-2.74010451E+02
  0
LINE
  8
0
 62
4
 10
1.29424150E+02
 20
-2.67013614E+02
 11
1.27788403E+02
 21
-2.66450381E+02
  0
LINE
  8
0
 62
4
 10
1.25574539E+02
 20
-2.72879907E+02
 11
1.27210286E+02
 21
-2.73443140E+02
  0
LINE
  8
0
  6
CENTER
 62
6
 10
1.58507626E+02
 20
-2.80623768E+02
 11
1.22644107E+02
 21
-2.68274968E+02
  0
LINE
  8
0
 62
4
 10
1.29619491E+02
 20
-2.66446303E+02
 11
1.27014945E+02
 21
-2.74010451E+02
  0
ARC
  8
0
 62
4
 10
1.57432397E+02
 20
-2.76549240E+02
 40
9.97523260E-01
 50
2.61759467E+01
 51
7.08169962E+01
  0
ARC
  8
0
 62
4
 10
1.25898787E+02
 20
-2.71931064E+02
 40
1.00271607E+00
 50
1.73833000E+02
 51
2.51133148E+02
  0
ARC
  8
0
 62
4
 10
1.27457130E+02
 20
-2.67390322E+02
 40
9.96609194E-01
 50
7.05855253E+01
 51
1.48448327E+02
  0
ARC
  8
0
 62
4
 10
1.36639108E+02
 20
-2.73115214E+02
 40
1.18081149E+01
 50
1.48089798E+02
 51
1.73718975E+02
  0
ARC
  8
0
 62
4
 10
1.50746447E+02
 20
-2.72663294E+02
 40
2.50001642E+00
 50
3.41000376E+02
 51
7.09996236E+01
  0
ARC
  8
0
 62
4
 10
1.32778524E+02
 20
-2.66471152E+02
 40
2.49501993E+00
 50
7.08855231E+01
 51
1.61114477E+02
  0
LINE
  8
0
  6
CENTER
 62
6
 10
-5.99999860E+01
 20
-9.89223758E+01
 11
-5.99999860E+01
 21
-1.09422376E+02
  0
LINE
  8
0
  6
CENTER
 62
6
 10
-6.79999860E+01
 20
-9.89223758E+01
 11
-6.79999860E+01
 21
-1.09422376E+02
  0
LINE
  8
0
  6
CENTER
 62
6
 10
-6.39999860E+01
 20
-1.00612871E+02
 11
-6.39999860E+01
 21
-1.50599969E+02
  0
LINE
  8
0
 62
4
 10
-5.64999860E+01
 20
-1.14253522E+02
 11
-3.84999860E+01
 21
-1.14253522E+02
  0
LINE
  8
0
 62
4
 10
-7.44999860E+01
 20
-1.36268246E+02
 11
-3.84999860E+01
 21
-1.36268246E+02
  0
LINE
  8
0
  6
CENTER
 62
6
 10
-5.37442369E+01
 20
-1.24596480E+02
 11
-4.22557350E+01
 21
-1.24596480E+02
  0
LINE
  8
0
 62
4
 10
-6.05999860E+01
 20
-1.41151769E+02
 11
-3.84999860E+01
 21
-1.41151769E+02
  0
LINE
  8
0
 62
4
 10
-7.34999860E+01
 20
-1.33904450E+02
 11
-5.44999860E+01
 21
-1.33904450E+02
  0
LINE
  8
0
 62
4
 10
-7.14999860E+01
 20
-1.30711140E+02
 11
-5.64999860E+01
 21
-1.30711140E+02
  0
LINE
  8
0
  6
CENTER
 62
6
 10
-6.86760838E+01
 20
-1.15480547E+02
 11
-5.93238882E+01
 21
-1.15480547E+02
  0
POLYLINE
  8
0
 62
4
 66
1
  0
VERTEX
  8
0
 62
4
 10
-6.05999860E+01
 20
-1.39182767E+02
  0
VERTEX
  8
0
 62
4
 10
-6.06136734E+01
 20
-1.39083542E+02
  0
VERTEX
  8
0
 62
4
 10
-6.06546254E+01
 20
-1.38985117E+02
  0
VERTEX
  8
0
 62
4
 10
-6.07225123E+01
 20
-1.38888282E+02
  0
VERTEX
  8
0
 62
4
 10
-6.08167874E+01
 20
-1.38793819E+02
  0
VERTEX
  8
0
 62
4
 10
-6.09366918E+01
 20
-1.38702487E+02
  0
VERTEX
  8
0
 62
4
 10
-6.10812601E+01
 20
-1.38615023E+02
  0
VERTEX
  8
0
 62
4
 10
-6.12493282E+01
 20
-1.38532129E+02
  0
VERTEX
  8
0
 62
4
 10
-6.14395430E+01
 20
-1.38454474E+02
  0
VERTEX
  8
0
 62
4
 10
-6.16503730E+01
 20
-1.38382682E+02
  0
VERTEX
  8
0
 62
4
 10
-6.18801207E+01
 20
-1.38317333E+02
  0
VERTEX
  8
0
 62
4
 10
-6.21269363E+01
 20
-1.38258951E+02
  0
VERTEX
  8
0
 62
4
 10
-6.23888325E+01
 20
-1.38208008E+02
  0
VERTEX
  8
0
 62
4
 10
-6.26637009E+01
 20
-1.38164913E+02
  0
VERTEX
  8
0
 62
4
 10
-6.29493282E+01
 20
-1.38130012E+02
  0
VERTEX
  8
0
 62
4
 10
-6.32434148E+01
 20
-1.38103588E+02
  0
VERTEX
  8
0
 62
4
 10
-6.35435929E+01
 20
-1.38085853E+02
  0
VERTEX
  8
0
 62
4
 10
-6.38474456E+01
 20
-1.38076950E+02
  0
VERTEX
  8
0
 62
4
 10
-6.41525264E+01
 20
-1.38076950E+02
  0
VERTEX
  8
0
 62
4
 10
-6.44563791E+01
 20
-1.38085853E+02
  0
VERTEX
  8
0
 62
4
 10
-6.47565572E+01
 20
-1.38103588E+02
  0
VERTEX
  8
0
 62
4
 10
-6.50506438E+01
 20
-1.38130012E+02
  0
VERTEX
  8
0
 62
4
 10
-6.53362711E+01
 20
-1.38164913E+02
  0
VERTEX
  8
0
 62
4
 10
-6.56111394E+01
 20
-1.38208008E+02
  0
VERTEX
  8
0
 62
4
 10
-6.58730357E+01
 20
-1.38258951E+02
  0
VERTEX
  8
0
 62
4
 10
-6.61198513E+01
 20
-1.38317333E+02
  0
VERTEX
  8
0
 62
4
 10
-6.63495990E+01
 20
-1.38382682E+02
  0
VERTEX
  8
0
 62
4
 10
-6.65604290E+01
 20
-1.38454474E+02
  0
VERTEX
  8
0
 62
4
 10
-6.67506438E+01
 20
-1.38532129E+02
  0
VERTEX
  8
0
 62
4
 10
-6.69187119E+01
 20
-1.38615023E+02
  0
VERTEX
  8
0
 62
4
 10
-6.70632801E+01
 20
-1.38702487E+02
  0
VERTEX
  8
0
 62
4
 10
-6.71831846E+01
 20
-1.38793819E+02
  0
VERTEX
  8
0
 62
4
 10
-6.72774597E+01
 20
-1.38888282E+02
  0
VERTEX
  8
0
 62
4
 10
-6.73453466E+01
 20
-1.38985117E+02
  0
VERTEX
  8
0
 62
4
 10
-6.73862986E+01
 20
-1.39083542E+02
  0
VERTEX
  8
0
 62
4
 10
-6.73999860E+01
 20
-1.39182767E+02
  0
SEQEND
  8
0
  0
LINE
  8
0
 62
4
 10
-6.79999860E+01
 20
-1.38710007E+02
 11
-6.79999860E+01
 21
-1.39182767E+02
  0
LINE
  8
0
 62
4
 10
-5.99999860E+01
 20
-1.38710007E+02
 11
-5.99999860E+01
 21
-1.39182767E+02
  0
POLYLINE
  8
0
 62
4
 66
1
  0
VERTEX
  8
0
 62
4
 10
-6.05999860E+01
 20
-1.39868782E+02
  0
VERTEX
  8
0
 62
4
 10
-6.04269340E+01
 20
-1.39768183E+02
  0
VERTEX
  8
0
 62
4
 10
-6.02818910E+01
 20
-1.39662996E+02
  0
VERTEX
  8
0
 62
4
 10
-6.01659942E+01
 20
-1.39554044E+02
  0
VERTEX
  8
0
 62
4
 10
-6.00801519E+01
 20
-1.39442182E+02
  0
VERTEX
  8
0
 62
4
 10
-6.00250371E+01
 20
-1.39328286E+02
  0
VERTEX
  8
0
 62
4
 10
-6.00010819E+01
 20
-1.39213249E+02
  0
VERTEX
  8
0
 62
4
 10
-6.00084741E+01
 20
-1.39097974E+02
  0
VERTEX
  8
0
 62
4
 10
-6.00471556E+01
 20
-1.38983363E+02
  0
VERTEX
  8
0
 62
4
 10
-6.01168233E+01
 20
-1.38870315E+02
  0
VERTEX
  8
0
 62
4
 10
-6.02169310E+01
 20
-1.38759717E+02
  0
VERTEX
  8
0
 62
4
 10
-6.03466941E+01
 20
-1.38652435E+02
  0
VERTEX
  8
0
 62
4
 10
-6.05050952E+01
 20
-1.38549310E+02
  0
VERTEX
  8
0
 62
4
 10
-6.06908927E+01
 20
-1.38451151E+02
  0
VERTEX
  8
0
 62
4
 10
-6.09026302E+01
 20
-1.38358727E+02
  0
VERTEX
  8
0
 62
4
 10
-6.11386478E+01
 20
-1.38272762E+02
  0
VERTEX
  8
0
 62
4
 10
-6.13970953E+01
 20
-1.38193931E+02
  0
VERTEX
  8
0
 62
4
 10
-6.16759469E+01
 20
-1.38122852E+02
  0
VERTEX
  8
0
 62
4
 10
-6.19730165E+01
 20
-1.38060081E+02
  0
VERTEX
  8
0
 62
4
 10
-6.22859756E+01
 20
-1.38006111E+02
  0
VERTEX
  8
0
 62
4
 10
-6.26123707E+01
 20
-1.37961365E+02
  0
VERTEX
  8
0
 62
4
 10
-6.29496434E+01
 20
-1.37926193E+02
  0
VERTEX
  8
0
 62
4
 10
-6.32951496E+01
 20
-1.37900871E+02
  0
VERTEX
  8
0
 62
4
 10
-6.36461811E+01
 20
-1.37885599E+02
  0
VERTEX
  8
0
 62
4
 10
-6.39999860E+01
 20
-1.37880494E+02
  0
VERTEX
  8
0
 62
4
 10
-6.43537909E+01
 20
-1.37885599E+02
  0
VERTEX
  8
0
 62
4
 10
-6.47048224E+01
 20
-1.37900871E+02
  0
VERTEX
  8
0
 62
4
 10
-6.50503286E+01
 20
-1.37926193E+02
  0
VERTEX
  8
0
 62
4
 10
-6.53876012E+01
 20
-1.37961365E+02
  0
VERTEX
  8
0
 62
4
 10
-6.57139964E+01
 20
-1.38006111E+02
  0
VERTEX
  8
0
 62
4
 10
-6.60269554E+01
 20
-1.38060081E+02
  0
VERTEX
  8
0
 62
4
 10
-6.63240251E+01
 20
-1.38122852E+02
  0
VERTEX
  8
0
 62
4
 10
-6.66028767E+01
 20
-1.38193931E+02
  0
VERTEX
  8
0
 62
4
 10
-6.68613242E+01
 20
-1.38272762E+02
  0
VERTEX
  8
0
 62
4
 10
-6.70973418E+01
 20
-1.38358727E+02
  0
VERTEX
  8
0
 62
4
 10
-6.73090792E+01
 20
-1.38451151E+02
  0
VERTEX
  8
0
 62
4
 10
-6.74948768E+01
 20
-1.38549310E+02
  0
VERTEX
  8
0
 62
4
 10
-6.76532779E+01
 20
-1.38652435E+02
  0
VERTEX
  8
0
 62
4
 10
-6.77830410E+01
 20
-1.38759717E+02
  0
VERTEX
  8
0
 62
4
 10
-6.78831487E+01
 20
-1.38870315E+02
  0
VERTEX
  8
0
 62
4
 10
-6.79528164E+01
 20
-1.38983363E+02
  0
VERTEX
  8
0
 62
4
 10
-6.79914979E+01
 20
-1.39097974E+02
  0
VERTEX
  8
0
 62
4
 10
-6.79988901E+01
 20
-1.39213249E+02
  0
VERTEX
  8
0
 62
4
 10
-6.79749349E+01
 20
-1.39328286E+02
  0
VERTEX
  8
0
 62
4
 10
-6.79198201E+01
 20
-1.39442182E+02
  0
VERTEX
  8
0
 62
4
 10
-6.78339778E+01
 20
-1.39554044E+02
  0
VERTEX
  8
0
 62
4
 10
-6.77180810E+01
 20
-1.39662996E+02
  0
VERTEX
  8
0
 62
4
 10
-6.75730380E+01
 20
-1.39768183E+02
  0
VERTEX
  8
0
 62
4
 10
-6.73999860E+01
 20
-1.39868782E+02
  0
SEQEND
  8
0
  0
POLYLINE
  8
0
 62
4
 66
1
  0
VERTEX
  8
0
 62
4
 10
-5.99999860E+01
 20
-1.38710007E+02
  0
VERTEX
  8
0
 62
4
 10
-6.00160888E+01
 20
-1.38593272E+02
  0
VERTEX
  8
0
 62
4
 10
-6.00642676E+01
 20
-1.38477477E+02
  0
VERTEX
  8
0
 62
4
 10
-6.01441346E+01
 20
-1.38363555E+02
  0
VERTEX
  8
0
 62
4
 10
-6.02550465E+01
 20
-1.38252421E+02
  0
VERTEX
  8
0
 62
4
 10
-6.03961105E+01
 20
-1.38144972E+02
  0
VERTEX
  8
0
 62
4
 10
-6.05661908E+01
 20
-1.38042072E+02
  0
VERTEX
  8
0
 62
4
 10
-6.07639180E+01
 20
-1.37944550E+02
  0
VERTEX
  8
0
 62
4
 10
-6.09877001E+01
 20
-1.37853191E+02
  0
VERTEX
  8
0
 62
4
 10
-6.12357354E+01
 20
-1.37768731E+02
  0
VERTEX
  8
0
 62
4
 10
-6.15060268E+01
 20
-1.37691849E+02
  0
VERTEX
  8
0
 62
4
 10
-6.17963981E+01
 20
-1.37623165E+02
  0
VERTEX
  8
0
 62
4
 10
-6.21045113E+01
 20
-1.37563232E+02
  0
VERTEX
  8
0
 62
4
 10
-6.24278859E+01
 20
-1.37512531E+02
  0
VERTEX
  8
0
 62
4
 10
-6.27639180E+01
 20
-1.37471472E+02
  0
VERTEX
  8
0
 62
4
 10
-6.31099023E+01
 20
-1.37440385E+02
  0
VERTEX
  8
0
 62
4
 10
-6.34630529E+01
 20
-1.37419520E+02
  0
VERTEX
  8
0
 62
4
 10
-6.38205267E+01
 20
-1.37409046E+02
  0
VERTEX
  8
0
 62
4
 10
-6.41794453E+01
 20
-1.37409046E+02
  0
VERTEX
  8
0
 62
4
 10
-6.45369191E+01
 20
-1.37419520E+02
  0
VERTEX
  8
0
 62
4
 10
-6.48900697E+01
 20
-1.37440385E+02
  0
VERTEX
  8
0
 62
4
 10
-6.52360540E+01
 20
-1.37471472E+02
  0
VERTEX
  8
0
 62
4
 10
-6.55720861E+01
 20
-1.37512531E+02
  0
VERTEX
  8
0
 62
4
 10
-6.58954606E+01
 20
-1.37563232E+02
  0
VERTEX
  8
0
 62
4
 10
-6.62035739E+01
 20
-1.37623165E+02
  0
VERTEX
  8
0
 62
4
 10
-6.64939452E+01
 20
-1.37691849E+02
  0
VERTEX
  8
0
 62
4
 10
-6.67642366E+01
 20
-1.37768731E+02
  0
VERTEX
  8
0
 62
4
 10
-6.70122719E+01
 20
-1.37853191E+02
  0
VERTEX
  8
0
 62
4
 10
-6.72360540E+01
 20
-1.37944550E+02
  0
VERTEX
  8
0
 62
4
 10
-6.74337812E+01
 20
-1.38042072E+02
  0
VERTEX
  8
0
 62
4
 10
-6.76038615E+01
 20
-1.38144972E+02
  0
VERTEX
  8
0
 62
4
 10
-6.77449255E+01
 20
-1.38252421E+02
  0
VERTEX
  8
0
 62
4
 10
-6.78558374E+01
 20
-1.38363554E+02
  0
VERTEX
  8
0
 62
4
 10
-6.79357044E+01
 20
-1.38477477E+02
  0
VERTEX
  8
0
 62
4
 10
-6.79838832E+01
 20
-1.38593272E+02
  0
VERTEX
  8
0
 62
4
 10
-6.79999860E+01
 20
-1.38710007E+02
  0
SEQEND
  8
0
  0
LINE
  8
0
 62
4
 10
-8.09999860E+01
 20
-1.10937056E+02
 11
-8.09999860E+01
 21
-1.23937056E+02
  0
ARC
  8
0
 62
4
 10
-8.04974834E+01
 20
-1.10939559E+02
 40
5.02508801E-01
 50
9.02853429E+01
 51
1.79714657E+02
  0
LINE
  8
0
 62
4
 10
-7.14999860E+01
 20
-1.10437056E+02
 11
-8.04999860E+01
 21
-1.10437056E+02
  0
LINE
  8
0
 62
4
 10
-9.09999860E+01
 20
-1.24800707E+02
 11
-8.59999860E+01
 21
-1.24800707E+02
  0
LINE
  8
0
 62
4
 10
-9.09999860E+01
 20
-1.22358946E+02
 11
-8.59999860E+01
 21
-1.22358946E+02
  0
LINE
  8
0
 62
4
 10
-9.09999860E+01
 20
-1.14988939E+02
 11
-8.59999860E+01
 21
-1.14988939E+02
  0
ARC
  8
0
 62
4
 10
-7.45024841E+01
 20
-1.39654267E+02
 40
1.49750400E+00
 50
1.79904421E+02
 51
2.70095579E+02
  0
LINE
  8
0
 62
4
 10
-7.44999860E+01
 20
-1.41151769E+02
 11
-6.73999860E+01
 21
-1.41151769E+02
  0
POLYLINE
  8
0
 62
4
 66
1
  0
VERTEX
  8
0
 62
4
 10
-6.09999860E+01
 20
-1.15480547E+02
  0
VERTEX
  8
0
 62
4
 10
-6.10114019E+01
 20
-1.15233325E+02
  0
VERTEX
  8
0
 62
4
 10
-6.10455627E+01
 20
-1.14987984E+02
  0
VERTEX
  8
0
 62
4
 10
-6.11022085E+01
 20
-1.14746392E+02
  0
VERTEX
  8
0
 62
4
 10
-6.11809081E+01
 20
-1.14510388E+02
  0
VERTEX
  8
0
 62
4
 10
-6.12810626E+01
 20
-1.14281767E+02
  0
VERTEX
  8
0
 62
4
 10
-6.14019098E+01
 20
-1.14062269E+02
  0
VERTEX
  8
0
 62
4
 10
-6.15425299E+01
 20
-1.13853565E+02
  0
VERTEX
  8
0
 62
4
 10
-6.17018527E+01
 20
-1.13657244E+02
  0
VERTEX
  8
0
 62
4
 10
-6.18786657E+01
 20
-1.13474799E+02
  0
VERTEX
  8
0
 62
4
 10
-6.20716232E+01
 20
-1.13307619E+02
  0
VERTEX
  8
0
 62
4
 10
-6.22792567E+01
 20
-1.13156977E+02
  0
VERTEX
  8
0
 62
4
 10
-6.24999860E+01
 20
-1.13024018E+02
  0
VERTEX
  8
0
 62
4
 10
-6.27321312E+01
 20
-1.12909754E+02
  0
VERTEX
  8
0
 62
4
 10
-6.29739256E+01
 20
-1.12815057E+02
  0
VERTEX
  8
0
 62
4
 10
-6.32235289E+01
 20
-1.12740645E+02
  0
VERTEX
  8
0
 62
4
 10
-6.34790415E+01
 20
-1.12687085E+02
  0
VERTEX
  8
0
 62
4
 10
-6.37385188E+01
 20
-1.12654785E+02
  0
VERTEX
  8
0
 62
4
 10
-6.39999860E+01
 20
-1.12643991E+02
  0
VERTEX
  8
0
 62
4
 10
-6.42614532E+01
 20
-1.12654785E+02
  0
VERTEX
  8
0
 62
4
 10
-6.45209305E+01
 20
-1.12687085E+02
  0
VERTEX
  8
0
 62
4
 10
-6.47764431E+01
 20
-1.12740645E+02
  0
VERTEX
  8
0
 62
4
 10
-6.50260464E+01
 20
-1.12815057E+02
  0
VERTEX
  8
0
 62
4
 10
-6.52678408E+01
 20
-1.12909754E+02
  0
VERTEX
  8
0
 62
4
 10
-6.54999860E+01
 20
-1.13024018E+02
  0
VERTEX
  8
0
 62
4
 10
-6.57207153E+01
 20
-1.13156977E+02
  0
VERTEX
  8
0
 62
4
 10
-6.59283488E+01
 20
-1.13307619E+02
  0
VERTEX
  8
0
 62
4
 10
-6.61213063E+01
 20
-1.13474799E+02
  0
VERTEX
  8
0
 62
4
 10
-6.62981193E+01
 20
-1.13657244E+02
  0
VERTEX
  8
0
 62
4
 10
-6.64574421E+01
 20
-1.13853565E+02
  0
VERTEX
  8
0
 62
4
 10
-6.65980622E+01
 20
-1.14062269E+02
  0
VERTEX
  8
0
 62
4
 10
-6.67189094E+01
 20
-1.14281767E+02
  0
VERTEX
  8
0
 62
4
 10
-6.68190639E+01
 20
-1.14510388E+02
  0
VERTEX
  8
0
 62
4
 10
-6.68977635E+01
 20
-1.14746392E+02
  0
VERTEX
  8
0
 62
4
 10
-6.69544093E+01
 20
-1.14987984E+02
  0
VERTEX
  8
0
 62
4
 10
-6.69885701E+01
 20
-1.15233325E+02
  0
VERTEX
  8
0
 62
4
 10
-6.69999860E+01
 20
-1.15480547E+02
  0
VERTEX
  8
0
 62
4
 10
-6.69885701E+01
 20
-1.15727769E+02
  0
VERTEX
  8
0
 62
4
 10
-6.69544093E+01
 20
-1.15973110E+02
  0
VERTEX
  8
0
 62
4
 10
-6.68977635E+01
 20
-1.16214702E+02
  0
VERTEX
  8
0
 62
4
 10
-6.68190639E+01
 20
-1.16450706E+02
  0
VERTEX
  8
0
 62
4
 10
-6.67189094E+01
 20
-1.16679327E+02
  0
VERTEX
  8
0
 62
4
 10
-6.65980622E+01
 20
-1.16898825E+02
  0
VERTEX
  8
0
 62
4
 10
-6.64574421E+01
 20
-1.17107529E+02
  0
VERTEX
  8
0
 62
4
 10
-6.62981193E+01
 20
-1.17303850E+02
  0
VERTEX
  8
0
 62
4
 10
-6.61213063E+01
 20
-1.17486295E+02
  0
VERTEX
  8
0
 62
4
 10
-6.59283488E+01
 20
-1.17653475E+02
  0
VERTEX
  8
0
 62
4
 10
-6.57207153E+01
 20
-1.17804117E+02
  0
VERTEX
  8
0
 62
4
 10
-6.54999860E+01
 20
-1.17937076E+02
  0
VERTEX
  8
0
 62
4
 10
-6.52678408E+01
 20
-1.18051340E+02
  0
VERTEX
  8
0
 62
4
 10
-6.50260464E+01
 20
-1.18146037E+02
  0
VERTEX
  8
0
 62
4
 10
-6.47764431E+01
 20
-1.18220449E+02
  0
VERTEX
  8
0
 62
4
 10
-6.45209305E+01
 20
-1.18274009E+02
  0
VERTEX
  8
0
 62
4
 10
-6.42614532E+01
 20
-1.18306309E+02
  0
VERTEX
  8
0
 62
4
 10
-6.39999860E+01
 20
-1.18317103E+02
  0
VERTEX
  8
0
 62
4
 10
-6.37385188E+01
 20
-1.18306309E+02
  0
VERTEX
  8
0
 62
4
 10
-6.34790415E+01
 20
-1.18274009E+02
  0
VERTEX
  8
0
 62
4
 10
-6.32235289E+01
 20
-1.18220449E+02
  0
VERTEX
  8
0
 62
4
 10
-6.29739256E+01
 20
-1.18146037E+02
  0
VERTEX
  8
0
 62
4
 10
-6.27321312E+01
 20
-1.18051340E+02
  0
VERTEX
  8
0
 62
4
 10
-6.24999860E+01
 20
-1.17937076E+02
  0
VERTEX
  8
0
 62
4
 10
-6.22792567E+01
 20
-1.17804117E+02
  0
VERTEX
  8
0
 62
4
 10
-6.20716232E+01
 20
-1.17653475E+02
  0
VERTEX
  8
0
 62
4
 10
-6.18786657E+01
 20
-1.17486295E+02
  0
VERTEX
  8
0
 62
4
 10
-6.17018527E+01
 20
-1.17303850E+02
  0
VERTEX
  8
0
 62
4
 10
-6.15425299E+01
 20
-1.17107529E+02
  0
VERTEX
  8
0
 62
4
 10
-6.14019098E+01
 20
-1.16898825E+02
  0
VERTEX
  8
0
 62
4
 10
-6.12810626E+01
 20
-1.16679327E+02
  0
VERTEX
  8
0
 62
4
 10
-6.11809081E+01
 20
-1.16450706E+02
  0
VERTEX
  8
0
 62
4
 10
-6.11022085E+01
 20
-1.16214702E+02
  0
VERTEX
  8
0
 62
4
 10
-6.10455627E+01
 20
-1.15973110E+02
  0
VERTEX
  8
0
 62
4
 10
-6.10114019E+01
 20
-1.15727769E+02
  0
VERTEX
  8
0
 62
4
 10
-6.09999860E+01
 20
-1.15480547E+02
  0
SEQEND
  8
0
  0
LINE
  8
0
 62
4
 10
-5.64999860E+01
 20
-1.14637324E+02
 11
-5.44999860E+01
 21
-1.14637324E+02
  0
LINE
  8
0
 62
4
 10
-7.34999860E+01
 20
-1.32602177E+02
 11
-5.44999860E+01
 21
-1.32602177E+02
  0
LINE
  8
0
 62
4
 10
-7.14999860E+01
 20
-1.08389158E+02
 11
-5.64999860E+01
 21
-1.08389158E+02
  0
ARC
  8
0
 62
4
 10
-8.05024761E+01
 20
-1.23939546E+02
 40
4.97516125E-01
 50
1.79713229E+02
 51
2.70286771E+02
  0
LINE
  8
0
 62
4
 10
-7.59999860E+01
 20
-1.24437056E+02
 11
-7.59999860E+01
 21
-1.39500000E+02
  0
LINE
  8
0
 62
4
 10
-5.44999860E+01
 20
-1.14637324E+02
 11
-5.44999860E+01
 21
-1.33904450E+02
  0
LINE
  8
0
 62
4
 10
-7.34999860E+01
 20
-1.33904450E+02
 11
-7.34999860E+01
 21
-1.24437056E+02
  0
LINE
  8
0
 62
4
 10
-9.09999860E+01
 20
-1.10067205E+02
 11
-8.59999860E+01
 21
-1.10067205E+02
  0
LINE
  8
0
 62
4
 10
-7.14999860E+01
 20
-1.22571936E+02
 11
-5.64999860E+01
 21
-1.22571936E+02
  0
LINE
  8
0
 62
4
 10
-8.44999860E+01
 20
-1.23187056E+02
 11
-8.09999860E+01
 21
-1.23187056E+02
  0
LINE
  8
0
 62
4
 10
-8.44999860E+01
 20
-1.11687056E+02
 11
-8.09999860E+01
 21
-1.11687056E+02
  0
LINE
  8
0
 62
4
 10
-8.44999860E+01
 20
-1.11187056E+02
 11
-8.44999860E+01
 21
-1.23687056E+02
  0
LINE
  8
0
 62
4
 10
-8.59999860E+01
 20
-1.23687056E+02
 11
-8.09999860E+01
 21
-1.23687056E+02
  0
LINE
  8
0
 62
4
 10
-8.59999860E+01
 20
-1.11187056E+02
 11
-8.09999860E+01
 21
-1.11187056E+02
  0
LINE
  8
0
 62
4
 10
-8.59999860E+01
 20
-1.10067205E+02
 11
-8.59999860E+01
 21
-1.24800707E+02
  0
LINE
  8
0
 62
4
 10
-9.09999860E+01
 20
-1.24800707E+02
 11
-9.09999860E+01
 21
-1.10067205E+02
  0
LINE
  8
0
 62
4
 10
-8.04999860E+01
 20
-1.24437056E+02
 11
-7.14999860E+01
 21
-1.24437056E+02
  0
LINE
  8
0
 62
4
 10
-6.73999860E+01
 20
-1.41151769E+02
 11
-6.73999860E+01
 21
-1.39182767E+02
  0
LINE
  8
0
 62
4
 10
-6.05999860E+01
 20
-1.39182767E+02
 11
-6.05999860E+01
 21
-1.41157748E+02
  0
LINE
  8
0
 62
6
 10
-6.64999860E+01
 20
-1.00752376E+02
 11
-6.64999860E+01
 21
-1.01922376E+02
  0
LINE
  8
0
 62
4
 10
-6.99999860E+01
 20
-1.01752376E+02
 11
-6.97399860E+01
 21
-1.00752376E+02
  0
LINE
  8
0
 62
4
 10
-6.59999860E+01
 20
-1.01752376E+02
 11
-6.62699860E+01
 21
-1.00752376E+02
  0
LINE
  8
0
 62
4
 10
-6.62699860E+01
 20
-1.00752376E+02
 11
-6.97399860E+01
 21
-1.00752376E+02
  0
LINE
  8
0
 62
4
 10
-6.99999860E+01
 20
-1.01752376E+02
 11
-6.99999860E+01
 21
-1.01922376E+02
  0
LINE
  8
0
 62
4
 10
-6.59999860E+01
 20
-1.01752376E+02
 11
-6.59999860E+01
 21
-1.01922376E+02
  0
LINE
  8
0
 62
6
 10
-6.94999860E+01
 20
-1.00752376E+02
 11
-6.94999860E+01
 21
-1.01922376E+02
  0
LINE
  8
0
 62
4
 10
-5.64999860E+01
 20
-1.01922376E+02
 11
-7.14999860E+01
 21
-1.01922376E+02
  0
LINE
  8
0
 62
4
 10
-5.64999860E+01
 20
-1.01922376E+02
 11
-5.64999860E+01
 21
-1.30711140E+02
  0
LINE
  8
0
 62
4
 10
-7.14999860E+01
 20
-1.01922376E+02
 11
-7.14999860E+01
 21
-1.30711140E+02
  0
LINE
  8
0
 62
6
 10
-6.14999860E+01
 20
-1.00752376E+02
 11
-6.14999860E+01
 21
-1.01922376E+02
  0
LINE
  8
0
 62
6
 10
-5.84999860E+01
 20
-1.00752376E+02
 11
-5.84999860E+01
 21
-1.01922376E+02
  0
LINE
  8
0
 62
4
 10
-6.19999860E+01
 20
-1.01752376E+02
 11
-6.17399860E+01
 21
-1.00752376E+02
  0
LINE
  8
0
 62
4
 10
-5.79999860E+01
 20
-1.01752376E+02
 11
-5.82699860E+01
 21
-1.00752376E+02
  0
LINE
  8
0
 62
4
 10
-5.82699860E+01
 20
-1.00752376E+02
 11
-6.17399860E+01
 21
-1.00752376E+02
  0
LINE
  8
0
 62
4
 10
-6.19999860E+01
 20
-1.01752376E+02
 11
-6.19999860E+01
 21
-1.01922376E+02
  0
LINE
  8
0
 62
4
 10
-5.79999860E+01
 20
-1.01752376E+02
 11
-5.79999860E+01
 21
-1.01922376E+02
  0
ARC
  8
0
 62
4
 10
-7.45024841E+01
 20
-1.34770744E+02
 40
1.49750400E+00
 50
1.79904421E+02
 51
2.70095579E+02
  0
ARC
  8
0
 62
4
 10
-6.82355810E+01
 20
-1.30602479E+02
 40
1.21769740E+01
 50
2.83121604E+02
 51
2.99537899E+02
  0
ARC
  8
0
 62
4
 10
-5.97643910E+01
 20
-1.30602479E+02
 40
1.21769740E+01
 50
2.40462101E+02
 51
2.56878396E+02
  0
POLYLINE
  8
0
 62
4
 66
1
  0
VERTEX
  8
0
 62
4
 10
-6.05999860E+01
 20
-1.41157748E+02
  0
VERTEX
  8
0
 62
4
 10
-6.06129240E+01
 20
-1.41031706E+02
  0
VERTEX
  8
0
 62
4
 10
-6.06516396E+01
 20
-1.40906624E+02
  0
VERTEX
  8
0
 62
4
 10
-6.07158382E+01
 20
-1.40783453E+02
  0
VERTEX
  8
0
 62
4
 10
-6.08050311E+01
 20
-1.40663130E+02
  0
VERTEX
  8
0
 62
4
 10
-6.09185395E+01
 20
-1.40546572E+02
  0
VERTEX
  8
0
 62
4
 10
-6.10554996E+01
 20
-1.40434665E+02
  0
VERTEX
  8
0
 62
4
 10
-6.12148690E+01
 20
-1.40328261E+02
  0
VERTEX
  8
0
 62
4
 10
-6.13954349E+01
 20
-1.40228171E+02
  0
VERTEX
  8
0
 62
4
 10
-6.15958229E+01
 20
-1.40135154E+02
  0
VERTEX
  8
0
 62
4
 10
-6.18145081E+01
 20
-1.40049921E+02
  0
VERTEX
  8
0
 62
4
 10
-6.20498261E+01
 20
-1.39973118E+02
  0
VERTEX
  8
0
 62
4
 10
-6.22999860E+01
 20
-1.39905332E+02
  0
VERTEX
  8
0
 62
4
 10
-6.25630839E+01
 20
-1.39847077E+02
  0
VERTEX
  8
0
 62
4
 10
-6.28371175E+01
 20
-1.39798797E+02
  0
VERTEX
  8
0
 62
4
 10
-6.31200012E+01
 20
-1.39760859E+02
  0
VERTEX
  8
0
 62
4
 10
-6.34095822E+01
 20
-1.39733553E+02
  0
VERTEX
  8
0
 62
4
 10
-6.37036565E+01
 20
-1.39717085E+02
  0
VERTEX
  8
0
 62
4
 10
-6.39999860E+01
 20
-1.39711582E+02
  0
VERTEX
  8
0
 62
4
 10
-6.42963155E+01
 20
-1.39717085E+02
  0
VERTEX
  8
0
 62
4
 10
-6.45903898E+01
 20
-1.39733553E+02
  0
VERTEX
  8
0
 62
4
 10
-6.48799708E+01
 20
-1.39760859E+02
  0
VERTEX
  8
0
 62
4
 10
-6.51628545E+01
 20
-1.39798797E+02
  0
VERTEX
  8
0
 62
4
 10
-6.54368881E+01
 20
-1.39847077E+02
  0
VERTEX
  8
0
 62
4
 10
-6.56999860E+01
 20
-1.39905332E+02
  0
VERTEX
  8
0
 62
4
 10
-6.59501459E+01
 20
-1.39973118E+02
  0
VERTEX
  8
0
 62
4
 10
-6.61854639E+01
 20
-1.40049921E+02
  0
VERTEX
  8
0
 62
4
 10
-6.64041491E+01
 20
-1.40135154E+02
  0
VERTEX
  8
0
 62
4
 10
-6.66045371E+01
 20
-1.40228171E+02
  0
VERTEX
  8
0
 62
4
 10
-6.67851030E+01
 20
-1.40328261E+02
  0
VERTEX
  8
0
 62
4
 10
-6.69444724E+01
 20
-1.40434665E+02
  0
VERTEX
  8
0
 62
4
 10
-6.70814325E+01
 20
-1.40546572E+02
  0
VERTEX
  8
0
 62
4
 10
-6.71949409E+01
 20
-1.40663130E+02
  0
VERTEX
  8
0
 62
4
 10
-6.72841338E+01
 20
-1.40783453E+02
  0
VERTEX
  8
0
 62
4
 10
-6.73483324E+01
 20
-1.40906624E+02
  0
VERTEX
  8
0
 62
4
 10
-6.73870480E+01
 20
-1.41031706E+02
  0
VERTEX
  8
0
 62
4
 10
-6.73999860E+01
 20
-1.41157748E+02
  0
VERTEX
  8
0
 62
4
 10
-6.73870480E+01
 20
-1.41283790E+02
  0
VERTEX
  8
0
 62
4
 10
-6.73483324E+01
 20
-1.41408872E+02
  0
VERTEX
  8
0
 62
4
 10
-6.72841338E+01
 20
-1.41532043E+02
  0
VERTEX
  8
0
 62
4
 10
-6.71949409E+01
 20
-1.41652366E+02
  0
VERTEX
  8
0
 62
4
 10
-6.70814325E+01
 20
-1.41768924E+02
  0
VERTEX
  8
0
 62
4
 10
-6.69444724E+01
 20
-1.41880831E+02
  0
VERTEX
  8
0
 62
4
 10
-6.67851029E+01
 20
-1.41987235E+02
  0
VERTEX
  8
0
 62
4
 10
-6.66045371E+01
 20
-1.42087325E+02
  0
VERTEX
  8
0
 62
4
 10
-6.64041491E+01
 20
-1.42180342E+02
  0
VERTEX
  8
0
 62
4
 10
-6.61854639E+01
 20
-1.42265575E+02
  0
VERTEX
  8
0
 62
4
 10
-6.59501459E+01
 20
-1.42342378E+02
  0
VERTEX
  8
0
 62
4
 10
-6.56999860E+01
 20
-1.42410164E+02
  0
VERTEX
  8
0
 62
4
 10
-6.54368881E+01
 20
-1.42468419E+02
  0
VERTEX
  8
0
 62
4
 10
-6.51628545E+01
 20
-1.42516699E+02
  0
VERTEX
  8
0
 62
4
 10
-6.48799707E+01
 20
-1.42554637E+02
  0
VERTEX
  8
0
 62
4
 10
-6.45903898E+01
 20
-1.42581943E+02
  0
VERTEX
  8
0
 62
4
 10
-6.42963155E+01
 20
-1.42598411E+02
  0
VERTEX
  8
0
 62
4
 10
-6.39999860E+01
 20
-1.42603914E+02
  0
VERTEX
  8
0
 62
4
 10
-6.37036565E+01
 20
-1.42598411E+02
  0
VERTEX
  8
0
 62
4
 10
-6.34095822E+01
 20
-1.42581943E+02
  0
VERTEX
  8
0
 62
4
 10
-6.31200012E+01
 20
-1.42554637E+02
  0
VERTEX
  8
0
 62
4
 10
-6.28371175E+01
 20
-1.42516699E+02
  0
VERTEX
  8
0
 62
4
 10
-6.25630839E+01
 20
-1.42468419E+02
  0
VERTEX
  8
0
 62
4
 10
-6.22999860E+01
 20
-1.42410164E+02
  0
VERTEX
  8
0
 62
4
 10
-6.20498261E+01
 20
-1.42342378E+02
  0
VERTEX
  8
0
 62
4
 10
-6.18145081E+01
 20
-1.42265575E+02
  0
VERTEX
  8
0
 62
4
 10
-6.15958229E+01
 20
-1.42180342E+02
  0
VERTEX
  8
0
 62
4
 10
-6.13954349E+01
 20
-1.42087325E+02
  0
VERTEX
  8
0
 62
4
 10
-6.12148690E+01
 20
-1.41987235E+02
  0
VERTEX
  8
0
 62
4
 10
-6.10554996E+01
 20
-1.41880831E+02
  0
VERTEX
  8
0
 62
4
 10
-6.09185395E+01
 20
-1.41768924E+02
  0
VERTEX
  8
0
 62
4
 10
-6.08050311E+01
 20
-1.41652366E+02
  0
VERTEX
  8
0
 62
4
 10
-6.07158382E+01
 20
-1.41532043E+02
  0
VERTEX
  8
0
 62
4
 10
-6.06516396E+01
 20
-1.41408872E+02
  0
VERTEX
  8
0
 62
4
 10
-6.06129240E+01
 20
-1.41283790E+02
  0
VERTEX
  8
0
 62
4
 10
-6.05999860E+01
 20
-1.41157748E+02
  0
SEQEND
  8
0
  0
LINE
  8
0
 62
4
 10
-3.69999860E+01
 20
-1.15753522E+02
 11
-3.69999860E+01
 21
-1.39651769E+02
  0
ARC
  8
0
 62
4
 10
-3.85024921E+01
 20
-1.15756028E+02
 40
1.50250815E+00
 50
9.55645858E-02
 51
8.99044354E+01
  0
LINE
  8
0
  6
CENTER
 62
6
 10
-4.79999860E+01
 20
-1.18852229E+02
 11
-4.79999860E+01
 21
-1.30340731E+02
  0
POLYLINE
  8
0
 62
4
 66
1
  0
VERTEX
  8
0
 62
4
 10
-4.48599860E+01
 20
-1.24596480E+02
  0
VERTEX
  8
0
 62
4
 10
-4.48719346E+01
 20
-1.24337721E+02
  0
VERTEX
  8
0
 62
4
 10
-4.49076897E+01
 20
-1.24080931E+02
  0
VERTEX
  8
0
 62
4
 10
-4.49669789E+01
 20
-1.23828065E+02
  0
VERTEX
  8
0
 62
4
 10
-4.50493512E+01
 20
-1.23581047E+02
  0
VERTEX
  8
0
 62
4
 10
-4.51541795E+01
 20
-1.23341757E+02
  0
VERTEX
  8
0
 62
4
 10
-4.52806662E+01
 20
-1.23112016E+02
  0
VERTEX
  8
0
 62
4
 10
-4.54278486E+01
 20
-1.22893573E+02
  0
VERTEX
  8
0
 62
4
 10
-4.55946064E+01
 20
-1.22688090E+02
  0
VERTEX
  8
0
 62
4
 10
-4.57796707E+01
 20
-1.22497131E+02
  0
VERTEX
  8
0
 62
4
 10
-4.59816329E+01
 20
-1.22322149E+02
  0
VERTEX
  8
0
 62
4
 10
-4.61989560E+01
 20
-1.22164476E+02
  0
VERTEX
  8
0
 62
4
 10
-4.64299860E+01
 20
-1.22025313E+02
  0
VERTEX
  8
0
 62
4
 10
-4.66729647E+01
 20
-1.21905717E+02
  0
VERTEX
  8
0
 62
4
 10
-4.69260428E+01
 20
-1.21806600E+02
  0
VERTEX
  8
0
 62
4
 10
-4.71872942E+01
 20
-1.21728715E+02
  0
VERTEX
  8
0
 62
4
 10
-4.74547307E+01
 20
-1.21672656E+02
  0
VERTEX
  8
0
 62
4
 10
-4.77263170E+01
 20
-1.21638849E+02
  0
VERTEX
  8
0
 62
4
 10
-4.79999860E+01
 20
-1.21627552E+02
  0
VERTEX
  8
0
 62
4
 10
-4.82736550E+01
 20
-1.21638849E+02
  0
VERTEX
  8
0
 62
4
 10
-4.85452413E+01
 20
-1.21672656E+02
  0
VERTEX
  8
0
 62
4
 10
-4.88126778E+01
 20
-1.21728715E+02
  0
VERTEX
  8
0
 62
4
 10
-4.90739293E+01
 20
-1.21806600E+02
  0
VERTEX
  8
0
 62
4
 10
-4.93270073E+01
 20
-1.21905717E+02
  0
VERTEX
  8
0
 62
4
 10
-4.95699860E+01
 20
-1.22025313E+02
  0
VERTEX
  8
0
 62
4
 10
-4.98010160E+01
 20
-1.22164476E+02
  0
VERTEX
  8
0
 62
4
 10
-5.00183391E+01
 20
-1.22322149E+02
  0
VERTEX
  8
0
 62
4
 10
-5.02203013E+01
 20
-1.22497131E+02
  0
VERTEX
  8
0
 62
4
 10
-5.04053656E+01
 20
-1.22688090E+02
  0
VERTEX
  8
0
 62
4
 10
-5.05721234E+01
 20
-1.22893573E+02
  0
VERTEX
  8
0
 62
4
 10
-5.07193058E+01
 20
-1.23112016E+02
  0
VERTEX
  8
0
 62
4
 10
-5.08457925E+01
 20
-1.23341757E+02
  0
VERTEX
  8
0
 62
4
 10
-5.09506208E+01
 20
-1.23581047E+02
  0
VERTEX
  8
0
 62
4
 10
-5.10329931E+01
 20
-1.23828065E+02
  0
VERTEX
  8
0
 62
4
 10
-5.10922823E+01
 20
-1.24080931E+02
  0
VERTEX
  8
0
 62
4
 10
-5.11280374E+01
 20
-1.24337721E+02
  0
VERTEX
  8
0
 62
4
 10
-5.11399860E+01
 20
-1.24596480E+02
  0
VERTEX
  8
0
 62
4
 10
-5.11280374E+01
 20
-1.24855239E+02
  0
VERTEX
  8
0
 62
4
 10
-5.10922823E+01
 20
-1.25112029E+02
  0
VERTEX
  8
0
 62
4
 10
-5.10329931E+01
 20
-1.25364895E+02
  0
VERTEX
  8
0
 62
4
 10
-5.09506208E+01
 20
-1.25611913E+02
  0
VERTEX
  8
0
 62
4
 10
-5.08457924E+01
 20
-1.25851203E+02
  0
VERTEX
  8
0
 62
4
 10
-5.07193058E+01
 20
-1.26080944E+02
  0
VERTEX
  8
0
 62
4
 10
-5.05721234E+01
 20
-1.26299387E+02
  0
VERTEX
  8
0
 62
4
 10
-5.04053655E+01
 20
-1.26504870E+02
  0
VERTEX
  8
0
 62
4
 10
-5.02203013E+01
 20
-1.26695829E+02
  0
VERTEX
  8
0
 62
4
 10
-5.00183391E+01
 20
-1.26870811E+02
  0
VERTEX
  8
0
 62
4
 10
-4.98010160E+01
 20
-1.27028484E+02
  0
VERTEX
  8
0
 62
4
 10
-4.95699860E+01
 20
-1.27167647E+02
  0
VERTEX
  8
0
 62
4
 10
-4.93270073E+01
 20
-1.27287243E+02
  0
VERTEX
  8
0
 62
4
 10
-4.90739292E+01
 20
-1.27386360E+02
  0
VERTEX
  8
0
 62
4
 10
-4.88126778E+01
 20
-1.27464245E+02
  0
VERTEX
  8
0
 62
4
 10
-4.85452413E+01
 20
-1.27520304E+02
  0
VERTEX
  8
0
 62
4
 10
-4.82736550E+01
 20
-1.27554111E+02
  0
VERTEX
  8
0
 62
4
 10
-4.79999860E+01
 20
-1.27565408E+02
  0
VERTEX
  8
0
 62
4
 10
-4.77263170E+01
 20
-1.27554111E+02
  0
VERTEX
  8
0
 62
4
 10
-4.74547307E+01
 20
-1.27520304E+02
  0
VERTEX
  8
0
 62
4
 10
-4.71872942E+01
 20
-1.27464245E+02
  0
VERTEX
  8
0
 62
4
 10
-4.69260427E+01
 20
-1.27386360E+02
  0
VERTEX
  8
0
 62
4
 10
-4.66729647E+01
 20
-1.27287243E+02
  0
VERTEX
  8
0
 62
4
 10
-4.64299860E+01
 20
-1.27167647E+02
  0
VERTEX
  8
0
 62
4
 10
-4.61989560E+01
 20
-1.27028484E+02
  0
VERTEX
  8
0
 62
4
 10
-4.59816329E+01
 20
-1.26870811E+02
  0
VERTEX
  8
0
 62
4
 10
-4.57796707E+01
 20
-1.26695829E+02
  0
VERTEX
  8
0
 62
4
 10
-4.55946064E+01
 20
-1.26504870E+02
  0
VERTEX
  8
0
 62
4
 10
-4.54278486E+01
 20
-1.26299387E+02
  0
VERTEX
  8
0
 62
4
 10
-4.52806662E+01
 20
-1.26080944E+02
  0
VERTEX
  8
0
 62
4
 10
-4.51541795E+01
 20
-1.25851203E+02
  0
VERTEX
  8
0
 62
4
 10
-4.50493512E+01
 20
-1.25611913E+02
  0
VERTEX
  8
0
 62
4
 10
-4.49669789E+01
 20
-1.25364895E+02
  0
VERTEX
  8
0
 62
4
 10
-4.49076897E+01
 20
-1.25112029E+02
  0
VERTEX
  8
0
 62
4
 10
-4.48719346E+01
 20
-1.24855239E+02
  0
VERTEX
  8
0
 62
4
 10
-4.48599860E+01
 20
-1.24596480E+02
  0
SEQEND
  8
0
  0
POLYLINE
  8
0
 62
4
 66
1
  0
VERTEX
  8
0
 62
4
 10
-4.44999860E+01
 20
-1.24922048E+02
  0
VERTEX
  8
0
 62
4
 10
-4.45133046E+01
 20
-1.24633622E+02
  0
VERTEX
  8
0
 62
4
 10
-4.45531589E+01
 20
-1.24347391E+02
  0
VERTEX
  8
0
 62
4
 10
-4.46192456E+01
 20
-1.24065534E+02
  0
VERTEX
  8
0
 62
4
 10
-4.47110618E+01
 20
-1.23790196E+02
  0
VERTEX
  8
0
 62
4
 10
-4.48279087E+01
 20
-1.23523471E+02
  0
VERTEX
  8
0
 62
4
 10
-4.49688971E+01
 20
-1.23267390E+02
  0
VERTEX
  8
0
 62
4
 10
-4.51329538E+01
 20
-1.23023903E+02
  0
VERTEX
  8
0
 62
4
 10
-4.53188304E+01
 20
-1.22794861E+02
  0
VERTEX
  8
0
 62
4
 10
-4.55251123E+01
 20
-1.22582009E+02
  0
VERTEX
  8
0
 62
4
 10
-4.57502294E+01
 20
-1.22386966E+02
  0
VERTEX
  8
0
 62
4
 10
-4.59924685E+01
 20
-1.22211216E+02
  0
VERTEX
  8
0
 62
4
 10
-4.62499860E+01
 20
-1.22056097E+02
  0
VERTEX
  8
0
 62
4
 10
-4.65208221E+01
 20
-1.21922790E+02
  0
VERTEX
  8
0
 62
4
 10
-4.68029155E+01
 20
-1.21812309E+02
  0
VERTEX
  8
0
 62
4
 10
-4.70941193E+01
 20
-1.21725495E+02
  0
VERTEX
  8
0
 62
4
 10
-4.73922174E+01
 20
-1.21663009E+02
  0
VERTEX
  8
0
 62
4
 10
-4.76949409E+01
 20
-1.21625326E+02
  0
VERTEX
  8
0
 62
4
 10
-4.79999860E+01
 20
-1.21612733E+02
  0
VERTEX
  8
0
 62
4
 10
-4.83050311E+01
 20
-1.21625326E+02
  0
VERTEX
  8
0
 62
4
 10
-4.86077546E+01
 20
-1.21663009E+02
  0
VERTEX
  8
0
 62
4
 10
-4.89058527E+01
 20
-1.21725495E+02
  0
VERTEX
  8
0
 62
4
 10
-4.91970565E+01
 20
-1.21812309E+02
  0
VERTEX
  8
0
 62
4
 10
-4.94791499E+01
 20
-1.21922790E+02
  0
VERTEX
  8
0
 62
4
 10
-4.97499860E+01
 20
-1.22056097E+02
  0
VERTEX
  8
0
 62
4
 10
-5.00075035E+01
 20
-1.22211216E+02
  0
VERTEX
  8
0
 62
4
 10
-5.02497426E+01
 20
-1.22386966E+02
  0
VERTEX
  8
0
 62
4
 10
-5.04748597E+01
 20
-1.22582009E+02
  0
VERTEX
  8
0
 62
4
 10
-5.06811416E+01
 20
-1.22794861E+02
  0
VERTEX
  8
0
 62
4
 10
-5.08670182E+01
 20
-1.23023903E+02
  0
VERTEX
  8
0
 62
4
 10
-5.10310749E+01
 20
-1.23267390E+02
  0
VERTEX
  8
0
 62
4
 10
-5.11720633E+01
 20
-1.23523471E+02
  0
VERTEX
  8
0
 62
4
 10
-5.12889102E+01
 20
-1.23790196E+02
  0
VERTEX
  8
0
 62
4
 10
-5.13807264E+01
 20
-1.24065534E+02
  0
VERTEX
  8
0
 62
4
 10
-5.14468131E+01
 20
-1.24347391E+02
  0
VERTEX
  8
0
 62
4
 10
-5.14866674E+01
 20
-1.24633622E+02
  0
VERTEX
  8
0
 62
4
 10
-5.14999860E+01
 20
-1.24922048E+02
  0
VERTEX
  8
0
 62
4
 10
-5.14866674E+01
 20
-1.25210474E+02
  0
VERTEX
  8
0
 62
4
 10
-5.14468131E+01
 20
-1.25496705E+02
  0
VERTEX
  8
0
 62
4
 10
-5.13807264E+01
 20
-1.25778562E+02
  0
VERTEX
  8
0
 62
4
 10
-5.12889102E+01
 20
-1.26053900E+02
  0
VERTEX
  8
0
 62
4
 10
-5.11720633E+01
 20
-1.26320625E+02
  0
VERTEX
  8
0
 62
4
 10
-5.10310749E+01
 20
-1.26576706E+02
  0
VERTEX
  8
0
 62
4
 10
-5.08670182E+01
 20
-1.26820193E+02
  0
VERTEX
  8
0
 62
4
 10
-5.06811415E+01
 20
-1.27049235E+02
  0
VERTEX
  8
0
 62
4
 10
-5.04748597E+01
 20
-1.27262087E+02
  0
VERTEX
  8
0
 62
4
 10
-5.02497426E+01
 20
-1.27457130E+02
  0
VERTEX
  8
0
 62
4
 10
-5.00075035E+01
 20
-1.27632880E+02
  0
VERTEX
  8
0
 62
4
 10
-4.97499860E+01
 20
-1.27787999E+02
  0
VERTEX
  8
0
 62
4
 10
-4.94791499E+01
 20
-1.27921306E+02
  0
VERTEX
  8
0
 62
4
 10
-4.91970565E+01
 20
-1.28031787E+02
  0
VERTEX
  8
0
 62
4
 10
-4.89058527E+01
 20
-1.28118601E+02
  0
VERTEX
  8
0
 62
4
 10
-4.86077546E+01
 20
-1.28181087E+02
  0
VERTEX
  8
0
 62
4
 10
-4.83050311E+01
 20
-1.28218770E+02
  0
VERTEX
  8
0
 62
4
 10
-4.79999860E+01
 20
-1.28231363E+02
  0
VERTEX
  8
0
 62
4
 10
-4.76949409E+01
 20
-1.28218770E+02
  0
VERTEX
  8
0
 62
4
 10
-4.73922174E+01
 20
-1.28181087E+02
  0
VERTEX
  8
0
 62
4
 10
-4.70941193E+01
 20
-1.28118601E+02
  0
VERTEX
  8
0
 62
4
 10
-4.68029155E+01
 20
-1.28031787E+02
  0
VERTEX
  8
0
 62
4
 10
-4.65208221E+01
 20
-1.27921306E+02
  0
VERTEX
  8
0
 62
4
 10
-4.62499860E+01
 20
-1.27787999E+02
  0
VERTEX
  8
0
 62
4
 10
-4.59924685E+01
 20
-1.27632880E+02
  0
VERTEX
  8
0
 62
4
 10
-4.57502294E+01
 20
-1.27457130E+02
  0
VERTEX
  8
0
 62
4
 10
-4.55251123E+01
 20
-1.27262087E+02
  0
VERTEX
  8
0
 62
4
 10
-4.53188304E+01
 20
-1.27049235E+02
  0
VERTEX
  8
0
 62
4
 10
-4.51329538E+01
 20
-1.26820193E+02
  0
VERTEX
  8
0
 62
4
 10
-4.49688971E+01
 20
-1.26576705E+02
  0
VERTEX
  8
0
 62
4
 10
-4.48279087E+01
 20
-1.26320625E+02
  0
VERTEX
  8
0
 62
4
 10
-4.47110618E+01
 20
-1.26053900E+02
  0
VERTEX
  8
0
 62
4
 10
-4.46192456E+01
 20
-1.25778562E+02
  0
VERTEX
  8
0
 62
4
 10
-4.45531589E+01
 20
-1.25496705E+02
  0
VERTEX
  8
0
 62
4
 10
-4.45133046E+01
 20
-1.25210474E+02
  0
VERTEX
  8
0
 62
4
 10
-4.44999860E+01
 20
-1.24922048E+02
  0
SEQEND
  8
0
  0
ARC
  8
0
 62
4
 10
-3.84974841E+01
 20
-1.39654271E+02
 40
1.49750021E+00
 50
2.69904276E+02
 51
9.57242462E-02
  0
ARC
  8
0
 62
4
 10
-3.84974841E+01
 20
-1.34770748E+02
 40
1.49750021E+00
 50
2.69904276E+02
 51
9.57242462E-02
  0
LINE
  8
0
 62
4
 10
3.77000023E+02
 20
-2.38358818E+02
 11
3.77000023E+02
 21
-2.52560507E+02
  0
LINE
  8
0
 62
4
 10
3.72000023E+02
 20
-2.38358818E+02
 11
3.72000023E+02
 21
-2.52560507E+02
  0
LINE
  8
0
 62
4
 10
3.42500023E+02
 20
-2.37344790E+02
 11
3.42500023E+02
 21
-2.66517413E+02
  0
LINE
  8
0
 62
4
 10
3.57500023E+02
 20
-2.37344790E+02
 11
3.57500023E+02
 21
-2.66517413E+02
  0
ARC
  8
0
 62
4
 10
3.66502505E+02
 20
-2.38952473E+02
 40
4.97523679E-01
 50
3.59714107E+02
 51
9.02858924E+01
  0
LINE
  8
0
 62
4
 10
3.60500023E+02
 20
-2.68702750E+02
 11
3.60500023E+02
 21
-2.65075965E+02
  0
LINE
  8
0
 62
4
 10
3.42500023E+02
 20
-2.63976132E+02
 11
3.24500023E+02
 21
-2.63976132E+02
  0
LINE
  8
0
 62
4
 10
3.24500023E+02
 20
-2.68702750E+02
 11
3.24500023E+02
 21
-2.65075965E+02
  0
ARC
  8
0
 62
4
 10
3.60502510E+02
 20
-2.65473645E+02
 40
1.49751542E+00
 50
3.59904859E+02
 51
9.00951404E+01
  0
LINE
  8
0
 62
4
 10
3.60500023E+02
 20
-2.63976132E+02
 11
3.57500023E+02
 21
-2.63976132E+02
  0
ARC
  8
0
 62
4
 10
3.24497536E+02
 20
-2.65473645E+02
 40
1.49751542E+00
 50
8.99048594E+01
 51
1.80095141E+02
  0
POLYLINE
  8
0
 62
6
 66
1
  0
VERTEX
  8
0
 62
6
 10
3.55500023E+02
 20
-2.98024577E+02
  0
VERTEX
  8
0
 62
6
 10
3.55494315E+02
 20
-2.97900966E+02
  0
VERTEX
  8
0
 62
6
 10
3.55477235E+02
 20
-2.97778296E+02
  0
VERTEX
  8
0
 62
6
 10
3.55448912E+02
 20
-2.97657500E+02
  0
VERTEX
  8
0
 62
6
 10
3.55409562E+02
 20
-2.97539497E+02
  0
VERTEX
  8
0
 62
6
 10
3.55359485E+02
 20
-2.97425187E+02
  0
VERTEX
  8
0
 62
6
 10
3.55299061E+02
 20
-2.97315438E+02
  0
VERTEX
  8
0
 62
6
 10
3.55228751E+02
 20
-2.97211086E+02
  0
VERTEX
  8
0
 62
6
 10
3.55149090E+02
 20
-2.97112926E+02
  0
VERTEX
  8
0
 62
6
 10
3.55060683E+02
 20
-2.97021703E+02
  0
VERTEX
  8
0
 62
6
 10
3.54964204E+02
 20
-2.96938113E+02
  0
VERTEX
  8
0
 62
6
 10
3.54860388E+02
 20
-2.96862792E+02
  0
VERTEX
  8
0
 62
6
 10
3.54750023E+02
 20
-2.96796312E+02
  0
VERTEX
  8
0
 62
6
 10
3.54633950E+02
 20
-2.96739181E+02
  0
VERTEX
  8
0
 62
6
 10
3.54513053E+02
 20
-2.96691832E+02
  0
VERTEX
  8
0
 62
6
 10
3.54388252E+02
 20
-2.96654626E+02
  0
VERTEX
  8
0
 62
6
 10
3.54260495E+02
 20
-2.96627846E+02
  0
VERTEX
  8
0
 62
6
 10
3.54130757E+02
 20
-2.96611696E+02
  0
VERTEX
  8
0
 62
6
 10
3.54000023E+02
 20
-2.96606299E+02
  0
VERTEX
  8
0
 62
6
 10
3.53869289E+02
 20
-2.96611696E+02
  0
VERTEX
  8
0
 62
6
 10
3.53739551E+02
 20
-2.96627846E+02
  0
VERTEX
  8
0
 62
6
 10
3.53611794E+02
 20
-2.96654626E+02
  0
VERTEX
  8
0
 62
6
 10
3.53486993E+02
 20
-2.96691832E+02
  0
VERTEX
  8
0
 62
6
 10
3.53366096E+02
 20
-2.96739181E+02
  0
VERTEX
  8
0
 62
6
 10
3.53250023E+02
 20
-2.96796312E+02
  0
VERTEX
  8
0
 62
6
 10
3.53139658E+02
 20
-2.96862792E+02
  0
VERTEX
  8
0
 62
6
 10
3.53035842E+02
 20
-2.96938113E+02
  0
VERTEX
  8
0
 62
6
 10
3.52939363E+02
 20
-2.97021703E+02
  0
VERTEX
  8
0
 62
6
 10
3.52850956E+02
 20
-2.97112926E+02
  0
VERTEX
  8
0
 62
6
 10
3.52771295E+02
 20
-2.97211086E+02
  0
VERTEX
  8
0
 62
6
 10
3.52700985E+02
 20
-2.97315438E+02
  0
VERTEX
  8
0
 62
6
 10
3.52640561E+02
 20
-2.97425187E+02
  0
VERTEX
  8
0
 62
6
 10
3.52590484E+02
 20
-2.97539497E+02
  0
VERTEX
  8
0
 62
6
 10
3.52551134E+02
 20
-2.97657500E+02
  0
VERTEX
  8
0
 62
6
 10
3.52522811E+02
 20
-2.97778296E+02
  0
VERTEX
  8
0
 62
6
 10
3.52505731E+02
 20
-2.97900966E+02
  0
VERTEX
  8
0
 62
6
 10
3.52500023E+02
 20
-2.98024577E+02
  0
VERTEX
  8
0
 62
6
 10
3.52505731E+02
 20
-2.98148188E+02
  0
VERTEX
  8
0
 62
6
 10
3.52522811E+02
 20
-2.98270858E+02
  0
VERTEX
  8
0
 62
6
 10
3.52551134E+02
 20
-2.98391654E+02
  0
VERTEX
  8
0
 62
6
 10
3.52590484E+02
 20
-2.98509657E+02
  0
VERTEX
  8
0
 62
6
 10
3.52640561E+02
 20
-2.98623967E+02
  0
VERTEX
  8
0
 62
6
 10
3.52700985E+02
 20
-2.98733716E+02
  0
VERTEX
  8
0
 62
6
 10
3.52771295E+02
 20
-2.98838068E+02
  0
VERTEX
  8
0
 62
6
 10
3.52850956E+02
 20
-2.98936228E+02
  0
VERTEX
  8
0
 62
6
 10
3.52939363E+02
 20
-2.99027451E+02
  0
VERTEX
  8
0
 62
6
 10
3.53035842E+02
 20
-2.99111041E+02
  0
VERTEX
  8
0
 62
6
 10
3.53139658E+02
 20
-2.99186362E+02
  0
VERTEX
  8
0
 62
6
 10
3.53250023E+02
 20
-2.99252842E+02
  0
VERTEX
  8
0
 62
6
 10
3.53366096E+02
 20
-2.99309973E+02
  0
VERTEX
  8
0
 62
6
 10
3.53486993E+02
 20
-2.99357322E+02
  0
VERTEX
  8
0
 62
6
 10
3.53611794E+02
 20
-2.99394528E+02
  0
VERTEX
  8
0
 62
6
 10
3.53739551E+02
 20
-2.99421308E+02
  0
VERTEX
  8
0
 62
6
 10
3.53869289E+02
 20
-2.99437458E+02
  0
VERTEX
  8
0
 62
6
 10
3.54000023E+02
 20
-2.99442855E+02
  0
VERTEX
  8
0
 62
6
 10
3.54130757E+02
 20
-2.99437458E+02
  0
VERTEX
  8
0
 62
6
 10
3.54260495E+02
 20
-2.99421308E+02
  0
VERTEX
  8
0
 62
6
 10
3.54388252E+02
 20
-2.99394528E+02
  0
VERTEX
  8
0
 62
6
 10
3.54513053E+02
 20
-2.99357322E+02
  0
VERTEX
  8
0
 62
6
 10
3.54633950E+02
 20
-2.99309973E+02
  0
VERTEX
  8
0
 62
6
 10
3.54750023E+02
 20
-2.99252842E+02
  0
VERTEX
  8
0
 62
6
 10
3.54860388E+02
 20
-2.99186362E+02
  0
VERTEX
  8
0
 62
6
 10
3.54964204E+02
 20
-2.99111041E+02
  0
VERTEX
  8
0
 62
6
 10
3.55060683E+02
 20
-2.99027451E+02
  0
VERTEX
  8
0
 62
6
 10
3.55149090E+02
 20
-2.98936228E+02
  0
VERTEX
  8
0
 62
6
 10
3.55228751E+02
 20
-2.98838068E+02
  0
VERTEX
  8
0
 62
6
 10
3.55299061E+02
 20
-2.98733716E+02
  0
VERTEX
  8
0
 62
6
 10
3.55359485E+02
 20
-2.98623967E+02
  0
VERTEX
  8
0
 62
6
 10
3.55409562E+02
 20
-2.98509657E+02
  0
VERTEX
  8
0
 62
6
 10
3.55448912E+02
 20
-2.98391654E+02
  0
VERTEX
  8
0
 62
6
 10
3.55477235E+02
 20
-2.98270858E+02
  0
VERTEX
  8
0
 62
6
 10
3.55494315E+02
 20
-2.98148188E+02
  0
VERTEX
  8
0
 62
6
 10
3.55500023E+02
 20
-2.98024577E+02
  0
SEQEND
  8
0
  0
POLYLINE
  8
0
 62
4
 66
1
  0
VERTEX
  8
0
 62
4
 10
3.55735023E+02
 20
-2.98024577E+02
  0
VERTEX
  8
0
 62
4
 10
3.55728421E+02
 20
-2.97882012E+02
  0
VERTEX
  8
0
 62
4
 10
3.55708664E+02
 20
-2.97740532E+02
  0
VERTEX
  8
0
 62
4
 10
3.55675904E+02
 20
-2.97601214E+02
  0
VERTEX
  8
0
 62
4
 10
3.55630390E+02
 20
-2.97465119E+02
  0
VERTEX
  8
0
 62
4
 10
3.55572467E+02
 20
-2.97333280E+02
  0
VERTEX
  8
0
 62
4
 10
3.55502577E+02
 20
-2.97206703E+02
  0
VERTEX
  8
0
 62
4
 10
3.55421252E+02
 20
-2.97086351E+02
  0
VERTEX
  8
0
 62
4
 10
3.55329110E+02
 20
-2.96973139E+02
  0
VERTEX
  8
0
 62
4
 10
3.55226853E+02
 20
-2.96867929E+02
  0
VERTEX
  8
0
 62
4
 10
3.55115260E+02
 20
-2.96771522E+02
  0
VERTEX
  8
0
 62
4
 10
3.54995178E+02
 20
-2.96684651E+02
  0
VERTEX
  8
0
 62
4
 10
3.54867523E+02
 20
-2.96607978E+02
  0
VERTEX
  8
0
 62
4
 10
3.54733266E+02
 20
-2.96542087E+02
  0
VERTEX
  8
0
 62
4
 10
3.54593428E+02
 20
-2.96487477E+02
  0
VERTEX
  8
0
 62
4
 10
3.54449074E+02
 20
-2.96444567E+02
  0
VERTEX
  8
0
 62
4
 10
3.54301303E+02
 20
-2.96413681E+02
  0
VERTEX
  8
0
 62
4
 10
3.54151238E+02
 20
-2.96395054E+02
  0
VERTEX
  8
0
 62
4
 10
3.54000023E+02
 20
-2.96388830E+02
  0
VERTEX
  8
0
 62
4
 10
3.53848808E+02
 20
-2.96395054E+02
  0
VERTEX
  8
0
 62
4
 10
3.53698743E+02
 20
-2.96413681E+02
  0
VERTEX
  8
0
 62
4
 10
3.53550972E+02
 20
-2.96444567E+02
  0
VERTEX
  8
0
 62
4
 10
3.53406618E+02
 20
-2.96487477E+02
  0
VERTEX
  8
0
 62
4
 10
3.53266780E+02
 20
-2.96542087E+02
  0
VERTEX
  8
0
 62
4
 10
3.53132523E+02
 20
-2.96607978E+02
  0
VERTEX
  8
0
 62
4
 10
3.53004868E+02
 20
-2.96684651E+02
  0
VERTEX
  8
0
 62
4
 10
3.52884786E+02
 20
-2.96771522E+02
  0
VERTEX
  8
0
 62
4
 10
3.52773193E+02
 20
-2.96867929E+02
  0
VERTEX
  8
0
 62
4
 10
3.52670936E+02
 20
-2.96973139E+02
  0
VERTEX
  8
0
 62
4
 10
3.52578794E+02
 20
-2.97086351E+02
  0
VERTEX
  8
0
 62
4
 10
3.52497469E+02
 20
-2.97206703E+02
  0
VERTEX
  8
0
 62
4
 10
3.52427579E+02
 20
-2.97333280E+02
  0
VERTEX
  8
0
 62
4
 10
3.52369656E+02
 20
-2.97465119E+02
  0
VERTEX
  8
0
 62
4
 10
3.52324142E+02
 20
-2.97601214E+02
  0
VERTEX
  8
0
 62
4
 10
3.52291382E+02
 20
-2.97740532E+02
  0
VERTEX
  8
0
 62
4
 10
3.52271625E+02
 20
-2.97882012E+02
  0
VERTEX
  8
0
 62
4
 10
3.52265023E+02
 20
-2.98024577E+02
  0
VERTEX
  8
0
 62
4
 10
3.52271625E+02
 20
-2.98167142E+02
  0
VERTEX
  8
0
 62
4
 10
3.52291382E+02
 20
-2.98308622E+02
  0
VERTEX
  8
0
 62
4
 10
3.52324142E+02
 20
-2.98447940E+02
  0
VERTEX
  8
0
 62
4
 10
3.52369656E+02
 20
-2.98584035E+02
  0
VERTEX
  8
0
 62
4
 10
3.52427579E+02
 20
-2.98715874E+02
  0
VERTEX
  8
0
 62
4
 10
3.52497469E+02
 20
-2.98842451E+02
  0
VERTEX
  8
0
 62
4
 10
3.52578794E+02
 20
-2.98962803E+02
  0
VERTEX
  8
0
 62
4
 10
3.52670936E+02
 20
-2.99076015E+02
  0
VERTEX
  8
0
 62
4
 10
3.52773193E+02
 20
-2.99181225E+02
  0
VERTEX
  8
0
 62
4
 10
3.52884786E+02
 20
-2.99277632E+02
  0
VERTEX
  8
0
 62
4
 10
3.53004868E+02
 20
-2.99364503E+02
  0
VERTEX
  8
0
 62
4
 10
3.53132523E+02
 20
-2.99441176E+02
  0
VERTEX
  8
0
 62
4
 10
3.53266780E+02
 20
-2.99507067E+02
  0
VERTEX
  8
0
 62
4
 10
3.53406618E+02
 20
-2.99561677E+02
  0
VERTEX
  8
0
 62
4
 10
3.53550972E+02
 20
-2.99604587E+02
  0
VERTEX
  8
0
 62
4
 10
3.53698743E+02
 20
-2.99635473E+02
  0
VERTEX
  8
0
 62
4
 10
3.53848808E+02
 20
-2.99654100E+02
  0
VERTEX
  8
0
 62
4
 10
3.54000023E+02
 20
-2.99660324E+02
  0
VERTEX
  8
0
 62
4
 10
3.54151238E+02
 20
-2.99654100E+02
  0
VERTEX
  8
0
 62
4
 10
3.54301303E+02
 20
-2.99635473E+02
  0
VERTEX
  8
0
 62
4
 10
3.54449074E+02
 20
-2.99604587E+02
  0
VERTEX
  8
0
 62
4
 10
3.54593428E+02
 20
-2.99561677E+02
  0
VERTEX
  8
0
 62
4
 10
3.54733266E+02
 20
-2.99507067E+02
  0
VERTEX
  8
0
 62
4
 10
3.54867523E+02
 20
-2.99441176E+02
  0
VERTEX
  8
0
 62
4
 10
3.54995178E+02
 20
-2.99364503E+02
  0
VERTEX
  8
0
 62
4
 10
3.55115260E+02
 20
-2.99277632E+02
  0
VERTEX
  8
0
 62
4
 10
3.55226853E+02
 20
-2.99181225E+02
  0
VERTEX
  8
0
 62
4
 10
3.55329110E+02
 20
-2.99076015E+02
  0
VERTEX
  8
0
 62
4
 10
3.55421252E+02
 20
-2.98962803E+02
  0
VERTEX
  8
0
 62
4
 10
3.55502577E+02
 20
-2.98842451E+02
  0
VERTEX
  8
0
 62
4
 10
3.55572467E+02
 20
-2.98715874E+02
  0
VERTEX
  8
0
 62
4
 10
3.55630390E+02
 20
-2.98584035E+02
  0
VERTEX
  8
0
 62
4
 10
3.55675904E+02
 20
-2.98447940E+02
  0
VERTEX
  8
0
 62
4
 10
3.55708664E+02
 20
-2.98308622E+02
  0
VERTEX
  8
0
 62
4
 10
3.55728421E+02
 20
-2.98167142E+02
  0
VERTEX
  8
0
 62
4
 10
3.55735023E+02
 20
-2.98024577E+02
  0
SEQEND
  8
0
  0
POLYLINE
  8
0
 62
4
 66
1
  0
VERTEX
  8
0
 62
4
 10
3.55493100E+02
 20
-2.98857735E+02
  0
VERTEX
  8
0
 62
4
 10
3.55604765E+02
 20
-2.98728167E+02
  0
VERTEX
  8
0
 62
4
 10
3.55703895E+02
 20
-2.98589783E+02
  0
VERTEX
  8
0
 62
4
 10
3.55789713E+02
 20
-2.98443663E+02
  0
VERTEX
  8
0
 62
4
 10
3.55861552E+02
 20
-2.98290949E+02
  0
VERTEX
  8
0
 62
4
 10
3.55918848E+02
 20
-2.98132833E+02
  0
VERTEX
  8
0
 62
4
 10
3.55961154E+02
 20
-2.97970552E+02
  0
VERTEX
  8
0
 62
4
 10
3.55988141E+02
 20
-2.97805373E+02
  0
VERTEX
  8
0
 62
4
 10
3.55999597E+02
 20
-2.97638586E+02
  0
VERTEX
  8
0
 62
4
 10
3.55995432E+02
 20
-2.97471493E+02
  0
VERTEX
  8
0
 62
4
 10
3.55975680E+02
 20
-2.97305402E+02
  0
VERTEX
  8
0
 62
4
 10
3.55940494E+02
 20
-2.97141608E+02
  0
VERTEX
  8
0
 62
4
 10
3.55890149E+02
 20
-2.96981391E+02
  0
VERTEX
  8
0
 62
4
 10
3.55825039E+02
 20
-2.96826003E+02
  0
VERTEX
  8
0
 62
4
 10
3.55745673E+02
 20
-2.96676658E+02
  0
VERTEX
  8
0
 62
4
 10
3.55652669E+02
 20
-2.96534523E+02
  0
VERTEX
  8
0
 62
4
 10
3.55546756E+02
 20
-2.96400707E+02
  0
VERTEX
  8
0
 62
4
 10
3.55428759E+02
 20
-2.96276257E+02
  0
VERTEX
  8
0
 62
4
 10
3.55299602E+02
 20
-2.96162144E+02
  0
VERTEX
  8
0
 62
4
 10
3.55160292E+02
 20
-2.96059259E+02
  0
VERTEX
  8
0
 62
4
 10
3.55011919E+02
 20
-2.95968407E+02
  0
VERTEX
  8
0
 62
4
 10
3.54855640E+02
 20
-2.95890298E+02
  0
VERTEX
  8
0
 62
4
 10
3.54692678E+02
 20
-2.95825540E+02
  0
VERTEX
  8
0
 62
4
 10
3.54524305E+02
 20
-2.95774641E+02
  0
VERTEX
  8
0
 62
4
 10
3.54351836E+02
 20
-2.95737998E+02
  0
VERTEX
  8
0
 62
4
 10
3.54176620E+02
 20
-2.95715897E+02
  0
VERTEX
  8
0
 62
4
 10
3.54000023E+02
 20
-2.95708511E+02
  0
VERTEX
  8
0
 62
4
 10
3.53823426E+02
 20
-2.95715897E+02
  0
VERTEX
  8
0
 62
4
 10
3.53648209E+02
 20
-2.95737998E+02
  0
VERTEX
  8
0
 62
4
 10
3.53475741E+02
 20
-2.95774641E+02
  0
VERTEX
  8
0
 62
4
 10
3.53307368E+02
 20
-2.95825540E+02
  0
VERTEX
  8
0
 62
4
 10
3.53144406E+02
 20
-2.95890298E+02
  0
VERTEX
  8
0
 62
4
 10
3.52988127E+02
 20
-2.95968407E+02
  0
VERTEX
  8
0
 62
4
 10
3.52839754E+02
 20
-2.96059259E+02
  0
VERTEX
  8
0
 62
4
 10
3.52700444E+02
 20
-2.96162144E+02
  0
VERTEX
  8
0
 62
4
 10
3.52571287E+02
 20
-2.96276257E+02
  0
VERTEX
  8
0
 62
4
 10
3.52453290E+02
 20
-2.96400707E+02
  0
VERTEX
  8
0
 62
4
 10
3.52347377E+02
 20
-2.96534523E+02
  0
VERTEX
  8
0
 62
4
 10
3.52254373E+02
 20
-2.96676658E+02
  0
VERTEX
  8
0
 62
4
 10
3.52175007E+02
 20
-2.96826003E+02
  0
VERTEX
  8
0
 62
4
 10
3.52109897E+02
 20
-2.96981391E+02
  0
VERTEX
  8
0
 62
4
 10
3.52059552E+02
 20
-2.97141608E+02
  0
VERTEX
  8
0
 62
4
 10
3.52024366E+02
 20
-2.97305402E+02
  0
VERTEX
  8
0
 62
4
 10
3.52004614E+02
 20
-2.97471493E+02
  0
VERTEX
  8
0
 62
4
 10
3.52000449E+02
 20
-2.97638586E+02
  0
VERTEX
  8
0
 62
4
 10
3.52011905E+02
 20
-2.97805373E+02
  0
VERTEX
  8
0
 62
4
 10
3.52038892E+02
 20
-2.97970552E+02
  0
VERTEX
  8
0
 62
4
 10
3.52081198E+02
 20
-2.98132833E+02
  0
VERTEX
  8
0
 62
4
 10
3.52138494E+02
 20
-2.98290949E+02
  0
VERTEX
  8
0
 62
4
 10
3.52210333E+02
 20
-2.98443663E+02
  0
VERTEX
  8
0
 62
4
 10
3.52296151E+02
 20
-2.98589783E+02
  0
VERTEX
  8
0
 62
4
 10
3.52395281E+02
 20
-2.98728167E+02
  0
VERTEX
  8
0
 62
4
 10
3.52506946E+02
 20
-2.98857735E+02
  0
SEQEND
  8
0
  0
POLYLINE
  8
0
 62
6
 66
1
  0
VERTEX
  8
0
 62
6
 10
3.47500023E+02
 20
-2.98024577E+02
  0
VERTEX
  8
0
 62
6
 10
3.47494315E+02
 20
-2.97900966E+02
  0
VERTEX
  8
0
 62
6
 10
3.47477235E+02
 20
-2.97778296E+02
  0
VERTEX
  8
0
 62
6
 10
3.47448912E+02
 20
-2.97657500E+02
  0
VERTEX
  8
0
 62
6
 10
3.47409562E+02
 20
-2.97539497E+02
  0
VERTEX
  8
0
 62
6
 10
3.47359485E+02
 20
-2.97425187E+02
  0
VERTEX
  8
0
 62
6
 10
3.47299061E+02
 20
-2.97315438E+02
  0
VERTEX
  8
0
 62
6
 10
3.47228751E+02
 20
-2.97211086E+02
  0
VERTEX
  8
0
 62
6
 10
3.47149090E+02
 20
-2.97112926E+02
  0
VERTEX
  8
0
 62
6
 10
3.47060683E+02
 20
-2.97021703E+02
  0
VERTEX
  8
0
 62
6
 10
3.46964204E+02
 20
-2.96938113E+02
  0
VERTEX
  8
0
 62
6
 10
3.46860388E+02
 20
-2.96862792E+02
  0
VERTEX
  8
0
 62
6
 10
3.46750023E+02
 20
-2.96796312E+02
  0
VERTEX
  8
0
 62
6
 10
3.46633950E+02
 20
-2.96739181E+02
  0
VERTEX
  8
0
 62
6
 10
3.46513053E+02
 20
-2.96691832E+02
  0
VERTEX
  8
0
 62
6
 10
3.46388252E+02
 20
-2.96654626E+02
  0
VERTEX
  8
0
 62
6
 10
3.46260495E+02
 20
-2.96627846E+02
  0
VERTEX
  8
0
 62
6
 10
3.46130757E+02
 20
-2.96611696E+02
  0
VERTEX
  8
0
 62
6
 10
3.46000023E+02
 20
-2.96606299E+02
  0
VERTEX
  8
0
 62
6
 10
3.45869289E+02
 20
-2.96611696E+02
  0
VERTEX
  8
0
 62
6
 10
3.45739551E+02
 20
-2.96627846E+02
  0
VERTEX
  8
0
 62
6
 10
3.45611794E+02
 20
-2.96654626E+02
  0
VERTEX
  8
0
 62
6
 10
3.45486993E+02
 20
-2.96691832E+02
  0
VERTEX
  8
0
 62
6
 10
3.45366096E+02
 20
-2.96739181E+02
  0
VERTEX
  8
0
 62
6
 10
3.45250023E+02
 20
-2.96796312E+02
  0
VERTEX
  8
0
 62
6
 10
3.45139658E+02
 20
-2.96862792E+02
  0
VERTEX
  8
0
 62
6
 10
3.45035842E+02
 20
-2.96938113E+02
  0
VERTEX
  8
0
 62
6
 10
3.44939363E+02
 20
-2.97021703E+02
  0
VERTEX
  8
0
 62
6
 10
3.44850956E+02
 20
-2.97112926E+02
  0
VERTEX
  8
0
 62
6
 10
3.44771295E+02
 20
-2.97211086E+02
  0
VERTEX
  8
0
 62
6
 10
3.44700985E+02
 20
-2.97315438E+02
  0
VERTEX
  8
0
 62
6
 10
3.44640561E+02
 20
-2.97425187E+02
  0
VERTEX
  8
0
 62
6
 10
3.44590484E+02
 20
-2.97539497E+02
  0
VERTEX
  8
0
 62
6
 10
3.44551134E+02
 20
-2.97657500E+02
  0
VERTEX
  8
0
 62
6
 10
3.44522811E+02
 20
-2.97778296E+02
  0
VERTEX
  8
0
 62
6
 10
3.44505731E+02
 20
-2.97900966E+02
  0
VERTEX
  8
0
 62
6
 10
3.44500023E+02
 20
-2.98024577E+02
  0
VERTEX
  8
0
 62
6
 10
3.44505731E+02
 20
-2.98148188E+02
  0
VERTEX
  8
0
 62
6
 10
3.44522811E+02
 20
-2.98270858E+02
  0
VERTEX
  8
0
 62
6
 10
3.44551134E+02
 20
-2.98391654E+02
  0
VERTEX
  8
0
 62
6
 10
3.44590484E+02
 20
-2.98509657E+02
  0
VERTEX
  8
0
 62
6
 10
3.44640561E+02
 20
-2.98623967E+02
  0
VERTEX
  8
0
 62
6
 10
3.44700985E+02
 20
-2.98733716E+02
  0
VERTEX
  8
0
 62
6
 10
3.44771295E+02
 20
-2.98838068E+02
  0
VERTEX
  8
0
 62
6
 10
3.44850956E+02
 20
-2.98936228E+02
  0
VERTEX
  8
0
 62
6
 10
3.44939363E+02
 20
-2.99027451E+02
  0
VERTEX
  8
0
 62
6
 10
3.45035842E+02
 20
-2.99111041E+02
  0
VERTEX
  8
0
 62
6
 10
3.45139658E+02
 20
-2.99186362E+02
  0
VERTEX
  8
0
 62
6
 10
3.45250023E+02
 20
-2.99252842E+02
  0
VERTEX
  8
0
 62
6
 10
3.45366096E+02
 20
-2.99309973E+02
  0
VERTEX
  8
0
 62
6
 10
3.45486993E+02
 20
-2.99357322E+02
  0
VERTEX
  8
0
 62
6
 10
3.45611794E+02
 20
-2.99394528E+02
  0
VERTEX
  8
0
 62
6
 10
3.45739551E+02
 20
-2.99421308E+02
  0
VERTEX
  8
0
 62
6
 10
3.45869289E+02
 20
-2.99437458E+02
  0
VERTEX
  8
0
 62
6
 10
3.46000023E+02
 20
-2.99442855E+02
  0
VERTEX
  8
0
 62
6
 10
3.46130757E+02
 20
-2.99437458E+02
  0
VERTEX
  8
0
 62
6
 10
3.46260495E+02
 20
-2.99421308E+02
  0
VERTEX
  8
0
 62
6
 10
3.46388252E+02
 20
-2.99394528E+02
  0
VERTEX
  8
0
 62
6
 10
3.46513053E+02
 20
-2.99357322E+02
  0
VERTEX
  8
0
 62
6
 10
3.46633950E+02
 20
-2.99309973E+02
  0
VERTEX
  8
0
 62
6
 10
3.46750023E+02
 20
-2.99252842E+02
  0
VERTEX
  8
0
 62
6
 10
3.46860388E+02
 20
-2.99186362E+02
  0
VERTEX
  8
0
 62
6
 10
3.46964204E+02
 20
-2.99111041E+02
  0
VERTEX
  8
0
 62
6
 10
3.47060683E+02
 20
-2.99027451E+02
  0
VERTEX
  8
0
 62
6
 10
3.47149090E+02
 20
-2.98936228E+02
  0
VERTEX
  8
0
 62
6
 10
3.47228751E+02
 20
-2.98838068E+02
  0
VERTEX
  8
0
 62
6
 10
3.47299061E+02
 20
-2.98733716E+02
  0
VERTEX
  8
0
 62
6
 10
3.47359485E+02
 20
-2.98623967E+02
  0
VERTEX
  8
0
 62
6
 10
3.47409562E+02
 20
-2.98509657E+02
  0
VERTEX
  8
0
 62
6
 10
3.47448912E+02
 20
-2.98391654E+02
  0
VERTEX
  8
0
 62
6
 10
3.47477235E+02
 20
-2.98270858E+02
  0
VERTEX
  8
0
 62
6
 10
3.47494315E+02
 20
-2.98148188E+02
  0
VERTEX
  8
0
 62
6
 10
3.47500023E+02
 20
-2.98024577E+02
  0
SEQEND
  8
0
  0
POLYLINE
  8
0
 62
4
 66
1
  0
VERTEX
  8
0
 62
4
 10
3.47735023E+02
 20
-2.98024577E+02
  0
VERTEX
  8
0
 62
4
 10
3.47728421E+02
 20
-2.97882012E+02
  0
VERTEX
  8
0
 62
4
 10
3.47708664E+02
 20
-2.97740532E+02
  0
VERTEX
  8
0
 62
4
 10
3.47675904E+02
 20
-2.97601214E+02
  0
VERTEX
  8
0
 62
4
 10
3.47630390E+02
 20
-2.97465119E+02
  0
VERTEX
  8
0
 62
4
 10
3.47572467E+02
 20
-2.97333280E+02
  0
VERTEX
  8
0
 62
4
 10
3.47502577E+02
 20
-2.97206703E+02
  0
VERTEX
  8
0
 62
4
 10
3.47421252E+02
 20
-2.97086351E+02
  0
VERTEX
  8
0
 62
4
 10
3.47329110E+02
 20
-2.96973139E+02
  0
VERTEX
  8
0
 62
4
 10
3.47226853E+02
 20
-2.96867929E+02
  0
VERTEX
  8
0
 62
4
 10
3.47115260E+02
 20
-2.96771522E+02
  0
VERTEX
  8
0
 62
4
 10
3.46995178E+02
 20
-2.96684651E+02
  0
VERTEX
  8
0
 62
4
 10
3.46867523E+02
 20
-2.96607978E+02
  0
VERTEX
  8
0
 62
4
 10
3.46733266E+02
 20
-2.96542087E+02
  0
VERTEX
  8
0
 62
4
 10
3.46593428E+02
 20
-2.96487477E+02
  0
VERTEX
  8
0
 62
4
 10
3.46449074E+02
 20
-2.96444567E+02
  0
VERTEX
  8
0
 62
4
 10
3.46301303E+02
 20
-2.96413681E+02
  0
VERTEX
  8
0
 62
4
 10
3.46151238E+02
 20
-2.96395054E+02
  0
VERTEX
  8
0
 62
4
 10
3.46000023E+02
 20
-2.96388830E+02
  0
VERTEX
  8
0
 62
4
 10
3.45848808E+02
 20
-2.96395054E+02
  0
VERTEX
  8
0
 62
4
 10
3.45698743E+02
 20
-2.96413681E+02
  0
VERTEX
  8
0
 62
4
 10
3.45550972E+02
 20
-2.96444567E+02
  0
VERTEX
  8
0
 62
4
 10
3.45406618E+02
 20
-2.96487477E+02
  0
VERTEX
  8
0
 62
4
 10
3.45266780E+02
 20
-2.96542087E+02
  0
VERTEX
  8
0
 62
4
 10
3.45132523E+02
 20
-2.96607978E+02
  0
VERTEX
  8
0
 62
4
 10
3.45004868E+02
 20
-2.96684651E+02
  0
VERTEX
  8
0
 62
4
 10
3.44884786E+02
 20
-2.96771522E+02
  0
VERTEX
  8
0
 62
4
 10
3.44773193E+02
 20
-2.96867929E+02
  0
VERTEX
  8
0
 62
4
 10
3.44670936E+02
 20
-2.96973139E+02
  0
VERTEX
  8
0
 62
4
 10
3.44578794E+02
 20
-2.97086351E+02
  0
VERTEX
  8
0
 62
4
 10
3.44497469E+02
 20
-2.97206703E+02
  0
VERTEX
  8
0
 62
4
 10
3.44427579E+02
 20
-2.97333280E+02
  0
VERTEX
  8
0
 62
4
 10
3.44369656E+02
 20
-2.97465119E+02
  0
VERTEX
  8
0
 62
4
 10
3.44324142E+02
 20
-2.97601214E+02
  0
VERTEX
  8
0
 62
4
 10
3.44291382E+02
 20
-2.97740532E+02
  0
VERTEX
  8
0
 62
4
 10
3.44271625E+02
 20
-2.97882012E+02
  0
VERTEX
  8
0
 62
4
 10
3.44265023E+02
 20
-2.98024577E+02
  0
VERTEX
  8
0
 62
4
 10
3.44271625E+02
 20
-2.98167142E+02
  0
VERTEX
  8
0
 62
4
 10
3.44291382E+02
 20
-2.98308622E+02
  0
VERTEX
  8
0
 62
4
 10
3.44324142E+02
 20
-2.98447940E+02
  0
VERTEX
  8
0
 62
4
 10
3.44369656E+02
 20
-2.98584035E+02
  0
VERTEX
  8
0
 62
4
 10
3.44427579E+02
 20
-2.98715874E+02
  0
VERTEX
  8
0
 62
4
 10
3.44497469E+02
 20
-2.98842451E+02
  0
VERTEX
  8
0
 62
4
 10
3.44578794E+02
 20
-2.98962803E+02
  0
VERTEX
  8
0
 62
4
 10
3.44670936E+02
 20
-2.99076015E+02
  0
VERTEX
  8
0
 62
4
 10
3.44773193E+02
 20
-2.99181225E+02
  0
VERTEX
  8
0
 62
4
 10
3.44884786E+02
 20
-2.99277632E+02
  0
VERTEX
  8
0
 62
4
 10
3.45004868E+02
 20
-2.99364503E+02
  0
VERTEX
  8
0
 62
4
 10
3.45132523E+02
 20
-2.99441176E+02
  0
VERTEX
  8
0
 62
4
 10
3.45266780E+02
 20
-2.99507067E+02
  0
VERTEX
  8
0
 62
4
 10
3.45406618E+02
 20
-2.99561677E+02
  0
VERTEX
  8
0
 62
4
 10
3.45550972E+02
 20
-2.99604587E+02
  0
VERTEX
  8
0
 62
4
 10
3.45698743E+02
 20
-2.99635473E+02
  0
VERTEX
  8
0
 62
4
 10
3.45848808E+02
 20
-2.99654100E+02
  0
VERTEX
  8
0
 62
4
 10
3.46000023E+02
 20
-2.99660324E+02
  0
VERTEX
  8
0
 62
4
 10
3.46151238E+02
 20
-2.99654100E+02
  0
VERTEX
  8
0
 62
4
 10
3.46301303E+02
 20
-2.99635473E+02
  0
VERTEX
  8
0
 62
4
 10
3.46449074E+02
 20
-2.99604587E+02
  0
VERTEX
  8
0
 62
4
 10
3.46593428E+02
 20
-2.99561677E+02
  0
VERTEX
  8
0
 62
4
 10
3.46733266E+02
 20
-2.99507067E+02
  0
VERTEX
  8
0
 62
4
 10
3.46867523E+02
 20
-2.99441176E+02
  0
VERTEX
  8
0
 62
4
 10
3.46995178E+02
 20
-2.99364503E+02
  0
VERTEX
  8
0
 62
4
 10
3.47115260E+02
 20
-2.99277632E+02
  0
VERTEX
  8
0
 62
4
 10
3.47226853E+02
 20
-2.99181225E+02
  0
VERTEX
  8
0
 62
4
 10
3.47329110E+02
 20
-2.99076015E+02
  0
VERTEX
  8
0
 62
4
 10
3.47421252E+02
 20
-2.98962803E+02
  0
VERTEX
  8
0
 62
4
 10
3.47502577E+02
 20
-2.98842451E+02
  0
VERTEX
  8
0
 62
4
 10
3.47572467E+02
 20
-2.98715874E+02
  0
VERTEX
  8
0
 62
4
 10
3.47630390E+02
 20
-2.98584035E+02
  0
VERTEX
  8
0
 62
4
 10
3.47675904E+02
 20
-2.98447940E+02
  0
VERTEX
  8
0
 62
4
 10
3.47708664E+02
 20
-2.98308622E+02
  0
VERTEX
  8
0
 62
4
 10
3.47728421E+02
 20
-2.98167142E+02
  0
VERTEX
  8
0
 62
4
 10
3.47735023E+02
 20
-2.98024577E+02
  0
SEQEND
  8
0
  0
POLYLINE
  8
0
 62
4
 66
1
  0
VERTEX
  8
0
 62
4
 10
3.47493100E+02
 20
-2.98857735E+02
  0
VERTEX
  8
0
 62
4
 10
3.47604765E+02
 20
-2.98728167E+02
  0
VERTEX
  8
0
 62
4
 10
3.47703895E+02
 20
-2.98589783E+02
  0
VERTEX
  8
0
 62
4
 10
3.47789713E+02
 20
-2.98443663E+02
  0
VERTEX
  8
0
 62
4
 10
3.47861552E+02
 20
-2.98290949E+02
  0
VERTEX
  8
0
 62
4
 10
3.47918848E+02
 20
-2.98132833E+02
  0
VERTEX
  8
0
 62
4
 10
3.47961154E+02
 20
-2.97970552E+02
  0
VERTEX
  8
0
 62
4
 10
3.47988141E+02
 20
-2.97805373E+02
  0
VERTEX
  8
0
 62
4
 10
3.47999597E+02
 20
-2.97638586E+02
  0
VERTEX
  8
0
 62
4
 10
3.47995432E+02
 20
-2.97471493E+02
  0
VERTEX
  8
0
 62
4
 10
3.47975680E+02
 20
-2.97305402E+02
  0
VERTEX
  8
0
 62
4
 10
3.47940494E+02
 20
-2.97141608E+02
  0
VERTEX
  8
0
 62
4
 10
3.47890149E+02
 20
-2.96981391E+02
  0
VERTEX
  8
0
 62
4
 10
3.47825039E+02
 20
-2.96826003E+02
  0
VERTEX
  8
0
 62
4
 10
3.47745673E+02
 20
-2.96676658E+02
  0
VERTEX
  8
0
 62
4
 10
3.47652669E+02
 20
-2.96534523E+02
  0
VERTEX
  8
0
 62
4
 10
3.47546756E+02
 20
-2.96400707E+02
  0
VERTEX
  8
0
 62
4
 10
3.47428759E+02
 20
-2.96276257E+02
  0
VERTEX
  8
0
 62
4
 10
3.47299602E+02
 20
-2.96162144E+02
  0
VERTEX
  8
0
 62
4
 10
3.47160292E+02
 20
-2.96059259E+02
  0
VERTEX
  8
0
 62
4
 10
3.47011919E+02
 20
-2.95968407E+02
  0
VERTEX
  8
0
 62
4
 10
3.46855640E+02
 20
-2.95890298E+02
  0
VERTEX
  8
0
 62
4
 10
3.46692678E+02
 20
-2.95825540E+02
  0
VERTEX
  8
0
 62
4
 10
3.46524305E+02
 20
-2.95774641E+02
  0
VERTEX
  8
0
 62
4
 10
3.46351836E+02
 20
-2.95737998E+02
  0
VERTEX
  8
0
 62
4
 10
3.46176620E+02
 20
-2.95715897E+02
  0
VERTEX
  8
0
 62
4
 10
3.46000023E+02
 20
-2.95708511E+02
  0
VERTEX
  8
0
 62
4
 10
3.45823426E+02
 20
-2.95715897E+02
  0
VERTEX
  8
0
 62
4
 10
3.45648209E+02
 20
-2.95737998E+02
  0
VERTEX
  8
0
 62
4
 10
3.45475741E+02
 20
-2.95774641E+02
  0
VERTEX
  8
0
 62
4
 10
3.45307368E+02
 20
-2.95825540E+02
  0
VERTEX
  8
0
 62
4
 10
3.45144406E+02
 20
-2.95890298E+02
  0
VERTEX
  8
0
 62
4
 10
3.44988127E+02
 20
-2.95968407E+02
  0
VERTEX
  8
0
 62
4
 10
3.44839754E+02
 20
-2.96059259E+02
  0
VERTEX
  8
0
 62
4
 10
3.44700444E+02
 20
-2.96162144E+02
  0
VERTEX
  8
0
 62
4
 10
3.44571287E+02
 20
-2.96276257E+02
  0
VERTEX
  8
0
 62
4
 10
3.44453290E+02
 20
-2.96400707E+02
  0
VERTEX
  8
0
 62
4
 10
3.44347377E+02
 20
-2.96534523E+02
  0
VERTEX
  8
0
 62
4
 10
3.44254373E+02
 20
-2.96676658E+02
  0
VERTEX
  8
0
 62
4
 10
3.44175007E+02
 20
-2.96826003E+02
  0
VERTEX
  8
0
 62
4
 10
3.44109897E+02
 20
-2.96981391E+02
  0
VERTEX
  8
0
 62
4
 10
3.44059552E+02
 20
-2.97141608E+02
  0
VERTEX
  8
0
 62
4
 10
3.44024366E+02
 20
-2.97305402E+02
  0
VERTEX
  8
0
 62
4
 10
3.44004614E+02
 20
-2.97471493E+02
  0
VERTEX
  8
0
 62
4
 10
3.44000449E+02
 20
-2.97638586E+02
  0
VERTEX
  8
0
 62
4
 10
3.44011905E+02
 20
-2.97805373E+02
  0
VERTEX
  8
0
 62
4
 10
3.44038892E+02
 20
-2.97970552E+02
  0
VERTEX
  8
0
 62
4
 10
3.44081198E+02
 20
-2.98132833E+02
  0
VERTEX
  8
0
 62
4
 10
3.44138494E+02
 20
-2.98290949E+02
  0
VERTEX
  8
0
 62
4
 10
3.44210333E+02
 20
-2.98443663E+02
  0
VERTEX
  8
0
 62
4
 10
3.44296151E+02
 20
-2.98589783E+02
  0
VERTEX
  8
0
 62
4
 10
3.44395281E+02
 20
-2.98728167E+02
  0
VERTEX
  8
0
 62
4
 10
3.44506946E+02
 20
-2.98857735E+02
  0
SEQEND
  8
0
  0
LINE
  8
0
 62
4
 10
3.25793926E+02
 20
-2.87900024E+02
 11
3.23000023E+02
 21
-2.85296186E+02
  0
LINE
  8
0
 62
4
 10
3.59206120E+02
 20
-2.87900024E+02
 11
3.62000023E+02
 21
-2.85296186E+02
  0
LINE
  8
0
 62
4
 10
3.57500023E+02
 20
-2.64920758E+02
 11
3.42500023E+02
 21
-2.64920758E+02
  0
ARC
  8
0
 62
4
 10
3.24497536E+02
 20
-2.71797000E+02
 40
1.49751542E+00
 50
8.99048594E+01
 51
1.80095141E+02
  0
ARC
  8
0
 62
4
 10
3.57997540E+02
 20
-2.52952473E+02
 40
4.97523679E-01
 50
8.97141074E+01
 51
1.80285893E+02
  0
ARC
  8
0
 62
4
 10
3.66497528E+02
 20
-2.51952461E+02
 40
5.02501096E-01
 50
2.70284473E+02
 51
3.59715527E+02
  0
ARC
  8
0
 62
4
 10
3.60502510E+02
 20
-2.71797000E+02
 40
1.49751542E+00
 50
3.59904859E+02
 51
9.00951404E+01
  0
LINE
  8
0
 62
4
 10
3.23000023E+02
 20
-2.65476132E+02
 11
3.23000023E+02
 21
-2.85296186E+02
  0
LINE
  8
0
 62
4
 10
3.40500023E+02
 20
-2.66517413E+02
 11
3.40500023E+02
 21
-2.70299487E+02
  0
LINE
  8
0
 62
4
 10
3.59500023E+02
 20
-2.66517413E+02
 11
3.59500023E+02
 21
-2.70299487E+02
  0
LINE
  8
0
 62
4
 10
3.62000023E+02
 20
-2.83877908E+02
 11
3.57500023E+02
 21
-2.83877908E+02
  0
LINE
  8
0
 62
4
 10
3.62000023E+02
 20
-2.85296186E+02
 11
3.57500023E+02
 21
-2.85296186E+02
  0
LINE
  8
0
 62
4
 10
3.62000023E+02
 20
-2.65476132E+02
 11
3.62000023E+02
 21
-2.85296186E+02
  0
LINE
  8
0
 62
4
 10
3.59500023E+02
 20
-2.66517413E+02
 11
3.40500023E+02
 21
-2.66517413E+02
  0
LINE
  8
0
 62
4
 10
3.57500023E+02
 20
-2.42228312E+02
 11
3.42500023E+02
 21
-2.42228312E+02
  0
LINE
  8
0
 62
4
 10
3.42500023E+02
 20
-2.83877908E+02
 11
3.23000023E+02
 21
-2.83877908E+02
  0
LINE
  8
0
 62
4
 10
3.42500023E+02
 20
-2.85296186E+02
 11
3.23000023E+02
 21
-2.85296186E+02
  0
LINE
  8
0
 62
4
 10
3.77000023E+02
 20
-2.52560507E+02
 11
3.72000023E+02
 21
-2.52560507E+02
  0
LINE
  8
0
 62
4
 10
3.66500023E+02
 20
-2.52454956E+02
 11
3.58000023E+02
 21
-2.52454956E+02
  0
LINE
  8
0
 62
4
 10
3.70500023E+02
 20
-2.51204956E+02
 11
3.67000023E+02
 21
-2.51204956E+02
  0
LINE
  8
0
 62
4
 10
3.70500023E+02
 20
-2.39204956E+02
 11
3.70500023E+02
 21
-2.51704956E+02
  0
LINE
  8
0
 62
4
 10
3.72000023E+02
 20
-2.51704956E+02
 11
3.67000023E+02
 21
-2.51704956E+02
  0
LINE
  8
0
 62
4
 10
3.72000023E+02
 20
-2.39204956E+02
 11
3.67000023E+02
 21
-2.39204956E+02
  0
LINE
  8
0
 62
4
 10
3.67000023E+02
 20
-2.38954956E+02
 11
3.67000023E+02
 21
-2.51954956E+02
  0
LINE
  8
0
 62
4
 10
3.77000023E+02
 20
-2.51121550E+02
 11
3.72000023E+02
 21
-2.51121550E+02
  0
LINE
  8
0
 62
4
 10
3.77000023E+02
 20
-2.44030161E+02
 11
3.72000023E+02
 21
-2.44030161E+02
  0
LINE
  8
0
 62
4
 10
3.60500023E+02
 20
-2.70299487E+02
 11
3.24500023E+02
 21
-2.70299487E+02
  0
LINE
  8
0
 62
4
 10
3.70500023E+02
 20
-2.39704956E+02
 11
3.67000023E+02
 21
-2.39704956E+02
  0
LINE
  8
0
  6
CENTER
 62
6
 10
3.41000023E+02
 20
-2.98024577E+02
 11
3.59000023E+02
 21
-2.98024577E+02
  0
LINE
  8
0
  6
CENTER
 62
6
 10
3.46000023E+02
 20
-2.93034577E+02
 11
3.46000023E+02
 21
-3.03024577E+02
  0
LINE
  8
0
  6
CENTER
 62
6
 10
3.54000023E+02
 20
-2.93034577E+02
 11
3.54000023E+02
 21
-3.03024577E+02
  0
LINE
  8
0
 62
4
 10
3.42500023E+02
 20
-2.76109203E+02
 11
3.42500023E+02
 21
-3.02394634E+02
  0
LINE
  8
0
 62
4
 10
3.57500023E+02
 20
-2.76109203E+02
 11
3.57500023E+02
 21
-3.02394634E+02
  0
LINE
  8
0
 62
4
 10
3.43500023E+02
 20
-2.90990835E+02
 11
3.56500023E+02
 21
-2.90990835E+02
  0
LINE
  8
0
 62
4
 10
3.42500023E+02
 20
-3.02394634E+02
 11
3.57500023E+02
 21
-3.02394634E+02
  0
LINE
  8
0
 62
4
 10
3.42500023E+02
 20
-2.76109203E+02
 11
3.57500023E+02
 21
-2.76109203E+02
  0
LINE
  8
0
 62
4
 10
3.30860023E+02
 20
-2.66261071E+02
 11
3.30531427E+02
 21
-2.67054287E+02
  0
LINE
  8
0
 62
4
 10
3.37140023E+02
 20
-2.66261071E+02
 11
3.37500023E+02
 21
-2.67206589E+02
  0
POLYLINE
  8
0
 62
4
 66
1
  0
VERTEX
  8
0
 62
4
 10
3.30531427E+02
 20
-2.67054286E+02
  0
VERTEX
  8
0
 62
4
 10
3.30503650E+02
 20
-2.67154727E+02
  0
VERTEX
  8
0
 62
4
 10
3.30503259E+02
 20
-2.67255574E+02
  0
VERTEX
  8
0
 62
4
 10
3.30530256E+02
 20
-2.67356038E+02
  0
VERTEX
  8
0
 62
4
 10
3.30584431E+02
 20
-2.67455331E+02
  0
VERTEX
  8
0
 62
4
 10
3.30665359E+02
 20
-2.67552675E+02
  0
VERTEX
  8
0
 62
4
 10
3.30772407E+02
 20
-2.67647309E+02
  0
VERTEX
  8
0
 62
4
 10
3.30904735E+02
 20
-2.67738491E+02
  0
VERTEX
  8
0
 62
4
 10
3.31061307E+02
 20
-2.67825507E+02
  0
VERTEX
  8
0
 62
4
 10
3.31240898E+02
 20
-2.67907675E+02
  0
VERTEX
  8
0
 62
4
 10
3.31442099E+02
 20
-2.67984351E+02
  0
VERTEX
  8
0
 62
4
 10
3.31663336E+02
 20
-2.68054936E+02
  0
VERTEX
  8
0
 62
4
 10
3.31902876E+02
 20
-2.68118876E+02
  0
VERTEX
  8
0
 62
4
 10
3.32158841E+02
 20
-2.68175670E+02
  0
VERTEX
  8
0
 62
4
 10
3.32429228E+02
 20
-2.68224874E+02
  0
VERTEX
  8
0
 62
4
 10
3.32711919E+02
 20
-2.68266101E+02
  0
VERTEX
  8
0
 62
4
 10
3.33004699E+02
 20
-2.68299030E+02
  0
VERTEX
  8
0
 62
4
 10
3.33305274E+02
 20
-2.68323403E+02
  0
VERTEX
  8
0
 62
4
 10
3.33611292E+02
 20
-2.68339028E+02
  0
VERTEX
  8
0
 62
4
 10
3.33920354E+02
 20
-2.68345782E+02
  0
VERTEX
  8
0
 62
4
 10
3.34230040E+02
 20
-2.68343614E+02
  0
VERTEX
  8
0
 62
4
 10
3.34537925E+02
 20
-2.68332540E+02
  0
VERTEX
  8
0
 62
4
 10
3.34841596E+02
 20
-2.68312647E+02
  0
VERTEX
  8
0
 62
4
 10
3.35138676E+02
 20
-2.68284090E+02
  0
VERTEX
  8
0
 62
4
 10
3.35426837E+02
 20
-2.68247094E+02
  0
VERTEX
  8
0
 62
4
 10
3.35703822E+02
 20
-2.68201948E+02
  0
VERTEX
  8
0
 62
4
 10
3.35967462E+02
 20
-2.68149005E+02
  0
VERTEX
  8
0
 62
4
 10
3.36215692E+02
 20
-2.68088681E+02
  0
VERTEX
  8
0
 62
4
 10
3.36446567E+02
 20
-2.68021448E+02
  0
VERTEX
  8
0
 62
4
 10
3.36658280E+02
 20
-2.67947832E+02
  0
VERTEX
  8
0
 62
4
 10
3.36849171E+02
 20
-2.67868410E+02
  0
VERTEX
  8
0
 62
4
 10
3.37017745E+02
 20
-2.67783805E+02
  0
VERTEX
  8
0
 62
4
 10
3.37162683E+02
 20
-2.67694678E+02
  0
VERTEX
  8
0
 62
4
 10
3.37282849E+02
 20
-2.67601729E+02
  0
VERTEX
  8
0
 62
4
 10
3.37377302E+02
 20
-2.67505684E+02
  0
VERTEX
  8
0
 62
4
 10
3.37445302E+02
 20
-2.67407297E+02
  0
VERTEX
  8
0
 62
4
 10
3.37486316E+02
 20
-2.67307338E+02
  0
VERTEX
  8
0
 62
4
 10
3.37500023E+02
 20
-2.67206589E+02
  0
SEQEND
  8
0
  0
POLYLINE
  8
0
 62
4
 66
1
  0
VERTEX
  8
0
 62
4
 10
3.37140023E+02
 20
-2.66261071E+02
  0
VERTEX
  8
0
 62
4
 10
3.37128074E+02
 20
-2.66171973E+02
  0
VERTEX
  8
0
 62
4
 10
3.37092319E+02
 20
-2.66083553E+02
  0
VERTEX
  8
0
 62
4
 10
3.37033030E+02
 20
-2.65996484E+02
  0
VERTEX
  8
0
 62
4
 10
3.36950658E+02
 20
-2.65911429E+02
  0
VERTEX
  8
0
 62
4
 10
3.36845829E+02
 20
-2.65829035E+02
  0
VERTEX
  8
0
 62
4
 10
3.36719343E+02
 20
-2.65749929E+02
  0
VERTEX
  8
0
 62
4
 10
3.36572160E+02
 20
-2.65674713E+02
  0
VERTEX
  8
0
 62
4
 10
3.36405403E+02
 20
-2.65603960E+02
  0
VERTEX
  8
0
 62
4
 10
3.36220338E+02
 20
-2.65538207E+02
  0
VERTEX
  8
0
 62
4
 10
3.36018376E+02
 20
-2.65477956E+02
  0
VERTEX
  8
0
 62
4
 10
3.35801053E+02
 20
-2.65423665E+02
  0
VERTEX
  8
0
 62
4
 10
3.35570023E+02
 20
-2.65375747E+02
  0
VERTEX
  8
0
 62
4
 10
3.35327044E+02
 20
-2.65334567E+02
  0
VERTEX
  8
0
 62
4
 10
3.35073966E+02
 20
-2.65300438E+02
  0
VERTEX
  8
0
 62
4
 10
3.34812715E+02
 20
-2.65273620E+02
  0
VERTEX
  8
0
 62
4
 10
3.34545278E+02
 20
-2.65254318E+02
  0
VERTEX
  8
0
 62
4
 10
3.34273692E+02
 20
-2.65242677E+02
  0
VERTEX
  8
0
 62
4
 10
3.34000023E+02
 20
-2.65238787E+02
  0
VERTEX
  8
0
 62
4
 10
3.33726354E+02
 20
-2.65242677E+02
  0
VERTEX
  8
0
 62
4
 10
3.33454768E+02
 20
-2.65254318E+02
  0
VERTEX
  8
0
 62
4
 10
3.33187331E+02
 20
-2.65273620E+02
  0
VERTEX
  8
0
 62
4
 10
3.32926080E+02
 20
-2.65300438E+02
  0
VERTEX
  8
0
 62
4
 10
3.32673002E+02
 20
-2.65334567E+02
  0
VERTEX
  8
0
 62
4
 10
3.32430023E+02
 20
-2.65375747E+02
  0
VERTEX
  8
0
 62
4
 10
3.32198993E+02
 20
-2.65423665E+02
  0
VERTEX
  8
0
 62
4
 10
3.31981670E+02
 20
-2.65477956E+02
  0
VERTEX
  8
0
 62
4
 10
3.31779708E+02
 20
-2.65538207E+02
  0
VERTEX
  8
0
 62
4
 10
3.31594643E+02
 20
-2.65603960E+02
  0
VERTEX
  8
0
 62
4
 10
3.31427886E+02
 20
-2.65674713E+02
  0
VERTEX
  8
0
 62
4
 10
3.31280703E+02
 20
-2.65749929E+02
  0
VERTEX
  8
0
 62
4
 10
3.31154217E+02
 20
-2.65829035E+02
  0
VERTEX
  8
0
 62
4
 10
3.31049388E+02
 20
-2.65911429E+02
  0
VERTEX
  8
0
 62
4
 10
3.30967016E+02
 20
-2.65996484E+02
  0
VERTEX
  8
0
 62
4
 10
3.30907727E+02
 20
-2.66083553E+02
  0
VERTEX
  8
0
 62
4
 10
3.30871972E+02
 20
-2.66171973E+02
  0
VERTEX
  8
0
 62
4
 10
3.30860023E+02
 20
-2.66261071E+02
  0
VERTEX
  8
0
 62
4
 10
3.30871972E+02
 20
-2.66350169E+02
  0
VERTEX
  8
0
 62
4
 10
3.30907727E+02
 20
-2.66438589E+02
  0
VERTEX
  8
0
 62
4
 10
3.30967016E+02
 20
-2.66525658E+02
  0
VERTEX
  8
0
 62
4
 10
3.31049388E+02
 20
-2.66610713E+02
  0
VERTEX
  8
0
 62
4
 10
3.31154217E+02
 20
-2.66693107E+02
  0
VERTEX
  8
0
 62
4
 10
3.31280703E+02
 20
-2.66772213E+02
  0
VERTEX
  8
0
 62
4
 10
3.31427886E+02
 20
-2.66847429E+02
  0
VERTEX
  8
0
 62
4
 10
3.31594643E+02
 20
-2.66918182E+02
  0
VERTEX
  8
0
 62
4
 10
3.31779708E+02
 20
-2.66983935E+02
  0
VERTEX
  8
0
 62
4
 10
3.31981670E+02
 20
-2.67044186E+02
  0
VERTEX
  8
0
 62
4
 10
3.32198993E+02
 20
-2.67098477E+02
  0
VERTEX
  8
0
 62
4
 10
3.32430023E+02
 20
-2.67146395E+02
  0
VERTEX
  8
0
 62
4
 10
3.32673002E+02
 20
-2.67187575E+02
  0
VERTEX
  8
0
 62
4
 10
3.32926080E+02
 20
-2.67221704E+02
  0
VERTEX
  8
0
 62
4
 10
3.33187331E+02
 20
-2.67248522E+02
  0
VERTEX
  8
0
 62
4
 10
3.33454768E+02
 20
-2.67267824E+02
  0
VERTEX
  8
0
 62
4
 10
3.33726354E+02
 20
-2.67279465E+02
  0
VERTEX
  8
0
 62
4
 10
3.34000023E+02
 20
-2.67283355E+02
  0
VERTEX
  8
0
 62
4
 10
3.34273692E+02
 20
-2.67279465E+02
  0
VERTEX
  8
0
 62
4
 10
3.34545278E+02
 20
-2.67267824E+02
  0
VERTEX
  8
0
 62
4
 10
3.34812715E+02
 20
-2.67248522E+02
  0
VERTEX
  8
0
 62
4
 10
3.35073966E+02
 20
-2.67221704E+02
  0
VERTEX
  8
0
 62
4
 10
3.35327044E+02
 20
-2.67187575E+02
  0
VERTEX
  8
0
 62
4
 10
3.35570023E+02
 20
-2.67146395E+02
  0
VERTEX
  8
0
 62
4
 10
3.35801053E+02
 20
-2.67098477E+02
  0
VERTEX
  8
0
 62
4
 10
3.36018376E+02
 20
-2.67044186E+02
  0
VERTEX
  8
0
 62
4
 10
3.36220338E+02
 20
-2.66983935E+02
  0
VERTEX
  8
0
 62
4
 10
3.36405403E+02
 20
-2.66918182E+02
  0
VERTEX
  8
0
 62
4
 10
3.36572160E+02
 20
-2.66847429E+02
  0
VERTEX
  8
0
 62
4
 10
3.36719343E+02
 20
-2.66772213E+02
  0
VERTEX
  8
0
 62
4
 10
3.36845829E+02
 20
-2.66693107E+02
  0
VERTEX
  8
0
 62
4
 10
3.36950658E+02
 20
-2.66610713E+02
  0
VERTEX
  8
0
 62
4
 10
3.37033030E+02
 20
-2.66525658E+02
  0
VERTEX
  8
0
 62
4
 10
3.37092319E+02
 20
-2.66438589E+02
  0
VERTEX
  8
0
 62
4
 10
3.37128074E+02
 20
-2.66350169E+02
  0
VERTEX
  8
0
 62
4
 10
3.37140023E+02
 20
-2.66261071E+02
  0
SEQEND
  8
0
  0
LINE
  8
0
  6
CENTER
 62
6
 10
3.34000023E+02
 20
-2.63601546E+02
 11
3.34000023E+02
 21
-2.66261071E+02
  0
LINE
  8
0
 62
4
 10
3.57500023E+02
 20
-2.37344790E+02
 11
3.42500023E+02
 21
-2.37344790E+02
  0
LINE
  8
0
 62
4
 10
3.57500023E+02
 20
-2.38454956E+02
 11
3.66500023E+02
 21
-2.38454956E+02
  0
LINE
  8
0
 62
4
 10
3.77000023E+02
 20
-2.38358818E+02
 11
3.72000023E+02
 21
-2.38358818E+02
  0
LINE
  8
0
 62
2
 10
-3.92858708E+01
 20
-3.30243642E+02
 11
-7.24959380E+00
 21
-2.74755182E+02
  0
TEXT
  8
0
 62
7
 10
1.84728309E+02
 20
-5.02065574E+00
 40
9.00000000E+00
  1
(mm)
 41
1.00000000E+00
  7
MONOTXT
  0
TEXT
  8
0
 62
7
 10
1.88228309E+02
 20
-3.75206557E+01
 40
9.00000000E+00
  1
425
 41
1.00000000E+00
  7
MONOTXT
  0
TEXT
  8
0
 62
7
 10
1.52228309E+02
 20
-3.75206557E+01
 40
9.00000000E+00
  1
375
 41
1.00000000E+00
  7
MONOTXT
  0
TEXT
  8
0
 62
7
 10
1.16228309E+02
 20
-3.75206557E+01
 40
9.00000000E+00
  1
325
 41
1.00000000E+00
  7
MONOTXT
  0
TEXT
  8
0
 62
7
 10
8.02283094E+01
 20
-3.75206557E+01
 40
9.00000000E+00
  1
275
 41
1.00000000E+00
  7
MONOTXT
  0
TEXT
  8
0
 62
7
 10
4.42283094E+01
 20
-3.75206557E+01
 40
9.00000000E+00
  1
225
 41
1.00000000E+00
  7
MONOTXT
  0
TEXT
  8
0
 62
7
 10
8.22830945E+00
 20
-3.75206557E+01
 40
9.00000000E+00
  1
175
 41
1.00000000E+00
  7
MONOTXT
  0
TEXT
  8
0
 62
7
 10
-2.77716906E+01
 20
-3.75206557E+01
 40
9.00000000E+00
  1
125
 41
1.00000000E+00
  7
MONOTXT
  0
TEXT
  8
0
 62
7
 10
-5.92716906E+01
 20
-3.75206557E+01
 40
9.00000000E+00
  1
75
 41
1.00000000E+00
  7
MONOTXT
  0
TEXT
  8
0
 62
7
 10
-9.52716906E+01
 20
-3.75206557E+01
 40
9.00000000E+00
  1
25
 41
1.00000000E+00
  7
MONOTXT
  0
TEXT
  8
0
 62
7
 10
-1.26771691E+02
 20
-3.75206557E+01
 40
9.00000000E+00
  1
0
 41
1.00000000E+00
  7
MONOTXT
  0
TEXT
  8
0
 62
7
 10
-1.71771691E+02
 20
-3.75206557E+01
 40
9.00000000E+00
  1
-25
 41
1.00000000E+00
  7
MONOTXT
  0
TEXT
  8
0
 62
7
 10
1.88228309E+02
 20
-2.25206557E+01
 40
9.00000000E+00
  1
500
 41
1.00000000E+00
  7
MONOTXT
  0
TEXT
  8
0
 62
7
 10
1.52228309E+02
 20
-2.25206557E+01
 40
9.00000000E+00
  1
450
 41
1.00000000E+00
  7
MONOTXT
  0
TEXT
  8
0
 62
7
 10
1.16228309E+02
 20
-2.25206557E+01
 40
9.00000000E+00
  1
400
 41
1.00000000E+00
  7
MONOTXT
  0
TEXT
  8
0
 62
7
 10
8.02283094E+01
 20
-2.25206557E+01
 40
9.00000000E+00
  1
350
 41
1.00000000E+00
  7
MONOTXT
  0
TEXT
  8
0
 62
7
 10
4.42283094E+01
 20
-2.25206557E+01
 40
9.00000000E+00
  1
300
 41
1.00000000E+00
  7
MONOTXT
  0
TEXT
  8
0
 62
7
 10
8.22830945E+00
 20
-2.25206557E+01
 40
9.00000000E+00
  1
250
 41
1.00000000E+00
  7
MONOTXT
  0
TEXT
  8
0
 62
7
 10
-2.77716906E+01
 20
-2.25206557E+01
 40
9.00000000E+00
  1
200
 41
1.00000000E+00
  7
MONOTXT
  0
TEXT
  8
0
 62
7
 10
-6.37716906E+01
 20
-2.25206557E+01
 40
9.00000000E+00
  1
150
 41
1.00000000E+00
  7
MONOTXT
  0
TEXT
  8
0
 62
7
 10
-9.97716910E+01
 20
-2.25206557E+01
 40
9.00000000E+00
  1
100
 41
1.00000000E+00
  7
MONOTXT
  0
TEXT
  8
0
 62
7
 10
-1.31271691E+02
 20
-2.25206557E+01
 40
9.00000000E+00
  1
75
 41
1.00000000E+00
  7
MONOTXT
  0
TEXT
  8
0
 62
7
 10
-1.67271691E+02
 20
-2.25206557E+01
 40
9.00000000E+00
  1
50
 41
1.00000000E+00
  7
MONOTXT
  0
LINE
  8
0
 62
7
 10
2.18743934E+02
 20
-4.05206557E+01
 11
2.18743934E+02
 21
-1.05206557E+01
  0
LINE
  8
0
 62
7
 10
1.82743934E+02
 20
-4.05206557E+01
 11
1.82743934E+02
 21
-1.05206557E+01
  0
LINE
  8
0
 62
7
 10
1.46743934E+02
 20
-4.05206557E+01
 11
1.46743934E+02
 21
-1.05206557E+01
  0
LINE
  8
0
 62
7
 10
1.10743934E+02
 20
-4.05206557E+01
 11
1.10743934E+02
 21
-1.05206557E+01
  0
LINE
  8
0
 62
7
 10
7.47439344E+01
 20
-4.05206557E+01
 11
7.47439344E+01
 21
-1.05206557E+01
  0
LINE
  8
0
 62
7
 10
3.87439344E+01
 20
-4.05206557E+01
 11
3.87439344E+01
 21
-1.05206557E+01
  0
LINE
  8
0
 62
7
 10
2.74393445E+00
 20
-4.05206557E+01
 11
2.74393445E+00
 21
-1.05206557E+01
  0
LINE
  8
0
 62
7
 10
-3.32560656E+01
 20
-4.05206557E+01
 11
-3.32560656E+01
 21
-1.05206557E+01
  0
LINE
  8
0
 62
7
 10
-6.92560656E+01
 20
-4.05206557E+01
 11
-6.92560656E+01
 21
-1.05206557E+01
  0
LINE
  8
0
 62
7
 10
-1.05256066E+02
 20
-4.05206557E+01
 11
-1.05256066E+02
 21
-1.05206557E+01
  0
LINE
  8
0
 62
7
 10
-1.41256066E+02
 20
-4.05206557E+01
 11
-1.41256066E+02
 21
-1.05206557E+01
  0
LINE
  8
0
 62
7
 10
-2.49256066E+02
 20
-1.05206557E+01
 11
2.18743934E+02
 21
-1.05206557E+01
  0
LINE
  8
0
 62
7
 10
-2.49256066E+02
 20
-4.05206557E+01
 11
2.18743934E+02
 21
-4.05206557E+01
  0
LINE
  8
0
 62
7
 10
-2.49256066E+02
 20
-4.05206557E+01
 11
-2.49256066E+02
 21
-1.05206557E+01
  0
TEXT
  8
0
 62
7
 10
-2.38970753E+02
 20
-2.25206557E+01
 40
9.00000000E+00
  1
STROKE
 41
1.00000000E+00
  7
MONOTXT
  0
TEXT
  8
0
 62
7
 10
-2.43470753E+02
 20
-3.75206557E+01
 40
9.00000000E+00
  1
STRETCH
 41
1.00000000E+00
  7
MONOTXT
  0
LINE
  8
0
 62
7
 10
-2.49256066E+02
 20
-2.55206557E+01
 11
2.18743934E+02
 21
-2.55206557E+01
  0
LINE
  8
0
 62
7
 10
-1.77256066E+02
 20
-4.05206557E+01
 11
-1.77256066E+02
 21
-1.05206557E+01
  0
TEXT
  8
0
 62
7
 10
-6.82716906E+01
 20
-5.02065574E+00
 40
9.00000000E+00
  1
STRETCH LIST
 41
1.05263158E+00
  7
MONOTXT
  0
LINE
  8
0
 62
7
 10
-1.89957010E+01
 20
-2.95100037E+02
 11
-8.00000076E+01
 21
-2.95100037E+02
  0
LINE
  8
0
 62
7
 10
-1.48387721E+01
 20
-2.87900024E+02
 11
-8.00000076E+01
 21
-2.87900024E+02
  0
LINE
  8
0
 62
7
 10
-1.34531349E+01
 20
-2.85500031E+02
 11
-8.00000076E+01
 21
-2.85500031E+02
  0
LINE
  8
0
 62
7
 10
-4.71703455E+01
 20
-1.63899979E+02
 11
-7.99999924E+01
 21
-1.63899979E+02
  0
LINE
  8
0
 62
7
 10
-7.14999860E+01
 20
-1.05500031E+02
 11
-7.99999924E+01
 21
-1.05500031E+02
  0
LINE
  8
0
 62
7
 10
-7.14999860E+01
 20
-1.07899994E+02
 11
-7.99999924E+01
 21
-1.07899994E+02
  0
LINE
  8
0
 62
6
 10
-3.59644324E+02
 20
-2.99785708E+02
 11
-3.59500084E+02
 21
-2.99738841E+02
  0
ARC
  8
0
 62
2
 10
-3.21999992E+02
 20
-3.19500000E+02
 40
8.17999268E+00
 50
0.00000000E+00
 51
1.80000000E+02
  0
LINE
  8
0
 62
2
 10
-1.48999977E+02
 20
-3.11320007E+02
 11
-1.39999962E+02
 21
-3.11320007E+02
  0
LINE
  8
0
 62
7
 10
-1.48999977E+02
 20
-3.10500000E+02
 11
-1.39999962E+02
 21
-3.10500000E+02
  0
LINE
  8
0
 62
2
 10
-1.48999977E+02
 20
-1.47680008E+02
 11
-1.39999962E+02
 21
-1.47680008E+02
  0
LINE
  8
0
 62
7
 10
-1.48999977E+02
 20
-1.48500015E+02
 11
-1.39999962E+02
 21
-1.48500015E+02
  0
LINE
  8
0
 62
2
 10
-1.48999977E+02
 20
-1.31320023E+02
 11
-1.39999962E+02
 21
-1.31320023E+02
  0
LINE
  8
0
 62
7
 10
-1.48999977E+02
 20
-1.30500015E+02
 11
-1.39999962E+02
 21
-1.30500015E+02
  0
LINE
  8
0
 62
4
 10
-1.48999977E+02
 20
-1.26000000E+02
 11
-1.48999977E+02
 21
-1.53000000E+02
  0
LINE
  8
0
 62
4
 10
-1.59999977E+02
 20
-1.26000000E+02
 11
-1.59999977E+02
 21
-1.53000000E+02
  0
LINE
  8
0
 62
4
 10
-1.48999977E+02
 20
-1.26000000E+02
 11
-1.59999977E+02
 21
-1.26000000E+02
  0
LINE
  8
0
 62
4
 10
-1.48999977E+02
 20
-1.53000000E+02
 11
-1.59999977E+02
 21
-1.53000000E+02
  0
LINE
  8
0
 62
4
 10
-1.50205748E+02
 20
-1.39500000E+02
 11
-1.58794206E+02
 21
-1.39500000E+02
  0
ARC
  8
0
 62
4
 10
-1.40503584E+02
 20
-1.46250000E+02
 40
1.94963929E+01
 50
1.59743842E+02
 51
2.00256158E+02
  0
ARC
  8
0
 62
4
 10
-1.40503584E+02
 20
-1.32750000E+02
 40
1.94963929E+01
 50
1.59743842E+02
 51
2.00256158E+02
  0
ARC
  8
0
 62
4
 10
-1.68496370E+02
 20
-1.32750000E+02
 40
1.94963929E+01
 50
3.39743842E+02
 51
2.02561580E+01
  0
ARC
  8
0
 62
4
 10
-1.68496370E+02
 20
-1.46250000E+02
 40
1.94963929E+01
 50
3.39743842E+02
 51
2.02561580E+01
  0
LINE
  8
0
 62
4
 10
-1.58794206E+02
 20
-3.03911543E+02
 11
-1.50205748E+02
 21
-3.03911543E+02
  0
LINE
  8
0
 62
4
 10
-1.58794206E+02
 20
-3.11705771E+02
 11
-1.50205748E+02
 21
-3.11705771E+02
  0
LINE
  8
0
 62
4
 10
-1.58794206E+02
 20
-3.03911543E+02
 11
-1.59999977E+02
 21
-3.06000000E+02
  0
LINE
  8
0
 62
4
 10
-1.50205748E+02
 20
-3.03911543E+02
 11
-1.48999977E+02
 21
-3.06000000E+02
  0
ARC
  8
0
 62
4
 10
-1.53099256E+02
 20
-3.07808657E+02
 40
6.90072132E+00
 50
1.45615752E+02
 51
2.14384248E+02
  0
ARC
  8
0
 62
4
 10
-1.55900698E+02
 20
-3.07808657E+02
 40
6.90072132E+00
 50
3.25615752E+02
 51
3.43842480E+01
  0
ARC
  8
0
 62
4
 10
-1.74794205E+02
 20
-3.19500000E+02
 40
2.57942282E+01
 50
2.54444375E-13
 51
1.75879541E+01
  0
ARC
  8
0
 62
4
 10
-1.34205749E+02
 20
-3.19500000E+02
 40
2.57942282E+01
 50
1.62412046E+02
 51
1.80000000E+02
  0
LINE
  8
0
 62
4
 10
-1.59999977E+02
 20
-3.19500000E+02
 11
-1.59999977E+02
 21
-3.06000000E+02
  0
LINE
  8
0
 62
4
 10
-1.48999977E+02
 20
-3.19500000E+02
 11
-1.48999977E+02
 21
-3.06000000E+02
  0
ARC
  8
0
 62
7
 10
-3.21999992E+02
 20
-3.19500000E+02
 40
9.00000000E+00
 50
0.00000000E+00
 51
1.80000000E+02
  0
ARC
  8
0
 62
4
 10
-3.21999992E+02
 20
-3.19500000E+02
 40
1.35000000E+01
 50
0.00000000E+00
 51
1.80000000E+02
  0
LINE
  8
0
 62
4
 10
-3.21999992E+02
 20
-3.03911543E+02
 11
-3.35499992E+02
 21
-3.11705771E+02
  0
LINE
  8
0
 62
4
 10
-3.35499992E+02
 20
-3.11705771E+02
 11
-3.35499992E+02
 21
-3.19500000E+02
  0
LINE
  8
0
 62
4
 10
-3.08499992E+02
 20
-3.19500000E+02
 11
-3.08499992E+02
 21
-3.11705771E+02
  0
LINE
  8
0
 62
4
 10
-3.08499992E+02
 20
-3.11705771E+02
 11
-3.21999992E+02
 21
-3.03911543E+02
  0
POLYLINE
  8
0
 62
7
 66
1
  0
VERTEX
  8
0
 62
7
 10
-1.31642296E+02
 20
-1.34025009E+02
  0
VERTEX
  8
0
 62
7
 10
-1.31999407E+02
 20
-1.34047050E+02
  0
VERTEX
  8
0
 62
7
 10
-1.32353644E+02
 20
-1.34112994E+02
  0
VERTEX
  8
0
 62
7
 10
-1.32702153E+02
 20
-1.34222312E+02
  0
VERTEX
  8
0
 62
7
 10
-1.33042128E+02
 20
-1.34374123E+02
  0
VERTEX
  8
0
 62
7
 10
-1.33370833E+02
 20
-1.34567205E+02
  0
VERTEX
  8
0
 62
7
 10
-1.33685621E+02
 20
-1.34800003E+02
  0
VERTEX
  8
0
 62
7
 10
-1.33983957E+02
 20
-1.35070642E+02
  0
VERTEX
  8
0
 62
7
 10
-1.34263439E+02
 20
-1.35376944E+02
  0
VERTEX
  8
0
 62
7
 10
-1.34521818E+02
 20
-1.35716443E+02
  0
VERTEX
  8
0
 62
7
 10
-1.34757012E+02
 20
-1.36086405E+02
  0
VERTEX
  8
0
 62
7
 10
-1.34967129E+02
 20
-1.36483851E+02
  0
VERTEX
  8
0
 62
7
 10
-1.35150475E+02
 20
-1.36905581E+02
  0
VERTEX
  8
0
 62
7
 10
-1.35305576E+02
 20
-1.37348201E+02
  0
VERTEX
  8
0
 62
7
 10
-1.35431183E+02
 20
-1.37808145E+02
  0
VERTEX
  8
0
 62
7
 10
-1.35526283E+02
 20
-1.38281712E+02
  0
VERTEX
  8
0
 62
7
 10
-1.35590112E+02
 20
-1.38765087E+02
  0
VERTEX
  8
0
 62
7
 10
-1.35622156E+02
 20
-1.39254380E+02
  0
VERTEX
  8
0
 62
7
 10
-1.35622156E+02
 20
-1.39745650E+02
  0
VERTEX
  8
0
 62
7
 10
-1.35590112E+02
 20
-1.40234943E+02
  0
VERTEX
  8
0
 62
7
 10
-1.35526283E+02
 20
-1.40718318E+02
  0
VERTEX
  8
0
 62
7
 10
-1.35431183E+02
 20
-1.41191885E+02
  0
VERTEX
  8
0
 62
7
 10
-1.35305576E+02
 20
-1.41651829E+02
  0
VERTEX
  8
0
 62
7
 10
-1.35150475E+02
 20
-1.42094449E+02
  0
VERTEX
  8
0
 62
7
 10
-1.34967129E+02
 20
-1.42516179E+02
  0
VERTEX
  8
0
 62
7
 10
-1.34757012E+02
 20
-1.42913625E+02
  0
VERTEX
  8
0
 62
7
 10
-1.34521818E+02
 20
-1.43283587E+02
  0
VERTEX
  8
0
 62
7
 10
-1.34263439E+02
 20
-1.43623086E+02
  0
VERTEX
  8
0
 62
7
 10
-1.33983957E+02
 20
-1.43929388E+02
  0
VERTEX
  8
0
 62
7
 10
-1.33685621E+02
 20
-1.44200027E+02
  0
VERTEX
  8
0
 62
7
 10
-1.33370833E+02
 20
-1.44432825E+02
  0
VERTEX
  8
0
 62
7
 10
-1.33042128E+02
 20
-1.44625907E+02
  0
VERTEX
  8
0
 62
7
 10
-1.32702153E+02
 20
-1.44777718E+02
  0
VERTEX
  8
0
 62
7
 10
-1.32353644E+02
 20
-1.44887035E+02
  0
VERTEX
  8
0
 62
7
 10
-1.31999408E+02
 20
-1.44952980E+02
  0
VERTEX
  8
0
 62
7
 10
-1.31642296E+02
 20
-1.44975021E+02
  0
SEQEND
  8
0
  0
POLYLINE
  8
0
 62
7
 66
1
  0
VERTEX
  8
0
 62
7
 10
-1.33624822E+02
 20
-1.29286515E+02
  0
VERTEX
  8
0
 62
7
 10
-1.33918746E+02
 20
-1.29405079E+02
  0
VERTEX
  8
0
 62
7
 10
-1.34195308E+02
 20
-1.29539524E+02
  0
VERTEX
  8
0
 62
7
 10
-1.34452401E+02
 20
-1.29688825E+02
  0
VERTEX
  8
0
 62
7
 10
-1.34688062E+02
 20
-1.29851844E+02
  0
VERTEX
  8
0
 62
7
 10
-1.34900495E+02
 20
-1.30027337E+02
  0
VERTEX
  8
0
 62
7
 10
-1.35088079E+02
 20
-1.30213966E+02
  0
VERTEX
  8
0
 62
7
 10
-1.35249384E+02
 20
-1.30410307E+02
  0
VERTEX
  8
0
 62
7
 10
-1.35383180E+02
 20
-1.30614864E+02
  0
VERTEX
  8
0
 62
7
 10
-1.35488446E+02
 20
-1.30826075E+02
  0
VERTEX
  8
0
 62
7
 10
-1.35564380E+02
 20
-1.31042332E+02
  0
VERTEX
  8
0
 62
7
 10
-1.35610402E+02
 20
-1.31261983E+02
  0
VERTEX
  8
0
 62
7
 10
-1.35626162E+02
 20
-1.31483354E+02
  0
VERTEX
  8
0
 62
7
 10
-1.35611539E+02
 20
-1.31704756E+02
  0
VERTEX
  8
0
 62
7
 10
-1.35566645E+02
 20
-1.31924502E+02
  0
VERTEX
  8
0
 62
7
 10
-1.35491822E+02
 20
-1.32140915E+02
  0
VERTEX
  8
0
 62
7
 10
-1.35387640E+02
 20
-1.32352345E+02
  0
VERTEX
  8
0
 62
7
 10
-1.35254896E+02
 20
-1.32557180E+02
  0
VERTEX
  8
0
 62
7
 10
-1.35094599E+02
 20
-1.32753856E+02
  0
VERTEX
  8
0
 62
7
 10
-1.34907974E+02
 20
-1.32940875E+02
  0
VERTEX
  8
0
 62
7
 10
-1.34696444E+02
 20
-1.33116809E+02
  0
VERTEX
  8
0
 62
7
 10
-1.34461621E+02
 20
-1.33280318E+02
  0
VERTEX
  8
0
 62
7
 10
-1.34205296E+02
 20
-1.33430154E+02
  0
VERTEX
  8
0
 62
7
 10
-1.33929426E+02
 20
-1.33565174E+02
  0
VERTEX
  8
0
 62
7
 10
-1.33636112E+02
 20
-1.33684349E+02
  0
VERTEX
  8
0
 62
7
 10
-1.33327593E+02
 20
-1.33786770E+02
  0
VERTEX
  8
0
 62
7
 10
-1.33006221E+02
 20
-1.33871656E+02
  0
VERTEX
  8
0
 62
7
 10
-1.32674446E+02
 20
-1.33938359E+02
  0
VERTEX
  8
0
 62
7
 10
-1.32334801E+02
 20
-1.33986371E+02
  0
VERTEX
  8
0
 62
7
 10
-1.31989874E+02
 20
-1.34015325E+02
  0
VERTEX
  8
0
 62
7
 10
-1.31642296E+02
 20
-1.34025001E+02
  0
SEQEND
  8
0
  0
POLYLINE
  8
0
 62
7
 66
1
  0
VERTEX
  8
0
 62
7
 10
-1.31642296E+02
 20
-1.44975029E+02
  0
VERTEX
  8
0
 62
7
 10
-1.31989874E+02
 20
-1.44984705E+02
  0
VERTEX
  8
0
 62
7
 10
-1.32334801E+02
 20
-1.45013659E+02
  0
VERTEX
  8
0
 62
7
 10
-1.32674447E+02
 20
-1.45061671E+02
  0
VERTEX
  8
0
 62
7
 10
-1.33006221E+02
 20
-1.45128374E+02
  0
VERTEX
  8
0
 62
7
 10
-1.33327593E+02
 20
-1.45213260E+02
  0
VERTEX
  8
0
 62
7
 10
-1.33636112E+02
 20
-1.45315681E+02
  0
VERTEX
  8
0
 62
7
 10
-1.33929426E+02
 20
-1.45434856E+02
  0
VERTEX
  8
0
 62
7
 10
-1.34205296E+02
 20
-1.45569876E+02
  0
VERTEX
  8
0
 62
7
 10
-1.34461621E+02
 20
-1.45719712E+02
  0
VERTEX
  8
0
 62
7
 10
-1.34696444E+02
 20
-1.45883221E+02
  0
VERTEX
  8
0
 62
7
 10
-1.34907974E+02
 20
-1.46059155E+02
  0
VERTEX
  8
0
 62
7
 10
-1.35094599E+02
 20
-1.46246174E+02
  0
VERTEX
  8
0
 62
7
 10
-1.35254896E+02
 20
-1.46442850E+02
  0
VERTEX
  8
0
 62
7
 10
-1.35387640E+02
 20
-1.46647685E+02
  0
VERTEX
  8
0
 62
7
 10
-1.35491822E+02
 20
-1.46859115E+02
  0
VERTEX
  8
0
 62
7
 10
-1.35566645E+02
 20
-1.47075528E+02
  0
VERTEX
  8
0
 62
7
 10
-1.35611539E+02
 20
-1.47295274E+02
  0
VERTEX
  8
0
 62
7
 10
-1.35626162E+02
 20
-1.47516676E+02
  0
VERTEX
  8
0
 62
7
 10
-1.35610402E+02
 20
-1.47738047E+02
  0
VERTEX
  8
0
 62
7
 10
-1.35564380E+02
 20
-1.47957698E+02
  0
VERTEX
  8
0
 62
7
 10
-1.35488446E+02
 20
-1.48173955E+02
  0
VERTEX
  8
0
 62
7
 10
-1.35383180E+02
 20
-1.48385166E+02
  0
VERTEX
  8
0
 62
7
 10
-1.35249384E+02
 20
-1.48589723E+02
  0
VERTEX
  8
0
 62
7
 10
-1.35088079E+02
 20
-1.48786064E+02
  0
VERTEX
  8
0
 62
7
 10
-1.34900495E+02
 20
-1.48972693E+02
  0
VERTEX
  8
0
 62
7
 10
-1.34688062E+02
 20
-1.49148186E+02
  0
VERTEX
  8
0
 62
7
 10
-1.34452401E+02
 20
-1.49311205E+02
  0
VERTEX
  8
0
 62
7
 10
-1.34195308E+02
 20
-1.49460506E+02
  0
VERTEX
  8
0
 62
7
 10
-1.33918746E+02
 20
-1.49594951E+02
  0
VERTEX
  8
0
 62
7
 10
-1.33624822E+02
 20
-1.49713515E+02
  0
SEQEND
  8
0
  0
POLYLINE
  8
0
 62
7
 66
1
  0
VERTEX
  8
0
 62
7
 10
-1.31642311E+02
 20
-3.10000000E+02
  0
VERTEX
  8
0
 62
7
 10
-1.31999421E+02
 20
-3.10019122E+02
  0
VERTEX
  8
0
 62
7
 10
-1.32353656E+02
 20
-3.10076334E+02
  0
VERTEX
  8
0
 62
7
 10
-1.32702164E+02
 20
-3.10171176E+02
  0
VERTEX
  8
0
 62
7
 10
-1.33042138E+02
 20
-3.10302884E+02
  0
VERTEX
  8
0
 62
7
 10
-1.33370841E+02
 20
-3.10470398E+02
  0
VERTEX
  8
0
 62
7
 10
-1.33685628E+02
 20
-3.10672368E+02
  0
VERTEX
  8
0
 62
7
 10
-1.33983963E+02
 20
-3.10907169E+02
  0
VERTEX
  8
0
 62
7
 10
-1.34263444E+02
 20
-3.11172911E+02
  0
VERTEX
  8
0
 62
7
 10
-1.34521822E+02
 20
-3.11467452E+02
  0
VERTEX
  8
0
 62
7
 10
-1.34757015E+02
 20
-3.11788423E+02
  0
VERTEX
  8
0
 62
7
 10
-1.34967131E+02
 20
-3.12133239E+02
  0
VERTEX
  8
0
 62
7
 10
-1.35150477E+02
 20
-3.12499124E+02
  0
VERTEX
  8
0
 62
7
 10
-1.35305577E+02
 20
-3.12883131E+02
  0
VERTEX
  8
0
 62
7
 10
-1.35431183E+02
 20
-3.13282169E+02
  0
VERTEX
  8
0
 62
7
 10
-1.35526284E+02
 20
-3.13693026E+02
  0
VERTEX
  8
0
 62
7
 10
-1.35590112E+02
 20
-3.14112392E+02
  0
VERTEX
  8
0
 62
7
 10
-1.35622156E+02
 20
-3.14536892E+02
  0
VERTEX
  8
0
 62
7
 10
-1.35622156E+02
 20
-3.14963108E+02
  0
VERTEX
  8
0
 62
7
 10
-1.35590112E+02
 20
-3.15387608E+02
  0
VERTEX
  8
0
 62
7
 10
-1.35526284E+02
 20
-3.15806974E+02
  0
VERTEX
  8
0
 62
7
 10
-1.35431183E+02
 20
-3.16217831E+02
  0
VERTEX
  8
0
 62
7
 10
-1.35305577E+02
 20
-3.16616869E+02
  0
VERTEX
  8
0
 62
7
 10
-1.35150477E+02
 20
-3.17000876E+02
  0
VERTEX
  8
0
 62
7
 10
-1.34967131E+02
 20
-3.17366761E+02
  0
VERTEX
  8
0
 62
7
 10
-1.34757015E+02
 20
-3.17711577E+02
  0
VERTEX
  8
0
 62
7
 10
-1.34521822E+02
 20
-3.18032548E+02
  0
VERTEX
  8
0
 62
7
 10
-1.34263444E+02
 20
-3.18327089E+02
  0
VERTEX
  8
0
 62
7
 10
-1.33983963E+02
 20
-3.18592831E+02
  0
VERTEX
  8
0
 62
7
 10
-1.33685628E+02
 20
-3.18827632E+02
  0
VERTEX
  8
0
 62
7
 10
-1.33370841E+02
 20
-3.19029602E+02
  0
VERTEX
  8
0
 62
7
 10
-1.33042138E+02
 20
-3.19197116E+02
  0
VERTEX
  8
0
 62
7
 10
-1.32702164E+02
 20
-3.19328824E+02
  0
VERTEX
  8
0
 62
7
 10
-1.32353656E+02
 20
-3.19423666E+02
  0
VERTEX
  8
0
 62
7
 10
-1.31999421E+02
 20
-3.19480878E+02
  0
VERTEX
  8
0
 62
7
 10
-1.31642311E+02
 20
-3.19500000E+02
  0
SEQEND
  8
0
  0
CIRCLE
  8
0
 62
7
 10
9.99999409E+01
 20
-2.91499939E+02
 40
3.32000017E+00
  0
CIRCLE
  8
0
 62
7
 10
1.56000076E+02
 20
-2.91499939E+02
 40
3.32000017E+00
  0
CIRCLE
  8
0
 62
2
 10
1.56000076E+02
 20
-2.91499939E+02
 40
4.00000000E+00
  0
ARC
  8
0
 62
7
 10
1.28000008E+02
 20
-3.19500000E+02
 40
1.90000000E+01
 50
0.00000000E+00
 51
1.80000000E+02
  0
ARC
  8
0
 62
7
 10
1.61500072E+02
 20
-3.06499924E+02
 40
1.00000000E+00
 50
3.59999995E+02
 51
8.99982676E+01
  0
ARC
  8
0
 62
7
 10
1.61500149E+02
 20
-3.01999939E+02
 40
3.50000000E+00
 50
1.79999995E+02
 51
2.69999000E+02
  0
ARC
  8
0
 62
7
 10
1.57022224E+02
 20
-3.00944809E+02
 40
1.00000000E+00
 50
5.67452970E+00
 51
9.61763105E+01
  0
ARC
  8
0
 62
7
 10
1.56000076E+02
 20
-2.91499969E+02
 40
8.50000000E+00
 50
1.73823329E+02
 51
2.76176459E+02
  0
ARC
  8
0
 62
7
 10
1.41000076E+02
 20
-2.85999985E+02
 40
1.00000000E+00
 50
1.72985911E-03
 51
9.00000162E+01
  0
ARC
  8
0
 62
7
 10
1.45500084E+02
 20
-2.85999878E+02
 40
3.50000000E+00
 50
1.80001006E+02
 51
2.69999984E+02
  0
ARC
  8
0
 62
7
 10
1.46555191E+02
 20
-2.90477829E+02
 40
1.00000000E+00
 50
3.53823687E+02
 51
8.43254881E+01
  0
ARC
  8
0
 62
7
 10
9.45000249E+01
 20
-3.06499924E+02
 40
1.00000000E+00
 50
9.00017511E+01
 51
1.80000019E+02
  0
ARC
  8
0
 62
7
 10
9.89778690E+01
 20
-3.00944809E+02
 40
1.00000000E+00
 50
8.38236945E+01
 51
1.74325484E+02
  0
ARC
  8
0
 62
7
 10
9.44998723E+01
 20
-3.01999939E+02
 40
3.50000000E+00
 50
2.70000995E+02
 51
1.86693353E-05
  0
ARC
  8
0
 62
7
 10
1.09444826E+02
 20
-2.90477829E+02
 40
1.00000000E+00
 50
9.56743599E+01
 51
1.86177214E+02
  0
ARC
  8
0
 62
7
 10
1.14999903E+02
 20
-2.85999985E+02
 40
1.00000000E+00
 50
9.00000437E+01
 51
1.79998229E+02
  0
ARC
  8
0
 62
7
 10
1.10499895E+02
 20
-2.85999847E+02
 40
3.50000000E+00
 50
2.69999984E+02
 51
3.59998489E+02
  0
CIRCLE
  8
0
 62
7
 10
9.99999409E+01
 20
-2.91499969E+02
 40
6.00000000E+00
  0
ARC
  8
0
 62
7
 10
9.45000249E+01
 20
-2.85999985E+02
 40
4.00000000E+00
 50
9.00000162E+01
 51
1.80000005E+02
  0
ARC
  8
0
 62
7
 10
1.08100298E+02
 20
-3.17500008E+02
 40
1.00000000E+00
 50
2.70000038E+02
 51
3.54260543E+02
  0
ARC
  8
0
 62
7
 10
9.45000249E+01
 20
-3.17500008E+02
 40
1.00000000E+00
 50
1.79999995E+02
 51
2.70000038E+02
  0
ARC
  8
0
 62
7
 10
9.45000249E+01
 20
-2.85999985E+02
 40
3.50000000E+00
 50
9.00000162E+01
 51
1.80000005E+02
  0
ARC
  8
0
 62
7
 10
1.05152719E+02
 20
-2.99481110E+02
 40
1.00000000E+00
 50
4.50000423E+01
 51
1.22846758E+02
  0
ARC
  8
0
 62
7
 10
1.07981165E+02
 20
-2.96652695E+02
 40
1.00000000E+00
 50
1.47153844E+02
 51
2.25000010E+02
  0
ARC
  8
0
 62
7
 10
1.15342958E+02
 20
-3.04014526E+02
 40
1.00000000E+00
 50
2.25000000E+02
 51
3.09261001E+02
  0
ARC
  8
0
 62
7
 10
1.12514551E+02
 20
-3.06842941E+02
 40
1.00000000E+00
 50
3.20739045E+02
 51
4.50000423E+01
  0
CIRCLE
  8
0
 62
7
 10
9.99999409E+01
 20
-2.91499969E+02
 40
6.50000048E+00
  0
CIRCLE
  8
0
 62
7
 10
1.56000076E+02
 20
-2.91499939E+02
 40
6.00000000E+00
  0
CIRCLE
  8
0
 62
2
 10
9.99999409E+01
 20
-2.91499939E+02
 40
4.00000000E+00
  0
ARC
  8
0
 62
7
 10
1.61500072E+02
 20
-2.86000000E+02
 40
4.00000000E+00
 50
2.23117997E-05
 51
8.99999750E+01
  0
ARC
  8
0
 62
7
 10
1.47899796E+02
 20
-3.17500000E+02
 40
1.00000000E+00
 50
1.85739444E+02
 51
2.69999956E+02
  0
ARC
  8
0
 62
7
 10
1.61500034E+02
 20
-3.17500000E+02
 40
1.00000000E+00
 50
2.69999956E+02
 51
3.59999992E+02
  0
ARC
  8
0
 62
7
 10
1.26000000E+02
 20
-2.85999985E+02
 40
1.00000000E+00
 50
3.59721781E-05
 51
9.00000162E+01
  0
ARC
  8
0
 62
7
 10
1.26000000E+02
 20
-2.99600250E+02
 40
1.00000000E+00
 50
2.75739515E+02
 51
3.59721781E-05
  0
ARC
  8
0
 62
7
 10
1.30000015E+02
 20
-2.86000000E+02
 40
1.00000000E+00
 50
9.00000025E+01
 51
1.80000046E+02
  0
ARC
  8
0
 62
7
 10
1.61500072E+02
 20
-2.86000000E+02
 40
3.50000000E+00
 50
2.23117997E-05
 51
8.99999750E+01
  0
ARC
  8
0
 62
7
 10
9.99999409E+01
 20
-2.91499969E+02
 40
8.50000000E+00
 50
2.63823540E+02
 51
6.17668522E+00
  0
ARC
  8
0
 62
7
 10
1.30000015E+02
 20
-2.99600250E+02
 40
1.00000000E+00
 50
1.80000036E+02
 51
2.64260549E+02
  0
ARC
  8
0
 62
7
 10
1.40657059E+02
 20
-3.04014542E+02
 40
1.00000000E+00
 50
2.30739011E+02
 51
3.15000026E+02
  0
ARC
  8
0
 62
7
 10
1.43485504E+02
 20
-3.06842972E+02
 40
1.00000000E+00
 50
1.35000014E+02
 51
2.19261011E+02
  0
ARC
  8
0
 62
7
 10
1.48018890E+02
 20
-2.96652710E+02
 40
1.00000000E+00
 50
3.15000047E+02
 51
3.28467588E+01
  0
ARC
  8
0
 62
7
 10
1.50847298E+02
 20
-2.99481140E+02
 40
1.00000000E+00
 50
5.71538311E+01
 51
1.35000014E+02
  0
CIRCLE
  8
0
 62
7
 10
1.56000076E+02
 20
-2.91499939E+02
 40
6.50000048E+00
  0
CIRCLE
  8
0
 62
7
 10
-8.70000381E+01
 20
-1.51500000E+02
 40
2.59999990E+00
  0
ARC
  8
0
 62
7
 10
-1.21750008E+02
 20
-3.02491440E+02
 40
2.50000000E-01
 50
9.19988230E+01
 51
1.79999977E+02
  0
ARC
  8
0
 62
7
 10
-1.11500008E+02
 20
-2.83049927E+02
 40
5.00000000E-01
 50
9.10002768E+01
 51
1.80000019E+02
  0
ARC
  8
0
 62
7
 10
-1.26500008E+02
 20
-3.03000015E+02
 40
5.00000000E-01
 50
8.99999818E+01
 51
1.79999964E+02
  0
ARC
  8
0
 62
7
 10
-1.13499992E+02
 20
-3.01000000E+02
 40
5.00000000E-01
 50
8.99999818E+01
 51
1.79999964E+02
  0
CIRCLE
  8
0
 62
7
 10
-2.93999931E+02
 20
-2.91499939E+02
 40
3.32000017E+00
  0
CIRCLE
  8
0
 62
7
 10
-3.50000084E+02
 20
-2.91499939E+02
 40
3.32000017E+00
  0
CIRCLE
  8
0
 62
2
 10
-2.93999931E+02
 20
-2.91499939E+02
 40
4.00000000E+00
  0
CIRCLE
  8
0
 62
2
 10
-3.50000084E+02
 20
-2.91499939E+02
 40
4.00000000E+00
  0
CIRCLE
  8
0
 62
7
 10
-8.70000381E+01
 20
-1.51500000E+02
 40
5.00000000E+00
  0
CIRCLE
  8
0
 62
2
 10
-9.40000687E+01
 20
-1.31500000E+02
 40
8.32999992E+00
  0
ARC
  8
0
 62
7
 10
-3.21999992E+02
 20
-3.19500000E+02
 40
1.90000000E+01
 50
0.00000000E+00
 51
1.80000000E+02
  0
ARC
  8
0
 62
7
 10
-3.21999992E+02
 20
-3.19500000E+02
 40
1.75294495E+01
 50
0.00000000E+00
 51
1.80000000E+02
  0
ARC
  8
0
 62
7
 10
-3.55500053E+02
 20
-3.06499924E+02
 40
1.00000000E+00
 50
9.00017305E+01
 51
1.80000005E+02
  0
ARC
  8
0
 62
7
 10
-3.55500145E+02
 20
-3.01999939E+02
 40
3.50000000E+00
 50
2.70001002E+02
 51
0.00000000E+00
  0
ARC
  8
0
 62
7
 10
-3.51022209E+02
 20
-3.00944809E+02
 40
1.00000000E+00
 50
8.38236876E+01
 51
1.74325470E+02
  0
ARC
  8
0
 62
7
 10
-3.50000084E+02
 20
-2.91499969E+02
 40
8.50000000E+00
 50
2.63823553E+02
 51
6.17667669E+00
  0
ARC
  8
0
 62
7
 10
-3.35000084E+02
 20
-2.85999985E+02
 40
1.00000000E+00
 50
8.99999818E+01
 51
1.79998270E+02
  0
ARC
  8
0
 62
7
 10
-3.39500084E+02
 20
-2.85999878E+02
 40
3.50000000E+00
 50
2.70000018E+02
 51
3.59999001E+02
  0
ARC
  8
0
 62
7
 10
-3.40555199E+02
 20
-2.90477829E+02
 40
1.00000000E+00
 50
9.56745100E+01
 51
1.86176313E+02
  0
ARC
  8
0
 62
7
 10
-2.88500023E+02
 20
-3.06499924E+02
 40
1.00000000E+00
 50
3.59999986E+02
 51
8.99982469E+01
  0
ARC
  8
0
 62
7
 10
-2.92977867E+02
 20
-3.00944809E+02
 40
1.00000000E+00
 50
5.67452116E+00
 51
9.61763036E+01
  0
ARC
  8
0
 62
7
 10
-2.88499870E+02
 20
-3.01999939E+02
 40
3.50000000E+00
 50
1.79999977E+02
 51
2.69999017E+02
  0
ARC
  8
0
 62
7
 10
-3.03444817E+02
 20
-2.90477829E+02
 40
1.00000000E+00
 50
3.53822790E+02
 51
8.43256382E+01
  0
ARC
  8
0
 62
7
 10
-3.08999901E+02
 20
-2.85999985E+02
 40
1.00000000E+00
 50
1.77584919E-03
 51
8.99999549E+01
  0
ARC
  8
0
 62
7
 10
-3.04499901E+02
 20
-2.85999847E+02
 40
3.50000000E+00
 50
1.80001511E+02
 51
2.70000018E+02
  0
CIRCLE
  8
0
 62
7
 10
-2.93999931E+02
 20
-2.91499969E+02
 40
6.00000000E+00
  0
ARC
  8
0
 62
7
 10
-2.88500023E+02
 20
-2.85999985E+02
 40
4.00000000E+00
 50
0.00000000E+00
 51
8.99999818E+01
  0
ARC
  8
0
 62
7
 10
-3.02100304E+02
 20
-3.17500008E+02
 40
1.00000000E+00
 50
1.85739458E+02
 51
2.69999963E+02
  0
ARC
  8
0
 62
7
 10
-2.88500023E+02
 20
-3.17500008E+02
 40
1.00000000E+00
 50
2.69999963E+02
 51
0.00000000E+00
  0
ARC
  8
0
 62
7
 10
-2.88500023E+02
 20
-2.85999985E+02
 40
3.50000000E+00
 50
0.00000000E+00
 51
8.99999818E+01
  0
ARC
  8
0
 62
7
 10
-2.99152702E+02
 20
-2.99481110E+02
 40
1.00000000E+00
 50
5.71532472E+01
 51
1.34999959E+02
  0
ARC
  8
0
 62
7
 10
-3.01981163E+02
 20
-2.96652695E+02
 40
1.00000000E+00
 50
3.14999995E+02
 51
3.28461612E+01
  0
ARC
  8
0
 62
7
 10
-3.09342949E+02
 20
-3.04014526E+02
 40
1.00000000E+00
 50
2.30738998E+02
 51
3.14999995E+02
  0
ARC
  8
0
 62
7
 10
-3.06514549E+02
 20
-3.06842941E+02
 40
1.00000000E+00
 50
1.34999959E+02
 51
2.19260957E+02
  0
CIRCLE
  8
0
 62
7
 10
-2.93999931E+02
 20
-2.91499969E+02
 40
6.50000048E+00
  0
ARC
  8
0
 62
7
 10
-1.05999992E+02
 20
-1.62500031E+02
 40
2.00000000E+00
 50
1.79999977E+02
 51
2.70000028E+02
  0
ARC
  8
0
 62
7
 10
-1.05999992E+02
 20
-1.16500000E+02
 40
2.00000000E+00
 50
8.99999818E+01
 51
1.79999964E+02
  0
CIRCLE
  8
0
 62
7
 10
-9.40000687E+01
 20
-1.31500000E+02
 40
7.44000006E+00
  0
CIRCLE
  8
0
 62
7
 10
-9.40000687E+01
 20
-1.31500000E+02
 40
8.71000004E+00
  0
ARC
  8
0
 62
7
 10
-1.13499992E+02
 20
-1.21000015E+02
 40
5.00000000E-01
 50
8.99999818E+01
 51
1.79999964E+02
  0
ARC
  8
0
 62
7
 10
-1.11500008E+02
 20
-1.03049927E+02
 40
5.00000000E-01
 50
9.10002223E+01
 51
1.79999964E+02
  0
ARC
  8
0
 62
7
 10
-1.21750008E+02
 20
-1.22491486E+02
 40
2.50000000E-01
 50
9.19988230E+01
 51
1.79999977E+02
  0
ARC
  8
0
 62
7
 10
-1.26500008E+02
 20
-1.23000061E+02
 40
5.00000000E-01
 50
8.99999818E+01
 51
1.79999964E+02
  0
ARC
  8
0
 62
7
 10
-1.13499992E+02
 20
-1.58000015E+02
 40
5.00000000E-01
 50
1.79999977E+02
 51
2.69999974E+02
  0
ARC
  8
0
 62
7
 10
-1.11500008E+02
 20
-1.75950073E+02
 40
5.00000000E-01
 50
1.79999977E+02
 51
2.68999706E+02
  0
ARC
  8
0
 62
7
 10
-1.21750008E+02
 20
-1.56508545E+02
 40
2.50000000E-01
 50
1.79999977E+02
 51
2.68001132E+02
  0
ARC
  8
0
 62
7
 10
-1.26500008E+02
 20
-1.55999969E+02
 40
5.00000000E-01
 50
1.79999977E+02
 51
2.69999974E+02
  0
CIRCLE
  8
0
 62
7
 10
-3.50000084E+02
 20
-2.91499939E+02
 40
6.00000000E+00
  0
ARC
  8
0
 62
7
 10
-3.55500053E+02
 20
-2.86000000E+02
 40
4.00000000E+00
 50
9.00000231E+01
 51
1.79999977E+02
  0
ARC
  8
0
 62
7
 10
-3.41899803E+02
 20
-3.17500000E+02
 40
1.00000000E+00
 50
2.70000045E+02
 51
3.54260551E+02
  0
ARC
  8
0
 62
7
 10
-3.55500023E+02
 20
-3.17500000E+02
 40
1.00000000E+00
 50
1.80000008E+02
 51
2.70000045E+02
  0
ARC
  8
0
 62
7
 10
-3.19999992E+02
 20
-2.85999985E+02
 40
1.00000000E+00
 50
8.99999818E+01
 51
1.79999964E+02
  0
ARC
  8
0
 62
7
 10
-3.19999992E+02
 20
-2.99600250E+02
 40
1.00000000E+00
 50
1.79999964E+02
 51
2.64260484E+02
  0
ARC
  8
0
 62
7
 10
-3.24000023E+02
 20
-2.86000000E+02
 40
1.00000000E+00
 50
3.59999959E+02
 51
8.99999956E+01
  0
ARC
  8
0
 62
7
 10
-3.55500053E+02
 20
-2.86000000E+02
 40
3.50000000E+00
 50
9.00000231E+01
 51
1.79999977E+02
  0
ARC
  8
0
 62
7
 10
-2.93999931E+02
 20
-2.91499969E+02
 40
8.50000000E+00
 50
1.73823315E+02
 51
2.76176459E+02
  0
ARC
  8
0
 62
7
 10
-3.24000023E+02
 20
-2.99600250E+02
 40
1.00000000E+00
 50
2.75739453E+02
 51
3.59999959E+02
  0
ARC
  8
0
 62
7
 10
-3.34657066E+02
 20
-3.04014542E+02
 40
1.00000000E+00
 50
2.24999972E+02
 51
3.09260983E+02
  0
ARC
  8
0
 62
7
 10
-3.37485497E+02
 20
-3.06842972E+02
 40
1.00000000E+00
 50
3.20738994E+02
 51
4.49999910E+01
  0
ARC
  8
0
 62
7
 10
-3.42018883E+02
 20
-2.96652710E+02
 40
1.00000000E+00
 50
1.47153243E+02
 51
2.24999955E+02
  0
ARC
  8
0
 62
7
 10
-3.44847282E+02
 20
-2.99481140E+02
 40
1.00000000E+00
 50
4.49999910E+01
 51
1.22846171E+02
  0
CIRCLE
  8
0
 62
7
 10
-3.50000084E+02
 20
-2.91499939E+02
 40
6.50000048E+00
  0
LINE
  8
0
 62
7
 10
-1.39999962E+02
 20
-1.47680008E+02
 11
-1.36999962E+02
 21
-1.47680008E+02
  0
LINE
  8
0
 62
7
 10
-1.39999962E+02
 20
-1.31320023E+02
 11
-1.36999962E+02
 21
-1.31320023E+02
  0
LINE
  8
0
 62
7
 10
-1.39999962E+02
 20
-3.11320007E+02
 11
-1.36999962E+02
 21
-3.11320007E+02
  0
LINE
  8
0
 62
7
 10
-1.36999935E+02
 20
-3.10500034E+02
 11
-1.35626113E+02
 21
-3.10000004E+02
  0
LINE
  8
0
 62
7
 10
-1.36999944E+02
 20
-1.30500034E+02
 11
-1.31642294E+02
 21
-1.28550009E+02
  0
LINE
  8
0
 62
7
 10
-1.68999899E+02
 20
-3.12000138E+02
 11
-1.67499853E+02
 21
-3.10500138E+02
  0
LINE
  8
0
 62
2
 10
-1.68319923E+02
 20
-3.11320007E+02
 11
-1.59999977E+02
 21
-3.11320007E+02
  0
LINE
  8
0
 62
7
 10
-1.67499916E+02
 20
-3.10500000E+02
 11
-1.59999977E+02
 21
-3.10500000E+02
  0
LINE
  8
0
 62
7
 10
-1.39999962E+02
 20
-1.48500015E+02
 11
-1.39999962E+02
 21
-1.30500015E+02
  0
LINE
  8
0
 62
7
 10
-1.31642326E+02
 20
-1.28550003E+02
 11
-1.26999992E+02
 21
-1.28550003E+02
  0
LINE
  8
0
 62
7
 10
-1.31642311E+02
 20
-3.19500000E+02
 11
-1.26999992E+02
 21
-3.19500000E+02
  0
LINE
  8
0
 62
7
 10
-1.36999973E+02
 20
-1.48500001E+02
 11
-1.31642309E+02
 21
-1.50450032E+02
  0
LINE
  8
0
 62
7
 10
-1.67499977E+02
 20
-3.19500000E+02
 11
-1.67499977E+02
 21
-3.10500000E+02
  0
LINE
  8
0
 62
7
 10
-1.68999977E+02
 20
-3.19500000E+02
 11
-1.68999977E+02
 21
-3.12000153E+02
  0
LINE
  8
0
 62
7
 10
-1.39999962E+02
 20
-3.19500000E+02
 11
-1.39999962E+02
 21
-3.10500000E+02
  0
LINE
  8
0
 62
7
 10
-1.31642296E+02
 20
-1.34025009E+02
 11
-1.26999992E+02
 21
-1.34025009E+02
  0
LINE
  8
0
 62
7
 10
-1.31642296E+02
 20
-1.44975021E+02
 11
-1.26999992E+02
 21
-1.44975021E+02
  0
LINE
  8
0
 62
7
 10
-1.68999984E+02
 20
-1.46999949E+02
 11
-1.67499949E+02
 21
-1.48499939E+02
  0
LINE
  8
0
 62
2
 10
-1.68319923E+02
 20
-1.47680008E+02
 11
-1.59999977E+02
 21
-1.47680008E+02
  0
LINE
  8
0
 62
7
 10
-1.67499916E+02
 20
-1.48500015E+02
 11
-1.59999977E+02
 21
-1.48500015E+02
  0
LINE
  8
0
 62
7
 10
-1.68999907E+02
 20
-1.32000167E+02
 11
-1.67499861E+02
 21
-1.30500167E+02
  0
LINE
  8
0
 62
2
 10
-1.68319923E+02
 20
-1.31320023E+02
 11
-1.59999977E+02
 21
-1.31320023E+02
  0
LINE
  8
0
 62
7
 10
-1.67499916E+02
 20
-1.30500015E+02
 11
-1.59999977E+02
 21
-1.30500015E+02
  0
LINE
  8
0
 62
7
 10
-1.67499977E+02
 20
-1.48500015E+02
 11
-1.67499977E+02
 21
-1.30500015E+02
  0
LINE
  8
0
 62
7
 10
-1.68999977E+02
 20
-1.46999985E+02
 11
-1.68999977E+02
 21
-1.32000168E+02
  0
LINE
  8
0
 62
7
 10
-1.31642311E+02
 20
-1.50450027E+02
 11
-1.26999992E+02
 21
-1.50450027E+02
  0
LINE
  8
0
 62
7
 10
-1.35626167E+02
 20
-3.10000000E+02
 11
-1.26999992E+02
 21
-3.10000000E+02
  0
LINE
  8
0
 62
7
 10
-1.36999962E+02
 20
-1.48500000E+02
 11
-1.36999962E+02
 21
-1.30500015E+02
  0
LINE
  8
0
 62
7
 10
-1.36999962E+02
 20
-3.10500000E+02
 11
-1.36999962E+02
 21
-3.19500000E+02
  0
LINE
  8
0
 62
7
 10
9.99999413E+01
 20
-2.86881125E+02
 11
1.03999944E+02
 21
-2.89190527E+02
  0
LINE
  8
0
 62
7
 10
1.03999941E+02
 20
-2.89190536E+02
 11
1.03999941E+02
 21
-2.93809326E+02
  0
LINE
  8
0
 62
7
 10
1.03999937E+02
 20
-2.93809332E+02
 11
9.99999348E+01
 21
-2.96118734E+02
  0
LINE
  8
0
 62
7
 10
9.99999398E+01
 20
-2.96118737E+02
 11
9.59999375E+01
 21
-2.93809335E+02
  0
LINE
  8
0
 62
7
 10
9.59999409E+01
 20
-2.89190536E+02
 11
9.59999409E+01
 21
-2.93809326E+02
  0
LINE
  8
0
 62
7
 10
9.99999410E+01
 20
-2.86881136E+02
 11
9.59999387E+01
 21
-2.89190538E+02
  0
LINE
  8
0
 62
7
 10
1.56000077E+02
 20
-2.86881134E+02
 11
1.60000076E+02
 21
-2.89190534E+02
  0
LINE
  8
0
 62
7
 10
1.60000080E+02
 20
-2.89190536E+02
 11
1.60000080E+02
 21
-2.93809326E+02
  0
LINE
  8
0
 62
7
 10
1.60000075E+02
 20
-2.93809331E+02
 11
1.56000073E+02
 21
-2.96118733E+02
  0
LINE
  8
0
 62
7
 10
1.56000076E+02
 20
-2.96118738E+02
 11
1.52000077E+02
 21
-2.93809337E+02
  0
LINE
  8
0
 62
7
 10
1.52000076E+02
 20
-2.89190536E+02
 11
1.52000076E+02
 21
-2.93809326E+02
  0
LINE
  8
0
 62
7
 10
1.56000075E+02
 20
-2.86881128E+02
 11
1.52000073E+02
 21
-2.89190530E+02
  0
LINE
  8
0
  6
CENTER
 62
2
 10
1.10630548E+02
 20
-2.91499939E+02
 11
8.80975895E+01
 21
-2.91499939E+02
  0
LINE
  8
0
 62
7
 10
9.79998188E+01
 20
-3.01999939E+02
 11
9.79998188E+01
 21
-3.00736206E+02
  0
LINE
  8
0
 62
7
 10
1.10499895E+02
 20
-2.89499756E+02
 11
1.09236467E+02
 21
-2.89499756E+02
  0
LINE
  8
0
 62
7
 10
1.58000278E+02
 20
-3.01999939E+02
 11
1.58000278E+02
 21
-3.00736343E+02
  0
LINE
  8
0
 62
7
 10
1.45500084E+02
 20
-2.89499786E+02
 11
1.46763626E+02
 21
-2.89499786E+02
  0
LINE
  8
0
 62
7
 10
1.14999903E+02
 20
-2.84999969E+02
 11
1.41000076E+02
 21
-2.84999969E+02
  0
LINE
  8
0
 62
7
 10
1.03000010E+02
 20
-2.81999969E+02
 11
1.03000010E+02
 21
-2.82499969E+02
  0
LINE
  8
0
 62
7
 10
1.53000008E+02
 20
-2.81999969E+02
 11
1.53000008E+02
 21
-2.82499969E+02
  0
LINE
  8
0
 62
7
 10
9.35000020E+01
 20
-3.19500000E+02
 11
9.35000020E+01
 21
-3.06499924E+02
  0
LINE
  8
0
 62
7
 10
9.10000019E+01
 20
-3.19500000E+02
 11
9.10000019E+01
 21
-2.85999985E+02
  0
LINE
  8
0
  6
CENTER
 62
2
 10
1.68045101E+02
 20
-2.91499939E+02
 11
1.45894028E+02
 21
-2.91499939E+02
  0
LINE
  8
0
  6
CENTER
 62
2
 10
1.36000000E+02
 20
-2.79814713E+02
 11
1.36000000E+02
 21
-2.91699982E+02
  0
LINE
  8
0
  6
CENTER
 62
2
 10
8.72323017E+01
 20
-3.19500000E+02
 11
1.70477734E+02
 21
-3.19500000E+02
  0
LINE
  8
0
  6
CENTER
 62
2
 10
9.99999409E+01
 20
-2.79814713E+02
 11
9.99999409E+01
 21
-3.02729599E+02
  0
LINE
  8
0
 62
7
 10
9.05000098E+01
 20
-3.19500000E+02
 11
9.05000098E+01
 21
-2.85999985E+02
  0
LINE
  8
0
 62
7
 10
9.45000249E+01
 20
-3.18500015E+02
 11
1.08100298E+02
 21
-3.18500015E+02
  0
LINE
  8
0
 62
7
 10
9.45000249E+01
 20
-2.82499969E+02
 11
1.61500072E+02
 21
-2.82499969E+02
  0
LINE
  8
0
 62
7
 10
1.13221875E+02
 20
-3.06135599E+02
 11
1.05860026E+02
 21
-2.98773753E+02
  0
LINE
  8
0
 62
7
 10
1.14636094E+02
 20
-3.04721379E+02
 11
1.07274272E+02
 21
-2.97359560E+02
  0
LINE
  8
0
  6
CENTER
 62
2
 10
1.28000008E+02
 20
-2.78032455E+02
 11
1.28000008E+02
 21
-3.19500000E+02
  0
LINE
  8
0
  6
CENTER
 62
2
 10
1.56000076E+02
 20
-3.02729599E+02
 11
1.56000076E+02
 21
-2.79942017E+02
  0
LINE
  8
0
 62
7
 10
1.65500088E+02
 20
-3.19500000E+02
 11
1.65500088E+02
 21
-2.86000000E+02
  0
LINE
  8
0
 62
7
 10
9.45000249E+01
 20
-2.81999969E+02
 11
1.61500072E+02
 21
-2.81999969E+02
  0
LINE
  8
0
 62
7
 10
1.61499996E+02
 20
-3.18500031E+02
 11
1.47899796E+02
 21
-3.18500031E+02
  0
LINE
  8
0
 62
7
 10
1.62500095E+02
 20
-3.19500000E+02
 11
1.62500095E+02
 21
-3.06499924E+02
  0
LINE
  8
0
 62
7
 10
1.65000095E+02
 20
-3.19500000E+02
 11
1.65000095E+02
 21
-2.86000000E+02
  0
LINE
  8
0
 62
7
 10
1.27000023E+02
 20
-2.85999985E+02
 11
1.27000023E+02
 21
-2.99600250E+02
  0
LINE
  8
0
 62
7
 10
1.42778466E+02
 20
-3.06136034E+02
 11
1.50140313E+02
 21
-2.98774187E+02
  0
LINE
  8
0
 62
7
 10
1.29000031E+02
 20
-2.86000000E+02
 11
1.29000031E+02
 21
-2.99600250E+02
  0
LINE
  8
0
 62
7
 10
1.41364255E+02
 20
-3.04721888E+02
 11
1.48726103E+02
 21
-2.97360040E+02
  0
LINE
  8
0
  6
DASHED
 62
7
 10
1.21000116E+02
 20
-2.82499863E+02
 11
1.11000040E+02
 21
-2.82499863E+02
  0
LINE
  8
0
  6
CENTER
 62
2
 10
-9.40000687E+01
 20
-2.79814941E+02
 11
-9.40000687E+01
 21
-2.91700226E+02
  0
LINE
  8
0
  6
CENTER
 62
2
 10
-1.69172101E+01
 20
-2.91499985E+02
 11
-1.15248100E+02
 21
-2.91499985E+02
  0
LINE
  8
0
 62
7
 10
-1.08000008E+02
 20
-2.82488785E+02
 11
-1.08000008E+02
 21
-2.82000000E+02
  0
LINE
  8
0
 62
7
 10
-1.08000008E+02
 20
-2.82000000E+02
 11
-8.00000076E+01
 21
-2.82000000E+02
  0
LINE
  8
0
 62
7
 10
-1.11508741E+02
 20
-2.82550044E+02
 11
-8.00000364E+01
 21
-2.82000058E+02
  0
LINE
  8
0
 62
7
 10
-1.21758667E+02
 20
-3.02241519E+02
 11
-1.13999954E+02
 21
-3.01970579E+02
  0
LINE
  8
0
 62
7
 10
-1.21999992E+02
 20
-3.02499985E+02
 11
-1.21999992E+02
 21
-3.02491440E+02
  0
LINE
  8
0
 62
7
 10
-1.26500008E+02
 20
-3.02499985E+02
 11
-1.21991447E+02
 21
-3.02499985E+02
  0
LINE
  8
0
 62
7
 10
-1.13499992E+02
 20
-3.00500000E+02
 11
-1.11999992E+02
 21
-3.00500000E+02
  0
LINE
  8
0
 62
7
 10
-1.34531197E+01
 20
-1.05500031E+02
 11
-5.64999860E+01
 21
-1.05500031E+02
  0
LINE
  8
0
 62
7
 10
-1.48387392E+01
 20
-1.07899994E+02
 11
-5.64999860E+01
 21
-1.07899994E+02
  0
LINE
  8
0
 62
7
 10
-1.89956682E+01
 20
-1.15100006E+02
 11
-3.69999860E+01
 21
-1.15100006E+02
  0
LINE
  8
0
  6
CENTER
 62
2
 10
-1.69171861E+01
 20
-1.11499969E+02
 11
-5.64999860E+01
 21
-1.11499969E+02
  0
LINE
  8
0
  6
CENTER
 62
2
 10
-8.70000381E+01
 20
-1.45088852E+02
 11
-8.70000381E+01
 21
-1.58565598E+02
  0
LINE
  8
0
  6
CENTER
 62
2
 10
-9.36657639E+01
 20
-1.51500000E+02
 11
-8.08370132E+01
 21
-1.51500000E+02
  0
LINE
  8
0
 62
7
 10
-8.52679441E+01
 20
-1.51500082E+02
 11
-8.61339794E+01
 21
-1.53000108E+02
  0
LINE
  8
0
 62
7
 10
-8.61340256E+01
 20
-1.53000015E+02
 11
-8.78660965E+01
 21
-1.53000015E+02
  0
LINE
  8
0
 62
7
 10
-8.78659882E+01
 20
-1.53000037E+02
 11
-8.87320273E+01
 21
-1.51500004E+02
  0
LINE
  8
0
 62
7
 10
-8.87319309E+01
 20
-1.51500136E+02
 11
-8.78659108E+01
 21
-1.50000136E+02
  0
LINE
  8
0
 62
7
 10
-8.61340256E+01
 20
-1.49999985E+02
 11
-8.78660965E+01
 21
-1.49999985E+02
  0
LINE
  8
0
 62
7
 10
-8.52679675E+01
 20
-1.51500078E+02
 11
-8.61339914E+01
 21
-1.50000071E+02
  0
LINE
  8
0
 62
7
 10
-5.27129028E+01
 20
-1.73499969E+02
 11
-7.99999924E+01
 21
-1.73499969E+02
  0
LINE
  8
0
 62
7
 10
-5.13272745E+01
 20
-1.71099991E+02
 11
-7.99999924E+01
 21
-1.71099991E+02
  0
LINE
  8
0
  6
CENTER
 62
2
 10
-4.92488364E+01
 20
-1.67500031E+02
 11
-1.15248085E+02
 21
-1.67500031E+02
  0
LINE
  8
0
 62
7
 10
-8.00000076E+01
 20
-2.82000000E+02
 11
-8.00000076E+01
 21
-3.19500000E+02
  0
LINE
  8
0
 62
7
 10
-1.11999992E+02
 20
-2.83049927E+02
 11
-1.11999992E+02
 21
-3.19500000E+02
  0
LINE
  8
0
 62
7
 10
-1.21999992E+02
 20
-3.19500000E+02
 11
-1.21999992E+02
 21
-3.02499985E+02
  0
LINE
  8
0
  6
CENTER
 62
2
 10
-3.04630547E+02
 20
-2.91499939E+02
 11
-2.82097588E+02
 21
-2.91499939E+02
  0
LINE
  8
0
 62
7
 10
-2.91999809E+02
 20
-3.01999939E+02
 11
-2.91999809E+02
 21
-3.00736206E+02
  0
LINE
  8
0
 62
7
 10
-3.04499901E+02
 20
-2.89499756E+02
 11
-3.03236473E+02
 21
-2.89499756E+02
  0
LINE
  8
0
 62
7
 10
-3.52000267E+02
 20
-3.01999939E+02
 11
-3.52000267E+02
 21
-3.00736343E+02
  0
LINE
  8
0
 62
7
 10
-3.39500084E+02
 20
-2.89499786E+02
 11
-3.40763634E+02
 21
-2.89499786E+02
  0
LINE
  8
0
 62
7
 10
-2.88500023E+02
 20
-2.81999969E+02
 11
-3.55500055E+02
 21
-2.81999969E+02
  0
LINE
  8
0
 62
7
 10
-1.14000008E+02
 20
-3.01000000E+02
 11
-1.14000008E+02
 21
-3.19500000E+02
  0
LINE
  8
0
 62
7
 10
-2.96999992E+02
 20
-2.81999969E+02
 11
-2.96999992E+02
 21
-2.82499969E+02
  0
LINE
  8
0
 62
7
 10
-3.46999992E+02
 20
-2.81999969E+02
 11
-3.46999992E+02
 21
-2.82499969E+02
  0
LINE
  8
0
 62
7
 10
-2.84499992E+02
 20
-3.19500000E+02
 11
-2.84499992E+02
 21
-2.85999985E+02
  0
LINE
  8
0
  6
CENTER
 62
2
 10
-3.62045097E+02
 20
-2.91499939E+02
 11
-3.39894035E+02
 21
-2.91499939E+02
  0
LINE
  8
0
  6
CENTER
 62
2
 10
-3.29999992E+02
 20
-2.79814713E+02
 11
-3.29999992E+02
 21
-2.91699982E+02
  0
LINE
  8
0
  6
CENTER
 62
2
 10
-2.81232292E+02
 20
-3.19500000E+02
 11
-3.64477715E+02
 21
-3.19500000E+02
  0
LINE
  8
0
 62
7
 10
-2.84999992E+02
 20
-3.19500000E+02
 11
-2.84999992E+02
 21
-2.85999985E+02
  0
LINE
  8
0
  6
CENTER
 62
2
 10
-2.93999931E+02
 20
-2.79814713E+02
 11
-2.93999931E+02
 21
-3.02729599E+02
  0
LINE
  8
0
 62
7
 10
-2.88500023E+02
 20
-3.18500015E+02
 11
-3.02100304E+02
 21
-3.18500015E+02
  0
LINE
  8
0
 62
7
 10
-2.87499992E+02
 20
-3.19500000E+02
 11
-2.87499992E+02
 21
-3.06499924E+02
  0
LINE
  8
0
 62
7
 10
-3.55500053E+02
 20
-2.82499969E+02
 11
-2.88500023E+02
 21
-2.82499969E+02
  0
LINE
  8
0
 62
7
 10
-3.07221886E+02
 20
-3.06135595E+02
 11
-2.99860037E+02
 21
-2.98773749E+02
  0
LINE
  8
0
 62
7
 10
-3.08636099E+02
 20
-3.04721381E+02
 11
-3.01274283E+02
 21
-2.97359567E+02
  0
LINE
  8
0
 62
7
 10
-1.26999992E+02
 20
-3.19500000E+02
 11
-1.26999992E+02
 21
-3.03000015E+02
  0
LINE
  8
0
 62
7
 10
-1.08000008E+02
 20
-1.16500000E+02
 11
-1.08000008E+02
 21
-1.62500000E+02
  0
LINE
  8
0
 62
7
 10
-1.05999992E+02
 20
-1.64500015E+02
 11
-7.99999924E+01
 21
-1.64500015E+02
  0
LINE
  8
0
 62
7
 10
-1.05999992E+02
 20
-1.14500000E+02
 11
-9.09999860E+01
 21
-1.14500000E+02
  0
LINE
  8
0
 62
7
 10
-1.21999992E+02
 20
-1.22500000E+02
 11
-1.21999992E+02
 21
-1.56500015E+02
  0
LINE
  8
0
 62
7
 10
-1.14000008E+02
 20
-1.58000015E+02
 11
-1.14000008E+02
 21
-1.20999985E+02
  0
LINE
  8
0
 62
7
 10
-1.11508731E+02
 20
-1.02549999E+02
 11
-8.00000108E+01
 21
-1.02000012E+02
  0
LINE
  8
0
 62
7
 10
-7.99999924E+01
 20
-1.76999969E+02
 11
-7.99999924E+01
 21
-1.24437056E+02
  0
LINE
  8
0
 62
7
 10
-1.11999992E+02
 20
-1.75950089E+02
 11
-1.11999992E+02
 21
-1.03049927E+02
  0
LINE
  8
0
 62
7
 10
-1.21758735E+02
 20
-1.22241382E+02
 11
-1.14000052E+02
 21
-1.21970443E+02
  0
LINE
  8
0
 62
7
 10
-1.21999992E+02
 20
-1.22500000E+02
 11
-1.21999992E+02
 21
-1.22491455E+02
  0
LINE
  8
0
 62
7
 10
-1.26500008E+02
 20
-1.22500031E+02
 11
-1.21991447E+02
 21
-1.22500031E+02
  0
LINE
  8
0
 62
7
 10
-1.13499992E+02
 20
-1.20500000E+02
 11
-1.11999992E+02
 21
-1.20500000E+02
  0
LINE
  8
0
 62
7
 10
-1.26999992E+02
 20
-1.55999985E+02
 11
-1.26999992E+02
 21
-1.23000031E+02
  0
LINE
  8
0
 62
7
 10
-1.11508758E+02
 20
-1.76449929E+02
 11
-8.00000536E+01
 21
-1.76999915E+02
  0
LINE
  8
0
 62
7
 10
-1.21758764E+02
 20
-1.56758480E+02
 11
-1.14000066E+02
 21
-1.57029420E+02
  0
LINE
  8
0
 62
7
 10
-1.21999992E+02
 20
-1.56500015E+02
 11
-1.21999992E+02
 21
-1.56508560E+02
  0
LINE
  8
0
 62
7
 10
-1.26500008E+02
 20
-1.56500000E+02
 11
-1.21991447E+02
 21
-1.56500000E+02
  0
LINE
  8
0
 62
7
 10
-1.13499992E+02
 20
-1.58500015E+02
 11
-1.11999992E+02
 21
-1.58500015E+02
  0
LINE
  8
0
  6
CENTER
 62
2
 10
-9.40000687E+01
 20
-1.41500015E+02
 11
-9.40000687E+01
 21
-1.20953735E+02
  0
LINE
  8
0
  6
CENTER
 62
2
 10
-1.04364861E+02
 20
-1.31500000E+02
 11
-8.27606888E+01
 21
-1.31500000E+02
  0
LINE
  8
0
  6
CENTER
 62
2
 10
-3.21999992E+02
 20
-2.78032455E+02
 11
-3.21999992E+02
 21
-3.19500000E+02
  0
LINE
  8
0
  6
CENTER
 62
2
 10
-3.50000084E+02
 20
-3.02729599E+02
 11
-3.50000084E+02
 21
-2.79942017E+02
  0
LINE
  8
0
 62
7
 10
-3.59500084E+02
 20
-3.19500000E+02
 11
-3.59500084E+02
 21
-2.86000000E+02
  0
LINE
  8
0
 62
7
 10
-3.55499992E+02
 20
-3.18500031E+02
 11
-3.41899803E+02
 21
-3.18500031E+02
  0
LINE
  8
0
 62
7
 10
-3.56500084E+02
 20
-3.19500000E+02
 11
-3.56500084E+02
 21
-3.06499924E+02
  0
LINE
  8
0
 62
7
 10
-3.59000084E+02
 20
-3.19500000E+02
 11
-3.59000084E+02
 21
-2.86000000E+02
  0
LINE
  8
0
 62
7
 10
-3.21000023E+02
 20
-2.85999985E+02
 11
-3.21000023E+02
 21
-2.99600250E+02
  0
LINE
  8
0
 62
7
 10
-3.36778468E+02
 20
-3.06136039E+02
 11
-3.44140316E+02
 21
-2.98774192E+02
  0
LINE
  8
0
 62
7
 10
-3.23000023E+02
 20
-2.86000000E+02
 11
-3.23000023E+02
 21
-2.99600250E+02
  0
LINE
  8
0
 62
7
 10
-3.35000084E+02
 20
-2.84999969E+02
 11
-3.08999901E+02
 21
-2.84999969E+02
  0
LINE
  8
0
 62
7
 10
-3.35364266E+02
 20
-3.04721880E+02
 11
-3.42726113E+02
 21
-2.97360033E+02
  0
LINE
  8
0
  6
DASHED
 62
7
 10
-3.15000114E+02
 20
-2.82499863E+02
 11
-3.05000023E+02
 21
-2.82499863E+02
  0
LINE
  8
0
  6
CENTER
 62
2
 10
-1.72773201E+02
 20
-3.19500000E+02
 11
-3.30830265E+01
 21
-3.19500000E+02
  0
LINE
  8
0
  6
CENTER
 62
2
 10
-1.72033272E+02
 20
-1.39500000E+02
 11
-7.59999860E+01
 21
-1.39500000E+02
  0
LINE
  8
0
 62
7
 10
2.93910584E+02
 20
-2.95100037E+02
 11
3.42500023E+02
 21
-2.95100037E+02
  0
LINE
  8
0
 62
7
 10
2.98067513E+02
 20
-2.87900024E+02
 11
3.42500023E+02
 21
-2.87900024E+02
  0
LINE
  8
0
 62
7
 10
2.99453150E+02
 20
-2.85500031E+02
 11
3.23218747E+02
 21
-2.85500031E+02
  0
LINE
  8
0
  6
CENTER
 62
2
 10
2.95989075E+02
 20
-2.91499985E+02
 11
4.01248116E+02
 21
-2.91499985E+02
  0
LINE
  8
0
  6
CENTER
 62
2
 10
4.58773216E+02
 20
-3.19500000E+02
 11
2.79823259E+02
 21
-3.19500000E+02
  0
LINE
  8
0
 62
7
 10
4.13000008E+02
 20
-3.19500000E+02
 11
4.13000008E+02
 21
-3.03000015E+02
  0
LINE
  8
0
 62
7
 10
4.00000023E+02
 20
-3.01000000E+02
 11
4.00000023E+02
 21
-3.19500000E+02
  0
LINE
  8
0
 62
7
 10
4.08000008E+02
 20
-3.19500000E+02
 11
4.08000008E+02
 21
-3.02499985E+02
  0
LINE
  8
0
 62
7
 10
3.98000008E+02
 20
-2.83049927E+02
 11
3.98000008E+02
 21
-3.19500000E+02
  0
LINE
  8
0
 62
7
 10
3.66000023E+02
 20
-2.82000000E+02
 11
3.66000023E+02
 21
-3.19500000E+02
  0
LINE
  8
0
 62
7
 10
3.99500008E+02
 20
-3.00500000E+02
 11
3.98000008E+02
 21
-3.00500000E+02
  0
LINE
  8
0
 62
7
 10
4.12500023E+02
 20
-3.02499985E+02
 11
4.07991463E+02
 21
-3.02499985E+02
  0
LINE
  8
0
 62
7
 10
4.08000008E+02
 20
-3.02499985E+02
 11
4.08000008E+02
 21
-3.02491440E+02
  0
LINE
  8
0
 62
7
 10
4.07758683E+02
 20
-3.02241519E+02
 11
3.99999969E+02
 21
-3.01970579E+02
  0
LINE
  8
0
 62
7
 10
3.97508756E+02
 20
-2.82550044E+02
 11
3.66000052E+02
 21
-2.82000058E+02
  0
LINE
  8
0
 62
7
 10
3.94000023E+02
 20
-2.82000000E+02
 11
3.66000023E+02
 21
-2.82000000E+02
  0
LINE
  8
0
 62
7
 10
3.94000023E+02
 20
-2.82488785E+02
 11
3.94000023E+02
 21
-2.82000000E+02
  0
LINE
  8
0
  6
CENTER
 62
2
 10
3.80000084E+02
 20
-2.79814941E+02
 11
3.80000084E+02
 21
-2.91700226E+02
  0
LINE
  8
0
 62
7
 10
4.22999977E+02
 20
-3.10500000E+02
 11
4.22999977E+02
 21
-3.19500000E+02
  0
LINE
  8
0
 62
7
 10
4.21626183E+02
 20
-3.10000000E+02
 11
4.13000008E+02
 21
-3.10000000E+02
  0
LINE
  8
0
 62
7
 10
4.25999977E+02
 20
-3.19500000E+02
 11
4.25999977E+02
 21
-3.10500000E+02
  0
LINE
  8
0
 62
7
 10
4.54999992E+02
 20
-3.19500000E+02
 11
4.54999992E+02
 21
-3.12000153E+02
  0
LINE
  8
0
 62
7
 10
4.53499992E+02
 20
-3.19500000E+02
 11
4.53499992E+02
 21
-3.10500000E+02
  0
LINE
  8
0
 62
7
 10
4.17642326E+02
 20
-3.19500000E+02
 11
4.13000008E+02
 21
-3.19500000E+02
  0
LINE
  8
0
 62
7
 10
4.53499931E+02
 20
-3.10500000E+02
 11
4.45999992E+02
 21
-3.10500000E+02
  0
LINE
  8
0
 62
2
 10
4.54319939E+02
 20
-3.11320007E+02
 11
4.45999992E+02
 21
-3.11320007E+02
  0
LINE
  8
0
 62
7
 10
4.54999914E+02
 20
-3.12000138E+02
 11
4.53499868E+02
 21
-3.10500138E+02
  0
LINE
  8
0
 62
7
 10
4.22999950E+02
 20
-3.10500034E+02
 11
4.21626128E+02
 21
-3.10000004E+02
  0
LINE
  8
0
 62
7
 10
4.25999977E+02
 20
-3.11320007E+02
 11
4.22999977E+02
 21
-3.11320007E+02
  0
ARC
  8
0
 62
7
 10
3.99500008E+02
 20
-3.01000000E+02
 40
5.00000000E-01
 50
3.59721787E-05
 51
9.00000179E+01
  0
ARC
  8
0
 62
7
 10
4.12500023E+02
 20
-3.03000015E+02
 40
5.00000000E-01
 50
3.59721787E-05
 51
9.00000179E+01
  0
ARC
  8
0
 62
7
 10
3.97500023E+02
 20
-2.83049927E+02
 40
5.00000000E-01
 50
3.59999981E+02
 51
8.89997230E+01
  0
ARC
  8
0
 62
7
 10
4.07750023E+02
 20
-3.02491440E+02
 40
2.50000000E-01
 50
2.23118003E-05
 51
8.80011768E+01
  0
POLYLINE
  8
0
 62
7
 66
1
  0
VERTEX
  8
0
 62
7
 10
4.17642326E+02
 20
-3.19500000E+02
  0
VERTEX
  8
0
 62
7
 10
4.17999436E+02
 20
-3.19480878E+02
  0
VERTEX
  8
0
 62
7
 10
4.18353671E+02
 20
-3.19423666E+02
  0
VERTEX
  8
0
 62
7
 10
4.18702179E+02
 20
-3.19328824E+02
  0
VERTEX
  8
0
 62
7
 10
4.19042153E+02
 20
-3.19197116E+02
  0
VERTEX
  8
0
 62
7
 10
4.19370856E+02
 20
-3.19029602E+02
  0
VERTEX
  8
0
 62
7
 10
4.19685643E+02
 20
-3.18827632E+02
  0
VERTEX
  8
0
 62
7
 10
4.19983978E+02
 20
-3.18592831E+02
  0
VERTEX
  8
0
 62
7
 10
4.20263459E+02
 20
-3.18327089E+02
  0
VERTEX
  8
0
 62
7
 10
4.20521837E+02
 20
-3.18032548E+02
  0
VERTEX
  8
0
 62
7
 10
4.20757030E+02
 20
-3.17711577E+02
  0
VERTEX
  8
0
 62
7
 10
4.20967146E+02
 20
-3.17366761E+02
  0
VERTEX
  8
0
 62
7
 10
4.21150492E+02
 20
-3.17000876E+02
  0
VERTEX
  8
0
 62
7
 10
4.21305592E+02
 20
-3.16616869E+02
  0
VERTEX
  8
0
 62
7
 10
4.21431198E+02
 20
-3.16217831E+02
  0
VERTEX
  8
0
 62
7
 10
4.21526299E+02
 20
-3.15806974E+02
  0
VERTEX
  8
0
 62
7
 10
4.21590127E+02
 20
-3.15387608E+02
  0
VERTEX
  8
0
 62
7
 10
4.21622171E+02
 20
-3.14963108E+02
  0
VERTEX
  8
0
 62
7
 10
4.21622171E+02
 20
-3.14536892E+02
  0
VERTEX
  8
0
 62
7
 10
4.21590127E+02
 20
-3.14112392E+02
  0
VERTEX
  8
0
 62
7
 10
4.21526299E+02
 20
-3.13693026E+02
  0
VERTEX
  8
0
 62
7
 10
4.21431198E+02
 20
-3.13282169E+02
  0
VERTEX
  8
0
 62
7
 10
4.21305592E+02
 20
-3.12883131E+02
  0
VERTEX
  8
0
 62
7
 10
4.21150492E+02
 20
-3.12499124E+02
  0
VERTEX
  8
0
 62
7
 10
4.20967146E+02
 20
-3.12133239E+02
  0
VERTEX
  8
0
 62
7
 10
4.20757030E+02
 20
-3.11788423E+02
  0
VERTEX
  8
0
 62
7
 10
4.20521837E+02
 20
-3.11467452E+02
  0
VERTEX
  8
0
 62
7
 10
4.20263459E+02
 20
-3.11172911E+02
  0
VERTEX
  8
0
 62
7
 10
4.19983978E+02
 20
-3.10907169E+02
  0
VERTEX
  8
0
 62
7
 10
4.19685643E+02
 20
-3.10672368E+02
  0
VERTEX
  8
0
 62
7
 10
4.19370856E+02
 20
-3.10470398E+02
  0
VERTEX
  8
0
 62
7
 10
4.19042153E+02
 20
-3.10302884E+02
  0
VERTEX
  8
0
 62
7
 10
4.18702179E+02
 20
-3.10171176E+02
  0
VERTEX
  8
0
 62
7
 10
4.18353671E+02
 20
-3.10076334E+02
  0
VERTEX
  8
0
 62
7
 10
4.17999436E+02
 20
-3.10019122E+02
  0
VERTEX
  8
0
 62
7
 10
4.17642326E+02
 20
-3.10000000E+02
  0
SEQEND
  8
0
  0
LINE
  8
0
 62
4
 10
4.34999992E+02
 20
-3.19500000E+02
 11
4.34999992E+02
 21
-3.06000000E+02
  0
LINE
  8
0
 62
4
 10
4.45999992E+02
 20
-3.19500000E+02
 11
4.45999992E+02
 21
-3.06000000E+02
  0
ARC
  8
0
 62
4
 10
4.20205764E+02
 20
-3.19500000E+02
 40
2.57942282E+01
 50
2.54444375E-13
 51
1.75879541E+01
  0
ARC
  8
0
 62
4
 10
4.60794221E+02
 20
-3.19500000E+02
 40
2.57942282E+01
 50
1.62412046E+02
 51
1.80000000E+02
  0
ARC
  8
0
 62
4
 10
4.41900714E+02
 20
-3.07808657E+02
 40
6.90072132E+00
 50
1.45615752E+02
 51
2.14384248E+02
  0
ARC
  8
0
 62
4
 10
4.39099271E+02
 20
-3.07808657E+02
 40
6.90072132E+00
 50
3.25615752E+02
 51
3.43842480E+01
  0
LINE
  8
0
 62
4
 10
4.36205764E+02
 20
-3.03911543E+02
 11
4.34999992E+02
 21
-3.06000000E+02
  0
LINE
  8
0
 62
4
 10
4.44794221E+02
 20
-3.03911543E+02
 11
4.45999992E+02
 21
-3.06000000E+02
  0
LINE
  8
0
 62
4
 10
4.44794221E+02
 20
-3.11705771E+02
 11
4.36205764E+02
 21
-3.11705771E+02
  0
LINE
  8
0
 62
4
 10
4.44794221E+02
 20
-3.03911543E+02
 11
4.36205764E+02
 21
-3.03911543E+02
  0
LINE
  8
0
 62
7
 10
4.34999992E+02
 20
-3.10500000E+02
 11
4.25999977E+02
 21
-3.10500000E+02
  0
LINE
  8
0
 62
2
 10
4.34999992E+02
 20
-3.11320007E+02
 11
4.25999977E+02
 21
-3.11320007E+02
  0
LINE
  8
0
 62
7
 10
-7.99999924E+01
 20
-1.10437056E+02
 11
-7.99999924E+01
 21
-1.02000000E+02
  0
LINE
  8
0
  6
CENTER
 62
2
 10
-9.09999860E+01
 20
-1.11499969E+02
 11
-1.15248085E+02
 21
-1.11499969E+02
  0
LINE
  8
0
  6
CENTER
 62
2
 10
-3.69999860E+01
 20
-1.39500000E+02
 11
-3.30830112E+01
 21
-1.39500000E+02
  0
LINE
  8
0
 62
2
 10
-6.08207505E+01
 20
-1.87543174E+02
 11
-7.24957855E+00
 21
-9.47551821E+01
  0
LINE
  8
0
 62
2
 10
2.75057655E+02
 20
-3.27754267E+02
 11
3.04872786E+02
 21
-2.76112946E+02
  0
LINE
  8
0
 62
7
 10
3.61781299E+02
 20
-2.85500031E+02
 11
3.66000023E+02
 21
-2.85500031E+02
  0
LINE
  8
0
 62
7
 10
3.57500023E+02
 20
-2.95100037E+02
 11
3.66000023E+02
 21
-2.95100037E+02
  0
LINE
  8
0
 62
7
 10
3.57500023E+02
 20
-2.87900024E+02
 11
3.66000023E+02
 21
-2.87900024E+02
  0
TEXT
  8
0
 10
-7.72146873E+01
 20
3.54316712E+02
 40
9.00000000E+00
  1
STRETCH LINE
 41
1.05263158E+00
  7
MONOTXT
  0
LINE
  8
0
 62
7
 10
5.74500000E+02
 20
4.00500000E+02
 11
5.74500000E+02
 21
-4.00500000E+02
  0
LINE
  8
0
 62
7
 10
-5.64500000E+02
 20
4.00500000E+02
 11
5.74500000E+02
 21
4.00500000E+02
  0
LINE
  8
0
 62
7
 10
-5.64500000E+02
 20
-4.00500000E+02
 11
5.74500000E+02
 21
-4.00500000E+02
  0
LINE
  8
0
 62
7
 10
-5.64500000E+02
 20
4.00500000E+02
 11
-5.64500000E+02
 21
-4.00500000E+02
  0
LINE
  8
0
 62
7
 10
-5.64500000E+02
 20
3.70500000E+02
 11
-3.34500000E+02
 21
3.70500000E+02
  0
LINE
  8
0
 62
7
 10
3.44500000E+02
 20
3.70500000E+02
 11
5.74500000E+02
 21
3.70500000E+02
  0
LINE
  8
0
 62
7
 10
3.44500000E+02
 20
-3.70500000E+02
 11
5.74500000E+02
 21
-3.70500000E+02
  0
LINE
  8
0
 62
7
 10
3.44500000E+02
 20
-3.70500000E+02
 11
3.44500000E+02
 21
-4.00500000E+02
  0
LINE
  8
0
 62
7
 10
3.44500000E+02
 20
4.00500000E+02
 11
3.44500000E+02
 21
3.70500000E+02
  0
LINE
  8
0
 62
7
 10
-3.34500000E+02
 20
4.00500000E+02
 11
-3.34500000E+02
 21
3.70500000E+02
  0
TEXT
  8
0
 62
7
 10
-5.37179687E+02
 20
3.34250000E+02
 40
1.25000000E+01
  1
MODEL:DDAL63*75
 41
1.00000015E+00
  7
MONOTXT
  0
TEXT
  8
0
 62
7
 10
4.11285149E+02
 20
3.79250000E+02
 40
1.25000000E+01
  1
Ver. 1.0
 41
1.08108125E+00
  7
MONOTXT
  0
TEXT
  8
0
 62
7
 10
3.50070624E+02
 20
-3.94500000E+02
 40
1.80000000E+01
  1
KOGANEI CORP.
 41
1.04838710E+00
  7
MONOTXT
  0
TEXT
  8
0
 62
7
 10
-5.53964859E+02
 20
3.79250000E+02
 40
1.25000000E+01
  1
NEW DYNA CYLINDER
 41
1.07594953E+00
  7
MONOTXT
  0
ENDSEC
  0
EOF
