  0
SECTION
  2
HEADER
  9
$ACADVER
  1
AC1003
  9
$EXTMIN
 10
-3.99250000E+02
 20
-2.76750000E+02
  9
$EXTMAX
 10
3.99799805E+02
 20
2.76250000E+02
  9
$LIMMIN
 10
-3.99251000E+02
 20
-2.76751000E+02
  9
$LIMMAX
 10
3.99800805E+02
 20
2.76251000E+02
  9
$SNAPUNIT
 10
1
 20
1
  9
$SNAPBASE
 10
0
 20
0
  9
$GRIDMODE
 70
0
  9
$GRIDUNIT
 10
0
 20
0
  9
$LTSCALE
 40
1.33174967E+01
  9
$TEXTSIZE
 40
3.2
  9
$DIMTAD
 70
0
  9
$LUNITS
 70
2
  9
$LUPREC
 70
4
  9
$FILLETRAD
 40
0
  9
$AUNITS
 70
0
  9
$AUPREC
 70
0
  0
ENDSEC
  0
SECTION
  2
TABLES
  0
TABLE
  2
LTYPE
 70
2
  0
LTYPE
  2
CONTINUOUS
 70
64
  3
Solid-Line
 72
65
 73
0
 40
0
  0
LTYPE
  2
DASHED
 70
64
  3
DASHED
 72
65
 73
2
 40
.75
 49
.5
 49
-.25
  0
LTYPE
  2
HIDDEN
 70
64
  3
HIDDEN
 72
65
 73
2
 40
.375
 49
.25
 49
-.125
  0
LTYPE
  2
CENTER
 70
64
  3
CENTER
 72
65
 73
4
 40
2
 49
1.25
 49
-.25
 49
.25
 49
-.25
  0
LTYPE
  2
PHANTOM
 70
64
  3
PHANTOM
 72
65
 73
6
 40
2.5
 49
1.25
 49
-.25
 49
.25
 49
-.25
 49
.25
 49
-.25
  0
ENDTAB
  0
TABLE
  2
LAYER
 70
1
  0
LAYER
  2
1
 70
0
 62
7
  6
CONTINUOUS
 0
ENDTAB
  0
TABLE
  2
STYLE
 70
2
  0
STYLE
  2
MONOTXT
 70
0
 40
0
 41
1
 50
0
 71
0
 42
.2
  3
monotxt
  0
STYLE
  2
BIGFONT
 70
0
 40
0
 41
1
 50
0
 71
0
 42
.2
  3
txt
  4
bigfont
  0
ENDTAB
  0
ENDSEC
  0
SECTION
  2
ENTITIES
  0
LINE
  8
0
  6
PHANTOM
 10
-1.92500000E+01
 20
1.50787265E+02
 11
-1.92500000E+01
 21
4.71367846E+01
  0
LINE
  8
0
  6
CENTER
 62
2
 10
-1.66023193E+02
 20
8.83694647E+01
 11
6.90549469E+01
 21
8.83694647E+01
  0
LINE
  8
0
 62
7
 10
-1.20250000E+02
 20
1.04869434E+02
 11
-1.20250000E+02
 21
7.18694952E+01
  0
LINE
  8
0
 62
7
 10
-1.06750000E+02
 20
6.93694647E+01
 11
-1.05250000E+02
 21
6.93694647E+01
  0
LINE
  8
0
 62
7
 10
-1.19750000E+02
 20
7.13694647E+01
 11
-1.15241455E+02
 21
7.13694647E+01
  0
LINE
  8
0
 62
7
 10
-1.15250000E+02
 20
7.13694647E+01
 11
-1.15250000E+02
 21
7.13609198E+01
  0
LINE
  8
0
 62
7
 10
-1.15008742E+02
 20
7.11109856E+01
 11
-1.07250044E+02
 21
7.08400459E+01
  0
LINE
  8
0
 62
7
 10
-1.07250000E+02
 20
1.06869465E+02
 11
-1.07250000E+02
 21
6.98694647E+01
  0
LINE
  8
0
 62
7
 10
-1.05250000E+02
 20
1.18583973E+02
 11
-1.05250000E+02
 21
5.81550482E+01
  0
LINE
  8
0
 62
7
 10
-7.42500000E+01
 20
1.19369465E+02
 11
-7.42500000E+01
 21
5.73432043E+01
  0
LINE
  8
0
 62
7
 10
-1.00250000E+02
 20
5.73694647E+01
 11
-7.42500000E+01
 21
5.73694647E+01
  0
LINE
  8
0
 62
7
 10
-1.05250023E+02
 20
5.81549702E+01
 11
-7.42499991E+01
 21
5.73432060E+01
  0
LINE
  8
0
 62
7
 10
-1.00250000E+02
 20
5.80240667E+01
 11
-1.00250000E+02
 21
5.73694647E+01
  0
LINE
  8
0
 62
7
 10
-1.15250000E+02
 20
1.05369465E+02
 11
-1.15250000E+02
 21
7.13694647E+01
  0
LINE
  8
0
 62
7
 10
6.42500000E+01
 20
6.93694647E+01
 11
6.27500000E+01
 21
6.93694647E+01
  0
LINE
  8
0
 62
7
 10
6.47500000E+01
 20
1.06869465E+02
 11
6.47500000E+01
 21
6.98694647E+01
  0
LINE
  8
0
 62
7
 10
6.27500000E+01
 20
1.18583973E+02
 11
6.27500000E+01
 21
5.81550482E+01
  0
LINE
  8
0
 62
7
 10
3.17500000E+01
 20
1.19369465E+02
 11
3.17500000E+01
 21
5.73432043E+01
  0
LINE
  8
0
 62
7
 10
5.77500000E+01
 20
5.73694647E+01
 11
3.17500000E+01
 21
5.73694647E+01
  0
LINE
  8
0
 62
7
 10
6.27500211E+01
 20
5.81549703E+01
 11
3.17500196E+01
 21
5.73432067E+01
  0
LINE
  8
0
 62
7
 10
5.77500000E+01
 20
5.80240667E+01
 11
5.77500000E+01
 21
5.73694647E+01
  0
LINE
  8
0
  6
CENTER
 62
2
 10
6.49769897E+01
 20
6.48694799E+01
 11
-1.07353455E+02
 21
6.48694799E+01
  0
LINE
  8
0
 62
7
 10
3.17500000E+01
 20
6.75194738E+01
 11
-7.42500000E+01
 21
6.75194738E+01
  0
LINE
  8
0
 62
7
 10
3.17500000E+01
 20
6.22194860E+01
 11
-7.42500000E+01
 21
6.22194860E+01
  0
LINE
  8
0
 62
7
 10
3.17500000E+01
 20
6.13694876E+01
 11
-7.42500000E+01
 21
6.13694876E+01
  0
LINE
  8
0
  6
CENTER
 62
2
 10
4.47499237E+01
 20
1.21554523E+02
 11
4.47499237E+01
 21
1.09669254E+02
  0
LINE
  8
0
 62
7
 10
3.17500000E+01
 20
1.09219456E+02
 11
1.02500000E+01
 21
1.09219456E+02
  0
LINE
  8
0
  6
CENTER
 62
2
 10
6.49769897E+01
 20
1.11869449E+02
 11
-1.07353455E+02
 21
1.11869449E+02
  0
LINE
  8
0
 62
7
 10
3.17500000E+01
 20
1.14519443E+02
 11
2.52500000E+01
 21
1.14519443E+02
  0
LINE
  8
0
 62
7
 10
-1.06750000E+02
 20
1.07369465E+02
 11
-1.05250000E+02
 21
1.07369465E+02
  0
LINE
  8
0
 62
7
 10
-1.19750000E+02
 20
1.05369465E+02
 11
-1.15241455E+02
 21
1.05369465E+02
  0
LINE
  8
0
 62
7
 10
-1.15250000E+02
 20
1.05369465E+02
 11
-1.15250000E+02
 21
1.05378010E+02
  0
LINE
  8
0
 62
7
 10
-1.15008737E+02
 20
1.05627962E+02
 11
-1.07250023E+02
 21
1.05898903E+02
  0
LINE
  8
0
 62
7
 10
-1.00250000E+02
 20
1.19369465E+02
 11
-7.42500000E+01
 21
1.19369465E+02
  0
LINE
  8
0
 62
7
 10
-1.05250039E+02
 20
1.18583969E+02
 11
-7.42499991E+01
 21
1.19395734E+02
  0
LINE
  8
0
 62
7
 10
-1.00250000E+02
 20
1.18714863E+02
 11
-1.00250000E+02
 21
1.19369465E+02
  0
LINE
  8
0
 62
7
 10
6.42500000E+01
 20
1.07369465E+02
 11
6.27500000E+01
 21
1.07369465E+02
  0
LINE
  8
0
 62
7
 10
3.17500000E+01
 20
1.15369434E+02
 11
2.52500000E+01
 21
1.15369434E+02
  0
LINE
  8
0
 62
7
 10
5.77500000E+01
 20
1.19369465E+02
 11
3.17500000E+01
 21
1.19369465E+02
  0
LINE
  8
0
 62
7
 10
6.27500215E+01
 20
1.18583985E+02
 11
3.17500200E+01
 21
1.19395748E+02
  0
LINE
  8
0
 62
7
 10
5.77500000E+01
 20
1.18714863E+02
 11
5.77500000E+01
 21
1.19369465E+02
  0
LINE
  8
0
  6
CENTER
 62
2
 10
-8.72501678E+01
 20
1.21554523E+02
 11
-8.72501678E+01
 21
1.09669254E+02
  0
LINE
  8
0
 62
7
 10
-1.30249969E+02
 20
9.73694647E+01
 11
-1.30249969E+02
 21
7.93694723E+01
  0
LINE
  8
0
 62
7
 10
-1.28876205E+02
 20
7.88694647E+01
 11
-1.20250000E+02
 21
7.88694647E+01
  0
LINE
  8
0
 62
7
 10
-1.28876175E+02
 20
9.78694647E+01
 11
-1.20250000E+02
 21
9.78694647E+01
  0
LINE
  8
0
 62
7
 10
-1.33249969E+02
 20
7.93694723E+01
 11
-1.33249969E+02
 21
9.73694647E+01
  0
LINE
  8
0
 62
7
 10
-1.62249969E+02
 20
8.08694952E+01
 11
-1.62249969E+02
 21
9.58693121E+01
  0
LINE
  8
0
 62
7
 10
-1.60749969E+02
 20
7.93694723E+01
 11
-1.60749969E+02
 21
9.73694647E+01
  0
LINE
  8
0
 62
7
 10
-1.24892319E+02
 20
8.83694647E+01
 11
-1.20250000E+02
 21
8.83694647E+01
  0
LINE
  8
0
 62
7
 10
-1.30249954E+02
 20
7.93694688E+01
 11
-1.28876175E+02
 21
7.88694544E+01
  0
LINE
  8
0
 62
7
 10
-1.60749908E+02
 20
9.73694647E+01
 11
-1.53249969E+02
 21
9.73694647E+01
  0
LINE
  8
0
 62
2
 10
-1.61569916E+02
 20
9.65494573E+01
 11
-1.53249969E+02
 21
9.65494573E+01
  0
LINE
  8
0
 62
7
 10
-1.62249915E+02
 20
9.58693340E+01
 11
-1.60749869E+02
 21
9.73693343E+01
  0
LINE
  8
0
 62
7
 10
-1.60749908E+02
 20
7.93694723E+01
 11
-1.53249969E+02
 21
7.93694723E+01
  0
LINE
  8
0
 62
2
 10
-1.61569916E+02
 20
8.01894644E+01
 11
-1.53249969E+02
 21
8.01894644E+01
  0
LINE
  8
0
 62
7
 10
-1.62250000E+02
 20
8.08695437E+01
 11
-1.60749965E+02
 21
7.93695542E+01
  0
LINE
  8
0
 62
7
 10
-1.30249947E+02
 20
9.73694285E+01
 11
-1.28876126E+02
 21
9.78694587E+01
  0
LINE
  8
0
 62
7
 10
-1.33249969E+02
 20
9.65494573E+01
 11
-1.30249969E+02
 21
9.65494573E+01
  0
LINE
  8
0
 62
7
 10
-1.33249969E+02
 20
8.01894644E+01
 11
-1.30249969E+02
 21
8.01894644E+01
  0
ARC
  8
0
 62
7
 10
-1.19750000E+02
 20
7.18694952E+01
 40
5.00000000E-01
 50
1.79999981E+02
 51
2.69999963E+02
  0
ARC
  8
0
 62
7
 10
-1.15000000E+02
 20
7.13609198E+01
 40
2.50000000E-01
 50
1.79999981E+02
 51
2.68001136E+02
  0
ARC
  8
0
 62
7
 10
-1.06750000E+02
 20
6.98694647E+01
 40
5.00000000E-01
 50
1.79999981E+02
 51
2.69999963E+02
  0
ARC
  8
0
 62
7
 10
6.42500000E+01
 20
6.98694647E+01
 40
5.00000000E-01
 50
2.70000073E+02
 51
5.46415133E-05
  0
ARC
  8
0
 62
7
 10
6.42500000E+01
 20
1.06869465E+02
 40
5.00000000E-01
 50
5.46415133E-05
 51
9.00000369E+01
  0
ARC
  8
0
 62
7
 10
-1.06750000E+02
 20
1.06869465E+02
 40
5.00000000E-01
 50
8.99999818E+01
 51
1.79999964E+02
  0
ARC
  8
0
 62
7
 10
-1.15000000E+02
 20
1.05378010E+02
 40
2.50000000E-01
 50
9.19988230E+01
 51
1.79999977E+02
  0
ARC
  8
0
 62
7
 10
-1.19750000E+02
 20
1.04869434E+02
 40
5.00000000E-01
 50
8.99999818E+01
 51
1.79999964E+02
  0
POLYLINE
  8
0
 62
7
 66
1
  0
VERTEX
  8
0
 62
7
 10
-1.24892319E+02
 20
9.78694647E+01
  0
VERTEX
  8
0
 62
7
 10
-1.25249429E+02
 20
9.78503426E+01
  0
VERTEX
  8
0
 62
7
 10
-1.25603664E+02
 20
9.77931302E+01
  0
VERTEX
  8
0
 62
7
 10
-1.25952172E+02
 20
9.76982883E+01
  0
VERTEX
  8
0
 62
7
 10
-1.26292146E+02
 20
9.75665803E+01
  0
VERTEX
  8
0
 62
7
 10
-1.26620849E+02
 20
9.73990668E+01
  0
VERTEX
  8
0
 62
7
 10
-1.26935636E+02
 20
9.71970965E+01
  0
VERTEX
  8
0
 62
7
 10
-1.27233971E+02
 20
9.69622954E+01
  0
VERTEX
  8
0
 62
7
 10
-1.27513452E+02
 20
9.66965542E+01
  0
VERTEX
  8
0
 62
7
 10
-1.27771830E+02
 20
9.64020123E+01
  0
VERTEX
  8
0
 62
7
 10
-1.28007023E+02
 20
9.60810413E+01
  0
VERTEX
  8
0
 62
7
 10
-1.28217139E+02
 20
9.57362254E+01
  0
VERTEX
  8
0
 62
7
 10
-1.28400485E+02
 20
9.53703408E+01
  0
VERTEX
  8
0
 62
7
 10
-1.28555585E+02
 20
9.49863336E+01
  0
VERTEX
  8
0
 62
7
 10
-1.28681191E+02
 20
9.45872954E+01
  0
VERTEX
  8
0
 62
7
 10
-1.28776292E+02
 20
9.41764391E+01
  0
VERTEX
  8
0
 62
7
 10
-1.28840120E+02
 20
9.37570727E+01
  0
VERTEX
  8
0
 62
7
 10
-1.28872164E+02
 20
9.33325726E+01
  0
VERTEX
  8
0
 62
7
 10
-1.28872164E+02
 20
9.29063568E+01
  0
VERTEX
  8
0
 62
7
 10
-1.28840120E+02
 20
9.24818567E+01
  0
VERTEX
  8
0
 62
7
 10
-1.28776292E+02
 20
9.20624903E+01
  0
VERTEX
  8
0
 62
7
 10
-1.28681191E+02
 20
9.16516340E+01
  0
VERTEX
  8
0
 62
7
 10
-1.28555585E+02
 20
9.12525958E+01
  0
VERTEX
  8
0
 62
7
 10
-1.28400485E+02
 20
9.08685886E+01
  0
VERTEX
  8
0
 62
7
 10
-1.28217139E+02
 20
9.05027040E+01
  0
VERTEX
  8
0
 62
7
 10
-1.28007023E+02
 20
9.01578881E+01
  0
VERTEX
  8
0
 62
7
 10
-1.27771830E+02
 20
8.98369171E+01
  0
VERTEX
  8
0
 62
7
 10
-1.27513452E+02
 20
8.95423752E+01
  0
VERTEX
  8
0
 62
7
 10
-1.27233971E+02
 20
8.92766340E+01
  0
VERTEX
  8
0
 62
7
 10
-1.26935636E+02
 20
8.90418329E+01
  0
VERTEX
  8
0
 62
7
 10
-1.26620849E+02
 20
8.88398626E+01
  0
VERTEX
  8
0
 62
7
 10
-1.26292146E+02
 20
8.86723491E+01
  0
VERTEX
  8
0
 62
7
 10
-1.25952172E+02
 20
8.85406411E+01
  0
VERTEX
  8
0
 62
7
 10
-1.25603664E+02
 20
8.84457992E+01
  0
VERTEX
  8
0
 62
7
 10
-1.25249429E+02
 20
8.83885868E+01
  0
VERTEX
  8
0
 62
7
 10
-1.24892319E+02
 20
8.83694647E+01
  0
SEQEND
  8
0
  0
POLYLINE
  8
0
 62
7
 66
1
  0
VERTEX
  8
0
 62
7
 10
-1.24892319E+02
 20
8.83694647E+01
  0
VERTEX
  8
0
 62
7
 10
-1.25249429E+02
 20
8.83503426E+01
  0
VERTEX
  8
0
 62
7
 10
-1.25603664E+02
 20
8.82931302E+01
  0
VERTEX
  8
0
 62
7
 10
-1.25952172E+02
 20
8.81982883E+01
  0
VERTEX
  8
0
 62
7
 10
-1.26292146E+02
 20
8.80665803E+01
  0
VERTEX
  8
0
 62
7
 10
-1.26620849E+02
 20
8.78990668E+01
  0
VERTEX
  8
0
 62
7
 10
-1.26935636E+02
 20
8.76970965E+01
  0
VERTEX
  8
0
 62
7
 10
-1.27233971E+02
 20
8.74622954E+01
  0
VERTEX
  8
0
 62
7
 10
-1.27513452E+02
 20
8.71965542E+01
  0
VERTEX
  8
0
 62
7
 10
-1.27771830E+02
 20
8.69020123E+01
  0
VERTEX
  8
0
 62
7
 10
-1.28007023E+02
 20
8.65810413E+01
  0
VERTEX
  8
0
 62
7
 10
-1.28217139E+02
 20
8.62362254E+01
  0
VERTEX
  8
0
 62
7
 10
-1.28400485E+02
 20
8.58703409E+01
  0
VERTEX
  8
0
 62
7
 10
-1.28555585E+02
 20
8.54863336E+01
  0
VERTEX
  8
0
 62
7
 10
-1.28681191E+02
 20
8.50872954E+01
  0
VERTEX
  8
0
 62
7
 10
-1.28776292E+02
 20
8.46764392E+01
  0
VERTEX
  8
0
 62
7
 10
-1.28840120E+02
 20
8.42570727E+01
  0
VERTEX
  8
0
 62
7
 10
-1.28872164E+02
 20
8.38325727E+01
  0
VERTEX
  8
0
 62
7
 10
-1.28872164E+02
 20
8.34063568E+01
  0
VERTEX
  8
0
 62
7
 10
-1.28840120E+02
 20
8.29818567E+01
  0
VERTEX
  8
0
 62
7
 10
-1.28776292E+02
 20
8.25624903E+01
  0
VERTEX
  8
0
 62
7
 10
-1.28681191E+02
 20
8.21516340E+01
  0
VERTEX
  8
0
 62
7
 10
-1.28555585E+02
 20
8.17525958E+01
  0
VERTEX
  8
0
 62
7
 10
-1.28400485E+02
 20
8.13685886E+01
  0
VERTEX
  8
0
 62
7
 10
-1.28217139E+02
 20
8.10027041E+01
  0
VERTEX
  8
0
 62
7
 10
-1.28007023E+02
 20
8.06578882E+01
  0
VERTEX
  8
0
 62
7
 10
-1.27771830E+02
 20
8.03369171E+01
  0
VERTEX
  8
0
 62
7
 10
-1.27513452E+02
 20
8.00423753E+01
  0
VERTEX
  8
0
 62
7
 10
-1.27233971E+02
 20
7.97766340E+01
  0
VERTEX
  8
0
 62
7
 10
-1.26935636E+02
 20
7.95418329E+01
  0
VERTEX
  8
0
 62
7
 10
-1.26620849E+02
 20
7.93398626E+01
  0
VERTEX
  8
0
 62
7
 10
-1.26292146E+02
 20
7.91723491E+01
  0
VERTEX
  8
0
 62
7
 10
-1.25952172E+02
 20
7.90406411E+01
  0
VERTEX
  8
0
 62
7
 10
-1.25603664E+02
 20
7.89457992E+01
  0
VERTEX
  8
0
 62
7
 10
-1.25249429E+02
 20
7.88885868E+01
  0
VERTEX
  8
0
 62
7
 10
-1.24892319E+02
 20
7.88694647E+01
  0
SEQEND
  8
0
  0
LINE
  8
0
 62
7
 10
-1.42249969E+02
 20
9.73694647E+01
 11
-1.33249969E+02
 21
9.73694647E+01
  0
LINE
  8
0
 62
2
 10
-1.42249969E+02
 20
9.65494573E+01
 11
-1.33249969E+02
 21
9.65494573E+01
  0
LINE
  8
0
 62
7
 10
-1.42249969E+02
 20
7.93694723E+01
 11
-1.33249969E+02
 21
7.93694723E+01
  0
LINE
  8
0
 62
2
 10
-1.42249969E+02
 20
8.01894644E+01
 11
-1.33249969E+02
 21
8.01894644E+01
  0
LINE
  8
0
 62
4
 10
-1.52044198E+02
 20
7.27810074E+01
 11
-1.43455741E+02
 21
7.27810074E+01
  0
LINE
  8
0
 62
4
 10
-1.52044198E+02
 20
8.05752360E+01
 11
-1.43455741E+02
 21
8.05752360E+01
  0
LINE
  8
0
 62
4
 10
-1.42249969E+02
 20
7.48694647E+01
 11
-1.43455741E+02
 21
7.27810074E+01
  0
LINE
  8
0
 62
4
 10
-1.53249969E+02
 20
7.48694647E+01
 11
-1.52044198E+02
 21
7.27810074E+01
  0
ARC
  8
0
 62
4
 10
-1.46349248E+02
 20
7.66781217E+01
 40
6.90072132E+00
 50
1.45615752E+02
 51
2.14384248E+02
  0
ARC
  8
0
 62
4
 10
-1.49150691E+02
 20
7.66781217E+01
 40
6.90072132E+00
 50
3.25615752E+02
 51
3.43842480E+01
  0
LINE
  8
0
 62
4
 10
-1.52044198E+02
 20
1.03957922E+02
 11
-1.43455741E+02
 21
1.03957922E+02
  0
LINE
  8
0
 62
4
 10
-1.52044198E+02
 20
9.61636933E+01
 11
-1.43455741E+02
 21
9.61636933E+01
  0
LINE
  8
0
 62
4
 10
-1.52044198E+02
 20
1.03957922E+02
 11
-1.53249969E+02
 21
1.01869465E+02
  0
LINE
  8
0
 62
4
 10
-1.43455741E+02
 20
1.03957922E+02
 11
-1.42249969E+02
 21
1.01869465E+02
  0
ARC
  8
0
 62
4
 10
-1.46349248E+02
 20
1.00060808E+02
 40
6.90072132E+00
 50
1.45615752E+02
 51
2.14384248E+02
  0
ARC
  8
0
 62
4
 10
-1.49150691E+02
 20
1.00060808E+02
 40
6.90072132E+00
 50
3.25615752E+02
 51
3.43842480E+01
  0
ARC
  8
0
 62
4
 10
-1.68044198E+02
 20
8.83694647E+01
 40
2.57942282E+01
 50
3.42412046E+02
 51
1.75879541E+01
  0
ARC
  8
0
 62
4
 10
-1.27455741E+02
 20
8.83694647E+01
 40
2.57942282E+01
 50
1.62412046E+02
 51
1.97587954E+02
  0
LINE
  8
0
 62
4
 10
-1.53249969E+02
 20
7.48694647E+01
 11
-1.53249969E+02
 21
1.01869465E+02
  0
LINE
  8
0
 62
4
 10
-1.42249969E+02
 20
7.48694647E+01
 11
-1.42249969E+02
 21
1.01869465E+02
  0
LINE
  8
0
  6
CENTER
 62
6
 10
3.02500610E+01
 20
1.18859300E+02
 11
-1.67499390E+01
 21
1.18859300E+02
  0
LINE
  8
0
 62
6
 10
-1.30178881E+01
 20
1.21859300E+02
 11
-1.64819897E+01
 21
1.15859300E+02
  0
LINE
  8
0
 62
4
 10
-4.74993896E+00
 20
1.20359300E+02
 11
-1.38839136E+01
 21
1.20359300E+02
  0
LINE
  8
0
 62
4
 10
-4.74993896E+00
 20
1.17359300E+02
 11
-1.56159644E+01
 21
1.17359300E+02
  0
LINE
  8
0
  6
CENTER
 62
6
 10
1.25000000E+00
 20
1.07699609E+02
 11
-3.75000000E+00
 21
1.07699609E+02
  0
LINE
  8
0
  6
CENTER
 62
6
 10
-1.25000000E+00
 20
1.10199609E+02
 11
-1.25000000E+00
 21
1.05199609E+02
  0
LINE
  8
0
  6
CENTER
 62
6
 10
6.75000000E+00
 20
1.10199609E+02
 11
6.75000000E+00
 21
1.05199609E+02
  0
LINE
  8
0
  6
CENTER
 62
6
 10
9.25000000E+00
 20
1.07699609E+02
 11
4.25000000E+00
 21
1.07699609E+02
  0
LINE
  8
0
 62
4
 10
1.02500000E+01
 20
1.30087311E+02
 11
1.02500000E+01
 21
1.02520850E+02
  0
LINE
  8
0
 62
4
 10
-4.75000000E+00
 20
1.31875887E+02
 11
-4.75000000E+00
 21
1.02520850E+02
  0
LINE
  8
0
 62
4
 10
2.52500000E+01
 20
1.31875887E+02
 11
2.52500000E+01
 21
1.14260928E+02
  0
LINE
  8
0
  6
CENTER
 62
6
 10
1.77500000E+01
 20
1.29230273E+02
 11
1.77500000E+01
 21
1.22081079E+02
  0
LINE
  8
0
  6
CENTER
 62
6
 10
2.13245969E+01
 20
1.25655676E+02
 11
1.41754031E+01
 21
1.25655676E+02
  0
LINE
  8
0
 62
4
 10
-4.75000001E+00
 20
1.31875887E+02
 11
2.52500000E+01
 21
1.31875887E+02
  0
LINE
  8
0
 62
4
 10
-4.75000001E+00
 20
1.30087311E+02
 11
2.52500000E+01
 21
1.30087311E+02
  0
LINE
  8
0
 62
4
 10
-4.75000001E+00
 20
1.28871774E+02
 11
1.02500000E+01
 21
1.28871774E+02
  0
LINE
  8
0
 62
4
 10
-3.58843602E+00
 20
1.12896999E+02
 11
8.99074727E+00
 21
1.12896999E+02
  0
LINE
  8
0
 62
4
 10
-4.75000001E+00
 20
1.02520850E+02
 11
1.02500000E+01
 21
1.02520850E+02
  0
LINE
  8
0
 62
4
 10
1.02500000E+01
 20
1.14260928E+02
 11
2.52500000E+01
 21
1.14260928E+02
  0
LINE
  8
0
 62
4
 10
1.02500000E+01
 20
1.21716445E+02
 11
2.52500000E+01
 21
1.21716445E+02
  0
LINE
  8
0
 62
4
 10
1.02500000E+01
 20
1.21646986E+02
 11
2.52500000E+01
 21
1.21646986E+02
  0
POLYLINE
  8
0
 62
4
 66
1
  0
VERTEX
  8
0
 62
4
 10
1.55000000E+01
 20
1.25655676E+02
  0
VERTEX
  8
0
 62
4
 10
1.55085619E+01
 20
1.25462555E+02
  0
VERTEX
  8
0
 62
4
 10
1.55341826E+01
 20
1.25270903E+02
  0
VERTEX
  8
0
 62
4
 10
1.55766669E+01
 20
1.25082180E+02
  0
VERTEX
  8
0
 62
4
 10
1.56356916E+01
 20
1.24897822E+02
  0
VERTEX
  8
0
 62
4
 10
1.57108075E+01
 20
1.24719231E+02
  0
VERTEX
  8
0
 62
4
 10
1.58014428E+01
 20
1.24547767E+02
  0
VERTEX
  8
0
 62
4
 10
1.59069079E+01
 20
1.24384735E+02
  0
VERTEX
  8
0
 62
4
 10
1.60264000E+01
 20
1.24231376E+02
  0
VERTEX
  8
0
 62
4
 10
1.61590097E+01
 20
1.24088856E+02
  0
VERTEX
  8
0
 62
4
 10
1.63037279E+01
 20
1.23958261E+02
  0
VERTEX
  8
0
 62
4
 10
1.64594530E+01
 20
1.23840585E+02
  0
VERTEX
  8
0
 62
4
 10
1.66250000E+01
 20
1.23736722E+02
  0
VERTEX
  8
0
 62
4
 10
1.67991089E+01
 20
1.23647463E+02
  0
VERTEX
  8
0
 62
4
 10
1.69804547E+01
 20
1.23573489E+02
  0
VERTEX
  8
0
 62
4
 10
1.71676571E+01
 20
1.23515361E+02
  0
VERTEX
  8
0
 62
4
 10
1.73592916E+01
 20
1.23473522E+02
  0
VERTEX
  8
0
 62
4
 10
1.75538996E+01
 20
1.23448290E+02
  0
VERTEX
  8
0
 62
4
 10
1.77500000E+01
 20
1.23439859E+02
  0
VERTEX
  8
0
 62
4
 10
1.79461004E+01
 20
1.23448290E+02
  0
VERTEX
  8
0
 62
4
 10
1.81407084E+01
 20
1.23473522E+02
  0
VERTEX
  8
0
 62
4
 10
1.83323428E+01
 20
1.23515361E+02
  0
VERTEX
  8
0
 62
4
 10
1.85195453E+01
 20
1.23573489E+02
  0
VERTEX
  8
0
 62
4
 10
1.87008911E+01
 20
1.23647463E+02
  0
VERTEX
  8
0
 62
4
 10
1.88750000E+01
 20
1.23736722E+02
  0
VERTEX
  8
0
 62
4
 10
1.90405470E+01
 20
1.23840585E+02
  0
VERTEX
  8
0
 62
4
 10
1.91962721E+01
 20
1.23958261E+02
  0
VERTEX
  8
0
 62
4
 10
1.93409903E+01
 20
1.24088856E+02
  0
VERTEX
  8
0
 62
4
 10
1.94736000E+01
 20
1.24231376E+02
  0
VERTEX
  8
0
 62
4
 10
1.95930921E+01
 20
1.24384735E+02
  0
VERTEX
  8
0
 62
4
 10
1.96985572E+01
 20
1.24547767E+02
  0
VERTEX
  8
0
 62
4
 10
1.97891925E+01
 20
1.24719231E+02
  0
VERTEX
  8
0
 62
4
 10
1.98643084E+01
 20
1.24897822E+02
  0
VERTEX
  8
0
 62
4
 10
1.99233331E+01
 20
1.25082180E+02
  0
VERTEX
  8
0
 62
4
 10
1.99658174E+01
 20
1.25270903E+02
  0
VERTEX
  8
0
 62
4
 10
1.99914381E+01
 20
1.25462555E+02
  0
VERTEX
  8
0
 62
4
 10
2.00000000E+01
 20
1.25655676E+02
  0
VERTEX
  8
0
 62
4
 10
1.99914381E+01
 20
1.25848797E+02
  0
VERTEX
  8
0
 62
4
 10
1.99658174E+01
 20
1.26040449E+02
  0
VERTEX
  8
0
 62
4
 10
1.99233331E+01
 20
1.26229172E+02
  0
VERTEX
  8
0
 62
4
 10
1.98643084E+01
 20
1.26413530E+02
  0
VERTEX
  8
0
 62
4
 10
1.97891925E+01
 20
1.26592121E+02
  0
VERTEX
  8
0
 62
4
 10
1.96985572E+01
 20
1.26763585E+02
  0
VERTEX
  8
0
 62
4
 10
1.95930921E+01
 20
1.26926617E+02
  0
VERTEX
  8
0
 62
4
 10
1.94736000E+01
 20
1.27079976E+02
  0
VERTEX
  8
0
 62
4
 10
1.93409903E+01
 20
1.27222496E+02
  0
VERTEX
  8
0
 62
4
 10
1.91962721E+01
 20
1.27353091E+02
  0
VERTEX
  8
0
 62
4
 10
1.90405470E+01
 20
1.27470767E+02
  0
VERTEX
  8
0
 62
4
 10
1.88750000E+01
 20
1.27574630E+02
  0
VERTEX
  8
0
 62
4
 10
1.87008911E+01
 20
1.27663889E+02
  0
VERTEX
  8
0
 62
4
 10
1.85195453E+01
 20
1.27737863E+02
  0
VERTEX
  8
0
 62
4
 10
1.83323429E+01
 20
1.27795991E+02
  0
VERTEX
  8
0
 62
4
 10
1.81407084E+01
 20
1.27837830E+02
  0
VERTEX
  8
0
 62
4
 10
1.79461004E+01
 20
1.27863062E+02
  0
VERTEX
  8
0
 62
4
 10
1.77500000E+01
 20
1.27871493E+02
  0
VERTEX
  8
0
 62
4
 10
1.75538996E+01
 20
1.27863062E+02
  0
VERTEX
  8
0
 62
4
 10
1.73592916E+01
 20
1.27837830E+02
  0
VERTEX
  8
0
 62
4
 10
1.71676572E+01
 20
1.27795991E+02
  0
VERTEX
  8
0
 62
4
 10
1.69804547E+01
 20
1.27737863E+02
  0
VERTEX
  8
0
 62
4
 10
1.67991089E+01
 20
1.27663889E+02
  0
VERTEX
  8
0
 62
4
 10
1.66250000E+01
 20
1.27574630E+02
  0
VERTEX
  8
0
 62
4
 10
1.64594530E+01
 20
1.27470767E+02
  0
VERTEX
  8
0
 62
4
 10
1.63037279E+01
 20
1.27353091E+02
  0
VERTEX
  8
0
 62
4
 10
1.61590097E+01
 20
1.27222496E+02
  0
VERTEX
  8
0
 62
4
 10
1.60264000E+01
 20
1.27079976E+02
  0
VERTEX
  8
0
 62
4
 10
1.59069079E+01
 20
1.26926617E+02
  0
VERTEX
  8
0
 62
4
 10
1.58014428E+01
 20
1.26763585E+02
  0
VERTEX
  8
0
 62
4
 10
1.57108075E+01
 20
1.26592121E+02
  0
VERTEX
  8
0
 62
4
 10
1.56356916E+01
 20
1.26413530E+02
  0
VERTEX
  8
0
 62
4
 10
1.55766669E+01
 20
1.26229172E+02
  0
VERTEX
  8
0
 62
4
 10
1.55341826E+01
 20
1.26040449E+02
  0
VERTEX
  8
0
 62
4
 10
1.55085619E+01
 20
1.25848797E+02
  0
VERTEX
  8
0
 62
4
 10
1.55000000E+01
 20
1.25655676E+02
  0
SEQEND
  8
0
  0
POLYLINE
  8
0
 62
4
 66
1
  0
VERTEX
  8
0
 62
4
 10
8.75000000E+00
 20
1.07699609E+02
  0
VERTEX
  8
0
 62
4
 10
8.74194859E+00
 20
1.07876164E+02
  0
VERTEX
  8
0
 62
4
 10
8.71785918E+00
 20
1.08051297E+02
  0
VERTEX
  8
0
 62
4
 10
8.67792573E+00
 20
1.08223599E+02
  0
VERTEX
  8
0
 62
4
 10
8.62246975E+00
 20
1.08391682E+02
  0
VERTEX
  8
0
 62
4
 10
8.55193774E+00
 20
1.08554193E+02
  0
VERTEX
  8
0
 62
4
 10
8.46689760E+00
 20
1.08709823E+02
  0
VERTEX
  8
0
 62
4
 10
8.36803400E+00
 20
1.08857320E+02
  0
VERTEX
  8
0
 62
4
 10
8.25614294E+00
 20
1.08995495E+02
  0
VERTEX
  8
0
 62
4
 10
8.13212531E+00
 20
1.09123237E+02
  0
VERTEX
  8
0
 62
4
 10
7.99697962E+00
 20
1.09239516E+02
  0
VERTEX
  8
0
 62
4
 10
7.85179398E+00
 20
1.09343397E+02
  0
VERTEX
  8
0
 62
4
 10
7.69773734E+00
 20
1.09434044E+02
  0
VERTEX
  8
0
 62
4
 10
7.53605008E+00
 20
1.09510725E+02
  0
VERTEX
  8
0
 62
4
 10
7.36803401E+00
 20
1.09572825E+02
  0
VERTEX
  8
0
 62
4
 10
7.19504188E+00
 20
1.09619842E+02
  0
VERTEX
  8
0
 62
4
 10
7.01846655E+00
 20
1.09651399E+02
  0
VERTEX
  8
0
 62
4
 10
6.83972968E+00
 20
1.09667241E+02
  0
VERTEX
  8
0
 62
4
 10
6.66027036E+00
 20
1.09667241E+02
  0
VERTEX
  8
0
 62
4
 10
6.48153349E+00
 20
1.09651399E+02
  0
VERTEX
  8
0
 62
4
 10
6.30495815E+00
 20
1.09619842E+02
  0
VERTEX
  8
0
 62
4
 10
6.13196603E+00
 20
1.09572825E+02
  0
VERTEX
  8
0
 62
4
 10
5.96394995E+00
 20
1.09510725E+02
  0
VERTEX
  8
0
 62
4
 10
5.80226269E+00
 20
1.09434044E+02
  0
VERTEX
  8
0
 62
4
 10
5.64820605E+00
 20
1.09343397E+02
  0
VERTEX
  8
0
 62
4
 10
5.50302041E+00
 20
1.09239516E+02
  0
VERTEX
  8
0
 62
4
 10
5.36787472E+00
 20
1.09123237E+02
  0
VERTEX
  8
0
 62
4
 10
5.24385708E+00
 20
1.08995495E+02
  0
VERTEX
  8
0
 62
4
 10
5.13196602E+00
 20
1.08857320E+02
  0
VERTEX
  8
0
 62
4
 10
5.03310242E+00
 20
1.08709823E+02
  0
VERTEX
  8
0
 62
4
 10
4.94806227E+00
 20
1.08554193E+02
  0
VERTEX
  8
0
 62
4
 10
4.87753027E+00
 20
1.08391682E+02
  0
VERTEX
  8
0
 62
4
 10
4.82207428E+00
 20
1.08223599E+02
  0
VERTEX
  8
0
 62
4
 10
4.78214083E+00
 20
1.08051297E+02
  0
VERTEX
  8
0
 62
4
 10
4.75805141E+00
 20
1.07876164E+02
  0
VERTEX
  8
0
 62
4
 10
4.75000000E+00
 20
1.07699609E+02
  0
SEQEND
  8
0
  0
POLYLINE
  8
0
 62
4
 66
1
  0
VERTEX
  8
0
 62
4
 10
4.75000000E+00
 20
1.07163970E+02
  0
VERTEX
  8
0
 62
4
 10
4.75761060E+00
 20
1.06992307E+02
  0
VERTEX
  8
0
 62
4
 10
4.78038449E+00
 20
1.06821950E+02
  0
VERTEX
  8
0
 62
4
 10
4.81814835E+00
 20
1.06654196E+02
  0
VERTEX
  8
0
 62
4
 10
4.87061476E+00
 20
1.06490322E+02
  0
VERTEX
  8
0
 62
4
 10
4.93738442E+00
 20
1.06331575E+02
  0
VERTEX
  8
0
 62
4
 10
5.01794919E+00
 20
1.06179162E+02
  0
VERTEX
  8
0
 62
4
 10
5.11169591E+00
 20
1.06034245E+02
  0
VERTEX
  8
0
 62
4
 10
5.21791111E+00
 20
1.05897926E+02
  0
VERTEX
  8
0
 62
4
 10
5.33578643E+00
 20
1.05771242E+02
  0
VERTEX
  8
0
 62
4
 10
5.46442478E+00
 20
1.05655157E+02
  0
VERTEX
  8
0
 62
4
 10
5.60284712E+00
 20
1.05550555E+02
  0
VERTEX
  8
0
 62
4
 10
5.74999999E+00
 20
1.05458233E+02
  0
VERTEX
  8
0
 62
4
 10
5.90476347E+00
 20
1.05378892E+02
  0
VERTEX
  8
0
 62
4
 10
6.06595971E+00
 20
1.05313137E+02
  0
VERTEX
  8
0
 62
4
 10
6.23236190E+00
 20
1.05261468E+02
  0
VERTEX
  8
0
 62
4
 10
6.40270364E+00
 20
1.05224277E+02
  0
VERTEX
  8
0
 62
4
 10
6.57568851E+00
 20
1.05201849E+02
  0
VERTEX
  8
0
 62
4
 10
6.74999999E+00
 20
1.05194354E+02
  0
VERTEX
  8
0
 62
4
 10
6.92431148E+00
 20
1.05201849E+02
  0
VERTEX
  8
0
 62
4
 10
7.09729635E+00
 20
1.05224277E+02
  0
VERTEX
  8
0
 62
4
 10
7.26763808E+00
 20
1.05261468E+02
  0
VERTEX
  8
0
 62
4
 10
7.43404028E+00
 20
1.05313137E+02
  0
VERTEX
  8
0
 62
4
 10
7.59523652E+00
 20
1.05378892E+02
  0
VERTEX
  8
0
 62
4
 10
7.75000000E+00
 20
1.05458233E+02
  0
VERTEX
  8
0
 62
4
 10
7.89715287E+00
 20
1.05550555E+02
  0
VERTEX
  8
0
 62
4
 10
8.03557522E+00
 20
1.05655157E+02
  0
VERTEX
  8
0
 62
4
 10
8.16421356E+00
 20
1.05771242E+02
  0
VERTEX
  8
0
 62
4
 10
8.28208888E+00
 20
1.05897926E+02
  0
VERTEX
  8
0
 62
4
 10
8.38830409E+00
 20
1.06034245E+02
  0
VERTEX
  8
0
 62
4
 10
8.48205081E+00
 20
1.06179162E+02
  0
VERTEX
  8
0
 62
4
 10
8.56261557E+00
 20
1.06331575E+02
  0
VERTEX
  8
0
 62
4
 10
8.62938524E+00
 20
1.06490322E+02
  0
VERTEX
  8
0
 62
4
 10
8.68185165E+00
 20
1.06654196E+02
  0
VERTEX
  8
0
 62
4
 10
8.71961551E+00
 20
1.06821950E+02
  0
VERTEX
  8
0
 62
4
 10
8.74238940E+00
 20
1.06992307E+02
  0
VERTEX
  8
0
 62
4
 10
8.75000000E+00
 20
1.07163970E+02
  0
VERTEX
  8
0
 62
4
 10
8.74238940E+00
 20
1.07335633E+02
  0
VERTEX
  8
0
 62
4
 10
8.71961551E+00
 20
1.07505990E+02
  0
VERTEX
  8
0
 62
4
 10
8.68185165E+00
 20
1.07673744E+02
  0
VERTEX
  8
0
 62
4
 10
8.62938524E+00
 20
1.07837618E+02
  0
VERTEX
  8
0
 62
4
 10
8.56261558E+00
 20
1.07996365E+02
  0
VERTEX
  8
0
 62
4
 10
8.48205081E+00
 20
1.08148778E+02
  0
VERTEX
  8
0
 62
4
 10
8.38830409E+00
 20
1.08293695E+02
  0
VERTEX
  8
0
 62
4
 10
8.28208889E+00
 20
1.08430014E+02
  0
VERTEX
  8
0
 62
4
 10
8.16421356E+00
 20
1.08556698E+02
  0
VERTEX
  8
0
 62
4
 10
8.03557522E+00
 20
1.08672783E+02
  0
VERTEX
  8
0
 62
4
 10
7.89715288E+00
 20
1.08777385E+02
  0
VERTEX
  8
0
 62
4
 10
7.75000000E+00
 20
1.08869707E+02
  0
VERTEX
  8
0
 62
4
 10
7.59523653E+00
 20
1.08949048E+02
  0
VERTEX
  8
0
 62
4
 10
7.43404029E+00
 20
1.09014803E+02
  0
VERTEX
  8
0
 62
4
 10
7.26763809E+00
 20
1.09066472E+02
  0
VERTEX
  8
0
 62
4
 10
7.09729636E+00
 20
1.09103663E+02
  0
VERTEX
  8
0
 62
4
 10
6.92431149E+00
 20
1.09126091E+02
  0
VERTEX
  8
0
 62
4
 10
6.75000000E+00
 20
1.09133586E+02
  0
VERTEX
  8
0
 62
4
 10
6.57568852E+00
 20
1.09126091E+02
  0
VERTEX
  8
0
 62
4
 10
6.40270365E+00
 20
1.09103663E+02
  0
VERTEX
  8
0
 62
4
 10
6.23236191E+00
 20
1.09066472E+02
  0
VERTEX
  8
0
 62
4
 10
6.06595972E+00
 20
1.09014803E+02
  0
VERTEX
  8
0
 62
4
 10
5.90476348E+00
 20
1.08949048E+02
  0
VERTEX
  8
0
 62
4
 10
5.75000000E+00
 20
1.08869707E+02
  0
VERTEX
  8
0
 62
4
 10
5.60284713E+00
 20
1.08777385E+02
  0
VERTEX
  8
0
 62
4
 10
5.46442478E+00
 20
1.08672783E+02
  0
VERTEX
  8
0
 62
4
 10
5.33578644E+00
 20
1.08556698E+02
  0
VERTEX
  8
0
 62
4
 10
5.21791112E+00
 20
1.08430014E+02
  0
VERTEX
  8
0
 62
4
 10
5.11169591E+00
 20
1.08293695E+02
  0
VERTEX
  8
0
 62
4
 10
5.01794919E+00
 20
1.08148778E+02
  0
VERTEX
  8
0
 62
4
 10
4.93738443E+00
 20
1.07996365E+02
  0
VERTEX
  8
0
 62
4
 10
4.87061476E+00
 20
1.07837618E+02
  0
VERTEX
  8
0
 62
4
 10
4.81814835E+00
 20
1.07673744E+02
  0
VERTEX
  8
0
 62
4
 10
4.78038449E+00
 20
1.07505990E+02
  0
VERTEX
  8
0
 62
4
 10
4.75761060E+00
 20
1.07335633E+02
  0
VERTEX
  8
0
 62
4
 10
4.75000000E+00
 20
1.07163970E+02
  0
SEQEND
  8
0
  0
LINE
  8
0
 62
4
 10
4.75000000E+00
 20
1.07163970E+02
 11
4.75000000E+00
 21
1.07699609E+02
  0
LINE
  8
0
 62
4
 10
8.75000000E+00
 20
1.07163970E+02
 11
8.75000000E+00
 21
1.07699609E+02
  0
POLYLINE
  8
0
 62
6
 66
1
  0
VERTEX
  8
0
 62
6
 10
8.25000000E+00
 20
1.07163970E+02
  0
VERTEX
  8
0
 62
6
 10
8.24429205E+00
 20
1.07292717E+02
  0
VERTEX
  8
0
 62
6
 10
8.22721163E+00
 20
1.07420485E+02
  0
VERTEX
  8
0
 62
6
 10
8.19888874E+00
 20
1.07546301E+02
  0
VERTEX
  8
0
 62
6
 10
8.15953893E+00
 20
1.07669206E+02
  0
VERTEX
  8
0
 62
6
 10
8.10946168E+00
 20
1.07788267E+02
  0
VERTEX
  8
0
 62
6
 10
8.04903811E+00
 20
1.07902576E+02
  0
VERTEX
  8
0
 62
6
 10
7.97872807E+00
 20
1.08011264E+02
  0
VERTEX
  8
0
 62
6
 10
7.89906666E+00
 20
1.08113503E+02
  0
VERTEX
  8
0
 62
6
 10
7.81066017E+00
 20
1.08208516E+02
  0
VERTEX
  8
0
 62
6
 10
7.71418141E+00
 20
1.08295580E+02
  0
VERTEX
  8
0
 62
6
 10
7.61036465E+00
 20
1.08374031E+02
  0
VERTEX
  8
0
 62
6
 10
7.50000000E+00
 20
1.08443273E+02
  0
VERTEX
  8
0
 62
6
 10
7.38392739E+00
 20
1.08502778E+02
  0
VERTEX
  8
0
 62
6
 10
7.26303021E+00
 20
1.08552095E+02
  0
VERTEX
  8
0
 62
6
 10
7.13822857E+00
 20
1.08590847E+02
  0
VERTEX
  8
0
 62
6
 10
7.01047227E+00
 20
1.08618739E+02
  0
VERTEX
  8
0
 62
6
 10
6.88073361E+00
 20
1.08635560E+02
  0
VERTEX
  8
0
 62
6
 10
6.75000000E+00
 20
1.08641182E+02
  0
VERTEX
  8
0
 62
6
 10
6.61926638E+00
 20
1.08635560E+02
  0
VERTEX
  8
0
 62
6
 10
6.48952773E+00
 20
1.08618739E+02
  0
VERTEX
  8
0
 62
6
 10
6.36177143E+00
 20
1.08590847E+02
  0
VERTEX
  8
0
 62
6
 10
6.23696978E+00
 20
1.08552095E+02
  0
VERTEX
  8
0
 62
6
 10
6.11607261E+00
 20
1.08502778E+02
  0
VERTEX
  8
0
 62
6
 10
6.00000000E+00
 20
1.08443273E+02
  0
VERTEX
  8
0
 62
6
 10
5.88963534E+00
 20
1.08374031E+02
  0
VERTEX
  8
0
 62
6
 10
5.78581858E+00
 20
1.08295580E+02
  0
VERTEX
  8
0
 62
6
 10
5.68933983E+00
 20
1.08208516E+02
  0
VERTEX
  8
0
 62
6
 10
5.60093333E+00
 20
1.08113503E+02
  0
VERTEX
  8
0
 62
6
 10
5.52127193E+00
 20
1.08011264E+02
  0
VERTEX
  8
0
 62
6
 10
5.45096189E+00
 20
1.07902576E+02
  0
VERTEX
  8
0
 62
6
 10
5.39053832E+00
 20
1.07788267E+02
  0
VERTEX
  8
0
 62
6
 10
5.34046107E+00
 20
1.07669206E+02
  0
VERTEX
  8
0
 62
6
 10
5.30111126E+00
 20
1.07546301E+02
  0
VERTEX
  8
0
 62
6
 10
5.27278837E+00
 20
1.07420485E+02
  0
VERTEX
  8
0
 62
6
 10
5.25570795E+00
 20
1.07292717E+02
  0
VERTEX
  8
0
 62
6
 10
5.25000000E+00
 20
1.07163970E+02
  0
VERTEX
  8
0
 62
6
 10
5.25570795E+00
 20
1.07035223E+02
  0
VERTEX
  8
0
 62
6
 10
5.27278837E+00
 20
1.06907455E+02
  0
VERTEX
  8
0
 62
6
 10
5.30111126E+00
 20
1.06781639E+02
  0
VERTEX
  8
0
 62
6
 10
5.34046107E+00
 20
1.06658734E+02
  0
VERTEX
  8
0
 62
6
 10
5.39053832E+00
 20
1.06539673E+02
  0
VERTEX
  8
0
 62
6
 10
5.45096190E+00
 20
1.06425364E+02
  0
VERTEX
  8
0
 62
6
 10
5.52127194E+00
 20
1.06316676E+02
  0
VERTEX
  8
0
 62
6
 10
5.60093334E+00
 20
1.06214437E+02
  0
VERTEX
  8
0
 62
6
 10
5.68933983E+00
 20
1.06119424E+02
  0
VERTEX
  8
0
 62
6
 10
5.78581859E+00
 20
1.06032360E+02
  0
VERTEX
  8
0
 62
6
 10
5.88963535E+00
 20
1.05953909E+02
  0
VERTEX
  8
0
 62
6
 10
6.00000000E+00
 20
1.05884667E+02
  0
VERTEX
  8
0
 62
6
 10
6.11607261E+00
 20
1.05825162E+02
  0
VERTEX
  8
0
 62
6
 10
6.23696979E+00
 20
1.05775845E+02
  0
VERTEX
  8
0
 62
6
 10
6.36177144E+00
 20
1.05737093E+02
  0
VERTEX
  8
0
 62
6
 10
6.48952774E+00
 20
1.05709201E+02
  0
VERTEX
  8
0
 62
6
 10
6.61926639E+00
 20
1.05692380E+02
  0
VERTEX
  8
0
 62
6
 10
6.75000000E+00
 20
1.05686758E+02
  0
VERTEX
  8
0
 62
6
 10
6.88073362E+00
 20
1.05692380E+02
  0
VERTEX
  8
0
 62
6
 10
7.01047227E+00
 20
1.05709201E+02
  0
VERTEX
  8
0
 62
6
 10
7.13822857E+00
 20
1.05737093E+02
  0
VERTEX
  8
0
 62
6
 10
7.26303022E+00
 20
1.05775845E+02
  0
VERTEX
  8
0
 62
6
 10
7.38392740E+00
 20
1.05825162E+02
  0
VERTEX
  8
0
 62
6
 10
7.50000000E+00
 20
1.05884667E+02
  0
VERTEX
  8
0
 62
6
 10
7.61036466E+00
 20
1.05953909E+02
  0
VERTEX
  8
0
 62
6
 10
7.71418142E+00
 20
1.06032360E+02
  0
VERTEX
  8
0
 62
6
 10
7.81066017E+00
 20
1.06119424E+02
  0
VERTEX
  8
0
 62
6
 10
7.89906667E+00
 20
1.06214437E+02
  0
VERTEX
  8
0
 62
6
 10
7.97872807E+00
 20
1.06316676E+02
  0
VERTEX
  8
0
 62
6
 10
8.04903811E+00
 20
1.06425364E+02
  0
VERTEX
  8
0
 62
6
 10
8.10946168E+00
 20
1.06539673E+02
  0
VERTEX
  8
0
 62
6
 10
8.15953893E+00
 20
1.06658734E+02
  0
VERTEX
  8
0
 62
6
 10
8.19888874E+00
 20
1.06781640E+02
  0
VERTEX
  8
0
 62
6
 10
8.22721163E+00
 20
1.06907455E+02
  0
VERTEX
  8
0
 62
6
 10
8.24429205E+00
 20
1.07035223E+02
  0
VERTEX
  8
0
 62
6
 10
8.25000000E+00
 20
1.07163970E+02
  0
SEQEND
  8
0
  0
LINE
  8
0
 62
4
 10
5.75000000E+00
 20
1.07735158E+02
 11
5.75000000E+00
 21
1.06592781E+02
  0
LINE
  8
0
 62
4
 10
7.75000000E+00
 20
1.07735158E+02
 11
7.75000000E+00
 21
1.06592781E+02
  0
LINE
  8
0
 62
4
 10
6.75000000E+00
 20
1.08296499E+02
 11
5.75000000E+00
 21
1.07735158E+02
  0
LINE
  8
0
 62
4
 10
6.75000000E+00
 20
1.08296499E+02
 11
7.75000000E+00
 21
1.07735158E+02
  0
LINE
  8
0
 62
4
 10
7.75000000E+00
 20
1.06592781E+02
 11
6.75000000E+00
 21
1.06021593E+02
  0
LINE
  8
0
 62
4
 10
5.75000000E+00
 20
1.06592781E+02
 11
6.75000000E+00
 21
1.06021593E+02
  0
LINE
  8
0
 62
4
 10
-2.25000000E+00
 20
1.06592781E+02
 11
-1.25000000E+00
 21
1.06021593E+02
  0
LINE
  8
0
 62
4
 10
-2.50000000E-01
 20
1.06592781E+02
 11
-1.25000000E+00
 21
1.06021593E+02
  0
LINE
  8
0
 62
4
 10
-1.25000000E+00
 20
1.08296499E+02
 11
-2.50000000E-01
 21
1.07735158E+02
  0
LINE
  8
0
 62
4
 10
-1.25000000E+00
 20
1.08296499E+02
 11
-2.25000000E+00
 21
1.07735158E+02
  0
LINE
  8
0
 62
4
 10
-2.50000000E-01
 20
1.07735158E+02
 11
-2.50000000E-01
 21
1.06592781E+02
  0
LINE
  8
0
 62
4
 10
-2.25000000E+00
 20
1.07735158E+02
 11
-2.25000000E+00
 21
1.06592781E+02
  0
POLYLINE
  8
0
 62
6
 66
1
  0
VERTEX
  8
0
 62
6
 10
2.50000000E-01
 20
1.07163970E+02
  0
VERTEX
  8
0
 62
6
 10
2.44292047E-01
 20
1.07292717E+02
  0
VERTEX
  8
0
 62
6
 10
2.27211629E-01
 20
1.07420485E+02
  0
VERTEX
  8
0
 62
6
 10
1.98888739E-01
 20
1.07546301E+02
  0
VERTEX
  8
0
 62
6
 10
1.59538931E-01
 20
1.07669206E+02
  0
VERTEX
  8
0
 62
6
 10
1.09461680E-01
 20
1.07788267E+02
  0
VERTEX
  8
0
 62
6
 10
4.90381055E-02
 20
1.07902576E+02
  0
VERTEX
  8
0
 62
6
 10
-2.12719338E-02
 20
1.08011264E+02
  0
VERTEX
  8
0
 62
6
 10
-1.00933336E-01
 20
1.08113503E+02
  0
VERTEX
  8
0
 62
6
 10
-1.89339829E-01
 20
1.08208516E+02
  0
VERTEX
  8
0
 62
6
 10
-2.85818586E-01
 20
1.08295580E+02
  0
VERTEX
  8
0
 62
6
 10
-3.89635346E-01
 20
1.08374031E+02
  0
VERTEX
  8
0
 62
6
 10
-5.00000001E-01
 20
1.08443273E+02
  0
VERTEX
  8
0
 62
6
 10
-6.16072608E-01
 20
1.08502778E+02
  0
VERTEX
  8
0
 62
6
 10
-7.36969786E-01
 20
1.08552095E+02
  0
VERTEX
  8
0
 62
6
 10
-8.61771433E-01
 20
1.08590847E+02
  0
VERTEX
  8
0
 62
6
 10
-9.89527734E-01
 20
1.08618739E+02
  0
VERTEX
  8
0
 62
6
 10
-1.11926639E+00
 20
1.08635560E+02
  0
VERTEX
  8
0
 62
6
 10
-1.25000000E+00
 20
1.08641182E+02
  0
VERTEX
  8
0
 62
6
 10
-1.38073362E+00
 20
1.08635560E+02
  0
VERTEX
  8
0
 62
6
 10
-1.51047227E+00
 20
1.08618739E+02
  0
VERTEX
  8
0
 62
6
 10
-1.63822857E+00
 20
1.08590847E+02
  0
VERTEX
  8
0
 62
6
 10
-1.76303022E+00
 20
1.08552095E+02
  0
VERTEX
  8
0
 62
6
 10
-1.88392739E+00
 20
1.08502778E+02
  0
VERTEX
  8
0
 62
6
 10
-2.00000000E+00
 20
1.08443273E+02
  0
VERTEX
  8
0
 62
6
 10
-2.11036466E+00
 20
1.08374031E+02
  0
VERTEX
  8
0
 62
6
 10
-2.21418142E+00
 20
1.08295580E+02
  0
VERTEX
  8
0
 62
6
 10
-2.31066017E+00
 20
1.08208516E+02
  0
VERTEX
  8
0
 62
6
 10
-2.39906667E+00
 20
1.08113503E+02
  0
VERTEX
  8
0
 62
6
 10
-2.47872807E+00
 20
1.08011264E+02
  0
VERTEX
  8
0
 62
6
 10
-2.54903811E+00
 20
1.07902576E+02
  0
VERTEX
  8
0
 62
6
 10
-2.60946168E+00
 20
1.07788267E+02
  0
VERTEX
  8
0
 62
6
 10
-2.65953893E+00
 20
1.07669206E+02
  0
VERTEX
  8
0
 62
6
 10
-2.69888874E+00
 20
1.07546301E+02
  0
VERTEX
  8
0
 62
6
 10
-2.72721163E+00
 20
1.07420485E+02
  0
VERTEX
  8
0
 62
6
 10
-2.74429205E+00
 20
1.07292717E+02
  0
VERTEX
  8
0
 62
6
 10
-2.75000000E+00
 20
1.07163970E+02
  0
VERTEX
  8
0
 62
6
 10
-2.74429205E+00
 20
1.07035223E+02
  0
VERTEX
  8
0
 62
6
 10
-2.72721163E+00
 20
1.06907455E+02
  0
VERTEX
  8
0
 62
6
 10
-2.69888874E+00
 20
1.06781639E+02
  0
VERTEX
  8
0
 62
6
 10
-2.65953893E+00
 20
1.06658734E+02
  0
VERTEX
  8
0
 62
6
 10
-2.60946168E+00
 20
1.06539673E+02
  0
VERTEX
  8
0
 62
6
 10
-2.54903810E+00
 20
1.06425364E+02
  0
VERTEX
  8
0
 62
6
 10
-2.47872806E+00
 20
1.06316676E+02
  0
VERTEX
  8
0
 62
6
 10
-2.39906666E+00
 20
1.06214437E+02
  0
VERTEX
  8
0
 62
6
 10
-2.31066017E+00
 20
1.06119424E+02
  0
VERTEX
  8
0
 62
6
 10
-2.21418141E+00
 20
1.06032360E+02
  0
VERTEX
  8
0
 62
6
 10
-2.11036465E+00
 20
1.05953909E+02
  0
VERTEX
  8
0
 62
6
 10
-2.00000000E+00
 20
1.05884667E+02
  0
VERTEX
  8
0
 62
6
 10
-1.88392739E+00
 20
1.05825162E+02
  0
VERTEX
  8
0
 62
6
 10
-1.76303021E+00
 20
1.05775845E+02
  0
VERTEX
  8
0
 62
6
 10
-1.63822856E+00
 20
1.05737093E+02
  0
VERTEX
  8
0
 62
6
 10
-1.51047226E+00
 20
1.05709201E+02
  0
VERTEX
  8
0
 62
6
 10
-1.38073361E+00
 20
1.05692380E+02
  0
VERTEX
  8
0
 62
6
 10
-1.25000000E+00
 20
1.05686758E+02
  0
VERTEX
  8
0
 62
6
 10
-1.11926638E+00
 20
1.05692380E+02
  0
VERTEX
  8
0
 62
6
 10
-9.89527730E-01
 20
1.05709201E+02
  0
VERTEX
  8
0
 62
6
 10
-8.61771429E-01
 20
1.05737093E+02
  0
VERTEX
  8
0
 62
6
 10
-7.36969782E-01
 20
1.05775845E+02
  0
VERTEX
  8
0
 62
6
 10
-6.16072604E-01
 20
1.05825162E+02
  0
VERTEX
  8
0
 62
6
 10
-4.99999997E-01
 20
1.05884667E+02
  0
VERTEX
  8
0
 62
6
 10
-3.89635343E-01
 20
1.05953909E+02
  0
VERTEX
  8
0
 62
6
 10
-2.85818583E-01
 20
1.06032360E+02
  0
VERTEX
  8
0
 62
6
 10
-1.89339826E-01
 20
1.06119424E+02
  0
VERTEX
  8
0
 62
6
 10
-1.00933333E-01
 20
1.06214437E+02
  0
VERTEX
  8
0
 62
6
 10
-2.12719314E-02
 20
1.06316676E+02
  0
VERTEX
  8
0
 62
6
 10
4.90381076E-02
 20
1.06425364E+02
  0
VERTEX
  8
0
 62
6
 10
1.09461682E-01
 20
1.06539673E+02
  0
VERTEX
  8
0
 62
6
 10
1.59538933E-01
 20
1.06658734E+02
  0
VERTEX
  8
0
 62
6
 10
1.98888740E-01
 20
1.06781640E+02
  0
VERTEX
  8
0
 62
6
 10
2.27211630E-01
 20
1.06907455E+02
  0
VERTEX
  8
0
 62
6
 10
2.44292048E-01
 20
1.07035223E+02
  0
VERTEX
  8
0
 62
6
 10
2.50000000E-01
 20
1.07163970E+02
  0
SEQEND
  8
0
  0
LINE
  8
0
 62
4
 10
7.50000000E-01
 20
1.07163970E+02
 11
7.50000000E-01
 21
1.07699609E+02
  0
LINE
  8
0
 62
4
 10
-3.25000000E+00
 20
1.07163970E+02
 11
-3.25000000E+00
 21
1.07699609E+02
  0
POLYLINE
  8
0
 62
4
 66
1
  0
VERTEX
  8
0
 62
4
 10
-3.25000000E+00
 20
1.07163970E+02
  0
VERTEX
  8
0
 62
4
 10
-3.24238940E+00
 20
1.06992307E+02
  0
VERTEX
  8
0
 62
4
 10
-3.21961551E+00
 20
1.06821950E+02
  0
VERTEX
  8
0
 62
4
 10
-3.18185165E+00
 20
1.06654196E+02
  0
VERTEX
  8
0
 62
4
 10
-3.12938524E+00
 20
1.06490322E+02
  0
VERTEX
  8
0
 62
4
 10
-3.06261558E+00
 20
1.06331575E+02
  0
VERTEX
  8
0
 62
4
 10
-2.98205081E+00
 20
1.06179162E+02
  0
VERTEX
  8
0
 62
4
 10
-2.88830409E+00
 20
1.06034245E+02
  0
VERTEX
  8
0
 62
4
 10
-2.78208889E+00
 20
1.05897926E+02
  0
VERTEX
  8
0
 62
4
 10
-2.66421357E+00
 20
1.05771242E+02
  0
VERTEX
  8
0
 62
4
 10
-2.53557522E+00
 20
1.05655157E+02
  0
VERTEX
  8
0
 62
4
 10
-2.39715288E+00
 20
1.05550555E+02
  0
VERTEX
  8
0
 62
4
 10
-2.25000001E+00
 20
1.05458233E+02
  0
VERTEX
  8
0
 62
4
 10
-2.09523653E+00
 20
1.05378892E+02
  0
VERTEX
  8
0
 62
4
 10
-1.93404029E+00
 20
1.05313137E+02
  0
VERTEX
  8
0
 62
4
 10
-1.76763810E+00
 20
1.05261468E+02
  0
VERTEX
  8
0
 62
4
 10
-1.59729636E+00
 20
1.05224277E+02
  0
VERTEX
  8
0
 62
4
 10
-1.42431149E+00
 20
1.05201849E+02
  0
VERTEX
  8
0
 62
4
 10
-1.25000001E+00
 20
1.05194354E+02
  0
VERTEX
  8
0
 62
4
 10
-1.07568852E+00
 20
1.05201849E+02
  0
VERTEX
  8
0
 62
4
 10
-9.02703650E-01
 20
1.05224277E+02
  0
VERTEX
  8
0
 62
4
 10
-7.32361915E-01
 20
1.05261468E+02
  0
VERTEX
  8
0
 62
4
 10
-5.65959718E-01
 20
1.05313137E+02
  0
VERTEX
  8
0
 62
4
 10
-4.04763481E-01
 20
1.05378892E+02
  0
VERTEX
  8
0
 62
4
 10
-2.50000004E-01
 20
1.05458233E+02
  0
VERTEX
  8
0
 62
4
 10
-1.02847131E-01
 20
1.05550555E+02
  0
VERTEX
  8
0
 62
4
 10
3.55752155E-02
 20
1.05655157E+02
  0
VERTEX
  8
0
 62
4
 10
1.64213559E-01
 20
1.05771242E+02
  0
VERTEX
  8
0
 62
4
 10
2.82088883E-01
 20
1.05897926E+02
  0
VERTEX
  8
0
 62
4
 10
3.88304086E-01
 20
1.06034245E+02
  0
VERTEX
  8
0
 62
4
 10
4.82050805E-01
 20
1.06179162E+02
  0
VERTEX
  8
0
 62
4
 10
5.62615572E-01
 20
1.06331575E+02
  0
VERTEX
  8
0
 62
4
 10
6.29385240E-01
 20
1.06490322E+02
  0
VERTEX
  8
0
 62
4
 10
6.81851651E-01
 20
1.06654196E+02
  0
VERTEX
  8
0
 62
4
 10
7.19615505E-01
 20
1.06821950E+02
  0
VERTEX
  8
0
 62
4
 10
7.42389396E-01
 20
1.06992307E+02
  0
VERTEX
  8
0
 62
4
 10
7.50000000E-01
 20
1.07163970E+02
  0
VERTEX
  8
0
 62
4
 10
7.42389397E-01
 20
1.07335633E+02
  0
VERTEX
  8
0
 62
4
 10
7.19615507E-01
 20
1.07505990E+02
  0
VERTEX
  8
0
 62
4
 10
6.81851654E-01
 20
1.07673744E+02
  0
VERTEX
  8
0
 62
4
 10
6.29385243E-01
 20
1.07837618E+02
  0
VERTEX
  8
0
 62
4
 10
5.62615576E-01
 20
1.07996365E+02
  0
VERTEX
  8
0
 62
4
 10
4.82050809E-01
 20
1.08148778E+02
  0
VERTEX
  8
0
 62
4
 10
3.88304091E-01
 20
1.08293695E+02
  0
VERTEX
  8
0
 62
4
 10
2.82088889E-01
 20
1.08430014E+02
  0
VERTEX
  8
0
 62
4
 10
1.64213565E-01
 20
1.08556698E+02
  0
VERTEX
  8
0
 62
4
 10
3.55752220E-02
 20
1.08672783E+02
  0
VERTEX
  8
0
 62
4
 10
-1.02847125E-01
 20
1.08777385E+02
  0
VERTEX
  8
0
 62
4
 10
-2.49999997E-01
 20
1.08869707E+02
  0
VERTEX
  8
0
 62
4
 10
-4.04763474E-01
 20
1.08949048E+02
  0
VERTEX
  8
0
 62
4
 10
-5.65959710E-01
 20
1.09014803E+02
  0
VERTEX
  8
0
 62
4
 10
-7.32361907E-01
 20
1.09066472E+02
  0
VERTEX
  8
0
 62
4
 10
-9.02703642E-01
 20
1.09103663E+02
  0
VERTEX
  8
0
 62
4
 10
-1.07568851E+00
 20
1.09126091E+02
  0
VERTEX
  8
0
 62
4
 10
-1.25000000E+00
 20
1.09133586E+02
  0
VERTEX
  8
0
 62
4
 10
-1.42431148E+00
 20
1.09126091E+02
  0
VERTEX
  8
0
 62
4
 10
-1.59729635E+00
 20
1.09103663E+02
  0
VERTEX
  8
0
 62
4
 10
-1.76763809E+00
 20
1.09066472E+02
  0
VERTEX
  8
0
 62
4
 10
-1.93404028E+00
 20
1.09014803E+02
  0
VERTEX
  8
0
 62
4
 10
-2.09523652E+00
 20
1.08949048E+02
  0
VERTEX
  8
0
 62
4
 10
-2.25000000E+00
 20
1.08869707E+02
  0
VERTEX
  8
0
 62
4
 10
-2.39715287E+00
 20
1.08777385E+02
  0
VERTEX
  8
0
 62
4
 10
-2.53557522E+00
 20
1.08672783E+02
  0
VERTEX
  8
0
 62
4
 10
-2.66421356E+00
 20
1.08556698E+02
  0
VERTEX
  8
0
 62
4
 10
-2.78208888E+00
 20
1.08430014E+02
  0
VERTEX
  8
0
 62
4
 10
-2.88830409E+00
 20
1.08293695E+02
  0
VERTEX
  8
0
 62
4
 10
-2.98205081E+00
 20
1.08148778E+02
  0
VERTEX
  8
0
 62
4
 10
-3.06261557E+00
 20
1.07996365E+02
  0
VERTEX
  8
0
 62
4
 10
-3.12938524E+00
 20
1.07837618E+02
  0
VERTEX
  8
0
 62
4
 10
-3.18185165E+00
 20
1.07673744E+02
  0
VERTEX
  8
0
 62
4
 10
-3.21961551E+00
 20
1.07505990E+02
  0
VERTEX
  8
0
 62
4
 10
-3.24238940E+00
 20
1.07335633E+02
  0
VERTEX
  8
0
 62
4
 10
-3.25000000E+00
 20
1.07163970E+02
  0
SEQEND
  8
0
  0
POLYLINE
  8
0
 62
4
 66
1
  0
VERTEX
  8
0
 62
4
 10
7.50000000E-01
 20
1.07699609E+02
  0
VERTEX
  8
0
 62
4
 10
7.41948589E-01
 20
1.07876164E+02
  0
VERTEX
  8
0
 62
4
 10
7.17859180E-01
 20
1.08051297E+02
  0
VERTEX
  8
0
 62
4
 10
6.77925725E-01
 20
1.08223599E+02
  0
VERTEX
  8
0
 62
4
 10
6.22469747E-01
 20
1.08391682E+02
  0
VERTEX
  8
0
 62
4
 10
5.51937742E-01
 20
1.08554193E+02
  0
VERTEX
  8
0
 62
4
 10
4.66897595E-01
 20
1.08709823E+02
  0
VERTEX
  8
0
 62
4
 10
3.68033998E-01
 20
1.08857320E+02
  0
VERTEX
  8
0
 62
4
 10
2.56142942E-01
 20
1.08995495E+02
  0
VERTEX
  8
0
 62
4
 10
1.32125310E-01
 20
1.09123237E+02
  0
VERTEX
  8
0
 62
4
 10
-3.02038354E-03
 20
1.09239516E+02
  0
VERTEX
  8
0
 62
4
 10
-1.48206023E-01
 20
1.09343397E+02
  0
VERTEX
  8
0
 62
4
 10
-3.02262660E-01
 20
1.09434044E+02
  0
VERTEX
  8
0
 62
4
 10
-4.63949921E-01
 20
1.09510725E+02
  0
VERTEX
  8
0
 62
4
 10
-6.31965995E-01
 20
1.09572825E+02
  0
VERTEX
  8
0
 62
4
 10
-8.04958115E-01
 20
1.09619842E+02
  0
VERTEX
  8
0
 62
4
 10
-9.81533451E-01
 20
1.09651399E+02
  0
VERTEX
  8
0
 62
4
 10
-1.16027032E+00
 20
1.09667241E+02
  0
VERTEX
  8
0
 62
4
 10
-1.33972964E+00
 20
1.09667241E+02
  0
VERTEX
  8
0
 62
4
 10
-1.51846651E+00
 20
1.09651399E+02
  0
VERTEX
  8
0
 62
4
 10
-1.69504185E+00
 20
1.09619842E+02
  0
VERTEX
  8
0
 62
4
 10
-1.86803397E+00
 20
1.09572825E+02
  0
VERTEX
  8
0
 62
4
 10
-2.03605005E+00
 20
1.09510725E+02
  0
VERTEX
  8
0
 62
4
 10
-2.19773731E+00
 20
1.09434044E+02
  0
VERTEX
  8
0
 62
4
 10
-2.35179395E+00
 20
1.09343397E+02
  0
VERTEX
  8
0
 62
4
 10
-2.49697959E+00
 20
1.09239516E+02
  0
VERTEX
  8
0
 62
4
 10
-2.63212528E+00
 20
1.09123237E+02
  0
VERTEX
  8
0
 62
4
 10
-2.75614292E+00
 20
1.08995495E+02
  0
VERTEX
  8
0
 62
4
 10
-2.86803398E+00
 20
1.08857320E+02
  0
VERTEX
  8
0
 62
4
 10
-2.96689758E+00
 20
1.08709823E+02
  0
VERTEX
  8
0
 62
4
 10
-3.05193773E+00
 20
1.08554193E+02
  0
VERTEX
  8
0
 62
4
 10
-3.12246973E+00
 20
1.08391682E+02
  0
VERTEX
  8
0
 62
4
 10
-3.17792572E+00
 20
1.08223599E+02
  0
VERTEX
  8
0
 62
4
 10
-3.21785917E+00
 20
1.08051297E+02
  0
VERTEX
  8
0
 62
4
 10
-3.24194859E+00
 20
1.07876164E+02
  0
VERTEX
  8
0
 62
4
 10
-3.25000000E+00
 20
1.07699609E+02
  0
SEQEND
  8
0
  0
LINE
  8
0
 62
4
 10
2.52500000E+01
 20
1.21176212E+02
 11
2.67500000E+01
 21
1.20168356E+02
  0
LINE
  8
0
 62
4
 10
2.67500000E+01
 20
1.17937766E+02
 11
2.52500000E+01
 21
1.17236981E+02
  0
LINE
  8
0
 62
4
 10
2.67500000E+01
 20
1.17544453E+02
 11
2.52500000E+01
 21
1.16542389E+02
  0
LINE
  8
0
 62
4
 10
2.67500000E+01
 20
1.20168356E+02
 11
2.67500000E+01
 21
1.17544453E+02
  0
LINE
  8
0
 62
4
 10
-3.37500000E+01
 20
1.20359300E+02
 11
-3.37500000E+01
 21
1.31875887E+02
  0
LINE
  8
0
 62
6
 10
-2.54820508E+01
 20
1.15859300E+02
 11
-2.20179492E+01
 21
1.21859300E+02
  0
LINE
  8
0
 62
4
 10
-4.02500000E+01
 20
1.17359300E+02
 11
-2.46160254E+01
 21
1.17359300E+02
  0
LINE
  8
0
  6
CENTER
 62
6
 10
-6.87500000E+01
 20
1.18859300E+02
 11
-2.17500000E+01
 21
1.18859300E+02
  0
LINE
  8
0
 62
4
 10
-4.02500000E+01
 20
1.20359300E+02
 11
-2.28839746E+01
 21
1.20359300E+02
  0
LINE
  8
0
 62
4
 10
-3.37500000E+01
 20
1.15369434E+02
 11
-3.37500000E+01
 21
1.17359300E+02
  0
LINE
  8
0
 62
4
 10
-6.37500000E+01
 20
1.31875887E+02
 11
-6.37500000E+01
 21
1.21176212E+02
  0
LINE
  8
0
 62
4
 10
-4.02500000E+01
 20
1.21176212E+02
 11
-4.02500000E+01
 21
1.17103771E+02
  0
LINE
  8
0
 62
4
 10
-6.37500000E+01
 20
1.31875887E+02
 11
-3.37500000E+01
 21
1.31875887E+02
  0
LINE
  8
0
 62
4
 10
-6.37500000E+01
 20
1.16118963E+02
 11
-3.37500000E+01
 21
1.16118963E+02
  0
LINE
  8
0
 62
4
 10
-6.37500000E+01
 20
1.17103771E+02
 11
-3.37500000E+01
 21
1.17103771E+02
  0
LINE
  8
0
 62
4
 10
-6.37500000E+01
 20
1.21176212E+02
 11
-6.52500000E+01
 21
1.20168356E+02
  0
LINE
  8
0
 62
4
 10
-6.52500000E+01
 20
1.20168356E+02
 11
-6.52500000E+01
 21
1.17544453E+02
  0
LINE
  8
0
 62
4
 10
-6.52500000E+01
 20
1.17937766E+02
 11
-6.37500000E+01
 21
1.17236981E+02
  0
LINE
  8
0
 62
4
 10
-6.52500000E+01
 20
1.17544453E+02
 11
-6.37500000E+01
 21
1.16542389E+02
  0
LINE
  8
0
 62
4
 10
-6.37500000E+01
 20
1.21176212E+02
 11
-5.16872448E+01
 21
1.21176212E+02
  0
LINE
  8
0
 62
4
 10
-6.37500000E+01
 20
1.17236981E+02
 11
-4.02500000E+01
 21
1.17236981E+02
  0
LINE
  8
0
 62
4
 10
-6.37500000E+01
 20
1.21633887E+02
 11
-5.20871230E+01
 21
1.21633887E+02
  0
LINE
  8
0
 62
4
 10
-6.37500000E+01
 20
1.21176212E+02
 11
-6.37500000E+01
 21
1.17103771E+02
  0
LINE
  8
0
 62
4
 10
-6.37500000E+01
 20
1.17103771E+02
 11
-6.37500000E+01
 21
1.15369434E+02
  0
ARC
  8
0
 62
4
 10
-1.72431469E+02
 20
-5.19350029E+00
 40
1.86971513E+02
 50
4.46782203E+01
 51
4.61988768E+01
  0
ARC
  8
0
 62
4
 10
8.99314687E+01
 20
-5.19350029E+00
 40
1.86971513E+02
 50
1.33801123E+02
 51
1.35321779E+02
  0
LINE
  8
0
 62
4
 10
-3.78500000E+01
 20
1.27617900E+02
 11
-3.78500000E+01
 21
1.27814262E+02
  0
POLYLINE
  8
0
 62
4
 66
1
  0
VERTEX
  8
0
 62
4
 10
-4.46500000E+01
 20
1.27814262E+02
  0
VERTEX
  8
0
 62
4
 10
-4.46370620E+01
 20
1.27522434E+02
  0
VERTEX
  8
0
 62
4
 10
-4.45983464E+01
 20
1.27232828E+02
  0
VERTEX
  8
0
 62
4
 10
-4.45341478E+01
 20
1.26947646E+02
  0
VERTEX
  8
0
 62
4
 10
-4.44449549E+01
 20
1.26669060E+02
  0
VERTEX
  8
0
 62
4
 10
-4.43314465E+01
 20
1.26399190E+02
  0
VERTEX
  8
0
 62
4
 10
-4.41944864E+01
 20
1.26140089E+02
  0
VERTEX
  8
0
 62
4
 10
-4.40351170E+01
 20
1.25893729E+02
  0
VERTEX
  8
0
 62
4
 10
-4.38545511E+01
 20
1.25661986E+02
  0
VERTEX
  8
0
 62
4
 10
-4.36541631E+01
 20
1.25446623E+02
  0
VERTEX
  8
0
 62
4
 10
-4.34354779E+01
 20
1.25249280E+02
  0
VERTEX
  8
0
 62
4
 10
-4.32001599E+01
 20
1.25071457E+02
  0
VERTEX
  8
0
 62
4
 10
-4.29500000E+01
 20
1.24914509E+02
  0
VERTEX
  8
0
 62
4
 10
-4.26869021E+01
 20
1.24779629E+02
  0
VERTEX
  8
0
 62
4
 10
-4.24128685E+01
 20
1.24667845E+02
  0
VERTEX
  8
0
 62
4
 10
-4.21299848E+01
 20
1.24580007E+02
  0
VERTEX
  8
0
 62
4
 10
-4.18404038E+01
 20
1.24516784E+02
  0
VERTEX
  8
0
 62
4
 10
-4.15463295E+01
 20
1.24478657E+02
  0
VERTEX
  8
0
 62
4
 10
-4.12500000E+01
 20
1.24465915E+02
  0
VERTEX
  8
0
 62
4
 10
-4.09536705E+01
 20
1.24478657E+02
  0
VERTEX
  8
0
 62
4
 10
-4.06595962E+01
 20
1.24516784E+02
  0
VERTEX
  8
0
 62
4
 10
-4.03700152E+01
 20
1.24580007E+02
  0
VERTEX
  8
0
 62
4
 10
-4.00871315E+01
 20
1.24667845E+02
  0
VERTEX
  8
0
 62
4
 10
-3.98130979E+01
 20
1.24779629E+02
  0
VERTEX
  8
0
 62
4
 10
-3.95500000E+01
 20
1.24914509E+02
  0
VERTEX
  8
0
 62
4
 10
-3.92998401E+01
 20
1.25071457E+02
  0
VERTEX
  8
0
 62
4
 10
-3.90645221E+01
 20
1.25249280E+02
  0
VERTEX
  8
0
 62
4
 10
-3.88458369E+01
 20
1.25446623E+02
  0
VERTEX
  8
0
 62
4
 10
-3.86454489E+01
 20
1.25661986E+02
  0
VERTEX
  8
0
 62
4
 10
-3.84648830E+01
 20
1.25893729E+02
  0
VERTEX
  8
0
 62
4
 10
-3.83055136E+01
 20
1.26140089E+02
  0
VERTEX
  8
0
 62
4
 10
-3.81685535E+01
 20
1.26399190E+02
  0
VERTEX
  8
0
 62
4
 10
-3.80550451E+01
 20
1.26669060E+02
  0
VERTEX
  8
0
 62
4
 10
-3.79658522E+01
 20
1.26947646E+02
  0
VERTEX
  8
0
 62
4
 10
-3.79016536E+01
 20
1.27232828E+02
  0
VERTEX
  8
0
 62
4
 10
-3.78629380E+01
 20
1.27522434E+02
  0
VERTEX
  8
0
 62
4
 10
-3.78500000E+01
 20
1.27814262E+02
  0
VERTEX
  8
0
 62
4
 10
-3.78629380E+01
 20
1.28106090E+02
  0
VERTEX
  8
0
 62
4
 10
-3.79016536E+01
 20
1.28395696E+02
  0
VERTEX
  8
0
 62
4
 10
-3.79658522E+01
 20
1.28680878E+02
  0
VERTEX
  8
0
 62
4
 10
-3.80550451E+01
 20
1.28959464E+02
  0
VERTEX
  8
0
 62
4
 10
-3.81685535E+01
 20
1.29229334E+02
  0
VERTEX
  8
0
 62
4
 10
-3.83055136E+01
 20
1.29488435E+02
  0
VERTEX
  8
0
 62
4
 10
-3.84648830E+01
 20
1.29734795E+02
  0
VERTEX
  8
0
 62
4
 10
-3.86454489E+01
 20
1.29966538E+02
  0
VERTEX
  8
0
 62
4
 10
-3.88458369E+01
 20
1.30181901E+02
  0
VERTEX
  8
0
 62
4
 10
-3.90645221E+01
 20
1.30379244E+02
  0
VERTEX
  8
0
 62
4
 10
-3.92998401E+01
 20
1.30557067E+02
  0
VERTEX
  8
0
 62
4
 10
-3.95500000E+01
 20
1.30714015E+02
  0
VERTEX
  8
0
 62
4
 10
-3.98130979E+01
 20
1.30848895E+02
  0
VERTEX
  8
0
 62
4
 10
-4.00871315E+01
 20
1.30960679E+02
  0
VERTEX
  8
0
 62
4
 10
-4.03700152E+01
 20
1.31048517E+02
  0
VERTEX
  8
0
 62
4
 10
-4.06595962E+01
 20
1.31111740E+02
  0
VERTEX
  8
0
 62
4
 10
-4.09536705E+01
 20
1.31149867E+02
  0
VERTEX
  8
0
 62
4
 10
-4.12500000E+01
 20
1.31162609E+02
  0
VERTEX
  8
0
 62
4
 10
-4.15463295E+01
 20
1.31149867E+02
  0
VERTEX
  8
0
 62
4
 10
-4.18404038E+01
 20
1.31111740E+02
  0
VERTEX
  8
0
 62
4
 10
-4.21299848E+01
 20
1.31048517E+02
  0
VERTEX
  8
0
 62
4
 10
-4.24128685E+01
 20
1.30960679E+02
  0
VERTEX
  8
0
 62
4
 10
-4.26869021E+01
 20
1.30848895E+02
  0
VERTEX
  8
0
 62
4
 10
-4.29500000E+01
 20
1.30714015E+02
  0
VERTEX
  8
0
 62
4
 10
-4.32001599E+01
 20
1.30557067E+02
  0
VERTEX
  8
0
 62
4
 10
-4.34354779E+01
 20
1.30379244E+02
  0
VERTEX
  8
0
 62
4
 10
-4.36541631E+01
 20
1.30181901E+02
  0
VERTEX
  8
0
 62
4
 10
-4.38545511E+01
 20
1.29966538E+02
  0
VERTEX
  8
0
 62
4
 10
-4.40351170E+01
 20
1.29734795E+02
  0
VERTEX
  8
0
 62
4
 10
-4.41944864E+01
 20
1.29488435E+02
  0
VERTEX
  8
0
 62
4
 10
-4.43314465E+01
 20
1.29229334E+02
  0
VERTEX
  8
0
 62
4
 10
-4.44449549E+01
 20
1.28959464E+02
  0
VERTEX
  8
0
 62
4
 10
-4.45341478E+01
 20
1.28680878E+02
  0
VERTEX
  8
0
 62
4
 10
-4.45983464E+01
 20
1.28395696E+02
  0
VERTEX
  8
0
 62
4
 10
-4.46370620E+01
 20
1.28106090E+02
  0
VERTEX
  8
0
 62
4
 10
-4.46500000E+01
 20
1.27814262E+02
  0
SEQEND
  8
0
  0
POLYLINE
  8
0
 62
4
 66
1
  0
VERTEX
  8
0
 62
4
 10
-4.46500000E+01
 20
1.27617900E+02
  0
VERTEX
  8
0
 62
4
 10
-4.46363126E+01
 20
1.27317757E+02
  0
VERTEX
  8
0
 62
4
 10
-4.45953606E+01
 20
1.27020030E+02
  0
VERTEX
  8
0
 62
4
 10
-4.45274738E+01
 20
1.26727117E+02
  0
VERTEX
  8
0
 62
4
 10
-4.44331986E+01
 20
1.26441375E+02
  0
VERTEX
  8
0
 62
4
 10
-4.43132942E+01
 20
1.26165107E+02
  0
VERTEX
  8
0
 62
4
 10
-4.41687259E+01
 20
1.25900536E+02
  0
VERTEX
  8
0
 62
4
 10
-4.40006578E+01
 20
1.25649791E+02
  0
VERTEX
  8
0
 62
4
 10
-4.38104430E+01
 20
1.25414893E+02
  0
VERTEX
  8
0
 62
4
 10
-4.35996130E+01
 20
1.25197732E+02
  0
VERTEX
  8
0
 62
4
 10
-4.33698654E+01
 20
1.25000057E+02
  0
VERTEX
  8
0
 62
4
 10
-4.31230498E+01
 20
1.24823460E+02
  0
VERTEX
  8
0
 62
4
 10
-4.28611535E+01
 20
1.24669361E+02
  0
VERTEX
  8
0
 62
4
 10
-4.25862851E+01
 20
1.24539003E+02
  0
VERTEX
  8
0
 62
4
 10
-4.23006578E+01
 20
1.24433433E+02
  0
VERTEX
  8
0
 62
4
 10
-4.20065712E+01
 20
1.24353504E+02
  0
VERTEX
  8
0
 62
4
 10
-4.17063931E+01
 20
1.24299857E+02
  0
VERTEX
  8
0
 62
4
 10
-4.14025404E+01
 20
1.24272925E+02
  0
VERTEX
  8
0
 62
4
 10
-4.10974596E+01
 20
1.24272925E+02
  0
VERTEX
  8
0
 62
4
 10
-4.07936069E+01
 20
1.24299857E+02
  0
VERTEX
  8
0
 62
4
 10
-4.04934288E+01
 20
1.24353504E+02
  0
VERTEX
  8
0
 62
4
 10
-4.01993422E+01
 20
1.24433433E+02
  0
VERTEX
  8
0
 62
4
 10
-3.99137149E+01
 20
1.24539003E+02
  0
VERTEX
  8
0
 62
4
 10
-3.96388466E+01
 20
1.24669361E+02
  0
VERTEX
  8
0
 62
4
 10
-3.93769503E+01
 20
1.24823460E+02
  0
VERTEX
  8
0
 62
4
 10
-3.91301347E+01
 20
1.25000057E+02
  0
VERTEX
  8
0
 62
4
 10
-3.89003870E+01
 20
1.25197732E+02
  0
VERTEX
  8
0
 62
4
 10
-3.86895570E+01
 20
1.25414893E+02
  0
VERTEX
  8
0
 62
4
 10
-3.84993422E+01
 20
1.25649791E+02
  0
VERTEX
  8
0
 62
4
 10
-3.83312741E+01
 20
1.25900536E+02
  0
VERTEX
  8
0
 62
4
 10
-3.81867058E+01
 20
1.26165107E+02
  0
VERTEX
  8
0
 62
4
 10
-3.80668014E+01
 20
1.26441375E+02
  0
VERTEX
  8
0
 62
4
 10
-3.79725263E+01
 20
1.26727116E+02
  0
VERTEX
  8
0
 62
4
 10
-3.79046394E+01
 20
1.27020030E+02
  0
VERTEX
  8
0
 62
4
 10
-3.78636874E+01
 20
1.27317757E+02
  0
VERTEX
  8
0
 62
4
 10
-3.78500000E+01
 20
1.27617900E+02
  0
SEQEND
  8
0
  0
LINE
  8
0
 62
4
 10
-4.46500000E+01
 20
1.27617900E+02
 11
-4.46500000E+01
 21
1.27814262E+02
  0
LINE
  8
0
 62
4
 10
-3.74500000E+01
 20
1.27444252E+02
 11
-3.74500000E+01
 21
1.27617900E+02
  0
POLYLINE
  8
0
 62
4
 66
1
  0
VERTEX
  8
0
 62
4
 10
-4.50500000E+01
 20
1.27617900E+02
  0
VERTEX
  8
0
 62
4
 10
-4.50355399E+01
 20
1.27291740E+02
  0
VERTEX
  8
0
 62
4
 10
-4.49922695E+01
 20
1.26968062E+02
  0
VERTEX
  8
0
 62
4
 10
-4.49205182E+01
 20
1.26649329E+02
  0
VERTEX
  8
0
 62
4
 10
-4.48208320E+01
 20
1.26337968E+02
  0
VERTEX
  8
0
 62
4
 10
-4.46939696E+01
 20
1.26036349E+02
  0
VERTEX
  8
0
 62
4
 10
-4.45408966E+01
 20
1.25746765E+02
  0
VERTEX
  8
0
 62
4
 10
-4.43627778E+01
 20
1.25471422E+02
  0
VERTEX
  8
0
 62
4
 10
-4.41609689E+01
 20
1.25212416E+02
  0
VERTEX
  8
0
 62
4
 10
-4.39370058E+01
 20
1.24971716E+02
  0
VERTEX
  8
0
 62
4
 10
-4.36925929E+01
 20
1.24751155E+02
  0
VERTEX
  8
0
 62
4
 10
-4.34295905E+01
 20
1.24552412E+02
  0
VERTEX
  8
0
 62
4
 10
-4.31500000E+01
 20
1.24377000E+02
  0
VERTEX
  8
0
 62
4
 10
-4.28559494E+01
 20
1.24226252E+02
  0
VERTEX
  8
0
 62
4
 10
-4.25496766E+01
 20
1.24101317E+02
  0
VERTEX
  8
0
 62
4
 10
-4.22335124E+01
 20
1.24003145E+02
  0
VERTEX
  8
0
 62
4
 10
-4.19098631E+01
 20
1.23932484E+02
  0
VERTEX
  8
0
 62
4
 10
-4.15811918E+01
 20
1.23889871E+02
  0
VERTEX
  8
0
 62
4
 10
-4.12500000E+01
 20
1.23875631E+02
  0
VERTEX
  8
0
 62
4
 10
-4.09188082E+01
 20
1.23889871E+02
  0
VERTEX
  8
0
 62
4
 10
-4.05901369E+01
 20
1.23932484E+02
  0
VERTEX
  8
0
 62
4
 10
-4.02664876E+01
 20
1.24003145E+02
  0
VERTEX
  8
0
 62
4
 10
-3.99503235E+01
 20
1.24101317E+02
  0
VERTEX
  8
0
 62
4
 10
-3.96440506E+01
 20
1.24226252E+02
  0
VERTEX
  8
0
 62
4
 10
-3.93500000E+01
 20
1.24377000E+02
  0
VERTEX
  8
0
 62
4
 10
-3.90704095E+01
 20
1.24552412E+02
  0
VERTEX
  8
0
 62
4
 10
-3.88074071E+01
 20
1.24751155E+02
  0
VERTEX
  8
0
 62
4
 10
-3.85629942E+01
 20
1.24971716E+02
  0
VERTEX
  8
0
 62
4
 10
-3.83390311E+01
 20
1.25212416E+02
  0
VERTEX
  8
0
 62
4
 10
-3.81372222E+01
 20
1.25471422E+02
  0
VERTEX
  8
0
 62
4
 10
-3.79591034E+01
 20
1.25746765E+02
  0
VERTEX
  8
0
 62
4
 10
-3.78060304E+01
 20
1.26036349E+02
  0
VERTEX
  8
0
 62
4
 10
-3.76791680E+01
 20
1.26337968E+02
  0
VERTEX
  8
0
 62
4
 10
-3.75794818E+01
 20
1.26649329E+02
  0
VERTEX
  8
0
 62
4
 10
-3.75077305E+01
 20
1.26968062E+02
  0
VERTEX
  8
0
 62
4
 10
-3.74644601E+01
 20
1.27291740E+02
  0
VERTEX
  8
0
 62
4
 10
-3.74500000E+01
 20
1.27617900E+02
  0
VERTEX
  8
0
 62
4
 10
-3.74644601E+01
 20
1.27944060E+02
  0
VERTEX
  8
0
 62
4
 10
-3.75077305E+01
 20
1.28267738E+02
  0
VERTEX
  8
0
 62
4
 10
-3.75794818E+01
 20
1.28586471E+02
  0
VERTEX
  8
0
 62
4
 10
-3.76791680E+01
 20
1.28897832E+02
  0
VERTEX
  8
0
 62
4
 10
-3.78060304E+01
 20
1.29199451E+02
  0
VERTEX
  8
0
 62
4
 10
-3.79591034E+01
 20
1.29489035E+02
  0
VERTEX
  8
0
 62
4
 10
-3.81372222E+01
 20
1.29764378E+02
  0
VERTEX
  8
0
 62
4
 10
-3.83390311E+01
 20
1.30023384E+02
  0
VERTEX
  8
0
 62
4
 10
-3.85629942E+01
 20
1.30264084E+02
  0
VERTEX
  8
0
 62
4
 10
-3.88074071E+01
 20
1.30484645E+02
  0
VERTEX
  8
0
 62
4
 10
-3.90704095E+01
 20
1.30683388E+02
  0
VERTEX
  8
0
 62
4
 10
-3.93500000E+01
 20
1.30858800E+02
  0
VERTEX
  8
0
 62
4
 10
-3.96440506E+01
 20
1.31009548E+02
  0
VERTEX
  8
0
 62
4
 10
-3.99503234E+01
 20
1.31134483E+02
  0
VERTEX
  8
0
 62
4
 10
-4.02664876E+01
 20
1.31232655E+02
  0
VERTEX
  8
0
 62
4
 10
-4.05901369E+01
 20
1.31303316E+02
  0
VERTEX
  8
0
 62
4
 10
-4.09188082E+01
 20
1.31345929E+02
  0
VERTEX
  8
0
 62
4
 10
-4.12500000E+01
 20
1.31360169E+02
  0
VERTEX
  8
0
 62
4
 10
-4.15811918E+01
 20
1.31345929E+02
  0
VERTEX
  8
0
 62
4
 10
-4.19098631E+01
 20
1.31303316E+02
  0
VERTEX
  8
0
 62
4
 10
-4.22335124E+01
 20
1.31232655E+02
  0
VERTEX
  8
0
 62
4
 10
-4.25496766E+01
 20
1.31134483E+02
  0
VERTEX
  8
0
 62
4
 10
-4.28559494E+01
 20
1.31009548E+02
  0
VERTEX
  8
0
 62
4
 10
-4.31500000E+01
 20
1.30858800E+02
  0
VERTEX
  8
0
 62
4
 10
-4.34295905E+01
 20
1.30683388E+02
  0
VERTEX
  8
0
 62
4
 10
-4.36925929E+01
 20
1.30484645E+02
  0
VERTEX
  8
0
 62
4
 10
-4.39370058E+01
 20
1.30264084E+02
  0
VERTEX
  8
0
 62
4
 10
-4.41609689E+01
 20
1.30023384E+02
  0
VERTEX
  8
0
 62
4
 10
-4.43627778E+01
 20
1.29764378E+02
  0
VERTEX
  8
0
 62
4
 10
-4.45408966E+01
 20
1.29489035E+02
  0
VERTEX
  8
0
 62
4
 10
-4.46939696E+01
 20
1.29199451E+02
  0
VERTEX
  8
0
 62
4
 10
-4.48208320E+01
 20
1.28897832E+02
  0
VERTEX
  8
0
 62
4
 10
-4.49205182E+01
 20
1.28586471E+02
  0
VERTEX
  8
0
 62
4
 10
-4.49922695E+01
 20
1.28267738E+02
  0
VERTEX
  8
0
 62
4
 10
-4.50355399E+01
 20
1.27944060E+02
  0
VERTEX
  8
0
 62
4
 10
-4.50500000E+01
 20
1.27617900E+02
  0
SEQEND
  8
0
  0
POLYLINE
  8
0
 62
4
 66
1
  0
VERTEX
  8
0
 62
4
 10
-4.50500000E+01
 20
1.27444252E+02
  0
VERTEX
  8
0
 62
4
 10
-4.50347023E+01
 20
1.27108798E+02
  0
VERTEX
  8
0
 62
4
 10
-4.49889325E+01
 20
1.26776044E+02
  0
VERTEX
  8
0
 62
4
 10
-4.49130589E+01
 20
1.26448670E+02
  0
VERTEX
  8
0
 62
4
 10
-4.48076925E+01
 20
1.26129313E+02
  0
VERTEX
  8
0
 62
4
 10
-4.46736817E+01
 20
1.25820542E+02
  0
VERTEX
  8
0
 62
4
 10
-4.45121054E+01
 20
1.25524845E+02
  0
VERTEX
  8
0
 62
4
 10
-4.43242646E+01
 20
1.25244601E+02
  0
VERTEX
  8
0
 62
4
 10
-4.41116716E+01
 20
1.24982068E+02
  0
VERTEX
  8
0
 62
4
 10
-4.38760381E+01
 20
1.24739359E+02
  0
VERTEX
  8
0
 62
4
 10
-4.36192613E+01
 20
1.24518428E+02
  0
VERTEX
  8
0
 62
4
 10
-4.33434086E+01
 20
1.24321054E+02
  0
VERTEX
  8
0
 62
4
 10
-4.30507009E+01
 20
1.24148826E+02
  0
VERTEX
  8
0
 62
4
 10
-4.27434951E+01
 20
1.24003131E+02
  0
VERTEX
  8
0
 62
4
 10
-4.24242646E+01
 20
1.23885142E+02
  0
VERTEX
  8
0
 62
4
 10
-4.20955796E+01
 20
1.23795809E+02
  0
VERTEX
  8
0
 62
4
 10
-4.17600864E+01
 20
1.23735851E+02
  0
VERTEX
  8
0
 62
4
 10
-4.14204864E+01
 20
1.23705751E+02
  0
VERTEX
  8
0
 62
4
 10
-4.10795137E+01
 20
1.23705751E+02
  0
VERTEX
  8
0
 62
4
 10
-4.07399136E+01
 20
1.23735851E+02
  0
VERTEX
  8
0
 62
4
 10
-4.04044205E+01
 20
1.23795809E+02
  0
VERTEX
  8
0
 62
4
 10
-4.00757354E+01
 20
1.23885142E+02
  0
VERTEX
  8
0
 62
4
 10
-3.97565049E+01
 20
1.24003131E+02
  0
VERTEX
  8
0
 62
4
 10
-3.94492991E+01
 20
1.24148826E+02
  0
VERTEX
  8
0
 62
4
 10
-3.91565915E+01
 20
1.24321054E+02
  0
VERTEX
  8
0
 62
4
 10
-3.88807388E+01
 20
1.24518428E+02
  0
VERTEX
  8
0
 62
4
 10
-3.86239619E+01
 20
1.24739359E+02
  0
VERTEX
  8
0
 62
4
 10
-3.83883284E+01
 20
1.24982068E+02
  0
VERTEX
  8
0
 62
4
 10
-3.81757354E+01
 20
1.25244601E+02
  0
VERTEX
  8
0
 62
4
 10
-3.79878946E+01
 20
1.25524845E+02
  0
VERTEX
  8
0
 62
4
 10
-3.78263183E+01
 20
1.25820542E+02
  0
VERTEX
  8
0
 62
4
 10
-3.76923075E+01
 20
1.26129313E+02
  0
VERTEX
  8
0
 62
4
 10
-3.75869411E+01
 20
1.26448670E+02
  0
VERTEX
  8
0
 62
4
 10
-3.75110675E+01
 20
1.26776044E+02
  0
VERTEX
  8
0
 62
4
 10
-3.74652977E+01
 20
1.27108798E+02
  0
VERTEX
  8
0
 62
4
 10
-3.74500000E+01
 20
1.27444252E+02
  0
SEQEND
  8
0
  0
LINE
  8
0
 62
4
 10
-4.50500000E+01
 20
1.27444252E+02
 11
-4.50500000E+01
 21
1.27617900E+02
  0
ARC
  8
0
 62
4
 10
-1.81122535E+02
 20
-9.93016770E+00
 40
1.88657692E+02
 50
4.46816411E+01
 51
4.61887918E+01
  0
ARC
  8
0
 62
4
 10
8.36228232E+01
 20
-9.93046072E+00
 40
1.88658103E+02
 50
1.33811210E+02
 51
1.35318357E+02
  0
LINE
  8
0
 62
4
 10
-4.46000000E+01
 20
1.24063411E+02
 11
-4.46000000E+01
 21
1.24369032E+02
  0
LINE
  8
0
 62
4
 10
-5.29000000E+01
 20
1.24063411E+02
 11
-5.29000000E+01
 21
1.24369032E+02
  0
POLYLINE
  8
0
 62
4
 66
1
  0
VERTEX
  8
0
 62
4
 10
-4.46000000E+01
 20
1.24369032E+02
  0
VERTEX
  8
0
 62
4
 10
-4.46157920E+01
 20
1.24725233E+02
  0
VERTEX
  8
0
 62
4
 10
-4.46630478E+01
 20
1.25078724E+02
  0
VERTEX
  8
0
 62
4
 10
-4.47414078E+01
 20
1.25426813E+02
  0
VERTEX
  8
0
 62
4
 10
-4.48502756E+01
 20
1.25766852E+02
  0
VERTEX
  8
0
 62
4
 10
-4.49888227E+01
 20
1.26096253E+02
  0
VERTEX
  8
0
 62
4
 10
-4.51559946E+01
 20
1.26412508E+02
  0
VERTEX
  8
0
 62
4
 10
-4.53505190E+01
 20
1.26713211E+02
  0
VERTEX
  8
0
 62
4
 10
-4.55709156E+01
 20
1.26996074E+02
  0
VERTEX
  8
0
 62
4
 10
-4.58155069E+01
 20
1.27258944E+02
  0
VERTEX
  8
0
 62
4
 10
-4.60824314E+01
 20
1.27499819E+02
  0
VERTEX
  8
0
 62
4
 10
-4.63696578E+01
 20
1.27716867E+02
  0
VERTEX
  8
0
 62
4
 10
-4.66750000E+01
 20
1.27908436E+02
  0
VERTEX
  8
0
 62
4
 10
-4.69961342E+01
 20
1.28073069E+02
  0
VERTEX
  8
0
 62
4
 10
-4.73306164E+01
 20
1.28209511E+02
  0
VERTEX
  8
0
 62
4
 10
-4.76759010E+01
 20
1.28316725E+02
  0
VERTEX
  8
0
 62
4
 10
-4.80293601E+01
 20
1.28393894E+02
  0
VERTEX
  8
0
 62
4
 10
-4.83883037E+01
 20
1.28440432E+02
  0
VERTEX
  8
0
 62
4
 10
-4.87500000E+01
 20
1.28455984E+02
  0
VERTEX
  8
0
 62
4
 10
-4.91116963E+01
 20
1.28440432E+02
  0
VERTEX
  8
0
 62
4
 10
-4.94706399E+01
 20
1.28393894E+02
  0
VERTEX
  8
0
 62
4
 10
-4.98240990E+01
 20
1.28316725E+02
  0
VERTEX
  8
0
 62
4
 10
-5.01693836E+01
 20
1.28209511E+02
  0
VERTEX
  8
0
 62
4
 10
-5.05038658E+01
 20
1.28073069E+02
  0
VERTEX
  8
0
 62
4
 10
-5.08250000E+01
 20
1.27908436E+02
  0
VERTEX
  8
0
 62
4
 10
-5.11303422E+01
 20
1.27716867E+02
  0
VERTEX
  8
0
 62
4
 10
-5.14175686E+01
 20
1.27499819E+02
  0
VERTEX
  8
0
 62
4
 10
-5.16844931E+01
 20
1.27258944E+02
  0
VERTEX
  8
0
 62
4
 10
-5.19290844E+01
 20
1.26996074E+02
  0
VERTEX
  8
0
 62
4
 10
-5.21494810E+01
 20
1.26713211E+02
  0
VERTEX
  8
0
 62
4
 10
-5.23440054E+01
 20
1.26412508E+02
  0
VERTEX
  8
0
 62
4
 10
-5.25111773E+01
 20
1.26096253E+02
  0
VERTEX
  8
0
 62
4
 10
-5.26497244E+01
 20
1.25766852E+02
  0
VERTEX
  8
0
 62
4
 10
-5.27585922E+01
 20
1.25426813E+02
  0
VERTEX
  8
0
 62
4
 10
-5.28369522E+01
 20
1.25078724E+02
  0
VERTEX
  8
0
 62
4
 10
-5.28842080E+01
 20
1.24725233E+02
  0
VERTEX
  8
0
 62
4
 10
-5.29000000E+01
 20
1.24369032E+02
  0
VERTEX
  8
0
 62
4
 10
-5.28842080E+01
 20
1.24012831E+02
  0
VERTEX
  8
0
 62
4
 10
-5.28369522E+01
 20
1.23659340E+02
  0
VERTEX
  8
0
 62
4
 10
-5.27585922E+01
 20
1.23311251E+02
  0
VERTEX
  8
0
 62
4
 10
-5.26497244E+01
 20
1.22971212E+02
  0
VERTEX
  8
0
 62
4
 10
-5.25111773E+01
 20
1.22641811E+02
  0
VERTEX
  8
0
 62
4
 10
-5.23440054E+01
 20
1.22325556E+02
  0
VERTEX
  8
0
 62
4
 10
-5.21494810E+01
 20
1.22024853E+02
  0
VERTEX
  8
0
 62
4
 10
-5.19290844E+01
 20
1.21741990E+02
  0
VERTEX
  8
0
 62
4
 10
-5.16844931E+01
 20
1.21479120E+02
  0
VERTEX
  8
0
 62
4
 10
-5.14175686E+01
 20
1.21238245E+02
  0
VERTEX
  8
0
 62
4
 10
-5.11303422E+01
 20
1.21021197E+02
  0
VERTEX
  8
0
 62
4
 10
-5.08250000E+01
 20
1.20829628E+02
  0
VERTEX
  8
0
 62
4
 10
-5.05038658E+01
 20
1.20664995E+02
  0
VERTEX
  8
0
 62
4
 10
-5.01693836E+01
 20
1.20528553E+02
  0
VERTEX
  8
0
 62
4
 10
-4.98240990E+01
 20
1.20421339E+02
  0
VERTEX
  8
0
 62
4
 10
-4.94706399E+01
 20
1.20344170E+02
  0
VERTEX
  8
0
 62
4
 10
-4.91116963E+01
 20
1.20297632E+02
  0
VERTEX
  8
0
 62
4
 10
-4.87500000E+01
 20
1.20282080E+02
  0
VERTEX
  8
0
 62
4
 10
-4.83883037E+01
 20
1.20297632E+02
  0
VERTEX
  8
0
 62
4
 10
-4.80293601E+01
 20
1.20344170E+02
  0
VERTEX
  8
0
 62
4
 10
-4.76759010E+01
 20
1.20421339E+02
  0
VERTEX
  8
0
 62
4
 10
-4.73306164E+01
 20
1.20528553E+02
  0
VERTEX
  8
0
 62
4
 10
-4.69961342E+01
 20
1.20664995E+02
  0
VERTEX
  8
0
 62
4
 10
-4.66750000E+01
 20
1.20829628E+02
  0
VERTEX
  8
0
 62
4
 10
-4.63696578E+01
 20
1.21021197E+02
  0
VERTEX
  8
0
 62
4
 10
-4.60824314E+01
 20
1.21238245E+02
  0
VERTEX
  8
0
 62
4
 10
-4.58155069E+01
 20
1.21479120E+02
  0
VERTEX
  8
0
 62
4
 10
-4.55709156E+01
 20
1.21741990E+02
  0
VERTEX
  8
0
 62
4
 10
-4.53505190E+01
 20
1.22024853E+02
  0
VERTEX
  8
0
 62
4
 10
-4.51559946E+01
 20
1.22325556E+02
  0
VERTEX
  8
0
 62
4
 10
-4.49888227E+01
 20
1.22641811E+02
  0
VERTEX
  8
0
 62
4
 10
-4.48502756E+01
 20
1.22971212E+02
  0
VERTEX
  8
0
 62
4
 10
-4.47414078E+01
 20
1.23311251E+02
  0
VERTEX
  8
0
 62
4
 10
-4.46630478E+01
 20
1.23659340E+02
  0
VERTEX
  8
0
 62
4
 10
-4.46157920E+01
 20
1.24012831E+02
  0
VERTEX
  8
0
 62
4
 10
-4.46000000E+01
 20
1.24369032E+02
  0
SEQEND
  8
0
  0
POLYLINE
  8
0
 62
4
 66
1
  0
VERTEX
  8
0
 62
4
 10
-5.29000000E+01
 20
1.24063411E+02
  0
VERTEX
  8
0
 62
4
 10
-5.28832933E+01
 20
1.23697059E+02
  0
VERTEX
  8
0
 62
4
 10
-5.28333078E+01
 20
1.23333658E+02
  0
VERTEX
  8
0
 62
4
 10
-5.27504459E+01
 20
1.22976131E+02
  0
VERTEX
  8
0
 62
4
 10
-5.26353747E+01
 20
1.22627359E+02
  0
VERTEX
  8
0
 62
4
 10
-5.24890208E+01
 20
1.22290149E+02
  0
VERTEX
  8
0
 62
4
 10
-5.23125625E+01
 20
1.21967216E+02
  0
VERTEX
  8
0
 62
4
 10
-5.21074205E+01
 20
1.21661161E+02
  0
VERTEX
  8
0
 62
4
 10
-5.18752466E+01
 20
1.21374447E+02
  0
VERTEX
  8
0
 62
4
 10
-5.16179100E+01
 20
1.21109383E+02
  0
VERTEX
  8
0
 62
4
 10
-5.13374827E+01
 20
1.20868103E+02
  0
VERTEX
  8
0
 62
4
 10
-5.10362225E+01
 20
1.20652550E+02
  0
VERTEX
  8
0
 62
4
 10
-5.07165550E+01
 20
1.20464459E+02
  0
VERTEX
  8
0
 62
4
 10
-5.03810539E+01
 20
1.20305345E+02
  0
VERTEX
  8
0
 62
4
 10
-5.00324205E+01
 20
1.20176489E+02
  0
VERTEX
  8
0
 62
4
 10
-4.96734619E+01
 20
1.20078927E+02
  0
VERTEX
  8
0
 62
4
 10
-4.93070681E+01
 20
1.20013447E+02
  0
VERTEX
  8
0
 62
4
 10
-4.89361891E+01
 20
1.19980574E+02
  0
VERTEX
  8
0
 62
4
 10
-4.85638110E+01
 20
1.19980574E+02
  0
VERTEX
  8
0
 62
4
 10
-4.81929320E+01
 20
1.20013447E+02
  0
VERTEX
  8
0
 62
4
 10
-4.78265381E+01
 20
1.20078927E+02
  0
VERTEX
  8
0
 62
4
 10
-4.74675795E+01
 20
1.20176488E+02
  0
VERTEX
  8
0
 62
4
 10
-4.71189461E+01
 20
1.20305345E+02
  0
VERTEX
  8
0
 62
4
 10
-4.67834451E+01
 20
1.20464459E+02
  0
VERTEX
  8
0
 62
4
 10
-4.64637775E+01
 20
1.20652550E+02
  0
VERTEX
  8
0
 62
4
 10
-4.61625173E+01
 20
1.20868103E+02
  0
VERTEX
  8
0
 62
4
 10
-4.58820900E+01
 20
1.21109383E+02
  0
VERTEX
  8
0
 62
4
 10
-4.56247534E+01
 20
1.21374447E+02
  0
VERTEX
  8
0
 62
4
 10
-4.53925795E+01
 20
1.21661161E+02
  0
VERTEX
  8
0
 62
4
 10
-4.51874375E+01
 20
1.21967216E+02
  0
VERTEX
  8
0
 62
4
 10
-4.50109792E+01
 20
1.22290149E+02
  0
VERTEX
  8
0
 62
4
 10
-4.48646253E+01
 20
1.22627359E+02
  0
VERTEX
  8
0
 62
4
 10
-4.47495541E+01
 20
1.22976131E+02
  0
VERTEX
  8
0
 62
4
 10
-4.46666922E+01
 20
1.23333657E+02
  0
VERTEX
  8
0
 62
4
 10
-4.46167067E+01
 20
1.23697059E+02
  0
VERTEX
  8
0
 62
4
 10
-4.46000000E+01
 20
1.24063411E+02
  0
SEQEND
  8
0
  0
LINE
  8
0
  6
CENTER
 62
6
 10
-5.62500000E+01
 20
1.29944252E+02
 11
-5.62500000E+01
 21
1.24944252E+02
  0
LINE
  8
0
  6
CENTER
 62
6
 10
-5.37500000E+01
 20
1.27444252E+02
 11
-5.87500000E+01
 21
1.27444252E+02
  0
LINE
  8
0
  6
CENTER
 62
6
 10
-4.87500000E+01
 20
1.26497425E+02
 11
-4.87500000E+01
 21
1.21497425E+02
  0
LINE
  8
0
  6
CENTER
 62
6
 10
-4.62500000E+01
 20
1.23997425E+02
 11
-5.12500000E+01
 21
1.23997425E+02
  0
LINE
  8
0
  6
CENTER
 62
6
 10
-4.12500000E+01
 20
1.29944252E+02
 11
-4.12500000E+01
 21
1.24944252E+02
  0
LINE
  8
0
  6
CENTER
 62
6
 10
-3.87500000E+01
 20
1.27444252E+02
 11
-4.37500000E+01
 21
1.27444252E+02
  0
LINE
  8
0
 62
4
 10
-4.54128770E+01
 20
1.21633887E+02
 11
-3.37500000E+01
 21
1.21633887E+02
  0
LINE
  8
0
 62
4
 10
-4.58127552E+01
 20
1.21176212E+02
 11
-4.02500000E+01
 21
1.21176212E+02
  0
LINE
  8
0
 62
7
 10
-4.75000000E+00
 20
1.14519443E+02
 11
-7.42500000E+01
 21
1.14519443E+02
  0
LINE
  8
0
 62
7
 10
-4.75000000E+00
 20
1.15369434E+02
 11
-7.42500000E+01
 21
1.15369434E+02
  0
LINE
  8
0
 62
7
 10
-4.75000000E+00
 20
1.09219456E+02
 11
-7.42500000E+01
 21
1.09219456E+02
  0
CIRCLE
  8
0
 62
7
 10
-2.91250031E+02
 20
6.48694189E+01
 40
2.45850000E+00
  0
CIRCLE
  8
0
 62
7
 10
-2.44250031E+02
 20
6.48694189E+01
 40
2.45850000E+00
  0
CIRCLE
  8
0
 62
7
 10
-2.44249969E+02
 20
1.11869434E+02
 40
2.45850000E+00
  0
CIRCLE
  8
0
 62
7
 10
-2.91249969E+02
 20
1.11869434E+02
 40
2.45850000E+00
  0
LINE
  8
0
 62
7
 10
-2.81114212E+02
 20
7.35912390E+01
 11
-2.85065772E+02
 21
6.96396801E+01
  0
LINE
  8
0
 62
7
 10
-2.82528437E+02
 20
7.50054419E+01
 11
-2.86479996E+02
 21
7.10538829E+01
  0
LINE
  8
0
 62
7
 10
-2.68750031E+02
 20
6.13694952E+01
 11
-2.68750031E+02
 21
6.84697149E+01
  0
LINE
  8
0
 62
7
 10
-2.54386002E+02
 20
1.03147994E+02
 11
-2.50434485E+02
 21
1.07099509E+02
  0
LINE
  8
0
 62
7
 10
-2.52971767E+02
 20
1.01733759E+02
 11
-2.49020250E+02
 21
1.05685274E+02
  0
LINE
  8
0
 62
7
 10
-2.40750031E+02
 20
8.93694494E+01
 11
-2.47850250E+02
 21
8.93694494E+01
  0
LINE
  8
0
 62
7
 10
-2.68749969E+02
 20
1.15369434E+02
 11
-2.68749969E+02
 21
1.08269184E+02
  0
LINE
  8
0
 62
7
 10
-2.95249969E+02
 20
1.18869465E+02
 11
-2.40250031E+02
 21
1.18869434E+02
  0
LINE
  8
0
 62
7
 10
-2.66749969E+02
 20
1.15369434E+02
 11
-2.66749969E+02
 21
1.08269184E+02
  0
LINE
  8
0
  6
CENTER
 62
2
 10
-2.91250031E+02
 20
5.52785070E+01
 11
-2.91250031E+02
 21
7.41650427E+01
  0
LINE
  8
0
  6
CENTER
 62
2
 10
-2.44249969E+02
 20
1.21847706E+02
 11
-2.44249969E+02
 21
1.02145084E+02
  0
LINE
  8
0
  6
CENTER
 62
2
 10
-2.34296844E+02
 20
1.11869434E+02
 11
-2.53999420E+02
 21
1.11869434E+02
  0
LINE
  8
0
 62
7
 10
-2.81114201E+02
 20
1.03147724E+02
 11
-2.85065782E+02
 21
1.07099305E+02
  0
LINE
  8
0
 62
7
 10
-2.82528415E+02
 20
1.01733511E+02
 11
-2.86479952E+02
 21
1.05685048E+02
  0
LINE
  8
0
 62
7
 10
-2.94749969E+02
 20
8.93694952E+01
 11
-2.87649750E+02
 21
8.93694952E+01
  0
LINE
  8
0
 62
7
 10
-2.94749969E+02
 20
8.73694952E+01
 11
-2.87649750E+02
 21
8.73694952E+01
  0
LINE
  8
0
 62
7
 10
-2.78281342E+02
 20
1.16369449E+02
 11
-2.57218597E+02
 21
1.16369449E+02
  0
LINE
  8
0
 62
7
 10
-2.95749969E+02
 20
7.78381079E+01
 11
-2.95749969E+02
 21
9.89008215E+01
  0
LINE
  8
0
 62
7
 10
-2.98249969E+02
 20
6.08694952E+01
 11
-2.98249969E+02
 21
1.15869434E+02
  0
LINE
  8
0
 62
7
 10
-2.95249969E+02
 20
1.19369465E+02
 11
-2.40250031E+02
 21
1.19369465E+02
  0
LINE
  8
0
 62
7
 10
-2.98749969E+02
 20
6.08694647E+01
 11
-2.98749969E+02
 21
1.15869434E+02
  0
LINE
  8
0
  6
CENTER
 62
2
 10
-2.91249969E+02
 20
1.21423145E+02
 11
-2.91249969E+02
 21
1.03985096E+02
  0
LINE
  8
0
 62
7
 10
-2.66750031E+02
 20
6.13694952E+01
 11
-2.66750031E+02
 21
6.84697149E+01
  0
LINE
  8
0
 62
7
 10
-2.52971663E+02
 20
7.50053934E+01
 11
-2.49020148E+02
 21
7.10538769E+01
  0
LINE
  8
0
 62
7
 10
-2.54385877E+02
 20
7.35911368E+01
 11
-2.50434340E+02
 21
6.96395988E+01
  0
LINE
  8
0
 62
7
 10
-2.40750031E+02
 20
8.73694647E+01
 11
-2.47850250E+02
 21
8.73694647E+01
  0
LINE
  8
0
 62
7
 10
-2.95249969E+02
 20
5.78695104E+01
 11
-2.40250031E+02
 21
5.78694799E+01
  0
LINE
  8
0
 62
7
 10
-2.36750031E+02
 20
6.08694952E+01
 11
-2.36750031E+02
 21
1.15869465E+02
  0
LINE
  8
0
 62
7
 10
-2.95249969E+02
 20
5.73694799E+01
 11
-2.40249969E+02
 21
5.73694799E+01
  0
LINE
  8
0
  6
CENTER
 62
2
 10
-2.67749969E+02
 20
1.23130115E+02
 11
-2.67749969E+02
 21
5.50425909E+01
  0
LINE
  8
0
  6
CENTER
 62
2
 10
-2.34063629E+02
 20
6.48694189E+01
 11
-2.53766266E+02
 21
6.48694189E+01
  0
LINE
  8
0
 62
7
 10
-2.39750031E+02
 20
7.78381079E+01
 11
-2.39750031E+02
 21
9.89008215E+01
  0
LINE
  8
0
 62
7
 10
-2.78281342E+02
 20
6.03694799E+01
 11
-2.57218597E+02
 21
6.03694799E+01
  0
LINE
  8
0
 62
7
 10
-2.45749969E+02
 20
1.19369465E+02
 11
-2.45749969E+02
 21
1.18869434E+02
  0
LINE
  8
0
 62
7
 10
-2.89749969E+02
 20
1.19369465E+02
 11
-2.89749969E+02
 21
1.18869465E+02
  0
LINE
  8
0
 62
7
 10
-2.89749969E+02
 20
5.78695104E+01
 11
-2.89749969E+02
 21
5.73694799E+01
  0
LINE
  8
0
 62
7
 10
-2.45749969E+02
 20
5.78694799E+01
 11
-2.45749969E+02
 21
5.73694799E+01
  0
LINE
  8
0
  6
CENTER
 62
2
 10
-2.44250031E+02
 20
5.52083929E+01
 11
-2.44250031E+02
 21
7.40654562E+01
  0
LINE
  8
0
 62
7
 10
-2.37250031E+02
 20
6.08694952E+01
 11
-2.37250031E+02
 21
1.15869434E+02
  0
LINE
  8
0
 62
7
 10
-2.92249969E+02
 20
1.04118061E+02
 11
-2.92249969E+02
 21
1.02869449E+02
  0
LINE
  8
0
 62
7
 10
-2.83498383E+02
 20
1.12869510E+02
 11
-2.82249969E+02
 21
1.12869510E+02
  0
LINE
  8
0
 62
7
 10
-2.52001251E+02
 20
1.12869434E+02
 11
-2.53249969E+02
 21
1.12869434E+02
  0
LINE
  8
0
 62
7
 10
-2.43249969E+02
 20
1.04117817E+02
 11
-2.43249969E+02
 21
1.02869449E+02
  0
LINE
  8
0
 62
7
 10
-2.92250031E+02
 20
7.26212347E+01
 11
-2.92250031E+02
 21
7.38694799E+01
  0
LINE
  8
0
 62
7
 10
-2.83498749E+02
 20
6.38695104E+01
 11
-2.82249969E+02
 21
6.38695104E+01
  0
LINE
  8
0
 62
7
 10
-2.52001556E+02
 20
6.38694189E+01
 11
-2.53249969E+02
 21
6.38694189E+01
  0
LINE
  8
0
 62
7
 10
-2.43250031E+02
 20
7.26207464E+01
 11
-2.43250031E+02
 21
7.38694799E+01
  0
LINE
  8
0
  6
CENTER
 62
2
 10
-2.33102081E+02
 20
8.83694647E+01
 11
-3.02265045E+02
 21
8.83694647E+01
  0
LINE
  8
0
  6
CENTER
 62
2
 10
-2.81862885E+02
 20
1.11869434E+02
 11
-3.00982574E+02
 21
1.11869434E+02
  0
LINE
  8
0
  6
CENTER
 62
2
 10
-2.82212677E+02
 20
6.48694189E+01
 11
-3.00982574E+02
 21
6.48694189E+01
  0
LINE
  8
0
  6
CENTER
 62
2
 10
-2.74750092E+02
 20
1.21554523E+02
 11
-2.74750092E+02
 21
1.09669254E+02
  0
ARC
  8
0
 62
7
 10
-2.83235443E+02
 20
7.57124212E+01
 40
1.00000000E+00
 50
3.14999968E+02
 51
3.92609655E+01
  0
ARC
  8
0
 62
7
 10
-2.80407013E+02
 20
7.28839910E+01
 40
1.00000000E+00
 50
5.07389892E+01
 51
1.34999987E+02
  0
ARC
  8
0
 62
7
 10
-2.52264496E+02
 20
1.01026508E+02
 40
1.00000000E+00
 50
1.34999959E+02
 51
2.19260957E+02
  0
ARC
  8
0
 62
7
 10
-2.55092926E+02
 20
1.03854938E+02
 40
1.00000000E+00
 50
2.30738998E+02
 51
3.14999995E+02
  0
ARC
  8
0
 62
7
 10
-2.47850250E+02
 20
9.03694494E+01
 40
1.00000000E+00
 50
1.85739458E+02
 51
2.69999963E+02
  0
ARC
  8
0
 62
7
 10
-2.40750031E+02
 20
9.03694647E+01
 40
1.00000000E+00
 50
2.69999963E+02
 51
0.00000000E+00
  0
ARC
  8
0
 62
7
 10
-2.40250031E+02
 20
1.15869434E+02
 40
3.00000000E+00
 50
0.00000000E+00
 51
8.99999818E+01
  0
ARC
  8
0
 62
7
 10
-2.65749969E+02
 20
1.15369434E+02
 40
1.00000000E+00
 50
8.99999818E+01
 51
1.79999964E+02
  0
ARC
  8
0
 62
7
 10
-2.65749969E+02
 20
1.08269184E+02
 40
1.00000000E+00
 50
1.79999964E+02
 51
2.64260484E+02
  0
CIRCLE
  8
0
 62
7
 10
-2.44249969E+02
 20
1.11869434E+02
 40
5.00000000E+00
  0
ARC
  8
0
 62
7
 10
-2.48312958E+02
 20
1.04978016E+02
 40
1.00000000E+00
 50
5.94777518E+01
 51
1.34999345E+02
  0
ARC
  8
0
 62
7
 10
-2.51141388E+02
 20
1.07806415E+02
 40
1.00000000E+00
 50
3.15000624E+02
 51
3.05224488E+01
  0
ARC
  8
0
 62
7
 10
-2.95249969E+02
 20
6.08694952E+01
 40
3.00000000E+00
 50
1.80000036E+02
 51
2.69999991E+02
  0
ARC
  8
0
 62
7
 10
-2.69749969E+02
 20
6.13694952E+01
 40
1.00000000E+00
 50
2.69999991E+02
 51
3.59999973E+02
  0
ARC
  8
0
 62
7
 10
-2.69749969E+02
 20
6.84697454E+01
 40
1.00000000E+00
 50
3.59999973E+02
 51
8.42604992E+01
  0
CIRCLE
  8
0
 62
7
 10
-2.91250031E+02
 20
6.48694952E+01
 40
5.00000000E+00
  0
ARC
  8
0
 62
7
 10
-2.87186981E+02
 20
7.17609136E+01
 40
1.00000000E+00
 50
2.39477760E+02
 51
3.14999353E+02
  0
ARC
  8
0
 62
7
 10
-2.84358551E+02
 20
6.89325140E+01
 40
1.00000000E+00
 50
1.35000615E+02
 51
2.10522426E+02
  0
ARC
  8
0
 62
7
 10
-2.40250031E+02
 20
1.15869465E+02
 40
3.50000000E+00
 50
0.00000000E+00
 51
8.99999818E+01
  0
CIRCLE
  8
0
 62
7
 10
-2.44249969E+02
 20
1.11869434E+02
 40
4.50000000E+00
  0
ARC
  8
0
 62
7
 10
-2.95249969E+02
 20
6.08694647E+01
 40
3.50000000E+00
 50
1.80000036E+02
 51
2.69999991E+02
  0
CIRCLE
  8
0
 62
7
 10
-2.91250031E+02
 20
6.48694952E+01
 40
4.50000000E+00
  0
ARC
  8
0
 62
7
 10
-2.40750031E+02
 20
9.89008215E+01
 40
1.00000000E+00
 50
0.00000000E+00
 51
8.28191923E+01
  0
ARC
  8
0
 62
7
 10
-2.40250031E+02
 20
1.02869449E+02
 40
3.00000000E+00
 50
1.79999981E+02
 51
2.62819221E+02
  0
ARC
  8
0
 62
7
 10
-2.44218658E+02
 20
1.03869541E+02
 40
1.00000000E+00
 50
7.17896597E+00
 51
9.02255215E+01
  0
ARC
  8
0
 62
7
 10
-2.44250031E+02
 20
1.11869480E+02
 40
7.00000000E+00
 50
1.79775278E+02
 51
2.70224550E+02
  0
ARC
  8
0
 62
7
 10
-2.52249969E+02
 20
1.11900852E+02
 40
1.00000000E+00
 50
3.59775314E+02
 51
8.28191923E+01
  0
ARC
  8
0
 62
7
 10
-2.53249969E+02
 20
1.15869480E+02
 40
3.00000000E+00
 50
1.87181024E+02
 51
2.70000018E+02
  0
ARC
  8
0
 62
7
 10
-2.57218597E+02
 20
1.15369449E+02
 40
1.00000000E+00
 50
7.18156141E+00
 51
8.99999818E+01
  0
ARC
  8
0
 62
7
 10
-2.94749969E+02
 20
7.78381079E+01
 40
1.00000000E+00
 50
1.80000036E+02
 51
2.62819228E+02
  0
ARC
  8
0
 62
7
 10
-2.95249969E+02
 20
7.38694799E+01
 40
3.00000000E+00
 50
0.00000000E+00
 51
8.28192405E+01
  0
ARC
  8
0
 62
7
 10
-2.91281342E+02
 20
7.28693884E+01
 40
1.00000000E+00
 50
1.87179002E+02
 51
2.70225557E+02
  0
ARC
  8
0
 62
7
 10
-2.91249969E+02
 20
6.48694494E+01
 40
7.00000000E+00
 50
3.59775313E+02
 51
9.02245790E+01
  0
ARC
  8
0
 62
7
 10
-2.83250031E+02
 20
6.48380773E+01
 40
1.00000000E+00
 50
1.79775333E+02
 51
2.62819204E+02
  0
ARC
  8
0
 62
7
 10
-2.82249969E+02
 20
6.08694494E+01
 40
3.00000000E+00
 50
7.18104317E+00
 51
8.99999818E+01
  0
ARC
  8
0
 62
7
 10
-2.78281342E+02
 20
6.13694799E+01
 40
1.00000000E+00
 50
1.87181597E+02
 51
2.70000018E+02
  0
ARC
  8
0
 62
7
 10
-2.83235443E+02
 20
1.01026493E+02
 40
1.00000000E+00
 50
3.20738994E+02
 51
4.49999910E+01
  0
ARC
  8
0
 62
7
 10
-2.80407013E+02
 20
1.03854923E+02
 40
1.00000000E+00
 50
2.24999972E+02
 51
3.09260983E+02
  0
ARC
  8
0
 62
7
 10
-2.87649750E+02
 20
9.03694647E+01
 40
1.00000000E+00
 50
2.69999963E+02
 51
3.54260510E+02
  0
ARC
  8
0
 62
7
 10
-2.87649750E+02
 20
8.63694647E+01
 40
1.00000000E+00
 50
5.73944893E+00
 51
8.99999549E+01
  0
CIRCLE
  8
0
 62
7
 10
-2.91249969E+02
 20
1.11869480E+02
 40
5.00000000E+00
  0
ARC
  8
0
 62
7
 10
-2.84358551E+02
 20
1.07806461E+02
 40
1.00000000E+00
 50
1.49477747E+02
 51
2.24999340E+02
  0
ARC
  8
0
 62
7
 10
-2.69749969E+02
 20
1.15369434E+02
 40
1.00000000E+00
 50
3.59999959E+02
 51
8.99999956E+01
  0
ARC
  8
0
 62
7
 10
-2.69749969E+02
 20
1.08269184E+02
 40
1.00000000E+00
 50
2.75739617E+02
 51
3.59999959E+02
  0
ARC
  8
0
 62
7
 10
-2.94749969E+02
 20
9.03694647E+01
 40
1.00000000E+00
 50
1.79999964E+02
 51
2.69999946E+02
  0
ARC
  8
0
 62
7
 10
-2.91249969E+02
 20
1.11869480E+02
 40
7.00000000E+00
 50
2.69775421E+02
 51
2.24686703E-01
  0
ARC
  8
0
 62
7
 10
-2.87186920E+02
 20
1.04978031E+02
 40
1.00000000E+00
 50
4.50006194E+01
 51
1.20522431E+02
  0
ARC
  8
0
 62
7
 10
-2.95249969E+02
 20
1.15869419E+02
 40
3.00000000E+00
 50
9.00000231E+01
 51
1.79999977E+02
  0
ARC
  8
0
 62
7
 10
-2.94749969E+02
 20
8.63694647E+01
 40
1.00000000E+00
 50
8.99999549E+01
 51
1.79999991E+02
  0
ARC
  8
0
 62
7
 10
-2.95249969E+02
 20
1.15869419E+02
 40
3.50000000E+00
 50
9.00000231E+01
 51
1.79999977E+02
  0
CIRCLE
  8
0
 62
7
 10
-2.91249969E+02
 20
1.11869480E+02
 40
4.50000000E+00
  0
ARC
  8
0
 62
7
 10
-2.95249969E+02
 20
1.02869449E+02
 40
3.00000000E+00
 50
2.77180753E+02
 51
0.00000000E+00
  0
ARC
  8
0
 62
7
 10
-2.82249969E+02
 20
1.15869480E+02
 40
3.00000000E+00
 50
2.70000018E+02
 51
3.52818957E+02
  0
ARC
  8
0
 62
7
 10
-2.78281342E+02
 20
1.15369449E+02
 40
1.00000000E+00
 50
8.99999818E+01
 51
1.72818402E+02
  0
ARC
  8
0
 62
7
 10
-2.83250031E+02
 20
1.11900852E+02
 40
1.00000000E+00
 50
9.71807714E+01
 51
1.80224650E+02
  0
ARC
  8
0
 62
7
 10
-2.91281342E+02
 20
1.03869541E+02
 40
1.00000000E+00
 50
8.97744422E+01
 51
1.72820998E+02
  0
ARC
  8
0
 62
7
 10
-2.94749969E+02
 20
9.89008215E+01
 40
1.00000000E+00
 50
9.71807714E+01
 51
1.79999964E+02
  0
ARC
  8
0
 62
7
 10
-2.65749969E+02
 20
6.84697149E+01
 40
1.00000000E+00
 50
9.57394445E+01
 51
1.79999951E+02
  0
ARC
  8
0
 62
7
 10
-2.55092926E+02
 20
7.28840063E+01
 40
1.00000000E+00
 50
4.49999637E+01
 51
1.29260961E+02
  0
ARC
  8
0
 62
7
 10
-2.52264496E+02
 20
7.57124365E+01
 40
1.00000000E+00
 50
1.40738985E+02
 51
2.24999982E+02
  0
ARC
  8
0
 62
7
 10
-2.47850250E+02
 20
8.63694647E+01
 40
1.00000000E+00
 50
8.99999681E+01
 51
1.74260502E+02
  0
ARC
  8
0
 62
7
 10
-2.65749969E+02
 20
6.13694952E+01
 40
1.00000000E+00
 50
1.79999951E+02
 51
2.70000001E+02
  0
ARC
  8
0
 62
7
 10
-2.40250031E+02
 20
6.08694952E+01
 40
3.00000000E+00
 50
2.70000018E+02
 51
3.59999986E+02
  0
ARC
  8
0
 62
7
 10
-2.40750031E+02
 20
8.63694647E+01
 40
1.00000000E+00
 50
3.59999986E+02
 51
8.99999681E+01
  0
CIRCLE
  8
0
 62
7
 10
-2.44250031E+02
 20
6.48694342E+01
 40
5.00000000E+00
  0
ARC
  8
0
 62
7
 10
-2.51141449E+02
 20
6.89324530E+01
 40
1.00000000E+00
 50
3.29477756E+02
 51
4.49993490E+01
  0
ARC
  8
0
 62
7
 10
-2.48313019E+02
 20
7.17608831E+01
 40
1.00000000E+00
 50
2.25000628E+02
 51
3.00522440E+02
  0
ARC
  8
0
 62
7
 10
-2.40249969E+02
 20
6.08694952E+01
 40
3.50000000E+00
 50
2.70000018E+02
 51
3.59999986E+02
  0
CIRCLE
  8
0
 62
7
 10
-2.44250031E+02
 20
6.48694342E+01
 40
4.50000000E+00
  0
ARC
  8
0
 62
7
 10
-2.57218597E+02
 20
6.13694799E+01
 40
1.00000000E+00
 50
2.70000018E+02
 51
3.52818438E+02
  0
ARC
  8
0
 62
7
 10
-2.53249969E+02
 20
6.08694494E+01
 40
3.00000000E+00
 50
8.99999818E+01
 51
1.72818977E+02
  0
ARC
  8
0
 62
7
 10
-2.52249969E+02
 20
6.48380773E+01
 40
1.00000000E+00
 50
2.77180808E+02
 51
2.24685903E-01
  0
ARC
  8
0
 62
7
 10
-2.44250031E+02
 20
6.48694494E+01
 40
7.00000000E+00
 50
8.97754328E+01
 51
1.80224705E+02
  0
ARC
  8
0
 62
7
 10
-2.44218658E+02
 20
7.28693884E+01
 40
1.00000000E+00
 50
2.69774478E+02
 51
3.52821034E+02
  0
ARC
  8
0
 62
7
 10
-2.40250031E+02
 20
7.38694799E+01
 40
3.00000000E+00
 50
9.71807782E+01
 51
1.79999964E+02
  0
ARC
  8
0
 62
7
 10
-2.40750031E+02
 20
7.78381079E+01
 40
1.00000000E+00
 50
2.77180808E+02
 51
0.00000000E+00
  0
CIRCLE
  8
0
 62
7
 10
-2.67749969E+02
 20
8.83694647E+01
 40
1.75294495E+01
  0
CIRCLE
  8
0
 62
7
 10
-2.67749969E+02
 20
8.83694647E+01
 40
1.90000000E+01
  0
CIRCLE
  8
0
 62
7
 10
-2.67749969E+02
 20
8.83694647E+01
 40
1.70000000E+01
  0
CIRCLE
  8
0
 62
2
 10
-2.91249969E+02
 20
1.11869434E+02
 40
3.00000000E+00
  0
CIRCLE
  8
0
 62
2
 10
-2.91250031E+02
 20
6.48694189E+01
 40
3.00000000E+00
  0
CIRCLE
  8
0
 62
2
 10
-2.44250031E+02
 20
6.48694189E+01
 40
3.00000000E+00
  0
CIRCLE
  8
0
 62
2
 10
-2.44249969E+02
 20
1.11869434E+02
 40
3.00000000E+00
  0
CIRCLE
  8
0
 62
7
 10
-2.67749969E+02
 20
8.83694647E+01
 40
9.00000000E+00
  0
CIRCLE
  8
0
 62
4
 10
-2.67749969E+02
 20
8.83694647E+01
 40
1.35000000E+01
  0
LINE
  8
0
 62
4
 10
-2.67749969E+02
 20
1.03957922E+02
 11
-2.81249969E+02
 21
9.61636933E+01
  0
LINE
  8
0
 62
4
 10
-2.81249969E+02
 20
9.61636933E+01
 11
-2.81249969E+02
 21
8.05752360E+01
  0
LINE
  8
0
 62
4
 10
-2.81249969E+02
 20
8.05752360E+01
 11
-2.67749969E+02
 21
7.27810074E+01
  0
LINE
  8
0
 62
4
 10
-2.67749969E+02
 20
7.27810074E+01
 11
-2.54249969E+02
 21
8.05752360E+01
  0
LINE
  8
0
 62
4
 10
-2.54249969E+02
 20
8.05752360E+01
 11
-2.54249969E+02
 21
9.61636933E+01
  0
LINE
  8
0
 62
4
 10
-2.54249969E+02
 20
9.61636933E+01
 11
-2.67749969E+02
 21
1.03957922E+02
  0
CIRCLE
  8
0
 62
2
 10
-2.67749969E+02
 20
8.83694647E+01
 40
8.17999268E+00
  0
LINE
  8
0
  6
CENTER
 62
6
 10
-3.00283922E+02
 20
1.07382539E+02
 11
-2.92817918E+02
 21
1.08698997E+02
  0
LINE
  8
0
  6
CENTER
 62
6
 10
-2.76173287E+02
 20
1.19369465E+02
 11
-2.75562384E+02
 21
1.15904862E+02
  0
LINE
  8
0
 62
4
 10
-2.77325797E+02
 20
1.19369465E+02
 11
-2.77397308E+02
 21
1.19775027E+02
  0
LINE
  8
0
  6
CENTER
 62
6
 10
-2.59326652E+02
 20
1.19369465E+02
 11
-2.59937554E+02
 21
1.15904862E+02
  0
LINE
  8
0
  6
CENTER
 62
6
 10
-2.62309982E+02
 20
1.19369465E+02
 11
-2.62371033E+02
 21
1.19380230E+02
  0
LINE
  8
0
 62
4
 10
-2.36750031E+02
 20
1.14689286E+02
 11
-2.36097686E+02
 21
1.12896984E+02
  0
LINE
  8
0
 62
4
 10
-2.98749969E+02
 20
1.14689118E+02
 11
-2.99402253E+02
 21
1.12896984E+02
  0
LINE
  8
0
 62
4
 10
-2.61032981E+02
 20
1.20058179E+02
 11
-2.58949202E+02
 21
1.31875872E+02
  0
ARC
  8
0
 62
4
 10
-2.51555506E+02
 20
1.22440893E+02
 40
1.18100000E+01
 50
1.70000000E+02
 51
1.90532699E+02
  0
ARC
  8
0
 62
4
 10
-2.51552819E+02
 20
1.22456135E+02
 40
1.18100000E+01
 50
1.67900933E+02
 51
1.70000000E+02
  0
LINE
  8
0
 62
4
 10
-2.61433255E+02
 20
1.19976444E+02
 11
-2.63166516E+02
 21
1.20282065E+02
  0
LINE
  8
0
 62
4
 10
-2.61032981E+02
 20
1.20058179E+02
 11
-2.61407207E+02
 21
1.20124165E+02
  0
LINE
  8
0
 62
4
 10
-2.61433255E+02
 20
1.19976444E+02
 11
-2.60764709E+02
 21
1.23767954E+02
  0
LINE
  8
0
 62
4
 10
-2.61375290E+02
 20
1.23875616E+02
 11
-2.60055564E+02
 21
1.31360155E+02
  0
LINE
  8
0
 62
4
 10
-2.60125023E+02
 20
1.30966232E+02
 11
-2.61237856E+02
 21
1.31162454E+02
  0
LINE
  8
0
 62
4
 10
-2.61305831E+02
 20
1.24269539E+02
 11
-2.62418664E+02
 21
1.24465761E+02
  0
ARC
  8
0
 62
4
 10
-2.51448966E+02
 20
1.25983958E+02
 40
1.18100000E+01
 50
1.57172490E+02
 51
1.82827510E+02
  0
ARC
  8
0
 62
4
 10
-2.61412294E+02
 20
1.30177786E+02
 40
1.00000000E+00
 50
7.99999999E+01
 51
1.57172490E+02
  0
ARC
  8
0
 62
4
 10
-2.62245806E+02
 20
1.25450708E+02
 40
1.00000000E+00
 50
1.82827510E+02
 51
2.60000000E+02
  0
LINE
  8
0
 62
4
 10
-2.59070756E+02
 20
1.31186506E+02
 11
-2.60055564E+02
 21
1.31360155E+02
  0
LINE
  8
0
 62
4
 10
-2.60390482E+02
 20
1.23701968E+02
 11
-2.61375290E+02
 21
1.23875616E+02
  0
ARC
  8
0
 62
4
 10
-2.59286374E+02
 20
1.19597891E+02
 40
5.00000000E-01
 50
3.32815800E+02
 51
2.07184200E+02
  0
ARC
  8
0
 62
4
 10
-2.59286374E+02
 20
1.19597891E+02
 40
3.00000000E-01
 50
3.10410364E+02
 51
2.29589636E+02
  0
ARC
  8
0
 62
4
 10
-2.59416610E+02
 20
1.18859285E+02
 40
1.50000000E+00
 50
1.98841649E+01
 51
1.60115835E+02
  0
LINE
  8
0
 62
4
 10
-2.36097686E+02
 20
1.12896984E+02
 11
-2.36750031E+02
 21
1.09197353E+02
  0
LINE
  8
0
 62
4
 10
-2.48805683E+02
 20
1.30087296E+02
 11
-2.41912028E+02
 21
1.28871758E+02
  0
LINE
  8
0
 62
4
 10
-2.41912028E+02
 20
1.28871758E+02
 11
-2.38216366E+02
 21
1.18718010E+02
  0
LINE
  8
0
 62
4
 10
-2.50281692E+02
 20
1.21716430E+02
 11
-2.49789288E+02
 21
1.21629606E+02
  0
LINE
  8
0
 62
4
 10
-2.49383708E+02
 20
1.21050378E+02
 11
-2.49680099E+02
 21
1.19369465E+02
  0
ARC
  8
0
 62
4
 10
-2.49876112E+02
 20
1.21137202E+02
 40
5.00000000E-01
 50
3.50000000E+02
 51
7.99999999E+01
  0
LINE
  8
0
  6
CENTER
 62
6
 10
-2.42682021E+02
 20
1.08698997E+02
 11
-2.35216017E+02
 21
1.07382539E+02
  0
LINE
  8
0
  6
CENTER
 62
6
 10
-2.48656429E+02
 20
1.21937565E+02
 11
-2.61506934E+02
 21
1.24203456E+02
  0
LINE
  8
0
  6
CENTER
 62
6
 10
-2.38814793E+02
 20
1.23756213E+02
 11
-2.60899166E+02
 21
1.27650283E+02
  0
LINE
  8
0
 62
4
 10
-2.57574737E+02
 20
1.20666909E+02
 11
-2.57899201E+02
 21
1.21130292E+02
  0
LINE
  8
0
 62
4
 10
-2.57899201E+02
 20
1.21130292E+02
 11
-2.60755143E+02
 21
1.21633871E+02
  0
LINE
  8
0
 62
4
 10
-2.57082333E+02
 20
1.20580085E+02
 11
-2.57295798E+02
 21
1.19369465E+02
  0
LINE
  8
0
 62
4
 10
-2.57082333E+02
 20
1.20580085E+02
 11
-2.57574737E+02
 21
1.20666909E+02
  0
LINE
  8
0
 62
4
 10
-2.48805683E+02
 20
1.30087296E+02
 11
-2.50281692E+02
 21
1.21716430E+02
  0
LINE
  8
0
 62
4
 10
-2.58949202E+02
 20
1.31875872E+02
 11
-2.48805683E+02
 21
1.30087296E+02
  0
LINE
  8
0
 62
4
 10
-2.49887769E+02
 20
1.21646971E+02
 11
-2.50289355E+02
 21
1.19369465E+02
  0
LINE
  8
0
 62
4
 10
-2.57099698E+02
 20
1.20481604E+02
 11
-2.61038929E+02
 21
1.21176197E+02
  0
LINE
  8
0
 62
4
 10
-2.61038929E+02
 20
1.21176197E+02
 11
-2.61357505E+02
 21
1.19369465E+02
  0
LINE
  8
0
  6
CENTER
 62
6
 10
-2.58895665E+02
 20
1.21813708E+02
 11
-2.59326652E+02
 21
1.19369465E+02
  0
LINE
  8
0
  6
CENTER
 62
6
 10
-2.56462187E+02
 20
1.18338341E+02
 11
-2.62309982E+02
 21
1.19369465E+02
  0
LINE
  8
0
 62
4
 10
-2.33629068E+02
 20
1.09133570E+02
 11
-2.36666830E+02
 21
1.09669209E+02
  0
LINE
  8
0
 62
4
 10
-2.34323661E+02
 20
1.05194339E+02
 11
-2.36750031E+02
 21
1.05622173E+02
  0
LINE
  8
0
 62
6
 10
-2.33715892E+02
 20
1.08641166E+02
 11
-2.36753654E+02
 21
1.09176805E+02
  0
LINE
  8
0
 62
6
 10
-2.34236836E+02
 20
1.05686743E+02
 11
-2.36750031E+02
 21
1.06129887E+02
  0
LINE
  8
0
 62
4
 10
-2.34323661E+02
 20
1.05194339E+02
 11
-2.33629068E+02
 21
1.09133570E+02
  0
LINE
  8
0
 62
4
 10
-2.74657971E+02
 20
1.21141467E+02
 11
-2.76550737E+02
 21
1.31875872E+02
  0
ARC
  8
0
 62
4
 10
-2.83944433E+02
 20
1.22440893E+02
 40
1.18100000E+01
 50
3.49467301E+02
 51
9.99999999E+00
  0
ARC
  8
0
 62
4
 10
-2.83947120E+02
 20
1.22456135E+02
 40
1.18100000E+01
 50
9.99999999E+00
 51
3.05326991E+01
  0
LINE
  8
0
 62
4
 10
-2.74066684E+02
 20
1.19976444E+02
 11
-2.72333423E+02
 21
1.20282065E+02
  0
LINE
  8
0
 62
4
 10
-2.75507964E+02
 20
1.28150348E+02
 11
-2.73774702E+02
 21
1.28455969E+02
  0
LINE
  8
0
 62
4
 10
-2.74269997E+02
 20
1.20092909E+02
 11
-2.74092731E+02
 21
1.20124165E+02
  0
LINE
  8
0
 62
4
 10
-2.75856144E+02
 20
1.27936641E+02
 11
-2.75481917E+02
 21
1.28002627E+02
  0
LINE
  8
0
 62
4
 10
-2.74066684E+02
 20
1.19976444E+02
 11
-2.75507964E+02
 21
1.28150348E+02
  0
LINE
  8
0
 62
4
 10
-2.74897383E+02
 20
1.28258010E+02
 11
-2.75444375E+02
 21
1.31360155E+02
  0
LINE
  8
0
 62
4
 10
-2.75374916E+02
 20
1.30966232E+02
 11
-2.74262083E+02
 21
1.31162454E+02
  0
ARC
  8
0
 62
4
 10
-2.84050973E+02
 20
1.25983958E+02
 40
1.18100000E+01
 50
3.57172490E+02
 51
2.28275100E+01
  0
ARC
  8
0
 62
4
 10
-2.74087645E+02
 20
1.30177786E+02
 40
1.00000000E+00
 50
2.28275100E+01
 51
9.99999999E+01
  0
ARC
  8
0
 62
4
 10
-2.73254133E+02
 20
1.25450708E+02
 40
1.00000000E+00
 50
3.28723662E+02
 51
3.57172490E+02
  0
LINE
  8
0
 62
4
 10
-2.76429183E+02
 20
1.31186506E+02
 11
-2.75444375E+02
 21
1.31360155E+02
  0
LINE
  8
0
  6
CENTER
 62
6
 10
-2.79037752E+02
 20
1.18338341E+02
 11
-2.73128906E+02
 21
1.19380230E+02
  0
LINE
  8
0
  6
CENTER
 62
6
 10
-2.76604274E+02
 20
1.21813708E+02
 11
-2.76173287E+02
 21
1.19369465E+02
  0
LINE
  8
0
 62
4
 10
-2.74461010E+02
 20
1.21176197E+02
 11
-2.74142434E+02
 21
1.19369465E+02
  0
LINE
  8
0
 62
4
 10
-2.78400241E+02
 20
1.20481604E+02
 11
-2.74461010E+02
 21
1.21176197E+02
  0
LINE
  8
0
 62
4
 10
-2.77397308E+02
 20
1.19775027E+02
 11
-2.75166719E+02
 21
1.20168340E+02
  0
LINE
  8
0
 62
4
 10
-2.78400241E+02
 20
1.20481604E+02
 11
-2.77397308E+02
 21
1.19775027E+02
  0
LINE
  8
0
 62
4
 10
-2.74461010E+02
 20
1.21176197E+02
 11
-2.75166719E+02
 21
1.20168340E+02
  0
LINE
  8
0
 62
4
 10
-2.75166719E+02
 20
1.20168340E+02
 11
-2.75025855E+02
 21
1.19369465E+02
  0
LINE
  8
0
 62
4
 10
-2.85612170E+02
 20
1.21646971E+02
 11
-2.85210584E+02
 21
1.19369465E+02
  0
LINE
  8
0
 62
4
 10
-2.76550737E+02
 20
1.31875872E+02
 11
-2.86694256E+02
 21
1.30087296E+02
  0
LINE
  8
0
 62
4
 10
-2.86694256E+02
 20
1.30087296E+02
 11
-2.85218247E+02
 21
1.21716430E+02
  0
LINE
  8
0
 62
4
 10
-2.78417606E+02
 20
1.20580085E+02
 11
-2.77925202E+02
 21
1.20666909E+02
  0
LINE
  8
0
 62
4
 10
-2.78417606E+02
 20
1.20580085E+02
 11
-2.78204141E+02
 21
1.19369465E+02
  0
LINE
  8
0
 62
4
 10
-2.77600738E+02
 20
1.21130292E+02
 11
-2.74744796E+02
 21
1.21633871E+02
  0
LINE
  8
0
 62
4
 10
-2.77925202E+02
 20
1.20666909E+02
 11
-2.77600738E+02
 21
1.21130292E+02
  0
LINE
  8
0
  6
CENTER
 62
6
 10
-2.96685146E+02
 20
1.23756213E+02
 11
-2.74600773E+02
 21
1.27650283E+02
  0
LINE
  8
0
  6
CENTER
 62
6
 10
-2.86843510E+02
 20
1.21937565E+02
 11
-2.73993005E+02
 21
1.24203456E+02
  0
ARC
  8
0
 62
4
 10
-2.85623827E+02
 20
1.21137202E+02
 40
5.00000000E-01
 50
9.99999999E+01
 51
1.90000000E+02
  0
LINE
  8
0
 62
4
 10
-2.86116231E+02
 20
1.21050378E+02
 11
-2.85819840E+02
 21
1.19369465E+02
  0
LINE
  8
0
 62
4
 10
-2.85218247E+02
 20
1.21716430E+02
 11
-2.85710651E+02
 21
1.21629606E+02
  0
LINE
  8
0
 62
4
 10
-2.93587911E+02
 20
1.28871758E+02
 11
-2.97283574E+02
 21
1.18718007E+02
  0
LINE
  8
0
 62
4
 10
-2.86694256E+02
 20
1.30087296E+02
 11
-2.93587911E+02
 21
1.28871758E+02
  0
LINE
  8
0
 62
4
 10
-2.99402253E+02
 20
1.12896984E+02
 11
-2.98749969E+02
 21
1.09197700E+02
  0
LINE
  8
0
 62
4
 10
-3.01870871E+02
 20
1.09133570E+02
 11
-2.98833109E+02
 21
1.09669209E+02
  0
LINE
  8
0
 62
4
 10
-3.01176278E+02
 20
1.05194339E+02
 11
-2.98749969E+02
 21
1.05622163E+02
  0
LINE
  8
0
 62
4
 10
-3.01176278E+02
 20
1.05194339E+02
 11
-3.01870871E+02
 21
1.09133570E+02
  0
LINE
  8
0
 62
6
 10
-3.01784047E+02
 20
1.08641166E+02
 11
-2.98746285E+02
 21
1.09176805E+02
  0
LINE
  8
0
 62
6
 10
-3.01263102E+02
 20
1.05686743E+02
 11
-2.98749969E+02
 21
1.06129876E+02
  0
CIRCLE
  8
0
 62
7
 10
1.78094452E+02
 20
6.48694189E+01
 40
2.45850000E+00
  0
CIRCLE
  8
0
 62
7
 10
2.25094452E+02
 20
6.48694189E+01
 40
2.45850000E+00
  0
CIRCLE
  8
0
 62
7
 10
2.25094391E+02
 20
1.11869434E+02
 40
2.45850000E+00
  0
CIRCLE
  8
0
 62
7
 10
1.78094391E+02
 20
1.11869434E+02
 40
2.45850000E+00
  0
LINE
  8
0
  6
CENTER
 62
2
 10
2.25094452E+02
 20
5.52785070E+01
 11
2.25094452E+02
 21
7.41650427E+01
  0
LINE
  8
0
  6
CENTER
 62
2
 10
1.78094391E+02
 20
1.21847706E+02
 11
1.78094391E+02
 21
1.02145084E+02
  0
LINE
  8
0
 62
7
 10
2.02594452E+02
 20
6.13694952E+01
 11
2.02594452E+02
 21
6.84697149E+01
  0
LINE
  8
0
 62
7
 10
2.02594391E+02
 20
1.15369434E+02
 11
2.02594391E+02
 21
1.08269214E+02
  0
LINE
  8
0
 62
7
 10
2.14958624E+02
 20
7.35912406E+01
 11
2.18910183E+02
 21
6.96396817E+01
  0
LINE
  8
0
 62
7
 10
2.16372848E+02
 20
7.50054435E+01
 11
2.20324408E+02
 21
7.10538845E+01
  0
LINE
  8
0
 62
7
 10
1.91063019E+02
 20
1.16369449E+02
 11
2.12125763E+02
 21
1.16369449E+02
  0
LINE
  8
0
 62
7
 10
2.00594391E+02
 20
1.15369434E+02
 11
2.00594391E+02
 21
1.08269184E+02
  0
LINE
  8
0
 62
7
 10
1.74094452E+02
 20
1.18869434E+02
 11
2.29094391E+02
 21
1.18869465E+02
  0
LINE
  8
0
  6
CENTER
 62
2
 10
1.68141266E+02
 20
1.11869434E+02
 11
1.87843842E+02
 21
1.11869434E+02
  0
LINE
  8
0
 62
7
 10
1.74594452E+02
 20
8.93694494E+01
 11
1.81694672E+02
 21
8.93694494E+01
  0
LINE
  8
0
 62
7
 10
1.86816179E+02
 20
1.01733756E+02
 11
1.82864662E+02
 21
1.05685271E+02
  0
LINE
  8
0
 62
7
 10
1.88230414E+02
 20
1.03147991E+02
 11
1.84278897E+02
 21
1.07099507E+02
  0
LINE
  8
0
 62
7
 10
2.14958613E+02
 20
1.03147723E+02
 11
2.18910194E+02
 21
1.07099303E+02
  0
LINE
  8
0
 62
7
 10
2.16372826E+02
 20
1.01733509E+02
 11
2.20324364E+02
 21
1.05685047E+02
  0
LINE
  8
0
 62
7
 10
2.28594391E+02
 20
8.93694952E+01
 11
2.21494171E+02
 21
8.93694952E+01
  0
LINE
  8
0
 62
7
 10
2.28594391E+02
 20
8.73694952E+01
 11
2.21494171E+02
 21
8.73694952E+01
  0
LINE
  8
0
 62
7
 10
2.29594391E+02
 20
7.78381079E+01
 11
2.29594391E+02
 21
9.89008215E+01
  0
LINE
  8
0
 62
7
 10
2.32094391E+02
 20
6.08694952E+01
 11
2.32094391E+02
 21
1.15869434E+02
  0
LINE
  8
0
 62
7
 10
1.74094452E+02
 20
1.19369465E+02
 11
2.29094391E+02
 21
1.19369465E+02
  0
LINE
  8
0
 62
7
 10
2.32594391E+02
 20
6.08694647E+01
 11
2.32594391E+02
 21
1.15869434E+02
  0
LINE
  8
0
  6
CENTER
 62
2
 10
2.25094391E+02
 20
1.21423145E+02
 11
2.25094391E+02
 21
1.03985096E+02
  0
LINE
  8
0
 62
7
 10
2.00594452E+02
 20
6.13694952E+01
 11
2.00594452E+02
 21
6.84697149E+01
  0
LINE
  8
0
 62
7
 10
1.86816080E+02
 20
7.50053928E+01
 11
1.82864565E+02
 21
7.10538763E+01
  0
LINE
  8
0
 62
7
 10
1.88230294E+02
 20
7.35911362E+01
 11
1.84278757E+02
 21
6.96395982E+01
  0
LINE
  8
0
 62
7
 10
1.74594452E+02
 20
8.73694647E+01
 11
1.81694672E+02
 21
8.73694647E+01
  0
LINE
  8
0
 62
7
 10
1.71094452E+02
 20
6.08694952E+01
 11
1.71094452E+02
 21
1.15869434E+02
  0
LINE
  8
0
 62
7
 10
1.74094452E+02
 20
5.78694799E+01
 11
2.29094391E+02
 21
5.78695104E+01
  0
LINE
  8
0
 62
7
 10
1.74094391E+02
 20
5.73694799E+01
 11
2.29094391E+02
 21
5.73694799E+01
  0
LINE
  8
0
  6
CENTER
 62
2
 10
2.01594391E+02
 20
1.23130115E+02
 11
2.01594391E+02
 21
5.50425909E+01
  0
LINE
  8
0
  6
CENTER
 62
2
 10
1.67908051E+02
 20
6.48694189E+01
 11
1.87610687E+02
 21
6.48694189E+01
  0
LINE
  8
0
 62
7
 10
1.91063019E+02
 20
6.03694799E+01
 11
2.12125763E+02
 21
6.03694799E+01
  0
LINE
  8
0
 62
7
 10
1.79594391E+02
 20
1.19369465E+02
 11
1.79594391E+02
 21
1.18869434E+02
  0
LINE
  8
0
 62
7
 10
2.23594391E+02
 20
1.19369465E+02
 11
2.23594391E+02
 21
1.18869465E+02
  0
LINE
  8
0
 62
7
 10
2.23594391E+02
 20
5.78695104E+01
 11
2.23594391E+02
 21
5.73694799E+01
  0
LINE
  8
0
 62
7
 10
1.79594391E+02
 20
5.78694799E+01
 11
1.79594391E+02
 21
5.73694799E+01
  0
LINE
  8
0
  6
CENTER
 62
2
 10
1.78094452E+02
 20
5.52083929E+01
 11
1.78094452E+02
 21
7.40654562E+01
  0
LINE
  8
0
 62
7
 10
1.73594452E+02
 20
7.78381079E+01
 11
1.73594452E+02
 21
9.89008215E+01
  0
LINE
  8
0
 62
7
 10
1.70594452E+02
 20
6.08694952E+01
 11
1.70594452E+02
 21
1.15869465E+02
  0
LINE
  8
0
 62
7
 10
2.26094391E+02
 20
1.04118061E+02
 11
2.26094391E+02
 21
1.02869449E+02
  0
LINE
  8
0
 62
7
 10
2.17342804E+02
 20
1.12869510E+02
 11
2.16094391E+02
 21
1.12869510E+02
  0
LINE
  8
0
 62
7
 10
1.85845673E+02
 20
1.12869434E+02
 11
1.87094391E+02
 21
1.12869434E+02
  0
LINE
  8
0
 62
7
 10
1.77094391E+02
 20
1.04117817E+02
 11
1.77094391E+02
 21
1.02869449E+02
  0
LINE
  8
0
 62
7
 10
2.26094452E+02
 20
7.26212347E+01
 11
2.26094452E+02
 21
7.38694799E+01
  0
LINE
  8
0
 62
7
 10
2.17343170E+02
 20
6.38695104E+01
 11
2.16094391E+02
 21
6.38695104E+01
  0
LINE
  8
0
 62
7
 10
1.85845978E+02
 20
6.38694189E+01
 11
1.87094391E+02
 21
6.38694189E+01
  0
LINE
  8
0
 62
7
 10
1.77094452E+02
 20
7.26207464E+01
 11
1.77094452E+02
 21
7.38694799E+01
  0
LINE
  8
0
  6
CENTER
 62
2
 10
1.66946503E+02
 20
8.83694647E+01
 11
2.36109467E+02
 21
8.83694647E+01
  0
LINE
  8
0
  6
CENTER
 62
2
 10
2.15707306E+02
 20
1.11869434E+02
 11
2.34826996E+02
 21
1.11869434E+02
  0
LINE
  8
0
  6
CENTER
 62
2
 10
2.16057098E+02
 20
6.48694189E+01
 11
2.34826996E+02
 21
6.48694189E+01
  0
LINE
  8
0
  6
CENTER
 62
2
 10
2.08594513E+02
 20
1.21554523E+02
 11
2.08594513E+02
 21
1.09669254E+02
  0
LINE
  8
0
 62
7
 10
1.78094389E+02
 20
1.15333534E+02
 11
1.75094391E+02
 21
1.13601484E+02
  0
LINE
  8
0
 62
7
 10
1.75094391E+02
 20
1.13601490E+02
 11
1.75094391E+02
 21
1.10137378E+02
  0
LINE
  8
0
 62
7
 10
1.78094392E+02
 20
1.08405331E+02
 11
1.75094391E+02
 21
1.10137383E+02
  0
LINE
  8
0
 62
7
 10
1.81094389E+02
 20
1.10137382E+02
 11
1.78094391E+02
 21
1.08405332E+02
  0
LINE
  8
0
 62
7
 10
1.81094391E+02
 20
1.13601490E+02
 11
1.81094391E+02
 21
1.10137378E+02
  0
LINE
  8
0
 62
7
 10
1.78094391E+02
 20
1.15333536E+02
 11
1.81094392E+02
 21
1.13601484E+02
  0
LINE
  8
0
 62
7
 10
1.78094452E+02
 20
6.83335182E+01
 11
1.75094452E+02
 21
6.66014673E+01
  0
LINE
  8
0
 62
7
 10
1.75094452E+02
 20
6.66014669E+01
 11
1.75094452E+02
 21
6.31373709E+01
  0
LINE
  8
0
 62
7
 10
1.78094453E+02
 20
6.14053151E+01
 11
1.75094451E+02
 21
6.31373669E+01
  0
LINE
  8
0
 62
7
 10
1.81094452E+02
 20
6.31373659E+01
 11
1.78094452E+02
 21
6.14053150E+01
  0
LINE
  8
0
 62
7
 10
1.81094452E+02
 20
6.66014669E+01
 11
1.81094452E+02
 21
6.31373709E+01
  0
LINE
  8
0
 62
7
 10
1.78094451E+02
 20
6.83335193E+01
 11
1.81094453E+02
 21
6.66014674E+01
  0
LINE
  8
0
 62
7
 10
2.25094451E+02
 20
6.83335184E+01
 11
2.22094449E+02
 21
6.66014666E+01
  0
LINE
  8
0
 62
7
 10
2.22094452E+02
 20
6.66014669E+01
 11
2.22094452E+02
 21
6.31373709E+01
  0
LINE
  8
0
 62
7
 10
2.25094452E+02
 20
6.14053149E+01
 11
2.22094452E+02
 21
6.31373658E+01
  0
LINE
  8
0
 62
7
 10
2.28094451E+02
 20
6.31373661E+01
 11
2.25094449E+02
 21
6.14053143E+01
  0
LINE
  8
0
 62
7
 10
2.28094452E+02
 20
6.66014669E+01
 11
2.28094452E+02
 21
6.31373709E+01
  0
LINE
  8
0
 62
7
 10
2.25094452E+02
 20
6.83335181E+01
 11
2.28094452E+02
 21
6.66014672E+01
  0
LINE
  8
0
 62
7
 10
2.25094389E+02
 20
1.15333534E+02
 11
2.22094387E+02
 21
1.13601482E+02
  0
LINE
  8
0
 62
7
 10
2.22094391E+02
 20
1.13601490E+02
 11
2.22094391E+02
 21
1.10137378E+02
  0
LINE
  8
0
 62
7
 10
2.25094391E+02
 20
1.08405331E+02
 11
2.22094393E+02
 21
1.10137381E+02
  0
LINE
  8
0
 62
7
 10
2.28094389E+02
 20
1.10137382E+02
 11
2.25094387E+02
 21
1.08405330E+02
  0
LINE
  8
0
 62
7
 10
2.28094391E+02
 20
1.13601490E+02
 11
2.28094391E+02
 21
1.10137378E+02
  0
LINE
  8
0
 62
7
 10
2.25094393E+02
 20
1.15333534E+02
 11
2.28094391E+02
 21
1.13601484E+02
  0
ARC
  8
0
 62
7
 10
2.17079865E+02
 20
7.57124212E+01
 40
1.00000000E+00
 50
1.40739039E+02
 51
2.25000037E+02
  0
ARC
  8
0
 62
7
 10
2.14251434E+02
 20
7.28839910E+01
 40
1.00000000E+00
 50
4.50000149E+01
 51
1.29261016E+02
  0
ARC
  8
0
 62
7
 10
1.86108917E+02
 20
1.01026508E+02
 40
1.00000000E+00
 50
3.20739045E+02
 51
4.50000423E+01
  0
ARC
  8
0
 62
7
 10
1.88937347E+02
 20
1.03854938E+02
 40
1.00000000E+00
 50
2.25000000E+02
 51
3.09261001E+02
  0
ARC
  8
0
 62
7
 10
1.81694672E+02
 20
9.03694494E+01
 40
1.00000000E+00
 50
2.70000038E+02
 51
3.54260543E+02
  0
ARC
  8
0
 62
7
 10
1.74594452E+02
 20
9.03694647E+01
 40
1.00000000E+00
 50
1.79999995E+02
 51
2.70000038E+02
  0
ARC
  8
0
 62
7
 10
1.74094452E+02
 20
1.15869434E+02
 40
3.00000000E+00
 50
9.00000162E+01
 51
1.80000005E+02
  0
ARC
  8
0
 62
7
 10
1.99594391E+02
 20
1.15369434E+02
 40
1.00000000E+00
 50
3.59721781E-05
 51
9.00000162E+01
  0
ARC
  8
0
 62
7
 10
1.99594391E+02
 20
1.08269184E+02
 40
1.00000000E+00
 50
2.75739515E+02
 51
3.59721781E-05
  0
CIRCLE
  8
0
 62
7
 10
1.78094391E+02
 20
1.11869434E+02
 40
5.00000000E+00
  0
ARC
  8
0
 62
7
 10
1.82157379E+02
 20
1.04978016E+02
 40
1.00000000E+00
 50
4.50006569E+01
 51
1.20522253E+02
  0
ARC
  8
0
 62
7
 10
1.84985809E+02
 20
1.07806415E+02
 40
1.00000000E+00
 50
1.49477556E+02
 51
2.24999381E+02
  0
ARC
  8
0
 62
7
 10
2.29094391E+02
 20
6.08694952E+01
 40
3.00000000E+00
 50
2.70000011E+02
 51
3.59999964E+02
  0
ARC
  8
0
 62
7
 10
2.03594391E+02
 20
6.13694952E+01
 40
1.00000000E+00
 50
1.80000022E+02
 51
2.70000011E+02
  0
ARC
  8
0
 62
7
 10
2.03594391E+02
 20
6.84697454E+01
 40
1.00000000E+00
 50
9.57394995E+01
 51
1.80000032E+02
  0
CIRCLE
  8
0
 62
7
 10
2.25094452E+02
 20
6.48694952E+01
 40
5.00000000E+00
  0
ARC
  8
0
 62
7
 10
2.21031403E+02
 20
7.17609136E+01
 40
1.00000000E+00
 50
2.25000642E+02
 51
3.00522242E+02
  0
ARC
  8
0
 62
7
 10
2.18202972E+02
 20
6.89325140E+01
 40
1.00000000E+00
 50
3.29477575E+02
 51
4.49993865E+01
  0
ARC
  8
0
 62
7
 10
1.74094452E+02
 20
1.15869465E+02
 40
3.50000000E+00
 50
9.00000162E+01
 51
1.80000005E+02
  0
CIRCLE
  8
0
 62
7
 10
1.78094391E+02
 20
1.11869434E+02
 40
4.50000000E+00
  0
ARC
  8
0
 62
7
 10
2.29094391E+02
 20
6.08694647E+01
 40
3.50000000E+00
 50
2.70000011E+02
 51
3.59999964E+02
  0
CIRCLE
  8
0
 62
7
 10
2.25094452E+02
 20
6.48694952E+01
 40
4.50000000E+00
  0
ARC
  8
0
 62
7
 10
1.74594452E+02
 20
9.89008215E+01
 40
1.00000000E+00
 50
9.71808057E+01
 51
1.80000005E+02
  0
ARC
  8
0
 62
7
 10
1.74094452E+02
 20
1.02869449E+02
 40
3.00000000E+00
 50
2.77180780E+02
 51
1.86693353E-05
  0
ARC
  8
0
 62
7
 10
1.78063080E+02
 20
1.03869541E+02
 40
1.00000000E+00
 50
8.97744765E+01
 51
1.72821039E+02
  0
ARC
  8
0
 62
7
 10
1.78094452E+02
 20
1.11869480E+02
 40
7.00000000E+00
 50
2.69775448E+02
 51
2.24721868E-01
  0
ARC
  8
0
 62
7
 10
1.86094391E+02
 20
1.11900852E+02
 40
1.00000000E+00
 50
9.71808057E+01
 51
1.80224691E+02
  0
ARC
  8
0
 62
7
 10
1.87094391E+02
 20
1.15869480E+02
 40
3.00000000E+00
 50
2.69999984E+02
 51
3.52818976E+02
  0
ARC
  8
0
 62
7
 10
1.91063019E+02
 20
1.15369449E+02
 40
1.00000000E+00
 50
9.00000162E+01
 51
1.72818444E+02
  0
ARC
  8
0
 62
7
 10
2.28594391E+02
 20
7.78381079E+01
 40
1.00000000E+00
 50
2.77180773E+02
 51
3.59999964E+02
  0
ARC
  8
0
 62
7
 10
2.29094391E+02
 20
7.38694799E+01
 40
3.00000000E+00
 50
9.71807582E+01
 51
1.80000005E+02
  0
ARC
  8
0
 62
7
 10
2.25125763E+02
 20
7.28693884E+01
 40
1.00000000E+00
 50
2.69774444E+02
 51
3.52820998E+02
  0
ARC
  8
0
 62
7
 10
2.25094391E+02
 20
6.48694494E+01
 40
7.00000000E+00
 50
8.97754191E+01
 51
1.80224691E+02
  0
ARC
  8
0
 62
7
 10
2.17094452E+02
 20
6.48380773E+01
 40
1.00000000E+00
 50
2.77180794E+02
 51
2.24667227E-01
  0
ARC
  8
0
 62
7
 10
2.16094391E+02
 20
6.08694494E+01
 40
3.00000000E+00
 50
9.00000162E+01
 51
1.72818963E+02
  0
ARC
  8
0
 62
7
 10
2.12125763E+02
 20
6.13694799E+01
 40
1.00000000E+00
 50
2.69999984E+02
 51
3.52818403E+02
  0
ARC
  8
0
 62
7
 10
2.17079865E+02
 20
1.01026493E+02
 40
1.00000000E+00
 50
1.35000014E+02
 51
2.19261011E+02
  0
ARC
  8
0
 62
7
 10
2.14251434E+02
 20
1.03854923E+02
 40
1.00000000E+00
 50
2.30739011E+02
 51
3.15000026E+02
  0
ARC
  8
0
 62
7
 10
2.21494171E+02
 20
9.03694647E+01
 40
1.00000000E+00
 50
1.85739485E+02
 51
2.70000038E+02
  0
ARC
  8
0
 62
7
 10
2.21494171E+02
 20
8.63694647E+01
 40
1.00000000E+00
 50
9.00000437E+01
 51
1.74260556E+02
  0
CIRCLE
  8
0
 62
7
 10
2.25094391E+02
 20
1.11869480E+02
 40
5.00000000E+00
  0
ARC
  8
0
 62
7
 10
2.18202972E+02
 20
1.07806461E+02
 40
1.00000000E+00
 50
3.15000662E+02
 51
3.05222541E+01
  0
ARC
  8
0
 62
7
 10
2.03594391E+02
 20
1.15369434E+02
 40
1.00000000E+00
 50
9.00000025E+01
 51
1.80000046E+02
  0
ARC
  8
0
 62
7
 10
2.03594391E+02
 20
1.08269184E+02
 40
1.00000000E+00
 50
1.80000036E+02
 51
2.64260384E+02
  0
ARC
  8
0
 62
7
 10
2.28594391E+02
 20
9.03694647E+01
 40
1.00000000E+00
 50
2.70000052E+02
 51
3.59721781E-05
  0
ARC
  8
0
 62
7
 10
2.25094391E+02
 20
1.11869480E+02
 40
7.00000000E+00
 50
1.79775319E+02
 51
2.70224577E+02
  0
ARC
  8
0
 62
7
 10
2.21031342E+02
 20
1.04978031E+02
 40
1.00000000E+00
 50
5.94775673E+01
 51
1.34999386E+02
  0
ARC
  8
0
 62
7
 10
2.29094391E+02
 20
1.15869419E+02
 40
3.00000000E+00
 50
2.23117997E-05
 51
8.99999750E+01
  0
ARC
  8
0
 62
7
 10
2.28594391E+02
 20
8.63694647E+01
 40
1.00000000E+00
 50
8.65142224E-06
 51
9.00000437E+01
  0
ARC
  8
0
 62
7
 10
2.29094391E+02
 20
1.15869419E+02
 40
3.50000000E+00
 50
2.23117997E-05
 51
8.99999750E+01
  0
CIRCLE
  8
0
 62
7
 10
2.25094391E+02
 20
1.11869480E+02
 40
4.50000000E+00
  0
ARC
  8
0
 62
7
 10
2.29094391E+02
 20
1.02869449E+02
 40
3.00000000E+00
 50
1.79999995E+02
 51
2.62819249E+02
  0
ARC
  8
0
 62
7
 10
2.16094391E+02
 20
1.15869480E+02
 40
3.00000000E+00
 50
1.87181037E+02
 51
2.69999984E+02
  0
ARC
  8
0
 62
7
 10
2.12125763E+02
 20
1.15369449E+02
 40
1.00000000E+00
 50
7.18159727E+00
 51
9.00000162E+01
  0
ARC
  8
0
 62
7
 10
2.17094452E+02
 20
1.11900852E+02
 40
1.00000000E+00
 50
3.59775350E+02
 51
8.28192267E+01
  0
ARC
  8
0
 62
7
 10
2.25125763E+02
 20
1.03869541E+02
 40
1.00000000E+00
 50
7.17900183E+00
 51
9.02255559E+01
  0
ARC
  8
0
 62
7
 10
2.28594391E+02
 20
9.89008215E+01
 40
1.00000000E+00
 50
3.59721781E-05
 51
8.28192267E+01
  0
ARC
  8
0
 62
7
 10
1.99594391E+02
 20
6.84697149E+01
 40
1.00000000E+00
 50
4.96325564E-05
 51
8.42605536E+01
  0
ARC
  8
0
 62
7
 10
1.88937347E+02
 20
7.28840063E+01
 40
1.00000000E+00
 50
5.07390404E+01
 51
1.35000041E+02
  0
ARC
  8
0
 62
7
 10
1.86108917E+02
 20
7.57124365E+01
 40
1.00000000E+00
 50
3.15000019E+02
 51
3.92610168E+01
  0
ARC
  8
0
 62
7
 10
1.81694672E+02
 20
8.63694647E+01
 40
1.00000000E+00
 50
5.73949849E+00
 51
9.00000300E+01
  0
ARC
  8
0
 62
7
 10
1.99594391E+02
 20
6.13694952E+01
 40
1.00000000E+00
 50
2.69999998E+02
 51
4.96325564E-05
  0
ARC
  8
0
 62
7
 10
1.74094452E+02
 20
6.08694952E+01
 40
3.00000000E+00
 50
1.80000008E+02
 51
2.69999984E+02
  0
ARC
  8
0
 62
7
 10
1.74594452E+02
 20
8.63694647E+01
 40
1.00000000E+00
 50
9.00000300E+01
 51
1.80000019E+02
  0
CIRCLE
  8
0
 62
7
 10
1.78094452E+02
 20
6.48694342E+01
 40
5.00000000E+00
  0
ARC
  8
0
 62
7
 10
1.84985870E+02
 20
6.89324530E+01
 40
1.00000000E+00
 50
1.35000656E+02
 51
2.10522249E+02
  0
ARC
  8
0
 62
7
 10
1.82157440E+02
 20
7.17608831E+01
 40
1.00000000E+00
 50
2.39477556E+02
 51
3.14999370E+02
  0
ARC
  8
0
 62
7
 10
1.74094391E+02
 20
6.08694952E+01
 40
3.50000000E+00
 50
1.80000008E+02
 51
2.69999984E+02
  0
CIRCLE
  8
0
 62
7
 10
1.78094452E+02
 20
6.48694342E+01
 40
4.50000000E+00
  0
ARC
  8
0
 62
7
 10
1.91063019E+02
 20
6.13694799E+01
 40
1.00000000E+00
 50
1.87181557E+02
 51
2.69999984E+02
  0
ARC
  8
0
 62
7
 10
1.87094391E+02
 20
6.08694494E+01
 40
3.00000000E+00
 50
7.18102357E+00
 51
9.00000162E+01
  0
ARC
  8
0
 62
7
 10
1.86094391E+02
 20
6.48380773E+01
 40
1.00000000E+00
 50
1.79775319E+02
 51
2.62819204E+02
  0
ARC
  8
0
 62
7
 10
1.78094452E+02
 20
6.48694494E+01
 40
7.00000000E+00
 50
3.59775295E+02
 51
9.02245653E+01
  0
ARC
  8
0
 62
7
 10
1.78063080E+02
 20
7.28693884E+01
 40
1.00000000E+00
 50
1.87178961E+02
 51
2.70225524E+02
  0
ARC
  8
0
 62
7
 10
1.74094452E+02
 20
7.38694799E+01
 40
3.00000000E+00
 50
3.59721781E-05
 51
8.28192198E+01
  0
ARC
  8
0
 62
7
 10
1.74594452E+02
 20
7.78381079E+01
 40
1.00000000E+00
 50
1.79999995E+02
 51
2.62819194E+02
  0
CIRCLE
  8
0
 62
7
 10
2.01594391E+02
 20
8.83694647E+01
 40
1.90000000E+01
  0
CIRCLE
  8
0
 62
2
 10
2.25094391E+02
 20
1.11869434E+02
 40
3.00000000E+00
  0
CIRCLE
  8
0
 62
2
 10
2.25094452E+02
 20
6.48694189E+01
 40
3.00000000E+00
  0
CIRCLE
  8
0
 62
2
 10
1.78094452E+02
 20
6.48694189E+01
 40
3.00000000E+00
  0
CIRCLE
  8
0
 62
2
 10
1.78094391E+02
 20
1.11869434E+02
 40
3.00000000E+00
  0
LINE
  8
0
  6
CENTER
 62
6
 10
1.69060438E+02
 20
1.07382539E+02
 11
1.76526443E+02
 21
1.08698997E+02
  0
LINE
  8
0
  6
CENTER
 62
6
 10
1.93171073E+02
 20
1.19369465E+02
 11
1.93781976E+02
 21
1.15904862E+02
  0
LINE
  8
0
 62
4
 10
1.92018564E+02
 20
1.19369465E+02
 11
1.91947052E+02
 21
1.19775027E+02
  0
LINE
  8
0
  6
CENTER
 62
6
 10
2.10017709E+02
 20
1.19369465E+02
 11
2.09406806E+02
 21
1.15904862E+02
  0
LINE
  8
0
  6
CENTER
 62
6
 10
2.07034379E+02
 20
1.19369465E+02
 11
2.06973327E+02
 21
1.19380230E+02
  0
LINE
  8
0
 62
4
 10
2.32594330E+02
 20
1.14689286E+02
 11
2.33246675E+02
 21
1.12896984E+02
  0
LINE
  8
0
 62
4
 10
1.70594391E+02
 20
1.14689118E+02
 11
1.69942107E+02
 21
1.12896984E+02
  0
LINE
  8
0
 62
4
 10
2.08311380E+02
 20
1.20058179E+02
 11
2.10395158E+02
 21
1.31875872E+02
  0
ARC
  8
0
 62
4
 10
2.17788854E+02
 20
1.22440893E+02
 40
1.18100000E+01
 50
1.70000000E+02
 51
1.90532699E+02
  0
ARC
  8
0
 62
4
 10
2.17791542E+02
 20
1.22456135E+02
 40
1.18100000E+01
 50
1.67900933E+02
 51
1.70000000E+02
  0
LINE
  8
0
 62
4
 10
2.07911106E+02
 20
1.19976444E+02
 11
2.06177844E+02
 21
1.20282065E+02
  0
LINE
  8
0
 62
4
 10
2.08311380E+02
 20
1.20058179E+02
 11
2.07937153E+02
 21
1.20124165E+02
  0
LINE
  8
0
 62
4
 10
2.07911106E+02
 20
1.19976444E+02
 11
2.08579651E+02
 21
1.23767954E+02
  0
LINE
  8
0
 62
4
 10
2.07969070E+02
 20
1.23875616E+02
 11
2.09288796E+02
 21
1.31360155E+02
  0
LINE
  8
0
 62
4
 10
2.09219337E+02
 20
1.30966232E+02
 11
2.08106504E+02
 21
1.31162454E+02
  0
LINE
  8
0
 62
4
 10
2.08038530E+02
 20
1.24269539E+02
 11
2.06925697E+02
 21
1.24465761E+02
  0
ARC
  8
0
 62
4
 10
2.17895394E+02
 20
1.25983958E+02
 40
1.18100000E+01
 50
1.57172490E+02
 51
1.82827510E+02
  0
ARC
  8
0
 62
4
 10
2.07932066E+02
 20
1.30177786E+02
 40
1.00000000E+00
 50
7.99999999E+01
 51
1.57172490E+02
  0
ARC
  8
0
 62
4
 10
2.07098555E+02
 20
1.25450708E+02
 40
1.00000000E+00
 50
1.82827510E+02
 51
2.60000000E+02
  0
LINE
  8
0
 62
4
 10
2.10273604E+02
 20
1.31186506E+02
 11
2.09288796E+02
 21
1.31360155E+02
  0
LINE
  8
0
 62
4
 10
2.08953878E+02
 20
1.23701968E+02
 11
2.07969070E+02
 21
1.23875616E+02
  0
ARC
  8
0
 62
4
 10
2.10057987E+02
 20
1.19597891E+02
 40
5.00000000E-01
 50
3.32815800E+02
 51
2.07184200E+02
  0
ARC
  8
0
 62
4
 10
2.10057987E+02
 20
1.19597891E+02
 40
3.00000000E-01
 50
3.10410364E+02
 51
2.29589636E+02
  0
ARC
  8
0
 62
4
 10
2.09927750E+02
 20
1.18859285E+02
 40
1.50000000E+00
 50
1.98841649E+01
 51
1.60115835E+02
  0
LINE
  8
0
 62
4
 10
2.33246675E+02
 20
1.12896984E+02
 11
2.32594330E+02
 21
1.09197353E+02
  0
LINE
  8
0
 62
4
 10
2.20538678E+02
 20
1.30087296E+02
 11
2.27432332E+02
 21
1.28871758E+02
  0
LINE
  8
0
 62
4
 10
2.27432332E+02
 20
1.28871758E+02
 11
2.31127994E+02
 21
1.18718010E+02
  0
LINE
  8
0
 62
4
 10
2.19062668E+02
 20
1.21716430E+02
 11
2.19555072E+02
 21
1.21629606E+02
  0
LINE
  8
0
 62
4
 10
2.19960652E+02
 20
1.21050378E+02
 11
2.19664262E+02
 21
1.19369465E+02
  0
ARC
  8
0
 62
4
 10
2.19468248E+02
 20
1.21137202E+02
 40
5.00000000E-01
 50
3.50000000E+02
 51
7.99999999E+01
  0
LINE
  8
0
  6
CENTER
 62
6
 10
2.26662339E+02
 20
1.08698997E+02
 11
2.34128343E+02
 21
1.07382539E+02
  0
LINE
  8
0
  6
CENTER
 62
6
 10
2.20687931E+02
 20
1.21937565E+02
 11
2.07837426E+02
 21
1.24203456E+02
  0
LINE
  8
0
  6
CENTER
 62
6
 10
2.30529567E+02
 20
1.23756213E+02
 11
2.08445195E+02
 21
1.27650283E+02
  0
LINE
  8
0
 62
4
 10
2.11769623E+02
 20
1.20666909E+02
 11
2.11445159E+02
 21
1.21130292E+02
  0
LINE
  8
0
 62
4
 10
2.11445159E+02
 20
1.21130292E+02
 11
2.08589217E+02
 21
1.21633871E+02
  0
LINE
  8
0
 62
4
 10
2.12262027E+02
 20
1.20580085E+02
 11
2.12048562E+02
 21
1.19369465E+02
  0
LINE
  8
0
 62
4
 10
2.12262027E+02
 20
1.20580085E+02
 11
2.11769623E+02
 21
1.20666909E+02
  0
LINE
  8
0
 62
4
 10
2.20538678E+02
 20
1.30087296E+02
 11
2.19062668E+02
 21
1.21716430E+02
  0
LINE
  8
0
 62
4
 10
2.10395158E+02
 20
1.31875872E+02
 11
2.20538678E+02
 21
1.30087296E+02
  0
LINE
  8
0
 62
4
 10
2.19456591E+02
 20
1.21646971E+02
 11
2.19055006E+02
 21
1.19369465E+02
  0
LINE
  8
0
 62
4
 10
2.12244662E+02
 20
1.20481604E+02
 11
2.08305431E+02
 21
1.21176197E+02
  0
LINE
  8
0
 62
4
 10
2.08305431E+02
 20
1.21176197E+02
 11
2.07986856E+02
 21
1.19369465E+02
  0
LINE
  8
0
  6
CENTER
 62
6
 10
2.10448695E+02
 20
1.21813708E+02
 11
2.10017709E+02
 21
1.19369465E+02
  0
LINE
  8
0
  6
CENTER
 62
6
 10
2.12882174E+02
 20
1.18338341E+02
 11
2.07034379E+02
 21
1.19369465E+02
  0
LINE
  8
0
 62
4
 10
2.35715292E+02
 20
1.09133570E+02
 11
2.32677531E+02
 21
1.09669209E+02
  0
LINE
  8
0
 62
4
 10
2.35020700E+02
 20
1.05194339E+02
 11
2.32594330E+02
 21
1.05622173E+02
  0
LINE
  8
0
 62
6
 10
2.35628468E+02
 20
1.08641166E+02
 11
2.32590707E+02
 21
1.09176805E+02
  0
LINE
  8
0
 62
6
 10
2.35107524E+02
 20
1.05686743E+02
 11
2.32594330E+02
 21
1.06129887E+02
  0
LINE
  8
0
 62
4
 10
2.35020700E+02
 20
1.05194339E+02
 11
2.35715292E+02
 21
1.09133570E+02
  0
LINE
  8
0
 62
4
 10
1.94686389E+02
 20
1.21141467E+02
 11
1.92793624E+02
 21
1.31875872E+02
  0
ARC
  8
0
 62
4
 10
1.85399927E+02
 20
1.22440893E+02
 40
1.18100000E+01
 50
3.49467301E+02
 51
9.99999999E+00
  0
ARC
  8
0
 62
4
 10
1.85397240E+02
 20
1.22456135E+02
 40
1.18100000E+01
 50
9.99999999E+00
 51
3.05326991E+01
  0
LINE
  8
0
 62
4
 10
1.95277676E+02
 20
1.19976444E+02
 11
1.97010938E+02
 21
1.20282065E+02
  0
LINE
  8
0
 62
4
 10
1.93836396E+02
 20
1.28150348E+02
 11
1.95569658E+02
 21
1.28455969E+02
  0
LINE
  8
0
 62
4
 10
1.95074363E+02
 20
1.20092909E+02
 11
1.95251629E+02
 21
1.20124165E+02
  0
LINE
  8
0
 62
4
 10
1.93488216E+02
 20
1.27936641E+02
 11
1.93862443E+02
 21
1.28002627E+02
  0
LINE
  8
0
 62
4
 10
1.95277676E+02
 20
1.19976444E+02
 11
1.93836396E+02
 21
1.28150348E+02
  0
LINE
  8
0
 62
4
 10
1.94446977E+02
 20
1.28258010E+02
 11
1.93899985E+02
 21
1.31360155E+02
  0
LINE
  8
0
 62
4
 10
1.93969445E+02
 20
1.30966232E+02
 11
1.95082277E+02
 21
1.31162454E+02
  0
ARC
  8
0
 62
4
 10
1.85293387E+02
 20
1.25983958E+02
 40
1.18100000E+01
 50
3.57172490E+02
 51
2.28275100E+01
  0
ARC
  8
0
 62
4
 10
1.95256716E+02
 20
1.30177786E+02
 40
1.00000000E+00
 50
2.28275100E+01
 51
9.99999999E+01
  0
ARC
  8
0
 62
4
 10
1.96090227E+02
 20
1.25450708E+02
 40
1.00000000E+00
 50
3.28723662E+02
 51
3.57172490E+02
  0
LINE
  8
0
 62
4
 10
1.92915178E+02
 20
1.31186506E+02
 11
1.93899985E+02
 21
1.31360155E+02
  0
LINE
  8
0
  6
CENTER
 62
6
 10
1.90306608E+02
 20
1.18338341E+02
 11
1.96215455E+02
 21
1.19380230E+02
  0
LINE
  8
0
  6
CENTER
 62
6
 10
1.92740087E+02
 20
1.21813708E+02
 11
1.93171073E+02
 21
1.19369465E+02
  0
LINE
  8
0
 62
4
 10
1.94883350E+02
 20
1.21176197E+02
 11
1.95201926E+02
 21
1.19369465E+02
  0
LINE
  8
0
 62
4
 10
1.90944119E+02
 20
1.20481604E+02
 11
1.94883350E+02
 21
1.21176197E+02
  0
LINE
  8
0
 62
4
 10
1.91947052E+02
 20
1.19775027E+02
 11
1.94177642E+02
 21
1.20168340E+02
  0
LINE
  8
0
 62
4
 10
1.90944119E+02
 20
1.20481604E+02
 11
1.91947052E+02
 21
1.19775027E+02
  0
LINE
  8
0
 62
4
 10
1.94883350E+02
 20
1.21176197E+02
 11
1.94177642E+02
 21
1.20168340E+02
  0
LINE
  8
0
 62
4
 10
1.94177642E+02
 20
1.20168340E+02
 11
1.94318505E+02
 21
1.19369465E+02
  0
LINE
  8
0
 62
4
 10
1.83732190E+02
 20
1.21646971E+02
 11
1.84133776E+02
 21
1.19369465E+02
  0
LINE
  8
0
 62
4
 10
1.92793624E+02
 20
1.31875872E+02
 11
1.82650104E+02
 21
1.30087296E+02
  0
LINE
  8
0
 62
4
 10
1.82650104E+02
 20
1.30087296E+02
 11
1.84126113E+02
 21
1.21716430E+02
  0
LINE
  8
0
 62
4
 10
1.90926755E+02
 20
1.20580085E+02
 11
1.91419159E+02
 21
1.20666909E+02
  0
LINE
  8
0
 62
4
 10
1.90926755E+02
 20
1.20580085E+02
 11
1.91140220E+02
 21
1.19369465E+02
  0
LINE
  8
0
 62
4
 10
1.91743622E+02
 20
1.21130292E+02
 11
1.94599565E+02
 21
1.21633871E+02
  0
LINE
  8
0
 62
4
 10
1.91419159E+02
 20
1.20666909E+02
 11
1.91743622E+02
 21
1.21130292E+02
  0
LINE
  8
0
  6
CENTER
 62
6
 10
1.72659215E+02
 20
1.23756213E+02
 11
1.94743587E+02
 21
1.27650283E+02
  0
LINE
  8
0
  6
CENTER
 62
6
 10
1.82500850E+02
 20
1.21937565E+02
 11
1.95351356E+02
 21
1.24203456E+02
  0
ARC
  8
0
 62
4
 10
1.83720534E+02
 20
1.21137202E+02
 40
5.00000000E-01
 50
9.99999999E+01
 51
1.90000000E+02
  0
LINE
  8
0
 62
4
 10
1.83228130E+02
 20
1.21050378E+02
 11
1.83524520E+02
 21
1.19369465E+02
  0
LINE
  8
0
 62
4
 10
1.84126113E+02
 20
1.21716430E+02
 11
1.83633710E+02
 21
1.21629606E+02
  0
LINE
  8
0
 62
4
 10
1.75756450E+02
 20
1.28871758E+02
 11
1.72060786E+02
 21
1.18718007E+02
  0
LINE
  8
0
 62
4
 10
1.82650104E+02
 20
1.30087296E+02
 11
1.75756450E+02
 21
1.28871758E+02
  0
LINE
  8
0
 62
4
 10
1.69942107E+02
 20
1.12896984E+02
 11
1.70594391E+02
 21
1.09197700E+02
  0
LINE
  8
0
 62
4
 10
1.67473489E+02
 20
1.09133570E+02
 11
1.70511251E+02
 21
1.09669209E+02
  0
LINE
  8
0
 62
4
 10
1.68168082E+02
 20
1.05194339E+02
 11
1.70594391E+02
 21
1.05622163E+02
  0
LINE
  8
0
 62
4
 10
1.68168082E+02
 20
1.05194339E+02
 11
1.67473489E+02
 21
1.09133570E+02
  0
LINE
  8
0
 62
6
 10
1.67560313E+02
 20
1.08641166E+02
 11
1.70598075E+02
 21
1.09176805E+02
  0
LINE
  8
0
 62
6
 10
1.68081258E+02
 20
1.05686743E+02
 11
1.70594391E+02
 21
1.06129876E+02
  0
LINE
  8
0
  6
PHANTOM
 10
-1.92500000E+01
 20
2.47628397E+02
 11
-1.92500000E+01
 21
1.50787265E+02
  0
LINE
  8
0
  6
CENTER
 62
2
 10
-1.65283264E+02
 20
2.08369465E+02
 11
6.86960907E+01
 21
2.08369465E+02
  0
LINE
  8
0
 62
7
 10
-1.07249985E+02
 20
2.26869465E+02
 11
-1.07249985E+02
 21
1.89869495E+02
  0
LINE
  8
0
 62
7
 10
-1.15249985E+02
 20
2.25369495E+02
 11
-1.15249985E+02
 21
1.91369495E+02
  0
LINE
  8
0
 62
7
 10
-1.06750000E+02
 20
2.27369465E+02
 11
-1.05250000E+02
 21
2.27369465E+02
  0
LINE
  8
0
 62
7
 10
-1.19750000E+02
 20
2.25369465E+02
 11
-1.15241455E+02
 21
2.25369465E+02
  0
LINE
  8
0
 62
7
 10
-1.15250000E+02
 20
2.25369465E+02
 11
-1.15250000E+02
 21
2.25378010E+02
  0
LINE
  8
0
 62
7
 10
-1.15008727E+02
 20
2.25628053E+02
 11
-1.07250028E+02
 21
2.25898993E+02
  0
LINE
  8
0
 62
7
 10
-1.20250000E+02
 20
2.24869434E+02
 11
-1.20250000E+02
 21
1.91869495E+02
  0
LINE
  8
0
 62
7
 10
-1.06750000E+02
 20
1.89369465E+02
 11
-1.05250000E+02
 21
1.89369465E+02
  0
LINE
  8
0
 62
7
 10
-1.19750000E+02
 20
1.91369465E+02
 11
-1.15241455E+02
 21
1.91369465E+02
  0
LINE
  8
0
 62
7
 10
-1.15250000E+02
 20
1.91369465E+02
 11
-1.15250000E+02
 21
1.91360920E+02
  0
LINE
  8
0
 62
7
 10
-1.15008754E+02
 20
1.91111046E+02
 11
-1.07250055E+02
 21
1.90840106E+02
  0
LINE
  8
0
 62
7
 10
-1.05250000E+02
 20
2.38583957E+02
 11
-1.05250000E+02
 21
1.78155048E+02
  0
LINE
  8
0
  6
CENTER
 62
2
 10
-8.12500153E+01
 20
1.88898304E+02
 11
-8.12500153E+01
 21
2.05487308E+02
  0
LINE
  8
0
  6
CENTER
 62
2
 10
-9.00952759E+01
 20
1.96369434E+02
 11
-7.26207581E+01
 21
1.96369434E+02
  0
LINE
  8
0
 62
7
 10
-1.05250003E+02
 20
2.38584071E+02
 11
-7.42499791E+01
 21
2.39395835E+02
  0
LINE
  8
0
 62
7
 10
-1.00250000E+02
 20
1.88369434E+02
 11
-1.00250000E+02
 21
2.28369434E+02
  0
LINE
  8
0
  6
CENTER
 62
2
 10
-8.72500458E+01
 20
2.04127338E+02
 11
-8.72500458E+01
 21
2.27713749E+02
  0
LINE
  8
0
  6
CENTER
 62
2
 10
-9.66601715E+01
 20
2.15369373E+02
 11
-7.73015442E+01
 21
2.15369373E+02
  0
LINE
  8
0
 62
7
 10
-7.42500000E+01
 20
2.39395725E+02
 11
-7.42500000E+01
 21
1.77369465E+02
  0
LINE
  8
0
 62
7
 10
-1.05250030E+02
 20
1.78155010E+02
 11
-7.42500054E+01
 21
1.77343246E+02
  0
LINE
  8
0
 62
7
 10
-9.82500000E+01
 20
2.30369434E+02
 11
-7.42500000E+01
 21
2.30369434E+02
  0
LINE
  8
0
 62
7
 10
-9.82500000E+01
 20
1.86369434E+02
 11
-7.42500000E+01
 21
1.86369434E+02
  0
LINE
  8
0
 62
7
 10
-9.40583954E+01
 20
2.18369373E+02
 11
-8.04416962E+01
 21
2.18369373E+02
  0
LINE
  8
0
 62
7
 10
6.47499847E+01
 20
1.89869404E+02
 11
6.47499847E+01
 21
2.26869373E+02
  0
LINE
  8
0
 62
7
 10
6.42500000E+01
 20
1.89369404E+02
 11
6.27500000E+01
 21
1.89369404E+02
  0
LINE
  8
0
 62
7
 10
6.42500000E+01
 20
2.27369404E+02
 11
6.27500000E+01
 21
2.27369404E+02
  0
LINE
  8
0
 62
7
 10
6.27500000E+01
 20
1.78154911E+02
 11
6.27500000E+01
 21
2.38583835E+02
  0
LINE
  8
0
 62
7
 10
6.27500077E+01
 20
1.78154887E+02
 11
3.17499682E+01
 21
1.77343123E+02
  0
LINE
  8
0
 62
7
 10
5.77500000E+01
 20
2.28369434E+02
 11
5.77500000E+01
 21
1.88369434E+02
  0
LINE
  8
0
 62
7
 10
3.17500000E+01
 20
1.77343143E+02
 11
3.17500000E+01
 21
2.39369419E+02
  0
LINE
  8
0
 62
7
 10
6.27500043E+01
 20
2.38583903E+02
 11
3.17499876E+01
 21
2.39395667E+02
  0
LINE
  8
0
 62
7
 10
5.57500000E+01
 20
1.86369434E+02
 11
3.17500000E+01
 21
1.86369434E+02
  0
LINE
  8
0
 62
7
 10
5.57500000E+01
 20
2.30369434E+02
 11
3.17500000E+01
 21
2.30369434E+02
  0
LINE
  8
0
  6
CENTER
 62
2
 10
6.49769897E+01
 20
1.84869480E+02
 11
-1.07353455E+02
 21
1.84869480E+02
  0
LINE
  8
0
 62
7
 10
3.17500000E+01
 20
1.87519474E+02
 11
1.02500000E+01
 21
1.87519474E+02
  0
LINE
  8
0
 62
7
 10
3.17500000E+01
 20
1.82219486E+02
 11
1.02500000E+01
 21
1.82219486E+02
  0
LINE
  8
0
 62
7
 10
3.17500000E+01
 20
1.81369495E+02
 11
1.02500000E+01
 21
1.81369495E+02
  0
LINE
  8
0
 62
7
 10
-7.95179293E+01
 20
1.96369434E+02
 11
-8.03839532E+01
 21
1.97869440E+02
  0
LINE
  8
0
 62
7
 10
-8.03839874E+01
 20
1.97869434E+02
 11
-8.21159821E+01
 21
1.97869434E+02
  0
LINE
  8
0
 62
7
 10
-8.29819652E+01
 20
1.96369396E+02
 11
-8.21159565E+01
 21
1.97869376E+02
  0
LINE
  8
0
 62
7
 10
-8.21159570E+01
 20
1.94869365E+02
 11
-8.29819962E+01
 21
1.96369398E+02
  0
LINE
  8
0
 62
7
 10
-8.03839874E+01
 20
1.94869404E+02
 11
-8.21159821E+01
 21
1.94869404E+02
  0
LINE
  8
0
 62
7
 10
-7.95179446E+01
 20
1.96369387E+02
 11
-8.03839685E+01
 21
1.94869380E+02
  0
LINE
  8
0
 62
7
 10
3.17500000E+01
 20
2.35369434E+02
 11
-3.37500000E+01
 21
2.35369434E+02
  0
LINE
  8
0
  6
CENTER
 62
2
 10
6.49769897E+01
 20
2.31869449E+02
 11
-1.07353455E+02
 21
2.31869449E+02
  0
LINE
  8
0
 62
7
 10
3.17500000E+01
 20
2.29219456E+02
 11
-3.37500000E+01
 21
2.29219456E+02
  0
LINE
  8
0
 62
7
 10
3.17500000E+01
 20
2.34519443E+02
 11
-3.37500000E+01
 21
2.34519443E+02
  0
LINE
  8
0
  6
CENTER
 62
2
 10
3.87500153E+01
 20
1.88898304E+02
 11
3.87500153E+01
 21
2.05487308E+02
  0
LINE
  8
0
  6
CENTER
 62
2
 10
4.75952759E+01
 20
1.96369434E+02
 11
3.01207581E+01
 21
1.96369434E+02
  0
LINE
  8
0
  6
CENTER
 62
2
 10
4.47500458E+01
 20
2.04127338E+02
 11
4.47500458E+01
 21
2.27713749E+02
  0
LINE
  8
0
  6
CENTER
 62
2
 10
5.41601715E+01
 20
2.15369373E+02
 11
3.48015442E+01
 21
2.15369373E+02
  0
LINE
  8
0
 62
7
 10
5.15583954E+01
 20
2.18369373E+02
 11
3.79416962E+01
 21
2.18369373E+02
  0
LINE
  8
0
 62
7
 10
3.70179321E+01
 20
1.96369403E+02
 11
3.78839637E+01
 21
1.97869422E+02
  0
LINE
  8
0
 62
7
 10
3.78839874E+01
 20
1.97869434E+02
 11
3.96159821E+01
 21
1.97869434E+02
  0
LINE
  8
0
 62
7
 10
4.04819550E+01
 20
1.96369401E+02
 11
3.96159463E+01
 21
1.97869381E+02
  0
LINE
  8
0
 62
7
 10
3.96159761E+01
 20
1.94869378E+02
 11
4.04820153E+01
 21
1.96369410E+02
  0
LINE
  8
0
 62
7
 10
3.78839874E+01
 20
1.94869404E+02
 11
3.96159821E+01
 21
1.94869404E+02
  0
LINE
  8
0
 62
7
 10
3.70179376E+01
 20
1.96369394E+02
 11
3.78839692E+01
 21
1.94869374E+02
  0
LINE
  8
0
 62
7
 10
-1.30249969E+02
 20
1.99369480E+02
 11
-1.30249969E+02
 21
2.17369465E+02
  0
LINE
  8
0
 62
7
 10
-1.24892319E+02
 20
1.97419452E+02
 11
-1.20250000E+02
 21
1.97419452E+02
  0
LINE
  8
0
 62
7
 10
-1.62249969E+02
 20
2.00869495E+02
 11
-1.62249969E+02
 21
2.15869312E+02
  0
LINE
  8
0
 62
7
 10
-1.60749969E+02
 20
1.99369465E+02
 11
-1.60749969E+02
 21
2.17369465E+02
  0
LINE
  8
0
 62
7
 10
-1.60749908E+02
 20
2.17369465E+02
 11
-1.53249969E+02
 21
2.17369465E+02
  0
LINE
  8
0
 62
2
 10
-1.61569916E+02
 20
2.16549457E+02
 11
-1.53249969E+02
 21
2.16549457E+02
  0
LINE
  8
0
 62
7
 10
-1.62249923E+02
 20
2.15869322E+02
 11
-1.60749877E+02
 21
2.17369322E+02
  0
LINE
  8
0
 62
7
 10
-1.60749908E+02
 20
1.99369465E+02
 11
-1.53249969E+02
 21
1.99369465E+02
  0
LINE
  8
0
 62
2
 10
-1.61569916E+02
 20
2.00189472E+02
 11
-1.53249969E+02
 21
2.00189472E+02
  0
LINE
  8
0
 62
7
 10
-1.62249995E+02
 20
2.00869535E+02
 11
-1.60749960E+02
 21
1.99369545E+02
  0
LINE
  8
0
 62
7
 10
-1.24892303E+02
 20
2.02894459E+02
 11
-1.20250000E+02
 21
2.02894459E+02
  0
LINE
  8
0
 62
7
 10
-1.24892303E+02
 20
2.13844471E+02
 11
-1.20250000E+02
 21
2.13844471E+02
  0
LINE
  8
0
 62
7
 10
-1.30249973E+02
 20
1.99369475E+02
 11
-1.24892308E+02
 21
1.97419445E+02
  0
LINE
  8
0
 62
7
 10
-1.24892334E+02
 20
2.19319477E+02
 11
-1.20250000E+02
 21
2.19319477E+02
  0
LINE
  8
0
 62
7
 10
-1.33249969E+02
 20
1.99369465E+02
 11
-1.33249969E+02
 21
2.17369465E+02
  0
LINE
  8
0
 62
7
 10
-1.30249950E+02
 20
2.17369447E+02
 11
-1.24892299E+02
 21
2.19319473E+02
  0
LINE
  8
0
 62
7
 10
-1.33249969E+02
 20
2.16549457E+02
 11
-1.30249969E+02
 21
2.16549457E+02
  0
LINE
  8
0
 62
7
 10
-1.33249969E+02
 20
2.00189472E+02
 11
-1.30249969E+02
 21
2.00189472E+02
  0
ARC
  8
0
 62
7
 10
-1.19750000E+02
 20
2.24869434E+02
 40
5.00000000E-01
 50
8.99999818E+01
 51
1.79999964E+02
  0
ARC
  8
0
 62
7
 10
-1.15000000E+02
 20
2.25378010E+02
 40
2.50000000E-01
 50
9.19988093E+01
 51
1.79999964E+02
  0
ARC
  8
0
 62
7
 10
-1.06750000E+02
 20
2.26869465E+02
 40
5.00000000E-01
 50
8.99999818E+01
 51
1.79999964E+02
  0
ARC
  8
0
 62
7
 10
-1.06750000E+02
 20
1.89869465E+02
 40
5.00000000E-01
 50
1.79999981E+02
 51
2.69999963E+02
  0
ARC
  8
0
 62
7
 10
-1.15000000E+02
 20
1.91360920E+02
 40
2.50000000E-01
 50
1.79999981E+02
 51
2.68001136E+02
  0
ARC
  8
0
 62
7
 10
-1.19750000E+02
 20
1.91869495E+02
 40
5.00000000E-01
 50
1.79999981E+02
 51
2.69999963E+02
  0
ARC
  8
0
 62
7
 10
-9.82500000E+01
 20
2.28369434E+02
 40
2.00000000E+00
 50
8.99999818E+01
 51
1.79999964E+02
  0
ARC
  8
0
 62
7
 10
-9.82500000E+01
 20
1.88369434E+02
 40
2.00000000E+00
 50
1.79999981E+02
 51
2.70000018E+02
  0
ARC
  8
0
 62
7
 10
6.42500000E+01
 20
1.89869404E+02
 40
5.00000000E-01
 50
2.70000073E+02
 51
5.46415133E-05
  0
ARC
  8
0
 62
7
 10
6.42500000E+01
 20
2.26869404E+02
 40
5.00000000E-01
 50
5.46415133E-05
 51
9.00000369E+01
  0
ARC
  8
0
 62
7
 10
5.57500000E+01
 20
1.88369434E+02
 40
2.00000000E+00
 50
2.70000073E+02
 51
5.46415133E-05
  0
ARC
  8
0
 62
7
 10
5.57500000E+01
 20
2.28369434E+02
 40
2.00000000E+00
 50
5.46415133E-05
 51
9.00000913E+01
  0
CIRCLE
  8
0
 62
7
 10
-8.12500153E+01
 20
1.96369434E+02
 40
5.00000000E+00
  0
CIRCLE
  8
0
 62
7
 10
-8.72500458E+01
 20
2.15369373E+02
 40
8.71000004E+00
  0
CIRCLE
  8
0
 62
7
 10
-8.72500458E+01
 20
2.15369373E+02
 40
7.44000006E+00
  0
CIRCLE
  8
0
 62
2
 10
-8.72500458E+01
 20
2.15369373E+02
 40
8.32999992E+00
  0
CIRCLE
  8
0
 62
7
 10
-8.12500153E+01
 20
1.96369434E+02
 40
2.59999990E+00
  0
CIRCLE
  8
0
 62
2
 10
4.47500458E+01
 20
2.15369373E+02
 40
8.32999992E+00
  0
CIRCLE
  8
0
 62
7
 10
3.87500153E+01
 20
1.96369434E+02
 40
2.59999990E+00
  0
CIRCLE
  8
0
 62
7
 10
3.87500153E+01
 20
1.96369434E+02
 40
5.00000000E+00
  0
CIRCLE
  8
0
 62
7
 10
4.47500458E+01
 20
2.15369373E+02
 40
8.71000004E+00
  0
CIRCLE
  8
0
 62
7
 10
4.47500458E+01
 20
2.15369373E+02
 40
7.44000006E+00
  0
POLYLINE
  8
0
 62
7
 66
1
  0
VERTEX
  8
0
 62
7
 10
-1.24892303E+02
 20
2.02894450E+02
  0
VERTEX
  8
0
 62
7
 10
-1.25239881E+02
 20
2.02884774E+02
  0
VERTEX
  8
0
 62
7
 10
-1.25584808E+02
 20
2.02855820E+02
  0
VERTEX
  8
0
 62
7
 10
-1.25924454E+02
 20
2.02807808E+02
  0
VERTEX
  8
0
 62
7
 10
-1.26256228E+02
 20
2.02741105E+02
  0
VERTEX
  8
0
 62
7
 10
-1.26577600E+02
 20
2.02656219E+02
  0
VERTEX
  8
0
 62
7
 10
-1.26886119E+02
 20
2.02553798E+02
  0
VERTEX
  8
0
 62
7
 10
-1.27179433E+02
 20
2.02434623E+02
  0
VERTEX
  8
0
 62
7
 10
-1.27455303E+02
 20
2.02299603E+02
  0
VERTEX
  8
0
 62
7
 10
-1.27711628E+02
 20
2.02149767E+02
  0
VERTEX
  8
0
 62
7
 10
-1.27946451E+02
 20
2.01986258E+02
  0
VERTEX
  8
0
 62
7
 10
-1.28157981E+02
 20
2.01810324E+02
  0
VERTEX
  8
0
 62
7
 10
-1.28344606E+02
 20
2.01623305E+02
  0
VERTEX
  8
0
 62
7
 10
-1.28504903E+02
 20
2.01426629E+02
  0
VERTEX
  8
0
 62
7
 10
-1.28637647E+02
 20
2.01221794E+02
  0
VERTEX
  8
0
 62
7
 10
-1.28741829E+02
 20
2.01010364E+02
  0
VERTEX
  8
0
 62
7
 10
-1.28816652E+02
 20
2.00793951E+02
  0
VERTEX
  8
0
 62
7
 10
-1.28861546E+02
 20
2.00574205E+02
  0
VERTEX
  8
0
 62
7
 10
-1.28876169E+02
 20
2.00352803E+02
  0
VERTEX
  8
0
 62
7
 10
-1.28860409E+02
 20
2.00131432E+02
  0
VERTEX
  8
0
 62
7
 10
-1.28814387E+02
 20
1.99911781E+02
  0
VERTEX
  8
0
 62
7
 10
-1.28738453E+02
 20
1.99695524E+02
  0
VERTEX
  8
0
 62
7
 10
-1.28633187E+02
 20
1.99484313E+02
  0
VERTEX
  8
0
 62
7
 10
-1.28499391E+02
 20
1.99279756E+02
  0
VERTEX
  8
0
 62
7
 10
-1.28338086E+02
 20
1.99083415E+02
  0
VERTEX
  8
0
 62
7
 10
-1.28150502E+02
 20
1.98896786E+02
  0
VERTEX
  8
0
 62
7
 10
-1.27938069E+02
 20
1.98721293E+02
  0
VERTEX
  8
0
 62
7
 10
-1.27702408E+02
 20
1.98558274E+02
  0
VERTEX
  8
0
 62
7
 10
-1.27445315E+02
 20
1.98408973E+02
  0
VERTEX
  8
0
 62
7
 10
-1.27168753E+02
 20
1.98274528E+02
  0
VERTEX
  8
0
 62
7
 10
-1.26874829E+02
 20
1.98155964E+02
  0
SEQEND
  8
0
  0
POLYLINE
  8
0
 62
7
 66
1
  0
VERTEX
  8
0
 62
7
 10
-1.26874829E+02
 20
2.18582965E+02
  0
VERTEX
  8
0
 62
7
 10
-1.27168753E+02
 20
2.18464401E+02
  0
VERTEX
  8
0
 62
7
 10
-1.27445315E+02
 20
2.18329956E+02
  0
VERTEX
  8
0
 62
7
 10
-1.27702408E+02
 20
2.18180655E+02
  0
VERTEX
  8
0
 62
7
 10
-1.27938069E+02
 20
2.18017636E+02
  0
VERTEX
  8
0
 62
7
 10
-1.28150502E+02
 20
2.17842143E+02
  0
VERTEX
  8
0
 62
7
 10
-1.28338086E+02
 20
2.17655514E+02
  0
VERTEX
  8
0
 62
7
 10
-1.28499391E+02
 20
2.17459173E+02
  0
VERTEX
  8
0
 62
7
 10
-1.28633187E+02
 20
2.17254616E+02
  0
VERTEX
  8
0
 62
7
 10
-1.28738453E+02
 20
2.17043405E+02
  0
VERTEX
  8
0
 62
7
 10
-1.28814387E+02
 20
2.16827148E+02
  0
VERTEX
  8
0
 62
7
 10
-1.28860409E+02
 20
2.16607497E+02
  0
VERTEX
  8
0
 62
7
 10
-1.28876169E+02
 20
2.16386126E+02
  0
VERTEX
  8
0
 62
7
 10
-1.28861546E+02
 20
2.16164724E+02
  0
VERTEX
  8
0
 62
7
 10
-1.28816652E+02
 20
2.15944978E+02
  0
VERTEX
  8
0
 62
7
 10
-1.28741829E+02
 20
2.15728565E+02
  0
VERTEX
  8
0
 62
7
 10
-1.28637647E+02
 20
2.15517135E+02
  0
VERTEX
  8
0
 62
7
 10
-1.28504903E+02
 20
2.15312300E+02
  0
VERTEX
  8
0
 62
7
 10
-1.28344606E+02
 20
2.15115624E+02
  0
VERTEX
  8
0
 62
7
 10
-1.28157981E+02
 20
2.14928605E+02
  0
VERTEX
  8
0
 62
7
 10
-1.27946451E+02
 20
2.14752671E+02
  0
VERTEX
  8
0
 62
7
 10
-1.27711628E+02
 20
2.14589162E+02
  0
VERTEX
  8
0
 62
7
 10
-1.27455303E+02
 20
2.14439326E+02
  0
VERTEX
  8
0
 62
7
 10
-1.27179433E+02
 20
2.14304306E+02
  0
VERTEX
  8
0
 62
7
 10
-1.26886119E+02
 20
2.14185131E+02
  0
VERTEX
  8
0
 62
7
 10
-1.26577600E+02
 20
2.14082710E+02
  0
VERTEX
  8
0
 62
7
 10
-1.26256228E+02
 20
2.13997824E+02
  0
VERTEX
  8
0
 62
7
 10
-1.25924453E+02
 20
2.13931121E+02
  0
VERTEX
  8
0
 62
7
 10
-1.25584808E+02
 20
2.13883109E+02
  0
VERTEX
  8
0
 62
7
 10
-1.25239881E+02
 20
2.13854155E+02
  0
VERTEX
  8
0
 62
7
 10
-1.24892303E+02
 20
2.13844479E+02
  0
SEQEND
  8
0
  0
POLYLINE
  8
0
 62
7
 66
1
  0
VERTEX
  8
0
 62
7
 10
-1.24892303E+02
 20
2.13844471E+02
  0
VERTEX
  8
0
 62
7
 10
-1.25249414E+02
 20
2.13822430E+02
  0
VERTEX
  8
0
 62
7
 10
-1.25603651E+02
 20
2.13756486E+02
  0
VERTEX
  8
0
 62
7
 10
-1.25952160E+02
 20
2.13647168E+02
  0
VERTEX
  8
0
 62
7
 10
-1.26292135E+02
 20
2.13495357E+02
  0
VERTEX
  8
0
 62
7
 10
-1.26620840E+02
 20
2.13302275E+02
  0
VERTEX
  8
0
 62
7
 10
-1.26935628E+02
 20
2.13069477E+02
  0
VERTEX
  8
0
 62
7
 10
-1.27233964E+02
 20
2.12798838E+02
  0
VERTEX
  8
0
 62
7
 10
-1.27513446E+02
 20
2.12492536E+02
  0
VERTEX
  8
0
 62
7
 10
-1.27771825E+02
 20
2.12153037E+02
  0
VERTEX
  8
0
 62
7
 10
-1.28007019E+02
 20
2.11783075E+02
  0
VERTEX
  8
0
 62
7
 10
-1.28217136E+02
 20
2.11385629E+02
  0
VERTEX
  8
0
 62
7
 10
-1.28400482E+02
 20
2.10963899E+02
  0
VERTEX
  8
0
 62
7
 10
-1.28555583E+02
 20
2.10521279E+02
  0
VERTEX
  8
0
 62
7
 10
-1.28681190E+02
 20
2.10061335E+02
  0
VERTEX
  8
0
 62
7
 10
-1.28776290E+02
 20
2.09587768E+02
  0
VERTEX
  8
0
 62
7
 10
-1.28840119E+02
 20
2.09104393E+02
  0
VERTEX
  8
0
 62
7
 10
-1.28872163E+02
 20
2.08615100E+02
  0
VERTEX
  8
0
 62
7
 10
-1.28872163E+02
 20
2.08123830E+02
  0
VERTEX
  8
0
 62
7
 10
-1.28840119E+02
 20
2.07634537E+02
  0
VERTEX
  8
0
 62
7
 10
-1.28776290E+02
 20
2.07151162E+02
  0
VERTEX
  8
0
 62
7
 10
-1.28681190E+02
 20
2.06677595E+02
  0
VERTEX
  8
0
 62
7
 10
-1.28555583E+02
 20
2.06217651E+02
  0
VERTEX
  8
0
 62
7
 10
-1.28400482E+02
 20
2.05775031E+02
  0
VERTEX
  8
0
 62
7
 10
-1.28217136E+02
 20
2.05353301E+02
  0
VERTEX
  8
0
 62
7
 10
-1.28007019E+02
 20
2.04955855E+02
  0
VERTEX
  8
0
 62
7
 10
-1.27771825E+02
 20
2.04585893E+02
  0
VERTEX
  8
0
 62
7
 10
-1.27513446E+02
 20
2.04246394E+02
  0
VERTEX
  8
0
 62
7
 10
-1.27233964E+02
 20
2.03940092E+02
  0
VERTEX
  8
0
 62
7
 10
-1.26935628E+02
 20
2.03669453E+02
  0
VERTEX
  8
0
 62
7
 10
-1.26620840E+02
 20
2.03436655E+02
  0
VERTEX
  8
0
 62
7
 10
-1.26292135E+02
 20
2.03243573E+02
  0
VERTEX
  8
0
 62
7
 10
-1.25952160E+02
 20
2.03091762E+02
  0
VERTEX
  8
0
 62
7
 10
-1.25603651E+02
 20
2.02982445E+02
  0
VERTEX
  8
0
 62
7
 10
-1.25249415E+02
 20
2.02916500E+02
  0
VERTEX
  8
0
 62
7
 10
-1.24892303E+02
 20
2.02894459E+02
  0
SEQEND
  8
0
  0
LINE
  8
0
 62
7
 10
-1.42249969E+02
 20
2.17369465E+02
 11
-1.33249969E+02
 21
2.17369465E+02
  0
LINE
  8
0
 62
2
 10
-1.42249969E+02
 20
2.16549457E+02
 11
-1.33249969E+02
 21
2.16549457E+02
  0
LINE
  8
0
 62
7
 10
-1.42249969E+02
 20
1.99369465E+02
 11
-1.33249969E+02
 21
1.99369465E+02
  0
LINE
  8
0
 62
2
 10
-1.42249969E+02
 20
2.00189472E+02
 11
-1.33249969E+02
 21
2.00189472E+02
  0
LINE
  8
0
 62
4
 10
-1.42249969E+02
 20
2.21869465E+02
 11
-1.42249969E+02
 21
1.94869465E+02
  0
LINE
  8
0
 62
4
 10
-1.53249969E+02
 20
2.21869465E+02
 11
-1.53249969E+02
 21
1.94869465E+02
  0
LINE
  8
0
 62
4
 10
-1.42249969E+02
 20
2.21869465E+02
 11
-1.53249969E+02
 21
2.21869465E+02
  0
LINE
  8
0
 62
4
 10
-1.42249969E+02
 20
1.94869465E+02
 11
-1.53249969E+02
 21
1.94869465E+02
  0
LINE
  8
0
 62
4
 10
-1.43455741E+02
 20
2.08369465E+02
 11
-1.52044198E+02
 21
2.08369465E+02
  0
ARC
  8
0
 62
4
 10
-1.33753577E+02
 20
2.01619465E+02
 40
1.94963929E+01
 50
1.59743842E+02
 51
2.00256158E+02
  0
ARC
  8
0
 62
4
 10
-1.33753577E+02
 20
2.15119465E+02
 40
1.94963929E+01
 50
1.59743842E+02
 51
2.00256158E+02
  0
ARC
  8
0
 62
4
 10
-1.61746362E+02
 20
2.15119465E+02
 40
1.94963929E+01
 50
3.39743842E+02
 51
2.02561580E+01
  0
ARC
  8
0
 62
4
 10
-1.61746362E+02
 20
2.01619465E+02
 40
1.94963929E+01
 50
3.39743842E+02
 51
2.02561580E+01
  0
LINE
  8
0
  6
CENTER
 62
6
 10
-4.52500000E+01
 20
2.45485028E+02
 11
-4.52500000E+01
 21
2.35219449E+02
  0
LINE
  8
0
  6
CENTER
 62
6
 10
-3.72500000E+01
 20
2.45485028E+02
 11
-3.72500000E+01
 21
2.35219449E+02
  0
LINE
  8
0
  6
CENTER
 62
6
 10
-6.87500000E+01
 20
2.16702809E+02
 11
-2.17500000E+01
 21
2.16702809E+02
  0
LINE
  8
0
 62
6
 10
-2.54820508E+01
 20
2.13702809E+02
 11
-2.20179492E+01
 21
2.19702809E+02
  0
LINE
  8
0
 62
4
 10
-3.37500000E+01
 20
2.15202809E+02
 11
-2.46160254E+01
 21
2.15202809E+02
  0
LINE
  8
0
 62
4
 10
-3.37500000E+01
 20
2.18202809E+02
 11
-2.28839746E+01
 21
2.18202809E+02
  0
LINE
  8
0
 62
6
 10
-3.87500000E+01
 20
2.42372770E+02
 11
-3.87500000E+01
 21
2.40021733E+02
  0
LINE
  8
0
 62
6
 10
-3.57500000E+01
 20
2.42372770E+02
 11
-3.57500000E+01
 21
2.40021733E+02
  0
LINE
  8
0
 62
4
 10
-3.92500000E+01
 20
2.42143055E+02
 11
-3.92500000E+01
 21
2.40021733E+02
  0
LINE
  8
0
 62
4
 10
-3.52500000E+01
 20
2.42143055E+02
 11
-3.52500000E+01
 21
2.40021733E+02
  0
LINE
  8
0
 62
4
 10
-4.87500000E+01
 20
2.40021733E+02
 11
-4.87500000E+01
 21
2.27313736E+02
  0
LINE
  8
0
 62
4
 10
-3.37500000E+01
 20
2.40021733E+02
 11
-3.37500000E+01
 21
2.14391846E+02
  0
LINE
  8
0
 62
4
 10
-6.37500000E+01
 20
2.27313736E+02
 11
-6.37500000E+01
 21
2.15364275E+02
  0
LINE
  8
0
  6
CENTER
 62
6
 10
-4.87500000E+01
 20
2.18281031E+02
 11
-4.87500000E+01
 21
2.13281031E+02
  0
LINE
  8
0
 62
4
 10
-4.87500000E+01
 20
2.40021733E+02
 11
-3.37500000E+01
 21
2.40021733E+02
  0
LINE
  8
0
 62
4
 10
-4.87500000E+01
 20
2.34207391E+02
 11
-3.37500000E+01
 21
2.34207391E+02
  0
LINE
  8
0
 62
4
 10
-6.37500000E+01
 20
2.27313736E+02
 11
-3.37500000E+01
 21
2.27313736E+02
  0
LINE
  8
0
 62
4
 10
-6.37500000E+01
 20
2.17170216E+02
 11
-3.37500000E+01
 21
2.17170216E+02
  0
LINE
  8
0
 62
4
 10
-3.78500000E+01
 20
2.14391846E+02
 11
-3.37500000E+01
 21
2.14391846E+02
  0
LINE
  8
0
 62
4
 10
-3.78500000E+01
 20
2.14565494E+02
 11
-3.37500000E+01
 21
2.14565494E+02
  0
LINE
  8
0
 62
4
 10
-6.37500000E+01
 20
2.15364275E+02
 11
-5.29000000E+01
 21
2.15364275E+02
  0
POLYLINE
  8
0
 62
4
 66
1
  0
VERTEX
  8
0
 62
4
 10
-3.52500000E+01
 20
2.42143055E+02
  0
VERTEX
  8
0
 62
4
 10
-3.52580514E+01
 20
2.42174186E+02
  0
VERTEX
  8
0
 62
4
 10
-3.52821408E+01
 20
2.42205067E+02
  0
VERTEX
  8
0
 62
4
 10
-3.53220743E+01
 20
2.42235449E+02
  0
VERTEX
  8
0
 62
4
 10
-3.53775303E+01
 20
2.42265086E+02
  0
VERTEX
  8
0
 62
4
 10
-3.54480623E+01
 20
2.42293741E+02
  0
VERTEX
  8
0
 62
4
 10
-3.55331024E+01
 20
2.42321183E+02
  0
VERTEX
  8
0
 62
4
 10
-3.56319660E+01
 20
2.42347191E+02
  0
VERTEX
  8
0
 62
4
 10
-3.57438571E+01
 20
2.42371555E+02
  0
VERTEX
  8
0
 62
4
 10
-3.58678747E+01
 20
2.42394079E+02
  0
VERTEX
  8
0
 62
4
 10
-3.60030204E+01
 20
2.42414582E+02
  0
VERTEX
  8
0
 62
4
 10
-3.61482060E+01
 20
2.42432899E+02
  0
VERTEX
  8
0
 62
4
 10
-3.63022627E+01
 20
2.42448883E+02
  0
VERTEX
  8
0
 62
4
 10
-3.64639499E+01
 20
2.42462404E+02
  0
VERTEX
  8
0
 62
4
 10
-3.66319660E+01
 20
2.42473353E+02
  0
VERTEX
  8
0
 62
4
 10
-3.68049581E+01
 20
2.42481644E+02
  0
VERTEX
  8
0
 62
4
 10
-3.69815335E+01
 20
2.42487208E+02
  0
VERTEX
  8
0
 62
4
 10
-3.71602703E+01
 20
2.42490002E+02
  0
VERTEX
  8
0
 62
4
 10
-3.73397296E+01
 20
2.42490002E+02
  0
VERTEX
  8
0
 62
4
 10
-3.75184665E+01
 20
2.42487208E+02
  0
VERTEX
  8
0
 62
4
 10
-3.76950419E+01
 20
2.42481644E+02
  0
VERTEX
  8
0
 62
4
 10
-3.78680340E+01
 20
2.42473353E+02
  0
VERTEX
  8
0
 62
4
 10
-3.80360501E+01
 20
2.42462404E+02
  0
VERTEX
  8
0
 62
4
 10
-3.81977373E+01
 20
2.42448883E+02
  0
VERTEX
  8
0
 62
4
 10
-3.83517940E+01
 20
2.42432899E+02
  0
VERTEX
  8
0
 62
4
 10
-3.84969796E+01
 20
2.42414582E+02
  0
VERTEX
  8
0
 62
4
 10
-3.86321253E+01
 20
2.42394079E+02
  0
VERTEX
  8
0
 62
4
 10
-3.87561429E+01
 20
2.42371555E+02
  0
VERTEX
  8
0
 62
4
 10
-3.88680340E+01
 20
2.42347191E+02
  0
VERTEX
  8
0
 62
4
 10
-3.89668976E+01
 20
2.42321183E+02
  0
VERTEX
  8
0
 62
4
 10
-3.90519377E+01
 20
2.42293741E+02
  0
VERTEX
  8
0
 62
4
 10
-3.91224697E+01
 20
2.42265086E+02
  0
VERTEX
  8
0
 62
4
 10
-3.91779257E+01
 20
2.42235449E+02
  0
VERTEX
  8
0
 62
4
 10
-3.92178592E+01
 20
2.42205067E+02
  0
VERTEX
  8
0
 62
4
 10
-3.92419486E+01
 20
2.42174186E+02
  0
VERTEX
  8
0
 62
4
 10
-3.92500000E+01
 20
2.42143055E+02
  0
SEQEND
  8
0
  0
LINE
  8
0
 62
6
 10
-4.67500000E+01
 20
2.42372770E+02
 11
-4.67500000E+01
 21
2.40021733E+02
  0
LINE
  8
0
 62
6
 10
-4.37500000E+01
 20
2.42372770E+02
 11
-4.37500000E+01
 21
2.40021733E+02
  0
LINE
  8
0
 62
4
 10
-4.72500000E+01
 20
2.42143055E+02
 11
-4.72500000E+01
 21
2.40021733E+02
  0
LINE
  8
0
 62
4
 10
-4.32500000E+01
 20
2.42143055E+02
 11
-4.32500000E+01
 21
2.40021733E+02
  0
POLYLINE
  8
0
 62
4
 66
1
  0
VERTEX
  8
0
 62
4
 10
-4.32500000E+01
 20
2.42143055E+02
  0
VERTEX
  8
0
 62
4
 10
-4.32580514E+01
 20
2.42174186E+02
  0
VERTEX
  8
0
 62
4
 10
-4.32821408E+01
 20
2.42205067E+02
  0
VERTEX
  8
0
 62
4
 10
-4.33220743E+01
 20
2.42235449E+02
  0
VERTEX
  8
0
 62
4
 10
-4.33775303E+01
 20
2.42265086E+02
  0
VERTEX
  8
0
 62
4
 10
-4.34480623E+01
 20
2.42293741E+02
  0
VERTEX
  8
0
 62
4
 10
-4.35331024E+01
 20
2.42321183E+02
  0
VERTEX
  8
0
 62
4
 10
-4.36319660E+01
 20
2.42347191E+02
  0
VERTEX
  8
0
 62
4
 10
-4.37438571E+01
 20
2.42371555E+02
  0
VERTEX
  8
0
 62
4
 10
-4.38678747E+01
 20
2.42394079E+02
  0
VERTEX
  8
0
 62
4
 10
-4.40030204E+01
 20
2.42414582E+02
  0
VERTEX
  8
0
 62
4
 10
-4.41482060E+01
 20
2.42432899E+02
  0
VERTEX
  8
0
 62
4
 10
-4.43022627E+01
 20
2.42448883E+02
  0
VERTEX
  8
0
 62
4
 10
-4.44639499E+01
 20
2.42462404E+02
  0
VERTEX
  8
0
 62
4
 10
-4.46319660E+01
 20
2.42473353E+02
  0
VERTEX
  8
0
 62
4
 10
-4.48049581E+01
 20
2.42481644E+02
  0
VERTEX
  8
0
 62
4
 10
-4.49815335E+01
 20
2.42487208E+02
  0
VERTEX
  8
0
 62
4
 10
-4.51602703E+01
 20
2.42490002E+02
  0
VERTEX
  8
0
 62
4
 10
-4.53397296E+01
 20
2.42490002E+02
  0
VERTEX
  8
0
 62
4
 10
-4.55184665E+01
 20
2.42487208E+02
  0
VERTEX
  8
0
 62
4
 10
-4.56950419E+01
 20
2.42481644E+02
  0
VERTEX
  8
0
 62
4
 10
-4.58680340E+01
 20
2.42473353E+02
  0
VERTEX
  8
0
 62
4
 10
-4.60360501E+01
 20
2.42462404E+02
  0
VERTEX
  8
0
 62
4
 10
-4.61977373E+01
 20
2.42448883E+02
  0
VERTEX
  8
0
 62
4
 10
-4.63517940E+01
 20
2.42432899E+02
  0
VERTEX
  8
0
 62
4
 10
-4.64969796E+01
 20
2.42414582E+02
  0
VERTEX
  8
0
 62
4
 10
-4.66321253E+01
 20
2.42394079E+02
  0
VERTEX
  8
0
 62
4
 10
-4.67561429E+01
 20
2.42371555E+02
  0
VERTEX
  8
0
 62
4
 10
-4.68680340E+01
 20
2.42347191E+02
  0
VERTEX
  8
0
 62
4
 10
-4.69668976E+01
 20
2.42321183E+02
  0
VERTEX
  8
0
 62
4
 10
-4.70519377E+01
 20
2.42293741E+02
  0
VERTEX
  8
0
 62
4
 10
-4.71224697E+01
 20
2.42265086E+02
  0
VERTEX
  8
0
 62
4
 10
-4.71779257E+01
 20
2.42235449E+02
  0
VERTEX
  8
0
 62
4
 10
-4.72178592E+01
 20
2.42205067E+02
  0
VERTEX
  8
0
 62
4
 10
-4.72419486E+01
 20
2.42174186E+02
  0
VERTEX
  8
0
 62
4
 10
-4.72500000E+01
 20
2.42143055E+02
  0
SEQEND
  8
0
  0
LINE
  8
0
 62
4
 10
-6.37500000E+01
 20
2.19019721E+02
 11
-6.52500000E+01
 21
2.18016788E+02
  0
LINE
  8
0
 62
4
 10
-6.52500000E+01
 20
2.18016788E+02
 11
-6.52500000E+01
 21
2.15392886E+02
  0
LINE
  8
0
 62
4
 10
-6.52500000E+01
 20
2.15786199E+02
 11
-6.37500000E+01
 21
2.15080490E+02
  0
LINE
  8
0
 62
4
 10
-6.52500000E+01
 20
2.15392886E+02
 11
-6.37500000E+01
 21
2.14385897E+02
  0
LINE
  8
0
 62
4
 10
-6.37500000E+01
 20
2.14385897E+02
 11
-5.29000000E+01
 21
2.14385897E+02
  0
LINE
  8
0
 62
4
 10
-6.37500000E+01
 20
2.15080490E+02
 11
-5.29000000E+01
 21
2.15080490E+02
  0
LINE
  8
0
 62
4
 10
-6.37500000E+01
 20
2.15364275E+02
 11
-6.37500000E+01
 21
2.14391846E+02
  0
POLYLINE
  8
0
 62
4
 66
1
  0
VERTEX
  8
0
 62
4
 10
-4.50500000E+01
 20
2.15733175E+02
  0
VERTEX
  8
0
 62
4
 10
-4.52318150E+01
 20
2.15789022E+02
  0
VERTEX
  8
0
 62
4
 10
-4.54415122E+01
 20
2.15841841E+02
  0
VERTEX
  8
0
 62
4
 10
-4.56774299E+01
 20
2.15891211E+02
  0
VERTEX
  8
0
 62
4
 10
-4.59376982E+01
 20
2.15936743E+02
  0
VERTEX
  8
0
 62
4
 10
-4.62202545E+01
 20
2.15978074E+02
  0
VERTEX
  8
0
 62
4
 10
-4.65228596E+01
 20
2.16014879E+02
  0
VERTEX
  8
0
 62
4
 10
-4.68431151E+01
 20
2.16046864E+02
  0
VERTEX
  8
0
 62
4
 10
-4.71784831E+01
 20
2.16073777E+02
  0
VERTEX
  8
0
 62
4
 10
-4.75263056E+01
 20
2.16095403E+02
  0
VERTEX
  8
0
 62
4
 10
-4.78838262E+01
 20
2.16111573E+02
  0
VERTEX
  8
0
 62
4
 10
-4.82482113E+01
 20
2.16122157E+02
  0
VERTEX
  8
0
 62
4
 10
-4.86165732E+01
 20
2.16127071E+02
  0
VERTEX
  8
0
 62
4
 10
-4.89859925E+01
 20
2.16126278E+02
  0
VERTEX
  8
0
 62
4
 10
-4.93535416E+01
 20
2.16119782E+02
  0
VERTEX
  8
0
 62
4
 10
-4.97163074E+01
 20
2.16107636E+02
  0
VERTEX
  8
0
 62
4
 10
-5.00714151E+01
 20
2.16089936E+02
  0
VERTEX
  8
0
 62
4
 10
-5.04160504E+01
 20
2.16066822E+02
  0
VERTEX
  8
0
 62
4
 10
-5.07474818E+01
 20
2.16038477E+02
  0
VERTEX
  8
0
 62
4
 10
-5.10630829E+01
 20
2.16005126E+02
  0
VERTEX
  8
0
 62
4
 10
-5.13603523E+01
 20
2.15967033E+02
  0
VERTEX
  8
0
 62
4
 10
-5.16369343E+01
 20
2.15924500E+02
  0
VERTEX
  8
0
 62
4
 10
-5.18906367E+01
 20
2.15877865E+02
  0
VERTEX
  8
0
 62
4
 10
-5.21194490E+01
 20
2.15827496E+02
  0
VERTEX
  8
0
 62
4
 10
-5.23215578E+01
 20
2.15773793E+02
  0
VERTEX
  8
0
 62
4
 10
-5.24953613E+01
 20
2.15717181E+02
  0
VERTEX
  8
0
 62
4
 10
-5.26394821E+01
 20
2.15658110E+02
  0
VERTEX
  8
0
 62
4
 10
-5.27527781E+01
 20
2.15597047E+02
  0
VERTEX
  8
0
 62
4
 10
-5.28343513E+01
 20
2.15534477E+02
  0
VERTEX
  8
0
 62
4
 10
-5.28835552E+01
 20
2.15470894E+02
  0
VERTEX
  8
0
 62
4
 10
-5.29000000E+01
 20
2.15406804E+02
  0
SEQEND
  8
0
  0
ARC
  8
0
 62
4
 10
-4.87422617E+01
 20
2.24563910E+02
 40
1.18100000E+01
 50
2.69962458E+02
 51
2.89675999E+02
  0
ARC
  8
0
 62
4
 10
-4.87577383E+01
 20
2.24563910E+02
 40
1.18100000E+01
 50
2.50324001E+02
 51
2.70037542E+02
  0
LINE
  8
0
 62
4
 10
-5.29000000E+01
 20
2.13678879E+02
 11
-5.29000000E+01
 21
2.15406804E+02
  0
LINE
  8
0
 62
4
 10
-4.46000000E+01
 20
2.13678879E+02
 11
-4.46000000E+01
 21
2.13817989E+02
  0
LINE
  8
0
 62
4
 10
-5.27500000E+01
 20
2.15781031E+02
 11
-5.27500000E+01
 21
2.15598801E+02
  0
POLYLINE
  8
0
 62
4
 66
1
  0
VERTEX
  8
0
 62
4
 10
-4.50500000E+01
 20
2.16044953E+02
  0
VERTEX
  8
0
 62
4
 10
-4.51993080E+01
 20
2.16100873E+02
  0
VERTEX
  8
0
 62
4
 10
-4.53765767E+01
 20
2.16154274E+02
  0
VERTEX
  8
0
 62
4
 10
-4.55804101E+01
 20
2.16204736E+02
  0
VERTEX
  8
0
 62
4
 10
-4.58092032E+01
 20
2.16251861E+02
  0
VERTEX
  8
0
 62
4
 10
-4.60611542E+01
 20
2.16295279E+02
  0
VERTEX
  8
0
 62
4
 10
-4.63342792E+01
 20
2.16334647E+02
  0
VERTEX
  8
0
 62
4
 10
-4.66264273E+01
 20
2.16369656E+02
  0
VERTEX
  8
0
 62
4
 10
-4.69352979E+01
 20
2.16400029E+02
  0
VERTEX
  8
0
 62
4
 10
-4.72584588E+01
 20
2.16425528E+02
  0
VERTEX
  8
0
 62
4
 10
-4.75933652E+01
 20
2.16445952E+02
  0
VERTEX
  8
0
 62
4
 10
-4.79373798E+01
 20
2.16461139E+02
  0
VERTEX
  8
0
 62
4
 10
-4.82877935E+01
 20
2.16470971E+02
  0
VERTEX
  8
0
 62
4
 10
-4.86418469E+01
 20
2.16475370E+02
  0
VERTEX
  8
0
 62
4
 10
-4.89967521E+01
 20
2.16474301E+02
  0
VERTEX
  8
0
 62
4
 10
-4.93497141E+01
 20
2.16467773E+02
  0
VERTEX
  8
0
 62
4
 10
-4.96979536E+01
 20
2.16455837E+02
  0
VERTEX
  8
0
 62
4
 10
-5.00387281E+01
 20
2.16438586E+02
  0
VERTEX
  8
0
 62
4
 10
-5.03693543E+01
 20
2.16416158E+02
  0
VERTEX
  8
0
 62
4
 10
-5.06872286E+01
 20
2.16388729E+02
  0
VERTEX
  8
0
 62
4
 10
-5.09898477E+01
 20
2.16356514E+02
  0
VERTEX
  8
0
 62
4
 10
-5.12748286E+01
 20
2.16319767E+02
  0
VERTEX
  8
0
 62
4
 10
-5.15399272E+01
 20
2.16278778E+02
  0
VERTEX
  8
0
 62
4
 10
-5.17830559E+01
 20
2.16233869E+02
  0
VERTEX
  8
0
 62
4
 10
-5.20023002E+01
 20
2.16185394E+02
  0
VERTEX
  8
0
 62
4
 10
-5.21959334E+01
 20
2.16133735E+02
  0
VERTEX
  8
0
 62
4
 10
-5.23624309E+01
 20
2.16079299E+02
  0
VERTEX
  8
0
 62
4
 10
-5.25004816E+01
 20
2.16022514E+02
  0
VERTEX
  8
0
 62
4
 10
-5.26089982E+01
 20
2.15963827E+02
  0
VERTEX
  8
0
 62
4
 10
-5.26871262E+01
 20
2.15903701E+02
  0
VERTEX
  8
0
 62
4
 10
-5.27342506E+01
 20
2.15842608E+02
  0
VERTEX
  8
0
 62
4
 10
-5.27500000E+01
 20
2.15781031E+02
  0
SEQEND
  8
0
  0
ARC
  8
0
 62
4
 10
-5.08686056E+01
 20
2.25265120E+02
 40
1.25124521E+01
 50
2.74941635E+02
 51
2.88095416E+02
  0
ARC
  8
0
 62
4
 10
-4.66313942E+01
 20
2.25265123E+02
 40
1.25124547E+01
 50
2.51904586E+02
 51
2.65058365E+02
  0
POLYLINE
  8
0
 62
4
 66
1
  0
VERTEX
  8
0
 62
4
 10
-4.46000000E+01
 20
2.13673542E+02
  0
VERTEX
  8
0
 62
4
 10
-4.46167067E+01
 20
2.13738140E+02
  0
VERTEX
  8
0
 62
4
 10
-4.46666922E+01
 20
2.13802217E+02
  0
VERTEX
  8
0
 62
4
 10
-4.47495541E+01
 20
2.13865259E+02
  0
VERTEX
  8
0
 62
4
 10
-4.48646253E+01
 20
2.13926757E+02
  0
VERTEX
  8
0
 62
4
 10
-4.50109792E+01
 20
2.13986216E+02
  0
VERTEX
  8
0
 62
4
 10
-4.51874375E+01
 20
2.14043158E+02
  0
VERTEX
  8
0
 62
4
 10
-4.53925795E+01
 20
2.14097124E+02
  0
VERTEX
  8
0
 62
4
 10
-4.56247534E+01
 20
2.14147679E+02
  0
VERTEX
  8
0
 62
4
 10
-4.58820900E+01
 20
2.14194417E+02
  0
VERTEX
  8
0
 62
4
 10
-4.61625173E+01
 20
2.14236961E+02
  0
VERTEX
  8
0
 62
4
 10
-4.64637775E+01
 20
2.14274969E+02
  0
VERTEX
  8
0
 62
4
 10
-4.67834450E+01
 20
2.14308134E+02
  0
VERTEX
  8
0
 62
4
 10
-4.71189461E+01
 20
2.14336190E+02
  0
VERTEX
  8
0
 62
4
 10
-4.74675794E+01
 20
2.14358911E+02
  0
VERTEX
  8
0
 62
4
 10
-4.78265381E+01
 20
2.14376114E+02
  0
VERTEX
  8
0
 62
4
 10
-4.81929319E+01
 20
2.14387660E+02
  0
VERTEX
  8
0
 62
4
 10
-4.85638109E+01
 20
2.14393456E+02
  0
VERTEX
  8
0
 62
4
 10
-4.89361890E+01
 20
2.14393456E+02
  0
VERTEX
  8
0
 62
4
 10
-4.93070680E+01
 20
2.14387660E+02
  0
VERTEX
  8
0
 62
4
 10
-4.96734619E+01
 20
2.14376114E+02
  0
VERTEX
  8
0
 62
4
 10
-5.00324205E+01
 20
2.14358911E+02
  0
VERTEX
  8
0
 62
4
 10
-5.03810539E+01
 20
2.14336190E+02
  0
VERTEX
  8
0
 62
4
 10
-5.07165549E+01
 20
2.14308134E+02
  0
VERTEX
  8
0
 62
4
 10
-5.10362225E+01
 20
2.14274969E+02
  0
VERTEX
  8
0
 62
4
 10
-5.13374827E+01
 20
2.14236961E+02
  0
VERTEX
  8
0
 62
4
 10
-5.16179100E+01
 20
2.14194417E+02
  0
VERTEX
  8
0
 62
4
 10
-5.18752466E+01
 20
2.14147679E+02
  0
VERTEX
  8
0
 62
4
 10
-5.21074205E+01
 20
2.14097124E+02
  0
VERTEX
  8
0
 62
4
 10
-5.23125625E+01
 20
2.14043158E+02
  0
VERTEX
  8
0
 62
4
 10
-5.24890208E+01
 20
2.13986216E+02
  0
VERTEX
  8
0
 62
4
 10
-5.26353747E+01
 20
2.13926757E+02
  0
VERTEX
  8
0
 62
4
 10
-5.27504459E+01
 20
2.13865259E+02
  0
VERTEX
  8
0
 62
4
 10
-5.28333078E+01
 20
2.13802217E+02
  0
VERTEX
  8
0
 62
4
 10
-5.28832933E+01
 20
2.13738140E+02
  0
VERTEX
  8
0
 62
4
 10
-5.29000000E+01
 20
2.13673542E+02
  0
SEQEND
  8
0
  0
ARC
  8
0
 62
4
 10
-5.26500000E+01
 20
2.13678879E+02
 40
2.50000000E-01
 50
1.80000000E+02
 51
2.50324001E+02
  0
ARC
  8
0
 62
4
 10
-4.48500000E+01
 20
2.13678879E+02
 40
2.50000000E-01
 50
2.89675999E+02
 51
0.00000000E+00
  0
LINE
  8
0
 62
4
 10
-4.50500000E+01
 20
2.15403992E+02
 11
-4.50500000E+01
 21
2.16388800E+02
  0
LINE
  8
0
 62
4
 10
-3.74500000E+01
 20
2.15403992E+02
 11
-3.74500000E+01
 21
2.16388800E+02
  0
POLYLINE
  8
0
 62
4
 66
1
  0
VERTEX
  8
0
 62
4
 10
-3.74500000E+01
 20
2.16388800E+02
  0
VERTEX
  8
0
 62
4
 10
-3.74652977E+01
 20
2.16447950E+02
  0
VERTEX
  8
0
 62
4
 10
-3.75110676E+01
 20
2.16506623E+02
  0
VERTEX
  8
0
 62
4
 10
-3.75869411E+01
 20
2.16564348E+02
  0
VERTEX
  8
0
 62
4
 10
-3.76923075E+01
 20
2.16620659E+02
  0
VERTEX
  8
0
 62
4
 10
-3.78263183E+01
 20
2.16675104E+02
  0
VERTEX
  8
0
 62
4
 10
-3.79878946E+01
 20
2.16727243E+02
  0
VERTEX
  8
0
 62
4
 10
-3.81757354E+01
 20
2.16776658E+02
  0
VERTEX
  8
0
 62
4
 10
-3.83883284E+01
 20
2.16822949E+02
  0
VERTEX
  8
0
 62
4
 10
-3.86239619E+01
 20
2.16865746E+02
  0
VERTEX
  8
0
 62
4
 10
-3.88807387E+01
 20
2.16904702E+02
  0
VERTEX
  8
0
 62
4
 10
-3.91565915E+01
 20
2.16939504E+02
  0
VERTEX
  8
0
 62
4
 10
-3.94492991E+01
 20
2.16969872E+02
  0
VERTEX
  8
0
 62
4
 10
-3.97565049E+01
 20
2.16995562E+02
  0
VERTEX
  8
0
 62
4
 10
-4.00757354E+01
 20
2.17016367E+02
  0
VERTEX
  8
0
 62
4
 10
-4.04044204E+01
 20
2.17032119E+02
  0
VERTEX
  8
0
 62
4
 10
-4.07399136E+01
 20
2.17042691E+02
  0
VERTEX
  8
0
 62
4
 10
-4.10795136E+01
 20
2.17047999E+02
  0
VERTEX
  8
0
 62
4
 10
-4.14204863E+01
 20
2.17047999E+02
  0
VERTEX
  8
0
 62
4
 10
-4.17600864E+01
 20
2.17042691E+02
  0
VERTEX
  8
0
 62
4
 10
-4.20955795E+01
 20
2.17032119E+02
  0
VERTEX
  8
0
 62
4
 10
-4.24242646E+01
 20
2.17016367E+02
  0
VERTEX
  8
0
 62
4
 10
-4.27434951E+01
 20
2.16995562E+02
  0
VERTEX
  8
0
 62
4
 10
-4.30507009E+01
 20
2.16969872E+02
  0
VERTEX
  8
0
 62
4
 10
-4.33434085E+01
 20
2.16939504E+02
  0
VERTEX
  8
0
 62
4
 10
-4.36192612E+01
 20
2.16904702E+02
  0
VERTEX
  8
0
 62
4
 10
-4.38760380E+01
 20
2.16865746E+02
  0
VERTEX
  8
0
 62
4
 10
-4.41116716E+01
 20
2.16822949E+02
  0
VERTEX
  8
0
 62
4
 10
-4.43242646E+01
 20
2.16776658E+02
  0
VERTEX
  8
0
 62
4
 10
-4.45121054E+01
 20
2.16727243E+02
  0
VERTEX
  8
0
 62
4
 10
-4.46736817E+01
 20
2.16675104E+02
  0
VERTEX
  8
0
 62
4
 10
-4.48076925E+01
 20
2.16620659E+02
  0
VERTEX
  8
0
 62
4
 10
-4.49130589E+01
 20
2.16564348E+02
  0
VERTEX
  8
0
 62
4
 10
-4.49889324E+01
 20
2.16506623E+02
  0
VERTEX
  8
0
 62
4
 10
-4.50347023E+01
 20
2.16447950E+02
  0
VERTEX
  8
0
 62
4
 10
-4.50500000E+01
 20
2.16388800E+02
  0
SEQEND
  8
0
  0
POLYLINE
  8
0
 62
4
 66
1
  0
VERTEX
  8
0
 62
4
 10
-3.78500000E+01
 20
2.15109301E+02
  0
VERTEX
  8
0
 62
4
 10
-3.77134183E+01
 20
2.15162590E+02
  0
VERTEX
  8
0
 62
4
 10
-3.76044705E+01
 20
2.15217766E+02
  0
VERTEX
  8
0
 62
4
 10
-3.75240077E+01
 20
2.15274396E+02
  0
VERTEX
  8
0
 62
4
 10
-3.74726587E+01
 20
2.15332039E+02
  0
VERTEX
  8
0
 62
4
 10
-3.74508247E+01
 20
2.15390245E+02
  0
VERTEX
  8
0
 62
4
 10
-3.74586764E+01
 20
2.15448558E+02
  0
VERTEX
  8
0
 62
4
 10
-3.74961524E+01
 20
2.15506522E+02
  0
VERTEX
  8
0
 62
4
 10
-3.75629598E+01
 20
2.15563685E+02
  0
VERTEX
  8
0
 62
4
 10
-3.76585766E+01
 20
2.15619601E+02
  0
VERTEX
  8
0
 62
4
 10
-3.77822558E+01
 20
2.15673832E+02
  0
VERTEX
  8
0
 62
4
 10
-3.79330309E+01
 20
2.15725954E+02
  0
VERTEX
  8
0
 62
4
 10
-3.81097238E+01
 20
2.15775561E+02
  0
VERTEX
  8
0
 62
4
 10
-3.83109538E+01
 20
2.15822265E+02
  0
VERTEX
  8
0
 62
4
 10
-3.85351488E+01
 20
2.15865700E+02
  0
VERTEX
  8
0
 62
4
 10
-3.87805567E+01
 20
2.15905527E+02
  0
VERTEX
  8
0
 62
4
 10
-3.90452602E+01
 20
2.15941436E+02
  0
VERTEX
  8
0
 62
4
 10
-3.93271908E+01
 20
2.15973145E+02
  0
VERTEX
  8
0
 62
4
 10
-3.96241457E+01
 20
2.16000407E+02
  0
VERTEX
  8
0
 62
4
 10
-3.99338046E+01
 20
2.16023009E+02
  0
VERTEX
  8
0
 62
4
 10
-4.02537478E+01
 20
2.16040774E+02
  0
VERTEX
  8
0
 62
4
 10
-4.05814754E+01
 20
2.16053563E+02
  0
VERTEX
  8
0
 62
4
 10
-4.09144267E+01
 20
2.16061277E+02
  0
VERTEX
  8
0
 62
4
 10
-4.12500000E+01
 20
2.16063855E+02
  0
VERTEX
  8
0
 62
4
 10
-4.15855734E+01
 20
2.16061277E+02
  0
VERTEX
  8
0
 62
4
 10
-4.19185246E+01
 20
2.16053563E+02
  0
VERTEX
  8
0
 62
4
 10
-4.22462523E+01
 20
2.16040774E+02
  0
VERTEX
  8
0
 62
4
 10
-4.25661955E+01
 20
2.16023009E+02
  0
VERTEX
  8
0
 62
4
 10
-4.28758543E+01
 20
2.16000407E+02
  0
VERTEX
  8
0
 62
4
 10
-4.31728092E+01
 20
2.15973145E+02
  0
VERTEX
  8
0
 62
4
 10
-4.34547399E+01
 20
2.15941436E+02
  0
VERTEX
  8
0
 62
4
 10
-4.37194433E+01
 20
2.15905527E+02
  0
VERTEX
  8
0
 62
4
 10
-4.39648513E+01
 20
2.15865700E+02
  0
VERTEX
  8
0
 62
4
 10
-4.41890462E+01
 20
2.15822265E+02
  0
VERTEX
  8
0
 62
4
 10
-4.43902763E+01
 20
2.15775561E+02
  0
VERTEX
  8
0
 62
4
 10
-4.45669692E+01
 20
2.15725954E+02
  0
VERTEX
  8
0
 62
4
 10
-4.47177442E+01
 20
2.15673832E+02
  0
VERTEX
  8
0
 62
4
 10
-4.48414234E+01
 20
2.15619601E+02
  0
VERTEX
  8
0
 62
4
 10
-4.49370402E+01
 20
2.15563686E+02
  0
VERTEX
  8
0
 62
4
 10
-4.50038476E+01
 20
2.15506522E+02
  0
VERTEX
  8
0
 62
4
 10
-4.50413236E+01
 20
2.15448558E+02
  0
VERTEX
  8
0
 62
4
 10
-4.50491753E+01
 20
2.15390245E+02
  0
VERTEX
  8
0
 62
4
 10
-4.50273413E+01
 20
2.15332039E+02
  0
VERTEX
  8
0
 62
4
 10
-4.49759923E+01
 20
2.15274396E+02
  0
VERTEX
  8
0
 62
4
 10
-4.48955295E+01
 20
2.15217766E+02
  0
VERTEX
  8
0
 62
4
 10
-4.47865817E+01
 20
2.15162590E+02
  0
VERTEX
  8
0
 62
4
 10
-4.46500000E+01
 20
2.15109301E+02
  0
SEQEND
  8
0
  0
LINE
  8
0
 62
4
 10
-4.46500000E+01
 20
2.14130239E+02
 11
-4.46500000E+01
 21
2.15403992E+02
  0
LINE
  8
0
 62
4
 10
-3.78500000E+01
 20
2.14130239E+02
 11
-3.78500000E+01
 21
2.15403992E+02
  0
POLYLINE
  8
0
 62
4
 66
1
  0
VERTEX
  8
0
 62
4
 10
-3.78500000E+01
 20
2.15403992E+02
  0
VERTEX
  8
0
 62
4
 10
-3.78636874E+01
 20
2.15456915E+02
  0
VERTEX
  8
0
 62
4
 10
-3.79046394E+01
 20
2.15509413E+02
  0
VERTEX
  8
0
 62
4
 10
-3.79725263E+01
 20
2.15561061E+02
  0
VERTEX
  8
0
 62
4
 10
-3.80668014E+01
 20
2.15611445E+02
  0
VERTEX
  8
0
 62
4
 10
-3.81867058E+01
 20
2.15660159E+02
  0
VERTEX
  8
0
 62
4
 10
-3.83312741E+01
 20
2.15706810E+02
  0
VERTEX
  8
0
 62
4
 10
-3.84993422E+01
 20
2.15751023E+02
  0
VERTEX
  8
0
 62
4
 10
-3.86895570E+01
 20
2.15792442E+02
  0
VERTEX
  8
0
 62
4
 10
-3.89003870E+01
 20
2.15830733E+02
  0
VERTEX
  8
0
 62
4
 10
-3.91301347E+01
 20
2.15865588E+02
  0
VERTEX
  8
0
 62
4
 10
-3.93769502E+01
 20
2.15896727E+02
  0
VERTEX
  8
0
 62
4
 10
-3.96388465E+01
 20
2.15923899E+02
  0
VERTEX
  8
0
 62
4
 10
-3.99137149E+01
 20
2.15946885E+02
  0
VERTEX
  8
0
 62
4
 10
-4.01993422E+01
 20
2.15965499E+02
  0
VERTEX
  8
0
 62
4
 10
-4.04934288E+01
 20
2.15979593E+02
  0
VERTEX
  8
0
 62
4
 10
-4.07936069E+01
 20
2.15989053E+02
  0
VERTEX
  8
0
 62
4
 10
-4.10974596E+01
 20
2.15993801E+02
  0
VERTEX
  8
0
 62
4
 10
-4.14025404E+01
 20
2.15993801E+02
  0
VERTEX
  8
0
 62
4
 10
-4.17063931E+01
 20
2.15989053E+02
  0
VERTEX
  8
0
 62
4
 10
-4.20065712E+01
 20
2.15979593E+02
  0
VERTEX
  8
0
 62
4
 10
-4.23006578E+01
 20
2.15965499E+02
  0
VERTEX
  8
0
 62
4
 10
-4.25862851E+01
 20
2.15946885E+02
  0
VERTEX
  8
0
 62
4
 10
-4.28611534E+01
 20
2.15923899E+02
  0
VERTEX
  8
0
 62
4
 10
-4.31230497E+01
 20
2.15896727E+02
  0
VERTEX
  8
0
 62
4
 10
-4.33698653E+01
 20
2.15865588E+02
  0
VERTEX
  8
0
 62
4
 10
-4.35996130E+01
 20
2.15830733E+02
  0
VERTEX
  8
0
 62
4
 10
-4.38104430E+01
 20
2.15792442E+02
  0
VERTEX
  8
0
 62
4
 10
-4.40006578E+01
 20
2.15751023E+02
  0
VERTEX
  8
0
 62
4
 10
-4.41687259E+01
 20
2.15706810E+02
  0
VERTEX
  8
0
 62
4
 10
-4.43132941E+01
 20
2.15660159E+02
  0
VERTEX
  8
0
 62
4
 10
-4.44331986E+01
 20
2.15611445E+02
  0
VERTEX
  8
0
 62
4
 10
-4.45274737E+01
 20
2.15561061E+02
  0
VERTEX
  8
0
 62
4
 10
-4.45953606E+01
 20
2.15509413E+02
  0
VERTEX
  8
0
 62
4
 10
-4.46363126E+01
 20
2.15456915E+02
  0
VERTEX
  8
0
 62
4
 10
-4.46500000E+01
 20
2.15403992E+02
  0
SEQEND
  8
0
  0
ARC
  8
0
 62
4
 10
-4.12500000E+01
 20
2.24670453E+02
 40
1.18100000E+01
 50
2.57172490E+02
 51
2.82827510E+02
  0
ARC
  8
0
 62
4
 10
-3.88499997E+01
 20
2.14130239E+02
 40
1.00000000E+00
 50
2.82827510E+02
 51
5.08888749E-14
  0
ARC
  8
0
 62
4
 10
-4.36500003E+01
 20
2.14130239E+02
 40
1.00000000E+00
 50
1.80000000E+02
 51
2.57172490E+02
  0
ARC
  8
0
 62
4
 10
-4.33717535E+01
 20
2.25389596E+02
 40
1.25306621E+01
 50
2.74968660E+02
 51
2.88083352E+02
  0
ARC
  8
0
 62
4
 10
-3.91282464E+01
 20
2.25389597E+02
 40
1.25306626E+01
 50
2.51916648E+02
 51
2.65031340E+02
  0
LINE
  8
0
  6
CENTER
 62
6
 10
-5.12500000E+01
 20
2.15781031E+02
 11
-4.62500000E+01
 21
2.15781031E+02
  0
LINE
  8
0
  6
CENTER
 62
6
 10
-4.12500000E+01
 20
2.18888800E+02
 11
-4.12500000E+01
 21
2.13888800E+02
  0
LINE
  8
0
  6
CENTER
 62
6
 10
-4.37500000E+01
 20
2.16388800E+02
 11
-3.87500000E+01
 21
2.16388800E+02
  0
LINE
  8
0
  6
CENTER
 62
6
 10
-5.62500000E+01
 20
2.18888800E+02
 11
-5.62500000E+01
 21
2.13888800E+02
  0
LINE
  8
0
  6
CENTER
 62
6
 10
-5.87500000E+01
 20
2.16388800E+02
 11
-5.37500000E+01
 21
2.16388800E+02
  0
LINE
  8
0
 62
4
 10
-3.74568894E+01
 20
2.15364275E+02
 11
-3.37500000E+01
 21
2.15364275E+02
  0
LINE
  8
0
  6
CENTER
 62
6
 10
6.74999997E+00
 20
1.71253901E+02
 11
6.74999997E+00
 21
1.81519480E+02
  0
LINE
  8
0
  6
CENTER
 62
6
 10
-1.25000003E+00
 20
1.71253901E+02
 11
-1.25000003E+00
 21
1.81519480E+02
  0
LINE
  8
0
 62
4
 10
-4.75000000E+00
 20
1.98536120E+02
 11
-1.56160254E+01
 21
1.98536120E+02
  0
LINE
  8
0
  6
CENTER
 62
6
 10
3.02500000E+01
 20
2.00036120E+02
 11
-1.67500000E+01
 21
2.00036120E+02
  0
LINE
  8
0
 62
6
 10
-1.30179492E+01
 20
2.03036120E+02
 11
-1.64820508E+01
 21
1.97036120E+02
  0
LINE
  8
0
 62
4
 10
-4.75000000E+00
 20
2.01536120E+02
 11
-1.38839746E+01
 21
2.01536120E+02
  0
LINE
  8
0
 62
6
 10
2.49999972E-01
 20
1.74366160E+02
 11
2.49999972E-01
 21
1.76717196E+02
  0
LINE
  8
0
 62
6
 10
-2.75000003E+00
 20
1.74366160E+02
 11
-2.75000003E+00
 21
1.76717196E+02
  0
LINE
  8
0
 62
4
 10
7.49999972E-01
 20
1.74595875E+02
 11
7.49999972E-01
 21
1.76717196E+02
  0
LINE
  8
0
 62
4
 10
-3.25000003E+00
 20
1.74595875E+02
 11
-3.25000003E+00
 21
1.76717196E+02
  0
LINE
  8
0
 62
4
 10
1.02500000E+01
 20
1.76717196E+02
 11
1.02500000E+01
 21
1.89425193E+02
  0
LINE
  8
0
 62
4
 10
-4.75000000E+00
 20
1.76717196E+02
 11
-4.75000000E+00
 21
2.02347084E+02
  0
LINE
  8
0
 62
4
 10
2.52500000E+01
 20
1.89425193E+02
 11
2.52500000E+01
 21
2.01374654E+02
  0
LINE
  8
0
  6
CENTER
 62
6
 10
1.02500000E+01
 20
1.98457898E+02
 11
1.02500000E+01
 21
2.03457898E+02
  0
LINE
  8
0
 62
4
 10
1.02500000E+01
 20
1.76717196E+02
 11
-4.74999999E+00
 21
1.76717196E+02
  0
LINE
  8
0
 62
4
 10
1.02500000E+01
 20
1.82531539E+02
 11
-4.74999999E+00
 21
1.82531539E+02
  0
LINE
  8
0
 62
4
 10
2.52500000E+01
 20
1.89425193E+02
 11
-4.74999999E+00
 21
1.89425193E+02
  0
LINE
  8
0
 62
4
 10
2.52500000E+01
 20
1.99568713E+02
 11
-4.74999999E+00
 21
1.99568713E+02
  0
LINE
  8
0
 62
4
 10
-6.50000000E-01
 20
2.02347084E+02
 11
-4.75000000E+00
 21
2.02347084E+02
  0
LINE
  8
0
 62
4
 10
-6.50000000E-01
 20
2.02173436E+02
 11
-4.75000000E+00
 21
2.02173436E+02
  0
LINE
  8
0
 62
4
 10
2.52500000E+01
 20
2.01374654E+02
 11
1.44000000E+01
 21
2.01374654E+02
  0
POLYLINE
  8
0
 62
4
 66
1
  0
VERTEX
  8
0
 62
4
 10
-3.25000003E+00
 20
1.74595875E+02
  0
VERTEX
  8
0
 62
4
 10
-3.24194862E+00
 20
1.74564744E+02
  0
VERTEX
  8
0
 62
4
 10
-3.21785921E+00
 20
1.74533863E+02
  0
VERTEX
  8
0
 62
4
 10
-3.17792575E+00
 20
1.74503481E+02
  0
VERTEX
  8
0
 62
4
 10
-3.12246977E+00
 20
1.74473844E+02
  0
VERTEX
  8
0
 62
4
 10
-3.05193777E+00
 20
1.74445189E+02
  0
VERTEX
  8
0
 62
4
 10
-2.96689762E+00
 20
1.74417747E+02
  0
VERTEX
  8
0
 62
4
 10
-2.86803402E+00
 20
1.74391739E+02
  0
VERTEX
  8
0
 62
4
 10
-2.75614297E+00
 20
1.74367375E+02
  0
VERTEX
  8
0
 62
4
 10
-2.63212533E+00
 20
1.74344851E+02
  0
VERTEX
  8
0
 62
4
 10
-2.49697964E+00
 20
1.74324348E+02
  0
VERTEX
  8
0
 62
4
 10
-2.35179400E+00
 20
1.74306031E+02
  0
VERTEX
  8
0
 62
4
 10
-2.19773736E+00
 20
1.74290047E+02
  0
VERTEX
  8
0
 62
4
 10
-2.03605010E+00
 20
1.74276526E+02
  0
VERTEX
  8
0
 62
4
 10
-1.86803403E+00
 20
1.74265577E+02
  0
VERTEX
  8
0
 62
4
 10
-1.69504191E+00
 20
1.74257286E+02
  0
VERTEX
  8
0
 62
4
 10
-1.51846657E+00
 20
1.74251722E+02
  0
VERTEX
  8
0
 62
4
 10
-1.33972970E+00
 20
1.74248928E+02
  0
VERTEX
  8
0
 62
4
 10
-1.16027038E+00
 20
1.74248928E+02
  0
VERTEX
  8
0
 62
4
 10
-9.81533509E-01
 20
1.74251722E+02
  0
VERTEX
  8
0
 62
4
 10
-8.04958173E-01
 20
1.74257286E+02
  0
VERTEX
  8
0
 62
4
 10
-6.31966052E-01
 20
1.74265577E+02
  0
VERTEX
  8
0
 62
4
 10
-4.63949977E-01
 20
1.74276526E+02
  0
VERTEX
  8
0
 62
4
 10
-3.02262716E-01
 20
1.74290047E+02
  0
VERTEX
  8
0
 62
4
 10
-1.48206077E-01
 20
1.74306031E+02
  0
VERTEX
  8
0
 62
4
 10
-3.02043591E-03
 20
1.74324348E+02
  0
VERTEX
  8
0
 62
4
 10
1.32125259E-01
 20
1.74344851E+02
  0
VERTEX
  8
0
 62
4
 10
2.56142894E-01
 20
1.74367375E+02
  0
VERTEX
  8
0
 62
4
 10
3.68033951E-01
 20
1.74391739E+02
  0
VERTEX
  8
0
 62
4
 10
4.66897550E-01
 20
1.74417747E+02
  0
VERTEX
  8
0
 62
4
 10
5.51937700E-01
 20
1.74445189E+02
  0
VERTEX
  8
0
 62
4
 10
6.22469707E-01
 20
1.74473844E+02
  0
VERTEX
  8
0
 62
4
 10
6.77925688E-01
 20
1.74503481E+02
  0
VERTEX
  8
0
 62
4
 10
7.17859145E-01
 20
1.74533863E+02
  0
VERTEX
  8
0
 62
4
 10
7.41948557E-01
 20
1.74564744E+02
  0
VERTEX
  8
0
 62
4
 10
7.49999970E-01
 20
1.74595875E+02
  0
SEQEND
  8
0
  0
LINE
  8
0
 62
6
 10
8.24999997E+00
 20
1.74366160E+02
 11
8.24999997E+00
 21
1.76717196E+02
  0
LINE
  8
0
 62
6
 10
5.24999997E+00
 20
1.74366160E+02
 11
5.24999997E+00
 21
1.76717196E+02
  0
LINE
  8
0
 62
4
 10
8.74999997E+00
 20
1.74595875E+02
 11
8.74999997E+00
 21
1.76717196E+02
  0
LINE
  8
0
 62
4
 10
4.74999997E+00
 20
1.74595875E+02
 11
4.74999997E+00
 21
1.76717196E+02
  0
POLYLINE
  8
0
 62
4
 66
1
  0
VERTEX
  8
0
 62
4
 10
4.74999997E+00
 20
1.74595875E+02
  0
VERTEX
  8
0
 62
4
 10
4.75805138E+00
 20
1.74564744E+02
  0
VERTEX
  8
0
 62
4
 10
4.78214079E+00
 20
1.74533863E+02
  0
VERTEX
  8
0
 62
4
 10
4.82207425E+00
 20
1.74503481E+02
  0
VERTEX
  8
0
 62
4
 10
4.87753023E+00
 20
1.74473844E+02
  0
VERTEX
  8
0
 62
4
 10
4.94806223E+00
 20
1.74445189E+02
  0
VERTEX
  8
0
 62
4
 10
5.03310238E+00
 20
1.74417747E+02
  0
VERTEX
  8
0
 62
4
 10
5.13196598E+00
 20
1.74391739E+02
  0
VERTEX
  8
0
 62
4
 10
5.24385703E+00
 20
1.74367375E+02
  0
VERTEX
  8
0
 62
4
 10
5.36787467E+00
 20
1.74344851E+02
  0
VERTEX
  8
0
 62
4
 10
5.50302036E+00
 20
1.74324348E+02
  0
VERTEX
  8
0
 62
4
 10
5.64820600E+00
 20
1.74306031E+02
  0
VERTEX
  8
0
 62
4
 10
5.80226264E+00
 20
1.74290047E+02
  0
VERTEX
  8
0
 62
4
 10
5.96394990E+00
 20
1.74276526E+02
  0
VERTEX
  8
0
 62
4
 10
6.13196597E+00
 20
1.74265577E+02
  0
VERTEX
  8
0
 62
4
 10
6.30495809E+00
 20
1.74257286E+02
  0
VERTEX
  8
0
 62
4
 10
6.48153343E+00
 20
1.74251722E+02
  0
VERTEX
  8
0
 62
4
 10
6.66027030E+00
 20
1.74248928E+02
  0
VERTEX
  8
0
 62
4
 10
6.83972962E+00
 20
1.74248928E+02
  0
VERTEX
  8
0
 62
4
 10
7.01846649E+00
 20
1.74251722E+02
  0
VERTEX
  8
0
 62
4
 10
7.19504183E+00
 20
1.74257286E+02
  0
VERTEX
  8
0
 62
4
 10
7.36803395E+00
 20
1.74265577E+02
  0
VERTEX
  8
0
 62
4
 10
7.53605002E+00
 20
1.74276526E+02
  0
VERTEX
  8
0
 62
4
 10
7.69773728E+00
 20
1.74290047E+02
  0
VERTEX
  8
0
 62
4
 10
7.85179392E+00
 20
1.74306031E+02
  0
VERTEX
  8
0
 62
4
 10
7.99697956E+00
 20
1.74324348E+02
  0
VERTEX
  8
0
 62
4
 10
8.13212526E+00
 20
1.74344851E+02
  0
VERTEX
  8
0
 62
4
 10
8.25614289E+00
 20
1.74367375E+02
  0
VERTEX
  8
0
 62
4
 10
8.36803395E+00
 20
1.74391739E+02
  0
VERTEX
  8
0
 62
4
 10
8.46689755E+00
 20
1.74417747E+02
  0
VERTEX
  8
0
 62
4
 10
8.55193770E+00
 20
1.74445189E+02
  0
VERTEX
  8
0
 62
4
 10
8.62246971E+00
 20
1.74473844E+02
  0
VERTEX
  8
0
 62
4
 10
8.67792569E+00
 20
1.74503481E+02
  0
VERTEX
  8
0
 62
4
 10
8.71785914E+00
 20
1.74533863E+02
  0
VERTEX
  8
0
 62
4
 10
8.74194856E+00
 20
1.74564744E+02
  0
VERTEX
  8
0
 62
4
 10
8.74999997E+00
 20
1.74595875E+02
  0
SEQEND
  8
0
  0
LINE
  8
0
 62
4
 10
2.52500000E+01
 20
1.97719209E+02
 11
2.67500000E+01
 21
1.98722141E+02
  0
LINE
  8
0
 62
4
 10
2.67500000E+01
 20
1.98722141E+02
 11
2.67500000E+01
 21
2.01346044E+02
  0
LINE
  8
0
 62
4
 10
2.67500000E+01
 20
2.00952731E+02
 11
2.52500000E+01
 21
2.01658440E+02
  0
LINE
  8
0
 62
4
 10
2.67500000E+01
 20
2.01346044E+02
 11
2.52500000E+01
 21
2.02353032E+02
  0
LINE
  8
0
 62
4
 10
2.52500000E+01
 20
2.02353032E+02
 11
1.44000000E+01
 21
2.02353032E+02
  0
LINE
  8
0
 62
4
 10
2.52500000E+01
 20
2.01658440E+02
 11
1.44000000E+01
 21
2.01658440E+02
  0
LINE
  8
0
 62
4
 10
2.52500000E+01
 20
2.01374654E+02
 11
2.52500000E+01
 21
2.02347084E+02
  0
POLYLINE
  8
0
 62
4
 66
1
  0
VERTEX
  8
0
 62
4
 10
6.55000001E+00
 20
2.01005754E+02
  0
VERTEX
  8
0
 62
4
 10
6.73181499E+00
 20
2.00949907E+02
  0
VERTEX
  8
0
 62
4
 10
6.94151224E+00
 20
2.00897088E+02
  0
VERTEX
  8
0
 62
4
 10
7.17742988E+00
 20
2.00847718E+02
  0
VERTEX
  8
0
 62
4
 10
7.43769820E+00
 20
2.00802186E+02
  0
VERTEX
  8
0
 62
4
 10
7.72025454E+00
 20
2.00760855E+02
  0
VERTEX
  8
0
 62
4
 10
8.02285959E+00
 20
2.00724050E+02
  0
VERTEX
  8
0
 62
4
 10
8.34311514E+00
 20
2.00692065E+02
  0
VERTEX
  8
0
 62
4
 10
8.67848311E+00
 20
2.00665152E+02
  0
VERTEX
  8
0
 62
4
 10
9.02630564E+00
 20
2.00643526E+02
  0
VERTEX
  8
0
 62
4
 10
9.38382618E+00
 20
2.00627356E+02
  0
VERTEX
  8
0
 62
4
 10
9.74821130E+00
 20
2.00616772E+02
  0
VERTEX
  8
0
 62
4
 10
1.01165732E+01
 20
2.00611858E+02
  0
VERTEX
  8
0
 62
4
 10
1.04859925E+01
 20
2.00612651E+02
  0
VERTEX
  8
0
 62
4
 10
1.08535416E+01
 20
2.00619147E+02
  0
VERTEX
  8
0
 62
4
 10
1.12163074E+01
 20
2.00631293E+02
  0
VERTEX
  8
0
 62
4
 10
1.15714151E+01
 20
2.00648993E+02
  0
VERTEX
  8
0
 62
4
 10
1.19160504E+01
 20
2.00672107E+02
  0
VERTEX
  8
0
 62
4
 10
1.22474818E+01
 20
2.00700452E+02
  0
VERTEX
  8
0
 62
4
 10
1.25630829E+01
 20
2.00733803E+02
  0
VERTEX
  8
0
 62
4
 10
1.28603523E+01
 20
2.00771896E+02
  0
VERTEX
  8
0
 62
4
 10
1.31369343E+01
 20
2.00814429E+02
  0
VERTEX
  8
0
 62
4
 10
1.33906367E+01
 20
2.00861064E+02
  0
VERTEX
  8
0
 62
4
 10
1.36194490E+01
 20
2.00911433E+02
  0
VERTEX
  8
0
 62
4
 10
1.38215578E+01
 20
2.00965136E+02
  0
VERTEX
  8
0
 62
4
 10
1.39953613E+01
 20
2.01021748E+02
  0
VERTEX
  8
0
 62
4
 10
1.41394821E+01
 20
2.01080819E+02
  0
VERTEX
  8
0
 62
4
 10
1.42527781E+01
 20
2.01141882E+02
  0
VERTEX
  8
0
 62
4
 10
1.43343513E+01
 20
2.01204452E+02
  0
VERTEX
  8
0
 62
4
 10
1.43835552E+01
 20
2.01268035E+02
  0
VERTEX
  8
0
 62
4
 10
1.44000000E+01
 20
2.01332125E+02
  0
SEQEND
  8
0
  0
ARC
  8
0
 62
4
 10
1.02422617E+01
 20
1.92175019E+02
 40
1.18100000E+01
 50
8.99624577E+01
 51
1.09675998E+02
  0
ARC
  8
0
 62
4
 10
1.02577383E+01
 20
1.92175019E+02
 40
1.18100000E+01
 50
7.03240015E+01
 51
9.00375421E+01
  0
LINE
  8
0
 62
4
 10
1.44000000E+01
 20
2.03060050E+02
 11
1.44000000E+01
 21
2.01332125E+02
  0
LINE
  8
0
 62
4
 10
6.09999999E+00
 20
2.03060050E+02
 11
6.09999999E+00
 21
2.02920941E+02
  0
LINE
  8
0
 62
4
 10
1.42500000E+01
 20
2.00957898E+02
 11
1.42500000E+01
 21
2.01140128E+02
  0
POLYLINE
  8
0
 62
4
 66
1
  0
VERTEX
  8
0
 62
4
 10
6.55000001E+00
 20
2.00693976E+02
  0
VERTEX
  8
0
 62
4
 10
6.69930798E+00
 20
2.00638056E+02
  0
VERTEX
  8
0
 62
4
 10
6.87657666E+00
 20
2.00584655E+02
  0
VERTEX
  8
0
 62
4
 10
7.08041011E+00
 20
2.00534193E+02
  0
VERTEX
  8
0
 62
4
 10
7.30920320E+00
 20
2.00487068E+02
  0
VERTEX
  8
0
 62
4
 10
7.56115425E+00
 20
2.00443650E+02
  0
VERTEX
  8
0
 62
4
 10
7.83427921E+00
 20
2.00404282E+02
  0
VERTEX
  8
0
 62
4
 10
8.12642730E+00
 20
2.00369273E+02
  0
VERTEX
  8
0
 62
4
 10
8.43529793E+00
 20
2.00338900E+02
  0
VERTEX
  8
0
 62
4
 10
8.75845884E+00
 20
2.00313401E+02
  0
VERTEX
  8
0
 62
4
 10
9.09336521E+00
 20
2.00292977E+02
  0
VERTEX
  8
0
 62
4
 10
9.43737977E+00
 20
2.00277790E+02
  0
VERTEX
  8
0
 62
4
 10
9.78779348E+00
 20
2.00267958E+02
  0
VERTEX
  8
0
 62
4
 10
1.01418469E+01
 20
2.00263559E+02
  0
VERTEX
  8
0
 62
4
 10
1.04967521E+01
 20
2.00264628E+02
  0
VERTEX
  8
0
 62
4
 10
1.08497141E+01
 20
2.00271156E+02
  0
VERTEX
  8
0
 62
4
 10
1.11979536E+01
 20
2.00283092E+02
  0
VERTEX
  8
0
 62
4
 10
1.15387281E+01
 20
2.00300343E+02
  0
VERTEX
  8
0
 62
4
 10
1.18693544E+01
 20
2.00322771E+02
  0
VERTEX
  8
0
 62
4
 10
1.21872286E+01
 20
2.00350200E+02
  0
VERTEX
  8
0
 62
4
 10
1.24898477E+01
 20
2.00382415E+02
  0
VERTEX
  8
0
 62
4
 10
1.27748286E+01
 20
2.00419162E+02
  0
VERTEX
  8
0
 62
4
 10
1.30399272E+01
 20
2.00460151E+02
  0
VERTEX
  8
0
 62
4
 10
1.32830559E+01
 20
2.00505060E+02
  0
VERTEX
  8
0
 62
4
 10
1.35023002E+01
 20
2.00553535E+02
  0
VERTEX
  8
0
 62
4
 10
1.36959334E+01
 20
2.00605194E+02
  0
VERTEX
  8
0
 62
4
 10
1.38624309E+01
 20
2.00659630E+02
  0
VERTEX
  8
0
 62
4
 10
1.40004816E+01
 20
2.00716415E+02
  0
VERTEX
  8
0
 62
4
 10
1.41089982E+01
 20
2.00775102E+02
  0
VERTEX
  8
0
 62
4
 10
1.41871263E+01
 20
2.00835229E+02
  0
VERTEX
  8
0
 62
4
 10
1.42342506E+01
 20
2.00896321E+02
  0
VERTEX
  8
0
 62
4
 10
1.42500000E+01
 20
2.00957898E+02
  0
SEQEND
  8
0
  0
ARC
  8
0
 62
4
 10
1.23686056E+01
 20
1.91473809E+02
 40
1.25124521E+01
 50
9.49416351E+01
 51
1.08095416E+02
  0
ARC
  8
0
 62
4
 10
8.13139416E+00
 20
1.91473807E+02
 40
1.25124547E+01
 50
7.19045858E+01
 51
8.50583647E+01
  0
POLYLINE
  8
0
 62
4
 66
1
  0
VERTEX
  8
0
 62
4
 10
6.09999999E+00
 20
2.03065387E+02
  0
VERTEX
  8
0
 62
4
 10
6.11670667E+00
 20
2.03000789E+02
  0
VERTEX
  8
0
 62
4
 10
6.16669219E+00
 20
2.02936712E+02
  0
VERTEX
  8
0
 62
4
 10
6.24955411E+00
 20
2.02873670E+02
  0
VERTEX
  8
0
 62
4
 10
6.36462527E+00
 20
2.02812172E+02
  0
VERTEX
  8
0
 62
4
 10
6.51097918E+00
 20
2.02752713E+02
  0
VERTEX
  8
0
 62
4
 10
6.68743749E+00
 20
2.02695771E+02
  0
VERTEX
  8
0
 62
4
 10
6.89257945E+00
 20
2.02641805E+02
  0
VERTEX
  8
0
 62
4
 10
7.12475340E+00
 20
2.02591250E+02
  0
VERTEX
  8
0
 62
4
 10
7.38208999E+00
 20
2.02544512E+02
  0
VERTEX
  8
0
 62
4
 10
7.66251730E+00
 20
2.02501968E+02
  0
VERTEX
  8
0
 62
4
 10
7.96377751E+00
 20
2.02463960E+02
  0
VERTEX
  8
0
 62
4
 10
8.28344503E+00
 20
2.02430795E+02
  0
VERTEX
  8
0
 62
4
 10
8.61894610E+00
 20
2.02402739E+02
  0
VERTEX
  8
0
 62
4
 10
8.96757945E+00
 20
2.02380018E+02
  0
VERTEX
  8
0
 62
4
 10
9.32653810E+00
 20
2.02362815E+02
  0
VERTEX
  8
0
 62
4
 10
9.69293192E+00
 20
2.02351269E+02
  0
VERTEX
  8
0
 62
4
 10
1.00638109E+01
 20
2.02345473E+02
  0
VERTEX
  8
0
 62
4
 10
1.04361890E+01
 20
2.02345473E+02
  0
VERTEX
  8
0
 62
4
 10
1.08070680E+01
 20
2.02351269E+02
  0
VERTEX
  8
0
 62
4
 10
1.11734619E+01
 20
2.02362815E+02
  0
VERTEX
  8
0
 62
4
 10
1.15324205E+01
 20
2.02380018E+02
  0
VERTEX
  8
0
 62
4
 10
1.18810539E+01
 20
2.02402739E+02
  0
VERTEX
  8
0
 62
4
 10
1.22165549E+01
 20
2.02430795E+02
  0
VERTEX
  8
0
 62
4
 10
1.25362225E+01
 20
2.02463960E+02
  0
VERTEX
  8
0
 62
4
 10
1.28374827E+01
 20
2.02501968E+02
  0
VERTEX
  8
0
 62
4
 10
1.31179100E+01
 20
2.02544512E+02
  0
VERTEX
  8
0
 62
4
 10
1.33752466E+01
 20
2.02591250E+02
  0
VERTEX
  8
0
 62
4
 10
1.36074205E+01
 20
2.02641805E+02
  0
VERTEX
  8
0
 62
4
 10
1.38125625E+01
 20
2.02695771E+02
  0
VERTEX
  8
0
 62
4
 10
1.39890208E+01
 20
2.02752713E+02
  0
VERTEX
  8
0
 62
4
 10
1.41353747E+01
 20
2.02812172E+02
  0
VERTEX
  8
0
 62
4
 10
1.42504459E+01
 20
2.02873670E+02
  0
VERTEX
  8
0
 62
4
 10
1.43333078E+01
 20
2.02936712E+02
  0
VERTEX
  8
0
 62
4
 10
1.43832933E+01
 20
2.03000789E+02
  0
VERTEX
  8
0
 62
4
 10
1.44000000E+01
 20
2.03065387E+02
  0
SEQEND
  8
0
  0
ARC
  8
0
 62
4
 10
1.41500000E+01
 20
2.03060050E+02
 40
2.50000000E-01
 50
0.00000000E+00
 51
7.03240015E+01
  0
ARC
  8
0
 62
4
 10
6.34999999E+00
 20
2.03060050E+02
 40
2.50000000E-01
 50
1.09675998E+02
 51
1.80000000E+02
  0
LINE
  8
0
 62
4
 10
6.55000000E+00
 20
2.01334937E+02
 11
6.55000000E+00
 21
2.00350130E+02
  0
LINE
  8
0
 62
4
 10
-1.05000000E+00
 20
2.01334937E+02
 11
-1.05000000E+00
 21
2.00350130E+02
  0
POLYLINE
  8
0
 62
4
 66
1
  0
VERTEX
  8
0
 62
4
 10
-1.05000000E+00
 20
2.00350130E+02
  0
VERTEX
  8
0
 62
4
 10
-1.03470232E+00
 20
2.00290980E+02
  0
VERTEX
  8
0
 62
4
 10
-9.88932439E-01
 20
2.00232307E+02
  0
VERTEX
  8
0
 62
4
 10
-9.13058875E-01
 20
2.00174582E+02
  0
VERTEX
  8
0
 62
4
 10
-8.07692514E-01
 20
2.00118271E+02
  0
VERTEX
  8
0
 62
4
 10
-6.73681705E-01
 20
2.00063826E+02
  0
VERTEX
  8
0
 62
4
 10
-5.12105424E-01
 20
2.00011687E+02
  0
VERTEX
  8
0
 62
4
 10
-3.24264588E-01
 20
1.99962272E+02
  0
VERTEX
  8
0
 62
4
 10
-1.11671582E-01
 20
1.99915981E+02
  0
VERTEX
  8
0
 62
4
 10
1.23961921E-01
 20
1.99873184E+02
  0
VERTEX
  8
0
 62
4
 10
3.80738739E-01
 20
1.99834228E+02
  0
VERTEX
  8
0
 62
4
 10
6.56591456E-01
 20
1.99799426E+02
  0
VERTEX
  8
0
 62
4
 10
9.49299066E-01
 20
1.99769058E+02
  0
VERTEX
  8
0
 62
4
 10
1.25650486E+00
 20
1.99743368E+02
  0
VERTEX
  8
0
 62
4
 10
1.57573540E+00
 20
1.99722563E+02
  0
VERTEX
  8
0
 62
4
 10
1.90442043E+00
 20
1.99706811E+02
  0
VERTEX
  8
0
 62
4
 10
2.23991357E+00
 20
1.99696239E+02
  0
VERTEX
  8
0
 62
4
 10
2.57951362E+00
 20
1.99690931E+02
  0
VERTEX
  8
0
 62
4
 10
2.92048633E+00
 20
1.99690931E+02
  0
VERTEX
  8
0
 62
4
 10
3.26008639E+00
 20
1.99696239E+02
  0
VERTEX
  8
0
 62
4
 10
3.59557953E+00
 20
1.99706811E+02
  0
VERTEX
  8
0
 62
4
 10
3.92426456E+00
 20
1.99722563E+02
  0
VERTEX
  8
0
 62
4
 10
4.24349510E+00
 20
1.99743368E+02
  0
VERTEX
  8
0
 62
4
 10
4.55070090E+00
 20
1.99769058E+02
  0
VERTEX
  8
0
 62
4
 10
4.84340851E+00
 20
1.99799426E+02
  0
VERTEX
  8
0
 62
4
 10
5.11926123E+00
 20
1.99834228E+02
  0
VERTEX
  8
0
 62
4
 10
5.37603805E+00
 20
1.99873184E+02
  0
VERTEX
  8
0
 62
4
 10
5.61167155E+00
 20
1.99915981E+02
  0
VERTEX
  8
0
 62
4
 10
5.82426456E+00
 20
1.99962272E+02
  0
VERTEX
  8
0
 62
4
 10
6.01210540E+00
 20
2.00011687E+02
  0
VERTEX
  8
0
 62
4
 10
6.17368169E+00
 20
2.00063826E+02
  0
VERTEX
  8
0
 62
4
 10
6.30769250E+00
 20
2.00118271E+02
  0
VERTEX
  8
0
 62
4
 10
6.41305886E+00
 20
2.00174582E+02
  0
VERTEX
  8
0
 62
4
 10
6.48893243E+00
 20
2.00232307E+02
  0
VERTEX
  8
0
 62
4
 10
6.53470231E+00
 20
2.00290980E+02
  0
VERTEX
  8
0
 62
4
 10
6.55000000E+00
 20
2.00350130E+02
  0
SEQEND
  8
0
  0
POLYLINE
  8
0
 62
4
 66
1
  0
VERTEX
  8
0
 62
4
 10
-6.50000007E-01
 20
2.01629628E+02
  0
VERTEX
  8
0
 62
4
 10
-7.86581672E-01
 20
2.01576339E+02
  0
VERTEX
  8
0
 62
4
 10
-8.95529537E-01
 20
2.01521163E+02
  0
VERTEX
  8
0
 62
4
 10
-9.75992316E-01
 20
2.01464533E+02
  0
VERTEX
  8
0
 62
4
 10
-1.02734130E+00
 20
2.01406890E+02
  0
VERTEX
  8
0
 62
4
 10
-1.04917525E+00
 20
2.01348684E+02
  0
VERTEX
  8
0
 62
4
 10
-1.04132358E+00
 20
2.01290371E+02
  0
VERTEX
  8
0
 62
4
 10
-1.00384763E+00
 20
2.01232407E+02
  0
VERTEX
  8
0
 62
4
 10
-9.37040224E-01
 20
2.01175244E+02
  0
VERTEX
  8
0
 62
4
 10
-8.41423382E-01
 20
2.01119328E+02
  0
VERTEX
  8
0
 62
4
 10
-7.17744224E-01
 20
2.01065097E+02
  0
VERTEX
  8
0
 62
4
 10
-5.66969141E-01
 20
2.01012975E+02
  0
VERTEX
  8
0
 62
4
 10
-3.90276244E-01
 20
2.00963368E+02
  0
VERTEX
  8
0
 62
4
 10
-1.89046161E-01
 20
2.00916664E+02
  0
VERTEX
  8
0
 62
4
 10
3.51487571E-02
 20
2.00873229E+02
  0
VERTEX
  8
0
 62
4
 10
2.80556718E-01
 20
2.00833402E+02
  0
VERTEX
  8
0
 62
4
 10
5.45260175E-01
 20
2.00797493E+02
  0
VERTEX
  8
0
 62
4
 10
8.27190816E-01
 20
2.00765784E+02
  0
VERTEX
  8
0
 62
4
 10
1.12414572E+00
 20
2.00738522E+02
  0
VERTEX
  8
0
 62
4
 10
1.43380456E+00
 20
2.00715920E+02
  0
VERTEX
  8
0
 62
4
 10
1.75374777E+00
 20
2.00698155E+02
  0
VERTEX
  8
0
 62
4
 10
2.08147539E+00
 20
2.00685366E+02
  0
VERTEX
  8
0
 62
4
 10
2.41442667E+00
 20
2.00677652E+02
  0
VERTEX
  8
0
 62
4
 10
2.75000002E+00
 20
2.00675074E+02
  0
VERTEX
  8
0
 62
4
 10
3.08557337E+00
 20
2.00677652E+02
  0
VERTEX
  8
0
 62
4
 10
3.41852464E+00
 20
2.00685366E+02
  0
VERTEX
  8
0
 62
4
 10
3.74625227E+00
 20
2.00698155E+02
  0
VERTEX
  8
0
 62
4
 10
4.06619547E+00
 20
2.00715920E+02
  0
VERTEX
  8
0
 62
4
 10
4.37585431E+00
 20
2.00738522E+02
  0
VERTEX
  8
0
 62
4
 10
4.67280921E+00
 20
2.00765784E+02
  0
VERTEX
  8
0
 62
4
 10
4.95473985E+00
 20
2.00797493E+02
  0
VERTEX
  8
0
 62
4
 10
5.21944331E+00
 20
2.00833402E+02
  0
VERTEX
  8
0
 62
4
 10
5.46485127E+00
 20
2.00873229E+02
  0
VERTEX
  8
0
 62
4
 10
5.68904618E+00
 20
2.00916664E+02
  0
VERTEX
  8
0
 62
4
 10
5.89027626E+00
 20
2.00963368E+02
  0
VERTEX
  8
0
 62
4
 10
6.06696916E+00
 20
2.01012975E+02
  0
VERTEX
  8
0
 62
4
 10
6.21774424E+00
 20
2.01065097E+02
  0
VERTEX
  8
0
 62
4
 10
6.34142339E+00
 20
2.01119328E+02
  0
VERTEX
  8
0
 62
4
 10
6.43704023E+00
 20
2.01175244E+02
  0
VERTEX
  8
0
 62
4
 10
6.50384763E+00
 20
2.01232407E+02
  0
VERTEX
  8
0
 62
4
 10
6.54132358E+00
 20
2.01290371E+02
  0
VERTEX
  8
0
 62
4
 10
6.54917525E+00
 20
2.01348684E+02
  0
VERTEX
  8
0
 62
4
 10
6.52734129E+00
 20
2.01406890E+02
  0
VERTEX
  8
0
 62
4
 10
6.47599231E+00
 20
2.01464533E+02
  0
VERTEX
  8
0
 62
4
 10
6.39552953E+00
 20
2.01521163E+02
  0
VERTEX
  8
0
 62
4
 10
6.28658166E+00
 20
2.01576339E+02
  0
VERTEX
  8
0
 62
4
 10
6.14999999E+00
 20
2.01629628E+02
  0
SEQEND
  8
0
  0
LINE
  8
0
 62
4
 10
6.15000000E+00
 20
2.02608690E+02
 11
6.15000000E+00
 21
2.01334937E+02
  0
LINE
  8
0
 62
4
 10
-6.50000000E-01
 20
2.02608690E+02
 11
-6.50000000E-01
 21
2.01334937E+02
  0
POLYLINE
  8
0
 62
4
 66
1
  0
VERTEX
  8
0
 62
4
 10
-6.50000000E-01
 20
2.01334937E+02
  0
VERTEX
  8
0
 62
4
 10
-6.36312601E-01
 20
2.01282014E+02
  0
VERTEX
  8
0
 62
4
 10
-5.95360604E-01
 20
2.01229516E+02
  0
VERTEX
  8
0
 62
4
 10
-5.27473730E-01
 20
2.01177868E+02
  0
VERTEX
  8
0
 62
4
 10
-4.33198565E-01
 20
2.01127484E+02
  0
VERTEX
  8
0
 62
4
 10
-3.13294157E-01
 20
2.01078770E+02
  0
VERTEX
  8
0
 62
4
 10
-1.68725906E-01
 20
2.01032119E+02
  0
VERTEX
  8
0
 62
4
 10
-6.57789484E-04
 20
2.00987906E+02
  0
VERTEX
  8
0
 62
4
 10
1.89557006E-01
 20
2.00946487E+02
  0
VERTEX
  8
0
 62
4
 10
4.00386982E-01
 20
2.00908196E+02
  0
VERTEX
  8
0
 62
4
 10
6.30134661E-01
 20
2.00873341E+02
  0
VERTEX
  8
0
 62
4
 10
8.76950250E-01
 20
2.00842202E+02
  0
VERTEX
  8
0
 62
4
 10
1.13884653E+00
 20
2.00815030E+02
  0
VERTEX
  8
0
 62
4
 10
1.41371488E+00
 20
2.00792044E+02
  0
VERTEX
  8
0
 62
4
 10
1.69934220E+00
 20
2.00773430E+02
  0
VERTEX
  8
0
 62
4
 10
1.99342881E+00
 20
2.00759336E+02
  0
VERTEX
  8
0
 62
4
 10
2.29360688E+00
 20
2.00749876E+02
  0
VERTEX
  8
0
 62
4
 10
2.59745956E+00
 20
2.00745128E+02
  0
VERTEX
  8
0
 62
4
 10
2.90254040E+00
 20
2.00745128E+02
  0
VERTEX
  8
0
 62
4
 10
3.20639309E+00
 20
2.00749876E+02
  0
VERTEX
  8
0
 62
4
 10
3.50657116E+00
 20
2.00759336E+02
  0
VERTEX
  8
0
 62
4
 10
3.80065776E+00
 20
2.00773430E+02
  0
VERTEX
  8
0
 62
4
 10
4.08628509E+00
 20
2.00792044E+02
  0
VERTEX
  8
0
 62
4
 10
4.36115343E+00
 20
2.00815030E+02
  0
VERTEX
  8
0
 62
4
 10
4.62304972E+00
 20
2.00842202E+02
  0
VERTEX
  8
0
 62
4
 10
4.86986531E+00
 20
2.00873341E+02
  0
VERTEX
  8
0
 62
4
 10
5.09961299E+00
 20
2.00908196E+02
  0
VERTEX
  8
0
 62
4
 10
5.31044297E+00
 20
2.00946487E+02
  0
VERTEX
  8
0
 62
4
 10
5.50065777E+00
 20
2.00987906E+02
  0
VERTEX
  8
0
 62
4
 10
5.66872589E+00
 20
2.01032119E+02
  0
VERTEX
  8
0
 62
4
 10
5.81329414E+00
 20
2.01078770E+02
  0
VERTEX
  8
0
 62
4
 10
5.93319855E+00
 20
2.01127484E+02
  0
VERTEX
  8
0
 62
4
 10
6.02747372E+00
 20
2.01177868E+02
  0
VERTEX
  8
0
 62
4
 10
6.09536060E+00
 20
2.01229516E+02
  0
VERTEX
  8
0
 62
4
 10
6.13631260E+00
 20
2.01282014E+02
  0
VERTEX
  8
0
 62
4
 10
6.15000000E+00
 20
2.01334937E+02
  0
SEQEND
  8
0
  0
ARC
  8
0
 62
4
 10
2.75000000E+00
 20
1.92068476E+02
 40
1.18100000E+01
 50
7.71724899E+01
 51
1.02827510E+02
  0
ARC
  8
0
 62
4
 10
3.49999678E-01
 20
2.02608690E+02
 40
1.00000000E+00
 50
1.02827510E+02
 51
1.80000000E+02
  0
ARC
  8
0
 62
4
 10
5.15000032E+00
 20
2.02608690E+02
 40
1.00000000E+00
 50
3.60000000E+02
 51
7.71724899E+01
  0
ARC
  8
0
 62
4
 10
4.87175354E+00
 20
1.91349333E+02
 40
1.25306621E+01
 50
9.49686598E+01
 51
1.08083352E+02
  0
ARC
  8
0
 62
4
 10
6.28246403E-01
 20
1.91349333E+02
 40
1.25306626E+01
 50
7.19166483E+01
 51
8.50313400E+01
  0
LINE
  8
0
  6
CENTER
 62
6
 10
1.27500000E+01
 20
2.00957898E+02
 11
7.75000001E+00
 21
2.00957898E+02
  0
LINE
  8
0
  6
CENTER
 62
6
 10
2.75000000E+00
 20
1.97850130E+02
 11
2.75000000E+00
 21
2.02850130E+02
  0
LINE
  8
0
  6
CENTER
 62
6
 10
5.25000001E+00
 20
2.00350130E+02
 11
2.50000008E-01
 21
2.00350130E+02
  0
LINE
  8
0
  6
CENTER
 62
6
 10
1.77500000E+01
 20
1.97850130E+02
 11
1.77500000E+01
 21
2.02850130E+02
  0
LINE
  8
0
  6
CENTER
 62
6
 10
2.02500000E+01
 20
2.00350130E+02
 11
1.52500000E+01
 21
2.00350130E+02
  0
LINE
  8
0
 62
4
 10
-1.04311060E+00
 20
2.01374654E+02
 11
-4.75000000E+00
 21
2.01374654E+02
  0
LINE
  8
0
 62
7
 10
-4.87500000E+01
 20
2.35369434E+02
 11
-7.42500000E+01
 21
2.35369434E+02
  0
LINE
  8
0
 62
7
 10
-4.87500000E+01
 20
2.34519443E+02
 11
-7.42500000E+01
 21
2.34519443E+02
  0
LINE
  8
0
 62
7
 10
-4.87500000E+01
 20
2.29219456E+02
 11
-7.42500000E+01
 21
2.29219456E+02
  0
LINE
  8
0
 62
7
 10
-4.75000000E+00
 20
1.87519474E+02
 11
-7.42500000E+01
 21
1.87519474E+02
  0
LINE
  8
0
 62
7
 10
-4.75000000E+00
 20
1.82219486E+02
 11
-7.42500000E+01
 21
1.82219486E+02
  0
LINE
  8
0
 62
7
 10
-4.75000000E+00
 20
1.81369495E+02
 11
-7.42500000E+01
 21
1.81369495E+02
  0
POLYLINE
  8
0
 62
4
 66
1
  0
VERTEX
  8
0
 62
4
 10
-6.21465855E+01
 20
-1.82882114E+02
  0
VERTEX
  8
0
 62
4
 10
-6.21469441E+01
 20
-1.83174444E+02
  0
VERTEX
  8
0
 62
4
 10
-6.21214103E+01
 20
-1.83465691E+02
  0
VERTEX
  8
0
 62
4
 10
-6.20701786E+01
 20
-1.83753634E+02
  0
VERTEX
  8
0
 62
4
 10
-6.19936396E+01
 20
-1.84036079E+02
  0
VERTEX
  8
0
 62
4
 10
-6.18923766E+01
 20
-1.84310874E+02
  0
VERTEX
  8
0
 62
4
 10
-6.17671616E+01
 20
-1.84575922E+02
  0
VERTEX
  8
0
 62
4
 10
-6.16189488E+01
 20
-1.84829205E+02
  0
VERTEX
  8
0
 62
4
 10
-6.14488681E+01
 20
-1.85068792E+02
  0
VERTEX
  8
0
 62
4
 10
-6.12582159E+01
 20
-1.85292856E+02
  0
VERTEX
  8
0
 62
4
 10
-6.10484454E+01
 20
-1.85499689E+02
  0
VERTEX
  8
0
 62
4
 10
-6.08211555E+01
 20
-1.85687716E+02
  0
VERTEX
  8
0
 62
4
 10
-6.05780786E+01
 20
-1.85855502E+02
  0
VERTEX
  8
0
 62
4
 10
-6.03210676E+01
 20
-1.86001769E+02
  0
VERTEX
  8
0
 62
4
 10
-6.00520816E+01
 20
-1.86125402E+02
  0
VERTEX
  8
0
 62
4
 10
-5.97731707E+01
 20
-1.86225459E+02
  0
VERTEX
  8
0
 62
4
 10
-5.94864610E+01
 20
-1.86301176E+02
  0
VERTEX
  8
0
 62
4
 10
-5.91941379E+01
 20
-1.86351978E+02
  0
VERTEX
  8
0
 62
4
 10
-5.88984294E+01
 20
-1.86377476E+02
  0
VERTEX
  8
0
 62
4
 10
-5.86015896E+01
 20
-1.86377476E+02
  0
VERTEX
  8
0
 62
4
 10
-5.83058811E+01
 20
-1.86351978E+02
  0
VERTEX
  8
0
 62
4
 10
-5.80135579E+01
 20
-1.86301177E+02
  0
VERTEX
  8
0
 62
4
 10
-5.77268481E+01
 20
-1.86225459E+02
  0
VERTEX
  8
0
 62
4
 10
-5.74479372E+01
 20
-1.86125403E+02
  0
VERTEX
  8
0
 62
4
 10
-5.71789511E+01
 20
-1.86001770E+02
  0
VERTEX
  8
0
 62
4
 10
-5.69219400E+01
 20
-1.85855503E+02
  0
VERTEX
  8
0
 62
4
 10
-5.66788630E+01
 20
-1.85687717E+02
  0
VERTEX
  8
0
 62
4
 10
-5.64515730E+01
 20
-1.85499691E+02
  0
VERTEX
  8
0
 62
4
 10
-5.62418023E+01
 20
-1.85292858E+02
  0
VERTEX
  8
0
 62
4
 10
-5.60511499E+01
 20
-1.85068794E+02
  0
VERTEX
  8
0
 62
4
 10
-5.58810691E+01
 20
-1.84829207E+02
  0
VERTEX
  8
0
 62
4
 10
-5.57328561E+01
 20
-1.84575924E+02
  0
VERTEX
  8
0
 62
4
 10
-5.56076409E+01
 20
-1.84310876E+02
  0
VERTEX
  8
0
 62
4
 10
-5.55063777E+01
 20
-1.84036081E+02
  0
VERTEX
  8
0
 62
4
 10
-5.54298385E+01
 20
-1.83753636E+02
  0
VERTEX
  8
0
 62
4
 10
-5.53786066E+01
 20
-1.83465693E+02
  0
VERTEX
  8
0
 62
4
 10
-5.53530726E+01
 20
-1.83174446E+02
  0
VERTEX
  8
0
 62
4
 10
-5.53534310E+01
 20
-1.82882117E+02
  0
SEQEND
  8
0
  0
POLYLINE
  8
0
 62
4
 66
1
  0
VERTEX
  8
0
 62
4
 10
-6.27500081E+01
 20
-1.83032229E+02
  0
VERTEX
  8
0
 62
4
 10
-6.27347948E+01
 20
-1.83375556E+02
  0
VERTEX
  8
0
 62
4
 10
-6.26892548E+01
 20
-1.83716271E+02
  0
VERTEX
  8
0
 62
4
 10
-6.26137348E+01
 20
-1.84051780E+02
  0
VERTEX
  8
0
 62
4
 10
-6.25088095E+01
 20
-1.84379531E+02
  0
VERTEX
  8
0
 62
4
 10
-6.23752775E+01
 20
-1.84697029E+02
  0
VERTEX
  8
0
 62
4
 10
-6.22141550E+01
 20
-1.85001857E+02
  0
VERTEX
  8
0
 62
4
 10
-6.20266682E+01
 20
-1.85291696E+02
  0
VERTEX
  8
0
 62
4
 10
-6.18142440E+01
 20
-1.85564339E+02
  0
VERTEX
  8
0
 62
4
 10
-6.15784992E+01
 20
-1.85817713E+02
  0
VERTEX
  8
0
 62
4
 10
-6.13212279E+01
 20
-1.86049888E+02
  0
VERTEX
  8
0
 62
4
 10
-6.10443880E+01
 20
-1.86259097E+02
  0
VERTEX
  8
0
 62
4
 10
-6.07500865E+01
 20
-1.86443749E+02
  0
VERTEX
  8
0
 62
4
 10
-6.04405632E+01
 20
-1.86602438E+02
  0
VERTEX
  8
0
 62
4
 10
-6.01181737E+01
 20
-1.86733956E+02
  0
VERTEX
  8
0
 62
4
 10
-5.97853717E+01
 20
-1.86837302E+02
  0
VERTEX
  8
0
 62
4
 10
-5.94446899E+01
 20
-1.86911690E+02
  0
VERTEX
  8
0
 62
4
 10
-5.90987212E+01
 20
-1.86956554E+02
  0
VERTEX
  8
0
 62
4
 10
-5.87500986E+01
 20
-1.86971552E+02
  0
VERTEX
  8
0
 62
4
 10
-5.84014753E+01
 20
-1.86956570E+02
  0
VERTEX
  8
0
 62
4
 10
-5.80555045E+01
 20
-1.86911722E+02
  0
VERTEX
  8
0
 62
4
 10
-5.77148193E+01
 20
-1.86837350E+02
  0
VERTEX
  8
0
 62
4
 10
-5.73820126E+01
 20
-1.86734019E+02
  0
VERTEX
  8
0
 62
4
 10
-5.70596171E+01
 20
-1.86602516E+02
  0
VERTEX
  8
0
 62
4
 10
-5.67500865E+01
 20
-1.86443841E+02
  0
VERTEX
  8
0
 62
4
 10
-5.64557765E+01
 20
-1.86259203E+02
  0
VERTEX
  8
0
 62
4
 10
-5.61789270E+01
 20
-1.86050006E+02
  0
VERTEX
  8
0
 62
4
 10
-5.59216450E+01
 20
-1.85817843E+02
  0
VERTEX
  8
0
 62
4
 10
-5.56858885E+01
 20
-1.85564480E+02
  0
VERTEX
  8
0
 62
4
 10
-5.54734518E+01
 20
-1.85291846E+02
  0
VERTEX
  8
0
 62
4
 10
-5.52859517E+01
 20
-1.85002016E+02
  0
VERTEX
  8
0
 62
4
 10
-5.51248152E+01
 20
-1.84697195E+02
  0
VERTEX
  8
0
 62
4
 10
-5.49912686E+01
 20
-1.84379704E+02
  0
VERTEX
  8
0
 62
4
 10
-5.48863282E+01
 20
-1.84051958E+02
  0
VERTEX
  8
0
 62
4
 10
-5.48107928E+01
 20
-1.83716452E+02
  0
VERTEX
  8
0
 62
4
 10
-5.47652372E+01
 20
-1.83375739E+02
  0
VERTEX
  8
0
 62
4
 10
-5.47500081E+01
 20
-1.83032413E+02
  0
VERTEX
  8
0
 62
4
 10
-5.47652214E+01
 20
-1.82689086E+02
  0
VERTEX
  8
0
 62
4
 10
-5.48107614E+01
 20
-1.82348371E+02
  0
VERTEX
  8
0
 62
4
 10
-5.48862814E+01
 20
-1.82012862E+02
  0
VERTEX
  8
0
 62
4
 10
-5.49912067E+01
 20
-1.81685111E+02
  0
VERTEX
  8
0
 62
4
 10
-5.51247387E+01
 20
-1.81367613E+02
  0
VERTEX
  8
0
 62
4
 10
-5.52858612E+01
 20
-1.81062785E+02
  0
VERTEX
  8
0
 62
4
 10
-5.54733480E+01
 20
-1.80772946E+02
  0
VERTEX
  8
0
 62
4
 10
-5.56857722E+01
 20
-1.80500303E+02
  0
VERTEX
  8
0
 62
4
 10
-5.59215170E+01
 20
-1.80246929E+02
  0
VERTEX
  8
0
 62
4
 10
-5.61787883E+01
 20
-1.80014754E+02
  0
VERTEX
  8
0
 62
4
 10
-5.64556282E+01
 20
-1.79805545E+02
  0
VERTEX
  8
0
 62
4
 10
-5.67499297E+01
 20
-1.79620893E+02
  0
VERTEX
  8
0
 62
4
 10
-5.70594530E+01
 20
-1.79462204E+02
  0
VERTEX
  8
0
 62
4
 10
-5.73818425E+01
 20
-1.79330686E+02
  0
VERTEX
  8
0
 62
4
 10
-5.77146445E+01
 20
-1.79227340E+02
  0
VERTEX
  8
0
 62
4
 10
-5.80553263E+01
 20
-1.79152952E+02
  0
VERTEX
  8
0
 62
4
 10
-5.84012950E+01
 20
-1.79108088E+02
  0
VERTEX
  8
0
 62
4
 10
-5.87499176E+01
 20
-1.79093090E+02
  0
VERTEX
  8
0
 62
4
 10
-5.90985409E+01
 20
-1.79108072E+02
  0
VERTEX
  8
0
 62
4
 10
-5.94445117E+01
 20
-1.79152920E+02
  0
VERTEX
  8
0
 62
4
 10
-5.97851969E+01
 20
-1.79227292E+02
  0
VERTEX
  8
0
 62
4
 10
-6.01180036E+01
 20
-1.79330623E+02
  0
VERTEX
  8
0
 62
4
 10
-6.04403991E+01
 20
-1.79462126E+02
  0
VERTEX
  8
0
 62
4
 10
-6.07499297E+01
 20
-1.79620801E+02
  0
VERTEX
  8
0
 62
4
 10
-6.10442397E+01
 20
-1.79805439E+02
  0
VERTEX
  8
0
 62
4
 10
-6.13210892E+01
 20
-1.80014636E+02
  0
VERTEX
  8
0
 62
4
 10
-6.15783712E+01
 20
-1.80246799E+02
  0
VERTEX
  8
0
 62
4
 10
-6.18141277E+01
 20
-1.80500162E+02
  0
VERTEX
  8
0
 62
4
 10
-6.20265644E+01
 20
-1.80772796E+02
  0
VERTEX
  8
0
 62
4
 10
-6.22140645E+01
 20
-1.81062626E+02
  0
VERTEX
  8
0
 62
4
 10
-6.23752010E+01
 20
-1.81367447E+02
  0
VERTEX
  8
0
 62
4
 10
-6.25087476E+01
 20
-1.81684938E+02
  0
VERTEX
  8
0
 62
4
 10
-6.26136880E+01
 20
-1.82012684E+02
  0
VERTEX
  8
0
 62
4
 10
-6.26892234E+01
 20
-1.82348190E+02
  0
VERTEX
  8
0
 62
4
 10
-6.27347790E+01
 20
-1.82688903E+02
  0
VERTEX
  8
0
 62
4
 10
-6.27500081E+01
 20
-1.83032229E+02
  0
SEQEND
  8
0
  0
POLYLINE
  8
0
 62
4
 66
1
  0
VERTEX
  8
0
 62
4
 10
-6.21500083E+01
 20
-1.82731832E+02
  0
VERTEX
  8
0
 62
4
 10
-6.21370770E+01
 20
-1.83023660E+02
  0
VERTEX
  8
0
 62
4
 10
-6.20983680E+01
 20
-1.83313267E+02
  0
VERTEX
  8
0
 62
4
 10
-6.20341760E+01
 20
-1.83598450E+02
  0
VERTEX
  8
0
 62
4
 10
-6.19449895E+01
 20
-1.83877039E+02
  0
VERTEX
  8
0
 62
4
 10
-6.18314873E+01
 20
-1.84146912E+02
  0
VERTEX
  8
0
 62
4
 10
-6.16945331E+01
 20
-1.84406016E+02
  0
VERTEX
  8
0
 62
4
 10
-6.15351694E+01
 20
-1.84652379E+02
  0
VERTEX
  8
0
 62
4
 10
-6.13546089E+01
 20
-1.84884126E+02
  0
VERTEX
  8
0
 62
4
 10
-6.11542257E+01
 20
-1.85099493E+02
  0
VERTEX
  8
0
 62
4
 10
-6.09355451E+01
 20
-1.85296842E+02
  0
VERTEX
  8
0
 62
4
 10
-6.07002312E+01
 20
-1.85474670E+02
  0
VERTEX
  8
0
 62
4
 10
-6.04500749E+01
 20
-1.85631624E+02
  0
VERTEX
  8
0
 62
4
 10
-6.01869801E+01
 20
-1.85766509E+02
  0
VERTEX
  8
0
 62
4
 10
-5.99129491E+01
 20
-1.85878300E+02
  0
VERTEX
  8
0
 62
4
 10
-5.96300674E+01
 20
-1.85966144E+02
  0
VERTEX
  8
0
 62
4
 10
-5.93404879E+01
 20
-1.86029374E+02
  0
VERTEX
  8
0
 62
4
 10
-5.90464145E+01
 20
-1.86067508E+02
  0
VERTEX
  8
0
 62
4
 10
-5.87500852E+01
 20
-1.86080256E+02
  0
VERTEX
  8
0
 62
4
 10
-5.84537554E+01
 20
-1.86067522E+02
  0
VERTEX
  8
0
 62
4
 10
-5.81596802E+01
 20
-1.86029401E+02
  0
VERTEX
  8
0
 62
4
 10
-5.78700978E+01
 20
-1.85966184E+02
  0
VERTEX
  8
0
 62
4
 10
-5.75872121E+01
 20
-1.85878353E+02
  0
VERTEX
  8
0
 62
4
 10
-5.73131759E+01
 20
-1.85766575E+02
  0
VERTEX
  8
0
 62
4
 10
-5.70500749E+01
 20
-1.85631702E+02
  0
VERTEX
  8
0
 62
4
 10
-5.67999114E+01
 20
-1.85474760E+02
  0
VERTEX
  8
0
 62
4
 10
-5.65645894E+01
 20
-1.85296942E+02
  0
VERTEX
  8
0
 62
4
 10
-5.63458996E+01
 20
-1.85099604E+02
  0
VERTEX
  8
0
 62
4
 10
-5.61455066E+01
 20
-1.84884245E+02
  0
VERTEX
  8
0
 62
4
 10
-5.59649355E+01
 20
-1.84652507E+02
  0
VERTEX
  8
0
 62
4
 10
-5.58055604E+01
 20
-1.84406151E+02
  0
VERTEX
  8
0
 62
4
 10
-5.56685943E+01
 20
-1.84147053E+02
  0
VERTEX
  8
0
 62
4
 10
-5.55550797E+01
 20
-1.83877185E+02
  0
VERTEX
  8
0
 62
4
 10
-5.54658804E+01
 20
-1.83598601E+02
  0
VERTEX
  8
0
 62
4
 10
-5.54016753E+01
 20
-1.83313421E+02
  0
VERTEX
  8
0
 62
4
 10
-5.53629530E+01
 20
-1.83023815E+02
  0
VERTEX
  8
0
 62
4
 10
-5.53500083E+01
 20
-1.82731988E+02
  0
VERTEX
  8
0
 62
4
 10
-5.53629396E+01
 20
-1.82440160E+02
  0
VERTEX
  8
0
 62
4
 10
-5.54016486E+01
 20
-1.82150553E+02
  0
VERTEX
  8
0
 62
4
 10
-5.54658406E+01
 20
-1.81865370E+02
  0
VERTEX
  8
0
 62
4
 10
-5.55550271E+01
 20
-1.81586781E+02
  0
VERTEX
  8
0
 62
4
 10
-5.56685293E+01
 20
-1.81316908E+02
  0
VERTEX
  8
0
 62
4
 10
-5.58054835E+01
 20
-1.81057804E+02
  0
VERTEX
  8
0
 62
4
 10
-5.59648472E+01
 20
-1.80811441E+02
  0
VERTEX
  8
0
 62
4
 10
-5.61454078E+01
 20
-1.80579694E+02
  0
VERTEX
  8
0
 62
4
 10
-5.63457909E+01
 20
-1.80364327E+02
  0
VERTEX
  8
0
 62
4
 10
-5.65644715E+01
 20
-1.80166978E+02
  0
VERTEX
  8
0
 62
4
 10
-5.67997854E+01
 20
-1.79989150E+02
  0
VERTEX
  8
0
 62
4
 10
-5.70499417E+01
 20
-1.79832196E+02
  0
VERTEX
  8
0
 62
4
 10
-5.73130365E+01
 20
-1.79697311E+02
  0
VERTEX
  8
0
 62
4
 10
-5.75870675E+01
 20
-1.79585520E+02
  0
VERTEX
  8
0
 62
4
 10
-5.78699493E+01
 20
-1.79497676E+02
  0
VERTEX
  8
0
 62
4
 10
-5.81595287E+01
 20
-1.79434446E+02
  0
VERTEX
  8
0
 62
4
 10
-5.84536022E+01
 20
-1.79396312E+02
  0
VERTEX
  8
0
 62
4
 10
-5.87499314E+01
 20
-1.79383564E+02
  0
VERTEX
  8
0
 62
4
 10
-5.90462612E+01
 20
-1.79396298E+02
  0
VERTEX
  8
0
 62
4
 10
-5.93403364E+01
 20
-1.79434419E+02
  0
VERTEX
  8
0
 62
4
 10
-5.96299188E+01
 20
-1.79497636E+02
  0
VERTEX
  8
0
 62
4
 10
-5.99128045E+01
 20
-1.79585467E+02
  0
VERTEX
  8
0
 62
4
 10
-6.01868407E+01
 20
-1.79697245E+02
  0
VERTEX
  8
0
 62
4
 10
-6.04499417E+01
 20
-1.79832118E+02
  0
VERTEX
  8
0
 62
4
 10
-6.07001052E+01
 20
-1.79989060E+02
  0
VERTEX
  8
0
 62
4
 10
-6.09354273E+01
 20
-1.80166878E+02
  0
VERTEX
  8
0
 62
4
 10
-6.11541170E+01
 20
-1.80364216E+02
  0
VERTEX
  8
0
 62
4
 10
-6.13545100E+01
 20
-1.80579575E+02
  0
VERTEX
  8
0
 62
4
 10
-6.15350811E+01
 20
-1.80811313E+02
  0
VERTEX
  8
0
 62
4
 10
-6.16944562E+01
 20
-1.81057669E+02
  0
VERTEX
  8
0
 62
4
 10
-6.18314223E+01
 20
-1.81316767E+02
  0
VERTEX
  8
0
 62
4
 10
-6.19449369E+01
 20
-1.81586635E+02
  0
VERTEX
  8
0
 62
4
 10
-6.20341362E+01
 20
-1.81865219E+02
  0
VERTEX
  8
0
 62
4
 10
-6.20983413E+01
 20
-1.82150399E+02
  0
VERTEX
  8
0
 62
4
 10
-6.21370636E+01
 20
-1.82440005E+02
  0
VERTEX
  8
0
 62
4
 10
-6.21500083E+01
 20
-1.82731832E+02
  0
SEQEND
  8
0
  0
LINE
  8
0
 62
4
 10
-6.77499951E+01
 20
-1.95746796E+02
 11
-3.47499951E+01
 21
-1.95746772E+02
  0
LINE
  8
0
 62
4
 10
-3.17499994E+01
 20
-1.90505176E+02
 11
-3.47499951E+01
 21
-1.94965356E+02
  0
LINE
  8
0
 62
4
 10
-6.77499952E+01
 20
-1.94965379E+02
 11
-7.07499994E+01
 21
-1.90505204E+02
  0
LINE
  8
0
 62
4
 10
-3.47499951E+01
 20
-1.98557736E+02
 11
-3.47499951E+01
 21
-1.94965356E+02
  0
LINE
  8
0
 62
4
 10
-6.77499951E+01
 20
-1.98557736E+02
 11
-6.77499951E+01
 21
-1.94965379E+02
  0
LINE
  8
0
 62
4
 10
-6.77499951E+01
 20
-1.94965379E+02
 11
-3.47499951E+01
 21
-1.94965356E+02
  0
LINE
  8
0
 62
4
 10
-6.62500332E+01
 20
-1.47955090E+02
 11
-5.12500332E+01
 21
-1.47955079E+02
  0
LINE
  8
0
  6
CENTER
 62
6
 10
-5.87500039E+01
 20
-1.88911117E+02
 11
-5.87500131E+01
 21
-1.76111117E+02
  0
LINE
  8
0
  6
CENTER
 62
6
 10
-6.51500085E+01
 20
-1.82511122E+02
 11
-5.23500085E+01
 21
-1.82511113E+02
  0
LINE
  8
0
 62
4
 10
-6.82500158E+01
 20
-1.72227977E+02
 11
-4.92500158E+01
 21
-1.72227963E+02
  0
LINE
  8
0
 62
4
 10
-7.07500086E+01
 20
-1.77629088E+02
 11
-7.07499994E+01
 21
-1.90505204E+02
  0
LINE
  8
0
 62
4
 10
-6.82500158E+01
 20
-1.72227977E+02
 11
-6.82500131E+01
 21
-1.76129071E+02
  0
LINE
  8
0
 62
4
 10
-5.12500332E+01
 20
-1.47955079E+02
 11
-5.12500158E+01
 21
-1.72227977E+02
  0
LINE
  8
0
 62
4
 10
-6.62500332E+01
 20
-1.47955079E+02
 11
-6.62500158E+01
 21
-1.72227975E+02
  0
LINE
  8
0
 62
4
 10
-4.92500158E+01
 20
-1.72227977E+02
 11
-4.92500131E+01
 21
-1.76129072E+02
  0
LINE
  8
0
 62
4
 10
-6.62500163E+01
 20
-1.71590465E+02
 11
-5.12500163E+01
 21
-1.71590455E+02
  0
LINE
  8
0
 62
4
 10
-3.17500086E+01
 20
-1.77629060E+02
 11
-3.17499994E+01
 21
-1.90505176E+02
  0
LINE
  8
0
 62
4
 10
-7.07499994E+01
 20
-1.90505204E+02
 11
-3.17499994E+01
 21
-1.90505176E+02
  0
LINE
  8
0
 62
4
 10
-7.07500004E+01
 20
-1.89027992E+02
 11
-3.17500004E+01
 21
-1.89027964E+02
  0
LINE
  8
0
 62
4
 10
-6.92500096E+01
 20
-1.76129087E+02
 11
-3.32500096E+01
 21
-1.76129061E+02
  0
LINE
  8
0
 62
4
 10
-8.57500333E+01
 20
-1.47780229E+02
 11
-8.07500333E+01
 21
-1.47780225E+02
  0
LINE
  8
0
 62
4
 10
-8.57500315E+01
 20
-1.50344545E+02
 11
-8.07500315E+01
 21
-1.50344541E+02
  0
LINE
  8
0
 62
4
 10
-8.57500262E+01
 20
-1.57740451E+02
 11
-8.07500262E+01
 21
-1.57740448E+02
  0
LINE
  8
0
 62
4
 10
-8.57500227E+01
 20
-1.62562193E+02
 11
-8.07500227E+01
 21
-1.62562190E+02
  0
LINE
  8
0
 62
4
 10
-7.52500230E+01
 20
-1.62165149E+02
 11
-6.67500230E+01
 21
-1.62165143E+02
  0
LINE
  8
0
 62
4
 10
-6.62500330E+01
 20
-1.48165144E+02
 11
-7.52500330E+01
 21
-1.48165150E+02
  0
LINE
  8
0
 62
4
 10
-7.57500327E+01
 20
-1.48665151E+02
 11
-7.57500234E+01
 21
-1.61664641E+02
  0
LINE
  8
0
 62
4
 10
-8.57500333E+01
 20
-1.47780229E+02
 11
-8.57500227E+01
 21
-1.62562193E+02
  0
LINE
  8
0
 62
4
 10
-8.07500333E+01
 20
-1.47780225E+02
 11
-8.07500227E+01
 21
-1.62562193E+02
  0
LINE
  8
0
 62
4
 10
-8.07500325E+01
 20
-1.48915148E+02
 11
-7.57500325E+01
 21
-1.48915144E+02
  0
LINE
  8
0
 62
4
 10
-8.07500236E+01
 20
-1.61415148E+02
 11
-7.57500236E+01
 21
-1.61415144E+02
  0
LINE
  8
0
 62
4
 10
-7.92500325E+01
 20
-1.48915146E+02
 11
-7.92500236E+01
 21
-1.61415146E+02
  0
LINE
  8
0
 62
4
 10
-7.92500321E+01
 20
-1.49415146E+02
 11
-7.57500321E+01
 21
-1.49415144E+02
  0
LINE
  8
0
 62
4
 10
-7.92500239E+01
 20
-1.60915146E+02
 11
-7.57500239E+01
 21
-1.60915144E+02
  0
ARC
  8
0
 62
4
 10
-7.52505247E+01
 20
-1.48664658E+02
 40
4.99508251E-01
 50
8.99436074E+01
 51
1.80056475E+02
  0
ARC
  8
0
 62
4
 10
-6.67495154E+01
 20
-1.62664635E+02
 40
4.99492993E-01
 50
3.59941854E+02
 51
9.00582282E+01
  0
ARC
  8
0
 62
4
 10
-3.32495011E+01
 20
-1.77628553E+02
 40
1.49949266E+00
 50
3.59980652E+02
 51
9.00194298E+01
  0
ARC
  8
0
 62
4
 10
-7.52495156E+01
 20
-1.61664641E+02
 40
5.00508007E-01
 50
1.80058166E+02
 51
2.69941916E+02
  0
ARC
  8
0
 62
4
 10
-6.92505007E+01
 20
-1.77628594E+02
 40
1.49950792E+00
 50
8.99812358E+01
 51
1.80018846E+02
  0
LINE
  8
0
 62
6
 10
-6.04649432E+01
 20
-1.84446847E+02
 11
-5.70350735E+01
 21
-1.81016973E+02
  0
LINE
  8
0
 62
6
 10
-5.70350710E+01
 20
-1.84446845E+02
 11
-6.04649456E+01
 21
-1.81016975E+02
  0
LINE
  8
0
 62
4
 10
-2.93763019E+02
 20
-1.84070861E+02
 11
-2.86867905E+02
 21
-1.82855067E+02
  0
LINE
  8
0
 62
4
 10
-2.85884299E+02
 20
-1.91312757E+02
 11
-2.85391895E+02
 21
-1.91225933E+02
  0
LINE
  8
0
 62
4
 10
-2.86289879E+02
 20
-1.91891985E+02
 11
-2.85819840E+02
 21
-1.94557706E+02
  0
LINE
  8
0
 62
4
 10
-2.93763019E+02
 20
-1.84070861E+02
 11
-2.98123147E+02
 21
-1.96059040E+02
  0
LINE
  8
0
 62
4
 10
-2.87993011E+02
 20
-1.50559802E+02
 11
-2.83177301E+02
 21
-1.49710662E+02
  0
LINE
  8
0
 62
4
 10
-2.73220895E+02
 20
-1.47955079E+02
 11
-2.68879691E+02
 21
-1.72575273E+02
  0
LINE
  8
0
 62
4
 10
-2.87993011E+02
 20
-1.50559802E+02
 11
-2.83651807E+02
 21
-1.75179996E+02
  0
LINE
  8
0
 62
4
 10
-2.85621422E+02
 20
-1.75527292E+02
 11
-2.66910075E+02
 21
-1.72227977E+02
  0
LINE
  8
0
 62
4
 10
-2.83825455E+02
 20
-1.74195188E+02
 11
-2.69053339E+02
 21
-1.71590465E+02
  0
LINE
  8
0
 62
4
 10
-2.66910075E+02
 20
-1.72227977E+02
 11
-2.66215482E+02
 21
-1.76167208E+02
  0
LINE
  8
0
 62
4
 10
-2.85621422E+02
 20
-1.75527292E+02
 11
-2.84926830E+02
 21
-1.79466523E+02
  0
LINE
  8
0
 62
4
 10
-2.84926830E+02
 20
-1.79466523E+02
 11
-2.66215482E+02
 21
-1.76167208E+02
  0
LINE
  8
0
 62
4
 10
-2.84131621E+02
 20
-1.94557706E+02
 11
-2.61148740E+02
 21
-1.90505204E+02
  0
LINE
  8
0
 62
4
 10
-2.63319343E+02
 20
-1.78195107E+02
 11
-2.61148740E+02
 21
-1.90505204E+02
  0
LINE
  8
0
 62
4
 10
-2.86954729E+02
 20
-1.82362663E+02
 11
-2.84804414E+02
 21
-1.94557706E+02
  0
LINE
  8
0
 62
4
 10
-2.61148740E+02
 20
-1.90505204E+02
 11
-2.63202016E+02
 21
-1.94557706E+02
  0
LINE
  8
0
 62
4
 10
-2.85044599E+02
 20
-1.93195548E+02
 11
-2.61409213E+02
 21
-1.89027992E+02
  0
LINE
  8
0
 62
4
 10
-2.76151586E+02
 20
-1.86042624E+02
 11
-2.72212355E+02
 21
-1.85348031E+02
  0
LINE
  8
0
 62
4
 10
-2.75717466E+02
 20
-1.88504643E+02
 11
-2.71778235E+02
 21
-1.87810050E+02
  0
LINE
  8
0
 62
4
 10
-2.76151586E+02
 20
-1.86042624E+02
 11
-2.75717466E+02
 21
-1.88504643E+02
  0
LINE
  8
0
 62
4
 10
-2.72212355E+02
 20
-1.85348031E+02
 11
-2.71778235E+02
 21
-1.87810050E+02
  0
LINE
  8
0
 62
4
 10
-2.78260966E+02
 20
-1.62562193E+02
 11
-2.72510897E+02
 21
-1.57740451E+02
  0
LINE
  8
0
 62
4
 10
-2.86617495E+02
 20
-1.52601971E+02
 11
-2.80867426E+02
 21
-1.47780229E+02
  0
LINE
  8
0
 62
4
 10
-2.86617495E+02
 20
-1.52601971E+02
 11
-2.85313397E+02
 21
-1.59997877E+02
  0
LINE
  8
0
 62
4
 10
-2.73814994E+02
 20
-1.50344545E+02
 11
-2.72510897E+02
 21
-1.57740451E+02
  0
LINE
  8
0
 62
4
 10
-2.85313397E+02
 20
-1.59997877E+02
 11
-2.78260966E+02
 21
-1.62562193E+02
  0
LINE
  8
0
 62
4
 10
-2.80867426E+02
 20
-1.47780229E+02
 11
-2.73814994E+02
 21
-1.50344545E+02
  0
LINE
  8
0
 62
4
 10
-2.78046453E+02
 20
-1.48805955E+02
 11
-2.73220895E+02
 21
-1.47955079E+02
  0
LINE
  8
0
 62
4
 10
-2.63145694E+02
 20
-1.79179914E+02
 11
-2.62653291E+02
 21
-1.79093090E+02
  0
LINE
  8
0
 62
4
 10
-2.61756509E+02
 20
-1.87058376E+02
 11
-2.61264105E+02
 21
-1.86971552E+02
  0
LINE
  8
0
 62
4
 10
-2.62549102E+02
 20
-1.79683975E+02
 11
-2.60845384E+02
 21
-1.79383564E+02
  0
LINE
  8
0
 62
4
 10
-2.59664577E+02
 20
-1.86080256E+02
 11
-2.61368294E+02
 21
-1.86380668E+02
  0
LINE
  8
0
  6
CENTER
 62
6
 10
-2.93403609E+02
 20
-1.88576908E+02
 11
-2.56049851E+02
 21
-1.81990432E+02
  0
LINE
  8
0
 62
4
 10
-2.62653291E+02
 20
-1.79093090E+02
 11
-2.61264105E+02
 21
-1.86971552E+02
  0
ARC
  8
0
 62
4
 10
-2.85797474E+02
 20
-1.91805161E+02
 40
5.00000533E-01
 50
1.00000061E+02
 51
1.89999939E+02
  0
ARC
  8
0
 62
4
 10
-2.70634864E+02
 20
-1.84540514E+02
 40
1.18077645E+01
 50
3.57024145E+02
 51
2.27266957E+01
  0
ARC
  8
0
 62
4
 10
-2.84492688E+02
 20
-1.81928557E+02
 40
2.50001831E+00
 50
1.00000420E+02
 51
1.89999580E+02
  0
ARC
  8
0
 62
4
 10
-2.65780563E+02
 20
-1.78628087E+02
 40
2.49901570E+00
 50
9.97742809E+00
 51
1.00022572E+02
  0
CIRCLE
  8
0
 62
4
 10
-2.79564251E+02
 20
-1.55165144E+02
 40
3.75000000E+00
  0
ARC
  8
0
 62
4
 10
-2.59839919E+02
 20
-1.85097291E+02
 40
9.98481423E-01
 50
2.80114125E+02
 51
3.56771982E+02
  0
ARC
  8
0
 62
4
 10
-2.60674763E+02
 20
-1.80364955E+02
 40
9.96112687E-01
 50
2.25301420E+01
 51
9.98626848E+01
  0
ARC
  8
0
 62
4
 10
-2.79564251E+02
 20
-1.55165144E+02
 40
7.00000000E+00
 50
6.89816399E+01
 51
9.19142837E+01
  0
ARC
  8
0
 62
4
 10
-2.79564251E+02
 20
-1.55165144E+02
 40
7.00000000E+00
 50
1.08107658E+02
 51
1.31018360E+02
  0
LINE
  8
0
  6
CENTER
 62
6
 10
-2.62309982E+02
 20
-1.94557706E+02
 11
-2.62371033E+02
 21
-1.94546941E+02
  0
LINE
  8
0
 62
4
 10
-2.98749969E+02
 20
-1.97782488E+02
 11
-2.99568111E+02
 21
-2.00031970E+02
  0
LINE
  8
0
 62
4
 10
-2.99568111E+02
 20
-2.00031970E+02
 11
-2.98749969E+02
 21
-2.04671883E+02
  0
LINE
  8
0
  6
CENTER
 62
6
 10
-3.01989848E+02
 20
-2.05819851E+02
 11
-2.98749969E+02
 21
-2.05248573E+02
  0
LINE
  8
0
 62
6
 10
-3.00515457E+02
 20
-2.07083016E+02
 11
-2.98749969E+02
 21
-2.06771713E+02
  0
LINE
  8
0
 62
4
 10
-3.00136681E+02
 20
-2.03472389E+02
 11
-2.98996909E+02
 21
-2.03271417E+02
  0
LINE
  8
0
 62
4
 10
-2.99443825E+02
 20
-2.07401772E+02
 11
-2.98749969E+02
 21
-2.07279427E+02
  0
LINE
  8
0
 62
4
 10
-3.01076340E+02
 20
-2.03902087E+02
 11
-3.00473781E+02
 21
-2.07319370E+02
  0
LINE
  8
0
 62
4
 10
-3.00136681E+02
 20
-2.03472389E+02
 11
-3.01076340E+02
 21
-2.03902087E+02
  0
LINE
  8
0
 62
4
 10
-2.99443825E+02
 20
-2.07401772E+02
 11
-3.00473781E+02
 21
-2.07319370E+02
  0
LINE
  8
0
 62
6
 10
-3.01036401E+02
 20
-2.04128593E+02
 11
-2.98911822E+02
 21
-2.03753972E+02
  0
LINE
  8
0
 62
4
 10
1.07607440E+02
 20
-1.84070861E+02
 11
1.11967569E+02
 21
-1.96059040E+02
  0
LINE
  8
0
  6
CENTER
 62
6
 10
1.07248031E+02
 20
-1.88576908E+02
 11
6.98942727E+01
 21
-1.81990432E+02
  0
LINE
  8
0
 62
4
 10
8.64969297E+01
 20
-1.76286802E+02
 11
9.26815224E+01
 21
-1.77377313E+02
  0
LINE
  8
0
 62
4
 10
9.26815224E+01
 20
-1.77377313E+02
 11
9.28624050E+01
 21
-1.78424634E+02
  0
LINE
  8
0
 62
4
 10
8.59687507E+01
 20
-1.77209097E+02
 11
8.64969297E+01
 21
-1.76286802E+02
  0
LINE
  8
0
  6
CENTER
 62
6
 10
8.99776265E+01
 20
-1.74629329E+02
 11
8.91568420E+01
 21
-1.79284229E+02
  0
ARC
  8
0
 62
4
 10
7.45191840E+01
 20
-1.80364955E+02
 40
9.96112687E-01
 50
8.01373150E+01
 51
1.57469858E+02
  0
ARC
  8
0
 62
4
 10
7.36843408E+01
 20
-1.85097291E+02
 40
9.98481423E-01
 50
1.83228018E+02
 51
2.59885875E+02
  0
ARC
  8
0
 62
4
 10
7.96249848E+01
 20
-1.78628087E+02
 40
2.49901570E+00
 50
7.99774282E+01
 51
1.70022572E+02
  0
ARC
  8
0
 62
4
 10
9.83371095E+01
 20
-1.81928557E+02
 40
2.50001831E+00
 50
3.50000420E+02
 51
7.99995805E+01
  0
ARC
  8
0
 62
4
 10
8.44792853E+01
 20
-1.84540514E+02
 40
1.18077645E+01
 50
1.57273305E+02
 51
1.82975855E+02
  0
ARC
  8
0
 62
4
 10
9.96418956E+01
 20
-1.91805161E+02
 40
5.00000533E-01
 50
3.50000061E+02
 51
7.99999392E+01
  0
LINE
  8
0
 62
4
 10
7.64977119E+01
 20
-1.79093090E+02
 11
7.51085265E+01
 21
-1.86971552E+02
  0
LINE
  8
0
 62
4
 10
7.35089980E+01
 20
-1.86080256E+02
 11
7.52127154E+01
 21
-1.86380668E+02
  0
LINE
  8
0
 62
4
 10
7.63935230E+01
 20
-1.79683975E+02
 11
7.46898056E+01
 21
-1.79383564E+02
  0
LINE
  8
0
 62
4
 10
7.56009304E+01
 20
-1.87058376E+02
 11
7.51085265E+01
 21
-1.86971552E+02
  0
LINE
  8
0
 62
4
 10
7.69901158E+01
 20
-1.79179914E+02
 11
7.64977119E+01
 21
-1.79093090E+02
  0
LINE
  8
0
 62
4
 10
9.47118469E+01
 20
-1.47780229E+02
 11
9.36425267E+01
 21
-1.48169042E+02
  0
LINE
  8
0
 62
4
 10
9.55837340E+01
 20
-1.48511353E+02
 11
9.47118469E+01
 21
-1.47780229E+02
  0
LINE
  8
0
 62
4
 10
8.60567766E+01
 20
-1.85348031E+02
 11
8.56226561E+01
 21
-1.87810050E+02
  0
LINE
  8
0
 62
4
 10
8.99960076E+01
 20
-1.86042624E+02
 11
8.95618871E+01
 21
-1.88504643E+02
  0
LINE
  8
0
 62
4
 10
8.95618871E+01
 20
-1.88504643E+02
 11
8.56226561E+01
 21
-1.87810050E+02
  0
LINE
  8
0
 62
4
 10
8.99960076E+01
 20
-1.86042624E+02
 11
8.60567766E+01
 21
-1.85348031E+02
  0
LINE
  8
0
 62
4
 10
9.88890201E+01
 20
-1.93195548E+02
 11
7.52536340E+01
 21
-1.89027992E+02
  0
LINE
  8
0
 62
4
 10
7.49931618E+01
 20
-1.90505204E+02
 11
7.70464370E+01
 21
-1.94557706E+02
  0
LINE
  8
0
 62
4
 10
1.00799150E+02
 20
-1.82362663E+02
 11
9.86488350E+01
 21
-1.94557706E+02
  0
LINE
  8
0
 62
4
 10
7.71637640E+01
 20
-1.78195107E+02
 11
7.49931618E+01
 21
-1.90505204E+02
  0
LINE
  8
0
 62
4
 10
9.79760426E+01
 20
-1.94557706E+02
 11
7.49931618E+01
 21
-1.90505204E+02
  0
LINE
  8
0
 62
4
 10
9.87712511E+01
 20
-1.79466523E+02
 11
8.00599038E+01
 21
-1.76167208E+02
  0
LINE
  8
0
 62
4
 10
9.94658438E+01
 20
-1.75527292E+02
 11
9.87712511E+01
 21
-1.79466523E+02
  0
LINE
  8
0
 62
4
 10
8.07544965E+01
 20
-1.72227977E+02
 11
8.00599038E+01
 21
-1.76167208E+02
  0
LINE
  8
0
 62
4
 10
9.76698765E+01
 20
-1.74195188E+02
 11
8.28977602E+01
 21
-1.71590465E+02
  0
LINE
  8
0
 62
4
 10
9.94658438E+01
 20
-1.75527292E+02
 11
8.07544965E+01
 21
-1.72227977E+02
  0
LINE
  8
0
 62
4
 10
1.01837433E+02
 20
-1.50559802E+02
 11
9.74962283E+01
 21
-1.75179996E+02
  0
LINE
  8
0
 62
4
 10
8.70653165E+01
 20
-1.47955079E+02
 11
8.27241120E+01
 21
-1.72575273E+02
  0
LINE
  8
0
 62
4
 10
8.70653165E+01
 20
-1.47955079E+02
 11
1.01837433E+02
 21
-1.50559802E+02
  0
LINE
  8
0
 62
4
 10
1.00134300E+02
 20
-1.91891985E+02
 11
9.96642616E+01
 21
-1.94557706E+02
  0
LINE
  8
0
 62
4
 10
9.97287203E+01
 20
-1.91312757E+02
 11
9.92363165E+01
 21
-1.91225933E+02
  0
LINE
  8
0
 62
4
 10
1.07607440E+02
 20
-1.84070861E+02
 11
1.00712326E+02
 21
-1.82855067E+02
  0
ARC
  8
0
 62
4
 10
9.34096192E+01
 20
-1.55165166E+02
 40
7.00000000E+00
 50
4.89793705E+01
 51
1.11020629E+02
  0
LINE
  8
0
  6
CENTER
 62
6
 10
8.70343787E+01
 20
-1.94557706E+02
 11
8.69733272E+01
 21
-1.94546941E+02
  0
LINE
  8
0
 62
4
 10
1.12580269E+02
 20
-1.97743659E+02
 11
1.13412533E+02
 21
-2.00031970E+02
  0
LINE
  8
0
 62
6
 10
1.14880823E+02
 20
-2.04128593E+02
 11
1.12756243E+02
 21
-2.03753972E+02
  0
LINE
  8
0
 62
4
 10
1.13288246E+02
 20
-2.07401772E+02
 11
1.14318203E+02
 21
-2.07319370E+02
  0
LINE
  8
0
 62
4
 10
1.13981103E+02
 20
-2.03472389E+02
 11
1.14920762E+02
 21
-2.03902087E+02
  0
LINE
  8
0
 62
4
 10
1.14920762E+02
 20
-2.03902087E+02
 11
1.14318203E+02
 21
-2.07319370E+02
  0
LINE
  8
0
 62
4
 10
1.13288246E+02
 20
-2.07401772E+02
 11
1.12594391E+02
 21
-2.07279427E+02
  0
LINE
  8
0
 62
4
 10
1.13981103E+02
 20
-2.03472389E+02
 11
1.12841331E+02
 21
-2.03271417E+02
  0
LINE
  8
0
 62
6
 10
1.14359878E+02
 20
-2.07083016E+02
 11
1.12594391E+02
 21
-2.06771713E+02
  0
LINE
  8
0
  6
CENTER
 62
6
 10
1.15834269E+02
 20
-2.05819851E+02
 11
1.12594391E+02
 21
-2.05248573E+02
  0
LINE
  8
0
 62
4
 10
1.13412533E+02
 20
-2.00031970E+02
 11
1.12594391E+02
 21
-2.04671883E+02
  0
LINE
  8
0
 62
4
 10
-5.53499945E+01
 20
-9.21589346E+01
 11
-3.32499945E+01
 21
-9.21589346E+01
  0
LINE
  8
0
  6
CENTER
 62
6
 10
-4.82720464E+01
 20
-7.75628704E+01
 11
-3.72279427E+01
 21
-7.75628704E+01
  0
LINE
  8
0
 62
4
 10
-5.12499945E+01
 20
-6.63149686E+01
 11
-3.32499945E+01
 21
-6.63149686E+01
  0
LINE
  8
0
 62
4
 10
-6.92499945E+01
 20
-8.95542120E+01
 11
-3.32499945E+01
 21
-8.95542120E+01
  0
LINE
  8
0
 62
4
 10
-6.62499945E+01
 20
-8.44279844E+01
 11
-5.12499945E+01
 21
-8.44279844E+01
  0
LINE
  8
0
 62
4
 10
-6.82499945E+01
 20
-8.70921926E+01
 11
-4.92499945E+01
 21
-8.70921926E+01
  0
POLYLINE
  8
0
 62
4
 66
1
  0
VERTEX
  8
0
 62
4
 10
-3.92499945E+01
 20
-7.77365186E+01
  0
VERTEX
  8
0
 62
4
 10
-3.92633131E+01
 20
-7.74361078E+01
  0
VERTEX
  8
0
 62
4
 10
-3.93031674E+01
 20
-7.71379833E+01
  0
VERTEX
  8
0
 62
4
 10
-3.93692541E+01
 20
-7.68444141E+01
  0
VERTEX
  8
0
 62
4
 10
-3.94610703E+01
 20
-7.65576343E+01
  0
VERTEX
  8
0
 62
4
 10
-3.95779172E+01
 20
-7.62798265E+01
  0
VERTEX
  8
0
 62
4
 10
-3.97189056E+01
 20
-7.60131050E+01
  0
VERTEX
  8
0
 62
4
 10
-3.98829623E+01
 20
-7.57594998E+01
  0
VERTEX
  8
0
 62
4
 10
-4.00688389E+01
 20
-7.55209408E+01
  0
VERTEX
  8
0
 62
4
 10
-4.02751208E+01
 20
-7.52992438E+01
  0
VERTEX
  8
0
 62
4
 10
-4.05002379E+01
 20
-7.50960958E+01
  0
VERTEX
  8
0
 62
4
 10
-4.07424770E+01
 20
-7.49130431E+01
  0
VERTEX
  8
0
 62
4
 10
-4.09999945E+01
 20
-7.47514787E+01
  0
VERTEX
  8
0
 62
4
 10
-4.12708306E+01
 20
-7.46126323E+01
  0
VERTEX
  8
0
 62
4
 10
-4.15529240E+01
 20
-7.44975606E+01
  0
VERTEX
  8
0
 62
4
 10
-4.18441278E+01
 20
-7.44071392E+01
  0
VERTEX
  8
0
 62
4
 10
-4.21422259E+01
 20
-7.43420565E+01
  0
VERTEX
  8
0
 62
4
 10
-4.24449494E+01
 20
-7.43028077E+01
  0
VERTEX
  8
0
 62
4
 10
-4.27499945E+01
 20
-7.42896915E+01
  0
VERTEX
  8
0
 62
4
 10
-4.30550396E+01
 20
-7.43028077E+01
  0
VERTEX
  8
0
 62
4
 10
-4.33577631E+01
 20
-7.43420565E+01
  0
VERTEX
  8
0
 62
4
 10
-4.36558612E+01
 20
-7.44071392E+01
  0
VERTEX
  8
0
 62
4
 10
-4.39470650E+01
 20
-7.44975606E+01
  0
VERTEX
  8
0
 62
4
 10
-4.42291584E+01
 20
-7.46126323E+01
  0
VERTEX
  8
0
 62
4
 10
-4.44999945E+01
 20
-7.47514787E+01
  0
VERTEX
  8
0
 62
4
 10
-4.47575120E+01
 20
-7.49130431E+01
  0
VERTEX
  8
0
 62
4
 10
-4.49997511E+01
 20
-7.50960958E+01
  0
VERTEX
  8
0
 62
4
 10
-4.52248682E+01
 20
-7.52992438E+01
  0
VERTEX
  8
0
 62
4
 10
-4.54311501E+01
 20
-7.55209408E+01
  0
VERTEX
  8
0
 62
4
 10
-4.56170267E+01
 20
-7.57594998E+01
  0
VERTEX
  8
0
 62
4
 10
-4.57810834E+01
 20
-7.60131050E+01
  0
VERTEX
  8
0
 62
4
 10
-4.59220718E+01
 20
-7.62798265E+01
  0
VERTEX
  8
0
 62
4
 10
-4.60389187E+01
 20
-7.65576343E+01
  0
VERTEX
  8
0
 62
4
 10
-4.61307349E+01
 20
-7.68444141E+01
  0
VERTEX
  8
0
 62
4
 10
-4.61968216E+01
 20
-7.71379834E+01
  0
VERTEX
  8
0
 62
4
 10
-4.62366759E+01
 20
-7.74361078E+01
  0
VERTEX
  8
0
 62
4
 10
-4.62499945E+01
 20
-7.77365186E+01
  0
VERTEX
  8
0
 62
4
 10
-4.62366759E+01
 20
-7.80369294E+01
  0
VERTEX
  8
0
 62
4
 10
-4.61968216E+01
 20
-7.83350539E+01
  0
VERTEX
  8
0
 62
4
 10
-4.61307349E+01
 20
-7.86286231E+01
  0
VERTEX
  8
0
 62
4
 10
-4.60389187E+01
 20
-7.89154029E+01
  0
VERTEX
  8
0
 62
4
 10
-4.59220718E+01
 20
-7.91932107E+01
  0
VERTEX
  8
0
 62
4
 10
-4.57810834E+01
 20
-7.94599322E+01
  0
VERTEX
  8
0
 62
4
 10
-4.56170267E+01
 20
-7.97135374E+01
  0
VERTEX
  8
0
 62
4
 10
-4.54311500E+01
 20
-7.99520964E+01
  0
VERTEX
  8
0
 62
4
 10
-4.52248682E+01
 20
-8.01737934E+01
  0
VERTEX
  8
0
 62
4
 10
-4.49997511E+01
 20
-8.03769414E+01
  0
VERTEX
  8
0
 62
4
 10
-4.47575120E+01
 20
-8.05599941E+01
  0
VERTEX
  8
0
 62
4
 10
-4.44999945E+01
 20
-8.07215585E+01
  0
VERTEX
  8
0
 62
4
 10
-4.42291584E+01
 20
-8.08604049E+01
  0
VERTEX
  8
0
 62
4
 10
-4.39470650E+01
 20
-8.09754766E+01
  0
VERTEX
  8
0
 62
4
 10
-4.36558612E+01
 20
-8.10658980E+01
  0
VERTEX
  8
0
 62
4
 10
-4.33577631E+01
 20
-8.11309807E+01
  0
VERTEX
  8
0
 62
4
 10
-4.30550396E+01
 20
-8.11702295E+01
  0
VERTEX
  8
0
 62
4
 10
-4.27499945E+01
 20
-8.11833457E+01
  0
VERTEX
  8
0
 62
4
 10
-4.24449494E+01
 20
-8.11702295E+01
  0
VERTEX
  8
0
 62
4
 10
-4.21422259E+01
 20
-8.11309807E+01
  0
VERTEX
  8
0
 62
4
 10
-4.18441278E+01
 20
-8.10658980E+01
  0
VERTEX
  8
0
 62
4
 10
-4.15529240E+01
 20
-8.09754766E+01
  0
VERTEX
  8
0
 62
4
 10
-4.12708306E+01
 20
-8.08604049E+01
  0
VERTEX
  8
0
 62
4
 10
-4.09999945E+01
 20
-8.07215585E+01
  0
VERTEX
  8
0
 62
4
 10
-4.07424770E+01
 20
-8.05599941E+01
  0
VERTEX
  8
0
 62
4
 10
-4.05002379E+01
 20
-8.03769414E+01
  0
VERTEX
  8
0
 62
4
 10
-4.02751208E+01
 20
-8.01737934E+01
  0
VERTEX
  8
0
 62
4
 10
-4.00688389E+01
 20
-7.99520964E+01
  0
VERTEX
  8
0
 62
4
 10
-3.98829623E+01
 20
-7.97135374E+01
  0
VERTEX
  8
0
 62
4
 10
-3.97189056E+01
 20
-7.94599322E+01
  0
VERTEX
  8
0
 62
4
 10
-3.95779172E+01
 20
-7.91932107E+01
  0
VERTEX
  8
0
 62
4
 10
-3.94610703E+01
 20
-7.89154029E+01
  0
VERTEX
  8
0
 62
4
 10
-3.93692541E+01
 20
-7.86286231E+01
  0
VERTEX
  8
0
 62
4
 10
-3.93031674E+01
 20
-7.83350538E+01
  0
VERTEX
  8
0
 62
4
 10
-3.92633131E+01
 20
-7.80369294E+01
  0
VERTEX
  8
0
 62
4
 10
-3.92499945E+01
 20
-7.77365186E+01
  0
SEQEND
  8
0
  0
POLYLINE
  8
0
 62
4
 66
1
  0
VERTEX
  8
0
 62
4
 10
-3.96099945E+01
 20
-7.75628704E+01
  0
VERTEX
  8
0
 62
4
 10
-3.96219431E+01
 20
-7.72933590E+01
  0
VERTEX
  8
0
 62
4
 10
-3.96576982E+01
 20
-7.70258988E+01
  0
VERTEX
  8
0
 62
4
 10
-3.97169874E+01
 20
-7.67625252E+01
  0
VERTEX
  8
0
 62
4
 10
-3.97993597E+01
 20
-7.65052428E+01
  0
VERTEX
  8
0
 62
4
 10
-3.99041880E+01
 20
-7.62560095E+01
  0
VERTEX
  8
0
 62
4
 10
-4.00306747E+01
 20
-7.60167222E+01
  0
VERTEX
  8
0
 62
4
 10
-4.01778571E+01
 20
-7.57892021E+01
  0
VERTEX
  8
0
 62
4
 10
-4.03446149E+01
 20
-7.55751806E+01
  0
VERTEX
  8
0
 62
4
 10
-4.05296792E+01
 20
-7.53762867E+01
  0
VERTEX
  8
0
 62
4
 10
-4.07316414E+01
 20
-7.51940340E+01
  0
VERTEX
  8
0
 62
4
 10
-4.09489645E+01
 20
-7.50298095E+01
  0
VERTEX
  8
0
 62
4
 10
-4.11799945E+01
 20
-7.48848632E+01
  0
VERTEX
  8
0
 62
4
 10
-4.14229732E+01
 20
-7.47602981E+01
  0
VERTEX
  8
0
 62
4
 10
-4.16760513E+01
 20
-7.46570623E+01
  0
VERTEX
  8
0
 62
4
 10
-4.19373027E+01
 20
-7.45759415E+01
  0
VERTEX
  8
0
 62
4
 10
-4.22047392E+01
 20
-7.45175530E+01
  0
VERTEX
  8
0
 62
4
 10
-4.24763255E+01
 20
-7.44823412E+01
  0
VERTEX
  8
0
 62
4
 10
-4.27499945E+01
 20
-7.44705741E+01
  0
VERTEX
  8
0
 62
4
 10
-4.30236635E+01
 20
-7.44823412E+01
  0
VERTEX
  8
0
 62
4
 10
-4.32952498E+01
 20
-7.45175530E+01
  0
VERTEX
  8
0
 62
4
 10
-4.35626863E+01
 20
-7.45759415E+01
  0
VERTEX
  8
0
 62
4
 10
-4.38239378E+01
 20
-7.46570623E+01
  0
VERTEX
  8
0
 62
4
 10
-4.40770158E+01
 20
-7.47602981E+01
  0
VERTEX
  8
0
 62
4
 10
-4.43199945E+01
 20
-7.48848632E+01
  0
VERTEX
  8
0
 62
4
 10
-4.45510245E+01
 20
-7.50298095E+01
  0
VERTEX
  8
0
 62
4
 10
-4.47683476E+01
 20
-7.51940340E+01
  0
VERTEX
  8
0
 62
4
 10
-4.49703098E+01
 20
-7.53762867E+01
  0
VERTEX
  8
0
 62
4
 10
-4.51553741E+01
 20
-7.55751806E+01
  0
VERTEX
  8
0
 62
4
 10
-4.53221319E+01
 20
-7.57892021E+01
  0
VERTEX
  8
0
 62
4
 10
-4.54693143E+01
 20
-7.60167222E+01
  0
VERTEX
  8
0
 62
4
 10
-4.55958010E+01
 20
-7.62560095E+01
  0
VERTEX
  8
0
 62
4
 10
-4.57006293E+01
 20
-7.65052428E+01
  0
VERTEX
  8
0
 62
4
 10
-4.57830016E+01
 20
-7.67625252E+01
  0
VERTEX
  8
0
 62
4
 10
-4.58422908E+01
 20
-7.70258988E+01
  0
VERTEX
  8
0
 62
4
 10
-4.58780459E+01
 20
-7.72933590E+01
  0
VERTEX
  8
0
 62
4
 10
-4.58899945E+01
 20
-7.75628704E+01
  0
VERTEX
  8
0
 62
4
 10
-4.58780459E+01
 20
-7.78323818E+01
  0
VERTEX
  8
0
 62
4
 10
-4.58422908E+01
 20
-7.80998420E+01
  0
VERTEX
  8
0
 62
4
 10
-4.57830016E+01
 20
-7.83632156E+01
  0
VERTEX
  8
0
 62
4
 10
-4.57006293E+01
 20
-7.86204980E+01
  0
VERTEX
  8
0
 62
4
 10
-4.55958009E+01
 20
-7.88697313E+01
  0
VERTEX
  8
0
 62
4
 10
-4.54693143E+01
 20
-7.91090186E+01
  0
VERTEX
  8
0
 62
4
 10
-4.53221319E+01
 20
-7.93365387E+01
  0
VERTEX
  8
0
 62
4
 10
-4.51553740E+01
 20
-7.95505602E+01
  0
VERTEX
  8
0
 62
4
 10
-4.49703098E+01
 20
-7.97494541E+01
  0
VERTEX
  8
0
 62
4
 10
-4.47683476E+01
 20
-7.99317068E+01
  0
VERTEX
  8
0
 62
4
 10
-4.45510245E+01
 20
-8.00959313E+01
  0
VERTEX
  8
0
 62
4
 10
-4.43199945E+01
 20
-8.02408776E+01
  0
VERTEX
  8
0
 62
4
 10
-4.40770158E+01
 20
-8.03654427E+01
  0
VERTEX
  8
0
 62
4
 10
-4.38239377E+01
 20
-8.04686785E+01
  0
VERTEX
  8
0
 62
4
 10
-4.35626863E+01
 20
-8.05497993E+01
  0
VERTEX
  8
0
 62
4
 10
-4.32952498E+01
 20
-8.06081878E+01
  0
VERTEX
  8
0
 62
4
 10
-4.30236635E+01
 20
-8.06433996E+01
  0
VERTEX
  8
0
 62
4
 10
-4.27499945E+01
 20
-8.06551667E+01
  0
VERTEX
  8
0
 62
4
 10
-4.24763255E+01
 20
-8.06433996E+01
  0
VERTEX
  8
0
 62
4
 10
-4.22047392E+01
 20
-8.06081878E+01
  0
VERTEX
  8
0
 62
4
 10
-4.19373027E+01
 20
-8.05497993E+01
  0
VERTEX
  8
0
 62
4
 10
-4.16760512E+01
 20
-8.04686784E+01
  0
VERTEX
  8
0
 62
4
 10
-4.14229732E+01
 20
-8.03654426E+01
  0
VERTEX
  8
0
 62
4
 10
-4.11799945E+01
 20
-8.02408776E+01
  0
VERTEX
  8
0
 62
4
 10
-4.09489645E+01
 20
-8.00959313E+01
  0
VERTEX
  8
0
 62
4
 10
-4.07316414E+01
 20
-7.99317068E+01
  0
VERTEX
  8
0
 62
4
 10
-4.05296792E+01
 20
-7.97494541E+01
  0
VERTEX
  8
0
 62
4
 10
-4.03446149E+01
 20
-7.95505602E+01
  0
VERTEX
  8
0
 62
4
 10
-4.01778571E+01
 20
-7.93365387E+01
  0
VERTEX
  8
0
 62
4
 10
-4.00306747E+01
 20
-7.91090186E+01
  0
VERTEX
  8
0
 62
4
 10
-3.99041880E+01
 20
-7.88697313E+01
  0
VERTEX
  8
0
 62
4
 10
-3.97993597E+01
 20
-7.86204980E+01
  0
VERTEX
  8
0
 62
4
 10
-3.97169874E+01
 20
-7.83632156E+01
  0
VERTEX
  8
0
 62
4
 10
-3.96576982E+01
 20
-7.80998420E+01
  0
VERTEX
  8
0
 62
4
 10
-3.96219431E+01
 20
-7.78323818E+01
  0
VERTEX
  8
0
 62
4
 10
-3.96099945E+01
 20
-7.75628704E+01
  0
SEQEND
  8
0
  0
ARC
  8
0
 62
4
 10
-5.45143995E+01
 20
-8.28882866E+01
 40
1.21769740E+01
 50
2.40462101E+02
 51
2.52020214E+02
  0
ARC
  8
0
 62
4
 10
-6.29855895E+01
 20
-8.28882866E+01
 40
1.21769740E+01
 50
2.87979786E+02
 51
2.99537899E+02
  0
POLYLINE
  8
0
 62
4
 66
1
  0
VERTEX
  8
0
 62
4
 10
-5.53499945E+01
 20
-9.34714332E+01
  0
VERTEX
  8
0
 62
4
 10
-5.53629325E+01
 20
-9.33834806E+01
  0
VERTEX
  8
0
 62
4
 10
-5.54016481E+01
 20
-9.32961975E+01
  0
VERTEX
  8
0
 62
4
 10
-5.54658467E+01
 20
-9.32102479E+01
  0
VERTEX
  8
0
 62
4
 10
-5.55550396E+01
 20
-9.31262862E+01
  0
VERTEX
  8
0
 62
4
 10
-5.56685480E+01
 20
-9.30449512E+01
  0
VERTEX
  8
0
 62
4
 10
-5.58055081E+01
 20
-9.29668620E+01
  0
VERTEX
  8
0
 62
4
 10
-5.59648775E+01
 20
-9.28926129E+01
  0
VERTEX
  8
0
 62
4
 10
-5.61454434E+01
 20
-9.28227690E+01
  0
VERTEX
  8
0
 62
4
 10
-5.63458314E+01
 20
-9.27578618E+01
  0
VERTEX
  8
0
 62
4
 10
-5.65645166E+01
 20
-9.26983853E+01
  0
VERTEX
  8
0
 62
4
 10
-5.67998346E+01
 20
-9.26447921E+01
  0
VERTEX
  8
0
 62
4
 10
-5.70499945E+01
 20
-9.25974902E+01
  0
VERTEX
  8
0
 62
4
 10
-5.73130924E+01
 20
-9.25568396E+01
  0
VERTEX
  8
0
 62
4
 10
-5.75871260E+01
 20
-9.25231495E+01
  0
VERTEX
  8
0
 62
4
 10
-5.78700097E+01
 20
-9.24966765E+01
  0
VERTEX
  8
0
 62
4
 10
-5.81595907E+01
 20
-9.24776219E+01
  0
VERTEX
  8
0
 62
4
 10
-5.84536650E+01
 20
-9.24661309E+01
  0
VERTEX
  8
0
 62
4
 10
-5.87499945E+01
 20
-9.24622908E+01
  0
VERTEX
  8
0
 62
4
 10
-5.90463240E+01
 20
-9.24661309E+01
  0
VERTEX
  8
0
 62
4
 10
-5.93403983E+01
 20
-9.24776219E+01
  0
VERTEX
  8
0
 62
4
 10
-5.96299793E+01
 20
-9.24966765E+01
  0
VERTEX
  8
0
 62
4
 10
-5.99128630E+01
 20
-9.25231495E+01
  0
VERTEX
  8
0
 62
4
 10
-6.01868966E+01
 20
-9.25568396E+01
  0
VERTEX
  8
0
 62
4
 10
-6.04499945E+01
 20
-9.25974902E+01
  0
VERTEX
  8
0
 62
4
 10
-6.07001544E+01
 20
-9.26447921E+01
  0
VERTEX
  8
0
 62
4
 10
-6.09354724E+01
 20
-9.26983853E+01
  0
VERTEX
  8
0
 62
4
 10
-6.11541576E+01
 20
-9.27578618E+01
  0
VERTEX
  8
0
 62
4
 10
-6.13545456E+01
 20
-9.28227690E+01
  0
VERTEX
  8
0
 62
4
 10
-6.15351115E+01
 20
-9.28926129E+01
  0
VERTEX
  8
0
 62
4
 10
-6.16944809E+01
 20
-9.29668620E+01
  0
VERTEX
  8
0
 62
4
 10
-6.18314410E+01
 20
-9.30449512E+01
  0
VERTEX
  8
0
 62
4
 10
-6.19449494E+01
 20
-9.31262862E+01
  0
VERTEX
  8
0
 62
4
 10
-6.20341423E+01
 20
-9.32102479E+01
  0
VERTEX
  8
0
 62
4
 10
-6.20983409E+01
 20
-9.32961975E+01
  0
VERTEX
  8
0
 62
4
 10
-6.21370565E+01
 20
-9.33834806E+01
  0
VERTEX
  8
0
 62
4
 10
-6.21499945E+01
 20
-9.34714332E+01
  0
VERTEX
  8
0
 62
4
 10
-6.21370565E+01
 20
-9.35593858E+01
  0
VERTEX
  8
0
 62
4
 10
-6.20983409E+01
 20
-9.36466689E+01
  0
VERTEX
  8
0
 62
4
 10
-6.20341423E+01
 20
-9.37326185E+01
  0
VERTEX
  8
0
 62
4
 10
-6.19449494E+01
 20
-9.38165802E+01
  0
VERTEX
  8
0
 62
4
 10
-6.18314410E+01
 20
-9.38979152E+01
  0
VERTEX
  8
0
 62
4
 10
-6.16944809E+01
 20
-9.39760044E+01
  0
VERTEX
  8
0
 62
4
 10
-6.15351114E+01
 20
-9.40502535E+01
  0
VERTEX
  8
0
 62
4
 10
-6.13545456E+01
 20
-9.41200974E+01
  0
VERTEX
  8
0
 62
4
 10
-6.11541576E+01
 20
-9.41850046E+01
  0
VERTEX
  8
0
 62
4
 10
-6.09354724E+01
 20
-9.42444811E+01
  0
VERTEX
  8
0
 62
4
 10
-6.07001544E+01
 20
-9.42980743E+01
  0
VERTEX
  8
0
 62
4
 10
-6.04499945E+01
 20
-9.43453762E+01
  0
VERTEX
  8
0
 62
4
 10
-6.01868966E+01
 20
-9.43860268E+01
  0
VERTEX
  8
0
 62
4
 10
-5.99128630E+01
 20
-9.44197169E+01
  0
VERTEX
  8
0
 62
4
 10
-5.96299792E+01
 20
-9.44461899E+01
  0
VERTEX
  8
0
 62
4
 10
-5.93403983E+01
 20
-9.44652445E+01
  0
VERTEX
  8
0
 62
4
 10
-5.90463240E+01
 20
-9.44767355E+01
  0
VERTEX
  8
0
 62
4
 10
-5.87499945E+01
 20
-9.44805756E+01
  0
VERTEX
  8
0
 62
4
 10
-5.84536650E+01
 20
-9.44767355E+01
  0
VERTEX
  8
0
 62
4
 10
-5.81595907E+01
 20
-9.44652445E+01
  0
VERTEX
  8
0
 62
4
 10
-5.78700097E+01
 20
-9.44461899E+01
  0
VERTEX
  8
0
 62
4
 10
-5.75871260E+01
 20
-9.44197169E+01
  0
VERTEX
  8
0
 62
4
 10
-5.73130924E+01
 20
-9.43860268E+01
  0
VERTEX
  8
0
 62
4
 10
-5.70499945E+01
 20
-9.43453762E+01
  0
VERTEX
  8
0
 62
4
 10
-5.67998346E+01
 20
-9.42980743E+01
  0
VERTEX
  8
0
 62
4
 10
-5.65645166E+01
 20
-9.42444811E+01
  0
VERTEX
  8
0
 62
4
 10
-5.63458314E+01
 20
-9.41850046E+01
  0
VERTEX
  8
0
 62
4
 10
-5.61454434E+01
 20
-9.41200974E+01
  0
VERTEX
  8
0
 62
4
 10
-5.59648775E+01
 20
-9.40502535E+01
  0
VERTEX
  8
0
 62
4
 10
-5.58055081E+01
 20
-9.39760044E+01
  0
VERTEX
  8
0
 62
4
 10
-5.56685480E+01
 20
-9.38979152E+01
  0
VERTEX
  8
0
 62
4
 10
-5.55550396E+01
 20
-9.38165802E+01
  0
VERTEX
  8
0
 62
4
 10
-5.54658467E+01
 20
-9.37326185E+01
  0
VERTEX
  8
0
 62
4
 10
-5.54016481E+01
 20
-9.36466689E+01
  0
VERTEX
  8
0
 62
4
 10
-5.53629325E+01
 20
-9.35593858E+01
  0
VERTEX
  8
0
 62
4
 10
-5.53499945E+01
 20
-9.34714332E+01
  0
SEQEND
  8
0
  0
ARC
  8
0
 62
4
 10
-6.92494946E+01
 20
-6.78154686E+01
 40
1.50050004E+00
 50
9.00190906E+01
 51
1.34401209E+02
  0
ARC
  8
0
 62
4
 10
-7.52494944E+01
 20
-6.72439246E+01
 40
5.00500378E-01
 50
9.00572530E+01
 51
1.79942747E+02
  0
ARC
  8
0
 62
4
 10
-7.52504941E+01
 20
-8.02439241E+01
 40
4.99500622E-01
 50
1.79942690E+02
 51
2.70057311E+02
  0
LINE
  8
0
 62
4
 10
-4.92499945E+01
 20
-6.76862526E+01
 11
-5.12499945E+01
 21
-6.76862526E+01
  0
LINE
  8
0
 62
4
 10
-6.92499945E+01
 20
-6.63149686E+01
 11
-6.62499945E+01
 21
-6.63149686E+01
  0
LINE
  8
0
 62
4
 10
-6.82499945E+01
 20
-8.63975999E+01
 11
-4.92499945E+01
 21
-8.63975999E+01
  0
LINE
  8
0
 62
4
 10
-6.82499945E+01
 20
-8.07277765E+01
 11
-6.82499945E+01
 21
-8.70921926E+01
  0
LINE
  8
0
 62
4
 10
-7.07499945E+01
 20
-8.07277765E+01
 11
-7.07499945E+01
 21
-9.06589346E+01
  0
LINE
  8
0
 62
4
 10
-4.92499945E+01
 20
-6.76862526E+01
 11
-4.92499945E+01
 21
-8.70921926E+01
  0
LINE
  8
0
 62
4
 10
-8.57499945E+01
 20
-6.66901798E+01
 11
-8.07499945E+01
 21
-6.66901798E+01
  0
LINE
  8
0
 62
4
 10
-6.62499945E+01
 20
-8.00867799E+01
 11
-5.12499945E+01
 21
-8.00867799E+01
  0
LINE
  8
0
 62
4
 10
-6.62499945E+01
 20
-6.53146636E+01
 11
-5.12499945E+01
 21
-6.53146636E+01
  0
LINE
  8
0
 62
4
 10
-5.12499945E+01
 20
-5.37395636E+01
 11
-5.12499945E+01
 21
-8.44279844E+01
  0
LINE
  8
0
 62
4
 10
-7.92499945E+01
 20
-7.94934245E+01
 11
-7.57499945E+01
 21
-7.94934245E+01
  0
LINE
  8
0
 62
4
 10
-7.92499945E+01
 20
-6.79934245E+01
 11
-7.57499945E+01
 21
-6.79934245E+01
  0
LINE
  8
0
 62
4
 10
-7.92499945E+01
 20
-6.74934245E+01
 11
-7.92499945E+01
 21
-7.99934245E+01
  0
LINE
  8
0
 62
4
 10
-8.07499945E+01
 20
-7.99934245E+01
 11
-7.57499945E+01
 21
-7.99934245E+01
  0
LINE
  8
0
 62
4
 10
-8.07499945E+01
 20
-6.74934245E+01
 11
-7.57499945E+01
 21
-6.74934245E+01
  0
LINE
  8
0
 62
4
 10
-8.07499945E+01
 20
-6.66901798E+01
 11
-8.07499945E+01
 21
-8.07967784E+01
  0
LINE
  8
0
 62
4
 10
-8.57499945E+01
 20
-6.66901798E+01
 11
-8.57499945E+01
 21
-8.07967784E+01
  0
LINE
  8
0
 62
4
 10
-7.57499945E+01
 20
-6.72277765E+01
 11
-7.57499945E+01
 21
-8.02277765E+01
  0
LINE
  8
0
 62
4
 10
-6.62499945E+01
 20
-6.67434245E+01
 11
-7.52499945E+01
 21
-6.67434245E+01
  0
LINE
  8
0
 62
4
 10
-7.52499945E+01
 20
-8.07434245E+01
 11
-6.62499945E+01
 21
-8.07434245E+01
  0
LINE
  8
0
  6
CENTER
 62
6
 10
-5.87499945E+01
 20
-5.20899052E+01
 11
-5.87499945E+01
 21
-9.56647212E+01
  0
LINE
  8
0
 62
4
 10
-6.21499945E+01
 20
-9.34714332E+01
 11
-6.21499945E+01
 21
-9.13489772E+01
  0
LINE
  8
0
 62
4
 10
-5.53499945E+01
 20
-9.13489772E+01
 11
-5.53499945E+01
 21
-9.34714332E+01
  0
LINE
  8
0
 62
4
 10
-6.27499945E+01
 20
-9.08565733E+01
 11
-6.27499945E+01
 21
-9.13489772E+01
  0
LINE
  8
0
 62
4
 10
-5.47499945E+01
 20
-9.13489772E+01
 11
-5.47499945E+01
 21
-9.08565733E+01
  0
LINE
  8
0
 62
6
 10
-6.12499945E+01
 20
-5.22313346E+01
 11
-6.12499945E+01
 21
-5.37395636E+01
  0
LINE
  8
0
 62
4
 10
-6.47499945E+01
 20
-5.32313346E+01
 11
-6.44899945E+01
 21
-5.22313346E+01
  0
LINE
  8
0
 62
4
 10
-6.07499945E+01
 20
-5.32313346E+01
 11
-6.10199945E+01
 21
-5.22313346E+01
  0
LINE
  8
0
 62
4
 10
-6.10199945E+01
 20
-5.22313346E+01
 11
-6.44899945E+01
 21
-5.22313346E+01
  0
LINE
  8
0
 62
4
 10
-6.47499945E+01
 20
-5.32313346E+01
 11
-6.47499945E+01
 21
-5.37395636E+01
  0
LINE
  8
0
 62
4
 10
-6.07499945E+01
 20
-5.32313346E+01
 11
-6.07499945E+01
 21
-5.37395636E+01
  0
LINE
  8
0
 62
6
 10
-6.42499945E+01
 20
-5.22313346E+01
 11
-6.42499945E+01
 21
-5.37395636E+01
  0
LINE
  8
0
  6
CENTER
 62
6
 10
-6.27499945E+01
 20
-5.09713346E+01
 11
-6.27499945E+01
 21
-6.14713346E+01
  0
LINE
  8
0
 62
4
 10
-5.12499945E+01
 20
-5.37395636E+01
 11
-6.62499945E+01
 21
-5.37395636E+01
  0
LINE
  8
0
 62
4
 10
-5.22499945E+01
 20
-5.95446561E+01
 11
-6.52499945E+01
 21
-5.95446561E+01
  0
LINE
  8
0
 62
4
 10
-6.62499945E+01
 20
-5.37395636E+01
 11
-6.62499945E+01
 21
-8.44279844E+01
  0
LINE
  8
0
 62
6
 10
-5.62499945E+01
 20
-5.22313346E+01
 11
-5.62499945E+01
 21
-5.37395636E+01
  0
LINE
  8
0
 62
6
 10
-5.32499945E+01
 20
-5.22313346E+01
 11
-5.32499945E+01
 21
-5.37395636E+01
  0
LINE
  8
0
 62
4
 10
-5.67499945E+01
 20
-5.32313346E+01
 11
-5.64899945E+01
 21
-5.22313346E+01
  0
LINE
  8
0
 62
4
 10
-5.27499945E+01
 20
-5.32313346E+01
 11
-5.30199945E+01
 21
-5.22313346E+01
  0
LINE
  8
0
 62
4
 10
-5.30199945E+01
 20
-5.22313346E+01
 11
-5.64899945E+01
 21
-5.22313346E+01
  0
LINE
  8
0
 62
4
 10
-5.67499945E+01
 20
-5.32313346E+01
 11
-5.67499945E+01
 21
-5.37395636E+01
  0
LINE
  8
0
 62
4
 10
-5.27499945E+01
 20
-5.32313346E+01
 11
-5.27499945E+01
 21
-5.37395636E+01
  0
LINE
  8
0
  6
CENTER
 62
6
 10
-5.47499945E+01
 20
-5.09713346E+01
 11
-5.47499945E+01
 21
-6.14713346E+01
  0
LINE
  8
0
 62
4
 10
-8.57499945E+01
 20
-7.24402495E+01
 11
-8.07499945E+01
 21
-7.24402495E+01
  0
LINE
  8
0
 62
4
 10
-8.57499945E+01
 20
-8.07967784E+01
 11
-8.07499945E+01
 21
-8.07967784E+01
  0
LINE
  8
0
 62
4
 10
-6.92499945E+01
 20
-9.21589346E+01
 11
-6.21499945E+01
 21
-9.21589346E+01
  0
ARC
  8
0
 62
4
 10
-6.92504981E+01
 20
-9.06594383E+01
 40
1.49949647E+00
 50
1.79980757E+02
 51
2.70019243E+02
  0
LINE
  8
0
 62
4
 10
-8.57499945E+01
 20
-7.94926806E+01
 11
-8.07499945E+01
 21
-7.94926806E+01
  0
POLYLINE
  8
0
 62
4
 66
1
  0
VERTEX
  8
0
 62
4
 10
-5.57499945E+01
 20
-7.27007218E+01
  0
VERTEX
  8
0
 62
4
 10
-5.57614104E+01
 20
-7.24432268E+01
  0
VERTEX
  8
0
 62
4
 10
-5.57955712E+01
 20
-7.21876916E+01
  0
VERTEX
  8
0
 62
4
 10
-5.58522170E+01
 20
-7.19360608E+01
  0
VERTEX
  8
0
 62
4
 10
-5.59309166E+01
 20
-7.16902495E+01
  0
VERTEX
  8
0
 62
4
 10
-5.60310711E+01
 20
-7.14521286E+01
  0
VERTEX
  8
0
 62
4
 10
-5.61519183E+01
 20
-7.12235102E+01
  0
VERTEX
  8
0
 62
4
 10
-5.62925384E+01
 20
-7.10061342E+01
  0
VERTEX
  8
0
 62
4
 10
-5.64518612E+01
 20
-7.08016551E+01
  0
VERTEX
  8
0
 62
4
 10
-5.66286742E+01
 20
-7.06116291E+01
  0
VERTEX
  8
0
 62
4
 10
-5.68216317E+01
 20
-7.04375023E+01
  0
VERTEX
  8
0
 62
4
 10
-5.70292652E+01
 20
-7.02805999E+01
  0
VERTEX
  8
0
 62
4
 10
-5.72499945E+01
 20
-7.01421162E+01
  0
VERTEX
  8
0
 62
4
 10
-5.74821397E+01
 20
-7.00231050E+01
  0
VERTEX
  8
0
 62
4
 10
-5.77239341E+01
 20
-6.99244721E+01
  0
VERTEX
  8
0
 62
4
 10
-5.79735374E+01
 20
-6.98469681E+01
  0
VERTEX
  8
0
 62
4
 10
-5.82290500E+01
 20
-6.97911829E+01
  0
VERTEX
  8
0
 62
4
 10
-5.84885273E+01
 20
-6.97575410E+01
  0
VERTEX
  8
0
 62
4
 10
-5.87499945E+01
 20
-6.97462985E+01
  0
VERTEX
  8
0
 62
4
 10
-5.90114617E+01
 20
-6.97575410E+01
  0
VERTEX
  8
0
 62
4
 10
-5.92709390E+01
 20
-6.97911829E+01
  0
VERTEX
  8
0
 62
4
 10
-5.95264516E+01
 20
-6.98469681E+01
  0
VERTEX
  8
0
 62
4
 10
-5.97760549E+01
 20
-6.99244721E+01
  0
VERTEX
  8
0
 62
4
 10
-6.00178493E+01
 20
-7.00231050E+01
  0
VERTEX
  8
0
 62
4
 10
-6.02499945E+01
 20
-7.01421162E+01
  0
VERTEX
  8
0
 62
4
 10
-6.04707238E+01
 20
-7.02805999E+01
  0
VERTEX
  8
0
 62
4
 10
-6.06783573E+01
 20
-7.04375023E+01
  0
VERTEX
  8
0
 62
4
 10
-6.08713148E+01
 20
-7.06116291E+01
  0
VERTEX
  8
0
 62
4
 10
-6.10481278E+01
 20
-7.08016551E+01
  0
VERTEX
  8
0
 62
4
 10
-6.12074506E+01
 20
-7.10061342E+01
  0
VERTEX
  8
0
 62
4
 10
-6.13480707E+01
 20
-7.12235102E+01
  0
VERTEX
  8
0
 62
4
 10
-6.14689179E+01
 20
-7.14521286E+01
  0
VERTEX
  8
0
 62
4
 10
-6.15690724E+01
 20
-7.16902495E+01
  0
VERTEX
  8
0
 62
4
 10
-6.16477720E+01
 20
-7.19360608E+01
  0
VERTEX
  8
0
 62
4
 10
-6.17044178E+01
 20
-7.21876916E+01
  0
VERTEX
  8
0
 62
4
 10
-6.17385786E+01
 20
-7.24432269E+01
  0
VERTEX
  8
0
 62
4
 10
-6.17499945E+01
 20
-7.27007218E+01
  0
VERTEX
  8
0
 62
4
 10
-6.17385786E+01
 20
-7.29582168E+01
  0
VERTEX
  8
0
 62
4
 10
-6.17044178E+01
 20
-7.32137520E+01
  0
VERTEX
  8
0
 62
4
 10
-6.16477720E+01
 20
-7.34653828E+01
  0
VERTEX
  8
0
 62
4
 10
-6.15690724E+01
 20
-7.37111941E+01
  0
VERTEX
  8
0
 62
4
 10
-6.14689179E+01
 20
-7.39493150E+01
  0
VERTEX
  8
0
 62
4
 10
-6.13480707E+01
 20
-7.41779334E+01
  0
VERTEX
  8
0
 62
4
 10
-6.12074506E+01
 20
-7.43953094E+01
  0
VERTEX
  8
0
 62
4
 10
-6.10481278E+01
 20
-7.45997885E+01
  0
VERTEX
  8
0
 62
4
 10
-6.08713148E+01
 20
-7.47898145E+01
  0
VERTEX
  8
0
 62
4
 10
-6.06783573E+01
 20
-7.49639413E+01
  0
VERTEX
  8
0
 62
4
 10
-6.04707238E+01
 20
-7.51208437E+01
  0
VERTEX
  8
0
 62
4
 10
-6.02499945E+01
 20
-7.52593274E+01
  0
VERTEX
  8
0
 62
4
 10
-6.00178493E+01
 20
-7.53783386E+01
  0
VERTEX
  8
0
 62
4
 10
-5.97760549E+01
 20
-7.54769715E+01
  0
VERTEX
  8
0
 62
4
 10
-5.95264516E+01
 20
-7.55544755E+01
  0
VERTEX
  8
0
 62
4
 10
-5.92709390E+01
 20
-7.56102607E+01
  0
VERTEX
  8
0
 62
4
 10
-5.90114617E+01
 20
-7.56439026E+01
  0
VERTEX
  8
0
 62
4
 10
-5.87499945E+01
 20
-7.56551451E+01
  0
VERTEX
  8
0
 62
4
 10
-5.84885273E+01
 20
-7.56439026E+01
  0
VERTEX
  8
0
 62
4
 10
-5.82290500E+01
 20
-7.56102607E+01
  0
VERTEX
  8
0
 62
4
 10
-5.79735374E+01
 20
-7.55544755E+01
  0
VERTEX
  8
0
 62
4
 10
-5.77239341E+01
 20
-7.54769715E+01
  0
VERTEX
  8
0
 62
4
 10
-5.74821397E+01
 20
-7.53783386E+01
  0
VERTEX
  8
0
 62
4
 10
-5.72499945E+01
 20
-7.52593274E+01
  0
VERTEX
  8
0
 62
4
 10
-5.70292652E+01
 20
-7.51208436E+01
  0
VERTEX
  8
0
 62
4
 10
-5.68216317E+01
 20
-7.49639413E+01
  0
VERTEX
  8
0
 62
4
 10
-5.66286742E+01
 20
-7.47898145E+01
  0
VERTEX
  8
0
 62
4
 10
-5.64518612E+01
 20
-7.45997885E+01
  0
VERTEX
  8
0
 62
4
 10
-5.62925384E+01
 20
-7.43953094E+01
  0
VERTEX
  8
0
 62
4
 10
-5.61519183E+01
 20
-7.41779334E+01
  0
VERTEX
  8
0
 62
4
 10
-5.60310711E+01
 20
-7.39493150E+01
  0
VERTEX
  8
0
 62
4
 10
-5.59309166E+01
 20
-7.37111941E+01
  0
VERTEX
  8
0
 62
4
 10
-5.58522170E+01
 20
-7.34653828E+01
  0
VERTEX
  8
0
 62
4
 10
-5.57955712E+01
 20
-7.32137520E+01
  0
VERTEX
  8
0
 62
4
 10
-5.57614104E+01
 20
-7.29582167E+01
  0
VERTEX
  8
0
 62
4
 10
-5.57499945E+01
 20
-7.27007218E+01
  0
SEQEND
  8
0
  0
LINE
  8
0
  6
CENTER
 62
6
 10
-6.42365603E+01
 20
-7.27007218E+01
 11
-5.32634286E+01
 21
-7.27007218E+01
  0
LINE
  8
0
  6
CENTER
 62
6
 10
-4.27499945E+01
 20
-7.20408186E+01
 11
-4.27499945E+01
 21
-8.30849222E+01
  0
POLYLINE
  8
0
 62
4
 66
1
  0
VERTEX
  8
0
 62
4
 10
-5.47499945E+01
 20
-9.08565733E+01
  0
VERTEX
  8
0
 62
4
 10
-5.47660973E+01
 20
-9.07943105E+01
  0
VERTEX
  8
0
 62
4
 10
-5.48142761E+01
 20
-9.07325490E+01
  0
VERTEX
  8
0
 62
4
 10
-5.48941431E+01
 20
-9.06717860E+01
  0
VERTEX
  8
0
 62
4
 10
-5.50050550E+01
 20
-9.06125109E+01
  0
VERTEX
  8
0
 62
4
 10
-5.51461190E+01
 20
-9.05552008E+01
  0
VERTEX
  8
0
 62
4
 10
-5.53161993E+01
 20
-9.05003172E+01
  0
VERTEX
  8
0
 62
4
 10
-5.55139265E+01
 20
-9.04483019E+01
  0
VERTEX
  8
0
 62
4
 10
-5.57377086E+01
 20
-9.03995739E+01
  0
VERTEX
  8
0
 62
4
 10
-5.59857439E+01
 20
-9.03545253E+01
  0
VERTEX
  8
0
 62
4
 10
-5.62560353E+01
 20
-9.03135189E+01
  0
VERTEX
  8
0
 62
4
 10
-5.65464066E+01
 20
-9.02768848E+01
  0
VERTEX
  8
0
 62
4
 10
-5.68545198E+01
 20
-9.02449181E+01
  0
VERTEX
  8
0
 62
4
 10
-5.71778944E+01
 20
-9.02178760E+01
  0
VERTEX
  8
0
 62
4
 10
-5.75139265E+01
 20
-9.01959764E+01
  0
VERTEX
  8
0
 62
4
 10
-5.78599108E+01
 20
-9.01793955E+01
  0
VERTEX
  8
0
 62
4
 10
-5.82130614E+01
 20
-9.01682668E+01
  0
VERTEX
  8
0
 62
4
 10
-5.85705352E+01
 20
-9.01626800E+01
  0
VERTEX
  8
0
 62
4
 10
-5.89294538E+01
 20
-9.01626800E+01
  0
VERTEX
  8
0
 62
4
 10
-5.92869276E+01
 20
-9.01682668E+01
  0
VERTEX
  8
0
 62
4
 10
-5.96400782E+01
 20
-9.01793955E+01
  0
VERTEX
  8
0
 62
4
 10
-5.99860625E+01
 20
-9.01959764E+01
  0
VERTEX
  8
0
 62
4
 10
-6.03220946E+01
 20
-9.02178760E+01
  0
VERTEX
  8
0
 62
4
 10
-6.06454691E+01
 20
-9.02449181E+01
  0
VERTEX
  8
0
 62
4
 10
-6.09535824E+01
 20
-9.02768848E+01
  0
VERTEX
  8
0
 62
4
 10
-6.12439537E+01
 20
-9.03135188E+01
  0
VERTEX
  8
0
 62
4
 10
-6.15142451E+01
 20
-9.03545253E+01
  0
VERTEX
  8
0
 62
4
 10
-6.17622804E+01
 20
-9.03995739E+01
  0
VERTEX
  8
0
 62
4
 10
-6.19860625E+01
 20
-9.04483019E+01
  0
VERTEX
  8
0
 62
4
 10
-6.21837897E+01
 20
-9.05003172E+01
  0
VERTEX
  8
0
 62
4
 10
-6.23538700E+01
 20
-9.05552008E+01
  0
VERTEX
  8
0
 62
4
 10
-6.24949340E+01
 20
-9.06125109E+01
  0
VERTEX
  8
0
 62
4
 10
-6.26058459E+01
 20
-9.06717860E+01
  0
VERTEX
  8
0
 62
4
 10
-6.26857129E+01
 20
-9.07325490E+01
  0
VERTEX
  8
0
 62
4
 10
-6.27338917E+01
 20
-9.07943105E+01
  0
VERTEX
  8
0
 62
4
 10
-6.27499945E+01
 20
-9.08565733E+01
  0
SEQEND
  8
0
  0
POLYLINE
  8
0
 62
4
 66
1
  0
VERTEX
  8
0
 62
4
 10
-5.53499945E+01
 20
-9.17148766E+01
  0
VERTEX
  8
0
 62
4
 10
-5.51769425E+01
 20
-9.16612205E+01
  0
VERTEX
  8
0
 62
4
 10
-5.50318995E+01
 20
-9.16051168E+01
  0
VERTEX
  8
0
 62
4
 10
-5.49160027E+01
 20
-9.15470052E+01
  0
VERTEX
  8
0
 62
4
 10
-5.48301604E+01
 20
-9.14873412E+01
  0
VERTEX
  8
0
 62
4
 10
-5.47750456E+01
 20
-9.14265926E+01
  0
VERTEX
  8
0
 62
4
 10
-5.47510904E+01
 20
-9.13652356E+01
  0
VERTEX
  8
0
 62
4
 10
-5.47584826E+01
 20
-9.13037511E+01
  0
VERTEX
  8
0
 62
4
 10
-5.47971641E+01
 20
-9.12426212E+01
  0
VERTEX
  8
0
 62
4
 10
-5.48668318E+01
 20
-9.11823249E+01
  0
VERTEX
  8
0
 62
4
 10
-5.49669395E+01
 20
-9.11233351E+01
  0
VERTEX
  8
0
 62
4
 10
-5.50967026E+01
 20
-9.10661141E+01
  0
VERTEX
  8
0
 62
4
 10
-5.52551037E+01
 20
-9.10111104E+01
  0
VERTEX
  8
0
 62
4
 10
-5.54409012E+01
 20
-9.09587552E+01
  0
VERTEX
  8
0
 62
4
 10
-5.56526387E+01
 20
-9.09094590E+01
  0
VERTEX
  8
0
 62
4
 10
-5.58886563E+01
 20
-9.08636082E+01
  0
VERTEX
  8
0
 62
4
 10
-5.61471038E+01
 20
-9.08215622E+01
  0
VERTEX
  8
0
 62
4
 10
-5.64259554E+01
 20
-9.07836506E+01
  0
VERTEX
  8
0
 62
4
 10
-5.67230250E+01
 20
-9.07501705E+01
  0
VERTEX
  8
0
 62
4
 10
-5.70359841E+01
 20
-9.07213845E+01
  0
VERTEX
  8
0
 62
4
 10
-5.73623792E+01
 20
-9.06975182E+01
  0
VERTEX
  8
0
 62
4
 10
-5.76996519E+01
 20
-9.06787587E+01
  0
VERTEX
  8
0
 62
4
 10
-5.80451581E+01
 20
-9.06652529E+01
  0
VERTEX
  8
0
 62
4
 10
-5.83961896E+01
 20
-9.06571069E+01
  0
VERTEX
  8
0
 62
4
 10
-5.87499945E+01
 20
-9.06543845E+01
  0
VERTEX
  8
0
 62
4
 10
-5.91037994E+01
 20
-9.06571069E+01
  0
VERTEX
  8
0
 62
4
 10
-5.94548309E+01
 20
-9.06652529E+01
  0
VERTEX
  8
0
 62
4
 10
-5.98003371E+01
 20
-9.06787587E+01
  0
VERTEX
  8
0
 62
4
 10
-6.01376097E+01
 20
-9.06975182E+01
  0
VERTEX
  8
0
 62
4
 10
-6.04640049E+01
 20
-9.07213845E+01
  0
VERTEX
  8
0
 62
4
 10
-6.07769639E+01
 20
-9.07501705E+01
  0
VERTEX
  8
0
 62
4
 10
-6.10740336E+01
 20
-9.07836506E+01
  0
VERTEX
  8
0
 62
4
 10
-6.13528852E+01
 20
-9.08215622E+01
  0
VERTEX
  8
0
 62
4
 10
-6.16113327E+01
 20
-9.08636082E+01
  0
VERTEX
  8
0
 62
4
 10
-6.18473503E+01
 20
-9.09094590E+01
  0
VERTEX
  8
0
 62
4
 10
-6.20590877E+01
 20
-9.09587552E+01
  0
VERTEX
  8
0
 62
4
 10
-6.22448853E+01
 20
-9.10111104E+01
  0
VERTEX
  8
0
 62
4
 10
-6.24032864E+01
 20
-9.10661141E+01
  0
VERTEX
  8
0
 62
4
 10
-6.25330495E+01
 20
-9.11233351E+01
  0
VERTEX
  8
0
 62
4
 10
-6.26331572E+01
 20
-9.11823249E+01
  0
VERTEX
  8
0
 62
4
 10
-6.27028249E+01
 20
-9.12426212E+01
  0
VERTEX
  8
0
 62
4
 10
-6.27415064E+01
 20
-9.13037511E+01
  0
VERTEX
  8
0
 62
4
 10
-6.27488986E+01
 20
-9.13652356E+01
  0
VERTEX
  8
0
 62
4
 10
-6.27249434E+01
 20
-9.14265926E+01
  0
VERTEX
  8
0
 62
4
 10
-6.26698286E+01
 20
-9.14873412E+01
  0
VERTEX
  8
0
 62
4
 10
-6.25839863E+01
 20
-9.15470052E+01
  0
VERTEX
  8
0
 62
4
 10
-6.24680895E+01
 20
-9.16051168E+01
  0
VERTEX
  8
0
 62
4
 10
-6.23230465E+01
 20
-9.16612205E+01
  0
VERTEX
  8
0
 62
4
 10
-6.21499945E+01
 20
-9.17148766E+01
  0
SEQEND
  8
0
  0
POLYLINE
  8
0
 62
4
 66
1
  0
VERTEX
  8
0
 62
4
 10
-5.53499945E+01
 20
-9.13489772E+01
  0
VERTEX
  8
0
 62
4
 10
-5.53636819E+01
 20
-9.12960538E+01
  0
VERTEX
  8
0
 62
4
 10
-5.54046339E+01
 20
-9.12435565E+01
  0
VERTEX
  8
0
 62
4
 10
-5.54725208E+01
 20
-9.11919080E+01
  0
VERTEX
  8
0
 62
4
 10
-5.55667959E+01
 20
-9.11415242E+01
  0
VERTEX
  8
0
 62
4
 10
-5.56867003E+01
 20
-9.10928106E+01
  0
VERTEX
  8
0
 62
4
 10
-5.58312686E+01
 20
-9.10461595E+01
  0
VERTEX
  8
0
 62
4
 10
-5.59993367E+01
 20
-9.10019466E+01
  0
VERTEX
  8
0
 62
4
 10
-5.61895515E+01
 20
-9.09605277E+01
  0
VERTEX
  8
0
 62
4
 10
-5.64003815E+01
 20
-9.09222364E+01
  0
VERTEX
  8
0
 62
4
 10
-5.66301292E+01
 20
-9.08873809E+01
  0
VERTEX
  8
0
 62
4
 10
-5.68769448E+01
 20
-9.08562420E+01
  0
VERTEX
  8
0
 62
4
 10
-5.71388410E+01
 20
-9.08290702E+01
  0
VERTEX
  8
0
 62
4
 10
-5.74137094E+01
 20
-9.08060845E+01
  0
VERTEX
  8
0
 62
4
 10
-5.76993367E+01
 20
-9.07874698E+01
  0
VERTEX
  8
0
 62
4
 10
-5.79934233E+01
 20
-9.07733761E+01
  0
VERTEX
  8
0
 62
4
 10
-5.82936014E+01
 20
-9.07639167E+01
  0
VERTEX
  8
0
 62
4
 10
-5.85974541E+01
 20
-9.07591679E+01
  0
VERTEX
  8
0
 62
4
 10
-5.89025349E+01
 20
-9.07591679E+01
  0
VERTEX
  8
0
 62
4
 10
-5.92063876E+01
 20
-9.07639167E+01
  0
VERTEX
  8
0
 62
4
 10
-5.95065657E+01
 20
-9.07733761E+01
  0
VERTEX
  8
0
 62
4
 10
-5.98006523E+01
 20
-9.07874698E+01
  0
VERTEX
  8
0
 62
4
 10
-6.00862796E+01
 20
-9.08060845E+01
  0
VERTEX
  8
0
 62
4
 10
-6.03611479E+01
 20
-9.08290702E+01
  0
VERTEX
  8
0
 62
4
 10
-6.06230442E+01
 20
-9.08562420E+01
  0
VERTEX
  8
0
 62
4
 10
-6.08698598E+01
 20
-9.08873809E+01
  0
VERTEX
  8
0
 62
4
 10
-6.10996075E+01
 20
-9.09222364E+01
  0
VERTEX
  8
0
 62
4
 10
-6.13104375E+01
 20
-9.09605277E+01
  0
VERTEX
  8
0
 62
4
 10
-6.15006523E+01
 20
-9.10019465E+01
  0
VERTEX
  8
0
 62
4
 10
-6.16687204E+01
 20
-9.10461595E+01
  0
VERTEX
  8
0
 62
4
 10
-6.18132886E+01
 20
-9.10928106E+01
  0
VERTEX
  8
0
 62
4
 10
-6.19331931E+01
 20
-9.11415242E+01
  0
VERTEX
  8
0
 62
4
 10
-6.20274682E+01
 20
-9.11919080E+01
  0
VERTEX
  8
0
 62
4
 10
-6.20953551E+01
 20
-9.12435565E+01
  0
VERTEX
  8
0
 62
4
 10
-6.21363071E+01
 20
-9.12960538E+01
  0
VERTEX
  8
0
 62
4
 10
-6.21499945E+01
 20
-9.13489772E+01
  0
SEQEND
  8
0
  0
ARC
  8
0
 62
4
 10
-6.92504981E+01
 20
-8.80547156E+01
 40
1.49949647E+00
 50
1.79980757E+02
 51
2.70019243E+02
  0
LINE
  8
0
 62
4
 10
-3.17499945E+01
 20
-6.78149686E+01
 11
-3.17499945E+01
 21
-9.06594344E+01
  0
ARC
  8
0
 62
4
 10
-3.32504983E+01
 20
-6.78154724E+01
 40
1.50050386E+00
 50
1.92364101E-02
 51
8.99807637E+01
  0
ARC
  8
0
 62
4
 10
-3.32494947E+01
 20
-8.80547118E+01
 40
1.49950029E+00
 50
2.69980903E+02
 51
1.90971113E-02
  0
ARC
  8
0
 62
4
 10
-3.32494947E+01
 20
-9.06594344E+01
 40
1.49950029E+00
 50
2.69980903E+02
 51
1.90971113E-02
  0
LINE
  8
0
 62
4
 10
2.78938782E+02
 20
-1.47780229E+02
 11
2.73938782E+02
 21
-1.47780229E+02
  0
LINE
  8
0
 62
4
 10
2.62438782E+02
 20
-1.78914042E+02
 11
2.62438782E+02
 21
-1.76809944E+02
  0
LINE
  8
0
 62
4
 10
2.26438782E+02
 20
-1.78914042E+02
 11
2.26438782E+02
 21
-1.76809944E+02
  0
LINE
  8
0
 62
4
 10
2.42438782E+02
 20
-1.76129071E+02
 11
2.26438782E+02
 21
-1.76129071E+02
  0
ARC
  8
0
 62
4
 10
2.62439282E+02
 20
-1.77628571E+02
 40
1.49950029E+00
 50
3.59980903E+02
 51
9.00190969E+01
  0
LINE
  8
0
 62
4
 10
2.62438782E+02
 20
-1.76129071E+02
 11
2.61438782E+02
 21
-1.76129071E+02
  0
ARC
  8
0
 62
4
 10
2.26438282E+02
 20
-1.77628571E+02
 40
1.49950029E+00
 50
8.99809029E+01
 51
1.80019097E+02
  0
POLYLINE
  8
0
 62
4
 66
1
  0
VERTEX
  8
0
 62
4
 10
2.57938782E+02
 20
-2.05236108E+02
  0
VERTEX
  8
0
 62
4
 10
2.57930922E+02
 20
-2.05062092E+02
  0
VERTEX
  8
0
 62
4
 10
2.57907402E+02
 20
-2.04889444E+02
  0
VERTEX
  8
0
 62
4
 10
2.57868409E+02
 20
-2.04719521E+02
  0
VERTEX
  8
0
 62
4
 10
2.57814248E+02
 20
-2.04553658E+02
  0
VERTEX
  8
0
 62
4
 10
2.57745345E+02
 20
-2.04393160E+02
  0
VERTEX
  8
0
 62
4
 10
2.57662242E+02
 20
-2.04239288E+02
  0
VERTEX
  8
0
 62
4
 10
2.57565592E+02
 20
-2.04093251E+02
  0
VERTEX
  8
0
 62
4
 10
2.57456154E+02
 20
-2.03956197E+02
  0
VERTEX
  8
0
 62
4
 10
2.57334790E+02
 20
-2.03829204E+02
  0
VERTEX
  8
0
 62
4
 10
2.57202452E+02
 20
-2.03713270E+02
  0
VERTEX
  8
0
 62
4
 10
2.57060181E+02
 20
-2.03609306E+02
  0
VERTEX
  8
0
 62
4
 10
2.56909096E+02
 20
-2.03518129E+02
  0
VERTEX
  8
0
 62
4
 10
2.56750384E+02
 20
-2.03440456E+02
  0
VERTEX
  8
0
 62
4
 10
2.56585292E+02
 20
-2.03376897E+02
  0
VERTEX
  8
0
 62
4
 10
2.56415118E+02
 20
-2.03327953E+02
  0
VERTEX
  8
0
 62
4
 10
2.56241200E+02
 20
-2.03294007E+02
  0
VERTEX
  8
0
 62
4
 10
2.56064905E+02
 20
-2.03275327E+02
  0
VERTEX
  8
0
 62
4
 10
2.55887619E+02
 20
-2.03272059E+02
  0
VERTEX
  8
0
 62
4
 10
2.55710735E+02
 20
-2.03284230E+02
  0
VERTEX
  8
0
 62
4
 10
2.55535643E+02
 20
-2.03311743E+02
  0
VERTEX
  8
0
 62
4
 10
2.55363721E+02
 20
-2.03354383E+02
  0
VERTEX
  8
0
 62
4
 10
2.55196318E+02
 20
-2.03411813E+02
  0
VERTEX
  8
0
 62
4
 10
2.55034752E+02
 20
-2.03483583E+02
  0
VERTEX
  8
0
 62
4
 10
2.54880291E+02
 20
-2.03569129E+02
  0
VERTEX
  8
0
 62
4
 10
2.54734151E+02
 20
-2.03667777E+02
  0
VERTEX
  8
0
 62
4
 10
2.54597479E+02
 20
-2.03778754E+02
  0
VERTEX
  8
0
 62
4
 10
2.54471351E+02
 20
-2.03901185E+02
  0
VERTEX
  8
0
 62
4
 10
2.54356757E+02
 20
-2.04034110E+02
  0
VERTEX
  8
0
 62
4
 10
2.54254598E+02
 20
-2.04176483E+02
  0
VERTEX
  8
0
 62
4
 10
2.54165678E+02
 20
-2.04327185E+02
  0
VERTEX
  8
0
 62
4
 10
2.54090695E+02
 20
-2.04485031E+02
  0
VERTEX
  8
0
 62
4
 10
2.54030239E+02
 20
-2.04648781E+02
  0
VERTEX
  8
0
 62
4
 10
2.53984784E+02
 20
-2.04817148E+02
  0
VERTEX
  8
0
 62
4
 10
2.53954689E+02
 20
-2.04988807E+02
  0
VERTEX
  8
0
 62
4
 10
2.53940190E+02
 20
-2.05162411E+02
  0
VERTEX
  8
0
 62
4
 10
2.53941400E+02
 20
-2.05336594E+02
  0
SEQEND
  8
0
  0
POLYLINE
  8
0
 62
4
 66
1
  0
VERTEX
  8
0
 62
4
 10
2.57673782E+02
 20
-2.05610729E+02
  0
VERTEX
  8
0
 62
4
 10
2.57667180E+02
 20
-2.05461811E+02
  0
VERTEX
  8
0
 62
4
 10
2.57647423E+02
 20
-2.05314027E+02
  0
VERTEX
  8
0
 62
4
 10
2.57614663E+02
 20
-2.05168500E+02
  0
VERTEX
  8
0
 62
4
 10
2.57569149E+02
 20
-2.05026339E+02
  0
VERTEX
  8
0
 62
4
 10
2.57511226E+02
 20
-2.04888626E+02
  0
VERTEX
  8
0
 62
4
 10
2.57441336E+02
 20
-2.04756408E+02
  0
VERTEX
  8
0
 62
4
 10
2.57360011E+02
 20
-2.04630693E+02
  0
VERTEX
  8
0
 62
4
 10
2.57267869E+02
 20
-2.04512435E+02
  0
VERTEX
  8
0
 62
4
 10
2.57165612E+02
 20
-2.04402537E+02
  0
VERTEX
  8
0
 62
4
 10
2.57054019E+02
 20
-2.04301834E+02
  0
VERTEX
  8
0
 62
4
 10
2.56933937E+02
 20
-2.04211092E+02
  0
VERTEX
  8
0
 62
4
 10
2.56806282E+02
 20
-2.04131002E+02
  0
VERTEX
  8
0
 62
4
 10
2.56672025E+02
 20
-2.04062174E+02
  0
VERTEX
  8
0
 62
4
 10
2.56532187E+02
 20
-2.04005131E+02
  0
VERTEX
  8
0
 62
4
 10
2.56387833E+02
 20
-2.03960308E+02
  0
VERTEX
  8
0
 62
4
 10
2.56240062E+02
 20
-2.03928046E+02
  0
VERTEX
  8
0
 62
4
 10
2.56089997E+02
 20
-2.03908589E+02
  0
VERTEX
  8
0
 62
4
 10
2.55938782E+02
 20
-2.03902088E+02
  0
VERTEX
  8
0
 62
4
 10
2.55787567E+02
 20
-2.03908589E+02
  0
VERTEX
  8
0
 62
4
 10
2.55637502E+02
 20
-2.03928046E+02
  0
VERTEX
  8
0
 62
4
 10
2.55489731E+02
 20
-2.03960308E+02
  0
VERTEX
  8
0
 62
4
 10
2.55345377E+02
 20
-2.04005131E+02
  0
VERTEX
  8
0
 62
4
 10
2.55205539E+02
 20
-2.04062174E+02
  0
VERTEX
  8
0
 62
4
 10
2.55071282E+02
 20
-2.04131002E+02
  0
VERTEX
  8
0
 62
4
 10
2.54943627E+02
 20
-2.04211092E+02
  0
VERTEX
  8
0
 62
4
 10
2.54823545E+02
 20
-2.04301834E+02
  0
VERTEX
  8
0
 62
4
 10
2.54711952E+02
 20
-2.04402537E+02
  0
VERTEX
  8
0
 62
4
 10
2.54609695E+02
 20
-2.04512435E+02
  0
VERTEX
  8
0
 62
4
 10
2.54517553E+02
 20
-2.04630693E+02
  0
VERTEX
  8
0
 62
4
 10
2.54436228E+02
 20
-2.04756408E+02
  0
VERTEX
  8
0
 62
4
 10
2.54366338E+02
 20
-2.04888626E+02
  0
VERTEX
  8
0
 62
4
 10
2.54308415E+02
 20
-2.05026339E+02
  0
VERTEX
  8
0
 62
4
 10
2.54262901E+02
 20
-2.05168500E+02
  0
VERTEX
  8
0
 62
4
 10
2.54230141E+02
 20
-2.05314027E+02
  0
VERTEX
  8
0
 62
4
 10
2.54210384E+02
 20
-2.05461811E+02
  0
VERTEX
  8
0
 62
4
 10
2.54203782E+02
 20
-2.05610729E+02
  0
VERTEX
  8
0
 62
4
 10
2.54210384E+02
 20
-2.05759647E+02
  0
VERTEX
  8
0
 62
4
 10
2.54230141E+02
 20
-2.05907431E+02
  0
VERTEX
  8
0
 62
4
 10
2.54262901E+02
 20
-2.06052958E+02
  0
VERTEX
  8
0
 62
4
 10
2.54308415E+02
 20
-2.06195119E+02
  0
VERTEX
  8
0
 62
4
 10
2.54366338E+02
 20
-2.06332832E+02
  0
VERTEX
  8
0
 62
4
 10
2.54436228E+02
 20
-2.06465050E+02
  0
VERTEX
  8
0
 62
4
 10
2.54517553E+02
 20
-2.06590765E+02
  0
VERTEX
  8
0
 62
4
 10
2.54609695E+02
 20
-2.06709023E+02
  0
VERTEX
  8
0
 62
4
 10
2.54711952E+02
 20
-2.06818921E+02
  0
VERTEX
  8
0
 62
4
 10
2.54823545E+02
 20
-2.06919624E+02
  0
VERTEX
  8
0
 62
4
 10
2.54943627E+02
 20
-2.07010366E+02
  0
VERTEX
  8
0
 62
4
 10
2.55071282E+02
 20
-2.07090456E+02
  0
VERTEX
  8
0
 62
4
 10
2.55205539E+02
 20
-2.07159284E+02
  0
VERTEX
  8
0
 62
4
 10
2.55345377E+02
 20
-2.07216327E+02
  0
VERTEX
  8
0
 62
4
 10
2.55489731E+02
 20
-2.07261150E+02
  0
VERTEX
  8
0
 62
4
 10
2.55637502E+02
 20
-2.07293412E+02
  0
VERTEX
  8
0
 62
4
 10
2.55787567E+02
 20
-2.07312869E+02
  0
VERTEX
  8
0
 62
4
 10
2.55938782E+02
 20
-2.07319370E+02
  0
VERTEX
  8
0
 62
4
 10
2.56089997E+02
 20
-2.07312869E+02
  0
VERTEX
  8
0
 62
4
 10
2.56240062E+02
 20
-2.07293412E+02
  0
VERTEX
  8
0
 62
4
 10
2.56387833E+02
 20
-2.07261150E+02
  0
VERTEX
  8
0
 62
4
 10
2.56532187E+02
 20
-2.07216327E+02
  0
VERTEX
  8
0
 62
4
 10
2.56672025E+02
 20
-2.07159284E+02
  0
VERTEX
  8
0
 62
4
 10
2.56806282E+02
 20
-2.07090456E+02
  0
VERTEX
  8
0
 62
4
 10
2.56933937E+02
 20
-2.07010366E+02
  0
VERTEX
  8
0
 62
4
 10
2.57054019E+02
 20
-2.06919624E+02
  0
VERTEX
  8
0
 62
4
 10
2.57165612E+02
 20
-2.06818921E+02
  0
VERTEX
  8
0
 62
4
 10
2.57267869E+02
 20
-2.06709023E+02
  0
VERTEX
  8
0
 62
4
 10
2.57360011E+02
 20
-2.06590765E+02
  0
VERTEX
  8
0
 62
4
 10
2.57441336E+02
 20
-2.06465050E+02
  0
VERTEX
  8
0
 62
4
 10
2.57511226E+02
 20
-2.06332832E+02
  0
VERTEX
  8
0
 62
4
 10
2.57569149E+02
 20
-2.06195119E+02
  0
VERTEX
  8
0
 62
4
 10
2.57614663E+02
 20
-2.06052958E+02
  0
VERTEX
  8
0
 62
4
 10
2.57647423E+02
 20
-2.05907431E+02
  0
VERTEX
  8
0
 62
4
 10
2.57667180E+02
 20
-2.05759647E+02
  0
VERTEX
  8
0
 62
4
 10
2.57673782E+02
 20
-2.05610729E+02
  0
SEQEND
  8
0
  0
POLYLINE
  8
0
 62
4
 66
1
  0
VERTEX
  8
0
 62
4
 10
2.57938782E+02
 20
-2.05437081E+02
  0
VERTEX
  8
0
 62
4
 10
2.57931171E+02
 20
-2.05265847E+02
  0
VERTEX
  8
0
 62
4
 10
2.57908398E+02
 20
-2.05095916E+02
  0
VERTEX
  8
0
 62
4
 10
2.57870634E+02
 20
-2.04928581E+02
  0
VERTEX
  8
0
 62
4
 10
2.57818167E+02
 20
-2.04765117E+02
  0
VERTEX
  8
0
 62
4
 10
2.57751398E+02
 20
-2.04606767E+02
  0
VERTEX
  8
0
 62
4
 10
2.57670833E+02
 20
-2.04454735E+02
  0
VERTEX
  8
0
 62
4
 10
2.57577086E+02
 20
-2.04310180E+02
  0
VERTEX
  8
0
 62
4
 10
2.57470871E+02
 20
-2.04174202E+02
  0
VERTEX
  8
0
 62
4
 10
2.57352996E+02
 20
-2.04047834E+02
  0
VERTEX
  8
0
 62
4
 10
2.57224357E+02
 20
-2.03932040E+02
  0
VERTEX
  8
0
 62
4
 10
2.57085935E+02
 20
-2.03827700E+02
  0
VERTEX
  8
0
 62
4
 10
2.56938782E+02
 20
-2.03735608E+02
  0
VERTEX
  8
0
 62
4
 10
2.56784019E+02
 20
-2.03656466E+02
  0
VERTEX
  8
0
 62
4
 10
2.56622822E+02
 20
-2.03590875E+02
  0
VERTEX
  8
0
 62
4
 10
2.56456420E+02
 20
-2.03539335E+02
  0
VERTEX
  8
0
 62
4
 10
2.56286078E+02
 20
-2.03502238E+02
  0
VERTEX
  8
0
 62
4
 10
2.56113093E+02
 20
-2.03479866E+02
  0
VERTEX
  8
0
 62
4
 10
2.55938782E+02
 20
-2.03472390E+02
  0
VERTEX
  8
0
 62
4
 10
2.55764471E+02
 20
-2.03479866E+02
  0
VERTEX
  8
0
 62
4
 10
2.55591486E+02
 20
-2.03502238E+02
  0
VERTEX
  8
0
 62
4
 10
2.55421144E+02
 20
-2.03539335E+02
  0
VERTEX
  8
0
 62
4
 10
2.55254742E+02
 20
-2.03590875E+02
  0
VERTEX
  8
0
 62
4
 10
2.55093545E+02
 20
-2.03656466E+02
  0
VERTEX
  8
0
 62
4
 10
2.54938782E+02
 20
-2.03735608E+02
  0
VERTEX
  8
0
 62
4
 10
2.54791629E+02
 20
-2.03827700E+02
  0
VERTEX
  8
0
 62
4
 10
2.54653207E+02
 20
-2.03932040E+02
  0
VERTEX
  8
0
 62
4
 10
2.54524568E+02
 20
-2.04047834E+02
  0
VERTEX
  8
0
 62
4
 10
2.54406693E+02
 20
-2.04174202E+02
  0
VERTEX
  8
0
 62
4
 10
2.54300478E+02
 20
-2.04310180E+02
  0
VERTEX
  8
0
 62
4
 10
2.54206731E+02
 20
-2.04454735E+02
  0
VERTEX
  8
0
 62
4
 10
2.54126166E+02
 20
-2.04606767E+02
  0
VERTEX
  8
0
 62
4
 10
2.54059397E+02
 20
-2.04765117E+02
  0
VERTEX
  8
0
 62
4
 10
2.54006930E+02
 20
-2.04928581E+02
  0
VERTEX
  8
0
 62
4
 10
2.53969166E+02
 20
-2.05095916E+02
  0
VERTEX
  8
0
 62
4
 10
2.53946393E+02
 20
-2.05265847E+02
  0
VERTEX
  8
0
 62
4
 10
2.53938782E+02
 20
-2.05437081E+02
  0
VERTEX
  8
0
 62
4
 10
2.53946393E+02
 20
-2.05608315E+02
  0
VERTEX
  8
0
 62
4
 10
2.53969166E+02
 20
-2.05778246E+02
  0
VERTEX
  8
0
 62
4
 10
2.54006930E+02
 20
-2.05945581E+02
  0
VERTEX
  8
0
 62
4
 10
2.54059397E+02
 20
-2.06109045E+02
  0
VERTEX
  8
0
 62
4
 10
2.54126166E+02
 20
-2.06267395E+02
  0
VERTEX
  8
0
 62
4
 10
2.54206731E+02
 20
-2.06419427E+02
  0
VERTEX
  8
0
 62
4
 10
2.54300478E+02
 20
-2.06563982E+02
  0
VERTEX
  8
0
 62
4
 10
2.54406693E+02
 20
-2.06699960E+02
  0
VERTEX
  8
0
 62
4
 10
2.54524568E+02
 20
-2.06826328E+02
  0
VERTEX
  8
0
 62
4
 10
2.54653207E+02
 20
-2.06942122E+02
  0
VERTEX
  8
0
 62
4
 10
2.54791629E+02
 20
-2.07046462E+02
  0
VERTEX
  8
0
 62
4
 10
2.54938782E+02
 20
-2.07138554E+02
  0
VERTEX
  8
0
 62
4
 10
2.55093545E+02
 20
-2.07217696E+02
  0
VERTEX
  8
0
 62
4
 10
2.55254742E+02
 20
-2.07283287E+02
  0
VERTEX
  8
0
 62
4
 10
2.55421144E+02
 20
-2.07334827E+02
  0
VERTEX
  8
0
 62
4
 10
2.55591486E+02
 20
-2.07371924E+02
  0
VERTEX
  8
0
 62
4
 10
2.55764471E+02
 20
-2.07394296E+02
  0
VERTEX
  8
0
 62
4
 10
2.55938782E+02
 20
-2.07401772E+02
  0
VERTEX
  8
0
 62
4
 10
2.56113093E+02
 20
-2.07394296E+02
  0
VERTEX
  8
0
 62
4
 10
2.56286078E+02
 20
-2.07371924E+02
  0
VERTEX
  8
0
 62
4
 10
2.56456420E+02
 20
-2.07334827E+02
  0
VERTEX
  8
0
 62
4
 10
2.56622822E+02
 20
-2.07283287E+02
  0
VERTEX
  8
0
 62
4
 10
2.56784019E+02
 20
-2.07217696E+02
  0
VERTEX
  8
0
 62
4
 10
2.56938782E+02
 20
-2.07138554E+02
  0
VERTEX
  8
0
 62
4
 10
2.57085935E+02
 20
-2.07046462E+02
  0
VERTEX
  8
0
 62
4
 10
2.57224357E+02
 20
-2.06942122E+02
  0
VERTEX
  8
0
 62
4
 10
2.57352996E+02
 20
-2.06826328E+02
  0
VERTEX
  8
0
 62
4
 10
2.57470871E+02
 20
-2.06699960E+02
  0
VERTEX
  8
0
 62
4
 10
2.57577086E+02
 20
-2.06563982E+02
  0
VERTEX
  8
0
 62
4
 10
2.57670833E+02
 20
-2.06419427E+02
  0
VERTEX
  8
0
 62
4
 10
2.57751398E+02
 20
-2.06267395E+02
  0
VERTEX
  8
0
 62
4
 10
2.57818167E+02
 20
-2.06109045E+02
  0
VERTEX
  8
0
 62
4
 10
2.57870634E+02
 20
-2.05945581E+02
  0
VERTEX
  8
0
 62
4
 10
2.57908398E+02
 20
-2.05778246E+02
  0
VERTEX
  8
0
 62
4
 10
2.57931171E+02
 20
-2.05608315E+02
  0
VERTEX
  8
0
 62
4
 10
2.57938782E+02
 20
-2.05437081E+02
  0
SEQEND
  8
0
  0
POLYLINE
  8
0
 62
6
 66
1
  0
VERTEX
  8
0
 62
6
 10
2.57438782E+02
 20
-2.05605805E+02
  0
VERTEX
  8
0
 62
6
 10
2.57433074E+02
 20
-2.05477058E+02
  0
VERTEX
  8
0
 62
6
 10
2.57415994E+02
 20
-2.05349290E+02
  0
VERTEX
  8
0
 62
6
 10
2.57387671E+02
 20
-2.05223474E+02
  0
VERTEX
  8
0
 62
6
 10
2.57348321E+02
 20
-2.05100569E+02
  0
VERTEX
  8
0
 62
6
 10
2.57298244E+02
 20
-2.04981508E+02
  0
VERTEX
  8
0
 62
6
 10
2.57237820E+02
 20
-2.04867199E+02
  0
VERTEX
  8
0
 62
6
 10
2.57167510E+02
 20
-2.04758511E+02
  0
VERTEX
  8
0
 62
6
 10
2.57087849E+02
 20
-2.04656272E+02
  0
VERTEX
  8
0
 62
6
 10
2.56999442E+02
 20
-2.04561259E+02
  0
VERTEX
  8
0
 62
6
 10
2.56902963E+02
 20
-2.04474195E+02
  0
VERTEX
  8
0
 62
6
 10
2.56799147E+02
 20
-2.04395744E+02
  0
VERTEX
  8
0
 62
6
 10
2.56688782E+02
 20
-2.04326502E+02
  0
VERTEX
  8
0
 62
6
 10
2.56572709E+02
 20
-2.04266997E+02
  0
VERTEX
  8
0
 62
6
 10
2.56451812E+02
 20
-2.04217680E+02
  0
VERTEX
  8
0
 62
6
 10
2.56327011E+02
 20
-2.04178928E+02
  0
VERTEX
  8
0
 62
6
 10
2.56199254E+02
 20
-2.04151036E+02
  0
VERTEX
  8
0
 62
6
 10
2.56069516E+02
 20
-2.04134215E+02
  0
VERTEX
  8
0
 62
6
 10
2.55938782E+02
 20
-2.04128593E+02
  0
VERTEX
  8
0
 62
6
 10
2.55808048E+02
 20
-2.04134215E+02
  0
VERTEX
  8
0
 62
6
 10
2.55678310E+02
 20
-2.04151036E+02
  0
VERTEX
  8
0
 62
6
 10
2.55550553E+02
 20
-2.04178928E+02
  0
VERTEX
  8
0
 62
6
 10
2.55425752E+02
 20
-2.04217680E+02
  0
VERTEX
  8
0
 62
6
 10
2.55304855E+02
 20
-2.04266997E+02
  0
VERTEX
  8
0
 62
6
 10
2.55188782E+02
 20
-2.04326502E+02
  0
VERTEX
  8
0
 62
6
 10
2.55078417E+02
 20
-2.04395744E+02
  0
VERTEX
  8
0
 62
6
 10
2.54974601E+02
 20
-2.04474195E+02
  0
VERTEX
  8
0
 62
6
 10
2.54878122E+02
 20
-2.04561259E+02
  0
VERTEX
  8
0
 62
6
 10
2.54789715E+02
 20
-2.04656272E+02
  0
VERTEX
  8
0
 62
6
 10
2.54710054E+02
 20
-2.04758511E+02
  0
VERTEX
  8
0
 62
6
 10
2.54639744E+02
 20
-2.04867199E+02
  0
VERTEX
  8
0
 62
6
 10
2.54579320E+02
 20
-2.04981508E+02
  0
VERTEX
  8
0
 62
6
 10
2.54529243E+02
 20
-2.05100569E+02
  0
VERTEX
  8
0
 62
6
 10
2.54489893E+02
 20
-2.05223474E+02
  0
VERTEX
  8
0
 62
6
 10
2.54461570E+02
 20
-2.05349290E+02
  0
VERTEX
  8
0
 62
6
 10
2.54444490E+02
 20
-2.05477058E+02
  0
VERTEX
  8
0
 62
6
 10
2.54438782E+02
 20
-2.05605805E+02
  0
VERTEX
  8
0
 62
6
 10
2.54444490E+02
 20
-2.05734552E+02
  0
VERTEX
  8
0
 62
6
 10
2.54461570E+02
 20
-2.05862320E+02
  0
VERTEX
  8
0
 62
6
 10
2.54489893E+02
 20
-2.05988136E+02
  0
VERTEX
  8
0
 62
6
 10
2.54529243E+02
 20
-2.06111041E+02
  0
VERTEX
  8
0
 62
6
 10
2.54579320E+02
 20
-2.06230102E+02
  0
VERTEX
  8
0
 62
6
 10
2.54639744E+02
 20
-2.06344411E+02
  0
VERTEX
  8
0
 62
6
 10
2.54710054E+02
 20
-2.06453099E+02
  0
VERTEX
  8
0
 62
6
 10
2.54789715E+02
 20
-2.06555338E+02
  0
VERTEX
  8
0
 62
6
 10
2.54878122E+02
 20
-2.06650351E+02
  0
VERTEX
  8
0
 62
6
 10
2.54974601E+02
 20
-2.06737415E+02
  0
VERTEX
  8
0
 62
6
 10
2.55078417E+02
 20
-2.06815866E+02
  0
VERTEX
  8
0
 62
6
 10
2.55188782E+02
 20
-2.06885108E+02
  0
VERTEX
  8
0
 62
6
 10
2.55304855E+02
 20
-2.06944613E+02
  0
VERTEX
  8
0
 62
6
 10
2.55425752E+02
 20
-2.06993930E+02
  0
VERTEX
  8
0
 62
6
 10
2.55550553E+02
 20
-2.07032682E+02
  0
VERTEX
  8
0
 62
6
 10
2.55678310E+02
 20
-2.07060574E+02
  0
VERTEX
  8
0
 62
6
 10
2.55808048E+02
 20
-2.07077395E+02
  0
VERTEX
  8
0
 62
6
 10
2.55938782E+02
 20
-2.07083017E+02
  0
VERTEX
  8
0
 62
6
 10
2.56069516E+02
 20
-2.07077395E+02
  0
VERTEX
  8
0
 62
6
 10
2.56199254E+02
 20
-2.07060574E+02
  0
VERTEX
  8
0
 62
6
 10
2.56327011E+02
 20
-2.07032682E+02
  0
VERTEX
  8
0
 62
6
 10
2.56451812E+02
 20
-2.06993930E+02
  0
VERTEX
  8
0
 62
6
 10
2.56572709E+02
 20
-2.06944613E+02
  0
VERTEX
  8
0
 62
6
 10
2.56688782E+02
 20
-2.06885108E+02
  0
VERTEX
  8
0
 62
6
 10
2.56799147E+02
 20
-2.06815866E+02
  0
VERTEX
  8
0
 62
6
 10
2.56902963E+02
 20
-2.06737415E+02
  0
VERTEX
  8
0
 62
6
 10
2.56999442E+02
 20
-2.06650351E+02
  0
VERTEX
  8
0
 62
6
 10
2.57087849E+02
 20
-2.06555338E+02
  0
VERTEX
  8
0
 62
6
 10
2.57167510E+02
 20
-2.06453099E+02
  0
VERTEX
  8
0
 62
6
 10
2.57237820E+02
 20
-2.06344411E+02
  0
VERTEX
  8
0
 62
6
 10
2.57298244E+02
 20
-2.06230102E+02
  0
VERTEX
  8
0
 62
6
 10
2.57348321E+02
 20
-2.06111041E+02
  0
VERTEX
  8
0
 62
6
 10
2.57387671E+02
 20
-2.05988135E+02
  0
VERTEX
  8
0
 62
6
 10
2.57415994E+02
 20
-2.05862320E+02
  0
VERTEX
  8
0
 62
6
 10
2.57433074E+02
 20
-2.05734552E+02
  0
VERTEX
  8
0
 62
6
 10
2.57438782E+02
 20
-2.05605805E+02
  0
SEQEND
  8
0
  0
POLYLINE
  8
0
 62
4
 66
1
  0
VERTEX
  8
0
 62
4
 10
2.49938782E+02
 20
-2.05236108E+02
  0
VERTEX
  8
0
 62
4
 10
2.49930922E+02
 20
-2.05062092E+02
  0
VERTEX
  8
0
 62
4
 10
2.49907402E+02
 20
-2.04889444E+02
  0
VERTEX
  8
0
 62
4
 10
2.49868409E+02
 20
-2.04719521E+02
  0
VERTEX
  8
0
 62
4
 10
2.49814248E+02
 20
-2.04553658E+02
  0
VERTEX
  8
0
 62
4
 10
2.49745345E+02
 20
-2.04393160E+02
  0
VERTEX
  8
0
 62
4
 10
2.49662242E+02
 20
-2.04239288E+02
  0
VERTEX
  8
0
 62
4
 10
2.49565592E+02
 20
-2.04093251E+02
  0
VERTEX
  8
0
 62
4
 10
2.49456154E+02
 20
-2.03956197E+02
  0
VERTEX
  8
0
 62
4
 10
2.49334790E+02
 20
-2.03829204E+02
  0
VERTEX
  8
0
 62
4
 10
2.49202452E+02
 20
-2.03713270E+02
  0
VERTEX
  8
0
 62
4
 10
2.49060181E+02
 20
-2.03609306E+02
  0
VERTEX
  8
0
 62
4
 10
2.48909096E+02
 20
-2.03518129E+02
  0
VERTEX
  8
0
 62
4
 10
2.48750384E+02
 20
-2.03440456E+02
  0
VERTEX
  8
0
 62
4
 10
2.48585292E+02
 20
-2.03376897E+02
  0
VERTEX
  8
0
 62
4
 10
2.48415118E+02
 20
-2.03327953E+02
  0
VERTEX
  8
0
 62
4
 10
2.48241200E+02
 20
-2.03294007E+02
  0
VERTEX
  8
0
 62
4
 10
2.48064905E+02
 20
-2.03275327E+02
  0
VERTEX
  8
0
 62
4
 10
2.47887619E+02
 20
-2.03272059E+02
  0
VERTEX
  8
0
 62
4
 10
2.47710735E+02
 20
-2.03284230E+02
  0
VERTEX
  8
0
 62
4
 10
2.47535643E+02
 20
-2.03311743E+02
  0
VERTEX
  8
0
 62
4
 10
2.47363721E+02
 20
-2.03354383E+02
  0
VERTEX
  8
0
 62
4
 10
2.47196318E+02
 20
-2.03411813E+02
  0
VERTEX
  8
0
 62
4
 10
2.47034752E+02
 20
-2.03483583E+02
  0
VERTEX
  8
0
 62
4
 10
2.46880291E+02
 20
-2.03569129E+02
  0
VERTEX
  8
0
 62
4
 10
2.46734151E+02
 20
-2.03667777E+02
  0
VERTEX
  8
0
 62
4
 10
2.46597479E+02
 20
-2.03778754E+02
  0
VERTEX
  8
0
 62
4
 10
2.46471351E+02
 20
-2.03901185E+02
  0
VERTEX
  8
0
 62
4
 10
2.46356757E+02
 20
-2.04034110E+02
  0
VERTEX
  8
0
 62
4
 10
2.46254598E+02
 20
-2.04176483E+02
  0
VERTEX
  8
0
 62
4
 10
2.46165678E+02
 20
-2.04327185E+02
  0
VERTEX
  8
0
 62
4
 10
2.46090695E+02
 20
-2.04485031E+02
  0
VERTEX
  8
0
 62
4
 10
2.46030239E+02
 20
-2.04648781E+02
  0
VERTEX
  8
0
 62
4
 10
2.45984784E+02
 20
-2.04817148E+02
  0
VERTEX
  8
0
 62
4
 10
2.45954689E+02
 20
-2.04988807E+02
  0
VERTEX
  8
0
 62
4
 10
2.45940190E+02
 20
-2.05162411E+02
  0
VERTEX
  8
0
 62
4
 10
2.45941400E+02
 20
-2.05336594E+02
  0
SEQEND
  8
0
  0
POLYLINE
  8
0
 62
4
 66
1
  0
VERTEX
  8
0
 62
4
 10
2.49673782E+02
 20
-2.05610729E+02
  0
VERTEX
  8
0
 62
4
 10
2.49667180E+02
 20
-2.05461811E+02
  0
VERTEX
  8
0
 62
4
 10
2.49647423E+02
 20
-2.05314027E+02
  0
VERTEX
  8
0
 62
4
 10
2.49614663E+02
 20
-2.05168500E+02
  0
VERTEX
  8
0
 62
4
 10
2.49569149E+02
 20
-2.05026339E+02
  0
VERTEX
  8
0
 62
4
 10
2.49511226E+02
 20
-2.04888626E+02
  0
VERTEX
  8
0
 62
4
 10
2.49441336E+02
 20
-2.04756408E+02
  0
VERTEX
  8
0
 62
4
 10
2.49360011E+02
 20
-2.04630693E+02
  0
VERTEX
  8
0
 62
4
 10
2.49267869E+02
 20
-2.04512435E+02
  0
VERTEX
  8
0
 62
4
 10
2.49165612E+02
 20
-2.04402537E+02
  0
VERTEX
  8
0
 62
4
 10
2.49054019E+02
 20
-2.04301834E+02
  0
VERTEX
  8
0
 62
4
 10
2.48933937E+02
 20
-2.04211092E+02
  0
VERTEX
  8
0
 62
4
 10
2.48806282E+02
 20
-2.04131002E+02
  0
VERTEX
  8
0
 62
4
 10
2.48672025E+02
 20
-2.04062174E+02
  0
VERTEX
  8
0
 62
4
 10
2.48532187E+02
 20
-2.04005131E+02
  0
VERTEX
  8
0
 62
4
 10
2.48387833E+02
 20
-2.03960308E+02
  0
VERTEX
  8
0
 62
4
 10
2.48240062E+02
 20
-2.03928046E+02
  0
VERTEX
  8
0
 62
4
 10
2.48089997E+02
 20
-2.03908589E+02
  0
VERTEX
  8
0
 62
4
 10
2.47938782E+02
 20
-2.03902088E+02
  0
VERTEX
  8
0
 62
4
 10
2.47787567E+02
 20
-2.03908589E+02
  0
VERTEX
  8
0
 62
4
 10
2.47637502E+02
 20
-2.03928046E+02
  0
VERTEX
  8
0
 62
4
 10
2.47489731E+02
 20
-2.03960308E+02
  0
VERTEX
  8
0
 62
4
 10
2.47345377E+02
 20
-2.04005131E+02
  0
VERTEX
  8
0
 62
4
 10
2.47205539E+02
 20
-2.04062174E+02
  0
VERTEX
  8
0
 62
4
 10
2.47071282E+02
 20
-2.04131002E+02
  0
VERTEX
  8
0
 62
4
 10
2.46943627E+02
 20
-2.04211092E+02
  0
VERTEX
  8
0
 62
4
 10
2.46823545E+02
 20
-2.04301834E+02
  0
VERTEX
  8
0
 62
4
 10
2.46711952E+02
 20
-2.04402537E+02
  0
VERTEX
  8
0
 62
4
 10
2.46609695E+02
 20
-2.04512435E+02
  0
VERTEX
  8
0
 62
4
 10
2.46517553E+02
 20
-2.04630693E+02
  0
VERTEX
  8
0
 62
4
 10
2.46436228E+02
 20
-2.04756408E+02
  0
VERTEX
  8
0
 62
4
 10
2.46366338E+02
 20
-2.04888626E+02
  0
VERTEX
  8
0
 62
4
 10
2.46308415E+02
 20
-2.05026339E+02
  0
VERTEX
  8
0
 62
4
 10
2.46262901E+02
 20
-2.05168500E+02
  0
VERTEX
  8
0
 62
4
 10
2.46230141E+02
 20
-2.05314027E+02
  0
VERTEX
  8
0
 62
4
 10
2.46210384E+02
 20
-2.05461811E+02
  0
VERTEX
  8
0
 62
4
 10
2.46203782E+02
 20
-2.05610729E+02
  0
VERTEX
  8
0
 62
4
 10
2.46210384E+02
 20
-2.05759647E+02
  0
VERTEX
  8
0
 62
4
 10
2.46230141E+02
 20
-2.05907431E+02
  0
VERTEX
  8
0
 62
4
 10
2.46262901E+02
 20
-2.06052958E+02
  0
VERTEX
  8
0
 62
4
 10
2.46308415E+02
 20
-2.06195119E+02
  0
VERTEX
  8
0
 62
4
 10
2.46366338E+02
 20
-2.06332832E+02
  0
VERTEX
  8
0
 62
4
 10
2.46436228E+02
 20
-2.06465050E+02
  0
VERTEX
  8
0
 62
4
 10
2.46517553E+02
 20
-2.06590765E+02
  0
VERTEX
  8
0
 62
4
 10
2.46609695E+02
 20
-2.06709023E+02
  0
VERTEX
  8
0
 62
4
 10
2.46711952E+02
 20
-2.06818921E+02
  0
VERTEX
  8
0
 62
4
 10
2.46823545E+02
 20
-2.06919624E+02
  0
VERTEX
  8
0
 62
4
 10
2.46943627E+02
 20
-2.07010366E+02
  0
VERTEX
  8
0
 62
4
 10
2.47071282E+02
 20
-2.07090456E+02
  0
VERTEX
  8
0
 62
4
 10
2.47205539E+02
 20
-2.07159284E+02
  0
VERTEX
  8
0
 62
4
 10
2.47345377E+02
 20
-2.07216327E+02
  0
VERTEX
  8
0
 62
4
 10
2.47489731E+02
 20
-2.07261150E+02
  0
VERTEX
  8
0
 62
4
 10
2.47637502E+02
 20
-2.07293412E+02
  0
VERTEX
  8
0
 62
4
 10
2.47787567E+02
 20
-2.07312869E+02
  0
VERTEX
  8
0
 62
4
 10
2.47938782E+02
 20
-2.07319370E+02
  0
VERTEX
  8
0
 62
4
 10
2.48089997E+02
 20
-2.07312869E+02
  0
VERTEX
  8
0
 62
4
 10
2.48240062E+02
 20
-2.07293412E+02
  0
VERTEX
  8
0
 62
4
 10
2.48387833E+02
 20
-2.07261150E+02
  0
VERTEX
  8
0
 62
4
 10
2.48532187E+02
 20
-2.07216327E+02
  0
VERTEX
  8
0
 62
4
 10
2.48672025E+02
 20
-2.07159284E+02
  0
VERTEX
  8
0
 62
4
 10
2.48806282E+02
 20
-2.07090456E+02
  0
VERTEX
  8
0
 62
4
 10
2.48933937E+02
 20
-2.07010366E+02
  0
VERTEX
  8
0
 62
4
 10
2.49054019E+02
 20
-2.06919624E+02
  0
VERTEX
  8
0
 62
4
 10
2.49165612E+02
 20
-2.06818921E+02
  0
VERTEX
  8
0
 62
4
 10
2.49267869E+02
 20
-2.06709023E+02
  0
VERTEX
  8
0
 62
4
 10
2.49360011E+02
 20
-2.06590765E+02
  0
VERTEX
  8
0
 62
4
 10
2.49441336E+02
 20
-2.06465050E+02
  0
VERTEX
  8
0
 62
4
 10
2.49511226E+02
 20
-2.06332832E+02
  0
VERTEX
  8
0
 62
4
 10
2.49569149E+02
 20
-2.06195119E+02
  0
VERTEX
  8
0
 62
4
 10
2.49614663E+02
 20
-2.06052958E+02
  0
VERTEX
  8
0
 62
4
 10
2.49647423E+02
 20
-2.05907431E+02
  0
VERTEX
  8
0
 62
4
 10
2.49667180E+02
 20
-2.05759647E+02
  0
VERTEX
  8
0
 62
4
 10
2.49673782E+02
 20
-2.05610729E+02
  0
SEQEND
  8
0
  0
POLYLINE
  8
0
 62
4
 66
1
  0
VERTEX
  8
0
 62
4
 10
2.49938782E+02
 20
-2.05437081E+02
  0
VERTEX
  8
0
 62
4
 10
2.49931171E+02
 20
-2.05265847E+02
  0
VERTEX
  8
0
 62
4
 10
2.49908398E+02
 20
-2.05095916E+02
  0
VERTEX
  8
0
 62
4
 10
2.49870634E+02
 20
-2.04928581E+02
  0
VERTEX
  8
0
 62
4
 10
2.49818167E+02
 20
-2.04765117E+02
  0
VERTEX
  8
0
 62
4
 10
2.49751398E+02
 20
-2.04606767E+02
  0
VERTEX
  8
0
 62
4
 10
2.49670833E+02
 20
-2.04454735E+02
  0
VERTEX
  8
0
 62
4
 10
2.49577086E+02
 20
-2.04310180E+02
  0
VERTEX
  8
0
 62
4
 10
2.49470871E+02
 20
-2.04174202E+02
  0
VERTEX
  8
0
 62
4
 10
2.49352996E+02
 20
-2.04047834E+02
  0
VERTEX
  8
0
 62
4
 10
2.49224357E+02
 20
-2.03932040E+02
  0
VERTEX
  8
0
 62
4
 10
2.49085935E+02
 20
-2.03827700E+02
  0
VERTEX
  8
0
 62
4
 10
2.48938782E+02
 20
-2.03735608E+02
  0
VERTEX
  8
0
 62
4
 10
2.48784019E+02
 20
-2.03656466E+02
  0
VERTEX
  8
0
 62
4
 10
2.48622822E+02
 20
-2.03590875E+02
  0
VERTEX
  8
0
 62
4
 10
2.48456420E+02
 20
-2.03539335E+02
  0
VERTEX
  8
0
 62
4
 10
2.48286078E+02
 20
-2.03502238E+02
  0
VERTEX
  8
0
 62
4
 10
2.48113093E+02
 20
-2.03479866E+02
  0
VERTEX
  8
0
 62
4
 10
2.47938782E+02
 20
-2.03472390E+02
  0
VERTEX
  8
0
 62
4
 10
2.47764471E+02
 20
-2.03479866E+02
  0
VERTEX
  8
0
 62
4
 10
2.47591486E+02
 20
-2.03502238E+02
  0
VERTEX
  8
0
 62
4
 10
2.47421144E+02
 20
-2.03539335E+02
  0
VERTEX
  8
0
 62
4
 10
2.47254742E+02
 20
-2.03590875E+02
  0
VERTEX
  8
0
 62
4
 10
2.47093545E+02
 20
-2.03656466E+02
  0
VERTEX
  8
0
 62
4
 10
2.46938782E+02
 20
-2.03735608E+02
  0
VERTEX
  8
0
 62
4
 10
2.46791629E+02
 20
-2.03827700E+02
  0
VERTEX
  8
0
 62
4
 10
2.46653207E+02
 20
-2.03932040E+02
  0
VERTEX
  8
0
 62
4
 10
2.46524568E+02
 20
-2.04047834E+02
  0
VERTEX
  8
0
 62
4
 10
2.46406693E+02
 20
-2.04174202E+02
  0
VERTEX
  8
0
 62
4
 10
2.46300478E+02
 20
-2.04310180E+02
  0
VERTEX
  8
0
 62
4
 10
2.46206731E+02
 20
-2.04454735E+02
  0
VERTEX
  8
0
 62
4
 10
2.46126166E+02
 20
-2.04606767E+02
  0
VERTEX
  8
0
 62
4
 10
2.46059397E+02
 20
-2.04765117E+02
  0
VERTEX
  8
0
 62
4
 10
2.46006930E+02
 20
-2.04928581E+02
  0
VERTEX
  8
0
 62
4
 10
2.45969166E+02
 20
-2.05095916E+02
  0
VERTEX
  8
0
 62
4
 10
2.45946393E+02
 20
-2.05265847E+02
  0
VERTEX
  8
0
 62
4
 10
2.45938782E+02
 20
-2.05437081E+02
  0
VERTEX
  8
0
 62
4
 10
2.45946393E+02
 20
-2.05608315E+02
  0
VERTEX
  8
0
 62
4
 10
2.45969166E+02
 20
-2.05778246E+02
  0
VERTEX
  8
0
 62
4
 10
2.46006930E+02
 20
-2.05945581E+02
  0
VERTEX
  8
0
 62
4
 10
2.46059397E+02
 20
-2.06109045E+02
  0
VERTEX
  8
0
 62
4
 10
2.46126166E+02
 20
-2.06267395E+02
  0
VERTEX
  8
0
 62
4
 10
2.46206731E+02
 20
-2.06419427E+02
  0
VERTEX
  8
0
 62
4
 10
2.46300478E+02
 20
-2.06563982E+02
  0
VERTEX
  8
0
 62
4
 10
2.46406693E+02
 20
-2.06699960E+02
  0
VERTEX
  8
0
 62
4
 10
2.46524568E+02
 20
-2.06826328E+02
  0
VERTEX
  8
0
 62
4
 10
2.46653207E+02
 20
-2.06942122E+02
  0
VERTEX
  8
0
 62
4
 10
2.46791629E+02
 20
-2.07046462E+02
  0
VERTEX
  8
0
 62
4
 10
2.46938782E+02
 20
-2.07138554E+02
  0
VERTEX
  8
0
 62
4
 10
2.47093545E+02
 20
-2.07217696E+02
  0
VERTEX
  8
0
 62
4
 10
2.47254742E+02
 20
-2.07283287E+02
  0
VERTEX
  8
0
 62
4
 10
2.47421144E+02
 20
-2.07334827E+02
  0
VERTEX
  8
0
 62
4
 10
2.47591486E+02
 20
-2.07371924E+02
  0
VERTEX
  8
0
 62
4
 10
2.47764471E+02
 20
-2.07394296E+02
  0
VERTEX
  8
0
 62
4
 10
2.47938782E+02
 20
-2.07401772E+02
  0
VERTEX
  8
0
 62
4
 10
2.48113093E+02
 20
-2.07394296E+02
  0
VERTEX
  8
0
 62
4
 10
2.48286078E+02
 20
-2.07371924E+02
  0
VERTEX
  8
0
 62
4
 10
2.48456420E+02
 20
-2.07334827E+02
  0
VERTEX
  8
0
 62
4
 10
2.48622822E+02
 20
-2.07283287E+02
  0
VERTEX
  8
0
 62
4
 10
2.48784019E+02
 20
-2.07217696E+02
  0
VERTEX
  8
0
 62
4
 10
2.48938782E+02
 20
-2.07138554E+02
  0
VERTEX
  8
0
 62
4
 10
2.49085935E+02
 20
-2.07046462E+02
  0
VERTEX
  8
0
 62
4
 10
2.49224357E+02
 20
-2.06942122E+02
  0
VERTEX
  8
0
 62
4
 10
2.49352996E+02
 20
-2.06826328E+02
  0
VERTEX
  8
0
 62
4
 10
2.49470871E+02
 20
-2.06699960E+02
  0
VERTEX
  8
0
 62
4
 10
2.49577086E+02
 20
-2.06563982E+02
  0
VERTEX
  8
0
 62
4
 10
2.49670833E+02
 20
-2.06419427E+02
  0
VERTEX
  8
0
 62
4
 10
2.49751398E+02
 20
-2.06267395E+02
  0
VERTEX
  8
0
 62
4
 10
2.49818167E+02
 20
-2.06109045E+02
  0
VERTEX
  8
0
 62
4
 10
2.49870634E+02
 20
-2.05945581E+02
  0
VERTEX
  8
0
 62
4
 10
2.49908398E+02
 20
-2.05778246E+02
  0
VERTEX
  8
0
 62
4
 10
2.49931171E+02
 20
-2.05608315E+02
  0
VERTEX
  8
0
 62
4
 10
2.49938782E+02
 20
-2.05437081E+02
  0
SEQEND
  8
0
  0
POLYLINE
  8
0
 62
6
 66
1
  0
VERTEX
  8
0
 62
6
 10
2.49438782E+02
 20
-2.05605805E+02
  0
VERTEX
  8
0
 62
6
 10
2.49433074E+02
 20
-2.05477058E+02
  0
VERTEX
  8
0
 62
6
 10
2.49415994E+02
 20
-2.05349290E+02
  0
VERTEX
  8
0
 62
6
 10
2.49387671E+02
 20
-2.05223474E+02
  0
VERTEX
  8
0
 62
6
 10
2.49348321E+02
 20
-2.05100569E+02
  0
VERTEX
  8
0
 62
6
 10
2.49298244E+02
 20
-2.04981508E+02
  0
VERTEX
  8
0
 62
6
 10
2.49237820E+02
 20
-2.04867199E+02
  0
VERTEX
  8
0
 62
6
 10
2.49167510E+02
 20
-2.04758511E+02
  0
VERTEX
  8
0
 62
6
 10
2.49087849E+02
 20
-2.04656272E+02
  0
VERTEX
  8
0
 62
6
 10
2.48999442E+02
 20
-2.04561259E+02
  0
VERTEX
  8
0
 62
6
 10
2.48902963E+02
 20
-2.04474195E+02
  0
VERTEX
  8
0
 62
6
 10
2.48799147E+02
 20
-2.04395744E+02
  0
VERTEX
  8
0
 62
6
 10
2.48688782E+02
 20
-2.04326502E+02
  0
VERTEX
  8
0
 62
6
 10
2.48572709E+02
 20
-2.04266997E+02
  0
VERTEX
  8
0
 62
6
 10
2.48451812E+02
 20
-2.04217680E+02
  0
VERTEX
  8
0
 62
6
 10
2.48327011E+02
 20
-2.04178928E+02
  0
VERTEX
  8
0
 62
6
 10
2.48199254E+02
 20
-2.04151036E+02
  0
VERTEX
  8
0
 62
6
 10
2.48069516E+02
 20
-2.04134215E+02
  0
VERTEX
  8
0
 62
6
 10
2.47938782E+02
 20
-2.04128593E+02
  0
VERTEX
  8
0
 62
6
 10
2.47808048E+02
 20
-2.04134215E+02
  0
VERTEX
  8
0
 62
6
 10
2.47678310E+02
 20
-2.04151036E+02
  0
VERTEX
  8
0
 62
6
 10
2.47550553E+02
 20
-2.04178928E+02
  0
VERTEX
  8
0
 62
6
 10
2.47425752E+02
 20
-2.04217680E+02
  0
VERTEX
  8
0
 62
6
 10
2.47304855E+02
 20
-2.04266997E+02
  0
VERTEX
  8
0
 62
6
 10
2.47188782E+02
 20
-2.04326502E+02
  0
VERTEX
  8
0
 62
6
 10
2.47078417E+02
 20
-2.04395744E+02
  0
VERTEX
  8
0
 62
6
 10
2.46974601E+02
 20
-2.04474195E+02
  0
VERTEX
  8
0
 62
6
 10
2.46878122E+02
 20
-2.04561259E+02
  0
VERTEX
  8
0
 62
6
 10
2.46789715E+02
 20
-2.04656272E+02
  0
VERTEX
  8
0
 62
6
 10
2.46710054E+02
 20
-2.04758511E+02
  0
VERTEX
  8
0
 62
6
 10
2.46639744E+02
 20
-2.04867199E+02
  0
VERTEX
  8
0
 62
6
 10
2.46579320E+02
 20
-2.04981508E+02
  0
VERTEX
  8
0
 62
6
 10
2.46529243E+02
 20
-2.05100569E+02
  0
VERTEX
  8
0
 62
6
 10
2.46489893E+02
 20
-2.05223474E+02
  0
VERTEX
  8
0
 62
6
 10
2.46461570E+02
 20
-2.05349290E+02
  0
VERTEX
  8
0
 62
6
 10
2.46444490E+02
 20
-2.05477058E+02
  0
VERTEX
  8
0
 62
6
 10
2.46438782E+02
 20
-2.05605805E+02
  0
VERTEX
  8
0
 62
6
 10
2.46444490E+02
 20
-2.05734552E+02
  0
VERTEX
  8
0
 62
6
 10
2.46461570E+02
 20
-2.05862320E+02
  0
VERTEX
  8
0
 62
6
 10
2.46489893E+02
 20
-2.05988136E+02
  0
VERTEX
  8
0
 62
6
 10
2.46529243E+02
 20
-2.06111041E+02
  0
VERTEX
  8
0
 62
6
 10
2.46579320E+02
 20
-2.06230102E+02
  0
VERTEX
  8
0
 62
6
 10
2.46639744E+02
 20
-2.06344411E+02
  0
VERTEX
  8
0
 62
6
 10
2.46710054E+02
 20
-2.06453099E+02
  0
VERTEX
  8
0
 62
6
 10
2.46789715E+02
 20
-2.06555338E+02
  0
VERTEX
  8
0
 62
6
 10
2.46878122E+02
 20
-2.06650351E+02
  0
VERTEX
  8
0
 62
6
 10
2.46974601E+02
 20
-2.06737415E+02
  0
VERTEX
  8
0
 62
6
 10
2.47078417E+02
 20
-2.06815866E+02
  0
VERTEX
  8
0
 62
6
 10
2.47188782E+02
 20
-2.06885108E+02
  0
VERTEX
  8
0
 62
6
 10
2.47304855E+02
 20
-2.06944613E+02
  0
VERTEX
  8
0
 62
6
 10
2.47425752E+02
 20
-2.06993930E+02
  0
VERTEX
  8
0
 62
6
 10
2.47550553E+02
 20
-2.07032682E+02
  0
VERTEX
  8
0
 62
6
 10
2.47678310E+02
 20
-2.07060574E+02
  0
VERTEX
  8
0
 62
6
 10
2.47808048E+02
 20
-2.07077395E+02
  0
VERTEX
  8
0
 62
6
 10
2.47938782E+02
 20
-2.07083017E+02
  0
VERTEX
  8
0
 62
6
 10
2.48069516E+02
 20
-2.07077395E+02
  0
VERTEX
  8
0
 62
6
 10
2.48199254E+02
 20
-2.07060574E+02
  0
VERTEX
  8
0
 62
6
 10
2.48327011E+02
 20
-2.07032682E+02
  0
VERTEX
  8
0
 62
6
 10
2.48451812E+02
 20
-2.06993930E+02
  0
VERTEX
  8
0
 62
6
 10
2.48572709E+02
 20
-2.06944613E+02
  0
VERTEX
  8
0
 62
6
 10
2.48688782E+02
 20
-2.06885108E+02
  0
VERTEX
  8
0
 62
6
 10
2.48799147E+02
 20
-2.06815866E+02
  0
VERTEX
  8
0
 62
6
 10
2.48902963E+02
 20
-2.06737415E+02
  0
VERTEX
  8
0
 62
6
 10
2.48999442E+02
 20
-2.06650351E+02
  0
VERTEX
  8
0
 62
6
 10
2.49087849E+02
 20
-2.06555338E+02
  0
VERTEX
  8
0
 62
6
 10
2.49167510E+02
 20
-2.06453099E+02
  0
VERTEX
  8
0
 62
6
 10
2.49237820E+02
 20
-2.06344411E+02
  0
VERTEX
  8
0
 62
6
 10
2.49298244E+02
 20
-2.06230102E+02
  0
VERTEX
  8
0
 62
6
 10
2.49348321E+02
 20
-2.06111041E+02
  0
VERTEX
  8
0
 62
6
 10
2.49387671E+02
 20
-2.05988135E+02
  0
VERTEX
  8
0
 62
6
 10
2.49415994E+02
 20
-2.05862320E+02
  0
VERTEX
  8
0
 62
6
 10
2.49433074E+02
 20
-2.05734552E+02
  0
VERTEX
  8
0
 62
6
 10
2.49438782E+02
 20
-2.05605805E+02
  0
SEQEND
  8
0
  0
LINE
  8
0
 62
4
 10
2.27938782E+02
 20
-1.98091046E+02
 11
2.27938782E+02
 21
-1.99407727E+02
  0
LINE
  8
0
 62
4
 10
2.60938782E+02
 20
-1.98091046E+02
 11
2.60938782E+02
 21
-1.99407727E+02
  0
LINE
  8
0
 62
4
 10
2.60938782E+02
 20
-1.98094210E+02
 11
2.63938782E+02
 21
-1.94675924E+02
  0
LINE
  8
0
 62
4
 10
2.27938782E+02
 20
-1.98094210E+02
 11
2.24938782E+02
 21
-1.94675924E+02
  0
LINE
  8
0
  6
CENTER
 62
6
 10
2.55938782E+02
 20
-2.00612482E+02
 11
2.55938782E+02
 21
-2.10602482E+02
  0
LINE
  8
0
 62
4
 10
2.59438782E+02
 20
-1.74195188E+02
 11
2.44438782E+02
 21
-1.74195188E+02
  0
LINE
  8
0
 62
4
 10
2.58285976E+02
 20
-2.00035134E+02
 11
2.45610522E+02
 21
-2.00035134E+02
  0
LINE
  8
0
 62
4
 10
2.59438782E+02
 20
-1.47955079E+02
 11
2.44438782E+02
 21
-1.47955079E+02
  0
LINE
  8
0
 62
4
 10
2.44438782E+02
 20
-1.84070861E+02
 11
2.59438782E+02
 21
-1.84070861E+02
  0
LINE
  8
0
 62
4
 10
2.44438782E+02
 20
-2.10411395E+02
 11
2.59438782E+02
 21
-2.10411395E+02
  0
LINE
  8
0
 62
4
 10
2.59438782E+02
 20
-1.84070861E+02
 11
2.59438782E+02
 21
-2.10411395E+02
  0
LINE
  8
0
 62
4
 10
2.44438782E+02
 20
-1.84070861E+02
 11
2.44438782E+02
 21
-2.10411395E+02
  0
LINE
  8
0
  6
CENTER
 62
6
 10
2.47938782E+02
 20
-2.00612482E+02
 11
2.47938782E+02
 21
-2.10602482E+02
  0
LINE
  8
0
  6
CENTER
 62
6
 10
2.42938782E+02
 20
-2.05605805E+02
 11
2.60938782E+02
 21
-2.05605805E+02
  0
LINE
  8
0
 62
4
 10
2.72438782E+02
 20
-1.49415166E+02
 11
2.68938782E+02
 21
-1.49415166E+02
  0
LINE
  8
0
 62
4
 10
2.62438782E+02
 20
-1.79466523E+02
 11
2.26438782E+02
 21
-1.79466523E+02
  0
LINE
  8
0
 62
4
 10
2.78938782E+02
 20
-1.52601971E+02
 11
2.73938782E+02
 21
-1.52601971E+02
  0
LINE
  8
0
 62
4
 10
2.78938782E+02
 20
-1.59997877E+02
 11
2.73938782E+02
 21
-1.59997877E+02
  0
LINE
  8
0
 62
4
 10
2.59438782E+02
 20
-1.48165166E+02
 11
2.68438782E+02
 21
-1.48165166E+02
  0
LINE
  8
0
 62
4
 10
2.68938782E+02
 20
-1.48668308E+02
 11
2.68938782E+02
 21
-1.61668308E+02
  0
LINE
  8
0
 62
4
 10
2.78938782E+02
 20
-1.47780229E+02
 11
2.78938782E+02
 21
-1.62562193E+02
  0
LINE
  8
0
 62
4
 10
2.73938782E+02
 20
-1.47780229E+02
 11
2.73938782E+02
 21
-1.62562193E+02
  0
LINE
  8
0
 62
4
 10
2.73938782E+02
 20
-1.48915166E+02
 11
2.68938782E+02
 21
-1.48915166E+02
  0
LINE
  8
0
 62
4
 10
2.73938782E+02
 20
-1.61415166E+02
 11
2.68938782E+02
 21
-1.61415166E+02
  0
LINE
  8
0
 62
4
 10
2.72438782E+02
 20
-1.48915166E+02
 11
2.72438782E+02
 21
-1.61415166E+02
  0
LINE
  8
0
 62
4
 10
2.72438782E+02
 20
-1.60915166E+02
 11
2.68938782E+02
 21
-1.60915166E+02
  0
LINE
  8
0
 62
4
 10
2.68438782E+02
 20
-1.62165166E+02
 11
2.59938782E+02
 21
-1.62165166E+02
  0
LINE
  8
0
 62
4
 10
2.44438782E+02
 20
-1.98091046E+02
 11
2.27938782E+02
 21
-1.98091046E+02
  0
LINE
  8
0
 62
4
 10
2.78938782E+02
 20
-1.62562193E+02
 11
2.73938782E+02
 21
-1.62562193E+02
  0
LINE
  8
0
 62
4
 10
2.44438782E+02
 20
-1.94672760E+02
 11
2.24938782E+02
 21
-1.94672760E+02
  0
LINE
  8
0
 62
4
 10
2.44438782E+02
 20
-1.93195548E+02
 11
2.24938782E+02
 21
-1.93195548E+02
  0
LINE
  8
0
 62
4
 10
2.59438782E+02
 20
-1.50559802E+02
 11
2.44438782E+02
 21
-1.50559802E+02
  0
LINE
  8
0
 62
4
 10
2.61438782E+02
 20
-1.75527292E+02
 11
2.42438782E+02
 21
-1.75527292E+02
  0
LINE
  8
0
 62
4
 10
2.63938782E+02
 20
-1.77629071E+02
 11
2.63938782E+02
 21
-1.94672760E+02
  0
LINE
  8
0
 62
4
 10
2.63938782E+02
 20
-1.94672760E+02
 11
2.59438782E+02
 21
-1.94672760E+02
  0
LINE
  8
0
 62
4
 10
2.63938782E+02
 20
-1.93195548E+02
 11
2.59438782E+02
 21
-1.93195548E+02
  0
LINE
  8
0
 62
4
 10
2.61438782E+02
 20
-1.75527292E+02
 11
2.61438782E+02
 21
-1.79466523E+02
  0
LINE
  8
0
 62
4
 10
2.44438782E+02
 20
-1.47955079E+02
 11
2.44438782E+02
 21
-1.75527292E+02
  0
LINE
  8
0
 62
4
 10
2.59438782E+02
 20
-1.47955079E+02
 11
2.59438782E+02
 21
-1.75527292E+02
  0
LINE
  8
0
 62
4
 10
2.42438782E+02
 20
-1.75527292E+02
 11
2.42438782E+02
 21
-1.79466523E+02
  0
LINE
  8
0
 62
4
 10
2.24938782E+02
 20
-1.77629071E+02
 11
2.24938782E+02
 21
-1.94672760E+02
  0
LINE
  8
0
 62
4
 10
2.60938782E+02
 20
-1.98091046E+02
 11
2.59438782E+02
 21
-1.98091046E+02
  0
ARC
  8
0
 62
4
 10
2.68439281E+02
 20
-1.48664666E+02
 40
4.99500622E-01
 50
3.59942689E+02
 51
9.00573103E+01
  0
ARC
  8
0
 62
4
 10
2.59938282E+02
 20
-1.62664666E+02
 40
4.99500622E-01
 50
8.99426895E+01
 51
1.80057310E+02
  0
ARC
  8
0
 62
4
 10
2.26438282E+02
 20
-1.80966023E+02
 40
1.49950029E+00
 50
8.99809029E+01
 51
1.80019097E+02
  0
ARC
  8
0
 62
4
 10
2.68438282E+02
 20
-1.61664666E+02
 40
5.00500378E-01
 50
2.70057253E+02
 51
3.59942747E+02
  0
ARC
  8
0
 62
4
 10
2.62439282E+02
 20
-1.80966023E+02
 40
1.49950029E+00
 50
3.59980903E+02
 51
9.00190969E+01
  0
POLYLINE
  8
0
 62
4
 66
1
  0
VERTEX
  8
0
 62
4
 10
2.39078782E+02
 20
-1.76832058E+02
  0
VERTEX
  8
0
 62
4
 10
2.39066833E+02
 20
-1.76784536E+02
  0
VERTEX
  8
0
 62
4
 10
2.39031078E+02
 20
-1.76737375E+02
  0
VERTEX
  8
0
 62
4
 10
2.38971789E+02
 20
-1.76690936E+02
  0
VERTEX
  8
0
 62
4
 10
2.38889417E+02
 20
-1.76645570E+02
  0
VERTEX
  8
0
 62
4
 10
2.38784588E+02
 20
-1.76601623E+02
  0
VERTEX
  8
0
 62
4
 10
2.38658102E+02
 20
-1.76559430E+02
  0
VERTEX
  8
0
 62
4
 10
2.38510919E+02
 20
-1.76519312E+02
  0
VERTEX
  8
0
 62
4
 10
2.38344162E+02
 20
-1.76481575E+02
  0
VERTEX
  8
0
 62
4
 10
2.38159097E+02
 20
-1.76446504E+02
  0
VERTEX
  8
0
 62
4
 10
2.37957135E+02
 20
-1.76414368E+02
  0
VERTEX
  8
0
 62
4
 10
2.37739812E+02
 20
-1.76385411E+02
  0
VERTEX
  8
0
 62
4
 10
2.37508782E+02
 20
-1.76359853E+02
  0
VERTEX
  8
0
 62
4
 10
2.37265803E+02
 20
-1.76337889E+02
  0
VERTEX
  8
0
 62
4
 10
2.37012725E+02
 20
-1.76319686E+02
  0
VERTEX
  8
0
 62
4
 10
2.36751474E+02
 20
-1.76305382E+02
  0
VERTEX
  8
0
 62
4
 10
2.36484037E+02
 20
-1.76295086E+02
  0
VERTEX
  8
0
 62
4
 10
2.36212451E+02
 20
-1.76288878E+02
  0
VERTEX
  8
0
 62
4
 10
2.35938782E+02
 20
-1.76286803E+02
  0
VERTEX
  8
0
 62
4
 10
2.35665113E+02
 20
-1.76288878E+02
  0
VERTEX
  8
0
 62
4
 10
2.35393527E+02
 20
-1.76295086E+02
  0
VERTEX
  8
0
 62
4
 10
2.35126090E+02
 20
-1.76305382E+02
  0
VERTEX
  8
0
 62
4
 10
2.34864839E+02
 20
-1.76319686E+02
  0
VERTEX
  8
0
 62
4
 10
2.34611761E+02
 20
-1.76337889E+02
  0
VERTEX
  8
0
 62
4
 10
2.34368782E+02
 20
-1.76359853E+02
  0
VERTEX
  8
0
 62
4
 10
2.34137752E+02
 20
-1.76385411E+02
  0
VERTEX
  8
0
 62
4
 10
2.33920429E+02
 20
-1.76414368E+02
  0
VERTEX
  8
0
 62
4
 10
2.33718467E+02
 20
-1.76446504E+02
  0
VERTEX
  8
0
 62
4
 10
2.33533402E+02
 20
-1.76481575E+02
  0
VERTEX
  8
0
 62
4
 10
2.33366645E+02
 20
-1.76519312E+02
  0
VERTEX
  8
0
 62
4
 10
2.33219462E+02
 20
-1.76559430E+02
  0
VERTEX
  8
0
 62
4
 10
2.33092976E+02
 20
-1.76601623E+02
  0
VERTEX
  8
0
 62
4
 10
2.32988147E+02
 20
-1.76645570E+02
  0
VERTEX
  8
0
 62
4
 10
2.32905775E+02
 20
-1.76690936E+02
  0
VERTEX
  8
0
 62
4
 10
2.32846486E+02
 20
-1.76737375E+02
  0
VERTEX
  8
0
 62
4
 10
2.32810731E+02
 20
-1.76784536E+02
  0
VERTEX
  8
0
 62
4
 10
2.32798782E+02
 20
-1.76832058E+02
  0
VERTEX
  8
0
 62
4
 10
2.32810731E+02
 20
-1.76879580E+02
  0
VERTEX
  8
0
 62
4
 10
2.32846486E+02
 20
-1.76926741E+02
  0
VERTEX
  8
0
 62
4
 10
2.32905775E+02
 20
-1.76973180E+02
  0
VERTEX
  8
0
 62
4
 10
2.32988147E+02
 20
-1.77018546E+02
  0
VERTEX
  8
0
 62
4
 10
2.33092976E+02
 20
-1.77062493E+02
  0
VERTEX
  8
0
 62
4
 10
2.33219462E+02
 20
-1.77104686E+02
  0
VERTEX
  8
0
 62
4
 10
2.33366645E+02
 20
-1.77144804E+02
  0
VERTEX
  8
0
 62
4
 10
2.33533402E+02
 20
-1.77182541E+02
  0
VERTEX
  8
0
 62
4
 10
2.33718467E+02
 20
-1.77217612E+02
  0
VERTEX
  8
0
 62
4
 10
2.33920429E+02
 20
-1.77249748E+02
  0
VERTEX
  8
0
 62
4
 10
2.34137752E+02
 20
-1.77278705E+02
  0
VERTEX
  8
0
 62
4
 10
2.34368782E+02
 20
-1.77304263E+02
  0
VERTEX
  8
0
 62
4
 10
2.34611761E+02
 20
-1.77326227E+02
  0
VERTEX
  8
0
 62
4
 10
2.34864839E+02
 20
-1.77344430E+02
  0
VERTEX
  8
0
 62
4
 10
2.35126090E+02
 20
-1.77358734E+02
  0
VERTEX
  8
0
 62
4
 10
2.35393527E+02
 20
-1.77369030E+02
  0
VERTEX
  8
0
 62
4
 10
2.35665113E+02
 20
-1.77375238E+02
  0
VERTEX
  8
0
 62
4
 10
2.35938782E+02
 20
-1.77377313E+02
  0
VERTEX
  8
0
 62
4
 10
2.36212451E+02
 20
-1.77375238E+02
  0
VERTEX
  8
0
 62
4
 10
2.36484037E+02
 20
-1.77369030E+02
  0
VERTEX
  8
0
 62
4
 10
2.36751474E+02
 20
-1.77358734E+02
  0
VERTEX
  8
0
 62
4
 10
2.37012725E+02
 20
-1.77344430E+02
  0
VERTEX
  8
0
 62
4
 10
2.37265803E+02
 20
-1.77326227E+02
  0
VERTEX
  8
0
 62
4
 10
2.37508782E+02
 20
-1.77304263E+02
  0
VERTEX
  8
0
 62
4
 10
2.37739812E+02
 20
-1.77278705E+02
  0
VERTEX
  8
0
 62
4
 10
2.37957135E+02
 20
-1.77249748E+02
  0
VERTEX
  8
0
 62
4
 10
2.38159097E+02
 20
-1.77217612E+02
  0
VERTEX
  8
0
 62
4
 10
2.38344162E+02
 20
-1.77182541E+02
  0
VERTEX
  8
0
 62
4
 10
2.38510919E+02
 20
-1.77144804E+02
  0
VERTEX
  8
0
 62
4
 10
2.38658102E+02
 20
-1.77104686E+02
  0
VERTEX
  8
0
 62
4
 10
2.38784588E+02
 20
-1.77062493E+02
  0
VERTEX
  8
0
 62
4
 10
2.38889417E+02
 20
-1.77018546E+02
  0
VERTEX
  8
0
 62
4
 10
2.38971789E+02
 20
-1.76973180E+02
  0
VERTEX
  8
0
 62
4
 10
2.39031078E+02
 20
-1.76926741E+02
  0
VERTEX
  8
0
 62
4
 10
2.39066833E+02
 20
-1.76879580E+02
  0
VERTEX
  8
0
 62
4
 10
2.39078782E+02
 20
-1.76832058E+02
  0
SEQEND
  8
0
  0
LINE
  8
0
  6
CENTER
 62
6
 10
2.35938782E+02
 20
-1.74677926E+02
 11
2.35938782E+02
 21
-1.76832058E+02
  0
LINE
  8
0
 62
4
 10
2.39078782E+02
 20
-1.76832058E+02
 11
2.39431463E+02
 21
-1.77777582E+02
  0
LINE
  8
0
 62
4
 10
2.32798782E+02
 20
-1.76832058E+02
 11
2.32446100E+02
 21
-1.77777582E+02
  0
POLYLINE
  8
0
 62
4
 66
1
  0
VERTEX
  8
0
 62
4
 10
2.32446101E+02
 20
-1.77777582E+02
  0
VERTEX
  8
0
 62
4
 10
2.32439767E+02
 20
-1.77831282E+02
  0
VERTEX
  8
0
 62
4
 10
2.32460761E+02
 20
-1.77884870E+02
  0
VERTEX
  8
0
 62
4
 10
2.32508919E+02
 20
-1.77937927E+02
  0
VERTEX
  8
0
 62
4
 10
2.32583866E+02
 20
-1.77990038E+02
  0
VERTEX
  8
0
 62
4
 10
2.32685014E+02
 20
-1.78040797E+02
  0
VERTEX
  8
0
 62
4
 10
2.32811576E+02
 20
-1.78089807E+02
  0
VERTEX
  8
0
 62
4
 10
2.32962561E+02
 20
-1.78136685E+02
  0
VERTEX
  8
0
 62
4
 10
2.33136792E+02
 20
-1.78181065E+02
  0
VERTEX
  8
0
 62
4
 10
2.33332906E+02
 20
-1.78222601E+02
  0
VERTEX
  8
0
 62
4
 10
2.33549373E+02
 20
-1.78260967E+02
  0
VERTEX
  8
0
 62
4
 10
2.33784502E+02
 20
-1.78295866E+02
  0
VERTEX
  8
0
 62
4
 10
2.34036456E+02
 20
-1.78327023E+02
  0
VERTEX
  8
0
 62
4
 10
2.34303268E+02
 20
-1.78354196E+02
  0
VERTEX
  8
0
 62
4
 10
2.34582853E+02
 20
-1.78377172E+02
  0
VERTEX
  8
0
 62
4
 10
2.34873028E+02
 20
-1.78395772E+02
  0
VERTEX
  8
0
 62
4
 10
2.35171528E+02
 20
-1.78409851E+02
  0
VERTEX
  8
0
 62
4
 10
2.35476019E+02
 20
-1.78419298E+02
  0
VERTEX
  8
0
 62
4
 10
2.35784125E+02
 20
-1.78424040E+02
  0
VERTEX
  8
0
 62
4
 10
2.36093439E+02
 20
-1.78424040E+02
  0
VERTEX
  8
0
 62
4
 10
2.36401545E+02
 20
-1.78419298E+02
  0
VERTEX
  8
0
 62
4
 10
2.36706036E+02
 20
-1.78409851E+02
  0
VERTEX
  8
0
 62
4
 10
2.37004536E+02
 20
-1.78395772E+02
  0
VERTEX
  8
0
 62
4
 10
2.37294711E+02
 20
-1.78377172E+02
  0
VERTEX
  8
0
 62
4
 10
2.37574296E+02
 20
-1.78354196E+02
  0
VERTEX
  8
0
 62
4
 10
2.37841108E+02
 20
-1.78327023E+02
  0
VERTEX
  8
0
 62
4
 10
2.38093062E+02
 20
-1.78295866E+02
  0
VERTEX
  8
0
 62
4
 10
2.38328191E+02
 20
-1.78260967E+02
  0
VERTEX
  8
0
 62
4
 10
2.38544658E+02
 20
-1.78222601E+02
  0
VERTEX
  8
0
 62
4
 10
2.38740772E+02
 20
-1.78181065E+02
  0
VERTEX
  8
0
 62
4
 10
2.38915003E+02
 20
-1.78136685E+02
  0
VERTEX
  8
0
 62
4
 10
2.39065988E+02
 20
-1.78089807E+02
  0
VERTEX
  8
0
 62
4
 10
2.39192550E+02
 20
-1.78040797E+02
  0
VERTEX
  8
0
 62
4
 10
2.39293698E+02
 20
-1.77990038E+02
  0
VERTEX
  8
0
 62
4
 10
2.39368645E+02
 20
-1.77937927E+02
  0
VERTEX
  8
0
 62
4
 10
2.39416803E+02
 20
-1.77884870E+02
  0
VERTEX
  8
0
 62
4
 10
2.39437797E+02
 20
-1.77831282E+02
  0
VERTEX
  8
0
 62
4
 10
2.39431463E+02
 20
-1.77777582E+02
  0
SEQEND
  8
0
  0
CIRCLE
  8
0
 62
7
 10
1.05094391E+02
 20
-2.02057736E+02
 40
2.45850000E+00
  0
CIRCLE
  8
0
 62
7
 10
5.80943909E+01
 20
-2.02057736E+02
 40
2.45850000E+00
  0
CIRCLE
  8
0
 62
7
 10
-2.44249969E+02
 20
-2.02057736E+02
 40
2.45850000E+00
  0
CIRCLE
  8
0
 62
7
 10
-2.91249969E+02
 20
-2.02057736E+02
 40
2.45850000E+00
  0
LINE
  8
0
 62
2
 10
-2.89707931E+01
 20
-2.35081109E+02
 11
-4.77592603E+00
 21
-1.93174370E+02
  0
LINE
  8
0
 62
7
 10
-1.99403655E+02
 20
-1.56260417E+00
 11
1.28196345E+02
 21
-1.56260417E+00
  0
LINE
  8
0
 62
7
 10
-1.99403655E+02
 20
-1.15626042E+01
 11
-1.99403655E+02
 21
8.43739582E+00
  0
LINE
  8
0
 62
7
 10
-1.99403655E+02
 20
8.43739583E+00
 11
1.28196345E+02
 21
8.43739583E+00
  0
LINE
  8
0
 62
7
 10
-1.99403655E+02
 20
-1.15626042E+01
 11
1.28196345E+02
 21
-1.15626042E+01
  0
LINE
  8
0
 62
7
 10
-1.49003655E+02
 20
-1.15626042E+01
 11
-1.49003655E+02
 21
8.43739582E+00
  0
LINE
  8
0
 62
7
 10
-1.23803655E+02
 20
-1.15626042E+01
 11
-1.23803655E+02
 21
8.43739582E+00
  0
LINE
  8
0
 62
7
 10
-9.86036547E+01
 20
-1.15626042E+01
 11
-9.86036547E+01
 21
8.43739582E+00
  0
LINE
  8
0
 62
7
 10
-7.34036547E+01
 20
-1.15626042E+01
 11
-7.34036547E+01
 21
8.43739582E+00
  0
LINE
  8
0
 62
7
 10
-4.82036547E+01
 20
-1.15626042E+01
 11
-4.82036547E+01
 21
8.43739582E+00
  0
LINE
  8
0
 62
7
 10
-2.30036547E+01
 20
-1.15626042E+01
 11
-2.30036547E+01
 21
8.43739582E+00
  0
LINE
  8
0
 62
7
 10
2.19634526E+00
 20
-1.15626042E+01
 11
2.19634526E+00
 21
8.43739582E+00
  0
LINE
  8
0
 62
7
 10
2.73963453E+01
 20
-1.15626042E+01
 11
2.73963453E+01
 21
8.43739582E+00
  0
LINE
  8
0
 62
7
 10
5.25963453E+01
 20
-1.15626042E+01
 11
5.25963453E+01
 21
8.43739582E+00
  0
LINE
  8
0
 62
7
 10
7.77963453E+01
 20
-1.15626042E+01
 11
7.77963453E+01
 21
8.43739582E+00
  0
LINE
  8
0
 62
7
 10
1.02996345E+02
 20
-1.15626042E+01
 11
1.02996345E+02
 21
8.43739582E+00
  0
LINE
  8
0
 62
7
 10
1.28196345E+02
 20
-1.15626042E+01
 11
1.28196345E+02
 21
8.43739582E+00
  0
TEXT
  8
0
 62
7
 10
-1.42014592E+02
 20
2.87395735E-01
 40
6.30000019E+00
  1
50
 41
1.00000000E+00
  7
MONOTXT
  0
TEXT
  8
0
 62
7
 10
-1.45164592E+02
 20
-9.71260426E+00
 40
6.30000019E+00
  1
-25
 41
1.00000000E+00
  7
MONOTXT
  0
TEXT
  8
0
 62
7
 10
-1.92414592E+02
 20
2.87395735E-01
 40
6.30000019E+00
  1
STROKE
 41
1.00000000E+00
  7
MONOTXT
  0
TEXT
  8
0
 62
7
 10
-1.95564592E+02
 20
-9.71260426E+00
 40
6.30000019E+00
  1
STRETCH
 41
1.00000000E+00
  7
MONOTXT
  0
TEXT
  8
0
 62
7
 10
-1.16814592E+02
 20
2.87395735E-01
 40
6.30000019E+00
  1
75
 41
1.00000000E+00
  7
MONOTXT
  0
TEXT
  8
0
 62
7
 10
-1.13664592E+02
 20
-9.71260426E+00
 40
6.30000019E+00
  1
0
 41
1.00000000E+00
  7
MONOTXT
  0
TEXT
  8
0
 62
7
 10
-9.47645924E+01
 20
2.87395735E-01
 40
6.30000019E+00
  1
100
 41
1.00000000E+00
  7
MONOTXT
  0
TEXT
  8
0
 62
7
 10
-9.16145923E+01
 20
-9.71260426E+00
 40
6.30000019E+00
  1
25
 41
1.00000000E+00
  7
MONOTXT
  0
TEXT
  8
0
 62
7
 10
-6.95645924E+01
 20
2.87395735E-01
 40
6.30000019E+00
  1
150
 41
1.00000000E+00
  7
MONOTXT
  0
TEXT
  8
0
 62
7
 10
-6.64145923E+01
 20
-9.71260426E+00
 40
6.30000019E+00
  1
75
 41
1.00000000E+00
  7
MONOTXT
  0
TEXT
  8
0
 62
7
 10
-4.43645924E+01
 20
2.87395735E-01
 40
6.30000019E+00
  1
200
 41
1.00000000E+00
  7
MONOTXT
  0
TEXT
  8
0
 62
7
 10
-4.43645924E+01
 20
-9.71260426E+00
 40
6.30000019E+00
  1
125
 41
1.00000000E+00
  7
MONOTXT
  0
TEXT
  8
0
 62
7
 10
-1.91645924E+01
 20
2.87395735E-01
 40
6.30000019E+00
  1
250
 41
1.00000000E+00
  7
MONOTXT
  0
TEXT
  8
0
 62
7
 10
-1.91645924E+01
 20
-9.71260426E+00
 40
6.30000019E+00
  1
175
 41
1.00000000E+00
  7
MONOTXT
  0
TEXT
  8
0
 62
7
 10
6.03540756E+00
 20
2.87395735E-01
 40
6.30000019E+00
  1
300
 41
1.00000000E+00
  7
MONOTXT
  0
TEXT
  8
0
 62
7
 10
6.03540756E+00
 20
-9.71260426E+00
 40
6.30000019E+00
  1
225
 41
1.00000000E+00
  7
MONOTXT
  0
TEXT
  8
0
 62
7
 10
3.12354076E+01
 20
2.87395735E-01
 40
6.30000019E+00
  1
350
 41
1.00000000E+00
  7
MONOTXT
  0
TEXT
  8
0
 62
7
 10
3.12354076E+01
 20
-9.71260426E+00
 40
6.30000019E+00
  1
275
 41
1.00000000E+00
  7
MONOTXT
  0
TEXT
  8
0
 62
7
 10
5.64354076E+01
 20
2.87395735E-01
 40
6.30000019E+00
  1
400
 41
1.00000000E+00
  7
MONOTXT
  0
TEXT
  8
0
 62
7
 10
5.64354076E+01
 20
-9.71260426E+00
 40
6.30000019E+00
  1
325
 41
1.00000000E+00
  7
MONOTXT
  0
TEXT
  8
0
 62
7
 10
8.16354076E+01
 20
2.87395735E-01
 40
6.30000019E+00
  1
450
 41
1.00000000E+00
  7
MONOTXT
  0
TEXT
  8
0
 62
7
 10
8.16354076E+01
 20
-9.71260426E+00
 40
6.30000019E+00
  1
375
 41
1.00000000E+00
  7
MONOTXT
  0
TEXT
  8
0
 62
7
 10
1.06835408E+02
 20
2.87395735E-01
 40
6.30000019E+00
  1
500
 41
1.00000000E+00
  7
MONOTXT
  0
TEXT
  8
0
 62
7
 10
1.06835408E+02
 20
-9.71260426E+00
 40
6.30000019E+00
  1
425
 41
1.00000000E+00
  7
MONOTXT
  0
TEXT
  8
0
 62
7
 10
-7.27145933E+01
 20
1.22873957E+01
 40
6.30000019E+00
  1
STRETCH LIST
 41
1.05263158E+00
  7
MONOTXT
  0
TEXT
  8
0
 62
7
 10
1.03285408E+02
 20
1.22873957E+01
 40
6.30000019E+00
  1
(mm)
 41
1.00000000E+00
  7
MONOTXT
  0
LINE
  8
0
 62
7
 10
-1.14347058E+01
 20
-2.04707715E+02
 11
-7.42500000E+01
 21
-2.04707715E+02
  0
LINE
  8
0
 62
7
 10
-7.88401397E+00
 20
-1.98557736E+02
 11
-7.42500000E+01
 21
-1.98557736E+02
  0
LINE
  8
0
 62
7
 10
-8.37475641E+00
 20
-1.99407727E+02
 11
-7.42500000E+01
 21
-1.99407727E+02
  0
LINE
  8
0
 62
7
 10
-3.90608933E+01
 20
-1.12557675E+02
 11
-7.42500000E+01
 21
-1.12557675E+02
  0
LINE
  8
0
 62
7
 10
-3.85701509E+01
 20
-1.11707684E+02
 11
-7.42500000E+01
 21
-1.11707684E+02
  0
LINE
  8
0
 62
7
 10
-3.55102015E+01
 20
-1.06407696E+02
 11
-7.42500000E+01
 21
-1.06407696E+02
  0
LINE
  8
0
 62
7
 10
-6.62499945E+01
 20
-6.47077147E+01
 11
-7.42500000E+01
 21
-6.47077147E+01
  0
LINE
  8
0
 62
7
 10
-6.62499945E+01
 20
-5.94077269E+01
 11
-7.42500000E+01
 21
-5.94077269E+01
  0
LINE
  8
0
 62
7
 10
-6.62499945E+01
 20
-5.85577361E+01
 11
-7.42500000E+01
 21
-5.85577361E+01
  0
ARC
  8
0
 62
2
 10
-2.67749969E+02
 20
-2.25557706E+02
 40
8.17999268E+00
 50
0.00000000E+00
 51
1.80000000E+02
  0
LINE
  8
0
 62
4
 10
-2.54249969E+02
 20
-2.17763477E+02
 11
-2.67749969E+02
 21
-2.09969248E+02
  0
LINE
  8
0
 62
4
 10
-2.54249969E+02
 20
-2.25557706E+02
 11
-2.54249969E+02
 21
-2.17763477E+02
  0
LINE
  8
0
 62
4
 10
-2.81249969E+02
 20
-2.17763477E+02
 11
-2.81249969E+02
 21
-2.25557706E+02
  0
LINE
  8
0
 62
4
 10
-2.67749969E+02
 20
-2.09969248E+02
 11
-2.81249969E+02
 21
-2.17763477E+02
  0
ARC
  8
0
 62
4
 10
-2.67749969E+02
 20
-2.25557706E+02
 40
1.35000000E+01
 50
0.00000000E+00
 51
1.80000000E+02
  0
ARC
  8
0
 62
7
 10
-2.67749969E+02
 20
-2.25557706E+02
 40
9.00000000E+00
 50
0.00000000E+00
 51
1.80000000E+02
  0
LINE
  8
0
 62
4
 10
-1.42249969E+02
 20
-2.25557706E+02
 11
-1.42249969E+02
 21
-2.12057706E+02
  0
LINE
  8
0
 62
4
 10
-1.53249969E+02
 20
-2.25557706E+02
 11
-1.53249969E+02
 21
-2.12057706E+02
  0
ARC
  8
0
 62
4
 10
-1.27455741E+02
 20
-2.25557706E+02
 40
2.57942282E+01
 50
1.62412046E+02
 51
1.80000000E+02
  0
ARC
  8
0
 62
4
 10
-1.68044198E+02
 20
-2.25557706E+02
 40
2.57942282E+01
 50
2.54444375E-13
 51
1.75879541E+01
  0
ARC
  8
0
 62
4
 10
-1.49150691E+02
 20
-2.13866363E+02
 40
6.90072132E+00
 50
3.25615752E+02
 51
3.43842480E+01
  0
ARC
  8
0
 62
4
 10
-1.46349248E+02
 20
-2.13866363E+02
 40
6.90072132E+00
 50
1.45615752E+02
 51
2.14384248E+02
  0
LINE
  8
0
 62
4
 10
-1.43455741E+02
 20
-2.09969248E+02
 11
-1.42249969E+02
 21
-2.12057706E+02
  0
LINE
  8
0
 62
4
 10
-1.52044198E+02
 20
-2.09969248E+02
 11
-1.53249969E+02
 21
-2.12057706E+02
  0
LINE
  8
0
 62
4
 10
-1.52044198E+02
 20
-2.17763477E+02
 11
-1.43455741E+02
 21
-2.17763477E+02
  0
LINE
  8
0
 62
4
 10
-1.52044198E+02
 20
-2.09969248E+02
 11
-1.43455741E+02
 21
-2.09969248E+02
  0
ARC
  8
0
 62
4
 10
-1.61746362E+02
 20
-9.23077056E+01
 40
1.94963929E+01
 50
3.39743842E+02
 51
2.02561580E+01
  0
ARC
  8
0
 62
4
 10
-1.61746362E+02
 20
-7.88077056E+01
 40
1.94963929E+01
 50
3.39743842E+02
 51
2.02561580E+01
  0
ARC
  8
0
 62
4
 10
-1.33753577E+02
 20
-7.88077056E+01
 40
1.94963929E+01
 50
1.59743842E+02
 51
2.00256158E+02
  0
ARC
  8
0
 62
4
 10
-1.33753577E+02
 20
-9.23077056E+01
 40
1.94963929E+01
 50
1.59743842E+02
 51
2.00256158E+02
  0
LINE
  8
0
 62
4
 10
-1.43455741E+02
 20
-8.55577056E+01
 11
-1.52044198E+02
 21
-8.55577056E+01
  0
LINE
  8
0
 62
4
 10
-1.42249969E+02
 20
-9.90577056E+01
 11
-1.53249969E+02
 21
-9.90577056E+01
  0
LINE
  8
0
 62
4
 10
-1.42249969E+02
 20
-7.20577056E+01
 11
-1.53249969E+02
 21
-7.20577056E+01
  0
LINE
  8
0
 62
4
 10
-1.53249969E+02
 20
-7.20577056E+01
 11
-1.53249969E+02
 21
-9.90577056E+01
  0
LINE
  8
0
 62
4
 10
-1.42249969E+02
 20
-7.20577056E+01
 11
-1.42249969E+02
 21
-9.90577056E+01
  0
LINE
  8
0
 62
2
 10
-1.42249969E+02
 20
-2.17377713E+02
 11
-1.33249969E+02
 21
-2.17377713E+02
  0
LINE
  8
0
 62
7
 10
-1.42249969E+02
 20
-2.16557706E+02
 11
-1.33249969E+02
 21
-2.16557706E+02
  0
LINE
  8
0
 62
2
 10
-1.42249969E+02
 20
-9.37376982E+01
 11
-1.33249969E+02
 21
-9.37376982E+01
  0
LINE
  8
0
 62
7
 10
-1.42249969E+02
 20
-9.45577056E+01
 11
-1.33249969E+02
 21
-9.45577056E+01
  0
LINE
  8
0
 62
2
 10
-1.42249969E+02
 20
-7.73777129E+01
 11
-1.33249969E+02
 21
-7.73777129E+01
  0
LINE
  8
0
 62
7
 10
-1.42249969E+02
 20
-7.65577056E+01
 11
-1.33249969E+02
 21
-7.65577056E+01
  0
POLYLINE
  8
0
 62
7
 66
1
  0
VERTEX
  8
0
 62
7
 10
-1.24892303E+02
 20
-8.00826995E+01
  0
VERTEX
  8
0
 62
7
 10
-1.25249414E+02
 20
-8.01047403E+01
  0
VERTEX
  8
0
 62
7
 10
-1.25603651E+02
 20
-8.01706851E+01
  0
VERTEX
  8
0
 62
7
 10
-1.25952160E+02
 20
-8.02800031E+01
  0
VERTEX
  8
0
 62
7
 10
-1.26292135E+02
 20
-8.04318140E+01
  0
VERTEX
  8
0
 62
7
 10
-1.26620840E+02
 20
-8.06248955E+01
  0
VERTEX
  8
0
 62
7
 10
-1.26935628E+02
 20
-8.08576932E+01
  0
VERTEX
  8
0
 62
7
 10
-1.27233964E+02
 20
-8.11283326E+01
  0
VERTEX
  8
0
 62
7
 10
-1.27513446E+02
 20
-8.14346347E+01
  0
VERTEX
  8
0
 62
7
 10
-1.27771825E+02
 20
-8.17741334E+01
  0
VERTEX
  8
0
 62
7
 10
-1.28007019E+02
 20
-8.21440951E+01
  0
VERTEX
  8
0
 62
7
 10
-1.28217136E+02
 20
-8.25415412E+01
  0
VERTEX
  8
0
 62
7
 10
-1.28400482E+02
 20
-8.29632718E+01
  0
VERTEX
  8
0
 62
7
 10
-1.28555583E+02
 20
-8.34058911E+01
  0
VERTEX
  8
0
 62
7
 10
-1.28681190E+02
 20
-8.38658356E+01
  0
VERTEX
  8
0
 62
7
 10
-1.28776290E+02
 20
-8.43394021E+01
  0
VERTEX
  8
0
 62
7
 10
-1.28840119E+02
 20
-8.48227776E+01
  0
VERTEX
  8
0
 62
7
 10
-1.28872163E+02
 20
-8.53120703E+01
  0
VERTEX
  8
0
 62
7
 10
-1.28872163E+02
 20
-8.58033408E+01
  0
VERTEX
  8
0
 62
7
 10
-1.28840119E+02
 20
-8.62926335E+01
  0
VERTEX
  8
0
 62
7
 10
-1.28776290E+02
 20
-8.67760090E+01
  0
VERTEX
  8
0
 62
7
 10
-1.28681190E+02
 20
-8.72495755E+01
  0
VERTEX
  8
0
 62
7
 10
-1.28555583E+02
 20
-8.77095200E+01
  0
VERTEX
  8
0
 62
7
 10
-1.28400482E+02
 20
-8.81521394E+01
  0
VERTEX
  8
0
 62
7
 10
-1.28217136E+02
 20
-8.85738699E+01
  0
VERTEX
  8
0
 62
7
 10
-1.28007019E+02
 20
-8.89713160E+01
  0
VERTEX
  8
0
 62
7
 10
-1.27771825E+02
 20
-8.93412778E+01
  0
VERTEX
  8
0
 62
7
 10
-1.27513446E+02
 20
-8.96807764E+01
  0
VERTEX
  8
0
 62
7
 10
-1.27233964E+02
 20
-8.99870786E+01
  0
VERTEX
  8
0
 62
7
 10
-1.26935628E+02
 20
-9.02577180E+01
  0
VERTEX
  8
0
 62
7
 10
-1.26620840E+02
 20
-9.04905156E+01
  0
VERTEX
  8
0
 62
7
 10
-1.26292135E+02
 20
-9.06835972E+01
  0
VERTEX
  8
0
 62
7
 10
-1.25952160E+02
 20
-9.08354081E+01
  0
VERTEX
  8
0
 62
7
 10
-1.25603651E+02
 20
-9.09447261E+01
  0
VERTEX
  8
0
 62
7
 10
-1.25249415E+02
 20
-9.10106709E+01
  0
VERTEX
  8
0
 62
7
 10
-1.24892303E+02
 20
-9.10327117E+01
  0
SEQEND
  8
0
  0
POLYLINE
  8
0
 62
7
 66
1
  0
VERTEX
  8
0
 62
7
 10
-1.26874829E+02
 20
-7.53442056E+01
  0
VERTEX
  8
0
 62
7
 10
-1.27168753E+02
 20
-7.54627692E+01
  0
VERTEX
  8
0
 62
7
 10
-1.27445315E+02
 20
-7.55972142E+01
  0
VERTEX
  8
0
 62
7
 10
-1.27702408E+02
 20
-7.57465154E+01
  0
VERTEX
  8
0
 62
7
 10
-1.27938069E+02
 20
-7.59095341E+01
  0
VERTEX
  8
0
 62
7
 10
-1.28150502E+02
 20
-7.60850271E+01
  0
VERTEX
  8
0
 62
7
 10
-1.28338086E+02
 20
-7.62716560E+01
  0
VERTEX
  8
0
 62
7
 10
-1.28499391E+02
 20
-7.64679974E+01
  0
VERTEX
  8
0
 62
7
 10
-1.28633187E+02
 20
-7.66725540E+01
  0
VERTEX
  8
0
 62
7
 10
-1.28738453E+02
 20
-7.68837657E+01
  0
VERTEX
  8
0
 62
7
 10
-1.28814387E+02
 20
-7.71000218E+01
  0
VERTEX
  8
0
 62
7
 10
-1.28860409E+02
 20
-7.73196730E+01
  0
VERTEX
  8
0
 62
7
 10
-1.28876169E+02
 20
-7.75410441E+01
  0
VERTEX
  8
0
 62
7
 10
-1.28861546E+02
 20
-7.77624468E+01
  0
VERTEX
  8
0
 62
7
 10
-1.28816652E+02
 20
-7.79821926E+01
  0
VERTEX
  8
0
 62
7
 10
-1.28741829E+02
 20
-7.81986057E+01
  0
VERTEX
  8
0
 62
7
 10
-1.28637647E+02
 20
-7.84100356E+01
  0
VERTEX
  8
0
 62
7
 10
-1.28504903E+02
 20
-7.86148698E+01
  0
VERTEX
  8
0
 62
7
 10
-1.28344606E+02
 20
-7.88115462E+01
  0
VERTEX
  8
0
 62
7
 10
-1.28157981E+02
 20
-7.89985648E+01
  0
VERTEX
  8
0
 62
7
 10
-1.27946451E+02
 20
-7.91744994E+01
  0
VERTEX
  8
0
 62
7
 10
-1.27711628E+02
 20
-7.93380081E+01
  0
VERTEX
  8
0
 62
7
 10
-1.27455303E+02
 20
-7.94878440E+01
  0
VERTEX
  8
0
 62
7
 10
-1.27179433E+02
 20
-7.96228644E+01
  0
VERTEX
  8
0
 62
7
 10
-1.26886119E+02
 20
-7.97420396E+01
  0
VERTEX
  8
0
 62
7
 10
-1.26577600E+02
 20
-7.98444606E+01
  0
VERTEX
  8
0
 62
7
 10
-1.26256228E+02
 20
-7.99293464E+01
  0
VERTEX
  8
0
 62
7
 10
-1.25924453E+02
 20
-7.99960495E+01
  0
VERTEX
  8
0
 62
7
 10
-1.25584808E+02
 20
-8.00440614E+01
  0
VERTEX
  8
0
 62
7
 10
-1.25239881E+02
 20
-8.00730157E+01
  0
VERTEX
  8
0
 62
7
 10
-1.24892303E+02
 20
-8.00826918E+01
  0
SEQEND
  8
0
  0
POLYLINE
  8
0
 62
7
 66
1
  0
VERTEX
  8
0
 62
7
 10
-1.24892303E+02
 20
-9.10327193E+01
  0
VERTEX
  8
0
 62
7
 10
-1.25239881E+02
 20
-9.10423954E+01
  0
VERTEX
  8
0
 62
7
 10
-1.25584808E+02
 20
-9.10713497E+01
  0
VERTEX
  8
0
 62
7
 10
-1.25924454E+02
 20
-9.11193616E+01
  0
VERTEX
  8
0
 62
7
 10
-1.26256228E+02
 20
-9.11860647E+01
  0
VERTEX
  8
0
 62
7
 10
-1.26577600E+02
 20
-9.12709505E+01
  0
VERTEX
  8
0
 62
7
 10
-1.26886119E+02
 20
-9.13733715E+01
  0
VERTEX
  8
0
 62
7
 10
-1.27179433E+02
 20
-9.14925467E+01
  0
VERTEX
  8
0
 62
7
 10
-1.27455303E+02
 20
-9.16275671E+01
  0
VERTEX
  8
0
 62
7
 10
-1.27711628E+02
 20
-9.17774030E+01
  0
VERTEX
  8
0
 62
7
 10
-1.27946451E+02
 20
-9.19409117E+01
  0
VERTEX
  8
0
 62
7
 10
-1.28157981E+02
 20
-9.21168463E+01
  0
VERTEX
  8
0
 62
7
 10
-1.28344606E+02
 20
-9.23038649E+01
  0
VERTEX
  8
0
 62
7
 10
-1.28504903E+02
 20
-9.25005413E+01
  0
VERTEX
  8
0
 62
7
 10
-1.28637647E+02
 20
-9.27053755E+01
  0
VERTEX
  8
0
 62
7
 10
-1.28741829E+02
 20
-9.29168054E+01
  0
VERTEX
  8
0
 62
7
 10
-1.28816652E+02
 20
-9.31332185E+01
  0
VERTEX
  8
0
 62
7
 10
-1.28861546E+02
 20
-9.33529643E+01
  0
VERTEX
  8
0
 62
7
 10
-1.28876169E+02
 20
-9.35743670E+01
  0
VERTEX
  8
0
 62
7
 10
-1.28860409E+02
 20
-9.37957381E+01
  0
VERTEX
  8
0
 62
7
 10
-1.28814387E+02
 20
-9.40153893E+01
  0
VERTEX
  8
0
 62
7
 10
-1.28738453E+02
 20
-9.42316454E+01
  0
VERTEX
  8
0
 62
7
 10
-1.28633187E+02
 20
-9.44428571E+01
  0
VERTEX
  8
0
 62
7
 10
-1.28499391E+02
 20
-9.46474137E+01
  0
VERTEX
  8
0
 62
7
 10
-1.28338086E+02
 20
-9.48437552E+01
  0
VERTEX
  8
0
 62
7
 10
-1.28150502E+02
 20
-9.50303840E+01
  0
VERTEX
  8
0
 62
7
 10
-1.27938069E+02
 20
-9.52058770E+01
  0
VERTEX
  8
0
 62
7
 10
-1.27702408E+02
 20
-9.53688957E+01
  0
VERTEX
  8
0
 62
7
 10
-1.27445315E+02
 20
-9.55181969E+01
  0
VERTEX
  8
0
 62
7
 10
-1.27168753E+02
 20
-9.56526419E+01
  0
VERTEX
  8
0
 62
7
 10
-1.26874829E+02
 20
-9.57712055E+01
  0
SEQEND
  8
0
  0
POLYLINE
  8
0
 62
7
 66
1
  0
VERTEX
  8
0
 62
7
 10
-1.24892319E+02
 20
-2.16057706E+02
  0
VERTEX
  8
0
 62
7
 10
-1.25249429E+02
 20
-2.16076828E+02
  0
VERTEX
  8
0
 62
7
 10
-1.25603664E+02
 20
-2.16134040E+02
  0
VERTEX
  8
0
 62
7
 10
-1.25952172E+02
 20
-2.16228882E+02
  0
VERTEX
  8
0
 62
7
 10
-1.26292146E+02
 20
-2.16360590E+02
  0
VERTEX
  8
0
 62
7
 10
-1.26620849E+02
 20
-2.16528104E+02
  0
VERTEX
  8
0
 62
7
 10
-1.26935636E+02
 20
-2.16730074E+02
  0
VERTEX
  8
0
 62
7
 10
-1.27233971E+02
 20
-2.16964875E+02
  0
VERTEX
  8
0
 62
7
 10
-1.27513452E+02
 20
-2.17230617E+02
  0
VERTEX
  8
0
 62
7
 10
-1.27771830E+02
 20
-2.17525158E+02
  0
VERTEX
  8
0
 62
7
 10
-1.28007023E+02
 20
-2.17846129E+02
  0
VERTEX
  8
0
 62
7
 10
-1.28217139E+02
 20
-2.18190945E+02
  0
VERTEX
  8
0
 62
7
 10
-1.28400485E+02
 20
-2.18556830E+02
  0
VERTEX
  8
0
 62
7
 10
-1.28555585E+02
 20
-2.18940837E+02
  0
VERTEX
  8
0
 62
7
 10
-1.28681191E+02
 20
-2.19339875E+02
  0
VERTEX
  8
0
 62
7
 10
-1.28776292E+02
 20
-2.19750732E+02
  0
VERTEX
  8
0
 62
7
 10
-1.28840120E+02
 20
-2.20170098E+02
  0
VERTEX
  8
0
 62
7
 10
-1.28872164E+02
 20
-2.20594598E+02
  0
VERTEX
  8
0
 62
7
 10
-1.28872164E+02
 20
-2.21020814E+02
  0
VERTEX
  8
0
 62
7
 10
-1.28840120E+02
 20
-2.21445314E+02
  0
VERTEX
  8
0
 62
7
 10
-1.28776292E+02
 20
-2.21864680E+02
  0
VERTEX
  8
0
 62
7
 10
-1.28681191E+02
 20
-2.22275537E+02
  0
VERTEX
  8
0
 62
7
 10
-1.28555585E+02
 20
-2.22674575E+02
  0
VERTEX
  8
0
 62
7
 10
-1.28400485E+02
 20
-2.23058582E+02
  0
VERTEX
  8
0
 62
7
 10
-1.28217139E+02
 20
-2.23424467E+02
  0
VERTEX
  8
0
 62
7
 10
-1.28007023E+02
 20
-2.23769283E+02
  0
VERTEX
  8
0
 62
7
 10
-1.27771830E+02
 20
-2.24090254E+02
  0
VERTEX
  8
0
 62
7
 10
-1.27513452E+02
 20
-2.24384795E+02
  0
VERTEX
  8
0
 62
7
 10
-1.27233971E+02
 20
-2.24650537E+02
  0
VERTEX
  8
0
 62
7
 10
-1.26935636E+02
 20
-2.24885338E+02
  0
VERTEX
  8
0
 62
7
 10
-1.26620849E+02
 20
-2.25087308E+02
  0
VERTEX
  8
0
 62
7
 10
-1.26292146E+02
 20
-2.25254822E+02
  0
VERTEX
  8
0
 62
7
 10
-1.25952172E+02
 20
-2.25386530E+02
  0
VERTEX
  8
0
 62
7
 10
-1.25603664E+02
 20
-2.25481372E+02
  0
VERTEX
  8
0
 62
7
 10
-1.25249429E+02
 20
-2.25538584E+02
  0
VERTEX
  8
0
 62
7
 10
-1.24892319E+02
 20
-2.25557706E+02
  0
SEQEND
  8
0
  0
CIRCLE
  8
0
 62
2
 10
5.80943909E+01
 20
-2.02057736E+02
 40
3.00000000E+00
  0
CIRCLE
  8
0
 62
2
 10
1.05094391E+02
 20
-2.02057736E+02
 40
3.00000000E+00
  0
ARC
  8
0
 62
7
 10
8.15943909E+01
 20
-2.25557706E+02
 40
1.90000000E+01
 50
0.00000000E+00
 51
1.80000000E+02
  0
ARC
  8
0
 62
7
 10
1.08594391E+02
 20
-2.15026349E+02
 40
1.00000000E+00
 50
3.59721781E-05
 51
8.28192267E+01
  0
ARC
  8
0
 62
7
 10
1.05125763E+02
 20
-2.10057629E+02
 40
1.00000000E+00
 50
7.17900183E+00
 51
9.02255559E+01
  0
ARC
  8
0
 62
7
 10
9.70944519E+01
 20
-2.02026318E+02
 40
1.00000000E+00
 50
3.59775350E+02
 51
8.28192267E+01
  0
ARC
  8
0
 62
7
 10
9.21257629E+01
 20
-1.98557721E+02
 40
1.00000000E+00
 50
7.18159727E+00
 51
9.00000162E+01
  0
ARC
  8
0
 62
7
 10
9.60943909E+01
 20
-1.98057690E+02
 40
3.00000000E+00
 50
1.87181037E+02
 51
2.69999984E+02
  0
ARC
  8
0
 62
7
 10
1.09094391E+02
 20
-2.11057721E+02
 40
3.00000000E+00
 50
1.79999995E+02
 51
2.62819249E+02
  0
CIRCLE
  8
0
 62
7
 10
1.05094391E+02
 20
-2.02057690E+02
 40
4.50000000E+00
  0
ARC
  8
0
 62
7
 10
1.09094391E+02
 20
-1.98057751E+02
 40
3.50000000E+00
 50
2.23117997E-05
 51
8.99999750E+01
  0
ARC
  8
0
 62
7
 10
1.09094391E+02
 20
-1.98057751E+02
 40
3.00000000E+00
 50
2.23117997E-05
 51
8.99999750E+01
  0
ARC
  8
0
 62
7
 10
1.01031342E+02
 20
-2.08949139E+02
 40
1.00000000E+00
 50
5.94775673E+01
 51
1.34999386E+02
  0
ARC
  8
0
 62
7
 10
1.05094391E+02
 20
-2.02057690E+02
 40
7.00000000E+00
 50
1.79775319E+02
 51
2.70224577E+02
  0
ARC
  8
0
 62
7
 10
1.08594391E+02
 20
-2.23557706E+02
 40
1.00000000E+00
 50
2.70000052E+02
 51
3.59721781E-05
  0
ARC
  8
0
 62
7
 10
8.35943909E+01
 20
-2.05657986E+02
 40
1.00000000E+00
 50
1.80000036E+02
 51
2.64260384E+02
  0
ARC
  8
0
 62
7
 10
8.35943909E+01
 20
-1.98557736E+02
 40
1.00000000E+00
 50
9.00000025E+01
 51
1.80000046E+02
  0
ARC
  8
0
 62
7
 10
9.82029724E+01
 20
-2.06120709E+02
 40
1.00000000E+00
 50
3.15000662E+02
 51
3.05222541E+01
  0
CIRCLE
  8
0
 62
7
 10
1.05094391E+02
 20
-2.02057690E+02
 40
5.00000000E+00
  0
ARC
  8
0
 62
7
 10
1.01494171E+02
 20
-2.23557706E+02
 40
1.00000000E+00
 50
1.85739485E+02
 51
2.70000038E+02
  0
ARC
  8
0
 62
7
 10
9.42514343E+01
 20
-2.10072247E+02
 40
1.00000000E+00
 50
2.30739011E+02
 51
3.15000026E+02
  0
ARC
  8
0
 62
7
 10
9.70798645E+01
 20
-2.12900677E+02
 40
1.00000000E+00
 50
1.35000014E+02
 51
2.19261011E+02
  0
ARC
  8
0
 62
7
 10
7.10630188E+01
 20
-1.98557721E+02
 40
1.00000000E+00
 50
9.00000162E+01
 51
1.72818444E+02
  0
ARC
  8
0
 62
7
 10
6.70943909E+01
 20
-1.98057690E+02
 40
3.00000000E+00
 50
2.69999984E+02
 51
3.52818976E+02
  0
ARC
  8
0
 62
7
 10
6.60943909E+01
 20
-2.02026318E+02
 40
1.00000000E+00
 50
9.71808057E+01
 51
1.80224691E+02
  0
ARC
  8
0
 62
7
 10
5.80944519E+01
 20
-2.02057690E+02
 40
7.00000000E+00
 50
2.69775448E+02
 51
2.24721868E-01
  0
ARC
  8
0
 62
7
 10
5.80630798E+01
 20
-2.10057629E+02
 40
1.00000000E+00
 50
8.97744765E+01
 51
1.72821039E+02
  0
ARC
  8
0
 62
7
 10
5.40944519E+01
 20
-2.11057721E+02
 40
3.00000000E+00
 50
2.77180780E+02
 51
1.86693353E-05
  0
ARC
  8
0
 62
7
 10
5.45944519E+01
 20
-2.15026349E+02
 40
1.00000000E+00
 50
9.71808057E+01
 51
1.80000005E+02
  0
CIRCLE
  8
0
 62
7
 10
5.80943909E+01
 20
-2.02057736E+02
 40
4.50000000E+00
  0
ARC
  8
0
 62
7
 10
5.40944519E+01
 20
-1.98057706E+02
 40
3.50000000E+00
 50
9.00000162E+01
 51
1.80000005E+02
  0
ARC
  8
0
 62
7
 10
6.49858093E+01
 20
-2.06120755E+02
 40
1.00000000E+00
 50
1.49477556E+02
 51
2.24999381E+02
  0
ARC
  8
0
 62
7
 10
6.21573792E+01
 20
-2.08949155E+02
 40
1.00000000E+00
 50
4.50006569E+01
 51
1.20522253E+02
  0
CIRCLE
  8
0
 62
7
 10
5.80943909E+01
 20
-2.02057736E+02
 40
5.00000000E+00
  0
ARC
  8
0
 62
7
 10
7.95943909E+01
 20
-2.05657986E+02
 40
1.00000000E+00
 50
2.75739515E+02
 51
3.59721781E-05
  0
ARC
  8
0
 62
7
 10
7.95943909E+01
 20
-1.98557736E+02
 40
1.00000000E+00
 50
3.59721781E-05
 51
9.00000162E+01
  0
ARC
  8
0
 62
7
 10
5.40944519E+01
 20
-1.98057736E+02
 40
3.00000000E+00
 50
9.00000162E+01
 51
1.80000005E+02
  0
ARC
  8
0
 62
7
 10
5.45944519E+01
 20
-2.23557706E+02
 40
1.00000000E+00
 50
1.79999995E+02
 51
2.70000038E+02
  0
ARC
  8
0
 62
7
 10
6.16946716E+01
 20
-2.23557721E+02
 40
1.00000000E+00
 50
2.70000038E+02
 51
3.54260543E+02
  0
ARC
  8
0
 62
7
 10
6.89373474E+01
 20
-2.10072232E+02
 40
1.00000000E+00
 50
2.25000000E+02
 51
3.09261001E+02
  0
ARC
  8
0
 62
7
 10
6.61089172E+01
 20
-2.12900662E+02
 40
1.00000000E+00
 50
3.20739045E+02
 51
4.50000423E+01
  0
ARC
  8
0
 62
7
 10
-1.19750000E+02
 20
-2.09057736E+02
 40
5.00000000E-01
 50
8.99999818E+01
 51
1.79999964E+02
  0
ARC
  8
0
 62
7
 10
-1.15000000E+02
 20
-2.08549161E+02
 40
2.50000000E-01
 50
9.19988230E+01
 51
1.79999977E+02
  0
ARC
  8
0
 62
7
 10
-1.06750000E+02
 20
-2.07057706E+02
 40
5.00000000E-01
 50
8.99999818E+01
 51
1.79999964E+02
  0
CIRCLE
  8
0
 62
7
 10
-8.12500153E+01
 20
-9.75577361E+01
 40
2.59999990E+00
  0
ARC
  8
0
 62
2
 10
-8.72500458E+01
 20
-7.85577971E+01
 40
8.32999992E+00
 50
7.96256860E+01
 51
3.50075855E+02
  0
ARC
  8
0
 62
7
 10
-8.72500458E+01
 20
-7.85577971E+01
 40
7.44000006E+00
 50
7.83683038E+01
 51
3.48874384E+02
  0
ARC
  8
0
 62
7
 10
-8.72500458E+01
 20
-7.85577971E+01
 40
8.71000004E+00
 50
8.00829797E+01
 51
3.50512921E+02
  0
CIRCLE
  8
0
 62
2
 10
-2.44249969E+02
 20
-2.02057736E+02
 40
3.00000000E+00
  0
CIRCLE
  8
0
 62
2
 10
-2.91249969E+02
 20
-2.02057736E+02
 40
3.00000000E+00
  0
CIRCLE
  8
0
 62
7
 10
-8.12500153E+01
 20
-9.75577361E+01
 40
5.00000000E+00
  0
ARC
  8
0
 62
7
 10
-2.67749969E+02
 20
-2.25557706E+02
 40
1.70000000E+01
 50
0.00000000E+00
 51
1.80000000E+02
  0
ARC
  8
0
 62
7
 10
-2.67749969E+02
 20
-2.25557706E+02
 40
1.90000000E+01
 50
0.00000000E+00
 51
1.80000000E+02
  0
ARC
  8
0
 62
7
 10
-2.67749969E+02
 20
-2.25557706E+02
 40
1.75294495E+01
 50
0.00000000E+00
 51
1.80000000E+02
  0
ARC
  8
0
 62
7
 10
-2.94749969E+02
 20
-2.15026349E+02
 40
1.00000000E+00
 50
9.71807714E+01
 51
1.79999964E+02
  0
ARC
  8
0
 62
7
 10
-2.91281342E+02
 20
-2.10057629E+02
 40
1.00000000E+00
 50
8.97744422E+01
 51
1.72820998E+02
  0
ARC
  8
0
 62
7
 10
-2.83250031E+02
 20
-2.02026318E+02
 40
1.00000000E+00
 50
9.71807714E+01
 51
1.80224650E+02
  0
ARC
  8
0
 62
7
 10
-2.78281342E+02
 20
-1.98557721E+02
 40
1.00000000E+00
 50
8.99999818E+01
 51
1.72818402E+02
  0
ARC
  8
0
 62
7
 10
-2.82249969E+02
 20
-1.98057690E+02
 40
3.00000000E+00
 50
2.70000018E+02
 51
3.52818957E+02
  0
ARC
  8
0
 62
7
 10
-2.95249969E+02
 20
-2.11057721E+02
 40
3.00000000E+00
 50
2.77180753E+02
 51
0.00000000E+00
  0
CIRCLE
  8
0
 62
7
 10
-2.91249969E+02
 20
-2.02057690E+02
 40
4.50000000E+00
  0
ARC
  8
0
 62
7
 10
-2.95249969E+02
 20
-1.98057751E+02
 40
3.50000000E+00
 50
9.00000231E+01
 51
1.79999977E+02
  0
ARC
  8
0
 62
7
 10
-2.95249969E+02
 20
-1.98057751E+02
 40
3.00000000E+00
 50
9.00000231E+01
 51
1.79999977E+02
  0
ARC
  8
0
 62
7
 10
-2.87186920E+02
 20
-2.08949139E+02
 40
1.00000000E+00
 50
4.50006194E+01
 51
1.20522431E+02
  0
ARC
  8
0
 62
7
 10
-2.91249969E+02
 20
-2.02057690E+02
 40
7.00000000E+00
 50
2.69775421E+02
 51
2.24686703E-01
  0
ARC
  8
0
 62
7
 10
-2.94749969E+02
 20
-2.23557706E+02
 40
1.00000000E+00
 50
1.79999964E+02
 51
2.69999946E+02
  0
ARC
  8
0
 62
7
 10
-2.69749969E+02
 20
-2.05657986E+02
 40
1.00000000E+00
 50
2.75739617E+02
 51
3.59999959E+02
  0
ARC
  8
0
 62
7
 10
-2.69749969E+02
 20
-1.98557736E+02
 40
1.00000000E+00
 50
3.59999959E+02
 51
8.99999956E+01
  0
ARC
  8
0
 62
7
 10
-2.84358551E+02
 20
-2.06120709E+02
 40
1.00000000E+00
 50
1.49477747E+02
 51
2.24999340E+02
  0
CIRCLE
  8
0
 62
7
 10
-2.91249969E+02
 20
-2.02057690E+02
 40
5.00000000E+00
  0
ARC
  8
0
 62
7
 10
-2.87649750E+02
 20
-2.23557706E+02
 40
1.00000000E+00
 50
2.69999963E+02
 51
3.54260510E+02
  0
ARC
  8
0
 62
7
 10
-2.80407013E+02
 20
-2.10072247E+02
 40
1.00000000E+00
 50
2.24999972E+02
 51
3.09260983E+02
  0
ARC
  8
0
 62
7
 10
-2.83235443E+02
 20
-2.12900677E+02
 40
1.00000000E+00
 50
3.20738994E+02
 51
4.49999910E+01
  0
ARC
  8
0
 62
7
 10
-9.82500000E+01
 20
-1.05557736E+02
 40
2.00000000E+00
 50
1.79999981E+02
 51
2.70000018E+02
  0
ARC
  8
0
 62
7
 10
-9.82500000E+01
 20
-6.55577361E+01
 40
2.00000000E+00
 50
8.99999818E+01
 51
1.79999964E+02
  0
ARC
  8
0
 62
7
 10
-2.57218597E+02
 20
-1.98557721E+02
 40
1.00000000E+00
 50
7.18156141E+00
 51
8.99999818E+01
  0
ARC
  8
0
 62
7
 10
-2.53249969E+02
 20
-1.98057690E+02
 40
3.00000000E+00
 50
1.87181024E+02
 51
2.70000018E+02
  0
ARC
  8
0
 62
7
 10
-2.52249969E+02
 20
-2.02026318E+02
 40
1.00000000E+00
 50
3.59775314E+02
 51
8.28191923E+01
  0
ARC
  8
0
 62
7
 10
-2.44250031E+02
 20
-2.02057690E+02
 40
7.00000000E+00
 50
1.79775278E+02
 51
2.70224550E+02
  0
ARC
  8
0
 62
7
 10
-2.44218658E+02
 20
-2.10057629E+02
 40
1.00000000E+00
 50
7.17896597E+00
 51
9.02255215E+01
  0
ARC
  8
0
 62
7
 10
-2.40250031E+02
 20
-2.11057721E+02
 40
3.00000000E+00
 50
1.79999981E+02
 51
2.62819221E+02
  0
ARC
  8
0
 62
7
 10
-2.40750031E+02
 20
-2.15026349E+02
 40
1.00000000E+00
 50
0.00000000E+00
 51
8.28191923E+01
  0
CIRCLE
  8
0
 62
7
 10
-2.44249969E+02
 20
-2.02057736E+02
 40
4.50000000E+00
  0
ARC
  8
0
 62
7
 10
-2.40250031E+02
 20
-1.98057706E+02
 40
3.50000000E+00
 50
0.00000000E+00
 51
8.99999818E+01
  0
ARC
  8
0
 62
7
 10
-2.51141388E+02
 20
-2.06120755E+02
 40
1.00000000E+00
 50
3.15000624E+02
 51
3.05224488E+01
  0
ARC
  8
0
 62
7
 10
-2.48312958E+02
 20
-2.08949155E+02
 40
1.00000000E+00
 50
5.94777518E+01
 51
1.34999345E+02
  0
CIRCLE
  8
0
 62
7
 10
-2.44249969E+02
 20
-2.02057736E+02
 40
5.00000000E+00
  0
ARC
  8
0
 62
7
 10
-2.65749969E+02
 20
-2.05657986E+02
 40
1.00000000E+00
 50
1.79999964E+02
 51
2.64260484E+02
  0
ARC
  8
0
 62
7
 10
-2.65749969E+02
 20
-1.98557736E+02
 40
1.00000000E+00
 50
8.99999818E+01
 51
1.79999964E+02
  0
ARC
  8
0
 62
7
 10
-2.40250031E+02
 20
-1.98057736E+02
 40
3.00000000E+00
 50
0.00000000E+00
 51
8.99999818E+01
  0
ARC
  8
0
 62
7
 10
-2.40750031E+02
 20
-2.23557706E+02
 40
1.00000000E+00
 50
2.69999963E+02
 51
0.00000000E+00
  0
ARC
  8
0
 62
7
 10
-1.19750000E+02
 20
-1.02057675E+02
 40
5.00000000E-01
 50
1.79999981E+02
 51
2.69999963E+02
  0
ARC
  8
0
 62
7
 10
-1.15000000E+02
 20
-1.02566250E+02
 40
2.50000000E-01
 50
1.79999981E+02
 51
2.68001136E+02
  0
ARC
  8
0
 62
7
 10
-1.06750000E+02
 20
-1.04057706E+02
 40
5.00000000E-01
 50
1.79999981E+02
 51
2.69999963E+02
  0
ARC
  8
0
 62
7
 10
-2.47850250E+02
 20
-2.23557721E+02
 40
1.00000000E+00
 50
1.85739458E+02
 51
2.69999963E+02
  0
ARC
  8
0
 62
7
 10
-2.55092926E+02
 20
-2.10072232E+02
 40
1.00000000E+00
 50
2.30738998E+02
 51
3.14999995E+02
  0
ARC
  8
0
 62
7
 10
-2.52264496E+02
 20
-2.12900662E+02
 40
1.00000000E+00
 50
1.34999959E+02
 51
2.19260957E+02
  0
ARC
  8
0
 62
7
 10
-1.06750000E+02
 20
-6.70577056E+01
 40
5.00000000E-01
 50
8.99999818E+01
 51
1.79999964E+02
  0
ARC
  8
0
 62
7
 10
-1.15000000E+02
 20
-6.85491606E+01
 40
2.50000000E-01
 50
9.19988093E+01
 51
1.79999964E+02
  0
ARC
  8
0
 62
7
 10
-1.19750000E+02
 20
-6.90577361E+01
 40
5.00000000E-01
 50
8.99999818E+01
 51
1.79999964E+02
  0
LINE
  8
0
 62
7
 10
-1.33249969E+02
 20
-9.37376982E+01
 11
-1.30249969E+02
 21
-9.37376982E+01
  0
LINE
  8
0
 62
7
 10
-1.33249969E+02
 20
-7.73777129E+01
 11
-1.30249969E+02
 21
-7.73777129E+01
  0
LINE
  8
0
 62
7
 10
-1.33249969E+02
 20
-2.17377713E+02
 11
-1.30249969E+02
 21
-2.17377713E+02
  0
LINE
  8
0
 62
7
 10
-1.30249947E+02
 20
-2.16557742E+02
 11
-1.28876126E+02
 21
-2.16057712E+02
  0
LINE
  8
0
 62
7
 10
-1.30249950E+02
 20
-7.65577228E+01
 11
-1.24892299E+02
 21
-7.46076977E+01
  0
LINE
  8
0
 62
7
 10
-1.62249915E+02
 20
-2.18057836E+02
 11
-1.60749869E+02
 21
-2.16557836E+02
  0
LINE
  8
0
 62
2
 10
-1.61569916E+02
 20
-2.17377713E+02
 11
-1.53249969E+02
 21
-2.17377713E+02
  0
LINE
  8
0
 62
7
 10
-1.60749908E+02
 20
-2.16557706E+02
 11
-1.53249969E+02
 21
-2.16557706E+02
  0
LINE
  8
0
 62
7
 10
-1.33249969E+02
 20
-9.45577056E+01
 11
-1.33249969E+02
 21
-7.65577056E+01
  0
LINE
  8
0
 62
7
 10
-1.24892334E+02
 20
-7.46076933E+01
 11
-1.20250000E+02
 21
-7.46076933E+01
  0
LINE
  8
0
 62
7
 10
-1.24892319E+02
 20
-2.25557706E+02
 11
-1.20250000E+02
 21
-2.25557706E+02
  0
LINE
  8
0
 62
7
 10
-1.30249973E+02
 20
-9.45576952E+01
 11
-1.24892308E+02
 21
-9.65077255E+01
  0
LINE
  8
0
 62
7
 10
-1.60749969E+02
 20
-2.25557706E+02
 11
-1.60749969E+02
 21
-2.16557706E+02
  0
LINE
  8
0
 62
7
 10
-1.62249969E+02
 20
-2.25557706E+02
 11
-1.62249969E+02
 21
-2.18057858E+02
  0
LINE
  8
0
 62
7
 10
-1.33249969E+02
 20
-2.25557706E+02
 11
-1.33249969E+02
 21
-2.16557706E+02
  0
LINE
  8
0
 62
7
 10
-1.24892303E+02
 20
-8.00826995E+01
 11
-1.20250000E+02
 21
-8.00826995E+01
  0
LINE
  8
0
 62
7
 10
-1.24892303E+02
 20
-9.10327117E+01
 11
-1.20250000E+02
 21
-9.10327117E+01
  0
LINE
  8
0
 62
7
 10
-1.62249995E+02
 20
-9.30576357E+01
 11
-1.60749960E+02
 21
-9.45576252E+01
  0
LINE
  8
0
 62
2
 10
-1.61569916E+02
 20
-9.37376982E+01
 11
-1.53249969E+02
 21
-9.37376982E+01
  0
LINE
  8
0
 62
7
 10
-1.60749908E+02
 20
-9.45577056E+01
 11
-1.53249969E+02
 21
-9.45577056E+01
  0
LINE
  8
0
 62
7
 10
-1.62249923E+02
 20
-7.80578481E+01
 11
-1.60749877E+02
 21
-7.65578478E+01
  0
LINE
  8
0
 62
2
 10
-1.61569916E+02
 20
-7.73777129E+01
 11
-1.53249969E+02
 21
-7.73777129E+01
  0
LINE
  8
0
 62
7
 10
-1.60749908E+02
 20
-7.65577056E+01
 11
-1.53249969E+02
 21
-7.65577056E+01
  0
LINE
  8
0
 62
7
 10
-1.60749969E+02
 20
-9.45577056E+01
 11
-1.60749969E+02
 21
-7.65577056E+01
  0
LINE
  8
0
 62
7
 10
-1.62249969E+02
 20
-9.30576750E+01
 11
-1.62249969E+02
 21
-7.80578581E+01
  0
LINE
  8
0
 62
7
 10
-1.24892319E+02
 20
-9.65077178E+01
 11
-1.20250000E+02
 21
-9.65077178E+01
  0
LINE
  8
0
 62
7
 10
-1.28876175E+02
 20
-2.16057706E+02
 11
-1.20250000E+02
 21
-2.16057706E+02
  0
LINE
  8
0
 62
7
 10
-1.30249969E+02
 20
-9.45576903E+01
 11
-1.30249969E+02
 21
-7.65577056E+01
  0
LINE
  8
0
 62
7
 10
-1.30249969E+02
 20
-2.16557706E+02
 11
-1.30249969E+02
 21
-2.25557706E+02
  0
LINE
  8
0
 62
7
 10
1.05094393E+02
 20
-1.98593637E+02
 11
1.08094391E+02
 21
-2.00325687E+02
  0
LINE
  8
0
 62
7
 10
1.08094391E+02
 20
-2.00325680E+02
 11
1.08094391E+02
 21
-2.03789792E+02
  0
LINE
  8
0
 62
7
 10
1.08094389E+02
 20
-2.03789788E+02
 11
1.05094387E+02
 21
-2.05521840E+02
  0
LINE
  8
0
 62
7
 10
1.05094391E+02
 20
-2.05521839E+02
 11
1.02094393E+02
 21
-2.03789789E+02
  0
LINE
  8
0
 62
7
 10
1.02094391E+02
 20
-2.00325680E+02
 11
1.02094391E+02
 21
-2.03789792E+02
  0
LINE
  8
0
 62
7
 10
1.05094389E+02
 20
-1.98593636E+02
 11
1.02094387E+02
 21
-2.00325688E+02
  0
LINE
  8
0
 62
7
 10
5.80943906E+01
 20
-1.98593635E+02
 11
6.10943924E+01
 21
-2.00325686E+02
  0
LINE
  8
0
 62
7
 10
6.10943909E+01
 20
-2.00325680E+02
 11
6.10943909E+01
 21
-2.03789792E+02
  0
LINE
  8
0
 62
7
 10
6.10943894E+01
 20
-2.03789788E+02
 11
5.80943910E+01
 21
-2.05521838E+02
  0
LINE
  8
0
 62
7
 10
5.80943924E+01
 20
-2.05521839E+02
 11
5.50943906E+01
 21
-2.03789787E+02
  0
LINE
  8
0
 62
7
 10
5.50943909E+01
 20
-2.00325680E+02
 11
5.50943909E+01
 21
-2.03789792E+02
  0
LINE
  8
0
 62
7
 10
5.80943894E+01
 20
-1.98593636E+02
 11
5.50943910E+01
 21
-2.00325686E+02
  0
LINE
  8
0
  6
CENTER
 62
2
 10
8.85945129E+01
 20
-1.92372647E+02
 11
8.85945129E+01
 21
-2.04257916E+02
  0
LINE
  8
0
  6
CENTER
 62
2
 10
9.57073059E+01
 20
-2.02057736E+02
 11
1.14826996E+02
 21
-2.02057736E+02
  0
LINE
  8
0
  6
CENTER
 62
2
 10
4.69465027E+01
 20
-2.25557706E+02
 11
1.16109467E+02
 21
-2.25557706E+02
  0
LINE
  8
0
 62
7
 10
5.70943909E+01
 20
-2.09809354E+02
 11
5.70943909E+01
 21
-2.11057721E+02
  0
LINE
  8
0
 62
7
 10
6.58456726E+01
 20
-2.01057736E+02
 11
6.70943909E+01
 21
-2.01057736E+02
  0
LINE
  8
0
 62
7
 10
9.73428040E+01
 20
-2.01057660E+02
 11
9.60943909E+01
 21
-2.01057660E+02
  0
LINE
  8
0
 62
7
 10
1.06094391E+02
 20
-2.09809109E+02
 11
1.06094391E+02
 21
-2.11057721E+02
  0
LINE
  8
0
 62
7
 10
5.05944519E+01
 20
-2.25557706E+02
 11
5.05944519E+01
 21
-1.98057706E+02
  0
LINE
  8
0
 62
7
 10
5.35944519E+01
 20
-2.25557706E+02
 11
5.35944519E+01
 21
-2.15026349E+02
  0
LINE
  8
0
 62
7
 10
1.03594391E+02
 20
-1.94557706E+02
 11
1.03594391E+02
 21
-1.95057706E+02
  0
LINE
  8
0
 62
7
 10
5.95943909E+01
 20
-1.94557706E+02
 11
5.95943909E+01
 21
-1.95057736E+02
  0
LINE
  8
0
  6
CENTER
 62
2
 10
8.15943909E+01
 20
-1.90797055E+02
 11
8.15943909E+01
 21
-2.25557706E+02
  0
LINE
  8
0
 62
7
 10
5.10944519E+01
 20
-2.25557706E+02
 11
5.10944519E+01
 21
-1.98057736E+02
  0
LINE
  8
0
  6
CENTER
 62
2
 10
1.05094391E+02
 20
-1.92504025E+02
 11
1.05094391E+02
 21
-2.09942074E+02
  0
LINE
  8
0
 62
7
 10
1.12594391E+02
 20
-2.25557706E+02
 11
1.12594391E+02
 21
-1.98057736E+02
  0
LINE
  8
0
 62
7
 10
5.40944519E+01
 20
-1.94557706E+02
 11
1.09094391E+02
 21
-1.94557706E+02
  0
LINE
  8
0
 62
7
 10
1.12094391E+02
 20
-2.25557706E+02
 11
1.12094391E+02
 21
-1.98057736E+02
  0
LINE
  8
0
 62
7
 10
1.09594391E+02
 20
-2.25557706E+02
 11
1.09594391E+02
 21
-2.15026349E+02
  0
LINE
  8
0
 62
7
 10
1.08594391E+02
 20
-2.24557675E+02
 11
1.01494171E+02
 21
-2.24557675E+02
  0
LINE
  8
0
 62
7
 10
9.63728265E+01
 20
-2.12193661E+02
 11
1.00324364E+02
 21
-2.08242124E+02
  0
LINE
  8
0
 62
7
 10
9.49586129E+01
 20
-2.10779447E+02
 11
9.89101938E+01
 21
-2.06827867E+02
  0
LINE
  8
0
 62
7
 10
6.82304137E+01
 20
-2.10779179E+02
 11
6.42788969E+01
 21
-2.06827664E+02
  0
LINE
  8
0
 62
7
 10
6.68161788E+01
 20
-2.12193414E+02
 11
6.28646620E+01
 21
-2.08241899E+02
  0
LINE
  8
0
 62
7
 10
5.45944519E+01
 20
-2.24557721E+02
 11
6.16946716E+01
 21
-2.24557721E+02
  0
LINE
  8
0
  6
CENTER
 62
2
 10
4.81412659E+01
 20
-2.02057736E+02
 11
6.78438416E+01
 21
-2.02057736E+02
  0
LINE
  8
0
 62
7
 10
5.40944519E+01
 20
-1.95057736E+02
 11
1.09094391E+02
 21
-1.95057706E+02
  0
LINE
  8
0
 62
7
 10
8.05943909E+01
 20
-1.98557736E+02
 11
8.05943909E+01
 21
-2.05657986E+02
  0
LINE
  8
0
 62
7
 10
7.10630188E+01
 20
-1.97557721E+02
 11
9.21257629E+01
 21
-1.97557721E+02
  0
LINE
  8
0
 62
7
 10
8.25943909E+01
 20
-1.98557736E+02
 11
8.25943909E+01
 21
-2.05657956E+02
  0
LINE
  8
0
  6
CENTER
 62
2
 10
5.80943909E+01
 20
-1.92079465E+02
 11
5.80943909E+01
 21
-2.11782086E+02
  0
LINE
  8
0
  6
CENTER
 62
2
 10
-8.72501678E+01
 20
-1.92372647E+02
 11
-8.72501678E+01
 21
-2.04257916E+02
  0
LINE
  8
0
 62
7
 10
-1.00250000E+02
 20
-1.95212308E+02
 11
-1.00250000E+02
 21
-1.94557706E+02
  0
LINE
  8
0
 62
7
 10
-1.05250039E+02
 20
-1.95343201E+02
 11
-7.42499991E+01
 21
-1.94531436E+02
  0
LINE
  8
0
 62
7
 10
-1.00250000E+02
 20
-1.94557706E+02
 11
-7.42500000E+01
 21
-1.94557706E+02
  0
LINE
  8
0
 62
7
 10
-1.15008737E+02
 20
-2.08299208E+02
 11
-1.07250023E+02
 21
-2.08028268E+02
  0
LINE
  8
0
 62
7
 10
-1.15250000E+02
 20
-2.08557706E+02
 11
-1.15250000E+02
 21
-2.08549161E+02
  0
LINE
  8
0
 62
7
 10
-1.19750000E+02
 20
-2.08557706E+02
 11
-1.15241455E+02
 21
-2.08557706E+02
  0
LINE
  8
0
 62
7
 10
-1.06750000E+02
 20
-2.06557706E+02
 11
-1.05250000E+02
 21
-2.06557706E+02
  0
LINE
  8
0
  6
CENTER
 62
2
 10
-9.90473110E+00
 20
-2.02057721E+02
 11
-1.07353455E+02
 21
-2.02057721E+02
  0
LINE
  8
0
  6
CENTER
 62
2
 10
-2.74750092E+02
 20
-1.92372647E+02
 11
-2.74750092E+02
 21
-2.04257916E+02
  0
LINE
  8
0
 62
7
 10
-8.37475645E+00
 20
-5.94077269E+01
 11
-5.12499945E+01
 21
-5.94077269E+01
  0
LINE
  8
0
 62
7
 10
-1.14347058E+01
 20
-6.47077147E+01
 11
-5.12499945E+01
 21
-6.47077147E+01
  0
LINE
  8
0
  6
CENTER
 62
2
 10
-9.90473114E+00
 20
-6.20577208E+01
 11
-5.12499945E+01
 21
-6.20577208E+01
  0
LINE
  8
0
 62
7
 10
-7.88401401E+00
 20
-5.85577361E+01
 11
-5.12499945E+01
 21
-5.85577361E+01
  0
LINE
  8
0
 62
7
 10
-7.95179446E+01
 20
-9.75577836E+01
 11
-8.03839685E+01
 21
-9.90577901E+01
  0
LINE
  8
0
 62
7
 10
-8.03839874E+01
 20
-9.90577666E+01
 11
-8.21159821E+01
 21
-9.90577666E+01
  0
LINE
  8
0
 62
7
 10
-8.21159570E+01
 20
-9.90578054E+01
 11
-8.29819962E+01
 21
-9.75577725E+01
  0
LINE
  8
0
 62
7
 10
-8.29819652E+01
 20
-9.75577745E+01
 11
-8.21159565E+01
 21
-9.60577945E+01
  0
LINE
  8
0
 62
7
 10
-8.03839874E+01
 20
-9.60577361E+01
 11
-8.21159821E+01
 21
-9.60577361E+01
  0
LINE
  8
0
 62
7
 10
-7.95179293E+01
 20
-9.75577367E+01
 11
-8.03839532E+01
 21
-9.60577303E+01
  0
LINE
  8
0
  6
CENTER
 62
2
 10
-3.70401762E+01
 20
-1.09057690E+02
 11
-1.07353455E+02
 21
-1.09057690E+02
  0
LINE
  8
0
 62
7
 10
-1.15250000E+02
 20
-2.08557706E+02
 11
-1.15250000E+02
 21
-2.25557706E+02
  0
LINE
  8
0
  6
CENTER
 62
2
 10
-2.81862885E+02
 20
-2.02057736E+02
 11
-3.00982574E+02
 21
-2.02057736E+02
  0
LINE
  8
0
  6
CENTER
 62
2
 10
-2.33102081E+02
 20
-2.25557706E+02
 11
-3.02265045E+02
 21
-2.25557706E+02
  0
LINE
  8
0
 62
7
 10
-2.43249969E+02
 20
-2.09809354E+02
 11
-2.43249969E+02
 21
-2.11057721E+02
  0
LINE
  8
0
 62
7
 10
-2.52001251E+02
 20
-2.01057736E+02
 11
-2.53249969E+02
 21
-2.01057736E+02
  0
LINE
  8
0
 62
7
 10
-2.83498383E+02
 20
-2.01057660E+02
 11
-2.82249969E+02
 21
-2.01057660E+02
  0
LINE
  8
0
 62
7
 10
-2.92249969E+02
 20
-2.09809109E+02
 11
-2.92249969E+02
 21
-2.11057721E+02
  0
LINE
  8
0
 62
7
 10
-9.40583954E+01
 20
-7.55577971E+01
 11
-8.57499945E+01
 21
-7.55577971E+01
  0
LINE
  8
0
 62
7
 10
-2.37250031E+02
 20
-2.25557706E+02
 11
-2.37250031E+02
 21
-1.98057736E+02
  0
LINE
  8
0
 62
7
 10
-2.89749969E+02
 20
-1.94557706E+02
 11
-2.89749969E+02
 21
-1.95057706E+02
  0
LINE
  8
0
 62
7
 10
-2.45749969E+02
 20
-1.94557706E+02
 11
-2.45749969E+02
 21
-1.95057736E+02
  0
LINE
  8
0
 62
7
 10
-2.39750031E+02
 20
-2.25557706E+02
 11
-2.39750031E+02
 21
-2.15026349E+02
  0
LINE
  8
0
  6
CENTER
 62
2
 10
-2.67749969E+02
 20
-1.90797055E+02
 11
-2.67749969E+02
 21
-2.25557706E+02
  0
LINE
  8
0
 62
7
 10
-2.36750031E+02
 20
-2.25557706E+02
 11
-2.36750031E+02
 21
-1.98057706E+02
  0
LINE
  8
0
 62
7
 10
-7.42500000E+01
 20
-1.94557706E+02
 11
-7.42500000E+01
 21
-2.25557706E+02
  0
LINE
  8
0
  6
CENTER
 62
2
 10
-2.91249969E+02
 20
-1.92504025E+02
 11
-2.91249969E+02
 21
-2.09942074E+02
  0
LINE
  8
0
 62
7
 10
-2.98749969E+02
 20
-2.25557706E+02
 11
-2.98749969E+02
 21
-1.98057736E+02
  0
LINE
  8
0
 62
7
 10
-2.95249969E+02
 20
-1.94557706E+02
 11
-2.40250031E+02
 21
-1.94557706E+02
  0
LINE
  8
0
 62
7
 10
-2.98249969E+02
 20
-2.25557706E+02
 11
-2.98249969E+02
 21
-1.98057736E+02
  0
LINE
  8
0
 62
7
 10
-2.95749969E+02
 20
-2.25557706E+02
 11
-2.95749969E+02
 21
-2.15026349E+02
  0
LINE
  8
0
 62
7
 10
-2.78281342E+02
 20
-1.97557721E+02
 11
-2.57218597E+02
 21
-1.97557721E+02
  0
LINE
  8
0
 62
7
 10
-2.94749969E+02
 20
-2.24557675E+02
 11
-2.87649750E+02
 21
-2.24557675E+02
  0
LINE
  8
0
 62
7
 10
-2.82528415E+02
 20
-2.12193659E+02
 11
-2.86479952E+02
 21
-2.08242122E+02
  0
LINE
  8
0
 62
7
 10
-2.81114201E+02
 20
-2.10779446E+02
 11
-2.85065782E+02
 21
-2.06827865E+02
  0
LINE
  8
0
 62
7
 10
-1.05250000E+02
 20
-1.95343197E+02
 11
-1.05250000E+02
 21
-2.25557706E+02
  0
LINE
  8
0
 62
7
 10
-1.07250000E+02
 20
-2.07057706E+02
 11
-1.07250000E+02
 21
-2.25557706E+02
  0
LINE
  8
0
 62
7
 10
-1.20250000E+02
 20
-2.09057736E+02
 11
-1.20250000E+02
 21
-2.25557706E+02
  0
LINE
  8
0
 62
7
 10
-9.82500000E+01
 20
-1.07557736E+02
 11
-7.42500000E+01
 21
-1.07557736E+02
  0
LINE
  8
0
 62
7
 10
-9.82500000E+01
 20
-6.35577361E+01
 11
-7.42500000E+01
 21
-6.35577361E+01
  0
LINE
  8
0
 62
7
 10
-1.05250030E+02
 20
-1.15772160E+02
 11
-7.42500054E+01
 21
-1.16583924E+02
  0
LINE
  8
0
 62
7
 10
-7.42500000E+01
 20
-5.45314452E+01
 11
-7.42500000E+01
 21
-6.67434245E+01
  0
LINE
  8
0
  6
CENTER
 62
2
 10
-9.66601715E+01
 20
-7.85577971E+01
 11
-7.73015442E+01
 21
-7.85577971E+01
  0
LINE
  8
0
  6
CENTER
 62
2
 10
-8.72500458E+01
 20
-8.97998320E+01
 11
-8.72500458E+01
 21
-6.62134215E+01
  0
LINE
  8
0
 62
7
 10
-1.00250000E+02
 20
-1.05557736E+02
 11
-1.00250000E+02
 21
-6.55577361E+01
  0
LINE
  8
0
 62
7
 10
-1.05250003E+02
 20
-5.53430993E+01
 11
-7.42499791E+01
 21
-5.45313351E+01
  0
LINE
  8
0
  6
CENTER
 62
2
 10
-9.00952759E+01
 20
-9.75577361E+01
 11
-7.26207581E+01
 21
-9.75577361E+01
  0
LINE
  8
0
  6
CENTER
 62
2
 10
-8.12500153E+01
 20
-1.05028866E+02
 11
-8.12500153E+01
 21
-8.84398619E+01
  0
LINE
  8
0
 62
7
 10
-1.05250000E+02
 20
-5.53432128E+01
 11
-1.05250000E+02
 21
-1.15772122E+02
  0
LINE
  8
0
  6
CENTER
 62
2
 10
-2.34296844E+02
 20
-2.02057736E+02
 11
-2.53999420E+02
 21
-2.02057736E+02
  0
LINE
  8
0
  6
CENTER
 62
2
 10
-2.44249969E+02
 20
-1.92079465E+02
 11
-2.44249969E+02
 21
-2.11782086E+02
  0
LINE
  8
0
 62
7
 10
-2.66749969E+02
 20
-1.98557736E+02
 11
-2.66749969E+02
 21
-2.05657986E+02
  0
LINE
  8
0
 62
7
 10
-2.95249969E+02
 20
-1.95057706E+02
 11
-2.40250031E+02
 21
-1.95057736E+02
  0
LINE
  8
0
 62
7
 10
-2.68749969E+02
 20
-1.98557736E+02
 11
-2.68749969E+02
 21
-2.05657986E+02
  0
LINE
  8
0
 62
7
 10
-1.15008754E+02
 20
-1.02816125E+02
 11
-1.07250055E+02
 21
-1.03087064E+02
  0
LINE
  8
0
 62
7
 10
-1.15250000E+02
 20
-1.02557706E+02
 11
-1.15250000E+02
 21
-1.02566250E+02
  0
LINE
  8
0
 62
7
 10
-1.19750000E+02
 20
-1.02557706E+02
 11
-1.15241455E+02
 21
-1.02557706E+02
  0
LINE
  8
0
 62
7
 10
-1.06750000E+02
 20
-1.04557706E+02
 11
-1.05250000E+02
 21
-1.04557706E+02
  0
LINE
  8
0
 62
7
 10
-1.20250000E+02
 20
-6.90577361E+01
 11
-1.20250000E+02
 21
-1.02057675E+02
  0
LINE
  8
0
 62
7
 10
-2.40750031E+02
 20
-2.24557721E+02
 11
-2.47850250E+02
 21
-2.24557721E+02
  0
LINE
  8
0
 62
7
 10
-2.52971767E+02
 20
-2.12193412E+02
 11
-2.49020250E+02
 21
-2.08241896E+02
  0
LINE
  8
0
 62
7
 10
-2.54386002E+02
 20
-2.10779176E+02
 11
-2.50434485E+02
 21
-2.06827661E+02
  0
LINE
  8
0
 62
7
 10
-1.15008727E+02
 20
-6.82991174E+01
 11
-1.07250028E+02
 21
-6.80281776E+01
  0
LINE
  8
0
 62
7
 10
-1.15250000E+02
 20
-6.85577056E+01
 11
-1.15250000E+02
 21
-6.85491606E+01
  0
LINE
  8
0
 62
7
 10
-1.19750000E+02
 20
-6.85577056E+01
 11
-1.15241455E+02
 21
-6.85577056E+01
  0
LINE
  8
0
 62
7
 10
-1.06750000E+02
 20
-6.65577056E+01
 11
-1.05250000E+02
 21
-6.65577056E+01
  0
LINE
  8
0
 62
7
 10
-1.15249985E+02
 20
-6.85576750E+01
 11
-1.15249985E+02
 21
-1.02557675E+02
  0
LINE
  8
0
 62
7
 10
-1.07249985E+02
 20
-6.70577056E+01
 11
-1.07249985E+02
 21
-1.04057675E+02
  0
LINE
  8
0
  6
CENTER
 62
2
 10
-1.66023193E+02
 20
-2.25557706E+02
 11
-2.34724536E+01
 21
-2.25557706E+02
  0
LINE
  8
0
  6
CENTER
 62
2
 10
-1.65283264E+02
 20
-8.55577056E+01
 11
-7.07499945E+01
 21
-8.55577056E+01
  0
LINE
  8
0
 62
7
 10
1.97522104E+02
 20
-2.04707715E+02
 11
2.44438782E+02
 21
-2.04707715E+02
  0
LINE
  8
0
 62
7
 10
2.01072796E+02
 20
-1.98557736E+02
 11
2.27938782E+02
 21
-1.98557736E+02
  0
LINE
  8
0
 62
7
 10
2.00582053E+02
 20
-1.99407727E+02
 11
2.44438782E+02
 21
-1.99407727E+02
  0
LINE
  8
0
  6
CENTER
 62
2
 10
1.99052079E+02
 20
-2.02057721E+02
 11
2.44438782E+02
 21
-2.02057721E+02
  0
LINE
  8
0
  6
CENTER
 62
2
 10
3.59211975E+02
 20
-2.25557706E+02
 11
1.85484356E+02
 21
-2.25557706E+02
  0
LINE
  8
0
 62
7
 10
3.13438782E+02
 20
-2.09057736E+02
 11
3.13438782E+02
 21
-2.25557706E+02
  0
LINE
  8
0
 62
7
 10
3.00438782E+02
 20
-2.07057706E+02
 11
3.00438782E+02
 21
-2.25557706E+02
  0
LINE
  8
0
 62
7
 10
2.98438782E+02
 20
-1.95343197E+02
 11
2.98438782E+02
 21
-2.25557706E+02
  0
LINE
  8
0
 62
7
 10
2.67438782E+02
 20
-1.94557706E+02
 11
2.67438782E+02
 21
-2.25557706E+02
  0
LINE
  8
0
 62
7
 10
3.08438782E+02
 20
-2.08557706E+02
 11
3.08438782E+02
 21
-2.25557706E+02
  0
LINE
  8
0
 62
7
 10
2.99938782E+02
 20
-2.06557706E+02
 11
2.98438782E+02
 21
-2.06557706E+02
  0
LINE
  8
0
 62
7
 10
3.12938782E+02
 20
-2.08557706E+02
 11
3.08430237E+02
 21
-2.08557706E+02
  0
LINE
  8
0
 62
7
 10
3.08438782E+02
 20
-2.08557706E+02
 11
3.08438782E+02
 21
-2.08549161E+02
  0
LINE
  8
0
 62
7
 10
3.08197519E+02
 20
-2.08299208E+02
 11
3.00438805E+02
 21
-2.08028268E+02
  0
LINE
  8
0
 62
7
 10
2.93438782E+02
 20
-1.94557706E+02
 11
2.67438782E+02
 21
-1.94557706E+02
  0
LINE
  8
0
 62
7
 10
2.98438820E+02
 20
-1.95343201E+02
 11
2.67438781E+02
 21
-1.94531436E+02
  0
LINE
  8
0
 62
7
 10
2.93438782E+02
 20
-1.95212308E+02
 11
2.93438782E+02
 21
-1.94557706E+02
  0
LINE
  8
0
  6
CENTER
 62
2
 10
2.80438950E+02
 20
-1.92372647E+02
 11
2.80438950E+02
 21
-2.04257916E+02
  0
LINE
  8
0
 62
7
 10
3.23438751E+02
 20
-2.16557706E+02
 11
3.23438751E+02
 21
-2.25557706E+02
  0
LINE
  8
0
 62
7
 10
3.22064957E+02
 20
-2.16057706E+02
 11
3.13438782E+02
 21
-2.16057706E+02
  0
LINE
  8
0
 62
7
 10
3.26438751E+02
 20
-2.25557706E+02
 11
3.26438751E+02
 21
-2.16557706E+02
  0
LINE
  8
0
 62
7
 10
3.55438751E+02
 20
-2.25557706E+02
 11
3.55438751E+02
 21
-2.18057858E+02
  0
LINE
  8
0
 62
7
 10
3.53938751E+02
 20
-2.25557706E+02
 11
3.53938751E+02
 21
-2.16557706E+02
  0
LINE
  8
0
 62
7
 10
3.18081100E+02
 20
-2.25557706E+02
 11
3.13438782E+02
 21
-2.25557706E+02
  0
LINE
  8
0
 62
7
 10
3.53938690E+02
 20
-2.16557706E+02
 11
3.46438751E+02
 21
-2.16557706E+02
  0
LINE
  8
0
 62
2
 10
3.54758698E+02
 20
-2.17377713E+02
 11
3.46438751E+02
 21
-2.17377713E+02
  0
LINE
  8
0
 62
7
 10
3.55438697E+02
 20
-2.18057836E+02
 11
3.53938651E+02
 21
-2.16557836E+02
  0
LINE
  8
0
 62
7
 10
3.23438729E+02
 20
-2.16557742E+02
 11
3.22064908E+02
 21
-2.16057712E+02
  0
LINE
  8
0
 62
7
 10
3.26438751E+02
 20
-2.17377713E+02
 11
3.23438751E+02
 21
-2.17377713E+02
  0
ARC
  8
0
 62
7
 10
2.99938782E+02
 20
-2.07057706E+02
 40
5.00000000E-01
 50
3.59721787E-05
 51
9.00000179E+01
  0
ARC
  8
0
 62
7
 10
3.08188782E+02
 20
-2.08549161E+02
 40
2.50000000E-01
 50
2.23118003E-05
 51
8.80011768E+01
  0
ARC
  8
0
 62
7
 10
3.12938782E+02
 20
-2.09057736E+02
 40
5.00000000E-01
 50
3.59721787E-05
 51
9.00000179E+01
  0
POLYLINE
  8
0
 62
7
 66
1
  0
VERTEX
  8
0
 62
7
 10
3.18081100E+02
 20
-2.25557706E+02
  0
VERTEX
  8
0
 62
7
 10
3.18438210E+02
 20
-2.25538584E+02
  0
VERTEX
  8
0
 62
7
 10
3.18792445E+02
 20
-2.25481372E+02
  0
VERTEX
  8
0
 62
7
 10
3.19140953E+02
 20
-2.25386530E+02
  0
VERTEX
  8
0
 62
7
 10
3.19480927E+02
 20
-2.25254822E+02
  0
VERTEX
  8
0
 62
7
 10
3.19809630E+02
 20
-2.25087308E+02
  0
VERTEX
  8
0
 62
7
 10
3.20124417E+02
 20
-2.24885338E+02
  0
VERTEX
  8
0
 62
7
 10
3.20422752E+02
 20
-2.24650537E+02
  0
VERTEX
  8
0
 62
7
 10
3.20702233E+02
 20
-2.24384795E+02
  0
VERTEX
  8
0
 62
7
 10
3.20960611E+02
 20
-2.24090254E+02
  0
VERTEX
  8
0
 62
7
 10
3.21195804E+02
 20
-2.23769283E+02
  0
VERTEX
  8
0
 62
7
 10
3.21405920E+02
 20
-2.23424467E+02
  0
VERTEX
  8
0
 62
7
 10
3.21589266E+02
 20
-2.23058582E+02
  0
VERTEX
  8
0
 62
7
 10
3.21744366E+02
 20
-2.22674575E+02
  0
VERTEX
  8
0
 62
7
 10
3.21869972E+02
 20
-2.22275537E+02
  0
VERTEX
  8
0
 62
7
 10
3.21965073E+02
 20
-2.21864680E+02
  0
VERTEX
  8
0
 62
7
 10
3.22028901E+02
 20
-2.21445314E+02
  0
VERTEX
  8
0
 62
7
 10
3.22060945E+02
 20
-2.21020814E+02
  0
VERTEX
  8
0
 62
7
 10
3.22060945E+02
 20
-2.20594598E+02
  0
VERTEX
  8
0
 62
7
 10
3.22028901E+02
 20
-2.20170098E+02
  0
VERTEX
  8
0
 62
7
 10
3.21965073E+02
 20
-2.19750732E+02
  0
VERTEX
  8
0
 62
7
 10
3.21869972E+02
 20
-2.19339875E+02
  0
VERTEX
  8
0
 62
7
 10
3.21744366E+02
 20
-2.18940837E+02
  0
VERTEX
  8
0
 62
7
 10
3.21589266E+02
 20
-2.18556830E+02
  0
VERTEX
  8
0
 62
7
 10
3.21405920E+02
 20
-2.18190945E+02
  0
VERTEX
  8
0
 62
7
 10
3.21195804E+02
 20
-2.17846129E+02
  0
VERTEX
  8
0
 62
7
 10
3.20960611E+02
 20
-2.17525158E+02
  0
VERTEX
  8
0
 62
7
 10
3.20702233E+02
 20
-2.17230617E+02
  0
VERTEX
  8
0
 62
7
 10
3.20422752E+02
 20
-2.16964875E+02
  0
VERTEX
  8
0
 62
7
 10
3.20124417E+02
 20
-2.16730074E+02
  0
VERTEX
  8
0
 62
7
 10
3.19809630E+02
 20
-2.16528104E+02
  0
VERTEX
  8
0
 62
7
 10
3.19480927E+02
 20
-2.16360590E+02
  0
VERTEX
  8
0
 62
7
 10
3.19140953E+02
 20
-2.16228882E+02
  0
VERTEX
  8
0
 62
7
 10
3.18792445E+02
 20
-2.16134040E+02
  0
VERTEX
  8
0
 62
7
 10
3.18438210E+02
 20
-2.16076828E+02
  0
VERTEX
  8
0
 62
7
 10
3.18081100E+02
 20
-2.16057706E+02
  0
SEQEND
  8
0
  0
LINE
  8
0
 62
7
 10
3.35438751E+02
 20
-2.16557706E+02
 11
3.26438751E+02
 21
-2.16557706E+02
  0
LINE
  8
0
 62
2
 10
3.35438751E+02
 20
-2.17377713E+02
 11
3.26438751E+02
 21
-2.17377713E+02
  0
LINE
  8
0
 62
4
 10
3.45232980E+02
 20
-2.09969248E+02
 11
3.36644523E+02
 21
-2.09969248E+02
  0
LINE
  8
0
 62
4
 10
3.45232980E+02
 20
-2.17763477E+02
 11
3.36644523E+02
 21
-2.17763477E+02
  0
LINE
  8
0
 62
4
 10
3.45232980E+02
 20
-2.09969248E+02
 11
3.46438751E+02
 21
-2.12057706E+02
  0
LINE
  8
0
 62
4
 10
3.36644523E+02
 20
-2.09969248E+02
 11
3.35438751E+02
 21
-2.12057706E+02
  0
ARC
  8
0
 62
4
 10
3.39538030E+02
 20
-2.13866363E+02
 40
6.90072132E+00
 50
3.25615752E+02
 51
3.43842480E+01
  0
ARC
  8
0
 62
4
 10
3.42339473E+02
 20
-2.13866363E+02
 40
6.90072132E+00
 50
1.45615752E+02
 51
2.14384248E+02
  0
ARC
  8
0
 62
4
 10
3.61232979E+02
 20
-2.25557706E+02
 40
2.57942282E+01
 50
1.62412046E+02
 51
1.80000000E+02
  0
ARC
  8
0
 62
4
 10
3.20644523E+02
 20
-2.25557706E+02
 40
2.57942282E+01
 50
2.54444375E-13
 51
1.75879541E+01
  0
LINE
  8
0
 62
4
 10
3.46438751E+02
 20
-2.25557706E+02
 11
3.46438751E+02
 21
-2.12057706E+02
  0
LINE
  8
0
 62
4
 10
3.35438751E+02
 20
-2.25557706E+02
 11
3.35438751E+02
 21
-2.12057706E+02
  0
LINE
  8
0
 62
7
 10
-7.42500000E+01
 20
-8.07434245E+01
 11
-7.42500000E+01
 21
-1.16557706E+02
  0
LINE
  8
0
  6
CENTER
 62
2
 10
-3.17499945E+01
 20
-8.55577056E+01
 11
-2.34724537E+01
 21
-8.55577056E+01
  0
LINE
  8
0
  6
CENTER
 62
2
 10
-6.62499945E+01
 20
-6.20577208E+01
 11
-1.07353455E+02
 21
-6.20577208E+01
  0
LINE
  8
0
 62
2
 10
-4.11507904E+01
 20
-1.16177483E+02
 11
-4.77592603E+00
 21
-5.31743698E+01
  0
LINE
  8
0
 62
2
 10
1.80252673E+02
 20
-2.34619246E+02
 11
2.07402622E+02
 21
-1.87594156E+02
  0
LINE
  8
0
 62
7
 10
2.60938782E+02
 20
-1.98557736E+02
 11
2.67438782E+02
 21
-1.98557736E+02
  0
LINE
  8
0
 62
7
 10
2.59438782E+02
 20
-2.04707715E+02
 11
2.67438782E+02
 21
-2.04707715E+02
  0
LINE
  8
0
 62
7
 10
2.59438782E+02
 20
-1.99407727E+02
 11
2.67438782E+02
 21
-1.99407727E+02
  0
LINE
  8
0
  6
CENTER
 62
2
 10
2.59438782E+02
 20
-2.02057721E+02
 11
3.00542236E+02
 21
-2.02057721E+02
  0
TEXT
  8
0
 10
-5.61502877E+01
 20
2.49478397E+02
 40
6.30000019E+00
  1
STRETCH LINE
 41
1.05263174E+00
  7
MONOTXT
  0
LINE
  8
0
 62
7
 10
2.79799927E+02
 20
-2.56750000E+02
 11
3.99799805E+02
 21
-2.56750000E+02
  0
LINE
  8
0
 62
7
 10
2.79799927E+02
 20
-2.56750000E+02
 11
2.79799927E+02
 21
-2.76750000E+02
  0
TEXT
  8
0
 62
7
 10
2.87585240E+02
 20
-2.71250000E+02
 40
9.00000000E+00
  1
KOGANEI CORP.
 41
1.04838710E+00
  7
MONOTXT
  0
TEXT
  8
0
 62
7
 10
3.15499641E+02
 20
2.63100000E+02
 40
6.30000019E+00
  1
Ver. 1.0
 41
1.08108124E+00
  7
MONOTXT
  0
LINE
  8
0
 62
7
 10
2.79799927E+02
 20
2.56250000E+02
 11
3.99799805E+02
 21
2.56250000E+02
  0
LINE
  8
0
 62
7
 10
2.79799927E+02
 20
2.76250000E+02
 11
2.79799927E+02
 21
2.56250000E+02
  0
TEXT
  8
0
 62
7
 10
-3.85600562E+02
 20
2.38100000E+02
 40
6.30000019E+00
  1
MODEL:DDAL50*75
 41
1.00000015E+00
  7
MONOTXT
  0
LINE
  8
0
 62
7
 10
-3.99250000E+02
 20
2.56250000E+02
 11
-2.79250000E+02
 21
2.56250000E+02
  0
LINE
  8
0
 62
7
 10
-2.79250000E+02
 20
2.76250000E+02
 11
-2.79250000E+02
 21
2.56250000E+02
  0
TEXT
  8
0
 62
7
 10
-3.91900291E+02
 20
2.63100000E+02
 40
6.30000019E+00
  1
NEW DYNA CYLINDER
 41
1.07594953E+00
  7
MONOTXT
  0
LINE
  8
0
 62
7
 10
-3.99250000E+02
 20
-2.76750000E+02
 11
3.99799805E+02
 21
-2.76750000E+02
  0
LINE
  8
0
 62
7
 10
-3.99250000E+02
 20
2.76250000E+02
 11
3.99799805E+02
 21
2.76250000E+02
  0
LINE
  8
0
 62
7
 10
-3.99250000E+02
 20
2.76250000E+02
 11
-3.99250000E+02
 21
-2.76750000E+02
  0
LINE
  8
0
 62
7
 10
3.99799805E+02
 20
2.76250000E+02
 11
3.99799805E+02
 21
-2.76750000E+02
  0
ENDSEC
  0
EOF
