  0
SECTION
  2
HEADER
  9
$ACADVER
  1
AC1003
  9
$EXTMIN
 10
-5.64500000E+02
 20
-4.00500000E+02
  9
$EXTMAX
 10
5.74500000E+02
 20
4.00500000E+02
  9
$LIMMIN
 10
-5.64501000E+02
 20
-4.00501000E+02
  9
$LIMMAX
 10
5.74501000E+02
 20
4.00501000E+02
  9
$SNAPUNIT
 10
1
 20
1
  9
$SNAPBASE
 10
0
 20
0
  9
$GRIDMODE
 70
0
  9
$GRIDUNIT
 10
0
 20
0
  9
$LTSCALE
 40
1.89833333E+01
  9
$TEXTSIZE
 40
3.2
  9
$DIMTAD
 70
0
  9
$LUNITS
 70
2
  9
$LUPREC
 70
4
  9
$FILLETRAD
 40
0
  9
$AUNITS
 70
0
  9
$AUPREC
 70
0
  0
ENDSEC
  0
SECTION
  2
TABLES
  0
TABLE
  2
LTYPE
 70
2
  0
LTYPE
  2
CONTINUOUS
 70
64
  3
Solid-Line
 72
65
 73
0
 40
0
  0
LTYPE
  2
DASHED
 70
64
  3
DASHED
 72
65
 73
2
 40
.75
 49
.5
 49
-.25
  0
LTYPE
  2
HIDDEN
 70
64
  3
HIDDEN
 72
65
 73
2
 40
.375
 49
.25
 49
-.125
  0
LTYPE
  2
CENTER
 70
64
  3
CENTER
 72
65
 73
4
 40
2
 49
1.25
 49
-.25
 49
.25
 49
-.25
  0
LTYPE
  2
PHANTOM
 70
64
  3
PHANTOM
 72
65
 73
6
 40
2.5
 49
1.25
 49
-.25
 49
.25
 49
-.25
 49
.25
 49
-.25
  0
ENDTAB
  0
TABLE
  2
LAYER
 70
1
  0
LAYER
  2
1
 70
0
 62
7
  6
CONTINUOUS
 0
ENDTAB
  0
TABLE
  2
STYLE
 70
2
  0
STYLE
  2
MONOTXT
 70
0
 40
0
 41
1
 50
0
 71
0
 42
.2
  3
monotxt
  0
STYLE
  2
BIGFONT
 70
0
 40
0
 41
1
 50
0
 71
0
 42
.2
  3
txt
  4
bigfont
  0
ENDTAB
  0
ENDSEC
  0
SECTION
  2
ENTITIES
  0
LINE
  8
0
  6
PHANTOM
 10
-2.45000000E+01
 20
2.81313474E+01
 11
-2.45000000E+01
 21
1.90686885E+02
  0
LINE
  8
0
 62
7
 10
1.65000008E+02
 20
1.09499947E+02
 11
1.65000008E+02
 21
9.14999466E+01
  0
LINE
  8
0
  6
CENTER
 62
2
 10
-2.02243382E+02
 20
1.00500000E+02
 11
1.80837269E+02
 21
1.00500000E+02
  0
LINE
  8
0
 62
7
 10
-1.39500034E+02
 20
8.10000000E+01
 11
-1.35000034E+02
 21
8.10000000E+01
  0
LINE
  8
0
 62
7
 10
-1.15000004E+02
 20
5.34999924E+01
 11
-8.30000191E+01
 21
5.34999924E+01
  0
LINE
  8
0
 62
7
 10
-1.18508759E+02
 20
5.41198204E+01
 11
-8.30000077E+01
 21
5.35000129E+01
  0
LINE
  8
0
 62
7
 10
-1.15000004E+02
 20
5.40585403E+01
 11
-1.15000004E+02
 21
5.34999924E+01
  0
LINE
  8
0
 62
7
 10
-1.20500019E+02
 20
7.85000000E+01
 11
-1.19000019E+02
 21
7.85000000E+01
  0
LINE
  8
0
 62
7
 10
-1.34517451E+02
 20
7.94721056E+01
 11
-1.20999994E+02
 21
7.90000656E+01
  0
LINE
  8
0
 62
7
 10
5.99999847E+01
 20
5.34999924E+01
 11
2.79999886E+01
 21
5.34999924E+01
  0
LINE
  8
0
 62
7
 10
6.35087025E+01
 20
5.41198479E+01
 11
2.79999928E+01
 21
5.35000411E+01
  0
LINE
  8
0
 62
7
 10
5.99999847E+01
 20
5.40585403E+01
 11
5.99999847E+01
 21
5.34999924E+01
  0
LINE
  8
0
 62
7
 10
1.77000004E+02
 20
1.07499954E+02
 11
1.77000004E+02
 21
9.34999619E+01
  0
LINE
  8
0
 62
7
 10
1.64000024E+02
 20
9.04999660E+01
 11
1.65000020E+02
 21
9.14999617E+01
  0
LINE
  8
0
 62
7
 10
1.04999996E+02
 20
9.04999847E+01
 11
1.63999996E+02
 21
9.04999847E+01
  0
LINE
  8
0
 62
7
 10
8.90000000E+01
 20
9.18499832E+01
 11
1.03383429E+02
 21
9.18499832E+01
  0
LINE
  8
0
 62
7
 10
1.03383390E+02
 20
8.32000120E+01
 11
1.04999969E+02
 21
8.60000092E+01
  0
LINE
  8
0
 62
7
 10
2.79999886E+01
 20
5.69999771E+01
 11
-8.30000191E+01
 21
5.69999771E+01
  0
LINE
  8
0
  6
CENTER
 62
2
 10
8.76799240E+01
 20
6.54999847E+01
 11
-1.21524494E+02
 21
6.54999847E+01
  0
LINE
  8
0
 62
7
 10
6.40000000E+01
 20
5.34999657E+01
 11
8.59999943E+01
 21
5.34999657E+01
  0
LINE
  8
0
 62
7
 10
8.90000000E+01
 20
8.31999741E+01
 11
1.03383429E+02
 21
8.31999741E+01
  0
LINE
  8
0
 62
7
 10
8.59999943E+01
 20
8.22499619E+01
 11
8.90000000E+01
 21
8.22499619E+01
  0
LINE
  8
0
 62
7
 10
1.63999994E+02
 20
1.10499974E+02
 11
1.64999992E+02
 21
1.09499976E+02
  0
LINE
  8
0
 62
2
 10
1.67000009E+02
 20
1.05321818E+02
 11
1.77000004E+02
 21
9.56781669E+01
  0
LINE
  8
0
 62
2
 10
1.66999995E+02
 20
9.56781585E+01
 11
1.77000006E+02
 21
1.05321825E+02
  0
LINE
  8
0
 62
7
 10
1.67000000E+02
 20
9.34999619E+01
 11
1.67000000E+02
 21
9.19999466E+01
  0
LINE
  8
0
 62
7
 10
1.67000000E+02
 20
1.05321785E+02
 11
1.67000000E+02
 21
9.56781311E+01
  0
LINE
  8
0
 62
7
 10
1.66999996E+02
 20
9.56781540E+01
 11
1.76999996E+02
 21
9.56781540E+01
  0
LINE
  8
0
 62
7
 10
1.66999996E+02
 20
1.05321815E+02
 11
1.76999996E+02
 21
1.05321815E+02
  0
LINE
  8
0
 62
7
 10
1.67000000E+02
 20
1.08999969E+02
 11
1.67000000E+02
 21
1.07499954E+02
  0
LINE
  8
0
 62
7
 10
1.66999996E+02
 20
9.34999924E+01
 11
1.76999996E+02
 21
9.34999924E+01
  0
LINE
  8
0
 62
7
 10
1.66999996E+02
 20
1.07499977E+02
 11
1.76999996E+02
 21
1.07499977E+02
  0
LINE
  8
0
 62
7
 10
1.64999992E+02
 20
1.08999992E+02
 11
1.66999996E+02
 21
1.08999992E+02
  0
LINE
  8
0
 62
7
 10
1.64999992E+02
 20
9.19999771E+01
 11
1.66999996E+02
 21
9.19999771E+01
  0
LINE
  8
0
 62
7
 10
1.63999996E+02
 20
1.10499962E+02
 11
1.63999996E+02
 21
9.04999619E+01
  0
LINE
  8
0
 62
2
 10
1.04999996E+02
 20
9.13199921E+01
 11
1.64819996E+02
 21
9.13199921E+01
  0
LINE
  8
0
 62
7
 10
-1.40000004E+02
 20
8.14999924E+01
 11
-1.40000004E+02
 21
1.19500000E+02
  0
LINE
  8
0
 62
7
 10
-1.39500034E+02
 20
1.19999992E+02
 11
-1.35000034E+02
 21
1.19999992E+02
  0
LINE
  8
0
 62
7
 10
-1.19000004E+02
 20
5.46197205E+01
 11
-1.19000004E+02
 21
1.46380272E+02
  0
LINE
  8
0
 62
7
 10
-8.30000191E+01
 20
5.35000114E+01
 11
-8.30000191E+01
 21
1.47499977E+02
  0
LINE
  8
0
 62
7
 10
-1.15000004E+02
 20
1.47500008E+02
 11
-8.30000191E+01
 21
1.47500008E+02
  0
LINE
  8
0
 62
7
 10
-1.18508758E+02
 20
1.46880183E+02
 11
-8.30000217E+01
 21
1.47499990E+02
  0
LINE
  8
0
 62
7
 10
-1.15000004E+02
 20
1.46941460E+02
 11
-1.15000004E+02
 21
1.47500008E+02
  0
LINE
  8
0
 62
7
 10
-1.20500019E+02
 20
1.22499992E+02
 11
-1.19000019E+02
 21
1.22499992E+02
  0
LINE
  8
0
 62
7
 10
-1.35000004E+02
 20
7.99717255E+01
 11
-1.35000004E+02
 21
1.21028267E+02
  0
LINE
  8
0
 62
7
 10
-1.34517441E+02
 20
1.21527895E+02
 11
-1.20999999E+02
 21
1.21999934E+02
  0
LINE
  8
0
 62
7
 10
-1.20999989E+02
 20
7.90000076E+01
 11
-1.20999989E+02
 21
1.21999985E+02
  0
LINE
  8
0
 62
7
 10
6.40000000E+01
 20
5.34999657E+01
 11
6.40000000E+01
 21
1.47500023E+02
  0
LINE
  8
0
 62
7
 10
2.79999886E+01
 20
5.35000420E+01
 11
2.79999886E+01
 21
1.47499947E+02
  0
LINE
  8
0
 62
7
 10
5.99999847E+01
 20
1.47500008E+02
 11
2.79999886E+01
 21
1.47500008E+02
  0
LINE
  8
0
 62
7
 10
6.35087012E+01
 20
1.46880151E+02
 11
2.79999914E+01
 21
1.47499958E+02
  0
LINE
  8
0
 62
7
 10
5.99999847E+01
 20
1.46941460E+02
 11
5.99999847E+01
 21
1.47500008E+02
  0
LINE
  8
0
 62
7
 10
8.59999943E+01
 20
5.34999390E+01
 11
8.59999943E+01
 21
1.47500053E+02
  0
LINE
  8
0
 62
7
 10
1.04999996E+02
 20
1.10500008E+02
 11
1.63999996E+02
 21
1.10500008E+02
  0
LINE
  8
0
 62
7
 10
8.90000000E+01
 20
1.09150017E+02
 11
1.03383429E+02
 21
1.09150017E+02
  0
LINE
  8
0
 62
7
 10
1.03383390E+02
 20
1.17799990E+02
 11
1.04999971E+02
 21
1.14999990E+02
  0
LINE
  8
0
 62
7
 10
8.90000000E+01
 20
8.22499390E+01
 11
8.90000000E+01
 21
1.18750053E+02
  0
LINE
  8
0
 62
7
 10
2.79999886E+01
 20
1.44000023E+02
 11
2.14999886E+01
 21
1.44000023E+02
  0
LINE
  8
0
  6
CENTER
 62
2
 10
8.76799240E+01
 20
1.35500008E+02
 11
-1.21524494E+02
 21
1.35500008E+02
  0
LINE
  8
0
 62
7
 10
1.04999996E+02
 20
8.59999390E+01
 11
1.04999996E+02
 21
1.15000053E+02
  0
LINE
  8
0
 62
7
 10
6.40000000E+01
 20
1.47500023E+02
 11
8.59999943E+01
 21
1.47500023E+02
  0
LINE
  8
0
 62
7
 10
8.90000000E+01
 20
1.17800018E+02
 11
1.03383429E+02
 21
1.17800018E+02
  0
LINE
  8
0
 62
7
 10
8.59999943E+01
 20
1.18750031E+02
 11
8.90000000E+01
 21
1.18750031E+02
  0
LINE
  8
0
 62
2
 10
1.04999996E+02
 20
1.09680000E+02
 11
1.64819996E+02
 21
1.09680000E+02
  0
LINE
  8
0
 62
7
 10
-1.51000004E+02
 20
1.07282280E+02
 11
-1.51000004E+02
 21
1.13000000E+02
  0
LINE
  8
0
 62
7
 10
-1.54000004E+02
 20
8.94999695E+01
 11
-1.54000004E+02
 21
1.11500023E+02
  0
LINE
  8
0
 62
7
 10
-1.94000004E+02
 20
1.10000046E+02
 11
-1.94000004E+02
 21
9.09999466E+01
  0
LINE
  8
0
 62
7
 10
-1.57000004E+02
 20
1.11500023E+02
 11
-1.57000004E+02
 21
8.94999847E+01
  0
LINE
  8
0
 62
7
 10
-1.92500065E+02
 20
8.94999695E+01
 11
-1.81999996E+02
 21
8.94999695E+01
  0
LINE
  8
0
 62
7
 10
-1.92500004E+02
 20
1.11500023E+02
 11
-1.92500004E+02
 21
8.94999847E+01
  0
LINE
  8
0
 62
7
 10
-1.94000085E+02
 20
9.10000023E+01
 11
-1.92500072E+02
 21
8.94999899E+01
  0
LINE
  8
0
 62
2
 10
-1.93320072E+02
 20
9.03199844E+01
 11
-1.81999996E+02
 21
9.03199844E+01
  0
LINE
  8
0
 62
7
 10
-1.51000050E+02
 20
8.79999466E+01
 11
-1.40000034E+02
 21
8.79999466E+01
  0
LINE
  8
0
 62
7
 10
-1.51000004E+02
 20
9.37176895E+01
 11
-1.51000004E+02
 21
8.79999619E+01
  0
LINE
  8
0
 62
7
 10
-1.94000074E+02
 20
1.09999990E+02
 11
-1.92500056E+02
 21
1.11500008E+02
  0
LINE
  8
0
 62
7
 10
-1.92500065E+02
 20
1.11500023E+02
 11
-1.81999996E+02
 21
1.11500023E+02
  0
LINE
  8
0
 62
2
 10
-1.93320072E+02
 20
1.10680008E+02
 11
-1.81999996E+02
 21
1.10680008E+02
  0
LINE
  8
0
 62
7
 10
-1.51000050E+02
 20
1.13000046E+02
 11
-1.40000034E+02
 21
1.13000046E+02
  0
LINE
  8
0
 62
7
 10
-1.44000019E+02
 20
9.37176895E+01
 11
-1.44000019E+02
 21
1.07282280E+02
  0
LINE
  8
0
 62
7
 10
-1.51000004E+02
 20
9.37176895E+01
 11
-1.44000019E+02
 21
9.37176895E+01
  0
LINE
  8
0
 62
7
 10
-1.51000004E+02
 20
1.07282280E+02
 11
-1.44000019E+02
 21
1.07282280E+02
  0
LINE
  8
0
 62
7
 10
-1.50999990E+02
 20
9.37176893E+01
 11
-1.53999997E+02
 21
9.70001372E+01
  0
LINE
  8
0
 62
7
 10
-1.53999995E+02
 20
1.03999862E+02
 11
-1.50999997E+02
 21
1.07282277E+02
  0
LINE
  8
0
 62
7
 10
-1.54000025E+02
 20
1.11500032E+02
 11
-1.51000013E+02
 21
1.13000061E+02
  0
LINE
  8
0
 62
7
 10
-1.54000022E+02
 20
8.94999821E+01
 11
-1.51000009E+02
 21
8.79999531E+01
  0
LINE
  8
0
 62
2
 10
-1.44000027E+02
 20
1.07282284E+02
 11
-1.52660571E+02
 21
9.55345927E+01
  0
LINE
  8
0
 62
2
 10
-1.44000008E+02
 20
9.37176748E+01
 11
-1.52660568E+02
 21
1.05465388E+02
  0
LINE
  8
0
 62
7
 10
-1.57000004E+02
 20
1.10680008E+02
 11
-1.54000004E+02
 21
1.10680008E+02
  0
LINE
  8
0
 62
7
 10
-1.57000004E+02
 20
9.03199844E+01
 11
-1.54000004E+02
 21
9.03199844E+01
  0
LINE
  8
0
  6
CENTER
 62
2
 10
-9.89999733E+01
 20
1.34800056E+02
 11
-9.89999733E+01
 21
1.49952660E+02
  0
LINE
  8
0
  6
CENTER
 62
2
 10
4.39999504E+01
 20
1.34800056E+02
 11
4.39999504E+01
 21
1.49952660E+02
  0
ARC
  8
0
 62
7
 10
-1.39500034E+02
 20
8.14999924E+01
 40
5.00000000E-01
 50
1.79999977E+02
 51
2.69999974E+02
  0
ARC
  8
0
 62
7
 10
-1.18500019E+02
 20
5.46197205E+01
 40
5.00000000E-01
 50
1.79999977E+02
 51
2.68999679E+02
  0
ARC
  8
0
 62
7
 10
-1.20500019E+02
 20
7.89999924E+01
 40
5.00000000E-01
 50
1.79999977E+02
 51
2.69999974E+02
  0
ARC
  8
0
 62
7
 10
-1.34500004E+02
 20
7.99717255E+01
 40
5.00000000E-01
 50
1.79999977E+02
 51
2.67999192E+02
  0
ARC
  8
0
 62
7
 10
6.34999962E+01
 20
5.46197205E+01
 40
5.00000000E-01
 50
2.71000347E+02
 51
5.46415133E-05
  0
ARC
  8
0
 62
7
 10
8.10494461E+01
 20
1.00499985E+02
 40
2.39505558E+01
 50
3.38828555E+02
 51
0.00000000E+00
  0
ARC
  8
0
 62
7
 10
9.87792168E+01
 20
8.76667862E+01
 40
6.22076416E+00
 50
3.30000061E+02
 51
4.22569871E+01
  0
ARC
  8
0
 62
7
 10
-1.39500034E+02
 20
1.19500000E+02
 40
5.00000000E-01
 50
9.00000369E+01
 51
1.80000019E+02
  0
ARC
  8
0
 62
7
 10
-1.18500019E+02
 20
1.46380272E+02
 40
5.00000000E-01
 50
9.10003112E+01
 51
1.80000019E+02
  0
ARC
  8
0
 62
7
 10
-1.20500019E+02
 20
1.22000000E+02
 40
5.00000000E-01
 50
9.00000369E+01
 51
1.80000019E+02
  0
ARC
  8
0
 62
7
 10
-1.34500004E+02
 20
1.21028267E+02
 40
5.00000000E-01
 50
9.20007969E+01
 51
1.80000019E+02
  0
ARC
  8
0
 62
7
 10
6.34999962E+01
 20
1.46380272E+02
 40
5.00000000E-01
 50
3.59999945E+02
 51
8.89996531E+01
  0
ARC
  8
0
 62
7
 10
8.10494461E+01
 20
1.00500008E+02
 40
2.39505558E+01
 50
0.00000000E+00
 51
2.11714451E+01
  0
ARC
  8
0
 62
7
 10
9.87792168E+01
 20
1.13333214E+02
 40
6.22076416E+00
 50
3.17743013E+02
 51
2.99999393E+01
  0
ARC
  8
0
 62
7
 10
-1.54500034E+02
 20
1.00499985E+02
 40
1.25000010E+01
 50
3.27140311E+02
 51
3.28596884E+01
  0
ARC
  8
0
 62
4
 10
-1.73437394E+02
 20
1.14229081E+02
 40
8.56342793E+00
 50
1.46410665E+02
 51
2.13589318E+02
  0
ARC
  8
0
 62
4
 10
-1.52945196E+02
 20
1.00491471E+02
 40
2.90548000E+01
 50
1.61955287E+02
 51
1.98044695E+02
  0
ARC
  8
0
 62
4
 10
-1.73437394E+02
 20
8.67538616E+01
 40
8.56342793E+00
 50
1.46410624E+02
 51
2.13589277E+02
  0
ARC
  8
0
 62
4
 10
-1.77562599E+02
 20
1.14229081E+02
 40
8.56342793E+00
 50
3.26410605E+02
 51
3.35892584E+01
  0
ARC
  8
0
 62
4
 10
-1.98054791E+02
 20
1.00491471E+02
 40
2.90548000E+01
 50
3.41955269E+02
 51
1.80446768E+01
  0
ARC
  8
0
 62
4
 10
-1.77562599E+02
 20
8.67538616E+01
 40
8.56342793E+00
 50
3.26410646E+02
 51
3.35892994E+01
  0
LINE
  8
0
 62
4
 10
-1.80570934E+02
 20
1.09491471E+02
 11
-1.70429058E+02
 21
1.09491471E+02
  0
LINE
  8
0
 62
4
 10
-1.80570934E+02
 20
9.14914715E+01
 11
-1.70429058E+02
 21
9.14914715E+01
  0
LINE
  8
0
 62
4
 10
-1.70429076E+02
 20
1.18966648E+02
 11
-1.69000004E+02
 21
1.16491460E+02
  0
LINE
  8
0
 62
4
 10
-1.81999959E+02
 20
8.44915178E+01
 11
-1.80570905E+02
 21
8.20163279E+01
  0
LINE
  8
0
 62
4
 10
-1.70429032E+02
 20
8.20163146E+01
 11
-1.68999985E+02
 21
8.44914430E+01
  0
LINE
  8
0
 62
4
 10
-1.82000013E+02
 20
1.16491475E+02
 11
-1.80570929E+02
 21
1.18966692E+02
  0
LINE
  8
0
 62
4
 10
-1.68999996E+02
 20
1.16491475E+02
 11
-1.68999996E+02
 21
8.44914715E+01
  0
LINE
  8
0
 62
4
 10
-1.81999996E+02
 20
1.16491475E+02
 11
-1.81999996E+02
 21
8.44914715E+01
  0
LINE
  8
0
 62
4
 10
-1.80570934E+02
 20
1.18966695E+02
 11
-1.70429058E+02
 21
1.18966695E+02
  0
LINE
  8
0
 62
4
 10
-1.80570934E+02
 20
8.20162537E+01
 11
-1.70429058E+02
 21
8.20162537E+01
  0
LINE
  8
0
 62
7
 10
-1.68999996E+02
 20
1.11500023E+02
 11
-1.57000004E+02
 21
1.11500023E+02
  0
LINE
  8
0
 62
2
 10
-1.68999996E+02
 20
1.10680008E+02
 11
-1.57000004E+02
 21
1.10680008E+02
  0
LINE
  8
0
 62
7
 10
-1.68999996E+02
 20
8.94999695E+01
 11
-1.57000004E+02
 21
8.94999695E+01
  0
LINE
  8
0
 62
2
 10
-1.68999996E+02
 20
9.03199844E+01
 11
-1.57000004E+02
 21
9.03199844E+01
  0
LINE
  8
0
 62
7
 10
2.79999580E+01
 20
1.40000008E+02
 11
1.99999886E+01
 21
1.40000008E+02
  0
LINE
  8
0
 62
7
 10
2.79999580E+01
 20
1.31000038E+02
 11
4.99998856E+00
 21
1.31000038E+02
  0
LINE
  8
0
 62
7
 10
2.79999580E+01
 20
6.99999771E+01
 11
-8.30000191E+01
 21
6.99999771E+01
  0
LINE
  8
0
 62
7
 10
2.79999580E+01
 20
6.09999924E+01
 11
-8.30000191E+01
 21
6.09999924E+01
  0
LINE
  8
0
 62
6
 10
-3.07320394E+01
 20
1.40726420E+02
 11
-2.72679378E+01
 21
1.46726420E+02
  0
LINE
  8
0
 62
6
 10
-1.82678767E+01
 20
1.46726421E+02
 11
-2.17319783E+01
 21
1.40726421E+02
  0
LINE
  8
0
 62
4
 10
-9.99992751E+00
 20
1.45226420E+02
 11
-1.91339021E+01
 21
1.45226420E+02
  0
LINE
  8
0
  6
CENTER
 62
6
 10
2.50000725E+01
 20
1.43726420E+02
 11
-2.19999275E+01
 21
1.43726420E+02
  0
LINE
  8
0
 62
4
 10
-9.99992751E+00
 20
1.42226420E+02
 11
-2.08659529E+01
 21
1.42226420E+02
  0
LINE
  8
0
 62
4
 10
-4.54999885E+01
 20
1.45226420E+02
 11
-2.81339631E+01
 21
1.45226420E+02
  0
LINE
  8
0
 62
4
 10
2.14999886E+01
 20
1.42248888E+02
 11
1.99999886E+01
 21
1.41122840E+02
  0
LINE
  8
0
 62
4
 10
2.14999886E+01
 20
1.43097372E+02
 11
1.99999886E+01
 21
1.42621266E+02
  0
LINE
  8
0
 62
4
 10
2.14999886E+01
 20
1.45197444E+02
 11
2.14999886E+01
 21
1.42248888E+02
  0
LINE
  8
0
 62
4
 10
1.99999886E+01
 20
1.46330001E+02
 11
2.14999886E+01
 21
1.45197444E+02
  0
LINE
  8
0
 62
4
 10
-6.89999886E+01
 20
1.43999992E+02
 11
-6.89999886E+01
 21
1.56361384E+02
  0
LINE
  8
0
 62
4
 10
-3.89999886E+01
 20
1.45226420E+02
 11
-3.89999886E+01
 21
1.56361384E+02
  0
LINE
  8
0
 62
4
 10
-1.00000114E+01
 20
1.24976460E+02
 11
-1.00000114E+01
 21
1.56361384E+02
  0
LINE
  8
0
  6
CENTER
 62
6
 10
1.60745854E+01
 20
1.48330609E+02
 11
8.92539167E+00
 21
1.48330609E+02
  0
LINE
  8
0
  6
CENTER
 62
6
 10
1.24999886E+01
 20
1.51905206E+02
 11
1.24999886E+01
 21
1.44756012E+02
  0
LINE
  8
0
 62
4
 10
1.99999886E+01
 20
1.56361384E+02
 11
1.99999886E+01
 21
1.37518152E+02
  0
LINE
  8
0
 62
4
 10
4.99998856E+00
 20
1.24976460E+02
 11
4.99998856E+00
 21
1.56361384E+02
  0
LINE
  8
0
  6
CENTER
 62
6
 10
-1.00000114E+01
 20
1.29159693E+02
 11
-3.00001144E+00
 21
1.29159693E+02
  0
LINE
  8
0
  6
CENTER
 62
6
 10
-6.50001144E+00
 20
1.25659693E+02
 11
-6.50001144E+00
 21
1.32659693E+02
  0
LINE
  8
0
  6
CENTER
 62
6
 10
-2.00001144E+00
 20
1.29159693E+02
 11
4.99998856E+00
 21
1.29159693E+02
  0
LINE
  8
0
  6
CENTER
 62
6
 10
1.49998856E+00
 20
1.25659693E+02
 11
1.49998856E+00
 21
1.32659693E+02
  0
LINE
  8
0
 62
4
 10
-1.00000114E+01
 20
1.56361384E+02
 11
1.99999885E+01
 21
1.56361384E+02
  0
LINE
  8
0
 62
4
 10
-1.00000114E+01
 20
1.24976460E+02
 11
4.99998856E+00
 21
1.24976460E+02
  0
LINE
  8
0
 62
4
 10
-1.00000115E+01
 20
1.52502936E+02
 11
1.99999885E+01
 21
1.52502936E+02
  0
LINE
  8
0
 62
4
 10
-1.00000115E+01
 20
1.49880690E+02
 11
4.99998855E+00
 21
1.49880690E+02
  0
LINE
  8
0
 62
4
 10
-9.00001145E+00
 20
1.36049415E+02
 11
3.99998855E+00
 21
1.36049415E+02
  0
LINE
  8
0
 62
4
 10
4.99998855E+00
 20
1.37518152E+02
 11
1.99999885E+01
 21
1.37518152E+02
  0
LINE
  8
0
 62
4
 10
4.99998855E+00
 20
1.44621873E+02
 11
1.99999885E+01
 21
1.44621873E+02
  0
LINE
  8
0
 62
4
 10
4.99998855E+00
 20
1.44472031E+02
 11
1.99999885E+01
 21
1.44472031E+02
  0
POLYLINE
  8
0
 62
4
 66
1
  0
VERTEX
  8
0
 62
4
 10
1.02499886E+01
 20
1.48330609E+02
  0
VERTEX
  8
0
 62
4
 10
1.02585505E+01
 20
1.48148788E+02
  0
VERTEX
  8
0
 62
4
 10
1.02841712E+01
 20
1.47968350E+02
  0
VERTEX
  8
0
 62
4
 10
1.03266555E+01
 20
1.47790670E+02
  0
VERTEX
  8
0
 62
4
 10
1.03856802E+01
 20
1.47617099E+02
  0
VERTEX
  8
0
 62
4
 10
1.04607961E+01
 20
1.47448958E+02
  0
VERTEX
  8
0
 62
4
 10
1.05514314E+01
 20
1.47287527E+02
  0
VERTEX
  8
0
 62
4
 10
1.06568965E+01
 20
1.47134035E+02
  0
VERTEX
  8
0
 62
4
 10
1.07763886E+01
 20
1.46989649E+02
  0
VERTEX
  8
0
 62
4
 10
1.09089983E+01
 20
1.46855469E+02
  0
VERTEX
  8
0
 62
4
 10
1.10537165E+01
 20
1.46732515E+02
  0
VERTEX
  8
0
 62
4
 10
1.12094416E+01
 20
1.46621724E+02
  0
VERTEX
  8
0
 62
4
 10
1.13749886E+01
 20
1.46523938E+02
  0
VERTEX
  8
0
 62
4
 10
1.15490975E+01
 20
1.46439903E+02
  0
VERTEX
  8
0
 62
4
 10
1.17304433E+01
 20
1.46370256E+02
  0
VERTEX
  8
0
 62
4
 10
1.19176457E+01
 20
1.46315530E+02
  0
VERTEX
  8
0
 62
4
 10
1.21092802E+01
 20
1.46276139E+02
  0
VERTEX
  8
0
 62
4
 10
1.23038882E+01
 20
1.46252384E+02
  0
VERTEX
  8
0
 62
4
 10
1.24999886E+01
 20
1.46244445E+02
  0
VERTEX
  8
0
 62
4
 10
1.26960890E+01
 20
1.46252384E+02
  0
VERTEX
  8
0
 62
4
 10
1.28906970E+01
 20
1.46276139E+02
  0
VERTEX
  8
0
 62
4
 10
1.30823314E+01
 20
1.46315530E+02
  0
VERTEX
  8
0
 62
4
 10
1.32695339E+01
 20
1.46370256E+02
  0
VERTEX
  8
0
 62
4
 10
1.34508797E+01
 20
1.46439903E+02
  0
VERTEX
  8
0
 62
4
 10
1.36249886E+01
 20
1.46523938E+02
  0
VERTEX
  8
0
 62
4
 10
1.37905356E+01
 20
1.46621724E+02
  0
VERTEX
  8
0
 62
4
 10
1.39462607E+01
 20
1.46732515E+02
  0
VERTEX
  8
0
 62
4
 10
1.40909789E+01
 20
1.46855469E+02
  0
VERTEX
  8
0
 62
4
 10
1.42235886E+01
 20
1.46989649E+02
  0
VERTEX
  8
0
 62
4
 10
1.43430807E+01
 20
1.47134035E+02
  0
VERTEX
  8
0
 62
4
 10
1.44485458E+01
 20
1.47287527E+02
  0
VERTEX
  8
0
 62
4
 10
1.45391811E+01
 20
1.47448958E+02
  0
VERTEX
  8
0
 62
4
 10
1.46142970E+01
 20
1.47617099E+02
  0
VERTEX
  8
0
 62
4
 10
1.46733217E+01
 20
1.47790670E+02
  0
VERTEX
  8
0
 62
4
 10
1.47158060E+01
 20
1.47968350E+02
  0
VERTEX
  8
0
 62
4
 10
1.47414267E+01
 20
1.48148788E+02
  0
VERTEX
  8
0
 62
4
 10
1.47499886E+01
 20
1.48330609E+02
  0
VERTEX
  8
0
 62
4
 10
1.47414267E+01
 20
1.48512430E+02
  0
VERTEX
  8
0
 62
4
 10
1.47158060E+01
 20
1.48692868E+02
  0
VERTEX
  8
0
 62
4
 10
1.46733217E+01
 20
1.48870548E+02
  0
VERTEX
  8
0
 62
4
 10
1.46142970E+01
 20
1.49044119E+02
  0
VERTEX
  8
0
 62
4
 10
1.45391811E+01
 20
1.49212260E+02
  0
VERTEX
  8
0
 62
4
 10
1.44485458E+01
 20
1.49373691E+02
  0
VERTEX
  8
0
 62
4
 10
1.43430807E+01
 20
1.49527183E+02
  0
VERTEX
  8
0
 62
4
 10
1.42235886E+01
 20
1.49671569E+02
  0
VERTEX
  8
0
 62
4
 10
1.40909789E+01
 20
1.49805749E+02
  0
VERTEX
  8
0
 62
4
 10
1.39462607E+01
 20
1.49928703E+02
  0
VERTEX
  8
0
 62
4
 10
1.37905356E+01
 20
1.50039494E+02
  0
VERTEX
  8
0
 62
4
 10
1.36249886E+01
 20
1.50137280E+02
  0
VERTEX
  8
0
 62
4
 10
1.34508797E+01
 20
1.50221315E+02
  0
VERTEX
  8
0
 62
4
 10
1.32695339E+01
 20
1.50290962E+02
  0
VERTEX
  8
0
 62
4
 10
1.30823315E+01
 20
1.50345688E+02
  0
VERTEX
  8
0
 62
4
 10
1.28906970E+01
 20
1.50385079E+02
  0
VERTEX
  8
0
 62
4
 10
1.26960890E+01
 20
1.50408834E+02
  0
VERTEX
  8
0
 62
4
 10
1.24999886E+01
 20
1.50416773E+02
  0
VERTEX
  8
0
 62
4
 10
1.23038882E+01
 20
1.50408834E+02
  0
VERTEX
  8
0
 62
4
 10
1.21092802E+01
 20
1.50385079E+02
  0
VERTEX
  8
0
 62
4
 10
1.19176458E+01
 20
1.50345688E+02
  0
VERTEX
  8
0
 62
4
 10
1.17304433E+01
 20
1.50290962E+02
  0
VERTEX
  8
0
 62
4
 10
1.15490975E+01
 20
1.50221315E+02
  0
VERTEX
  8
0
 62
4
 10
1.13749886E+01
 20
1.50137280E+02
  0
VERTEX
  8
0
 62
4
 10
1.12094416E+01
 20
1.50039494E+02
  0
VERTEX
  8
0
 62
4
 10
1.10537165E+01
 20
1.49928703E+02
  0
VERTEX
  8
0
 62
4
 10
1.09089983E+01
 20
1.49805749E+02
  0
VERTEX
  8
0
 62
4
 10
1.07763886E+01
 20
1.49671569E+02
  0
VERTEX
  8
0
 62
4
 10
1.06568965E+01
 20
1.49527183E+02
  0
VERTEX
  8
0
 62
4
 10
1.05514314E+01
 20
1.49373691E+02
  0
VERTEX
  8
0
 62
4
 10
1.04607961E+01
 20
1.49212260E+02
  0
VERTEX
  8
0
 62
4
 10
1.03856802E+01
 20
1.49044119E+02
  0
VERTEX
  8
0
 62
4
 10
1.03266555E+01
 20
1.48870548E+02
  0
VERTEX
  8
0
 62
4
 10
1.02841712E+01
 20
1.48692868E+02
  0
VERTEX
  8
0
 62
4
 10
1.02585505E+01
 20
1.48512430E+02
  0
VERTEX
  8
0
 62
4
 10
1.02499886E+01
 20
1.48330609E+02
  0
SEQEND
  8
0
  0
POLYLINE
  8
0
 62
4
 66
1
  0
VERTEX
  8
0
 62
4
 10
3.49998856E+00
 20
1.29159693E+02
  0
VERTEX
  8
0
 62
4
 10
3.49193715E+00
 20
1.29325917E+02
  0
VERTEX
  8
0
 62
4
 10
3.46784774E+00
 20
1.29490803E+02
  0
VERTEX
  8
0
 62
4
 10
3.42791429E+00
 20
1.29653023E+02
  0
VERTEX
  8
0
 62
4
 10
3.37245831E+00
 20
1.29811271E+02
  0
VERTEX
  8
0
 62
4
 10
3.30192630E+00
 20
1.29964273E+02
  0
VERTEX
  8
0
 62
4
 10
3.21688615E+00
 20
1.30110797E+02
  0
VERTEX
  8
0
 62
4
 10
3.11802256E+00
 20
1.30249663E+02
  0
VERTEX
  8
0
 62
4
 10
3.00613150E+00
 20
1.30379753E+02
  0
VERTEX
  8
0
 62
4
 10
2.88211387E+00
 20
1.30500020E+02
  0
VERTEX
  8
0
 62
4
 10
2.74696818E+00
 20
1.30609496E+02
  0
VERTEX
  8
0
 62
4
 10
2.60178254E+00
 20
1.30707299E+02
  0
VERTEX
  8
0
 62
4
 10
2.44772590E+00
 20
1.30792641E+02
  0
VERTEX
  8
0
 62
4
 10
2.28603864E+00
 20
1.30864836E+02
  0
VERTEX
  8
0
 62
4
 10
2.11802256E+00
 20
1.30923301E+02
  0
VERTEX
  8
0
 62
4
 10
1.94503044E+00
 20
1.30967568E+02
  0
VERTEX
  8
0
 62
4
 10
1.76845511E+00
 20
1.30997278E+02
  0
VERTEX
  8
0
 62
4
 10
1.58971824E+00
 20
1.31012193E+02
  0
VERTEX
  8
0
 62
4
 10
1.41025892E+00
 20
1.31012193E+02
  0
VERTEX
  8
0
 62
4
 10
1.23152205E+00
 20
1.30997278E+02
  0
VERTEX
  8
0
 62
4
 10
1.05494671E+00
 20
1.30967568E+02
  0
VERTEX
  8
0
 62
4
 10
8.81954589E-01
 20
1.30923301E+02
  0
VERTEX
  8
0
 62
4
 10
7.13938514E-01
 20
1.30864836E+02
  0
VERTEX
  8
0
 62
4
 10
5.52251251E-01
 20
1.30792641E+02
  0
VERTEX
  8
0
 62
4
 10
3.98194613E-01
 20
1.30707299E+02
  0
VERTEX
  8
0
 62
4
 10
2.53008971E-01
 20
1.30609496E+02
  0
VERTEX
  8
0
 62
4
 10
1.17863276E-01
 20
1.30500020E+02
  0
VERTEX
  8
0
 62
4
 10
-6.15435926E-03
 20
1.30379753E+02
  0
VERTEX
  8
0
 62
4
 10
-1.18045417E-01
 20
1.30249663E+02
  0
VERTEX
  8
0
 62
4
 10
-2.16909017E-01
 20
1.30110797E+02
  0
VERTEX
  8
0
 62
4
 10
-3.01949167E-01
 20
1.29964273E+02
  0
VERTEX
  8
0
 62
4
 10
-3.72481174E-01
 20
1.29811271E+02
  0
VERTEX
  8
0
 62
4
 10
-4.27937156E-01
 20
1.29653023E+02
  0
VERTEX
  8
0
 62
4
 10
-4.67870614E-01
 20
1.29490803E+02
  0
VERTEX
  8
0
 62
4
 10
-4.91960026E-01
 20
1.29325917E+02
  0
VERTEX
  8
0
 62
4
 10
-5.00011440E-01
 20
1.29159693E+02
  0
SEQEND
  8
0
  0
LINE
  8
0
 62
4
 10
-5.00011444E-01
 20
1.27682817E+02
 11
-5.00011444E-01
 21
1.29159693E+02
  0
LINE
  8
0
 62
4
 10
3.49998856E+00
 20
1.27682817E+02
 11
3.49998856E+00
 21
1.29159693E+02
  0
POLYLINE
  8
0
 62
4
 66
1
  0
VERTEX
  8
0
 62
4
 10
-5.00011440E-01
 20
1.27682817E+02
  0
VERTEX
  8
0
 62
4
 10
-4.92400837E-01
 20
1.27521198E+02
  0
VERTEX
  8
0
 62
4
 10
-4.69626947E-01
 20
1.27360809E+02
  0
VERTEX
  8
0
 62
4
 10
-4.31863094E-01
 20
1.27202871E+02
  0
VERTEX
  8
0
 62
4
 10
-3.79396684E-01
 20
1.27048586E+02
  0
VERTEX
  8
0
 62
4
 10
-3.12627017E-01
 20
1.26899127E+02
  0
VERTEX
  8
0
 62
4
 10
-2.32062251E-01
 20
1.26755633E+02
  0
VERTEX
  8
0
 62
4
 10
-1.38315532E-01
 20
1.26619195E+02
  0
VERTEX
  8
0
 62
4
 10
-3.21003301E-02
 20
1.26490852E+02
  0
VERTEX
  8
0
 62
4
 10
8.57749934E-02
 20
1.26371581E+02
  0
VERTEX
  8
0
 62
4
 10
2.14413336E-01
 20
1.26262289E+02
  0
VERTEX
  8
0
 62
4
 10
3.52835683E-01
 20
1.26163808E+02
  0
VERTEX
  8
0
 62
4
 10
4.99988555E-01
 20
1.26076887E+02
  0
VERTEX
  8
0
 62
4
 10
6.54752031E-01
 20
1.26002189E+02
  0
VERTEX
  8
0
 62
4
 10
8.15948268E-01
 20
1.25940281E+02
  0
VERTEX
  8
0
 62
4
 10
9.82350465E-01
 20
1.25891635E+02
  0
VERTEX
  8
0
 62
4
 10
1.15269220E+00
 20
1.25856621E+02
  0
VERTEX
  8
0
 62
4
 10
1.32567707E+00
 20
1.25835506E+02
  0
VERTEX
  8
0
 62
4
 10
1.49998855E+00
 20
1.25828449E+02
  0
VERTEX
  8
0
 62
4
 10
1.67430004E+00
 20
1.25835506E+02
  0
VERTEX
  8
0
 62
4
 10
1.84728491E+00
 20
1.25856621E+02
  0
VERTEX
  8
0
 62
4
 10
2.01762665E+00
 20
1.25891635E+02
  0
VERTEX
  8
0
 62
4
 10
2.18402884E+00
 20
1.25940281E+02
  0
VERTEX
  8
0
 62
4
 10
2.34522508E+00
 20
1.26002189E+02
  0
VERTEX
  8
0
 62
4
 10
2.49998856E+00
 20
1.26076887E+02
  0
VERTEX
  8
0
 62
4
 10
2.64714143E+00
 20
1.26163808E+02
  0
VERTEX
  8
0
 62
4
 10
2.78556378E+00
 20
1.26262289E+02
  0
VERTEX
  8
0
 62
4
 10
2.91420212E+00
 20
1.26371581E+02
  0
VERTEX
  8
0
 62
4
 10
3.03207744E+00
 20
1.26490852E+02
  0
VERTEX
  8
0
 62
4
 10
3.13829265E+00
 20
1.26619195E+02
  0
VERTEX
  8
0
 62
4
 10
3.23203937E+00
 20
1.26755633E+02
  0
VERTEX
  8
0
 62
4
 10
3.31260413E+00
 20
1.26899127E+02
  0
VERTEX
  8
0
 62
4
 10
3.37937380E+00
 20
1.27048586E+02
  0
VERTEX
  8
0
 62
4
 10
3.43184021E+00
 20
1.27202871E+02
  0
VERTEX
  8
0
 62
4
 10
3.46960407E+00
 20
1.27360809E+02
  0
VERTEX
  8
0
 62
4
 10
3.49237796E+00
 20
1.27521198E+02
  0
VERTEX
  8
0
 62
4
 10
3.49998856E+00
 20
1.27682817E+02
  0
VERTEX
  8
0
 62
4
 10
3.49237796E+00
 20
1.27844436E+02
  0
VERTEX
  8
0
 62
4
 10
3.46960407E+00
 20
1.28004825E+02
  0
VERTEX
  8
0
 62
4
 10
3.43184021E+00
 20
1.28162763E+02
  0
VERTEX
  8
0
 62
4
 10
3.37937380E+00
 20
1.28317048E+02
  0
VERTEX
  8
0
 62
4
 10
3.31260414E+00
 20
1.28466507E+02
  0
VERTEX
  8
0
 62
4
 10
3.23203937E+00
 20
1.28610001E+02
  0
VERTEX
  8
0
 62
4
 10
3.13829265E+00
 20
1.28746439E+02
  0
VERTEX
  8
0
 62
4
 10
3.03207745E+00
 20
1.28874782E+02
  0
VERTEX
  8
0
 62
4
 10
2.91420212E+00
 20
1.28994053E+02
  0
VERTEX
  8
0
 62
4
 10
2.78556378E+00
 20
1.29103345E+02
  0
VERTEX
  8
0
 62
4
 10
2.64714144E+00
 20
1.29201826E+02
  0
VERTEX
  8
0
 62
4
 10
2.49998856E+00
 20
1.29288747E+02
  0
VERTEX
  8
0
 62
4
 10
2.34522509E+00
 20
1.29363445E+02
  0
VERTEX
  8
0
 62
4
 10
2.18402885E+00
 20
1.29425353E+02
  0
VERTEX
  8
0
 62
4
 10
2.01762665E+00
 20
1.29473999E+02
  0
VERTEX
  8
0
 62
4
 10
1.84728492E+00
 20
1.29509013E+02
  0
VERTEX
  8
0
 62
4
 10
1.67430005E+00
 20
1.29530128E+02
  0
VERTEX
  8
0
 62
4
 10
1.49998856E+00
 20
1.29537185E+02
  0
VERTEX
  8
0
 62
4
 10
1.32567708E+00
 20
1.29530128E+02
  0
VERTEX
  8
0
 62
4
 10
1.15269221E+00
 20
1.29509013E+02
  0
VERTEX
  8
0
 62
4
 10
9.82350472E-01
 20
1.29473999E+02
  0
VERTEX
  8
0
 62
4
 10
8.15948275E-01
 20
1.29425353E+02
  0
VERTEX
  8
0
 62
4
 10
6.54752038E-01
 20
1.29363445E+02
  0
VERTEX
  8
0
 62
4
 10
4.99988562E-01
 20
1.29288747E+02
  0
VERTEX
  8
0
 62
4
 10
3.52835689E-01
 20
1.29201826E+02
  0
VERTEX
  8
0
 62
4
 10
2.14413342E-01
 20
1.29103345E+02
  0
VERTEX
  8
0
 62
4
 10
8.57749988E-02
 20
1.28994053E+02
  0
VERTEX
  8
0
 62
4
 10
-3.21003252E-02
 20
1.28874782E+02
  0
VERTEX
  8
0
 62
4
 10
-1.38315528E-01
 20
1.28746439E+02
  0
VERTEX
  8
0
 62
4
 10
-2.32062247E-01
 20
1.28610001E+02
  0
VERTEX
  8
0
 62
4
 10
-3.12627013E-01
 20
1.28466507E+02
  0
VERTEX
  8
0
 62
4
 10
-3.79396681E-01
 20
1.28317048E+02
  0
VERTEX
  8
0
 62
4
 10
-4.31863092E-01
 20
1.28162763E+02
  0
VERTEX
  8
0
 62
4
 10
-4.69626946E-01
 20
1.28004825E+02
  0
VERTEX
  8
0
 62
4
 10
-4.92400836E-01
 20
1.27844436E+02
  0
VERTEX
  8
0
 62
4
 10
-5.00011440E-01
 20
1.27682817E+02
  0
SEQEND
  8
0
  0
POLYLINE
  8
0
 62
6
 66
1
  0
VERTEX
  8
0
 62
6
 10
-1.14400000E-05
 20
1.27682817E+02
  0
VERTEX
  8
0
 62
6
 10
5.69651243E-03
 20
1.27561603E+02
  0
VERTEX
  8
0
 62
6
 10
2.27769296E-02
 20
1.27441311E+02
  0
VERTEX
  8
0
 62
6
 10
5.10998193E-02
 20
1.27322858E+02
  0
VERTEX
  8
0
 62
6
 10
9.04496272E-02
 20
1.27207144E+02
  0
VERTEX
  8
0
 62
6
 10
1.40526877E-01
 20
1.27095050E+02
  0
VERTEX
  8
0
 62
6
 10
2.00950452E-01
 20
1.26987429E+02
  0
VERTEX
  8
0
 62
6
 10
2.71260491E-01
 20
1.26885101E+02
  0
VERTEX
  8
0
 62
6
 10
3.50921892E-01
 20
1.26788844E+02
  0
VERTEX
  8
0
 62
6
 10
4.39328385E-01
 20
1.26699390E+02
  0
VERTEX
  8
0
 62
6
 10
5.35807142E-01
 20
1.26617421E+02
  0
VERTEX
  8
0
 62
6
 10
6.39623902E-01
 20
1.26543560E+02
  0
VERTEX
  8
0
 62
6
 10
7.49988556E-01
 20
1.26478370E+02
  0
VERTEX
  8
0
 62
6
 10
8.66061164E-01
 20
1.26422346E+02
  0
VERTEX
  8
0
 62
6
 10
9.86958341E-01
 20
1.26375915E+02
  0
VERTEX
  8
0
 62
6
 10
1.11175999E+00
 20
1.26339431E+02
  0
VERTEX
  8
0
 62
6
 10
1.23951629E+00
 20
1.26313170E+02
  0
VERTEX
  8
0
 62
6
 10
1.36925494E+00
 20
1.26297334E+02
  0
VERTEX
  8
0
 62
6
 10
1.49998856E+00
 20
1.26292041E+02
  0
VERTEX
  8
0
 62
6
 10
1.63072217E+00
 20
1.26297334E+02
  0
VERTEX
  8
0
 62
6
 10
1.76046082E+00
 20
1.26313170E+02
  0
VERTEX
  8
0
 62
6
 10
1.88821712E+00
 20
1.26339431E+02
  0
VERTEX
  8
0
 62
6
 10
2.01301877E+00
 20
1.26375915E+02
  0
VERTEX
  8
0
 62
6
 10
2.13391595E+00
 20
1.26422346E+02
  0
VERTEX
  8
0
 62
6
 10
2.24998856E+00
 20
1.26478370E+02
  0
VERTEX
  8
0
 62
6
 10
2.36035321E+00
 20
1.26543560E+02
  0
VERTEX
  8
0
 62
6
 10
2.46416997E+00
 20
1.26617421E+02
  0
VERTEX
  8
0
 62
6
 10
2.56064873E+00
 20
1.26699390E+02
  0
VERTEX
  8
0
 62
6
 10
2.64905522E+00
 20
1.26788844E+02
  0
VERTEX
  8
0
 62
6
 10
2.72871662E+00
 20
1.26885101E+02
  0
VERTEX
  8
0
 62
6
 10
2.79902666E+00
 20
1.26987429E+02
  0
VERTEX
  8
0
 62
6
 10
2.85945024E+00
 20
1.27095050E+02
  0
VERTEX
  8
0
 62
6
 10
2.90952749E+00
 20
1.27207144E+02
  0
VERTEX
  8
0
 62
6
 10
2.94887730E+00
 20
1.27322858E+02
  0
VERTEX
  8
0
 62
6
 10
2.97720019E+00
 20
1.27441311E+02
  0
VERTEX
  8
0
 62
6
 10
2.99428061E+00
 20
1.27561603E+02
  0
VERTEX
  8
0
 62
6
 10
2.99998856E+00
 20
1.27682817E+02
  0
VERTEX
  8
0
 62
6
 10
2.99428061E+00
 20
1.27804031E+02
  0
VERTEX
  8
0
 62
6
 10
2.97720019E+00
 20
1.27924323E+02
  0
VERTEX
  8
0
 62
6
 10
2.94887730E+00
 20
1.28042776E+02
  0
VERTEX
  8
0
 62
6
 10
2.90952749E+00
 20
1.28158490E+02
  0
VERTEX
  8
0
 62
6
 10
2.85945024E+00
 20
1.28270584E+02
  0
VERTEX
  8
0
 62
6
 10
2.79902667E+00
 20
1.28378205E+02
  0
VERTEX
  8
0
 62
6
 10
2.72871663E+00
 20
1.28480533E+02
  0
VERTEX
  8
0
 62
6
 10
2.64905523E+00
 20
1.28576790E+02
  0
VERTEX
  8
0
 62
6
 10
2.56064873E+00
 20
1.28666244E+02
  0
VERTEX
  8
0
 62
6
 10
2.46416998E+00
 20
1.28748213E+02
  0
VERTEX
  8
0
 62
6
 10
2.36035322E+00
 20
1.28822074E+02
  0
VERTEX
  8
0
 62
6
 10
2.24998856E+00
 20
1.28887264E+02
  0
VERTEX
  8
0
 62
6
 10
2.13391595E+00
 20
1.28943288E+02
  0
VERTEX
  8
0
 62
6
 10
2.01301878E+00
 20
1.28989719E+02
  0
VERTEX
  8
0
 62
6
 10
1.88821713E+00
 20
1.29026203E+02
  0
VERTEX
  8
0
 62
6
 10
1.76046083E+00
 20
1.29052464E+02
  0
VERTEX
  8
0
 62
6
 10
1.63072218E+00
 20
1.29068300E+02
  0
VERTEX
  8
0
 62
6
 10
1.49998856E+00
 20
1.29073593E+02
  0
VERTEX
  8
0
 62
6
 10
1.36925495E+00
 20
1.29068300E+02
  0
VERTEX
  8
0
 62
6
 10
1.23951630E+00
 20
1.29052464E+02
  0
VERTEX
  8
0
 62
6
 10
1.11175999E+00
 20
1.29026203E+02
  0
VERTEX
  8
0
 62
6
 10
9.86958347E-01
 20
1.28989719E+02
  0
VERTEX
  8
0
 62
6
 10
8.66061169E-01
 20
1.28943288E+02
  0
VERTEX
  8
0
 62
6
 10
7.49988561E-01
 20
1.28887264E+02
  0
VERTEX
  8
0
 62
6
 10
6.39623907E-01
 20
1.28822074E+02
  0
VERTEX
  8
0
 62
6
 10
5.35807147E-01
 20
1.28748213E+02
  0
VERTEX
  8
0
 62
6
 10
4.39328389E-01
 20
1.28666244E+02
  0
VERTEX
  8
0
 62
6
 10
3.50921896E-01
 20
1.28576790E+02
  0
VERTEX
  8
0
 62
6
 10
2.71260494E-01
 20
1.28480533E+02
  0
VERTEX
  8
0
 62
6
 10
2.00950455E-01
 20
1.28378205E+02
  0
VERTEX
  8
0
 62
6
 10
1.40526880E-01
 20
1.28270584E+02
  0
VERTEX
  8
0
 62
6
 10
9.04496292E-02
 20
1.28158490E+02
  0
VERTEX
  8
0
 62
6
 10
5.10998208E-02
 20
1.28042776E+02
  0
VERTEX
  8
0
 62
6
 10
2.27769306E-02
 20
1.27924323E+02
  0
VERTEX
  8
0
 62
6
 10
5.69651293E-03
 20
1.27804031E+02
  0
VERTEX
  8
0
 62
6
 10
-1.14400000E-05
 20
1.27682817E+02
  0
SEQEND
  8
0
  0
LINE
  8
0
 62
4
 10
1.49998856E+00
 20
1.28749078E+02
 11
4.99988556E-01
 21
1.28220583E+02
  0
LINE
  8
0
 62
4
 10
4.99988556E-01
 20
1.28220583E+02
 11
4.99988556E-01
 21
1.27145050E+02
  0
LINE
  8
0
 62
4
 10
4.99988556E-01
 20
1.27145050E+02
 11
1.49998856E+00
 21
1.26607283E+02
  0
LINE
  8
0
 62
4
 10
1.49998856E+00
 20
1.26607283E+02
 11
2.49998856E+00
 21
1.27145050E+02
  0
LINE
  8
0
 62
4
 10
2.49998856E+00
 20
1.27145050E+02
 11
2.49998856E+00
 21
1.28220583E+02
  0
LINE
  8
0
 62
4
 10
2.49998856E+00
 20
1.28220583E+02
 11
1.49998856E+00
 21
1.28749078E+02
  0
LINE
  8
0
 62
4
 10
-5.50001144E+00
 20
1.28220583E+02
 11
-6.50001144E+00
 21
1.28749078E+02
  0
LINE
  8
0
 62
4
 10
-5.50001144E+00
 20
1.27145050E+02
 11
-5.50001144E+00
 21
1.28220583E+02
  0
LINE
  8
0
 62
4
 10
-6.50001144E+00
 20
1.26607283E+02
 11
-5.50001144E+00
 21
1.27145050E+02
  0
LINE
  8
0
 62
4
 10
-7.50001144E+00
 20
1.27145050E+02
 11
-6.50001144E+00
 21
1.26607283E+02
  0
LINE
  8
0
 62
4
 10
-7.50001144E+00
 20
1.28220583E+02
 11
-7.50001144E+00
 21
1.27145050E+02
  0
LINE
  8
0
 62
4
 10
-6.50001144E+00
 20
1.28749078E+02
 11
-7.50001144E+00
 21
1.28220583E+02
  0
POLYLINE
  8
0
 62
6
 66
1
  0
VERTEX
  8
0
 62
6
 10
-8.00001144E+00
 20
1.27682817E+02
  0
VERTEX
  8
0
 62
6
 10
-7.99430349E+00
 20
1.27561603E+02
  0
VERTEX
  8
0
 62
6
 10
-7.97722307E+00
 20
1.27441311E+02
  0
VERTEX
  8
0
 62
6
 10
-7.94890018E+00
 20
1.27322858E+02
  0
VERTEX
  8
0
 62
6
 10
-7.90955037E+00
 20
1.27207144E+02
  0
VERTEX
  8
0
 62
6
 10
-7.85947312E+00
 20
1.27095050E+02
  0
VERTEX
  8
0
 62
6
 10
-7.79904955E+00
 20
1.26987429E+02
  0
VERTEX
  8
0
 62
6
 10
-7.72873951E+00
 20
1.26885101E+02
  0
VERTEX
  8
0
 62
6
 10
-7.64907811E+00
 20
1.26788844E+02
  0
VERTEX
  8
0
 62
6
 10
-7.56067161E+00
 20
1.26699390E+02
  0
VERTEX
  8
0
 62
6
 10
-7.46419286E+00
 20
1.26617421E+02
  0
VERTEX
  8
0
 62
6
 10
-7.36037610E+00
 20
1.26543560E+02
  0
VERTEX
  8
0
 62
6
 10
-7.25001144E+00
 20
1.26478370E+02
  0
VERTEX
  8
0
 62
6
 10
-7.13393884E+00
 20
1.26422346E+02
  0
VERTEX
  8
0
 62
6
 10
-7.01304166E+00
 20
1.26375915E+02
  0
VERTEX
  8
0
 62
6
 10
-6.88824001E+00
 20
1.26339431E+02
  0
VERTEX
  8
0
 62
6
 10
-6.76048371E+00
 20
1.26313170E+02
  0
VERTEX
  8
0
 62
6
 10
-6.63074506E+00
 20
1.26297334E+02
  0
VERTEX
  8
0
 62
6
 10
-6.50001144E+00
 20
1.26292041E+02
  0
VERTEX
  8
0
 62
6
 10
-6.36927783E+00
 20
1.26297334E+02
  0
VERTEX
  8
0
 62
6
 10
-6.23953918E+00
 20
1.26313170E+02
  0
VERTEX
  8
0
 62
6
 10
-6.11178288E+00
 20
1.26339431E+02
  0
VERTEX
  8
0
 62
6
 10
-5.98698123E+00
 20
1.26375915E+02
  0
VERTEX
  8
0
 62
6
 10
-5.86608405E+00
 20
1.26422346E+02
  0
VERTEX
  8
0
 62
6
 10
-5.75001144E+00
 20
1.26478370E+02
  0
VERTEX
  8
0
 62
6
 10
-5.63964679E+00
 20
1.26543560E+02
  0
VERTEX
  8
0
 62
6
 10
-5.53583003E+00
 20
1.26617421E+02
  0
VERTEX
  8
0
 62
6
 10
-5.43935127E+00
 20
1.26699390E+02
  0
VERTEX
  8
0
 62
6
 10
-5.35094478E+00
 20
1.26788844E+02
  0
VERTEX
  8
0
 62
6
 10
-5.27128338E+00
 20
1.26885101E+02
  0
VERTEX
  8
0
 62
6
 10
-5.20097334E+00
 20
1.26987429E+02
  0
VERTEX
  8
0
 62
6
 10
-5.14054976E+00
 20
1.27095050E+02
  0
VERTEX
  8
0
 62
6
 10
-5.09047251E+00
 20
1.27207144E+02
  0
VERTEX
  8
0
 62
6
 10
-5.05112270E+00
 20
1.27322858E+02
  0
VERTEX
  8
0
 62
6
 10
-5.02279981E+00
 20
1.27441311E+02
  0
VERTEX
  8
0
 62
6
 10
-5.00571939E+00
 20
1.27561603E+02
  0
VERTEX
  8
0
 62
6
 10
-5.00001144E+00
 20
1.27682817E+02
  0
VERTEX
  8
0
 62
6
 10
-5.00571939E+00
 20
1.27804031E+02
  0
VERTEX
  8
0
 62
6
 10
-5.02279981E+00
 20
1.27924323E+02
  0
VERTEX
  8
0
 62
6
 10
-5.05112270E+00
 20
1.28042776E+02
  0
VERTEX
  8
0
 62
6
 10
-5.09047251E+00
 20
1.28158490E+02
  0
VERTEX
  8
0
 62
6
 10
-5.14054976E+00
 20
1.28270584E+02
  0
VERTEX
  8
0
 62
6
 10
-5.20097333E+00
 20
1.28378205E+02
  0
VERTEX
  8
0
 62
6
 10
-5.27128337E+00
 20
1.28480533E+02
  0
VERTEX
  8
0
 62
6
 10
-5.35094477E+00
 20
1.28576790E+02
  0
VERTEX
  8
0
 62
6
 10
-5.43935127E+00
 20
1.28666244E+02
  0
VERTEX
  8
0
 62
6
 10
-5.53583002E+00
 20
1.28748213E+02
  0
VERTEX
  8
0
 62
6
 10
-5.63964678E+00
 20
1.28822074E+02
  0
VERTEX
  8
0
 62
6
 10
-5.75001144E+00
 20
1.28887264E+02
  0
VERTEX
  8
0
 62
6
 10
-5.86608405E+00
 20
1.28943288E+02
  0
VERTEX
  8
0
 62
6
 10
-5.98698122E+00
 20
1.28989719E+02
  0
VERTEX
  8
0
 62
6
 10
-6.11178287E+00
 20
1.29026203E+02
  0
VERTEX
  8
0
 62
6
 10
-6.23953917E+00
 20
1.29052464E+02
  0
VERTEX
  8
0
 62
6
 10
-6.36927782E+00
 20
1.29068300E+02
  0
VERTEX
  8
0
 62
6
 10
-6.50001144E+00
 20
1.29073593E+02
  0
VERTEX
  8
0
 62
6
 10
-6.63074505E+00
 20
1.29068300E+02
  0
VERTEX
  8
0
 62
6
 10
-6.76048370E+00
 20
1.29052464E+02
  0
VERTEX
  8
0
 62
6
 10
-6.88824001E+00
 20
1.29026203E+02
  0
VERTEX
  8
0
 62
6
 10
-7.01304165E+00
 20
1.28989719E+02
  0
VERTEX
  8
0
 62
6
 10
-7.13393883E+00
 20
1.28943288E+02
  0
VERTEX
  8
0
 62
6
 10
-7.25001144E+00
 20
1.28887264E+02
  0
VERTEX
  8
0
 62
6
 10
-7.36037609E+00
 20
1.28822074E+02
  0
VERTEX
  8
0
 62
6
 10
-7.46419285E+00
 20
1.28748213E+02
  0
VERTEX
  8
0
 62
6
 10
-7.56067161E+00
 20
1.28666244E+02
  0
VERTEX
  8
0
 62
6
 10
-7.64907810E+00
 20
1.28576790E+02
  0
VERTEX
  8
0
 62
6
 10
-7.72873951E+00
 20
1.28480533E+02
  0
VERTEX
  8
0
 62
6
 10
-7.79904955E+00
 20
1.28378205E+02
  0
VERTEX
  8
0
 62
6
 10
-7.85947312E+00
 20
1.28270584E+02
  0
VERTEX
  8
0
 62
6
 10
-7.90955037E+00
 20
1.28158490E+02
  0
VERTEX
  8
0
 62
6
 10
-7.94890018E+00
 20
1.28042776E+02
  0
VERTEX
  8
0
 62
6
 10
-7.97722307E+00
 20
1.27924323E+02
  0
VERTEX
  8
0
 62
6
 10
-7.99430349E+00
 20
1.27804031E+02
  0
VERTEX
  8
0
 62
6
 10
-8.00001144E+00
 20
1.27682817E+02
  0
SEQEND
  8
0
  0
POLYLINE
  8
0
 62
4
 66
1
  0
VERTEX
  8
0
 62
4
 10
-8.50001144E+00
 20
1.27682817E+02
  0
VERTEX
  8
0
 62
4
 10
-8.49240084E+00
 20
1.27521198E+02
  0
VERTEX
  8
0
 62
4
 10
-8.46962695E+00
 20
1.27360809E+02
  0
VERTEX
  8
0
 62
4
 10
-8.43186309E+00
 20
1.27202871E+02
  0
VERTEX
  8
0
 62
4
 10
-8.37939668E+00
 20
1.27048586E+02
  0
VERTEX
  8
0
 62
4
 10
-8.31262702E+00
 20
1.26899127E+02
  0
VERTEX
  8
0
 62
4
 10
-8.23206225E+00
 20
1.26755633E+02
  0
VERTEX
  8
0
 62
4
 10
-8.13831553E+00
 20
1.26619195E+02
  0
VERTEX
  8
0
 62
4
 10
-8.03210033E+00
 20
1.26490852E+02
  0
VERTEX
  8
0
 62
4
 10
-7.91422501E+00
 20
1.26371581E+02
  0
VERTEX
  8
0
 62
4
 10
-7.78558666E+00
 20
1.26262289E+02
  0
VERTEX
  8
0
 62
4
 10
-7.64716432E+00
 20
1.26163808E+02
  0
VERTEX
  8
0
 62
4
 10
-7.50001144E+00
 20
1.26076887E+02
  0
VERTEX
  8
0
 62
4
 10
-7.34524797E+00
 20
1.26002189E+02
  0
VERTEX
  8
0
 62
4
 10
-7.18405173E+00
 20
1.25940281E+02
  0
VERTEX
  8
0
 62
4
 10
-7.01764954E+00
 20
1.25891635E+02
  0
VERTEX
  8
0
 62
4
 10
-6.84730780E+00
 20
1.25856621E+02
  0
VERTEX
  8
0
 62
4
 10
-6.67432293E+00
 20
1.25835506E+02
  0
VERTEX
  8
0
 62
4
 10
-6.50001145E+00
 20
1.25828449E+02
  0
VERTEX
  8
0
 62
4
 10
-6.32569996E+00
 20
1.25835506E+02
  0
VERTEX
  8
0
 62
4
 10
-6.15271509E+00
 20
1.25856621E+02
  0
VERTEX
  8
0
 62
4
 10
-5.98237335E+00
 20
1.25891635E+02
  0
VERTEX
  8
0
 62
4
 10
-5.81597116E+00
 20
1.25940281E+02
  0
VERTEX
  8
0
 62
4
 10
-5.65477492E+00
 20
1.26002189E+02
  0
VERTEX
  8
0
 62
4
 10
-5.50001144E+00
 20
1.26076887E+02
  0
VERTEX
  8
0
 62
4
 10
-5.35285857E+00
 20
1.26163808E+02
  0
VERTEX
  8
0
 62
4
 10
-5.21443622E+00
 20
1.26262289E+02
  0
VERTEX
  8
0
 62
4
 10
-5.08579788E+00
 20
1.26371581E+02
  0
VERTEX
  8
0
 62
4
 10
-4.96792256E+00
 20
1.26490852E+02
  0
VERTEX
  8
0
 62
4
 10
-4.86170735E+00
 20
1.26619195E+02
  0
VERTEX
  8
0
 62
4
 10
-4.76796063E+00
 20
1.26755633E+02
  0
VERTEX
  8
0
 62
4
 10
-4.68739587E+00
 20
1.26899127E+02
  0
VERTEX
  8
0
 62
4
 10
-4.62062620E+00
 20
1.27048586E+02
  0
VERTEX
  8
0
 62
4
 10
-4.56815979E+00
 20
1.27202871E+02
  0
VERTEX
  8
0
 62
4
 10
-4.53039593E+00
 20
1.27360809E+02
  0
VERTEX
  8
0
 62
4
 10
-4.50762204E+00
 20
1.27521198E+02
  0
VERTEX
  8
0
 62
4
 10
-4.50001144E+00
 20
1.27682817E+02
  0
VERTEX
  8
0
 62
4
 10
-4.50762204E+00
 20
1.27844436E+02
  0
VERTEX
  8
0
 62
4
 10
-4.53039593E+00
 20
1.28004825E+02
  0
VERTEX
  8
0
 62
4
 10
-4.56815979E+00
 20
1.28162763E+02
  0
VERTEX
  8
0
 62
4
 10
-4.62062620E+00
 20
1.28317048E+02
  0
VERTEX
  8
0
 62
4
 10
-4.68739586E+00
 20
1.28466507E+02
  0
VERTEX
  8
0
 62
4
 10
-4.76796063E+00
 20
1.28610001E+02
  0
VERTEX
  8
0
 62
4
 10
-4.86170735E+00
 20
1.28746439E+02
  0
VERTEX
  8
0
 62
4
 10
-4.96792255E+00
 20
1.28874782E+02
  0
VERTEX
  8
0
 62
4
 10
-5.08579788E+00
 20
1.28994053E+02
  0
VERTEX
  8
0
 62
4
 10
-5.21443622E+00
 20
1.29103345E+02
  0
VERTEX
  8
0
 62
4
 10
-5.35285856E+00
 20
1.29201826E+02
  0
VERTEX
  8
0
 62
4
 10
-5.50001144E+00
 20
1.29288747E+02
  0
VERTEX
  8
0
 62
4
 10
-5.65477491E+00
 20
1.29363445E+02
  0
VERTEX
  8
0
 62
4
 10
-5.81597115E+00
 20
1.29425353E+02
  0
VERTEX
  8
0
 62
4
 10
-5.98237335E+00
 20
1.29473999E+02
  0
VERTEX
  8
0
 62
4
 10
-6.15271508E+00
 20
1.29509013E+02
  0
VERTEX
  8
0
 62
4
 10
-6.32569995E+00
 20
1.29530128E+02
  0
VERTEX
  8
0
 62
4
 10
-6.50001144E+00
 20
1.29537185E+02
  0
VERTEX
  8
0
 62
4
 10
-6.67432292E+00
 20
1.29530128E+02
  0
VERTEX
  8
0
 62
4
 10
-6.84730779E+00
 20
1.29509013E+02
  0
VERTEX
  8
0
 62
4
 10
-7.01764953E+00
 20
1.29473999E+02
  0
VERTEX
  8
0
 62
4
 10
-7.18405172E+00
 20
1.29425353E+02
  0
VERTEX
  8
0
 62
4
 10
-7.34524796E+00
 20
1.29363445E+02
  0
VERTEX
  8
0
 62
4
 10
-7.50001144E+00
 20
1.29288747E+02
  0
VERTEX
  8
0
 62
4
 10
-7.64716431E+00
 20
1.29201826E+02
  0
VERTEX
  8
0
 62
4
 10
-7.78558666E+00
 20
1.29103345E+02
  0
VERTEX
  8
0
 62
4
 10
-7.91422500E+00
 20
1.28994053E+02
  0
VERTEX
  8
0
 62
4
 10
-8.03210033E+00
 20
1.28874782E+02
  0
VERTEX
  8
0
 62
4
 10
-8.13831553E+00
 20
1.28746439E+02
  0
VERTEX
  8
0
 62
4
 10
-8.23206225E+00
 20
1.28610001E+02
  0
VERTEX
  8
0
 62
4
 10
-8.31262701E+00
 20
1.28466507E+02
  0
VERTEX
  8
0
 62
4
 10
-8.37939668E+00
 20
1.28317048E+02
  0
VERTEX
  8
0
 62
4
 10
-8.43186309E+00
 20
1.28162763E+02
  0
VERTEX
  8
0
 62
4
 10
-8.46962695E+00
 20
1.28004825E+02
  0
VERTEX
  8
0
 62
4
 10
-8.49240084E+00
 20
1.27844436E+02
  0
VERTEX
  8
0
 62
4
 10
-8.50001144E+00
 20
1.27682817E+02
  0
SEQEND
  8
0
  0
LINE
  8
0
 62
4
 10
-4.50001144E+00
 20
1.27682817E+02
 11
-4.50001144E+00
 21
1.29159693E+02
  0
LINE
  8
0
 62
4
 10
-8.50001144E+00
 20
1.27682817E+02
 11
-8.50001144E+00
 21
1.29159693E+02
  0
POLYLINE
  8
0
 62
4
 66
1
  0
VERTEX
  8
0
 62
4
 10
-4.50001144E+00
 20
1.29159693E+02
  0
VERTEX
  8
0
 62
4
 10
-4.50806285E+00
 20
1.29325917E+02
  0
VERTEX
  8
0
 62
4
 10
-4.53215226E+00
 20
1.29490803E+02
  0
VERTEX
  8
0
 62
4
 10
-4.57208571E+00
 20
1.29653023E+02
  0
VERTEX
  8
0
 62
4
 10
-4.62754169E+00
 20
1.29811271E+02
  0
VERTEX
  8
0
 62
4
 10
-4.69807370E+00
 20
1.29964273E+02
  0
VERTEX
  8
0
 62
4
 10
-4.78311385E+00
 20
1.30110797E+02
  0
VERTEX
  8
0
 62
4
 10
-4.88197744E+00
 20
1.30249663E+02
  0
VERTEX
  8
0
 62
4
 10
-4.99386850E+00
 20
1.30379753E+02
  0
VERTEX
  8
0
 62
4
 10
-5.11788613E+00
 20
1.30500020E+02
  0
VERTEX
  8
0
 62
4
 10
-5.25303182E+00
 20
1.30609496E+02
  0
VERTEX
  8
0
 62
4
 10
-5.39821746E+00
 20
1.30707299E+02
  0
VERTEX
  8
0
 62
4
 10
-5.55227410E+00
 20
1.30792641E+02
  0
VERTEX
  8
0
 62
4
 10
-5.71396136E+00
 20
1.30864836E+02
  0
VERTEX
  8
0
 62
4
 10
-5.88197744E+00
 20
1.30923301E+02
  0
VERTEX
  8
0
 62
4
 10
-6.05496956E+00
 20
1.30967568E+02
  0
VERTEX
  8
0
 62
4
 10
-6.23154489E+00
 20
1.30997278E+02
  0
VERTEX
  8
0
 62
4
 10
-6.41028176E+00
 20
1.31012193E+02
  0
VERTEX
  8
0
 62
4
 10
-6.58974108E+00
 20
1.31012193E+02
  0
VERTEX
  8
0
 62
4
 10
-6.76847795E+00
 20
1.30997278E+02
  0
VERTEX
  8
0
 62
4
 10
-6.94505329E+00
 20
1.30967568E+02
  0
VERTEX
  8
0
 62
4
 10
-7.11804541E+00
 20
1.30923301E+02
  0
VERTEX
  8
0
 62
4
 10
-7.28606149E+00
 20
1.30864836E+02
  0
VERTEX
  8
0
 62
4
 10
-7.44774875E+00
 20
1.30792641E+02
  0
VERTEX
  8
0
 62
4
 10
-7.60180539E+00
 20
1.30707299E+02
  0
VERTEX
  8
0
 62
4
 10
-7.74699103E+00
 20
1.30609496E+02
  0
VERTEX
  8
0
 62
4
 10
-7.88213672E+00
 20
1.30500020E+02
  0
VERTEX
  8
0
 62
4
 10
-8.00615436E+00
 20
1.30379753E+02
  0
VERTEX
  8
0
 62
4
 10
-8.11804542E+00
 20
1.30249663E+02
  0
VERTEX
  8
0
 62
4
 10
-8.21690902E+00
 20
1.30110797E+02
  0
VERTEX
  8
0
 62
4
 10
-8.30194917E+00
 20
1.29964273E+02
  0
VERTEX
  8
0
 62
4
 10
-8.37248117E+00
 20
1.29811271E+02
  0
VERTEX
  8
0
 62
4
 10
-8.42793716E+00
 20
1.29653023E+02
  0
VERTEX
  8
0
 62
4
 10
-8.46787061E+00
 20
1.29490803E+02
  0
VERTEX
  8
0
 62
4
 10
-8.49196003E+00
 20
1.29325917E+02
  0
VERTEX
  8
0
 62
4
 10
-8.50001144E+00
 20
1.29159693E+02
  0
SEQEND
  8
0
  0
LINE
  8
0
 62
4
 10
-7.04999886E+01
 20
1.45197444E+02
 11
-7.04999886E+01
 21
1.43999992E+02
  0
LINE
  8
0
 62
4
 10
-4.54999886E+01
 20
1.46330001E+02
 11
-4.54999886E+01
 21
1.43999992E+02
  0
LINE
  8
0
  6
CENTER
 62
6
 10
-4.93499886E+01
 20
1.48943913E+02
 11
-5.86499886E+01
 21
1.48943913E+02
  0
LINE
  8
0
  6
CENTER
 62
6
 10
-5.39999886E+01
 20
1.53593913E+02
 11
-5.39999886E+01
 21
1.44293913E+02
  0
LINE
  8
0
  6
CENTER
 62
6
 10
-5.79253917E+01
 20
1.52189057E+02
 11
-6.50745854E+01
 21
1.52189057E+02
  0
LINE
  8
0
  6
CENTER
 62
6
 10
-6.14999886E+01
 20
1.55763654E+02
 11
-6.14999886E+01
 21
1.48614460E+02
  0
LINE
  8
0
  6
CENTER
 62
6
 10
-4.16999886E+01
 20
1.52189057E+02
 11
-5.12999886E+01
 21
1.52189057E+02
  0
LINE
  8
0
  6
CENTER
 62
6
 10
-4.64999886E+01
 20
1.56989057E+02
 11
-4.64999886E+01
 21
1.47389057E+02
  0
LINE
  8
0
 62
4
 10
-6.89999886E+01
 20
1.56361384E+02
 11
-3.89999886E+01
 21
1.56361384E+02
  0
LINE
  8
0
 62
4
 10
-6.89999886E+01
 20
1.46718672E+02
 11
-5.72713774E+01
 21
1.46718672E+02
  0
LINE
  8
0
 62
4
 10
-6.89999886E+01
 20
1.46330001E+02
 11
-5.68957454E+01
 21
1.46330001E+02
  0
LINE
  8
0
 62
4
 10
-6.89999886E+01
 20
1.46330001E+02
 11
-7.04999886E+01
 21
1.45197444E+02
  0
LINE
  8
0
 62
4
 10
-5.81499886E+01
 20
1.49086264E+02
 11
-5.81499886E+01
 21
1.49745571E+02
  0
POLYLINE
  8
0
 62
4
 66
1
  0
VERTEX
  8
0
 62
4
 10
-5.81499886E+01
 20
1.49086264E+02
  0
VERTEX
  8
0
 62
4
 10
-5.81332819E+01
 20
1.48741349E+02
  0
VERTEX
  8
0
 62
4
 10
-5.80832964E+01
 20
1.48399210E+02
  0
VERTEX
  8
0
 62
4
 10
-5.80004345E+01
 20
1.48062604E+02
  0
VERTEX
  8
0
 62
4
 10
-5.78853633E+01
 20
1.47734239E+02
  0
VERTEX
  8
0
 62
4
 10
-5.77390094E+01
 20
1.47416761E+02
  0
VERTEX
  8
0
 62
4
 10
-5.75625511E+01
 20
1.47112724E+02
  0
VERTEX
  8
0
 62
4
 10
-5.73574091E+01
 20
1.46824576E+02
  0
VERTEX
  8
0
 62
4
 10
-5.71252352E+01
 20
1.46554639E+02
  0
VERTEX
  8
0
 62
4
 10
-5.68678986E+01
 20
1.46305085E+02
  0
VERTEX
  8
0
 62
4
 10
-5.65874713E+01
 20
1.46077923E+02
  0
VERTEX
  8
0
 62
4
 10
-5.62862111E+01
 20
1.45874982E+02
  0
VERTEX
  8
0
 62
4
 10
-5.59665436E+01
 20
1.45697897E+02
  0
VERTEX
  8
0
 62
4
 10
-5.56310425E+01
 20
1.45548093E+02
  0
VERTEX
  8
0
 62
4
 10
-5.52824091E+01
 20
1.45426776E+02
  0
VERTEX
  8
0
 62
4
 10
-5.49234505E+01
 20
1.45334924E+02
  0
VERTEX
  8
0
 62
4
 10
-5.45570567E+01
 20
1.45273275E+02
  0
VERTEX
  8
0
 62
4
 10
-5.41861777E+01
 20
1.45242325E+02
  0
VERTEX
  8
0
 62
4
 10
-5.38137996E+01
 20
1.45242325E+02
  0
VERTEX
  8
0
 62
4
 10
-5.34429206E+01
 20
1.45273275E+02
  0
VERTEX
  8
0
 62
4
 10
-5.30765267E+01
 20
1.45334924E+02
  0
VERTEX
  8
0
 62
4
 10
-5.27175681E+01
 20
1.45426776E+02
  0
VERTEX
  8
0
 62
4
 10
-5.23689347E+01
 20
1.45548093E+02
  0
VERTEX
  8
0
 62
4
 10
-5.20334337E+01
 20
1.45697897E+02
  0
VERTEX
  8
0
 62
4
 10
-5.17137661E+01
 20
1.45874982E+02
  0
VERTEX
  8
0
 62
4
 10
-5.14125059E+01
 20
1.46077923E+02
  0
VERTEX
  8
0
 62
4
 10
-5.11320786E+01
 20
1.46305085E+02
  0
VERTEX
  8
0
 62
4
 10
-5.08747420E+01
 20
1.46554639E+02
  0
VERTEX
  8
0
 62
4
 10
-5.06425681E+01
 20
1.46824576E+02
  0
VERTEX
  8
0
 62
4
 10
-5.04374261E+01
 20
1.47112723E+02
  0
VERTEX
  8
0
 62
4
 10
-5.02609678E+01
 20
1.47416760E+02
  0
VERTEX
  8
0
 62
4
 10
-5.01146139E+01
 20
1.47734239E+02
  0
VERTEX
  8
0
 62
4
 10
-4.99995427E+01
 20
1.48062604E+02
  0
VERTEX
  8
0
 62
4
 10
-4.99166808E+01
 20
1.48399210E+02
  0
VERTEX
  8
0
 62
4
 10
-4.98666953E+01
 20
1.48741349E+02
  0
VERTEX
  8
0
 62
4
 10
-4.98499886E+01
 20
1.49086264E+02
  0
SEQEND
  8
0
  0
POLYLINE
  8
0
 62
4
 66
1
  0
VERTEX
  8
0
 62
4
 10
-5.81499886E+01
 20
1.49745571E+02
  0
VERTEX
  8
0
 62
4
 10
-5.81341966E+01
 20
1.49410212E+02
  0
VERTEX
  8
0
 62
4
 10
-5.80869408E+01
 20
1.49077405E+02
  0
VERTEX
  8
0
 62
4
 10
-5.80085808E+01
 20
1.48749684E+02
  0
VERTEX
  8
0
 62
4
 10
-5.78997130E+01
 20
1.48429541E+02
  0
VERTEX
  8
0
 62
4
 10
-5.77611659E+01
 20
1.48119415E+02
  0
VERTEX
  8
0
 62
4
 10
-5.75939940E+01
 20
1.47821665E+02
  0
VERTEX
  8
0
 62
4
 10
-5.73994696E+01
 20
1.47538556E+02
  0
VERTEX
  8
0
 62
4
 10
-5.71790730E+01
 20
1.47272244E+02
  0
VERTEX
  8
0
 62
4
 10
-5.69344818E+01
 20
1.47024756E+02
  0
VERTEX
  8
0
 62
4
 10
-5.66675572E+01
 20
1.46797975E+02
  0
VERTEX
  8
0
 62
4
 10
-5.63803308E+01
 20
1.46593627E+02
  0
VERTEX
  8
0
 62
4
 10
-5.60749886E+01
 20
1.46413267E+02
  0
VERTEX
  8
0
 62
4
 10
-5.57538544E+01
 20
1.46258268E+02
  0
VERTEX
  8
0
 62
4
 10
-5.54193722E+01
 20
1.46129810E+02
  0
VERTEX
  8
0
 62
4
 10
-5.50740876E+01
 20
1.46028869E+02
  0
VERTEX
  8
0
 62
4
 10
-5.47206285E+01
 20
1.45956215E+02
  0
VERTEX
  8
0
 62
4
 10
-5.43616849E+01
 20
1.45912400E+02
  0
VERTEX
  8
0
 62
4
 10
-5.39999886E+01
 20
1.45897758E+02
  0
VERTEX
  8
0
 62
4
 10
-5.36382923E+01
 20
1.45912400E+02
  0
VERTEX
  8
0
 62
4
 10
-5.32793487E+01
 20
1.45956215E+02
  0
VERTEX
  8
0
 62
4
 10
-5.29258896E+01
 20
1.46028869E+02
  0
VERTEX
  8
0
 62
4
 10
-5.25806050E+01
 20
1.46129810E+02
  0
VERTEX
  8
0
 62
4
 10
-5.22461228E+01
 20
1.46258268E+02
  0
VERTEX
  8
0
 62
4
 10
-5.19249886E+01
 20
1.46413267E+02
  0
VERTEX
  8
0
 62
4
 10
-5.16196464E+01
 20
1.46593627E+02
  0
VERTEX
  8
0
 62
4
 10
-5.13324200E+01
 20
1.46797975E+02
  0
VERTEX
  8
0
 62
4
 10
-5.10654955E+01
 20
1.47024756E+02
  0
VERTEX
  8
0
 62
4
 10
-5.08209042E+01
 20
1.47272244E+02
  0
VERTEX
  8
0
 62
4
 10
-5.06005076E+01
 20
1.47538556E+02
  0
VERTEX
  8
0
 62
4
 10
-5.04059832E+01
 20
1.47821664E+02
  0
VERTEX
  8
0
 62
4
 10
-5.02388113E+01
 20
1.48119415E+02
  0
VERTEX
  8
0
 62
4
 10
-5.01002642E+01
 20
1.48429541E+02
  0
VERTEX
  8
0
 62
4
 10
-4.99913964E+01
 20
1.48749684E+02
  0
VERTEX
  8
0
 62
4
 10
-4.99130364E+01
 20
1.49077405E+02
  0
VERTEX
  8
0
 62
4
 10
-4.98657806E+01
 20
1.49410212E+02
  0
VERTEX
  8
0
 62
4
 10
-4.98499886E+01
 20
1.49745571E+02
  0
VERTEX
  8
0
 62
4
 10
-4.98657806E+01
 20
1.50080930E+02
  0
VERTEX
  8
0
 62
4
 10
-4.99130364E+01
 20
1.50413737E+02
  0
VERTEX
  8
0
 62
4
 10
-4.99913964E+01
 20
1.50741458E+02
  0
VERTEX
  8
0
 62
4
 10
-5.01002642E+01
 20
1.51061601E+02
  0
VERTEX
  8
0
 62
4
 10
-5.02388113E+01
 20
1.51371727E+02
  0
VERTEX
  8
0
 62
4
 10
-5.04059832E+01
 20
1.51669477E+02
  0
VERTEX
  8
0
 62
4
 10
-5.06005076E+01
 20
1.51952586E+02
  0
VERTEX
  8
0
 62
4
 10
-5.08209042E+01
 20
1.52218898E+02
  0
VERTEX
  8
0
 62
4
 10
-5.10654955E+01
 20
1.52466386E+02
  0
VERTEX
  8
0
 62
4
 10
-5.13324200E+01
 20
1.52693167E+02
  0
VERTEX
  8
0
 62
4
 10
-5.16196464E+01
 20
1.52897515E+02
  0
VERTEX
  8
0
 62
4
 10
-5.19249886E+01
 20
1.53077875E+02
  0
VERTEX
  8
0
 62
4
 10
-5.22461228E+01
 20
1.53232874E+02
  0
VERTEX
  8
0
 62
4
 10
-5.25806050E+01
 20
1.53361332E+02
  0
VERTEX
  8
0
 62
4
 10
-5.29258896E+01
 20
1.53462273E+02
  0
VERTEX
  8
0
 62
4
 10
-5.32793487E+01
 20
1.53534927E+02
  0
VERTEX
  8
0
 62
4
 10
-5.36382923E+01
 20
1.53578742E+02
  0
VERTEX
  8
0
 62
4
 10
-5.39999886E+01
 20
1.53593384E+02
  0
VERTEX
  8
0
 62
4
 10
-5.43616849E+01
 20
1.53578742E+02
  0
VERTEX
  8
0
 62
4
 10
-5.47206285E+01
 20
1.53534927E+02
  0
VERTEX
  8
0
 62
4
 10
-5.50740876E+01
 20
1.53462273E+02
  0
VERTEX
  8
0
 62
4
 10
-5.54193722E+01
 20
1.53361332E+02
  0
VERTEX
  8
0
 62
4
 10
-5.57538544E+01
 20
1.53232874E+02
  0
VERTEX
  8
0
 62
4
 10
-5.60749886E+01
 20
1.53077875E+02
  0
VERTEX
  8
0
 62
4
 10
-5.63803308E+01
 20
1.52897515E+02
  0
VERTEX
  8
0
 62
4
 10
-5.66675572E+01
 20
1.52693167E+02
  0
VERTEX
  8
0
 62
4
 10
-5.69344817E+01
 20
1.52466386E+02
  0
VERTEX
  8
0
 62
4
 10
-5.71790730E+01
 20
1.52218898E+02
  0
VERTEX
  8
0
 62
4
 10
-5.73994696E+01
 20
1.51952586E+02
  0
VERTEX
  8
0
 62
4
 10
-5.75939940E+01
 20
1.51669478E+02
  0
VERTEX
  8
0
 62
4
 10
-5.77611659E+01
 20
1.51371727E+02
  0
VERTEX
  8
0
 62
4
 10
-5.78997130E+01
 20
1.51061601E+02
  0
VERTEX
  8
0
 62
4
 10
-5.80085808E+01
 20
1.50741458E+02
  0
VERTEX
  8
0
 62
4
 10
-5.80869408E+01
 20
1.50413737E+02
  0
VERTEX
  8
0
 62
4
 10
-5.81341966E+01
 20
1.50080930E+02
  0
VERTEX
  8
0
 62
4
 10
-5.81499886E+01
 20
1.49745571E+02
  0
SEQEND
  8
0
  0
LINE
  8
0
 62
4
 10
-4.98499886E+01
 20
1.49086264E+02
 11
-4.98499886E+01
 21
1.49745571E+02
  0
ARC
  8
0
 62
4
 10
5.36593596E-01
 20
9.11661197E+01
 40
8.02368575E+01
 50
1.31121885E+02
 51
1.34565706E+02
  0
ARC
  8
0
 62
4
 10
-1.08536439E+02
 20
9.11662618E+01
 40
8.02366638E+01
 50
4.54342898E+01
 51
4.88781190E+01
  0
POLYLINE
  8
0
 62
4
 66
1
  0
VERTEX
  8
0
 62
4
 10
-5.02999886E+01
 20
1.52189057E+02
  0
VERTEX
  8
0
 62
4
 10
-5.02846909E+01
 20
1.51873231E+02
  0
VERTEX
  8
0
 62
4
 10
-5.02389211E+01
 20
1.51559948E+02
  0
VERTEX
  8
0
 62
4
 10
-5.01630475E+01
 20
1.51251730E+02
  0
VERTEX
  8
0
 62
4
 10
-5.00576811E+01
 20
1.50951059E+02
  0
VERTEX
  8
0
 62
4
 10
-4.99236703E+01
 20
1.50660355E+02
  0
VERTEX
  8
0
 62
4
 10
-4.97620940E+01
 20
1.50381960E+02
  0
VERTEX
  8
0
 62
4
 10
-4.95742532E+01
 20
1.50118114E+02
  0
VERTEX
  8
0
 62
4
 10
-4.93616602E+01
 20
1.49870942E+02
  0
VERTEX
  8
0
 62
4
 10
-4.91260267E+01
 20
1.49642435E+02
  0
VERTEX
  8
0
 62
4
 10
-4.88692499E+01
 20
1.49434431E+02
  0
VERTEX
  8
0
 62
4
 10
-4.85933972E+01
 20
1.49248606E+02
  0
VERTEX
  8
0
 62
4
 10
-4.83006895E+01
 20
1.49086456E+02
  0
VERTEX
  8
0
 62
4
 10
-4.79934837E+01
 20
1.48949286E+02
  0
VERTEX
  8
0
 62
4
 10
-4.76742532E+01
 20
1.48838201E+02
  0
VERTEX
  8
0
 62
4
 10
-4.73455682E+01
 20
1.48754095E+02
  0
VERTEX
  8
0
 62
4
 10
-4.70100750E+01
 20
1.48697645E+02
  0
VERTEX
  8
0
 62
4
 10
-4.66704750E+01
 20
1.48669306E+02
  0
VERTEX
  8
0
 62
4
 10
-4.63295023E+01
 20
1.48669306E+02
  0
VERTEX
  8
0
 62
4
 10
-4.59899022E+01
 20
1.48697645E+02
  0
VERTEX
  8
0
 62
4
 10
-4.56544091E+01
 20
1.48754095E+02
  0
VERTEX
  8
0
 62
4
 10
-4.53257240E+01
 20
1.48838201E+02
  0
VERTEX
  8
0
 62
4
 10
-4.50064935E+01
 20
1.48949286E+02
  0
VERTEX
  8
0
 62
4
 10
-4.46992877E+01
 20
1.49086456E+02
  0
VERTEX
  8
0
 62
4
 10
-4.44065801E+01
 20
1.49248606E+02
  0
VERTEX
  8
0
 62
4
 10
-4.41307274E+01
 20
1.49434431E+02
  0
VERTEX
  8
0
 62
4
 10
-4.38739505E+01
 20
1.49642435E+02
  0
VERTEX
  8
0
 62
4
 10
-4.36383170E+01
 20
1.49870942E+02
  0
VERTEX
  8
0
 62
4
 10
-4.34257240E+01
 20
1.50118114E+02
  0
VERTEX
  8
0
 62
4
 10
-4.32378832E+01
 20
1.50381960E+02
  0
VERTEX
  8
0
 62
4
 10
-4.30763069E+01
 20
1.50660355E+02
  0
VERTEX
  8
0
 62
4
 10
-4.29422961E+01
 20
1.50951059E+02
  0
VERTEX
  8
0
 62
4
 10
-4.28369297E+01
 20
1.51251730E+02
  0
VERTEX
  8
0
 62
4
 10
-4.27610561E+01
 20
1.51559948E+02
  0
VERTEX
  8
0
 62
4
 10
-4.27152863E+01
 20
1.51873231E+02
  0
VERTEX
  8
0
 62
4
 10
-4.26999886E+01
 20
1.52189057E+02
  0
SEQEND
  8
0
  0
POLYLINE
  8
0
 62
4
 66
1
  0
VERTEX
  8
0
 62
4
 10
-4.88863552E+01
 20
1.55305566E+02
  0
VERTEX
  8
0
 62
4
 10
-4.91368878E+01
 20
1.55100619E+02
  0
VERTEX
  8
0
 62
4
 10
-4.93670362E+01
 20
1.54876060E+02
  0
VERTEX
  8
0
 62
4
 10
-4.95750213E+01
 20
1.54633625E+02
  0
VERTEX
  8
0
 62
4
 10
-4.97592352E+01
 20
1.54375189E+02
  0
VERTEX
  8
0
 62
4
 10
-4.99182540E+01
 20
1.54102750E+02
  0
VERTEX
  8
0
 62
4
 10
-5.00508484E+01
 20
1.53818412E+02
  0
VERTEX
  8
0
 62
4
 10
-5.01559933E+01
 20
1.53524375E+02
  0
VERTEX
  8
0
 62
4
 10
-5.02328760E+01
 20
1.53222911E+02
  0
VERTEX
  8
0
 62
4
 10
-5.02809021E+01
 20
1.52916351E+02
  0
VERTEX
  8
0
 62
4
 10
-5.02997003E+01
 20
1.52607064E+02
  0
VERTEX
  8
0
 62
4
 10
-5.02891254E+01
 20
1.52297442E+02
  0
VERTEX
  8
0
 62
4
 10
-5.02492591E+01
 20
1.51989878E+02
  0
VERTEX
  8
0
 62
4
 10
-5.01804095E+01
 20
1.51686750E+02
  0
VERTEX
  8
0
 62
4
 10
-5.00831090E+01
 20
1.51390400E+02
  0
VERTEX
  8
0
 62
4
 10
-4.99581096E+01
 20
1.51103121E+02
  0
VERTEX
  8
0
 62
4
 10
-4.98063777E+01
 20
1.50827131E+02
  0
VERTEX
  8
0
 62
4
 10
-4.96290862E+01
 20
1.50564566E+02
  0
VERTEX
  8
0
 62
4
 10
-4.94276057E+01
 20
1.50317454E+02
  0
VERTEX
  8
0
 62
4
 10
-4.92034936E+01
 20
1.50087707E+02
  0
VERTEX
  8
0
 62
4
 10
-4.89584824E+01
 20
1.49877099E+02
  0
VERTEX
  8
0
 62
4
 10
-4.86944661E+01
 20
1.49687260E+02
  0
VERTEX
  8
0
 62
4
 10
-4.84134858E+01
 20
1.49519656E+02
  0
VERTEX
  8
0
 62
4
 10
-4.81177134E+01
 20
1.49375584E+02
  0
VERTEX
  8
0
 62
4
 10
-4.78094354E+01
 20
1.49256156E+02
  0
VERTEX
  8
0
 62
4
 10
-4.74910349E+01
 20
1.49162297E+02
  0
VERTEX
  8
0
 62
4
 10
-4.71649733E+01
 20
1.49094732E+02
  0
VERTEX
  8
0
 62
4
 10
-4.68337711E+01
 20
1.49053983E+02
  0
VERTEX
  8
0
 62
4
 10
-4.64999886E+01
 20
1.49040364E+02
  0
VERTEX
  8
0
 62
4
 10
-4.61662061E+01
 20
1.49053983E+02
  0
VERTEX
  8
0
 62
4
 10
-4.58350039E+01
 20
1.49094732E+02
  0
VERTEX
  8
0
 62
4
 10
-4.55089423E+01
 20
1.49162297E+02
  0
VERTEX
  8
0
 62
4
 10
-4.51905418E+01
 20
1.49256156E+02
  0
VERTEX
  8
0
 62
4
 10
-4.48822638E+01
 20
1.49375584E+02
  0
VERTEX
  8
0
 62
4
 10
-4.45864914E+01
 20
1.49519656E+02
  0
VERTEX
  8
0
 62
4
 10
-4.43055111E+01
 20
1.49687260E+02
  0
VERTEX
  8
0
 62
4
 10
-4.40414948E+01
 20
1.49877099E+02
  0
VERTEX
  8
0
 62
4
 10
-4.37964836E+01
 20
1.50087707E+02
  0
VERTEX
  8
0
 62
4
 10
-4.35723715E+01
 20
1.50317454E+02
  0
VERTEX
  8
0
 62
4
 10
-4.33708910E+01
 20
1.50564566E+02
  0
VERTEX
  8
0
 62
4
 10
-4.31935995E+01
 20
1.50827131E+02
  0
VERTEX
  8
0
 62
4
 10
-4.30418676E+01
 20
1.51103121E+02
  0
VERTEX
  8
0
 62
4
 10
-4.29168682E+01
 20
1.51390400E+02
  0
VERTEX
  8
0
 62
4
 10
-4.28195677E+01
 20
1.51686750E+02
  0
VERTEX
  8
0
 62
4
 10
-4.27507181E+01
 20
1.51989878E+02
  0
VERTEX
  8
0
 62
4
 10
-4.27108518E+01
 20
1.52297442E+02
  0
VERTEX
  8
0
 62
4
 10
-4.27002769E+01
 20
1.52607064E+02
  0
VERTEX
  8
0
 62
4
 10
-4.27190751E+01
 20
1.52916351E+02
  0
VERTEX
  8
0
 62
4
 10
-4.27671012E+01
 20
1.53222911E+02
  0
VERTEX
  8
0
 62
4
 10
-4.28439839E+01
 20
1.53524375E+02
  0
VERTEX
  8
0
 62
4
 10
-4.29491288E+01
 20
1.53818412E+02
  0
VERTEX
  8
0
 62
4
 10
-4.30817232E+01
 20
1.54102750E+02
  0
VERTEX
  8
0
 62
4
 10
-4.32407420E+01
 20
1.54375189E+02
  0
VERTEX
  8
0
 62
4
 10
-4.34249559E+01
 20
1.54633625E+02
  0
VERTEX
  8
0
 62
4
 10
-4.36329410E+01
 20
1.54876060E+02
  0
VERTEX
  8
0
 62
4
 10
-4.38630894E+01
 20
1.55100619E+02
  0
VERTEX
  8
0
 62
4
 10
-4.41136220E+01
 20
1.55305566E+02
  0
SEQEND
  8
0
  0
LINE
  8
0
 62
4
 10
-5.02999886E+01
 20
1.52189057E+02
 11
-5.02999886E+01
 21
1.52563663E+02
  0
LINE
  8
0
 62
4
 10
-4.26999886E+01
 20
1.52563663E+02
 11
-4.26999886E+01
 21
1.52189057E+02
  0
LINE
  8
0
 62
4
 10
-4.98999886E+01
 20
1.52563663E+02
 11
-4.98999886E+01
 21
1.53060086E+02
  0
POLYLINE
  8
0
 62
4
 66
1
  0
VERTEX
  8
0
 62
4
 10
-4.98999886E+01
 20
1.52563663E+02
  0
VERTEX
  8
0
 62
4
 10
-4.98863012E+01
 20
1.52281082E+02
  0
VERTEX
  8
0
 62
4
 10
-4.98453492E+01
 20
1.52000776E+02
  0
VERTEX
  8
0
 62
4
 10
-4.97774624E+01
 20
1.51725002E+02
  0
VERTEX
  8
0
 62
4
 10
-4.96831872E+01
 20
1.51455980E+02
  0
VERTEX
  8
0
 62
4
 10
-4.95632828E+01
 20
1.51195877E+02
  0
VERTEX
  8
0
 62
4
 10
-4.94187145E+01
 20
1.50946786E+02
  0
VERTEX
  8
0
 62
4
 10
-4.92506464E+01
 20
1.50710714E+02
  0
VERTEX
  8
0
 62
4
 10
-4.90604316E+01
 20
1.50489560E+02
  0
VERTEX
  8
0
 62
4
 10
-4.88496016E+01
 20
1.50285106E+02
  0
VERTEX
  8
0
 62
4
 10
-4.86198540E+01
 20
1.50098998E+02
  0
VERTEX
  8
0
 62
4
 10
-4.83730384E+01
 20
1.49932733E+02
  0
VERTEX
  8
0
 62
4
 10
-4.81111421E+01
 20
1.49787652E+02
  0
VERTEX
  8
0
 62
4
 10
-4.78362737E+01
 20
1.49664921E+02
  0
VERTEX
  8
0
 62
4
 10
-4.75506464E+01
 20
1.49565529E+02
  0
VERTEX
  8
0
 62
4
 10
-4.72565598E+01
 20
1.49490276E+02
  0
VERTEX
  8
0
 62
4
 10
-4.69563817E+01
 20
1.49439768E+02
  0
VERTEX
  8
0
 62
4
 10
-4.66525290E+01
 20
1.49414412E+02
  0
VERTEX
  8
0
 62
4
 10
-4.63474482E+01
 20
1.49414412E+02
  0
VERTEX
  8
0
 62
4
 10
-4.60435955E+01
 20
1.49439768E+02
  0
VERTEX
  8
0
 62
4
 10
-4.57434174E+01
 20
1.49490276E+02
  0
VERTEX
  8
0
 62
4
 10
-4.54493308E+01
 20
1.49565529E+02
  0
VERTEX
  8
0
 62
4
 10
-4.51637035E+01
 20
1.49664921E+02
  0
VERTEX
  8
0
 62
4
 10
-4.48888352E+01
 20
1.49787652E+02
  0
VERTEX
  8
0
 62
4
 10
-4.46269389E+01
 20
1.49932733E+02
  0
VERTEX
  8
0
 62
4
 10
-4.43801233E+01
 20
1.50098998E+02
  0
VERTEX
  8
0
 62
4
 10
-4.41503756E+01
 20
1.50285106E+02
  0
VERTEX
  8
0
 62
4
 10
-4.39395456E+01
 20
1.50489560E+02
  0
VERTEX
  8
0
 62
4
 10
-4.37493308E+01
 20
1.50710714E+02
  0
VERTEX
  8
0
 62
4
 10
-4.35812627E+01
 20
1.50946786E+02
  0
VERTEX
  8
0
 62
4
 10
-4.34366944E+01
 20
1.51195877E+02
  0
VERTEX
  8
0
 62
4
 10
-4.33167900E+01
 20
1.51455980E+02
  0
VERTEX
  8
0
 62
4
 10
-4.32225149E+01
 20
1.51725002E+02
  0
VERTEX
  8
0
 62
4
 10
-4.31546280E+01
 20
1.52000776E+02
  0
VERTEX
  8
0
 62
4
 10
-4.31136760E+01
 20
1.52281082E+02
  0
VERTEX
  8
0
 62
4
 10
-4.30999886E+01
 20
1.52563663E+02
  0
SEQEND
  8
0
  0
LINE
  8
0
 62
4
 10
-4.30999885E+01
 20
1.52563663E+02
 11
-4.30999885E+01
 21
1.53060086E+02
  0
POLYLINE
  8
0
 62
4
 66
1
  0
VERTEX
  8
0
 62
4
 10
-4.98999886E+01
 20
1.53060086E+02
  0
VERTEX
  8
0
 62
4
 10
-4.98870506E+01
 20
1.52785334E+02
  0
VERTEX
  8
0
 62
4
 10
-4.98483350E+01
 20
1.52512673E+02
  0
VERTEX
  8
0
 62
4
 10
-4.97841364E+01
 20
1.52244178E+02
  0
VERTEX
  8
0
 62
4
 10
-4.96949435E+01
 20
1.51981893E+02
  0
VERTEX
  8
0
 62
4
 10
-4.95814351E+01
 20
1.51727814E+02
  0
VERTEX
  8
0
 62
4
 10
-4.94444750E+01
 20
1.51483873E+02
  0
VERTEX
  8
0
 62
4
 10
-4.92851056E+01
 20
1.51251929E+02
  0
VERTEX
  8
0
 62
4
 10
-4.91045397E+01
 20
1.51033746E+02
  0
VERTEX
  8
0
 62
4
 10
-4.89041517E+01
 20
1.50830985E+02
  0
VERTEX
  8
0
 62
4
 10
-4.86854665E+01
 20
1.50645188E+02
  0
VERTEX
  8
0
 62
4
 10
-4.84501485E+01
 20
1.50477771E+02
  0
VERTEX
  8
0
 62
4
 10
-4.81999886E+01
 20
1.50330006E+02
  0
VERTEX
  8
0
 62
4
 10
-4.79368907E+01
 20
1.50203019E+02
  0
VERTEX
  8
0
 62
4
 10
-4.76628571E+01
 20
1.50097775E+02
  0
VERTEX
  8
0
 62
4
 10
-4.73799734E+01
 20
1.50015077E+02
  0
VERTEX
  8
0
 62
4
 10
-4.70903924E+01
 20
1.49955553E+02
  0
VERTEX
  8
0
 62
4
 10
-4.67963181E+01
 20
1.49919657E+02
  0
VERTEX
  8
0
 62
4
 10
-4.64999886E+01
 20
1.49907661E+02
  0
VERTEX
  8
0
 62
4
 10
-4.62036591E+01
 20
1.49919657E+02
  0
VERTEX
  8
0
 62
4
 10
-4.59095848E+01
 20
1.49955553E+02
  0
VERTEX
  8
0
 62
4
 10
-4.56200038E+01
 20
1.50015077E+02
  0
VERTEX
  8
0
 62
4
 10
-4.53371201E+01
 20
1.50097775E+02
  0
VERTEX
  8
0
 62
4
 10
-4.50630865E+01
 20
1.50203019E+02
  0
VERTEX
  8
0
 62
4
 10
-4.47999886E+01
 20
1.50330006E+02
  0
VERTEX
  8
0
 62
4
 10
-4.45498287E+01
 20
1.50477771E+02
  0
VERTEX
  8
0
 62
4
 10
-4.43145107E+01
 20
1.50645188E+02
  0
VERTEX
  8
0
 62
4
 10
-4.40958255E+01
 20
1.50830985E+02
  0
VERTEX
  8
0
 62
4
 10
-4.38954375E+01
 20
1.51033746E+02
  0
VERTEX
  8
0
 62
4
 10
-4.37148716E+01
 20
1.51251929E+02
  0
VERTEX
  8
0
 62
4
 10
-4.35555022E+01
 20
1.51483873E+02
  0
VERTEX
  8
0
 62
4
 10
-4.34185421E+01
 20
1.51727814E+02
  0
VERTEX
  8
0
 62
4
 10
-4.33050337E+01
 20
1.51981893E+02
  0
VERTEX
  8
0
 62
4
 10
-4.32158408E+01
 20
1.52244178E+02
  0
VERTEX
  8
0
 62
4
 10
-4.31516422E+01
 20
1.52512673E+02
  0
VERTEX
  8
0
 62
4
 10
-4.31129266E+01
 20
1.52785334E+02
  0
VERTEX
  8
0
 62
4
 10
-4.30999886E+01
 20
1.53060086E+02
  0
VERTEX
  8
0
 62
4
 10
-4.31129266E+01
 20
1.53334838E+02
  0
VERTEX
  8
0
 62
4
 10
-4.31516422E+01
 20
1.53607499E+02
  0
VERTEX
  8
0
 62
4
 10
-4.32158408E+01
 20
1.53875994E+02
  0
VERTEX
  8
0
 62
4
 10
-4.33050337E+01
 20
1.54138279E+02
  0
VERTEX
  8
0
 62
4
 10
-4.34185421E+01
 20
1.54392358E+02
  0
VERTEX
  8
0
 62
4
 10
-4.35555022E+01
 20
1.54636299E+02
  0
VERTEX
  8
0
 62
4
 10
-4.37148716E+01
 20
1.54868243E+02
  0
VERTEX
  8
0
 62
4
 10
-4.38954375E+01
 20
1.55086426E+02
  0
VERTEX
  8
0
 62
4
 10
-4.40958255E+01
 20
1.55289187E+02
  0
VERTEX
  8
0
 62
4
 10
-4.43145107E+01
 20
1.55474984E+02
  0
VERTEX
  8
0
 62
4
 10
-4.45498287E+01
 20
1.55642401E+02
  0
VERTEX
  8
0
 62
4
 10
-4.47999886E+01
 20
1.55790166E+02
  0
VERTEX
  8
0
 62
4
 10
-4.50630865E+01
 20
1.55917153E+02
  0
VERTEX
  8
0
 62
4
 10
-4.53371201E+01
 20
1.56022397E+02
  0
VERTEX
  8
0
 62
4
 10
-4.56200038E+01
 20
1.56105095E+02
  0
VERTEX
  8
0
 62
4
 10
-4.59095848E+01
 20
1.56164619E+02
  0
VERTEX
  8
0
 62
4
 10
-4.62036591E+01
 20
1.56200515E+02
  0
VERTEX
  8
0
 62
4
 10
-4.64999886E+01
 20
1.56212511E+02
  0
VERTEX
  8
0
 62
4
 10
-4.67963181E+01
 20
1.56200515E+02
  0
VERTEX
  8
0
 62
4
 10
-4.70903924E+01
 20
1.56164619E+02
  0
VERTEX
  8
0
 62
4
 10
-4.73799734E+01
 20
1.56105095E+02
  0
VERTEX
  8
0
 62
4
 10
-4.76628571E+01
 20
1.56022397E+02
  0
VERTEX
  8
0
 62
4
 10
-4.79368907E+01
 20
1.55917153E+02
  0
VERTEX
  8
0
 62
4
 10
-4.81999886E+01
 20
1.55790166E+02
  0
VERTEX
  8
0
 62
4
 10
-4.84501485E+01
 20
1.55642401E+02
  0
VERTEX
  8
0
 62
4
 10
-4.86854665E+01
 20
1.55474984E+02
  0
VERTEX
  8
0
 62
4
 10
-4.89041517E+01
 20
1.55289187E+02
  0
VERTEX
  8
0
 62
4
 10
-4.91045397E+01
 20
1.55086426E+02
  0
VERTEX
  8
0
 62
4
 10
-4.92851056E+01
 20
1.54868243E+02
  0
VERTEX
  8
0
 62
4
 10
-4.94444750E+01
 20
1.54636299E+02
  0
VERTEX
  8
0
 62
4
 10
-4.95814351E+01
 20
1.54392358E+02
  0
VERTEX
  8
0
 62
4
 10
-4.96949435E+01
 20
1.54138279E+02
  0
VERTEX
  8
0
 62
4
 10
-4.97841364E+01
 20
1.53875994E+02
  0
VERTEX
  8
0
 62
4
 10
-4.98483350E+01
 20
1.53607499E+02
  0
VERTEX
  8
0
 62
4
 10
-4.98870506E+01
 20
1.53334838E+02
  0
VERTEX
  8
0
 62
4
 10
-4.98999886E+01
 20
1.53060086E+02
  0
SEQEND
  8
0
  0
ARC
  8
0
 62
4
 10
7.53028844E+00
 20
9.51395665E+01
 40
7.95040043E+01
 50
1.31098609E+02
 51
1.34573756E+02
  0
ARC
  8
0
 62
4
 10
-1.00530266E+02
 20
9.51395665E+01
 40
7.95040043E+01
 50
4.54262442E+01
 51
4.89013908E+01
  0
LINE
  8
0
 62
4
 10
-5.07285997E+01
 20
1.46718672E+02
 11
-3.89999886E+01
 21
1.46718672E+02
  0
LINE
  8
0
 62
4
 10
-5.11042317E+01
 20
1.46330001E+02
 11
-4.54999886E+01
 21
1.46330001E+02
  0
LINE
  8
0
 62
7
 10
-1.98419631E+01
 20
1.44000023E+02
 11
-8.30000191E+01
 21
1.44000023E+02
  0
LINE
  8
0
 62
7
 10
-1.00000114E+01
 20
1.40000008E+02
 11
-8.30000191E+01
 21
1.40000008E+02
  0
LINE
  8
0
 62
7
 10
-1.00000114E+01
 20
1.31000038E+02
 11
-8.30000191E+01
 21
1.31000038E+02
  0
LINE
  8
0
 62
7
 10
-4.01999912E+02
 20
1.46900032E+02
 11
-3.15999973E+02
 21
1.46899956E+02
  0
LINE
  8
0
 62
7
 10
-4.05400028E+02
 20
5.75000191E+01
 11
-4.05400028E+02
 21
1.43499992E+02
  0
LINE
  8
0
 62
7
 10
-4.01999973E+02
 20
5.41000290E+01
 11
-3.15999973E+02
 21
5.40999680E+01
  0
LINE
  8
0
 62
7
 10
-4.02399998E+02
 20
8.24987946E+01
 11
-4.02399998E+02
 21
1.18501083E+02
  0
LINE
  8
0
  6
CENTER
 62
2
 10
-3.94000034E+02
 20
1.49685341E+02
 11
-3.94000034E+02
 21
1.20961624E+02
  0
LINE
  8
0
  6
CENTER
 62
2
 10
-3.94000034E+02
 20
5.07628708E+01
 11
-3.94000034E+02
 21
8.09070358E+01
  0
LINE
  8
0
 62
7
 10
-4.06000004E+02
 20
5.75000191E+01
 11
-4.06000004E+02
 21
1.43499992E+02
  0
LINE
  8
0
 62
7
 10
-3.76069406E+02
 20
1.15801595E+02
 11
-3.86189463E+02
 21
1.25921651E+02
  0
LINE
  8
0
 62
7
 10
-3.74301542E+02
 20
1.17569373E+02
 11
-3.84421577E+02
 21
1.27689407E+02
  0
LINE
  8
0
 62
7
 10
-3.60250034E+02
 20
1.42900017E+02
 11
-3.60250034E+02
 21
1.23389679E+02
  0
LINE
  8
0
 62
7
 10
-4.01399937E+02
 20
1.01750000E+02
 11
-3.81889713E+02
 21
1.01750000E+02
  0
LINE
  8
0
 62
7
 10
-3.76069485E+02
 20
8.51986741E+01
 11
-3.86189520E+02
 21
7.50786401E+01
  0
LINE
  8
0
 62
7
 10
-3.74301718E+02
 20
8.34307344E+01
 11
-3.84421753E+02
 21
7.33107003E+01
  0
LINE
  8
0
 62
7
 10
-3.16599949E+02
 20
1.01749985E+02
 11
-3.36110233E+02
 21
1.01749985E+02
  0
LINE
  8
0
 62
7
 10
-3.60250034E+02
 20
5.81000328E+01
 11
-3.60250034E+02
 21
7.76102524E+01
  0
LINE
  8
0
 62
7
 10
-4.01399937E+02
 20
9.92500381E+01
 11
-3.81889652E+02
 21
9.92500381E+01
  0
LINE
  8
0
 62
7
 10
-3.12600010E+02
 20
5.74999924E+01
 11
-3.12600010E+02
 21
1.43499962E+02
  0
LINE
  8
0
 62
7
 10
-3.15600040E+02
 20
8.24988861E+01
 11
-3.15600040E+02
 21
1.18501175E+02
  0
LINE
  8
0
 62
7
 10
-3.40998783E+02
 20
5.70999718E+01
 11
-3.77001102E+02
 21
5.70999718E+01
  0
LINE
  8
0
 62
7
 10
-3.11999973E+02
 20
5.74999924E+01
 11
-3.11999973E+02
 21
1.43499962E+02
  0
LINE
  8
0
  6
CENTER
 62
2
 10
-4.08555454E+02
 20
6.55000114E+01
 11
-3.80134830E+02
 21
6.55000114E+01
  0
LINE
  8
0
 62
7
 10
-4.01999973E+02
 20
5.35000305E+01
 11
-3.15999973E+02
 21
5.34999924E+01
  0
LINE
  8
0
 62
7
 10
-3.43698411E+02
 20
8.34306352E+01
 11
-3.33578378E+02
 21
7.33105995E+01
  0
LINE
  8
0
 62
7
 10
-3.41930601E+02
 20
8.51983588E+01
 11
-3.31810568E+02
 21
7.50783231E+01
  0
LINE
  8
0
 62
7
 10
-3.16599979E+02
 20
9.92499847E+01
 11
-3.36110172E+02
 21
9.92499847E+01
  0
LINE
  8
0
 62
7
 10
-3.57750004E+02
 20
5.80999947E+01
 11
-3.57750004E+02
 21
7.76103134E+01
  0
LINE
  8
0
  6
CENTER
 62
2
 10
-3.59000004E+02
 20
1.51355766E+02
 11
-3.59000004E+02
 21
4.95240707E+01
  0
LINE
  8
0
  6
CENTER
 62
2
 10
-3.24000004E+02
 20
1.49872673E+02
 11
-3.24000004E+02
 21
1.20135773E+02
  0
LINE
  8
0
  6
CENTER
 62
2
 10
-4.08555454E+02
 20
1.35500008E+02
 11
-3.79308994E+02
 21
1.35500008E+02
  0
LINE
  8
0
 62
7
 10
-3.41930643E+02
 20
1.15801637E+02
 11
-3.31810584E+02
 21
1.25921691E+02
  0
LINE
  8
0
 62
7
 10
-3.43698495E+02
 20
1.17569491E+02
 11
-3.33578448E+02
 21
1.27689534E+02
  0
LINE
  8
0
 62
7
 10
-3.57750004E+02
 20
1.42899956E+02
 11
-3.57750004E+02
 21
1.23389732E+02
  0
LINE
  8
0
  6
CENTER
 62
2
 10
-3.43000034E+02
 20
1.50076958E+02
 11
-3.43000034E+02
 21
1.09871834E+02
  0
LINE
  8
0
 62
7
 10
-3.40998905E+02
 20
1.43899971E+02
 11
-3.77001133E+02
 21
1.43899971E+02
  0
LINE
  8
0
 62
7
 10
-4.01999912E+02
 20
1.47500008E+02
 11
-3.15999973E+02
 21
1.47499977E+02
  0
LINE
  8
0
 62
7
 10
-3.29000004E+02
 20
1.47499977E+02
 11
-3.29000004E+02
 21
1.46899956E+02
  0
LINE
  8
0
 62
7
 10
-3.89000004E+02
 20
1.47500008E+02
 11
-3.89000004E+02
 21
1.46900032E+02
  0
LINE
  8
0
 62
7
 10
-3.89000004E+02
 20
5.41000290E+01
 11
-3.89000004E+02
 21
5.35000305E+01
  0
LINE
  8
0
 62
7
 10
-3.29000004E+02
 20
5.40999680E+01
 11
-3.29000004E+02
 21
5.34999924E+01
  0
LINE
  8
0
 62
7
 10
-3.97999973E+02
 20
1.23365303E+02
 11
-3.97999973E+02
 21
1.22999962E+02
  0
LINE
  8
0
 62
7
 10
-3.81865330E+02
 20
1.39500046E+02
 11
-3.81500034E+02
 21
1.39500046E+02
  0
LINE
  8
0
 62
7
 10
-3.36134586E+02
 20
1.39499969E+02
 11
-3.36500004E+02
 21
1.39499969E+02
  0
LINE
  8
0
 62
7
 10
-3.19999912E+02
 20
1.23365334E+02
 11
-3.19999912E+02
 21
1.23000046E+02
  0
LINE
  8
0
 62
7
 10
-3.98000095E+02
 20
7.76346397E+01
 11
-3.98000095E+02
 21
7.79999084E+01
  0
LINE
  8
0
 62
7
 10
-3.20000004E+02
 20
7.76346664E+01
 11
-3.20000004E+02
 21
7.80000000E+01
  0
LINE
  8
0
 62
7
 10
-3.36134586E+02
 20
6.14999466E+01
 11
-3.36499882E+02
 21
6.14999466E+01
  0
LINE
  8
0
 62
7
 10
-3.81865299E+02
 20
6.15000229E+01
 11
-3.81500004E+02
 21
6.15000229E+01
  0
LINE
  8
0
  6
CENTER
 62
2
 10
-3.37809086E+02
 20
6.55000114E+01
 11
-3.09012241E+02
 21
6.55000114E+01
  0
LINE
  8
0
  6
CENTER
 62
2
 10
-3.38222111E+02
 20
1.35500008E+02
 11
-3.09012241E+02
 21
1.35500008E+02
  0
LINE
  8
0
  6
CENTER
 62
2
 10
-3.70000004E+02
 20
1.12496483E+02
 11
-3.70000004E+02
 21
1.50073448E+02
  0
LINE
  8
0
  6
CENTER
 62
2
 10
-3.24000004E+02
 20
5.08976555E+01
 11
-3.24000004E+02
 21
7.95789261E+01
  0
LINE
  8
0
  6
CENTER
 62
2
 10
-3.07465153E+02
 20
1.00500000E+02
 11
-4.09465427E+02
 21
1.00500000E+02
  0
CIRCLE
  8
0
 62
2
 10
-3.24000004E+02
 20
6.55000114E+01
 40
5.00000000E+00
  0
CIRCLE
  8
0
 62
2
 10
-3.94000034E+02
 20
6.55000114E+01
 40
5.00000000E+00
  0
CIRCLE
  8
0
 62
7
 10
-3.94000034E+02
 20
6.55000114E+01
 40
4.18000031E+00
  0
CIRCLE
  8
0
 62
7
 10
-3.94000034E+02
 20
1.35500008E+02
 40
4.18000031E+00
  0
CIRCLE
  8
0
 62
7
 10
-3.24000004E+02
 20
1.35500008E+02
 40
4.18000031E+00
  0
CIRCLE
  8
0
 62
7
 10
-3.24000004E+02
 20
6.55000114E+01
 40
4.18000031E+00
  0
CIRCLE
  8
0
 62
7
 10
-3.94000034E+02
 20
1.35499985E+02
 40
8.69999981E+00
  0
CIRCLE
  8
0
 62
7
 10
-3.94000034E+02
 20
6.54999847E+01
 40
8.69999981E+00
  0
ARC
  8
0
 62
7
 10
-3.83714512E+02
 20
1.28396530E+02
 40
1.00000000E+00
 50
1.45369634E+02
 51
2.24999955E+02
  0
ARC
  8
0
 62
7
 10
-3.86896580E+02
 20
1.25214508E+02
 40
1.00000000E+00
 50
4.49999910E+01
 51
1.24630380E+02
  0
ARC
  8
0
 62
7
 10
-3.61250004E+02
 20
1.42900017E+02
 40
1.00000000E+00
 50
3.59999959E+02
 51
8.99999956E+01
  0
ARC
  8
0
 62
7
 10
-3.94000034E+02
 20
1.35499985E+02
 40
1.15000010E+01
 50
2.56113404E+02
 51
1.38868930E+01
  0
ARC
  8
0
 62
7
 10
-4.01399937E+02
 20
1.02749992E+02
 40
1.00000000E+00
 50
1.79999964E+02
 51
2.69999946E+02
  0
ARC
  8
0
 62
7
 10
-3.86896580E+02
 20
7.57854767E+01
 40
1.00000000E+00
 50
2.35369648E+02
 51
3.14999968E+02
  0
ARC
  8
0
 62
7
 10
-3.83714512E+02
 20
7.26034622E+01
 40
1.00000000E+00
 50
1.34999987E+02
 51
2.14630376E+02
  0
ARC
  8
0
 62
7
 10
-4.02000034E+02
 20
1.43499992E+02
 40
3.40000010E+00
 50
9.00000231E+01
 51
1.79999977E+02
  0
ARC
  8
0
 62
7
 10
-3.61250004E+02
 20
5.81000328E+01
 40
1.00000000E+00
 50
2.69999991E+02
 51
3.59999973E+02
  0
ARC
  8
0
 62
7
 10
-4.01400059E+02
 20
9.82500000E+01
 40
1.00000000E+00
 50
8.99999549E+01
 51
1.79999991E+02
  0
ARC
  8
0
 62
7
 10
-4.02000034E+02
 20
5.75000076E+01
 40
3.40000010E+00
 50
1.80000036E+02
 51
2.69999991E+02
  0
ARC
  8
0
 62
7
 10
-3.94000034E+02
 20
6.54999847E+01
 40
1.15000010E+01
 50
3.46113659E+02
 51
1.03886911E+02
  0
ARC
  8
0
 62
7
 10
-4.02000034E+02
 20
1.43499992E+02
 40
4.00000000E+00
 50
9.00000231E+01
 51
1.79999977E+02
  0
CIRCLE
  8
0
 62
7
 10
-3.94000034E+02
 20
1.35499985E+02
 40
8.00000000E+00
  0
CIRCLE
  8
0
 62
2
 10
-3.24000004E+02
 20
1.35500008E+02
 40
5.00000000E+00
  0
CIRCLE
  8
0
 62
7
 10
-3.94000034E+02
 20
6.54999847E+01
 40
8.00000000E+00
  0
ARC
  8
0
 62
7
 10
-4.02000034E+02
 20
5.75000076E+01
 40
4.00000000E+00
 50
1.80000036E+02
 51
2.69999991E+02
  0
ARC
  8
0
 62
7
 10
-3.81500034E+02
 20
1.43000008E+02
 40
3.50000000E+00
 50
2.70000018E+02
 51
3.58726970E+02
  0
ARC
  8
0
 62
7
 10
-4.01500034E+02
 20
1.22999962E+02
 40
3.50000000E+00
 50
2.71274531E+02
 51
4.99579573E-04
  0
ARC
  8
0
 62
7
 10
-4.01399937E+02
 20
1.18501083E+02
 40
1.00000000E+00
 50
9.12747958E+01
 51
1.79999964E+02
  0
ARC
  8
0
 62
7
 10
-3.77001133E+02
 20
1.42900017E+02
 40
1.00000000E+00
 50
8.99999818E+01
 51
1.78726994E+02
  0
ARC
  8
0
 62
7
 10
-4.01500034E+02
 20
7.79999084E+01
 40
3.50000000E+00
 50
0.00000000E+00
 51
8.87269647E+01
  0
ARC
  8
0
 62
7
 10
-3.81500004E+02
 20
5.79999352E+01
 40
3.50000000E+00
 50
1.27452835E+00
 51
8.99999818E+01
  0
ARC
  8
0
 62
7
 10
-4.01400059E+02
 20
8.24987946E+01
 40
1.00000000E+00
 50
1.79999977E+02
 51
2.68726963E+02
  0
ARC
  8
0
 62
7
 10
-3.77001102E+02
 20
5.81000328E+01
 40
1.00000000E+00
 50
1.81274754E+02
 51
2.70000018E+02
  0
ARC
  8
0
 62
7
 10
-3.73594456E+02
 20
1.18276489E+02
 40
1.00000000E+00
 50
2.24999972E+02
 51
3.09385511E+02
  0
ARC
  8
0
 62
7
 10
-3.76776493E+02
 20
1.15094482E+02
 40
1.00000000E+00
 50
3.20613837E+02
 51
4.49999910E+01
  0
ARC
  8
0
 62
7
 10
-3.61250004E+02
 20
1.23389679E+02
 40
1.00000000E+00
 50
2.75613832E+02
 51
3.59999959E+02
  0
ARC
  8
0
 62
7
 10
-3.81889713E+02
 20
1.02749992E+02
 40
1.00000000E+00
 50
2.69999963E+02
 51
3.54386117E+02
  0
ARC
  8
0
 62
7
 10
-3.76776493E+02
 20
8.59055405E+01
 40
1.00000000E+00
 50
3.14999968E+02
 51
3.93854936E+01
  0
ARC
  8
0
 62
7
 10
-3.73594456E+02
 20
8.27235107E+01
 40
1.00000000E+00
 50
5.06138328E+01
 51
1.34999987E+02
  0
ARC
  8
0
 62
7
 10
-3.81889652E+02
 20
9.82500000E+01
 40
1.00000000E+00
 50
5.61382810E+00
 51
8.99999549E+01
  0
ARC
  8
0
 62
7
 10
-3.61250004E+02
 20
7.76102524E+01
 40
1.00000000E+00
 50
3.59999973E+02
 51
8.43861127E+01
  0
CIRCLE
  8
0
 62
7
 10
-3.24000004E+02
 20
6.54999847E+01
 40
8.69999981E+00
  0
ARC
  8
0
 62
7
 10
-3.34285496E+02
 20
7.26034622E+01
 40
1.00000000E+00
 50
3.25369629E+02
 51
4.49999637E+01
  0
ARC
  8
0
 62
7
 10
-3.31103458E+02
 20
7.57854767E+01
 40
1.00000000E+00
 50
2.25000000E+02
 51
3.04630388E+02
  0
ARC
  8
0
 62
7
 10
-3.16599979E+02
 20
9.82500000E+01
 40
1.00000000E+00
 50
3.59999986E+02
 51
8.99999681E+01
  0
ARC
  8
0
 62
7
 10
-3.56749973E+02
 20
5.80999832E+01
 40
1.00000000E+00
 50
1.79999951E+02
 51
2.70000001E+02
  0
ARC
  8
0
 62
7
 10
-3.15999973E+02
 20
5.75000076E+01
 40
3.40000010E+00
 50
2.70000018E+02
 51
3.59999986E+02
  0
ARC
  8
0
 62
7
 10
-3.24000004E+02
 20
6.54999847E+01
 40
1.15000010E+01
 50
7.61135653E+01
 51
1.93886777E+02
  0
ARC
  8
0
 62
7
 10
-3.15999973E+02
 20
5.75000076E+01
 40
4.00000000E+00
 50
2.70000018E+02
 51
3.59999986E+02
  0
CIRCLE
  8
0
 62
7
 10
-3.24000004E+02
 20
6.54999847E+01
 40
8.00000000E+00
  0
CIRCLE
  8
0
 62
2
 10
-3.94000034E+02
 20
1.35500008E+02
 40
5.00000000E+00
  0
ARC
  8
0
 62
7
 10
-3.16499943E+02
 20
7.80000000E+01
 40
3.50000000E+00
 50
9.12745500E+01
 51
1.79999964E+02
  0
ARC
  8
0
 62
7
 10
-3.36499943E+02
 20
5.79999847E+01
 40
3.50000000E+00
 50
8.99999818E+01
 51
1.78726994E+02
  0
ARC
  8
0
 62
7
 10
-3.16599979E+02
 20
8.24988861E+01
 40
1.00000000E+00
 50
2.71274777E+02
 51
0.00000000E+00
  0
ARC
  8
0
 62
7
 10
-3.44405521E+02
 20
8.27235107E+01
 40
1.00000000E+00
 50
4.49999637E+01
 51
1.29385489E+02
  0
ARC
  8
0
 62
7
 10
-3.41223545E+02
 20
8.59055099E+01
 40
1.00000000E+00
 50
1.40613828E+02
 51
2.24999982E+02
  0
ARC
  8
0
 62
7
 10
-3.56749973E+02
 20
7.76103134E+01
 40
1.00000000E+00
 50
9.56138240E+01
 51
1.79999951E+02
  0
ARC
  8
0
 62
7
 10
-3.36110233E+02
 20
9.82500000E+01
 40
1.00000000E+00
 50
8.99999681E+01
 51
1.74386108E+02
  0
ARC
  8
0
 62
7
 10
-3.40998844E+02
 20
5.80999680E+01
 40
1.00000000E+00
 50
2.70000018E+02
 51
3.58726970E+02
  0
CIRCLE
  8
0
 62
7
 10
-3.24000004E+02
 20
1.35499985E+02
 40
8.69999981E+00
  0
ARC
  8
0
 62
7
 10
-3.31103458E+02
 20
1.25214508E+02
 40
1.00000000E+00
 50
5.53696252E+01
 51
1.34999959E+02
  0
ARC
  8
0
 62
7
 10
-3.34285496E+02
 20
1.28396507E+02
 40
1.00000000E+00
 50
3.14999995E+02
 51
3.46303842E+01
  0
ARC
  8
0
 62
7
 10
-3.56749973E+02
 20
1.42899956E+02
 40
1.00000000E+00
 50
8.99999818E+01
 51
1.79999964E+02
  0
ARC
  8
0
 62
7
 10
-3.16599949E+02
 20
1.02749985E+02
 40
1.00000000E+00
 50
2.69999963E+02
 51
0.00000000E+00
  0
ARC
  8
0
 62
7
 10
-3.15999973E+02
 20
1.43499962E+02
 40
3.40000010E+00
 50
0.00000000E+00
 51
8.99999818E+01
  0
ARC
  8
0
 62
7
 10
-3.24000004E+02
 20
1.35499985E+02
 40
1.15000010E+01
 50
1.66113425E+02
 51
2.83886868E+02
  0
ARC
  8
0
 62
7
 10
-3.15999973E+02
 20
1.43499962E+02
 40
4.00000000E+00
 50
0.00000000E+00
 51
8.99999818E+01
  0
CIRCLE
  8
0
 62
7
 10
-3.24000004E+02
 20
1.35499985E+02
 40
8.00000000E+00
  0
ARC
  8
0
 62
7
 10
-3.16500004E+02
 20
1.23000061E+02
 40
3.50000000E+00
 50
1.79999977E+02
 51
2.68726963E+02
  0
ARC
  8
0
 62
7
 10
-3.36500004E+02
 20
1.43000053E+02
 40
3.50000000E+00
 50
1.81274508E+02
 51
2.70000018E+02
  0
ARC
  8
0
 62
7
 10
-3.16599949E+02
 20
1.18501175E+02
 40
1.00000000E+00
 50
0.00000000E+00
 51
8.87269716E+01
  0
ARC
  8
0
 62
7
 10
-3.40998905E+02
 20
1.42899956E+02
 40
1.00000000E+00
 50
1.27477808E+00
 51
8.99999818E+01
  0
ARC
  8
0
 62
7
 10
-3.41223545E+02
 20
1.15094460E+02
 40
1.00000000E+00
 50
1.34999959E+02
 51
2.19385485E+02
  0
ARC
  8
0
 62
7
 10
-3.44405521E+02
 20
1.18276489E+02
 40
1.00000000E+00
 50
2.30613841E+02
 51
3.14999995E+02
  0
ARC
  8
0
 62
7
 10
-3.36110325E+02
 20
1.02749985E+02
 40
1.00000000E+00
 50
1.85613837E+02
 51
2.69999963E+02
  0
ARC
  8
0
 62
7
 10
-3.56749973E+02
 20
1.23389748E+02
 40
1.00000000E+00
 50
1.79999964E+02
 51
2.64386104E+02
  0
CIRCLE
  8
0
 62
7
 10
-3.59000004E+02
 20
1.00500076E+02
 40
2.20000000E+01
  0
CIRCLE
  8
0
 62
7
 10
-3.59000004E+02
 20
1.00500076E+02
 40
1.95000000E+01
  0
CIRCLE
  8
0
 62
7
 10
-3.59000004E+02
 20
1.00500000E+02
 40
2.10111103E+01
  0
ARC
  8
0
 62
7
 10
-3.20999973E+02
 20
1.23365334E+02
 40
1.00000000E+00
 50
0.00000000E+00
 51
1.03886139E+02
  0
ARC
  8
0
 62
7
 10
-3.36134647E+02
 20
1.38499985E+02
 40
1.00000000E+00
 50
3.46114302E+02
 51
8.99999818E+01
  0
ARC
  8
0
 62
7
 10
-3.81865330E+02
 20
1.38500061E+02
 40
1.00000000E+00
 50
8.99999818E+01
 51
1.93887774E+02
  0
ARC
  8
0
 62
7
 10
-3.97000034E+02
 20
1.23365303E+02
 40
1.00000000E+00
 50
7.61138799E+01
 51
1.79999964E+02
  0
ARC
  8
0
 62
7
 10
-3.97000065E+02
 20
7.76346397E+01
 40
1.00000000E+00
 50
1.79999977E+02
 51
2.83886131E+02
  0
ARC
  8
0
 62
7
 10
-3.81865299E+02
 20
6.25000305E+01
 40
1.00000000E+00
 50
1.66113056E+02
 51
2.70000001E+02
  0
ARC
  8
0
 62
7
 10
-3.36134647E+02
 20
6.24999313E+01
 40
1.00000000E+00
 50
2.70000018E+02
 51
1.38869656E+01
  0
ARC
  8
0
 62
7
 10
-3.20999973E+02
 20
7.76346664E+01
 40
1.00000000E+00
 50
2.56114073E+02
 51
0.00000000E+00
  0
CIRCLE
  8
0
 62
7
 10
-3.59000004E+02
 20
1.00500000E+02
 40
1.10000267E+01
  0
CIRCLE
  8
0
 62
2
 10
-3.59000004E+02
 20
1.00500000E+02
 40
1.01800117E+01
  0
CIRCLE
  8
0
 62
7
 10
-3.59000004E+02
 20
1.00500000E+02
 40
9.50002670E+00
  0
CIRCLE
  8
0
 62
4
 10
-3.59000004E+02
 20
1.00500000E+02
 40
1.60000000E+01
  0
LINE
  8
0
 62
4
 10
-3.43000004E+02
 20
1.09737610E+02
 11
-3.43000004E+02
 21
9.12623901E+01
  0
LINE
  8
0
 62
4
 10
-3.75000004E+02
 20
1.09737610E+02
 11
-3.75000004E+02
 21
9.12623901E+01
  0
LINE
  8
0
 62
4
 10
-3.58999943E+02
 20
1.18975222E+02
 11
-3.42999970E+02
 21
1.09737641E+02
  0
LINE
  8
0
 62
4
 10
-3.74999847E+02
 20
9.12624957E+01
 11
-3.58999819E+02
 21
8.20249178E+01
  0
LINE
  8
0
 62
4
 10
-3.58999883E+02
 20
8.20248469E+01
 11
-3.43000005E+02
 21
9.12623953E+01
  0
LINE
  8
0
 62
4
 10
-3.75000038E+02
 20
1.09737581E+02
 11
-3.58999976E+02
 21
1.18975223E+02
  0
LINE
  8
0
 62
4
 10
-4.06000004E+02
 20
1.29316799E+02
 11
-4.06089042E+02
 21
1.29537177E+02
  0
LINE
  8
0
 62
4
 10
-4.06089042E+02
 20
1.29537177E+02
 11
-4.06000004E+02
 21
1.29573151E+02
  0
LINE
  8
0
 62
4
 10
-3.81073559E+02
 20
1.56361376E+02
 11
-3.90623553E+02
 21
1.52502929E+02
  0
LINE
  8
0
  6
CENTER
 62
6
 10
-3.99079811E+02
 20
1.44232972E+02
 11
-3.78287658E+02
 21
1.52633547E+02
  0
LINE
  8
0
  6
CENTER
 62
6
 10
-3.89075121E+02
 20
1.44500258E+02
 11
-3.76976535E+02
 21
1.49388404E+02
  0
LINE
  8
0
 62
4
 10
-3.97113840E+02
 20
1.49880682E+02
 11
-3.90623553E+02
 21
1.52502929E+02
  0
LINE
  8
0
 62
4
 10
-3.88602237E+02
 20
1.47499995E+02
 11
-3.90623553E+02
 21
1.52502929E+02
  0
LINE
  8
0
 62
4
 10
-3.98379672E+02
 20
1.47499999E+02
 11
-3.97113840E+02
 21
1.49880682E+02
  0
LINE
  8
0
 62
4
 10
-3.80811334E+02
 20
1.55712348E+02
 11
-3.79884151E+02
 21
1.56086954E+02
  0
ARC
  8
0
 62
4
 10
-3.76513128E+02
 20
1.50762020E+02
 40
1.00000000E+00
 50
3.40723662E+02
 51
9.17248994E+00
  0
ARC
  8
0
 62
4
 10
-3.78311240E+02
 20
1.55212503E+02
 40
1.00000000E+00
 50
3.48275100E+01
 51
1.12000000E+02
  0
ARC
  8
0
 62
4
 10
-3.87184900E+02
 20
1.49038828E+02
 40
1.18100000E+01
 50
9.17248994E+00
 51
3.48275100E+01
  0
LINE
  8
0
 62
4
 10
-3.79734308E+02
 20
1.55716081E+02
 11
-3.78686590E+02
 21
1.56139386E+02
  0
LINE
  8
0
 62
4
 10
-3.78704140E+02
 20
1.53166325E+02
 11
-3.79884151E+02
 21
1.56086954E+02
  0
LINE
  8
0
 62
4
 10
-3.77083484E+02
 20
1.47499991E+02
 11
-3.79278994E+02
 21
1.52934069E+02
  0
LINE
  8
0
 62
4
 10
-3.79575133E+02
 20
1.52652641E+02
 11
-3.79222803E+02
 21
1.52794992E+02
  0
LINE
  8
0
 62
4
 10
-3.79278994E+02
 20
1.52934069E+02
 11
-3.77647150E+02
 21
1.53593377E+02
  0
ARC
  8
0
 62
4
 10
-3.86349841E+02
 20
1.45609688E+02
 40
1.18100000E+01
 50
2.20000000E+01
 51
4.25326990E+01
  0
ARC
  8
0
 62
4
 10
-3.86344043E+02
 20
1.45595339E+02
 40
1.18100000E+01
 50
9.28087917E+00
 51
2.20000000E+01
  0
LINE
  8
0
 62
4
 10
-3.77493327E+02
 20
1.47499991E+02
 11
-3.81073559E+02
 21
1.56361376E+02
  0
LINE
  8
0
 62
4
 10
-3.11910935E+02
 20
1.29537177E+02
 11
-3.11999973E+02
 21
1.29573151E+02
  0
LINE
  8
0
  6
CENTER
 62
6
 10
-3.28924856E+02
 20
1.44500258E+02
 11
-3.41023442E+02
 21
1.49388404E+02
  0
LINE
  8
0
  6
CENTER
 62
6
 10
-3.18920166E+02
 20
1.44232972E+02
 11
-3.39712319E+02
 21
1.52633547E+02
  0
LINE
  8
0
 62
4
 10
-3.36926418E+02
 20
1.56361376E+02
 11
-3.27376424E+02
 21
1.52502929E+02
  0
LINE
  8
0
 62
4
 10
-3.20886137E+02
 20
1.49880682E+02
 11
-3.27376424E+02
 21
1.52502929E+02
  0
LINE
  8
0
 62
4
 10
-3.29397749E+02
 20
1.47499974E+02
 11
-3.27376424E+02
 21
1.52502929E+02
  0
LINE
  8
0
 62
4
 10
-3.19620291E+02
 20
1.47499971E+02
 11
-3.20886137E+02
 21
1.49880682E+02
  0
LINE
  8
0
 62
4
 10
-3.40035653E+02
 20
1.48665750E+02
 11
-3.40962837E+02
 21
1.49040357E+02
  0
LINE
  8
0
 62
4
 10
-3.37188643E+02
 20
1.55712348E+02
 11
-3.38115826E+02
 21
1.56086954E+02
  0
ARC
  8
0
 62
4
 10
-3.41486849E+02
 20
1.50762020E+02
 40
1.00000000E+00
 50
1.70827510E+02
 51
2.48000000E+02
  0
ARC
  8
0
 62
4
 10
-3.39688737E+02
 20
1.55212503E+02
 40
1.00000000E+00
 50
6.79999999E+01
 51
1.45172490E+02
  0
LINE
  8
0
 62
4
 10
-3.40812994E+02
 20
1.49411231E+02
 11
-3.41860712E+02
 21
1.49834536E+02
  0
LINE
  8
0
 62
4
 10
-3.38265669E+02
 20
1.55716081E+02
 11
-3.39313387E+02
 21
1.56139386E+02
  0
LINE
  8
0
 62
4
 10
-3.40962837E+02
 20
1.49040357E+02
 11
-3.38115826E+02
 21
1.56086954E+02
  0
ARC
  8
0
 62
4
 10
-3.30815078E+02
 20
1.49038828E+02
 40
1.18100000E+01
 50
1.45172490E+02
 51
1.70827510E+02
  0
LINE
  8
0
 62
4
 10
-3.40916498E+02
 20
1.47499978E+02
 11
-3.40387983E+02
 21
1.48808101E+02
  0
ARC
  8
0
 62
4
 10
-3.31650136E+02
 20
1.45609688E+02
 40
1.18100000E+01
 50
1.55900933E+02
 51
1.58000000E+02
  0
ARC
  8
0
 62
4
 10
-3.31655934E+02
 20
1.45595339E+02
 40
1.18100000E+01
 50
1.58000000E+02
 51
1.70719176E+02
  0
LINE
  8
0
 62
4
 10
-3.40506655E+02
 20
1.47499978E+02
 11
-3.36926418E+02
 21
1.56361376E+02
  0
LINE
  8
0
 62
4
 10
-3.11999973E+02
 20
1.29316799E+02
 11
-3.11910935E+02
 21
1.29537177E+02
  0
LINE
  8
0
 62
7
 10
3.75999996E+02
 20
9.18397460E+01
 11
3.75999996E+02
 21
1.09160254E+02
  0
LINE
  8
0
 62
7
 10
3.97999973E+02
 20
9.56781540E+01
 11
3.97999973E+02
 21
1.05321846E+02
  0
LINE
  8
0
 62
7
 10
3.90999996E+02
 20
8.31794919E+01
 11
3.75999996E+02
 21
9.18397460E+01
  0
LINE
  8
0
 62
7
 10
3.83999999E+02
 20
9.56781845E+01
 11
3.83999999E+02
 21
1.05321815E+02
  0
LINE
  8
0
 62
7
 10
3.95821812E+02
 20
9.35000025E+01
 11
3.86178150E+02
 21
9.35000235E+01
  0
LINE
  8
0
 62
7
 10
4.05999996E+02
 20
9.18397460E+01
 11
3.90999996E+02
 21
8.31794919E+01
  0
LINE
  8
0
 62
7
 10
4.05999996E+02
 20
9.18397460E+01
 11
4.05999996E+02
 21
1.09160254E+02
  0
ARC
  8
0
 62
7
 10
3.47999966E+02
 20
5.75000076E+01
 40
4.00000000E+00
 50
1.80000022E+02
 51
2.69999977E+02
  0
LINE
  8
0
 62
4
 10
3.43999966E+02
 20
7.16831933E+01
 11
3.43910927E+02
 21
7.14628157E+01
  0
LINE
  8
0
 62
4
 10
3.43910927E+02
 20
7.14628157E+01
 11
3.43999966E+02
 21
7.14268418E+01
  0
CIRCLE
  8
0
 62
2
 10
3.55999966E+02
 20
6.54999924E+01
 40
5.00000000E+00
  0
CIRCLE
  8
0
 62
7
 10
3.55999966E+02
 20
6.54999924E+01
 40
4.18000031E+00
  0
LINE
  8
0
  6
CENTER
 62
2
 10
3.55999966E+02
 20
5.13146591E+01
 11
3.55999966E+02
 21
8.00383759E+01
  0
LINE
  8
0
  6
CENTER
 62
2
 10
3.41444546E+02
 20
6.54999924E+01
 11
3.70691006E+02
 21
6.54999924E+01
  0
CIRCLE
  8
0
 62
7
 10
3.55999966E+02
 20
6.55000153E+01
 40
8.69999981E+00
  0
CIRCLE
  8
0
 62
7
 10
3.55999966E+02
 20
6.55000153E+01
 40
8.00000000E+00
  0
LINE
  8
0
 62
7
 10
3.43999996E+02
 20
5.75000076E+01
 11
3.43999996E+02
 21
1.43499992E+02
  0
CIRCLE
  8
0
 62
2
 10
4.25999996E+02
 20
6.54999924E+01
 40
5.00000000E+00
  0
CIRCLE
  8
0
 62
7
 10
4.25999996E+02
 20
6.54999924E+01
 40
4.18000031E+00
  0
LINE
  8
0
  6
CENTER
 62
2
 10
4.25999996E+02
 20
5.11273270E+01
 11
4.25999996E+02
 21
8.08642273E+01
  0
LINE
  8
0
  6
CENTER
 62
2
 10
4.11777889E+02
 20
6.54999924E+01
 11
4.40987759E+02
 21
6.54999924E+01
  0
CIRCLE
  8
0
 62
7
 10
4.25999996E+02
 20
6.55000153E+01
 40
8.69999981E+00
  0
CIRCLE
  8
0
 62
7
 10
4.25999996E+02
 20
6.55000153E+01
 40
8.00000000E+00
  0
ARC
  8
0
 62
7
 10
4.34000027E+02
 20
5.75000381E+01
 40
4.00000000E+00
 50
2.70000018E+02
 51
0.00000000E+00
  0
LINE
  8
0
 62
7
 10
4.38000027E+02
 20
5.75000381E+01
 11
4.38000027E+02
 21
1.43499962E+02
  0
LINE
  8
0
  6
CENTER
 62
2
 10
3.90999996E+02
 20
4.96442337E+01
 11
3.90999996E+02
 21
1.51355766E+02
  0
LINE
  8
0
 62
7
 10
3.48000088E+02
 20
5.34999924E+01
 11
4.34000027E+02
 21
5.35000229E+01
  0
LINE
  8
0
  6
CENTER
 62
2
 10
3.55999966E+02
 20
1.49685341E+02
 11
3.55999966E+02
 21
1.20961624E+02
  0
LINE
  8
0
  6
CENTER
 62
2
 10
4.25999996E+02
 20
1.49872673E+02
 11
4.25999996E+02
 21
1.20135773E+02
  0
LINE
  8
0
  6
CENTER
 62
2
 10
3.41444546E+02
 20
1.35500008E+02
 11
3.70691006E+02
 21
1.35500008E+02
  0
LINE
  8
0
  6
CENTER
 62
2
 10
3.75000027E+02
 20
1.50076958E+02
 11
3.75000027E+02
 21
1.09871834E+02
  0
LINE
  8
0
 62
7
 10
3.48000088E+02
 20
1.47500008E+02
 11
4.34000027E+02
 21
1.47499977E+02
  0
LINE
  8
0
  6
CENTER
 62
2
 10
4.11777889E+02
 20
1.35500008E+02
 11
4.40987759E+02
 21
1.35500008E+02
  0
LINE
  8
0
  6
CENTER
 62
2
 10
4.01999996E+02
 20
1.12496483E+02
 11
4.01999996E+02
 21
1.50073448E+02
  0
LINE
  8
0
  6
CENTER
 62
2
 10
4.42534847E+02
 20
1.00500000E+02
 11
3.40534573E+02
 21
1.00500000E+02
  0
CIRCLE
  8
0
 62
7
 10
3.55999966E+02
 20
1.35500008E+02
 40
4.18000031E+00
  0
CIRCLE
  8
0
 62
7
 10
4.25999996E+02
 20
1.35500008E+02
 40
4.18000031E+00
  0
CIRCLE
  8
0
 62
7
 10
3.55999966E+02
 20
1.35499985E+02
 40
8.69999981E+00
  0
ARC
  8
0
 62
7
 10
3.47999966E+02
 20
1.43499992E+02
 40
4.00000000E+00
 50
9.00000231E+01
 51
1.79999977E+02
  0
CIRCLE
  8
0
 62
7
 10
3.55999966E+02
 20
1.35499985E+02
 40
8.00000000E+00
  0
CIRCLE
  8
0
 62
2
 10
4.25999996E+02
 20
1.35500008E+02
 40
5.00000000E+00
  0
CIRCLE
  8
0
 62
2
 10
3.55999966E+02
 20
1.35500008E+02
 40
5.00000000E+00
  0
CIRCLE
  8
0
 62
7
 10
4.25999996E+02
 20
1.35499985E+02
 40
8.69999981E+00
  0
ARC
  8
0
 62
7
 10
4.34000027E+02
 20
1.43499962E+02
 40
4.00000000E+00
 50
0.00000000E+00
 51
8.99999818E+01
  0
CIRCLE
  8
0
 62
7
 10
4.25999996E+02
 20
1.35499985E+02
 40
8.00000000E+00
  0
CIRCLE
  8
0
 62
7
 10
3.90999996E+02
 20
1.00500000E+02
 40
1.82500305E+01
  0
CIRCLE
  8
0
 62
7
 10
3.90999996E+02
 20
1.00500000E+02
 40
1.50000000E+01
  0
LINE
  8
0
 62
7
 10
3.90999996E+02
 20
1.17820508E+02
 11
3.75999996E+02
 21
1.09160254E+02
  0
LINE
  8
0
 62
7
 10
4.05999996E+02
 20
1.09160254E+02
 11
3.90999996E+02
 21
1.17820508E+02
  0
CIRCLE
  8
0
 62
7
 10
3.90999996E+02
 20
1.00500000E+02
 40
1.00000076E+01
  0
CIRCLE
  8
0
 62
2
 10
3.90999996E+02
 20
1.00500000E+02
 40
9.18000031E+00
  0
CIRCLE
  8
0
 62
7
 10
3.90999996E+02
 20
1.00500000E+02
 40
8.99994659E+00
  0
CIRCLE
  8
0
 62
7
 10
3.90999996E+02
 20
1.00500000E+02
 40
8.49999237E+00
  0
LINE
  8
0
 62
7
 10
3.95821812E+02
 20
1.07499998E+02
 11
3.86178150E+02
 21
1.07499977E+02
  0
LINE
  8
0
 62
4
 10
4.37999996E+02
 20
1.29316807E+02
 11
4.38089035E+02
 21
1.29537184E+02
  0
LINE
  8
0
 62
4
 10
4.09493314E+02
 20
1.47499986E+02
 11
4.13073551E+02
 21
1.56361384E+02
  0
ARC
  8
0
 62
4
 10
4.18344035E+02
 20
1.45595346E+02
 40
1.18100000E+01
 50
1.58000000E+02
 51
1.70719176E+02
  0
ARC
  8
0
 62
4
 10
4.18349833E+02
 20
1.45609696E+02
 40
1.18100000E+01
 50
1.55900933E+02
 51
1.58000000E+02
  0
LINE
  8
0
 62
4
 10
4.09083471E+02
 20
1.47499986E+02
 11
4.09611987E+02
 21
1.48808109E+02
  0
ARC
  8
0
 62
4
 10
4.19184892E+02
 20
1.49038836E+02
 40
1.18100000E+01
 50
1.45172490E+02
 51
1.70827510E+02
  0
LINE
  8
0
 62
4
 10
4.09037133E+02
 20
1.49040365E+02
 11
4.11884143E+02
 21
1.56086962E+02
  0
LINE
  8
0
 62
4
 10
4.11734300E+02
 20
1.55716088E+02
 11
4.10686583E+02
 21
1.56139394E+02
  0
LINE
  8
0
 62
4
 10
4.09186976E+02
 20
1.49411238E+02
 11
4.08139258E+02
 21
1.49834544E+02
  0
ARC
  8
0
 62
4
 10
4.10311232E+02
 20
1.55212511E+02
 40
1.00000000E+00
 50
6.79999999E+01
 51
1.45172490E+02
  0
ARC
  8
0
 62
4
 10
4.08513120E+02
 20
1.50762028E+02
 40
1.00000000E+00
 50
1.70827510E+02
 51
2.48000000E+02
  0
LINE
  8
0
 62
4
 10
4.12811327E+02
 20
1.55712355E+02
 11
4.11884143E+02
 21
1.56086962E+02
  0
LINE
  8
0
 62
4
 10
4.09964317E+02
 20
1.48665758E+02
 11
4.09037133E+02
 21
1.49040365E+02
  0
LINE
  8
0
 62
4
 10
4.30379679E+02
 20
1.47499978E+02
 11
4.29113832E+02
 21
1.49880690E+02
  0
LINE
  8
0
 62
4
 10
4.20602220E+02
 20
1.47499982E+02
 11
4.22623545E+02
 21
1.52502936E+02
  0
LINE
  8
0
 62
4
 10
4.29113832E+02
 20
1.49880690E+02
 11
4.22623545E+02
 21
1.52502936E+02
  0
LINE
  8
0
 62
4
 10
4.13073551E+02
 20
1.56361384E+02
 11
4.22623545E+02
 21
1.52502936E+02
  0
LINE
  8
0
  6
CENTER
 62
6
 10
4.22993673E+02
 20
1.47499989E+02
 11
4.10287650E+02
 21
1.52633555E+02
  0
LINE
  8
0
  6
CENTER
 62
6
 10
4.13650529E+02
 20
1.47499992E+02
 11
4.08976527E+02
 21
1.49388411E+02
  0
LINE
  8
0
 62
4
 10
4.38089035E+02
 20
1.29537184E+02
 11
4.37999996E+02
 21
1.29573158E+02
  0
LINE
  8
0
 62
4
 10
3.72506642E+02
 20
1.47499999E+02
 11
3.68926410E+02
 21
1.56361384E+02
  0
ARC
  8
0
 62
4
 10
3.63655926E+02
 20
1.45595346E+02
 40
1.18100000E+01
 50
9.28087917E+00
 51
2.20000000E+01
  0
ARC
  8
0
 62
4
 10
3.63650129E+02
 20
1.45609696E+02
 40
1.18100000E+01
 50
2.20000000E+01
 51
4.25326990E+01
  0
LINE
  8
0
 62
4
 10
3.70720976E+02
 20
1.52934077E+02
 11
3.72352819E+02
 21
1.53593384E+02
  0
LINE
  8
0
 62
4
 10
3.70424837E+02
 20
1.52652649E+02
 11
3.70777167E+02
 21
1.52794999E+02
  0
LINE
  8
0
 62
4
 10
3.72916486E+02
 20
1.47499999E+02
 11
3.70720976E+02
 21
1.52934077E+02
  0
LINE
  8
0
 62
4
 10
3.71295830E+02
 20
1.53166333E+02
 11
3.70115819E+02
 21
1.56086962E+02
  0
LINE
  8
0
 62
4
 10
3.70265661E+02
 20
1.55716088E+02
 11
3.71313379E+02
 21
1.56139394E+02
  0
ARC
  8
0
 62
4
 10
3.62815070E+02
 20
1.49038836E+02
 40
1.18100000E+01
 50
9.17248994E+00
 51
3.48275100E+01
  0
ARC
  8
0
 62
4
 10
3.71688730E+02
 20
1.55212511E+02
 40
1.00000000E+00
 50
3.48275100E+01
 51
1.12000000E+02
  0
ARC
  8
0
 62
4
 10
3.73486842E+02
 20
1.50762028E+02
 40
1.00000000E+00
 50
3.40723662E+02
 51
9.17248994E+00
  0
LINE
  8
0
 62
4
 10
3.69188635E+02
 20
1.55712355E+02
 11
3.70115819E+02
 21
1.56086962E+02
  0
LINE
  8
0
 62
4
 10
3.51620298E+02
 20
1.47500006E+02
 11
3.52886130E+02
 21
1.49880690E+02
  0
LINE
  8
0
 62
4
 10
3.61397733E+02
 20
1.47500003E+02
 11
3.59376417E+02
 21
1.52502936E+02
  0
LINE
  8
0
 62
4
 10
3.52886130E+02
 20
1.49880690E+02
 11
3.59376417E+02
 21
1.52502936E+02
  0
LINE
  8
0
  6
CENTER
 62
6
 10
3.68349472E+02
 20
1.47500008E+02
 11
3.73023435E+02
 21
1.49388411E+02
  0
LINE
  8
0
  6
CENTER
 62
6
 10
3.59006345E+02
 20
1.47500011E+02
 11
3.71712312E+02
 21
1.52633555E+02
  0
LINE
  8
0
 62
4
 10
3.68926410E+02
 20
1.56361384E+02
 11
3.59376417E+02
 21
1.52502936E+02
  0
LINE
  8
0
 62
4
 10
3.43910927E+02
 20
1.29537184E+02
 11
3.43999966E+02
 21
1.29573158E+02
  0
LINE
  8
0
 62
4
 10
3.43999966E+02
 20
1.29316807E+02
 11
3.43910927E+02
 21
1.29537184E+02
  0
LINE
  8
0
  6
PHANTOM
 10
-2.45000000E+01
 20
1.90686885E+02
 11
-2.45000000E+01
 21
3.53816712E+02
  0
LINE
  8
0
  6
CENTER
 62
2
 10
-2.02798344E+02
 20
2.80500000E+02
 11
1.81566090E+02
 21
2.80500000E+02
  0
LINE
  8
0
 62
7
 10
-1.18508718E+02
 20
3.26880395E+02
 11
-8.30000122E+01
 21
3.27500202E+02
  0
LINE
  8
0
 62
7
 10
-1.19000004E+02
 20
3.26380280E+02
 11
-1.19000004E+02
 21
2.34619720E+02
  0
LINE
  8
0
 62
7
 10
-8.29999886E+01
 20
3.27500000E+02
 11
-8.29999886E+01
 21
2.33500031E+02
  0
LINE
  8
0
 62
7
 10
-1.18508801E+02
 20
2.34119964E+02
 11
-8.30000337E+01
 21
2.33500156E+02
  0
LINE
  8
0
 62
7
 10
-1.14999989E+02
 20
3.08500031E+02
 11
-1.14999989E+02
 21
2.52500015E+02
  0
LINE
  8
0
 62
7
 10
-1.12999989E+02
 20
3.10499969E+02
 11
-8.29999886E+01
 21
3.10499969E+02
  0
LINE
  8
0
 62
7
 10
-1.12999989E+02
 20
2.50499969E+02
 11
-8.29999886E+01
 21
2.50499969E+02
  0
LINE
  8
0
 62
7
 10
-1.39499943E+02
 20
2.99999969E+02
 11
-1.34999943E+02
 21
2.99999969E+02
  0
LINE
  8
0
 62
7
 10
-1.35000004E+02
 20
3.01063263E+02
 11
-1.35000004E+02
 21
2.59971756E+02
  0
LINE
  8
0
 62
7
 10
-1.39999973E+02
 20
2.99500015E+02
 11
-1.39999973E+02
 21
2.61500000E+02
  0
LINE
  8
0
 62
7
 10
-1.39499943E+02
 20
2.60999969E+02
 11
-1.34999943E+02
 21
2.60999969E+02
  0
LINE
  8
0
 62
7
 10
-1.20499989E+02
 20
2.58499924E+02
 11
-1.18999973E+02
 21
2.58499924E+02
  0
LINE
  8
0
 62
7
 10
-1.34517505E+02
 20
2.59472288E+02
 11
-1.21000049E+02
 21
2.59000248E+02
  0
LINE
  8
0
 62
7
 10
-1.20499989E+02
 20
3.02499969E+02
 11
-1.18999973E+02
 21
3.02499969E+02
  0
LINE
  8
0
 62
7
 10
-1.34517510E+02
 20
3.01528138E+02
 11
-1.21000039E+02
 21
3.02000178E+02
  0
LINE
  8
0
 62
7
 10
-1.20999989E+02
 20
2.59000031E+02
 11
-1.20999989E+02
 21
3.02000000E+02
  0
LINE
  8
0
 62
7
 10
-8.82678903E+01
 20
2.64499860E+02
 11
-8.91338990E+01
 21
2.65999840E+02
  0
LINE
  8
0
 62
7
 10
-8.91339760E+01
 20
2.65999924E+02
 11
-9.08660469E+01
 21
2.65999924E+02
  0
LINE
  8
0
 62
7
 10
-9.17317630E+01
 20
2.64499688E+02
 11
-9.08657467E+01
 21
2.65999681E+02
  0
LINE
  8
0
  6
CENTER
 62
2
 10
-8.99999886E+01
 20
2.72047714E+02
 11
-8.99999886E+01
 21
2.57434326E+02
  0
LINE
  8
0
 62
7
 10
6.35086608E+01
 20
2.34119649E+02
 11
2.79999396E+01
 21
2.33499847E+02
  0
LINE
  8
0
 62
7
 10
6.40000000E+01
 20
2.33499985E+02
 11
6.40000000E+01
 21
3.27500000E+02
  0
LINE
  8
0
 62
7
 10
2.79999886E+01
 20
2.33499924E+02
 11
2.79999886E+01
 21
3.27499939E+02
  0
LINE
  8
0
 62
7
 10
6.35086972E+01
 20
3.26880188E+02
 11
2.79999608E+01
 21
3.27500001E+02
  0
LINE
  8
0
 62
7
 10
5.99999847E+01
 20
2.52499939E+02
 11
5.99999847E+01
 21
3.08499939E+02
  0
LINE
  8
0
 62
7
 10
5.79999657E+01
 20
2.50499969E+02
 11
2.79999657E+01
 21
2.50499969E+02
  0
LINE
  8
0
 62
7
 10
5.79999657E+01
 20
3.10499969E+02
 11
2.79999657E+01
 21
3.10499969E+02
  0
LINE
  8
0
  6
CENTER
 62
2
 10
-9.81945686E+01
 20
2.64499939E+02
 11
-8.19255714E+01
 21
2.64499939E+02
  0
LINE
  8
0
 62
7
 10
8.90000000E+01
 20
2.65500000E+02
 11
1.04999996E+02
 21
2.65500000E+02
  0
LINE
  8
0
 62
7
 10
8.90000000E+01
 20
2.80500000E+02
 11
1.03383429E+02
 21
2.80500000E+02
  0
LINE
  8
0
 62
7
 10
8.90000000E+01
 20
2.95500000E+02
 11
1.04999996E+02
 21
2.95500000E+02
  0
LINE
  8
0
 62
7
 10
8.59999943E+01
 20
2.98750015E+02
 11
8.90000000E+01
 21
2.98750015E+02
  0
LINE
  8
0
 62
7
 10
6.40000000E+01
 20
3.27500000E+02
 11
8.59999943E+01
 21
3.27500000E+02
  0
LINE
  8
0
 62
7
 10
-8.82676925E+01
 20
2.64499826E+02
 11
-8.91337355E+01
 21
2.62999787E+02
  0
LINE
  8
0
 62
7
 10
-8.91339760E+01
 20
2.62999924E+02
 11
-9.08660469E+01
 21
2.62999924E+02
  0
LINE
  8
0
 62
7
 10
-9.08659506E+01
 20
2.62999878E+02
 11
-9.17320203E+01
 21
2.64499964E+02
  0
LINE
  8
0
 62
7
 10
2.79999886E+01
 20
2.36999969E+02
 11
4.99998856E+00
 21
2.36999969E+02
  0
LINE
  8
0
  6
CENTER
 62
2
 10
9.20694561E+01
 20
2.45499969E+02
 11
-1.21524494E+02
 21
2.45499969E+02
  0
LINE
  8
0
 62
7
 10
2.79999886E+01
 20
2.49999969E+02
 11
1.99999886E+01
 21
2.49999969E+02
  0
LINE
  8
0
 62
7
 10
2.79999886E+01
 20
2.40999985E+02
 11
4.99998856E+00
 21
2.40999985E+02
  0
LINE
  8
0
  6
CENTER
 62
2
 10
3.49999886E+01
 20
2.72047775E+02
 11
3.49999886E+01
 21
2.57434372E+02
  0
LINE
  8
0
  6
CENTER
 62
2
 10
2.68054314E+01
 20
2.64499985E+02
 11
4.30744286E+01
 21
2.64499985E+02
  0
LINE
  8
0
 62
7
 10
3.67320922E+01
 20
2.64499854E+02
 11
3.58660759E+01
 21
2.65999847E+02
  0
LINE
  8
0
 62
7
 10
3.58660240E+01
 20
2.65999969E+02
 11
3.41339226E+01
 21
2.65999969E+02
  0
LINE
  8
0
 62
7
 10
3.32682302E+01
 20
2.64499759E+02
 11
3.41342541E+01
 21
2.65999765E+02
  0
LINE
  8
0
 62
7
 10
3.41339444E+01
 20
2.62999963E+02
 11
3.32678747E+01
 21
2.64500048E+02
  0
LINE
  8
0
 62
7
 10
3.58660240E+01
 20
2.62999939E+02
 11
3.41339226E+01
 21
2.62999939E+02
  0
LINE
  8
0
 62
7
 10
3.67322646E+01
 20
2.64499865E+02
 11
3.58662254E+01
 21
2.62999832E+02
  0
LINE
  8
0
 62
7
 10
2.79999886E+01
 20
3.11000031E+02
 11
-3.89999886E+01
 21
3.11000031E+02
  0
LINE
  8
0
  6
CENTER
 62
2
 10
9.14528370E+01
 20
3.15500000E+02
 11
-1.21524494E+02
 21
3.15500000E+02
  0
LINE
  8
0
 62
7
 10
2.79999886E+01
 20
3.20000000E+02
 11
-3.89999886E+01
 21
3.20000000E+02
  0
LINE
  8
0
 62
7
 10
2.79999886E+01
 20
3.24000000E+02
 11
-3.89999886E+01
 21
3.24000000E+02
  0
LINE
  8
0
 62
7
 10
1.66999996E+02
 20
2.85321823E+02
 11
1.76999996E+02
 21
2.85321823E+02
  0
LINE
  8
0
 62
7
 10
1.67000000E+02
 20
2.89000000E+02
 11
1.67000000E+02
 21
2.87499985E+02
  0
LINE
  8
0
 62
7
 10
1.66999996E+02
 20
2.87499985E+02
 11
1.76999996E+02
 21
2.87499985E+02
  0
LINE
  8
0
 62
7
 10
1.64999992E+02
 20
2.89000000E+02
 11
1.66999996E+02
 21
2.89000000E+02
  0
LINE
  8
0
 62
7
 10
1.64000031E+02
 20
2.90499991E+02
 11
1.65000022E+02
 21
2.89500001E+02
  0
LINE
  8
0
 62
2
 10
1.04999996E+02
 20
2.89679993E+02
 11
1.64819992E+02
 21
2.89679993E+02
  0
LINE
  8
0
 62
7
 10
1.04999996E+02
 20
2.90500000E+02
 11
1.63999996E+02
 21
2.90500000E+02
  0
LINE
  8
0
 62
2
 10
1.66999981E+02
 20
2.85321814E+02
 11
1.76999976E+02
 21
2.75678163E+02
  0
LINE
  8
0
 62
2
 10
1.66999988E+02
 20
2.75678174E+02
 11
1.76999994E+02
 21
2.85321835E+02
  0
LINE
  8
0
 62
7
 10
1.67000000E+02
 20
2.73500000E+02
 11
1.67000000E+02
 21
2.71999985E+02
  0
LINE
  8
0
 62
7
 10
1.67000000E+02
 20
2.85321823E+02
 11
1.67000000E+02
 21
2.75678162E+02
  0
LINE
  8
0
 62
7
 10
1.66999996E+02
 20
2.75678162E+02
 11
1.76999996E+02
 21
2.75678162E+02
  0
LINE
  8
0
 62
7
 10
1.66999996E+02
 20
2.73500000E+02
 11
1.76999996E+02
 21
2.73500000E+02
  0
LINE
  8
0
 62
7
 10
1.64999992E+02
 20
2.71999985E+02
 11
1.66999996E+02
 21
2.71999985E+02
  0
LINE
  8
0
 62
7
 10
1.63999996E+02
 20
2.90500000E+02
 11
1.63999996E+02
 21
2.70500000E+02
  0
LINE
  8
0
 62
7
 10
1.64000010E+02
 20
2.70499992E+02
 11
1.65000000E+02
 21
2.71499982E+02
  0
LINE
  8
0
 62
7
 10
1.04999996E+02
 20
2.70500000E+02
 11
1.63999996E+02
 21
2.70500000E+02
  0
LINE
  8
0
 62
2
 10
1.04999996E+02
 20
2.71320007E+02
 11
1.64819996E+02
 21
2.71320007E+02
  0
LINE
  8
0
 62
7
 10
1.77000004E+02
 20
2.87499985E+02
 11
1.77000004E+02
 21
2.73500000E+02
  0
LINE
  8
0
 62
7
 10
1.65000008E+02
 20
2.89499985E+02
 11
1.65000008E+02
 21
2.71499985E+02
  0
LINE
  8
0
 62
7
 10
1.04999996E+02
 20
2.95500000E+02
 11
1.04999996E+02
 21
2.65500000E+02
  0
LINE
  8
0
 62
7
 10
8.59999943E+01
 20
3.27500000E+02
 11
8.59999943E+01
 21
2.33499985E+02
  0
LINE
  8
0
 62
7
 10
8.90000000E+01
 20
2.98750015E+02
 11
8.90000000E+01
 21
2.62249969E+02
  0
LINE
  8
0
 62
7
 10
8.59999943E+01
 20
2.62249969E+02
 11
8.90000000E+01
 21
2.62249969E+02
  0
LINE
  8
0
 62
7
 10
6.40000000E+01
 20
2.33499985E+02
 11
8.59999943E+01
 21
2.33499985E+02
  0
LINE
  8
0
 62
7
 10
-1.42000141E+02
 20
2.93000000E+02
 11
-1.39999989E+02
 21
2.93000000E+02
  0
LINE
  8
0
 62
7
 10
-1.42000004E+02
 20
2.67999954E+02
 11
-1.40000019E+02
 21
2.67999954E+02
  0
LINE
  8
0
 62
7
 10
-1.50999989E+02
 20
2.91000000E+02
 11
-1.50999989E+02
 21
2.70000000E+02
  0
LINE
  8
0
 62
7
 10
-1.53999989E+02
 20
2.69999969E+02
 11
-1.53999989E+02
 21
2.91000000E+02
  0
LINE
  8
0
 62
7
 10
-1.94000004E+02
 20
2.71000122E+02
 11
-1.94000004E+02
 21
2.89999939E+02
  0
LINE
  8
0
 62
7
 10
-1.56999989E+02
 20
2.69500000E+02
 11
-1.56999989E+02
 21
2.91500031E+02
  0
LINE
  8
0
 62
7
 10
-1.92500065E+02
 20
2.91500031E+02
 11
-1.81999996E+02
 21
2.91500031E+02
  0
LINE
  8
0
 62
7
 10
-1.92500004E+02
 20
2.69500000E+02
 11
-1.92500004E+02
 21
2.91500031E+02
  0
LINE
  8
0
 62
7
 10
-1.93999970E+02
 20
2.89999900E+02
 11
-1.92499936E+02
 21
2.91499934E+02
  0
LINE
  8
0
 62
2
 10
-1.93320011E+02
 20
2.90680023E+02
 11
-1.81999996E+02
 21
2.90680023E+02
  0
LINE
  8
0
 62
7
 10
-1.92500065E+02
 20
2.69500000E+02
 11
-1.81999996E+02
 21
2.69500000E+02
  0
LINE
  8
0
 62
7
 10
-1.93999982E+02
 20
2.71000062E+02
 11
-1.92499991E+02
 21
2.69500071E+02
  0
LINE
  8
0
 62
2
 10
-1.93320011E+02
 20
2.70320023E+02
 11
-1.81999996E+02
 21
2.70320023E+02
  0
LINE
  8
0
 62
7
 10
-1.54000004E+02
 20
2.91000000E+02
 11
-1.44000156E+02
 21
2.91000000E+02
  0
LINE
  8
0
 62
7
 10
-1.54000004E+02
 20
2.70000000E+02
 11
-1.44000050E+02
 21
2.70000000E+02
  0
LINE
  8
0
 62
7
 10
-1.44000045E+02
 20
2.69999986E+02
 11
-1.41999999E+02
 21
2.67999941E+02
  0
LINE
  8
0
 62
7
 10
-1.44000109E+02
 20
2.91000095E+02
 11
-1.42000150E+02
 21
2.93000054E+02
  0
LINE
  8
0
 62
7
 10
-1.56999989E+02
 20
2.90680023E+02
 11
-1.53999989E+02
 21
2.90680023E+02
  0
LINE
  8
0
 62
7
 10
-1.56999989E+02
 20
2.70320023E+02
 11
-1.53999989E+02
 21
2.70320023E+02
  0
LINE
  8
0
  6
CENTER
 62
2
 10
-9.90000038E+01
 20
2.77394119E+02
 11
-9.90000038E+01
 21
3.05323242E+02
  0
LINE
  8
0
  6
CENTER
 62
2
 10
-8.52976723E+01
 20
2.91499924E+02
 11
-1.13094929E+02
 21
2.91499924E+02
  0
LINE
  8
0
  6
CENTER
 62
2
 10
4.39999733E+01
 20
2.77394180E+02
 11
4.39999733E+01
 21
3.05323303E+02
  0
LINE
  8
0
  6
CENTER
 62
2
 10
5.77023048E+01
 20
2.91499985E+02
 11
2.99050484E+01
 21
2.91499985E+02
  0
CIRCLE
  8
0
 62
7
 10
3.49999886E+01
 20
2.64499985E+02
 40
2.59999990E+00
  0
CIRCLE
  8
0
 62
7
 10
-8.99999886E+01
 20
2.64499939E+02
 40
2.59999990E+00
  0
ARC
  8
0
 62
7
 10
-1.18499973E+02
 20
3.26380280E+02
 40
5.00000000E-01
 50
9.10002493E+01
 51
1.79999951E+02
  0
ARC
  8
0
 62
7
 10
-1.18499973E+02
 20
2.34619720E+02
 40
5.00000000E-01
 50
1.79999977E+02
 51
2.68999679E+02
  0
ARC
  8
0
 62
7
 10
-1.12999989E+02
 20
3.08500031E+02
 40
2.00000000E+00
 50
8.99999818E+01
 51
1.79999951E+02
  0
ARC
  8
0
 62
7
 10
-1.12999989E+02
 20
2.52500061E+02
 40
2.00000000E+00
 50
1.79999977E+02
 51
2.70000028E+02
  0
ARC
  8
0
 62
7
 10
-1.20499989E+02
 20
3.02000061E+02
 40
5.00000000E-01
 50
8.99999818E+01
 51
1.79999951E+02
  0
ARC
  8
0
 62
7
 10
-1.39499973E+02
 20
2.99500031E+02
 40
5.00000000E-01
 50
8.99999818E+01
 51
1.79999951E+02
  0
ARC
  8
0
 62
7
 10
-1.39499973E+02
 20
2.61500061E+02
 40
5.00000000E-01
 50
1.79999977E+02
 51
2.69999974E+02
  0
ARC
  8
0
 62
7
 10
-1.20499989E+02
 20
2.59000000E+02
 40
5.00000000E-01
 50
1.79999977E+02
 51
2.69999974E+02
  0
ARC
  8
0
 62
7
 10
-1.34499973E+02
 20
2.59971756E+02
 40
5.00000000E-01
 50
1.79999977E+02
 51
2.67999192E+02
  0
ARC
  8
0
 62
7
 10
-1.34499973E+02
 20
3.01028320E+02
 40
5.00000000E-01
 50
9.20007356E+01
 51
1.79999951E+02
  0
ARC
  8
0
 62
7
 10
6.34999428E+01
 20
2.34619690E+02
 40
5.00000000E-01
 50
2.71000272E+02
 51
3.59999959E+02
  0
ARC
  8
0
 62
7
 10
6.34999962E+01
 20
3.26380249E+02
 40
5.00000000E-01
 50
3.59999973E+02
 51
8.89996800E+01
  0
ARC
  8
0
 62
7
 10
5.79999657E+01
 20
2.52499939E+02
 40
2.00000000E+00
 50
2.69999991E+02
 51
3.59999945E+02
  0
ARC
  8
0
 62
7
 10
5.79999657E+01
 20
3.08499939E+02
 40
2.00000000E+00
 50
3.59999973E+02
 51
9.00000094E+01
  0
ARC
  8
0
 62
7
 10
-8.99999886E+01
 20
2.64499939E+02
 40
5.00000000E+00
 50
1.79999977E+02
 51
1.00179127E-05
  0
ARC
  8
0
 62
7
 10
-8.99999886E+01
 20
2.64499939E+02
 40
5.00000000E+00
 50
0.00000000E+00
 51
1.79999964E+02
  0
ARC
  8
0
 62
7
 10
3.49999886E+01
 20
2.64499985E+02
 40
5.00000000E+00
 50
0.00000000E+00
 51
1.79999964E+02
  0
ARC
  8
0
 62
7
 10
3.49999886E+01
 20
2.64499985E+02
 40
5.00000000E+00
 50
1.79999977E+02
 51
1.00179127E-05
  0
ARC
  8
0
 62
7
 10
8.67937317E+01
 20
2.88000000E+02
 40
1.82062626E+01
 50
3.35672856E+02
 51
2.43271445E+01
  0
ARC
  8
0
 62
7
 10
8.67937317E+01
 20
2.73000000E+02
 40
1.82062626E+01
 50
3.35672856E+02
 51
2.43271445E+01
  0
CIRCLE
  8
0
 62
7
 10
-9.89999733E+01
 20
2.91500015E+02
 40
9.25000000E+00
  0
CIRCLE
  8
0
 62
2
 10
-9.90000038E+01
 20
2.91499954E+02
 40
1.04775009E+01
  0
CIRCLE
  8
0
 62
7
 10
-9.89999733E+01
 20
2.91499954E+02
 40
1.10000000E+01
  0
CIRCLE
  8
0
 62
7
 10
4.40000038E+01
 20
2.91500076E+02
 40
9.25000000E+00
  0
CIRCLE
  8
0
 62
2
 10
4.39999733E+01
 20
2.91500015E+02
 40
1.04775009E+01
  0
CIRCLE
  8
0
 62
7
 10
4.40000038E+01
 20
2.91500015E+02
 40
1.10000000E+01
  0
LINE
  8
0
 62
4
 10
-1.80570931E+02
 20
2.80500000E+02
 11
-1.70429062E+02
 21
2.80500000E+02
  0
ARC
  8
0
 62
4
 10
-1.92106783E+02
 20
2.72500000E+02
 40
2.31067870E+01
 50
3.39743797E+02
 51
2.02562028E+01
  0
ARC
  8
0
 62
4
 10
-1.92106783E+02
 20
2.88500000E+02
 40
2.31067870E+01
 50
3.39743797E+02
 51
2.02562028E+01
  0
ARC
  8
0
 62
4
 10
-1.58893209E+02
 20
2.72500000E+02
 40
2.31067870E+01
 50
1.59743797E+02
 51
2.00256203E+02
  0
ARC
  8
0
 62
4
 10
-1.58893209E+02
 20
2.88500000E+02
 40
2.31067870E+01
 50
1.59743797E+02
 51
2.00256203E+02
  0
LINE
  8
0
 62
4
 10
-1.68999996E+02
 20
2.96500000E+02
 11
-1.68999996E+02
 21
2.64500000E+02
  0
LINE
  8
0
 62
4
 10
-1.81999996E+02
 20
2.96500000E+02
 11
-1.81999996E+02
 21
2.64500000E+02
  0
LINE
  8
0
 62
4
 10
-1.81999996E+02
 20
2.96500000E+02
 11
-1.68999996E+02
 21
2.96500000E+02
  0
LINE
  8
0
 62
4
 10
-1.81999996E+02
 20
2.64500000E+02
 11
-1.68999996E+02
 21
2.64500000E+02
  0
LINE
  8
0
 62
7
 10
-1.68999996E+02
 20
2.91500031E+02
 11
-1.56999989E+02
 21
2.91500031E+02
  0
LINE
  8
0
 62
2
 10
-1.68999996E+02
 20
2.90680023E+02
 11
-1.56999989E+02
 21
2.90680023E+02
  0
LINE
  8
0
 62
7
 10
-1.68999996E+02
 20
2.69500000E+02
 11
-1.56999989E+02
 21
2.69500000E+02
  0
LINE
  8
0
 62
2
 10
-1.68999996E+02
 20
2.70320023E+02
 11
-1.56999989E+02
 21
2.70320023E+02
  0
LINE
  8
0
 62
6
 10
-1.82679606E+01
 20
2.64589924E+02
 11
-2.17320622E+01
 21
2.58589924E+02
  0
LINE
  8
0
 62
4
 10
-1.00000115E+01
 20
2.63089924E+02
 11
-1.91339861E+01
 21
2.63089924E+02
  0
LINE
  8
0
  6
CENTER
 62
6
 10
2.49999885E+01
 20
2.61589924E+02
 11
-2.20000115E+01
 21
2.61589924E+02
  0
LINE
  8
0
 62
4
 10
-1.00000115E+01
 20
2.60089924E+02
 11
-2.08660369E+01
 21
2.60089924E+02
  0
LINE
  8
0
 62
6
 10
-3.07320394E+01
 20
2.96410061E+02
 11
-2.72679378E+01
 21
3.02410061E+02
  0
LINE
  8
0
 62
4
 10
-3.89999885E+01
 20
2.97910061E+02
 11
-2.98660139E+01
 21
2.97910061E+02
  0
LINE
  8
0
  6
CENTER
 62
6
 10
-7.39999885E+01
 20
2.99410061E+02
 11
-2.69999885E+01
 21
2.99410061E+02
  0
LINE
  8
0
 62
4
 10
-3.89999885E+01
 20
3.00910061E+02
 11
-2.81339631E+01
 21
3.00910061E+02
  0
LINE
  8
0
 62
6
 10
2.99998853E+00
 20
2.33664602E+02
 11
2.99998853E+00
 21
2.35031930E+02
  0
LINE
  8
0
 62
6
 10
-1.14734739E-05
 20
2.33664602E+02
 11
-1.14734739E-05
 21
2.35031930E+02
  0
LINE
  8
0
 62
4
 10
3.49998853E+00
 20
2.34160160E+02
 11
3.49998853E+00
 21
2.35031930E+02
  0
LINE
  8
0
 62
4
 10
-5.00011473E-01
 20
2.34160160E+02
 11
-5.00011473E-01
 21
2.35031930E+02
  0
LINE
  8
0
 62
4
 10
4.99998856E+00
 20
2.35031930E+02
 11
4.99998856E+00
 21
2.48876436E+02
  0
LINE
  8
0
 62
4
 10
-1.00000114E+01
 20
2.35031930E+02
 11
-1.00000114E+01
 21
2.64420135E+02
  0
LINE
  8
0
  6
CENTER
 62
6
 10
-6.50001147E+00
 20
2.30234406E+02
 11
-6.50001147E+00
 21
2.40499985E+02
  0
LINE
  8
0
  6
CENTER
 62
6
 10
1.49998853E+00
 20
2.30234406E+02
 11
1.49998853E+00
 21
2.40499985E+02
  0
LINE
  8
0
  6
CENTER
 62
6
 10
1.24999886E+01
 20
2.57612159E+02
 11
1.24999886E+01
 21
2.62612159E+02
  0
LINE
  8
0
 62
4
 10
-5.00001144E+00
 20
2.64193504E+02
 11
-5.00001144E+00
 21
2.63549596E+02
  0
LINE
  8
0
 62
4
 10
1.99999886E+01
 20
2.48876436E+02
 11
1.99999886E+01
 21
2.62322338E+02
  0
LINE
  8
0
 62
4
 10
-3.50001144E+00
 20
2.64193504E+02
 11
-3.50001144E+00
 21
2.63918659E+02
  0
LINE
  8
0
 62
4
 10
2.14999886E+01
 20
2.60114264E+02
 11
2.14999886E+01
 21
2.63062820E+02
  0
LINE
  8
0
 62
4
 10
4.99998856E+00
 20
2.35031930E+02
 11
-1.00000114E+01
 21
2.35031930E+02
  0
LINE
  8
0
 62
4
 10
4.99998856E+00
 20
2.42386149E+02
 11
-1.00000114E+01
 21
2.42386149E+02
  0
LINE
  8
0
 62
4
 10
1.99999886E+01
 20
2.48876436E+02
 11
-1.00000114E+01
 21
2.48876436E+02
  0
LINE
  8
0
 62
4
 10
1.99999886E+01
 20
2.58426429E+02
 11
-1.00000114E+01
 21
2.58426429E+02
  0
LINE
  8
0
 62
4
 10
1.99999886E+01
 20
2.64420135E+02
 11
8.14873318E+00
 21
2.64420135E+02
  0
POLYLINE
  8
0
 62
4
 66
1
  0
VERTEX
  8
0
 62
4
 10
-5.00011470E-01
 20
2.34160160E+02
  0
VERTEX
  8
0
 62
4
 10
-4.91960059E-01
 20
2.34093001E+02
  0
VERTEX
  8
0
 62
4
 10
-4.67870649E-01
 20
2.34026383E+02
  0
VERTEX
  8
0
 62
4
 10
-4.27937193E-01
 20
2.33960842E+02
  0
VERTEX
  8
0
 62
4
 10
-3.72481214E-01
 20
2.33896905E+02
  0
VERTEX
  8
0
 62
4
 10
-3.01949209E-01
 20
2.33835089E+02
  0
VERTEX
  8
0
 62
4
 10
-2.16909062E-01
 20
2.33775889E+02
  0
VERTEX
  8
0
 62
4
 10
-1.18045464E-01
 20
2.33719784E+02
  0
VERTEX
  8
0
 62
4
 10
-6.15440781E-03
 20
2.33667224E+02
  0
VERTEX
  8
0
 62
4
 10
1.17863226E-01
 20
2.33618633E+02
  0
VERTEX
  8
0
 62
4
 10
2.53008919E-01
 20
2.33574402E+02
  0
VERTEX
  8
0
 62
4
 10
3.98194559E-01
 20
2.33534887E+02
  0
VERTEX
  8
0
 62
4
 10
5.52251197E-01
 20
2.33500406E+02
  0
VERTEX
  8
0
 62
4
 10
7.13938458E-01
 20
2.33471238E+02
  0
VERTEX
  8
0
 62
4
 10
8.81954532E-01
 20
2.33447616E+02
  0
VERTEX
  8
0
 62
4
 10
1.05494665E+00
 20
2.33429731E+02
  0
VERTEX
  8
0
 62
4
 10
1.23152199E+00
 20
2.33417727E+02
  0
VERTEX
  8
0
 62
4
 10
1.41025886E+00
 20
2.33411701E+02
  0
VERTEX
  8
0
 62
4
 10
1.58971818E+00
 20
2.33411701E+02
  0
VERTEX
  8
0
 62
4
 10
1.76845505E+00
 20
2.33417727E+02
  0
VERTEX
  8
0
 62
4
 10
1.94503039E+00
 20
2.33429731E+02
  0
VERTEX
  8
0
 62
4
 10
2.11802251E+00
 20
2.33447616E+02
  0
VERTEX
  8
0
 62
4
 10
2.28603858E+00
 20
2.33471238E+02
  0
VERTEX
  8
0
 62
4
 10
2.44772584E+00
 20
2.33500406E+02
  0
VERTEX
  8
0
 62
4
 10
2.60178248E+00
 20
2.33534887E+02
  0
VERTEX
  8
0
 62
4
 10
2.74696812E+00
 20
2.33574402E+02
  0
VERTEX
  8
0
 62
4
 10
2.88211382E+00
 20
2.33618633E+02
  0
VERTEX
  8
0
 62
4
 10
3.00613145E+00
 20
2.33667224E+02
  0
VERTEX
  8
0
 62
4
 10
3.11802251E+00
 20
2.33719784E+02
  0
VERTEX
  8
0
 62
4
 10
3.21688611E+00
 20
2.33775889E+02
  0
VERTEX
  8
0
 62
4
 10
3.30192626E+00
 20
2.33835089E+02
  0
VERTEX
  8
0
 62
4
 10
3.37245827E+00
 20
2.33896905E+02
  0
VERTEX
  8
0
 62
4
 10
3.42791425E+00
 20
2.33960842E+02
  0
VERTEX
  8
0
 62
4
 10
3.46784770E+00
 20
2.34026383E+02
  0
VERTEX
  8
0
 62
4
 10
3.49193712E+00
 20
2.34093001E+02
  0
VERTEX
  8
0
 62
4
 10
3.49998853E+00
 20
2.34160160E+02
  0
SEQEND
  8
0
  0
LINE
  8
0
 62
6
 10
-8.00001147E+00
 20
2.33664602E+02
 11
-8.00001147E+00
 21
2.35031930E+02
  0
LINE
  8
0
 62
4
 10
-8.50001147E+00
 20
2.34160160E+02
 11
-8.50001147E+00
 21
2.35031930E+02
  0
POLYLINE
  8
0
 62
4
 66
1
  0
VERTEX
  8
0
 62
4
 10
-8.50001147E+00
 20
2.34160160E+02
  0
VERTEX
  8
0
 62
4
 10
-8.49196006E+00
 20
2.34093001E+02
  0
VERTEX
  8
0
 62
4
 10
-8.46787065E+00
 20
2.34026383E+02
  0
VERTEX
  8
0
 62
4
 10
-8.42793719E+00
 20
2.33960842E+02
  0
VERTEX
  8
0
 62
4
 10
-8.37248121E+00
 20
2.33896905E+02
  0
VERTEX
  8
0
 62
4
 10
-8.30194921E+00
 20
2.33835089E+02
  0
VERTEX
  8
0
 62
4
 10
-8.21690906E+00
 20
2.33775889E+02
  0
VERTEX
  8
0
 62
4
 10
-8.11804546E+00
 20
2.33719784E+02
  0
VERTEX
  8
0
 62
4
 10
-8.00615441E+00
 20
2.33667224E+02
  0
VERTEX
  8
0
 62
4
 10
-7.88213677E+00
 20
2.33618633E+02
  0
VERTEX
  8
0
 62
4
 10
-7.74699108E+00
 20
2.33574402E+02
  0
VERTEX
  8
0
 62
4
 10
-7.60180544E+00
 20
2.33534887E+02
  0
VERTEX
  8
0
 62
4
 10
-7.44774880E+00
 20
2.33500406E+02
  0
VERTEX
  8
0
 62
4
 10
-7.28606154E+00
 20
2.33471238E+02
  0
VERTEX
  8
0
 62
4
 10
-7.11804547E+00
 20
2.33447616E+02
  0
VERTEX
  8
0
 62
4
 10
-6.94505335E+00
 20
2.33429731E+02
  0
VERTEX
  8
0
 62
4
 10
-6.76847801E+00
 20
2.33417727E+02
  0
VERTEX
  8
0
 62
4
 10
-6.58974114E+00
 20
2.33411701E+02
  0
VERTEX
  8
0
 62
4
 10
-6.41028182E+00
 20
2.33411701E+02
  0
VERTEX
  8
0
 62
4
 10
-6.23154495E+00
 20
2.33417727E+02
  0
VERTEX
  8
0
 62
4
 10
-6.05496961E+00
 20
2.33429731E+02
  0
VERTEX
  8
0
 62
4
 10
-5.88197749E+00
 20
2.33447616E+02
  0
VERTEX
  8
0
 62
4
 10
-5.71396142E+00
 20
2.33471238E+02
  0
VERTEX
  8
0
 62
4
 10
-5.55227416E+00
 20
2.33500406E+02
  0
VERTEX
  8
0
 62
4
 10
-5.39821752E+00
 20
2.33534887E+02
  0
VERTEX
  8
0
 62
4
 10
-5.25303188E+00
 20
2.33574402E+02
  0
VERTEX
  8
0
 62
4
 10
-5.11788618E+00
 20
2.33618633E+02
  0
VERTEX
  8
0
 62
4
 10
-4.99386855E+00
 20
2.33667224E+02
  0
VERTEX
  8
0
 62
4
 10
-4.88197749E+00
 20
2.33719784E+02
  0
VERTEX
  8
0
 62
4
 10
-4.78311389E+00
 20
2.33775889E+02
  0
VERTEX
  8
0
 62
4
 10
-4.69807374E+00
 20
2.33835089E+02
  0
VERTEX
  8
0
 62
4
 10
-4.62754173E+00
 20
2.33896905E+02
  0
VERTEX
  8
0
 62
4
 10
-4.57208575E+00
 20
2.33960842E+02
  0
VERTEX
  8
0
 62
4
 10
-4.53215230E+00
 20
2.34026383E+02
  0
VERTEX
  8
0
 62
4
 10
-4.50806288E+00
 20
2.34093001E+02
  0
VERTEX
  8
0
 62
4
 10
-4.50001147E+00
 20
2.34160160E+02
  0
SEQEND
  8
0
  0
LINE
  8
0
 62
6
 10
-5.00001147E+00
 20
2.33664602E+02
 11
-5.00001147E+00
 21
2.35031930E+02
  0
LINE
  8
0
 62
4
 10
-4.50001147E+00
 20
2.34160160E+02
 11
-4.50001147E+00
 21
2.35031930E+02
  0
LINE
  8
0
 62
4
 10
8.49988556E-01
 20
2.62829325E+02
 11
8.49988556E-01
 21
2.63407456E+02
  0
LINE
  8
0
 62
4
 10
9.14998856E+00
 20
2.61775612E+02
 11
9.14998856E+00
 21
2.63407456E+02
  0
POLYLINE
  8
0
 62
4
 66
1
  0
VERTEX
  8
0
 62
4
 10
1.29897047E+00
 20
2.61072292E+02
  0
VERTEX
  8
0
 62
4
 10
1.48065085E+00
 20
2.60951753E+02
  0
VERTEX
  8
0
 62
4
 10
1.69023394E+00
 20
2.60837746E+02
  0
VERTEX
  8
0
 62
4
 10
1.92605810E+00
 20
2.60731175E+02
  0
VERTEX
  8
0
 62
4
 10
2.18625360E+00
 20
2.60632884E+02
  0
VERTEX
  8
0
 62
4
 10
2.46875752E+00
 20
2.60543653E+02
  0
VERTEX
  8
0
 62
4
 10
2.77133006E+00
 20
2.60464190E+02
  0
VERTEX
  8
0
 62
4
 10
3.09157229E+00
 20
2.60395125E+02
  0
VERTEX
  8
0
 62
4
 10
3.42694520E+00
 20
2.60337004E+02
  0
VERTEX
  8
0
 62
4
 10
3.77478984E+00
 20
2.60290289E+02
  0
VERTEX
  8
0
 62
4
 10
4.13234834E+00
 20
2.60255351E+02
  0
VERTEX
  8
0
 62
4
 10
4.49678584E+00
 20
2.60232465E+02
  0
VERTEX
  8
0
 62
4
 10
4.86521293E+00
 20
2.60221815E+02
  0
VERTEX
  8
0
 62
4
 10
5.23470858E+00
 20
2.60223483E+02
  0
VERTEX
  8
0
 62
4
 10
5.60234327E+00
 20
2.60237458E+02
  0
VERTEX
  8
0
 62
4
 10
5.96520226E+00
 20
2.60263627E+02
  0
VERTEX
  8
0
 62
4
 10
6.32040864E+00
 20
2.60301784E+02
  0
VERTEX
  8
0
 62
4
 10
6.66514620E+00
 20
2.60351626E+02
  0
VERTEX
  8
0
 62
4
 10
6.99668173E+00
 20
2.60412759E+02
  0
VERTEX
  8
0
 62
4
 10
7.31238668E+00
 20
2.60484696E+02
  0
VERTEX
  8
0
 62
4
 10
7.60975801E+00
 20
2.60566868E+02
  0
VERTEX
  8
0
 62
4
 10
7.88643804E+00
 20
2.60658624E+02
  0
VERTEX
  8
0
 62
4
 10
8.14023314E+00
 20
2.60759236E+02
  0
VERTEX
  8
0
 62
4
 10
8.36913113E+00
 20
2.60867905E+02
  0
VERTEX
  8
0
 62
4
 10
8.57131721E+00
 20
2.60983772E+02
  0
VERTEX
  8
0
 62
4
 10
8.74518837E+00
 20
2.61105917E+02
  0
VERTEX
  8
0
 62
4
 10
8.88936608E+00
 20
2.61233371E+02
  0
VERTEX
  8
0
 62
4
 10
9.00270726E+00
 20
2.61365124E+02
  0
VERTEX
  8
0
 62
4
 10
9.08431327E+00
 20
2.61500132E+02
  0
VERTEX
  8
0
 62
4
 10
9.13353713E+00
 20
2.61637324E+02
  0
VERTEX
  8
0
 62
4
 10
9.14998856E+00
 20
2.61775612E+02
  0
SEQEND
  8
0
  0
POLYLINE
  8
0
 62
4
 66
1
  0
VERTEX
  8
0
 62
4
 10
9.14998856E+00
 20
2.63407456E+02
  0
VERTEX
  8
0
 62
4
 10
9.13419656E+00
 20
2.63542950E+02
  0
VERTEX
  8
0
 62
4
 10
9.08694073E+00
 20
2.63677412E+02
  0
VERTEX
  8
0
 62
4
 10
9.00858074E+00
 20
2.63809821E+02
  0
VERTEX
  8
0
 62
4
 10
8.89971294E+00
 20
2.63939166E+02
  0
VERTEX
  8
0
 62
4
 10
8.76116588E+00
 20
2.64064466E+02
  0
VERTEX
  8
0
 62
4
 10
8.59399399E+00
 20
2.64184765E+02
  0
VERTEX
  8
0
 62
4
 10
8.39946954E+00
 20
2.64299148E+02
  0
VERTEX
  8
0
 62
4
 10
8.17907300E+00
 20
2.64406745E+02
  0
VERTEX
  8
0
 62
4
 10
7.93448170E+00
 20
2.64506736E+02
  0
VERTEX
  8
0
 62
4
 10
7.66755714E+00
 20
2.64598362E+02
  0
VERTEX
  8
0
 62
4
 10
7.38033077E+00
 20
2.64680924E+02
  0
VERTEX
  8
0
 62
4
 10
7.07498856E+00
 20
2.64753794E+02
  0
VERTEX
  8
0
 62
4
 10
6.75385434E+00
 20
2.64816418E+02
  0
VERTEX
  8
0
 62
4
 10
6.41937215E+00
 20
2.64868318E+02
  0
VERTEX
  8
0
 62
4
 10
6.07408759E+00
 20
2.64909101E+02
  0
VERTEX
  8
0
 62
4
 10
5.72062849E+00
 20
2.64938455E+02
  0
VERTEX
  8
0
 62
4
 10
5.36168489E+00
 20
2.64956158E+02
  0
VERTEX
  8
0
 62
4
 10
4.99998856E+00
 20
2.64962073E+02
  0
VERTEX
  8
0
 62
4
 10
4.63829222E+00
 20
2.64956158E+02
  0
VERTEX
  8
0
 62
4
 10
4.27934862E+00
 20
2.64938455E+02
  0
VERTEX
  8
0
 62
4
 10
3.92588952E+00
 20
2.64909101E+02
  0
VERTEX
  8
0
 62
4
 10
3.58060496E+00
 20
2.64868318E+02
  0
VERTEX
  8
0
 62
4
 10
3.24612277E+00
 20
2.64816418E+02
  0
VERTEX
  8
0
 62
4
 10
2.92498856E+00
 20
2.64753794E+02
  0
VERTEX
  8
0
 62
4
 10
2.61964635E+00
 20
2.64680924E+02
  0
VERTEX
  8
0
 62
4
 10
2.33241998E+00
 20
2.64598362E+02
  0
VERTEX
  8
0
 62
4
 10
2.06549541E+00
 20
2.64506736E+02
  0
VERTEX
  8
0
 62
4
 10
1.82090412E+00
 20
2.64406745E+02
  0
VERTEX
  8
0
 62
4
 10
1.60050757E+00
 20
2.64299148E+02
  0
VERTEX
  8
0
 62
4
 10
1.40598313E+00
 20
2.64184765E+02
  0
VERTEX
  8
0
 62
4
 10
1.23881124E+00
 20
2.64064466E+02
  0
VERTEX
  8
0
 62
4
 10
1.10026418E+00
 20
2.63939166E+02
  0
VERTEX
  8
0
 62
4
 10
9.91396380E-01
 20
2.63809821E+02
  0
VERTEX
  8
0
 62
4
 10
9.13036384E-01
 20
2.63677412E+02
  0
VERTEX
  8
0
 62
4
 10
8.65780562E-01
 20
2.63542950E+02
  0
VERTEX
  8
0
 62
4
 10
8.49988560E-01
 20
2.63407456E+02
  0
VERTEX
  8
0
 62
4
 10
8.65780563E-01
 20
2.63271962E+02
  0
VERTEX
  8
0
 62
4
 10
9.13036386E-01
 20
2.63137500E+02
  0
VERTEX
  8
0
 62
4
 10
9.91396383E-01
 20
2.63005091E+02
  0
VERTEX
  8
0
 62
4
 10
1.10026419E+00
 20
2.62875746E+02
  0
VERTEX
  8
0
 62
4
 10
1.23881125E+00
 20
2.62750446E+02
  0
VERTEX
  8
0
 62
4
 10
1.40598314E+00
 20
2.62630147E+02
  0
VERTEX
  8
0
 62
4
 10
1.60050758E+00
 20
2.62515764E+02
  0
VERTEX
  8
0
 62
4
 10
1.82090413E+00
 20
2.62408167E+02
  0
VERTEX
  8
0
 62
4
 10
2.06549542E+00
 20
2.62308176E+02
  0
VERTEX
  8
0
 62
4
 10
2.33241999E+00
 20
2.62216550E+02
  0
VERTEX
  8
0
 62
4
 10
2.61964636E+00
 20
2.62133988E+02
  0
VERTEX
  8
0
 62
4
 10
2.92498857E+00
 20
2.62061118E+02
  0
VERTEX
  8
0
 62
4
 10
3.24612278E+00
 20
2.61998494E+02
  0
VERTEX
  8
0
 62
4
 10
3.58060497E+00
 20
2.61946594E+02
  0
VERTEX
  8
0
 62
4
 10
3.92588953E+00
 20
2.61905811E+02
  0
VERTEX
  8
0
 62
4
 10
4.27934863E+00
 20
2.61876457E+02
  0
VERTEX
  8
0
 62
4
 10
4.63829224E+00
 20
2.61858754E+02
  0
VERTEX
  8
0
 62
4
 10
4.99998857E+00
 20
2.61852839E+02
  0
VERTEX
  8
0
 62
4
 10
5.36168490E+00
 20
2.61858754E+02
  0
VERTEX
  8
0
 62
4
 10
5.72062851E+00
 20
2.61876457E+02
  0
VERTEX
  8
0
 62
4
 10
6.07408761E+00
 20
2.61905811E+02
  0
VERTEX
  8
0
 62
4
 10
6.41937216E+00
 20
2.61946594E+02
  0
VERTEX
  8
0
 62
4
 10
6.75385435E+00
 20
2.61998494E+02
  0
VERTEX
  8
0
 62
4
 10
7.07498857E+00
 20
2.62061118E+02
  0
VERTEX
  8
0
 62
4
 10
7.38033078E+00
 20
2.62133988E+02
  0
VERTEX
  8
0
 62
4
 10
7.66755715E+00
 20
2.62216550E+02
  0
VERTEX
  8
0
 62
4
 10
7.93448171E+00
 20
2.62308176E+02
  0
VERTEX
  8
0
 62
4
 10
8.17907301E+00
 20
2.62408167E+02
  0
VERTEX
  8
0
 62
4
 10
8.39946955E+00
 20
2.62515764E+02
  0
VERTEX
  8
0
 62
4
 10
8.59399399E+00
 20
2.62630147E+02
  0
VERTEX
  8
0
 62
4
 10
8.76116588E+00
 20
2.62750446E+02
  0
VERTEX
  8
0
 62
4
 10
8.89971294E+00
 20
2.62875746E+02
  0
VERTEX
  8
0
 62
4
 10
9.00858074E+00
 20
2.63005091E+02
  0
VERTEX
  8
0
 62
4
 10
9.08694074E+00
 20
2.63137500E+02
  0
VERTEX
  8
0
 62
4
 10
9.13419656E+00
 20
2.63271962E+02
  0
VERTEX
  8
0
 62
4
 10
9.14998856E+00
 20
2.63407456E+02
  0
SEQEND
  8
0
  0
ARC
  8
0
 62
4
 10
1.06166958E+01
 20
2.48987314E+02
 40
1.61228529E+01
 50
1.03811346E+02
 51
1.17258955E+02
  0
ARC
  8
0
 62
4
 10
-6.16721300E-01
 20
2.48987307E+02
 40
1.61228609E+01
 50
6.27410478E+01
 51
7.61886514E+01
  0
POLYLINE
  8
0
 62
4
 66
1
  0
VERTEX
  8
0
 62
4
 10
1.29998857E+00
 20
2.60853929E+02
  0
VERTEX
  8
0
 62
4
 10
1.44663113E+00
 20
2.60735223E+02
  0
VERTEX
  8
0
 62
4
 10
1.62034984E+00
 20
2.60621760E+02
  0
VERTEX
  8
0
 62
4
 10
1.81982098E+00
 20
2.60514405E+02
  0
VERTEX
  8
0
 62
4
 10
2.04352461E+00
 20
2.60413975E+02
  0
VERTEX
  8
0
 62
4
 10
2.28975613E+00
 20
2.60321235E+02
  0
VERTEX
  8
0
 62
4
 10
2.55663929E+00
 20
2.60236894E+02
  0
VERTEX
  8
0
 62
4
 10
2.84214048E+00
 20
2.60161592E+02
  0
VERTEX
  8
0
 62
4
 10
3.14408420E+00
 20
2.60095904E+02
  0
VERTEX
  8
0
 62
4
 10
3.46016968E+00
 20
2.60040331E+02
  0
VERTEX
  8
0
 62
4
 10
3.78798840E+00
 20
2.59995296E+02
  0
VERTEX
  8
0
 62
4
 10
4.12504241E+00
 20
2.59961142E+02
  0
VERTEX
  8
0
 62
4
 10
4.46876340E+00
 20
2.59938129E+02
  0
VERTEX
  8
0
 62
4
 10
4.81653226E+00
 20
2.59926432E+02
  0
VERTEX
  8
0
 62
4
 10
5.16569904E+00
 20
2.59926142E+02
  0
VERTEX
  8
0
 62
4
 10
5.51360312E+00
 20
2.59937260E+02
  0
VERTEX
  8
0
 62
4
 10
5.85759352E+00
 20
2.59959701E+02
  0
VERTEX
  8
0
 62
4
 10
6.19504908E+00
 20
2.59993294E+02
  0
VERTEX
  8
0
 62
4
 10
6.52339842E+00
 20
2.60037783E+02
  0
VERTEX
  8
0
 62
4
 10
6.84013957E+00
 20
2.60092830E+02
  0
VERTEX
  8
0
 62
4
 10
7.14285899E+00
 20
2.60158015E+02
  0
VERTEX
  8
0
 62
4
 10
7.42925000E+00
 20
2.60232841E+02
  0
VERTEX
  8
0
 62
4
 10
7.69713034E+00
 20
2.60316738E+02
  0
VERTEX
  8
0
 62
4
 10
7.94445879E+00
 20
2.60409067E+02
  0
VERTEX
  8
0
 62
4
 10
8.16935073E+00
 20
2.60509123E+02
  0
VERTEX
  8
0
 62
4
 10
8.37009253E+00
 20
2.60616146E+02
  0
VERTEX
  8
0
 62
4
 10
8.54515454E+00
 20
2.60729319E+02
  0
VERTEX
  8
0
 62
4
 10
8.69320283E+00
 20
2.60847780E+02
  0
VERTEX
  8
0
 62
4
 10
8.81310927E+00
 20
2.60970626E+02
  0
VERTEX
  8
0
 62
4
 10
8.90396021E+00
 20
2.61096921E+02
  0
VERTEX
  8
0
 62
4
 10
8.96506335E+00
 20
2.61225703E+02
  0
VERTEX
  8
0
 62
4
 10
8.99595312E+00
 20
2.61355991E+02
  0
SEQEND
  8
0
  0
LINE
  8
0
 62
4
 10
8.99988556E-01
 20
2.61039343E+02
 11
8.99988556E-01
 21
2.62517074E+02
  0
POLYLINE
  8
0
 62
4
 66
1
  0
VERTEX
  8
0
 62
4
 10
-5.90001144E+00
 20
2.61039343E+02
  0
VERTEX
  8
0
 62
4
 10
-5.88632404E+00
 20
2.60925173E+02
  0
VERTEX
  8
0
 62
4
 10
-5.84537204E+00
 20
2.60811922E+02
  0
VERTEX
  8
0
 62
4
 10
-5.77748517E+00
 20
2.60700502E+02
  0
VERTEX
  8
0
 62
4
 10
-5.68321000E+00
 20
2.60591810E+02
  0
VERTEX
  8
0
 62
4
 10
-5.56330560E+00
 20
2.60486722E+02
  0
VERTEX
  8
0
 62
4
 10
-5.41873735E+00
 20
2.60386082E+02
  0
VERTEX
  8
0
 62
4
 10
-5.25066923E+00
 20
2.60290703E+02
  0
VERTEX
  8
0
 62
4
 10
-5.06045443E+00
 20
2.60201351E+02
  0
VERTEX
  8
0
 62
4
 10
-4.84962446E+00
 20
2.60118746E+02
  0
VERTEX
  8
0
 62
4
 10
-4.61987678E+00
 20
2.60043554E+02
  0
VERTEX
  8
0
 62
4
 10
-4.37306119E+00
 20
2.59976378E+02
  0
VERTEX
  8
0
 62
4
 10
-4.11116491E+00
 20
2.59917762E+02
  0
VERTEX
  8
0
 62
4
 10
-3.83629656E+00
 20
2.59868175E+02
  0
VERTEX
  8
0
 62
4
 10
-3.55066924E+00
 20
2.59828018E+02
  0
VERTEX
  8
0
 62
4
 10
-3.25658263E+00
 20
2.59797614E+02
  0
VERTEX
  8
0
 62
4
 10
-2.95640456E+00
 20
2.59777208E+02
  0
VERTEX
  8
0
 62
4
 10
-2.65255188E+00
 20
2.59766963E+02
  0
VERTEX
  8
0
 62
4
 10
-2.34747104E+00
 20
2.59766963E+02
  0
VERTEX
  8
0
 62
4
 10
-2.04361835E+00
 20
2.59777208E+02
  0
VERTEX
  8
0
 62
4
 10
-1.74344028E+00
 20
2.59797614E+02
  0
VERTEX
  8
0
 62
4
 10
-1.44935368E+00
 20
2.59828018E+02
  0
VERTEX
  8
0
 62
4
 10
-1.16372635E+00
 20
2.59868175E+02
  0
VERTEX
  8
0
 62
4
 10
-8.88858005E-01
 20
2.59917762E+02
  0
VERTEX
  8
0
 62
4
 10
-6.26961720E-01
 20
2.59976378E+02
  0
VERTEX
  8
0
 62
4
 10
-3.80146130E-01
 20
2.60043554E+02
  0
VERTEX
  8
0
 62
4
 10
-1.50398449E-01
 20
2.60118746E+02
  0
VERTEX
  8
0
 62
4
 10
6.04315302E-02
 20
2.60201351E+02
  0
VERTEX
  8
0
 62
4
 10
2.50646328E-01
 20
2.60290703E+02
  0
VERTEX
  8
0
 62
4
 10
4.18714447E-01
 20
2.60386082E+02
  0
VERTEX
  8
0
 62
4
 10
5.63282701E-01
 20
2.60486722E+02
  0
VERTEX
  8
0
 62
4
 10
6.83187112E-01
 20
2.60591810E+02
  0
VERTEX
  8
0
 62
4
 10
7.77462280E-01
 20
2.60700502E+02
  0
VERTEX
  8
0
 62
4
 10
8.45349157E-01
 20
2.60811922E+02
  0
VERTEX
  8
0
 62
4
 10
8.86301157E-01
 20
2.60925173E+02
  0
VERTEX
  8
0
 62
4
 10
8.99988560E-01
 20
2.61039343E+02
  0
SEQEND
  8
0
  0
POLYLINE
  8
0
 62
4
 66
1
  0
VERTEX
  8
0
 62
4
 10
-5.90001144E+00
 20
2.62087061E+02
  0
VERTEX
  8
0
 62
4
 10
-5.88632404E+00
 20
2.61972891E+02
  0
VERTEX
  8
0
 62
4
 10
-5.84537204E+00
 20
2.61859640E+02
  0
VERTEX
  8
0
 62
4
 10
-5.77748517E+00
 20
2.61748220E+02
  0
VERTEX
  8
0
 62
4
 10
-5.68321000E+00
 20
2.61639528E+02
  0
VERTEX
  8
0
 62
4
 10
-5.56330560E+00
 20
2.61534440E+02
  0
VERTEX
  8
0
 62
4
 10
-5.41873735E+00
 20
2.61433800E+02
  0
VERTEX
  8
0
 62
4
 10
-5.25066923E+00
 20
2.61338421E+02
  0
VERTEX
  8
0
 62
4
 10
-5.06045443E+00
 20
2.61249069E+02
  0
VERTEX
  8
0
 62
4
 10
-4.84962446E+00
 20
2.61166464E+02
  0
VERTEX
  8
0
 62
4
 10
-4.61987678E+00
 20
2.61091272E+02
  0
VERTEX
  8
0
 62
4
 10
-4.37306119E+00
 20
2.61024096E+02
  0
VERTEX
  8
0
 62
4
 10
-4.11116491E+00
 20
2.60965480E+02
  0
VERTEX
  8
0
 62
4
 10
-3.83629656E+00
 20
2.60915893E+02
  0
VERTEX
  8
0
 62
4
 10
-3.55066924E+00
 20
2.60875736E+02
  0
VERTEX
  8
0
 62
4
 10
-3.25658263E+00
 20
2.60845332E+02
  0
VERTEX
  8
0
 62
4
 10
-2.95640456E+00
 20
2.60824926E+02
  0
VERTEX
  8
0
 62
4
 10
-2.65255188E+00
 20
2.60814681E+02
  0
VERTEX
  8
0
 62
4
 10
-2.34747104E+00
 20
2.60814681E+02
  0
VERTEX
  8
0
 62
4
 10
-2.04361835E+00
 20
2.60824926E+02
  0
VERTEX
  8
0
 62
4
 10
-1.74344028E+00
 20
2.60845332E+02
  0
VERTEX
  8
0
 62
4
 10
-1.44935368E+00
 20
2.60875736E+02
  0
VERTEX
  8
0
 62
4
 10
-1.16372635E+00
 20
2.60915893E+02
  0
VERTEX
  8
0
 62
4
 10
-8.88858005E-01
 20
2.60965480E+02
  0
VERTEX
  8
0
 62
4
 10
-6.26961720E-01
 20
2.61024096E+02
  0
VERTEX
  8
0
 62
4
 10
-3.80146130E-01
 20
2.61091272E+02
  0
VERTEX
  8
0
 62
4
 10
-1.50398449E-01
 20
2.61166464E+02
  0
VERTEX
  8
0
 62
4
 10
6.04315302E-02
 20
2.61249069E+02
  0
VERTEX
  8
0
 62
4
 10
2.50646328E-01
 20
2.61338421E+02
  0
VERTEX
  8
0
 62
4
 10
4.18714447E-01
 20
2.61433800E+02
  0
VERTEX
  8
0
 62
4
 10
5.63282701E-01
 20
2.61534440E+02
  0
VERTEX
  8
0
 62
4
 10
6.83187112E-01
 20
2.61639528E+02
  0
VERTEX
  8
0
 62
4
 10
7.77462280E-01
 20
2.61748220E+02
  0
VERTEX
  8
0
 62
4
 10
8.45349157E-01
 20
2.61859640E+02
  0
VERTEX
  8
0
 62
4
 10
8.86301157E-01
 20
2.61972891E+02
  0
VERTEX
  8
0
 62
4
 10
8.99988560E-01
 20
2.62087061E+02
  0
SEQEND
  8
0
  0
LINE
  8
0
 62
4
 10
-5.90001144E+00
 20
2.62517074E+02
 11
-5.90001144E+00
 21
2.61039343E+02
  0
ARC
  8
0
 62
4
 10
-4.90001177E+00
 20
2.62517074E+02
 40
1.00000000E+00
 50
1.02827510E+02
 51
1.80000000E+02
  0
ARC
  8
0
 62
4
 10
-1.00011122E-01
 20
2.62517074E+02
 40
1.00000000E+00
 50
3.60000000E+02
 51
7.71724899E+01
  0
ARC
  8
0
 62
4
 10
2.88737336E+00
 20
2.48760319E+02
 40
1.54729912E+01
 50
1.03783165E+02
 51
1.17543924E+02
  0
ARC
  8
0
 62
4
 10
-7.88739670E+00
 20
2.48760318E+02
 40
1.54729926E+01
 50
6.24560769E+01
 51
7.62168346E+01
  0
LINE
  8
0
 62
4
 10
-6.30001144E+00
 20
2.60112159E+02
 11
-6.30001144E+00
 21
2.61039343E+02
  0
LINE
  8
0
 62
4
 10
1.29998856E+00
 20
2.60112159E+02
 11
1.29998856E+00
 21
2.61039343E+02
  0
POLYLINE
  8
0
 62
4
 66
1
  0
VERTEX
  8
0
 62
4
 10
-6.30001144E+00
 20
2.60112159E+02
  0
VERTEX
  8
0
 62
4
 10
-6.28471376E+00
 20
2.59984557E+02
  0
VERTEX
  8
0
 62
4
 10
-6.23894388E+00
 20
2.59857982E+02
  0
VERTEX
  8
0
 62
4
 10
-6.16307031E+00
 20
2.59733454E+02
  0
VERTEX
  8
0
 62
4
 10
-6.05770395E+00
 20
2.59611975E+02
  0
VERTEX
  8
0
 62
4
 10
-5.92369314E+00
 20
2.59494523E+02
  0
VERTEX
  8
0
 62
4
 10
-5.76211686E+00
 20
2.59382044E+02
  0
VERTEX
  8
0
 62
4
 10
-5.57427603E+00
 20
2.59275444E+02
  0
VERTEX
  8
0
 62
4
 10
-5.36168302E+00
 20
2.59175580E+02
  0
VERTEX
  8
0
 62
4
 10
-5.12604952E+00
 20
2.59083257E+02
  0
VERTEX
  8
0
 62
4
 10
-4.86927270E+00
 20
2.58999218E+02
  0
VERTEX
  8
0
 62
4
 10
-4.59341998E+00
 20
2.58924140E+02
  0
VERTEX
  8
0
 62
4
 10
-4.30071237E+00
 20
2.58858627E+02
  0
VERTEX
  8
0
 62
4
 10
-3.99350658E+00
 20
2.58803207E+02
  0
VERTEX
  8
0
 62
4
 10
-3.67427604E+00
 20
2.58758325E+02
  0
VERTEX
  8
0
 62
4
 10
-3.34559101E+00
 20
2.58724344E+02
  0
VERTEX
  8
0
 62
4
 10
-3.01009787E+00
 20
2.58701537E+02
  0
VERTEX
  8
0
 62
4
 10
-2.67049782E+00
 20
2.58690087E+02
  0
VERTEX
  8
0
 62
4
 10
-2.32952511E+00
 20
2.58690087E+02
  0
VERTEX
  8
0
 62
4
 10
-1.98992505E+00
 20
2.58701537E+02
  0
VERTEX
  8
0
 62
4
 10
-1.65443191E+00
 20
2.58724344E+02
  0
VERTEX
  8
0
 62
4
 10
-1.32574688E+00
 20
2.58758325E+02
  0
VERTEX
  8
0
 62
4
 10
-1.00651634E+00
 20
2.58803207E+02
  0
VERTEX
  8
0
 62
4
 10
-6.99310543E-01
 20
2.58858627E+02
  0
VERTEX
  8
0
 62
4
 10
-4.06602930E-01
 20
2.58924140E+02
  0
VERTEX
  8
0
 62
4
 10
-1.30750211E-01
 20
2.58999218E+02
  0
VERTEX
  8
0
 62
4
 10
1.26026609E-01
 20
2.59083257E+02
  0
VERTEX
  8
0
 62
4
 10
3.61660115E-01
 20
2.59175580E+02
  0
VERTEX
  8
0
 62
4
 10
5.74253124E-01
 20
2.59275444E+02
  0
VERTEX
  8
0
 62
4
 10
7.62093963E-01
 20
2.59382044E+02
  0
VERTEX
  8
0
 62
4
 10
9.23670247E-01
 20
2.59494523E+02
  0
VERTEX
  8
0
 62
4
 10
1.05768106E+00
 20
2.59611975E+02
  0
VERTEX
  8
0
 62
4
 10
1.16304742E+00
 20
2.59733454E+02
  0
VERTEX
  8
0
 62
4
 10
1.23892099E+00
 20
2.59857982E+02
  0
VERTEX
  8
0
 62
4
 10
1.28469087E+00
 20
2.59984557E+02
  0
VERTEX
  8
0
 62
4
 10
1.29998856E+00
 20
2.60112159E+02
  0
SEQEND
  8
0
  0
POLYLINE
  8
0
 62
4
 66
1
  0
VERTEX
  8
0
 62
4
 10
-5.90001145E+00
 20
2.61675071E+02
  0
VERTEX
  8
0
 62
4
 10
-6.03659311E+00
 20
2.61560112E+02
  0
VERTEX
  8
0
 62
4
 10
-6.14554098E+00
 20
2.61441084E+02
  0
VERTEX
  8
0
 62
4
 10
-6.22600376E+00
 20
2.61318916E+02
  0
VERTEX
  8
0
 62
4
 10
-6.27735274E+00
 20
2.61194564E+02
  0
VERTEX
  8
0
 62
4
 10
-6.29918669E+00
 20
2.61068999E+02
  0
VERTEX
  8
0
 62
4
 10
-6.29133502E+00
 20
2.60943203E+02
  0
VERTEX
  8
0
 62
4
 10
-6.25385907E+00
 20
2.60818158E+02
  0
VERTEX
  8
0
 62
4
 10
-6.18705166E+00
 20
2.60694840E+02
  0
VERTEX
  8
0
 62
4
 10
-6.09143482E+00
 20
2.60574215E+02
  0
VERTEX
  8
0
 62
4
 10
-5.96775566E+00
 20
2.60457224E+02
  0
VERTEX
  8
0
 62
4
 10
-5.81698058E+00
 20
2.60344782E+02
  0
VERTEX
  8
0
 62
4
 10
-5.64028768E+00
 20
2.60237767E+02
  0
VERTEX
  8
0
 62
4
 10
-5.43905760E+00
 20
2.60137015E+02
  0
VERTEX
  8
0
 62
4
 10
-5.21486268E+00
 20
2.60043313E+02
  0
VERTEX
  8
0
 62
4
 10
-4.96945472E+00
 20
2.59957394E+02
  0
VERTEX
  8
0
 62
4
 10
-4.70475126E+00
 20
2.59879930E+02
  0
VERTEX
  8
0
 62
4
 10
-4.42282062E+00
 20
2.59811524E+02
  0
VERTEX
  8
0
 62
4
 10
-4.12586572E+00
 20
2.59752713E+02
  0
VERTEX
  8
0
 62
4
 10
-3.81620688E+00
 20
2.59703954E+02
  0
VERTEX
  8
0
 62
4
 10
-3.49626367E+00
 20
2.59665630E+02
  0
VERTEX
  8
0
 62
4
 10
-3.16853605E+00
 20
2.59638040E+02
  0
VERTEX
  8
0
 62
4
 10
-2.83558477E+00
 20
2.59621399E+02
  0
VERTEX
  8
0
 62
4
 10
-2.50001142E+00
 20
2.59615838E+02
  0
VERTEX
  8
0
 62
4
 10
-2.16443807E+00
 20
2.59621399E+02
  0
VERTEX
  8
0
 62
4
 10
-1.83148680E+00
 20
2.59638040E+02
  0
VERTEX
  8
0
 62
4
 10
-1.50375917E+00
 20
2.59665630E+02
  0
VERTEX
  8
0
 62
4
 10
-1.18381597E+00
 20
2.59703954E+02
  0
VERTEX
  8
0
 62
4
 10
-8.74157126E-01
 20
2.59752713E+02
  0
VERTEX
  8
0
 62
4
 10
-5.77202226E-01
 20
2.59811524E+02
  0
VERTEX
  8
0
 62
4
 10
-2.95271587E-01
 20
2.59879930E+02
  0
VERTEX
  8
0
 62
4
 10
-3.05681309E-02
 20
2.59957394E+02
  0
VERTEX
  8
0
 62
4
 10
2.14839827E-01
 20
2.60043313E+02
  0
VERTEX
  8
0
 62
4
 10
4.39034743E-01
 20
2.60137015E+02
  0
VERTEX
  8
0
 62
4
 10
6.40264824E-01
 20
2.60237767E+02
  0
VERTEX
  8
0
 62
4
 10
8.16957718E-01
 20
2.60344782E+02
  0
VERTEX
  8
0
 62
4
 10
9.67732798E-01
 20
2.60457224E+02
  0
VERTEX
  8
0
 62
4
 10
1.09141195E+00
 20
2.60574215E+02
  0
VERTEX
  8
0
 62
4
 10
1.18702879E+00
 20
2.60694840E+02
  0
VERTEX
  8
0
 62
4
 10
1.25383619E+00
 20
2.60818158E+02
  0
VERTEX
  8
0
 62
4
 10
1.29131214E+00
 20
2.60943203E+02
  0
VERTEX
  8
0
 62
4
 10
1.29916381E+00
 20
2.61068999E+02
  0
VERTEX
  8
0
 62
4
 10
1.27732985E+00
 20
2.61194564E+02
  0
VERTEX
  8
0
 62
4
 10
1.22598087E+00
 20
2.61318916E+02
  0
VERTEX
  8
0
 62
4
 10
1.14551809E+00
 20
2.61441084E+02
  0
VERTEX
  8
0
 62
4
 10
1.03657022E+00
 20
2.61560112E+02
  0
VERTEX
  8
0
 62
4
 10
8.99988552E-01
 20
2.61675071E+02
  0
SEQEND
  8
0
  0
ARC
  8
0
 62
4
 10
-2.50001144E+00
 20
2.56621523E+02
 40
7.36533796E+00
 50
6.78494174E+01
 51
1.12150583E+02
  0
LINE
  8
0
  6
CENTER
 62
6
 10
1.49999886E+01
 20
2.60112159E+02
 11
9.99998856E+00
 21
2.60112159E+02
  0
LINE
  8
0
  6
CENTER
 62
6
 10
4.99998856E+00
 20
2.58923282E+02
 11
4.99998856E+00
 21
2.63923282E+02
  0
LINE
  8
0
  6
CENTER
 62
6
 10
7.49998856E+00
 20
2.61423282E+02
 11
2.49998856E+00
 21
2.61423282E+02
  0
LINE
  8
0
  6
CENTER
 62
6
 10
-2.50001144E+00
 20
2.57612159E+02
 11
-2.50001144E+00
 21
2.62612159E+02
  0
LINE
  8
0
  6
CENTER
 62
6
 10
-1.14370514E-05
 20
2.60112159E+02
 11
-5.00001144E+00
 21
2.60112159E+02
  0
LINE
  8
0
 62
4
 10
1.85124393E+00
 20
2.64420135E+02
 11
-1.00000114E+01
 21
2.64420135E+02
  0
LINE
  8
0
 62
4
 10
1.99999886E+01
 20
2.58986343E+02
 11
2.14999886E+01
 21
2.60114264E+02
  0
LINE
  8
0
 62
4
 10
2.14999886E+01
 20
2.62214336E+02
 11
1.99999886E+01
 21
2.62695078E+02
  0
LINE
  8
0
 62
4
 10
2.14999886E+01
 20
2.63062820E+02
 11
1.99999886E+01
 21
2.64193504E+02
  0
LINE
  8
0
 62
4
 10
1.99999886E+01
 20
2.62695078E+02
 11
9.14998856E+00
 21
2.62695078E+02
  0
LINE
  8
0
 62
4
 10
1.99999886E+01
 20
2.64193504E+02
 11
8.58042217E+00
 21
2.64193504E+02
  0
LINE
  8
0
 62
4
 10
1.99999886E+01
 20
2.62322338E+02
 11
9.14998856E+00
 21
2.62322338E+02
  0
LINE
  8
0
 62
4
 10
-5.00001144E+00
 20
2.64045528E+02
 11
-1.00000114E+01
 21
2.64045528E+02
  0
LINE
  8
0
 62
4
 10
-5.90001144E+00
 20
2.62322338E+02
 11
-1.00000114E+01
 21
2.62322338E+02
  0
LINE
  8
0
 62
4
 10
1.41955494E+00
 20
2.64193504E+02
 11
-5.00001144E+00
 21
2.64193504E+02
  0
LINE
  8
0
 62
4
 10
1.99999886E+01
 20
2.64193504E+02
 11
1.99999886E+01
 21
2.64420135E+02
  0
LINE
  8
0
 62
4
 10
1.99999886E+01
 20
2.62322338E+02
 11
1.99999886E+01
 21
2.64193504E+02
  0
LINE
  8
0
 62
6
 10
-5.19999885E+01
 20
3.27335383E+02
 11
-5.19999885E+01
 21
3.25968055E+02
  0
LINE
  8
0
 62
6
 10
-4.89999885E+01
 20
3.27335383E+02
 11
-4.89999885E+01
 21
3.25968055E+02
  0
LINE
  8
0
 62
4
 10
-5.24999885E+01
 20
3.26839825E+02
 11
-5.24999885E+01
 21
3.25968055E+02
  0
LINE
  8
0
 62
4
 10
-4.84999885E+01
 20
3.26839825E+02
 11
-4.84999885E+01
 21
3.25968055E+02
  0
LINE
  8
0
 62
4
 10
-5.39999886E+01
 20
3.25968055E+02
 11
-5.39999886E+01
 21
3.12123549E+02
  0
LINE
  8
0
 62
4
 10
-3.89999886E+01
 20
3.25968055E+02
 11
-3.89999886E+01
 21
2.96579850E+02
  0
LINE
  8
0
  6
CENTER
 62
6
 10
-4.24999885E+01
 20
3.30765579E+02
 11
-4.24999885E+01
 21
3.20500000E+02
  0
LINE
  8
0
  6
CENTER
 62
6
 10
-5.04999885E+01
 20
3.30765579E+02
 11
-5.04999885E+01
 21
3.20500000E+02
  0
LINE
  8
0
  6
CENTER
 62
6
 10
-6.14999886E+01
 20
3.03387826E+02
 11
-6.14999886E+01
 21
2.98387826E+02
  0
LINE
  8
0
 62
4
 10
-4.39999886E+01
 20
2.96806480E+02
 11
-4.39999886E+01
 21
2.97450388E+02
  0
LINE
  8
0
 62
4
 10
-6.89999886E+01
 20
3.12123549E+02
 11
-6.89999886E+01
 21
2.98677647E+02
  0
LINE
  8
0
 62
4
 10
-4.54999886E+01
 20
2.96806480E+02
 11
-4.54999886E+01
 21
2.97081325E+02
  0
LINE
  8
0
 62
4
 10
-7.04999886E+01
 20
3.00885720E+02
 11
-7.04999886E+01
 21
2.97937165E+02
  0
LINE
  8
0
 62
4
 10
-5.39999886E+01
 20
3.25968055E+02
 11
-3.89999886E+01
 21
3.25968055E+02
  0
LINE
  8
0
 62
4
 10
-5.39999886E+01
 20
3.18613836E+02
 11
-3.89999886E+01
 21
3.18613836E+02
  0
LINE
  8
0
 62
4
 10
-6.89999886E+01
 20
3.12123549E+02
 11
-3.89999886E+01
 21
3.12123549E+02
  0
LINE
  8
0
 62
4
 10
-6.89999886E+01
 20
3.02573555E+02
 11
-3.89999886E+01
 21
3.02573555E+02
  0
LINE
  8
0
 62
4
 10
-6.89999886E+01
 20
2.96579850E+02
 11
-5.71487332E+01
 21
2.96579850E+02
  0
POLYLINE
  8
0
 62
4
 66
1
  0
VERTEX
  8
0
 62
4
 10
-4.84999885E+01
 20
3.26839825E+02
  0
VERTEX
  8
0
 62
4
 10
-4.85080399E+01
 20
3.26906984E+02
  0
VERTEX
  8
0
 62
4
 10
-4.85321293E+01
 20
3.26973602E+02
  0
VERTEX
  8
0
 62
4
 10
-4.85720628E+01
 20
3.27039143E+02
  0
VERTEX
  8
0
 62
4
 10
-4.86275188E+01
 20
3.27103080E+02
  0
VERTEX
  8
0
 62
4
 10
-4.86980508E+01
 20
3.27164896E+02
  0
VERTEX
  8
0
 62
4
 10
-4.87830909E+01
 20
3.27224096E+02
  0
VERTEX
  8
0
 62
4
 10
-4.88819545E+01
 20
3.27280201E+02
  0
VERTEX
  8
0
 62
4
 10
-4.89938456E+01
 20
3.27332761E+02
  0
VERTEX
  8
0
 62
4
 10
-4.91178632E+01
 20
3.27381352E+02
  0
VERTEX
  8
0
 62
4
 10
-4.92530089E+01
 20
3.27425583E+02
  0
VERTEX
  8
0
 62
4
 10
-4.93981945E+01
 20
3.27465098E+02
  0
VERTEX
  8
0
 62
4
 10
-4.95522512E+01
 20
3.27499579E+02
  0
VERTEX
  8
0
 62
4
 10
-4.97139384E+01
 20
3.27528747E+02
  0
VERTEX
  8
0
 62
4
 10
-4.98819545E+01
 20
3.27552369E+02
  0
VERTEX
  8
0
 62
4
 10
-5.00549466E+01
 20
3.27570254E+02
  0
VERTEX
  8
0
 62
4
 10
-5.02315220E+01
 20
3.27582258E+02
  0
VERTEX
  8
0
 62
4
 10
-5.04102588E+01
 20
3.27588284E+02
  0
VERTEX
  8
0
 62
4
 10
-5.05897181E+01
 20
3.27588284E+02
  0
VERTEX
  8
0
 62
4
 10
-5.07684550E+01
 20
3.27582258E+02
  0
VERTEX
  8
0
 62
4
 10
-5.09450304E+01
 20
3.27570254E+02
  0
VERTEX
  8
0
 62
4
 10
-5.11180225E+01
 20
3.27552369E+02
  0
VERTEX
  8
0
 62
4
 10
-5.12860386E+01
 20
3.27528747E+02
  0
VERTEX
  8
0
 62
4
 10
-5.14477258E+01
 20
3.27499579E+02
  0
VERTEX
  8
0
 62
4
 10
-5.16017825E+01
 20
3.27465098E+02
  0
VERTEX
  8
0
 62
4
 10
-5.17469681E+01
 20
3.27425583E+02
  0
VERTEX
  8
0
 62
4
 10
-5.18821138E+01
 20
3.27381352E+02
  0
VERTEX
  8
0
 62
4
 10
-5.20061314E+01
 20
3.27332761E+02
  0
VERTEX
  8
0
 62
4
 10
-5.21180225E+01
 20
3.27280201E+02
  0
VERTEX
  8
0
 62
4
 10
-5.22168861E+01
 20
3.27224096E+02
  0
VERTEX
  8
0
 62
4
 10
-5.23019262E+01
 20
3.27164896E+02
  0
VERTEX
  8
0
 62
4
 10
-5.23724582E+01
 20
3.27103080E+02
  0
VERTEX
  8
0
 62
4
 10
-5.24279142E+01
 20
3.27039143E+02
  0
VERTEX
  8
0
 62
4
 10
-5.24678477E+01
 20
3.26973602E+02
  0
VERTEX
  8
0
 62
4
 10
-5.24919371E+01
 20
3.26906984E+02
  0
VERTEX
  8
0
 62
4
 10
-5.24999885E+01
 20
3.26839825E+02
  0
SEQEND
  8
0
  0
LINE
  8
0
 62
6
 10
-4.09999885E+01
 20
3.27335383E+02
 11
-4.09999885E+01
 21
3.25968055E+02
  0
LINE
  8
0
 62
4
 10
-4.04999885E+01
 20
3.26839825E+02
 11
-4.04999885E+01
 21
3.25968055E+02
  0
POLYLINE
  8
0
 62
4
 66
1
  0
VERTEX
  8
0
 62
4
 10
-4.04999885E+01
 20
3.26839825E+02
  0
VERTEX
  8
0
 62
4
 10
-4.05080399E+01
 20
3.26906984E+02
  0
VERTEX
  8
0
 62
4
 10
-4.05321293E+01
 20
3.26973602E+02
  0
VERTEX
  8
0
 62
4
 10
-4.05720628E+01
 20
3.27039143E+02
  0
VERTEX
  8
0
 62
4
 10
-4.06275188E+01
 20
3.27103080E+02
  0
VERTEX
  8
0
 62
4
 10
-4.06980508E+01
 20
3.27164896E+02
  0
VERTEX
  8
0
 62
4
 10
-4.07830909E+01
 20
3.27224096E+02
  0
VERTEX
  8
0
 62
4
 10
-4.08819545E+01
 20
3.27280201E+02
  0
VERTEX
  8
0
 62
4
 10
-4.09938456E+01
 20
3.27332761E+02
  0
VERTEX
  8
0
 62
4
 10
-4.11178632E+01
 20
3.27381352E+02
  0
VERTEX
  8
0
 62
4
 10
-4.12530089E+01
 20
3.27425583E+02
  0
VERTEX
  8
0
 62
4
 10
-4.13981945E+01
 20
3.27465098E+02
  0
VERTEX
  8
0
 62
4
 10
-4.15522512E+01
 20
3.27499579E+02
  0
VERTEX
  8
0
 62
4
 10
-4.17139384E+01
 20
3.27528747E+02
  0
VERTEX
  8
0
 62
4
 10
-4.18819545E+01
 20
3.27552369E+02
  0
VERTEX
  8
0
 62
4
 10
-4.20549466E+01
 20
3.27570254E+02
  0
VERTEX
  8
0
 62
4
 10
-4.22315220E+01
 20
3.27582258E+02
  0
VERTEX
  8
0
 62
4
 10
-4.24102588E+01
 20
3.27588284E+02
  0
VERTEX
  8
0
 62
4
 10
-4.25897181E+01
 20
3.27588284E+02
  0
VERTEX
  8
0
 62
4
 10
-4.27684550E+01
 20
3.27582258E+02
  0
VERTEX
  8
0
 62
4
 10
-4.29450304E+01
 20
3.27570254E+02
  0
VERTEX
  8
0
 62
4
 10
-4.31180225E+01
 20
3.27552369E+02
  0
VERTEX
  8
0
 62
4
 10
-4.32860386E+01
 20
3.27528747E+02
  0
VERTEX
  8
0
 62
4
 10
-4.34477258E+01
 20
3.27499579E+02
  0
VERTEX
  8
0
 62
4
 10
-4.36017825E+01
 20
3.27465098E+02
  0
VERTEX
  8
0
 62
4
 10
-4.37469681E+01
 20
3.27425583E+02
  0
VERTEX
  8
0
 62
4
 10
-4.38821138E+01
 20
3.27381352E+02
  0
VERTEX
  8
0
 62
4
 10
-4.40061314E+01
 20
3.27332761E+02
  0
VERTEX
  8
0
 62
4
 10
-4.41180225E+01
 20
3.27280201E+02
  0
VERTEX
  8
0
 62
4
 10
-4.42168861E+01
 20
3.27224096E+02
  0
VERTEX
  8
0
 62
4
 10
-4.43019262E+01
 20
3.27164896E+02
  0
VERTEX
  8
0
 62
4
 10
-4.43724582E+01
 20
3.27103080E+02
  0
VERTEX
  8
0
 62
4
 10
-4.44279142E+01
 20
3.27039143E+02
  0
VERTEX
  8
0
 62
4
 10
-4.44678477E+01
 20
3.26973602E+02
  0
VERTEX
  8
0
 62
4
 10
-4.44919371E+01
 20
3.26906984E+02
  0
VERTEX
  8
0
 62
4
 10
-4.44999885E+01
 20
3.26839825E+02
  0
SEQEND
  8
0
  0
LINE
  8
0
 62
6
 10
-4.39999885E+01
 20
3.27335383E+02
 11
-4.39999885E+01
 21
3.25968055E+02
  0
LINE
  8
0
 62
4
 10
-4.44999885E+01
 20
3.26839825E+02
 11
-4.44999885E+01
 21
3.25968055E+02
  0
LINE
  8
0
 62
4
 10
-4.98499886E+01
 20
2.98170660E+02
 11
-4.98499886E+01
 21
2.97592529E+02
  0
LINE
  8
0
 62
4
 10
-5.81499886E+01
 20
2.99224373E+02
 11
-5.81499886E+01
 21
2.97592529E+02
  0
POLYLINE
  8
0
 62
4
 66
1
  0
VERTEX
  8
0
 62
4
 10
-5.02989705E+01
 20
2.99927693E+02
  0
VERTEX
  8
0
 62
4
 10
-5.04806509E+01
 20
3.00048232E+02
  0
VERTEX
  8
0
 62
4
 10
-5.06902340E+01
 20
3.00162239E+02
  0
VERTEX
  8
0
 62
4
 10
-5.09260581E+01
 20
3.00268810E+02
  0
VERTEX
  8
0
 62
4
 10
-5.11862536E+01
 20
3.00367101E+02
  0
VERTEX
  8
0
 62
4
 10
-5.14687576E+01
 20
3.00456332E+02
  0
VERTEX
  8
0
 62
4
 10
-5.17713301E+01
 20
3.00535795E+02
  0
VERTEX
  8
0
 62
4
 10
-5.20915723E+01
 20
3.00604860E+02
  0
VERTEX
  8
0
 62
4
 10
-5.24269452E+01
 20
3.00662981E+02
  0
VERTEX
  8
0
 62
4
 10
-5.27747899E+01
 20
3.00709696E+02
  0
VERTEX
  8
0
 62
4
 10
-5.31323484E+01
 20
3.00744634E+02
  0
VERTEX
  8
0
 62
4
 10
-5.34967859E+01
 20
3.00767520E+02
  0
VERTEX
  8
0
 62
4
 10
-5.38652130E+01
 20
3.00778170E+02
  0
VERTEX
  8
0
 62
4
 10
-5.42347086E+01
 20
3.00776502E+02
  0
VERTEX
  8
0
 62
4
 10
-5.46023433E+01
 20
3.00762527E+02
  0
VERTEX
  8
0
 62
4
 10
-5.49652023E+01
 20
3.00736358E+02
  0
VERTEX
  8
0
 62
4
 10
-5.53204087E+01
 20
3.00698201E+02
  0
VERTEX
  8
0
 62
4
 10
-5.56651462E+01
 20
3.00648359E+02
  0
VERTEX
  8
0
 62
4
 10
-5.59966818E+01
 20
3.00587226E+02
  0
VERTEX
  8
0
 62
4
 10
-5.63123867E+01
 20
3.00515289E+02
  0
VERTEX
  8
0
 62
4
 10
-5.66097580E+01
 20
3.00433117E+02
  0
VERTEX
  8
0
 62
4
 10
-5.68864381E+01
 20
3.00341361E+02
  0
VERTEX
  8
0
 62
4
 10
-5.71402332E+01
 20
3.00240749E+02
  0
VERTEX
  8
0
 62
4
 10
-5.73691312E+01
 20
3.00132080E+02
  0
VERTEX
  8
0
 62
4
 10
-5.75713173E+01
 20
3.00016213E+02
  0
VERTEX
  8
0
 62
4
 10
-5.77451884E+01
 20
2.99894068E+02
  0
VERTEX
  8
0
 62
4
 10
-5.78893661E+01
 20
2.99766614E+02
  0
VERTEX
  8
0
 62
4
 10
-5.80027073E+01
 20
2.99634861E+02
  0
VERTEX
  8
0
 62
4
 10
-5.80843133E+01
 20
2.99499853E+02
  0
VERTEX
  8
0
 62
4
 10
-5.81335372E+01
 20
2.99362661E+02
  0
VERTEX
  8
0
 62
4
 10
-5.81499886E+01
 20
2.99224373E+02
  0
SEQEND
  8
0
  0
POLYLINE
  8
0
 62
4
 66
1
  0
VERTEX
  8
0
 62
4
 10
-5.81499886E+01
 20
2.97592529E+02
  0
VERTEX
  8
0
 62
4
 10
-5.81341966E+01
 20
2.97457035E+02
  0
VERTEX
  8
0
 62
4
 10
-5.80869408E+01
 20
2.97322573E+02
  0
VERTEX
  8
0
 62
4
 10
-5.80085808E+01
 20
2.97190164E+02
  0
VERTEX
  8
0
 62
4
 10
-5.78997130E+01
 20
2.97060819E+02
  0
VERTEX
  8
0
 62
4
 10
-5.77611659E+01
 20
2.96935519E+02
  0
VERTEX
  8
0
 62
4
 10
-5.75939940E+01
 20
2.96815220E+02
  0
VERTEX
  8
0
 62
4
 10
-5.73994696E+01
 20
2.96700837E+02
  0
VERTEX
  8
0
 62
4
 10
-5.71790730E+01
 20
2.96593240E+02
  0
VERTEX
  8
0
 62
4
 10
-5.69344817E+01
 20
2.96493249E+02
  0
VERTEX
  8
0
 62
4
 10
-5.66675572E+01
 20
2.96401623E+02
  0
VERTEX
  8
0
 62
4
 10
-5.63803308E+01
 20
2.96319061E+02
  0
VERTEX
  8
0
 62
4
 10
-5.60749886E+01
 20
2.96246191E+02
  0
VERTEX
  8
0
 62
4
 10
-5.57538544E+01
 20
2.96183567E+02
  0
VERTEX
  8
0
 62
4
 10
-5.54193722E+01
 20
2.96131667E+02
  0
VERTEX
  8
0
 62
4
 10
-5.50740876E+01
 20
2.96090884E+02
  0
VERTEX
  8
0
 62
4
 10
-5.47206285E+01
 20
2.96061530E+02
  0
VERTEX
  8
0
 62
4
 10
-5.43616849E+01
 20
2.96043827E+02
  0
VERTEX
  8
0
 62
4
 10
-5.39999886E+01
 20
2.96037912E+02
  0
VERTEX
  8
0
 62
4
 10
-5.36382923E+01
 20
2.96043827E+02
  0
VERTEX
  8
0
 62
4
 10
-5.32793487E+01
 20
2.96061530E+02
  0
VERTEX
  8
0
 62
4
 10
-5.29258896E+01
 20
2.96090884E+02
  0
VERTEX
  8
0
 62
4
 10
-5.25806050E+01
 20
2.96131667E+02
  0
VERTEX
  8
0
 62
4
 10
-5.22461228E+01
 20
2.96183567E+02
  0
VERTEX
  8
0
 62
4
 10
-5.19249886E+01
 20
2.96246191E+02
  0
VERTEX
  8
0
 62
4
 10
-5.16196464E+01
 20
2.96319061E+02
  0
VERTEX
  8
0
 62
4
 10
-5.13324200E+01
 20
2.96401623E+02
  0
VERTEX
  8
0
 62
4
 10
-5.10654955E+01
 20
2.96493249E+02
  0
VERTEX
  8
0
 62
4
 10
-5.08209042E+01
 20
2.96593240E+02
  0
VERTEX
  8
0
 62
4
 10
-5.06005076E+01
 20
2.96700837E+02
  0
VERTEX
  8
0
 62
4
 10
-5.04059832E+01
 20
2.96815220E+02
  0
VERTEX
  8
0
 62
4
 10
-5.02388113E+01
 20
2.96935519E+02
  0
VERTEX
  8
0
 62
4
 10
-5.01002642E+01
 20
2.97060819E+02
  0
VERTEX
  8
0
 62
4
 10
-4.99913964E+01
 20
2.97190164E+02
  0
VERTEX
  8
0
 62
4
 10
-4.99130364E+01
 20
2.97322573E+02
  0
VERTEX
  8
0
 62
4
 10
-4.98657806E+01
 20
2.97457035E+02
  0
VERTEX
  8
0
 62
4
 10
-4.98499886E+01
 20
2.97592529E+02
  0
VERTEX
  8
0
 62
4
 10
-4.98657806E+01
 20
2.97728023E+02
  0
VERTEX
  8
0
 62
4
 10
-4.99130364E+01
 20
2.97862485E+02
  0
VERTEX
  8
0
 62
4
 10
-4.99913964E+01
 20
2.97994894E+02
  0
VERTEX
  8
0
 62
4
 10
-5.01002642E+01
 20
2.98124239E+02
  0
VERTEX
  8
0
 62
4
 10
-5.02388113E+01
 20
2.98249539E+02
  0
VERTEX
  8
0
 62
4
 10
-5.04059832E+01
 20
2.98369838E+02
  0
VERTEX
  8
0
 62
4
 10
-5.06005076E+01
 20
2.98484221E+02
  0
VERTEX
  8
0
 62
4
 10
-5.08209042E+01
 20
2.98591818E+02
  0
VERTEX
  8
0
 62
4
 10
-5.10654955E+01
 20
2.98691809E+02
  0
VERTEX
  8
0
 62
4
 10
-5.13324200E+01
 20
2.98783435E+02
  0
VERTEX
  8
0
 62
4
 10
-5.16196464E+01
 20
2.98865997E+02
  0
VERTEX
  8
0
 62
4
 10
-5.19249886E+01
 20
2.98938867E+02
  0
VERTEX
  8
0
 62
4
 10
-5.22461228E+01
 20
2.99001491E+02
  0
VERTEX
  8
0
 62
4
 10
-5.25806050E+01
 20
2.99053391E+02
  0
VERTEX
  8
0
 62
4
 10
-5.29258896E+01
 20
2.99094174E+02
  0
VERTEX
  8
0
 62
4
 10
-5.32793487E+01
 20
2.99123528E+02
  0
VERTEX
  8
0
 62
4
 10
-5.36382923E+01
 20
2.99141231E+02
  0
VERTEX
  8
0
 62
4
 10
-5.39999886E+01
 20
2.99147146E+02
  0
VERTEX
  8
0
 62
4
 10
-5.43616849E+01
 20
2.99141231E+02
  0
VERTEX
  8
0
 62
4
 10
-5.47206285E+01
 20
2.99123528E+02
  0
VERTEX
  8
0
 62
4
 10
-5.50740876E+01
 20
2.99094174E+02
  0
VERTEX
  8
0
 62
4
 10
-5.54193722E+01
 20
2.99053391E+02
  0
VERTEX
  8
0
 62
4
 10
-5.57538544E+01
 20
2.99001491E+02
  0
VERTEX
  8
0
 62
4
 10
-5.60749886E+01
 20
2.98938867E+02
  0
VERTEX
  8
0
 62
4
 10
-5.63803308E+01
 20
2.98865997E+02
  0
VERTEX
  8
0
 62
4
 10
-5.66675572E+01
 20
2.98783435E+02
  0
VERTEX
  8
0
 62
4
 10
-5.69344817E+01
 20
2.98691809E+02
  0
VERTEX
  8
0
 62
4
 10
-5.71790730E+01
 20
2.98591818E+02
  0
VERTEX
  8
0
 62
4
 10
-5.73994696E+01
 20
2.98484221E+02
  0
VERTEX
  8
0
 62
4
 10
-5.75939940E+01
 20
2.98369838E+02
  0
VERTEX
  8
0
 62
4
 10
-5.77611659E+01
 20
2.98249539E+02
  0
VERTEX
  8
0
 62
4
 10
-5.78997130E+01
 20
2.98124239E+02
  0
VERTEX
  8
0
 62
4
 10
-5.80085808E+01
 20
2.97994894E+02
  0
VERTEX
  8
0
 62
4
 10
-5.80869408E+01
 20
2.97862485E+02
  0
VERTEX
  8
0
 62
4
 10
-5.81341966E+01
 20
2.97728023E+02
  0
VERTEX
  8
0
 62
4
 10
-5.81499886E+01
 20
2.97592529E+02
  0
SEQEND
  8
0
  0
ARC
  8
0
 62
4
 10
-5.96166958E+01
 20
3.12012670E+02
 40
1.61228529E+01
 50
2.83811345E+02
 51
2.97258956E+02
  0
ARC
  8
0
 62
4
 10
-4.83832787E+01
 20
3.12012678E+02
 40
1.61228609E+01
 50
2.42741048E+02
 51
2.56188651E+02
  0
POLYLINE
  8
0
 62
4
 66
1
  0
VERTEX
  8
0
 62
4
 10
-5.02999886E+01
 20
3.00146056E+02
  0
VERTEX
  8
0
 62
4
 10
-5.04466312E+01
 20
3.00264762E+02
  0
VERTEX
  8
0
 62
4
 10
-5.06203499E+01
 20
3.00378225E+02
  0
VERTEX
  8
0
 62
4
 10
-5.08198210E+01
 20
3.00485580E+02
  0
VERTEX
  8
0
 62
4
 10
-5.10435246E+01
 20
3.00586010E+02
  0
VERTEX
  8
0
 62
4
 10
-5.12897562E+01
 20
3.00678750E+02
  0
VERTEX
  8
0
 62
4
 10
-5.15566393E+01
 20
3.00763091E+02
  0
VERTEX
  8
0
 62
4
 10
-5.18421405E+01
 20
3.00838393E+02
  0
VERTEX
  8
0
 62
4
 10
-5.21440842E+01
 20
3.00904081E+02
  0
VERTEX
  8
0
 62
4
 10
-5.24601697E+01
 20
3.00959654E+02
  0
VERTEX
  8
0
 62
4
 10
-5.27879884E+01
 20
3.01004689E+02
  0
VERTEX
  8
0
 62
4
 10
-5.31250424E+01
 20
3.01038843E+02
  0
VERTEX
  8
0
 62
4
 10
-5.34687634E+01
 20
3.01061856E+02
  0
VERTEX
  8
0
 62
4
 10
-5.38165323E+01
 20
3.01073553E+02
  0
VERTEX
  8
0
 62
4
 10
-5.41656991E+01
 20
3.01073843E+02
  0
VERTEX
  8
0
 62
4
 10
-5.45136032E+01
 20
3.01062725E+02
  0
VERTEX
  8
0
 62
4
 10
-5.48575936E+01
 20
3.01040284E+02
  0
VERTEX
  8
0
 62
4
 10
-5.51950491E+01
 20
3.01006691E+02
  0
VERTEX
  8
0
 62
4
 10
-5.55233985E+01
 20
3.00962202E+02
  0
VERTEX
  8
0
 62
4
 10
-5.58401396E+01
 20
3.00907155E+02
  0
VERTEX
  8
0
 62
4
 10
-5.61428590E+01
 20
3.00841970E+02
  0
VERTEX
  8
0
 62
4
 10
-5.64292500E+01
 20
3.00767144E+02
  0
VERTEX
  8
0
 62
4
 10
-5.66971304E+01
 20
3.00683247E+02
  0
VERTEX
  8
0
 62
4
 10
-5.69444588E+01
 20
3.00590918E+02
  0
VERTEX
  8
0
 62
4
 10
-5.71693508E+01
 20
3.00490862E+02
  0
VERTEX
  8
0
 62
4
 10
-5.73700926E+01
 20
3.00383839E+02
  0
VERTEX
  8
0
 62
4
 10
-5.75451546E+01
 20
3.00270666E+02
  0
VERTEX
  8
0
 62
4
 10
-5.76932029E+01
 20
3.00152205E+02
  0
VERTEX
  8
0
 62
4
 10
-5.78131093E+01
 20
3.00029359E+02
  0
VERTEX
  8
0
 62
4
 10
-5.79039602E+01
 20
2.99903064E+02
  0
VERTEX
  8
0
 62
4
 10
-5.79650634E+01
 20
2.99774282E+02
  0
VERTEX
  8
0
 62
4
 10
-5.79959532E+01
 20
2.99643994E+02
  0
SEQEND
  8
0
  0
LINE
  8
0
 62
4
 10
-4.98999886E+01
 20
2.99960642E+02
 11
-4.98999886E+01
 21
2.98482911E+02
  0
POLYLINE
  8
0
 62
4
 66
1
  0
VERTEX
  8
0
 62
4
 10
-4.30999886E+01
 20
2.99960642E+02
  0
VERTEX
  8
0
 62
4
 10
-4.31136760E+01
 20
3.00074812E+02
  0
VERTEX
  8
0
 62
4
 10
-4.31546280E+01
 20
3.00188063E+02
  0
VERTEX
  8
0
 62
4
 10
-4.32225149E+01
 20
3.00299483E+02
  0
VERTEX
  8
0
 62
4
 10
-4.33167900E+01
 20
3.00408175E+02
  0
VERTEX
  8
0
 62
4
 10
-4.34366944E+01
 20
3.00513263E+02
  0
VERTEX
  8
0
 62
4
 10
-4.35812627E+01
 20
3.00613903E+02
  0
VERTEX
  8
0
 62
4
 10
-4.37493308E+01
 20
3.00709282E+02
  0
VERTEX
  8
0
 62
4
 10
-4.39395456E+01
 20
3.00798634E+02
  0
VERTEX
  8
0
 62
4
 10
-4.41503756E+01
 20
3.00881239E+02
  0
VERTEX
  8
0
 62
4
 10
-4.43801233E+01
 20
3.00956431E+02
  0
VERTEX
  8
0
 62
4
 10
-4.46269388E+01
 20
3.01023607E+02
  0
VERTEX
  8
0
 62
4
 10
-4.48888351E+01
 20
3.01082223E+02
  0
VERTEX
  8
0
 62
4
 10
-4.51637035E+01
 20
3.01131810E+02
  0
VERTEX
  8
0
 62
4
 10
-4.54493308E+01
 20
3.01171967E+02
  0
VERTEX
  8
0
 62
4
 10
-4.57434174E+01
 20
3.01202371E+02
  0
VERTEX
  8
0
 62
4
 10
-4.60435955E+01
 20
3.01222777E+02
  0
VERTEX
  8
0
 62
4
 10
-4.63474482E+01
 20
3.01233022E+02
  0
VERTEX
  8
0
 62
4
 10
-4.66525290E+01
 20
3.01233022E+02
  0
VERTEX
  8
0
 62
4
 10
-4.69563817E+01
 20
3.01222777E+02
  0
VERTEX
  8
0
 62
4
 10
-4.72565598E+01
 20
3.01202371E+02
  0
VERTEX
  8
0
 62
4
 10
-4.75506464E+01
 20
3.01171967E+02
  0
VERTEX
  8
0
 62
4
 10
-4.78362737E+01
 20
3.01131810E+02
  0
VERTEX
  8
0
 62
4
 10
-4.81111420E+01
 20
3.01082223E+02
  0
VERTEX
  8
0
 62
4
 10
-4.83730383E+01
 20
3.01023607E+02
  0
VERTEX
  8
0
 62
4
 10
-4.86198539E+01
 20
3.00956431E+02
  0
VERTEX
  8
0
 62
4
 10
-4.88496016E+01
 20
3.00881239E+02
  0
VERTEX
  8
0
 62
4
 10
-4.90604316E+01
 20
3.00798634E+02
  0
VERTEX
  8
0
 62
4
 10
-4.92506464E+01
 20
3.00709282E+02
  0
VERTEX
  8
0
 62
4
 10
-4.94187145E+01
 20
3.00613903E+02
  0
VERTEX
  8
0
 62
4
 10
-4.95632827E+01
 20
3.00513263E+02
  0
VERTEX
  8
0
 62
4
 10
-4.96831872E+01
 20
3.00408175E+02
  0
VERTEX
  8
0
 62
4
 10
-4.97774623E+01
 20
3.00299483E+02
  0
VERTEX
  8
0
 62
4
 10
-4.98453492E+01
 20
3.00188063E+02
  0
VERTEX
  8
0
 62
4
 10
-4.98863012E+01
 20
3.00074812E+02
  0
VERTEX
  8
0
 62
4
 10
-4.98999886E+01
 20
2.99960642E+02
  0
SEQEND
  8
0
  0
POLYLINE
  8
0
 62
4
 66
1
  0
VERTEX
  8
0
 62
4
 10
-4.30999886E+01
 20
2.98912924E+02
  0
VERTEX
  8
0
 62
4
 10
-4.31136760E+01
 20
2.99027094E+02
  0
VERTEX
  8
0
 62
4
 10
-4.31546280E+01
 20
2.99140345E+02
  0
VERTEX
  8
0
 62
4
 10
-4.32225149E+01
 20
2.99251765E+02
  0
VERTEX
  8
0
 62
4
 10
-4.33167900E+01
 20
2.99360457E+02
  0
VERTEX
  8
0
 62
4
 10
-4.34366944E+01
 20
2.99465545E+02
  0
VERTEX
  8
0
 62
4
 10
-4.35812627E+01
 20
2.99566185E+02
  0
VERTEX
  8
0
 62
4
 10
-4.37493308E+01
 20
2.99661564E+02
  0
VERTEX
  8
0
 62
4
 10
-4.39395456E+01
 20
2.99750916E+02
  0
VERTEX
  8
0
 62
4
 10
-4.41503756E+01
 20
2.99833521E+02
  0
VERTEX
  8
0
 62
4
 10
-4.43801233E+01
 20
2.99908713E+02
  0
VERTEX
  8
0
 62
4
 10
-4.46269388E+01
 20
2.99975889E+02
  0
VERTEX
  8
0
 62
4
 10
-4.48888351E+01
 20
3.00034505E+02
  0
VERTEX
  8
0
 62
4
 10
-4.51637035E+01
 20
3.00084092E+02
  0
VERTEX
  8
0
 62
4
 10
-4.54493308E+01
 20
3.00124249E+02
  0
VERTEX
  8
0
 62
4
 10
-4.57434174E+01
 20
3.00154653E+02
  0
VERTEX
  8
0
 62
4
 10
-4.60435955E+01
 20
3.00175059E+02
  0
VERTEX
  8
0
 62
4
 10
-4.63474482E+01
 20
3.00185304E+02
  0
VERTEX
  8
0
 62
4
 10
-4.66525290E+01
 20
3.00185304E+02
  0
VERTEX
  8
0
 62
4
 10
-4.69563817E+01
 20
3.00175059E+02
  0
VERTEX
  8
0
 62
4
 10
-4.72565598E+01
 20
3.00154653E+02
  0
VERTEX
  8
0
 62
4
 10
-4.75506464E+01
 20
3.00124249E+02
  0
VERTEX
  8
0
 62
4
 10
-4.78362737E+01
 20
3.00084092E+02
  0
VERTEX
  8
0
 62
4
 10
-4.81111420E+01
 20
3.00034505E+02
  0
VERTEX
  8
0
 62
4
 10
-4.83730383E+01
 20
2.99975889E+02
  0
VERTEX
  8
0
 62
4
 10
-4.86198539E+01
 20
2.99908713E+02
  0
VERTEX
  8
0
 62
4
 10
-4.88496016E+01
 20
2.99833521E+02
  0
VERTEX
  8
0
 62
4
 10
-4.90604316E+01
 20
2.99750916E+02
  0
VERTEX
  8
0
 62
4
 10
-4.92506464E+01
 20
2.99661564E+02
  0
VERTEX
  8
0
 62
4
 10
-4.94187145E+01
 20
2.99566185E+02
  0
VERTEX
  8
0
 62
4
 10
-4.95632827E+01
 20
2.99465545E+02
  0
VERTEX
  8
0
 62
4
 10
-4.96831872E+01
 20
2.99360457E+02
  0
VERTEX
  8
0
 62
4
 10
-4.97774623E+01
 20
2.99251765E+02
  0
VERTEX
  8
0
 62
4
 10
-4.98453492E+01
 20
2.99140345E+02
  0
VERTEX
  8
0
 62
4
 10
-4.98863012E+01
 20
2.99027094E+02
  0
VERTEX
  8
0
 62
4
 10
-4.98999886E+01
 20
2.98912924E+02
  0
SEQEND
  8
0
  0
LINE
  8
0
 62
4
 10
-4.30999886E+01
 20
2.98482911E+02
 11
-4.30999886E+01
 21
2.99960642E+02
  0
ARC
  8
0
 62
4
 10
-4.40999882E+01
 20
2.98482911E+02
 40
1.00000000E+00
 50
2.82827510E+02
 51
0.00000000E+00
  0
ARC
  8
0
 62
4
 10
-4.88999889E+01
 20
2.98482911E+02
 40
1.00000000E+00
 50
1.80000000E+02
 51
2.57172490E+02
  0
ARC
  8
0
 62
4
 10
-5.18873734E+01
 20
3.12239665E+02
 40
1.54729912E+01
 50
2.83783165E+02
 51
2.97543924E+02
  0
ARC
  8
0
 62
4
 10
-4.11126033E+01
 20
3.12239667E+02
 40
1.54729926E+01
 50
2.42456077E+02
 51
2.56216834E+02
  0
LINE
  8
0
 62
4
 10
-4.26999886E+01
 20
3.00887826E+02
 11
-4.26999886E+01
 21
2.99960642E+02
  0
LINE
  8
0
 62
4
 10
-5.02999886E+01
 20
3.00887826E+02
 11
-5.02999886E+01
 21
2.99960642E+02
  0
POLYLINE
  8
0
 62
4
 66
1
  0
VERTEX
  8
0
 62
4
 10
-4.26999886E+01
 20
3.00887826E+02
  0
VERTEX
  8
0
 62
4
 10
-4.27152863E+01
 20
3.01015428E+02
  0
VERTEX
  8
0
 62
4
 10
-4.27610562E+01
 20
3.01142003E+02
  0
VERTEX
  8
0
 62
4
 10
-4.28369297E+01
 20
3.01266531E+02
  0
VERTEX
  8
0
 62
4
 10
-4.29422961E+01
 20
3.01388010E+02
  0
VERTEX
  8
0
 62
4
 10
-4.30763069E+01
 20
3.01505462E+02
  0
VERTEX
  8
0
 62
4
 10
-4.32378832E+01
 20
3.01617941E+02
  0
VERTEX
  8
0
 62
4
 10
-4.34257240E+01
 20
3.01724541E+02
  0
VERTEX
  8
0
 62
4
 10
-4.36383170E+01
 20
3.01824405E+02
  0
VERTEX
  8
0
 62
4
 10
-4.38739505E+01
 20
3.01916728E+02
  0
VERTEX
  8
0
 62
4
 10
-4.41307273E+01
 20
3.02000767E+02
  0
VERTEX
  8
0
 62
4
 10
-4.44065801E+01
 20
3.02075845E+02
  0
VERTEX
  8
0
 62
4
 10
-4.46992877E+01
 20
3.02141358E+02
  0
VERTEX
  8
0
 62
4
 10
-4.50064935E+01
 20
3.02196778E+02
  0
VERTEX
  8
0
 62
4
 10
-4.53257240E+01
 20
3.02241660E+02
  0
VERTEX
  8
0
 62
4
 10
-4.56544090E+01
 20
3.02275641E+02
  0
VERTEX
  8
0
 62
4
 10
-4.59899022E+01
 20
3.02298448E+02
  0
VERTEX
  8
0
 62
4
 10
-4.63295022E+01
 20
3.02309898E+02
  0
VERTEX
  8
0
 62
4
 10
-4.66704749E+01
 20
3.02309898E+02
  0
VERTEX
  8
0
 62
4
 10
-4.70100750E+01
 20
3.02298448E+02
  0
VERTEX
  8
0
 62
4
 10
-4.73455681E+01
 20
3.02275641E+02
  0
VERTEX
  8
0
 62
4
 10
-4.76742532E+01
 20
3.02241660E+02
  0
VERTEX
  8
0
 62
4
 10
-4.79934837E+01
 20
3.02196778E+02
  0
VERTEX
  8
0
 62
4
 10
-4.83006895E+01
 20
3.02141358E+02
  0
VERTEX
  8
0
 62
4
 10
-4.85933971E+01
 20
3.02075845E+02
  0
VERTEX
  8
0
 62
4
 10
-4.88692498E+01
 20
3.02000767E+02
  0
VERTEX
  8
0
 62
4
 10
-4.91260266E+01
 20
3.01916728E+02
  0
VERTEX
  8
0
 62
4
 10
-4.93616602E+01
 20
3.01824405E+02
  0
VERTEX
  8
0
 62
4
 10
-4.95742532E+01
 20
3.01724541E+02
  0
VERTEX
  8
0
 62
4
 10
-4.97620940E+01
 20
3.01617941E+02
  0
VERTEX
  8
0
 62
4
 10
-4.99236703E+01
 20
3.01505462E+02
  0
VERTEX
  8
0
 62
4
 10
-5.00576811E+01
 20
3.01388010E+02
  0
VERTEX
  8
0
 62
4
 10
-5.01630475E+01
 20
3.01266531E+02
  0
VERTEX
  8
0
 62
4
 10
-5.02389210E+01
 20
3.01142003E+02
  0
VERTEX
  8
0
 62
4
 10
-5.02846909E+01
 20
3.01015428E+02
  0
VERTEX
  8
0
 62
4
 10
-5.02999886E+01
 20
3.00887826E+02
  0
SEQEND
  8
0
  0
POLYLINE
  8
0
 62
4
 66
1
  0
VERTEX
  8
0
 62
4
 10
-4.30999886E+01
 20
2.99324914E+02
  0
VERTEX
  8
0
 62
4
 10
-4.29634069E+01
 20
2.99439873E+02
  0
VERTEX
  8
0
 62
4
 10
-4.28544591E+01
 20
2.99558901E+02
  0
VERTEX
  8
0
 62
4
 10
-4.27739963E+01
 20
2.99681069E+02
  0
VERTEX
  8
0
 62
4
 10
-4.27226473E+01
 20
2.99805421E+02
  0
VERTEX
  8
0
 62
4
 10
-4.27008133E+01
 20
2.99930986E+02
  0
VERTEX
  8
0
 62
4
 10
-4.27086650E+01
 20
3.00056782E+02
  0
VERTEX
  8
0
 62
4
 10
-4.27461410E+01
 20
3.00181827E+02
  0
VERTEX
  8
0
 62
4
 10
-4.28129484E+01
 20
3.00305145E+02
  0
VERTEX
  8
0
 62
4
 10
-4.29085652E+01
 20
3.00425770E+02
  0
VERTEX
  8
0
 62
4
 10
-4.30322444E+01
 20
3.00542761E+02
  0
VERTEX
  8
0
 62
4
 10
-4.31830195E+01
 20
3.00655203E+02
  0
VERTEX
  8
0
 62
4
 10
-4.33597124E+01
 20
3.00762218E+02
  0
VERTEX
  8
0
 62
4
 10
-4.35609424E+01
 20
3.00862970E+02
  0
VERTEX
  8
0
 62
4
 10
-4.37851374E+01
 20
3.00956672E+02
  0
VERTEX
  8
0
 62
4
 10
-4.40305453E+01
 20
3.01042591E+02
  0
VERTEX
  8
0
 62
4
 10
-4.42952488E+01
 20
3.01120055E+02
  0
VERTEX
  8
0
 62
4
 10
-4.45771794E+01
 20
3.01188461E+02
  0
VERTEX
  8
0
 62
4
 10
-4.48741343E+01
 20
3.01247272E+02
  0
VERTEX
  8
0
 62
4
 10
-4.51837932E+01
 20
3.01296031E+02
  0
VERTEX
  8
0
 62
4
 10
-4.55037364E+01
 20
3.01334355E+02
  0
VERTEX
  8
0
 62
4
 10
-4.58314640E+01
 20
3.01361945E+02
  0
VERTEX
  8
0
 62
4
 10
-4.61644153E+01
 20
3.01378586E+02
  0
VERTEX
  8
0
 62
4
 10
-4.64999886E+01
 20
3.01384147E+02
  0
VERTEX
  8
0
 62
4
 10
-4.68355620E+01
 20
3.01378586E+02
  0
VERTEX
  8
0
 62
4
 10
-4.71685132E+01
 20
3.01361945E+02
  0
VERTEX
  8
0
 62
4
 10
-4.74962409E+01
 20
3.01334355E+02
  0
VERTEX
  8
0
 62
4
 10
-4.78161841E+01
 20
3.01296031E+02
  0
VERTEX
  8
0
 62
4
 10
-4.81258429E+01
 20
3.01247272E+02
  0
VERTEX
  8
0
 62
4
 10
-4.84227978E+01
 20
3.01188461E+02
  0
VERTEX
  8
0
 62
4
 10
-4.87047284E+01
 20
3.01120055E+02
  0
VERTEX
  8
0
 62
4
 10
-4.89694319E+01
 20
3.01042591E+02
  0
VERTEX
  8
0
 62
4
 10
-4.92148399E+01
 20
3.00956672E+02
  0
VERTEX
  8
0
 62
4
 10
-4.94390348E+01
 20
3.00862970E+02
  0
VERTEX
  8
0
 62
4
 10
-4.96402649E+01
 20
3.00762218E+02
  0
VERTEX
  8
0
 62
4
 10
-4.98169578E+01
 20
3.00655203E+02
  0
VERTEX
  8
0
 62
4
 10
-4.99677328E+01
 20
3.00542761E+02
  0
VERTEX
  8
0
 62
4
 10
-5.00914120E+01
 20
3.00425770E+02
  0
VERTEX
  8
0
 62
4
 10
-5.01870288E+01
 20
3.00305145E+02
  0
VERTEX
  8
0
 62
4
 10
-5.02538362E+01
 20
3.00181827E+02
  0
VERTEX
  8
0
 62
4
 10
-5.02913122E+01
 20
3.00056782E+02
  0
VERTEX
  8
0
 62
4
 10
-5.02991639E+01
 20
2.99930986E+02
  0
VERTEX
  8
0
 62
4
 10
-5.02773299E+01
 20
2.99805421E+02
  0
VERTEX
  8
0
 62
4
 10
-5.02259809E+01
 20
2.99681069E+02
  0
VERTEX
  8
0
 62
4
 10
-5.01455181E+01
 20
2.99558901E+02
  0
VERTEX
  8
0
 62
4
 10
-5.00365703E+01
 20
2.99439873E+02
  0
VERTEX
  8
0
 62
4
 10
-4.98999886E+01
 20
2.99324914E+02
  0
SEQEND
  8
0
  0
ARC
  8
0
 62
4
 10
-4.64999886E+01
 20
3.04378462E+02
 40
7.36533796E+00
 50
2.47849417E+02
 51
2.92150583E+02
  0
LINE
  8
0
  6
CENTER
 62
6
 10
-6.39999886E+01
 20
3.00887826E+02
 11
-5.89999886E+01
 21
3.00887826E+02
  0
LINE
  8
0
  6
CENTER
 62
6
 10
-5.39999886E+01
 20
3.02076703E+02
 11
-5.39999886E+01
 21
2.97076703E+02
  0
LINE
  8
0
  6
CENTER
 62
6
 10
-5.64999886E+01
 20
2.99576703E+02
 11
-5.14999886E+01
 21
2.99576703E+02
  0
LINE
  8
0
  6
CENTER
 62
6
 10
-4.64999886E+01
 20
3.03387826E+02
 11
-4.64999886E+01
 21
2.98387826E+02
  0
LINE
  8
0
  6
CENTER
 62
6
 10
-4.89999886E+01
 20
3.00887826E+02
 11
-4.39999886E+01
 21
3.00887826E+02
  0
LINE
  8
0
 62
4
 10
-5.08512439E+01
 20
2.96579850E+02
 11
-3.89999886E+01
 21
2.96579850E+02
  0
LINE
  8
0
 62
4
 10
-6.89999886E+01
 20
3.02013642E+02
 11
-7.04999886E+01
 21
3.00885720E+02
  0
LINE
  8
0
 62
4
 10
-7.04999886E+01
 20
2.98785649E+02
 11
-6.89999886E+01
 21
2.98304907E+02
  0
LINE
  8
0
 62
4
 10
-7.04999886E+01
 20
2.97937165E+02
 11
-6.89999886E+01
 21
2.96806480E+02
  0
LINE
  8
0
 62
4
 10
-6.89999886E+01
 20
2.98304907E+02
 11
-5.81499886E+01
 21
2.98304907E+02
  0
LINE
  8
0
 62
4
 10
-6.89999886E+01
 20
2.96806480E+02
 11
-5.75804222E+01
 21
2.96806480E+02
  0
LINE
  8
0
 62
4
 10
-6.89999886E+01
 20
2.98677647E+02
 11
-5.81499886E+01
 21
2.98677647E+02
  0
LINE
  8
0
 62
4
 10
-4.39999886E+01
 20
2.96954456E+02
 11
-3.89999886E+01
 21
2.96954456E+02
  0
LINE
  8
0
 62
4
 10
-4.30999886E+01
 20
2.98677647E+02
 11
-3.89999886E+01
 21
2.98677647E+02
  0
LINE
  8
0
 62
4
 10
-5.04195549E+01
 20
2.96806480E+02
 11
-4.39999886E+01
 21
2.96806480E+02
  0
LINE
  8
0
 62
4
 10
-6.89999886E+01
 20
2.96806480E+02
 11
-6.89999886E+01
 21
2.96579850E+02
  0
LINE
  8
0
 62
4
 10
-6.89999886E+01
 20
2.98677647E+02
 11
-6.89999886E+01
 21
2.96806480E+02
  0
LINE
  8
0
 62
7
 10
-5.39999886E+01
 20
3.20000000E+02
 11
-8.29999886E+01
 21
3.20000000E+02
  0
LINE
  8
0
 62
7
 10
-5.39999886E+01
 20
3.24000000E+02
 11
-8.29999886E+01
 21
3.24000000E+02
  0
LINE
  8
0
 62
7
 10
-6.89999886E+01
 20
3.11000031E+02
 11
-8.29999886E+01
 21
3.11000031E+02
  0
LINE
  8
0
 62
7
 10
-1.00000114E+01
 20
2.49999969E+02
 11
-8.29999886E+01
 21
2.49999969E+02
  0
LINE
  8
0
 62
7
 10
-1.00000114E+01
 20
2.36999969E+02
 11
-8.29999886E+01
 21
2.36999969E+02
  0
LINE
  8
0
 62
7
 10
-1.00000114E+01
 20
2.40999985E+02
 11
-8.29999886E+01
 21
2.40999985E+02
  0
LINE
  8
0
 62
4
 10
-8.09999886E+01
 20
-2.32318867E+02
 11
-8.09999886E+01
 21
-2.45318867E+02
  0
ARC
  8
0
 62
4
 10
-8.04999843E+01
 20
-2.32318871E+02
 40
5.00004272E-01
 50
9.00004895E+01
 51
1.79999510E+02
  0
LINE
  8
0
 62
4
 10
-7.14999886E+01
 20
-2.31818867E+02
 11
-8.04999886E+01
 21
-2.31818867E+02
  0
LINE
  8
0
 62
4
 10
-9.09999886E+01
 20
-2.45731833E+02
 11
-8.59999886E+01
 21
-2.45731833E+02
  0
LINE
  8
0
 62
4
 10
-9.09999886E+01
 20
-2.32827196E+02
 11
-8.59999886E+01
 21
-2.32827196E+02
  0
LINE
  8
0
 62
4
 10
-9.09999886E+01
 20
-2.39740188E+02
 11
-8.59999886E+01
 21
-2.39740188E+02
  0
POLYLINE
  8
0
 62
4
 66
1
  0
VERTEX
  8
0
 62
4
 10
-6.05999886E+01
 20
-2.61335185E+02
  0
VERTEX
  8
0
 62
4
 10
-6.06129266E+01
 20
-2.61055522E+02
  0
VERTEX
  8
0
 62
4
 10
-6.06516422E+01
 20
-2.60777988E+02
  0
VERTEX
  8
0
 62
4
 10
-6.07158408E+01
 20
-2.60504695E+02
  0
VERTEX
  8
0
 62
4
 10
-6.08050337E+01
 20
-2.60237722E+02
  0
VERTEX
  8
0
 62
4
 10
-6.09185421E+01
 20
-2.59979101E+02
  0
VERTEX
  8
0
 62
4
 10
-6.10555022E+01
 20
-2.59730801E+02
  0
VERTEX
  8
0
 62
4
 10
-6.12148716E+01
 20
-2.59494712E+02
  0
VERTEX
  8
0
 62
4
 10
-6.13954375E+01
 20
-2.59272629E+02
  0
VERTEX
  8
0
 62
4
 10
-6.15958255E+01
 20
-2.59066244E+02
  0
VERTEX
  8
0
 62
4
 10
-6.18145107E+01
 20
-2.58877127E+02
  0
VERTEX
  8
0
 62
4
 10
-6.20498287E+01
 20
-2.58706717E+02
  0
VERTEX
  8
0
 62
4
 10
-6.22999886E+01
 20
-2.58556311E+02
  0
VERTEX
  8
0
 62
4
 10
-6.25630865E+01
 20
-2.58427054E+02
  0
VERTEX
  8
0
 62
4
 10
-6.28371201E+01
 20
-2.58319930E+02
  0
VERTEX
  8
0
 62
4
 10
-6.31200038E+01
 20
-2.58235754E+02
  0
VERTEX
  8
0
 62
4
 10
-6.34095848E+01
 20
-2.58175166E+02
  0
VERTEX
  8
0
 62
4
 10
-6.37036591E+01
 20
-2.58138628E+02
  0
VERTEX
  8
0
 62
4
 10
-6.39999886E+01
 20
-2.58126418E+02
  0
VERTEX
  8
0
 62
4
 10
-6.42963181E+01
 20
-2.58138628E+02
  0
VERTEX
  8
0
 62
4
 10
-6.45903924E+01
 20
-2.58175166E+02
  0
VERTEX
  8
0
 62
4
 10
-6.48799734E+01
 20
-2.58235754E+02
  0
VERTEX
  8
0
 62
4
 10
-6.51628571E+01
 20
-2.58319930E+02
  0
VERTEX
  8
0
 62
4
 10
-6.54368907E+01
 20
-2.58427054E+02
  0
VERTEX
  8
0
 62
4
 10
-6.56999886E+01
 20
-2.58556311E+02
  0
VERTEX
  8
0
 62
4
 10
-6.59501485E+01
 20
-2.58706717E+02
  0
VERTEX
  8
0
 62
4
 10
-6.61854665E+01
 20
-2.58877127E+02
  0
VERTEX
  8
0
 62
4
 10
-6.64041517E+01
 20
-2.59066244E+02
  0
VERTEX
  8
0
 62
4
 10
-6.66045397E+01
 20
-2.59272629E+02
  0
VERTEX
  8
0
 62
4
 10
-6.67851056E+01
 20
-2.59494712E+02
  0
VERTEX
  8
0
 62
4
 10
-6.69444750E+01
 20
-2.59730801E+02
  0
VERTEX
  8
0
 62
4
 10
-6.70814351E+01
 20
-2.59979101E+02
  0
VERTEX
  8
0
 62
4
 10
-6.71949435E+01
 20
-2.60237722E+02
  0
VERTEX
  8
0
 62
4
 10
-6.72841364E+01
 20
-2.60504695E+02
  0
VERTEX
  8
0
 62
4
 10
-6.73483350E+01
 20
-2.60777988E+02
  0
VERTEX
  8
0
 62
4
 10
-6.73870506E+01
 20
-2.61055522E+02
  0
VERTEX
  8
0
 62
4
 10
-6.73999886E+01
 20
-2.61335185E+02
  0
VERTEX
  8
0
 62
4
 10
-6.73870506E+01
 20
-2.61614848E+02
  0
VERTEX
  8
0
 62
4
 10
-6.73483350E+01
 20
-2.61892382E+02
  0
VERTEX
  8
0
 62
4
 10
-6.72841364E+01
 20
-2.62165675E+02
  0
VERTEX
  8
0
 62
4
 10
-6.71949435E+01
 20
-2.62432648E+02
  0
VERTEX
  8
0
 62
4
 10
-6.70814351E+01
 20
-2.62691269E+02
  0
VERTEX
  8
0
 62
4
 10
-6.69444750E+01
 20
-2.62939569E+02
  0
VERTEX
  8
0
 62
4
 10
-6.67851055E+01
 20
-2.63175658E+02
  0
VERTEX
  8
0
 62
4
 10
-6.66045397E+01
 20
-2.63397741E+02
  0
VERTEX
  8
0
 62
4
 10
-6.64041517E+01
 20
-2.63604126E+02
  0
VERTEX
  8
0
 62
4
 10
-6.61854665E+01
 20
-2.63793243E+02
  0
VERTEX
  8
0
 62
4
 10
-6.59501485E+01
 20
-2.63963653E+02
  0
VERTEX
  8
0
 62
4
 10
-6.56999886E+01
 20
-2.64114059E+02
  0
VERTEX
  8
0
 62
4
 10
-6.54368907E+01
 20
-2.64243316E+02
  0
VERTEX
  8
0
 62
4
 10
-6.51628571E+01
 20
-2.64350440E+02
  0
VERTEX
  8
0
 62
4
 10
-6.48799733E+01
 20
-2.64434616E+02
  0
VERTEX
  8
0
 62
4
 10
-6.45903924E+01
 20
-2.64495204E+02
  0
VERTEX
  8
0
 62
4
 10
-6.42963181E+01
 20
-2.64531742E+02
  0
VERTEX
  8
0
 62
4
 10
-6.39999886E+01
 20
-2.64543952E+02
  0
VERTEX
  8
0
 62
4
 10
-6.37036591E+01
 20
-2.64531742E+02
  0
VERTEX
  8
0
 62
4
 10
-6.34095848E+01
 20
-2.64495204E+02
  0
VERTEX
  8
0
 62
4
 10
-6.31200038E+01
 20
-2.64434616E+02
  0
VERTEX
  8
0
 62
4
 10
-6.28371201E+01
 20
-2.64350440E+02
  0
VERTEX
  8
0
 62
4
 10
-6.25630865E+01
 20
-2.64243316E+02
  0
VERTEX
  8
0
 62
4
 10
-6.22999886E+01
 20
-2.64114059E+02
  0
VERTEX
  8
0
 62
4
 10
-6.20498287E+01
 20
-2.63963653E+02
  0
VERTEX
  8
0
 62
4
 10
-6.18145107E+01
 20
-2.63793243E+02
  0
VERTEX
  8
0
 62
4
 10
-6.15958255E+01
 20
-2.63604126E+02
  0
VERTEX
  8
0
 62
4
 10
-6.13954375E+01
 20
-2.63397741E+02
  0
VERTEX
  8
0
 62
4
 10
-6.12148716E+01
 20
-2.63175658E+02
  0
VERTEX
  8
0
 62
4
 10
-6.10555022E+01
 20
-2.62939569E+02
  0
VERTEX
  8
0
 62
4
 10
-6.09185421E+01
 20
-2.62691269E+02
  0
VERTEX
  8
0
 62
4
 10
-6.08050337E+01
 20
-2.62432648E+02
  0
VERTEX
  8
0
 62
4
 10
-6.07158408E+01
 20
-2.62165675E+02
  0
VERTEX
  8
0
 62
4
 10
-6.06516422E+01
 20
-2.61892382E+02
  0
VERTEX
  8
0
 62
4
 10
-6.06129266E+01
 20
-2.61614847E+02
  0
VERTEX
  8
0
 62
4
 10
-6.05999886E+01
 20
-2.61335185E+02
  0
SEQEND
  8
0
  0
POLYLINE
  8
0
 62
4
 66
1
  0
VERTEX
  8
0
 62
4
 10
-6.73806586E+01
 20
-2.61676845E+02
  0
VERTEX
  8
0
 62
4
 10
-6.73994134E+01
 20
-2.61952533E+02
  0
VERTEX
  8
0
 62
4
 10
-6.73916874E+01
 20
-2.62228669E+02
  0
VERTEX
  8
0
 62
4
 10
-6.73575408E+01
 20
-2.62503103E+02
  0
VERTEX
  8
0
 62
4
 10
-6.72972396E+01
 20
-2.62773696E+02
  0
VERTEX
  8
0
 62
4
 10
-6.72112535E+01
 20
-2.63038341E+02
  0
VERTEX
  8
0
 62
4
 10
-6.71002524E+01
 20
-2.63294977E+02
  0
VERTEX
  8
0
 62
4
 10
-6.69651009E+01
 20
-2.63541603E+02
  0
VERTEX
  8
0
 62
4
 10
-6.68068518E+01
 20
-2.63776300E+02
  0
VERTEX
  8
0
 62
4
 10
-6.66267379E+01
 20
-2.63997238E+02
  0
VERTEX
  8
0
 62
4
 10
-6.64261621E+01
 20
-2.64202697E+02
  0
VERTEX
  8
0
 62
4
 10
-6.62066870E+01
 20
-2.64391076E+02
  0
VERTEX
  8
0
 62
4
 10
-6.59700222E+01
 20
-2.64560907E+02
  0
VERTEX
  8
0
 62
4
 10
-6.57180113E+01
 20
-2.64710869E+02
  0
VERTEX
  8
0
 62
4
 10
-6.54526173E+01
 20
-2.64839792E+02
  0
VERTEX
  8
0
 62
4
 10
-6.51759077E+01
 20
-2.64946672E+02
  0
VERTEX
  8
0
 62
4
 10
-6.48900380E+01
 20
-2.65030677E+02
  0
VERTEX
  8
0
 62
4
 10
-6.45972349E+01
 20
-2.65091153E+02
  0
VERTEX
  8
0
 62
4
 10
-6.42997794E+01
 20
-2.65127628E+02
  0
VERTEX
  8
0
 62
4
 10
-6.39999886E+01
 20
-2.65139817E+02
  0
VERTEX
  8
0
 62
4
 10
-6.37001978E+01
 20
-2.65127628E+02
  0
VERTEX
  8
0
 62
4
 10
-6.34027423E+01
 20
-2.65091153E+02
  0
VERTEX
  8
0
 62
4
 10
-6.31099393E+01
 20
-2.65030677E+02
  0
VERTEX
  8
0
 62
4
 10
-6.28240695E+01
 20
-2.64946672E+02
  0
VERTEX
  8
0
 62
4
 10
-6.25473599E+01
 20
-2.64839792E+02
  0
VERTEX
  8
0
 62
4
 10
-6.22819659E+01
 20
-2.64710869E+02
  0
VERTEX
  8
0
 62
4
 10
-6.20299550E+01
 20
-2.64560907E+02
  0
VERTEX
  8
0
 62
4
 10
-6.17932902E+01
 20
-2.64391076E+02
  0
VERTEX
  8
0
 62
4
 10
-6.15738151E+01
 20
-2.64202697E+02
  0
VERTEX
  8
0
 62
4
 10
-6.13732393E+01
 20
-2.63997238E+02
  0
VERTEX
  8
0
 62
4
 10
-6.11931254E+01
 20
-2.63776300E+02
  0
VERTEX
  8
0
 62
4
 10
-6.10348763E+01
 20
-2.63541603E+02
  0
VERTEX
  8
0
 62
4
 10
-6.08997248E+01
 20
-2.63294977E+02
  0
VERTEX
  8
0
 62
4
 10
-6.07887237E+01
 20
-2.63038341E+02
  0
VERTEX
  8
0
 62
4
 10
-6.07027376E+01
 20
-2.62773696E+02
  0
VERTEX
  8
0
 62
4
 10
-6.06424364E+01
 20
-2.62503103E+02
  0
VERTEX
  8
0
 62
4
 10
-6.06082898E+01
 20
-2.62228669E+02
  0
VERTEX
  8
0
 62
4
 10
-6.06005638E+01
 20
-2.61952533E+02
  0
VERTEX
  8
0
 62
4
 10
-6.06193186E+01
 20
-2.61676845E+02
  0
SEQEND
  8
0
  0
POLYLINE
  8
0
 62
4
 66
1
  0
VERTEX
  8
0
 62
4
 10
-6.79985807E+01
 20
-2.62107782E+02
  0
VERTEX
  8
0
 62
4
 10
-6.79922516E+01
 20
-2.62434367E+02
  0
VERTEX
  8
0
 62
4
 10
-6.79545045E+01
 20
-2.62759151E+02
  0
VERTEX
  8
0
 62
4
 10
-6.78856365E+01
 20
-2.63079578E+02
  0
VERTEX
  8
0
 62
4
 10
-6.77861896E+01
 20
-2.63393125E+02
  0
VERTEX
  8
0
 62
4
 10
-6.76569463E+01
 20
-2.63697326E+02
  0
VERTEX
  8
0
 62
4
 10
-6.74989239E+01
 20
-2.63989786E+02
  0
VERTEX
  8
0
 62
4
 10
-6.73133658E+01
 20
-2.64268205E+02
  0
VERTEX
  8
0
 62
4
 10
-6.71017324E+01
 20
-2.64530390E+02
  0
VERTEX
  8
0
 62
4
 10
-6.68656892E+01
 20
-2.64774278E+02
  0
VERTEX
  8
0
 62
4
 10
-6.66070937E+01
 20
-2.64997951E+02
  0
VERTEX
  8
0
 62
4
 10
-6.63279810E+01
 20
-2.65199648E+02
  0
VERTEX
  8
0
 62
4
 10
-6.60305477E+01
 20
-2.65377781E+02
  0
VERTEX
  8
0
 62
4
 10
-6.57171345E+01
 20
-2.65530949E+02
  0
VERTEX
  8
0
 62
4
 10
-6.53902079E+01
 20
-2.65657947E+02
  0
VERTEX
  8
0
 62
4
 10
-6.50523406E+01
 20
-2.65757775E+02
  0
VERTEX
  8
0
 62
4
 10
-6.47061916E+01
 20
-2.65829647E+02
  0
VERTEX
  8
0
 62
4
 10
-6.43544850E+01
 20
-2.65872997E+02
  0
VERTEX
  8
0
 62
4
 10
-6.39999886E+01
 20
-2.65887485E+02
  0
VERTEX
  8
0
 62
4
 10
-6.36454922E+01
 20
-2.65872997E+02
  0
VERTEX
  8
0
 62
4
 10
-6.32937856E+01
 20
-2.65829647E+02
  0
VERTEX
  8
0
 62
4
 10
-6.29476366E+01
 20
-2.65757775E+02
  0
VERTEX
  8
0
 62
4
 10
-6.26097693E+01
 20
-2.65657947E+02
  0
VERTEX
  8
0
 62
4
 10
-6.22828427E+01
 20
-2.65530949E+02
  0
VERTEX
  8
0
 62
4
 10
-6.19694295E+01
 20
-2.65377781E+02
  0
VERTEX
  8
0
 62
4
 10
-6.16719962E+01
 20
-2.65199648E+02
  0
VERTEX
  8
0
 62
4
 10
-6.13928835E+01
 20
-2.64997951E+02
  0
VERTEX
  8
0
 62
4
 10
-6.11342880E+01
 20
-2.64774278E+02
  0
VERTEX
  8
0
 62
4
 10
-6.08982448E+01
 20
-2.64530390E+02
  0
VERTEX
  8
0
 62
4
 10
-6.06866114E+01
 20
-2.64268205E+02
  0
VERTEX
  8
0
 62
4
 10
-6.05010533E+01
 20
-2.63989786E+02
  0
VERTEX
  8
0
 62
4
 10
-6.03430309E+01
 20
-2.63697326E+02
  0
VERTEX
  8
0
 62
4
 10
-6.02137876E+01
 20
-2.63393125E+02
  0
VERTEX
  8
0
 62
4
 10
-6.01143407E+01
 20
-2.63079578E+02
  0
VERTEX
  8
0
 62
4
 10
-6.00454727E+01
 20
-2.62759151E+02
  0
VERTEX
  8
0
 62
4
 10
-6.00077256E+01
 20
-2.62434367E+02
  0
VERTEX
  8
0
 62
4
 10
-6.00013965E+01
 20
-2.62107782E+02
  0
SEQEND
  8
0
  0
POLYLINE
  8
0
 62
4
 66
1
  0
VERTEX
  8
0
 62
4
 10
-6.64085825E+01
 20
-2.59070435E+02
  0
VERTEX
  8
0
 62
4
 10
-6.66786183E+01
 20
-2.59275575E+02
  0
VERTEX
  8
0
 62
4
 10
-6.69281318E+01
 20
-2.59501666E+02
  0
VERTEX
  8
0
 62
4
 10
-6.71552113E+01
 20
-2.59746975E+02
  0
VERTEX
  8
0
 62
4
 10
-6.73581170E+01
 20
-2.60009623E+02
  0
VERTEX
  8
0
 62
4
 10
-6.75352944E+01
 20
-2.60287597E+02
  0
VERTEX
  8
0
 62
4
 10
-6.76853860E+01
 20
-2.60578769E+02
  0
VERTEX
  8
0
 62
4
 10
-6.78072419E+01
 20
-2.60880907E+02
  0
VERTEX
  8
0
 62
4
 10
-6.78999285E+01
 20
-2.61191696E+02
  0
VERTEX
  8
0
 62
4
 10
-6.79627357E+01
 20
-2.61508755E+02
  0
VERTEX
  8
0
 62
4
 10
-6.79951823E+01
 20
-2.61829656E+02
  0
VERTEX
  8
0
 62
4
 10
-6.79970197E+01
 20
-2.62151938E+02
  0
VERTEX
  8
0
 62
4
 10
-6.79682337E+01
 20
-2.62473135E+02
  0
VERTEX
  8
0
 62
4
 10
-6.79090451E+01
 20
-2.62790783E+02
  0
VERTEX
  8
0
 62
4
 10
-6.78199071E+01
 20
-2.63102451E+02
  0
VERTEX
  8
0
 62
4
 10
-6.77015029E+01
 20
-2.63405749E+02
  0
VERTEX
  8
0
 62
4
 10
-6.75547394E+01
 20
-2.63698355E+02
  0
VERTEX
  8
0
 62
4
 10
-6.73807412E+01
 20
-2.63978026E+02
  0
VERTEX
  8
0
 62
4
 10
-6.71808413E+01
 20
-2.64242620E+02
  0
VERTEX
  8
0
 62
4
 10
-6.69565713E+01
 20
-2.64490109E+02
  0
VERTEX
  8
0
 62
4
 10
-6.67096494E+01
 20
-2.64718598E+02
  0
VERTEX
  8
0
 62
4
 10
-6.64419675E+01
 20
-2.64926335E+02
  0
VERTEX
  8
0
 62
4
 10
-6.61555763E+01
 20
-2.65111730E+02
  0
VERTEX
  8
0
 62
4
 10
-6.58526700E+01
 20
-2.65273362E+02
  0
VERTEX
  8
0
 62
4
 10
-6.55355694E+01
 20
-2.65409992E+02
  0
VERTEX
  8
0
 62
4
 10
-6.52067039E+01
 20
-2.65520574E+02
  0
VERTEX
  8
0
 62
4
 10
-6.48685932E+01
 20
-2.65604260E+02
  0
VERTEX
  8
0
 62
4
 10
-6.45238277E+01
 20
-2.65660410E+02
  0
VERTEX
  8
0
 62
4
 10
-6.41750487E+01
 20
-2.65688592E+02
  0
VERTEX
  8
0
 62
4
 10
-6.38249285E+01
 20
-2.65688592E+02
  0
VERTEX
  8
0
 62
4
 10
-6.34761496E+01
 20
-2.65660410E+02
  0
VERTEX
  8
0
 62
4
 10
-6.31313840E+01
 20
-2.65604260E+02
  0
VERTEX
  8
0
 62
4
 10
-6.27932733E+01
 20
-2.65520574E+02
  0
VERTEX
  8
0
 62
4
 10
-6.24644078E+01
 20
-2.65409992E+02
  0
VERTEX
  8
0
 62
4
 10
-6.21473072E+01
 20
-2.65273362E+02
  0
VERTEX
  8
0
 62
4
 10
-6.18444010E+01
 20
-2.65111730E+02
  0
VERTEX
  8
0
 62
4
 10
-6.15580098E+01
 20
-2.64926335E+02
  0
VERTEX
  8
0
 62
4
 10
-6.12903278E+01
 20
-2.64718598E+02
  0
VERTEX
  8
0
 62
4
 10
-6.10434059E+01
 20
-2.64490109E+02
  0
VERTEX
  8
0
 62
4
 10
-6.08191359E+01
 20
-2.64242620E+02
  0
VERTEX
  8
0
 62
4
 10
-6.06192360E+01
 20
-2.63978026E+02
  0
VERTEX
  8
0
 62
4
 10
-6.04452378E+01
 20
-2.63698355E+02
  0
VERTEX
  8
0
 62
4
 10
-6.02984743E+01
 20
-2.63405749E+02
  0
VERTEX
  8
0
 62
4
 10
-6.01800701E+01
 20
-2.63102451E+02
  0
VERTEX
  8
0
 62
4
 10
-6.00909321E+01
 20
-2.62790783E+02
  0
VERTEX
  8
0
 62
4
 10
-6.00317435E+01
 20
-2.62473135E+02
  0
VERTEX
  8
0
 62
4
 10
-6.00029575E+01
 20
-2.62151938E+02
  0
VERTEX
  8
0
 62
4
 10
-6.00047949E+01
 20
-2.61829656E+02
  0
VERTEX
  8
0
 62
4
 10
-6.00372415E+01
 20
-2.61508755E+02
  0
VERTEX
  8
0
 62
4
 10
-6.01000487E+01
 20
-2.61191696E+02
  0
VERTEX
  8
0
 62
4
 10
-6.01927353E+01
 20
-2.60880907E+02
  0
VERTEX
  8
0
 62
4
 10
-6.03145912E+01
 20
-2.60578769E+02
  0
VERTEX
  8
0
 62
4
 10
-6.04646828E+01
 20
-2.60287597E+02
  0
VERTEX
  8
0
 62
4
 10
-6.06418602E+01
 20
-2.60009623E+02
  0
VERTEX
  8
0
 62
4
 10
-6.08447659E+01
 20
-2.59746975E+02
  0
VERTEX
  8
0
 62
4
 10
-6.10718454E+01
 20
-2.59501666E+02
  0
VERTEX
  8
0
 62
4
 10
-6.13213589E+01
 20
-2.59275575E+02
  0
VERTEX
  8
0
 62
4
 10
-6.15913947E+01
 20
-2.59070435E+02
  0
SEQEND
  8
0
  0
LINE
  8
0
 62
4
 10
-3.99999886E+01
 20
-2.76000008E+02
 11
-3.99999886E+01
 21
-2.73963465E+02
  0
LINE
  8
0
 62
4
 10
-7.29999886E+01
 20
-2.76000008E+02
 11
-7.29999886E+01
 21
-2.73963465E+02
  0
LINE
  8
0
 62
4
 10
-3.99999886E+01
 20
-2.73963465E+02
 11
-3.69999886E+01
 21
-2.69109253E+02
  0
LINE
  8
0
 62
4
 10
-7.59999886E+01
 20
-2.69109253E+02
 11
-7.29999886E+01
 21
-2.73963465E+02
  0
LINE
  8
0
 62
4
 10
-7.14999886E+01
 20
-2.52457446E+02
 11
-5.64999886E+01
 21
-2.52457446E+02
  0
LINE
  8
0
 62
4
 10
-7.14999886E+01
 20
-2.30365329E+02
 11
-5.64999886E+01
 21
-2.30365329E+02
  0
LINE
  8
0
 62
6
 10
-6.57149234E+01
 20
-2.62557066E+02
 11
-6.22850537E+01
 21
-2.59127191E+02
  0
LINE
  8
0
 62
6
 10
-6.22850513E+01
 20
-2.62557063E+02
 11
-6.57149259E+01
 21
-2.59127194E+02
  0
ARC
  8
0
 62
4
 10
-7.44999857E+01
 20
-2.57579778E+02
 40
1.50000284E+00
 50
9.00001085E+01
 51
1.79999892E+02
  0
ARC
  8
0
 62
4
 10
-8.04999928E+01
 20
-2.45318871E+02
 40
4.99995728E-01
 50
1.79999510E+02
 51
2.70000490E+02
  0
ARC
  8
0
 62
4
 10
-3.84999914E+01
 20
-2.57579778E+02
 40
1.50000284E+00
 50
1.08554370E-04
 51
8.99998913E+01
  0
ARC
  8
0
 62
4
 10
-7.19999928E+01
 20
-2.46318871E+02
 40
5.00004272E-01
 50
4.89585868E-04
 51
8.99995103E+01
  0
LINE
  8
0
 62
4
 10
-8.44999886E+01
 20
-2.44568867E+02
 11
-8.09999886E+01
 21
-2.44568867E+02
  0
LINE
  8
0
 62
4
 10
-8.44999886E+01
 20
-2.33068867E+02
 11
-8.09999886E+01
 21
-2.33068867E+02
  0
LINE
  8
0
 62
4
 10
-8.44999886E+01
 20
-2.32568867E+02
 11
-8.44999886E+01
 21
-2.45068867E+02
  0
LINE
  8
0
 62
4
 10
-8.59999886E+01
 20
-2.45068867E+02
 11
-8.09999886E+01
 21
-2.45068867E+02
  0
LINE
  8
0
 62
4
 10
-8.59999886E+01
 20
-2.32568867E+02
 11
-8.09999886E+01
 21
-2.32568867E+02
  0
LINE
  8
0
 62
4
 10
-8.59999886E+01
 20
-2.31915055E+02
 11
-8.59999886E+01
 21
-2.45731833E+02
  0
LINE
  8
0
 62
4
 10
-9.09999886E+01
 20
-2.31915055E+02
 11
-9.09999886E+01
 21
-2.45731833E+02
  0
LINE
  8
0
 62
4
 10
-8.04999886E+01
 20
-2.45818867E+02
 11
-7.19999886E+01
 21
-2.45818867E+02
  0
LINE
  8
0
 62
4
 10
-9.09999886E+01
 20
-2.31915055E+02
 11
-8.59999886E+01
 21
-2.31915055E+02
  0
LINE
  8
0
 62
4
 10
-7.44999886E+01
 20
-2.56079775E+02
 11
-3.84999886E+01
 21
-2.56079775E+02
  0
LINE
  8
0
 62
4
 10
-7.59999886E+01
 20
-2.67728495E+02
 11
-3.69999886E+01
 21
-2.67728495E+02
  0
LINE
  8
0
 62
4
 10
-7.59999886E+01
 20
-2.69109253E+02
 11
-3.69999886E+01
 21
-2.69109253E+02
  0
LINE
  8
0
 62
4
 10
-7.29999886E+01
 20
-2.73963465E+02
 11
-3.99999886E+01
 21
-2.73963465E+02
  0
LINE
  8
0
 62
4
 10
-3.69999886E+01
 20
-2.57579775E+02
 11
-3.69999886E+01
 21
-2.69109253E+02
  0
LINE
  8
0
 62
4
 10
-5.44999886E+01
 20
-2.52596488E+02
 11
-5.44999886E+01
 21
-2.56079775E+02
  0
LINE
  8
0
 62
4
 10
-7.14999886E+01
 20
-2.30365329E+02
 11
-7.14999886E+01
 21
-2.52596488E+02
  0
LINE
  8
0
 62
4
 10
-5.64999886E+01
 20
-2.30365329E+02
 11
-5.64999886E+01
 21
-2.52596488E+02
  0
LINE
  8
0
 62
4
 10
-7.34999886E+01
 20
-2.52596488E+02
 11
-7.34999886E+01
 21
-2.56079775E+02
  0
LINE
  8
0
 62
4
 10
-7.59999886E+01
 20
-2.57579775E+02
 11
-7.59999886E+01
 21
-2.69109253E+02
  0
LINE
  8
0
 62
4
 10
-7.34999886E+01
 20
-2.52596488E+02
 11
-5.44999886E+01
 21
-2.52596488E+02
  0
LINE
  8
0
  6
CENTER
 62
6
 10
-7.03999886E+01
 20
-2.60842128E+02
 11
-5.75999886E+01
 21
-2.60842128E+02
  0
LINE
  8
0
  6
CENTER
 62
6
 10
-6.39999886E+01
 20
-2.67242128E+02
 11
-6.39999886E+01
 21
-2.54442128E+02
  0
ARC
  8
0
 62
4
 10
-3.90033789E+02
 20
-2.38818852E+02
 40
7.00000000E+00
 50
1.21115777E+02
 51
1.44002341E+02
  0
ARC
  8
0
 62
4
 10
-3.90033789E+02
 20
-2.38818852E+02
 40
7.00000000E+00
 50
8.19976591E+01
 51
1.04884035E+02
  0
ARC
  8
0
 62
4
 10
-3.71325359E+02
 20
-2.58579775E+02
 40
2.50001570E+00
 50
2.30003598E+01
 51
1.12999640E+02
  0
ARC
  8
0
 62
4
 10
-3.88814927E+02
 20
-2.66003652E+02
 40
2.50001192E+00
 50
1.13000273E+02
 51
2.02999727E+02
  0
ARC
  8
0
 62
4
 10
-3.74710986E+02
 20
-2.65484488E+02
 40
1.18036308E+01
 50
1.02898056E+01
 51
3.59747793E+01
  0
CIRCLE
  8
0
 62
4
 10
-3.90033789E+02
 20
-2.38818852E+02
 40
3.75000000E+00
  0
ARC
  8
0
 62
4
 10
-3.65959562E+02
 20
-2.59123612E+02
 40
9.97209177E-01
 50
3.55805360E+01
 51
1.12812291E+02
  0
ARC
  8
0
 62
4
 10
-3.64081036E+02
 20
-2.63545592E+02
 40
9.98345090E-01
 50
2.93107940E+02
 51
9.77816763E+00
  0
LINE
  8
0
 62
4
 10
-3.68173105E+02
 20
-2.58328066E+02
 11
-3.65047256E+02
 21
-2.65692105E+02
  0
LINE
  8
0
  6
CENTER
 62
6
 10
-3.91322862E+02
 20
-2.72499996E+02
 11
-3.61087151E+02
 21
-2.59665699E+02
  0
LINE
  8
0
 62
4
 10
-3.63689221E+02
 20
-2.64463837E+02
 11
-3.65281695E+02
 21
-2.65139802E+02
  0
LINE
  8
0
 62
4
 10
-3.67938666E+02
 20
-2.58880369E+02
 11
-3.66346193E+02
 21
-2.58204404E+02
  0
LINE
  8
0
 62
4
 10
-3.65507509E+02
 20
-2.65887470E+02
 11
-3.65047256E+02
 21
-2.65692105E+02
  0
LINE
  8
0
 62
4
 10
-3.68633358E+02
 20
-2.58523432E+02
 11
-3.68173105E+02
 21
-2.58328066E+02
  0
LINE
  8
0
 62
4
 10
-3.89984865E+02
 20
-2.32279896E+02
 11
-3.85474391E+02
 21
-2.30365314E+02
  0
LINE
  8
0
 62
4
 10
-3.92964274E+02
 20
-2.31915040E+02
 11
-3.85515751E+02
 21
-2.32827181E+02
  0
LINE
  8
0
 62
4
 10
-3.94547923E+02
 20
-2.44819677E+02
 11
-3.87099400E+02
 21
-2.45731818E+02
  0
LINE
  8
0
 62
4
 10
-3.85515751E+02
 20
-2.32827181E+02
 11
-3.82581360E+02
 21
-2.39740172E+02
  0
LINE
  8
0
 62
4
 10
-3.97482314E+02
 20
-2.37906686E+02
 11
-3.94547923E+02
 21
-2.44819677E+02
  0
LINE
  8
0
 62
4
 10
-3.97482314E+02
 20
-2.37906686E+02
 11
-3.92964274E+02
 21
-2.31915040E+02
  0
LINE
  8
0
 62
4
 10
-3.87099400E+02
 20
-2.45731818E+02
 11
-3.82581360E+02
 21
-2.39740172E+02
  0
LINE
  8
0
 62
4
 10
-3.76080116E+02
 20
-2.66573015E+02
 11
-3.75103288E+02
 21
-2.68874277E+02
  0
LINE
  8
0
 62
4
 10
-3.79762135E+02
 20
-2.68135939E+02
 11
-3.78785308E+02
 21
-2.70437201E+02
  0
LINE
  8
0
 62
4
 10
-3.78785308E+02
 20
-2.70437201E+02
 11
-3.75103288E+02
 21
-2.68874277E+02
  0
LINE
  8
0
 62
4
 10
-3.79762135E+02
 20
-2.68135939E+02
 11
-3.76080116E+02
 21
-2.66573015E+02
  0
LINE
  8
0
 62
4
 10
-3.75967046E+02
 20
-2.72500002E+02
 11
-3.64726046E+02
 21
-2.67728480E+02
  0
LINE
  8
0
 62
4
 10
-3.64139950E+02
 20
-2.69109237E+02
 11
-3.64977190E+02
 21
-2.72500006E+02
  0
LINE
  8
0
 62
4
 10
-3.91116205E+02
 20
-2.66980474E+02
 11
-3.88773307E+02
 21
-2.72499997E+02
  0
LINE
  8
0
 62
4
 10
-3.69024089E+02
 20
-2.57602927E+02
 11
-3.64139950E+02
 21
-2.69109237E+02
  0
LINE
  8
0
 62
4
 10
-3.72128093E+02
 20
-2.72500003E+02
 11
-3.64139950E+02
 21
-2.69109237E+02
  0
LINE
  8
0
 62
4
 10
-3.89791771E+02
 20
-2.63702384E+02
 11
-3.72302179E+02
 21
-2.56278492E+02
  0
LINE
  8
0
 62
4
 10
-3.91354695E+02
 20
-2.60020364E+02
 11
-3.89791771E+02
 21
-2.63702384E+02
  0
LINE
  8
0
 62
4
 10
-3.73865103E+02
 20
-2.52596473E+02
 11
-3.72302179E+02
 21
-2.56278492E+02
  0
LINE
  8
0
 62
4
 10
-3.89904417E+02
 20
-2.58318397E+02
 11
-3.76096844E+02
 21
-2.52457430E+02
  0
LINE
  8
0
 62
4
 10
-3.91354695E+02
 20
-2.60020364E+02
 11
-3.73865103E+02
 21
-2.52596473E+02
  0
LINE
  8
0
 62
4
 10
-3.99281964E+02
 20
-2.36226281E+02
 11
-3.89513686E+02
 21
-2.59238902E+02
  0
LINE
  8
0
 62
4
 10
-3.85474391E+02
 20
-2.30365314E+02
 11
-3.75706113E+02
 21
-2.53377935E+02
  0
LINE
  8
0
 62
4
 10
-3.99281964E+02
 20
-2.36226281E+02
 11
-3.94780695E+02
 21
-2.34315606E+02
  0
LINE
  8
0
 62
4
 10
-3.97358829E+02
 20
-2.70173490E+02
 11
-3.98544256E+02
 21
-2.72499994E+02
  0
LINE
  8
0
 62
4
 10
-3.97358829E+02
 20
-2.70173490E+02
 11
-3.90920840E+02
 21
-2.67440726E+02
  0
LINE
  8
0
 62
4
 10
1.59358821E+02
 20
-2.70173490E+02
 11
1.60544249E+02
 21
-2.72499994E+02
  0
LINE
  8
0
 62
4
 10
1.59358821E+02
 20
-2.70173490E+02
 11
1.52920832E+02
 21
-2.67440726E+02
  0
LINE
  8
0
 62
4
 10
1.53116198E+02
 20
-2.66980474E+02
 11
1.50773299E+02
 21
-2.72499997E+02
  0
LINE
  8
0
 62
4
 10
1.27507501E+02
 20
-2.65887470E+02
 11
1.27047248E+02
 21
-2.65692105E+02
  0
LINE
  8
0
 62
4
 10
1.34128085E+02
 20
-2.72500003E+02
 11
1.26139942E+02
 21
-2.69109237E+02
  0
LINE
  8
0
 62
4
 10
1.26139942E+02
 20
-2.69109237E+02
 11
1.26977182E+02
 21
-2.72500006E+02
  0
LINE
  8
0
 62
4
 10
1.38080108E+02
 20
-2.66573015E+02
 11
1.37103281E+02
 21
-2.68874277E+02
  0
LINE
  8
0
 62
4
 10
1.41762128E+02
 20
-2.68135939E+02
 11
1.40785300E+02
 21
-2.70437201E+02
  0
LINE
  8
0
 62
4
 10
1.40785300E+02
 20
-2.70437201E+02
 11
1.37103281E+02
 21
-2.68874277E+02
  0
LINE
  8
0
 62
4
 10
1.41762128E+02
 20
-2.68135939E+02
 11
1.38080108E+02
 21
-2.66573015E+02
  0
LINE
  8
0
 62
4
 10
1.37967039E+02
 20
-2.72500002E+02
 11
1.26726039E+02
 21
-2.67728480E+02
  0
ARC
  8
0
 62
4
 10
1.33325351E+02
 20
-2.58579775E+02
 40
2.50001570E+00
 50
6.70003599E+01
 51
1.56999640E+02
  0
ARC
  8
0
 62
4
 10
1.36710978E+02
 20
-2.65484488E+02
 40
1.18036308E+01
 50
1.44025221E+02
 51
1.69710195E+02
  0
ARC
  8
0
 62
4
 10
1.27959554E+02
 20
-2.59123612E+02
 40
9.97209177E-01
 50
6.71877091E+01
 51
1.44419464E+02
  0
ARC
  8
0
 62
4
 10
1.26081029E+02
 20
-2.63545592E+02
 40
9.98345090E-01
 50
1.70221832E+02
 51
2.46892060E+02
  0
LINE
  8
0
 62
4
 10
1.25689214E+02
 20
-2.64463837E+02
 11
1.27281687E+02
 21
-2.65139802E+02
  0
LINE
  8
0
 62
4
 10
1.29938659E+02
 20
-2.58880369E+02
 11
1.28346185E+02
 21
-2.58204404E+02
  0
LINE
  8
0
 62
4
 10
1.30633350E+02
 20
-2.58523432E+02
 11
1.30173097E+02
 21
-2.58328066E+02
  0
LINE
  8
0
 62
4
 10
1.54964267E+02
 20
-2.31915040E+02
 11
1.53831829E+02
 21
-2.32053718E+02
  0
LINE
  8
0
 62
4
 10
1.55651167E+02
 20
-2.32825981E+02
 11
1.54964267E+02
 21
-2.31915040E+02
  0
LINE
  8
0
 62
4
 10
1.51791763E+02
 20
-2.63702384E+02
 11
1.34302171E+02
 21
-2.56278492E+02
  0
LINE
  8
0
 62
4
 10
1.53354688E+02
 20
-2.60020364E+02
 11
1.51791763E+02
 21
-2.63702384E+02
  0
LINE
  8
0
 62
4
 10
1.35865096E+02
 20
-2.52596473E+02
 11
1.34302171E+02
 21
-2.56278492E+02
  0
LINE
  8
0
 62
4
 10
1.51904409E+02
 20
-2.58318397E+02
 11
1.38096836E+02
 21
-2.52457430E+02
  0
LINE
  8
0
 62
4
 10
1.53354688E+02
 20
-2.60020364E+02
 11
1.35865096E+02
 21
-2.52596473E+02
  0
LINE
  8
0
 62
4
 10
1.61281956E+02
 20
-2.36226281E+02
 11
1.51513678E+02
 21
-2.59238902E+02
  0
LINE
  8
0
 62
4
 10
1.47474383E+02
 20
-2.30365314E+02
 11
1.37706105E+02
 21
-2.53377935E+02
  0
LINE
  8
0
 62
4
 10
1.47474383E+02
 20
-2.30365314E+02
 11
1.61281956E+02
 21
-2.36226281E+02
  0
ARC
  8
0
 62
4
 10
1.52033774E+02
 20
-2.38818848E+02
 40
7.00000000E+00
 50
3.59976591E+01
 51
9.80023407E+01
  0
LINE
  8
0
  6
CENTER
 62
6
 10
1.44288269E+02
 20
-2.57066114E+02
 11
1.42464778E+02
 21
-2.61361990E+02
  0
LINE
  8
0
 62
4
 10
1.39825200E+02
 20
-2.58622879E+02
 11
1.40547313E+02
 21
-2.57843038E+02
  0
LINE
  8
0
 62
4
 10
1.46328083E+02
 20
-2.60296829E+02
 11
1.46268734E+02
 21
-2.61357997E+02
  0
LINE
  8
0
 62
4
 10
1.40547313E+02
 20
-2.57843038E+02
 11
1.46328083E+02
 21
-2.60296829E+02
  0
LINE
  8
0
 62
4
 10
1.31024081E+02
 20
-2.57602927E+02
 11
1.26139942E+02
 21
-2.69109237E+02
  0
LINE
  8
0
  6
CENTER
 62
6
 10
1.53322854E+02
 20
-2.72499996E+02
 11
1.23087144E+02
 21
-2.59665699E+02
  0
LINE
  8
0
 62
4
 10
1.30173097E+02
 20
-2.58328066E+02
 11
1.27047248E+02
 21
-2.65692105E+02
  0
ARC
  8
0
 62
4
 10
1.50814920E+02
 20
-2.66003652E+02
 40
2.50001192E+00
 50
3.37000273E+02
 51
6.69997268E+01
  0
ARC
  8
0
 62
4
 10
-7.44999881E+01
 20
-1.26999117E+02
 40
1.50000046E+00
 50
1.80000018E+02
 51
2.69999983E+02
  0
ARC
  8
0
 62
4
 10
-3.84999852E+01
 20
-1.26999121E+02
 40
1.49999664E+00
 50
2.69999872E+02
 51
1.28225561E-04
  0
LINE
  8
0
 62
4
 10
-7.34999886E+01
 20
-1.26197841E+02
 11
-5.44999886E+01
 21
-1.26197841E+02
  0
POLYLINE
  8
0
 62
4
 66
1
  0
VERTEX
  8
0
 62
4
 10
-4.48599886E+01
 20
-1.17062332E+02
  0
VERTEX
  8
0
 62
4
 10
-4.48719372E+01
 20
-1.16810418E+02
  0
VERTEX
  8
0
 62
4
 10
-4.49076923E+01
 20
-1.16560422E+02
  0
VERTEX
  8
0
 62
4
 10
-4.49669815E+01
 20
-1.16314245E+02
  0
VERTEX
  8
0
 62
4
 10
-4.50493538E+01
 20
-1.16073762E+02
  0
VERTEX
  8
0
 62
4
 10
-4.51541821E+01
 20
-1.15840802E+02
  0
VERTEX
  8
0
 62
4
 10
-4.52806688E+01
 20
-1.15617139E+02
  0
VERTEX
  8
0
 62
4
 10
-4.54278512E+01
 20
-1.15404475E+02
  0
VERTEX
  8
0
 62
4
 10
-4.55946090E+01
 20
-1.15204428E+02
  0
VERTEX
  8
0
 62
4
 10
-4.57796733E+01
 20
-1.15018521E+02
  0
VERTEX
  8
0
 62
4
 10
-4.59816355E+01
 20
-1.14848168E+02
  0
VERTEX
  8
0
 62
4
 10
-4.61989586E+01
 20
-1.14694667E+02
  0
VERTEX
  8
0
 62
4
 10
-4.64299886E+01
 20
-1.14559185E+02
  0
VERTEX
  8
0
 62
4
 10
-4.66729673E+01
 20
-1.14442753E+02
  0
VERTEX
  8
0
 62
4
 10
-4.69260454E+01
 20
-1.14346258E+02
  0
VERTEX
  8
0
 62
4
 10
-4.71872968E+01
 20
-1.14270434E+02
  0
VERTEX
  8
0
 62
4
 10
-4.74547333E+01
 20
-1.14215858E+02
  0
VERTEX
  8
0
 62
4
 10
-4.77263196E+01
 20
-1.14182946E+02
  0
VERTEX
  8
0
 62
4
 10
-4.79999886E+01
 20
-1.14171947E+02
  0
VERTEX
  8
0
 62
4
 10
-4.82736576E+01
 20
-1.14182946E+02
  0
VERTEX
  8
0
 62
4
 10
-4.85452439E+01
 20
-1.14215858E+02
  0
VERTEX
  8
0
 62
4
 10
-4.88126804E+01
 20
-1.14270434E+02
  0
VERTEX
  8
0
 62
4
 10
-4.90739319E+01
 20
-1.14346258E+02
  0
VERTEX
  8
0
 62
4
 10
-4.93270099E+01
 20
-1.14442753E+02
  0
VERTEX
  8
0
 62
4
 10
-4.95699886E+01
 20
-1.14559185E+02
  0
VERTEX
  8
0
 62
4
 10
-4.98010186E+01
 20
-1.14694667E+02
  0
VERTEX
  8
0
 62
4
 10
-5.00183417E+01
 20
-1.14848168E+02
  0
VERTEX
  8
0
 62
4
 10
-5.02203039E+01
 20
-1.15018521E+02
  0
VERTEX
  8
0
 62
4
 10
-5.04053682E+01
 20
-1.15204428E+02
  0
VERTEX
  8
0
 62
4
 10
-5.05721260E+01
 20
-1.15404475E+02
  0
VERTEX
  8
0
 62
4
 10
-5.07193084E+01
 20
-1.15617139E+02
  0
VERTEX
  8
0
 62
4
 10
-5.08457951E+01
 20
-1.15840802E+02
  0
VERTEX
  8
0
 62
4
 10
-5.09506234E+01
 20
-1.16073762E+02
  0
VERTEX
  8
0
 62
4
 10
-5.10329957E+01
 20
-1.16314245E+02
  0
VERTEX
  8
0
 62
4
 10
-5.10922849E+01
 20
-1.16560422E+02
  0
VERTEX
  8
0
 62
4
 10
-5.11280400E+01
 20
-1.16810418E+02
  0
VERTEX
  8
0
 62
4
 10
-5.11399886E+01
 20
-1.17062332E+02
  0
VERTEX
  8
0
 62
4
 10
-5.11280400E+01
 20
-1.17314246E+02
  0
VERTEX
  8
0
 62
4
 10
-5.10922849E+01
 20
-1.17564242E+02
  0
VERTEX
  8
0
 62
4
 10
-5.10329957E+01
 20
-1.17810419E+02
  0
VERTEX
  8
0
 62
4
 10
-5.09506234E+01
 20
-1.18050902E+02
  0
VERTEX
  8
0
 62
4
 10
-5.08457950E+01
 20
-1.18283862E+02
  0
VERTEX
  8
0
 62
4
 10
-5.07193084E+01
 20
-1.18507525E+02
  0
VERTEX
  8
0
 62
4
 10
-5.05721260E+01
 20
-1.18720189E+02
  0
VERTEX
  8
0
 62
4
 10
-5.04053681E+01
 20
-1.18920236E+02
  0
VERTEX
  8
0
 62
4
 10
-5.02203039E+01
 20
-1.19106143E+02
  0
VERTEX
  8
0
 62
4
 10
-5.00183417E+01
 20
-1.19276496E+02
  0
VERTEX
  8
0
 62
4
 10
-4.98010186E+01
 20
-1.19429997E+02
  0
VERTEX
  8
0
 62
4
 10
-4.95699886E+01
 20
-1.19565479E+02
  0
VERTEX
  8
0
 62
4
 10
-4.93270099E+01
 20
-1.19681911E+02
  0
VERTEX
  8
0
 62
4
 10
-4.90739318E+01
 20
-1.19778406E+02
  0
VERTEX
  8
0
 62
4
 10
-4.88126804E+01
 20
-1.19854230E+02
  0
VERTEX
  8
0
 62
4
 10
-4.85452439E+01
 20
-1.19908806E+02
  0
VERTEX
  8
0
 62
4
 10
-4.82736576E+01
 20
-1.19941718E+02
  0
VERTEX
  8
0
 62
4
 10
-4.79999886E+01
 20
-1.19952717E+02
  0
VERTEX
  8
0
 62
4
 10
-4.77263196E+01
 20
-1.19941718E+02
  0
VERTEX
  8
0
 62
4
 10
-4.74547333E+01
 20
-1.19908806E+02
  0
VERTEX
  8
0
 62
4
 10
-4.71872968E+01
 20
-1.19854230E+02
  0
VERTEX
  8
0
 62
4
 10
-4.69260453E+01
 20
-1.19778406E+02
  0
VERTEX
  8
0
 62
4
 10
-4.66729673E+01
 20
-1.19681911E+02
  0
VERTEX
  8
0
 62
4
 10
-4.64299886E+01
 20
-1.19565479E+02
  0
VERTEX
  8
0
 62
4
 10
-4.61989586E+01
 20
-1.19429997E+02
  0
VERTEX
  8
0
 62
4
 10
-4.59816355E+01
 20
-1.19276496E+02
  0
VERTEX
  8
0
 62
4
 10
-4.57796733E+01
 20
-1.19106143E+02
  0
VERTEX
  8
0
 62
4
 10
-4.55946090E+01
 20
-1.18920236E+02
  0
VERTEX
  8
0
 62
4
 10
-4.54278512E+01
 20
-1.18720189E+02
  0
VERTEX
  8
0
 62
4
 10
-4.52806688E+01
 20
-1.18507525E+02
  0
VERTEX
  8
0
 62
4
 10
-4.51541821E+01
 20
-1.18283862E+02
  0
VERTEX
  8
0
 62
4
 10
-4.50493538E+01
 20
-1.18050902E+02
  0
VERTEX
  8
0
 62
4
 10
-4.49669815E+01
 20
-1.17810419E+02
  0
VERTEX
  8
0
 62
4
 10
-4.49076923E+01
 20
-1.17564242E+02
  0
VERTEX
  8
0
 62
4
 10
-4.48719372E+01
 20
-1.17314246E+02
  0
VERTEX
  8
0
 62
4
 10
-4.48599886E+01
 20
-1.17062332E+02
  0
SEQEND
  8
0
  0
POLYLINE
  8
0
 62
4
 66
1
  0
VERTEX
  8
0
 62
4
 10
-4.97554095E+01
 20
-1.14665818E+02
  0
VERTEX
  8
0
 62
4
 10
-5.00166926E+01
 20
-1.14819887E+02
  0
VERTEX
  8
0
 62
4
 10
-5.02621247E+01
 20
-1.14994653E+02
  0
VERTEX
  8
0
 62
4
 10
-5.04897768E+01
 20
-1.15188742E+02
  0
VERTEX
  8
0
 62
4
 10
-5.06978595E+01
 20
-1.15400628E+02
  0
VERTEX
  8
0
 62
4
 10
-5.08847373E+01
 20
-1.15628645E+02
  0
VERTEX
  8
0
 62
4
 10
-5.10489414E+01
 20
-1.15871003E+02
  0
VERTEX
  8
0
 62
4
 10
-5.11891811E+01
 20
-1.16125795E+02
  0
VERTEX
  8
0
 62
4
 10
-5.13043543E+01
 20
-1.16391019E+02
  0
VERTEX
  8
0
 62
4
 10
-5.13935556E+01
 20
-1.16664591E+02
  0
VERTEX
  8
0
 62
4
 10
-5.14560839E+01
 20
-1.16944360E+02
  0
VERTEX
  8
0
 62
4
 10
-5.14914478E+01
 20
-1.17228127E+02
  0
VERTEX
  8
0
 62
4
 10
-5.14993694E+01
 20
-1.17513663E+02
  0
VERTEX
  8
0
 62
4
 10
-5.14797863E+01
 20
-1.17798722E+02
  0
VERTEX
  8
0
 62
4
 10
-5.14328525E+01
 20
-1.18081064E+02
  0
VERTEX
  8
0
 62
4
 10
-5.13589369E+01
 20
-1.18358470E+02
  0
VERTEX
  8
0
 62
4
 10
-5.12586204E+01
 20
-1.18628760E+02
  0
VERTEX
  8
0
 62
4
 10
-5.11326916E+01
 20
-1.18889809E+02
  0
VERTEX
  8
0
 62
4
 10
-5.09821401E+01
 20
-1.19139566E+02
  0
VERTEX
  8
0
 62
4
 10
-5.08081494E+01
 20
-1.19376066E+02
  0
VERTEX
  8
0
 62
4
 10
-5.06120869E+01
 20
-1.19597453E+02
  0
VERTEX
  8
0
 62
4
 10
-5.03954937E+01
 20
-1.19801984E+02
  0
VERTEX
  8
0
 62
4
 10
-5.01600722E+01
 20
-1.19988054E+02
  0
VERTEX
  8
0
 62
4
 10
-4.99076727E+01
 20
-1.20154198E+02
  0
VERTEX
  8
0
 62
4
 10
-4.96402791E+01
 20
-1.20299113E+02
  0
VERTEX
  8
0
 62
4
 10
-4.93599930E+01
 20
-1.20421657E+02
  0
VERTEX
  8
0
 62
4
 10
-4.90690175E+01
 20
-1.20520869E+02
  0
VERTEX
  8
0
 62
4
 10
-4.87696396E+01
 20
-1.20595969E+02
  0
VERTEX
  8
0
 62
4
 10
-4.84642123E+01
 20
-1.20646365E+02
  0
VERTEX
  8
0
 62
4
 10
-4.81551363E+01
 20
-1.20671663E+02
  0
VERTEX
  8
0
 62
4
 10
-4.78448409E+01
 20
-1.20671663E+02
  0
VERTEX
  8
0
 62
4
 10
-4.75357649E+01
 20
-1.20646365E+02
  0
VERTEX
  8
0
 62
4
 10
-4.72303376E+01
 20
-1.20595969E+02
  0
VERTEX
  8
0
 62
4
 10
-4.69309597E+01
 20
-1.20520869E+02
  0
VERTEX
  8
0
 62
4
 10
-4.66399842E+01
 20
-1.20421657E+02
  0
VERTEX
  8
0
 62
4
 10
-4.63596981E+01
 20
-1.20299113E+02
  0
VERTEX
  8
0
 62
4
 10
-4.60923045E+01
 20
-1.20154198E+02
  0
VERTEX
  8
0
 62
4
 10
-4.58399050E+01
 20
-1.19988054E+02
  0
VERTEX
  8
0
 62
4
 10
-4.56044835E+01
 20
-1.19801984E+02
  0
VERTEX
  8
0
 62
4
 10
-4.53878903E+01
 20
-1.19597453E+02
  0
VERTEX
  8
0
 62
4
 10
-4.51918278E+01
 20
-1.19376066E+02
  0
VERTEX
  8
0
 62
4
 10
-4.50178371E+01
 20
-1.19139566E+02
  0
VERTEX
  8
0
 62
4
 10
-4.48672856E+01
 20
-1.18889809E+02
  0
VERTEX
  8
0
 62
4
 10
-4.47413568E+01
 20
-1.18628760E+02
  0
VERTEX
  8
0
 62
4
 10
-4.46410403E+01
 20
-1.18358470E+02
  0
VERTEX
  8
0
 62
4
 10
-4.45671247E+01
 20
-1.18081064E+02
  0
VERTEX
  8
0
 62
4
 10
-4.45201909E+01
 20
-1.17798722E+02
  0
VERTEX
  8
0
 62
4
 10
-4.45006078E+01
 20
-1.17513663E+02
  0
VERTEX
  8
0
 62
4
 10
-4.45085294E+01
 20
-1.17228127E+02
  0
VERTEX
  8
0
 62
4
 10
-4.45438933E+01
 20
-1.16944360E+02
  0
VERTEX
  8
0
 62
4
 10
-4.46064216E+01
 20
-1.16664591E+02
  0
VERTEX
  8
0
 62
4
 10
-4.46956229E+01
 20
-1.16391019E+02
  0
VERTEX
  8
0
 62
4
 10
-4.48107961E+01
 20
-1.16125795E+02
  0
VERTEX
  8
0
 62
4
 10
-4.49510358E+01
 20
-1.15871003E+02
  0
VERTEX
  8
0
 62
4
 10
-4.51152399E+01
 20
-1.15628645E+02
  0
VERTEX
  8
0
 62
4
 10
-4.53021177E+01
 20
-1.15400628E+02
  0
VERTEX
  8
0
 62
4
 10
-4.55102004E+01
 20
-1.15188742E+02
  0
VERTEX
  8
0
 62
4
 10
-4.57378525E+01
 20
-1.14994653E+02
  0
VERTEX
  8
0
 62
4
 10
-4.59832846E+01
 20
-1.14819887E+02
  0
VERTEX
  8
0
 62
4
 10
-4.62445677E+01
 20
-1.14665818E+02
  0
SEQEND
  8
0
  0
POLYLINE
  8
0
 62
4
 66
1
  0
VERTEX
  8
0
 62
4
 10
-6.05999886E+01
 20
-1.33785592E+02
  0
VERTEX
  8
0
 62
4
 10
-6.06129266E+01
 20
-1.33643376E+02
  0
VERTEX
  8
0
 62
4
 10
-6.06516422E+01
 20
-1.33502241E+02
  0
VERTEX
  8
0
 62
4
 10
-6.07158408E+01
 20
-1.33363264E+02
  0
VERTEX
  8
0
 62
4
 10
-6.08050337E+01
 20
-1.33227500E+02
  0
VERTEX
  8
0
 62
4
 10
-6.09185421E+01
 20
-1.33095984E+02
  0
VERTEX
  8
0
 62
4
 10
-6.10555022E+01
 20
-1.32969717E+02
  0
VERTEX
  8
0
 62
4
 10
-6.12148716E+01
 20
-1.32849658E+02
  0
VERTEX
  8
0
 62
4
 10
-6.13954375E+01
 20
-1.32736723E+02
  0
VERTEX
  8
0
 62
4
 10
-6.15958255E+01
 20
-1.32631770E+02
  0
VERTEX
  8
0
 62
4
 10
-6.18145107E+01
 20
-1.32535598E+02
  0
VERTEX
  8
0
 62
4
 10
-6.20498287E+01
 20
-1.32448940E+02
  0
VERTEX
  8
0
 62
4
 10
-6.22999886E+01
 20
-1.32372454E+02
  0
VERTEX
  8
0
 62
4
 10
-6.25630865E+01
 20
-1.32306724E+02
  0
VERTEX
  8
0
 62
4
 10
-6.28371201E+01
 20
-1.32252248E+02
  0
VERTEX
  8
0
 62
4
 10
-6.31200038E+01
 20
-1.32209442E+02
  0
VERTEX
  8
0
 62
4
 10
-6.34095848E+01
 20
-1.32178631E+02
  0
VERTEX
  8
0
 62
4
 10
-6.37036591E+01
 20
-1.32160050E+02
  0
VERTEX
  8
0
 62
4
 10
-6.39999886E+01
 20
-1.32153841E+02
  0
VERTEX
  8
0
 62
4
 10
-6.42963181E+01
 20
-1.32160050E+02
  0
VERTEX
  8
0
 62
4
 10
-6.45903924E+01
 20
-1.32178631E+02
  0
VERTEX
  8
0
 62
4
 10
-6.48799734E+01
 20
-1.32209442E+02
  0
VERTEX
  8
0
 62
4
 10
-6.51628571E+01
 20
-1.32252248E+02
  0
VERTEX
  8
0
 62
4
 10
-6.54368907E+01
 20
-1.32306724E+02
  0
VERTEX
  8
0
 62
4
 10
-6.56999886E+01
 20
-1.32372454E+02
  0
VERTEX
  8
0
 62
4
 10
-6.59501485E+01
 20
-1.32448940E+02
  0
VERTEX
  8
0
 62
4
 10
-6.61854665E+01
 20
-1.32535598E+02
  0
VERTEX
  8
0
 62
4
 10
-6.64041517E+01
 20
-1.32631770E+02
  0
VERTEX
  8
0
 62
4
 10
-6.66045397E+01
 20
-1.32736723E+02
  0
VERTEX
  8
0
 62
4
 10
-6.67851056E+01
 20
-1.32849658E+02
  0
VERTEX
  8
0
 62
4
 10
-6.69444750E+01
 20
-1.32969717E+02
  0
VERTEX
  8
0
 62
4
 10
-6.70814351E+01
 20
-1.33095984E+02
  0
VERTEX
  8
0
 62
4
 10
-6.71949435E+01
 20
-1.33227500E+02
  0
VERTEX
  8
0
 62
4
 10
-6.72841364E+01
 20
-1.33363264E+02
  0
VERTEX
  8
0
 62
4
 10
-6.73483350E+01
 20
-1.33502241E+02
  0
VERTEX
  8
0
 62
4
 10
-6.73870506E+01
 20
-1.33643376E+02
  0
VERTEX
  8
0
 62
4
 10
-6.73999886E+01
 20
-1.33785592E+02
  0
VERTEX
  8
0
 62
4
 10
-6.73870506E+01
 20
-1.33927808E+02
  0
VERTEX
  8
0
 62
4
 10
-6.73483350E+01
 20
-1.34068943E+02
  0
VERTEX
  8
0
 62
4
 10
-6.72841364E+01
 20
-1.34207920E+02
  0
VERTEX
  8
0
 62
4
 10
-6.71949435E+01
 20
-1.34343684E+02
  0
VERTEX
  8
0
 62
4
 10
-6.70814351E+01
 20
-1.34475200E+02
  0
VERTEX
  8
0
 62
4
 10
-6.69444750E+01
 20
-1.34601467E+02
  0
VERTEX
  8
0
 62
4
 10
-6.67851055E+01
 20
-1.34721526E+02
  0
VERTEX
  8
0
 62
4
 10
-6.66045397E+01
 20
-1.34834461E+02
  0
VERTEX
  8
0
 62
4
 10
-6.64041517E+01
 20
-1.34939414E+02
  0
VERTEX
  8
0
 62
4
 10
-6.61854665E+01
 20
-1.35035586E+02
  0
VERTEX
  8
0
 62
4
 10
-6.59501485E+01
 20
-1.35122244E+02
  0
VERTEX
  8
0
 62
4
 10
-6.56999886E+01
 20
-1.35198730E+02
  0
VERTEX
  8
0
 62
4
 10
-6.54368907E+01
 20
-1.35264460E+02
  0
VERTEX
  8
0
 62
4
 10
-6.51628571E+01
 20
-1.35318936E+02
  0
VERTEX
  8
0
 62
4
 10
-6.48799733E+01
 20
-1.35361742E+02
  0
VERTEX
  8
0
 62
4
 10
-6.45903924E+01
 20
-1.35392553E+02
  0
VERTEX
  8
0
 62
4
 10
-6.42963181E+01
 20
-1.35411134E+02
  0
VERTEX
  8
0
 62
4
 10
-6.39999886E+01
 20
-1.35417343E+02
  0
VERTEX
  8
0
 62
4
 10
-6.37036591E+01
 20
-1.35411134E+02
  0
VERTEX
  8
0
 62
4
 10
-6.34095848E+01
 20
-1.35392553E+02
  0
VERTEX
  8
0
 62
4
 10
-6.31200038E+01
 20
-1.35361742E+02
  0
VERTEX
  8
0
 62
4
 10
-6.28371201E+01
 20
-1.35318936E+02
  0
VERTEX
  8
0
 62
4
 10
-6.25630865E+01
 20
-1.35264460E+02
  0
VERTEX
  8
0
 62
4
 10
-6.22999886E+01
 20
-1.35198730E+02
  0
VERTEX
  8
0
 62
4
 10
-6.20498287E+01
 20
-1.35122244E+02
  0
VERTEX
  8
0
 62
4
 10
-6.18145107E+01
 20
-1.35035586E+02
  0
VERTEX
  8
0
 62
4
 10
-6.15958255E+01
 20
-1.34939414E+02
  0
VERTEX
  8
0
 62
4
 10
-6.13954375E+01
 20
-1.34834461E+02
  0
VERTEX
  8
0
 62
4
 10
-6.12148716E+01
 20
-1.34721526E+02
  0
VERTEX
  8
0
 62
4
 10
-6.10555022E+01
 20
-1.34601467E+02
  0
VERTEX
  8
0
 62
4
 10
-6.09185421E+01
 20
-1.34475200E+02
  0
VERTEX
  8
0
 62
4
 10
-6.08050337E+01
 20
-1.34343684E+02
  0
VERTEX
  8
0
 62
4
 10
-6.07158408E+01
 20
-1.34207920E+02
  0
VERTEX
  8
0
 62
4
 10
-6.06516422E+01
 20
-1.34068943E+02
  0
VERTEX
  8
0
 62
4
 10
-6.06129266E+01
 20
-1.33927808E+02
  0
VERTEX
  8
0
 62
4
 10
-6.05999886E+01
 20
-1.33785592E+02
  0
SEQEND
  8
0
  0
LINE
  8
0
  6
CENTER
 62
6
 10
-5.41663828E+01
 20
-1.17062332E+02
 11
-4.18335943E+01
 21
-1.17062332E+02
  0
LINE
  8
0
  6
CENTER
 62
6
 10
-4.79999886E+01
 20
-1.10895938E+02
 11
-4.79999886E+01
 21
-1.23228727E+02
  0
LINE
  8
0
 62
4
 10
-6.08176797E+01
 20
-1.34360085E+02
 11
-3.84999852E+01
 21
-1.34360085E+02
  0
LINE
  8
0
 62
4
 10
-7.44999881E+01
 20
-1.34360085E+02
 11
-6.71822974E+01
 21
-1.34360085E+02
  0
ARC
  8
0
 62
4
 10
-5.97643936E+01
 20
-1.23224838E+02
 40
1.21769740E+01
 50
2.40462101E+02
 51
2.58262147E+02
  0
ARC
  8
0
 62
4
 10
-6.82355835E+01
 20
-1.23224838E+02
 40
1.21769740E+01
 50
2.81737853E+02
 51
2.99537899E+02
  0
POLYLINE
  8
0
 62
4
 66
1
  0
VERTEX
  8
0
 62
4
 10
-6.05999886E+01
 20
-1.31889854E+02
  0
VERTEX
  8
0
 62
4
 10
-6.06136760E+01
 20
-1.31770769E+02
  0
VERTEX
  8
0
 62
4
 10
-6.06546280E+01
 20
-1.31652644E+02
  0
VERTEX
  8
0
 62
4
 10
-6.07225149E+01
 20
-1.31536428E+02
  0
VERTEX
  8
0
 62
4
 10
-6.08167900E+01
 20
-1.31423058E+02
  0
VERTEX
  8
0
 62
4
 10
-6.09366944E+01
 20
-1.31313446E+02
  0
VERTEX
  8
0
 62
4
 10
-6.10812627E+01
 20
-1.31208475E+02
  0
VERTEX
  8
0
 62
4
 10
-6.12493308E+01
 20
-1.31108990E+02
  0
VERTEX
  8
0
 62
4
 10
-6.14395456E+01
 20
-1.31015792E+02
  0
VERTEX
  8
0
 62
4
 10
-6.16503756E+01
 20
-1.30929631E+02
  0
VERTEX
  8
0
 62
4
 10
-6.18801233E+01
 20
-1.30851202E+02
  0
VERTEX
  8
0
 62
4
 10
-6.21269389E+01
 20
-1.30781135E+02
  0
VERTEX
  8
0
 62
4
 10
-6.23888351E+01
 20
-1.30719995E+02
  0
VERTEX
  8
0
 62
4
 10
-6.26637035E+01
 20
-1.30668274E+02
  0
VERTEX
  8
0
 62
4
 10
-6.29493308E+01
 20
-1.30626389E+02
  0
VERTEX
  8
0
 62
4
 10
-6.32434174E+01
 20
-1.30594676E+02
  0
VERTEX
  8
0
 62
4
 10
-6.35435955E+01
 20
-1.30573391E+02
  0
VERTEX
  8
0
 62
4
 10
-6.38474482E+01
 20
-1.30562706E+02
  0
VERTEX
  8
0
 62
4
 10
-6.41525290E+01
 20
-1.30562706E+02
  0
VERTEX
  8
0
 62
4
 10
-6.44563817E+01
 20
-1.30573391E+02
  0
VERTEX
  8
0
 62
4
 10
-6.47565598E+01
 20
-1.30594676E+02
  0
VERTEX
  8
0
 62
4
 10
-6.50506464E+01
 20
-1.30626389E+02
  0
VERTEX
  8
0
 62
4
 10
-6.53362737E+01
 20
-1.30668274E+02
  0
VERTEX
  8
0
 62
4
 10
-6.56111420E+01
 20
-1.30719995E+02
  0
VERTEX
  8
0
 62
4
 10
-6.58730383E+01
 20
-1.30781135E+02
  0
VERTEX
  8
0
 62
4
 10
-6.61198539E+01
 20
-1.30851202E+02
  0
VERTEX
  8
0
 62
4
 10
-6.63496016E+01
 20
-1.30929631E+02
  0
VERTEX
  8
0
 62
4
 10
-6.65604316E+01
 20
-1.31015792E+02
  0
VERTEX
  8
0
 62
4
 10
-6.67506464E+01
 20
-1.31108990E+02
  0
VERTEX
  8
0
 62
4
 10
-6.69187145E+01
 20
-1.31208475E+02
  0
VERTEX
  8
0
 62
4
 10
-6.70632827E+01
 20
-1.31313446E+02
  0
VERTEX
  8
0
 62
4
 10
-6.71831872E+01
 20
-1.31423058E+02
  0
VERTEX
  8
0
 62
4
 10
-6.72774623E+01
 20
-1.31536428E+02
  0
VERTEX
  8
0
 62
4
 10
-6.73453492E+01
 20
-1.31652644E+02
  0
VERTEX
  8
0
 62
4
 10
-6.73863012E+01
 20
-1.31770769E+02
  0
VERTEX
  8
0
 62
4
 10
-6.73999886E+01
 20
-1.31889854E+02
  0
SEQEND
  8
0
  0
LINE
  8
0
 62
4
 10
-6.79999886E+01
 20
-1.31429601E+02
 11
-6.79999886E+01
 21
-1.31889854E+02
  0
LINE
  8
0
 62
4
 10
-5.99999886E+01
 20
-1.31429601E+02
 11
-5.99999886E+01
 21
-1.31889854E+02
  0
POLYLINE
  8
0
 62
4
 66
1
  0
VERTEX
  8
0
 62
4
 10
-6.05999886E+01
 20
-1.32713176E+02
  0
VERTEX
  8
0
 62
4
 10
-6.04269366E+01
 20
-1.32592442E+02
  0
VERTEX
  8
0
 62
4
 10
-6.02818936E+01
 20
-1.32466202E+02
  0
VERTEX
  8
0
 62
4
 10
-6.01659968E+01
 20
-1.32335443E+02
  0
VERTEX
  8
0
 62
4
 10
-6.00801545E+01
 20
-1.32201191E+02
  0
VERTEX
  8
0
 62
4
 10
-6.00250397E+01
 20
-1.32064499E+02
  0
VERTEX
  8
0
 62
4
 10
-6.00010845E+01
 20
-1.31926437E+02
  0
VERTEX
  8
0
 62
4
 10
-6.00084767E+01
 20
-1.31788089E+02
  0
VERTEX
  8
0
 62
4
 10
-6.00471582E+01
 20
-1.31650539E+02
  0
VERTEX
  8
0
 62
4
 10
-6.01168259E+01
 20
-1.31514865E+02
  0
VERTEX
  8
0
 62
4
 10
-6.02169336E+01
 20
-1.31382130E+02
  0
VERTEX
  8
0
 62
4
 10
-6.03466967E+01
 20
-1.31253375E+02
  0
VERTEX
  8
0
 62
4
 10
-6.05050978E+01
 20
-1.31129609E+02
  0
VERTEX
  8
0
 62
4
 10
-6.06908953E+01
 20
-1.31011804E+02
  0
VERTEX
  8
0
 62
4
 10
-6.09026328E+01
 20
-1.30900881E+02
  0
VERTEX
  8
0
 62
4
 10
-6.11386504E+01
 20
-1.30797710E+02
  0
VERTEX
  8
0
 62
4
 10
-6.13970979E+01
 20
-1.30703101E+02
  0
VERTEX
  8
0
 62
4
 10
-6.16759495E+01
 20
-1.30617795E+02
  0
VERTEX
  8
0
 62
4
 10
-6.19730191E+01
 20
-1.30542461E+02
  0
VERTEX
  8
0
 62
4
 10
-6.22859782E+01
 20
-1.30477688E+02
  0
VERTEX
  8
0
 62
4
 10
-6.26123733E+01
 20
-1.30423986E+02
  0
VERTEX
  8
0
 62
4
 10
-6.29496460E+01
 20
-1.30381775E+02
  0
VERTEX
  8
0
 62
4
 10
-6.32951522E+01
 20
-1.30351385E+02
  0
VERTEX
  8
0
 62
4
 10
-6.36461837E+01
 20
-1.30333055E+02
  0
VERTEX
  8
0
 62
4
 10
-6.39999886E+01
 20
-1.30326929E+02
  0
VERTEX
  8
0
 62
4
 10
-6.43537935E+01
 20
-1.30333055E+02
  0
VERTEX
  8
0
 62
4
 10
-6.47048250E+01
 20
-1.30351385E+02
  0
VERTEX
  8
0
 62
4
 10
-6.50503312E+01
 20
-1.30381775E+02
  0
VERTEX
  8
0
 62
4
 10
-6.53876038E+01
 20
-1.30423986E+02
  0
VERTEX
  8
0
 62
4
 10
-6.57139990E+01
 20
-1.30477688E+02
  0
VERTEX
  8
0
 62
4
 10
-6.60269580E+01
 20
-1.30542461E+02
  0
VERTEX
  8
0
 62
4
 10
-6.63240277E+01
 20
-1.30617795E+02
  0
VERTEX
  8
0
 62
4
 10
-6.66028793E+01
 20
-1.30703101E+02
  0
VERTEX
  8
0
 62
4
 10
-6.68613268E+01
 20
-1.30797710E+02
  0
VERTEX
  8
0
 62
4
 10
-6.70973444E+01
 20
-1.30900881E+02
  0
VERTEX
  8
0
 62
4
 10
-6.73090818E+01
 20
-1.31011804E+02
  0
VERTEX
  8
0
 62
4
 10
-6.74948794E+01
 20
-1.31129609E+02
  0
VERTEX
  8
0
 62
4
 10
-6.76532805E+01
 20
-1.31253375E+02
  0
VERTEX
  8
0
 62
4
 10
-6.77830436E+01
 20
-1.31382130E+02
  0
VERTEX
  8
0
 62
4
 10
-6.78831513E+01
 20
-1.31514865E+02
  0
VERTEX
  8
0
 62
4
 10
-6.79528190E+01
 20
-1.31650539E+02
  0
VERTEX
  8
0
 62
4
 10
-6.79915005E+01
 20
-1.31788089E+02
  0
VERTEX
  8
0
 62
4
 10
-6.79988927E+01
 20
-1.31926437E+02
  0
VERTEX
  8
0
 62
4
 10
-6.79749375E+01
 20
-1.32064499E+02
  0
VERTEX
  8
0
 62
4
 10
-6.79198227E+01
 20
-1.32201191E+02
  0
VERTEX
  8
0
 62
4
 10
-6.78339804E+01
 20
-1.32335443E+02
  0
VERTEX
  8
0
 62
4
 10
-6.77180836E+01
 20
-1.32466202E+02
  0
VERTEX
  8
0
 62
4
 10
-6.75730406E+01
 20
-1.32592442E+02
  0
VERTEX
  8
0
 62
4
 10
-6.73999886E+01
 20
-1.32713176E+02
  0
SEQEND
  8
0
  0
POLYLINE
  8
0
 62
4
 66
1
  0
VERTEX
  8
0
 62
4
 10
-5.99999886E+01
 20
-1.31429601E+02
  0
VERTEX
  8
0
 62
4
 10
-6.00160914E+01
 20
-1.31289502E+02
  0
VERTEX
  8
0
 62
4
 10
-6.00642702E+01
 20
-1.31150530E+02
  0
VERTEX
  8
0
 62
4
 10
-6.01441372E+01
 20
-1.31013805E+02
  0
VERTEX
  8
0
 62
4
 10
-6.02550491E+01
 20
-1.30880429E+02
  0
VERTEX
  8
0
 62
4
 10
-6.03961131E+01
 20
-1.30751473E+02
  0
VERTEX
  8
0
 62
4
 10
-6.05661934E+01
 20
-1.30627978E+02
  0
VERTEX
  8
0
 62
4
 10
-6.07639206E+01
 20
-1.30510937E+02
  0
VERTEX
  8
0
 62
4
 10
-6.09877027E+01
 20
-1.30401292E+02
  0
VERTEX
  8
0
 62
4
 10
-6.12357380E+01
 20
-1.30299927E+02
  0
VERTEX
  8
0
 62
4
 10
-6.15060294E+01
 20
-1.30207657E+02
  0
VERTEX
  8
0
 62
4
 10
-6.17964007E+01
 20
-1.30125226E+02
  0
VERTEX
  8
0
 62
4
 10
-6.21045139E+01
 20
-1.30053297E+02
  0
VERTEX
  8
0
 62
4
 10
-6.24278885E+01
 20
-1.29992449E+02
  0
VERTEX
  8
0
 62
4
 10
-6.27639206E+01
 20
-1.29943171E+02
  0
VERTEX
  8
0
 62
4
 10
-6.31099049E+01
 20
-1.29905862E+02
  0
VERTEX
  8
0
 62
4
 10
-6.34630555E+01
 20
-1.29880821E+02
  0
VERTEX
  8
0
 62
4
 10
-6.38205293E+01
 20
-1.29868250E+02
  0
VERTEX
  8
0
 62
4
 10
-6.41794479E+01
 20
-1.29868250E+02
  0
VERTEX
  8
0
 62
4
 10
-6.45369217E+01
 20
-1.29880821E+02
  0
VERTEX
  8
0
 62
4
 10
-6.48900723E+01
 20
-1.29905862E+02
  0
VERTEX
  8
0
 62
4
 10
-6.52360566E+01
 20
-1.29943171E+02
  0
VERTEX
  8
0
 62
4
 10
-6.55720887E+01
 20
-1.29992449E+02
  0
VERTEX
  8
0
 62
4
 10
-6.58954632E+01
 20
-1.30053297E+02
  0
VERTEX
  8
0
 62
4
 10
-6.62035765E+01
 20
-1.30125226E+02
  0
VERTEX
  8
0
 62
4
 10
-6.64939478E+01
 20
-1.30207657E+02
  0
VERTEX
  8
0
 62
4
 10
-6.67642392E+01
 20
-1.30299927E+02
  0
VERTEX
  8
0
 62
4
 10
-6.70122745E+01
 20
-1.30401292E+02
  0
VERTEX
  8
0
 62
4
 10
-6.72360566E+01
 20
-1.30510937E+02
  0
VERTEX
  8
0
 62
4
 10
-6.74337838E+01
 20
-1.30627978E+02
  0
VERTEX
  8
0
 62
4
 10
-6.76038641E+01
 20
-1.30751473E+02
  0
VERTEX
  8
0
 62
4
 10
-6.77449281E+01
 20
-1.30880429E+02
  0
VERTEX
  8
0
 62
4
 10
-6.78558400E+01
 20
-1.31013805E+02
  0
VERTEX
  8
0
 62
4
 10
-6.79357070E+01
 20
-1.31150530E+02
  0
VERTEX
  8
0
 62
4
 10
-6.79838858E+01
 20
-1.31289502E+02
  0
VERTEX
  8
0
 62
4
 10
-6.79999886E+01
 20
-1.31429601E+02
  0
SEQEND
  8
0
  0
POLYLINE
  8
0
 62
4
 66
1
  0
VERTEX
  8
0
 62
4
 10
-6.09999886E+01
 20
-1.06121857E+02
  0
VERTEX
  8
0
 62
4
 10
-6.10114045E+01
 20
-1.05881175E+02
  0
VERTEX
  8
0
 62
4
 10
-6.10455653E+01
 20
-1.05642325E+02
  0
VERTEX
  8
0
 62
4
 10
-6.11022111E+01
 20
-1.05407124E+02
  0
VERTEX
  8
0
 62
4
 10
-6.11809107E+01
 20
-1.05177363E+02
  0
VERTEX
  8
0
 62
4
 10
-6.12810652E+01
 20
-1.04954791E+02
  0
VERTEX
  8
0
 62
4
 10
-6.14019124E+01
 20
-1.04741100E+02
  0
VERTEX
  8
0
 62
4
 10
-6.15425325E+01
 20
-1.04537917E+02
  0
VERTEX
  8
0
 62
4
 10
-6.17018553E+01
 20
-1.04346790E+02
  0
VERTEX
  8
0
 62
4
 10
-6.18786683E+01
 20
-1.04169171E+02
  0
VERTEX
  8
0
 62
4
 10
-6.20716258E+01
 20
-1.04006414E+02
  0
VERTEX
  8
0
 62
4
 10
-6.22792593E+01
 20
-1.03859757E+02
  0
VERTEX
  8
0
 62
4
 10
-6.24999886E+01
 20
-1.03730315E+02
  0
VERTEX
  8
0
 62
4
 10
-6.27321338E+01
 20
-1.03619075E+02
  0
VERTEX
  8
0
 62
4
 10
-6.29739282E+01
 20
-1.03526882E+02
  0
VERTEX
  8
0
 62
4
 10
-6.32235315E+01
 20
-1.03454439E+02
  0
VERTEX
  8
0
 62
4
 10
-6.34790441E+01
 20
-1.03402296E+02
  0
VERTEX
  8
0
 62
4
 10
-6.37385214E+01
 20
-1.03370851E+02
  0
VERTEX
  8
0
 62
4
 10
-6.39999886E+01
 20
-1.03360342E+02
  0
VERTEX
  8
0
 62
4
 10
-6.42614558E+01
 20
-1.03370851E+02
  0
VERTEX
  8
0
 62
4
 10
-6.45209331E+01
 20
-1.03402296E+02
  0
VERTEX
  8
0
 62
4
 10
-6.47764457E+01
 20
-1.03454439E+02
  0
VERTEX
  8
0
 62
4
 10
-6.50260490E+01
 20
-1.03526882E+02
  0
VERTEX
  8
0
 62
4
 10
-6.52678434E+01
 20
-1.03619075E+02
  0
VERTEX
  8
0
 62
4
 10
-6.54999886E+01
 20
-1.03730315E+02
  0
VERTEX
  8
0
 62
4
 10
-6.57207179E+01
 20
-1.03859757E+02
  0
VERTEX
  8
0
 62
4
 10
-6.59283514E+01
 20
-1.04006414E+02
  0
VERTEX
  8
0
 62
4
 10
-6.61213089E+01
 20
-1.04169171E+02
  0
VERTEX
  8
0
 62
4
 10
-6.62981219E+01
 20
-1.04346790E+02
  0
VERTEX
  8
0
 62
4
 10
-6.64574447E+01
 20
-1.04537917E+02
  0
VERTEX
  8
0
 62
4
 10
-6.65980648E+01
 20
-1.04741100E+02
  0
VERTEX
  8
0
 62
4
 10
-6.67189120E+01
 20
-1.04954791E+02
  0
VERTEX
  8
0
 62
4
 10
-6.68190665E+01
 20
-1.05177363E+02
  0
VERTEX
  8
0
 62
4
 10
-6.68977661E+01
 20
-1.05407124E+02
  0
VERTEX
  8
0
 62
4
 10
-6.69544119E+01
 20
-1.05642325E+02
  0
VERTEX
  8
0
 62
4
 10
-6.69885727E+01
 20
-1.05881175E+02
  0
VERTEX
  8
0
 62
4
 10
-6.69999886E+01
 20
-1.06121857E+02
  0
VERTEX
  8
0
 62
4
 10
-6.69885727E+01
 20
-1.06362539E+02
  0
VERTEX
  8
0
 62
4
 10
-6.69544119E+01
 20
-1.06601389E+02
  0
VERTEX
  8
0
 62
4
 10
-6.68977661E+01
 20
-1.06836590E+02
  0
VERTEX
  8
0
 62
4
 10
-6.68190665E+01
 20
-1.07066351E+02
  0
VERTEX
  8
0
 62
4
 10
-6.67189120E+01
 20
-1.07288923E+02
  0
VERTEX
  8
0
 62
4
 10
-6.65980648E+01
 20
-1.07502614E+02
  0
VERTEX
  8
0
 62
4
 10
-6.64574447E+01
 20
-1.07705797E+02
  0
VERTEX
  8
0
 62
4
 10
-6.62981219E+01
 20
-1.07896924E+02
  0
VERTEX
  8
0
 62
4
 10
-6.61213089E+01
 20
-1.08074543E+02
  0
VERTEX
  8
0
 62
4
 10
-6.59283514E+01
 20
-1.08237300E+02
  0
VERTEX
  8
0
 62
4
 10
-6.57207179E+01
 20
-1.08383957E+02
  0
VERTEX
  8
0
 62
4
 10
-6.54999886E+01
 20
-1.08513399E+02
  0
VERTEX
  8
0
 62
4
 10
-6.52678434E+01
 20
-1.08624639E+02
  0
VERTEX
  8
0
 62
4
 10
-6.50260490E+01
 20
-1.08716832E+02
  0
VERTEX
  8
0
 62
4
 10
-6.47764457E+01
 20
-1.08789275E+02
  0
VERTEX
  8
0
 62
4
 10
-6.45209331E+01
 20
-1.08841418E+02
  0
VERTEX
  8
0
 62
4
 10
-6.42614558E+01
 20
-1.08872863E+02
  0
VERTEX
  8
0
 62
4
 10
-6.39999886E+01
 20
-1.08883372E+02
  0
VERTEX
  8
0
 62
4
 10
-6.37385214E+01
 20
-1.08872863E+02
  0
VERTEX
  8
0
 62
4
 10
-6.34790441E+01
 20
-1.08841418E+02
  0
VERTEX
  8
0
 62
4
 10
-6.32235315E+01
 20
-1.08789275E+02
  0
VERTEX
  8
0
 62
4
 10
-6.29739282E+01
 20
-1.08716832E+02
  0
VERTEX
  8
0
 62
4
 10
-6.27321338E+01
 20
-1.08624639E+02
  0
VERTEX
  8
0
 62
4
 10
-6.24999886E+01
 20
-1.08513399E+02
  0
VERTEX
  8
0
 62
4
 10
-6.22792593E+01
 20
-1.08383957E+02
  0
VERTEX
  8
0
 62
4
 10
-6.20716258E+01
 20
-1.08237300E+02
  0
VERTEX
  8
0
 62
4
 10
-6.18786683E+01
 20
-1.08074543E+02
  0
VERTEX
  8
0
 62
4
 10
-6.17018553E+01
 20
-1.07896924E+02
  0
VERTEX
  8
0
 62
4
 10
-6.15425325E+01
 20
-1.07705797E+02
  0
VERTEX
  8
0
 62
4
 10
-6.14019124E+01
 20
-1.07502614E+02
  0
VERTEX
  8
0
 62
4
 10
-6.12810652E+01
 20
-1.07288923E+02
  0
VERTEX
  8
0
 62
4
 10
-6.11809107E+01
 20
-1.07066351E+02
  0
VERTEX
  8
0
 62
4
 10
-6.11022111E+01
 20
-1.06836590E+02
  0
VERTEX
  8
0
 62
4
 10
-6.10455653E+01
 20
-1.06601389E+02
  0
VERTEX
  8
0
 62
4
 10
-6.10114045E+01
 20
-1.06362539E+02
  0
VERTEX
  8
0
 62
4
 10
-6.09999886E+01
 20
-1.06121857E+02
  0
SEQEND
  8
0
  0
LINE
  8
0
  6
CENTER
 62
6
 10
-6.84684674E+01
 20
-1.06121857E+02
 11
-5.95315097E+01
 21
-1.06121857E+02
  0
LINE
  8
0
 62
4
 10
-8.09999886E+01
 20
-1.01966245E+02
 11
-8.09999886E+01
 21
-1.14966245E+02
  0
ARC
  8
0
 62
4
 10
-8.04999890E+01
 20
-1.01966245E+02
 40
4.99999542E-01
 50
8.99999475E+01
 51
1.80000053E+02
  0
LINE
  8
0
 62
4
 10
-7.14999886E+01
 20
-1.01466245E+02
 11
-8.04999886E+01
 21
-1.01466245E+02
  0
LINE
  8
0
 62
4
 10
-9.09999886E+01
 20
-1.15918674E+02
 11
-8.59999886E+01
 21
-1.15918674E+02
  0
LINE
  8
0
 62
4
 10
-9.09999886E+01
 20
-1.12984283E+02
 11
-8.59999886E+01
 21
-1.12984283E+02
  0
LINE
  8
0
 62
4
 10
-9.09999886E+01
 20
-1.05535760E+02
 11
-8.59999886E+01
 21
-1.05535760E+02
  0
ARC
  8
0
 62
4
 10
-7.44999881E+01
 20
-1.32860084E+02
 40
1.50000046E+00
 50
1.80000018E+02
 51
2.69999983E+02
  0
ARC
  8
0
 62
4
 10
-3.84999852E+01
 20
-1.32860088E+02
 40
1.49999664E+00
 50
2.69999872E+02
 51
1.28225561E-04
  0
LINE
  8
0
 62
4
 10
-5.44999886E+01
 20
-1.07185095E+02
 11
-3.84999886E+01
 21
-1.07185095E+02
  0
LINE
  8
0
 62
4
 10
-5.64999886E+01
 20
-1.07145339E+02
 11
-5.44999886E+01
 21
-1.07145339E+02
  0
LINE
  8
0
 62
4
 10
-5.44999886E+01
 20
-1.07145339E+02
 11
-5.44999886E+01
 21
-1.26197841E+02
  0
LINE
  8
0
 62
4
 10
-7.14999886E+01
 20
-1.22793921E+02
 11
-5.64999886E+01
 21
-1.22793921E+02
  0
LINE
  8
0
 62
4
 10
-7.14999886E+01
 20
-1.13025643E+02
 11
-5.64999886E+01
 21
-1.13025643E+02
  0
ARC
  8
0
 62
4
 10
-8.04999843E+01
 20
-1.14966241E+02
 40
5.00004272E-01
 50
1.80000490E+02
 51
2.69999511E+02
  0
ARC
  8
0
 62
4
 10
-3.84999919E+01
 20
-1.08685098E+02
 40
1.50000336E+00
 50
1.28225275E-04
 51
8.99998718E+01
  0
LINE
  8
0
 62
4
 10
-7.44999886E+01
 20
-1.28499118E+02
 11
-3.84999886E+01
 21
-1.28499118E+02
  0
LINE
  8
0
 62
4
 10
-7.34999886E+01
 20
-1.24634931E+02
 11
-5.44999886E+01
 21
-1.24634931E+02
  0
LINE
  8
0
 62
4
 10
-7.59999886E+01
 20
-1.15466245E+02
 11
-7.59999886E+01
 21
-1.32860085E+02
  0
LINE
  8
0
 62
4
 10
-7.34999886E+01
 20
-1.15466245E+02
 11
-7.34999886E+01
 21
-1.26197841E+02
  0
LINE
  8
0
 62
4
 10
-3.69999886E+01
 20
-1.08685095E+02
 11
-3.69999886E+01
 21
-1.32860085E+02
  0
LINE
  8
0
 62
4
 10
-9.09999886E+01
 20
-1.01017720E+02
 11
-8.59999886E+01
 21
-1.01017720E+02
  0
LINE
  8
0
 62
4
 10
-7.14999886E+01
 20
-9.92180705E+01
 11
-5.64999886E+01
 21
-9.92180705E+01
  0
LINE
  8
0
 62
4
 10
-8.44999886E+01
 20
-1.14216245E+02
 11
-8.09999886E+01
 21
-1.14216245E+02
  0
LINE
  8
0
 62
4
 10
-8.44999886E+01
 20
-1.02716245E+02
 11
-8.09999886E+01
 21
-1.02716245E+02
  0
LINE
  8
0
 62
4
 10
-8.44999886E+01
 20
-1.02216245E+02
 11
-8.44999886E+01
 21
-1.14716245E+02
  0
LINE
  8
0
 62
4
 10
-8.59999886E+01
 20
-1.14716245E+02
 11
-8.09999886E+01
 21
-1.14716245E+02
  0
LINE
  8
0
 62
4
 10
-8.59999886E+01
 20
-1.02216245E+02
 11
-8.09999886E+01
 21
-1.02216245E+02
  0
LINE
  8
0
 62
4
 10
-8.59999886E+01
 20
-1.15918674E+02
 11
-8.59999886E+01
 21
-1.01017720E+02
  0
LINE
  8
0
 62
4
 10
-9.09999886E+01
 20
-1.01017720E+02
 11
-9.09999886E+01
 21
-1.15918674E+02
  0
LINE
  8
0
 62
4
 10
-8.04999886E+01
 20
-1.15466245E+02
 11
-7.14999886E+01
 21
-1.15466245E+02
  0
LINE
  8
0
  6
CENTER
 62
6
 10
-6.39999886E+01
 20
-9.21051662E+01
 11
-6.39999886E+01
 21
-1.44500000E+02
  0
LINE
  8
0
 62
4
 10
-6.73999886E+01
 20
-1.33785592E+02
 11
-6.73999886E+01
 21
-1.31889854E+02
  0
LINE
  8
0
 62
4
 10
-6.05999886E+01
 20
-1.31889854E+02
 11
-6.05999886E+01
 21
-1.33785592E+02
  0
LINE
  8
0
  6
CENTER
 62
6
 10
-6.79999886E+01
 20
-9.03458848E+01
 11
-6.79999886E+01
 21
-1.00845885E+02
  0
LINE
  8
0
 62
4
 10
-5.64999886E+01
 20
-9.40258848E+01
 11
-7.14999886E+01
 21
-9.40258848E+01
  0
LINE
  8
0
 62
4
 10
-5.64999886E+01
 20
-9.40258848E+01
 11
-5.64999886E+01
 21
-1.22793921E+02
  0
LINE
  8
0
 62
4
 10
-7.14999886E+01
 20
-9.40258848E+01
 11
-7.14999886E+01
 21
-1.22793921E+02
  0
LINE
  8
0
  6
CENTER
 62
6
 10
-5.99999886E+01
 20
-9.03458848E+01
 11
-5.99999886E+01
 21
-1.00845885E+02
  0
LINE
  8
0
 62
4
 10
3.23139981E+02
 20
-2.59069949E+02
 11
3.23447281E+02
 21
-2.59754030E+02
  0
LINE
  8
0
 62
4
 10
3.16859981E+02
 20
-2.59069949E+02
 11
3.16552681E+02
 21
-2.59754030E+02
  0
POLYLINE
  8
0
 62
4
 66
1
  0
VERTEX
  8
0
 62
4
 10
3.16552681E+02
 20
-2.59754030E+02
  0
VERTEX
  8
0
 62
4
 10
3.16512407E+02
 20
-2.59875320E+02
  0
VERTEX
  8
0
 62
4
 10
3.16500028E+02
 20
-2.59997531E+02
  0
VERTEX
  8
0
 62
4
 10
3.16515643E+02
 20
-2.60119685E+02
  0
VERTEX
  8
0
 62
4
 10
3.16559128E+02
 20
-2.60240806E+02
  0
VERTEX
  8
0
 62
4
 10
3.16630135E+02
 20
-2.60359924E+02
  0
VERTEX
  8
0
 62
4
 10
3.16728095E+02
 20
-2.60476087E+02
  0
VERTEX
  8
0
 62
4
 10
3.16852225E+02
 20
-2.60588365E+02
  0
VERTEX
  8
0
 62
4
 10
3.17001533E+02
 20
-2.60695862E+02
  0
VERTEX
  8
0
 62
4
 10
3.17174823E+02
 20
-2.60797716E+02
  0
VERTEX
  8
0
 62
4
 10
3.17370711E+02
 20
-2.60893113E+02
  0
VERTEX
  8
0
 62
4
 10
3.17587629E+02
 20
-2.60981290E+02
  0
VERTEX
  8
0
 62
4
 10
3.17823841E+02
 20
-2.61061542E+02
  0
VERTEX
  8
0
 62
4
 10
3.18077460E+02
 20
-2.61133227E+02
  0
VERTEX
  8
0
 62
4
 10
3.18346456E+02
 20
-2.61195772E+02
  0
VERTEX
  8
0
 62
4
 10
3.18628678E+02
 20
-2.61248676E+02
  0
VERTEX
  8
0
 62
4
 10
3.18921868E+02
 20
-2.61291516E+02
  0
VERTEX
  8
0
 62
4
 10
3.19223681E+02
 20
-2.61323949E+02
  0
VERTEX
  8
0
 62
4
 10
3.19531703E+02
 20
-2.61345717E+02
  0
VERTEX
  8
0
 62
4
 10
3.19843471E+02
 20
-2.61356644E+02
  0
VERTEX
  8
0
 62
4
 10
3.20156491E+02
 20
-2.61356644E+02
  0
VERTEX
  8
0
 62
4
 10
3.20468259E+02
 20
-2.61345717E+02
  0
VERTEX
  8
0
 62
4
 10
3.20776281E+02
 20
-2.61323949E+02
  0
VERTEX
  8
0
 62
4
 10
3.21078094E+02
 20
-2.61291516E+02
  0
VERTEX
  8
0
 62
4
 10
3.21371284E+02
 20
-2.61248676E+02
  0
VERTEX
  8
0
 62
4
 10
3.21653506E+02
 20
-2.61195772E+02
  0
VERTEX
  8
0
 62
4
 10
3.21922502E+02
 20
-2.61133227E+02
  0
VERTEX
  8
0
 62
4
 10
3.22176120E+02
 20
-2.61061542E+02
  0
VERTEX
  8
0
 62
4
 10
3.22412333E+02
 20
-2.60981290E+02
  0
VERTEX
  8
0
 62
4
 10
3.22629251E+02
 20
-2.60893113E+02
  0
VERTEX
  8
0
 62
4
 10
3.22825139E+02
 20
-2.60797716E+02
  0
VERTEX
  8
0
 62
4
 10
3.22998429E+02
 20
-2.60695862E+02
  0
VERTEX
  8
0
 62
4
 10
3.23147737E+02
 20
-2.60588365E+02
  0
VERTEX
  8
0
 62
4
 10
3.23271867E+02
 20
-2.60476087E+02
  0
VERTEX
  8
0
 62
4
 10
3.23369827E+02
 20
-2.60359924E+02
  0
VERTEX
  8
0
 62
4
 10
3.23440834E+02
 20
-2.60240806E+02
  0
VERTEX
  8
0
 62
4
 10
3.23484319E+02
 20
-2.60119685E+02
  0
VERTEX
  8
0
 62
4
 10
3.23499934E+02
 20
-2.59997531E+02
  0
VERTEX
  8
0
 62
4
 10
3.23487555E+02
 20
-2.59875320E+02
  0
VERTEX
  8
0
 62
4
 10
3.23447281E+02
 20
-2.59754030E+02
  0
SEQEND
  8
0
  0
POLYLINE
  8
0
 62
4
 66
1
  0
VERTEX
  8
0
 62
4
 10
3.23139981E+02
 20
-2.59069949E+02
  0
VERTEX
  8
0
 62
4
 10
3.23128032E+02
 20
-2.58963018E+02
  0
VERTEX
  8
0
 62
4
 10
3.23092277E+02
 20
-2.58856901E+02
  0
VERTEX
  8
0
 62
4
 10
3.23032988E+02
 20
-2.58752405E+02
  0
VERTEX
  8
0
 62
4
 10
3.22950616E+02
 20
-2.58650326E+02
  0
VERTEX
  8
0
 62
4
 10
3.22845787E+02
 20
-2.58551440E+02
  0
VERTEX
  8
0
 62
4
 10
3.22719301E+02
 20
-2.58456501E+02
  0
VERTEX
  8
0
 62
4
 10
3.22572118E+02
 20
-2.58366231E+02
  0
VERTEX
  8
0
 62
4
 10
3.22405361E+02
 20
-2.58281316E+02
  0
VERTEX
  8
0
 62
4
 10
3.22220296E+02
 20
-2.58202403E+02
  0
VERTEX
  8
0
 62
4
 10
3.22018334E+02
 20
-2.58130092E+02
  0
VERTEX
  8
0
 62
4
 10
3.21801011E+02
 20
-2.58064935E+02
  0
VERTEX
  8
0
 62
4
 10
3.21569981E+02
 20
-2.58007426E+02
  0
VERTEX
  8
0
 62
4
 10
3.21327002E+02
 20
-2.57958004E+02
  0
VERTEX
  8
0
 62
4
 10
3.21073924E+02
 20
-2.57917044E+02
  0
VERTEX
  8
0
 62
4
 10
3.20812673E+02
 20
-2.57884859E+02
  0
VERTEX
  8
0
 62
4
 10
3.20545236E+02
 20
-2.57861693E+02
  0
VERTEX
  8
0
 62
4
 10
3.20273650E+02
 20
-2.57847722E+02
  0
VERTEX
  8
0
 62
4
 10
3.19999981E+02
 20
-2.57843053E+02
  0
VERTEX
  8
0
 62
4
 10
3.19726312E+02
 20
-2.57847722E+02
  0
VERTEX
  8
0
 62
4
 10
3.19454726E+02
 20
-2.57861693E+02
  0
VERTEX
  8
0
 62
4
 10
3.19187289E+02
 20
-2.57884859E+02
  0
VERTEX
  8
0
 62
4
 10
3.18926038E+02
 20
-2.57917044E+02
  0
VERTEX
  8
0
 62
4
 10
3.18672960E+02
 20
-2.57958004E+02
  0
VERTEX
  8
0
 62
4
 10
3.18429981E+02
 20
-2.58007426E+02
  0
VERTEX
  8
0
 62
4
 10
3.18198951E+02
 20
-2.58064935E+02
  0
VERTEX
  8
0
 62
4
 10
3.17981628E+02
 20
-2.58130092E+02
  0
VERTEX
  8
0
 62
4
 10
3.17779666E+02
 20
-2.58202403E+02
  0
VERTEX
  8
0
 62
4
 10
3.17594601E+02
 20
-2.58281316E+02
  0
VERTEX
  8
0
 62
4
 10
3.17427844E+02
 20
-2.58366231E+02
  0
VERTEX
  8
0
 62
4
 10
3.17280661E+02
 20
-2.58456501E+02
  0
VERTEX
  8
0
 62
4
 10
3.17154175E+02
 20
-2.58551440E+02
  0
VERTEX
  8
0
 62
4
 10
3.17049346E+02
 20
-2.58650326E+02
  0
VERTEX
  8
0
 62
4
 10
3.16966974E+02
 20
-2.58752405E+02
  0
VERTEX
  8
0
 62
4
 10
3.16907685E+02
 20
-2.58856901E+02
  0
VERTEX
  8
0
 62
4
 10
3.16871930E+02
 20
-2.58963018E+02
  0
VERTEX
  8
0
 62
4
 10
3.16859981E+02
 20
-2.59069949E+02
  0
VERTEX
  8
0
 62
4
 10
3.16871930E+02
 20
-2.59176880E+02
  0
VERTEX
  8
0
 62
4
 10
3.16907685E+02
 20
-2.59282997E+02
  0
VERTEX
  8
0
 62
4
 10
3.16966974E+02
 20
-2.59387493E+02
  0
VERTEX
  8
0
 62
4
 10
3.17049346E+02
 20
-2.59489572E+02
  0
VERTEX
  8
0
 62
4
 10
3.17154175E+02
 20
-2.59588458E+02
  0
VERTEX
  8
0
 62
4
 10
3.17280661E+02
 20
-2.59683397E+02
  0
VERTEX
  8
0
 62
4
 10
3.17427844E+02
 20
-2.59773667E+02
  0
VERTEX
  8
0
 62
4
 10
3.17594601E+02
 20
-2.59858582E+02
  0
VERTEX
  8
0
 62
4
 10
3.17779666E+02
 20
-2.59937495E+02
  0
VERTEX
  8
0
 62
4
 10
3.17981628E+02
 20
-2.60009806E+02
  0
VERTEX
  8
0
 62
4
 10
3.18198951E+02
 20
-2.60074963E+02
  0
VERTEX
  8
0
 62
4
 10
3.18429981E+02
 20
-2.60132472E+02
  0
VERTEX
  8
0
 62
4
 10
3.18672960E+02
 20
-2.60181894E+02
  0
VERTEX
  8
0
 62
4
 10
3.18926038E+02
 20
-2.60222854E+02
  0
VERTEX
  8
0
 62
4
 10
3.19187289E+02
 20
-2.60255039E+02
  0
VERTEX
  8
0
 62
4
 10
3.19454726E+02
 20
-2.60278205E+02
  0
VERTEX
  8
0
 62
4
 10
3.19726312E+02
 20
-2.60292176E+02
  0
VERTEX
  8
0
 62
4
 10
3.19999981E+02
 20
-2.60296845E+02
  0
VERTEX
  8
0
 62
4
 10
3.20273650E+02
 20
-2.60292176E+02
  0
VERTEX
  8
0
 62
4
 10
3.20545236E+02
 20
-2.60278205E+02
  0
VERTEX
  8
0
 62
4
 10
3.20812673E+02
 20
-2.60255039E+02
  0
VERTEX
  8
0
 62
4
 10
3.21073924E+02
 20
-2.60222854E+02
  0
VERTEX
  8
0
 62
4
 10
3.21327002E+02
 20
-2.60181894E+02
  0
VERTEX
  8
0
 62
4
 10
3.21569981E+02
 20
-2.60132472E+02
  0
VERTEX
  8
0
 62
4
 10
3.21801011E+02
 20
-2.60074963E+02
  0
VERTEX
  8
0
 62
4
 10
3.22018334E+02
 20
-2.60009806E+02
  0
VERTEX
  8
0
 62
4
 10
3.22220296E+02
 20
-2.59937495E+02
  0
VERTEX
  8
0
 62
4
 10
3.22405361E+02
 20
-2.59858582E+02
  0
VERTEX
  8
0
 62
4
 10
3.22572118E+02
 20
-2.59773667E+02
  0
VERTEX
  8
0
 62
4
 10
3.22719301E+02
 20
-2.59683397E+02
  0
VERTEX
  8
0
 62
4
 10
3.22845787E+02
 20
-2.59588458E+02
  0
VERTEX
  8
0
 62
4
 10
3.22950616E+02
 20
-2.59489572E+02
  0
VERTEX
  8
0
 62
4
 10
3.23032988E+02
 20
-2.59387493E+02
  0
VERTEX
  8
0
 62
4
 10
3.23092277E+02
 20
-2.59282997E+02
  0
VERTEX
  8
0
 62
4
 10
3.23128032E+02
 20
-2.59176880E+02
  0
VERTEX
  8
0
 62
4
 10
3.23139981E+02
 20
-2.59069949E+02
  0
SEQEND
  8
0
  0
LINE
  8
0
  6
CENTER
 62
6
 10
3.19999981E+02
 20
-2.55236752E+02
 11
3.19999981E+02
 21
-2.59069949E+02
  0
LINE
  8
0
 62
4
 10
3.62999981E+02
 20
-2.45731833E+02
 11
3.57999981E+02
 21
-2.45731833E+02
  0
LINE
  8
0
 62
4
 10
3.62999981E+02
 20
-2.44819692E+02
 11
3.57999981E+02
 21
-2.44819692E+02
  0
LINE
  8
0
 62
4
 10
3.62999981E+02
 20
-2.37906701E+02
 11
3.57999981E+02
 21
-2.37906701E+02
  0
LINE
  8
0
 62
4
 10
3.46499981E+02
 20
-2.62422324E+02
 11
3.46499981E+02
 21
-2.57381869E+02
  0
LINE
  8
0
 62
4
 10
3.10499989E+02
 20
-2.62422324E+02
 11
3.10499989E+02
 21
-2.57381869E+02
  0
POLYLINE
  8
0
 62
4
 66
1
  0
VERTEX
  8
0
 62
4
 10
3.41734981E+02
 20
-2.91735529E+02
  0
VERTEX
  8
0
 62
4
 10
3.41728379E+02
 20
-2.91596335E+02
  0
VERTEX
  8
0
 62
4
 10
3.41708622E+02
 20
-2.91458200E+02
  0
VERTEX
  8
0
 62
4
 10
3.41675862E+02
 20
-2.91322175E+02
  0
VERTEX
  8
0
 62
4
 10
3.41630348E+02
 20
-2.91189297E+02
  0
VERTEX
  8
0
 62
4
 10
3.41572425E+02
 20
-2.91060576E+02
  0
VERTEX
  8
0
 62
4
 10
3.41502535E+02
 20
-2.90936991E+02
  0
VERTEX
  8
0
 62
4
 10
3.41421210E+02
 20
-2.90819484E+02
  0
VERTEX
  8
0
 62
4
 10
3.41329068E+02
 20
-2.90708948E+02
  0
VERTEX
  8
0
 62
4
 10
3.41226811E+02
 20
-2.90606226E+02
  0
VERTEX
  8
0
 62
4
 10
3.41115218E+02
 20
-2.90512098E+02
  0
VERTEX
  8
0
 62
4
 10
3.40995136E+02
 20
-2.90427281E+02
  0
VERTEX
  8
0
 62
4
 10
3.40867481E+02
 20
-2.90352421E+02
  0
VERTEX
  8
0
 62
4
 10
3.40733224E+02
 20
-2.90288087E+02
  0
VERTEX
  8
0
 62
4
 10
3.40593386E+02
 20
-2.90234769E+02
  0
VERTEX
  8
0
 62
4
 10
3.40449032E+02
 20
-2.90192872E+02
  0
VERTEX
  8
0
 62
4
 10
3.40301261E+02
 20
-2.90162716E+02
  0
VERTEX
  8
0
 62
4
 10
3.40151196E+02
 20
-2.90144530E+02
  0
VERTEX
  8
0
 62
4
 10
3.39999981E+02
 20
-2.90138453E+02
  0
VERTEX
  8
0
 62
4
 10
3.39848766E+02
 20
-2.90144530E+02
  0
VERTEX
  8
0
 62
4
 10
3.39698701E+02
 20
-2.90162716E+02
  0
VERTEX
  8
0
 62
4
 10
3.39550930E+02
 20
-2.90192872E+02
  0
VERTEX
  8
0
 62
4
 10
3.39406576E+02
 20
-2.90234769E+02
  0
VERTEX
  8
0
 62
4
 10
3.39266738E+02
 20
-2.90288087E+02
  0
VERTEX
  8
0
 62
4
 10
3.39132481E+02
 20
-2.90352421E+02
  0
VERTEX
  8
0
 62
4
 10
3.39004826E+02
 20
-2.90427281E+02
  0
VERTEX
  8
0
 62
4
 10
3.38884744E+02
 20
-2.90512098E+02
  0
VERTEX
  8
0
 62
4
 10
3.38773151E+02
 20
-2.90606226E+02
  0
VERTEX
  8
0
 62
4
 10
3.38670894E+02
 20
-2.90708948E+02
  0
VERTEX
  8
0
 62
4
 10
3.38578752E+02
 20
-2.90819484E+02
  0
VERTEX
  8
0
 62
4
 10
3.38497427E+02
 20
-2.90936991E+02
  0
VERTEX
  8
0
 62
4
 10
3.38427537E+02
 20
-2.91060576E+02
  0
VERTEX
  8
0
 62
4
 10
3.38369614E+02
 20
-2.91189297E+02
  0
VERTEX
  8
0
 62
4
 10
3.38324100E+02
 20
-2.91322175E+02
  0
VERTEX
  8
0
 62
4
 10
3.38291340E+02
 20
-2.91458200E+02
  0
VERTEX
  8
0
 62
4
 10
3.38271583E+02
 20
-2.91596335E+02
  0
VERTEX
  8
0
 62
4
 10
3.38264981E+02
 20
-2.91735529E+02
  0
VERTEX
  8
0
 62
4
 10
3.38271583E+02
 20
-2.91874723E+02
  0
VERTEX
  8
0
 62
4
 10
3.38291340E+02
 20
-2.92012858E+02
  0
VERTEX
  8
0
 62
4
 10
3.38324100E+02
 20
-2.92148883E+02
  0
VERTEX
  8
0
 62
4
 10
3.38369614E+02
 20
-2.92281761E+02
  0
VERTEX
  8
0
 62
4
 10
3.38427537E+02
 20
-2.92410482E+02
  0
VERTEX
  8
0
 62
4
 10
3.38497427E+02
 20
-2.92534067E+02
  0
VERTEX
  8
0
 62
4
 10
3.38578752E+02
 20
-2.92651574E+02
  0
VERTEX
  8
0
 62
4
 10
3.38670894E+02
 20
-2.92762110E+02
  0
VERTEX
  8
0
 62
4
 10
3.38773151E+02
 20
-2.92864832E+02
  0
VERTEX
  8
0
 62
4
 10
3.38884744E+02
 20
-2.92958960E+02
  0
VERTEX
  8
0
 62
4
 10
3.39004826E+02
 20
-2.93043777E+02
  0
VERTEX
  8
0
 62
4
 10
3.39132481E+02
 20
-2.93118637E+02
  0
VERTEX
  8
0
 62
4
 10
3.39266738E+02
 20
-2.93182971E+02
  0
VERTEX
  8
0
 62
4
 10
3.39406576E+02
 20
-2.93236289E+02
  0
VERTEX
  8
0
 62
4
 10
3.39550930E+02
 20
-2.93278186E+02
  0
VERTEX
  8
0
 62
4
 10
3.39698701E+02
 20
-2.93308342E+02
  0
VERTEX
  8
0
 62
4
 10
3.39848766E+02
 20
-2.93326528E+02
  0
VERTEX
  8
0
 62
4
 10
3.39999981E+02
 20
-2.93332605E+02
  0
VERTEX
  8
0
 62
4
 10
3.40151196E+02
 20
-2.93326528E+02
  0
VERTEX
  8
0
 62
4
 10
3.40301261E+02
 20
-2.93308342E+02
  0
VERTEX
  8
0
 62
4
 10
3.40449032E+02
 20
-2.93278186E+02
  0
VERTEX
  8
0
 62
4
 10
3.40593386E+02
 20
-2.93236289E+02
  0
VERTEX
  8
0
 62
4
 10
3.40733224E+02
 20
-2.93182971E+02
  0
VERTEX
  8
0
 62
4
 10
3.40867481E+02
 20
-2.93118637E+02
  0
VERTEX
  8
0
 62
4
 10
3.40995136E+02
 20
-2.93043777E+02
  0
VERTEX
  8
0
 62
4
 10
3.41115218E+02
 20
-2.92958960E+02
  0
VERTEX
  8
0
 62
4
 10
3.41226811E+02
 20
-2.92864832E+02
  0
VERTEX
  8
0
 62
4
 10
3.41329068E+02
 20
-2.92762110E+02
  0
VERTEX
  8
0
 62
4
 10
3.41421210E+02
 20
-2.92651574E+02
  0
VERTEX
  8
0
 62
4
 10
3.41502535E+02
 20
-2.92534067E+02
  0
VERTEX
  8
0
 62
4
 10
3.41572425E+02
 20
-2.92410482E+02
  0
VERTEX
  8
0
 62
4
 10
3.41630348E+02
 20
-2.92281761E+02
  0
VERTEX
  8
0
 62
4
 10
3.41675862E+02
 20
-2.92148883E+02
  0
VERTEX
  8
0
 62
4
 10
3.41708622E+02
 20
-2.92012858E+02
  0
VERTEX
  8
0
 62
4
 10
3.41728379E+02
 20
-2.91874723E+02
  0
VERTEX
  8
0
 62
4
 10
3.41734981E+02
 20
-2.91735529E+02
  0
SEQEND
  8
0
  0
POLYLINE
  8
0
 62
6
 66
1
  0
VERTEX
  8
0
 62
6
 10
3.41499981E+02
 20
-2.91740131E+02
  0
VERTEX
  8
0
 62
6
 10
3.41494273E+02
 20
-2.91619790E+02
  0
VERTEX
  8
0
 62
6
 10
3.41477193E+02
 20
-2.91500365E+02
  0
VERTEX
  8
0
 62
6
 10
3.41448870E+02
 20
-2.91382765E+02
  0
VERTEX
  8
0
 62
6
 10
3.41409520E+02
 20
-2.91267884E+02
  0
VERTEX
  8
0
 62
6
 10
3.41359443E+02
 20
-2.91156598E+02
  0
VERTEX
  8
0
 62
6
 10
3.41299019E+02
 20
-2.91049752E+02
  0
VERTEX
  8
0
 62
6
 10
3.41228709E+02
 20
-2.90948161E+02
  0
VERTEX
  8
0
 62
6
 10
3.41149048E+02
 20
-2.90852597E+02
  0
VERTEX
  8
0
 62
6
 10
3.41060641E+02
 20
-2.90763788E+02
  0
VERTEX
  8
0
 62
6
 10
3.40964162E+02
 20
-2.90682410E+02
  0
VERTEX
  8
0
 62
6
 10
3.40860346E+02
 20
-2.90609081E+02
  0
VERTEX
  8
0
 62
6
 10
3.40749981E+02
 20
-2.90544360E+02
  0
VERTEX
  8
0
 62
6
 10
3.40633908E+02
 20
-2.90488740E+02
  0
VERTEX
  8
0
 62
6
 10
3.40513011E+02
 20
-2.90442644E+02
  0
VERTEX
  8
0
 62
6
 10
3.40388210E+02
 20
-2.90406422E+02
  0
VERTEX
  8
0
 62
6
 10
3.40260453E+02
 20
-2.90380351E+02
  0
VERTEX
  8
0
 62
6
 10
3.40130715E+02
 20
-2.90364628E+02
  0
VERTEX
  8
0
 62
6
 10
3.39999981E+02
 20
-2.90359374E+02
  0
VERTEX
  8
0
 62
6
 10
3.39869247E+02
 20
-2.90364628E+02
  0
VERTEX
  8
0
 62
6
 10
3.39739509E+02
 20
-2.90380351E+02
  0
VERTEX
  8
0
 62
6
 10
3.39611752E+02
 20
-2.90406422E+02
  0
VERTEX
  8
0
 62
6
 10
3.39486951E+02
 20
-2.90442644E+02
  0
VERTEX
  8
0
 62
6
 10
3.39366054E+02
 20
-2.90488740E+02
  0
VERTEX
  8
0
 62
6
 10
3.39249981E+02
 20
-2.90544360E+02
  0
VERTEX
  8
0
 62
6
 10
3.39139616E+02
 20
-2.90609081E+02
  0
VERTEX
  8
0
 62
6
 10
3.39035800E+02
 20
-2.90682410E+02
  0
VERTEX
  8
0
 62
6
 10
3.38939321E+02
 20
-2.90763788E+02
  0
VERTEX
  8
0
 62
6
 10
3.38850914E+02
 20
-2.90852597E+02
  0
VERTEX
  8
0
 62
6
 10
3.38771253E+02
 20
-2.90948161E+02
  0
VERTEX
  8
0
 62
6
 10
3.38700943E+02
 20
-2.91049752E+02
  0
VERTEX
  8
0
 62
6
 10
3.38640519E+02
 20
-2.91156598E+02
  0
VERTEX
  8
0
 62
6
 10
3.38590442E+02
 20
-2.91267884E+02
  0
VERTEX
  8
0
 62
6
 10
3.38551092E+02
 20
-2.91382765E+02
  0
VERTEX
  8
0
 62
6
 10
3.38522769E+02
 20
-2.91500365E+02
  0
VERTEX
  8
0
 62
6
 10
3.38505689E+02
 20
-2.91619790E+02
  0
VERTEX
  8
0
 62
6
 10
3.38499981E+02
 20
-2.91740131E+02
  0
VERTEX
  8
0
 62
6
 10
3.38505689E+02
 20
-2.91860472E+02
  0
VERTEX
  8
0
 62
6
 10
3.38522769E+02
 20
-2.91979897E+02
  0
VERTEX
  8
0
 62
6
 10
3.38551092E+02
 20
-2.92097497E+02
  0
VERTEX
  8
0
 62
6
 10
3.38590442E+02
 20
-2.92212378E+02
  0
VERTEX
  8
0
 62
6
 10
3.38640519E+02
 20
-2.92323664E+02
  0
VERTEX
  8
0
 62
6
 10
3.38700943E+02
 20
-2.92430510E+02
  0
VERTEX
  8
0
 62
6
 10
3.38771253E+02
 20
-2.92532101E+02
  0
VERTEX
  8
0
 62
6
 10
3.38850914E+02
 20
-2.92627665E+02
  0
VERTEX
  8
0
 62
6
 10
3.38939321E+02
 20
-2.92716474E+02
  0
VERTEX
  8
0
 62
6
 10
3.39035800E+02
 20
-2.92797852E+02
  0
VERTEX
  8
0
 62
6
 10
3.39139616E+02
 20
-2.92871181E+02
  0
VERTEX
  8
0
 62
6
 10
3.39249981E+02
 20
-2.92935902E+02
  0
VERTEX
  8
0
 62
6
 10
3.39366054E+02
 20
-2.92991522E+02
  0
VERTEX
  8
0
 62
6
 10
3.39486951E+02
 20
-2.93037618E+02
  0
VERTEX
  8
0
 62
6
 10
3.39611752E+02
 20
-2.93073840E+02
  0
VERTEX
  8
0
 62
6
 10
3.39739509E+02
 20
-2.93099911E+02
  0
VERTEX
  8
0
 62
6
 10
3.39869247E+02
 20
-2.93115634E+02
  0
VERTEX
  8
0
 62
6
 10
3.39999981E+02
 20
-2.93120888E+02
  0
VERTEX
  8
0
 62
6
 10
3.40130715E+02
 20
-2.93115634E+02
  0
VERTEX
  8
0
 62
6
 10
3.40260453E+02
 20
-2.93099911E+02
  0
VERTEX
  8
0
 62
6
 10
3.40388210E+02
 20
-2.93073840E+02
  0
VERTEX
  8
0
 62
6
 10
3.40513011E+02
 20
-2.93037618E+02
  0
VERTEX
  8
0
 62
6
 10
3.40633908E+02
 20
-2.92991522E+02
  0
VERTEX
  8
0
 62
6
 10
3.40749981E+02
 20
-2.92935902E+02
  0
VERTEX
  8
0
 62
6
 10
3.40860346E+02
 20
-2.92871181E+02
  0
VERTEX
  8
0
 62
6
 10
3.40964162E+02
 20
-2.92797852E+02
  0
VERTEX
  8
0
 62
6
 10
3.41060641E+02
 20
-2.92716474E+02
  0
VERTEX
  8
0
 62
6
 10
3.41149048E+02
 20
-2.92627665E+02
  0
VERTEX
  8
0
 62
6
 10
3.41228709E+02
 20
-2.92532101E+02
  0
VERTEX
  8
0
 62
6
 10
3.41299019E+02
 20
-2.92430510E+02
  0
VERTEX
  8
0
 62
6
 10
3.41359443E+02
 20
-2.92323664E+02
  0
VERTEX
  8
0
 62
6
 10
3.41409520E+02
 20
-2.92212378E+02
  0
VERTEX
  8
0
 62
6
 10
3.41448870E+02
 20
-2.92097497E+02
  0
VERTEX
  8
0
 62
6
 10
3.41477193E+02
 20
-2.91979897E+02
  0
VERTEX
  8
0
 62
6
 10
3.41494273E+02
 20
-2.91860472E+02
  0
VERTEX
  8
0
 62
6
 10
3.41499981E+02
 20
-2.91740131E+02
  0
SEQEND
  8
0
  0
POLYLINE
  8
0
 62
4
 66
1
  0
VERTEX
  8
0
 62
4
 10
3.41725213E+02
 20
-2.91904760E+02
  0
VERTEX
  8
0
 62
4
 10
3.41807067E+02
 20
-2.91762335E+02
  0
VERTEX
  8
0
 62
4
 10
3.41875079E+02
 20
-2.91613868E+02
  0
VERTEX
  8
0
 62
4
 10
3.41928728E+02
 20
-2.91460496E+02
  0
VERTEX
  8
0
 62
4
 10
3.41967603E+02
 20
-2.91303393E+02
  0
VERTEX
  8
0
 62
4
 10
3.41991406E+02
 20
-2.91143763E+02
  0
VERTEX
  8
0
 62
4
 10
3.41999955E+02
 20
-2.90982828E+02
  0
VERTEX
  8
0
 62
4
 10
3.41993184E+02
 20
-2.90821822E+02
  0
VERTEX
  8
0
 62
4
 10
3.41971146E+02
 20
-2.90661977E+02
  0
VERTEX
  8
0
 62
4
 10
3.41934008E+02
 20
-2.90504518E+02
  0
VERTEX
  8
0
 62
4
 10
3.41882057E+02
 20
-2.90350652E+02
  0
VERTEX
  8
0
 62
4
 10
3.41815688E+02
 20
-2.90201556E+02
  0
VERTEX
  8
0
 62
4
 10
3.41735411E+02
 20
-2.90058373E+02
  0
VERTEX
  8
0
 62
4
 10
3.41641841E+02
 20
-2.89922199E+02
  0
VERTEX
  8
0
 62
4
 10
3.41535695E+02
 20
-2.89794078E+02
  0
VERTEX
  8
0
 62
4
 10
3.41417785E+02
 20
-2.89674991E+02
  0
VERTEX
  8
0
 62
4
 10
3.41289015E+02
 20
-2.89565850E+02
  0
VERTEX
  8
0
 62
4
 10
3.41150371E+02
 20
-2.89467492E+02
  0
VERTEX
  8
0
 62
4
 10
3.41002915E+02
 20
-2.89380669E+02
  0
VERTEX
  8
0
 62
4
 10
3.40847777E+02
 20
-2.89306047E+02
  0
VERTEX
  8
0
 62
4
 10
3.40686144E+02
 20
-2.89244197E+02
  0
VERTEX
  8
0
 62
4
 10
3.40519256E+02
 20
-2.89195594E+02
  0
VERTEX
  8
0
 62
4
 10
3.40348390E+02
 20
-2.89160608E+02
  0
VERTEX
  8
0
 62
4
 10
3.40174855E+02
 20
-2.89139509E+02
  0
VERTEX
  8
0
 62
4
 10
3.39999981E+02
 20
-2.89132458E+02
  0
VERTEX
  8
0
 62
4
 10
3.39825107E+02
 20
-2.89139509E+02
  0
VERTEX
  8
0
 62
4
 10
3.39651572E+02
 20
-2.89160608E+02
  0
VERTEX
  8
0
 62
4
 10
3.39480706E+02
 20
-2.89195594E+02
  0
VERTEX
  8
0
 62
4
 10
3.39313818E+02
 20
-2.89244197E+02
  0
VERTEX
  8
0
 62
4
 10
3.39152185E+02
 20
-2.89306047E+02
  0
VERTEX
  8
0
 62
4
 10
3.38997047E+02
 20
-2.89380669E+02
  0
VERTEX
  8
0
 62
4
 10
3.38849591E+02
 20
-2.89467492E+02
  0
VERTEX
  8
0
 62
4
 10
3.38710947E+02
 20
-2.89565850E+02
  0
VERTEX
  8
0
 62
4
 10
3.38582177E+02
 20
-2.89674991E+02
  0
VERTEX
  8
0
 62
4
 10
3.38464267E+02
 20
-2.89794078E+02
  0
VERTEX
  8
0
 62
4
 10
3.38358121E+02
 20
-2.89922199E+02
  0
VERTEX
  8
0
 62
4
 10
3.38264551E+02
 20
-2.90058373E+02
  0
VERTEX
  8
0
 62
4
 10
3.38184274E+02
 20
-2.90201556E+02
  0
VERTEX
  8
0
 62
4
 10
3.38117905E+02
 20
-2.90350652E+02
  0
VERTEX
  8
0
 62
4
 10
3.38065954E+02
 20
-2.90504518E+02
  0
VERTEX
  8
0
 62
4
 10
3.38028816E+02
 20
-2.90661977E+02
  0
VERTEX
  8
0
 62
4
 10
3.38006778E+02
 20
-2.90821822E+02
  0
VERTEX
  8
0
 62
4
 10
3.38000007E+02
 20
-2.90982828E+02
  0
VERTEX
  8
0
 62
4
 10
3.38008556E+02
 20
-2.91143763E+02
  0
VERTEX
  8
0
 62
4
 10
3.38032359E+02
 20
-2.91303393E+02
  0
VERTEX
  8
0
 62
4
 10
3.38071234E+02
 20
-2.91460496E+02
  0
VERTEX
  8
0
 62
4
 10
3.38124883E+02
 20
-2.91613868E+02
  0
VERTEX
  8
0
 62
4
 10
3.38192895E+02
 20
-2.91762335E+02
  0
VERTEX
  8
0
 62
4
 10
3.38274749E+02
 20
-2.91904760E+02
  0
SEQEND
  8
0
  0
POLYLINE
  8
0
 62
4
 66
1
  0
VERTEX
  8
0
 62
4
 10
3.33734981E+02
 20
-2.91735529E+02
  0
VERTEX
  8
0
 62
4
 10
3.33728379E+02
 20
-2.91596335E+02
  0
VERTEX
  8
0
 62
4
 10
3.33708622E+02
 20
-2.91458200E+02
  0
VERTEX
  8
0
 62
4
 10
3.33675862E+02
 20
-2.91322175E+02
  0
VERTEX
  8
0
 62
4
 10
3.33630348E+02
 20
-2.91189297E+02
  0
VERTEX
  8
0
 62
4
 10
3.33572425E+02
 20
-2.91060576E+02
  0
VERTEX
  8
0
 62
4
 10
3.33502535E+02
 20
-2.90936991E+02
  0
VERTEX
  8
0
 62
4
 10
3.33421210E+02
 20
-2.90819484E+02
  0
VERTEX
  8
0
 62
4
 10
3.33329068E+02
 20
-2.90708948E+02
  0
VERTEX
  8
0
 62
4
 10
3.33226811E+02
 20
-2.90606226E+02
  0
VERTEX
  8
0
 62
4
 10
3.33115218E+02
 20
-2.90512098E+02
  0
VERTEX
  8
0
 62
4
 10
3.32995136E+02
 20
-2.90427281E+02
  0
VERTEX
  8
0
 62
4
 10
3.32867481E+02
 20
-2.90352421E+02
  0
VERTEX
  8
0
 62
4
 10
3.32733224E+02
 20
-2.90288087E+02
  0
VERTEX
  8
0
 62
4
 10
3.32593386E+02
 20
-2.90234769E+02
  0
VERTEX
  8
0
 62
4
 10
3.32449032E+02
 20
-2.90192872E+02
  0
VERTEX
  8
0
 62
4
 10
3.32301261E+02
 20
-2.90162716E+02
  0
VERTEX
  8
0
 62
4
 10
3.32151196E+02
 20
-2.90144530E+02
  0
VERTEX
  8
0
 62
4
 10
3.31999981E+02
 20
-2.90138453E+02
  0
VERTEX
  8
0
 62
4
 10
3.31848766E+02
 20
-2.90144530E+02
  0
VERTEX
  8
0
 62
4
 10
3.31698701E+02
 20
-2.90162716E+02
  0
VERTEX
  8
0
 62
4
 10
3.31550930E+02
 20
-2.90192872E+02
  0
VERTEX
  8
0
 62
4
 10
3.31406576E+02
 20
-2.90234769E+02
  0
VERTEX
  8
0
 62
4
 10
3.31266738E+02
 20
-2.90288087E+02
  0
VERTEX
  8
0
 62
4
 10
3.31132481E+02
 20
-2.90352421E+02
  0
VERTEX
  8
0
 62
4
 10
3.31004826E+02
 20
-2.90427281E+02
  0
VERTEX
  8
0
 62
4
 10
3.30884744E+02
 20
-2.90512098E+02
  0
VERTEX
  8
0
 62
4
 10
3.30773151E+02
 20
-2.90606226E+02
  0
VERTEX
  8
0
 62
4
 10
3.30670894E+02
 20
-2.90708948E+02
  0
VERTEX
  8
0
 62
4
 10
3.30578752E+02
 20
-2.90819484E+02
  0
VERTEX
  8
0
 62
4
 10
3.30497427E+02
 20
-2.90936991E+02
  0
VERTEX
  8
0
 62
4
 10
3.30427537E+02
 20
-2.91060576E+02
  0
VERTEX
  8
0
 62
4
 10
3.30369614E+02
 20
-2.91189297E+02
  0
VERTEX
  8
0
 62
4
 10
3.30324100E+02
 20
-2.91322175E+02
  0
VERTEX
  8
0
 62
4
 10
3.30291340E+02
 20
-2.91458200E+02
  0
VERTEX
  8
0
 62
4
 10
3.30271583E+02
 20
-2.91596335E+02
  0
VERTEX
  8
0
 62
4
 10
3.30264981E+02
 20
-2.91735529E+02
  0
VERTEX
  8
0
 62
4
 10
3.30271583E+02
 20
-2.91874723E+02
  0
VERTEX
  8
0
 62
4
 10
3.30291340E+02
 20
-2.92012858E+02
  0
VERTEX
  8
0
 62
4
 10
3.30324100E+02
 20
-2.92148883E+02
  0
VERTEX
  8
0
 62
4
 10
3.30369614E+02
 20
-2.92281761E+02
  0
VERTEX
  8
0
 62
4
 10
3.30427537E+02
 20
-2.92410482E+02
  0
VERTEX
  8
0
 62
4
 10
3.30497427E+02
 20
-2.92534067E+02
  0
VERTEX
  8
0
 62
4
 10
3.30578752E+02
 20
-2.92651574E+02
  0
VERTEX
  8
0
 62
4
 10
3.30670894E+02
 20
-2.92762110E+02
  0
VERTEX
  8
0
 62
4
 10
3.30773151E+02
 20
-2.92864832E+02
  0
VERTEX
  8
0
 62
4
 10
3.30884744E+02
 20
-2.92958960E+02
  0
VERTEX
  8
0
 62
4
 10
3.31004826E+02
 20
-2.93043777E+02
  0
VERTEX
  8
0
 62
4
 10
3.31132481E+02
 20
-2.93118637E+02
  0
VERTEX
  8
0
 62
4
 10
3.31266738E+02
 20
-2.93182971E+02
  0
VERTEX
  8
0
 62
4
 10
3.31406576E+02
 20
-2.93236289E+02
  0
VERTEX
  8
0
 62
4
 10
3.31550930E+02
 20
-2.93278186E+02
  0
VERTEX
  8
0
 62
4
 10
3.31698701E+02
 20
-2.93308342E+02
  0
VERTEX
  8
0
 62
4
 10
3.31848766E+02
 20
-2.93326528E+02
  0
VERTEX
  8
0
 62
4
 10
3.31999981E+02
 20
-2.93332605E+02
  0
VERTEX
  8
0
 62
4
 10
3.32151196E+02
 20
-2.93326528E+02
  0
VERTEX
  8
0
 62
4
 10
3.32301261E+02
 20
-2.93308342E+02
  0
VERTEX
  8
0
 62
4
 10
3.32449032E+02
 20
-2.93278186E+02
  0
VERTEX
  8
0
 62
4
 10
3.32593386E+02
 20
-2.93236289E+02
  0
VERTEX
  8
0
 62
4
 10
3.32733224E+02
 20
-2.93182971E+02
  0
VERTEX
  8
0
 62
4
 10
3.32867481E+02
 20
-2.93118637E+02
  0
VERTEX
  8
0
 62
4
 10
3.32995136E+02
 20
-2.93043777E+02
  0
VERTEX
  8
0
 62
4
 10
3.33115218E+02
 20
-2.92958960E+02
  0
VERTEX
  8
0
 62
4
 10
3.33226811E+02
 20
-2.92864832E+02
  0
VERTEX
  8
0
 62
4
 10
3.33329068E+02
 20
-2.92762110E+02
  0
VERTEX
  8
0
 62
4
 10
3.33421210E+02
 20
-2.92651574E+02
  0
VERTEX
  8
0
 62
4
 10
3.33502535E+02
 20
-2.92534067E+02
  0
VERTEX
  8
0
 62
4
 10
3.33572425E+02
 20
-2.92410482E+02
  0
VERTEX
  8
0
 62
4
 10
3.33630348E+02
 20
-2.92281761E+02
  0
VERTEX
  8
0
 62
4
 10
3.33675862E+02
 20
-2.92148883E+02
  0
VERTEX
  8
0
 62
4
 10
3.33708622E+02
 20
-2.92012858E+02
  0
VERTEX
  8
0
 62
4
 10
3.33728379E+02
 20
-2.91874723E+02
  0
VERTEX
  8
0
 62
4
 10
3.33734981E+02
 20
-2.91735529E+02
  0
SEQEND
  8
0
  0
POLYLINE
  8
0
 62
6
 66
1
  0
VERTEX
  8
0
 62
6
 10
3.33499981E+02
 20
-2.91740131E+02
  0
VERTEX
  8
0
 62
6
 10
3.33494273E+02
 20
-2.91619790E+02
  0
VERTEX
  8
0
 62
6
 10
3.33477193E+02
 20
-2.91500365E+02
  0
VERTEX
  8
0
 62
6
 10
3.33448870E+02
 20
-2.91382765E+02
  0
VERTEX
  8
0
 62
6
 10
3.33409520E+02
 20
-2.91267884E+02
  0
VERTEX
  8
0
 62
6
 10
3.33359443E+02
 20
-2.91156598E+02
  0
VERTEX
  8
0
 62
6
 10
3.33299019E+02
 20
-2.91049752E+02
  0
VERTEX
  8
0
 62
6
 10
3.33228709E+02
 20
-2.90948161E+02
  0
VERTEX
  8
0
 62
6
 10
3.33149048E+02
 20
-2.90852597E+02
  0
VERTEX
  8
0
 62
6
 10
3.33060641E+02
 20
-2.90763788E+02
  0
VERTEX
  8
0
 62
6
 10
3.32964162E+02
 20
-2.90682410E+02
  0
VERTEX
  8
0
 62
6
 10
3.32860346E+02
 20
-2.90609081E+02
  0
VERTEX
  8
0
 62
6
 10
3.32749981E+02
 20
-2.90544360E+02
  0
VERTEX
  8
0
 62
6
 10
3.32633908E+02
 20
-2.90488740E+02
  0
VERTEX
  8
0
 62
6
 10
3.32513011E+02
 20
-2.90442644E+02
  0
VERTEX
  8
0
 62
6
 10
3.32388210E+02
 20
-2.90406422E+02
  0
VERTEX
  8
0
 62
6
 10
3.32260453E+02
 20
-2.90380351E+02
  0
VERTEX
  8
0
 62
6
 10
3.32130715E+02
 20
-2.90364628E+02
  0
VERTEX
  8
0
 62
6
 10
3.31999981E+02
 20
-2.90359374E+02
  0
VERTEX
  8
0
 62
6
 10
3.31869247E+02
 20
-2.90364628E+02
  0
VERTEX
  8
0
 62
6
 10
3.31739509E+02
 20
-2.90380351E+02
  0
VERTEX
  8
0
 62
6
 10
3.31611752E+02
 20
-2.90406422E+02
  0
VERTEX
  8
0
 62
6
 10
3.31486951E+02
 20
-2.90442644E+02
  0
VERTEX
  8
0
 62
6
 10
3.31366054E+02
 20
-2.90488740E+02
  0
VERTEX
  8
0
 62
6
 10
3.31249981E+02
 20
-2.90544360E+02
  0
VERTEX
  8
0
 62
6
 10
3.31139616E+02
 20
-2.90609081E+02
  0
VERTEX
  8
0
 62
6
 10
3.31035800E+02
 20
-2.90682410E+02
  0
VERTEX
  8
0
 62
6
 10
3.30939321E+02
 20
-2.90763788E+02
  0
VERTEX
  8
0
 62
6
 10
3.30850914E+02
 20
-2.90852597E+02
  0
VERTEX
  8
0
 62
6
 10
3.30771253E+02
 20
-2.90948161E+02
  0
VERTEX
  8
0
 62
6
 10
3.30700943E+02
 20
-2.91049752E+02
  0
VERTEX
  8
0
 62
6
 10
3.30640519E+02
 20
-2.91156598E+02
  0
VERTEX
  8
0
 62
6
 10
3.30590442E+02
 20
-2.91267884E+02
  0
VERTEX
  8
0
 62
6
 10
3.30551092E+02
 20
-2.91382765E+02
  0
VERTEX
  8
0
 62
6
 10
3.30522769E+02
 20
-2.91500365E+02
  0
VERTEX
  8
0
 62
6
 10
3.30505689E+02
 20
-2.91619790E+02
  0
VERTEX
  8
0
 62
6
 10
3.30499981E+02
 20
-2.91740131E+02
  0
VERTEX
  8
0
 62
6
 10
3.30505689E+02
 20
-2.91860472E+02
  0
VERTEX
  8
0
 62
6
 10
3.30522769E+02
 20
-2.91979897E+02
  0
VERTEX
  8
0
 62
6
 10
3.30551092E+02
 20
-2.92097497E+02
  0
VERTEX
  8
0
 62
6
 10
3.30590442E+02
 20
-2.92212378E+02
  0
VERTEX
  8
0
 62
6
 10
3.30640519E+02
 20
-2.92323664E+02
  0
VERTEX
  8
0
 62
6
 10
3.30700943E+02
 20
-2.92430510E+02
  0
VERTEX
  8
0
 62
6
 10
3.30771253E+02
 20
-2.92532101E+02
  0
VERTEX
  8
0
 62
6
 10
3.30850914E+02
 20
-2.92627665E+02
  0
VERTEX
  8
0
 62
6
 10
3.30939321E+02
 20
-2.92716474E+02
  0
VERTEX
  8
0
 62
6
 10
3.31035800E+02
 20
-2.92797852E+02
  0
VERTEX
  8
0
 62
6
 10
3.31139616E+02
 20
-2.92871181E+02
  0
VERTEX
  8
0
 62
6
 10
3.31249981E+02
 20
-2.92935902E+02
  0
VERTEX
  8
0
 62
6
 10
3.31366054E+02
 20
-2.92991522E+02
  0
VERTEX
  8
0
 62
6
 10
3.31486951E+02
 20
-2.93037618E+02
  0
VERTEX
  8
0
 62
6
 10
3.31611752E+02
 20
-2.93073840E+02
  0
VERTEX
  8
0
 62
6
 10
3.31739509E+02
 20
-2.93099911E+02
  0
VERTEX
  8
0
 62
6
 10
3.31869247E+02
 20
-2.93115634E+02
  0
VERTEX
  8
0
 62
6
 10
3.31999981E+02
 20
-2.93120888E+02
  0
VERTEX
  8
0
 62
6
 10
3.32130715E+02
 20
-2.93115634E+02
  0
VERTEX
  8
0
 62
6
 10
3.32260453E+02
 20
-2.93099911E+02
  0
VERTEX
  8
0
 62
6
 10
3.32388210E+02
 20
-2.93073840E+02
  0
VERTEX
  8
0
 62
6
 10
3.32513011E+02
 20
-2.93037618E+02
  0
VERTEX
  8
0
 62
6
 10
3.32633908E+02
 20
-2.92991522E+02
  0
VERTEX
  8
0
 62
6
 10
3.32749981E+02
 20
-2.92935902E+02
  0
VERTEX
  8
0
 62
6
 10
3.32860346E+02
 20
-2.92871181E+02
  0
VERTEX
  8
0
 62
6
 10
3.32964162E+02
 20
-2.92797852E+02
  0
VERTEX
  8
0
 62
6
 10
3.33060641E+02
 20
-2.92716474E+02
  0
VERTEX
  8
0
 62
6
 10
3.33149048E+02
 20
-2.92627665E+02
  0
VERTEX
  8
0
 62
6
 10
3.33228709E+02
 20
-2.92532101E+02
  0
VERTEX
  8
0
 62
6
 10
3.33299019E+02
 20
-2.92430510E+02
  0
VERTEX
  8
0
 62
6
 10
3.33359443E+02
 20
-2.92323664E+02
  0
VERTEX
  8
0
 62
6
 10
3.33409520E+02
 20
-2.92212378E+02
  0
VERTEX
  8
0
 62
6
 10
3.33448870E+02
 20
-2.92097497E+02
  0
VERTEX
  8
0
 62
6
 10
3.33477193E+02
 20
-2.91979897E+02
  0
VERTEX
  8
0
 62
6
 10
3.33494273E+02
 20
-2.91860472E+02
  0
VERTEX
  8
0
 62
6
 10
3.33499981E+02
 20
-2.91740131E+02
  0
SEQEND
  8
0
  0
POLYLINE
  8
0
 62
4
 66
1
  0
VERTEX
  8
0
 62
4
 10
3.33725213E+02
 20
-2.91904760E+02
  0
VERTEX
  8
0
 62
4
 10
3.33807067E+02
 20
-2.91762335E+02
  0
VERTEX
  8
0
 62
4
 10
3.33875079E+02
 20
-2.91613868E+02
  0
VERTEX
  8
0
 62
4
 10
3.33928728E+02
 20
-2.91460496E+02
  0
VERTEX
  8
0
 62
4
 10
3.33967603E+02
 20
-2.91303393E+02
  0
VERTEX
  8
0
 62
4
 10
3.33991406E+02
 20
-2.91143763E+02
  0
VERTEX
  8
0
 62
4
 10
3.33999955E+02
 20
-2.90982828E+02
  0
VERTEX
  8
0
 62
4
 10
3.33993184E+02
 20
-2.90821822E+02
  0
VERTEX
  8
0
 62
4
 10
3.33971146E+02
 20
-2.90661977E+02
  0
VERTEX
  8
0
 62
4
 10
3.33934008E+02
 20
-2.90504518E+02
  0
VERTEX
  8
0
 62
4
 10
3.33882057E+02
 20
-2.90350652E+02
  0
VERTEX
  8
0
 62
4
 10
3.33815688E+02
 20
-2.90201556E+02
  0
VERTEX
  8
0
 62
4
 10
3.33735411E+02
 20
-2.90058373E+02
  0
VERTEX
  8
0
 62
4
 10
3.33641841E+02
 20
-2.89922199E+02
  0
VERTEX
  8
0
 62
4
 10
3.33535695E+02
 20
-2.89794078E+02
  0
VERTEX
  8
0
 62
4
 10
3.33417785E+02
 20
-2.89674991E+02
  0
VERTEX
  8
0
 62
4
 10
3.33289015E+02
 20
-2.89565850E+02
  0
VERTEX
  8
0
 62
4
 10
3.33150371E+02
 20
-2.89467492E+02
  0
VERTEX
  8
0
 62
4
 10
3.33002915E+02
 20
-2.89380669E+02
  0
VERTEX
  8
0
 62
4
 10
3.32847777E+02
 20
-2.89306047E+02
  0
VERTEX
  8
0
 62
4
 10
3.32686144E+02
 20
-2.89244197E+02
  0
VERTEX
  8
0
 62
4
 10
3.32519256E+02
 20
-2.89195594E+02
  0
VERTEX
  8
0
 62
4
 10
3.32348390E+02
 20
-2.89160608E+02
  0
VERTEX
  8
0
 62
4
 10
3.32174855E+02
 20
-2.89139509E+02
  0
VERTEX
  8
0
 62
4
 10
3.31999981E+02
 20
-2.89132458E+02
  0
VERTEX
  8
0
 62
4
 10
3.31825107E+02
 20
-2.89139509E+02
  0
VERTEX
  8
0
 62
4
 10
3.31651572E+02
 20
-2.89160608E+02
  0
VERTEX
  8
0
 62
4
 10
3.31480706E+02
 20
-2.89195594E+02
  0
VERTEX
  8
0
 62
4
 10
3.31313818E+02
 20
-2.89244197E+02
  0
VERTEX
  8
0
 62
4
 10
3.31152185E+02
 20
-2.89306047E+02
  0
VERTEX
  8
0
 62
4
 10
3.30997047E+02
 20
-2.89380669E+02
  0
VERTEX
  8
0
 62
4
 10
3.30849591E+02
 20
-2.89467492E+02
  0
VERTEX
  8
0
 62
4
 10
3.30710947E+02
 20
-2.89565850E+02
  0
VERTEX
  8
0
 62
4
 10
3.30582177E+02
 20
-2.89674991E+02
  0
VERTEX
  8
0
 62
4
 10
3.30464267E+02
 20
-2.89794078E+02
  0
VERTEX
  8
0
 62
4
 10
3.30358121E+02
 20
-2.89922199E+02
  0
VERTEX
  8
0
 62
4
 10
3.30264551E+02
 20
-2.90058373E+02
  0
VERTEX
  8
0
 62
4
 10
3.30184274E+02
 20
-2.90201556E+02
  0
VERTEX
  8
0
 62
4
 10
3.30117905E+02
 20
-2.90350652E+02
  0
VERTEX
  8
0
 62
4
 10
3.30065954E+02
 20
-2.90504518E+02
  0
VERTEX
  8
0
 62
4
 10
3.30028816E+02
 20
-2.90661977E+02
  0
VERTEX
  8
0
 62
4
 10
3.30006778E+02
 20
-2.90821822E+02
  0
VERTEX
  8
0
 62
4
 10
3.30000007E+02
 20
-2.90982828E+02
  0
VERTEX
  8
0
 62
4
 10
3.30008556E+02
 20
-2.91143763E+02
  0
VERTEX
  8
0
 62
4
 10
3.30032359E+02
 20
-2.91303393E+02
  0
VERTEX
  8
0
 62
4
 10
3.30071234E+02
 20
-2.91460496E+02
  0
VERTEX
  8
0
 62
4
 10
3.30124883E+02
 20
-2.91613868E+02
  0
VERTEX
  8
0
 62
4
 10
3.30192895E+02
 20
-2.91762335E+02
  0
VERTEX
  8
0
 62
4
 10
3.30274749E+02
 20
-2.91904760E+02
  0
SEQEND
  8
0
  0
LINE
  8
0
 62
4
 10
3.28499981E+02
 20
-2.67440742E+02
 11
3.43499981E+02
 21
-2.67440742E+02
  0
LINE
  8
0
 62
4
 10
3.46191259E+02
 20
-2.79999992E+02
 11
3.47999981E+02
 21
-2.78486800E+02
  0
LINE
  8
0
 62
4
 10
3.08999981E+02
 20
-2.78486800E+02
 11
3.10808703E+02
 21
-2.79999992E+02
  0
LINE
  8
0
 62
4
 10
3.47999981E+02
 20
-2.77106042E+02
 11
3.43499981E+02
 21
-2.77106042E+02
  0
LINE
  8
0
 62
4
 10
3.28499981E+02
 20
-2.77106042E+02
 11
3.08999981E+02
 21
-2.77106042E+02
  0
LINE
  8
0
 62
4
 10
3.28499981E+02
 20
-2.56079775E+02
 11
3.10499981E+02
 21
-2.56079775E+02
  0
ARC
  8
0
 62
4
 10
3.10499989E+02
 20
-2.57579783E+02
 40
1.50000856E+00
 50
9.00003273E+01
 51
1.79999673E+02
  0
LINE
  8
0
 62
4
 10
3.46499981E+02
 20
-2.56079775E+02
 11
3.43499981E+02
 21
-2.56079775E+02
  0
ARC
  8
0
 62
4
 10
3.46499972E+02
 20
-2.57579783E+02
 40
1.50000856E+00
 50
3.27119593E-04
 51
8.99996730E+01
  0
LINE
  8
0
 62
4
 10
3.43499981E+02
 20
-2.30365329E+02
 11
3.28499981E+02
 21
-2.30365329E+02
  0
ARC
  8
0
 62
4
 10
3.10499989E+02
 20
-2.65003664E+02
 40
1.50000856E+00
 50
9.00003273E+01
 51
1.79999673E+02
  0
ARC
  8
0
 62
4
 10
3.43999995E+02
 20
-2.46318878E+02
 40
5.00013809E-01
 50
9.00015821E+01
 51
1.79998418E+02
  0
ARC
  8
0
 62
4
 10
3.52499969E+02
 20
-2.32318876E+02
 40
5.00011902E-01
 50
1.36383594E-03
 51
8.99986360E+01
  0
ARC
  8
0
 62
4
 10
3.52499993E+02
 20
-2.45318876E+02
 40
4.99988098E-01
 50
2.69998636E+02
 51
1.36386840E-03
  0
ARC
  8
0
 62
4
 10
3.46499972E+02
 20
-2.65003664E+02
 40
1.50000856E+00
 50
3.27119593E-04
 51
8.99996730E+01
  0
LINE
  8
0
 62
4
 10
3.08999981E+02
 20
-2.57579775E+02
 11
3.08999981E+02
 21
-2.78503656E+02
  0
LINE
  8
0
 62
4
 10
3.43499981E+02
 20
-2.58318413E+02
 11
3.28499981E+02
 21
-2.58318413E+02
  0
LINE
  8
0
 62
4
 10
3.26499981E+02
 20
-2.60020380E+02
 11
3.26499981E+02
 21
-2.63503656E+02
  0
LINE
  8
0
 62
4
 10
3.43499981E+02
 20
-2.30365329E+02
 11
3.43499981E+02
 21
-2.60020380E+02
  0
LINE
  8
0
 62
4
 10
3.28499981E+02
 20
-2.30365329E+02
 11
3.28499981E+02
 21
-2.60020380E+02
  0
LINE
  8
0
 62
4
 10
3.45499981E+02
 20
-2.60020380E+02
 11
3.45499981E+02
 21
-2.63503656E+02
  0
LINE
  8
0
 62
4
 10
3.47999981E+02
 20
-2.78486800E+02
 11
3.43499981E+02
 21
-2.78486800E+02
  0
LINE
  8
0
 62
4
 10
3.47999981E+02
 20
-2.57579775E+02
 11
3.47999981E+02
 21
-2.78503656E+02
  0
LINE
  8
0
 62
4
 10
3.45499981E+02
 20
-2.60020380E+02
 11
3.26499981E+02
 21
-2.60020380E+02
  0
LINE
  8
0
 62
4
 10
3.43499981E+02
 20
-2.36226296E+02
 11
3.28499981E+02
 21
-2.36226296E+02
  0
LINE
  8
0
 62
4
 10
3.28499981E+02
 20
-2.78486800E+02
 11
3.08999981E+02
 21
-2.78486800E+02
  0
LINE
  8
0
 62
4
 10
3.52499981E+02
 20
-2.45818864E+02
 11
3.43999981E+02
 21
-2.45818864E+02
  0
LINE
  8
0
 62
4
 10
3.56499981E+02
 20
-2.44568864E+02
 11
3.52999981E+02
 21
-2.44568864E+02
  0
LINE
  8
0
 62
4
 10
3.56499981E+02
 20
-2.32568864E+02
 11
3.56499981E+02
 21
-2.45068864E+02
  0
LINE
  8
0
 62
4
 10
3.57999981E+02
 20
-2.45068864E+02
 11
3.52999981E+02
 21
-2.45068864E+02
  0
LINE
  8
0
 62
4
 10
3.57999981E+02
 20
-2.32568864E+02
 11
3.52999981E+02
 21
-2.32568864E+02
  0
LINE
  8
0
 62
4
 10
3.57999981E+02
 20
-2.31915055E+02
 11
3.57999981E+02
 21
-2.45731833E+02
  0
LINE
  8
0
 62
4
 10
3.62999981E+02
 20
-2.31915055E+02
 11
3.62999981E+02
 21
-2.45731833E+02
  0
LINE
  8
0
 62
4
 10
3.52999981E+02
 20
-2.32318864E+02
 11
3.52999981E+02
 21
-2.45318864E+02
  0
LINE
  8
0
 62
4
 10
3.43499981E+02
 20
-2.31818864E+02
 11
3.52499981E+02
 21
-2.31818864E+02
  0
LINE
  8
0
 62
4
 10
3.62999981E+02
 20
-2.31915055E+02
 11
3.57999981E+02
 21
-2.31915055E+02
  0
LINE
  8
0
 62
4
 10
3.46499981E+02
 20
-2.63503656E+02
 11
3.10499981E+02
 21
-2.63503656E+02
  0
LINE
  8
0
 62
4
 10
3.56499981E+02
 20
-2.33068864E+02
 11
3.52999981E+02
 21
-2.33068864E+02
  0
LINE
  8
0
  6
CENTER
 62
6
 10
3.26999981E+02
 20
-2.91740131E+02
 11
3.44999981E+02
 21
-2.91740131E+02
  0
LINE
  8
0
  6
CENTER
 62
6
 10
3.31999981E+02
 20
-2.86740131E+02
 11
3.31999981E+02
 21
-2.96740131E+02
  0
LINE
  8
0
  6
CENTER
 62
6
 10
3.39999981E+02
 20
-2.86740131E+02
 11
3.39999981E+02
 21
-2.96740131E+02
  0
LINE
  8
0
 62
4
 10
3.28499981E+02
 20
-2.67440742E+02
 11
3.28499981E+02
 21
-2.95109138E+02
  0
LINE
  8
0
 62
4
 10
3.43499981E+02
 20
-2.67440742E+02
 11
3.43499981E+02
 21
-2.95109138E+02
  0
LINE
  8
0
 62
4
 10
3.29499981E+02
 20
-2.84137933E+02
 11
3.42499981E+02
 21
-2.84137933E+02
  0
LINE
  8
0
 62
4
 10
3.28499981E+02
 20
-2.95109138E+02
 11
3.43499981E+02
 21
-2.95109138E+02
  0
LINE
  8
0
 62
4
 10
3.28499981E+02
 20
-2.70173506E+02
 11
3.43499981E+02
 21
-2.70173506E+02
  0
LINE
  8
0
 62
7
 10
1.27999983E+02
 20
-3.19500000E+02
 11
1.27999973E+02
 21
-3.14678154E+02
  0
LINE
  8
0
 62
7
 10
1.35999996E+02
 20
-3.19500000E+02
 11
1.35999996E+02
 21
-3.10839746E+02
  0
LINE
  8
0
 62
7
 10
1.68000027E+02
 20
-3.19500000E+02
 11
1.68000027E+02
 21
-2.76500038E+02
  0
LINE
  8
0
 62
7
 10
7.39999962E+01
 20
-3.19500000E+02
 11
7.39999962E+01
 21
-2.76500008E+02
  0
LINE
  8
0
 62
7
 10
1.25821812E+02
 20
-3.12500002E+02
 11
1.16178150E+02
 21
-3.12500023E+02
  0
LINE
  8
0
 62
7
 10
1.13999999E+02
 20
-3.14678185E+02
 11
1.14000009E+02
 21
-3.19500000E+02
  0
ARC
  8
0
 62
7
 10
1.20999996E+02
 20
-3.19500000E+02
 40
8.49999237E+00
 50
0.00000000E+00
 51
1.80000000E+02
  0
ARC
  8
0
 62
7
 10
1.20999996E+02
 20
-3.19500000E+02
 40
8.99994659E+00
 50
0.00000000E+00
 51
1.80000000E+02
  0
ARC
  8
0
 62
2
 10
1.20999996E+02
 20
-3.19500000E+02
 40
9.18000031E+00
 50
0.00000000E+00
 51
1.80000000E+02
  0
ARC
  8
0
 62
7
 10
1.20999996E+02
 20
-3.19500000E+02
 40
1.00000076E+01
 50
0.00000000E+00
 51
1.80000000E+02
  0
LINE
  8
0
 62
7
 10
1.35999996E+02
 20
-3.10839746E+02
 11
1.20999996E+02
 21
-3.02179492E+02
  0
LINE
  8
0
 62
7
 10
1.05999996E+02
 20
-3.10839746E+02
 11
1.05999996E+02
 21
-3.19500000E+02
  0
LINE
  8
0
 62
7
 10
1.20999996E+02
 20
-3.02179492E+02
 11
1.05999996E+02
 21
-3.10839746E+02
  0
ARC
  8
0
 62
7
 10
1.20999996E+02
 20
-3.19500000E+02
 40
1.50000000E+01
 50
0.00000000E+00
 51
1.80000000E+02
  0
ARC
  8
0
 62
7
 10
1.20999996E+02
 20
-3.19500000E+02
 40
1.82500305E+01
 50
0.00000000E+00
 51
1.80000000E+02
  0
CIRCLE
  8
0
 62
7
 10
1.55999996E+02
 20
-2.84500015E+02
 40
8.00000000E+00
  0
ARC
  8
0
 62
7
 10
1.64000027E+02
 20
-2.76500038E+02
 40
4.00000000E+00
 50
0.00000000E+00
 51
8.99999818E+01
  0
CIRCLE
  8
0
 62
7
 10
1.55999996E+02
 20
-2.84500015E+02
 40
8.69999981E+00
  0
CIRCLE
  8
0
 62
2
 10
8.59999657E+01
 20
-2.84499992E+02
 40
5.00000000E+00
  0
CIRCLE
  8
0
 62
2
 10
1.55999996E+02
 20
-2.84499992E+02
 40
5.00000000E+00
  0
CIRCLE
  8
0
 62
7
 10
8.59999657E+01
 20
-2.84500015E+02
 40
8.00000000E+00
  0
ARC
  8
0
 62
7
 10
7.79999657E+01
 20
-2.76500008E+02
 40
4.00000000E+00
 50
9.00000231E+01
 51
1.79999977E+02
  0
CIRCLE
  8
0
 62
7
 10
8.59999657E+01
 20
-2.84500015E+02
 40
8.69999981E+00
  0
CIRCLE
  8
0
 62
7
 10
1.55999996E+02
 20
-2.84499992E+02
 40
4.18000031E+00
  0
CIRCLE
  8
0
 62
7
 10
8.59999657E+01
 20
-2.84499992E+02
 40
4.18000031E+00
  0
LINE
  8
0
  6
CENTER
 62
2
 10
1.72534847E+02
 20
-3.19500000E+02
 11
7.05345726E+01
 21
-3.19500000E+02
  0
LINE
  8
0
  6
CENTER
 62
2
 10
1.31999996E+02
 20
-3.07503517E+02
 11
1.31999996E+02
 21
-2.69926552E+02
  0
LINE
  8
0
  6
CENTER
 62
2
 10
1.41777889E+02
 20
-2.84499992E+02
 11
1.70987759E+02
 21
-2.84499992E+02
  0
LINE
  8
0
 62
7
 10
7.80000877E+01
 20
-2.72499992E+02
 11
1.64000027E+02
 21
-2.72500023E+02
  0
LINE
  8
0
  6
CENTER
 62
2
 10
1.05000027E+02
 20
-2.69923042E+02
 11
1.05000027E+02
 21
-3.10128166E+02
  0
LINE
  8
0
  6
CENTER
 62
2
 10
7.14445457E+01
 20
-2.84499992E+02
 11
1.00691006E+02
 21
-2.84499992E+02
  0
LINE
  8
0
  6
CENTER
 62
2
 10
1.55999996E+02
 20
-2.70127327E+02
 11
1.55999996E+02
 21
-2.99864227E+02
  0
LINE
  8
0
  6
CENTER
 62
2
 10
1.20999996E+02
 20
-2.68644234E+02
 11
1.20999996E+02
 21
-3.19500000E+02
  0
LINE
  8
0
  6
CENTER
 62
2
 10
8.59999657E+01
 20
-2.70314659E+02
 11
8.59999657E+01
 21
-2.99038376E+02
  0
LINE
  8
0
 62
7
 10
-3.87359672E+02
 20
-1.33977049E+01
 11
4.04640328E+02
 21
-1.33977049E+01
  0
LINE
  8
0
 62
7
 10
-3.87359672E+02
 20
-4.33977049E+01
 11
4.04640328E+02
 21
-4.33977049E+01
  0
LINE
  8
0
 62
7
 10
-3.87359672E+02
 20
-4.33977049E+01
 11
-3.87359672E+02
 21
-1.33977049E+01
  0
TEXT
  8
0
 62
7
 10
-3.77074359E+02
 20
-2.53977049E+01
 40
9.00000000E+00
  1
STROKE
 41
1.00000000E+00
  7
MONOTXT
  0
TEXT
  8
0
 62
7
 10
-3.81574359E+02
 20
-4.03977049E+01
 40
9.00000000E+00
  1
STRETCH
 41
1.00000000E+00
  7
MONOTXT
  0
LINE
  8
0
 62
7
 10
-3.87359672E+02
 20
-2.83977049E+01
 11
4.04640328E+02
 21
-2.83977049E+01
  0
LINE
  8
0
 62
7
 10
-3.15359672E+02
 20
-4.33977049E+01
 11
-3.15359672E+02
 21
-1.33977049E+01
  0
LINE
  8
0
 62
7
 10
-2.70359672E+02
 20
-4.33977049E+01
 11
-2.70359672E+02
 21
-1.33977049E+01
  0
LINE
  8
0
 62
7
 10
-2.25359672E+02
 20
-4.33977049E+01
 11
-2.25359672E+02
 21
-1.33977049E+01
  0
LINE
  8
0
 62
7
 10
-1.80359672E+02
 20
-4.33977049E+01
 11
-1.80359672E+02
 21
-1.33977049E+01
  0
LINE
  8
0
 62
7
 10
-1.35359672E+02
 20
-4.33977049E+01
 11
-1.35359672E+02
 21
-1.33977049E+01
  0
LINE
  8
0
 62
7
 10
-9.03596721E+01
 20
-4.33977049E+01
 11
-9.03596721E+01
 21
-1.33977049E+01
  0
LINE
  8
0
 62
7
 10
-4.53596721E+01
 20
-4.33977049E+01
 11
-4.53596721E+01
 21
-1.33977049E+01
  0
LINE
  8
0
 62
7
 10
-3.59672131E-01
 20
-4.33977049E+01
 11
-3.59672131E-01
 21
-1.33977049E+01
  0
LINE
  8
0
 62
7
 10
4.46403279E+01
 20
-4.33977049E+01
 11
4.46403279E+01
 21
-1.33977049E+01
  0
LINE
  8
0
 62
7
 10
8.96403279E+01
 20
-4.33977049E+01
 11
8.96403279E+01
 21
-1.33977049E+01
  0
LINE
  8
0
 62
7
 10
1.34640328E+02
 20
-4.33977049E+01
 11
1.34640328E+02
 21
-1.33977049E+01
  0
LINE
  8
0
 62
7
 10
1.79640328E+02
 20
-4.33977049E+01
 11
1.79640328E+02
 21
-1.33977049E+01
  0
LINE
  8
0
 62
7
 10
2.24640328E+02
 20
-4.33977049E+01
 11
2.24640328E+02
 21
-1.33977049E+01
  0
LINE
  8
0
 62
7
 10
2.69640328E+02
 20
-4.33977049E+01
 11
2.69640328E+02
 21
-1.33977049E+01
  0
LINE
  8
0
 62
7
 10
3.14640328E+02
 20
-4.33977049E+01
 11
3.14640328E+02
 21
-1.33977049E+01
  0
LINE
  8
0
 62
7
 10
3.59640328E+02
 20
-4.33977049E+01
 11
3.59640328E+02
 21
-1.33977049E+01
  0
LINE
  8
0
 62
7
 10
4.04640328E+02
 20
-4.33977049E+01
 11
4.04640328E+02
 21
-1.33977049E+01
  0
TEXT
  8
0
 62
7
 10
-3.00875297E+02
 20
-2.53977049E+01
 40
9.00000000E+00
  1
50
 41
1.00000000E+00
  7
MONOTXT
  0
TEXT
  8
0
 62
7
 10
-2.55875297E+02
 20
-2.53977049E+01
 40
9.00000000E+00
  1
75
 41
1.00000000E+00
  7
MONOTXT
  0
TEXT
  8
0
 62
7
 10
-2.15375297E+02
 20
-2.53977049E+01
 40
9.00000000E+00
  1
100
 41
1.00000000E+00
  7
MONOTXT
  0
TEXT
  8
0
 62
7
 10
-1.70375297E+02
 20
-2.53977049E+01
 40
9.00000000E+00
  1
150
 41
1.00000000E+00
  7
MONOTXT
  0
TEXT
  8
0
 62
7
 10
-1.25375297E+02
 20
-2.53977049E+01
 40
9.00000000E+00
  1
200
 41
1.00000000E+00
  7
MONOTXT
  0
TEXT
  8
0
 62
7
 10
-8.03752971E+01
 20
-2.53977049E+01
 40
9.00000000E+00
  1
250
 41
1.00000000E+00
  7
MONOTXT
  0
TEXT
  8
0
 62
7
 10
-3.53752971E+01
 20
-2.53977049E+01
 40
9.00000000E+00
  1
300
 41
1.00000000E+00
  7
MONOTXT
  0
TEXT
  8
0
 62
7
 10
9.62470287E+00
 20
-2.53977049E+01
 40
9.00000000E+00
  1
350
 41
1.00000000E+00
  7
MONOTXT
  0
TEXT
  8
0
 62
7
 10
5.46247029E+01
 20
-2.53977049E+01
 40
9.00000000E+00
  1
400
 41
1.00000000E+00
  7
MONOTXT
  0
TEXT
  8
0
 62
7
 10
9.96247029E+01
 20
-2.53977049E+01
 40
9.00000000E+00
  1
450
 41
1.00000000E+00
  7
MONOTXT
  0
TEXT
  8
0
 62
7
 10
1.44624703E+02
 20
-2.53977049E+01
 40
9.00000000E+00
  1
500
 41
1.00000000E+00
  7
MONOTXT
  0
TEXT
  8
0
 62
7
 10
1.89624703E+02
 20
-2.53977049E+01
 40
9.00000000E+00
  1
600
 41
1.00000000E+00
  7
MONOTXT
  0
TEXT
  8
0
 62
7
 10
2.34624703E+02
 20
-2.53977049E+01
 40
9.00000000E+00
  1
700
 41
1.00000000E+00
  7
MONOTXT
  0
TEXT
  8
0
 62
7
 10
2.79624703E+02
 20
-2.53977049E+01
 40
9.00000000E+00
  1
800
 41
1.00000000E+00
  7
MONOTXT
  0
TEXT
  8
0
 62
7
 10
3.24624703E+02
 20
-2.53977049E+01
 40
9.00000000E+00
  1
900
 41
1.00000000E+00
  7
MONOTXT
  0
TEXT
  8
0
 62
7
 10
3.65124703E+02
 20
-2.53977049E+01
 40
9.00000000E+00
  1
1000
 41
1.00000000E+00
  7
MONOTXT
  0
TEXT
  8
0
 62
7
 10
-3.05375297E+02
 20
-4.03977049E+01
 40
9.00000000E+00
  1
-25
 41
1.00000000E+00
  7
MONOTXT
  0
TEXT
  8
0
 62
7
 10
-2.51375297E+02
 20
-4.03977049E+01
 40
9.00000000E+00
  1
0
 41
1.00000000E+00
  7
MONOTXT
  0
TEXT
  8
0
 62
7
 10
-2.10875297E+02
 20
-4.03977049E+01
 40
9.00000000E+00
  1
25
 41
1.00000000E+00
  7
MONOTXT
  0
TEXT
  8
0
 62
7
 10
-1.65875297E+02
 20
-4.03977049E+01
 40
9.00000000E+00
  1
75
 41
1.00000000E+00
  7
MONOTXT
  0
TEXT
  8
0
 62
7
 10
-1.25375297E+02
 20
-4.03977049E+01
 40
9.00000000E+00
  1
125
 41
1.00000000E+00
  7
MONOTXT
  0
TEXT
  8
0
 62
7
 10
-8.03752971E+01
 20
-4.03977049E+01
 40
9.00000000E+00
  1
175
 41
1.00000000E+00
  7
MONOTXT
  0
TEXT
  8
0
 62
7
 10
-3.53752971E+01
 20
-4.03977049E+01
 40
9.00000000E+00
  1
225
 41
1.00000000E+00
  7
MONOTXT
  0
TEXT
  8
0
 62
7
 10
9.62470287E+00
 20
-4.03977049E+01
 40
9.00000000E+00
  1
275
 41
1.00000000E+00
  7
MONOTXT
  0
TEXT
  8
0
 62
7
 10
5.46247029E+01
 20
-4.03977049E+01
 40
9.00000000E+00
  1
325
 41
1.00000000E+00
  7
MONOTXT
  0
TEXT
  8
0
 62
7
 10
9.96247029E+01
 20
-4.03977049E+01
 40
9.00000000E+00
  1
375
 41
1.00000000E+00
  7
MONOTXT
  0
TEXT
  8
0
 62
7
 10
1.44624703E+02
 20
-4.03977049E+01
 40
9.00000000E+00
  1
425
 41
1.00000000E+00
  7
MONOTXT
  0
TEXT
  8
0
 62
7
 10
1.89624703E+02
 20
-4.03977049E+01
 40
9.00000000E+00
  1
525
 41
1.00000000E+00
  7
MONOTXT
  0
TEXT
  8
0
 62
7
 10
2.34624703E+02
 20
-4.03977049E+01
 40
9.00000000E+00
  1
625
 41
1.00000000E+00
  7
MONOTXT
  0
TEXT
  8
0
 62
7
 10
2.79624703E+02
 20
-4.03977049E+01
 40
9.00000000E+00
  1
725
 41
1.00000000E+00
  7
MONOTXT
  0
TEXT
  8
0
 62
7
 10
3.24624703E+02
 20
-4.03977049E+01
 40
9.00000000E+00
  1
825
 41
1.00000000E+00
  7
MONOTXT
  0
TEXT
  8
0
 62
7
 10
3.69624703E+02
 20
-4.03977049E+01
 40
9.00000000E+00
  1
925
 41
1.00000000E+00
  7
MONOTXT
  0
TEXT
  8
0
 62
7
 10
3.61624703E+02
 20
-7.89770492E+00
 40
9.00000000E+00
  1
(mm)
 41
1.00000000E+00
  7
MONOTXT
  0
TEXT
  8
0
 62
7
 10
-4.43752971E+01
 20
-7.89770492E+00
 40
9.00000000E+00
  1
STRETCH LIST
 41
1.05263158E+00
  7
MONOTXT
  0
LINE
  8
0
 62
7
 10
-1.89340871E+01
 20
-2.88999962E+02
 11
-8.30000191E+01
 21
-2.88999962E+02
  0
LINE
  8
0
 62
7
 10
-1.37379523E+01
 20
-2.79999992E+02
 11
-8.30000191E+01
 21
-2.79999992E+02
  0
LINE
  8
0
 62
7
 10
-1.14285424E+01
 20
-2.75999977E+02
 11
-8.30000191E+01
 21
-2.75999977E+02
  0
LINE
  8
0
 62
7
 10
-5.93486215E+01
 20
-1.79000015E+02
 11
-8.29999886E+01
 21
-1.79000015E+02
  0
LINE
  8
0
 62
7
 10
-6.16580314E+01
 20
-1.83000031E+02
 11
-8.29999886E+01
 21
-1.83000031E+02
  0
LINE
  8
0
 62
7
 10
-5.41524779E+01
 20
-1.70000031E+02
 11
-8.29999886E+01
 21
-1.70000031E+02
  0
LINE
  8
0
 62
7
 10
-7.14999886E+01
 20
-9.60000000E+01
 11
-8.29999886E+01
 21
-9.60000000E+01
  0
LINE
  8
0
 62
7
 10
-7.14999886E+01
 20
-1.00000000E+02
 11
-8.29999886E+01
 21
-1.00000000E+02
  0
LINE
  8
0
 62
2
 10
-1.68999996E+02
 20
-3.09319992E+02
 11
-1.57000004E+02
 21
-3.09319992E+02
  0
LINE
  8
0
 62
7
 10
-1.68999996E+02
 20
-3.08499977E+02
 11
-1.57000004E+02
 21
-3.08499977E+02
  0
LINE
  8
0
 62
2
 10
-1.68999996E+02
 20
-1.49679977E+02
 11
-1.56999989E+02
 21
-1.49679977E+02
  0
LINE
  8
0
 62
7
 10
-1.68999996E+02
 20
-1.50500000E+02
 11
-1.56999989E+02
 21
-1.50500000E+02
  0
LINE
  8
0
 62
2
 10
-1.68999996E+02
 20
-1.29319977E+02
 11
-1.56999989E+02
 21
-1.29319977E+02
  0
LINE
  8
0
 62
7
 10
-1.68999996E+02
 20
-1.28499969E+02
 11
-1.56999989E+02
 21
-1.28499969E+02
  0
LINE
  8
0
 62
4
 10
-1.81999996E+02
 20
-1.55500000E+02
 11
-1.68999996E+02
 21
-1.55500000E+02
  0
LINE
  8
0
 62
4
 10
-1.81999996E+02
 20
-1.23500000E+02
 11
-1.68999996E+02
 21
-1.23500000E+02
  0
LINE
  8
0
 62
4
 10
-1.81999996E+02
 20
-1.23500000E+02
 11
-1.81999996E+02
 21
-1.55500000E+02
  0
LINE
  8
0
 62
4
 10
-1.68999996E+02
 20
-1.23500000E+02
 11
-1.68999996E+02
 21
-1.55500000E+02
  0
ARC
  8
0
 62
4
 10
-1.58893209E+02
 20
-1.31500000E+02
 40
2.31067870E+01
 50
1.59743797E+02
 51
2.00256203E+02
  0
ARC
  8
0
 62
4
 10
-1.58893209E+02
 20
-1.47500000E+02
 40
2.31067870E+01
 50
1.59743797E+02
 51
2.00256203E+02
  0
ARC
  8
0
 62
4
 10
-1.92106783E+02
 20
-1.31500000E+02
 40
2.31067870E+01
 50
3.39743797E+02
 51
2.02562028E+01
  0
ARC
  8
0
 62
4
 10
-1.92106783E+02
 20
-1.47500000E+02
 40
2.31067870E+01
 50
3.39743797E+02
 51
2.02562028E+01
  0
LINE
  8
0
 62
4
 10
-1.80570931E+02
 20
-1.39500000E+02
 11
-1.70429062E+02
 21
-1.39500000E+02
  0
LINE
  8
0
 62
4
 10
-1.80570934E+02
 20
-3.01033305E+02
 11
-1.70429058E+02
 21
-3.01033305E+02
  0
LINE
  8
0
 62
4
 10
-1.81999996E+02
 20
-3.03508525E+02
 11
-1.81999996E+02
 21
-3.19500000E+02
  0
LINE
  8
0
 62
4
 10
-1.68999996E+02
 20
-3.03508525E+02
 11
-1.68999996E+02
 21
-3.19500000E+02
  0
LINE
  8
0
 62
4
 10
-1.82000013E+02
 20
-3.03508525E+02
 11
-1.80570929E+02
 21
-3.01033308E+02
  0
LINE
  8
0
 62
4
 10
-1.70429076E+02
 20
-3.01033352E+02
 11
-1.69000004E+02
 21
-3.03508540E+02
  0
LINE
  8
0
 62
4
 10
-1.80570934E+02
 20
-3.10508529E+02
 11
-1.70429058E+02
 21
-3.10508529E+02
  0
ARC
  8
0
 62
4
 10
-1.98054791E+02
 20
-3.19508529E+02
 40
2.90548000E+01
 50
1.68181558E-02
 51
1.80446768E+01
  0
ARC
  8
0
 62
4
 10
-1.77562599E+02
 20
-3.05770919E+02
 40
8.56342793E+00
 50
3.26410605E+02
 51
3.35892584E+01
  0
ARC
  8
0
 62
4
 10
-1.52945196E+02
 20
-3.19508529E+02
 40
2.90548000E+01
 50
1.61955287E+02
 51
1.79983182E+02
  0
ARC
  8
0
 62
4
 10
-1.73437394E+02
 20
-3.05770919E+02
 40
8.56342793E+00
 50
1.46410665E+02
 51
2.13589318E+02
  0
LINE
  8
0
 62
4
 10
-3.75000038E+02
 20
-3.10262419E+02
 11
-3.58999976E+02
 21
-3.01024777E+02
  0
LINE
  8
0
 62
4
 10
-3.58999943E+02
 20
-3.01024778E+02
 11
-3.42999970E+02
 21
-3.10262359E+02
  0
LINE
  8
0
 62
4
 10
-3.75000004E+02
 20
-3.10262390E+02
 11
-3.75000004E+02
 21
-3.19500000E+02
  0
LINE
  8
0
 62
4
 10
-3.43000004E+02
 20
-3.10262390E+02
 11
-3.43000004E+02
 21
-3.19500000E+02
  0
ARC
  8
0
 62
4
 10
-3.59000004E+02
 20
-3.19500000E+02
 40
1.60000000E+01
 50
0.00000000E+00
 51
1.80000000E+02
  0
CIRCLE
  8
0
 62
7
 10
-9.89999733E+01
 20
-1.28500046E+02
 40
1.10000000E+01
  0
CIRCLE
  8
0
 62
2
 10
-9.90000038E+01
 20
-1.28500046E+02
 40
1.04775009E+01
  0
CIRCLE
  8
0
 62
7
 10
-9.89999733E+01
 20
-1.28499985E+02
 40
9.25000000E+00
  0
ARC
  8
0
 62
7
 10
-3.59000004E+02
 20
-3.19500000E+02
 40
9.50002670E+00
 50
0.00000000E+00
 51
1.80000000E+02
  0
ARC
  8
0
 62
2
 10
-3.59000004E+02
 20
-3.19500000E+02
 40
1.01800117E+01
 50
0.00000000E+00
 51
1.80000000E+02
  0
ARC
  8
0
 62
7
 10
-3.59000004E+02
 20
-3.19500000E+02
 40
1.10000267E+01
 50
0.00000000E+00
 51
1.80000000E+02
  0
ARC
  8
0
 62
7
 10
-1.54500034E+02
 20
-3.19500015E+02
 40
1.25000010E+01
 50
6.99411317E-05
 51
3.28596884E+01
  0
ARC
  8
0
 62
7
 10
-1.34500004E+02
 20
-2.98971733E+02
 40
5.00000000E-01
 50
9.20007969E+01
 51
1.80000019E+02
  0
ARC
  8
0
 62
7
 10
-1.20500019E+02
 20
-2.98000000E+02
 40
5.00000000E-01
 50
9.00000369E+01
 51
1.80000019E+02
  0
ARC
  8
0
 62
7
 10
-1.18500019E+02
 20
-2.73619728E+02
 40
5.00000000E-01
 50
9.10003112E+01
 51
1.80000019E+02
  0
ARC
  8
0
 62
7
 10
-1.39500034E+02
 20
-3.00500000E+02
 40
5.00000000E-01
 50
9.00000369E+01
 51
1.80000019E+02
  0
ARC
  8
0
 62
7
 10
-8.99999886E+01
 20
-1.55500061E+02
 40
5.00000000E+00
 50
0.00000000E+00
 51
1.79999964E+02
  0
ARC
  8
0
 62
7
 10
-8.99999886E+01
 20
-1.55500061E+02
 40
5.00000000E+00
 50
1.79999977E+02
 51
1.00179127E-05
  0
ARC
  8
0
 62
7
 10
-3.97000034E+02
 20
-2.96634697E+02
 40
1.00000000E+00
 50
7.61138799E+01
 51
1.79999964E+02
  0
ARC
  8
0
 62
7
 10
-3.81865330E+02
 20
-2.81499939E+02
 40
1.00000000E+00
 50
8.99999818E+01
 51
1.93887774E+02
  0
ARC
  8
0
 62
7
 10
-3.36134647E+02
 20
-2.81500015E+02
 40
1.00000000E+00
 50
3.46114302E+02
 51
8.99999818E+01
  0
ARC
  8
0
 62
7
 10
-3.20999973E+02
 20
-2.96634666E+02
 40
1.00000000E+00
 50
0.00000000E+00
 51
1.03886139E+02
  0
ARC
  8
0
 62
7
 10
-3.59000004E+02
 20
-3.19500000E+02
 40
2.10111103E+01
 50
0.00000000E+00
 51
1.80000000E+02
  0
ARC
  8
0
 62
7
 10
-3.59000004E+02
 20
-3.19499924E+02
 40
1.95000000E+01
 50
0.00000000E+00
 51
1.80000224E+02
  0
ARC
  8
0
 62
7
 10
-3.59000004E+02
 20
-3.19499924E+02
 40
2.20000000E+01
 50
0.00000000E+00
 51
1.80000199E+02
  0
ARC
  8
0
 62
7
 10
-3.56749973E+02
 20
-2.96610252E+02
 40
1.00000000E+00
 50
1.79999964E+02
 51
2.64386104E+02
  0
ARC
  8
0
 62
7
 10
-3.36110325E+02
 20
-3.17250015E+02
 40
1.00000000E+00
 50
1.85613837E+02
 51
2.69999963E+02
  0
ARC
  8
0
 62
7
 10
-3.44405521E+02
 20
-3.01723511E+02
 40
1.00000000E+00
 50
2.30613841E+02
 51
3.14999995E+02
  0
ARC
  8
0
 62
7
 10
-3.41223545E+02
 20
-3.04905540E+02
 40
1.00000000E+00
 50
1.34999959E+02
 51
2.19385485E+02
  0
ARC
  8
0
 62
7
 10
-3.40998905E+02
 20
-2.77100044E+02
 40
1.00000000E+00
 50
1.27477808E+00
 51
8.99999818E+01
  0
ARC
  8
0
 62
7
 10
-3.16599949E+02
 20
-3.01498825E+02
 40
1.00000000E+00
 50
0.00000000E+00
 51
8.87269716E+01
  0
ARC
  8
0
 62
7
 10
-3.36500004E+02
 20
-2.76999947E+02
 40
3.50000000E+00
 50
1.81274508E+02
 51
2.70000018E+02
  0
ARC
  8
0
 62
7
 10
-3.16500004E+02
 20
-2.96999939E+02
 40
3.50000000E+00
 50
1.79999977E+02
 51
2.68726963E+02
  0
CIRCLE
  8
0
 62
7
 10
-3.24000004E+02
 20
-2.84500015E+02
 40
8.00000000E+00
  0
ARC
  8
0
 62
7
 10
-3.15999973E+02
 20
-2.76500038E+02
 40
4.00000000E+00
 50
0.00000000E+00
 51
8.99999818E+01
  0
ARC
  8
0
 62
7
 10
-3.24000004E+02
 20
-2.84500015E+02
 40
1.15000010E+01
 50
1.66113425E+02
 51
2.83886868E+02
  0
ARC
  8
0
 62
7
 10
-3.15999973E+02
 20
-2.76500038E+02
 40
3.40000010E+00
 50
0.00000000E+00
 51
8.99999818E+01
  0
ARC
  8
0
 62
7
 10
-3.16599949E+02
 20
-3.17250015E+02
 40
1.00000000E+00
 50
2.69999963E+02
 51
0.00000000E+00
  0
ARC
  8
0
 62
7
 10
-3.56749973E+02
 20
-2.77100044E+02
 40
1.00000000E+00
 50
8.99999818E+01
 51
1.79999964E+02
  0
ARC
  8
0
 62
7
 10
-3.34285496E+02
 20
-2.91603493E+02
 40
1.00000000E+00
 50
3.14999995E+02
 51
3.46303842E+01
  0
ARC
  8
0
 62
7
 10
-3.31103458E+02
 20
-2.94785492E+02
 40
1.00000000E+00
 50
5.53696252E+01
 51
1.34999959E+02
  0
CIRCLE
  8
0
 62
7
 10
-3.24000004E+02
 20
-2.84500015E+02
 40
8.69999981E+00
  0
CIRCLE
  8
0
 62
2
 10
-3.94000034E+02
 20
-2.84499992E+02
 40
5.00000000E+00
  0
ARC
  8
0
 62
7
 10
-3.81889713E+02
 20
-3.17250008E+02
 40
1.00000000E+00
 50
2.69999963E+02
 51
3.54386117E+02
  0
ARC
  8
0
 62
7
 10
-3.61250004E+02
 20
-2.96610321E+02
 40
1.00000000E+00
 50
2.75613832E+02
 51
3.59999959E+02
  0
ARC
  8
0
 62
7
 10
-3.76776493E+02
 20
-3.04905518E+02
 40
1.00000000E+00
 50
3.20613837E+02
 51
4.49999910E+01
  0
ARC
  8
0
 62
7
 10
-3.73594456E+02
 20
-3.01723511E+02
 40
1.00000000E+00
 50
2.24999972E+02
 51
3.09385511E+02
  0
ARC
  8
0
 62
7
 10
-1.34499973E+02
 20
-1.18971680E+02
 40
5.00000000E-01
 50
9.20007356E+01
 51
1.79999951E+02
  0
ARC
  8
0
 62
7
 10
-1.34499973E+02
 20
-1.60028244E+02
 40
5.00000000E-01
 50
1.79999977E+02
 51
2.67999192E+02
  0
ARC
  8
0
 62
7
 10
-1.20499989E+02
 20
-1.61000000E+02
 40
5.00000000E-01
 50
1.79999977E+02
 51
2.69999974E+02
  0
ARC
  8
0
 62
7
 10
-1.39499973E+02
 20
-1.58499939E+02
 40
5.00000000E-01
 50
1.79999977E+02
 51
2.69999974E+02
  0
ARC
  8
0
 62
7
 10
-1.39499973E+02
 20
-1.20499969E+02
 40
5.00000000E-01
 50
8.99999818E+01
 51
1.79999951E+02
  0
ARC
  8
0
 62
7
 10
-1.20499989E+02
 20
-1.17999939E+02
 40
5.00000000E-01
 50
8.99999818E+01
 51
1.79999951E+02
  0
ARC
  8
0
 62
7
 10
-1.12999989E+02
 20
-1.67499939E+02
 40
2.00000000E+00
 50
1.79999977E+02
 51
2.70000028E+02
  0
ARC
  8
0
 62
7
 10
-1.12999989E+02
 20
-1.11499969E+02
 40
2.00000000E+00
 50
8.99999818E+01
 51
1.79999951E+02
  0
ARC
  8
0
 62
7
 10
-1.18499973E+02
 20
-1.85380280E+02
 40
5.00000000E-01
 50
1.79999977E+02
 51
2.68999679E+02
  0
ARC
  8
0
 62
7
 10
-1.18499973E+02
 20
-9.36197205E+01
 40
5.00000000E-01
 50
9.10002493E+01
 51
1.79999951E+02
  0
ARC
  8
0
 62
7
 10
-3.77001133E+02
 20
-2.77099983E+02
 40
1.00000000E+00
 50
8.99999818E+01
 51
1.78726994E+02
  0
ARC
  8
0
 62
7
 10
-4.01399937E+02
 20
-3.01498917E+02
 40
1.00000000E+00
 50
9.12747958E+01
 51
1.79999964E+02
  0
ARC
  8
0
 62
7
 10
-4.01500034E+02
 20
-2.97000038E+02
 40
3.50000000E+00
 50
2.71274531E+02
 51
4.99579573E-04
  0
ARC
  8
0
 62
7
 10
-3.81500034E+02
 20
-2.76999992E+02
 40
3.50000000E+00
 50
2.70000018E+02
 51
3.58726970E+02
  0
CIRCLE
  8
0
 62
2
 10
-3.24000004E+02
 20
-2.84499992E+02
 40
5.00000000E+00
  0
CIRCLE
  8
0
 62
7
 10
-3.94000034E+02
 20
-2.84500015E+02
 40
8.00000000E+00
  0
ARC
  8
0
 62
7
 10
-4.02000034E+02
 20
-2.76500008E+02
 40
4.00000000E+00
 50
9.00000231E+01
 51
1.79999977E+02
  0
ARC
  8
0
 62
7
 10
-4.02000034E+02
 20
-2.76500008E+02
 40
3.40000010E+00
 50
9.00000231E+01
 51
1.79999977E+02
  0
ARC
  8
0
 62
7
 10
-4.01399937E+02
 20
-3.17250008E+02
 40
1.00000000E+00
 50
1.79999964E+02
 51
2.69999946E+02
  0
ARC
  8
0
 62
7
 10
-3.94000034E+02
 20
-2.84500015E+02
 40
1.15000010E+01
 50
2.56113404E+02
 51
1.38868930E+01
  0
ARC
  8
0
 62
7
 10
-3.61250004E+02
 20
-2.77099983E+02
 40
1.00000000E+00
 50
3.59999959E+02
 51
8.99999956E+01
  0
ARC
  8
0
 62
7
 10
-3.86896580E+02
 20
-2.94785492E+02
 40
1.00000000E+00
 50
4.49999910E+01
 51
1.24630380E+02
  0
ARC
  8
0
 62
7
 10
-3.83714512E+02
 20
-2.91603470E+02
 40
1.00000000E+00
 50
1.45369634E+02
 51
2.24999955E+02
  0
CIRCLE
  8
0
 62
7
 10
-3.94000034E+02
 20
-2.84500015E+02
 40
8.69999981E+00
  0
CIRCLE
  8
0
 62
7
 10
-8.99999886E+01
 20
-1.55500061E+02
 40
2.59999990E+00
  0
CIRCLE
  8
0
 62
7
 10
-3.24000004E+02
 20
-2.84499992E+02
 40
4.18000031E+00
  0
CIRCLE
  8
0
 62
7
 10
-3.94000034E+02
 20
-2.84499992E+02
 40
4.18000031E+00
  0
LINE
  8
0
  6
CENTER
 62
2
 10
-9.89999733E+01
 20
-2.85199944E+02
 11
-9.89999733E+01
 21
-2.70047340E+02
  0
LINE
  8
0
  6
CENTER
 62
2
 10
-8.52976723E+01
 20
-1.28500076E+02
 11
-1.13094929E+02
 21
-1.28500076E+02
  0
LINE
  8
0
  6
CENTER
 62
2
 10
-9.90000038E+01
 20
-1.42605881E+02
 11
-9.90000038E+01
 21
-1.14676758E+02
  0
LINE
  8
0
 62
7
 10
-1.56999989E+02
 20
-1.49679977E+02
 11
-1.53999989E+02
 21
-1.49679977E+02
  0
LINE
  8
0
 62
7
 10
-1.56999989E+02
 20
-1.29319977E+02
 11
-1.53999989E+02
 21
-1.29319977E+02
  0
LINE
  8
0
 62
7
 10
-1.44000109E+02
 20
-1.28999905E+02
 11
-1.42000150E+02
 21
-1.26999946E+02
  0
LINE
  8
0
 62
7
 10
-1.44000045E+02
 20
-1.50000014E+02
 11
-1.41999999E+02
 21
-1.52000059E+02
  0
LINE
  8
0
 62
7
 10
-1.54000004E+02
 20
-1.50000000E+02
 11
-1.44000050E+02
 21
-1.50000000E+02
  0
LINE
  8
0
 62
7
 10
-1.54000004E+02
 20
-1.29000000E+02
 11
-1.44000156E+02
 21
-1.29000000E+02
  0
LINE
  8
0
 62
2
 10
-1.93320011E+02
 20
-1.49679977E+02
 11
-1.81999996E+02
 21
-1.49679977E+02
  0
LINE
  8
0
 62
7
 10
-1.93999982E+02
 20
-1.48999938E+02
 11
-1.92499991E+02
 21
-1.50499929E+02
  0
LINE
  8
0
 62
7
 10
-1.92500065E+02
 20
-1.50500000E+02
 11
-1.81999996E+02
 21
-1.50500000E+02
  0
LINE
  8
0
 62
2
 10
-1.93320011E+02
 20
-1.29319977E+02
 11
-1.81999996E+02
 21
-1.29319977E+02
  0
LINE
  8
0
 62
7
 10
-1.93999970E+02
 20
-1.30000100E+02
 11
-1.92499936E+02
 21
-1.28500066E+02
  0
LINE
  8
0
 62
7
 10
-1.92500004E+02
 20
-1.50500000E+02
 11
-1.92500004E+02
 21
-1.28499969E+02
  0
LINE
  8
0
 62
7
 10
-1.92500065E+02
 20
-1.28499969E+02
 11
-1.81999996E+02
 21
-1.28499969E+02
  0
LINE
  8
0
 62
7
 10
-1.56999989E+02
 20
-1.50500000E+02
 11
-1.56999989E+02
 21
-1.28499969E+02
  0
LINE
  8
0
 62
7
 10
-1.94000004E+02
 20
-1.48999878E+02
 11
-1.94000004E+02
 21
-1.30000061E+02
  0
LINE
  8
0
 62
7
 10
-1.53999989E+02
 20
-1.50000031E+02
 11
-1.53999989E+02
 21
-1.29000000E+02
  0
LINE
  8
0
 62
7
 10
-1.50999989E+02
 20
-1.29000000E+02
 11
-1.50999989E+02
 21
-1.50000000E+02
  0
LINE
  8
0
 62
7
 10
-1.42000004E+02
 20
-1.52000046E+02
 11
-1.40000019E+02
 21
-1.52000046E+02
  0
LINE
  8
0
 62
7
 10
-1.42000141E+02
 20
-1.27000000E+02
 11
-1.39999989E+02
 21
-1.27000000E+02
  0
LINE
  8
0
 62
7
 10
-1.57000004E+02
 20
-3.09319992E+02
 11
-1.54000004E+02
 21
-3.09319992E+02
  0
LINE
  8
0
 62
2
 10
-1.49000022E+02
 20
-3.19500000E+02
 11
-1.52660568E+02
 21
-3.14534612E+02
  0
LINE
  8
0
 62
2
 10
-1.44000027E+02
 20
-3.12717716E+02
 11
-1.49000011E+02
 21
-3.19500000E+02
  0
LINE
  8
0
 62
7
 10
-1.54000025E+02
 20
-3.08499968E+02
 11
-1.51000013E+02
 21
-3.06999939E+02
  0
LINE
  8
0
 62
7
 10
-1.53999995E+02
 20
-3.16000138E+02
 11
-1.50999997E+02
 21
-3.12717723E+02
  0
LINE
  8
0
 62
7
 10
-1.51000004E+02
 20
-3.12717720E+02
 11
-1.44000019E+02
 21
-3.12717720E+02
  0
LINE
  8
0
 62
7
 10
-1.44000019E+02
 20
-3.19500000E+02
 11
-1.44000019E+02
 21
-3.12717720E+02
  0
LINE
  8
0
 62
7
 10
-1.51000050E+02
 20
-3.06999954E+02
 11
-1.40000034E+02
 21
-3.06999954E+02
  0
LINE
  8
0
 62
2
 10
-1.93320072E+02
 20
-3.09319992E+02
 11
-1.81999996E+02
 21
-3.09319992E+02
  0
LINE
  8
0
 62
7
 10
-1.92500065E+02
 20
-3.08499977E+02
 11
-1.81999996E+02
 21
-3.08499977E+02
  0
LINE
  8
0
 62
7
 10
-1.94000074E+02
 20
-3.10000010E+02
 11
-1.92500056E+02
 21
-3.08499992E+02
  0
LINE
  8
0
 62
7
 10
-1.92500004E+02
 20
-3.08499977E+02
 11
-1.92500004E+02
 21
-3.19500000E+02
  0
LINE
  8
0
 62
7
 10
-1.57000004E+02
 20
-3.08499977E+02
 11
-1.57000004E+02
 21
-3.19500000E+02
  0
LINE
  8
0
 62
7
 10
-1.94000004E+02
 20
-3.09999954E+02
 11
-1.94000004E+02
 21
-3.19500000E+02
  0
LINE
  8
0
 62
7
 10
-1.54000004E+02
 20
-3.19500000E+02
 11
-1.54000004E+02
 21
-3.08499977E+02
  0
LINE
  8
0
 62
7
 10
-1.51000004E+02
 20
-3.12717720E+02
 11
-1.51000004E+02
 21
-3.07000000E+02
  0
LINE
  8
0
  6
CENTER
 62
2
 10
-1.63360285E+01
 20
-2.84499992E+02
 11
-1.21524494E+02
 21
-2.84499992E+02
  0
LINE
  8
0
 62
7
 10
-1.20999989E+02
 20
-3.19500000E+02
 11
-1.20999989E+02
 21
-2.98000015E+02
  0
LINE
  8
0
 62
7
 10
-1.34517441E+02
 20
-2.98472105E+02
 11
-1.20999999E+02
 21
-2.98000066E+02
  0
LINE
  8
0
 62
7
 10
-1.35000004E+02
 20
-3.19500000E+02
 11
-1.35000004E+02
 21
-2.98971733E+02
  0
LINE
  8
0
 62
7
 10
-1.20500019E+02
 20
-2.97500008E+02
 11
-1.19000019E+02
 21
-2.97500008E+02
  0
LINE
  8
0
 62
7
 10
-1.15000004E+02
 20
-2.73058540E+02
 11
-1.15000004E+02
 21
-2.72499992E+02
  0
LINE
  8
0
 62
7
 10
-1.18508758E+02
 20
-2.73119817E+02
 11
-8.30000217E+01
 21
-2.72500010E+02
  0
LINE
  8
0
 62
7
 10
-1.15000004E+02
 20
-2.72499992E+02
 11
-8.30000191E+01
 21
-2.72499992E+02
  0
LINE
  8
0
 62
7
 10
-8.30000191E+01
 20
-3.19500000E+02
 11
-8.30000191E+01
 21
-2.72500023E+02
  0
LINE
  8
0
 62
7
 10
-1.19000004E+02
 20
-3.19500000E+02
 11
-1.19000004E+02
 21
-2.73619728E+02
  0
LINE
  8
0
 62
7
 10
-1.39500034E+02
 20
-3.00000008E+02
 11
-1.35000034E+02
 21
-3.00000008E+02
  0
LINE
  8
0
 62
7
 10
-1.40000004E+02
 20
-3.19500000E+02
 11
-1.40000004E+02
 21
-3.00500000E+02
  0
LINE
  8
0
 62
7
 10
-1.14285404E+01
 20
-9.60000000E+01
 11
-5.64999886E+01
 21
-9.60000000E+01
  0
LINE
  8
0
 62
7
 10
-1.37379414E+01
 20
-1.00000000E+02
 11
-5.64999886E+01
 21
-1.00000000E+02
  0
LINE
  8
0
  6
CENTER
 62
2
 10
-1.63360177E+01
 20
-1.04500000E+02
 11
-5.64999886E+01
 21
-1.04500000E+02
  0
LINE
  8
0
 62
7
 10
-1.89340762E+01
 20
-1.08999969E+02
 11
-3.69999886E+01
 21
-1.08999969E+02
  0
LINE
  8
0
  6
CENTER
 62
2
 10
-5.67505541E+01
 20
-1.74500031E+02
 11
-1.21524494E+02
 21
-1.74500031E+02
  0
LINE
  8
0
 62
7
 10
-9.08659506E+01
 20
-1.57000122E+02
 11
-9.17320203E+01
 21
-1.55500036E+02
  0
LINE
  8
0
 62
7
 10
-8.91339760E+01
 20
-1.57000076E+02
 11
-9.08660469E+01
 21
-1.57000076E+02
  0
LINE
  8
0
 62
7
 10
-8.82676925E+01
 20
-1.55500174E+02
 11
-8.91337355E+01
 21
-1.57000213E+02
  0
LINE
  8
0
  6
CENTER
 62
2
 10
-9.81945686E+01
 20
-1.55500061E+02
 11
-8.19255714E+01
 21
-1.55500061E+02
  0
LINE
  8
0
  6
CENTER
 62
2
 10
-8.99999886E+01
 20
-1.47952286E+02
 11
-8.99999886E+01
 21
-1.62565674E+02
  0
LINE
  8
0
 62
7
 10
-9.17317630E+01
 20
-1.55500312E+02
 11
-9.08657467E+01
 21
-1.54000319E+02
  0
LINE
  8
0
 62
7
 10
-8.91339760E+01
 20
-1.54000076E+02
 11
-9.08660469E+01
 21
-1.54000076E+02
  0
LINE
  8
0
 62
7
 10
-8.82678903E+01
 20
-1.55500140E+02
 11
-8.91338990E+01
 21
-1.54000160E+02
  0
LINE
  8
0
  6
CENTER
 62
2
 10
-3.07465153E+02
 20
-3.19500000E+02
 11
-4.09465427E+02
 21
-3.19500000E+02
  0
LINE
  8
0
  6
CENTER
 62
2
 10
-3.70000004E+02
 20
-3.07503517E+02
 11
-3.70000004E+02
 21
-2.69926552E+02
  0
LINE
  8
0
  6
CENTER
 62
2
 10
-3.38222111E+02
 20
-2.84499992E+02
 11
-3.09012241E+02
 21
-2.84499992E+02
  0
LINE
  8
0
 62
7
 10
-3.19999912E+02
 20
-2.96634666E+02
 11
-3.19999912E+02
 21
-2.96999954E+02
  0
LINE
  8
0
 62
7
 10
-3.36134586E+02
 20
-2.80500031E+02
 11
-3.36500004E+02
 21
-2.80500031E+02
  0
LINE
  8
0
 62
7
 10
-3.81865330E+02
 20
-2.80499954E+02
 11
-3.81500034E+02
 21
-2.80499954E+02
  0
LINE
  8
0
 62
7
 10
-3.97999973E+02
 20
-2.96634697E+02
 11
-3.97999973E+02
 21
-2.97000038E+02
  0
LINE
  8
0
 62
7
 10
-3.89000004E+02
 20
-2.72499992E+02
 11
-3.89000004E+02
 21
-2.73099968E+02
  0
LINE
  8
0
 62
7
 10
-3.29000004E+02
 20
-2.72500023E+02
 11
-3.29000004E+02
 21
-2.73100044E+02
  0
LINE
  8
0
 62
7
 10
-4.01999912E+02
 20
-2.72499992E+02
 11
-3.15999973E+02
 21
-2.72500023E+02
  0
LINE
  8
0
 62
7
 10
-3.40998905E+02
 20
-2.76100029E+02
 11
-3.77001133E+02
 21
-2.76100029E+02
  0
LINE
  8
0
  6
CENTER
 62
2
 10
-3.43000034E+02
 20
-2.69923042E+02
 11
-3.43000034E+02
 21
-3.10128166E+02
  0
LINE
  8
0
 62
7
 10
-3.57750004E+02
 20
-2.77100044E+02
 11
-3.57750004E+02
 21
-2.96610268E+02
  0
LINE
  8
0
 62
7
 10
-3.43698495E+02
 20
-3.02430509E+02
 11
-3.33578448E+02
 21
-2.92310466E+02
  0
LINE
  8
0
 62
7
 10
-3.41930643E+02
 20
-3.04198363E+02
 11
-3.31810584E+02
 21
-2.94078309E+02
  0
LINE
  8
0
  6
CENTER
 62
2
 10
-4.08555454E+02
 20
-2.84499992E+02
 11
-3.79308994E+02
 21
-2.84499992E+02
  0
LINE
  8
0
  6
CENTER
 62
2
 10
-3.24000004E+02
 20
-2.70127327E+02
 11
-3.24000004E+02
 21
-2.99864227E+02
  0
LINE
  8
0
  6
CENTER
 62
2
 10
-3.59000004E+02
 20
-2.68644234E+02
 11
-3.59000004E+02
 21
-3.19500000E+02
  0
LINE
  8
0
 62
7
 10
-3.11999973E+02
 20
-3.19500000E+02
 11
-3.11999973E+02
 21
-2.76500038E+02
  0
LINE
  8
0
 62
7
 10
-3.15600040E+02
 20
-3.19500000E+02
 11
-3.15600040E+02
 21
-3.01498825E+02
  0
LINE
  8
0
 62
7
 10
-3.12600010E+02
 20
-3.19500000E+02
 11
-3.12600010E+02
 21
-2.76500038E+02
  0
LINE
  8
0
 62
7
 10
-3.16599949E+02
 20
-3.18250015E+02
 11
-3.36110233E+02
 21
-3.18250015E+02
  0
LINE
  8
0
 62
7
 10
-4.01399937E+02
 20
-3.18250000E+02
 11
-3.81889713E+02
 21
-3.18250000E+02
  0
LINE
  8
0
 62
7
 10
-3.60250034E+02
 20
-2.77099983E+02
 11
-3.60250034E+02
 21
-2.96610321E+02
  0
LINE
  8
0
 62
7
 10
-3.74301542E+02
 20
-3.02430627E+02
 11
-3.84421577E+02
 21
-2.92310593E+02
  0
LINE
  8
0
 62
7
 10
-3.76069406E+02
 20
-3.04198405E+02
 11
-3.86189463E+02
 21
-2.94078349E+02
  0
LINE
  8
0
 62
7
 10
-1.20999989E+02
 20
-1.60999969E+02
 11
-1.20999989E+02
 21
-1.18000000E+02
  0
LINE
  8
0
 62
7
 10
-1.34517510E+02
 20
-1.18471862E+02
 11
-1.21000039E+02
 21
-1.17999822E+02
  0
LINE
  8
0
 62
7
 10
-1.20499989E+02
 20
-1.17500031E+02
 11
-1.18999973E+02
 21
-1.17500031E+02
  0
LINE
  8
0
 62
7
 10
-1.34517505E+02
 20
-1.60527712E+02
 11
-1.21000049E+02
 21
-1.60999752E+02
  0
LINE
  8
0
 62
7
 10
-1.20499989E+02
 20
-1.61500076E+02
 11
-1.18999973E+02
 21
-1.61500076E+02
  0
LINE
  8
0
 62
7
 10
-1.39499943E+02
 20
-1.59000031E+02
 11
-1.34999943E+02
 21
-1.59000031E+02
  0
LINE
  8
0
 62
7
 10
-1.39999973E+02
 20
-1.20499985E+02
 11
-1.39999973E+02
 21
-1.58500000E+02
  0
LINE
  8
0
 62
7
 10
-1.35000004E+02
 20
-1.18936737E+02
 11
-1.35000004E+02
 21
-1.60028244E+02
  0
LINE
  8
0
 62
7
 10
-1.39499943E+02
 20
-1.20000031E+02
 11
-1.34999943E+02
 21
-1.20000031E+02
  0
LINE
  8
0
 62
7
 10
-1.12999989E+02
 20
-1.69500031E+02
 11
-8.29999886E+01
 21
-1.69500031E+02
  0
LINE
  8
0
 62
7
 10
-1.12999989E+02
 20
-1.09500031E+02
 11
-9.09999886E+01
 21
-1.09500031E+02
  0
LINE
  8
0
 62
7
 10
-1.14999989E+02
 20
-1.11499969E+02
 11
-1.14999989E+02
 21
-1.67499985E+02
  0
LINE
  8
0
 62
7
 10
-1.18508801E+02
 20
-1.85880036E+02
 11
-8.30000337E+01
 21
-1.86499844E+02
  0
LINE
  8
0
 62
7
 10
-8.29999886E+01
 20
-9.25000000E+01
 11
-8.29999886E+01
 21
-1.02216245E+02
  0
LINE
  8
0
 62
7
 10
-1.19000004E+02
 20
-9.36197205E+01
 11
-1.19000004E+02
 21
-1.85380280E+02
  0
LINE
  8
0
 62
7
 10
-1.18508718E+02
 20
-9.31196050E+01
 11
-8.30000122E+01
 21
-9.24997982E+01
  0
LINE
  8
0
 62
7
 10
-4.06000004E+02
 20
-3.19500000E+02
 11
-4.06000004E+02
 21
-2.76500008E+02
  0
LINE
  8
0
  6
CENTER
 62
2
 10
-3.94000034E+02
 20
-2.70314659E+02
 11
-3.94000034E+02
 21
-2.99038376E+02
  0
LINE
  8
0
 62
7
 10
-4.02399998E+02
 20
-3.19500000E+02
 11
-4.02399998E+02
 21
-3.01498917E+02
  0
LINE
  8
0
 62
7
 10
-4.05400028E+02
 20
-3.19500000E+02
 11
-4.05400028E+02
 21
-2.76500008E+02
  0
LINE
  8
0
 62
7
 10
-4.01999912E+02
 20
-2.73099968E+02
 11
-3.15999973E+02
 21
-2.73100044E+02
  0
LINE
  8
0
  6
CENTER
 62
2
 10
-2.02798344E+02
 20
-1.39500000E+02
 11
-3.65432771E+01
 21
-1.39500000E+02
  0
LINE
  8
0
  6
CENTER
 62
2
 10
-2.02243382E+02
 20
-3.19500000E+02
 11
-3.65432923E+01
 21
-3.19500000E+02
  0
LINE
  8
0
 62
2
 10
-6.53103844E+01
 20
-1.89326092E+02
 11
-5.38847495E+00
 21
-8.55382998E+01
  0
LINE
  8
0
 62
7
 10
-8.29999886E+01
 20
-1.14716245E+02
 11
-8.29999886E+01
 21
-1.86499969E+02
  0
LINE
  8
0
  6
CENTER
 62
2
 10
-9.09999886E+01
 20
-1.04500000E+02
 11
-1.21524494E+02
 21
-1.04500000E+02
  0
LINE
  8
0
 62
2
 10
-4.20869549E+01
 20
-3.29101905E+02
 11
-5.49420666E+00
 21
-2.65721406E+02
  0
LINE
  8
0
 62
7
 10
2.75922990E+02
 20
-2.88999962E+02
 11
3.28499981E+02
 21
-2.88999962E+02
  0
LINE
  8
0
 62
7
 10
2.81119125E+02
 20
-2.79999992E+02
 11
3.28499981E+02
 21
-2.79999992E+02
  0
LINE
  8
0
 62
7
 10
2.83428535E+02
 20
-2.75999977E+02
 11
3.08999981E+02
 21
-2.75999977E+02
  0
LINE
  8
0
  6
CENTER
 62
2
 10
2.78521049E+02
 20
-2.84499992E+02
 11
3.28499981E+02
 21
-2.84499992E+02
  0
LINE
  8
0
  6
CENTER
 62
2
 10
4.74243374E+02
 20
-3.19500000E+02
 11
2.58313785E+02
 21
-3.19500000E+02
  0
LINE
  8
0
 62
7
 10
4.11999996E+02
 20
-3.19500000E+02
 11
4.11999996E+02
 21
-3.00500000E+02
  0
LINE
  8
0
 62
7
 10
4.11500027E+02
 20
-3.00000008E+02
 11
4.07000027E+02
 21
-3.00000008E+02
  0
LINE
  8
0
 62
7
 10
3.90999996E+02
 20
-3.19500000E+02
 11
3.90999996E+02
 21
-2.73619728E+02
  0
LINE
  8
0
 62
7
 10
3.55000011E+02
 20
-3.19500000E+02
 11
3.55000011E+02
 21
-2.72500023E+02
  0
LINE
  8
0
 62
7
 10
3.86999996E+02
 20
-2.72499992E+02
 11
3.55000011E+02
 21
-2.72499992E+02
  0
LINE
  8
0
 62
7
 10
3.90508751E+02
 20
-2.73119817E+02
 11
3.55000014E+02
 21
-2.72500010E+02
  0
LINE
  8
0
 62
7
 10
3.86999996E+02
 20
-2.73058540E+02
 11
3.86999996E+02
 21
-2.72499992E+02
  0
LINE
  8
0
 62
7
 10
3.92500011E+02
 20
-2.97500008E+02
 11
3.91000011E+02
 21
-2.97500008E+02
  0
LINE
  8
0
 62
7
 10
4.06999996E+02
 20
-3.19500000E+02
 11
4.06999996E+02
 21
-2.98971733E+02
  0
LINE
  8
0
 62
7
 10
4.06517433E+02
 20
-2.98472105E+02
 11
3.92999992E+02
 21
-2.98000066E+02
  0
LINE
  8
0
 62
7
 10
3.92999981E+02
 20
-3.19500000E+02
 11
3.92999981E+02
 21
-2.98000015E+02
  0
LINE
  8
0
 62
7
 10
4.22999996E+02
 20
-3.12717720E+02
 11
4.22999996E+02
 21
-3.07000000E+02
  0
LINE
  8
0
 62
7
 10
4.25999996E+02
 20
-3.19500000E+02
 11
4.25999996E+02
 21
-3.08499977E+02
  0
LINE
  8
0
 62
7
 10
4.65999996E+02
 20
-3.09999954E+02
 11
4.65999996E+02
 21
-3.19500000E+02
  0
LINE
  8
0
 62
7
 10
4.28999996E+02
 20
-3.08499977E+02
 11
4.28999996E+02
 21
-3.19500000E+02
  0
LINE
  8
0
 62
7
 10
4.64499996E+02
 20
-3.08499977E+02
 11
4.64499996E+02
 21
-3.19500000E+02
  0
LINE
  8
0
 62
7
 10
4.66000066E+02
 20
-3.10000010E+02
 11
4.64500049E+02
 21
-3.08499992E+02
  0
LINE
  8
0
 62
7
 10
4.64500057E+02
 20
-3.08499977E+02
 11
4.53999988E+02
 21
-3.08499977E+02
  0
LINE
  8
0
 62
2
 10
4.65320065E+02
 20
-3.09319992E+02
 11
4.53999988E+02
 21
-3.09319992E+02
  0
LINE
  8
0
 62
7
 10
4.23000042E+02
 20
-3.06999954E+02
 11
4.12000027E+02
 21
-3.06999954E+02
  0
LINE
  8
0
 62
7
 10
4.16000011E+02
 20
-3.19500000E+02
 11
4.16000011E+02
 21
-3.12717720E+02
  0
LINE
  8
0
 62
7
 10
4.22999996E+02
 20
-3.12717720E+02
 11
4.16000011E+02
 21
-3.12717720E+02
  0
LINE
  8
0
 62
7
 10
4.25999988E+02
 20
-3.16000138E+02
 11
4.22999990E+02
 21
-3.12717723E+02
  0
LINE
  8
0
 62
7
 10
4.26000018E+02
 20
-3.08499968E+02
 11
4.23000005E+02
 21
-3.06999939E+02
  0
LINE
  8
0
 62
2
 10
4.16000019E+02
 20
-3.12717716E+02
 11
4.21000003E+02
 21
-3.19500000E+02
  0
LINE
  8
0
 62
2
 10
4.21000015E+02
 20
-3.19500000E+02
 11
4.24660560E+02
 21
-3.14534612E+02
  0
LINE
  8
0
 62
7
 10
4.28999996E+02
 20
-3.09319992E+02
 11
4.25999996E+02
 21
-3.09319992E+02
  0
LINE
  8
0
  6
CENTER
 62
2
 10
3.70999966E+02
 20
-2.85199944E+02
 11
3.70999966E+02
 21
-2.70047340E+02
  0
ARC
  8
0
 62
7
 10
4.11500027E+02
 20
-3.00500000E+02
 40
5.00000000E-01
 50
3.59999981E+02
 51
8.99999635E+01
  0
ARC
  8
0
 62
7
 10
3.90500011E+02
 20
-2.73619728E+02
 40
5.00000000E-01
 50
3.59999981E+02
 51
8.89996892E+01
  0
ARC
  8
0
 62
7
 10
3.92500011E+02
 20
-2.98000000E+02
 40
5.00000000E-01
 50
3.59999981E+02
 51
8.99999635E+01
  0
ARC
  8
0
 62
7
 10
4.06499996E+02
 20
-2.98971733E+02
 40
5.00000000E-01
 50
3.59999981E+02
 51
8.79992029E+01
  0
ARC
  8
0
 62
7
 10
4.26500027E+02
 20
-3.19500015E+02
 40
1.25000010E+01
 50
1.47140312E+02
 51
1.79999930E+02
  0
ARC
  8
0
 62
4
 10
4.45437386E+02
 20
-3.05770919E+02
 40
8.56342793E+00
 50
3.26410682E+02
 51
3.35893354E+01
  0
ARC
  8
0
 62
4
 10
4.24945188E+02
 20
-3.19508529E+02
 40
2.90548000E+01
 50
1.68181558E-02
 51
1.80447127E+01
  0
ARC
  8
0
 62
4
 10
4.49562591E+02
 20
-3.05770919E+02
 40
8.56342793E+00
 50
1.46410742E+02
 51
2.13589395E+02
  0
ARC
  8
0
 62
4
 10
4.70054784E+02
 20
-3.19508529E+02
 40
2.90548000E+01
 50
1.61955323E+02
 51
1.79983182E+02
  0
LINE
  8
0
 62
4
 10
4.52570927E+02
 20
-3.10508529E+02
 11
4.42429051E+02
 21
-3.10508529E+02
  0
LINE
  8
0
 62
4
 10
4.42429069E+02
 20
-3.01033352E+02
 11
4.40999996E+02
 21
-3.03508540E+02
  0
LINE
  8
0
 62
4
 10
4.54000005E+02
 20
-3.03508525E+02
 11
4.52570922E+02
 21
-3.01033308E+02
  0
LINE
  8
0
 62
4
 10
4.40999989E+02
 20
-3.03508525E+02
 11
4.40999989E+02
 21
-3.19500000E+02
  0
LINE
  8
0
 62
4
 10
4.53999988E+02
 20
-3.03508525E+02
 11
4.53999988E+02
 21
-3.19500000E+02
  0
LINE
  8
0
 62
4
 10
4.52570927E+02
 20
-3.01033305E+02
 11
4.42429051E+02
 21
-3.01033305E+02
  0
LINE
  8
0
 62
7
 10
4.40999989E+02
 20
-3.08499977E+02
 11
4.28999996E+02
 21
-3.08499977E+02
  0
LINE
  8
0
 62
2
 10
4.40999989E+02
 20
-3.09319992E+02
 11
4.28999996E+02
 21
-3.09319992E+02
  0
LINE
  8
0
 62
2
 10
2.52770122E+02
 20
-3.29101905E+02
 11
2.89968917E+02
 21
-2.64671702E+02
  0
LINE
  8
0
 62
7
 10
3.47999981E+02
 20
-2.75999977E+02
 11
3.55000011E+02
 21
-2.75999977E+02
  0
LINE
  8
0
 62
7
 10
3.43499981E+02
 20
-2.79999992E+02
 11
3.55000011E+02
 21
-2.79999992E+02
  0
LINE
  8
0
  6
CENTER
 62
2
 10
3.43499981E+02
 20
-2.84499992E+02
 11
3.93524487E+02
 21
-2.84499992E+02
  0
LINE
  8
0
 62
7
 10
3.43499981E+02
 20
-2.88999962E+02
 11
3.55000011E+02
 21
-2.88999962E+02
  0
TEXT
  8
0
 10
-7.72146873E+01
 20
3.54316712E+02
 40
9.00000000E+00
  1
STRETCH LINE
 41
1.05263158E+00
  7
MONOTXT
  0
LINE
  8
0
 62
7
 10
5.74500000E+02
 20
4.00500000E+02
 11
5.74500000E+02
 21
-4.00500000E+02
  0
LINE
  8
0
 62
7
 10
-5.64500000E+02
 20
4.00500000E+02
 11
5.74500000E+02
 21
4.00500000E+02
  0
LINE
  8
0
 62
7
 10
-5.64500000E+02
 20
-4.00500000E+02
 11
5.74500000E+02
 21
-4.00500000E+02
  0
LINE
  8
0
 62
7
 10
-5.64500000E+02
 20
4.00500000E+02
 11
-5.64500000E+02
 21
-4.00500000E+02
  0
LINE
  8
0
 62
7
 10
-5.64500000E+02
 20
3.70500000E+02
 11
-3.34500000E+02
 21
3.70500000E+02
  0
LINE
  8
0
 62
7
 10
3.44500000E+02
 20
3.70500000E+02
 11
5.74500000E+02
 21
3.70500000E+02
  0
LINE
  8
0
 62
7
 10
3.44500000E+02
 20
-3.70500000E+02
 11
5.74500000E+02
 21
-3.70500000E+02
  0
LINE
  8
0
 62
7
 10
3.44500000E+02
 20
-3.70500000E+02
 11
3.44500000E+02
 21
-4.00500000E+02
  0
LINE
  8
0
 62
7
 10
3.44500000E+02
 20
4.00500000E+02
 11
3.44500000E+02
 21
3.70500000E+02
  0
LINE
  8
0
 62
7
 10
-3.34500000E+02
 20
4.00500000E+02
 11
-3.34500000E+02
 21
3.70500000E+02
  0
TEXT
  8
0
 62
7
 10
-5.37179687E+02
 20
3.34250000E+02
 40
1.25000000E+01
  1
MODEL:DDAE80*75
 41
1.00000015E+00
  7
MONOTXT
  0
TEXT
  8
0
 62
7
 10
4.11285149E+02
 20
3.79250000E+02
 40
1.25000000E+01
  1
Ver. 1.0
 41
1.08108125E+00
  7
MONOTXT
  0
TEXT
  8
0
 62
7
 10
3.50070624E+02
 20
-3.94500000E+02
 40
1.80000000E+01
  1
KOGANEI CORP.
 41
1.04838710E+00
  7
MONOTXT
  0
TEXT
  8
0
 62
7
 10
-5.53964859E+02
 20
3.79250000E+02
 40
1.25000000E+01
  1
NEW DYNA CYLINDER
 41
1.07594953E+00
  7
MONOTXT
  0
ENDSEC
  0
EOF
