  0
SECTION
  2
HEADER
  9
$ACADVER
  1
AC1003
  9
$EXTMIN
 10
-5.64500000E+02
 20
-4.00500000E+02
  9
$EXTMAX
 10
5.74500000E+02
 20
4.00500000E+02
  9
$LIMMIN
 10
-5.64501000E+02
 20
-4.00501000E+02
  9
$LIMMAX
 10
5.74501000E+02
 20
4.00501000E+02
  9
$SNAPUNIT
 10
1
 20
1
  9
$SNAPBASE
 10
0
 20
0
  9
$GRIDMODE
 70
0
  9
$GRIDUNIT
 10
0
 20
0
  9
$LTSCALE
 40
1.89833333E+01
  9
$TEXTSIZE
 40
3.2
  9
$DIMTAD
 70
0
  9
$LUNITS
 70
2
  9
$LUPREC
 70
4
  9
$FILLETRAD
 40
0
  9
$AUNITS
 70
0
  9
$AUPREC
 70
0
  0
ENDSEC
  0
SECTION
  2
TABLES
  0
TABLE
  2
LTYPE
 70
2
  0
LTYPE
  2
CONTINUOUS
 70
64
  3
Solid-Line
 72
65
 73
0
 40
0
  0
LTYPE
  2
DASHED
 70
64
  3
DASHED
 72
65
 73
2
 40
.75
 49
.5
 49
-.25
  0
LTYPE
  2
HIDDEN
 70
64
  3
HIDDEN
 72
65
 73
2
 40
.375
 49
.25
 49
-.125
  0
LTYPE
  2
CENTER
 70
64
  3
CENTER
 72
65
 73
4
 40
2
 49
1.25
 49
-.25
 49
.25
 49
-.25
  0
LTYPE
  2
PHANTOM
 70
64
  3
PHANTOM
 72
65
 73
6
 40
2.5
 49
1.25
 49
-.25
 49
.25
 49
-.25
 49
.25
 49
-.25
  0
ENDTAB
  0
TABLE
  2
LAYER
 70
1
  0
LAYER
  2
1
 70
0
 62
7
  6
CONTINUOUS
 0
ENDTAB
  0
TABLE
  2
STYLE
 70
2
  0
STYLE
  2
MONOTXT
 70
0
 40
0
 41
1
 50
0
 71
0
 42
.2
  3
monotxt
  0
STYLE
  2
BIGFONT
 70
0
 40
0
 41
1
 50
0
 71
0
 42
.2
  3
txt
  4
bigfont
  0
ENDTAB
  0
ENDSEC
  0
SECTION
  2
ENTITIES
  0
LINE
  8
0
  6
PHANTOM
 10
-2.45000000E+01
 20
2.81313474E+01
 11
-2.45000000E+01
 21
1.93317049E+02
  0
LINE
  8
0
 62
7
 10
-1.07999977E+02
 20
6.30000038E+01
 11
-8.00000229E+01
 21
6.30000038E+01
  0
LINE
  8
0
 62
7
 10
-1.07999977E+02
 20
6.34887810E+01
 11
-1.07999977E+02
 21
6.30000038E+01
  0
LINE
  8
0
 62
7
 10
-1.11508720E+02
 20
6.35500642E+01
 11
-7.99999850E+01
 21
6.30000772E+01
  0
LINE
  8
0
  6
CENTER
 62
2
 10
-1.71028160E+02
 20
1.00500000E+02
 11
1.61085457E+02
 21
1.00500000E+02
  0
LINE
  8
0
 62
7
 10
7.49999619E+01
 20
9.35749969E+01
 11
8.66431904E+01
 21
9.35749969E+01
  0
LINE
  8
0
 62
7
 10
5.89999657E+01
 20
6.25000000E+01
 11
7.29999580E+01
 21
6.25000000E+01
  0
LINE
  8
0
 62
7
 10
1.49999958E+02
 20
1.03964127E+02
 11
1.57999962E+02
 21
1.03964127E+02
  0
LINE
  8
0
 62
7
 10
1.49999969E+02
 20
9.50000076E+01
 11
1.49999969E+02
 21
9.40000000E+01
  0
LINE
  8
0
 62
7
 10
1.47999966E+02
 20
9.40000000E+01
 11
1.49999958E+02
 21
9.40000000E+01
  0
LINE
  8
0
 62
7
 10
1.49999969E+02
 20
1.03964127E+02
 11
1.49999969E+02
 21
9.70358734E+01
  0
LINE
  8
0
 62
2
 10
8.79999561E+01
 20
9.33199997E+01
 11
1.47819962E+02
 21
9.33199997E+01
  0
LINE
  8
0
 62
7
 10
1.47999966E+02
 20
1.07000008E+02
 11
1.49999958E+02
 21
1.07000008E+02
  0
LINE
  8
0
 62
7
 10
1.49999958E+02
 20
9.50000076E+01
 11
1.57999962E+02
 21
9.50000076E+01
  0
LINE
  8
0
 62
7
 10
1.49999958E+02
 20
1.06000000E+02
 11
1.57999962E+02
 21
1.06000000E+02
  0
LINE
  8
0
 62
7
 10
1.47999963E+02
 20
9.34999808E+01
 11
1.46999956E+02
 21
9.24999855E+01
  0
LINE
  8
0
 62
7
 10
1.46999957E+02
 20
1.08499982E+02
 11
1.47999958E+02
 21
1.07499981E+02
  0
LINE
  8
0
  6
CENTER
 62
2
 10
4.10000534E+01
 20
1.10878387E+02
 11
4.10000534E+01
 21
1.40385063E+02
  0
LINE
  8
0
  6
CENTER
 62
2
 10
-9.40000534E+01
 20
1.12414513E+02
 11
-9.40000534E+01
 21
1.40385063E+02
  0
LINE
  8
0
 62
7
 10
-1.13500008E+02
 20
8.15000076E+01
 11
-1.12000008E+02
 21
8.15000076E+01
  0
LINE
  8
0
 62
7
 10
-1.26500053E+02
 20
8.35000076E+01
 11
-1.21991432E+02
 21
8.35000076E+01
  0
LINE
  8
0
 62
7
 10
5.49999809E+01
 20
6.34887810E+01
 11
5.49999809E+01
 21
6.30000038E+01
  0
LINE
  8
0
 62
7
 10
5.49999809E+01
 20
6.30000038E+01
 11
2.69999771E+01
 21
6.30000038E+01
  0
LINE
  8
0
 62
7
 10
5.85086614E+01
 20
6.35500474E+01
 11
2.69965658E+01
 21
6.30000017E+01
  0
LINE
  8
0
 62
7
 10
-1.21758708E+02
 20
8.32415357E+01
 11
-1.13999994E+02
 21
8.29705954E+01
  0
LINE
  8
0
 62
7
 10
-1.21999992E+02
 20
8.35000076E+01
 11
-1.21999992E+02
 21
8.34914627E+01
  0
LINE
  8
0
  6
CENTER
 62
2
 10
7.45009422E+01
 20
7.24999924E+01
 11
-1.15248116E+02
 21
7.24999924E+01
  0
LINE
  8
0
 62
7
 10
2.69999771E+01
 20
6.65000191E+01
 11
-8.00000229E+01
 21
6.65000191E+01
  0
LINE
  8
0
 62
7
 10
7.29999580E+01
 20
8.53500061E+01
 11
7.49999619E+01
 21
8.53500061E+01
  0
LINE
  8
0
 62
2
 10
1.49999927E+02
 20
1.03964167E+02
 11
1.57999929E+02
 21
9.70359152E+01
  0
LINE
  8
0
 62
7
 10
8.79999561E+01
 20
9.25000000E+01
 11
1.46999958E+02
 21
9.25000000E+01
  0
LINE
  8
0
 62
7
 10
1.46999969E+02
 20
1.08500008E+02
 11
1.46999969E+02
 21
9.25000000E+01
  0
LINE
  8
0
 62
7
 10
1.47999954E+02
 20
1.07500008E+02
 11
1.47999954E+02
 21
9.34999924E+01
  0
LINE
  8
0
 62
7
 10
8.66431663E+01
 20
8.66500058E+01
 11
8.79999320E+01
 21
8.89999931E+01
  0
LINE
  8
0
 62
7
 10
1.49999969E+02
 20
1.07000008E+02
 11
1.49999969E+02
 21
1.06000000E+02
  0
LINE
  8
0
 62
7
 10
1.57999962E+02
 20
1.06000000E+02
 11
1.57999962E+02
 21
9.50000076E+01
  0
LINE
  8
0
 62
2
 10
1.49999918E+02
 20
9.70359426E+01
 11
1.57999925E+02
 21
1.03964200E+02
  0
LINE
  8
0
 62
7
 10
1.49999958E+02
 20
9.70358734E+01
 11
1.57999962E+02
 21
9.70358734E+01
  0
LINE
  8
0
 62
7
 10
7.49999619E+01
 20
8.66499939E+01
 11
8.66431904E+01
 21
8.66499939E+01
  0
LINE
  8
0
 62
7
 10
-1.07999977E+02
 20
1.38000008E+02
 11
-8.00000229E+01
 21
1.38000008E+02
  0
LINE
  8
0
 62
7
 10
-8.00000229E+01
 20
6.30000038E+01
 11
-8.00000229E+01
 21
1.38000008E+02
  0
LINE
  8
0
 62
7
 10
-1.07999977E+02
 20
1.37511223E+02
 11
-1.07999977E+02
 21
1.38000008E+02
  0
LINE
  8
0
 62
7
 10
-1.11508713E+02
 20
1.37449942E+02
 11
-7.99999934E+01
 21
1.37999929E+02
  0
LINE
  8
0
 62
7
 10
7.49999619E+01
 20
1.07425003E+02
 11
8.66431904E+01
 21
1.07425003E+02
  0
LINE
  8
0
 62
7
 10
5.89999657E+01
 20
1.38500008E+02
 11
7.29999580E+01
 21
1.38500008E+02
  0
LINE
  8
0
 62
7
 10
7.49999504E+01
 20
8.53500061E+01
 11
7.49999504E+01
 21
1.15650002E+02
  0
LINE
  8
0
 62
2
 10
8.79999561E+01
 20
1.07680000E+02
 11
1.47819962E+02
 21
1.07680000E+02
  0
LINE
  8
0
 62
7
 10
-1.21999992E+02
 20
8.35000076E+01
 11
-1.21999992E+02
 21
1.17499992E+02
  0
LINE
  8
0
 62
7
 10
-1.27000023E+02
 20
8.40000381E+01
 11
-1.27000023E+02
 21
1.16999969E+02
  0
LINE
  8
0
 62
7
 10
-1.13500008E+02
 20
1.19500000E+02
 11
-1.12000008E+02
 21
1.19500000E+02
  0
LINE
  8
0
 62
7
 10
-1.26500053E+02
 20
1.17499992E+02
 11
-1.21991432E+02
 21
1.17499992E+02
  0
LINE
  8
0
 62
7
 10
5.49999809E+01
 20
1.37511223E+02
 11
5.49999809E+01
 21
1.38000008E+02
  0
LINE
  8
0
 62
7
 10
5.49999809E+01
 20
1.38000008E+02
 11
2.69999771E+01
 21
1.38000008E+02
  0
LINE
  8
0
 62
7
 10
5.85086622E+01
 20
1.37449963E+02
 11
2.69965666E+01
 21
1.38000008E+02
  0
LINE
  8
0
 62
7
 10
-1.14000023E+02
 20
8.20000000E+01
 11
-1.14000023E+02
 21
1.19000008E+02
  0
LINE
  8
0
 62
7
 10
2.69999771E+01
 20
6.30000038E+01
 11
2.69999771E+01
 21
1.38000008E+02
  0
LINE
  8
0
 62
7
 10
-1.21758707E+02
 20
1.17758464E+02
 11
-1.13999993E+02
 21
1.18029405E+02
  0
LINE
  8
0
 62
7
 10
5.89999657E+01
 20
6.25000000E+01
 11
5.89999657E+01
 21
1.38500008E+02
  0
LINE
  8
0
 62
7
 10
-1.21999992E+02
 20
1.17499992E+02
 11
-1.21999992E+02
 21
1.17508545E+02
  0
LINE
  8
0
  6
CENTER
 62
2
 10
7.45009422E+01
 20
1.28500008E+02
 11
-1.15248116E+02
 21
1.28500008E+02
  0
LINE
  8
0
 62
7
 10
2.69999771E+01
 20
1.34499992E+02
 11
2.09194110E+01
 21
1.34499992E+02
  0
LINE
  8
0
 62
7
 10
7.29999580E+01
 20
1.15650002E+02
 11
7.49999619E+01
 21
1.15650002E+02
  0
LINE
  8
0
 62
7
 10
8.79999561E+01
 20
1.08500008E+02
 11
1.46999958E+02
 21
1.08500008E+02
  0
LINE
  8
0
 62
7
 10
8.66431642E+01
 20
1.14350003E+02
 11
8.79999299E+01
 21
1.12000015E+02
  0
LINE
  8
0
 62
7
 10
-1.12000008E+02
 20
6.40444031E+01
 11
-1.12000008E+02
 21
1.36955605E+02
  0
LINE
  8
0
 62
7
 10
7.29999580E+01
 20
6.25000000E+01
 11
7.29999580E+01
 21
1.38500008E+02
  0
LINE
  8
0
 62
7
 10
8.79999561E+01
 20
8.89999847E+01
 11
8.79999561E+01
 21
1.12000023E+02
  0
LINE
  8
0
 62
7
 10
7.49999619E+01
 20
1.14350006E+02
 11
8.66431904E+01
 21
1.14350006E+02
  0
LINE
  8
0
 62
7
 10
-1.36999992E+02
 20
1.09500000E+02
 11
-1.36999992E+02
 21
9.15000076E+01
  0
LINE
  8
0
 62
7
 10
-1.34000114E+02
 20
1.05767853E+02
 11
-1.30000053E+02
 21
1.05767853E+02
  0
LINE
  8
0
 62
7
 10
-1.34000114E+02
 20
9.52321930E+01
 11
-1.30000053E+02
 21
9.52321930E+01
  0
LINE
  8
0
 62
7
 10
-1.33999992E+02
 20
9.05000305E+01
 11
-1.33999992E+02
 21
9.52322006E+01
  0
LINE
  8
0
 62
2
 10
-1.36033602E+02
 20
1.04313417E+02
 11
-1.30000012E+02
 21
9.52322358E+01
  0
LINE
  8
0
 62
2
 10
-1.36033607E+02
 20
9.66863961E+01
 11
-1.29999864E+02
 21
1.05767806E+02
  0
LINE
  8
0
 62
7
 10
-1.34000114E+02
 20
9.05000229E+01
 11
-1.27000069E+02
 21
9.05000229E+01
  0
LINE
  8
0
 62
7
 10
-1.33999992E+02
 20
1.10500046E+02
 11
-1.33999992E+02
 21
1.05767868E+02
  0
LINE
  8
0
 62
7
 10
-1.30000053E+02
 20
9.52322006E+01
 11
-1.30000053E+02
 21
1.05767868E+02
  0
LINE
  8
0
 62
7
 10
-1.39999977E+02
 20
9.15000153E+01
 11
-1.39999977E+02
 21
1.09500015E+02
  0
LINE
  8
0
 62
7
 10
-1.69000008E+02
 20
9.30000381E+01
 11
-1.69000008E+02
 21
1.07999847E+02
  0
LINE
  8
0
 62
7
 10
-1.67499977E+02
 20
9.15000153E+01
 11
-1.67499977E+02
 21
1.09500015E+02
  0
LINE
  8
0
 62
7
 10
-1.67499947E+02
 20
1.09500000E+02
 11
-1.59999992E+02
 21
1.09500000E+02
  0
LINE
  8
0
 62
2
 10
-1.68319954E+02
 20
1.08679993E+02
 11
-1.59999992E+02
 21
1.08679993E+02
  0
LINE
  8
0
 62
7
 10
-1.68999900E+02
 20
1.07999812E+02
 11
-1.67499854E+02
 21
1.09499812E+02
  0
LINE
  8
0
 62
7
 10
-1.67499947E+02
 20
9.15000076E+01
 11
-1.59999992E+02
 21
9.15000076E+01
  0
LINE
  8
0
 62
2
 10
-1.68319954E+02
 20
9.23199997E+01
 11
-1.59999992E+02
 21
9.23199997E+01
  0
LINE
  8
0
 62
7
 10
-1.69000004E+02
 20
9.30001243E+01
 11
-1.67499947E+02
 21
9.15001133E+01
  0
LINE
  8
0
 62
7
 10
-1.34000114E+02
 20
1.10499985E+02
 11
-1.27000069E+02
 21
1.10499985E+02
  0
LINE
  8
0
 62
7
 10
-1.36999991E+02
 20
1.03622443E+02
 11
-1.34000003E+02
 21
1.05767540E+02
  0
LINE
  8
0
 62
7
 10
-1.36999987E+02
 20
9.73775615E+01
 11
-1.33999987E+02
 21
9.52319037E+01
  0
LINE
  8
0
 62
7
 10
-1.36999971E+02
 20
1.09499976E+02
 11
-1.33999982E+02
 21
1.10499959E+02
  0
LINE
  8
0
 62
7
 10
-1.37000004E+02
 20
9.15000090E+01
 11
-1.34000012E+02
 21
9.05000340E+01
  0
LINE
  8
0
 62
7
 10
-1.39999977E+02
 20
1.08679993E+02
 11
-1.36999992E+02
 21
1.08679993E+02
  0
LINE
  8
0
 62
7
 10
-1.39999977E+02
 20
9.23199997E+01
 11
-1.36999992E+02
 21
9.23199997E+01
  0
ARC
  8
0
 62
7
 10
8.32820263E+01
 20
9.02641754E+01
 40
4.71794319E+00
 50
3.30000026E+02
 51
4.45676912E+01
  0
ARC
  8
0
 62
7
 10
6.96487846E+01
 20
1.00500000E+02
 40
1.83511696E+01
 50
3.37829735E+02
 51
0.00000000E+00
  0
ARC
  8
0
 62
7
 10
-1.13500008E+02
 20
8.20000000E+01
 40
5.00000000E-01
 50
1.79999977E+02
 51
2.69999974E+02
  0
ARC
  8
0
 62
7
 10
5.84999962E+01
 20
6.40499306E+01
 40
5.00000000E-01
 50
2.71000258E+02
 51
3.59999993E+02
  0
ARC
  8
0
 62
7
 10
-1.21750008E+02
 20
8.34914627E+01
 40
2.50000000E-01
 50
1.79999977E+02
 51
2.68001132E+02
  0
ARC
  8
0
 62
7
 10
-1.26500053E+02
 20
8.40000381E+01
 40
5.00000000E-01
 50
1.79999977E+02
 51
2.69999974E+02
  0
ARC
  8
0
 62
7
 10
-1.11500038E+02
 20
6.40499306E+01
 40
5.00000000E-01
 50
1.79999909E+02
 51
2.68999651E+02
  0
ARC
  8
0
 62
7
 10
8.32820263E+01
 20
1.10735825E+02
 40
4.71794319E+00
 50
3.15432308E+02
 51
2.99999735E+01
  0
ARC
  8
0
 62
7
 10
6.96487846E+01
 20
1.00500000E+02
 40
1.83511696E+01
 50
0.00000000E+00
 51
2.21702647E+01
  0
ARC
  8
0
 62
7
 10
-1.13500008E+02
 20
1.19000008E+02
 40
5.00000000E-01
 50
9.00000369E+01
 51
1.80000019E+02
  0
ARC
  8
0
 62
7
 10
5.84999962E+01
 20
1.36950081E+02
 40
5.00000000E-01
 50
6.83018920E-06
 51
8.89997419E+01
  0
ARC
  8
0
 62
7
 10
-1.21750008E+02
 20
1.17508545E+02
 40
2.50000000E-01
 50
9.19988643E+01
 51
1.80000019E+02
  0
ARC
  8
0
 62
7
 10
-1.26500053E+02
 20
1.16999969E+02
 40
5.00000000E-01
 50
9.00000369E+01
 51
1.80000019E+02
  0
ARC
  8
0
 62
7
 10
-1.11500038E+02
 20
1.36950081E+02
 40
5.00000000E-01
 50
9.10003518E+01
 51
1.80000087E+02
  0
ARC
  8
0
 62
7
 10
-1.38500008E+02
 20
1.00500000E+02
 40
9.99998474E+00
 50
0.00000000E+00
 51
3.17883527E+01
  0
ARC
  8
0
 62
7
 10
-1.38500008E+02
 20
1.00500000E+02
 40
9.99998474E+00
 50
3.28211647E+02
 51
0.00000000E+00
  0
LINE
  8
0
 62
4
 10
-1.48999992E+02
 20
8.70000000E+01
 11
-1.48999992E+02
 21
1.14000000E+02
  0
LINE
  8
0
 62
4
 10
-1.59999992E+02
 20
8.70000000E+01
 11
-1.59999992E+02
 21
1.14000000E+02
  0
ARC
  8
0
 62
4
 10
-1.34205764E+02
 20
1.00500000E+02
 40
2.57942282E+01
 50
1.62412046E+02
 51
1.97587954E+02
  0
ARC
  8
0
 62
4
 10
-1.74794221E+02
 20
1.00500000E+02
 40
2.57942282E+01
 50
3.42412046E+02
 51
1.75879541E+01
  0
ARC
  8
0
 62
4
 10
-1.55900714E+02
 20
1.12191343E+02
 40
6.90072132E+00
 50
3.25615752E+02
 51
3.43842480E+01
  0
ARC
  8
0
 62
4
 10
-1.53099271E+02
 20
1.12191343E+02
 40
6.90072132E+00
 50
1.45615752E+02
 51
2.14384248E+02
  0
LINE
  8
0
 62
4
 10
-1.50205764E+02
 20
1.16088457E+02
 11
-1.48999992E+02
 21
1.14000000E+02
  0
LINE
  8
0
 62
4
 10
-1.58794221E+02
 20
1.16088457E+02
 11
-1.59999992E+02
 21
1.14000000E+02
  0
LINE
  8
0
 62
4
 10
-1.58794221E+02
 20
1.08294229E+02
 11
-1.50205764E+02
 21
1.08294229E+02
  0
LINE
  8
0
 62
4
 10
-1.58794221E+02
 20
1.16088457E+02
 11
-1.50205764E+02
 21
1.16088457E+02
  0
ARC
  8
0
 62
4
 10
-1.55900714E+02
 20
8.88086570E+01
 40
6.90072132E+00
 50
3.25615752E+02
 51
3.43842480E+01
  0
ARC
  8
0
 62
4
 10
-1.53099271E+02
 20
8.88086570E+01
 40
6.90072132E+00
 50
1.45615752E+02
 51
2.14384248E+02
  0
LINE
  8
0
 62
4
 10
-1.59999992E+02
 20
8.70000000E+01
 11
-1.58794221E+02
 21
8.49115427E+01
  0
LINE
  8
0
 62
4
 10
-1.48999992E+02
 20
8.70000000E+01
 11
-1.50205764E+02
 21
8.49115427E+01
  0
LINE
  8
0
 62
4
 10
-1.58794221E+02
 20
9.27057714E+01
 11
-1.50205764E+02
 21
9.27057714E+01
  0
LINE
  8
0
 62
4
 10
-1.58794221E+02
 20
8.49115427E+01
 11
-1.50205764E+02
 21
8.49115427E+01
  0
LINE
  8
0
 62
7
 10
-1.48999992E+02
 20
1.09500000E+02
 11
-1.39999977E+02
 21
1.09500000E+02
  0
LINE
  8
0
 62
2
 10
-1.48999992E+02
 20
1.08679993E+02
 11
-1.39999977E+02
 21
1.08679993E+02
  0
LINE
  8
0
 62
7
 10
-1.48999992E+02
 20
9.15000076E+01
 11
-1.39999977E+02
 21
9.15000076E+01
  0
LINE
  8
0
 62
2
 10
-1.48999992E+02
 20
9.23199997E+01
 11
-1.39999977E+02
 21
9.23199997E+01
  0
LINE
  8
0
 62
7
 10
2.69999695E+01
 20
1.32100014E+02
 11
1.99999619E+01
 21
1.32100014E+02
  0
LINE
  8
0
 62
7
 10
2.69999695E+01
 20
1.24899971E+02
 11
4.99996185E+00
 21
1.24899971E+02
  0
LINE
  8
0
 62
7
 10
2.69999695E+01
 20
7.61000137E+01
 11
-8.00000229E+01
 21
7.61000137E+01
  0
LINE
  8
0
 62
7
 10
2.69999695E+01
 20
6.88999863E+01
 11
-8.00000229E+01
 21
6.88999863E+01
  0
LINE
  8
0
 62
4
 10
-3.90000229E+01
 20
1.37852051E+02
 11
-3.90000229E+01
 21
1.49176910E+02
  0
LINE
  8
0
 62
6
 10
-1.82679263E+01
 20
1.39352051E+02
 11
-2.17320279E+01
 21
1.33352051E+02
  0
LINE
  8
0
 62
6
 10
-3.07320890E+01
 20
1.33352051E+02
 11
-2.72679874E+01
 21
1.39352051E+02
  0
LINE
  8
0
 62
4
 10
-9.99997711E+00
 20
1.37852051E+02
 11
-1.91339517E+01
 21
1.37852051E+02
  0
LINE
  8
0
  6
CENTER
 62
6
 10
2.50000229E+01
 20
1.36352051E+02
 11
-2.19999771E+01
 21
1.36352051E+02
  0
LINE
  8
0
 62
4
 10
-9.99997711E+00
 20
1.34852051E+02
 11
-2.08660025E+01
 21
1.34852051E+02
  0
LINE
  8
0
 62
4
 10
-3.90000229E+01
 20
1.34852051E+02
 11
-2.98660635E+01
 21
1.34852051E+02
  0
LINE
  8
0
  6
CENTER
 62
6
 10
-7.40000381E+01
 20
1.36352051E+02
 11
-2.70000381E+01
 21
1.36352051E+02
  0
LINE
  8
0
 62
4
 10
-4.55000381E+01
 20
1.37852051E+02
 11
-2.81340127E+01
 21
1.37852051E+02
  0
LINE
  8
0
 62
4
 10
-3.90000229E+01
 20
1.34499962E+02
 11
-3.90000229E+01
 21
1.34911063E+02
  0
LINE
  8
0
 62
4
 10
-4.55000229E+01
 20
1.38872198E+02
 11
-4.55000229E+01
 21
1.34911063E+02
  0
LINE
  8
0
 62
4
 10
-6.90000229E+01
 20
1.49176910E+02
 11
-6.90000229E+01
 21
1.38872198E+02
  0
LINE
  8
0
  6
CENTER
 62
6
 10
-4.93500229E+01
 20
1.41568458E+02
 11
-5.86500229E+01
 21
1.41568458E+02
  0
LINE
  8
0
  6
CENTER
 62
6
 10
-5.40000229E+01
 20
1.46218458E+02
 11
-5.40000229E+01
 21
1.36918458E+02
  0
LINE
  8
0
 62
4
 10
1.99999619E+01
 20
1.49176910E+02
 11
1.99999619E+01
 21
1.30653524E+02
  0
LINE
  8
0
  6
CENTER
 62
6
 10
-1.00000381E+01
 20
1.22516164E+02
 11
-3.00003815E+00
 21
1.22516164E+02
  0
LINE
  8
0
  6
CENTER
 62
6
 10
-2.00003815E+00
 20
1.22516164E+02
 11
4.99996185E+00
 21
1.22516164E+02
  0
LINE
  8
0
  6
CENTER
 62
6
 10
1.49996185E+00
 20
1.19016164E+02
 11
1.49996185E+00
 21
1.26016164E+02
  0
LINE
  8
0
  6
CENTER
 62
6
 10
-6.50003815E+00
 20
1.19016164E+02
 11
-6.50003815E+00
 21
1.26016164E+02
  0
LINE
  8
0
 62
4
 10
-1.00000381E+01
 20
1.17675464E+02
 11
-1.00000381E+01
 21
1.49176910E+02
  0
LINE
  8
0
 62
4
 10
4.99996185E+00
 20
1.45994035E+02
 11
4.99996185E+00
 21
1.17675464E+02
  0
LINE
  8
0
  6
CENTER
 62
6
 10
1.60745587E+01
 20
1.41714281E+02
 11
8.92536497E+00
 21
1.41714281E+02
  0
LINE
  8
0
  6
CENTER
 62
6
 10
1.24999619E+01
 20
1.45288878E+02
 11
1.24999619E+01
 21
1.38139684E+02
  0
LINE
  8
0
 62
4
 10
-6.90000229E+01
 20
1.49176910E+02
 11
-3.90000229E+01
 21
1.49176910E+02
  0
LINE
  8
0
 62
4
 10
-1.00000381E+01
 20
1.49176910E+02
 11
1.99999619E+01
 21
1.49176910E+02
  0
LINE
  8
0
 62
4
 10
-1.00000381E+01
 20
1.17675464E+02
 11
4.99996185E+00
 21
1.17675464E+02
  0
LINE
  8
0
 62
4
 10
-1.00000382E+01
 20
1.45994035E+02
 11
1.99999618E+01
 21
1.45994035E+02
  0
LINE
  8
0
 62
4
 10
-1.00000382E+01
 20
1.44603459E+02
 11
4.99996185E+00
 21
1.44603459E+02
  0
LINE
  8
0
 62
4
 10
-9.00003816E+00
 20
1.28222503E+02
 11
3.99996184E+00
 21
1.28222503E+02
  0
LINE
  8
0
 62
4
 10
4.99996185E+00
 20
1.37910055E+02
 11
1.99999618E+01
 21
1.37910055E+02
  0
LINE
  8
0
 62
4
 10
4.99996185E+00
 20
1.37786448E+02
 11
1.99999618E+01
 21
1.37786448E+02
  0
LINE
  8
0
 62
4
 10
4.99996184E+00
 20
1.30653524E+02
 11
1.99999619E+01
 21
1.30653524E+02
  0
POLYLINE
  8
0
 62
4
 66
1
  0
VERTEX
  8
0
 62
4
 10
1.02499619E+01
 20
1.41714281E+02
  0
VERTEX
  8
0
 62
4
 10
1.02585238E+01
 20
1.41527778E+02
  0
VERTEX
  8
0
 62
4
 10
1.02841445E+01
 20
1.41342695E+02
  0
VERTEX
  8
0
 62
4
 10
1.03266288E+01
 20
1.41160440E+02
  0
VERTEX
  8
0
 62
4
 10
1.03856535E+01
 20
1.40982400E+02
  0
VERTEX
  8
0
 62
4
 10
1.04607694E+01
 20
1.40809930E+02
  0
VERTEX
  8
0
 62
4
 10
1.05514047E+01
 20
1.40644342E+02
  0
VERTEX
  8
0
 62
4
 10
1.06568698E+01
 20
1.40486898E+02
  0
VERTEX
  8
0
 62
4
 10
1.07763619E+01
 20
1.40338794E+02
  0
VERTEX
  8
0
 62
4
 10
1.09089716E+01
 20
1.40201159E+02
  0
VERTEX
  8
0
 62
4
 10
1.10536898E+01
 20
1.40075040E+02
  0
VERTEX
  8
0
 62
4
 10
1.12094149E+01
 20
1.39961396E+02
  0
VERTEX
  8
0
 62
4
 10
1.13749619E+01
 20
1.39861093E+02
  0
VERTEX
  8
0
 62
4
 10
1.15490708E+01
 20
1.39774894E+02
  0
VERTEX
  8
0
 62
4
 10
1.17304166E+01
 20
1.39703454E+02
  0
VERTEX
  8
0
 62
4
 10
1.19176190E+01
 20
1.39647318E+02
  0
VERTEX
  8
0
 62
4
 10
1.21092535E+01
 20
1.39606913E+02
  0
VERTEX
  8
0
 62
4
 10
1.23038615E+01
 20
1.39582547E+02
  0
VERTEX
  8
0
 62
4
 10
1.24999619E+01
 20
1.39574404E+02
  0
VERTEX
  8
0
 62
4
 10
1.26960623E+01
 20
1.39582547E+02
  0
VERTEX
  8
0
 62
4
 10
1.28906703E+01
 20
1.39606913E+02
  0
VERTEX
  8
0
 62
4
 10
1.30823047E+01
 20
1.39647318E+02
  0
VERTEX
  8
0
 62
4
 10
1.32695072E+01
 20
1.39703454E+02
  0
VERTEX
  8
0
 62
4
 10
1.34508530E+01
 20
1.39774894E+02
  0
VERTEX
  8
0
 62
4
 10
1.36249619E+01
 20
1.39861093E+02
  0
VERTEX
  8
0
 62
4
 10
1.37905089E+01
 20
1.39961396E+02
  0
VERTEX
  8
0
 62
4
 10
1.39462340E+01
 20
1.40075040E+02
  0
VERTEX
  8
0
 62
4
 10
1.40909522E+01
 20
1.40201159E+02
  0
VERTEX
  8
0
 62
4
 10
1.42235619E+01
 20
1.40338794E+02
  0
VERTEX
  8
0
 62
4
 10
1.43430540E+01
 20
1.40486898E+02
  0
VERTEX
  8
0
 62
4
 10
1.44485191E+01
 20
1.40644342E+02
  0
VERTEX
  8
0
 62
4
 10
1.45391544E+01
 20
1.40809930E+02
  0
VERTEX
  8
0
 62
4
 10
1.46142703E+01
 20
1.40982400E+02
  0
VERTEX
  8
0
 62
4
 10
1.46732950E+01
 20
1.41160440E+02
  0
VERTEX
  8
0
 62
4
 10
1.47157793E+01
 20
1.41342695E+02
  0
VERTEX
  8
0
 62
4
 10
1.47414000E+01
 20
1.41527778E+02
  0
VERTEX
  8
0
 62
4
 10
1.47499619E+01
 20
1.41714281E+02
  0
VERTEX
  8
0
 62
4
 10
1.47414000E+01
 20
1.41900784E+02
  0
VERTEX
  8
0
 62
4
 10
1.47157793E+01
 20
1.42085867E+02
  0
VERTEX
  8
0
 62
4
 10
1.46732950E+01
 20
1.42268122E+02
  0
VERTEX
  8
0
 62
4
 10
1.46142703E+01
 20
1.42446162E+02
  0
VERTEX
  8
0
 62
4
 10
1.45391544E+01
 20
1.42618632E+02
  0
VERTEX
  8
0
 62
4
 10
1.44485191E+01
 20
1.42784220E+02
  0
VERTEX
  8
0
 62
4
 10
1.43430540E+01
 20
1.42941664E+02
  0
VERTEX
  8
0
 62
4
 10
1.42235619E+01
 20
1.43089768E+02
  0
VERTEX
  8
0
 62
4
 10
1.40909522E+01
 20
1.43227403E+02
  0
VERTEX
  8
0
 62
4
 10
1.39462340E+01
 20
1.43353522E+02
  0
VERTEX
  8
0
 62
4
 10
1.37905089E+01
 20
1.43467166E+02
  0
VERTEX
  8
0
 62
4
 10
1.36249619E+01
 20
1.43567469E+02
  0
VERTEX
  8
0
 62
4
 10
1.34508530E+01
 20
1.43653668E+02
  0
VERTEX
  8
0
 62
4
 10
1.32695072E+01
 20
1.43725108E+02
  0
VERTEX
  8
0
 62
4
 10
1.30823048E+01
 20
1.43781244E+02
  0
VERTEX
  8
0
 62
4
 10
1.28906703E+01
 20
1.43821649E+02
  0
VERTEX
  8
0
 62
4
 10
1.26960623E+01
 20
1.43846015E+02
  0
VERTEX
  8
0
 62
4
 10
1.24999619E+01
 20
1.43854158E+02
  0
VERTEX
  8
0
 62
4
 10
1.23038615E+01
 20
1.43846015E+02
  0
VERTEX
  8
0
 62
4
 10
1.21092535E+01
 20
1.43821649E+02
  0
VERTEX
  8
0
 62
4
 10
1.19176191E+01
 20
1.43781244E+02
  0
VERTEX
  8
0
 62
4
 10
1.17304166E+01
 20
1.43725108E+02
  0
VERTEX
  8
0
 62
4
 10
1.15490708E+01
 20
1.43653668E+02
  0
VERTEX
  8
0
 62
4
 10
1.13749619E+01
 20
1.43567469E+02
  0
VERTEX
  8
0
 62
4
 10
1.12094149E+01
 20
1.43467166E+02
  0
VERTEX
  8
0
 62
4
 10
1.10536898E+01
 20
1.43353522E+02
  0
VERTEX
  8
0
 62
4
 10
1.09089716E+01
 20
1.43227403E+02
  0
VERTEX
  8
0
 62
4
 10
1.07763619E+01
 20
1.43089768E+02
  0
VERTEX
  8
0
 62
4
 10
1.06568698E+01
 20
1.42941664E+02
  0
VERTEX
  8
0
 62
4
 10
1.05514047E+01
 20
1.42784220E+02
  0
VERTEX
  8
0
 62
4
 10
1.04607694E+01
 20
1.42618632E+02
  0
VERTEX
  8
0
 62
4
 10
1.03856535E+01
 20
1.42446162E+02
  0
VERTEX
  8
0
 62
4
 10
1.03266288E+01
 20
1.42268122E+02
  0
VERTEX
  8
0
 62
4
 10
1.02841445E+01
 20
1.42085867E+02
  0
VERTEX
  8
0
 62
4
 10
1.02585238E+01
 20
1.41900784E+02
  0
VERTEX
  8
0
 62
4
 10
1.02499619E+01
 20
1.41714281E+02
  0
SEQEND
  8
0
  0
POLYLINE
  8
0
 62
4
 66
1
  0
VERTEX
  8
0
 62
4
 10
3.49996185E+00
 20
1.22516164E+02
  0
VERTEX
  8
0
 62
4
 10
3.49191044E+00
 20
1.22686668E+02
  0
VERTEX
  8
0
 62
4
 10
3.46782103E+00
 20
1.22855799E+02
  0
VERTEX
  8
0
 62
4
 10
3.42788757E+00
 20
1.23022196E+02
  0
VERTEX
  8
0
 62
4
 10
3.37243159E+00
 20
1.23184519E+02
  0
VERTEX
  8
0
 62
4
 10
3.30189959E+00
 20
1.23341460E+02
  0
VERTEX
  8
0
 62
4
 10
3.21685944E+00
 20
1.23491756E+02
  0
VERTEX
  8
0
 62
4
 10
3.11799584E+00
 20
1.23634198E+02
  0
VERTEX
  8
0
 62
4
 10
3.00610478E+00
 20
1.23767638E+02
  0
VERTEX
  8
0
 62
4
 10
2.88208715E+00
 20
1.23891002E+02
  0
VERTEX
  8
0
 62
4
 10
2.74694146E+00
 20
1.24003296E+02
  0
VERTEX
  8
0
 62
4
 10
2.60175581E+00
 20
1.24103617E+02
  0
VERTEX
  8
0
 62
4
 10
2.44769918E+00
 20
1.24191156E+02
  0
VERTEX
  8
0
 62
4
 10
2.28601192E+00
 20
1.24265210E+02
  0
VERTEX
  8
0
 62
4
 10
2.11799584E+00
 20
1.24325181E+02
  0
VERTEX
  8
0
 62
4
 10
1.94500372E+00
 20
1.24370587E+02
  0
VERTEX
  8
0
 62
4
 10
1.76842838E+00
 20
1.24401062E+02
  0
VERTEX
  8
0
 62
4
 10
1.58969151E+00
 20
1.24416362E+02
  0
VERTEX
  8
0
 62
4
 10
1.41023219E+00
 20
1.24416362E+02
  0
VERTEX
  8
0
 62
4
 10
1.23149532E+00
 20
1.24401062E+02
  0
VERTEX
  8
0
 62
4
 10
1.05491999E+00
 20
1.24370587E+02
  0
VERTEX
  8
0
 62
4
 10
8.81927865E-01
 20
1.24325181E+02
  0
VERTEX
  8
0
 62
4
 10
7.13911791E-01
 20
1.24265210E+02
  0
VERTEX
  8
0
 62
4
 10
5.52224529E-01
 20
1.24191156E+02
  0
VERTEX
  8
0
 62
4
 10
3.98167891E-01
 20
1.24103617E+02
  0
VERTEX
  8
0
 62
4
 10
2.52982250E-01
 20
1.24003296E+02
  0
VERTEX
  8
0
 62
4
 10
1.17836556E-01
 20
1.23891002E+02
  0
VERTEX
  8
0
 62
4
 10
-6.18107836E-03
 20
1.23767638E+02
  0
VERTEX
  8
0
 62
4
 10
-1.18072135E-01
 20
1.23634198E+02
  0
VERTEX
  8
0
 62
4
 10
-2.16935734E-01
 20
1.23491756E+02
  0
VERTEX
  8
0
 62
4
 10
-3.01975883E-01
 20
1.23341460E+02
  0
VERTEX
  8
0
 62
4
 10
-3.72507889E-01
 20
1.23184519E+02
  0
VERTEX
  8
0
 62
4
 10
-4.27963870E-01
 20
1.23022196E+02
  0
VERTEX
  8
0
 62
4
 10
-4.67897326E-01
 20
1.22855799E+02
  0
VERTEX
  8
0
 62
4
 10
-4.91986737E-01
 20
1.22686668E+02
  0
VERTEX
  8
0
 62
4
 10
-5.00038150E-01
 20
1.22516164E+02
  0
SEQEND
  8
0
  0
POLYLINE
  8
0
 62
4
 66
1
  0
VERTEX
  8
0
 62
4
 10
3.49996185E+00
 20
1.21640824E+02
  0
VERTEX
  8
0
 62
4
 10
3.49235125E+00
 20
1.21806604E+02
  0
VERTEX
  8
0
 62
4
 10
3.46957736E+00
 20
1.21971122E+02
  0
VERTEX
  8
0
 62
4
 10
3.43181350E+00
 20
1.22133127E+02
  0
VERTEX
  8
0
 62
4
 10
3.37934709E+00
 20
1.22291385E+02
  0
VERTEX
  8
0
 62
4
 10
3.31257742E+00
 20
1.22444692E+02
  0
VERTEX
  8
0
 62
4
 10
3.23201266E+00
 20
1.22591881E+02
  0
VERTEX
  8
0
 62
4
 10
3.13826594E+00
 20
1.22731831E+02
  0
VERTEX
  8
0
 62
4
 10
3.03205074E+00
 20
1.22863479E+02
  0
VERTEX
  8
0
 62
4
 10
2.91417541E+00
 20
1.22985821E+02
  0
VERTEX
  8
0
 62
4
 10
2.78553707E+00
 20
1.23097927E+02
  0
VERTEX
  8
0
 62
4
 10
2.64711472E+00
 20
1.23198944E+02
  0
VERTEX
  8
0
 62
4
 10
2.49996185E+00
 20
1.23288102E+02
  0
VERTEX
  8
0
 62
4
 10
2.34519837E+00
 20
1.23364724E+02
  0
VERTEX
  8
0
 62
4
 10
2.18400214E+00
 20
1.23428226E+02
  0
VERTEX
  8
0
 62
4
 10
2.01759994E+00
 20
1.23478124E+02
  0
VERTEX
  8
0
 62
4
 10
1.84725820E+00
 20
1.23514040E+02
  0
VERTEX
  8
0
 62
4
 10
1.67427333E+00
 20
1.23535699E+02
  0
VERTEX
  8
0
 62
4
 10
1.49996185E+00
 20
1.23542937E+02
  0
VERTEX
  8
0
 62
4
 10
1.32565036E+00
 20
1.23535699E+02
  0
VERTEX
  8
0
 62
4
 10
1.15266549E+00
 20
1.23514040E+02
  0
VERTEX
  8
0
 62
4
 10
9.82323758E-01
 20
1.23478124E+02
  0
VERTEX
  8
0
 62
4
 10
8.15921562E-01
 20
1.23428226E+02
  0
VERTEX
  8
0
 62
4
 10
6.54725325E-01
 20
1.23364724E+02
  0
VERTEX
  8
0
 62
4
 10
4.99961848E-01
 20
1.23288102E+02
  0
VERTEX
  8
0
 62
4
 10
3.52808976E-01
 20
1.23198944E+02
  0
VERTEX
  8
0
 62
4
 10
2.14386629E-01
 20
1.23097927E+02
  0
VERTEX
  8
0
 62
4
 10
8.57482861E-02
 20
1.22985821E+02
  0
VERTEX
  8
0
 62
4
 10
-3.21270376E-02
 20
1.22863479E+02
  0
VERTEX
  8
0
 62
4
 10
-1.38342240E-01
 20
1.22731831E+02
  0
VERTEX
  8
0
 62
4
 10
-2.32088959E-01
 20
1.22591881E+02
  0
VERTEX
  8
0
 62
4
 10
-3.12653725E-01
 20
1.22444692E+02
  0
VERTEX
  8
0
 62
4
 10
-3.79423392E-01
 20
1.22291385E+02
  0
VERTEX
  8
0
 62
4
 10
-4.31889803E-01
 20
1.22133127E+02
  0
VERTEX
  8
0
 62
4
 10
-4.69653656E-01
 20
1.21971122E+02
  0
VERTEX
  8
0
 62
4
 10
-4.92427546E-01
 20
1.21806604E+02
  0
VERTEX
  8
0
 62
4
 10
-5.00038150E-01
 20
1.21640824E+02
  0
VERTEX
  8
0
 62
4
 10
-4.92427546E-01
 20
1.21475044E+02
  0
VERTEX
  8
0
 62
4
 10
-4.69653656E-01
 20
1.21310526E+02
  0
VERTEX
  8
0
 62
4
 10
-4.31889802E-01
 20
1.21148521E+02
  0
VERTEX
  8
0
 62
4
 10
-3.79423390E-01
 20
1.20990263E+02
  0
VERTEX
  8
0
 62
4
 10
-3.12653723E-01
 20
1.20836956E+02
  0
VERTEX
  8
0
 62
4
 10
-2.32088956E-01
 20
1.20689767E+02
  0
VERTEX
  8
0
 62
4
 10
-1.38342237E-01
 20
1.20549817E+02
  0
VERTEX
  8
0
 62
4
 10
-3.21270340E-02
 20
1.20418169E+02
  0
VERTEX
  8
0
 62
4
 10
8.57482901E-02
 20
1.20295827E+02
  0
VERTEX
  8
0
 62
4
 10
2.14386633E-01
 20
1.20183721E+02
  0
VERTEX
  8
0
 62
4
 10
3.52808980E-01
 20
1.20082704E+02
  0
VERTEX
  8
0
 62
4
 10
4.99961853E-01
 20
1.19993546E+02
  0
VERTEX
  8
0
 62
4
 10
6.54725330E-01
 20
1.19916924E+02
  0
VERTEX
  8
0
 62
4
 10
8.15921567E-01
 20
1.19853422E+02
  0
VERTEX
  8
0
 62
4
 10
9.82323764E-01
 20
1.19803524E+02
  0
VERTEX
  8
0
 62
4
 10
1.15266550E+00
 20
1.19767608E+02
  0
VERTEX
  8
0
 62
4
 10
1.32565037E+00
 20
1.19745949E+02
  0
VERTEX
  8
0
 62
4
 10
1.49996185E+00
 20
1.19738711E+02
  0
VERTEX
  8
0
 62
4
 10
1.67427334E+00
 20
1.19745949E+02
  0
VERTEX
  8
0
 62
4
 10
1.84725821E+00
 20
1.19767608E+02
  0
VERTEX
  8
0
 62
4
 10
2.01759994E+00
 20
1.19803524E+02
  0
VERTEX
  8
0
 62
4
 10
2.18400214E+00
 20
1.19853422E+02
  0
VERTEX
  8
0
 62
4
 10
2.34519838E+00
 20
1.19916924E+02
  0
VERTEX
  8
0
 62
4
 10
2.49996185E+00
 20
1.19993546E+02
  0
VERTEX
  8
0
 62
4
 10
2.64711473E+00
 20
1.20082704E+02
  0
VERTEX
  8
0
 62
4
 10
2.78553707E+00
 20
1.20183721E+02
  0
VERTEX
  8
0
 62
4
 10
2.91417542E+00
 20
1.20295827E+02
  0
VERTEX
  8
0
 62
4
 10
3.03205074E+00
 20
1.20418169E+02
  0
VERTEX
  8
0
 62
4
 10
3.13826594E+00
 20
1.20549817E+02
  0
VERTEX
  8
0
 62
4
 10
3.23201266E+00
 20
1.20689767E+02
  0
VERTEX
  8
0
 62
4
 10
3.31257743E+00
 20
1.20836956E+02
  0
VERTEX
  8
0
 62
4
 10
3.37934709E+00
 20
1.20990263E+02
  0
VERTEX
  8
0
 62
4
 10
3.43181350E+00
 20
1.21148521E+02
  0
VERTEX
  8
0
 62
4
 10
3.46957736E+00
 20
1.21310526E+02
  0
VERTEX
  8
0
 62
4
 10
3.49235125E+00
 20
1.21475044E+02
  0
VERTEX
  8
0
 62
4
 10
3.49996185E+00
 20
1.21640824E+02
  0
SEQEND
  8
0
  0
LINE
  8
0
 62
4
 10
-5.00038147E-01
 20
1.21640824E+02
 11
-5.00038147E-01
 21
1.22516164E+02
  0
LINE
  8
0
 62
4
 10
3.49996185E+00
 20
1.21640824E+02
 11
3.49996185E+00
 21
1.22516164E+02
  0
POLYLINE
  8
0
 62
6
 66
1
  0
VERTEX
  8
0
 62
6
 10
-3.81500000E-05
 20
1.21640824E+02
  0
VERTEX
  8
0
 62
6
 10
5.66980242E-03
 20
1.21516489E+02
  0
VERTEX
  8
0
 62
6
 10
2.27502196E-02
 20
1.21393100E+02
  0
VERTEX
  8
0
 62
6
 10
5.10731093E-02
 20
1.21271597E+02
  0
VERTEX
  8
0
 62
6
 10
9.04229171E-02
 20
1.21152903E+02
  0
VERTEX
  8
0
 62
6
 10
1.40500167E-01
 20
1.21037923E+02
  0
VERTEX
  8
0
 62
6
 10
2.00923742E-01
 20
1.20927532E+02
  0
VERTEX
  8
0
 62
6
 10
2.71233781E-01
 20
1.20822569E+02
  0
VERTEX
  8
0
 62
6
 10
3.50895182E-01
 20
1.20723833E+02
  0
VERTEX
  8
0
 62
6
 10
4.39301675E-01
 20
1.20632076E+02
  0
VERTEX
  8
0
 62
6
 10
5.35780432E-01
 20
1.20547997E+02
  0
VERTEX
  8
0
 62
6
 10
6.39597192E-01
 20
1.20472234E+02
  0
VERTEX
  8
0
 62
6
 10
7.49961846E-01
 20
1.20405365E+02
  0
VERTEX
  8
0
 62
6
 10
8.66034453E-01
 20
1.20347899E+02
  0
VERTEX
  8
0
 62
6
 10
9.86931631E-01
 20
1.20300273E+02
  0
VERTEX
  8
0
 62
6
 10
1.11173328E+00
 20
1.20262849E+02
  0
VERTEX
  8
0
 62
6
 10
1.23948958E+00
 20
1.20235912E+02
  0
VERTEX
  8
0
 62
6
 10
1.36922823E+00
 20
1.20219668E+02
  0
VERTEX
  8
0
 62
6
 10
1.49996185E+00
 20
1.20214239E+02
  0
VERTEX
  8
0
 62
6
 10
1.63069546E+00
 20
1.20219668E+02
  0
VERTEX
  8
0
 62
6
 10
1.76043411E+00
 20
1.20235912E+02
  0
VERTEX
  8
0
 62
6
 10
1.88819041E+00
 20
1.20262849E+02
  0
VERTEX
  8
0
 62
6
 10
2.01299206E+00
 20
1.20300273E+02
  0
VERTEX
  8
0
 62
6
 10
2.13388924E+00
 20
1.20347899E+02
  0
VERTEX
  8
0
 62
6
 10
2.24996185E+00
 20
1.20405365E+02
  0
VERTEX
  8
0
 62
6
 10
2.36032650E+00
 20
1.20472234E+02
  0
VERTEX
  8
0
 62
6
 10
2.46414326E+00
 20
1.20547997E+02
  0
VERTEX
  8
0
 62
6
 10
2.56062202E+00
 20
1.20632076E+02
  0
VERTEX
  8
0
 62
6
 10
2.64902851E+00
 20
1.20723833E+02
  0
VERTEX
  8
0
 62
6
 10
2.72868991E+00
 20
1.20822569E+02
  0
VERTEX
  8
0
 62
6
 10
2.79899995E+00
 20
1.20927532E+02
  0
VERTEX
  8
0
 62
6
 10
2.85942353E+00
 20
1.21037923E+02
  0
VERTEX
  8
0
 62
6
 10
2.90950078E+00
 20
1.21152903E+02
  0
VERTEX
  8
0
 62
6
 10
2.94885059E+00
 20
1.21271597E+02
  0
VERTEX
  8
0
 62
6
 10
2.97717348E+00
 20
1.21393100E+02
  0
VERTEX
  8
0
 62
6
 10
2.99425390E+00
 20
1.21516489E+02
  0
VERTEX
  8
0
 62
6
 10
2.99996185E+00
 20
1.21640824E+02
  0
VERTEX
  8
0
 62
6
 10
2.99425390E+00
 20
1.21765159E+02
  0
VERTEX
  8
0
 62
6
 10
2.97717348E+00
 20
1.21888548E+02
  0
VERTEX
  8
0
 62
6
 10
2.94885059E+00
 20
1.22010051E+02
  0
VERTEX
  8
0
 62
6
 10
2.90950078E+00
 20
1.22128745E+02
  0
VERTEX
  8
0
 62
6
 10
2.85942353E+00
 20
1.22243725E+02
  0
VERTEX
  8
0
 62
6
 10
2.79899996E+00
 20
1.22354116E+02
  0
VERTEX
  8
0
 62
6
 10
2.72868992E+00
 20
1.22459079E+02
  0
VERTEX
  8
0
 62
6
 10
2.64902852E+00
 20
1.22557815E+02
  0
VERTEX
  8
0
 62
6
 10
2.56062202E+00
 20
1.22649572E+02
  0
VERTEX
  8
0
 62
6
 10
2.46414327E+00
 20
1.22733651E+02
  0
VERTEX
  8
0
 62
6
 10
2.36032651E+00
 20
1.22809414E+02
  0
VERTEX
  8
0
 62
6
 10
2.24996185E+00
 20
1.22876283E+02
  0
VERTEX
  8
0
 62
6
 10
2.13388924E+00
 20
1.22933749E+02
  0
VERTEX
  8
0
 62
6
 10
2.01299207E+00
 20
1.22981375E+02
  0
VERTEX
  8
0
 62
6
 10
1.88819042E+00
 20
1.23018799E+02
  0
VERTEX
  8
0
 62
6
 10
1.76043412E+00
 20
1.23045736E+02
  0
VERTEX
  8
0
 62
6
 10
1.63069547E+00
 20
1.23061980E+02
  0
VERTEX
  8
0
 62
6
 10
1.49996185E+00
 20
1.23067409E+02
  0
VERTEX
  8
0
 62
6
 10
1.36922824E+00
 20
1.23061980E+02
  0
VERTEX
  8
0
 62
6
 10
1.23948959E+00
 20
1.23045736E+02
  0
VERTEX
  8
0
 62
6
 10
1.11173328E+00
 20
1.23018799E+02
  0
VERTEX
  8
0
 62
6
 10
9.86931637E-01
 20
1.22981375E+02
  0
VERTEX
  8
0
 62
6
 10
8.66034459E-01
 20
1.22933749E+02
  0
VERTEX
  8
0
 62
6
 10
7.49961851E-01
 20
1.22876283E+02
  0
VERTEX
  8
0
 62
6
 10
6.39597197E-01
 20
1.22809414E+02
  0
VERTEX
  8
0
 62
6
 10
5.35780437E-01
 20
1.22733651E+02
  0
VERTEX
  8
0
 62
6
 10
4.39301679E-01
 20
1.22649572E+02
  0
VERTEX
  8
0
 62
6
 10
3.50895186E-01
 20
1.22557815E+02
  0
VERTEX
  8
0
 62
6
 10
2.71233784E-01
 20
1.22459079E+02
  0
VERTEX
  8
0
 62
6
 10
2.00923745E-01
 20
1.22354116E+02
  0
VERTEX
  8
0
 62
6
 10
1.40500170E-01
 20
1.22243725E+02
  0
VERTEX
  8
0
 62
6
 10
9.04229192E-02
 20
1.22128745E+02
  0
VERTEX
  8
0
 62
6
 10
5.10731108E-02
 20
1.22010051E+02
  0
VERTEX
  8
0
 62
6
 10
2.27502207E-02
 20
1.21888548E+02
  0
VERTEX
  8
0
 62
6
 10
5.66980295E-03
 20
1.21765159E+02
  0
VERTEX
  8
0
 62
6
 10
-3.81500000E-05
 20
1.21640824E+02
  0
SEQEND
  8
0
  0
LINE
  8
0
 62
4
 10
4.99961853E-01
 20
1.21089211E+02
 11
4.99961853E-01
 21
1.22192437E+02
  0
LINE
  8
0
 62
4
 10
2.49996185E+00
 20
1.21089211E+02
 11
2.49996185E+00
 21
1.22192437E+02
  0
LINE
  8
0
 62
4
 10
1.49996185E+00
 20
1.22734539E+02
 11
4.99961853E-01
 21
1.22192437E+02
  0
LINE
  8
0
 62
4
 10
1.49996185E+00
 20
1.22734539E+02
 11
2.49996185E+00
 21
1.22192437E+02
  0
LINE
  8
0
 62
4
 10
2.49996185E+00
 20
1.21089211E+02
 11
1.49996185E+00
 21
1.20537598E+02
  0
LINE
  8
0
 62
4
 10
1.49996185E+00
 20
1.20537598E+02
 11
4.99961853E-01
 21
1.21089211E+02
  0
LINE
  8
0
 62
4
 10
-6.50003815E+00
 20
1.20537598E+02
 11
-7.50003815E+00
 21
1.21089211E+02
  0
LINE
  8
0
 62
4
 10
-5.50003815E+00
 20
1.21089211E+02
 11
-6.50003815E+00
 21
1.20537598E+02
  0
LINE
  8
0
 62
4
 10
-6.50003815E+00
 20
1.22734539E+02
 11
-5.50003815E+00
 21
1.22192437E+02
  0
LINE
  8
0
 62
4
 10
-6.50003815E+00
 20
1.22734539E+02
 11
-7.50003815E+00
 21
1.22192437E+02
  0
LINE
  8
0
 62
4
 10
-5.50003815E+00
 20
1.21089211E+02
 11
-5.50003815E+00
 21
1.22192437E+02
  0
LINE
  8
0
 62
4
 10
-7.50003815E+00
 20
1.21089211E+02
 11
-7.50003815E+00
 21
1.22192437E+02
  0
POLYLINE
  8
0
 62
6
 66
1
  0
VERTEX
  8
0
 62
6
 10
-8.00003815E+00
 20
1.21640824E+02
  0
VERTEX
  8
0
 62
6
 10
-7.99433020E+00
 20
1.21516489E+02
  0
VERTEX
  8
0
 62
6
 10
-7.97724978E+00
 20
1.21393100E+02
  0
VERTEX
  8
0
 62
6
 10
-7.94892689E+00
 20
1.21271597E+02
  0
VERTEX
  8
0
 62
6
 10
-7.90957708E+00
 20
1.21152903E+02
  0
VERTEX
  8
0
 62
6
 10
-7.85949983E+00
 20
1.21037923E+02
  0
VERTEX
  8
0
 62
6
 10
-7.79907626E+00
 20
1.20927532E+02
  0
VERTEX
  8
0
 62
6
 10
-7.72876622E+00
 20
1.20822569E+02
  0
VERTEX
  8
0
 62
6
 10
-7.64910482E+00
 20
1.20723833E+02
  0
VERTEX
  8
0
 62
6
 10
-7.56069833E+00
 20
1.20632076E+02
  0
VERTEX
  8
0
 62
6
 10
-7.46421957E+00
 20
1.20547997E+02
  0
VERTEX
  8
0
 62
6
 10
-7.36040281E+00
 20
1.20472234E+02
  0
VERTEX
  8
0
 62
6
 10
-7.25003815E+00
 20
1.20405365E+02
  0
VERTEX
  8
0
 62
6
 10
-7.13396555E+00
 20
1.20347899E+02
  0
VERTEX
  8
0
 62
6
 10
-7.01306837E+00
 20
1.20300273E+02
  0
VERTEX
  8
0
 62
6
 10
-6.88826672E+00
 20
1.20262849E+02
  0
VERTEX
  8
0
 62
6
 10
-6.76051042E+00
 20
1.20235912E+02
  0
VERTEX
  8
0
 62
6
 10
-6.63077177E+00
 20
1.20219668E+02
  0
VERTEX
  8
0
 62
6
 10
-6.50003815E+00
 20
1.20214239E+02
  0
VERTEX
  8
0
 62
6
 10
-6.36930454E+00
 20
1.20219668E+02
  0
VERTEX
  8
0
 62
6
 10
-6.23956589E+00
 20
1.20235912E+02
  0
VERTEX
  8
0
 62
6
 10
-6.11180959E+00
 20
1.20262849E+02
  0
VERTEX
  8
0
 62
6
 10
-5.98700794E+00
 20
1.20300273E+02
  0
VERTEX
  8
0
 62
6
 10
-5.86611076E+00
 20
1.20347899E+02
  0
VERTEX
  8
0
 62
6
 10
-5.75003815E+00
 20
1.20405365E+02
  0
VERTEX
  8
0
 62
6
 10
-5.63967350E+00
 20
1.20472234E+02
  0
VERTEX
  8
0
 62
6
 10
-5.53585674E+00
 20
1.20547997E+02
  0
VERTEX
  8
0
 62
6
 10
-5.43937798E+00
 20
1.20632076E+02
  0
VERTEX
  8
0
 62
6
 10
-5.35097149E+00
 20
1.20723833E+02
  0
VERTEX
  8
0
 62
6
 10
-5.27131009E+00
 20
1.20822569E+02
  0
VERTEX
  8
0
 62
6
 10
-5.20100005E+00
 20
1.20927532E+02
  0
VERTEX
  8
0
 62
6
 10
-5.14057647E+00
 20
1.21037923E+02
  0
VERTEX
  8
0
 62
6
 10
-5.09049922E+00
 20
1.21152903E+02
  0
VERTEX
  8
0
 62
6
 10
-5.05114941E+00
 20
1.21271597E+02
  0
VERTEX
  8
0
 62
6
 10
-5.02282652E+00
 20
1.21393100E+02
  0
VERTEX
  8
0
 62
6
 10
-5.00574610E+00
 20
1.21516489E+02
  0
VERTEX
  8
0
 62
6
 10
-5.00003815E+00
 20
1.21640824E+02
  0
VERTEX
  8
0
 62
6
 10
-5.00574610E+00
 20
1.21765159E+02
  0
VERTEX
  8
0
 62
6
 10
-5.02282652E+00
 20
1.21888548E+02
  0
VERTEX
  8
0
 62
6
 10
-5.05114941E+00
 20
1.22010051E+02
  0
VERTEX
  8
0
 62
6
 10
-5.09049922E+00
 20
1.22128745E+02
  0
VERTEX
  8
0
 62
6
 10
-5.14057647E+00
 20
1.22243725E+02
  0
VERTEX
  8
0
 62
6
 10
-5.20100004E+00
 20
1.22354116E+02
  0
VERTEX
  8
0
 62
6
 10
-5.27131008E+00
 20
1.22459079E+02
  0
VERTEX
  8
0
 62
6
 10
-5.35097148E+00
 20
1.22557815E+02
  0
VERTEX
  8
0
 62
6
 10
-5.43937798E+00
 20
1.22649572E+02
  0
VERTEX
  8
0
 62
6
 10
-5.53585673E+00
 20
1.22733651E+02
  0
VERTEX
  8
0
 62
6
 10
-5.63967349E+00
 20
1.22809414E+02
  0
VERTEX
  8
0
 62
6
 10
-5.75003815E+00
 20
1.22876283E+02
  0
VERTEX
  8
0
 62
6
 10
-5.86611076E+00
 20
1.22933749E+02
  0
VERTEX
  8
0
 62
6
 10
-5.98700793E+00
 20
1.22981375E+02
  0
VERTEX
  8
0
 62
6
 10
-6.11180958E+00
 20
1.23018799E+02
  0
VERTEX
  8
0
 62
6
 10
-6.23956588E+00
 20
1.23045736E+02
  0
VERTEX
  8
0
 62
6
 10
-6.36930453E+00
 20
1.23061980E+02
  0
VERTEX
  8
0
 62
6
 10
-6.50003815E+00
 20
1.23067409E+02
  0
VERTEX
  8
0
 62
6
 10
-6.63077176E+00
 20
1.23061980E+02
  0
VERTEX
  8
0
 62
6
 10
-6.76051041E+00
 20
1.23045736E+02
  0
VERTEX
  8
0
 62
6
 10
-6.88826672E+00
 20
1.23018799E+02
  0
VERTEX
  8
0
 62
6
 10
-7.01306836E+00
 20
1.22981375E+02
  0
VERTEX
  8
0
 62
6
 10
-7.13396554E+00
 20
1.22933749E+02
  0
VERTEX
  8
0
 62
6
 10
-7.25003815E+00
 20
1.22876283E+02
  0
VERTEX
  8
0
 62
6
 10
-7.36040280E+00
 20
1.22809414E+02
  0
VERTEX
  8
0
 62
6
 10
-7.46421956E+00
 20
1.22733651E+02
  0
VERTEX
  8
0
 62
6
 10
-7.56069832E+00
 20
1.22649572E+02
  0
VERTEX
  8
0
 62
6
 10
-7.64910481E+00
 20
1.22557815E+02
  0
VERTEX
  8
0
 62
6
 10
-7.72876622E+00
 20
1.22459079E+02
  0
VERTEX
  8
0
 62
6
 10
-7.79907626E+00
 20
1.22354116E+02
  0
VERTEX
  8
0
 62
6
 10
-7.85949983E+00
 20
1.22243725E+02
  0
VERTEX
  8
0
 62
6
 10
-7.90957708E+00
 20
1.22128745E+02
  0
VERTEX
  8
0
 62
6
 10
-7.94892689E+00
 20
1.22010051E+02
  0
VERTEX
  8
0
 62
6
 10
-7.97724978E+00
 20
1.21888548E+02
  0
VERTEX
  8
0
 62
6
 10
-7.99433020E+00
 20
1.21765159E+02
  0
VERTEX
  8
0
 62
6
 10
-8.00003815E+00
 20
1.21640824E+02
  0
SEQEND
  8
0
  0
LINE
  8
0
 62
4
 10
-4.50003815E+00
 20
1.21640824E+02
 11
-4.50003815E+00
 21
1.22516164E+02
  0
LINE
  8
0
 62
4
 10
-8.50003815E+00
 20
1.21640824E+02
 11
-8.50003815E+00
 21
1.22516164E+02
  0
POLYLINE
  8
0
 62
4
 66
1
  0
VERTEX
  8
0
 62
4
 10
-4.50003815E+00
 20
1.21640824E+02
  0
VERTEX
  8
0
 62
4
 10
-4.50764875E+00
 20
1.21806604E+02
  0
VERTEX
  8
0
 62
4
 10
-4.53042264E+00
 20
1.21971122E+02
  0
VERTEX
  8
0
 62
4
 10
-4.56818650E+00
 20
1.22133127E+02
  0
VERTEX
  8
0
 62
4
 10
-4.62065291E+00
 20
1.22291385E+02
  0
VERTEX
  8
0
 62
4
 10
-4.68742258E+00
 20
1.22444692E+02
  0
VERTEX
  8
0
 62
4
 10
-4.76798734E+00
 20
1.22591881E+02
  0
VERTEX
  8
0
 62
4
 10
-4.86173406E+00
 20
1.22731831E+02
  0
VERTEX
  8
0
 62
4
 10
-4.96794926E+00
 20
1.22863479E+02
  0
VERTEX
  8
0
 62
4
 10
-5.08582459E+00
 20
1.22985821E+02
  0
VERTEX
  8
0
 62
4
 10
-5.21446293E+00
 20
1.23097927E+02
  0
VERTEX
  8
0
 62
4
 10
-5.35288528E+00
 20
1.23198944E+02
  0
VERTEX
  8
0
 62
4
 10
-5.50003815E+00
 20
1.23288102E+02
  0
VERTEX
  8
0
 62
4
 10
-5.65480163E+00
 20
1.23364724E+02
  0
VERTEX
  8
0
 62
4
 10
-5.81599786E+00
 20
1.23428226E+02
  0
VERTEX
  8
0
 62
4
 10
-5.98240006E+00
 20
1.23478124E+02
  0
VERTEX
  8
0
 62
4
 10
-6.15274180E+00
 20
1.23514040E+02
  0
VERTEX
  8
0
 62
4
 10
-6.32572667E+00
 20
1.23535699E+02
  0
VERTEX
  8
0
 62
4
 10
-6.50003815E+00
 20
1.23542937E+02
  0
VERTEX
  8
0
 62
4
 10
-6.67434964E+00
 20
1.23535699E+02
  0
VERTEX
  8
0
 62
4
 10
-6.84733451E+00
 20
1.23514040E+02
  0
VERTEX
  8
0
 62
4
 10
-7.01767624E+00
 20
1.23478124E+02
  0
VERTEX
  8
0
 62
4
 10
-7.18407844E+00
 20
1.23428226E+02
  0
VERTEX
  8
0
 62
4
 10
-7.34527468E+00
 20
1.23364724E+02
  0
VERTEX
  8
0
 62
4
 10
-7.50003815E+00
 20
1.23288102E+02
  0
VERTEX
  8
0
 62
4
 10
-7.64719102E+00
 20
1.23198944E+02
  0
VERTEX
  8
0
 62
4
 10
-7.78561337E+00
 20
1.23097927E+02
  0
VERTEX
  8
0
 62
4
 10
-7.91425171E+00
 20
1.22985821E+02
  0
VERTEX
  8
0
 62
4
 10
-8.03212704E+00
 20
1.22863479E+02
  0
VERTEX
  8
0
 62
4
 10
-8.13834224E+00
 20
1.22731831E+02
  0
VERTEX
  8
0
 62
4
 10
-8.23208896E+00
 20
1.22591881E+02
  0
VERTEX
  8
0
 62
4
 10
-8.31265373E+00
 20
1.22444692E+02
  0
VERTEX
  8
0
 62
4
 10
-8.37942339E+00
 20
1.22291385E+02
  0
VERTEX
  8
0
 62
4
 10
-8.43188980E+00
 20
1.22133127E+02
  0
VERTEX
  8
0
 62
4
 10
-8.46965366E+00
 20
1.21971122E+02
  0
VERTEX
  8
0
 62
4
 10
-8.49242755E+00
 20
1.21806604E+02
  0
VERTEX
  8
0
 62
4
 10
-8.50003815E+00
 20
1.21640824E+02
  0
VERTEX
  8
0
 62
4
 10
-8.49242755E+00
 20
1.21475044E+02
  0
VERTEX
  8
0
 62
4
 10
-8.46965366E+00
 20
1.21310526E+02
  0
VERTEX
  8
0
 62
4
 10
-8.43188980E+00
 20
1.21148521E+02
  0
VERTEX
  8
0
 62
4
 10
-8.37942339E+00
 20
1.20990263E+02
  0
VERTEX
  8
0
 62
4
 10
-8.31265372E+00
 20
1.20836956E+02
  0
VERTEX
  8
0
 62
4
 10
-8.23208896E+00
 20
1.20689767E+02
  0
VERTEX
  8
0
 62
4
 10
-8.13834224E+00
 20
1.20549817E+02
  0
VERTEX
  8
0
 62
4
 10
-8.03212703E+00
 20
1.20418169E+02
  0
VERTEX
  8
0
 62
4
 10
-7.91425171E+00
 20
1.20295827E+02
  0
VERTEX
  8
0
 62
4
 10
-7.78561337E+00
 20
1.20183721E+02
  0
VERTEX
  8
0
 62
4
 10
-7.64719102E+00
 20
1.20082704E+02
  0
VERTEX
  8
0
 62
4
 10
-7.50003815E+00
 20
1.19993546E+02
  0
VERTEX
  8
0
 62
4
 10
-7.34527467E+00
 20
1.19916924E+02
  0
VERTEX
  8
0
 62
4
 10
-7.18407843E+00
 20
1.19853422E+02
  0
VERTEX
  8
0
 62
4
 10
-7.01767624E+00
 20
1.19803524E+02
  0
VERTEX
  8
0
 62
4
 10
-6.84733450E+00
 20
1.19767608E+02
  0
VERTEX
  8
0
 62
4
 10
-6.67434963E+00
 20
1.19745949E+02
  0
VERTEX
  8
0
 62
4
 10
-6.50003815E+00
 20
1.19738711E+02
  0
VERTEX
  8
0
 62
4
 10
-6.32572666E+00
 20
1.19745949E+02
  0
VERTEX
  8
0
 62
4
 10
-6.15274179E+00
 20
1.19767608E+02
  0
VERTEX
  8
0
 62
4
 10
-5.98240006E+00
 20
1.19803524E+02
  0
VERTEX
  8
0
 62
4
 10
-5.81599786E+00
 20
1.19853422E+02
  0
VERTEX
  8
0
 62
4
 10
-5.65480162E+00
 20
1.19916924E+02
  0
VERTEX
  8
0
 62
4
 10
-5.50003815E+00
 20
1.19993546E+02
  0
VERTEX
  8
0
 62
4
 10
-5.35288527E+00
 20
1.20082704E+02
  0
VERTEX
  8
0
 62
4
 10
-5.21446293E+00
 20
1.20183721E+02
  0
VERTEX
  8
0
 62
4
 10
-5.08582458E+00
 20
1.20295827E+02
  0
VERTEX
  8
0
 62
4
 10
-4.96794926E+00
 20
1.20418169E+02
  0
VERTEX
  8
0
 62
4
 10
-4.86173406E+00
 20
1.20549817E+02
  0
VERTEX
  8
0
 62
4
 10
-4.76798734E+00
 20
1.20689767E+02
  0
VERTEX
  8
0
 62
4
 10
-4.68742257E+00
 20
1.20836956E+02
  0
VERTEX
  8
0
 62
4
 10
-4.62065291E+00
 20
1.20990263E+02
  0
VERTEX
  8
0
 62
4
 10
-4.56818650E+00
 20
1.21148521E+02
  0
VERTEX
  8
0
 62
4
 10
-4.53042264E+00
 20
1.21310526E+02
  0
VERTEX
  8
0
 62
4
 10
-4.50764875E+00
 20
1.21475044E+02
  0
VERTEX
  8
0
 62
4
 10
-4.50003815E+00
 20
1.21640824E+02
  0
SEQEND
  8
0
  0
POLYLINE
  8
0
 62
4
 66
1
  0
VERTEX
  8
0
 62
4
 10
-4.50003815E+00
 20
1.22516164E+02
  0
VERTEX
  8
0
 62
4
 10
-4.50808956E+00
 20
1.22686668E+02
  0
VERTEX
  8
0
 62
4
 10
-4.53217897E+00
 20
1.22855799E+02
  0
VERTEX
  8
0
 62
4
 10
-4.57211243E+00
 20
1.23022196E+02
  0
VERTEX
  8
0
 62
4
 10
-4.62756841E+00
 20
1.23184519E+02
  0
VERTEX
  8
0
 62
4
 10
-4.69810041E+00
 20
1.23341460E+02
  0
VERTEX
  8
0
 62
4
 10
-4.78314056E+00
 20
1.23491756E+02
  0
VERTEX
  8
0
 62
4
 10
-4.88200416E+00
 20
1.23634198E+02
  0
VERTEX
  8
0
 62
4
 10
-4.99389522E+00
 20
1.23767638E+02
  0
VERTEX
  8
0
 62
4
 10
-5.11791285E+00
 20
1.23891002E+02
  0
VERTEX
  8
0
 62
4
 10
-5.25305854E+00
 20
1.24003296E+02
  0
VERTEX
  8
0
 62
4
 10
-5.39824419E+00
 20
1.24103617E+02
  0
VERTEX
  8
0
 62
4
 10
-5.55230082E+00
 20
1.24191156E+02
  0
VERTEX
  8
0
 62
4
 10
-5.71398808E+00
 20
1.24265210E+02
  0
VERTEX
  8
0
 62
4
 10
-5.88200416E+00
 20
1.24325181E+02
  0
VERTEX
  8
0
 62
4
 10
-6.05499628E+00
 20
1.24370587E+02
  0
VERTEX
  8
0
 62
4
 10
-6.23157162E+00
 20
1.24401062E+02
  0
VERTEX
  8
0
 62
4
 10
-6.41030849E+00
 20
1.24416362E+02
  0
VERTEX
  8
0
 62
4
 10
-6.58976781E+00
 20
1.24416362E+02
  0
VERTEX
  8
0
 62
4
 10
-6.76850468E+00
 20
1.24401062E+02
  0
VERTEX
  8
0
 62
4
 10
-6.94508001E+00
 20
1.24370587E+02
  0
VERTEX
  8
0
 62
4
 10
-7.11807213E+00
 20
1.24325181E+02
  0
VERTEX
  8
0
 62
4
 10
-7.28608821E+00
 20
1.24265210E+02
  0
VERTEX
  8
0
 62
4
 10
-7.44777547E+00
 20
1.24191156E+02
  0
VERTEX
  8
0
 62
4
 10
-7.60183211E+00
 20
1.24103617E+02
  0
VERTEX
  8
0
 62
4
 10
-7.74701775E+00
 20
1.24003296E+02
  0
VERTEX
  8
0
 62
4
 10
-7.88216344E+00
 20
1.23891002E+02
  0
VERTEX
  8
0
 62
4
 10
-8.00618108E+00
 20
1.23767638E+02
  0
VERTEX
  8
0
 62
4
 10
-8.11807214E+00
 20
1.23634198E+02
  0
VERTEX
  8
0
 62
4
 10
-8.21693573E+00
 20
1.23491756E+02
  0
VERTEX
  8
0
 62
4
 10
-8.30197588E+00
 20
1.23341460E+02
  0
VERTEX
  8
0
 62
4
 10
-8.37250789E+00
 20
1.23184519E+02
  0
VERTEX
  8
0
 62
4
 10
-8.42796387E+00
 20
1.23022196E+02
  0
VERTEX
  8
0
 62
4
 10
-8.46789733E+00
 20
1.22855799E+02
  0
VERTEX
  8
0
 62
4
 10
-8.49198674E+00
 20
1.22686668E+02
  0
VERTEX
  8
0
 62
4
 10
-8.50003815E+00
 20
1.22516164E+02
  0
SEQEND
  8
0
  0
LINE
  8
0
  6
CENTER
 62
6
 10
-4.17000229E+01
 20
1.44897156E+02
 11
-5.13000229E+01
 21
1.44897156E+02
  0
LINE
  8
0
  6
CENTER
 62
6
 10
-4.65000229E+01
 20
1.49697156E+02
 11
-4.65000229E+01
 21
1.40097156E+02
  0
LINE
  8
0
  6
CENTER
 62
6
 10
-5.79254260E+01
 20
1.44897156E+02
 11
-6.50746198E+01
 21
1.44897156E+02
  0
LINE
  8
0
  6
CENTER
 62
6
 10
-6.15000229E+01
 20
1.48471753E+02
 11
-6.15000229E+01
 21
1.41322559E+02
  0
LINE
  8
0
 62
4
 10
-6.90000229E+01
 20
1.38872198E+02
 11
-7.05000229E+01
 21
1.37775934E+02
  0
LINE
  8
0
 62
4
 10
-7.05000229E+01
 20
1.37775934E+02
 11
-7.05000229E+01
 21
1.34921867E+02
  0
LINE
  8
0
 62
4
 10
-7.05000229E+01
 20
1.35621791E+02
 11
-6.90000229E+01
 21
1.35067972E+02
  0
LINE
  8
0
 62
4
 10
-7.05000229E+01
 20
1.34921867E+02
 11
-6.99193995E+01
 21
1.34499962E+02
  0
LINE
  8
0
 62
4
 10
-6.90000229E+01
 20
1.35067972E+02
 11
-4.55000229E+01
 21
1.35067972E+02
  0
LINE
  8
0
 62
4
 10
-6.90000229E+01
 20
1.38872198E+02
 11
-5.69103258E+01
 21
1.38872198E+02
  0
LINE
  8
0
 62
4
 10
-6.90000229E+01
 20
1.39285923E+02
 11
-5.72946551E+01
 21
1.39285923E+02
  0
LINE
  8
0
 62
4
 10
-6.90000229E+01
 20
1.34911063E+02
 11
-3.90000229E+01
 21
1.34911063E+02
  0
LINE
  8
0
 62
4
 10
-6.90000229E+01
 20
1.38872198E+02
 11
-6.90000229E+01
 21
1.34911063E+02
  0
LINE
  8
0
 62
4
 10
-6.90000229E+01
 20
1.34911063E+02
 11
-6.90000229E+01
 21
1.34499962E+02
  0
POLYLINE
  8
0
 62
4
 66
1
  0
VERTEX
  8
0
 62
4
 10
-5.81500229E+01
 20
1.42229755E+02
  0
VERTEX
  8
0
 62
4
 10
-5.81342309E+01
 20
1.41885761E+02
  0
VERTEX
  8
0
 62
4
 10
-5.80869751E+01
 20
1.41544386E+02
  0
VERTEX
  8
0
 62
4
 10
-5.80086151E+01
 20
1.41208226E+02
  0
VERTEX
  8
0
 62
4
 10
-5.78997473E+01
 20
1.40879841E+02
  0
VERTEX
  8
0
 62
4
 10
-5.77612002E+01
 20
1.40561730E+02
  0
VERTEX
  8
0
 62
4
 10
-5.75940283E+01
 20
1.40256313E+02
  0
VERTEX
  8
0
 62
4
 10
-5.73995039E+01
 20
1.39965915E+02
  0
VERTEX
  8
0
 62
4
 10
-5.71791073E+01
 20
1.39692747E+02
  0
VERTEX
  8
0
 62
4
 10
-5.69345161E+01
 20
1.39438886E+02
  0
VERTEX
  8
0
 62
4
 10
-5.66675915E+01
 20
1.39206266E+02
  0
VERTEX
  8
0
 62
4
 10
-5.63803651E+01
 20
1.38996656E+02
  0
VERTEX
  8
0
 62
4
 10
-5.60750229E+01
 20
1.38811653E+02
  0
VERTEX
  8
0
 62
4
 10
-5.57538887E+01
 20
1.38652663E+02
  0
VERTEX
  8
0
 62
4
 10
-5.54194065E+01
 20
1.38520897E+02
  0
VERTEX
  8
0
 62
4
 10
-5.50741219E+01
 20
1.38417357E+02
  0
VERTEX
  8
0
 62
4
 10
-5.47206628E+01
 20
1.38342833E+02
  0
VERTEX
  8
0
 62
4
 10
-5.43617192E+01
 20
1.38297890E+02
  0
VERTEX
  8
0
 62
4
 10
-5.40000229E+01
 20
1.38282870E+02
  0
VERTEX
  8
0
 62
4
 10
-5.36383266E+01
 20
1.38297890E+02
  0
VERTEX
  8
0
 62
4
 10
-5.32793830E+01
 20
1.38342833E+02
  0
VERTEX
  8
0
 62
4
 10
-5.29259239E+01
 20
1.38417357E+02
  0
VERTEX
  8
0
 62
4
 10
-5.25806393E+01
 20
1.38520897E+02
  0
VERTEX
  8
0
 62
4
 10
-5.22461571E+01
 20
1.38652663E+02
  0
VERTEX
  8
0
 62
4
 10
-5.19250229E+01
 20
1.38811653E+02
  0
VERTEX
  8
0
 62
4
 10
-5.16196807E+01
 20
1.38996656E+02
  0
VERTEX
  8
0
 62
4
 10
-5.13324543E+01
 20
1.39206266E+02
  0
VERTEX
  8
0
 62
4
 10
-5.10655298E+01
 20
1.39438886E+02
  0
VERTEX
  8
0
 62
4
 10
-5.08209385E+01
 20
1.39692747E+02
  0
VERTEX
  8
0
 62
4
 10
-5.06005419E+01
 20
1.39965915E+02
  0
VERTEX
  8
0
 62
4
 10
-5.04060175E+01
 20
1.40256313E+02
  0
VERTEX
  8
0
 62
4
 10
-5.02388456E+01
 20
1.40561730E+02
  0
VERTEX
  8
0
 62
4
 10
-5.01002985E+01
 20
1.40879841E+02
  0
VERTEX
  8
0
 62
4
 10
-4.99914307E+01
 20
1.41208226E+02
  0
VERTEX
  8
0
 62
4
 10
-4.99130707E+01
 20
1.41544386E+02
  0
VERTEX
  8
0
 62
4
 10
-4.98658149E+01
 20
1.41885761E+02
  0
VERTEX
  8
0
 62
4
 10
-4.98500229E+01
 20
1.42229755E+02
  0
VERTEX
  8
0
 62
4
 10
-4.98658149E+01
 20
1.42573749E+02
  0
VERTEX
  8
0
 62
4
 10
-4.99130707E+01
 20
1.42915124E+02
  0
VERTEX
  8
0
 62
4
 10
-4.99914307E+01
 20
1.43251284E+02
  0
VERTEX
  8
0
 62
4
 10
-5.01002985E+01
 20
1.43579669E+02
  0
VERTEX
  8
0
 62
4
 10
-5.02388456E+01
 20
1.43897780E+02
  0
VERTEX
  8
0
 62
4
 10
-5.04060175E+01
 20
1.44203197E+02
  0
VERTEX
  8
0
 62
4
 10
-5.06005419E+01
 20
1.44493595E+02
  0
VERTEX
  8
0
 62
4
 10
-5.08209385E+01
 20
1.44766763E+02
  0
VERTEX
  8
0
 62
4
 10
-5.10655298E+01
 20
1.45020624E+02
  0
VERTEX
  8
0
 62
4
 10
-5.13324543E+01
 20
1.45253244E+02
  0
VERTEX
  8
0
 62
4
 10
-5.16196807E+01
 20
1.45462854E+02
  0
VERTEX
  8
0
 62
4
 10
-5.19250229E+01
 20
1.45647857E+02
  0
VERTEX
  8
0
 62
4
 10
-5.22461571E+01
 20
1.45806847E+02
  0
VERTEX
  8
0
 62
4
 10
-5.25806393E+01
 20
1.45938613E+02
  0
VERTEX
  8
0
 62
4
 10
-5.29259239E+01
 20
1.46042153E+02
  0
VERTEX
  8
0
 62
4
 10
-5.32793830E+01
 20
1.46116677E+02
  0
VERTEX
  8
0
 62
4
 10
-5.36383266E+01
 20
1.46161620E+02
  0
VERTEX
  8
0
 62
4
 10
-5.40000229E+01
 20
1.46176640E+02
  0
VERTEX
  8
0
 62
4
 10
-5.43617192E+01
 20
1.46161620E+02
  0
VERTEX
  8
0
 62
4
 10
-5.47206628E+01
 20
1.46116677E+02
  0
VERTEX
  8
0
 62
4
 10
-5.50741219E+01
 20
1.46042153E+02
  0
VERTEX
  8
0
 62
4
 10
-5.54194065E+01
 20
1.45938613E+02
  0
VERTEX
  8
0
 62
4
 10
-5.57538887E+01
 20
1.45806847E+02
  0
VERTEX
  8
0
 62
4
 10
-5.60750229E+01
 20
1.45647857E+02
  0
VERTEX
  8
0
 62
4
 10
-5.63803651E+01
 20
1.45462854E+02
  0
VERTEX
  8
0
 62
4
 10
-5.66675915E+01
 20
1.45253244E+02
  0
VERTEX
  8
0
 62
4
 10
-5.69345160E+01
 20
1.45020624E+02
  0
VERTEX
  8
0
 62
4
 10
-5.71791073E+01
 20
1.44766763E+02
  0
VERTEX
  8
0
 62
4
 10
-5.73995039E+01
 20
1.44493595E+02
  0
VERTEX
  8
0
 62
4
 10
-5.75940283E+01
 20
1.44203197E+02
  0
VERTEX
  8
0
 62
4
 10
-5.77612002E+01
 20
1.43897780E+02
  0
VERTEX
  8
0
 62
4
 10
-5.78997473E+01
 20
1.43579669E+02
  0
VERTEX
  8
0
 62
4
 10
-5.80086151E+01
 20
1.43251284E+02
  0
VERTEX
  8
0
 62
4
 10
-5.80869751E+01
 20
1.42915124E+02
  0
VERTEX
  8
0
 62
4
 10
-5.81342309E+01
 20
1.42573749E+02
  0
VERTEX
  8
0
 62
4
 10
-5.81500229E+01
 20
1.42229755E+02
  0
SEQEND
  8
0
  0
ARC
  8
0
 62
4
 10
1.79293436E+01
 20
6.67969916E+01
 40
1.04392782E+02
 50
1.32228766E+02
 51
1.34907157E+02
  0
ARC
  8
0
 62
4
 10
-1.25929166E+02
 20
6.67972269E+01
 40
1.04392457E+02
 50
4.50928385E+01
 51
4.77712376E+01
  0
POLYLINE
  8
0
 62
4
 66
1
  0
VERTEX
  8
0
 62
4
 10
-5.81500229E+01
 20
1.41685885E+02
  0
VERTEX
  8
0
 62
4
 10
-5.81333162E+01
 20
1.41332089E+02
  0
VERTEX
  8
0
 62
4
 10
-5.80833307E+01
 20
1.40981142E+02
  0
VERTEX
  8
0
 62
4
 10
-5.80004688E+01
 20
1.40635868E+02
  0
VERTEX
  8
0
 62
4
 10
-5.78853976E+01
 20
1.40299049E+02
  0
VERTEX
  8
0
 62
4
 10
-5.77390437E+01
 20
1.39973396E+02
  0
VERTEX
  8
0
 62
4
 10
-5.75625854E+01
 20
1.39661531E+02
  0
VERTEX
  8
0
 62
4
 10
-5.73574434E+01
 20
1.39365964E+02
  0
VERTEX
  8
0
 62
4
 10
-5.71252695E+01
 20
1.39089077E+02
  0
VERTEX
  8
0
 62
4
 10
-5.68679329E+01
 20
1.38833097E+02
  0
VERTEX
  8
0
 62
4
 10
-5.65875056E+01
 20
1.38600086E+02
  0
VERTEX
  8
0
 62
4
 10
-5.62862454E+01
 20
1.38391921E+02
  0
VERTEX
  8
0
 62
4
 10
-5.59665779E+01
 20
1.38210276E+02
  0
VERTEX
  8
0
 62
4
 10
-5.56310768E+01
 20
1.38056615E+02
  0
VERTEX
  8
0
 62
4
 10
-5.52824434E+01
 20
1.37932175E+02
  0
VERTEX
  8
0
 62
4
 10
-5.49234848E+01
 20
1.37837957E+02
  0
VERTEX
  8
0
 62
4
 10
-5.45570910E+01
 20
1.37774721E+02
  0
VERTEX
  8
0
 62
4
 10
-5.41862120E+01
 20
1.37742975E+02
  0
VERTEX
  8
0
 62
4
 10
-5.38138339E+01
 20
1.37742975E+02
  0
VERTEX
  8
0
 62
4
 10
-5.34429549E+01
 20
1.37774721E+02
  0
VERTEX
  8
0
 62
4
 10
-5.30765610E+01
 20
1.37837957E+02
  0
VERTEX
  8
0
 62
4
 10
-5.27176024E+01
 20
1.37932175E+02
  0
VERTEX
  8
0
 62
4
 10
-5.23689690E+01
 20
1.38056615E+02
  0
VERTEX
  8
0
 62
4
 10
-5.20334680E+01
 20
1.38210276E+02
  0
VERTEX
  8
0
 62
4
 10
-5.17138004E+01
 20
1.38391921E+02
  0
VERTEX
  8
0
 62
4
 10
-5.14125402E+01
 20
1.38600086E+02
  0
VERTEX
  8
0
 62
4
 10
-5.11321129E+01
 20
1.38833097E+02
  0
VERTEX
  8
0
 62
4
 10
-5.08747763E+01
 20
1.39089077E+02
  0
VERTEX
  8
0
 62
4
 10
-5.06426024E+01
 20
1.39365964E+02
  0
VERTEX
  8
0
 62
4
 10
-5.04374604E+01
 20
1.39661531E+02
  0
VERTEX
  8
0
 62
4
 10
-5.02610021E+01
 20
1.39973396E+02
  0
VERTEX
  8
0
 62
4
 10
-5.01146482E+01
 20
1.40299049E+02
  0
VERTEX
  8
0
 62
4
 10
-4.99995770E+01
 20
1.40635868E+02
  0
VERTEX
  8
0
 62
4
 10
-4.99167151E+01
 20
1.40981142E+02
  0
VERTEX
  8
0
 62
4
 10
-4.98667296E+01
 20
1.41332089E+02
  0
VERTEX
  8
0
 62
4
 10
-4.98500229E+01
 20
1.41685885E+02
  0
SEQEND
  8
0
  0
LINE
  8
0
 62
4
 10
-5.81500229E+01
 20
1.41685885E+02
 11
-5.81500229E+01
 21
1.42229755E+02
  0
LINE
  8
0
 62
4
 10
-4.98500229E+01
 20
1.41685885E+02
 11
-4.98500229E+01
 21
1.42229755E+02
  0
POLYLINE
  8
0
 62
4
 66
1
  0
VERTEX
  8
0
 62
4
 10
-5.03000229E+01
 20
1.44897156E+02
  0
VERTEX
  8
0
 62
4
 10
-5.02847252E+01
 20
1.44573198E+02
  0
VERTEX
  8
0
 62
4
 10
-5.02389554E+01
 20
1.44251849E+02
  0
VERTEX
  8
0
 62
4
 10
-5.01630818E+01
 20
1.43935695E+02
  0
VERTEX
  8
0
 62
4
 10
-5.00577154E+01
 20
1.43627282E+02
  0
VERTEX
  8
0
 62
4
 10
-4.99237046E+01
 20
1.43329094E+02
  0
VERTEX
  8
0
 62
4
 10
-4.97621283E+01
 20
1.43043530E+02
  0
VERTEX
  8
0
 62
4
 10
-4.95742875E+01
 20
1.42772891E+02
  0
VERTEX
  8
0
 62
4
 10
-4.93616945E+01
 20
1.42519356E+02
  0
VERTEX
  8
0
 62
4
 10
-4.91260610E+01
 20
1.42284965E+02
  0
VERTEX
  8
0
 62
4
 10
-4.88692842E+01
 20
1.42071605E+02
  0
VERTEX
  8
0
 62
4
 10
-4.85934315E+01
 20
1.41880996E+02
  0
VERTEX
  8
0
 62
4
 10
-4.83007238E+01
 20
1.41714671E+02
  0
VERTEX
  8
0
 62
4
 10
-4.79935180E+01
 20
1.41573969E+02
  0
VERTEX
  8
0
 62
4
 10
-4.76742875E+01
 20
1.41460024E+02
  0
VERTEX
  8
0
 62
4
 10
-4.73456025E+01
 20
1.41373752E+02
  0
VERTEX
  8
0
 62
4
 10
-4.70101093E+01
 20
1.41315849E+02
  0
VERTEX
  8
0
 62
4
 10
-4.66705093E+01
 20
1.41286780E+02
  0
VERTEX
  8
0
 62
4
 10
-4.63295366E+01
 20
1.41286780E+02
  0
VERTEX
  8
0
 62
4
 10
-4.59899365E+01
 20
1.41315849E+02
  0
VERTEX
  8
0
 62
4
 10
-4.56544434E+01
 20
1.41373752E+02
  0
VERTEX
  8
0
 62
4
 10
-4.53257583E+01
 20
1.41460024E+02
  0
VERTEX
  8
0
 62
4
 10
-4.50065278E+01
 20
1.41573969E+02
  0
VERTEX
  8
0
 62
4
 10
-4.46993220E+01
 20
1.41714671E+02
  0
VERTEX
  8
0
 62
4
 10
-4.44066144E+01
 20
1.41880996E+02
  0
VERTEX
  8
0
 62
4
 10
-4.41307617E+01
 20
1.42071605E+02
  0
VERTEX
  8
0
 62
4
 10
-4.38739848E+01
 20
1.42284965E+02
  0
VERTEX
  8
0
 62
4
 10
-4.36383513E+01
 20
1.42519356E+02
  0
VERTEX
  8
0
 62
4
 10
-4.34257583E+01
 20
1.42772891E+02
  0
VERTEX
  8
0
 62
4
 10
-4.32379175E+01
 20
1.43043530E+02
  0
VERTEX
  8
0
 62
4
 10
-4.30763412E+01
 20
1.43329094E+02
  0
VERTEX
  8
0
 62
4
 10
-4.29423304E+01
 20
1.43627282E+02
  0
VERTEX
  8
0
 62
4
 10
-4.28369640E+01
 20
1.43935695E+02
  0
VERTEX
  8
0
 62
4
 10
-4.27610904E+01
 20
1.44251849E+02
  0
VERTEX
  8
0
 62
4
 10
-4.27153206E+01
 20
1.44573198E+02
  0
VERTEX
  8
0
 62
4
 10
-4.27000229E+01
 20
1.44897156E+02
  0
SEQEND
  8
0
  0
POLYLINE
  8
0
 62
4
 66
1
  0
VERTEX
  8
0
 62
4
 10
-5.03000229E+01
 20
1.45206173E+02
  0
VERTEX
  8
0
 62
4
 10
-5.02855628E+01
 20
1.44891191E+02
  0
VERTEX
  8
0
 62
4
 10
-5.02422924E+01
 20
1.44578606E+02
  0
VERTEX
  8
0
 62
4
 10
-5.01705411E+01
 20
1.44270797E+02
  0
VERTEX
  8
0
 62
4
 10
-5.00708549E+01
 20
1.43970107E+02
  0
VERTEX
  8
0
 62
4
 10
-4.99439925E+01
 20
1.43678824E+02
  0
VERTEX
  8
0
 62
4
 10
-4.97909195E+01
 20
1.43399166E+02
  0
VERTEX
  8
0
 62
4
 10
-4.96128007E+01
 20
1.43133259E+02
  0
VERTEX
  8
0
 62
4
 10
-4.94109918E+01
 20
1.42883129E+02
  0
VERTEX
  8
0
 62
4
 10
-4.91870287E+01
 20
1.42650679E+02
  0
VERTEX
  8
0
 62
4
 10
-4.89426158E+01
 20
1.42437677E+02
  0
VERTEX
  8
0
 62
4
 10
-4.86796134E+01
 20
1.42245745E+02
  0
VERTEX
  8
0
 62
4
 10
-4.84000229E+01
 20
1.42076344E+02
  0
VERTEX
  8
0
 62
4
 10
-4.81059723E+01
 20
1.41930763E+02
  0
VERTEX
  8
0
 62
4
 10
-4.77996995E+01
 20
1.41810110E+02
  0
VERTEX
  8
0
 62
4
 10
-4.74835353E+01
 20
1.41715303E+02
  0
VERTEX
  8
0
 62
4
 10
-4.71598860E+01
 20
1.41647063E+02
  0
VERTEX
  8
0
 62
4
 10
-4.68312147E+01
 20
1.41605911E+02
  0
VERTEX
  8
0
 62
4
 10
-4.65000229E+01
 20
1.41592158E+02
  0
VERTEX
  8
0
 62
4
 10
-4.61688311E+01
 20
1.41605911E+02
  0
VERTEX
  8
0
 62
4
 10
-4.58401598E+01
 20
1.41647063E+02
  0
VERTEX
  8
0
 62
4
 10
-4.55165105E+01
 20
1.41715303E+02
  0
VERTEX
  8
0
 62
4
 10
-4.52003464E+01
 20
1.41810110E+02
  0
VERTEX
  8
0
 62
4
 10
-4.48940735E+01
 20
1.41930763E+02
  0
VERTEX
  8
0
 62
4
 10
-4.46000229E+01
 20
1.42076344E+02
  0
VERTEX
  8
0
 62
4
 10
-4.43204324E+01
 20
1.42245745E+02
  0
VERTEX
  8
0
 62
4
 10
-4.40574300E+01
 20
1.42437677E+02
  0
VERTEX
  8
0
 62
4
 10
-4.38130171E+01
 20
1.42650679E+02
  0
VERTEX
  8
0
 62
4
 10
-4.35890540E+01
 20
1.42883129E+02
  0
VERTEX
  8
0
 62
4
 10
-4.33872451E+01
 20
1.43133259E+02
  0
VERTEX
  8
0
 62
4
 10
-4.32091263E+01
 20
1.43399166E+02
  0
VERTEX
  8
0
 62
4
 10
-4.30560533E+01
 20
1.43678824E+02
  0
VERTEX
  8
0
 62
4
 10
-4.29291909E+01
 20
1.43970107E+02
  0
VERTEX
  8
0
 62
4
 10
-4.28295047E+01
 20
1.44270797E+02
  0
VERTEX
  8
0
 62
4
 10
-4.27577534E+01
 20
1.44578606E+02
  0
VERTEX
  8
0
 62
4
 10
-4.27144830E+01
 20
1.44891191E+02
  0
VERTEX
  8
0
 62
4
 10
-4.27000229E+01
 20
1.45206173E+02
  0
VERTEX
  8
0
 62
4
 10
-4.27144830E+01
 20
1.45521155E+02
  0
VERTEX
  8
0
 62
4
 10
-4.27577534E+01
 20
1.45833740E+02
  0
VERTEX
  8
0
 62
4
 10
-4.28295047E+01
 20
1.46141549E+02
  0
VERTEX
  8
0
 62
4
 10
-4.29291909E+01
 20
1.46442239E+02
  0
VERTEX
  8
0
 62
4
 10
-4.30560533E+01
 20
1.46733522E+02
  0
VERTEX
  8
0
 62
4
 10
-4.32091263E+01
 20
1.47013180E+02
  0
VERTEX
  8
0
 62
4
 10
-4.33872451E+01
 20
1.47279087E+02
  0
VERTEX
  8
0
 62
4
 10
-4.35890540E+01
 20
1.47529217E+02
  0
VERTEX
  8
0
 62
4
 10
-4.38130171E+01
 20
1.47761667E+02
  0
VERTEX
  8
0
 62
4
 10
-4.40574300E+01
 20
1.47974669E+02
  0
VERTEX
  8
0
 62
4
 10
-4.43204324E+01
 20
1.48166601E+02
  0
VERTEX
  8
0
 62
4
 10
-4.46000229E+01
 20
1.48336002E+02
  0
VERTEX
  8
0
 62
4
 10
-4.48940735E+01
 20
1.48481583E+02
  0
VERTEX
  8
0
 62
4
 10
-4.52003463E+01
 20
1.48602236E+02
  0
VERTEX
  8
0
 62
4
 10
-4.55165105E+01
 20
1.48697043E+02
  0
VERTEX
  8
0
 62
4
 10
-4.58401598E+01
 20
1.48765283E+02
  0
VERTEX
  8
0
 62
4
 10
-4.61688311E+01
 20
1.48806435E+02
  0
VERTEX
  8
0
 62
4
 10
-4.65000229E+01
 20
1.48820188E+02
  0
VERTEX
  8
0
 62
4
 10
-4.68312147E+01
 20
1.48806435E+02
  0
VERTEX
  8
0
 62
4
 10
-4.71598860E+01
 20
1.48765283E+02
  0
VERTEX
  8
0
 62
4
 10
-4.74835353E+01
 20
1.48697043E+02
  0
VERTEX
  8
0
 62
4
 10
-4.77996995E+01
 20
1.48602236E+02
  0
VERTEX
  8
0
 62
4
 10
-4.81059723E+01
 20
1.48481583E+02
  0
VERTEX
  8
0
 62
4
 10
-4.84000229E+01
 20
1.48336002E+02
  0
VERTEX
  8
0
 62
4
 10
-4.86796134E+01
 20
1.48166601E+02
  0
VERTEX
  8
0
 62
4
 10
-4.89426158E+01
 20
1.47974669E+02
  0
VERTEX
  8
0
 62
4
 10
-4.91870287E+01
 20
1.47761667E+02
  0
VERTEX
  8
0
 62
4
 10
-4.94109918E+01
 20
1.47529217E+02
  0
VERTEX
  8
0
 62
4
 10
-4.96128007E+01
 20
1.47279087E+02
  0
VERTEX
  8
0
 62
4
 10
-4.97909195E+01
 20
1.47013180E+02
  0
VERTEX
  8
0
 62
4
 10
-4.99439925E+01
 20
1.46733522E+02
  0
VERTEX
  8
0
 62
4
 10
-5.00708549E+01
 20
1.46442239E+02
  0
VERTEX
  8
0
 62
4
 10
-5.01705411E+01
 20
1.46141549E+02
  0
VERTEX
  8
0
 62
4
 10
-5.02422924E+01
 20
1.45833740E+02
  0
VERTEX
  8
0
 62
4
 10
-5.02855628E+01
 20
1.45521155E+02
  0
VERTEX
  8
0
 62
4
 10
-5.03000229E+01
 20
1.45206173E+02
  0
SEQEND
  8
0
  0
LINE
  8
0
 62
4
 10
-5.03000229E+01
 20
1.44897156E+02
 11
-5.03000229E+01
 21
1.45206173E+02
  0
LINE
  8
0
 62
4
 10
-4.27000229E+01
 20
1.44897156E+02
 11
-4.27000229E+01
 21
1.45206173E+02
  0
POLYLINE
  8
0
 62
4
 66
1
  0
VERTEX
  8
0
 62
4
 10
-4.99000229E+01
 20
1.45206173E+02
  0
VERTEX
  8
0
 62
4
 10
-4.98863355E+01
 20
1.44916316E+02
  0
VERTEX
  8
0
 62
4
 10
-4.98453835E+01
 20
1.44628793E+02
  0
VERTEX
  8
0
 62
4
 10
-4.97774967E+01
 20
1.44345918E+02
  0
VERTEX
  8
0
 62
4
 10
-4.96832215E+01
 20
1.44069970E+02
  0
VERTEX
  8
0
 62
4
 10
-4.95633171E+01
 20
1.43803170E+02
  0
VERTEX
  8
0
 62
4
 10
-4.94187488E+01
 20
1.43547666E+02
  0
VERTEX
  8
0
 62
4
 10
-4.92506807E+01
 20
1.43305515E+02
  0
VERTEX
  8
0
 62
4
 10
-4.90604659E+01
 20
1.43078668E+02
  0
VERTEX
  8
0
 62
4
 10
-4.88496359E+01
 20
1.42868949E+02
  0
VERTEX
  8
0
 62
4
 10
-4.86198883E+01
 20
1.42678049E+02
  0
VERTEX
  8
0
 62
4
 10
-4.83730727E+01
 20
1.42507503E+02
  0
VERTEX
  8
0
 62
4
 10
-4.81111764E+01
 20
1.42358686E+02
  0
VERTEX
  8
0
 62
4
 10
-4.78363080E+01
 20
1.42232795E+02
  0
VERTEX
  8
0
 62
4
 10
-4.75506807E+01
 20
1.42130844E+02
  0
VERTEX
  8
0
 62
4
 10
-4.72565941E+01
 20
1.42053654E+02
  0
VERTEX
  8
0
 62
4
 10
-4.69564160E+01
 20
1.42001846E+02
  0
VERTEX
  8
0
 62
4
 10
-4.66525633E+01
 20
1.41975837E+02
  0
VERTEX
  8
0
 62
4
 10
-4.63474825E+01
 20
1.41975837E+02
  0
VERTEX
  8
0
 62
4
 10
-4.60436298E+01
 20
1.42001846E+02
  0
VERTEX
  8
0
 62
4
 10
-4.57434517E+01
 20
1.42053654E+02
  0
VERTEX
  8
0
 62
4
 10
-4.54493651E+01
 20
1.42130844E+02
  0
VERTEX
  8
0
 62
4
 10
-4.51637378E+01
 20
1.42232795E+02
  0
VERTEX
  8
0
 62
4
 10
-4.48888695E+01
 20
1.42358686E+02
  0
VERTEX
  8
0
 62
4
 10
-4.46269732E+01
 20
1.42507503E+02
  0
VERTEX
  8
0
 62
4
 10
-4.43801576E+01
 20
1.42678049E+02
  0
VERTEX
  8
0
 62
4
 10
-4.41504099E+01
 20
1.42868949E+02
  0
VERTEX
  8
0
 62
4
 10
-4.39395799E+01
 20
1.43078667E+02
  0
VERTEX
  8
0
 62
4
 10
-4.37493651E+01
 20
1.43305515E+02
  0
VERTEX
  8
0
 62
4
 10
-4.35812970E+01
 20
1.43547666E+02
  0
VERTEX
  8
0
 62
4
 10
-4.34367287E+01
 20
1.43803170E+02
  0
VERTEX
  8
0
 62
4
 10
-4.33168243E+01
 20
1.44069970E+02
  0
VERTEX
  8
0
 62
4
 10
-4.32225492E+01
 20
1.44345918E+02
  0
VERTEX
  8
0
 62
4
 10
-4.31546623E+01
 20
1.44628793E+02
  0
VERTEX
  8
0
 62
4
 10
-4.31137103E+01
 20
1.44916316E+02
  0
VERTEX
  8
0
 62
4
 10
-4.31000229E+01
 20
1.45206173E+02
  0
SEQEND
  8
0
  0
LINE
  8
0
 62
4
 10
-4.31000229E+01
 20
1.45604554E+02
 11
-4.31000229E+01
 21
1.45206173E+02
  0
LINE
  8
0
 62
4
 10
-4.99000229E+01
 20
1.45206173E+02
 11
-4.99000229E+01
 21
1.45604554E+02
  0
POLYLINE
  8
0
 62
4
 66
1
  0
VERTEX
  8
0
 62
4
 10
-4.99000229E+01
 20
1.45604554E+02
  0
VERTEX
  8
0
 62
4
 10
-4.98870849E+01
 20
1.45322728E+02
  0
VERTEX
  8
0
 62
4
 10
-4.98483693E+01
 20
1.45043047E+02
  0
VERTEX
  8
0
 62
4
 10
-4.97841707E+01
 20
1.44767639E+02
  0
VERTEX
  8
0
 62
4
 10
-4.96949778E+01
 20
1.44498600E+02
  0
VERTEX
  8
0
 62
4
 10
-4.95814694E+01
 20
1.44237979E+02
  0
VERTEX
  8
0
 62
4
 10
-4.94445093E+01
 20
1.43987758E+02
  0
VERTEX
  8
0
 62
4
 10
-4.92851399E+01
 20
1.43749842E+02
  0
VERTEX
  8
0
 62
4
 10
-4.91045740E+01
 20
1.43526041E+02
  0
VERTEX
  8
0
 62
4
 10
-4.89041860E+01
 20
1.43318059E+02
  0
VERTEX
  8
0
 62
4
 10
-4.86855008E+01
 20
1.43127479E+02
  0
VERTEX
  8
0
 62
4
 10
-4.84501828E+01
 20
1.42955750E+02
  0
VERTEX
  8
0
 62
4
 10
-4.82000229E+01
 20
1.42804181E+02
  0
VERTEX
  8
0
 62
4
 10
-4.79369250E+01
 20
1.42673924E+02
  0
VERTEX
  8
0
 62
4
 10
-4.76628914E+01
 20
1.42565971E+02
  0
VERTEX
  8
0
 62
4
 10
-4.73800077E+01
 20
1.42481144E+02
  0
VERTEX
  8
0
 62
4
 10
-4.70904267E+01
 20
1.42420087E+02
  0
VERTEX
  8
0
 62
4
 10
-4.67963524E+01
 20
1.42383267E+02
  0
VERTEX
  8
0
 62
4
 10
-4.65000229E+01
 20
1.42370962E+02
  0
VERTEX
  8
0
 62
4
 10
-4.62036934E+01
 20
1.42383267E+02
  0
VERTEX
  8
0
 62
4
 10
-4.59096191E+01
 20
1.42420087E+02
  0
VERTEX
  8
0
 62
4
 10
-4.56200381E+01
 20
1.42481144E+02
  0
VERTEX
  8
0
 62
4
 10
-4.53371544E+01
 20
1.42565971E+02
  0
VERTEX
  8
0
 62
4
 10
-4.50631208E+01
 20
1.42673924E+02
  0
VERTEX
  8
0
 62
4
 10
-4.48000229E+01
 20
1.42804181E+02
  0
VERTEX
  8
0
 62
4
 10
-4.45498630E+01
 20
1.42955750E+02
  0
VERTEX
  8
0
 62
4
 10
-4.43145450E+01
 20
1.43127479E+02
  0
VERTEX
  8
0
 62
4
 10
-4.40958598E+01
 20
1.43318059E+02
  0
VERTEX
  8
0
 62
4
 10
-4.38954718E+01
 20
1.43526041E+02
  0
VERTEX
  8
0
 62
4
 10
-4.37149059E+01
 20
1.43749842E+02
  0
VERTEX
  8
0
 62
4
 10
-4.35555365E+01
 20
1.43987758E+02
  0
VERTEX
  8
0
 62
4
 10
-4.34185764E+01
 20
1.44237979E+02
  0
VERTEX
  8
0
 62
4
 10
-4.33050680E+01
 20
1.44498600E+02
  0
VERTEX
  8
0
 62
4
 10
-4.32158751E+01
 20
1.44767639E+02
  0
VERTEX
  8
0
 62
4
 10
-4.31516765E+01
 20
1.45043047E+02
  0
VERTEX
  8
0
 62
4
 10
-4.31129609E+01
 20
1.45322728E+02
  0
VERTEX
  8
0
 62
4
 10
-4.31000229E+01
 20
1.45604554E+02
  0
VERTEX
  8
0
 62
4
 10
-4.31129609E+01
 20
1.45886380E+02
  0
VERTEX
  8
0
 62
4
 10
-4.31516765E+01
 20
1.46166061E+02
  0
VERTEX
  8
0
 62
4
 10
-4.32158751E+01
 20
1.46441469E+02
  0
VERTEX
  8
0
 62
4
 10
-4.33050680E+01
 20
1.46710508E+02
  0
VERTEX
  8
0
 62
4
 10
-4.34185764E+01
 20
1.46971129E+02
  0
VERTEX
  8
0
 62
4
 10
-4.35555365E+01
 20
1.47221350E+02
  0
VERTEX
  8
0
 62
4
 10
-4.37149059E+01
 20
1.47459266E+02
  0
VERTEX
  8
0
 62
4
 10
-4.38954718E+01
 20
1.47683067E+02
  0
VERTEX
  8
0
 62
4
 10
-4.40958598E+01
 20
1.47891049E+02
  0
VERTEX
  8
0
 62
4
 10
-4.43145450E+01
 20
1.48081629E+02
  0
VERTEX
  8
0
 62
4
 10
-4.45498630E+01
 20
1.48253358E+02
  0
VERTEX
  8
0
 62
4
 10
-4.48000229E+01
 20
1.48404927E+02
  0
VERTEX
  8
0
 62
4
 10
-4.50631208E+01
 20
1.48535184E+02
  0
VERTEX
  8
0
 62
4
 10
-4.53371544E+01
 20
1.48643137E+02
  0
VERTEX
  8
0
 62
4
 10
-4.56200381E+01
 20
1.48727964E+02
  0
VERTEX
  8
0
 62
4
 10
-4.59096191E+01
 20
1.48789021E+02
  0
VERTEX
  8
0
 62
4
 10
-4.62036934E+01
 20
1.48825841E+02
  0
VERTEX
  8
0
 62
4
 10
-4.65000229E+01
 20
1.48838146E+02
  0
VERTEX
  8
0
 62
4
 10
-4.67963524E+01
 20
1.48825841E+02
  0
VERTEX
  8
0
 62
4
 10
-4.70904267E+01
 20
1.48789021E+02
  0
VERTEX
  8
0
 62
4
 10
-4.73800077E+01
 20
1.48727964E+02
  0
VERTEX
  8
0
 62
4
 10
-4.76628914E+01
 20
1.48643137E+02
  0
VERTEX
  8
0
 62
4
 10
-4.79369250E+01
 20
1.48535184E+02
  0
VERTEX
  8
0
 62
4
 10
-4.82000229E+01
 20
1.48404927E+02
  0
VERTEX
  8
0
 62
4
 10
-4.84501828E+01
 20
1.48253358E+02
  0
VERTEX
  8
0
 62
4
 10
-4.86855008E+01
 20
1.48081629E+02
  0
VERTEX
  8
0
 62
4
 10
-4.89041860E+01
 20
1.47891049E+02
  0
VERTEX
  8
0
 62
4
 10
-4.91045740E+01
 20
1.47683067E+02
  0
VERTEX
  8
0
 62
4
 10
-4.92851399E+01
 20
1.47459266E+02
  0
VERTEX
  8
0
 62
4
 10
-4.94445093E+01
 20
1.47221350E+02
  0
VERTEX
  8
0
 62
4
 10
-4.95814694E+01
 20
1.46971129E+02
  0
VERTEX
  8
0
 62
4
 10
-4.96949778E+01
 20
1.46710508E+02
  0
VERTEX
  8
0
 62
4
 10
-4.97841707E+01
 20
1.46441469E+02
  0
VERTEX
  8
0
 62
4
 10
-4.98483693E+01
 20
1.46166061E+02
  0
VERTEX
  8
0
 62
4
 10
-4.98870849E+01
 20
1.45886380E+02
  0
VERTEX
  8
0
 62
4
 10
-4.99000229E+01
 20
1.45604554E+02
  0
SEQEND
  8
0
  0
ARC
  8
0
 62
4
 10
2.23144965E+01
 20
7.35510128E+01
 40
9.98837386E+01
 50
1.32163454E+02
 51
1.34962547E+02
  0
ARC
  8
0
 62
4
 10
-1.15314542E+02
 20
7.35510128E+01
 40
9.98837386E+01
 50
4.50374523E+01
 51
4.78365464E+01
  0
LINE
  8
0
 62
4
 10
-5.07053906E+01
 20
1.39285923E+02
 11
-3.90000229E+01
 21
1.39285923E+02
  0
LINE
  8
0
 62
4
 10
-5.10897199E+01
 20
1.38872198E+02
 11
-4.55000229E+01
 21
1.38872198E+02
  0
LINE
  8
0
 62
7
 10
-1.00000381E+01
 20
1.34499992E+02
 11
-8.00000229E+01
 21
1.34499992E+02
  0
LINE
  8
0
 62
7
 10
-1.00000381E+01
 20
1.32100014E+02
 11
-8.00000229E+01
 21
1.32100014E+02
  0
LINE
  8
0
 62
7
 10
-1.00000381E+01
 20
1.24899971E+02
 11
-8.00000229E+01
 21
1.24899971E+02
  0
LINE
  8
0
 62
4
 10
2.14999924E+01
 20
1.37775934E+02
 11
2.14999924E+01
 21
1.34921867E+02
  0
LINE
  8
0
 62
4
 10
1.99999924E+01
 20
1.38872198E+02
 11
2.14999924E+01
 21
1.37775934E+02
  0
LINE
  8
0
 62
4
 10
1.99999619E+01
 20
1.37636130E+02
 11
2.14999924E+01
 21
1.37076010E+02
  0
LINE
  8
0
 62
4
 10
2.14999924E+01
 20
1.34921867E+02
 11
1.99999619E+01
 21
1.33831882E+02
  0
LINE
  8
0
 62
7
 10
-3.61048376E+02
 20
1.38500008E+02
 11
-3.42951670E+02
 21
1.38500008E+02
  0
LINE
  8
0
 62
7
 10
-3.19968722E+02
 20
1.38500008E+02
 11
-3.18500008E+02
 21
1.38500008E+02
  0
LINE
  8
0
 62
7
 10
-3.14000008E+02
 20
1.23778837E+02
 11
-3.14000008E+02
 21
1.34000008E+02
  0
LINE
  8
0
 62
7
 10
-3.90000015E+02
 20
1.23778844E+02
 11
-3.90000015E+02
 21
1.34000008E+02
  0
ARC
  8
0
 62
7
 10
-3.85500015E+02
 20
6.70000000E+01
 40
4.50000000E+00
 50
1.80000000E+02
 51
2.70000000E+02
  0
ARC
  8
0
 62
7
 10
-3.18500008E+02
 20
6.70000000E+01
 40
4.50000000E+00
 50
2.70000000E+02
 51
0.00000000E+00
  0
ARC
  8
0
 62
7
 10
-3.85500015E+02
 20
1.34000008E+02
 40
4.50000000E+00
 50
9.00000002E+01
 51
1.80000000E+02
  0
LINE
  8
0
 62
7
 10
-3.85500015E+02
 20
1.38500008E+02
 11
-3.84031324E+02
 21
1.38500008E+02
  0
LINE
  8
0
 62
7
 10
-3.90000015E+02
 20
6.70000000E+01
 11
-3.90000015E+02
 21
1.21308949E+02
  0
LINE
  8
0
 62
7
 10
-3.85500015E+02
 20
6.25000000E+01
 11
-3.18500008E+02
 21
6.25000000E+01
  0
LINE
  8
0
 62
7
 10
-3.14000008E+02
 20
6.70000000E+01
 11
-3.14000008E+02
 21
1.21309020E+02
  0
ARC
  8
0
 62
7
 10
-3.18500008E+02
 20
1.34000008E+02
 40
4.50000000E+00
 50
0.00000000E+00
 51
9.00000002E+01
  0
LINE
  8
0
 62
7
 10
-3.85500069E+02
 20
1.37500038E+02
 11
-3.18500038E+02
 21
1.37500038E+02
  0
LINE
  8
0
 62
7
 10
-3.65364292E+02
 20
1.15278107E+02
 11
-3.72726161E+02
 21
1.22639976E+02
  0
LINE
  8
0
 62
7
 10
-3.66778681E+02
 20
8.71362344E+01
 11
-3.74140518E+02
 21
7.97743980E+01
  0
LINE
  8
0
 62
7
 10
-3.53000038E+02
 20
1.34000023E+02
 11
-3.53000038E+02
 21
1.20399757E+02
  0
LINE
  8
0
 62
7
 10
-3.85500069E+02
 20
9.94999695E+01
 11
-3.71899818E+02
 21
9.94999695E+01
  0
LINE
  8
0
 62
7
 10
-3.65364402E+02
 20
8.57219992E+01
 11
-3.72726261E+02
 21
7.83601411E+01
  0
LINE
  8
0
 62
7
 10
-3.66778516E+02
 20
1.13863883E+02
 11
-3.74140342E+02
 21
1.21225708E+02
  0
LINE
  8
0
 62
7
 10
-3.50999977E+02
 20
1.34000038E+02
 11
-3.50999977E+02
 21
1.20399757E+02
  0
LINE
  8
0
 62
7
 10
-3.88999947E+02
 20
6.69999771E+01
 11
-3.88999947E+02
 21
1.34000023E+02
  0
LINE
  8
0
 62
7
 10
-3.86500008E+02
 20
8.74998779E+01
 11
-3.86500008E+02
 21
1.13500069E+02
  0
LINE
  8
0
 62
7
 10
-3.85499977E+02
 20
1.01499962E+02
 11
-3.71899818E+02
 21
1.01499962E+02
  0
LINE
  8
0
 62
7
 10
-3.53000038E+02
 20
6.69999771E+01
 11
-3.53000038E+02
 21
8.06002579E+01
  0
LINE
  8
0
 62
7
 10
-3.89500008E+02
 20
6.69999771E+01
 11
-3.89500008E+02
 21
1.34000023E+02
  0
LINE
  8
0
 62
7
 10
-3.85499977E+02
 20
6.30000038E+01
 11
-3.18500038E+02
 21
6.30000038E+01
  0
LINE
  8
0
  6
CENTER
 62
2
 10
-3.80000038E+02
 20
6.10016251E+01
 11
-3.80000038E+02
 21
8.35345917E+01
  0
LINE
  8
0
  6
CENTER
 62
2
 10
-3.79999947E+02
 20
1.17270416E+02
 11
-3.79999947E+02
 21
1.40057991E+02
  0
LINE
  8
0
  6
CENTER
 62
2
 10
-3.52000008E+02
 20
1.41967552E+02
 11
-3.52000008E+02
 21
5.94739647E+01
  0
LINE
  8
0
 62
7
 10
-3.38636164E+02
 20
1.15278700E+02
 11
-3.31274337E+02
 21
1.22640524E+02
  0
LINE
  8
0
 62
7
 10
-3.37221951E+02
 20
1.13864486E+02
 11
-3.29860091E+02
 21
1.21226343E+02
  0
LINE
  8
0
 62
7
 10
-3.17500008E+02
 20
8.74998779E+01
 11
-3.17500008E+02
 21
1.13500069E+02
  0
LINE
  8
0
 62
7
 10
-3.18500038E+02
 20
1.01499985E+02
 11
-3.32100288E+02
 21
1.01499985E+02
  0
LINE
  8
0
 62
7
 10
-3.14500008E+02
 20
6.70000000E+01
 11
-3.14500008E+02
 21
1.34000038E+02
  0
LINE
  8
0
  6
CENTER
 62
2
 10
-3.23999886E+02
 20
1.40185295E+02
 11
-3.23999886E+02
 21
1.17270416E+02
  0
LINE
  8
0
  6
CENTER
 62
2
 10
-3.11960243E+02
 20
1.00500000E+02
 11
-3.94477730E+02
 21
1.00500000E+02
  0
LINE
  8
0
  6
CENTER
 62
2
 10
-3.59999977E+02
 20
1.40185295E+02
 11
-3.59999977E+02
 21
1.14218903E+02
  0
LINE
  8
0
  6
CENTER
 62
2
 10
-3.92045082E+02
 20
1.28500076E+02
 11
-3.69893990E+02
 21
1.28500076E+02
  0
LINE
  8
0
 62
7
 10
-3.51000069E+02
 20
6.70000000E+01
 11
-3.51000069E+02
 21
8.06002579E+01
  0
LINE
  8
0
 62
7
 10
-3.37221759E+02
 20
8.71358189E+01
 11
-3.29859934E+02
 21
7.97739920E+01
  0
LINE
  8
0
 62
7
 10
-3.38636005E+02
 20
8.57214868E+01
 11
-3.31274180E+02
 21
7.83596599E+01
  0
LINE
  8
0
 62
7
 10
-3.85499977E+02
 20
6.34999962E+01
 11
-3.18500038E+02
 21
6.34999962E+01
  0
LINE
  8
0
 62
7
 10
-3.14999977E+02
 20
6.70000000E+01
 11
-3.14999977E+02
 21
1.34000038E+02
  0
LINE
  8
0
 62
7
 10
-3.65000130E+02
 20
6.59999924E+01
 11
-3.38999886E+02
 21
6.59999924E+01
  0
LINE
  8
0
 62
7
 10
-3.18500038E+02
 20
9.94999924E+01
 11
-3.32100288E+02
 21
9.94999924E+01
  0
LINE
  8
0
  6
CENTER
 62
2
 10
-3.11970314E+02
 20
7.24999695E+01
 11
-3.34503273E+02
 21
7.24999695E+01
  0
LINE
  8
0
 62
7
 10
-3.76999947E+02
 20
1.38000053E+02
 11
-3.76999947E+02
 21
1.37500038E+02
  0
LINE
  8
0
 62
7
 10
-3.26999977E+02
 20
1.38000053E+02
 11
-3.26999977E+02
 21
1.37500038E+02
  0
LINE
  8
0
 62
7
 10
-3.76999947E+02
 20
6.35000076E+01
 11
-3.76999947E+02
 21
6.30000038E+01
  0
LINE
  8
0
 62
7
 10
-3.26999977E+02
 20
6.35000076E+01
 11
-3.26999977E+02
 21
6.30000038E+01
  0
LINE
  8
0
 62
7
 10
-3.65000038E+02
 20
1.35000023E+02
 11
-3.38999886E+02
 21
1.35000023E+02
  0
LINE
  8
0
 62
7
 10
-3.85500069E+02
 20
1.38000053E+02
 11
-3.18500038E+02
 21
1.38000053E+02
  0
LINE
  8
0
 62
7
 10
-3.69500038E+02
 20
1.30500206E+02
 11
-3.70763649E+02
 21
1.30500206E+02
  0
LINE
  8
0
 62
7
 10
-3.82000191E+02
 20
1.18000069E+02
 11
-3.82000191E+02
 21
1.19263664E+02
  0
LINE
  8
0
 62
7
 10
-3.34499886E+02
 20
1.30500252E+02
 11
-3.33236458E+02
 21
1.30500252E+02
  0
LINE
  8
0
 62
7
 10
-3.21999825E+02
 20
1.18000069E+02
 11
-3.21999825E+02
 21
1.19263802E+02
  0
LINE
  8
0
 62
7
 10
-3.34499886E+02
 20
7.04998093E+01
 11
-3.33236183E+02
 21
7.04998093E+01
  0
LINE
  8
0
 62
7
 10
-3.21999825E+02
 20
8.29998779E+01
 11
-3.21999825E+02
 21
8.17363281E+01
  0
LINE
  8
0
 62
7
 10
-3.82000191E+02
 20
8.29998779E+01
 11
-3.82000191E+02
 21
8.17364731E+01
  0
LINE
  8
0
 62
7
 10
-3.69500130E+02
 20
7.04997940E+01
 11
-3.70763649E+02
 21
7.04997940E+01
  0
LINE
  8
0
  6
CENTER
 62
2
 10
-3.69766640E+02
 20
7.24999695E+01
 11
-3.92045082E+02
 21
7.24999695E+01
  0
LINE
  8
0
  6
CENTER
 62
2
 10
-3.34630531E+02
 20
1.28500076E+02
 11
-3.12097572E+02
 21
1.28500076E+02
  0
LINE
  8
0
  6
CENTER
 62
2
 10
-3.40000008E+02
 20
1.40214226E+02
 11
-3.40000008E+02
 21
1.10494484E+02
  0
LINE
  8
0
  6
CENTER
 62
2
 10
-3.23999977E+02
 20
8.25604858E+01
 11
-3.23999977E+02
 21
6.10041084E+01
  0
CIRCLE
  8
0
 62
7
 10
-3.79999947E+02
 20
1.28500076E+02
 40
6.50000095E+00
  0
ARC
  8
0
 62
7
 10
-3.74847267E+02
 20
1.20518875E+02
 40
1.00000000E+00
 50
4.49999910E+01
 51
1.22846171E+02
  0
ARC
  8
0
 62
7
 10
-3.72018837E+02
 20
1.23347282E+02
 40
1.00000000E+00
 50
1.47153243E+02
 51
2.24999955E+02
  0
CIRCLE
  8
0
 62
7
 10
-3.79999947E+02
 20
7.24999695E+01
 40
6.50000095E+00
  0
ARC
  8
0
 62
7
 10
-3.67485512E+02
 20
1.13157028E+02
 40
1.00000000E+00
 50
3.20738994E+02
 51
4.49999910E+01
  0
ARC
  8
0
 62
7
 10
-3.64656990E+02
 20
1.15985458E+02
 40
1.00000000E+00
 50
2.24999972E+02
 51
3.09260983E+02
  0
ARC
  8
0
 62
7
 10
-3.53999977E+02
 20
1.20399742E+02
 40
1.00000000E+00
 50
2.75739453E+02
 51
3.59999959E+02
  0
ARC
  8
0
 62
7
 10
-3.71899727E+02
 20
9.85000076E+01
 40
1.00000000E+00
 50
5.73948995E+00
 51
9.00000369E+01
  0
ARC
  8
0
 62
7
 10
-3.85499977E+02
 20
9.85000076E+01
 40
1.00000000E+00
 50
9.00000369E+01
 51
1.80000019E+02
  0
ARC
  8
0
 62
7
 10
-3.23999886E+02
 20
1.28500031E+02
 40
8.50000000E+00
 50
1.73823315E+02
 51
2.76176459E+02
  0
ARC
  8
0
 62
7
 10
-3.67485512E+02
 20
8.78429642E+01
 40
1.00000000E+00
 50
3.14999968E+02
 51
3.92609655E+01
  0
ARC
  8
0
 62
7
 10
-3.64656990E+02
 20
8.50145187E+01
 40
1.00000000E+00
 50
5.07389892E+01
 51
1.34999987E+02
  0
ARC
  8
0
 62
7
 10
-3.72018837E+02
 20
7.76526947E+01
 40
1.00000000E+00
 50
1.34999987E+02
 51
2.12846166E+02
  0
ARC
  8
0
 62
7
 10
-3.74847267E+02
 20
8.04811172E+01
 40
1.00000000E+00
 50
2.37153256E+02
 51
3.14999968E+02
  0
ARC
  8
0
 62
7
 10
-3.85499977E+02
 20
1.34000023E+02
 40
3.50000024E+00
 50
9.00000231E+01
 51
1.79999977E+02
  0
ARC
  8
0
 62
7
 10
-3.53999977E+02
 20
1.34000023E+02
 40
1.00000000E+00
 50
3.59999959E+02
 51
8.99999956E+01
  0
ARC
  8
0
 62
7
 10
-3.49999947E+02
 20
1.20399742E+02
 40
1.00000000E+00
 50
1.79999964E+02
 51
2.64260484E+02
  0
ARC
  8
0
 62
7
 10
-3.49999947E+02
 20
1.34000023E+02
 40
1.00000000E+00
 50
8.99999818E+01
 51
1.79999964E+02
  0
ARC
  8
0
 62
7
 10
-3.85499886E+02
 20
6.69999657E+01
 40
3.50000024E+00
 50
1.80000036E+02
 51
2.69999991E+02
  0
ARC
  8
0
 62
7
 10
-3.85499886E+02
 20
1.02499992E+02
 40
1.00000000E+00
 50
1.80000008E+02
 51
2.70000045E+02
  0
ARC
  8
0
 62
7
 10
-3.71899727E+02
 20
1.02499992E+02
 40
1.00000000E+00
 50
2.70000045E+02
 51
3.54260551E+02
  0
ARC
  8
0
 62
7
 10
-3.53999977E+02
 20
8.06002502E+01
 40
1.00000000E+00
 50
3.59999973E+02
 51
8.42604992E+01
  0
ARC
  8
0
 62
7
 10
-3.53999977E+02
 20
6.69999657E+01
 40
1.00000000E+00
 50
2.69999991E+02
 51
3.59999973E+02
  0
ARC
  8
0
 62
7
 10
-3.85499977E+02
 20
1.34000023E+02
 40
4.00000000E+00
 50
9.00000231E+01
 51
1.79999977E+02
  0
ARC
  8
0
 62
7
 10
-3.85499886E+02
 20
6.69999657E+01
 40
4.00000000E+00
 50
1.80000036E+02
 51
2.69999991E+02
  0
CIRCLE
  8
0
 62
7
 10
-3.79999947E+02
 20
7.24999695E+01
 40
6.00000048E+00
  0
CIRCLE
  8
0
 62
2
 10
-3.23999886E+02
 20
1.28500076E+02
 40
4.00000000E+00
  0
CIRCLE
  8
0
 62
7
 10
-3.79999947E+02
 20
1.28500076E+02
 40
6.00000048E+00
  0
CIRCLE
  8
0
 62
7
 10
-3.23999886E+02
 20
1.28500031E+02
 40
6.50000095E+00
  0
ARC
  8
0
 62
7
 10
-3.36514503E+02
 20
1.13157043E+02
 40
1.00000000E+00
 50
1.34999959E+02
 51
2.19260957E+02
  0
ARC
  8
0
 62
7
 10
-3.39342934E+02
 20
1.15985481E+02
 40
1.00000000E+00
 50
2.30738998E+02
 51
3.14999995E+02
  0
ARC
  8
0
 62
7
 10
-3.31981178E+02
 20
1.23347305E+02
 40
1.00000000E+00
 50
3.14999995E+02
 51
3.28461612E+01
  0
ARC
  8
0
 62
7
 10
-3.29152657E+02
 20
1.20518875E+02
 40
1.00000000E+00
 50
5.71532472E+01
 51
1.34999959E+02
  0
ARC
  8
0
 62
7
 10
-3.18500038E+02
 20
1.34000023E+02
 40
3.50000024E+00
 50
0.00000000E+00
 51
8.99999818E+01
  0
ARC
  8
0
 62
7
 10
-3.18500038E+02
 20
1.02499992E+02
 40
1.00000000E+00
 50
2.69999963E+02
 51
0.00000000E+00
  0
ARC
  8
0
 62
7
 10
-3.32100288E+02
 20
1.02499992E+02
 40
1.00000000E+00
 50
1.85739458E+02
 51
2.69999963E+02
  0
ARC
  8
0
 62
7
 10
-3.18500038E+02
 20
1.34000023E+02
 40
4.00000000E+00
 50
0.00000000E+00
 51
8.99999818E+01
  0
CIRCLE
  8
0
 62
7
 10
-3.23999886E+02
 20
1.28500031E+02
 40
6.00000048E+00
  0
ARC
  8
0
 62
7
 10
-3.34499886E+02
 20
1.34000160E+02
 40
3.50000024E+00
 50
1.80001511E+02
 51
2.70000018E+02
  0
ARC
  8
0
 62
7
 10
-3.38999886E+02
 20
1.34000023E+02
 40
1.00000000E+00
 50
1.77584919E-03
 51
8.99999549E+01
  0
ARC
  8
0
 62
7
 10
-3.33444832E+02
 20
1.29522171E+02
 40
1.00000000E+00
 50
3.53822790E+02
 51
8.43256382E+01
  0
ARC
  8
0
 62
7
 10
-3.18499855E+02
 20
1.18000053E+02
 40
3.50000024E+00
 50
1.79999977E+02
 51
2.69999017E+02
  0
ARC
  8
0
 62
7
 10
-3.22977882E+02
 20
1.19055176E+02
 40
1.00000000E+00
 50
5.67452116E+00
 51
9.61763036E+01
  0
ARC
  8
0
 62
7
 10
-3.18500038E+02
 20
1.13500053E+02
 40
1.00000000E+00
 50
3.59999986E+02
 51
8.99982469E+01
  0
ARC
  8
0
 62
7
 10
-3.85499977E+02
 20
8.74998779E+01
 40
1.00000000E+00
 50
1.80000036E+02
 51
2.69998235E+02
  0
ARC
  8
0
 62
7
 10
-3.85500069E+02
 20
8.29998703E+01
 40
3.50000024E+00
 50
0.00000000E+00
 51
8.99984996E+01
  0
ARC
  8
0
 62
7
 10
-3.81022133E+02
 20
8.19448013E+01
 40
1.00000000E+00
 50
1.85674380E+02
 51
2.76177221E+02
  0
ARC
  8
0
 62
7
 10
-3.79999947E+02
 20
7.24999237E+01
 40
8.50000000E+00
 50
3.53823551E+02
 51
9.61766726E+01
  0
ARC
  8
0
 62
7
 10
-3.70555183E+02
 20
1.29522171E+02
 40
1.00000000E+00
 50
9.56745100E+01
 51
1.86176313E+02
  0
ARC
  8
0
 62
7
 10
-3.69500038E+02
 20
1.34000114E+02
 40
3.50000024E+00
 50
2.70000018E+02
 51
3.59999001E+02
  0
ARC
  8
0
 62
7
 10
-3.65000038E+02
 20
1.34000023E+02
 40
1.00000000E+00
 50
8.99999818E+01
 51
1.79998270E+02
  0
ARC
  8
0
 62
7
 10
-3.65000130E+02
 20
6.69999657E+01
 40
1.00000000E+00
 50
1.80001785E+02
 51
2.69999963E+02
  0
ARC
  8
0
 62
7
 10
-3.69500130E+02
 20
6.69998512E+01
 40
3.50000024E+00
 50
1.49581143E-03
 51
8.99999818E+01
  0
ARC
  8
0
 62
7
 10
-3.70555275E+02
 20
7.14778061E+01
 40
1.00000000E+00
 50
1.73822768E+02
 51
2.64325616E+02
  0
ARC
  8
0
 62
7
 10
-3.79999947E+02
 20
1.28500031E+02
 40
8.50000000E+00
 50
2.63823553E+02
 51
6.17667669E+00
  0
ARC
  8
0
 62
7
 10
-3.81022133E+02
 20
1.19055176E+02
 40
1.00000000E+00
 50
8.38236876E+01
 51
1.74325470E+02
  0
ARC
  8
0
 62
7
 10
-3.85500069E+02
 20
1.18000053E+02
 40
3.50000024E+00
 50
2.70001002E+02
 51
0.00000000E+00
  0
ARC
  8
0
 62
7
 10
-3.85499977E+02
 20
1.13500053E+02
 40
1.00000000E+00
 50
9.00017305E+01
 51
1.80000005E+02
  0
ARC
  8
0
 62
7
 10
-3.34499977E+02
 20
6.69998856E+01
 40
3.50000024E+00
 50
8.99999818E+01
 51
1.79998994E+02
  0
ARC
  8
0
 62
7
 10
-3.38999886E+02
 20
6.69999657E+01
 40
1.00000000E+00
 50
2.70000018E+02
 51
3.59998251E+02
  0
ARC
  8
0
 62
7
 10
-3.49999947E+02
 20
6.70000000E+01
 40
1.00000000E+00
 50
1.79999951E+02
 51
2.70000001E+02
  0
ARC
  8
0
 62
7
 10
-3.49999947E+02
 20
8.06002502E+01
 40
1.00000000E+00
 50
9.57394445E+01
 51
1.79999951E+02
  0
CIRCLE
  8
0
 62
7
 10
-3.52000008E+02
 20
1.00500000E+02
 40
1.75294495E+01
  0
CIRCLE
  8
0
 62
7
 10
-3.52000008E+02
 20
1.00500000E+02
 40
1.90000000E+01
  0
CIRCLE
  8
0
 62
7
 10
-3.23999977E+02
 20
7.24999237E+01
 40
6.50000095E+00
  0
ARC
  8
0
 62
7
 10
-3.39342934E+02
 20
8.50145416E+01
 40
1.00000000E+00
 50
4.49999637E+01
 51
1.29260961E+02
  0
ARC
  8
0
 62
7
 10
-3.36514503E+02
 20
8.78429718E+01
 40
1.00000000E+00
 50
1.40738985E+02
 51
2.24999982E+02
  0
ARC
  8
0
 62
7
 10
-3.29152657E+02
 20
8.04811401E+01
 40
1.00000000E+00
 50
2.25000000E+02
 51
3.02846179E+02
  0
ARC
  8
0
 62
7
 10
-3.31981178E+02
 20
7.76527100E+01
 40
1.00000000E+00
 50
3.27153252E+02
 51
4.49999637E+01
  0
ARC
  8
0
 62
7
 10
-3.18500038E+02
 20
6.70000000E+01
 40
3.50000024E+00
 50
2.70000018E+02
 51
3.59999986E+02
  0
ARC
  8
0
 62
7
 10
-3.32100288E+02
 20
9.85000076E+01
 40
1.00000000E+00
 50
8.99999681E+01
 51
1.74260502E+02
  0
ARC
  8
0
 62
7
 10
-3.18500038E+02
 20
9.85000076E+01
 40
1.00000000E+00
 50
3.59999986E+02
 51
8.99999681E+01
  0
ARC
  8
0
 62
7
 10
-3.18500038E+02
 20
6.70000000E+01
 40
4.00000000E+00
 50
2.70000018E+02
 51
3.59999986E+02
  0
CIRCLE
  8
0
 62
7
 10
-3.23999977E+02
 20
7.24999237E+01
 40
6.00000048E+00
  0
CIRCLE
  8
0
 62
2
 10
-3.79999947E+02
 20
1.28500076E+02
 40
4.00000000E+00
  0
CIRCLE
  8
0
 62
7
 10
-3.52000008E+02
 20
1.00500000E+02
 40
1.70000000E+01
  0
ARC
  8
0
 62
7
 10
-3.18500038E+02
 20
8.74998779E+01
 40
1.00000000E+00
 50
2.70001780E+02
 51
3.59999959E+02
  0
ARC
  8
0
 62
7
 10
-3.18499855E+02
 20
8.29998703E+01
 40
3.50000024E+00
 50
9.00014916E+01
 51
1.79999964E+02
  0
ARC
  8
0
 62
7
 10
-3.22977882E+02
 20
8.19448013E+01
 40
1.00000000E+00
 50
2.63822795E+02
 51
3.54325643E+02
  0
ARC
  8
0
 62
7
 10
-3.23999977E+02
 20
7.24999237E+01
 40
8.50000000E+00
 50
8.38233192E+01
 51
1.86176449E+02
  0
ARC
  8
0
 62
7
 10
-3.33444832E+02
 20
7.14778061E+01
 40
1.00000000E+00
 50
2.75674525E+02
 51
6.17630782E+00
  0
CIRCLE
  8
0
 62
2
 10
-3.80000038E+02
 20
7.24999695E+01
 40
4.00000000E+00
  0
CIRCLE
  8
0
 62
7
 10
-3.80000038E+02
 20
7.24999695E+01
 40
3.32000041E+00
  0
CIRCLE
  8
0
 62
7
 10
-3.79999947E+02
 20
1.28500076E+02
 40
3.32000041E+00
  0
CIRCLE
  8
0
 62
7
 10
-3.23999886E+02
 20
1.28500076E+02
 40
3.32000041E+00
  0
CIRCLE
  8
0
 62
7
 10
-3.23999977E+02
 20
7.24999695E+01
 40
3.32000041E+00
  0
CIRCLE
  8
0
 62
2
 10
-3.23999977E+02
 20
7.24999695E+01
 40
4.00000000E+00
  0
CIRCLE
  8
0
 62
7
 10
-3.52000008E+02
 20
1.00500000E+02
 40
8.99999237E+00
  0
CIRCLE
  8
0
 62
2
 10
-3.52000008E+02
 20
1.00500000E+02
 40
8.18000031E+00
  0
CIRCLE
  8
0
 62
7
 10
-3.52000008E+02
 20
1.00500000E+02
 40
7.49999237E+00
  0
LINE
  8
0
 62
4
 10
-3.38500008E+02
 20
1.08294229E+02
 11
-3.52000008E+02
 21
1.16088457E+02
  0
LINE
  8
0
 62
4
 10
-3.38500008E+02
 20
9.27057714E+01
 11
-3.38500008E+02
 21
1.08294229E+02
  0
LINE
  8
0
 62
4
 10
-3.52000008E+02
 20
8.49115427E+01
 11
-3.38500008E+02
 21
9.27057714E+01
  0
LINE
  8
0
 62
4
 10
-3.65500008E+02
 20
9.27057714E+01
 11
-3.52000008E+02
 21
8.49115427E+01
  0
LINE
  8
0
 62
4
 10
-3.65500008E+02
 20
1.08294229E+02
 11
-3.65500008E+02
 21
9.27057714E+01
  0
LINE
  8
0
 62
4
 10
-3.52000008E+02
 20
1.16088457E+02
 11
-3.65500008E+02
 21
1.08294229E+02
  0
CIRCLE
  8
0
 62
4
 10
-3.52000008E+02
 20
1.00500000E+02
 40
1.35000000E+01
  0
LINE
  8
0
 62
4
 10
-3.90725899E+02
 20
1.23542990E+02
 11
-3.89500099E+02
 21
1.23941277E+02
  0
LINE
  8
0
 62
4
 10
-3.89500099E+02
 20
1.19770366E+02
 11
-3.90725899E+02
 21
1.23542990E+02
  0
LINE
  8
0
 62
6
 10
-3.90571391E+02
 20
1.23067462E+02
 11
-3.89500099E+02
 21
1.23415546E+02
  0
LINE
  8
0
 62
6
 10
-3.89644340E+02
 20
1.20214292E+02
 11
-3.89500099E+02
 21
1.20261159E+02
  0
LINE
  8
0
  6
CENTER
 62
6
 10
-3.67424548E+02
 20
1.35425053E+02
 11
-3.61718209E+02
 21
1.37279155E+02
  0
LINE
  8
0
  6
CENTER
 62
6
 10
-3.65498430E+02
 20
1.39205274E+02
 11
-3.63644328E+02
 21
1.33498935E+02
  0
LINE
  8
0
 62
4
 10
-3.63287300E+02
 20
1.38872251E+02
 11
-3.63003898E+02
 21
1.38000031E+02
  0
LINE
  8
0
 62
4
 10
-3.65971719E+02
 20
1.38000031E+02
 11
-3.63287300E+02
 21
1.38872251E+02
  0
LINE
  8
0
 62
4
 10
-3.63287300E+02
 20
1.38872251E+02
 11
-3.63731718E+02
 21
1.38000031E+02
  0
LINE
  8
0
 62
4
 10
-3.66845796E+02
 20
1.49176964E+02
 11
-3.76641678E+02
 21
1.45994089E+02
  0
LINE
  8
0
 62
4
 10
-3.66390083E+02
 20
1.38389827E+02
 11
-3.63632019E+02
 21
1.39285976E+02
  0
LINE
  8
0
 62
4
 10
-3.66588694E+02
 20
1.38000031E+02
 11
-3.66390083E+02
 21
1.38389827E+02
  0
LINE
  8
0
  6
CENTER
 62
6
 10
-3.85654221E+02
 20
1.38334156E+02
 11
-3.60259165E+02
 21
1.46585510E+02
  0
LINE
  8
0
  6
CENTER
 62
6
 10
-3.75655256E+02
 20
1.37902899E+02
 11
-3.59177606E+02
 21
1.43256812E+02
  0
LINE
  8
0
 62
4
 10
-3.80921433E+02
 20
1.44603512E+02
 11
-3.76641678E+02
 21
1.45994089E+02
  0
LINE
  8
0
 62
4
 10
-3.74044251E+02
 20
1.38000031E+02
 11
-3.76641678E+02
 21
1.45994089E+02
  0
LINE
  8
0
 62
4
 10
-3.84286075E+02
 20
1.38000031E+02
 11
-3.80921433E+02
 21
1.44603512E+02
  0
LINE
  8
0
 62
4
 10
-3.66629484E+02
 20
1.48511224E+02
 11
-3.65678428E+02
 21
1.48820241E+02
  0
ARC
  8
0
 62
4
 10
-3.62687065E+02
 20
1.43273128E+02
 40
1.00000000E+00
 50
3.36723662E+02
 51
5.17248996E+00
  0
ARC
  8
0
 62
4
 10
-3.64170347E+02
 20
1.47838200E+02
 40
1.00000000E+00
 50
3.08275100E+01
 51
1.08000000E+02
  0
ARC
  8
0
 62
4
 10
-3.73453045E+02
 20
1.42298559E+02
 40
1.18100000E+01
 50
5.17248996E+00
 51
3.08275100E+01
  0
LINE
  8
0
 62
4
 10
-3.65554821E+02
 20
1.48439819E+02
 11
-3.64480127E+02
 21
1.48789008E+02
  0
LINE
  8
0
 62
4
 10
-3.64705024E+02
 20
1.45824413E+02
 11
-3.65678428E+02
 21
1.48820241E+02
  0
LINE
  8
0
 62
4
 10
-3.62814635E+02
 20
1.38000031E+02
 11
-3.65294679E+02
 21
1.45632823E+02
  0
LINE
  8
0
 62
4
 10
-3.65609728E+02
 20
1.45372738E+02
 11
-3.65248327E+02
 21
1.45490164E+02
  0
LINE
  8
0
 62
4
 10
-3.65294679E+02
 20
1.45632823E+02
 11
-3.63620820E+02
 21
1.46176693E+02
  0
LINE
  8
0
 62
4
 10
-3.61926634E+02
 20
1.38000031E+02
 11
-3.61055979E+02
 21
1.38282924E+02
  0
ARC
  8
0
 62
4
 10
-3.72859225E+02
 20
1.38819521E+02
 40
1.18100000E+01
 50
1.80000000E+01
 51
3.85326990E+01
  0
ARC
  8
0
 62
4
 10
-3.72854442E+02
 20
1.38804802E+02
 40
1.18100000E+01
 50
3.57467301E+02
 51
1.80000000E+01
  0
LINE
  8
0
 62
4
 10
-3.63214190E+02
 20
1.38000031E+02
 11
-3.66845796E+02
 21
1.49176964E+02
  0
LINE
  8
0
 62
4
 10
-3.14500008E+02
 20
1.19770178E+02
 11
-3.13274147E+02
 21
1.23542990E+02
  0
LINE
  8
0
 62
4
 10
-3.13274147E+02
 20
1.23542990E+02
 11
-3.14500008E+02
 21
1.23941297E+02
  0
LINE
  8
0
 62
6
 10
-3.13428655E+02
 20
1.23067462E+02
 11
-3.14500008E+02
 21
1.23415566E+02
  0
LINE
  8
0
 62
6
 10
-3.14355706E+02
 20
1.20214292E+02
 11
-3.14500008E+02
 21
1.20261179E+02
  0
LINE
  8
0
  6
CENTER
 62
6
 10
-3.28344790E+02
 20
1.37902899E+02
 11
-3.44463822E+02
 21
1.43140290E+02
  0
LINE
  8
0
  6
CENTER
 62
6
 10
-3.18345825E+02
 20
1.38334156E+02
 11
-3.43382263E+02
 21
1.46468988E+02
  0
LINE
  8
0
 62
4
 10
-3.37411351E+02
 20
1.38000031E+02
 11
-3.37609962E+02
 21
1.38389827E+02
  0
LINE
  8
0
 62
4
 10
-3.37609962E+02
 20
1.38389827E+02
 11
-3.40368026E+02
 21
1.39285976E+02
  0
LINE
  8
0
 62
4
 10
-3.37154250E+02
 20
1.49176964E+02
 11
-3.27358368E+02
 21
1.45994089E+02
  0
LINE
  8
0
 62
4
 10
-3.38028327E+02
 20
1.38000031E+02
 11
-3.40712746E+02
 21
1.38872251E+02
  0
LINE
  8
0
 62
4
 10
-3.40712746E+02
 20
1.38872251E+02
 11
-3.40996148E+02
 21
1.38000031E+02
  0
LINE
  8
0
  6
CENTER
 62
6
 10
-3.38501616E+02
 20
1.39205274E+02
 11
-3.40355718E+02
 21
1.33498935E+02
  0
LINE
  8
0
  6
CENTER
 62
6
 10
-3.36575498E+02
 20
1.35425053E+02
 11
-3.42281837E+02
 21
1.37279155E+02
  0
LINE
  8
0
 62
4
 10
-3.19713971E+02
 20
1.38000031E+02
 11
-3.23078613E+02
 21
1.44603512E+02
  0
LINE
  8
0
 62
4
 10
-3.23078613E+02
 20
1.44603512E+02
 11
-3.27358368E+02
 21
1.45994089E+02
  0
LINE
  8
0
 62
4
 10
-3.27358368E+02
 20
1.45994089E+02
 11
-3.29955795E+02
 21
1.38000031E+02
  0
LINE
  8
0
 62
4
 10
-3.39719091E+02
 20
1.41283195E+02
 11
-3.40670147E+02
 21
1.41592212E+02
  0
LINE
  8
0
 62
4
 10
-3.37370562E+02
 20
1.48511224E+02
 11
-3.38321618E+02
 21
1.48820241E+02
  0
ARC
  8
0
 62
4
 10
-3.41312981E+02
 20
1.43273128E+02
 40
1.00000000E+00
 50
1.74827510E+02
 51
2.52000000E+02
  0
ARC
  8
0
 62
4
 10
-3.39829699E+02
 20
1.47838200E+02
 40
1.00000000E+00
 50
7.19999999E+01
 51
1.49172490E+02
  0
LINE
  8
0
 62
4
 10
-3.40546540E+02
 20
1.41972634E+02
 11
-3.41621234E+02
 21
1.42321824E+02
  0
LINE
  8
0
 62
4
 10
-3.38445225E+02
 20
1.48439819E+02
 11
-3.39519919E+02
 21
1.48789008E+02
  0
LINE
  8
0
 62
4
 10
-3.40670147E+02
 20
1.41592212E+02
 11
-3.38321618E+02
 21
1.48820241E+02
  0
ARC
  8
0
 62
4
 10
-3.30547001E+02
 20
1.42298559E+02
 40
1.18100000E+01
 50
1.49172490E+02
 51
1.74827510E+02
  0
LINE
  8
0
 62
4
 10
-3.41185411E+02
 20
1.38000031E+02
 11
-3.40080492E+02
 21
1.41400621E+02
  0
LINE
  8
0
 62
4
 10
-3.42073412E+02
 20
1.38000031E+02
 11
-3.42944067E+02
 21
1.38282924E+02
  0
ARC
  8
0
 62
4
 10
-3.31140821E+02
 20
1.38819521E+02
 40
1.18100000E+01
 50
1.59900933E+02
 51
1.62000000E+02
  0
ARC
  8
0
 62
4
 10
-3.31145603E+02
 20
1.38804802E+02
 40
1.18100000E+01
 50
1.62000000E+02
 51
1.82532699E+02
  0
LINE
  8
0
 62
4
 10
-3.40785855E+02
 20
1.38000031E+02
 11
-3.37154250E+02
 21
1.49176964E+02
  0
LINE
  8
0
 62
7
 10
3.41464119E+02
 20
1.05999993E+02
 11
3.34535866E+02
 21
1.05999993E+02
  0
LINE
  8
0
 62
7
 10
3.43499986E+02
 20
9.70358734E+01
 11
3.43499986E+02
 21
1.03964127E+02
  0
LINE
  8
0
 62
7
 10
3.34535866E+02
 20
9.50000067E+01
 11
3.41464119E+02
 21
9.50000067E+01
  0
LINE
  8
0
 62
7
 10
3.32499999E+02
 20
1.03964127E+02
 11
3.32499999E+02
 21
9.70358734E+01
  0
CIRCLE
  8
0
 62
7
 10
3.37999992E+02
 20
1.00500000E+02
 40
6.50000763E+00
  0
CIRCLE
  8
0
 62
7
 10
3.37999992E+02
 20
1.00500000E+02
 40
6.99998104E+00
  0
CIRCLE
  8
0
 62
2
 10
3.37999992E+02
 20
1.00500000E+02
 40
7.18000031E+00
  0
CIRCLE
  8
0
 62
7
 10
3.37999992E+02
 20
1.00500000E+02
 40
8.00000763E+00
  0
CIRCLE
  8
0
 62
7
 10
3.37999992E+02
 20
1.00500000E+02
 40
1.51500015E+01
  0
LINE
  8
0
 62
7
 10
3.49999992E+02
 20
1.07428203E+02
 11
3.37999992E+02
 21
1.14356406E+02
  0
LINE
  8
0
 62
7
 10
3.49999992E+02
 20
9.35717968E+01
 11
3.49999992E+02
 21
1.07428203E+02
  0
LINE
  8
0
 62
7
 10
3.37999992E+02
 20
8.66435935E+01
 11
3.49999992E+02
 21
9.35717968E+01
  0
LINE
  8
0
 62
7
 10
3.25999992E+02
 20
9.35717968E+01
 11
3.37999992E+02
 21
8.66435935E+01
  0
LINE
  8
0
 62
7
 10
3.25999992E+02
 20
1.07428203E+02
 11
3.25999992E+02
 21
9.35717968E+01
  0
LINE
  8
0
 62
7
 10
3.37999992E+02
 20
1.14356406E+02
 11
3.25999992E+02
 21
1.07428203E+02
  0
CIRCLE
  8
0
 62
7
 10
3.37999992E+02
 20
1.00500000E+02
 40
1.20000000E+01
  0
ARC
  8
0
 62
7
 10
3.71499992E+02
 20
6.70000000E+01
 40
4.50000000E+00
 50
2.70000000E+02
 51
0.00000000E+00
  0
ARC
  8
0
 62
7
 10
3.04499985E+02
 20
6.70000000E+01
 40
4.50000000E+00
 50
1.80000000E+02
 51
2.70000000E+02
  0
ARC
  8
0
 62
7
 10
3.04499985E+02
 20
1.34000008E+02
 40
4.50000000E+00
 50
9.00000002E+01
 51
1.80000000E+02
  0
ARC
  8
0
 62
7
 10
3.71499992E+02
 20
1.34000008E+02
 40
4.50000000E+00
 50
0.00000000E+00
 51
9.00000002E+01
  0
LINE
  8
0
 62
7
 10
3.75999992E+02
 20
6.70000000E+01
 11
3.75999992E+02
 21
1.34000008E+02
  0
LINE
  8
0
 62
7
 10
2.99999985E+02
 20
6.70000000E+01
 11
2.99999985E+02
 21
1.34000008E+02
  0
LINE
  8
0
 62
7
 10
3.04499985E+02
 20
6.25000000E+01
 11
3.71499992E+02
 21
6.25000000E+01
  0
LINE
  8
0
 62
7
 10
3.04499985E+02
 20
1.38500008E+02
 11
3.71499992E+02
 21
1.38500008E+02
  0
LINE
  8
0
 62
4
 10
3.49376597E+02
 20
1.38500008E+02
 11
3.52845750E+02
 21
1.49176964E+02
  0
ARC
  8
0
 62
4
 10
3.58854397E+02
 20
1.38804802E+02
 40
1.18100000E+01
 50
1.62000000E+02
 51
1.81478863E+02
  0
ARC
  8
0
 62
4
 10
3.58859179E+02
 20
1.38819521E+02
 40
1.18100000E+01
 50
1.59900933E+02
 51
1.62000000E+02
  0
LINE
  8
0
 62
4
 10
3.48977041E+02
 20
1.38500008E+02
 11
3.49919508E+02
 21
1.41400621E+02
  0
ARC
  8
0
 62
4
 10
3.59452999E+02
 20
1.42298559E+02
 40
1.18100000E+01
 50
1.49172490E+02
 51
1.74827510E+02
  0
LINE
  8
0
 62
4
 10
3.49329853E+02
 20
1.41592212E+02
 11
3.51678382E+02
 21
1.48820241E+02
  0
LINE
  8
0
 62
4
 10
3.51554775E+02
 20
1.48439819E+02
 11
3.50480081E+02
 21
1.48789008E+02
  0
LINE
  8
0
 62
4
 10
3.49453460E+02
 20
1.41972634E+02
 11
3.48378766E+02
 21
1.42321824E+02
  0
ARC
  8
0
 62
4
 10
3.50170301E+02
 20
1.47838200E+02
 40
1.00000000E+00
 50
7.19999999E+01
 51
1.49172490E+02
  0
ARC
  8
0
 62
4
 10
3.48687019E+02
 20
1.43273128E+02
 40
1.00000000E+00
 50
1.74827510E+02
 51
2.52000000E+02
  0
LINE
  8
0
 62
4
 10
3.52629438E+02
 20
1.48511224E+02
 11
3.51678382E+02
 21
1.48820241E+02
  0
LINE
  8
0
 62
4
 10
3.50280909E+02
 20
1.41283195E+02
 11
3.49329853E+02
 21
1.41592212E+02
  0
LINE
  8
0
 62
4
 10
3.62641632E+02
 20
1.45994089E+02
 11
3.60206658E+02
 21
1.38500008E+02
  0
LINE
  8
0
 62
4
 10
3.66921387E+02
 20
1.44603512E+02
 11
3.62641632E+02
 21
1.45994089E+02
  0
LINE
  8
0
 62
4
 10
3.70031278E+02
 20
1.38500008E+02
 11
3.66921387E+02
 21
1.44603512E+02
  0
LINE
  8
0
 62
4
 10
3.49287254E+02
 20
1.38872251E+02
 11
3.49166305E+02
 21
1.38500008E+02
  0
LINE
  8
0
 62
4
 10
3.50432902E+02
 20
1.38500008E+02
 11
3.49287254E+02
 21
1.38872251E+02
  0
LINE
  8
0
 62
4
 10
3.52845750E+02
 20
1.49176964E+02
 11
3.62641632E+02
 21
1.45994089E+02
  0
LINE
  8
0
 62
4
 10
3.52050936E+02
 20
1.38500008E+02
 11
3.49631974E+02
 21
1.39285976E+02
  0
LINE
  8
0
  6
CENTER
 62
6
 10
3.71143737E+02
 20
1.38500008E+02
 11
3.46617737E+02
 21
1.46468988E+02
  0
LINE
  8
0
  6
CENTER
 62
6
 10
3.59817499E+02
 20
1.38500008E+02
 11
3.45536178E+02
 21
1.43140290E+02
  0
LINE
  8
0
 62
6
 10
3.76571345E+02
 20
1.23067462E+02
 11
3.75999992E+02
 21
1.23253106E+02
  0
LINE
  8
0
 62
4
 10
3.76725853E+02
 20
1.23542990E+02
 11
3.75999992E+02
 21
1.23778837E+02
  0
LINE
  8
0
 62
4
 10
3.75999992E+02
 20
1.21309020E+02
 11
3.76725853E+02
 21
1.23542990E+02
  0
LINE
  8
0
 62
4
 10
3.26623357E+02
 20
1.38500008E+02
 11
3.23154204E+02
 21
1.49176964E+02
  0
ARC
  8
0
 62
4
 10
3.17145558E+02
 20
1.38804802E+02
 40
1.18100000E+01
 50
3.58521137E+02
 51
1.80000000E+01
  0
ARC
  8
0
 62
4
 10
3.17140775E+02
 20
1.38819521E+02
 40
1.18100000E+01
 50
1.80000000E+01
 51
3.85326990E+01
  0
LINE
  8
0
 62
4
 10
3.24705321E+02
 20
1.45632823E+02
 11
3.26379180E+02
 21
1.46176693E+02
  0
LINE
  8
0
 62
4
 10
3.24390272E+02
 20
1.45372738E+02
 11
3.24751673E+02
 21
1.45490164E+02
  0
LINE
  8
0
 62
4
 10
3.27022913E+02
 20
1.38500008E+02
 11
3.24705321E+02
 21
1.45632823E+02
  0
LINE
  8
0
 62
4
 10
3.25294976E+02
 20
1.45824413E+02
 11
3.24321572E+02
 21
1.48820241E+02
  0
LINE
  8
0
 62
4
 10
3.24445179E+02
 20
1.48439819E+02
 11
3.25519873E+02
 21
1.48789008E+02
  0
ARC
  8
0
 62
4
 10
3.16546955E+02
 20
1.42298559E+02
 40
1.18100000E+01
 50
5.17248996E+00
 51
3.08275100E+01
  0
ARC
  8
0
 62
4
 10
3.25829653E+02
 20
1.47838200E+02
 40
1.00000000E+00
 50
3.08275100E+01
 51
1.08000000E+02
  0
ARC
  8
0
 62
4
 10
3.27312935E+02
 20
1.43273128E+02
 40
1.00000000E+00
 50
3.36723662E+02
 51
5.17248996E+00
  0
LINE
  8
0
 62
4
 10
3.23370516E+02
 20
1.48511224E+02
 11
3.24321572E+02
 21
1.48820241E+02
  0
LINE
  8
0
 62
4
 10
3.05968676E+02
 20
1.38500008E+02
 11
3.09078567E+02
 21
1.44603512E+02
  0
LINE
  8
0
 62
4
 10
3.15793296E+02
 20
1.38500008E+02
 11
3.13358322E+02
 21
1.45994089E+02
  0
LINE
  8
0
 62
4
 10
3.09078567E+02
 20
1.44603512E+02
 11
3.13358322E+02
 21
1.45994089E+02
  0
LINE
  8
0
  6
CENTER
 62
6
 10
3.16182455E+02
 20
1.38500008E+02
 11
3.30822394E+02
 21
1.43256812E+02
  0
LINE
  8
0
  6
CENTER
 62
6
 10
3.04856217E+02
 20
1.38500008E+02
 11
3.29740835E+02
 21
1.46585510E+02
  0
LINE
  8
0
 62
4
 10
3.23949018E+02
 20
1.38500008E+02
 11
3.26367981E+02
 21
1.39285976E+02
  0
LINE
  8
0
 62
4
 10
3.23154204E+02
 20
1.49176964E+02
 11
3.13358322E+02
 21
1.45994089E+02
  0
LINE
  8
0
 62
4
 10
3.26712700E+02
 20
1.38872251E+02
 11
3.26523033E+02
 21
1.38500008E+02
  0
LINE
  8
0
 62
4
 10
3.25567052E+02
 20
1.38500008E+02
 11
3.26712700E+02
 21
1.38872251E+02
  0
LINE
  8
0
 62
4
 10
3.26712700E+02
 20
1.38872251E+02
 11
3.26833650E+02
 21
1.38500008E+02
  0
LINE
  8
0
 62
6
 10
2.99428609E+02
 20
1.23067462E+02
 11
2.99999985E+02
 21
1.23253113E+02
  0
LINE
  8
0
 62
4
 10
2.99999985E+02
 20
1.21308949E+02
 11
2.99274101E+02
 21
1.23542990E+02
  0
LINE
  8
0
 62
4
 10
2.99274101E+02
 20
1.23542990E+02
 11
2.99999985E+02
 21
1.23778844E+02
  0
CIRCLE
  8
0
 62
2
 10
3.66000023E+02
 20
7.24999695E+01
 40
4.00000000E+00
  0
CIRCLE
  8
0
 62
7
 10
3.66000023E+02
 20
7.24999695E+01
 40
3.32000041E+00
  0
CIRCLE
  8
0
 62
7
 10
3.66000114E+02
 20
1.28500076E+02
 40
3.32000041E+00
  0
CIRCLE
  8
0
 62
7
 10
3.10000053E+02
 20
1.28500076E+02
 40
3.32000041E+00
  0
CIRCLE
  8
0
 62
7
 10
3.09999962E+02
 20
7.24999695E+01
 40
3.32000041E+00
  0
CIRCLE
  8
0
 62
2
 10
3.09999962E+02
 20
7.24999695E+01
 40
4.00000000E+00
  0
CIRCLE
  8
0
 62
2
 10
3.10000053E+02
 20
1.28500076E+02
 40
4.00000000E+00
  0
CIRCLE
  8
0
 62
7
 10
3.66000023E+02
 20
7.24999237E+01
 40
6.00000048E+00
  0
CIRCLE
  8
0
 62
7
 10
3.66000023E+02
 20
7.24999237E+01
 40
6.50000095E+00
  0
CIRCLE
  8
0
 62
7
 10
3.66000114E+02
 20
1.28500031E+02
 40
6.00000048E+00
  0
CIRCLE
  8
0
 62
7
 10
3.66000114E+02
 20
1.28500031E+02
 40
6.50000095E+00
  0
CIRCLE
  8
0
 62
7
 10
3.10000053E+02
 20
1.28500076E+02
 40
6.00000048E+00
  0
CIRCLE
  8
0
 62
2
 10
3.66000114E+02
 20
1.28500076E+02
 40
4.00000000E+00
  0
CIRCLE
  8
0
 62
7
 10
3.10000053E+02
 20
7.24999695E+01
 40
6.00000048E+00
  0
CIRCLE
  8
0
 62
7
 10
3.10000053E+02
 20
7.24999695E+01
 40
6.50000095E+00
  0
CIRCLE
  8
0
 62
7
 10
3.10000053E+02
 20
1.28500076E+02
 40
6.50000095E+00
  0
LINE
  8
0
  6
CENTER
 62
2
 10
3.66000023E+02
 20
8.25604858E+01
 11
3.66000023E+02
 21
6.10041084E+01
  0
LINE
  8
0
  6
CENTER
 62
2
 10
3.25999992E+02
 20
1.40214226E+02
 11
3.25999992E+02
 21
1.10494484E+02
  0
LINE
  8
0
  6
CENTER
 62
2
 10
3.55369469E+02
 20
1.28500076E+02
 11
3.77902428E+02
 21
1.28500076E+02
  0
LINE
  8
0
  6
CENTER
 62
2
 10
3.20233360E+02
 20
7.24999695E+01
 11
2.97954918E+02
 21
7.24999695E+01
  0
LINE
  8
0
  6
CENTER
 62
2
 10
3.78029686E+02
 20
7.24999695E+01
 11
3.55496727E+02
 21
7.24999695E+01
  0
LINE
  8
0
  6
CENTER
 62
2
 10
2.97954918E+02
 20
1.28500076E+02
 11
3.20106010E+02
 21
1.28500076E+02
  0
LINE
  8
0
  6
CENTER
 62
2
 10
3.45999962E+02
 20
1.40185295E+02
 11
3.45999962E+02
 21
1.14218903E+02
  0
LINE
  8
0
  6
CENTER
 62
2
 10
3.78039757E+02
 20
1.00500000E+02
 11
2.95522270E+02
 21
1.00500000E+02
  0
LINE
  8
0
  6
CENTER
 62
2
 10
3.66000114E+02
 20
1.40185295E+02
 11
3.66000114E+02
 21
1.17270416E+02
  0
LINE
  8
0
  6
CENTER
 62
2
 10
3.37999992E+02
 20
1.41967552E+02
 11
3.37999992E+02
 21
5.94739647E+01
  0
LINE
  8
0
  6
CENTER
 62
2
 10
3.10000053E+02
 20
1.17270416E+02
 11
3.10000053E+02
 21
1.40057991E+02
  0
LINE
  8
0
  6
CENTER
 62
2
 10
3.09999962E+02
 20
6.10016251E+01
 11
3.09999962E+02
 21
8.35345917E+01
  0
LINE
  8
0
  6
PHANTOM
 10
-2.45000000E+01
 20
1.93317049E+02
 11
-2.45000000E+01
 21
3.53816712E+02
  0
LINE
  8
0
  6
CENTER
 62
2
 10
-1.72033318E+02
 20
2.80500000E+02
 11
1.61340836E+02
 21
2.80500000E+02
  0
LINE
  8
0
 62
7
 10
1.46999930E+02
 20
2.88499946E+02
 11
1.47999931E+02
 21
2.87499945E+02
  0
LINE
  8
0
 62
7
 10
-1.26500053E+02
 20
2.63500015E+02
 11
-1.21991432E+02
 21
2.63500015E+02
  0
LINE
  8
0
 62
7
 10
-1.21999992E+02
 20
2.63499985E+02
 11
-1.21999992E+02
 21
2.63491455E+02
  0
LINE
  8
0
 62
7
 10
-1.21758834E+02
 20
2.63241563E+02
 11
-1.14000120E+02
 21
2.62970623E+02
  0
LINE
  8
0
 62
7
 10
-1.27000023E+02
 20
2.64000031E+02
 11
-1.27000023E+02
 21
2.96999985E+02
  0
LINE
  8
0
 62
7
 10
-1.26500053E+02
 20
2.97499969E+02
 11
-1.21991432E+02
 21
2.97499969E+02
  0
LINE
  8
0
 62
7
 10
-1.21999992E+02
 20
2.97500015E+02
 11
-1.21999992E+02
 21
2.97508560E+02
  0
LINE
  8
0
 62
7
 10
-1.21758771E+02
 20
2.97758691E+02
 11
-1.14000057E+02
 21
2.98029631E+02
  0
LINE
  8
0
 62
7
 10
-1.14000023E+02
 20
2.61999985E+02
 11
-1.14000023E+02
 21
2.99000015E+02
  0
LINE
  8
0
 62
7
 10
-1.21999992E+02
 20
2.97500015E+02
 11
-1.21999992E+02
 21
2.63499985E+02
  0
LINE
  8
0
 62
7
 10
7.29999580E+01
 20
2.65350021E+02
 11
7.49999619E+01
 21
2.65350021E+02
  0
LINE
  8
0
 62
7
 10
7.29999580E+01
 20
3.18500000E+02
 11
7.29999580E+01
 21
2.42500015E+02
  0
LINE
  8
0
 62
7
 10
7.49999504E+01
 20
2.95649994E+02
 11
7.49999504E+01
 21
2.65350021E+02
  0
LINE
  8
0
 62
7
 10
8.79999561E+01
 20
2.92500000E+02
 11
8.79999561E+01
 21
2.68500000E+02
  0
LINE
  8
0
 62
7
 10
7.49999619E+01
 20
2.68500000E+02
 11
8.79999561E+01
 21
2.68500000E+02
  0
LINE
  8
0
  6
CENTER
 62
2
 10
7.56792030E+01
 20
3.08500031E+02
 11
-1.15248116E+02
 21
3.08500031E+02
  0
LINE
  8
0
  6
CENTER
 62
2
 10
7.73440647E+01
 20
2.52499969E+02
 11
-1.15248116E+02
 21
2.52499969E+02
  0
LINE
  8
0
 62
7
 10
7.49999619E+01
 20
2.92500000E+02
 11
8.79999561E+01
 21
2.92500000E+02
  0
LINE
  8
0
 62
7
 10
7.29999580E+01
 20
2.95649994E+02
 11
7.49999619E+01
 21
2.95649994E+02
  0
LINE
  8
0
 62
7
 10
1.57999962E+02
 20
2.86000015E+02
 11
1.57999962E+02
 21
2.75000000E+02
  0
LINE
  8
0
 62
7
 10
1.49999969E+02
 20
2.87000000E+02
 11
1.49999969E+02
 21
2.86000015E+02
  0
LINE
  8
0
 62
7
 10
1.47999954E+02
 20
2.87500015E+02
 11
1.47999954E+02
 21
2.73500000E+02
  0
LINE
  8
0
 62
7
 10
1.46999969E+02
 20
2.88500000E+02
 11
1.46999969E+02
 21
2.72500015E+02
  0
LINE
  8
0
 62
7
 10
8.79999561E+01
 20
2.72500015E+02
 11
1.46999958E+02
 21
2.72500015E+02
  0
LINE
  8
0
 62
2
 10
8.79999561E+01
 20
2.87680008E+02
 11
1.47819973E+02
 21
2.87680008E+02
  0
LINE
  8
0
  6
CENTER
 62
2
 10
-1.04364876E+02
 20
2.88500015E+02
 11
-8.27607040E+01
 21
2.88500015E+02
  0
LINE
  8
0
  6
CENTER
 62
2
 10
-9.40000534E+01
 20
2.78499985E+02
 11
-9.40000534E+01
 21
2.99046280E+02
  0
LINE
  8
0
 62
7
 10
-1.13500008E+02
 20
2.61500000E+02
 11
-1.12000008E+02
 21
2.61500000E+02
  0
LINE
  8
0
 62
7
 10
-1.11508846E+02
 20
2.43550150E+02
 11
-8.00001411E+01
 21
2.43000163E+02
  0
LINE
  8
0
 62
7
 10
-1.13500008E+02
 20
2.99500015E+02
 11
-1.12000008E+02
 21
2.99500015E+02
  0
LINE
  8
0
 62
7
 10
-1.12000008E+02
 20
2.44049927E+02
 11
-1.12000008E+02
 21
3.16950104E+02
  0
LINE
  8
0
 62
7
 10
-7.99999924E+01
 20
2.43000046E+02
 11
-7.99999924E+01
 21
3.18000031E+02
  0
LINE
  8
0
 62
7
 10
-1.11508757E+02
 20
3.17450082E+02
 11
-8.00000519E+01
 21
3.18000068E+02
  0
LINE
  8
0
 62
7
 10
-1.06000008E+02
 20
3.05500015E+02
 11
-7.99999924E+01
 21
3.05500015E+02
  0
LINE
  8
0
 62
7
 10
-1.06000008E+02
 20
2.55500000E+02
 11
-7.99999924E+01
 21
2.55500000E+02
  0
LINE
  8
0
 62
7
 10
-1.07999977E+02
 20
3.03500015E+02
 11
-1.07999977E+02
 21
2.57500015E+02
  0
LINE
  8
0
  6
CENTER
 62
2
 10
5.13648338E+01
 20
2.88500015E+02
 11
2.97606583E+01
 21
2.88500015E+02
  0
LINE
  8
0
  6
CENTER
 62
2
 10
4.10000534E+01
 20
2.78499985E+02
 11
4.10000534E+01
 21
2.99046280E+02
  0
LINE
  8
0
 62
7
 10
5.85086592E+01
 20
3.17450073E+02
 11
2.69999658E+01
 21
3.18000059E+02
  0
LINE
  8
0
 62
7
 10
5.89999657E+01
 20
3.18500000E+02
 11
5.89999657E+01
 21
2.42500015E+02
  0
LINE
  8
0
 62
7
 10
2.70000000E+01
 20
3.17999969E+02
 11
2.70000000E+01
 21
2.42999985E+02
  0
LINE
  8
0
 62
7
 10
5.85087881E+01
 20
2.43550068E+02
 11
2.70000642E+01
 21
2.43000081E+02
  0
LINE
  8
0
 62
7
 10
5.29999657E+01
 20
2.55500000E+02
 11
2.70000000E+01
 21
2.55500000E+02
  0
LINE
  8
0
 62
7
 10
5.29999657E+01
 20
3.05499985E+02
 11
2.70000000E+01
 21
3.05499985E+02
  0
LINE
  8
0
 62
7
 10
5.49999809E+01
 20
2.57500015E+02
 11
5.49999809E+01
 21
3.03500015E+02
  0
LINE
  8
0
 62
7
 10
2.70000000E+01
 20
2.56100037E+02
 11
1.99999924E+01
 21
2.56100037E+02
  0
LINE
  8
0
 62
7
 10
2.70000000E+01
 20
2.48900009E+02
 11
4.99999237E+00
 21
2.48900009E+02
  0
LINE
  8
0
 62
7
 10
2.70000000E+01
 20
2.46500046E+02
 11
4.99999237E+00
 21
2.46500046E+02
  0
LINE
  8
0
  6
CENTER
 62
2
 10
3.40000229E+01
 20
2.74911163E+02
 11
3.40000229E+01
 21
2.61434418E+02
  0
LINE
  8
0
  6
CENTER
 62
2
 10
2.73342819E+01
 20
2.68500000E+02
 11
4.01630325E+01
 21
2.68500000E+02
  0
LINE
  8
0
 62
7
 10
3.57320388E+01
 20
2.68499905E+02
 11
3.48660073E+01
 21
2.69999925E+02
  0
LINE
  8
0
 62
7
 10
3.48660202E+01
 20
2.70000031E+02
 11
3.31339645E+01
 21
2.70000031E+02
  0
LINE
  8
0
 62
7
 10
3.22681699E+01
 20
2.68499810E+02
 11
3.31341786E+01
 21
2.69999790E+02
  0
LINE
  8
0
 62
7
 10
3.31339854E+01
 20
2.66999980E+02
 11
3.22679462E+01
 21
2.68500013E+02
  0
LINE
  8
0
 62
7
 10
3.48660202E+01
 20
2.67000000E+02
 11
3.31339645E+01
 21
2.67000000E+02
  0
LINE
  8
0
 62
7
 10
3.57321703E+01
 20
2.68499918E+02
 11
3.48661387E+01
 21
2.66999898E+02
  0
LINE
  8
0
 62
7
 10
-8.52679101E+01
 20
2.68499885E+02
 11
-8.61339798E+01
 21
2.69999971E+02
  0
LINE
  8
0
 62
7
 10
-8.61340256E+01
 20
2.70000031E+02
 11
-8.78660965E+01
 21
2.70000031E+02
  0
LINE
  8
0
 62
7
 10
-8.87318845E+01
 20
2.68499838E+02
 11
-8.78658682E+01
 21
2.69999831E+02
  0
LINE
  8
0
 62
7
 10
-8.78660203E+01
 20
2.67000051E+02
 11
-8.87320594E+01
 21
2.68500083E+02
  0
LINE
  8
0
 62
7
 10
-8.61340256E+01
 20
2.67000000E+02
 11
-8.78660965E+01
 21
2.67000000E+02
  0
LINE
  8
0
 62
7
 10
-8.52679088E+01
 20
2.68499934E+02
 11
-8.61339480E+01
 21
2.66999901E+02
  0
LINE
  8
0
  6
CENTER
 62
2
 10
-9.36657791E+01
 20
2.68500000E+02
 11
-8.08370132E+01
 21
2.68500000E+02
  0
LINE
  8
0
  6
CENTER
 62
2
 10
-8.70000534E+01
 20
2.74911163E+02
 11
-8.70000534E+01
 21
2.61434418E+02
  0
LINE
  8
0
 62
7
 10
2.70000000E+01
 20
3.04899994E+02
 11
-3.89999924E+01
 21
3.04899994E+02
  0
LINE
  8
0
 62
7
 10
2.70000000E+01
 20
3.12100037E+02
 11
-3.89999924E+01
 21
3.12100037E+02
  0
LINE
  8
0
 62
7
 10
2.70000000E+01
 20
3.14500000E+02
 11
-3.89999924E+01
 21
3.14500000E+02
  0
LINE
  8
0
 62
7
 10
7.49999619E+01
 20
2.80500000E+02
 11
8.66431904E+01
 21
2.80500000E+02
  0
LINE
  8
0
 62
7
 10
5.89999657E+01
 20
3.18500000E+02
 11
7.29999580E+01
 21
3.18500000E+02
  0
LINE
  8
0
 62
7
 10
5.89999657E+01
 20
2.42500015E+02
 11
7.29999580E+01
 21
2.42500015E+02
  0
LINE
  8
0
 62
7
 10
1.49999958E+02
 20
2.83964127E+02
 11
1.57999962E+02
 21
2.83964127E+02
  0
LINE
  8
0
 62
7
 10
1.49999958E+02
 20
2.77035873E+02
 11
1.57999962E+02
 21
2.77035873E+02
  0
LINE
  8
0
 62
2
 10
1.49999852E+02
 20
2.77036019E+02
 11
1.57999854E+02
 21
2.83964271E+02
  0
LINE
  8
0
 62
2
 10
1.49999942E+02
 20
2.83964202E+02
 11
1.57999944E+02
 21
2.77035950E+02
  0
LINE
  8
0
 62
2
 10
8.79999561E+01
 20
2.73320007E+02
 11
1.47819962E+02
 21
2.73320007E+02
  0
LINE
  8
0
 62
7
 10
8.79999561E+01
 20
2.88500000E+02
 11
1.46999969E+02
 21
2.88500000E+02
  0
LINE
  8
0
 62
7
 10
1.47999994E+02
 20
2.73499948E+02
 11
1.46999976E+02
 21
2.72499942E+02
  0
LINE
  8
0
 62
7
 10
1.49999958E+02
 20
2.86000015E+02
 11
1.57999962E+02
 21
2.86000015E+02
  0
LINE
  8
0
 62
7
 10
1.49999958E+02
 20
2.75000000E+02
 11
1.57999962E+02
 21
2.75000000E+02
  0
LINE
  8
0
 62
7
 10
1.47999966E+02
 20
2.87000000E+02
 11
1.49999958E+02
 21
2.87000000E+02
  0
LINE
  8
0
 62
7
 10
1.47999966E+02
 20
2.74000015E+02
 11
1.49999958E+02
 21
2.74000015E+02
  0
LINE
  8
0
 62
7
 10
1.49999969E+02
 20
2.83964127E+02
 11
1.49999969E+02
 21
2.77035873E+02
  0
LINE
  8
0
 62
7
 10
1.49999969E+02
 20
2.75000000E+02
 11
1.49999969E+02
 21
2.74000015E+02
  0
LINE
  8
0
 62
7
 10
-1.33999992E+02
 20
2.89000015E+02
 11
-1.33999992E+02
 21
2.72000015E+02
  0
LINE
  8
0
 62
7
 10
-1.28500038E+02
 20
2.70500046E+02
 11
-1.27000069E+02
 21
2.70500046E+02
  0
LINE
  8
0
 62
7
 10
-1.28500008E+02
 20
2.90500046E+02
 11
-1.27000023E+02
 21
2.90500046E+02
  0
LINE
  8
0
 62
7
 10
-1.39999977E+02
 20
2.71500015E+02
 11
-1.39999977E+02
 21
2.89500015E+02
  0
LINE
  8
0
 62
7
 10
-1.69000008E+02
 20
2.73000046E+02
 11
-1.69000008E+02
 21
2.87999847E+02
  0
LINE
  8
0
 62
7
 10
-1.67499977E+02
 20
2.71500015E+02
 11
-1.67499977E+02
 21
2.89500015E+02
  0
LINE
  8
0
 62
7
 10
-1.67499947E+02
 20
2.89500015E+02
 11
-1.59999992E+02
 21
2.89500015E+02
  0
LINE
  8
0
 62
2
 10
-1.68319954E+02
 20
2.88680008E+02
 11
-1.59999992E+02
 21
2.88680008E+02
  0
LINE
  8
0
 62
7
 10
-1.68999855E+02
 20
2.87999845E+02
 11
-1.67499823E+02
 21
2.89499832E+02
  0
LINE
  8
0
 62
7
 10
-1.67499947E+02
 20
2.71500031E+02
 11
-1.59999992E+02
 21
2.71500031E+02
  0
LINE
  8
0
 62
2
 10
-1.68319954E+02
 20
2.72320038E+02
 11
-1.59999992E+02
 21
2.72320038E+02
  0
LINE
  8
0
 62
7
 10
-1.69000040E+02
 20
2.73000147E+02
 11
-1.67500005E+02
 21
2.71500157E+02
  0
LINE
  8
0
 62
7
 10
-1.36999992E+02
 20
2.72000015E+02
 11
-1.36999992E+02
 21
2.89000015E+02
  0
LINE
  8
0
 62
7
 10
-1.36999992E+02
 20
2.72000015E+02
 11
-1.30000053E+02
 21
2.72000015E+02
  0
LINE
  8
0
 62
7
 10
-1.36999992E+02
 20
2.89000031E+02
 11
-1.30000053E+02
 21
2.89000031E+02
  0
LINE
  8
0
 62
7
 10
-1.30000116E+02
 20
2.72000094E+02
 11
-1.28500146E+02
 21
2.70500125E+02
  0
LINE
  8
0
 62
7
 10
-1.30000172E+02
 20
2.89000163E+02
 11
-1.28500149E+02
 21
2.90500186E+02
  0
LINE
  8
0
 62
7
 10
-1.39999977E+02
 20
2.88680008E+02
 11
-1.36999992E+02
 21
2.88680008E+02
  0
LINE
  8
0
 62
7
 10
-1.39999977E+02
 20
2.72320038E+02
 11
-1.36999992E+02
 21
2.72320038E+02
  0
ARC
  8
0
 62
7
 10
7.40547142E+01
 20
2.86500000E+02
 40
1.39452267E+01
 50
3.34516282E+02
 51
2.54837176E+01
  0
ARC
  8
0
 62
7
 10
7.40547142E+01
 20
2.74500000E+02
 40
1.39452267E+01
 50
3.34516282E+02
 51
2.54837176E+01
  0
ARC
  8
0
 62
7
 10
-1.26500053E+02
 20
2.64000046E+02
 40
5.00000000E-01
 50
1.79999977E+02
 51
2.69999974E+02
  0
ARC
  8
0
 62
7
 10
-1.21750008E+02
 20
2.63491470E+02
 40
2.50000000E-01
 50
1.79999977E+02
 51
2.68001132E+02
  0
ARC
  8
0
 62
7
 10
-1.13500008E+02
 20
2.61999985E+02
 40
5.00000000E-01
 50
1.79999977E+02
 51
2.69999974E+02
  0
ARC
  8
0
 62
7
 10
-1.26500053E+02
 20
2.96999954E+02
 40
5.00000000E-01
 50
8.99999818E+01
 51
1.79999964E+02
  0
ARC
  8
0
 62
7
 10
-1.21750008E+02
 20
2.97508530E+02
 40
2.50000000E-01
 50
9.19988230E+01
 51
1.79999977E+02
  0
ARC
  8
0
 62
7
 10
-1.13500008E+02
 20
2.99000000E+02
 40
5.00000000E-01
 50
8.99999818E+01
 51
1.79999964E+02
  0
CIRCLE
  8
0
 62
2
 10
4.10000534E+01
 20
2.88500015E+02
 40
8.32999992E+00
  0
ARC
  8
0
 62
7
 10
-1.11500038E+02
 20
2.44049927E+02
 40
5.00000000E-01
 50
1.79999977E+02
 51
2.68999706E+02
  0
ARC
  8
0
 62
7
 10
-8.70000534E+01
 20
2.68500000E+02
 40
5.00000000E+00
 50
0.00000000E+00
 51
1.79999964E+02
  0
ARC
  8
0
 62
7
 10
3.40000229E+01
 20
2.68500000E+02
 40
5.00000000E+00
 50
0.00000000E+00
 51
1.79999964E+02
  0
ARC
  8
0
 62
7
 10
3.40000229E+01
 20
2.68500000E+02
 40
5.00000000E+00
 50
1.79999977E+02
 51
1.00179127E-05
  0
CIRCLE
  8
0
 62
7
 10
4.10000534E+01
 20
2.88500015E+02
 40
7.44000053E+00
  0
CIRCLE
  8
0
 62
7
 10
4.10000534E+01
 20
2.88500015E+02
 40
8.71000004E+00
  0
ARC
  8
0
 62
7
 10
5.29999886E+01
 20
3.03500015E+02
 40
2.00000000E+00
 50
5.46415133E-05
 51
9.00000913E+01
  0
ARC
  8
0
 62
7
 10
5.29999886E+01
 20
2.57499985E+02
 40
2.00000000E+00
 50
2.70000073E+02
 51
5.46415133E-05
  0
ARC
  8
0
 62
7
 10
5.84999962E+01
 20
2.44049881E+02
 40
5.00000000E-01
 50
2.71000313E+02
 51
5.46415133E-05
  0
CIRCLE
  8
0
 62
7
 10
-9.40000534E+01
 20
2.88500015E+02
 40
7.44000053E+00
  0
ARC
  8
0
 62
7
 10
-1.11500038E+02
 20
3.16950104E+02
 40
5.00000000E-01
 50
9.10002223E+01
 51
1.79999964E+02
  0
CIRCLE
  8
0
 62
7
 10
-9.40000534E+01
 20
2.88500015E+02
 40
8.71000004E+00
  0
ARC
  8
0
 62
7
 10
-1.06000008E+02
 20
3.03500015E+02
 40
2.00000000E+00
 50
8.99999818E+01
 51
1.79999964E+02
  0
ARC
  8
0
 62
7
 10
-1.06000008E+02
 20
2.57499985E+02
 40
2.00000000E+00
 50
1.79999977E+02
 51
2.70000028E+02
  0
CIRCLE
  8
0
 62
2
 10
-9.40000534E+01
 20
2.88500015E+02
 40
8.32999992E+00
  0
ARC
  8
0
 62
7
 10
5.84999962E+01
 20
3.16950104E+02
 40
5.00000000E-01
 50
5.46415133E-05
 51
8.89997964E+01
  0
CIRCLE
  8
0
 62
7
 10
3.40000229E+01
 20
2.68500000E+02
 40
2.59999990E+00
  0
ARC
  8
0
 62
7
 10
-8.70000534E+01
 20
2.68500000E+02
 40
5.00000000E+00
 50
1.79999977E+02
 51
1.00179127E-05
  0
CIRCLE
  8
0
 62
7
 10
-8.70000534E+01
 20
2.68500000E+02
 40
2.59999990E+00
  0
ARC
  8
0
 62
4
 10
-1.68496385E+02
 20
2.73750000E+02
 40
1.94963929E+01
 50
3.39743842E+02
 51
2.02561580E+01
  0
ARC
  8
0
 62
4
 10
-1.68496385E+02
 20
2.87250000E+02
 40
1.94963929E+01
 50
3.39743842E+02
 51
2.02561580E+01
  0
ARC
  8
0
 62
4
 10
-1.40503599E+02
 20
2.87250000E+02
 40
1.94963929E+01
 50
1.59743842E+02
 51
2.00256158E+02
  0
ARC
  8
0
 62
4
 10
-1.40503599E+02
 20
2.73750000E+02
 40
1.94963929E+01
 50
1.59743842E+02
 51
2.00256158E+02
  0
LINE
  8
0
 62
4
 10
-1.50205764E+02
 20
2.80500000E+02
 11
-1.58794221E+02
 21
2.80500000E+02
  0
LINE
  8
0
 62
4
 10
-1.48999992E+02
 20
2.67000000E+02
 11
-1.59999992E+02
 21
2.67000000E+02
  0
LINE
  8
0
 62
4
 10
-1.48999992E+02
 20
2.94000000E+02
 11
-1.59999992E+02
 21
2.94000000E+02
  0
LINE
  8
0
 62
4
 10
-1.59999992E+02
 20
2.94000000E+02
 11
-1.59999992E+02
 21
2.67000000E+02
  0
LINE
  8
0
 62
4
 10
-1.48999992E+02
 20
2.94000000E+02
 11
-1.48999992E+02
 21
2.67000000E+02
  0
LINE
  8
0
 62
7
 10
-1.48999992E+02
 20
2.89500015E+02
 11
-1.39999977E+02
 21
2.89500015E+02
  0
LINE
  8
0
 62
2
 10
-1.48999992E+02
 20
2.88680008E+02
 11
-1.39999977E+02
 21
2.88680008E+02
  0
LINE
  8
0
 62
7
 10
-1.48999992E+02
 20
2.71500031E+02
 11
-1.39999977E+02
 21
2.71500031E+02
  0
LINE
  8
0
 62
2
 10
-1.48999992E+02
 20
2.72320038E+02
 11
-1.39999977E+02
 21
2.72320038E+02
  0
LINE
  8
0
 62
6
 10
-1.82679568E+01
 20
2.70928690E+02
 11
-2.17320584E+01
 21
2.64928690E+02
  0
LINE
  8
0
 62
4
 10
-1.00000076E+01
 20
2.69428690E+02
 11
-1.91339822E+01
 21
2.69428690E+02
  0
LINE
  8
0
  6
CENTER
 62
6
 10
2.49999924E+01
 20
2.67928690E+02
 11
-2.20000076E+01
 21
2.67928690E+02
  0
LINE
  8
0
 62
4
 10
-1.00000076E+01
 20
2.66428690E+02
 11
-2.08660330E+01
 21
2.66428690E+02
  0
LINE
  8
0
 62
6
 10
-3.07320432E+01
 20
2.90071310E+02
 11
-2.72679416E+01
 21
2.96071310E+02
  0
LINE
  8
0
 62
4
 10
-3.89999924E+01
 20
2.91571310E+02
 11
-2.98660178E+01
 21
2.91571310E+02
  0
LINE
  8
0
  6
CENTER
 62
6
 10
-7.39999924E+01
 20
2.93071310E+02
 11
-2.69999924E+01
 21
2.93071310E+02
  0
LINE
  8
0
 62
4
 10
-3.89999924E+01
 20
2.94571310E+02
 11
-2.81339670E+01
 21
2.94571310E+02
  0
LINE
  8
0
 62
4
 10
-5.00007659E-01
 20
2.42392203E+02
 11
-5.00007659E-01
 21
2.43232122E+02
  0
LINE
  8
0
 62
4
 10
3.49999234E+00
 20
2.42392203E+02
 11
3.49999234E+00
 21
2.43232122E+02
  0
LINE
  8
0
 62
6
 10
-7.65877667E-06
 20
2.41983412E+02
 11
-7.65877667E-06
 21
2.43232122E+02
  0
LINE
  8
0
 62
6
 10
2.99999234E+00
 20
2.41983412E+02
 11
2.99999234E+00
 21
2.43232122E+02
  0
LINE
  8
0
  6
CENTER
 62
6
 10
1.24999924E+01
 20
2.64544849E+02
 11
1.24999924E+01
 21
2.69544849E+02
  0
LINE
  8
0
  6
CENTER
 62
6
 10
1.49999234E+00
 20
2.37834391E+02
 11
1.49999234E+00
 21
2.48099969E+02
  0
LINE
  8
0
  6
CENTER
 62
6
 10
-6.50000766E+00
 20
2.37834391E+02
 11
-6.50000766E+00
 21
2.48099969E+02
  0
LINE
  8
0
 62
4
 10
1.99999924E+01
 20
2.55858390E+02
 11
1.99999924E+01
 21
2.68868049E+02
  0
LINE
  8
0
 62
4
 10
-1.00000076E+01
 20
2.43232122E+02
 11
-1.00000076E+01
 21
2.70598544E+02
  0
LINE
  8
0
 62
4
 10
4.99999237E+00
 20
2.43232122E+02
 11
4.99999237E+00
 21
2.55858390E+02
  0
LINE
  8
0
 62
4
 10
2.14999924E+01
 20
2.66500052E+02
 11
2.14999924E+01
 21
2.69354118E+02
  0
LINE
  8
0
 62
4
 10
4.99999237E+00
 20
2.43232122E+02
 11
-1.00000076E+01
 21
2.43232122E+02
  0
LINE
  8
0
 62
4
 10
4.99999237E+00
 20
2.51578636E+02
 11
-1.00000076E+01
 21
2.51578636E+02
  0
LINE
  8
0
 62
4
 10
1.99999924E+01
 20
2.55858390E+02
 11
-1.00000076E+01
 21
2.55858390E+02
  0
LINE
  8
0
 62
4
 10
1.99999924E+01
 20
2.65654273E+02
 11
-1.00000076E+01
 21
2.65654273E+02
  0
LINE
  8
0
 62
4
 10
1.99999924E+01
 20
2.70598544E+02
 11
8.90175995E+00
 21
2.70598544E+02
  0
POLYLINE
  8
0
 62
4
 66
1
  0
VERTEX
  8
0
 62
4
 10
-5.00007660E-01
 20
2.42392203E+02
  0
VERTEX
  8
0
 62
4
 10
-4.91956249E-01
 20
2.42336803E+02
  0
VERTEX
  8
0
 62
4
 10
-4.67866839E-01
 20
2.42281849E+02
  0
VERTEX
  8
0
 62
4
 10
-4.27933383E-01
 20
2.42227783E+02
  0
VERTEX
  8
0
 62
4
 10
-3.72477404E-01
 20
2.42175041E+02
  0
VERTEX
  8
0
 62
4
 10
-3.01945399E-01
 20
2.42124048E+02
  0
VERTEX
  8
0
 62
4
 10
-2.16905252E-01
 20
2.42075214E+02
  0
VERTEX
  8
0
 62
4
 10
-1.18041654E-01
 20
2.42028932E+02
  0
VERTEX
  8
0
 62
4
 10
-6.15059781E-03
 20
2.41985575E+02
  0
VERTEX
  8
0
 62
4
 10
1.17867036E-01
 20
2.41945491E+02
  0
VERTEX
  8
0
 62
4
 10
2.53012729E-01
 20
2.41909005E+02
  0
VERTEX
  8
0
 62
4
 10
3.98198369E-01
 20
2.41876408E+02
  0
VERTEX
  8
0
 62
4
 10
5.52255007E-01
 20
2.41847965E+02
  0
VERTEX
  8
0
 62
4
 10
7.13942268E-01
 20
2.41823904E+02
  0
VERTEX
  8
0
 62
4
 10
8.81958342E-01
 20
2.41804418E+02
  0
VERTEX
  8
0
 62
4
 10
1.05495046E+00
 20
2.41789664E+02
  0
VERTEX
  8
0
 62
4
 10
1.23152580E+00
 20
2.41779762E+02
  0
VERTEX
  8
0
 62
4
 10
1.41026267E+00
 20
2.41774791E+02
  0
VERTEX
  8
0
 62
4
 10
1.58972199E+00
 20
2.41774791E+02
  0
VERTEX
  8
0
 62
4
 10
1.76845886E+00
 20
2.41779762E+02
  0
VERTEX
  8
0
 62
4
 10
1.94503420E+00
 20
2.41789664E+02
  0
VERTEX
  8
0
 62
4
 10
2.11802632E+00
 20
2.41804418E+02
  0
VERTEX
  8
0
 62
4
 10
2.28604239E+00
 20
2.41823904E+02
  0
VERTEX
  8
0
 62
4
 10
2.44772965E+00
 20
2.41847965E+02
  0
VERTEX
  8
0
 62
4
 10
2.60178629E+00
 20
2.41876408E+02
  0
VERTEX
  8
0
 62
4
 10
2.74697193E+00
 20
2.41909005E+02
  0
VERTEX
  8
0
 62
4
 10
2.88211763E+00
 20
2.41945491E+02
  0
VERTEX
  8
0
 62
4
 10
3.00613526E+00
 20
2.41985575E+02
  0
VERTEX
  8
0
 62
4
 10
3.11802632E+00
 20
2.42028932E+02
  0
VERTEX
  8
0
 62
4
 10
3.21688992E+00
 20
2.42075214E+02
  0
VERTEX
  8
0
 62
4
 10
3.30193007E+00
 20
2.42124048E+02
  0
VERTEX
  8
0
 62
4
 10
3.37246208E+00
 20
2.42175041E+02
  0
VERTEX
  8
0
 62
4
 10
3.42791806E+00
 20
2.42227783E+02
  0
VERTEX
  8
0
 62
4
 10
3.46785151E+00
 20
2.42281849E+02
  0
VERTEX
  8
0
 62
4
 10
3.49194093E+00
 20
2.42336803E+02
  0
VERTEX
  8
0
 62
4
 10
3.49999234E+00
 20
2.42392203E+02
  0
SEQEND
  8
0
  0
LINE
  8
0
 62
4
 10
-8.50000766E+00
 20
2.42392203E+02
 11
-8.50000766E+00
 21
2.43232122E+02
  0
LINE
  8
0
 62
6
 10
-8.00000766E+00
 20
2.41983412E+02
 11
-8.00000766E+00
 21
2.43232122E+02
  0
POLYLINE
  8
0
 62
4
 66
1
  0
VERTEX
  8
0
 62
4
 10
-8.50000766E+00
 20
2.42392203E+02
  0
VERTEX
  8
0
 62
4
 10
-8.49195625E+00
 20
2.42336803E+02
  0
VERTEX
  8
0
 62
4
 10
-8.46786684E+00
 20
2.42281849E+02
  0
VERTEX
  8
0
 62
4
 10
-8.42793338E+00
 20
2.42227783E+02
  0
VERTEX
  8
0
 62
4
 10
-8.37247740E+00
 20
2.42175041E+02
  0
VERTEX
  8
0
 62
4
 10
-8.30194540E+00
 20
2.42124048E+02
  0
VERTEX
  8
0
 62
4
 10
-8.21690525E+00
 20
2.42075214E+02
  0
VERTEX
  8
0
 62
4
 10
-8.11804165E+00
 20
2.42028932E+02
  0
VERTEX
  8
0
 62
4
 10
-8.00615060E+00
 20
2.41985575E+02
  0
VERTEX
  8
0
 62
4
 10
-7.88213296E+00
 20
2.41945491E+02
  0
VERTEX
  8
0
 62
4
 10
-7.74698727E+00
 20
2.41909005E+02
  0
VERTEX
  8
0
 62
4
 10
-7.60180163E+00
 20
2.41876408E+02
  0
VERTEX
  8
0
 62
4
 10
-7.44774499E+00
 20
2.41847965E+02
  0
VERTEX
  8
0
 62
4
 10
-7.28605773E+00
 20
2.41823904E+02
  0
VERTEX
  8
0
 62
4
 10
-7.11804166E+00
 20
2.41804418E+02
  0
VERTEX
  8
0
 62
4
 10
-6.94504954E+00
 20
2.41789664E+02
  0
VERTEX
  8
0
 62
4
 10
-6.76847420E+00
 20
2.41779762E+02
  0
VERTEX
  8
0
 62
4
 10
-6.58973733E+00
 20
2.41774791E+02
  0
VERTEX
  8
0
 62
4
 10
-6.41027801E+00
 20
2.41774791E+02
  0
VERTEX
  8
0
 62
4
 10
-6.23154114E+00
 20
2.41779762E+02
  0
VERTEX
  8
0
 62
4
 10
-6.05496580E+00
 20
2.41789664E+02
  0
VERTEX
  8
0
 62
4
 10
-5.88197368E+00
 20
2.41804418E+02
  0
VERTEX
  8
0
 62
4
 10
-5.71395761E+00
 20
2.41823904E+02
  0
VERTEX
  8
0
 62
4
 10
-5.55227035E+00
 20
2.41847965E+02
  0
VERTEX
  8
0
 62
4
 10
-5.39821371E+00
 20
2.41876408E+02
  0
VERTEX
  8
0
 62
4
 10
-5.25302807E+00
 20
2.41909005E+02
  0
VERTEX
  8
0
 62
4
 10
-5.11788237E+00
 20
2.41945491E+02
  0
VERTEX
  8
0
 62
4
 10
-4.99386474E+00
 20
2.41985575E+02
  0
VERTEX
  8
0
 62
4
 10
-4.88197368E+00
 20
2.42028932E+02
  0
VERTEX
  8
0
 62
4
 10
-4.78311008E+00
 20
2.42075214E+02
  0
VERTEX
  8
0
 62
4
 10
-4.69806993E+00
 20
2.42124048E+02
  0
VERTEX
  8
0
 62
4
 10
-4.62753792E+00
 20
2.42175041E+02
  0
VERTEX
  8
0
 62
4
 10
-4.57208194E+00
 20
2.42227783E+02
  0
VERTEX
  8
0
 62
4
 10
-4.53214849E+00
 20
2.42281849E+02
  0
VERTEX
  8
0
 62
4
 10
-4.50805907E+00
 20
2.42336803E+02
  0
VERTEX
  8
0
 62
4
 10
-4.50000766E+00
 20
2.42392203E+02
  0
SEQEND
  8
0
  0
LINE
  8
0
 62
4
 10
-4.50000766E+00
 20
2.42392203E+02
 11
-4.50000766E+00
 21
2.43232122E+02
  0
LINE
  8
0
 62
6
 10
-5.00000766E+00
 20
2.41983412E+02
 11
-5.00000766E+00
 21
2.43232122E+02
  0
LINE
  8
0
 62
4
 10
1.99999924E+01
 20
2.65408543E+02
 11
2.14999924E+01
 21
2.66500052E+02
  0
LINE
  8
0
 62
4
 10
2.14999924E+01
 20
2.68654195E+02
 11
1.99999924E+01
 21
2.69212769E+02
  0
LINE
  8
0
 62
4
 10
1.99999924E+01
 20
2.70448837E+02
 11
2.14999924E+01
 21
2.69354118E+02
  0
LINE
  8
0
 62
4
 10
1.99999924E+01
 20
2.68868049E+02
 11
9.14999239E+00
 21
2.68868049E+02
  0
LINE
  8
0
 62
4
 10
-5.56560573E+00
 20
2.70289527E+02
 11
-1.00000076E+01
 21
2.70289527E+02
  0
LINE
  8
0
 62
4
 10
1.99999924E+01
 20
2.69212769E+02
 11
9.14999239E+00
 21
2.69212769E+02
  0
LINE
  8
0
 62
4
 10
1.99999924E+01
 20
2.70448837E+02
 11
9.04460764E+00
 21
2.70448837E+02
  0
LINE
  8
0
 62
4
 10
1.99999924E+01
 20
2.68868049E+02
 11
1.99999924E+01
 21
2.70448837E+02
  0
LINE
  8
0
 62
4
 10
1.99999924E+01
 20
2.70448837E+02
 11
1.99999924E+01
 21
2.70598544E+02
  0
ARC
  8
0
 62
4
 10
-1.00007307E-01
 20
2.69543217E+02
 40
1.00000000E+00
 50
3.60000000E+02
 51
7.71724899E+01
  0
ARC
  8
0
 62
4
 10
-4.90000795E+00
 20
2.69543217E+02
 40
1.00000000E+00
 50
1.02827510E+02
 51
1.80000000E+02
  0
ARC
  8
0
 62
4
 10
-2.50000763E+00
 20
2.59003003E+02
 40
1.18100000E+01
 50
7.71724899E+01
 51
1.02827510E+02
  0
LINE
  8
0
 62
4
 10
9.14999239E+00
 20
2.70161669E+02
 11
9.14999239E+00
 21
2.68487810E+02
  0
LINE
  8
0
 62
4
 10
8.49992385E-01
 20
2.70161669E+02
 11
8.49992385E-01
 21
2.69855468E+02
  0
POLYLINE
  8
0
 62
4
 66
1
  0
VERTEX
  8
0
 62
4
 10
1.29999238E+00
 20
2.67907014E+02
  0
VERTEX
  8
0
 62
4
 10
1.48180736E+00
 20
2.67807630E+02
  0
VERTEX
  8
0
 62
4
 10
1.69150461E+00
 20
2.67713637E+02
  0
VERTEX
  8
0
 62
4
 10
1.92742225E+00
 20
2.67625779E+02
  0
VERTEX
  8
0
 62
4
 10
2.18769057E+00
 20
2.67544753E+02
  0
VERTEX
  8
0
 62
4
 10
2.47024691E+00
 20
2.67471201E+02
  0
VERTEX
  8
0
 62
4
 10
2.77285196E+00
 20
2.67405706E+02
  0
VERTEX
  8
0
 62
4
 10
3.09310751E+00
 20
2.67348786E+02
  0
VERTEX
  8
0
 62
4
 10
3.42847548E+00
 20
2.67300894E+02
  0
VERTEX
  8
0
 62
4
 10
3.77629801E+00
 20
2.67262408E+02
  0
VERTEX
  8
0
 62
4
 10
4.13381855E+00
 20
2.67233633E+02
  0
VERTEX
  8
0
 62
4
 10
4.49820367E+00
 20
2.67214798E+02
  0
VERTEX
  8
0
 62
4
 10
4.86656557E+00
 20
2.67206052E+02
  0
VERTEX
  8
0
 62
4
 10
5.23598489E+00
 20
2.67207465E+02
  0
VERTEX
  8
0
 62
4
 10
5.60353394E+00
 20
2.67219024E+02
  0
VERTEX
  8
0
 62
4
 10
5.96629980E+00
 20
2.67240638E+02
  0
VERTEX
  8
0
 62
4
 10
6.32140750E+00
 20
2.67272137E+02
  0
VERTEX
  8
0
 62
4
 10
6.66604273E+00
 20
2.67313270E+02
  0
VERTEX
  8
0
 62
4
 10
6.99747421E+00
 20
2.67363711E+02
  0
VERTEX
  8
0
 62
4
 10
7.31307527E+00
 20
2.67423062E+02
  0
VERTEX
  8
0
 62
4
 10
7.61034472E+00
 20
2.67490850E+02
  0
VERTEX
  8
0
 62
4
 10
7.88692663E+00
 20
2.67566540E+02
  0
VERTEX
  8
0
 62
4
 10
8.14062906E+00
 20
2.67649531E+02
  0
VERTEX
  8
0
 62
4
 10
8.36944135E+00
 20
2.67739165E+02
  0
VERTEX
  8
0
 62
4
 10
8.57155014E+00
 20
2.67834732E+02
  0
VERTEX
  8
0
 62
4
 10
8.74535366E+00
 20
2.67935476E+02
  0
VERTEX
  8
0
 62
4
 10
8.88947450E+00
 20
2.68040596E+02
  0
VERTEX
  8
0
 62
4
 10
9.00277046E+00
 20
2.68149261E+02
  0
VERTEX
  8
0
 62
4
 10
9.08434366E+00
 20
2.68260609E+02
  0
VERTEX
  8
0
 62
4
 10
9.13354762E+00
 20
2.68373758E+02
  0
VERTEX
  8
0
 62
4
 10
9.14999238E+00
 20
2.68487810E+02
  0
SEQEND
  8
0
  0
POLYLINE
  8
0
 62
4
 66
1
  0
VERTEX
  8
0
 62
4
 10
9.14999238E+00
 20
2.70161669E+02
  0
VERTEX
  8
0
 62
4
 10
9.13420038E+00
 20
2.70273439E+02
  0
VERTEX
  8
0
 62
4
 10
9.08694455E+00
 20
2.70384359E+02
  0
VERTEX
  8
0
 62
4
 10
9.00858456E+00
 20
2.70493584E+02
  0
VERTEX
  8
0
 62
4
 10
8.89971676E+00
 20
2.70600283E+02
  0
VERTEX
  8
0
 62
4
 10
8.76116969E+00
 20
2.70703643E+02
  0
VERTEX
  8
0
 62
4
 10
8.59399780E+00
 20
2.70802879E+02
  0
VERTEX
  8
0
 62
4
 10
8.39947336E+00
 20
2.70897235E+02
  0
VERTEX
  8
0
 62
4
 10
8.17907682E+00
 20
2.70985993E+02
  0
VERTEX
  8
0
 62
4
 10
7.93448552E+00
 20
2.71068477E+02
  0
VERTEX
  8
0
 62
4
 10
7.66756096E+00
 20
2.71144060E+02
  0
VERTEX
  8
0
 62
4
 10
7.38033459E+00
 20
2.71212166E+02
  0
VERTEX
  8
0
 62
4
 10
7.07499237E+00
 20
2.71272278E+02
  0
VERTEX
  8
0
 62
4
 10
6.75385816E+00
 20
2.71323937E+02
  0
VERTEX
  8
0
 62
4
 10
6.41937597E+00
 20
2.71366750E+02
  0
VERTEX
  8
0
 62
4
 10
6.07409141E+00
 20
2.71400392E+02
  0
VERTEX
  8
0
 62
4
 10
5.72063231E+00
 20
2.71424607E+02
  0
VERTEX
  8
0
 62
4
 10
5.36168870E+00
 20
2.71439210E+02
  0
VERTEX
  8
0
 62
4
 10
4.99999237E+00
 20
2.71444090E+02
  0
VERTEX
  8
0
 62
4
 10
4.63829603E+00
 20
2.71439210E+02
  0
VERTEX
  8
0
 62
4
 10
4.27935243E+00
 20
2.71424607E+02
  0
VERTEX
  8
0
 62
4
 10
3.92589333E+00
 20
2.71400392E+02
  0
VERTEX
  8
0
 62
4
 10
3.58060877E+00
 20
2.71366750E+02
  0
VERTEX
  8
0
 62
4
 10
3.24612658E+00
 20
2.71323937E+02
  0
VERTEX
  8
0
 62
4
 10
2.92499236E+00
 20
2.71272278E+02
  0
VERTEX
  8
0
 62
4
 10
2.61965015E+00
 20
2.71212166E+02
  0
VERTEX
  8
0
 62
4
 10
2.33242378E+00
 20
2.71144060E+02
  0
VERTEX
  8
0
 62
4
 10
2.06549922E+00
 20
2.71068477E+02
  0
VERTEX
  8
0
 62
4
 10
1.82090792E+00
 20
2.70985993E+02
  0
VERTEX
  8
0
 62
4
 10
1.60051138E+00
 20
2.70897235E+02
  0
VERTEX
  8
0
 62
4
 10
1.40598693E+00
 20
2.70802879E+02
  0
VERTEX
  8
0
 62
4
 10
1.23881504E+00
 20
2.70703643E+02
  0
VERTEX
  8
0
 62
4
 10
1.10026798E+00
 20
2.70600283E+02
  0
VERTEX
  8
0
 62
4
 10
9.91400180E-01
 20
2.70493584E+02
  0
VERTEX
  8
0
 62
4
 10
9.13040184E-01
 20
2.70384359E+02
  0
VERTEX
  8
0
 62
4
 10
8.65784362E-01
 20
2.70273439E+02
  0
VERTEX
  8
0
 62
4
 10
8.49992360E-01
 20
2.70161669E+02
  0
VERTEX
  8
0
 62
4
 10
8.65784363E-01
 20
2.70049899E+02
  0
VERTEX
  8
0
 62
4
 10
9.13040186E-01
 20
2.69938979E+02
  0
VERTEX
  8
0
 62
4
 10
9.91400183E-01
 20
2.69829754E+02
  0
VERTEX
  8
0
 62
4
 10
1.10026799E+00
 20
2.69723055E+02
  0
VERTEX
  8
0
 62
4
 10
1.23881505E+00
 20
2.69619695E+02
  0
VERTEX
  8
0
 62
4
 10
1.40598694E+00
 20
2.69520459E+02
  0
VERTEX
  8
0
 62
4
 10
1.60051138E+00
 20
2.69426103E+02
  0
VERTEX
  8
0
 62
4
 10
1.82090793E+00
 20
2.69337345E+02
  0
VERTEX
  8
0
 62
4
 10
2.06549923E+00
 20
2.69254861E+02
  0
VERTEX
  8
0
 62
4
 10
2.33242379E+00
 20
2.69179278E+02
  0
VERTEX
  8
0
 62
4
 10
2.61965016E+00
 20
2.69111172E+02
  0
VERTEX
  8
0
 62
4
 10
2.92499237E+00
 20
2.69051060E+02
  0
VERTEX
  8
0
 62
4
 10
3.24612659E+00
 20
2.68999401E+02
  0
VERTEX
  8
0
 62
4
 10
3.58060878E+00
 20
2.68956588E+02
  0
VERTEX
  8
0
 62
4
 10
3.92589334E+00
 20
2.68922946E+02
  0
VERTEX
  8
0
 62
4
 10
4.27935244E+00
 20
2.68898731E+02
  0
VERTEX
  8
0
 62
4
 10
4.63829605E+00
 20
2.68884128E+02
  0
VERTEX
  8
0
 62
4
 10
4.99999238E+00
 20
2.68879249E+02
  0
VERTEX
  8
0
 62
4
 10
5.36168871E+00
 20
2.68884128E+02
  0
VERTEX
  8
0
 62
4
 10
5.72063232E+00
 20
2.68898731E+02
  0
VERTEX
  8
0
 62
4
 10
6.07409142E+00
 20
2.68922946E+02
  0
VERTEX
  8
0
 62
4
 10
6.41937598E+00
 20
2.68956588E+02
  0
VERTEX
  8
0
 62
4
 10
6.75385817E+00
 20
2.68999401E+02
  0
VERTEX
  8
0
 62
4
 10
7.07499238E+00
 20
2.69051060E+02
  0
VERTEX
  8
0
 62
4
 10
7.38033459E+00
 20
2.69111172E+02
  0
VERTEX
  8
0
 62
4
 10
7.66756096E+00
 20
2.69179278E+02
  0
VERTEX
  8
0
 62
4
 10
7.93448553E+00
 20
2.69254861E+02
  0
VERTEX
  8
0
 62
4
 10
8.17907682E+00
 20
2.69337345E+02
  0
VERTEX
  8
0
 62
4
 10
8.39947337E+00
 20
2.69426103E+02
  0
VERTEX
  8
0
 62
4
 10
8.59399781E+00
 20
2.69520459E+02
  0
VERTEX
  8
0
 62
4
 10
8.76116970E+00
 20
2.69619695E+02
  0
VERTEX
  8
0
 62
4
 10
8.89971676E+00
 20
2.69723055E+02
  0
VERTEX
  8
0
 62
4
 10
9.00858456E+00
 20
2.69829754E+02
  0
VERTEX
  8
0
 62
4
 10
9.08694456E+00
 20
2.69938979E+02
  0
VERTEX
  8
0
 62
4
 10
9.13420038E+00
 20
2.70049899E+02
  0
VERTEX
  8
0
 62
4
 10
9.14999238E+00
 20
2.70161669E+02
  0
SEQEND
  8
0
  0
LINE
  8
0
 62
4
 10
8.99999237E+00
 20
2.68146140E+02
 11
8.99999237E+00
 21
2.68126408E+02
  0
POLYLINE
  8
0
 62
4
 66
1
  0
VERTEX
  8
0
 62
4
 10
1.29999238E+00
 20
2.67656743E+02
  0
VERTEX
  8
0
 62
4
 10
1.44930035E+00
 20
2.67557230E+02
  0
VERTEX
  8
0
 62
4
 10
1.62656903E+00
 20
2.67462200E+02
  0
VERTEX
  8
0
 62
4
 10
1.83040248E+00
 20
2.67372400E+02
  0
VERTEX
  8
0
 62
4
 10
2.05919557E+00
 20
2.67288538E+02
  0
VERTEX
  8
0
 62
4
 10
2.31114662E+00
 20
2.67211274E+02
  0
VERTEX
  8
0
 62
4
 10
2.58427158E+00
 20
2.67141216E+02
  0
VERTEX
  8
0
 62
4
 10
2.87641967E+00
 20
2.67078916E+02
  0
VERTEX
  8
0
 62
4
 10
3.18529030E+00
 20
2.67024865E+02
  0
VERTEX
  8
0
 62
4
 10
3.50845121E+00
 20
2.66979488E+02
  0
VERTEX
  8
0
 62
4
 10
3.84335758E+00
 20
2.66943143E+02
  0
VERTEX
  8
0
 62
4
 10
4.18737214E+00
 20
2.66916116E+02
  0
VERTEX
  8
0
 62
4
 10
4.53778585E+00
 20
2.66898620E+02
  0
VERTEX
  8
0
 62
4
 10
4.89183931E+00
 20
2.66890792E+02
  0
VERTEX
  8
0
 62
4
 10
5.24674445E+00
 20
2.66892694E+02
  0
VERTEX
  8
0
 62
4
 10
5.59970648E+00
 20
2.66904311E+02
  0
VERTEX
  8
0
 62
4
 10
5.94794594E+00
 20
2.66925553E+02
  0
VERTEX
  8
0
 62
4
 10
6.28872052E+00
 20
2.66956250E+02
  0
VERTEX
  8
0
 62
4
 10
6.61934672E+00
 20
2.66996162E+02
  0
VERTEX
  8
0
 62
4
 10
6.93722096E+00
 20
2.67044975E+02
  0
VERTEX
  8
0
 62
4
 10
7.23984006E+00
 20
2.67102303E+02
  0
VERTEX
  8
0
 62
4
 10
7.52482099E+00
 20
2.67167696E+02
  0
VERTEX
  8
0
 62
4
 10
7.78991959E+00
 20
2.67240639E+02
  0
VERTEX
  8
0
 62
4
 10
8.03304830E+00
 20
2.67320556E+02
  0
VERTEX
  8
0
 62
4
 10
8.25229253E+00
 20
2.67406820E+02
  0
VERTEX
  8
0
 62
4
 10
8.44592580E+00
 20
2.67498750E+02
  0
VERTEX
  8
0
 62
4
 10
8.61242330E+00
 20
2.67595623E+02
  0
VERTEX
  8
0
 62
4
 10
8.75047392E+00
 20
2.67696676E+02
  0
VERTEX
  8
0
 62
4
 10
8.85899054E+00
 20
2.67801112E+02
  0
VERTEX
  8
0
 62
4
 10
8.93711862E+00
 20
2.67908111E+02
  0
VERTEX
  8
0
 62
4
 10
8.98424293E+00
 20
2.68016828E+02
  0
VERTEX
  8
0
 62
4
 10
8.99999237E+00
 20
2.68126408E+02
  0
SEQEND
  8
0
  0
ARC
  8
0
 62
4
 10
9.18761442E+00
 20
2.57173172E+02
 40
1.43299558E+01
 50
9.97219440E+01
 51
1.14556488E+02
  0
ARC
  8
0
 62
4
 10
8.12368852E-01
 20
2.57173167E+02
 40
1.43299613E+01
 50
6.54435144E+01
 51
8.02780535E+01
  0
LINE
  8
0
 62
4
 10
1.29999237E+00
 20
2.67995906E+02
 11
1.29999237E+00
 21
2.67044849E+02
  0
POLYLINE
  8
0
 62
4
 66
1
  0
VERTEX
  8
0
 62
4
 10
-6.30000763E+00
 20
2.67044849E+02
  0
VERTEX
  8
0
 62
4
 10
-6.28470995E+00
 20
2.66939589E+02
  0
VERTEX
  8
0
 62
4
 10
-6.23894007E+00
 20
2.66835176E+02
  0
VERTEX
  8
0
 62
4
 10
-6.16306650E+00
 20
2.66732451E+02
  0
VERTEX
  8
0
 62
4
 10
-6.05770014E+00
 20
2.66632242E+02
  0
VERTEX
  8
0
 62
4
 10
-5.92368933E+00
 20
2.66535355E+02
  0
VERTEX
  8
0
 62
4
 10
-5.76211305E+00
 20
2.66442570E+02
  0
VERTEX
  8
0
 62
4
 10
-5.57427222E+00
 20
2.66354634E+02
  0
VERTEX
  8
0
 62
4
 10
-5.36167921E+00
 20
2.66272255E+02
  0
VERTEX
  8
0
 62
4
 10
-5.12604571E+00
 20
2.66196097E+02
  0
VERTEX
  8
0
 62
4
 10
-4.86926889E+00
 20
2.66126772E+02
  0
VERTEX
  8
0
 62
4
 10
-4.59341617E+00
 20
2.66064839E+02
  0
VERTEX
  8
0
 62
4
 10
-4.30070856E+00
 20
2.66010797E+02
  0
VERTEX
  8
0
 62
4
 10
-3.99350277E+00
 20
2.65965080E+02
  0
VERTEX
  8
0
 62
4
 10
-3.67427223E+00
 20
2.65928057E+02
  0
VERTEX
  8
0
 62
4
 10
-3.34558720E+00
 20
2.65900026E+02
  0
VERTEX
  8
0
 62
4
 10
-3.01009406E+00
 20
2.65881212E+02
  0
VERTEX
  8
0
 62
4
 10
-2.67049401E+00
 20
2.65871767E+02
  0
VERTEX
  8
0
 62
4
 10
-2.32952130E+00
 20
2.65871767E+02
  0
VERTEX
  8
0
 62
4
 10
-1.98992124E+00
 20
2.65881212E+02
  0
VERTEX
  8
0
 62
4
 10
-1.65442810E+00
 20
2.65900026E+02
  0
VERTEX
  8
0
 62
4
 10
-1.32574307E+00
 20
2.65928057E+02
  0
VERTEX
  8
0
 62
4
 10
-1.00651253E+00
 20
2.65965080E+02
  0
VERTEX
  8
0
 62
4
 10
-6.99306733E-01
 20
2.66010797E+02
  0
VERTEX
  8
0
 62
4
 10
-4.06599120E-01
 20
2.66064839E+02
  0
VERTEX
  8
0
 62
4
 10
-1.30746401E-01
 20
2.66126772E+02
  0
VERTEX
  8
0
 62
4
 10
1.26030419E-01
 20
2.66196097E+02
  0
VERTEX
  8
0
 62
4
 10
3.61663925E-01
 20
2.66272255E+02
  0
VERTEX
  8
0
 62
4
 10
5.74256934E-01
 20
2.66354634E+02
  0
VERTEX
  8
0
 62
4
 10
7.62097773E-01
 20
2.66442570E+02
  0
VERTEX
  8
0
 62
4
 10
9.23674057E-01
 20
2.66535355E+02
  0
VERTEX
  8
0
 62
4
 10
1.05768487E+00
 20
2.66632242E+02
  0
VERTEX
  8
0
 62
4
 10
1.16305123E+00
 20
2.66732451E+02
  0
VERTEX
  8
0
 62
4
 10
1.23892480E+00
 20
2.66835176E+02
  0
VERTEX
  8
0
 62
4
 10
1.28469468E+00
 20
2.66939589E+02
  0
VERTEX
  8
0
 62
4
 10
1.29999237E+00
 20
2.67044849E+02
  0
SEQEND
  8
0
  0
POLYLINE
  8
0
 62
4
 66
1
  0
VERTEX
  8
0
 62
4
 10
-5.90000764E+00
 20
2.68520325E+02
  0
VERTEX
  8
0
 62
4
 10
-6.03658930E+00
 20
2.68425494E+02
  0
VERTEX
  8
0
 62
4
 10
-6.14553717E+00
 20
2.68327306E+02
  0
VERTEX
  8
0
 62
4
 10
-6.22599995E+00
 20
2.68226529E+02
  0
VERTEX
  8
0
 62
4
 10
-6.27734893E+00
 20
2.68123950E+02
  0
VERTEX
  8
0
 62
4
 10
-6.29918288E+00
 20
2.68020370E+02
  0
VERTEX
  8
0
 62
4
 10
-6.29133121E+00
 20
2.67916599E+02
  0
VERTEX
  8
0
 62
4
 10
-6.25385526E+00
 20
2.67813448E+02
  0
VERTEX
  8
0
 62
4
 10
-6.18704785E+00
 20
2.67711722E+02
  0
VERTEX
  8
0
 62
4
 10
-6.09143101E+00
 20
2.67612217E+02
  0
VERTEX
  8
0
 62
4
 10
-5.96775185E+00
 20
2.67515710E+02
  0
VERTEX
  8
0
 62
4
 10
-5.81697677E+00
 20
2.67422955E+02
  0
VERTEX
  8
0
 62
4
 10
-5.64028387E+00
 20
2.67334677E+02
  0
VERTEX
  8
0
 62
4
 10
-5.43905379E+00
 20
2.67251566E+02
  0
VERTEX
  8
0
 62
4
 10
-5.21485887E+00
 20
2.67174270E+02
  0
VERTEX
  8
0
 62
4
 10
-4.96945091E+00
 20
2.67103395E+02
  0
VERTEX
  8
0
 62
4
 10
-4.70474745E+00
 20
2.67039494E+02
  0
VERTEX
  8
0
 62
4
 10
-4.42281681E+00
 20
2.66983065E+02
  0
VERTEX
  8
0
 62
4
 10
-4.12586191E+00
 20
2.66934551E+02
  0
VERTEX
  8
0
 62
4
 10
-3.81620307E+00
 20
2.66894330E+02
  0
VERTEX
  8
0
 62
4
 10
-3.49625986E+00
 20
2.66862716E+02
  0
VERTEX
  8
0
 62
4
 10
-3.16853224E+00
 20
2.66839956E+02
  0
VERTEX
  8
0
 62
4
 10
-2.83558096E+00
 20
2.66826229E+02
  0
VERTEX
  8
0
 62
4
 10
-2.50000761E+00
 20
2.66821641E+02
  0
VERTEX
  8
0
 62
4
 10
-2.16443426E+00
 20
2.66826229E+02
  0
VERTEX
  8
0
 62
4
 10
-1.83148299E+00
 20
2.66839956E+02
  0
VERTEX
  8
0
 62
4
 10
-1.50375536E+00
 20
2.66862716E+02
  0
VERTEX
  8
0
 62
4
 10
-1.18381216E+00
 20
2.66894330E+02
  0
VERTEX
  8
0
 62
4
 10
-8.74153316E-01
 20
2.66934551E+02
  0
VERTEX
  8
0
 62
4
 10
-5.77198416E-01
 20
2.66983065E+02
  0
VERTEX
  8
0
 62
4
 10
-2.95267777E-01
 20
2.67039494E+02
  0
VERTEX
  8
0
 62
4
 10
-3.05643209E-02
 20
2.67103395E+02
  0
VERTEX
  8
0
 62
4
 10
2.14843637E-01
 20
2.67174270E+02
  0
VERTEX
  8
0
 62
4
 10
4.39038553E-01
 20
2.67251566E+02
  0
VERTEX
  8
0
 62
4
 10
6.40268634E-01
 20
2.67334677E+02
  0
VERTEX
  8
0
 62
4
 10
8.16961528E-01
 20
2.67422955E+02
  0
VERTEX
  8
0
 62
4
 10
9.67736608E-01
 20
2.67515710E+02
  0
VERTEX
  8
0
 62
4
 10
1.09141576E+00
 20
2.67612217E+02
  0
VERTEX
  8
0
 62
4
 10
1.18703260E+00
 20
2.67711722E+02
  0
VERTEX
  8
0
 62
4
 10
1.25384000E+00
 20
2.67813448E+02
  0
VERTEX
  8
0
 62
4
 10
1.29131595E+00
 20
2.67916599E+02
  0
VERTEX
  8
0
 62
4
 10
1.29916762E+00
 20
2.68020370E+02
  0
VERTEX
  8
0
 62
4
 10
1.27733366E+00
 20
2.68123950E+02
  0
VERTEX
  8
0
 62
4
 10
1.22598468E+00
 20
2.68226529E+02
  0
VERTEX
  8
0
 62
4
 10
1.14552190E+00
 20
2.68327306E+02
  0
VERTEX
  8
0
 62
4
 10
1.03657403E+00
 20
2.68425494E+02
  0
VERTEX
  8
0
 62
4
 10
8.99992362E-01
 20
2.68520325E+02
  0
SEQEND
  8
0
  0
LINE
  8
0
 62
4
 10
-6.30000763E+00
 20
2.67995906E+02
 11
-6.30000763E+00
 21
2.67044849E+02
  0
LINE
  8
0
 62
4
 10
8.99992371E-01
 20
2.69543217E+02
 11
8.99992371E-01
 21
2.67995906E+02
  0
POLYLINE
  8
0
 62
4
 66
1
  0
VERTEX
  8
0
 62
4
 10
-5.90000763E+00
 20
2.67995906E+02
  0
VERTEX
  8
0
 62
4
 10
-5.88632023E+00
 20
2.67901726E+02
  0
VERTEX
  8
0
 62
4
 10
-5.84536823E+00
 20
2.67808304E+02
  0
VERTEX
  8
0
 62
4
 10
-5.77748136E+00
 20
2.67716392E+02
  0
VERTEX
  8
0
 62
4
 10
-5.68320619E+00
 20
2.67626731E+02
  0
VERTEX
  8
0
 62
4
 10
-5.56330179E+00
 20
2.67540043E+02
  0
VERTEX
  8
0
 62
4
 10
-5.41873354E+00
 20
2.67457024E+02
  0
VERTEX
  8
0
 62
4
 10
-5.25066542E+00
 20
2.67378345E+02
  0
VERTEX
  8
0
 62
4
 10
-5.06045062E+00
 20
2.67304638E+02
  0
VERTEX
  8
0
 62
4
 10
-4.84962065E+00
 20
2.67236496E+02
  0
VERTEX
  8
0
 62
4
 10
-4.61987297E+00
 20
2.67174469E+02
  0
VERTEX
  8
0
 62
4
 10
-4.37305738E+00
 20
2.67119055E+02
  0
VERTEX
  8
0
 62
4
 10
-4.11116110E+00
 20
2.67070701E+02
  0
VERTEX
  8
0
 62
4
 10
-3.83629275E+00
 20
2.67029797E+02
  0
VERTEX
  8
0
 62
4
 10
-3.55066543E+00
 20
2.66996671E+02
  0
VERTEX
  8
0
 62
4
 10
-3.25657882E+00
 20
2.66971590E+02
  0
VERTEX
  8
0
 62
4
 10
-2.95640075E+00
 20
2.66954757E+02
  0
VERTEX
  8
0
 62
4
 10
-2.65254807E+00
 20
2.66946306E+02
  0
VERTEX
  8
0
 62
4
 10
-2.34746723E+00
 20
2.66946306E+02
  0
VERTEX
  8
0
 62
4
 10
-2.04361454E+00
 20
2.66954757E+02
  0
VERTEX
  8
0
 62
4
 10
-1.74343647E+00
 20
2.66971590E+02
  0
VERTEX
  8
0
 62
4
 10
-1.44934987E+00
 20
2.66996671E+02
  0
VERTEX
  8
0
 62
4
 10
-1.16372254E+00
 20
2.67029797E+02
  0
VERTEX
  8
0
 62
4
 10
-8.88854195E-01
 20
2.67070701E+02
  0
VERTEX
  8
0
 62
4
 10
-6.26957910E-01
 20
2.67119055E+02
  0
VERTEX
  8
0
 62
4
 10
-3.80142320E-01
 20
2.67174469E+02
  0
VERTEX
  8
0
 62
4
 10
-1.50394639E-01
 20
2.67236496E+02
  0
VERTEX
  8
0
 62
4
 10
6.04353402E-02
 20
2.67304638E+02
  0
VERTEX
  8
0
 62
4
 10
2.50650138E-01
 20
2.67378345E+02
  0
VERTEX
  8
0
 62
4
 10
4.18718257E-01
 20
2.67457024E+02
  0
VERTEX
  8
0
 62
4
 10
5.63286511E-01
 20
2.67540043E+02
  0
VERTEX
  8
0
 62
4
 10
6.83190922E-01
 20
2.67626731E+02
  0
VERTEX
  8
0
 62
4
 10
7.77466090E-01
 20
2.67716392E+02
  0
VERTEX
  8
0
 62
4
 10
8.45352967E-01
 20
2.67808304E+02
  0
VERTEX
  8
0
 62
4
 10
8.86304967E-01
 20
2.67901726E+02
  0
VERTEX
  8
0
 62
4
 10
8.99992370E-01
 20
2.67995906E+02
  0
SEQEND
  8
0
  0
LINE
  8
0
 62
4
 10
-5.90000763E+00
 20
2.69543217E+02
 11
-5.90000763E+00
 21
2.67995906E+02
  0
POLYLINE
  8
0
 62
4
 66
1
  0
VERTEX
  8
0
 62
4
 10
-5.90000763E+00
 20
2.69543211E+02
  0
VERTEX
  8
0
 62
4
 10
-5.88631840E+00
 20
2.69449030E+02
  0
VERTEX
  8
0
 62
4
 10
-5.84536459E+00
 20
2.69355609E+02
  0
VERTEX
  8
0
 62
4
 10
-5.77747593E+00
 20
2.69263697E+02
  0
VERTEX
  8
0
 62
4
 10
-5.68319903E+00
 20
2.69174036E+02
  0
VERTEX
  8
0
 62
4
 10
-5.56329294E+00
 20
2.69087348E+02
  0
VERTEX
  8
0
 62
4
 10
-5.41872307E+00
 20
2.69004330E+02
  0
VERTEX
  8
0
 62
4
 10
-5.25065343E+00
 20
2.68925651E+02
  0
VERTEX
  8
0
 62
4
 10
-5.06043720E+00
 20
2.68851944E+02
  0
VERTEX
  8
0
 62
4
 10
-4.84960590E+00
 20
2.68783803E+02
  0
VERTEX
  8
0
 62
4
 10
-4.61985702E+00
 20
2.68721776E+02
  0
VERTEX
  8
0
 62
4
 10
-4.37304035E+00
 20
2.68666363E+02
  0
VERTEX
  8
0
 62
4
 10
-4.11114313E+00
 20
2.68618009E+02
  0
VERTEX
  8
0
 62
4
 10
-3.83627399E+00
 20
2.68577106E+02
  0
VERTEX
  8
0
 62
4
 10
-3.55064603E+00
 20
2.68543980E+02
  0
VERTEX
  8
0
 62
4
 10
-3.25655893E+00
 20
2.68518900E+02
  0
VERTEX
  8
0
 62
4
 10
-2.95638054E+00
 20
2.68502067E+02
  0
VERTEX
  8
0
 62
4
 10
-2.65252769E+00
 20
2.68493617E+02
  0
VERTEX
  8
0
 62
4
 10
-2.34744685E+00
 20
2.68493617E+02
  0
VERTEX
  8
0
 62
4
 10
-2.04359433E+00
 20
2.68502069E+02
  0
VERTEX
  8
0
 62
4
 10
-1.74341658E+00
 20
2.68518903E+02
  0
VERTEX
  8
0
 62
4
 10
-1.44933047E+00
 20
2.68543984E+02
  0
VERTEX
  8
0
 62
4
 10
-1.16370378E+00
 20
2.68577110E+02
  0
VERTEX
  8
0
 62
4
 10
-8.88836231E-01
 20
2.68618015E+02
  0
VERTEX
  8
0
 62
4
 10
-6.26940885E-01
 20
2.68666370E+02
  0
VERTEX
  8
0
 62
4
 10
-3.80126371E-01
 20
2.68721784E+02
  0
VERTEX
  8
0
 62
4
 10
-1.50379894E-01
 20
2.68783811E+02
  0
VERTEX
  8
0
 62
4
 10
6.04487621E-02
 20
2.68851953E+02
  0
VERTEX
  8
0
 62
4
 10
2.50662129E-01
 20
2.68925661E+02
  0
VERTEX
  8
0
 62
4
 10
4.18728720E-01
 20
2.69004341E+02
  0
VERTEX
  8
0
 62
4
 10
5.63295362E-01
 20
2.69087359E+02
  0
VERTEX
  8
0
 62
4
 10
6.83198090E-01
 20
2.69174048E+02
  0
VERTEX
  8
0
 62
4
 10
7.77471517E-01
 20
2.69263709E+02
  0
VERTEX
  8
0
 62
4
 10
8.45356610E-01
 20
2.69355621E+02
  0
VERTEX
  8
0
 62
4
 10
8.86306796E-01
 20
2.69449043E+02
  0
VERTEX
  8
0
 62
4
 10
8.99992370E-01
 20
2.69543223E+02
  0
SEQEND
  8
0
  0
ARC
  8
0
 62
4
 10
1.66049226E+00
 20
2.56688800E+02
 40
1.42127873E+01
 50
9.99307184E+01
 51
1.14652136E+02
  0
ARC
  8
0
 62
4
 10
-6.66050779E+00
 20
2.56688799E+02
 40
1.42127883E+01
 50
6.53478648E+01
 51
8.00692808E+01
  0
LINE
  8
0
  6
CENTER
 62
6
 10
1.49999924E+01
 20
2.67044849E+02
 11
9.99999237E+00
 21
2.67044849E+02
  0
LINE
  8
0
  6
CENTER
 62
6
 10
4.99999237E+00
 20
2.65626408E+02
 11
4.99999237E+00
 21
2.70626408E+02
  0
LINE
  8
0
  6
CENTER
 62
6
 10
7.49999237E+00
 20
2.68126408E+02
 11
2.49999237E+00
 21
2.68126408E+02
  0
LINE
  8
0
  6
CENTER
 62
6
 10
-2.50000763E+00
 20
2.64544849E+02
 11
-2.50000763E+00
 21
2.69544849E+02
  0
LINE
  8
0
  6
CENTER
 62
6
 10
-7.62939459E-06
 20
2.67044849E+02
 11
-5.00000763E+00
 21
2.67044849E+02
  0
LINE
  8
0
 62
4
 10
1.09822479E+00
 20
2.70598544E+02
 11
-2.59577351E-01
 21
2.70598544E+02
  0
LINE
  8
0
 62
4
 10
9.55377099E-01
 20
2.70448837E+02
 11
3.24082242E-01
 21
2.70448837E+02
  0
LINE
  8
0
 62
4
 10
-5.90000763E+00
 20
2.68868049E+02
 11
-1.00000076E+01
 21
2.68868049E+02
  0
LINE
  8
0
 62
4
 10
-4.74043791E+00
 20
2.70598544E+02
 11
-1.00000076E+01
 21
2.70598544E+02
  0
LINE
  8
0
 62
4
 10
-4.84999923E+01
 20
3.18607797E+02
 11
-4.84999923E+01
 21
3.17767878E+02
  0
LINE
  8
0
 62
4
 10
-5.24999923E+01
 20
3.18607797E+02
 11
-5.24999923E+01
 21
3.17767878E+02
  0
LINE
  8
0
 62
6
 10
-4.89999923E+01
 20
3.19016588E+02
 11
-4.89999923E+01
 21
3.17767878E+02
  0
LINE
  8
0
 62
6
 10
-5.19999923E+01
 20
3.19016588E+02
 11
-5.19999923E+01
 21
3.17767878E+02
  0
LINE
  8
0
  6
CENTER
 62
6
 10
-6.14999924E+01
 20
2.96455151E+02
 11
-6.14999924E+01
 21
2.91455151E+02
  0
LINE
  8
0
  6
CENTER
 62
6
 10
-5.04999923E+01
 20
3.23165609E+02
 11
-5.04999923E+01
 21
3.12900031E+02
  0
LINE
  8
0
  6
CENTER
 62
6
 10
-4.24999923E+01
 20
3.23165609E+02
 11
-4.24999923E+01
 21
3.12900031E+02
  0
LINE
  8
0
 62
4
 10
-6.89999924E+01
 20
3.05141610E+02
 11
-6.89999924E+01
 21
2.92131951E+02
  0
LINE
  8
0
 62
4
 10
-3.89999924E+01
 20
3.17767878E+02
 11
-3.89999924E+01
 21
2.90401456E+02
  0
LINE
  8
0
 62
4
 10
-5.39999924E+01
 20
3.17767878E+02
 11
-5.39999924E+01
 21
3.05141610E+02
  0
LINE
  8
0
 62
4
 10
-7.04999924E+01
 20
2.94499948E+02
 11
-7.04999924E+01
 21
2.91645882E+02
  0
LINE
  8
0
 62
4
 10
-5.39999924E+01
 20
3.17767878E+02
 11
-3.89999924E+01
 21
3.17767878E+02
  0
LINE
  8
0
 62
4
 10
-5.39999924E+01
 20
3.09421364E+02
 11
-3.89999924E+01
 21
3.09421364E+02
  0
LINE
  8
0
 62
4
 10
-6.89999924E+01
 20
3.05141610E+02
 11
-3.89999924E+01
 21
3.05141610E+02
  0
LINE
  8
0
 62
4
 10
-6.89999924E+01
 20
2.95345727E+02
 11
-3.89999924E+01
 21
2.95345727E+02
  0
LINE
  8
0
 62
4
 10
-6.89999924E+01
 20
2.90401456E+02
 11
-5.79017600E+01
 21
2.90401456E+02
  0
POLYLINE
  8
0
 62
4
 66
1
  0
VERTEX
  8
0
 62
4
 10
-4.84999923E+01
 20
3.18607797E+02
  0
VERTEX
  8
0
 62
4
 10
-4.85080437E+01
 20
3.18663197E+02
  0
VERTEX
  8
0
 62
4
 10
-4.85321331E+01
 20
3.18718151E+02
  0
VERTEX
  8
0
 62
4
 10
-4.85720666E+01
 20
3.18772217E+02
  0
VERTEX
  8
0
 62
4
 10
-4.86275226E+01
 20
3.18824959E+02
  0
VERTEX
  8
0
 62
4
 10
-4.86980546E+01
 20
3.18875952E+02
  0
VERTEX
  8
0
 62
4
 10
-4.87830947E+01
 20
3.18924786E+02
  0
VERTEX
  8
0
 62
4
 10
-4.88819583E+01
 20
3.18971068E+02
  0
VERTEX
  8
0
 62
4
 10
-4.89938494E+01
 20
3.19014425E+02
  0
VERTEX
  8
0
 62
4
 10
-4.91178670E+01
 20
3.19054509E+02
  0
VERTEX
  8
0
 62
4
 10
-4.92530127E+01
 20
3.19090995E+02
  0
VERTEX
  8
0
 62
4
 10
-4.93981983E+01
 20
3.19123592E+02
  0
VERTEX
  8
0
 62
4
 10
-4.95522550E+01
 20
3.19152035E+02
  0
VERTEX
  8
0
 62
4
 10
-4.97139422E+01
 20
3.19176096E+02
  0
VERTEX
  8
0
 62
4
 10
-4.98819583E+01
 20
3.19195582E+02
  0
VERTEX
  8
0
 62
4
 10
-5.00549504E+01
 20
3.19210336E+02
  0
VERTEX
  8
0
 62
4
 10
-5.02315258E+01
 20
3.19220238E+02
  0
VERTEX
  8
0
 62
4
 10
-5.04102626E+01
 20
3.19225209E+02
  0
VERTEX
  8
0
 62
4
 10
-5.05897219E+01
 20
3.19225209E+02
  0
VERTEX
  8
0
 62
4
 10
-5.07684588E+01
 20
3.19220238E+02
  0
VERTEX
  8
0
 62
4
 10
-5.09450342E+01
 20
3.19210336E+02
  0
VERTEX
  8
0
 62
4
 10
-5.11180263E+01
 20
3.19195582E+02
  0
VERTEX
  8
0
 62
4
 10
-5.12860424E+01
 20
3.19176096E+02
  0
VERTEX
  8
0
 62
4
 10
-5.14477296E+01
 20
3.19152035E+02
  0
VERTEX
  8
0
 62
4
 10
-5.16017863E+01
 20
3.19123592E+02
  0
VERTEX
  8
0
 62
4
 10
-5.17469719E+01
 20
3.19090995E+02
  0
VERTEX
  8
0
 62
4
 10
-5.18821176E+01
 20
3.19054509E+02
  0
VERTEX
  8
0
 62
4
 10
-5.20061352E+01
 20
3.19014426E+02
  0
VERTEX
  8
0
 62
4
 10
-5.21180263E+01
 20
3.18971068E+02
  0
VERTEX
  8
0
 62
4
 10
-5.22168899E+01
 20
3.18924786E+02
  0
VERTEX
  8
0
 62
4
 10
-5.23019300E+01
 20
3.18875952E+02
  0
VERTEX
  8
0
 62
4
 10
-5.23724620E+01
 20
3.18824959E+02
  0
VERTEX
  8
0
 62
4
 10
-5.24279180E+01
 20
3.18772217E+02
  0
VERTEX
  8
0
 62
4
 10
-5.24678515E+01
 20
3.18718151E+02
  0
VERTEX
  8
0
 62
4
 10
-5.24919409E+01
 20
3.18663197E+02
  0
VERTEX
  8
0
 62
4
 10
-5.24999923E+01
 20
3.18607797E+02
  0
SEQEND
  8
0
  0
LINE
  8
0
 62
4
 10
-4.04999923E+01
 20
3.18607797E+02
 11
-4.04999923E+01
 21
3.17767878E+02
  0
LINE
  8
0
 62
6
 10
-4.09999923E+01
 20
3.19016588E+02
 11
-4.09999923E+01
 21
3.17767878E+02
  0
POLYLINE
  8
0
 62
4
 66
1
  0
VERTEX
  8
0
 62
4
 10
-4.04999923E+01
 20
3.18607797E+02
  0
VERTEX
  8
0
 62
4
 10
-4.05080437E+01
 20
3.18663197E+02
  0
VERTEX
  8
0
 62
4
 10
-4.05321331E+01
 20
3.18718151E+02
  0
VERTEX
  8
0
 62
4
 10
-4.05720666E+01
 20
3.18772217E+02
  0
VERTEX
  8
0
 62
4
 10
-4.06275226E+01
 20
3.18824959E+02
  0
VERTEX
  8
0
 62
4
 10
-4.06980546E+01
 20
3.18875952E+02
  0
VERTEX
  8
0
 62
4
 10
-4.07830947E+01
 20
3.18924786E+02
  0
VERTEX
  8
0
 62
4
 10
-4.08819583E+01
 20
3.18971068E+02
  0
VERTEX
  8
0
 62
4
 10
-4.09938494E+01
 20
3.19014425E+02
  0
VERTEX
  8
0
 62
4
 10
-4.11178670E+01
 20
3.19054509E+02
  0
VERTEX
  8
0
 62
4
 10
-4.12530127E+01
 20
3.19090995E+02
  0
VERTEX
  8
0
 62
4
 10
-4.13981983E+01
 20
3.19123592E+02
  0
VERTEX
  8
0
 62
4
 10
-4.15522550E+01
 20
3.19152035E+02
  0
VERTEX
  8
0
 62
4
 10
-4.17139422E+01
 20
3.19176096E+02
  0
VERTEX
  8
0
 62
4
 10
-4.18819583E+01
 20
3.19195582E+02
  0
VERTEX
  8
0
 62
4
 10
-4.20549504E+01
 20
3.19210336E+02
  0
VERTEX
  8
0
 62
4
 10
-4.22315258E+01
 20
3.19220238E+02
  0
VERTEX
  8
0
 62
4
 10
-4.24102626E+01
 20
3.19225209E+02
  0
VERTEX
  8
0
 62
4
 10
-4.25897219E+01
 20
3.19225209E+02
  0
VERTEX
  8
0
 62
4
 10
-4.27684588E+01
 20
3.19220238E+02
  0
VERTEX
  8
0
 62
4
 10
-4.29450342E+01
 20
3.19210336E+02
  0
VERTEX
  8
0
 62
4
 10
-4.31180263E+01
 20
3.19195582E+02
  0
VERTEX
  8
0
 62
4
 10
-4.32860424E+01
 20
3.19176096E+02
  0
VERTEX
  8
0
 62
4
 10
-4.34477296E+01
 20
3.19152035E+02
  0
VERTEX
  8
0
 62
4
 10
-4.36017863E+01
 20
3.19123592E+02
  0
VERTEX
  8
0
 62
4
 10
-4.37469719E+01
 20
3.19090995E+02
  0
VERTEX
  8
0
 62
4
 10
-4.38821176E+01
 20
3.19054509E+02
  0
VERTEX
  8
0
 62
4
 10
-4.40061352E+01
 20
3.19014426E+02
  0
VERTEX
  8
0
 62
4
 10
-4.41180263E+01
 20
3.18971068E+02
  0
VERTEX
  8
0
 62
4
 10
-4.42168899E+01
 20
3.18924786E+02
  0
VERTEX
  8
0
 62
4
 10
-4.43019300E+01
 20
3.18875952E+02
  0
VERTEX
  8
0
 62
4
 10
-4.43724620E+01
 20
3.18824959E+02
  0
VERTEX
  8
0
 62
4
 10
-4.44279180E+01
 20
3.18772217E+02
  0
VERTEX
  8
0
 62
4
 10
-4.44678515E+01
 20
3.18718151E+02
  0
VERTEX
  8
0
 62
4
 10
-4.44919409E+01
 20
3.18663197E+02
  0
VERTEX
  8
0
 62
4
 10
-4.44999923E+01
 20
3.18607797E+02
  0
SEQEND
  8
0
  0
LINE
  8
0
 62
4
 10
-4.44999923E+01
 20
3.18607797E+02
 11
-4.44999923E+01
 21
3.17767878E+02
  0
LINE
  8
0
 62
6
 10
-4.39999923E+01
 20
3.19016588E+02
 11
-4.39999923E+01
 21
3.17767878E+02
  0
LINE
  8
0
 62
4
 10
-6.89999924E+01
 20
2.95591457E+02
 11
-7.04999924E+01
 21
2.94499948E+02
  0
LINE
  8
0
 62
4
 10
-7.04999924E+01
 20
2.92345805E+02
 11
-6.89999924E+01
 21
2.91787231E+02
  0
LINE
  8
0
 62
4
 10
-6.89999924E+01
 20
2.90551163E+02
 11
-7.04999924E+01
 21
2.91645882E+02
  0
LINE
  8
0
 62
4
 10
-6.89999924E+01
 20
2.92131951E+02
 11
-5.81499924E+01
 21
2.92131951E+02
  0
LINE
  8
0
 62
4
 10
-4.34343943E+01
 20
2.90710473E+02
 11
-3.89999924E+01
 21
2.90710473E+02
  0
LINE
  8
0
 62
4
 10
-6.89999924E+01
 20
2.91787231E+02
 11
-5.81499924E+01
 21
2.91787231E+02
  0
LINE
  8
0
 62
4
 10
-6.89999924E+01
 20
2.90551163E+02
 11
-5.80446076E+01
 21
2.90551163E+02
  0
LINE
  8
0
 62
4
 10
-6.89999924E+01
 20
2.92131951E+02
 11
-6.89999924E+01
 21
2.90551163E+02
  0
LINE
  8
0
 62
4
 10
-6.89999924E+01
 20
2.90551163E+02
 11
-6.89999924E+01
 21
2.90401456E+02
  0
ARC
  8
0
 62
4
 10
-4.88999927E+01
 20
2.91456783E+02
 40
1.00000000E+00
 50
1.80000000E+02
 51
2.57172490E+02
  0
ARC
  8
0
 62
4
 10
-4.40999920E+01
 20
2.91456783E+02
 40
1.00000000E+00
 50
2.82827510E+02
 51
0.00000000E+00
  0
ARC
  8
0
 62
4
 10
-4.64999924E+01
 20
3.01996997E+02
 40
1.18100000E+01
 50
2.57172490E+02
 51
2.82827510E+02
  0
LINE
  8
0
 62
4
 10
-5.81499924E+01
 20
2.90838331E+02
 11
-5.81499924E+01
 21
2.92512190E+02
  0
LINE
  8
0
 62
4
 10
-4.98499924E+01
 20
2.90838331E+02
 11
-4.98499924E+01
 21
2.91144532E+02
  0
POLYLINE
  8
0
 62
4
 66
1
  0
VERTEX
  8
0
 62
4
 10
-5.02999924E+01
 20
2.93092986E+02
  0
VERTEX
  8
0
 62
4
 10
-5.04818074E+01
 20
2.93192370E+02
  0
VERTEX
  8
0
 62
4
 10
-5.06915046E+01
 20
2.93286363E+02
  0
VERTEX
  8
0
 62
4
 10
-5.09274223E+01
 20
2.93374221E+02
  0
VERTEX
  8
0
 62
4
 10
-5.11876906E+01
 20
2.93455247E+02
  0
VERTEX
  8
0
 62
4
 10
-5.14702469E+01
 20
2.93528799E+02
  0
VERTEX
  8
0
 62
4
 10
-5.17728520E+01
 20
2.93594294E+02
  0
VERTEX
  8
0
 62
4
 10
-5.20931075E+01
 20
2.93651214E+02
  0
VERTEX
  8
0
 62
4
 10
-5.24284755E+01
 20
2.93699106E+02
  0
VERTEX
  8
0
 62
4
 10
-5.27762980E+01
 20
2.93737592E+02
  0
VERTEX
  8
0
 62
4
 10
-5.31338186E+01
 20
2.93766367E+02
  0
VERTEX
  8
0
 62
4
 10
-5.34982037E+01
 20
2.93785202E+02
  0
VERTEX
  8
0
 62
4
 10
-5.38665656E+01
 20
2.93793948E+02
  0
VERTEX
  8
0
 62
4
 10
-5.42359849E+01
 20
2.93792535E+02
  0
VERTEX
  8
0
 62
4
 10
-5.46035340E+01
 20
2.93780976E+02
  0
VERTEX
  8
0
 62
4
 10
-5.49662998E+01
 20
2.93759362E+02
  0
VERTEX
  8
0
 62
4
 10
-5.53214075E+01
 20
2.93727863E+02
  0
VERTEX
  8
0
 62
4
 10
-5.56660428E+01
 20
2.93686730E+02
  0
VERTEX
  8
0
 62
4
 10
-5.59974742E+01
 20
2.93636289E+02
  0
VERTEX
  8
0
 62
4
 10
-5.63130753E+01
 20
2.93576938E+02
  0
VERTEX
  8
0
 62
4
 10
-5.66103447E+01
 20
2.93509150E+02
  0
VERTEX
  8
0
 62
4
 10
-5.68869267E+01
 20
2.93433460E+02
  0
VERTEX
  8
0
 62
4
 10
-5.71406291E+01
 20
2.93350470E+02
  0
VERTEX
  8
0
 62
4
 10
-5.73694414E+01
 20
2.93260835E+02
  0
VERTEX
  8
0
 62
4
 10
-5.75715502E+01
 20
2.93165268E+02
  0
VERTEX
  8
0
 62
4
 10
-5.77453537E+01
 20
2.93064524E+02
  0
VERTEX
  8
0
 62
4
 10
-5.78894745E+01
 20
2.92959404E+02
  0
VERTEX
  8
0
 62
4
 10
-5.80027705E+01
 20
2.92850739E+02
  0
VERTEX
  8
0
 62
4
 10
-5.80843437E+01
 20
2.92739391E+02
  0
VERTEX
  8
0
 62
4
 10
-5.81335476E+01
 20
2.92626242E+02
  0
VERTEX
  8
0
 62
4
 10
-5.81499924E+01
 20
2.92512190E+02
  0
SEQEND
  8
0
  0
POLYLINE
  8
0
 62
4
 66
1
  0
VERTEX
  8
0
 62
4
 10
-5.81499924E+01
 20
2.90838331E+02
  0
VERTEX
  8
0
 62
4
 10
-5.81342004E+01
 20
2.90726561E+02
  0
VERTEX
  8
0
 62
4
 10
-5.80869446E+01
 20
2.90615641E+02
  0
VERTEX
  8
0
 62
4
 10
-5.80085846E+01
 20
2.90506416E+02
  0
VERTEX
  8
0
 62
4
 10
-5.78997168E+01
 20
2.90399717E+02
  0
VERTEX
  8
0
 62
4
 10
-5.77611697E+01
 20
2.90296357E+02
  0
VERTEX
  8
0
 62
4
 10
-5.75939978E+01
 20
2.90197121E+02
  0
VERTEX
  8
0
 62
4
 10
-5.73994734E+01
 20
2.90102765E+02
  0
VERTEX
  8
0
 62
4
 10
-5.71790768E+01
 20
2.90014007E+02
  0
VERTEX
  8
0
 62
4
 10
-5.69344856E+01
 20
2.89931523E+02
  0
VERTEX
  8
0
 62
4
 10
-5.66675610E+01
 20
2.89855940E+02
  0
VERTEX
  8
0
 62
4
 10
-5.63803346E+01
 20
2.89787834E+02
  0
VERTEX
  8
0
 62
4
 10
-5.60749924E+01
 20
2.89727722E+02
  0
VERTEX
  8
0
 62
4
 10
-5.57538582E+01
 20
2.89676063E+02
  0
VERTEX
  8
0
 62
4
 10
-5.54193760E+01
 20
2.89633250E+02
  0
VERTEX
  8
0
 62
4
 10
-5.50740914E+01
 20
2.89599608E+02
  0
VERTEX
  8
0
 62
4
 10
-5.47206323E+01
 20
2.89575393E+02
  0
VERTEX
  8
0
 62
4
 10
-5.43616887E+01
 20
2.89560790E+02
  0
VERTEX
  8
0
 62
4
 10
-5.39999924E+01
 20
2.89555910E+02
  0
VERTEX
  8
0
 62
4
 10
-5.36382961E+01
 20
2.89560790E+02
  0
VERTEX
  8
0
 62
4
 10
-5.32793525E+01
 20
2.89575393E+02
  0
VERTEX
  8
0
 62
4
 10
-5.29258934E+01
 20
2.89599608E+02
  0
VERTEX
  8
0
 62
4
 10
-5.25806088E+01
 20
2.89633250E+02
  0
VERTEX
  8
0
 62
4
 10
-5.22461266E+01
 20
2.89676063E+02
  0
VERTEX
  8
0
 62
4
 10
-5.19249924E+01
 20
2.89727722E+02
  0
VERTEX
  8
0
 62
4
 10
-5.16196502E+01
 20
2.89787834E+02
  0
VERTEX
  8
0
 62
4
 10
-5.13324238E+01
 20
2.89855940E+02
  0
VERTEX
  8
0
 62
4
 10
-5.10654993E+01
 20
2.89931523E+02
  0
VERTEX
  8
0
 62
4
 10
-5.08209080E+01
 20
2.90014007E+02
  0
VERTEX
  8
0
 62
4
 10
-5.06005114E+01
 20
2.90102765E+02
  0
VERTEX
  8
0
 62
4
 10
-5.04059870E+01
 20
2.90197121E+02
  0
VERTEX
  8
0
 62
4
 10
-5.02388151E+01
 20
2.90296357E+02
  0
VERTEX
  8
0
 62
4
 10
-5.01002680E+01
 20
2.90399717E+02
  0
VERTEX
  8
0
 62
4
 10
-4.99914002E+01
 20
2.90506416E+02
  0
VERTEX
  8
0
 62
4
 10
-4.99130402E+01
 20
2.90615641E+02
  0
VERTEX
  8
0
 62
4
 10
-4.98657844E+01
 20
2.90726561E+02
  0
VERTEX
  8
0
 62
4
 10
-4.98499924E+01
 20
2.90838331E+02
  0
VERTEX
  8
0
 62
4
 10
-4.98657844E+01
 20
2.90950101E+02
  0
VERTEX
  8
0
 62
4
 10
-4.99130402E+01
 20
2.91061021E+02
  0
VERTEX
  8
0
 62
4
 10
-4.99914002E+01
 20
2.91170246E+02
  0
VERTEX
  8
0
 62
4
 10
-5.01002680E+01
 20
2.91276945E+02
  0
VERTEX
  8
0
 62
4
 10
-5.02388151E+01
 20
2.91380305E+02
  0
VERTEX
  8
0
 62
4
 10
-5.04059870E+01
 20
2.91479541E+02
  0
VERTEX
  8
0
 62
4
 10
-5.06005114E+01
 20
2.91573897E+02
  0
VERTEX
  8
0
 62
4
 10
-5.08209080E+01
 20
2.91662655E+02
  0
VERTEX
  8
0
 62
4
 10
-5.10654993E+01
 20
2.91745139E+02
  0
VERTEX
  8
0
 62
4
 10
-5.13324238E+01
 20
2.91820722E+02
  0
VERTEX
  8
0
 62
4
 10
-5.16196502E+01
 20
2.91888828E+02
  0
VERTEX
  8
0
 62
4
 10
-5.19249924E+01
 20
2.91948940E+02
  0
VERTEX
  8
0
 62
4
 10
-5.22461266E+01
 20
2.92000599E+02
  0
VERTEX
  8
0
 62
4
 10
-5.25806088E+01
 20
2.92043412E+02
  0
VERTEX
  8
0
 62
4
 10
-5.29258934E+01
 20
2.92077054E+02
  0
VERTEX
  8
0
 62
4
 10
-5.32793525E+01
 20
2.92101269E+02
  0
VERTEX
  8
0
 62
4
 10
-5.36382961E+01
 20
2.92115872E+02
  0
VERTEX
  8
0
 62
4
 10
-5.39999924E+01
 20
2.92120751E+02
  0
VERTEX
  8
0
 62
4
 10
-5.43616887E+01
 20
2.92115872E+02
  0
VERTEX
  8
0
 62
4
 10
-5.47206323E+01
 20
2.92101269E+02
  0
VERTEX
  8
0
 62
4
 10
-5.50740914E+01
 20
2.92077054E+02
  0
VERTEX
  8
0
 62
4
 10
-5.54193760E+01
 20
2.92043412E+02
  0
VERTEX
  8
0
 62
4
 10
-5.57538582E+01
 20
2.92000599E+02
  0
VERTEX
  8
0
 62
4
 10
-5.60749924E+01
 20
2.91948940E+02
  0
VERTEX
  8
0
 62
4
 10
-5.63803346E+01
 20
2.91888828E+02
  0
VERTEX
  8
0
 62
4
 10
-5.66675610E+01
 20
2.91820722E+02
  0
VERTEX
  8
0
 62
4
 10
-5.69344856E+01
 20
2.91745139E+02
  0
VERTEX
  8
0
 62
4
 10
-5.71790769E+01
 20
2.91662655E+02
  0
VERTEX
  8
0
 62
4
 10
-5.73994734E+01
 20
2.91573897E+02
  0
VERTEX
  8
0
 62
4
 10
-5.75939978E+01
 20
2.91479541E+02
  0
VERTEX
  8
0
 62
4
 10
-5.77611697E+01
 20
2.91380305E+02
  0
VERTEX
  8
0
 62
4
 10
-5.78997168E+01
 20
2.91276945E+02
  0
VERTEX
  8
0
 62
4
 10
-5.80085846E+01
 20
2.91170246E+02
  0
VERTEX
  8
0
 62
4
 10
-5.80869446E+01
 20
2.91061021E+02
  0
VERTEX
  8
0
 62
4
 10
-5.81342004E+01
 20
2.90950101E+02
  0
VERTEX
  8
0
 62
4
 10
-5.81499924E+01
 20
2.90838331E+02
  0
SEQEND
  8
0
  0
LINE
  8
0
 62
4
 10
-5.79999924E+01
 20
2.92853860E+02
 11
-5.79999924E+01
 21
2.92873592E+02
  0
POLYLINE
  8
0
 62
4
 66
1
  0
VERTEX
  8
0
 62
4
 10
-5.02999924E+01
 20
2.93343257E+02
  0
VERTEX
  8
0
 62
4
 10
-5.04493004E+01
 20
2.93442770E+02
  0
VERTEX
  8
0
 62
4
 10
-5.06265691E+01
 20
2.93537800E+02
  0
VERTEX
  8
0
 62
4
 10
-5.08304025E+01
 20
2.93627600E+02
  0
VERTEX
  8
0
 62
4
 10
-5.10591956E+01
 20
2.93711462E+02
  0
VERTEX
  8
0
 62
4
 10
-5.13111466E+01
 20
2.93788726E+02
  0
VERTEX
  8
0
 62
4
 10
-5.15842716E+01
 20
2.93858784E+02
  0
VERTEX
  8
0
 62
4
 10
-5.18764197E+01
 20
2.93921084E+02
  0
VERTEX
  8
0
 62
4
 10
-5.21852903E+01
 20
2.93975135E+02
  0
VERTEX
  8
0
 62
4
 10
-5.25084512E+01
 20
2.94020512E+02
  0
VERTEX
  8
0
 62
4
 10
-5.28433576E+01
 20
2.94056857E+02
  0
VERTEX
  8
0
 62
4
 10
-5.31873722E+01
 20
2.94083884E+02
  0
VERTEX
  8
0
 62
4
 10
-5.35377859E+01
 20
2.94101380E+02
  0
VERTEX
  8
0
 62
4
 10
-5.38918393E+01
 20
2.94109208E+02
  0
VERTEX
  8
0
 62
4
 10
-5.42467445E+01
 20
2.94107306E+02
  0
VERTEX
  8
0
 62
4
 10
-5.45997065E+01
 20
2.94095689E+02
  0
VERTEX
  8
0
 62
4
 10
-5.49479460E+01
 20
2.94074447E+02
  0
VERTEX
  8
0
 62
4
 10
-5.52887205E+01
 20
2.94043750E+02
  0
VERTEX
  8
0
 62
4
 10
-5.56193467E+01
 20
2.94003838E+02
  0
VERTEX
  8
0
 62
4
 10
-5.59372210E+01
 20
2.93955025E+02
  0
VERTEX
  8
0
 62
4
 10
-5.62398401E+01
 20
2.93897697E+02
  0
VERTEX
  8
0
 62
4
 10
-5.65248210E+01
 20
2.93832304E+02
  0
VERTEX
  8
0
 62
4
 10
-5.67899196E+01
 20
2.93759361E+02
  0
VERTEX
  8
0
 62
4
 10
-5.70330483E+01
 20
2.93679444E+02
  0
VERTEX
  8
0
 62
4
 10
-5.72522926E+01
 20
2.93593180E+02
  0
VERTEX
  8
0
 62
4
 10
-5.74459258E+01
 20
2.93501250E+02
  0
VERTEX
  8
0
 62
4
 10
-5.76124233E+01
 20
2.93404377E+02
  0
VERTEX
  8
0
 62
4
 10
-5.77504739E+01
 20
2.93303324E+02
  0
VERTEX
  8
0
 62
4
 10
-5.78589906E+01
 20
2.93198888E+02
  0
VERTEX
  8
0
 62
4
 10
-5.79371186E+01
 20
2.93091889E+02
  0
VERTEX
  8
0
 62
4
 10
-5.79842430E+01
 20
2.92983172E+02
  0
VERTEX
  8
0
 62
4
 10
-5.79999924E+01
 20
2.92873592E+02
  0
SEQEND
  8
0
  0
ARC
  8
0
 62
4
 10
-5.81876144E+01
 20
3.03826828E+02
 40
1.43299558E+01
 50
2.79721944E+02
 51
2.94556489E+02
  0
ARC
  8
0
 62
4
 10
-4.98123689E+01
 20
3.03826833E+02
 40
1.43299613E+01
 50
2.45443514E+02
 51
2.60278053E+02
  0
LINE
  8
0
 62
4
 10
-5.02999924E+01
 20
2.93004094E+02
 11
-5.02999924E+01
 21
2.93955151E+02
  0
POLYLINE
  8
0
 62
4
 66
1
  0
VERTEX
  8
0
 62
4
 10
-4.26999924E+01
 20
2.93955151E+02
  0
VERTEX
  8
0
 62
4
 10
-4.27152901E+01
 20
2.94060411E+02
  0
VERTEX
  8
0
 62
4
 10
-4.27610600E+01
 20
2.94164824E+02
  0
VERTEX
  8
0
 62
4
 10
-4.28369335E+01
 20
2.94267549E+02
  0
VERTEX
  8
0
 62
4
 10
-4.29422999E+01
 20
2.94367758E+02
  0
VERTEX
  8
0
 62
4
 10
-4.30763107E+01
 20
2.94464645E+02
  0
VERTEX
  8
0
 62
4
 10
-4.32378870E+01
 20
2.94557430E+02
  0
VERTEX
  8
0
 62
4
 10
-4.34257278E+01
 20
2.94645366E+02
  0
VERTEX
  8
0
 62
4
 10
-4.36383208E+01
 20
2.94727745E+02
  0
VERTEX
  8
0
 62
4
 10
-4.38739543E+01
 20
2.94803903E+02
  0
VERTEX
  8
0
 62
4
 10
-4.41307311E+01
 20
2.94873228E+02
  0
VERTEX
  8
0
 62
4
 10
-4.44065839E+01
 20
2.94935161E+02
  0
VERTEX
  8
0
 62
4
 10
-4.46992915E+01
 20
2.94989203E+02
  0
VERTEX
  8
0
 62
4
 10
-4.50064973E+01
 20
2.95034920E+02
  0
VERTEX
  8
0
 62
4
 10
-4.53257278E+01
 20
2.95071943E+02
  0
VERTEX
  8
0
 62
4
 10
-4.56544128E+01
 20
2.95099974E+02
  0
VERTEX
  8
0
 62
4
 10
-4.59899060E+01
 20
2.95118788E+02
  0
VERTEX
  8
0
 62
4
 10
-4.63295060E+01
 20
2.95128233E+02
  0
VERTEX
  8
0
 62
4
 10
-4.66704787E+01
 20
2.95128233E+02
  0
VERTEX
  8
0
 62
4
 10
-4.70100788E+01
 20
2.95118788E+02
  0
VERTEX
  8
0
 62
4
 10
-4.73455719E+01
 20
2.95099974E+02
  0
VERTEX
  8
0
 62
4
 10
-4.76742570E+01
 20
2.95071943E+02
  0
VERTEX
  8
0
 62
4
 10
-4.79934875E+01
 20
2.95034920E+02
  0
VERTEX
  8
0
 62
4
 10
-4.83006933E+01
 20
2.94989203E+02
  0
VERTEX
  8
0
 62
4
 10
-4.85934009E+01
 20
2.94935161E+02
  0
VERTEX
  8
0
 62
4
 10
-4.88692536E+01
 20
2.94873228E+02
  0
VERTEX
  8
0
 62
4
 10
-4.91260304E+01
 20
2.94803903E+02
  0
VERTEX
  8
0
 62
4
 10
-4.93616640E+01
 20
2.94727745E+02
  0
VERTEX
  8
0
 62
4
 10
-4.95742570E+01
 20
2.94645366E+02
  0
VERTEX
  8
0
 62
4
 10
-4.97620978E+01
 20
2.94557430E+02
  0
VERTEX
  8
0
 62
4
 10
-4.99236741E+01
 20
2.94464645E+02
  0
VERTEX
  8
0
 62
4
 10
-5.00576849E+01
 20
2.94367758E+02
  0
VERTEX
  8
0
 62
4
 10
-5.01630513E+01
 20
2.94267549E+02
  0
VERTEX
  8
0
 62
4
 10
-5.02389248E+01
 20
2.94164824E+02
  0
VERTEX
  8
0
 62
4
 10
-5.02846947E+01
 20
2.94060411E+02
  0
VERTEX
  8
0
 62
4
 10
-5.02999924E+01
 20
2.93955151E+02
  0
SEQEND
  8
0
  0
POLYLINE
  8
0
 62
4
 66
1
  0
VERTEX
  8
0
 62
4
 10
-4.30999924E+01
 20
2.92479675E+02
  0
VERTEX
  8
0
 62
4
 10
-4.29634107E+01
 20
2.92574506E+02
  0
VERTEX
  8
0
 62
4
 10
-4.28544629E+01
 20
2.92672694E+02
  0
VERTEX
  8
0
 62
4
 10
-4.27740001E+01
 20
2.92773471E+02
  0
VERTEX
  8
0
 62
4
 10
-4.27226511E+01
 20
2.92876050E+02
  0
VERTEX
  8
0
 62
4
 10
-4.27008171E+01
 20
2.92979630E+02
  0
VERTEX
  8
0
 62
4
 10
-4.27086688E+01
 20
2.93083401E+02
  0
VERTEX
  8
0
 62
4
 10
-4.27461448E+01
 20
2.93186552E+02
  0
VERTEX
  8
0
 62
4
 10
-4.28129522E+01
 20
2.93288278E+02
  0
VERTEX
  8
0
 62
4
 10
-4.29085690E+01
 20
2.93387783E+02
  0
VERTEX
  8
0
 62
4
 10
-4.30322482E+01
 20
2.93484290E+02
  0
VERTEX
  8
0
 62
4
 10
-4.31830233E+01
 20
2.93577045E+02
  0
VERTEX
  8
0
 62
4
 10
-4.33597162E+01
 20
2.93665323E+02
  0
VERTEX
  8
0
 62
4
 10
-4.35609462E+01
 20
2.93748434E+02
  0
VERTEX
  8
0
 62
4
 10
-4.37851412E+01
 20
2.93825730E+02
  0
VERTEX
  8
0
 62
4
 10
-4.40305491E+01
 20
2.93896605E+02
  0
VERTEX
  8
0
 62
4
 10
-4.42952526E+01
 20
2.93960506E+02
  0
VERTEX
  8
0
 62
4
 10
-4.45771832E+01
 20
2.94016935E+02
  0
VERTEX
  8
0
 62
4
 10
-4.48741381E+01
 20
2.94065449E+02
  0
VERTEX
  8
0
 62
4
 10
-4.51837970E+01
 20
2.94105670E+02
  0
VERTEX
  8
0
 62
4
 10
-4.55037402E+01
 20
2.94137284E+02
  0
VERTEX
  8
0
 62
4
 10
-4.58314678E+01
 20
2.94160044E+02
  0
VERTEX
  8
0
 62
4
 10
-4.61644191E+01
 20
2.94173771E+02
  0
VERTEX
  8
0
 62
4
 10
-4.64999924E+01
 20
2.94178359E+02
  0
VERTEX
  8
0
 62
4
 10
-4.68355658E+01
 20
2.94173771E+02
  0
VERTEX
  8
0
 62
4
 10
-4.71685170E+01
 20
2.94160044E+02
  0
VERTEX
  8
0
 62
4
 10
-4.74962447E+01
 20
2.94137284E+02
  0
VERTEX
  8
0
 62
4
 10
-4.78161879E+01
 20
2.94105670E+02
  0
VERTEX
  8
0
 62
4
 10
-4.81258467E+01
 20
2.94065449E+02
  0
VERTEX
  8
0
 62
4
 10
-4.84228016E+01
 20
2.94016935E+02
  0
VERTEX
  8
0
 62
4
 10
-4.87047322E+01
 20
2.93960506E+02
  0
VERTEX
  8
0
 62
4
 10
-4.89694357E+01
 20
2.93896605E+02
  0
VERTEX
  8
0
 62
4
 10
-4.92148437E+01
 20
2.93825730E+02
  0
VERTEX
  8
0
 62
4
 10
-4.94390386E+01
 20
2.93748434E+02
  0
VERTEX
  8
0
 62
4
 10
-4.96402687E+01
 20
2.93665323E+02
  0
VERTEX
  8
0
 62
4
 10
-4.98169616E+01
 20
2.93577045E+02
  0
VERTEX
  8
0
 62
4
 10
-4.99677366E+01
 20
2.93484290E+02
  0
VERTEX
  8
0
 62
4
 10
-5.00914158E+01
 20
2.93387783E+02
  0
VERTEX
  8
0
 62
4
 10
-5.01870326E+01
 20
2.93288278E+02
  0
VERTEX
  8
0
 62
4
 10
-5.02538400E+01
 20
2.93186552E+02
  0
VERTEX
  8
0
 62
4
 10
-5.02913160E+01
 20
2.93083401E+02
  0
VERTEX
  8
0
 62
4
 10
-5.02991677E+01
 20
2.92979630E+02
  0
VERTEX
  8
0
 62
4
 10
-5.02773337E+01
 20
2.92876050E+02
  0
VERTEX
  8
0
 62
4
 10
-5.02259847E+01
 20
2.92773471E+02
  0
VERTEX
  8
0
 62
4
 10
-5.01455219E+01
 20
2.92672694E+02
  0
VERTEX
  8
0
 62
4
 10
-5.00365741E+01
 20
2.92574506E+02
  0
VERTEX
  8
0
 62
4
 10
-4.98999924E+01
 20
2.92479675E+02
  0
SEQEND
  8
0
  0
LINE
  8
0
 62
4
 10
-4.26999924E+01
 20
2.93004094E+02
 11
-4.26999924E+01
 21
2.93955151E+02
  0
LINE
  8
0
 62
4
 10
-4.98999924E+01
 20
2.91456783E+02
 11
-4.98999924E+01
 21
2.93004094E+02
  0
POLYLINE
  8
0
 62
4
 66
1
  0
VERTEX
  8
0
 62
4
 10
-4.30999924E+01
 20
2.93004094E+02
  0
VERTEX
  8
0
 62
4
 10
-4.31136798E+01
 20
2.93098274E+02
  0
VERTEX
  8
0
 62
4
 10
-4.31546318E+01
 20
2.93191696E+02
  0
VERTEX
  8
0
 62
4
 10
-4.32225187E+01
 20
2.93283608E+02
  0
VERTEX
  8
0
 62
4
 10
-4.33167938E+01
 20
2.93373269E+02
  0
VERTEX
  8
0
 62
4
 10
-4.34366982E+01
 20
2.93459957E+02
  0
VERTEX
  8
0
 62
4
 10
-4.35812665E+01
 20
2.93542976E+02
  0
VERTEX
  8
0
 62
4
 10
-4.37493346E+01
 20
2.93621655E+02
  0
VERTEX
  8
0
 62
4
 10
-4.39395494E+01
 20
2.93695362E+02
  0
VERTEX
  8
0
 62
4
 10
-4.41503794E+01
 20
2.93763504E+02
  0
VERTEX
  8
0
 62
4
 10
-4.43801271E+01
 20
2.93825531E+02
  0
VERTEX
  8
0
 62
4
 10
-4.46269426E+01
 20
2.93880945E+02
  0
VERTEX
  8
0
 62
4
 10
-4.48888389E+01
 20
2.93929299E+02
  0
VERTEX
  8
0
 62
4
 10
-4.51637073E+01
 20
2.93970203E+02
  0
VERTEX
  8
0
 62
4
 10
-4.54493346E+01
 20
2.94003329E+02
  0
VERTEX
  8
0
 62
4
 10
-4.57434212E+01
 20
2.94028410E+02
  0
VERTEX
  8
0
 62
4
 10
-4.60435993E+01
 20
2.94045243E+02
  0
VERTEX
  8
0
 62
4
 10
-4.63474520E+01
 20
2.94053694E+02
  0
VERTEX
  8
0
 62
4
 10
-4.66525328E+01
 20
2.94053694E+02
  0
VERTEX
  8
0
 62
4
 10
-4.69563855E+01
 20
2.94045243E+02
  0
VERTEX
  8
0
 62
4
 10
-4.72565636E+01
 20
2.94028410E+02
  0
VERTEX
  8
0
 62
4
 10
-4.75506502E+01
 20
2.94003329E+02
  0
VERTEX
  8
0
 62
4
 10
-4.78362775E+01
 20
2.93970203E+02
  0
VERTEX
  8
0
 62
4
 10
-4.81111458E+01
 20
2.93929299E+02
  0
VERTEX
  8
0
 62
4
 10
-4.83730421E+01
 20
2.93880945E+02
  0
VERTEX
  8
0
 62
4
 10
-4.86198577E+01
 20
2.93825531E+02
  0
VERTEX
  8
0
 62
4
 10
-4.88496054E+01
 20
2.93763504E+02
  0
VERTEX
  8
0
 62
4
 10
-4.90604354E+01
 20
2.93695362E+02
  0
VERTEX
  8
0
 62
4
 10
-4.92506502E+01
 20
2.93621655E+02
  0
VERTEX
  8
0
 62
4
 10
-4.94187183E+01
 20
2.93542976E+02
  0
VERTEX
  8
0
 62
4
 10
-4.95632865E+01
 20
2.93459957E+02
  0
VERTEX
  8
0
 62
4
 10
-4.96831910E+01
 20
2.93373269E+02
  0
VERTEX
  8
0
 62
4
 10
-4.97774661E+01
 20
2.93283608E+02
  0
VERTEX
  8
0
 62
4
 10
-4.98453530E+01
 20
2.93191696E+02
  0
VERTEX
  8
0
 62
4
 10
-4.98863050E+01
 20
2.93098274E+02
  0
VERTEX
  8
0
 62
4
 10
-4.98999924E+01
 20
2.93004094E+02
  0
SEQEND
  8
0
  0
LINE
  8
0
 62
4
 10
-4.30999924E+01
 20
2.91456783E+02
 11
-4.30999924E+01
 21
2.93004094E+02
  0
POLYLINE
  8
0
 62
4
 66
1
  0
VERTEX
  8
0
 62
4
 10
-4.30999924E+01
 20
2.91456789E+02
  0
VERTEX
  8
0
 62
4
 10
-4.31136816E+01
 20
2.91550969E+02
  0
VERTEX
  8
0
 62
4
 10
-4.31546354E+01
 20
2.91644391E+02
  0
VERTEX
  8
0
 62
4
 10
-4.32225241E+01
 20
2.91736303E+02
  0
VERTEX
  8
0
 62
4
 10
-4.33168010E+01
 20
2.91825964E+02
  0
VERTEX
  8
0
 62
4
 10
-4.34367071E+01
 20
2.91912652E+02
  0
VERTEX
  8
0
 62
4
 10
-4.35812770E+01
 20
2.91995670E+02
  0
VERTEX
  8
0
 62
4
 10
-4.37493466E+01
 20
2.92074349E+02
  0
VERTEX
  8
0
 62
4
 10
-4.39395628E+01
 20
2.92148056E+02
  0
VERTEX
  8
0
 62
4
 10
-4.41503941E+01
 20
2.92216197E+02
  0
VERTEX
  8
0
 62
4
 10
-4.43801430E+01
 20
2.92278224E+02
  0
VERTEX
  8
0
 62
4
 10
-4.46269597E+01
 20
2.92333637E+02
  0
VERTEX
  8
0
 62
4
 10
-4.48888569E+01
 20
2.92381991E+02
  0
VERTEX
  8
0
 62
4
 10
-4.51637260E+01
 20
2.92422894E+02
  0
VERTEX
  8
0
 62
4
 10
-4.54493540E+01
 20
2.92456020E+02
  0
VERTEX
  8
0
 62
4
 10
-4.57434411E+01
 20
2.92481100E+02
  0
VERTEX
  8
0
 62
4
 10
-4.60436195E+01
 20
2.92497933E+02
  0
VERTEX
  8
0
 62
4
 10
-4.63474723E+01
 20
2.92506383E+02
  0
VERTEX
  8
0
 62
4
 10
-4.66525532E+01
 20
2.92506383E+02
  0
VERTEX
  8
0
 62
4
 10
-4.69564057E+01
 20
2.92497931E+02
  0
VERTEX
  8
0
 62
4
 10
-4.72565834E+01
 20
2.92481097E+02
  0
VERTEX
  8
0
 62
4
 10
-4.75506696E+01
 20
2.92456016E+02
  0
VERTEX
  8
0
 62
4
 10
-4.78362962E+01
 20
2.92422890E+02
  0
VERTEX
  8
0
 62
4
 10
-4.81111638E+01
 20
2.92381985E+02
  0
VERTEX
  8
0
 62
4
 10
-4.83730591E+01
 20
2.92333630E+02
  0
VERTEX
  8
0
 62
4
 10
-4.86198737E+01
 20
2.92278216E+02
  0
VERTEX
  8
0
 62
4
 10
-4.88496201E+01
 20
2.92216189E+02
  0
VERTEX
  8
0
 62
4
 10
-4.90604488E+01
 20
2.92148047E+02
  0
VERTEX
  8
0
 62
4
 10
-4.92506622E+01
 20
2.92074339E+02
  0
VERTEX
  8
0
 62
4
 10
-4.94187287E+01
 20
2.91995659E+02
  0
VERTEX
  8
0
 62
4
 10
-4.95632954E+01
 20
2.91912641E+02
  0
VERTEX
  8
0
 62
4
 10
-4.96831981E+01
 20
2.91825952E+02
  0
VERTEX
  8
0
 62
4
 10
-4.97774715E+01
 20
2.91736291E+02
  0
VERTEX
  8
0
 62
4
 10
-4.98453566E+01
 20
2.91644379E+02
  0
VERTEX
  8
0
 62
4
 10
-4.98863068E+01
 20
2.91550957E+02
  0
VERTEX
  8
0
 62
4
 10
-4.98999924E+01
 20
2.91456777E+02
  0
SEQEND
  8
0
  0
ARC
  8
0
 62
4
 10
-5.06604923E+01
 20
3.04311200E+02
 40
1.42127873E+01
 50
2.79930719E+02
 51
2.94652135E+02
  0
ARC
  8
0
 62
4
 10
-4.23394922E+01
 20
3.04311201E+02
 40
1.42127883E+01
 50
2.45347865E+02
 51
2.60069281E+02
  0
LINE
  8
0
  6
CENTER
 62
6
 10
-6.39999924E+01
 20
2.93955151E+02
 11
-5.89999924E+01
 21
2.93955151E+02
  0
LINE
  8
0
  6
CENTER
 62
6
 10
-5.39999924E+01
 20
2.95373592E+02
 11
-5.39999924E+01
 21
2.90373592E+02
  0
LINE
  8
0
  6
CENTER
 62
6
 10
-5.64999924E+01
 20
2.92873592E+02
 11
-5.14999924E+01
 21
2.92873592E+02
  0
LINE
  8
0
  6
CENTER
 62
6
 10
-4.64999924E+01
 20
2.96455151E+02
 11
-4.64999924E+01
 21
2.91455151E+02
  0
LINE
  8
0
  6
CENTER
 62
6
 10
-4.89999924E+01
 20
2.93955151E+02
 11
-4.39999924E+01
 21
2.93955151E+02
  0
LINE
  8
0
 62
4
 10
-5.00982248E+01
 20
2.90401456E+02
 11
-4.87404226E+01
 21
2.90401456E+02
  0
LINE
  8
0
 62
4
 10
-4.99553771E+01
 20
2.90551163E+02
 11
-4.93240822E+01
 21
2.90551163E+02
  0
LINE
  8
0
 62
4
 10
-4.30999924E+01
 20
2.92131951E+02
 11
-3.89999924E+01
 21
2.92131951E+02
  0
LINE
  8
0
 62
4
 10
-4.42595621E+01
 20
2.90401456E+02
 11
-3.89999924E+01
 21
2.90401456E+02
  0
LINE
  8
0
 62
7
 10
-5.39999924E+01
 20
3.12100037E+02
 11
-7.99999924E+01
 21
3.12100037E+02
  0
LINE
  8
0
 62
7
 10
-5.39999924E+01
 20
3.14500000E+02
 11
-7.99999924E+01
 21
3.14500000E+02
  0
LINE
  8
0
 62
7
 10
-6.89999924E+01
 20
3.04899994E+02
 11
-7.99999924E+01
 21
3.04899994E+02
  0
LINE
  8
0
 62
7
 10
-1.00000076E+01
 20
2.56100037E+02
 11
-7.99999924E+01
 21
2.56100037E+02
  0
LINE
  8
0
 62
7
 10
-1.00000076E+01
 20
2.48900009E+02
 11
-7.99999924E+01
 21
2.48900009E+02
  0
LINE
  8
0
 62
7
 10
-1.00000076E+01
 20
2.46500046E+02
 11
-7.99999924E+01
 21
2.46500046E+02
  0
LINE
  8
0
 62
4
 10
-9.10001118E+01
 20
-2.38358825E+02
 11
-8.60001118E+01
 21
-2.38358816E+02
  0
LINE
  8
0
 62
4
 10
-7.30000157E+01
 20
-2.83696997E+02
 11
-4.00000157E+01
 21
-2.83696938E+02
  0
LINE
  8
0
 62
4
 10
-4.00000157E+01
 20
-2.85500038E+02
 11
-4.00000157E+01
 21
-2.82231822E+02
  0
LINE
  8
0
 62
4
 10
-7.30000157E+01
 20
-2.85500038E+02
 11
-7.30000157E+01
 21
-2.82231881E+02
  0
LINE
  8
0
 62
4
 10
-3.70000256E+01
 20
-2.77482488E+02
 11
-4.00000157E+01
 21
-2.82231822E+02
  0
LINE
  8
0
 62
4
 10
-7.60000256E+01
 20
-2.77482558E+02
 11
-7.30000157E+01
 21
-2.82231881E+02
  0
POLYLINE
  8
0
 62
4
 66
1
  0
VERTEX
  8
0
 62
4
 10
-6.80000346E+01
 20
-2.70228323E+02
  0
VERTEX
  8
0
 62
4
 10
-6.79848184E+01
 20
-2.70557953E+02
  0
VERTEX
  8
0
 62
4
 10
-6.79392756E+01
 20
-2.70885075E+02
  0
VERTEX
  8
0
 62
4
 10
-6.78637527E+01
 20
-2.71207198E+02
  0
VERTEX
  8
0
 62
4
 10
-6.77588247E+01
 20
-2.71521873E+02
  0
VERTEX
  8
0
 62
4
 10
-6.76252900E+01
 20
-2.71826703E+02
  0
VERTEX
  8
0
 62
4
 10
-6.74641649E+01
 20
-2.72119369E+02
  0
VERTEX
  8
0
 62
4
 10
-6.72766756E+01
 20
-2.72397643E+02
  0
VERTEX
  8
0
 62
4
 10
-6.70642492E+01
 20
-2.72659408E+02
  0
VERTEX
  8
0
 62
4
 10
-6.68285022E+01
 20
-2.72902672E+02
  0
VERTEX
  8
0
 62
4
 10
-6.65712289E+01
 20
-2.73125582E+02
  0
VERTEX
  8
0
 62
4
 10
-6.62943873E+01
 20
-2.73326443E+02
  0
VERTEX
  8
0
 62
4
 10
-6.60000842E+01
 20
-2.73503726E+02
  0
VERTEX
  8
0
 62
4
 10
-6.56905596E+01
 20
-2.73656082E+02
  0
VERTEX
  8
0
 62
4
 10
-6.53681690E+01
 20
-2.73782351E+02
  0
VERTEX
  8
0
 62
4
 10
-6.50353661E+01
 20
-2.73881572E+02
  0
VERTEX
  8
0
 62
4
 10
-6.46946837E+01
 20
-2.73952990E+02
  0
VERTEX
  8
0
 62
4
 10
-6.43487146E+01
 20
-2.73996061E+02
  0
VERTEX
  8
0
 62
4
 10
-6.40000919E+01
 20
-2.74010458E+02
  0
VERTEX
  8
0
 62
4
 10
-6.36514687E+01
 20
-2.73996072E+02
  0
VERTEX
  8
0
 62
4
 10
-6.33054983E+01
 20
-2.73953011E+02
  0
VERTEX
  8
0
 62
4
 10
-6.29648137E+01
 20
-2.73881603E+02
  0
VERTEX
  8
0
 62
4
 10
-6.26320078E+01
 20
-2.73782392E+02
  0
VERTEX
  8
0
 62
4
 10
-6.23096135E+01
 20
-2.73656133E+02
  0
VERTEX
  8
0
 62
4
 10
-6.20000842E+01
 20
-2.73503787E+02
  0
VERTEX
  8
0
 62
4
 10
-6.17057758E+01
 20
-2.73326513E+02
  0
VERTEX
  8
0
 62
4
 10
-6.14289280E+01
 20
-2.73125660E+02
  0
VERTEX
  8
0
 62
4
 10
-6.11716480E+01
 20
-2.72902757E+02
  0
VERTEX
  8
0
 62
4
 10
-6.09358936E+01
 20
-2.72659501E+02
  0
VERTEX
  8
0
 62
4
 10
-6.07234593E+01
 20
-2.72397742E+02
  0
VERTEX
  8
0
 62
4
 10
-6.05359616E+01
 20
-2.72119474E+02
  0
VERTEX
  8
0
 62
4
 10
-6.03748277E+01
 20
-2.71826813E+02
  0
VERTEX
  8
0
 62
4
 10
-6.02412837E+01
 20
-2.71521987E+02
  0
VERTEX
  8
0
 62
4
 10
-6.01363461E+01
 20
-2.71207315E+02
  0
VERTEX
  8
0
 62
4
 10
-6.00608135E+01
 20
-2.70885194E+02
  0
VERTEX
  8
0
 62
4
 10
-6.00152608E+01
 20
-2.70558074E+02
  0
VERTEX
  8
0
 62
4
 10
-6.00000346E+01
 20
-2.70228445E+02
  0
VERTEX
  8
0
 62
4
 10
-6.00152508E+01
 20
-2.69898815E+02
  0
VERTEX
  8
0
 62
4
 10
-6.00607936E+01
 20
-2.69571693E+02
  0
VERTEX
  8
0
 62
4
 10
-6.01363165E+01
 20
-2.69249570E+02
  0
VERTEX
  8
0
 62
4
 10
-6.02412445E+01
 20
-2.68934895E+02
  0
VERTEX
  8
0
 62
4
 10
-6.03747792E+01
 20
-2.68630065E+02
  0
VERTEX
  8
0
 62
4
 10
-6.05359044E+01
 20
-2.68337399E+02
  0
VERTEX
  8
0
 62
4
 10
-6.07233936E+01
 20
-2.68059125E+02
  0
VERTEX
  8
0
 62
4
 10
-6.09358200E+01
 20
-2.67797360E+02
  0
VERTEX
  8
0
 62
4
 10
-6.11715670E+01
 20
-2.67554096E+02
  0
VERTEX
  8
0
 62
4
 10
-6.14288403E+01
 20
-2.67331186E+02
  0
VERTEX
  8
0
 62
4
 10
-6.17056819E+01
 20
-2.67130325E+02
  0
VERTEX
  8
0
 62
4
 10
-6.19999850E+01
 20
-2.66953042E+02
  0
VERTEX
  8
0
 62
4
 10
-6.23095097E+01
 20
-2.66800686E+02
  0
VERTEX
  8
0
 62
4
 10
-6.26319002E+01
 20
-2.66674417E+02
  0
VERTEX
  8
0
 62
4
 10
-6.29647031E+01
 20
-2.66575196E+02
  0
VERTEX
  8
0
 62
4
 10
-6.33053855E+01
 20
-2.66503778E+02
  0
VERTEX
  8
0
 62
4
 10
-6.36513546E+01
 20
-2.66460707E+02
  0
VERTEX
  8
0
 62
4
 10
-6.39999773E+01
 20
-2.66446310E+02
  0
VERTEX
  8
0
 62
4
 10
-6.43486005E+01
 20
-2.66460696E+02
  0
VERTEX
  8
0
 62
4
 10
-6.46945709E+01
 20
-2.66503757E+02
  0
VERTEX
  8
0
 62
4
 10
-6.50352555E+01
 20
-2.66575165E+02
  0
VERTEX
  8
0
 62
4
 10
-6.53680614E+01
 20
-2.66674376E+02
  0
VERTEX
  8
0
 62
4
 10
-6.56904557E+01
 20
-2.66800635E+02
  0
VERTEX
  8
0
 62
4
 10
-6.59999850E+01
 20
-2.66952981E+02
  0
VERTEX
  8
0
 62
4
 10
-6.62942934E+01
 20
-2.67130255E+02
  0
VERTEX
  8
0
 62
4
 10
-6.65711412E+01
 20
-2.67331108E+02
  0
VERTEX
  8
0
 62
4
 10
-6.68284212E+01
 20
-2.67554011E+02
  0
VERTEX
  8
0
 62
4
 10
-6.70641756E+01
 20
-2.67797267E+02
  0
VERTEX
  8
0
 62
4
 10
-6.72766099E+01
 20
-2.68059026E+02
  0
VERTEX
  8
0
 62
4
 10
-6.74641076E+01
 20
-2.68337294E+02
  0
VERTEX
  8
0
 62
4
 10
-6.76252415E+01
 20
-2.68629955E+02
  0
VERTEX
  8
0
 62
4
 10
-6.77587855E+01
 20
-2.68934781E+02
  0
VERTEX
  8
0
 62
4
 10
-6.78637231E+01
 20
-2.69249453E+02
  0
VERTEX
  8
0
 62
4
 10
-6.79392557E+01
 20
-2.69571574E+02
  0
VERTEX
  8
0
 62
4
 10
-6.79848084E+01
 20
-2.69898694E+02
  0
VERTEX
  8
0
 62
4
 10
-6.80000346E+01
 20
-2.70228323E+02
  0
SEQEND
  8
0
  0
POLYLINE
  8
0
 62
4
 66
1
  0
VERTEX
  8
0
 62
4
 10
-6.74000357E+01
 20
-2.69636755E+02
  0
VERTEX
  8
0
 62
4
 10
-6.73871028E+01
 20
-2.69919410E+02
  0
VERTEX
  8
0
 62
4
 10
-6.73483923E+01
 20
-2.70199914E+02
  0
VERTEX
  8
0
 62
4
 10
-6.72841987E+01
 20
-2.70476133E+02
  0
VERTEX
  8
0
 62
4
 10
-6.71950107E+01
 20
-2.70745964E+02
  0
VERTEX
  8
0
 62
4
 10
-6.70815070E+01
 20
-2.71007353E+02
  0
VERTEX
  8
0
 62
4
 10
-6.69445514E+01
 20
-2.71258312E+02
  0
VERTEX
  8
0
 62
4
 10
-6.67851863E+01
 20
-2.71496931E+02
  0
VERTEX
  8
0
 62
4
 10
-6.66046246E+01
 20
-2.71721393E+02
  0
VERTEX
  8
0
 62
4
 10
-6.64042403E+01
 20
-2.71929990E+02
  0
VERTEX
  8
0
 62
4
 10
-6.61855586E+01
 20
-2.72121134E+02
  0
VERTEX
  8
0
 62
4
 10
-6.59502437E+01
 20
-2.72293372E+02
  0
VERTEX
  8
0
 62
4
 10
-6.57000866E+01
 20
-2.72445391E+02
  0
VERTEX
  8
0
 62
4
 10
-6.54369910E+01
 20
-2.72576035E+02
  0
VERTEX
  8
0
 62
4
 10
-6.51629594E+01
 20
-2.72684311E+02
  0
VERTEX
  8
0
 62
4
 10
-6.48800772E+01
 20
-2.72769393E+02
  0
VERTEX
  8
0
 62
4
 10
-6.45904974E+01
 20
-2.72830634E+02
  0
VERTEX
  8
0
 62
4
 10
-6.42964237E+01
 20
-2.72867568E+02
  0
VERTEX
  8
0
 62
4
 10
-6.40000944E+01
 20
-2.72879914E+02
  0
VERTEX
  8
0
 62
4
 10
-6.37037647E+01
 20
-2.72867579E+02
  0
VERTEX
  8
0
 62
4
 10
-6.34096897E+01
 20
-2.72830655E+02
  0
VERTEX
  8
0
 62
4
 10
-6.31201077E+01
 20
-2.72769424E+02
  0
VERTEX
  8
0
 62
4
 10
-6.28372224E+01
 20
-2.72684353E+02
  0
VERTEX
  8
0
 62
4
 10
-6.25631868E+01
 20
-2.72576087E+02
  0
VERTEX
  8
0
 62
4
 10
-6.23000866E+01
 20
-2.72445453E+02
  0
VERTEX
  8
0
 62
4
 10
-6.20499239E+01
 20
-2.72293442E+02
  0
VERTEX
  8
0
 62
4
 10
-6.18146028E+01
 20
-2.72121213E+02
  0
VERTEX
  8
0
 62
4
 10
-6.15959142E+01
 20
-2.71930077E+02
  0
VERTEX
  8
0
 62
4
 10
-6.13955224E+01
 20
-2.71721487E+02
  0
VERTEX
  8
0
 62
4
 10
-6.12149524E+01
 20
-2.71497032E+02
  0
VERTEX
  8
0
 62
4
 10
-6.10555787E+01
 20
-2.71258419E+02
  0
VERTEX
  8
0
 62
4
 10
-6.09186140E+01
 20
-2.71007465E+02
  0
VERTEX
  8
0
 62
4
 10
-6.08051009E+01
 20
-2.70746080E+02
  0
VERTEX
  8
0
 62
4
 10
-6.07159031E+01
 20
-2.70476252E+02
  0
VERTEX
  8
0
 62
4
 10
-6.06516995E+01
 20
-2.70200036E+02
  0
VERTEX
  8
0
 62
4
 10
-6.06129788E+01
 20
-2.69919533E+02
  0
VERTEX
  8
0
 62
4
 10
-6.06000357E+01
 20
-2.69636879E+02
  0
VERTEX
  8
0
 62
4
 10
-6.06129686E+01
 20
-2.69354224E+02
  0
VERTEX
  8
0
 62
4
 10
-6.06516791E+01
 20
-2.69073720E+02
  0
VERTEX
  8
0
 62
4
 10
-6.07158727E+01
 20
-2.68797501E+02
  0
VERTEX
  8
0
 62
4
 10
-6.08050607E+01
 20
-2.68527670E+02
  0
VERTEX
  8
0
 62
4
 10
-6.09185644E+01
 20
-2.68266281E+02
  0
VERTEX
  8
0
 62
4
 10
-6.10555200E+01
 20
-2.68015322E+02
  0
VERTEX
  8
0
 62
4
 10
-6.12148851E+01
 20
-2.67776703E+02
  0
VERTEX
  8
0
 62
4
 10
-6.13954468E+01
 20
-2.67552241E+02
  0
VERTEX
  8
0
 62
4
 10
-6.15958311E+01
 20
-2.67343644E+02
  0
VERTEX
  8
0
 62
4
 10
-6.18145128E+01
 20
-2.67152500E+02
  0
VERTEX
  8
0
 62
4
 10
-6.20498277E+01
 20
-2.66980262E+02
  0
VERTEX
  8
0
 62
4
 10
-6.22999848E+01
 20
-2.66828243E+02
  0
VERTEX
  8
0
 62
4
 10
-6.25630804E+01
 20
-2.66697599E+02
  0
VERTEX
  8
0
 62
4
 10
-6.28371120E+01
 20
-2.66589323E+02
  0
VERTEX
  8
0
 62
4
 10
-6.31199942E+01
 20
-2.66504241E+02
  0
VERTEX
  8
0
 62
4
 10
-6.34095741E+01
 20
-2.66443000E+02
  0
VERTEX
  8
0
 62
4
 10
-6.37036477E+01
 20
-2.66406066E+02
  0
VERTEX
  8
0
 62
4
 10
-6.39999770E+01
 20
-2.66393720E+02
  0
VERTEX
  8
0
 62
4
 10
-6.42963067E+01
 20
-2.66406055E+02
  0
VERTEX
  8
0
 62
4
 10
-6.45903817E+01
 20
-2.66442979E+02
  0
VERTEX
  8
0
 62
4
 10
-6.48799637E+01
 20
-2.66504210E+02
  0
VERTEX
  8
0
 62
4
 10
-6.51628490E+01
 20
-2.66589281E+02
  0
VERTEX
  8
0
 62
4
 10
-6.54368846E+01
 20
-2.66697547E+02
  0
VERTEX
  8
0
 62
4
 10
-6.56999848E+01
 20
-2.66828181E+02
  0
VERTEX
  8
0
 62
4
 10
-6.59501475E+01
 20
-2.66980192E+02
  0
VERTEX
  8
0
 62
4
 10
-6.61854686E+01
 20
-2.67152421E+02
  0
VERTEX
  8
0
 62
4
 10
-6.64041572E+01
 20
-2.67343557E+02
  0
VERTEX
  8
0
 62
4
 10
-6.66045491E+01
 20
-2.67552147E+02
  0
VERTEX
  8
0
 62
4
 10
-6.67851190E+01
 20
-2.67776602E+02
  0
VERTEX
  8
0
 62
4
 10
-6.69444927E+01
 20
-2.68015215E+02
  0
VERTEX
  8
0
 62
4
 10
-6.70814574E+01
 20
-2.68266169E+02
  0
VERTEX
  8
0
 62
4
 10
-6.71949705E+01
 20
-2.68527554E+02
  0
VERTEX
  8
0
 62
4
 10
-6.72841683E+01
 20
-2.68797382E+02
  0
VERTEX
  8
0
 62
4
 10
-6.73483719E+01
 20
-2.69073598E+02
  0
VERTEX
  8
0
 62
4
 10
-6.73870926E+01
 20
-2.69354101E+02
  0
VERTEX
  8
0
 62
4
 10
-6.74000357E+01
 20
-2.69636755E+02
  0
SEQEND
  8
0
  0
POLYLINE
  8
0
 62
4
 66
1
  0
VERTEX
  8
0
 62
4
 10
-6.74000346E+01
 20
-2.70228333E+02
  0
VERTEX
  8
0
 62
4
 10
-6.73870649E+01
 20
-2.70508906E+02
  0
VERTEX
  8
0
 62
4
 10
-6.73482463E+01
 20
-2.70787338E+02
  0
VERTEX
  8
0
 62
4
 10
-6.72838750E+01
 20
-2.71061505E+02
  0
VERTEX
  8
0
 62
4
 10
-6.71944423E+01
 20
-2.71329313E+02
  0
VERTEX
  8
0
 62
4
 10
-6.70806307E+01
 20
-2.71588720E+02
  0
VERTEX
  8
0
 62
4
 10
-6.69433089E+01
 20
-2.71837744E+02
  0
VERTEX
  8
0
 62
4
 10
-6.67835247E+01
 20
-2.72074487E+02
  0
VERTEX
  8
0
 62
4
 10
-6.66024977E+01
 20
-2.72297140E+02
  0
VERTEX
  8
0
 62
4
 10
-6.64016094E+01
 20
-2.72504006E+02
  0
VERTEX
  8
0
 62
4
 10
-6.61823929E+01
 20
-2.72693504E+02
  0
VERTEX
  8
0
 62
4
 10
-6.59465212E+01
 20
-2.72864189E+02
  0
VERTEX
  8
0
 62
4
 10
-6.56957945E+01
 20
-2.73014759E+02
  0
VERTEX
  8
0
 62
4
 10
-6.54321262E+01
 20
-2.73144063E+02
  0
VERTEX
  8
0
 62
4
 10
-6.51575285E+01
 20
-2.73251116E+02
  0
VERTEX
  8
0
 62
4
 10
-6.48740971E+01
 20
-2.73335100E+02
  0
VERTEX
  8
0
 62
4
 10
-6.45839951E+01
 20
-2.73395375E+02
  0
VERTEX
  8
0
 62
4
 10
-6.42894365E+01
 20
-2.73431480E+02
  0
VERTEX
  8
0
 62
4
 10
-6.39926692E+01
 20
-2.73443140E+02
  0
VERTEX
  8
0
 62
4
 10
-6.36959582E+01
 20
-2.73430265E+02
  0
VERTEX
  8
0
 62
4
 10
-6.34015678E+01
 20
-2.73392955E+02
  0
VERTEX
  8
0
 62
4
 10
-6.31117447E+01
 20
-2.73331493E+02
  0
VERTEX
  8
0
 62
4
 10
-6.28287008E+01
 20
-2.73246350E+02
  0
VERTEX
  8
0
 62
4
 10
-6.25545962E+01
 20
-2.73138174E+02
  0
VERTEX
  8
0
 62
4
 10
-6.22915229E+01
 20
-2.73007791E+02
  0
VERTEX
  8
0
 62
4
 10
-6.20414884E+01
 20
-2.72856197E+02
  0
VERTEX
  8
0
 62
4
 10
-6.18064011E+01
 20
-2.72684548E+02
  0
VERTEX
  8
0
 62
4
 10
-6.15880549E+01
 20
-2.72494154E+02
  0
VERTEX
  8
0
 62
4
 10
-6.13881164E+01
 20
-2.72286468E+02
  0
VERTEX
  8
0
 62
4
 10
-6.12081113E+01
 20
-2.72063076E+02
  0
VERTEX
  8
0
 62
4
 10
-6.10494135E+01
 20
-2.71825681E+02
  0
VERTEX
  8
0
 62
4
 10
-6.09132340E+01
 20
-2.71576097E+02
  0
VERTEX
  8
0
 62
4
 10
-6.08006122E+01
 20
-2.71316227E+02
  0
VERTEX
  8
0
 62
4
 10
-6.07124075E+01
 20
-2.71048055E+02
  0
VERTEX
  8
0
 62
4
 10
-6.06492931E+01
 20
-2.70773628E+02
  0
VERTEX
  8
0
 62
4
 10
-6.06117507E+01
 20
-2.70495039E+02
  0
VERTEX
  8
0
 62
4
 10
-6.06000667E+01
 20
-2.70214415E+02
  0
VERTEX
  8
0
 62
4
 10
-6.06143304E+01
 20
-2.69933898E+02
  0
SEQEND
  8
0
  0
LINE
  8
0
  6
CENTER
 62
6
 10
-6.40000249E+01
 20
-2.75651769E+02
 11
-6.40000478E+01
 21
-2.62851769E+02
  0
LINE
  8
0
  6
CENTER
 62
6
 10
-7.04000364E+01
 20
-2.69251780E+02
 11
-5.76000364E+01
 21
-2.69251757E+02
  0
LINE
  8
0
 62
4
 10
-7.15001136E+01
 20
-2.37344824E+02
 11
-5.65001136E+01
 21
-2.37344797E+02
  0
LINE
  8
0
 62
4
 10
-7.35000724E+01
 20
-2.60331656E+02
 11
-5.45000724E+01
 21
-2.60331622E+02
  0
LINE
  8
0
 62
4
 10
-7.60000471E+01
 20
-2.65476164E+02
 11
-7.60000256E+01
 21
-2.77482558E+02
  0
LINE
  8
0
 62
4
 10
-7.35000724E+01
 20
-2.60331656E+02
 11
-7.35000658E+01
 21
-2.63976140E+02
  0
LINE
  8
0
 62
4
 10
-5.65001136E+01
 20
-2.37344797E+02
 11
-5.65000724E+01
 21
-2.60331625E+02
  0
LINE
  8
0
 62
4
 10
-7.15001136E+01
 20
-2.37344797E+02
 11
-7.15000724E+01
 21
-2.60331652E+02
  0
LINE
  8
0
 62
4
 10
-5.45000724E+01
 20
-2.60331622E+02
 11
-5.45000658E+01
 21
-2.63976126E+02
  0
LINE
  8
0
 62
4
 10
-7.15000729E+01
 20
-2.60037270E+02
 11
-5.65000729E+01
 21
-2.60037243E+02
  0
LINE
  8
0
 62
4
 10
-3.70000471E+01
 20
-2.65476094E+02
 11
-3.70000256E+01
 21
-2.77482488E+02
  0
LINE
  8
0
 62
4
 10
-7.30000157E+01
 20
-2.82231881E+02
 11
-4.00000157E+01
 21
-2.82231822E+02
  0
LINE
  8
0
 62
4
 10
-7.60000256E+01
 20
-2.77482558E+02
 11
-3.70000256E+01
 21
-2.77482488E+02
  0
LINE
  8
0
 62
4
 10
-7.60000281E+01
 20
-2.76064280E+02
 11
-3.70000281E+01
 21
-2.76064210E+02
  0
LINE
  8
0
 62
4
 10
-7.45000498E+01
 20
-2.63976162E+02
 11
-3.85000498E+01
 21
-2.63976097E+02
  0
LINE
  8
0
 62
4
 10
-9.10001092E+01
 20
-2.39797782E+02
 11
-8.60001092E+01
 21
-2.39797773E+02
  0
LINE
  8
0
 62
4
 10
-9.10000965E+01
 20
-2.46889172E+02
 11
-8.60000965E+01
 21
-2.46889163E+02
  0
LINE
  8
0
 62
4
 10
-9.10000863E+01
 20
-2.52560514E+02
 11
-8.60000863E+01
 21
-2.52560505E+02
  0
LINE
  8
0
 62
4
 10
-8.05000785E+01
 20
-2.52453348E+02
 11
-7.20000785E+01
 21
-2.52453333E+02
  0
LINE
  8
0
 62
4
 10
-7.15001117E+01
 20
-2.38453338E+02
 11
-8.05001117E+01
 21
-2.38453354E+02
  0
LINE
  8
0
 62
4
 10
-8.10001108E+01
 20
-2.38953355E+02
 11
-8.10000874E+01
 21
-2.51953355E+02
  0
LINE
  8
0
 62
4
 10
-9.10001118E+01
 20
-2.38358825E+02
 11
-9.10000863E+01
 21
-2.52560514E+02
  0
LINE
  8
0
 62
4
 10
-8.60001118E+01
 20
-2.38358825E+02
 11
-8.60000863E+01
 21
-2.52560514E+02
  0
LINE
  8
0
 62
4
 10
-8.60001103E+01
 20
-2.39203347E+02
 11
-8.10001103E+01
 21
-2.39203338E+02
  0
LINE
  8
0
 62
4
 10
-8.60000879E+01
 20
-2.51703347E+02
 11
-8.10000879E+01
 21
-2.51703338E+02
  0
LINE
  8
0
 62
4
 10
-8.45001103E+01
 20
-2.39203344E+02
 11
-8.45000879E+01
 21
-2.51703344E+02
  0
LINE
  8
0
 62
4
 10
-8.45001094E+01
 20
-2.39703344E+02
 11
-8.10001094E+01
 21
-2.39703338E+02
  0
LINE
  8
0
 62
4
 10
-8.45000888E+01
 20
-2.51203344E+02
 11
-8.10000888E+01
 21
-2.51203338E+02
  0
ARC
  8
0
 62
4
 10
-8.05025857E+01
 20
-2.38950879E+02
 40
4.97531232E-01
 50
8.97150889E+01
 51
1.80285117E+02
  0
ARC
  8
0
 62
4
 10
-7.19976027E+01
 20
-2.52950858E+02
 40
4.97531232E-01
 50
3.59715089E+02
 51
9.02851166E+01
  0
ARC
  8
0
 62
4
 10
-3.84975681E+01
 20
-2.65473618E+02
 40
1.49752302E+00
 50
3.59905254E+02
 51
9.00949513E+01
  0
ARC
  8
0
 62
4
 10
-8.04975922E+01
 20
-2.51950861E+02
 40
5.02493390E-01
 50
1.80283706E+02
 51
2.69716500E+02
  0
ARC
  8
0
 62
4
 10
-7.45025262E+01
 20
-2.65473683E+02
 40
1.49752302E+00
 50
8.99052542E+01
 51
1.80094952E+02
  0
LINE
  8
0
 62
6
 10
-6.22850984E+01
 20
-2.71351752E+02
 11
-6.57149730E+01
 21
-2.67921882E+02
  0
LINE
  8
0
 62
6
 10
-6.57149705E+01
 20
-2.71351755E+02
 11
-6.22851008E+01
 21
-2.67921880E+02
  0
ARC
  8
0
 62
4
 10
-3.74062799E+02
 20
-2.45453315E+02
 40
7.00000000E+00
 50
7.79182752E+01
 51
1.00872928E+02
  0
ARC
  8
0
 62
4
 10
-3.74062799E+02
 20
-2.45453315E+02
 40
7.00000000E+00
 50
1.17236957E+02
 51
1.40081725E+02
  0
ARC
  8
0
 62
4
 10
-3.56778394E+02
 20
-2.66471137E+02
 40
2.49501993E+00
 50
1.88855230E+01
 51
1.09114477E+02
  0
ARC
  8
0
 62
4
 10
-3.74746317E+02
 20
-2.72663278E+02
 40
2.50001642E+00
 50
1.09000376E+02
 51
1.98999623E+02
  0
CIRCLE
  8
0
 62
4
 10
-3.74062799E+02
 20
-2.45453315E+02
 40
3.75000000E+00
  0
ARC
  8
0
 62
4
 10
-3.51457001E+02
 20
-2.67390306E+02
 40
9.96609194E-01
 50
3.15516728E+01
 51
1.09414475E+02
  0
ARC
  8
0
 62
4
 10
-3.60650953E+02
 20
-2.73076376E+02
 40
1.18067922E+01
 50
6.08754926E+00
 51
3.17195580E+01
  0
ARC
  8
0
 62
4
 10
-3.49898658E+02
 20
-2.71931049E+02
 40
1.00271607E+00
 50
2.88866852E+02
 51
6.16700057E+00
  0
LINE
  8
0
 62
4
 10
-3.53619361E+02
 20
-2.66446287E+02
 11
-3.51014816E+02
 21
-2.74010436E+02
  0
LINE
  8
0
  6
CENTER
 62
6
 10
-3.82507496E+02
 20
-2.80623753E+02
 11
-3.46643977E+02
 21
-2.68274953E+02
  0
LINE
  8
0
 62
4
 10
-3.49574409E+02
 20
-2.72879892E+02
 11
-3.51210157E+02
 21
-2.73443125E+02
  0
LINE
  8
0
 62
4
 10
-3.53424020E+02
 20
-2.67013598E+02
 11
-3.51788273E+02
 21
-2.66450366E+02
  0
LINE
  8
0
 62
4
 10
-3.51487575E+02
 20
-2.74173220E+02
 11
-3.51014816E+02
 21
-2.74010436E+02
  0
LINE
  8
0
 62
4
 10
-3.54092120E+02
 20
-2.66609071E+02
 11
-3.53619361E+02
 21
-2.66446287E+02
  0
LINE
  8
0
 62
4
 10
-3.73551505E+02
 20
-2.38936803E+02
 11
-3.68927919E+02
 21
-2.37344774E+02
  0
LINE
  8
0
 62
4
 10
-3.76510916E+02
 20
-2.38358802E+02
 11
-3.69140909E+02
 21
-2.39797759E+02
  0
LINE
  8
0
 62
4
 10
-3.78990889E+02
 20
-2.51121535E+02
 11
-3.71620882E+02
 21
-2.52560491E+02
  0
LINE
  8
0
 62
4
 10
-3.69140909E+02
 20
-2.39797759E+02
 11
-3.66699148E+02
 21
-2.46889149E+02
  0
LINE
  8
0
 62
4
 10
-3.81432650E+02
 20
-2.44030145E+02
 11
-3.78990889E+02
 21
-2.51121535E+02
  0
LINE
  8
0
 62
4
 10
-3.81432650E+02
 20
-2.44030145E+02
 11
-3.76510916E+02
 21
-2.38358802E+02
  0
LINE
  8
0
 62
4
 10
-3.71620882E+02
 20
-2.52560491E+02
 11
-3.66699148E+02
 21
-2.46889149E+02
  0
LINE
  8
0
 62
4
 10
-3.62082249E+02
 20
-2.74119587E+02
 11
-3.61268329E+02
 21
-2.76483383E+02
  0
LINE
  8
0
 62
4
 10
-3.65864324E+02
 20
-2.75421859E+02
 11
-3.65050403E+02
 21
-2.77785656E+02
  0
LINE
  8
0
 62
4
 10
-3.65050403E+02
 20
-2.77785656E+02
 11
-3.61268329E+02
 21
-2.76483383E+02
  0
LINE
  8
0
 62
4
 10
-3.65864324E+02
 20
-2.75421859E+02
 11
-3.62082249E+02
 21
-2.74119587E+02
  0
LINE
  8
0
 62
4
 10
-3.68074955E+02
 20
-2.81999954E+02
 11
-3.50836439E+02
 21
-2.76064257E+02
  0
LINE
  8
0
 62
4
 10
-3.50348086E+02
 20
-2.77482535E+02
 11
-3.51810549E+02
 21
-2.81999954E+02
  0
LINE
  8
0
 62
4
 10
-3.77110134E+02
 20
-2.73477189E+02
 11
-3.74175511E+02
 21
-2.81999954E+02
  0
LINE
  8
0
 62
4
 10
-3.54417688E+02
 20
-2.65663553E+02
 11
-3.50348086E+02
 21
-2.77482535E+02
  0
LINE
  8
0
 62
4
 10
-3.63467624E+02
 20
-2.81999954E+02
 11
-3.50348086E+02
 21
-2.77482535E+02
  0
LINE
  8
0
 62
4
 10
-3.75560258E+02
 20
-2.70299472E+02
 11
-3.57595405E+02
 21
-2.64113677E+02
  0
LINE
  8
0
 62
4
 10
-3.76862531E+02
 20
-2.66517397E+02
 11
-3.75560258E+02
 21
-2.70299472E+02
  0
LINE
  8
0
 62
4
 10
-3.58897678E+02
 20
-2.60331602E+02
 11
-3.57595405E+02
 21
-2.64113677E+02
  0
LINE
  8
0
 62
4
 10
-3.75297062E+02
 20
-2.64920742E+02
 11
-3.61114283E+02
 21
-2.60037220E+02
  0
LINE
  8
0
 62
4
 10
-3.76862531E+02
 20
-2.66517397E+02
 11
-3.58897678E+02
 21
-2.60331602E+02
  0
LINE
  8
0
 62
4
 10
-3.83110697E+02
 20
-2.42228297E+02
 11
-3.74971494E+02
 21
-2.65866261E+02
  0
LINE
  8
0
 62
4
 10
-3.68927919E+02
 20
-2.37344774E+02
 11
-3.60788715E+02
 21
-2.60982739E+02
  0
LINE
  8
0
 62
4
 10
-3.83110697E+02
 20
-2.42228297E+02
 11
-3.78487112E+02
 21
-2.40636268E+02
  0
LINE
  8
0
 62
4
 10
-3.82147949E+02
 20
-2.75740658E+02
 11
-3.85197327E+02
 21
-2.81999954E+02
  0
LINE
  8
0
 62
4
 10
-3.74218062E+02
 20
-2.81999954E+02
 11
-3.74180021E+02
 21
-2.81986856E+02
  0
LINE
  8
0
 62
4
 10
-3.82147949E+02
 20
-2.75740658E+02
 11
-3.76947350E+02
 21
-2.73949948E+02
  0
LINE
  8
0
 62
4
 10
1.38015615E+02
 20
-2.81499992E+02
 11
1.26348071E+02
 21
-2.77482535E+02
  0
LINE
  8
0
 62
4
 10
1.26348071E+02
 20
-2.77482535E+02
 11
1.27648677E+02
 21
-2.81499992E+02
  0
ARC
  8
0
 62
4
 10
1.32778379E+02
 20
-2.66471137E+02
 40
2.49501993E+00
 50
7.08855231E+01
 51
1.61114477E+02
  0
ARC
  8
0
 62
4
 10
1.50746302E+02
 20
-2.72663278E+02
 40
2.50001642E+00
 50
3.41000376E+02
 51
7.09996236E+01
  0
ARC
  8
0
 62
4
 10
1.36638963E+02
 20
-2.73115199E+02
 40
1.18081149E+01
 50
1.48089798E+02
 51
1.73718975E+02
  0
ARC
  8
0
 62
4
 10
1.27456985E+02
 20
-2.67390306E+02
 40
9.96609194E-01
 50
7.05855253E+01
 51
1.48448327E+02
  0
ARC
  8
0
 62
4
 10
1.25898642E+02
 20
-2.71931049E+02
 40
1.00271607E+00
 50
1.73833000E+02
 51
2.51133148E+02
  0
ARC
  8
0
 62
4
 10
1.57432252E+02
 20
-2.76549224E+02
 40
9.97523260E-01
 50
2.61759467E+01
 51
7.08169962E+01
  0
LINE
  8
0
 62
4
 10
1.29619346E+02
 20
-2.66446287E+02
 11
1.27014800E+02
 21
-2.74010436E+02
  0
LINE
  8
0
 62
4
 10
1.25574394E+02
 20
-2.72879892E+02
 11
1.27210141E+02
 21
-2.73443125E+02
  0
LINE
  8
0
 62
4
 10
1.29424005E+02
 20
-2.67013598E+02
 11
1.27788258E+02
 21
-2.66450366E+02
  0
LINE
  8
0
 62
4
 10
1.27487560E+02
 20
-2.74173220E+02
 11
1.27014800E+02
 21
-2.74010436E+02
  0
LINE
  8
0
 62
4
 10
1.30092105E+02
 20
-2.66609071E+02
 11
1.29619346E+02
 21
-2.66446287E+02
  0
LINE
  8
0
 62
4
 10
1.38082234E+02
 20
-2.74119587E+02
 11
1.37268314E+02
 21
-2.76483383E+02
  0
LINE
  8
0
 62
4
 10
1.41864308E+02
 20
-2.75421859E+02
 11
1.38082234E+02
 21
-2.74119587E+02
  0
LINE
  8
0
 62
4
 10
1.51560243E+02
 20
-2.70299472E+02
 11
1.33595390E+02
 21
-2.64113677E+02
  0
LINE
  8
0
 62
4
 10
1.52862515E+02
 20
-2.66517397E+02
 11
1.51560243E+02
 21
-2.70299472E+02
  0
LINE
  8
0
 62
4
 10
1.34897663E+02
 20
-2.60331602E+02
 11
1.33595390E+02
 21
-2.64113677E+02
  0
LINE
  8
0
 62
4
 10
1.51297046E+02
 20
-2.64920742E+02
 11
1.37114268E+02
 21
-2.60037220E+02
  0
LINE
  8
0
 62
4
 10
1.52862515E+02
 20
-2.66517397E+02
 11
1.34897663E+02
 21
-2.60331602E+02
  0
LINE
  8
0
 62
4
 10
1.57760024E+02
 20
-2.75607090E+02
 11
1.52947335E+02
 21
-2.73949948E+02
  0
LINE
  8
0
  6
CENTER
 62
6
 10
1.43600257E+02
 20
-2.64237191E+02
 11
1.42092720E+02
 21
-2.68615397E+02
  0
LINE
  8
0
 62
4
 10
1.39268501E+02
 20
-2.66067086E+02
 11
1.39934456E+02
 21
-2.65238772E+02
  0
LINE
  8
0
 62
4
 10
1.45872313E+02
 20
-2.67283340E+02
 11
1.45887131E+02
 21
-2.68346063E+02
  0
LINE
  8
0
 62
4
 10
1.39934456E+02
 20
-2.65238772E+02
 11
1.45872313E+02
 21
-2.67283340E+02
  0
LINE
  8
0
 62
4
 10
1.58327473E+02
 20
-2.76109188E+02
 11
1.60953742E+02
 21
-2.81499992E+02
  0
LINE
  8
0
 62
4
 10
1.30417673E+02
 20
-2.65663553E+02
 11
1.26348071E+02
 21
-2.77482535E+02
  0
LINE
  8
0
 62
4
 10
1.53110119E+02
 20
-2.73477189E+02
 11
1.50347646E+02
 21
-2.81499992E+02
  0
LINE
  8
0
 62
4
 10
1.42622945E+02
 20
-2.81499992E+02
 11
1.26836423E+02
 21
-2.76064257E+02
  0
LINE
  8
0
 62
4
 10
1.41050388E+02
 20
-2.77785656E+02
 11
1.37268314E+02
 21
-2.76483383E+02
  0
LINE
  8
0
 62
4
 10
1.41864308E+02
 20
-2.75421859E+02
 11
1.41050388E+02
 21
-2.77785656E+02
  0
LINE
  8
0
  6
CENTER
 62
6
 10
1.58507481E+02
 20
-2.80623753E+02
 11
1.22643962E+02
 21
-2.68274953E+02
  0
LINE
  8
0
 62
4
 10
1.52510901E+02
 20
-2.38358802E+02
 11
1.51381340E+02
 21
-2.38579344E+02
  0
LINE
  8
0
 62
4
 10
1.53265228E+02
 20
-2.39228018E+02
 11
1.52510901E+02
 21
-2.38358802E+02
  0
LINE
  8
0
 62
4
 10
1.44927904E+02
 20
-2.37344774E+02
 11
1.59110682E+02
 21
-2.42228297E+02
  0
ARC
  8
0
 62
4
 10
1.50067504E+02
 20
-2.45454941E+02
 40
7.00000000E+00
 50
3.99182754E+01
 51
1.02081725E+02
  0
LINE
  8
0
 62
4
 10
1.44927904E+02
 20
-2.37344774E+02
 11
1.36788700E+02
 21
-2.60982739E+02
  0
LINE
  8
0
 62
4
 10
1.59110682E+02
 20
-2.42228297E+02
 11
1.50971478E+02
 21
-2.65866261E+02
  0
ARC
  8
0
 62
4
 10
-7.45024841E+01
 20
-1.34770744E+02
 40
1.49750400E+00
 50
1.79904421E+02
 51
2.70095579E+02
  0
ARC
  8
0
 62
4
 10
-3.84974841E+01
 20
-1.34770748E+02
 40
1.49750021E+00
 50
2.69904276E+02
 51
9.57242462E-02
  0
LINE
  8
0
 62
4
 10
-7.34999860E+01
 20
-1.33904450E+02
 11
-5.44999860E+01
 21
-1.33904450E+02
  0
POLYLINE
  8
0
 62
4
 66
1
  0
VERTEX
  8
0
 62
4
 10
-4.48599860E+01
 20
-1.24596480E+02
  0
VERTEX
  8
0
 62
4
 10
-4.48719346E+01
 20
-1.24337721E+02
  0
VERTEX
  8
0
 62
4
 10
-4.49076897E+01
 20
-1.24080931E+02
  0
VERTEX
  8
0
 62
4
 10
-4.49669789E+01
 20
-1.23828065E+02
  0
VERTEX
  8
0
 62
4
 10
-4.50493512E+01
 20
-1.23581047E+02
  0
VERTEX
  8
0
 62
4
 10
-4.51541795E+01
 20
-1.23341757E+02
  0
VERTEX
  8
0
 62
4
 10
-4.52806662E+01
 20
-1.23112016E+02
  0
VERTEX
  8
0
 62
4
 10
-4.54278486E+01
 20
-1.22893573E+02
  0
VERTEX
  8
0
 62
4
 10
-4.55946064E+01
 20
-1.22688090E+02
  0
VERTEX
  8
0
 62
4
 10
-4.57796707E+01
 20
-1.22497131E+02
  0
VERTEX
  8
0
 62
4
 10
-4.59816329E+01
 20
-1.22322149E+02
  0
VERTEX
  8
0
 62
4
 10
-4.61989560E+01
 20
-1.22164476E+02
  0
VERTEX
  8
0
 62
4
 10
-4.64299860E+01
 20
-1.22025313E+02
  0
VERTEX
  8
0
 62
4
 10
-4.66729647E+01
 20
-1.21905717E+02
  0
VERTEX
  8
0
 62
4
 10
-4.69260428E+01
 20
-1.21806600E+02
  0
VERTEX
  8
0
 62
4
 10
-4.71872942E+01
 20
-1.21728715E+02
  0
VERTEX
  8
0
 62
4
 10
-4.74547307E+01
 20
-1.21672656E+02
  0
VERTEX
  8
0
 62
4
 10
-4.77263170E+01
 20
-1.21638849E+02
  0
VERTEX
  8
0
 62
4
 10
-4.79999860E+01
 20
-1.21627552E+02
  0
VERTEX
  8
0
 62
4
 10
-4.82736550E+01
 20
-1.21638849E+02
  0
VERTEX
  8
0
 62
4
 10
-4.85452413E+01
 20
-1.21672656E+02
  0
VERTEX
  8
0
 62
4
 10
-4.88126778E+01
 20
-1.21728715E+02
  0
VERTEX
  8
0
 62
4
 10
-4.90739293E+01
 20
-1.21806600E+02
  0
VERTEX
  8
0
 62
4
 10
-4.93270073E+01
 20
-1.21905717E+02
  0
VERTEX
  8
0
 62
4
 10
-4.95699860E+01
 20
-1.22025313E+02
  0
VERTEX
  8
0
 62
4
 10
-4.98010160E+01
 20
-1.22164476E+02
  0
VERTEX
  8
0
 62
4
 10
-5.00183391E+01
 20
-1.22322149E+02
  0
VERTEX
  8
0
 62
4
 10
-5.02203013E+01
 20
-1.22497131E+02
  0
VERTEX
  8
0
 62
4
 10
-5.04053656E+01
 20
-1.22688090E+02
  0
VERTEX
  8
0
 62
4
 10
-5.05721234E+01
 20
-1.22893573E+02
  0
VERTEX
  8
0
 62
4
 10
-5.07193058E+01
 20
-1.23112016E+02
  0
VERTEX
  8
0
 62
4
 10
-5.08457925E+01
 20
-1.23341757E+02
  0
VERTEX
  8
0
 62
4
 10
-5.09506208E+01
 20
-1.23581047E+02
  0
VERTEX
  8
0
 62
4
 10
-5.10329931E+01
 20
-1.23828065E+02
  0
VERTEX
  8
0
 62
4
 10
-5.10922823E+01
 20
-1.24080931E+02
  0
VERTEX
  8
0
 62
4
 10
-5.11280374E+01
 20
-1.24337721E+02
  0
VERTEX
  8
0
 62
4
 10
-5.11399860E+01
 20
-1.24596480E+02
  0
VERTEX
  8
0
 62
4
 10
-5.11280374E+01
 20
-1.24855239E+02
  0
VERTEX
  8
0
 62
4
 10
-5.10922823E+01
 20
-1.25112029E+02
  0
VERTEX
  8
0
 62
4
 10
-5.10329931E+01
 20
-1.25364895E+02
  0
VERTEX
  8
0
 62
4
 10
-5.09506208E+01
 20
-1.25611913E+02
  0
VERTEX
  8
0
 62
4
 10
-5.08457924E+01
 20
-1.25851203E+02
  0
VERTEX
  8
0
 62
4
 10
-5.07193058E+01
 20
-1.26080944E+02
  0
VERTEX
  8
0
 62
4
 10
-5.05721234E+01
 20
-1.26299387E+02
  0
VERTEX
  8
0
 62
4
 10
-5.04053655E+01
 20
-1.26504870E+02
  0
VERTEX
  8
0
 62
4
 10
-5.02203013E+01
 20
-1.26695829E+02
  0
VERTEX
  8
0
 62
4
 10
-5.00183391E+01
 20
-1.26870811E+02
  0
VERTEX
  8
0
 62
4
 10
-4.98010160E+01
 20
-1.27028484E+02
  0
VERTEX
  8
0
 62
4
 10
-4.95699860E+01
 20
-1.27167647E+02
  0
VERTEX
  8
0
 62
4
 10
-4.93270073E+01
 20
-1.27287243E+02
  0
VERTEX
  8
0
 62
4
 10
-4.90739292E+01
 20
-1.27386360E+02
  0
VERTEX
  8
0
 62
4
 10
-4.88126778E+01
 20
-1.27464245E+02
  0
VERTEX
  8
0
 62
4
 10
-4.85452413E+01
 20
-1.27520304E+02
  0
VERTEX
  8
0
 62
4
 10
-4.82736550E+01
 20
-1.27554111E+02
  0
VERTEX
  8
0
 62
4
 10
-4.79999860E+01
 20
-1.27565408E+02
  0
VERTEX
  8
0
 62
4
 10
-4.77263170E+01
 20
-1.27554111E+02
  0
VERTEX
  8
0
 62
4
 10
-4.74547307E+01
 20
-1.27520304E+02
  0
VERTEX
  8
0
 62
4
 10
-4.71872942E+01
 20
-1.27464245E+02
  0
VERTEX
  8
0
 62
4
 10
-4.69260427E+01
 20
-1.27386360E+02
  0
VERTEX
  8
0
 62
4
 10
-4.66729647E+01
 20
-1.27287243E+02
  0
VERTEX
  8
0
 62
4
 10
-4.64299860E+01
 20
-1.27167647E+02
  0
VERTEX
  8
0
 62
4
 10
-4.61989560E+01
 20
-1.27028484E+02
  0
VERTEX
  8
0
 62
4
 10
-4.59816329E+01
 20
-1.26870811E+02
  0
VERTEX
  8
0
 62
4
 10
-4.57796707E+01
 20
-1.26695829E+02
  0
VERTEX
  8
0
 62
4
 10
-4.55946064E+01
 20
-1.26504870E+02
  0
VERTEX
  8
0
 62
4
 10
-4.54278486E+01
 20
-1.26299387E+02
  0
VERTEX
  8
0
 62
4
 10
-4.52806662E+01
 20
-1.26080944E+02
  0
VERTEX
  8
0
 62
4
 10
-4.51541795E+01
 20
-1.25851203E+02
  0
VERTEX
  8
0
 62
4
 10
-4.50493512E+01
 20
-1.25611913E+02
  0
VERTEX
  8
0
 62
4
 10
-4.49669789E+01
 20
-1.25364895E+02
  0
VERTEX
  8
0
 62
4
 10
-4.49076897E+01
 20
-1.25112029E+02
  0
VERTEX
  8
0
 62
4
 10
-4.48719346E+01
 20
-1.24855239E+02
  0
VERTEX
  8
0
 62
4
 10
-4.48599860E+01
 20
-1.24596480E+02
  0
SEQEND
  8
0
  0
POLYLINE
  8
0
 62
4
 66
1
  0
VERTEX
  8
0
 62
4
 10
-4.44999860E+01
 20
-1.24922048E+02
  0
VERTEX
  8
0
 62
4
 10
-4.45133046E+01
 20
-1.24633622E+02
  0
VERTEX
  8
0
 62
4
 10
-4.45531589E+01
 20
-1.24347391E+02
  0
VERTEX
  8
0
 62
4
 10
-4.46192456E+01
 20
-1.24065534E+02
  0
VERTEX
  8
0
 62
4
 10
-4.47110618E+01
 20
-1.23790196E+02
  0
VERTEX
  8
0
 62
4
 10
-4.48279087E+01
 20
-1.23523471E+02
  0
VERTEX
  8
0
 62
4
 10
-4.49688971E+01
 20
-1.23267390E+02
  0
VERTEX
  8
0
 62
4
 10
-4.51329538E+01
 20
-1.23023903E+02
  0
VERTEX
  8
0
 62
4
 10
-4.53188304E+01
 20
-1.22794861E+02
  0
VERTEX
  8
0
 62
4
 10
-4.55251123E+01
 20
-1.22582009E+02
  0
VERTEX
  8
0
 62
4
 10
-4.57502294E+01
 20
-1.22386966E+02
  0
VERTEX
  8
0
 62
4
 10
-4.59924685E+01
 20
-1.22211216E+02
  0
VERTEX
  8
0
 62
4
 10
-4.62499860E+01
 20
-1.22056097E+02
  0
VERTEX
  8
0
 62
4
 10
-4.65208221E+01
 20
-1.21922790E+02
  0
VERTEX
  8
0
 62
4
 10
-4.68029155E+01
 20
-1.21812309E+02
  0
VERTEX
  8
0
 62
4
 10
-4.70941193E+01
 20
-1.21725495E+02
  0
VERTEX
  8
0
 62
4
 10
-4.73922174E+01
 20
-1.21663009E+02
  0
VERTEX
  8
0
 62
4
 10
-4.76949409E+01
 20
-1.21625326E+02
  0
VERTEX
  8
0
 62
4
 10
-4.79999860E+01
 20
-1.21612733E+02
  0
VERTEX
  8
0
 62
4
 10
-4.83050311E+01
 20
-1.21625326E+02
  0
VERTEX
  8
0
 62
4
 10
-4.86077546E+01
 20
-1.21663009E+02
  0
VERTEX
  8
0
 62
4
 10
-4.89058527E+01
 20
-1.21725495E+02
  0
VERTEX
  8
0
 62
4
 10
-4.91970565E+01
 20
-1.21812309E+02
  0
VERTEX
  8
0
 62
4
 10
-4.94791499E+01
 20
-1.21922790E+02
  0
VERTEX
  8
0
 62
4
 10
-4.97499860E+01
 20
-1.22056097E+02
  0
VERTEX
  8
0
 62
4
 10
-5.00075035E+01
 20
-1.22211216E+02
  0
VERTEX
  8
0
 62
4
 10
-5.02497426E+01
 20
-1.22386966E+02
  0
VERTEX
  8
0
 62
4
 10
-5.04748597E+01
 20
-1.22582009E+02
  0
VERTEX
  8
0
 62
4
 10
-5.06811416E+01
 20
-1.22794861E+02
  0
VERTEX
  8
0
 62
4
 10
-5.08670182E+01
 20
-1.23023903E+02
  0
VERTEX
  8
0
 62
4
 10
-5.10310749E+01
 20
-1.23267390E+02
  0
VERTEX
  8
0
 62
4
 10
-5.11720633E+01
 20
-1.23523471E+02
  0
VERTEX
  8
0
 62
4
 10
-5.12889102E+01
 20
-1.23790196E+02
  0
VERTEX
  8
0
 62
4
 10
-5.13807264E+01
 20
-1.24065534E+02
  0
VERTEX
  8
0
 62
4
 10
-5.14468131E+01
 20
-1.24347391E+02
  0
VERTEX
  8
0
 62
4
 10
-5.14866674E+01
 20
-1.24633622E+02
  0
VERTEX
  8
0
 62
4
 10
-5.14999860E+01
 20
-1.24922048E+02
  0
VERTEX
  8
0
 62
4
 10
-5.14866674E+01
 20
-1.25210474E+02
  0
VERTEX
  8
0
 62
4
 10
-5.14468131E+01
 20
-1.25496705E+02
  0
VERTEX
  8
0
 62
4
 10
-5.13807264E+01
 20
-1.25778562E+02
  0
VERTEX
  8
0
 62
4
 10
-5.12889102E+01
 20
-1.26053900E+02
  0
VERTEX
  8
0
 62
4
 10
-5.11720633E+01
 20
-1.26320625E+02
  0
VERTEX
  8
0
 62
4
 10
-5.10310749E+01
 20
-1.26576706E+02
  0
VERTEX
  8
0
 62
4
 10
-5.08670182E+01
 20
-1.26820193E+02
  0
VERTEX
  8
0
 62
4
 10
-5.06811415E+01
 20
-1.27049235E+02
  0
VERTEX
  8
0
 62
4
 10
-5.04748597E+01
 20
-1.27262087E+02
  0
VERTEX
  8
0
 62
4
 10
-5.02497426E+01
 20
-1.27457130E+02
  0
VERTEX
  8
0
 62
4
 10
-5.00075035E+01
 20
-1.27632880E+02
  0
VERTEX
  8
0
 62
4
 10
-4.97499860E+01
 20
-1.27787999E+02
  0
VERTEX
  8
0
 62
4
 10
-4.94791499E+01
 20
-1.27921306E+02
  0
VERTEX
  8
0
 62
4
 10
-4.91970565E+01
 20
-1.28031787E+02
  0
VERTEX
  8
0
 62
4
 10
-4.89058527E+01
 20
-1.28118601E+02
  0
VERTEX
  8
0
 62
4
 10
-4.86077546E+01
 20
-1.28181087E+02
  0
VERTEX
  8
0
 62
4
 10
-4.83050311E+01
 20
-1.28218770E+02
  0
VERTEX
  8
0
 62
4
 10
-4.79999860E+01
 20
-1.28231363E+02
  0
VERTEX
  8
0
 62
4
 10
-4.76949409E+01
 20
-1.28218770E+02
  0
VERTEX
  8
0
 62
4
 10
-4.73922174E+01
 20
-1.28181087E+02
  0
VERTEX
  8
0
 62
4
 10
-4.70941193E+01
 20
-1.28118601E+02
  0
VERTEX
  8
0
 62
4
 10
-4.68029155E+01
 20
-1.28031787E+02
  0
VERTEX
  8
0
 62
4
 10
-4.65208221E+01
 20
-1.27921306E+02
  0
VERTEX
  8
0
 62
4
 10
-4.62499860E+01
 20
-1.27787999E+02
  0
VERTEX
  8
0
 62
4
 10
-4.59924685E+01
 20
-1.27632880E+02
  0
VERTEX
  8
0
 62
4
 10
-4.57502294E+01
 20
-1.27457130E+02
  0
VERTEX
  8
0
 62
4
 10
-4.55251123E+01
 20
-1.27262087E+02
  0
VERTEX
  8
0
 62
4
 10
-4.53188304E+01
 20
-1.27049235E+02
  0
VERTEX
  8
0
 62
4
 10
-4.51329538E+01
 20
-1.26820193E+02
  0
VERTEX
  8
0
 62
4
 10
-4.49688971E+01
 20
-1.26576705E+02
  0
VERTEX
  8
0
 62
4
 10
-4.48279087E+01
 20
-1.26320625E+02
  0
VERTEX
  8
0
 62
4
 10
-4.47110618E+01
 20
-1.26053900E+02
  0
VERTEX
  8
0
 62
4
 10
-4.46192456E+01
 20
-1.25778562E+02
  0
VERTEX
  8
0
 62
4
 10
-4.45531589E+01
 20
-1.25496705E+02
  0
VERTEX
  8
0
 62
4
 10
-4.45133046E+01
 20
-1.25210474E+02
  0
VERTEX
  8
0
 62
4
 10
-4.44999860E+01
 20
-1.24922048E+02
  0
SEQEND
  8
0
  0
LINE
  8
0
 62
4
 10
-7.14999860E+01
 20
-1.30711140E+02
 11
-5.64999860E+01
 21
-1.30711140E+02
  0
LINE
  8
0
  6
CENTER
 62
6
 10
-6.86760838E+01
 20
-1.15480547E+02
 11
-5.93238882E+01
 21
-1.15480547E+02
  0
LINE
  8
0
 62
4
 10
-6.05999860E+01
 20
-1.41151769E+02
 11
-3.84999860E+01
 21
-1.41151769E+02
  0
POLYLINE
  8
0
 62
4
 66
1
  0
VERTEX
  8
0
 62
4
 10
-6.05999860E+01
 20
-1.39182767E+02
  0
VERTEX
  8
0
 62
4
 10
-6.06136734E+01
 20
-1.39083542E+02
  0
VERTEX
  8
0
 62
4
 10
-6.06546254E+01
 20
-1.38985117E+02
  0
VERTEX
  8
0
 62
4
 10
-6.07225123E+01
 20
-1.38888282E+02
  0
VERTEX
  8
0
 62
4
 10
-6.08167874E+01
 20
-1.38793819E+02
  0
VERTEX
  8
0
 62
4
 10
-6.09366918E+01
 20
-1.38702487E+02
  0
VERTEX
  8
0
 62
4
 10
-6.10812601E+01
 20
-1.38615023E+02
  0
VERTEX
  8
0
 62
4
 10
-6.12493282E+01
 20
-1.38532129E+02
  0
VERTEX
  8
0
 62
4
 10
-6.14395430E+01
 20
-1.38454474E+02
  0
VERTEX
  8
0
 62
4
 10
-6.16503730E+01
 20
-1.38382682E+02
  0
VERTEX
  8
0
 62
4
 10
-6.18801207E+01
 20
-1.38317333E+02
  0
VERTEX
  8
0
 62
4
 10
-6.21269363E+01
 20
-1.38258951E+02
  0
VERTEX
  8
0
 62
4
 10
-6.23888325E+01
 20
-1.38208008E+02
  0
VERTEX
  8
0
 62
4
 10
-6.26637009E+01
 20
-1.38164913E+02
  0
VERTEX
  8
0
 62
4
 10
-6.29493282E+01
 20
-1.38130012E+02
  0
VERTEX
  8
0
 62
4
 10
-6.32434148E+01
 20
-1.38103588E+02
  0
VERTEX
  8
0
 62
4
 10
-6.35435929E+01
 20
-1.38085853E+02
  0
VERTEX
  8
0
 62
4
 10
-6.38474456E+01
 20
-1.38076950E+02
  0
VERTEX
  8
0
 62
4
 10
-6.41525264E+01
 20
-1.38076950E+02
  0
VERTEX
  8
0
 62
4
 10
-6.44563791E+01
 20
-1.38085853E+02
  0
VERTEX
  8
0
 62
4
 10
-6.47565572E+01
 20
-1.38103588E+02
  0
VERTEX
  8
0
 62
4
 10
-6.50506438E+01
 20
-1.38130012E+02
  0
VERTEX
  8
0
 62
4
 10
-6.53362711E+01
 20
-1.38164913E+02
  0
VERTEX
  8
0
 62
4
 10
-6.56111394E+01
 20
-1.38208008E+02
  0
VERTEX
  8
0
 62
4
 10
-6.58730357E+01
 20
-1.38258951E+02
  0
VERTEX
  8
0
 62
4
 10
-6.61198513E+01
 20
-1.38317333E+02
  0
VERTEX
  8
0
 62
4
 10
-6.63495990E+01
 20
-1.38382682E+02
  0
VERTEX
  8
0
 62
4
 10
-6.65604290E+01
 20
-1.38454474E+02
  0
VERTEX
  8
0
 62
4
 10
-6.67506438E+01
 20
-1.38532129E+02
  0
VERTEX
  8
0
 62
4
 10
-6.69187119E+01
 20
-1.38615023E+02
  0
VERTEX
  8
0
 62
4
 10
-6.70632801E+01
 20
-1.38702487E+02
  0
VERTEX
  8
0
 62
4
 10
-6.71831846E+01
 20
-1.38793819E+02
  0
VERTEX
  8
0
 62
4
 10
-6.72774597E+01
 20
-1.38888282E+02
  0
VERTEX
  8
0
 62
4
 10
-6.73453466E+01
 20
-1.38985117E+02
  0
VERTEX
  8
0
 62
4
 10
-6.73862986E+01
 20
-1.39083542E+02
  0
VERTEX
  8
0
 62
4
 10
-6.73999860E+01
 20
-1.39182767E+02
  0
SEQEND
  8
0
  0
LINE
  8
0
 62
4
 10
-6.79999860E+01
 20
-1.38710007E+02
 11
-6.79999860E+01
 21
-1.39182767E+02
  0
LINE
  8
0
 62
4
 10
-5.99999860E+01
 20
-1.38710007E+02
 11
-5.99999860E+01
 21
-1.39182767E+02
  0
POLYLINE
  8
0
 62
4
 66
1
  0
VERTEX
  8
0
 62
4
 10
-6.05999860E+01
 20
-1.39868782E+02
  0
VERTEX
  8
0
 62
4
 10
-6.04269340E+01
 20
-1.39768183E+02
  0
VERTEX
  8
0
 62
4
 10
-6.02818910E+01
 20
-1.39662996E+02
  0
VERTEX
  8
0
 62
4
 10
-6.01659942E+01
 20
-1.39554044E+02
  0
VERTEX
  8
0
 62
4
 10
-6.00801519E+01
 20
-1.39442182E+02
  0
VERTEX
  8
0
 62
4
 10
-6.00250371E+01
 20
-1.39328286E+02
  0
VERTEX
  8
0
 62
4
 10
-6.00010819E+01
 20
-1.39213249E+02
  0
VERTEX
  8
0
 62
4
 10
-6.00084741E+01
 20
-1.39097974E+02
  0
VERTEX
  8
0
 62
4
 10
-6.00471556E+01
 20
-1.38983363E+02
  0
VERTEX
  8
0
 62
4
 10
-6.01168233E+01
 20
-1.38870315E+02
  0
VERTEX
  8
0
 62
4
 10
-6.02169310E+01
 20
-1.38759717E+02
  0
VERTEX
  8
0
 62
4
 10
-6.03466941E+01
 20
-1.38652435E+02
  0
VERTEX
  8
0
 62
4
 10
-6.05050952E+01
 20
-1.38549310E+02
  0
VERTEX
  8
0
 62
4
 10
-6.06908927E+01
 20
-1.38451151E+02
  0
VERTEX
  8
0
 62
4
 10
-6.09026302E+01
 20
-1.38358727E+02
  0
VERTEX
  8
0
 62
4
 10
-6.11386478E+01
 20
-1.38272762E+02
  0
VERTEX
  8
0
 62
4
 10
-6.13970953E+01
 20
-1.38193931E+02
  0
VERTEX
  8
0
 62
4
 10
-6.16759469E+01
 20
-1.38122852E+02
  0
VERTEX
  8
0
 62
4
 10
-6.19730165E+01
 20
-1.38060081E+02
  0
VERTEX
  8
0
 62
4
 10
-6.22859756E+01
 20
-1.38006111E+02
  0
VERTEX
  8
0
 62
4
 10
-6.26123707E+01
 20
-1.37961365E+02
  0
VERTEX
  8
0
 62
4
 10
-6.29496434E+01
 20
-1.37926193E+02
  0
VERTEX
  8
0
 62
4
 10
-6.32951496E+01
 20
-1.37900871E+02
  0
VERTEX
  8
0
 62
4
 10
-6.36461811E+01
 20
-1.37885599E+02
  0
VERTEX
  8
0
 62
4
 10
-6.39999860E+01
 20
-1.37880494E+02
  0
VERTEX
  8
0
 62
4
 10
-6.43537909E+01
 20
-1.37885599E+02
  0
VERTEX
  8
0
 62
4
 10
-6.47048224E+01
 20
-1.37900871E+02
  0
VERTEX
  8
0
 62
4
 10
-6.50503286E+01
 20
-1.37926193E+02
  0
VERTEX
  8
0
 62
4
 10
-6.53876012E+01
 20
-1.37961365E+02
  0
VERTEX
  8
0
 62
4
 10
-6.57139964E+01
 20
-1.38006111E+02
  0
VERTEX
  8
0
 62
4
 10
-6.60269554E+01
 20
-1.38060081E+02
  0
VERTEX
  8
0
 62
4
 10
-6.63240251E+01
 20
-1.38122852E+02
  0
VERTEX
  8
0
 62
4
 10
-6.66028767E+01
 20
-1.38193931E+02
  0
VERTEX
  8
0
 62
4
 10
-6.68613242E+01
 20
-1.38272762E+02
  0
VERTEX
  8
0
 62
4
 10
-6.70973418E+01
 20
-1.38358727E+02
  0
VERTEX
  8
0
 62
4
 10
-6.73090792E+01
 20
-1.38451151E+02
  0
VERTEX
  8
0
 62
4
 10
-6.74948768E+01
 20
-1.38549310E+02
  0
VERTEX
  8
0
 62
4
 10
-6.76532779E+01
 20
-1.38652435E+02
  0
VERTEX
  8
0
 62
4
 10
-6.77830410E+01
 20
-1.38759717E+02
  0
VERTEX
  8
0
 62
4
 10
-6.78831487E+01
 20
-1.38870315E+02
  0
VERTEX
  8
0
 62
4
 10
-6.79528164E+01
 20
-1.38983363E+02
  0
VERTEX
  8
0
 62
4
 10
-6.79914979E+01
 20
-1.39097974E+02
  0
VERTEX
  8
0
 62
4
 10
-6.79988901E+01
 20
-1.39213249E+02
  0
VERTEX
  8
0
 62
4
 10
-6.79749349E+01
 20
-1.39328286E+02
  0
VERTEX
  8
0
 62
4
 10
-6.79198201E+01
 20
-1.39442182E+02
  0
VERTEX
  8
0
 62
4
 10
-6.78339778E+01
 20
-1.39554044E+02
  0
VERTEX
  8
0
 62
4
 10
-6.77180810E+01
 20
-1.39662996E+02
  0
VERTEX
  8
0
 62
4
 10
-6.75730380E+01
 20
-1.39768183E+02
  0
VERTEX
  8
0
 62
4
 10
-6.73999860E+01
 20
-1.39868782E+02
  0
SEQEND
  8
0
  0
POLYLINE
  8
0
 62
4
 66
1
  0
VERTEX
  8
0
 62
4
 10
-5.99999860E+01
 20
-1.38710007E+02
  0
VERTEX
  8
0
 62
4
 10
-6.00160888E+01
 20
-1.38593272E+02
  0
VERTEX
  8
0
 62
4
 10
-6.00642676E+01
 20
-1.38477477E+02
  0
VERTEX
  8
0
 62
4
 10
-6.01441346E+01
 20
-1.38363555E+02
  0
VERTEX
  8
0
 62
4
 10
-6.02550465E+01
 20
-1.38252421E+02
  0
VERTEX
  8
0
 62
4
 10
-6.03961105E+01
 20
-1.38144972E+02
  0
VERTEX
  8
0
 62
4
 10
-6.05661908E+01
 20
-1.38042072E+02
  0
VERTEX
  8
0
 62
4
 10
-6.07639180E+01
 20
-1.37944550E+02
  0
VERTEX
  8
0
 62
4
 10
-6.09877001E+01
 20
-1.37853191E+02
  0
VERTEX
  8
0
 62
4
 10
-6.12357354E+01
 20
-1.37768731E+02
  0
VERTEX
  8
0
 62
4
 10
-6.15060268E+01
 20
-1.37691849E+02
  0
VERTEX
  8
0
 62
4
 10
-6.17963981E+01
 20
-1.37623165E+02
  0
VERTEX
  8
0
 62
4
 10
-6.21045113E+01
 20
-1.37563232E+02
  0
VERTEX
  8
0
 62
4
 10
-6.24278859E+01
 20
-1.37512531E+02
  0
VERTEX
  8
0
 62
4
 10
-6.27639180E+01
 20
-1.37471472E+02
  0
VERTEX
  8
0
 62
4
 10
-6.31099023E+01
 20
-1.37440385E+02
  0
VERTEX
  8
0
 62
4
 10
-6.34630529E+01
 20
-1.37419520E+02
  0
VERTEX
  8
0
 62
4
 10
-6.38205267E+01
 20
-1.37409046E+02
  0
VERTEX
  8
0
 62
4
 10
-6.41794453E+01
 20
-1.37409046E+02
  0
VERTEX
  8
0
 62
4
 10
-6.45369191E+01
 20
-1.37419520E+02
  0
VERTEX
  8
0
 62
4
 10
-6.48900697E+01
 20
-1.37440385E+02
  0
VERTEX
  8
0
 62
4
 10
-6.52360540E+01
 20
-1.37471472E+02
  0
VERTEX
  8
0
 62
4
 10
-6.55720861E+01
 20
-1.37512531E+02
  0
VERTEX
  8
0
 62
4
 10
-6.58954606E+01
 20
-1.37563232E+02
  0
VERTEX
  8
0
 62
4
 10
-6.62035739E+01
 20
-1.37623165E+02
  0
VERTEX
  8
0
 62
4
 10
-6.64939452E+01
 20
-1.37691849E+02
  0
VERTEX
  8
0
 62
4
 10
-6.67642366E+01
 20
-1.37768731E+02
  0
VERTEX
  8
0
 62
4
 10
-6.70122719E+01
 20
-1.37853191E+02
  0
VERTEX
  8
0
 62
4
 10
-6.72360540E+01
 20
-1.37944550E+02
  0
VERTEX
  8
0
 62
4
 10
-6.74337812E+01
 20
-1.38042072E+02
  0
VERTEX
  8
0
 62
4
 10
-6.76038615E+01
 20
-1.38144972E+02
  0
VERTEX
  8
0
 62
4
 10
-6.77449255E+01
 20
-1.38252421E+02
  0
VERTEX
  8
0
 62
4
 10
-6.78558374E+01
 20
-1.38363554E+02
  0
VERTEX
  8
0
 62
4
 10
-6.79357044E+01
 20
-1.38477477E+02
  0
VERTEX
  8
0
 62
4
 10
-6.79838832E+01
 20
-1.38593272E+02
  0
VERTEX
  8
0
 62
4
 10
-6.79999860E+01
 20
-1.38710007E+02
  0
SEQEND
  8
0
  0
LINE
  8
0
  6
CENTER
 62
6
 10
-4.79999860E+01
 20
-1.18852229E+02
 11
-4.79999860E+01
 21
-1.30340731E+02
  0
LINE
  8
0
  6
CENTER
 62
6
 10
-5.37442369E+01
 20
-1.24596480E+02
 11
-4.22557350E+01
 21
-1.24596480E+02
  0
LINE
  8
0
 62
4
 10
-8.09999860E+01
 20
-1.10937056E+02
 11
-8.09999860E+01
 21
-1.23937056E+02
  0
ARC
  8
0
 62
4
 10
-8.04974834E+01
 20
-1.10939559E+02
 40
5.02508801E-01
 50
9.02853429E+01
 51
1.79714657E+02
  0
LINE
  8
0
 62
4
 10
-7.14999860E+01
 20
-1.10437056E+02
 11
-8.04999860E+01
 21
-1.10437056E+02
  0
LINE
  8
0
 62
4
 10
-9.09999860E+01
 20
-1.24800707E+02
 11
-8.59999860E+01
 21
-1.24800707E+02
  0
LINE
  8
0
 62
4
 10
-9.09999860E+01
 20
-1.22358946E+02
 11
-8.59999860E+01
 21
-1.22358946E+02
  0
LINE
  8
0
 62
4
 10
-9.09999860E+01
 20
-1.14988939E+02
 11
-8.59999860E+01
 21
-1.14988939E+02
  0
ARC
  8
0
 62
4
 10
-7.45024841E+01
 20
-1.39654267E+02
 40
1.49750400E+00
 50
1.79904421E+02
 51
2.70095579E+02
  0
LINE
  8
0
 62
4
 10
-7.44999860E+01
 20
-1.41151769E+02
 11
-6.73999860E+01
 21
-1.41151769E+02
  0
ARC
  8
0
 62
4
 10
-3.84974841E+01
 20
-1.39654271E+02
 40
1.49750021E+00
 50
2.69904276E+02
 51
9.57242462E-02
  0
POLYLINE
  8
0
 62
4
 66
1
  0
VERTEX
  8
0
 62
4
 10
-6.09999860E+01
 20
-1.15480547E+02
  0
VERTEX
  8
0
 62
4
 10
-6.10114019E+01
 20
-1.15233325E+02
  0
VERTEX
  8
0
 62
4
 10
-6.10455627E+01
 20
-1.14987984E+02
  0
VERTEX
  8
0
 62
4
 10
-6.11022085E+01
 20
-1.14746392E+02
  0
VERTEX
  8
0
 62
4
 10
-6.11809081E+01
 20
-1.14510388E+02
  0
VERTEX
  8
0
 62
4
 10
-6.12810626E+01
 20
-1.14281767E+02
  0
VERTEX
  8
0
 62
4
 10
-6.14019098E+01
 20
-1.14062269E+02
  0
VERTEX
  8
0
 62
4
 10
-6.15425299E+01
 20
-1.13853565E+02
  0
VERTEX
  8
0
 62
4
 10
-6.17018527E+01
 20
-1.13657244E+02
  0
VERTEX
  8
0
 62
4
 10
-6.18786657E+01
 20
-1.13474799E+02
  0
VERTEX
  8
0
 62
4
 10
-6.20716232E+01
 20
-1.13307619E+02
  0
VERTEX
  8
0
 62
4
 10
-6.22792567E+01
 20
-1.13156977E+02
  0
VERTEX
  8
0
 62
4
 10
-6.24999860E+01
 20
-1.13024018E+02
  0
VERTEX
  8
0
 62
4
 10
-6.27321312E+01
 20
-1.12909754E+02
  0
VERTEX
  8
0
 62
4
 10
-6.29739256E+01
 20
-1.12815057E+02
  0
VERTEX
  8
0
 62
4
 10
-6.32235289E+01
 20
-1.12740645E+02
  0
VERTEX
  8
0
 62
4
 10
-6.34790415E+01
 20
-1.12687085E+02
  0
VERTEX
  8
0
 62
4
 10
-6.37385188E+01
 20
-1.12654785E+02
  0
VERTEX
  8
0
 62
4
 10
-6.39999860E+01
 20
-1.12643991E+02
  0
VERTEX
  8
0
 62
4
 10
-6.42614532E+01
 20
-1.12654785E+02
  0
VERTEX
  8
0
 62
4
 10
-6.45209305E+01
 20
-1.12687085E+02
  0
VERTEX
  8
0
 62
4
 10
-6.47764431E+01
 20
-1.12740645E+02
  0
VERTEX
  8
0
 62
4
 10
-6.50260464E+01
 20
-1.12815057E+02
  0
VERTEX
  8
0
 62
4
 10
-6.52678408E+01
 20
-1.12909754E+02
  0
VERTEX
  8
0
 62
4
 10
-6.54999860E+01
 20
-1.13024018E+02
  0
VERTEX
  8
0
 62
4
 10
-6.57207153E+01
 20
-1.13156977E+02
  0
VERTEX
  8
0
 62
4
 10
-6.59283488E+01
 20
-1.13307619E+02
  0
VERTEX
  8
0
 62
4
 10
-6.61213063E+01
 20
-1.13474799E+02
  0
VERTEX
  8
0
 62
4
 10
-6.62981193E+01
 20
-1.13657244E+02
  0
VERTEX
  8
0
 62
4
 10
-6.64574421E+01
 20
-1.13853565E+02
  0
VERTEX
  8
0
 62
4
 10
-6.65980622E+01
 20
-1.14062269E+02
  0
VERTEX
  8
0
 62
4
 10
-6.67189094E+01
 20
-1.14281767E+02
  0
VERTEX
  8
0
 62
4
 10
-6.68190639E+01
 20
-1.14510388E+02
  0
VERTEX
  8
0
 62
4
 10
-6.68977635E+01
 20
-1.14746392E+02
  0
VERTEX
  8
0
 62
4
 10
-6.69544093E+01
 20
-1.14987984E+02
  0
VERTEX
  8
0
 62
4
 10
-6.69885701E+01
 20
-1.15233325E+02
  0
VERTEX
  8
0
 62
4
 10
-6.69999860E+01
 20
-1.15480547E+02
  0
VERTEX
  8
0
 62
4
 10
-6.69885701E+01
 20
-1.15727769E+02
  0
VERTEX
  8
0
 62
4
 10
-6.69544093E+01
 20
-1.15973110E+02
  0
VERTEX
  8
0
 62
4
 10
-6.68977635E+01
 20
-1.16214702E+02
  0
VERTEX
  8
0
 62
4
 10
-6.68190639E+01
 20
-1.16450706E+02
  0
VERTEX
  8
0
 62
4
 10
-6.67189094E+01
 20
-1.16679327E+02
  0
VERTEX
  8
0
 62
4
 10
-6.65980622E+01
 20
-1.16898825E+02
  0
VERTEX
  8
0
 62
4
 10
-6.64574421E+01
 20
-1.17107529E+02
  0
VERTEX
  8
0
 62
4
 10
-6.62981193E+01
 20
-1.17303850E+02
  0
VERTEX
  8
0
 62
4
 10
-6.61213063E+01
 20
-1.17486295E+02
  0
VERTEX
  8
0
 62
4
 10
-6.59283488E+01
 20
-1.17653475E+02
  0
VERTEX
  8
0
 62
4
 10
-6.57207153E+01
 20
-1.17804117E+02
  0
VERTEX
  8
0
 62
4
 10
-6.54999860E+01
 20
-1.17937076E+02
  0
VERTEX
  8
0
 62
4
 10
-6.52678408E+01
 20
-1.18051340E+02
  0
VERTEX
  8
0
 62
4
 10
-6.50260464E+01
 20
-1.18146037E+02
  0
VERTEX
  8
0
 62
4
 10
-6.47764431E+01
 20
-1.18220449E+02
  0
VERTEX
  8
0
 62
4
 10
-6.45209305E+01
 20
-1.18274009E+02
  0
VERTEX
  8
0
 62
4
 10
-6.42614532E+01
 20
-1.18306309E+02
  0
VERTEX
  8
0
 62
4
 10
-6.39999860E+01
 20
-1.18317103E+02
  0
VERTEX
  8
0
 62
4
 10
-6.37385188E+01
 20
-1.18306309E+02
  0
VERTEX
  8
0
 62
4
 10
-6.34790415E+01
 20
-1.18274009E+02
  0
VERTEX
  8
0
 62
4
 10
-6.32235289E+01
 20
-1.18220449E+02
  0
VERTEX
  8
0
 62
4
 10
-6.29739256E+01
 20
-1.18146037E+02
  0
VERTEX
  8
0
 62
4
 10
-6.27321312E+01
 20
-1.18051340E+02
  0
VERTEX
  8
0
 62
4
 10
-6.24999860E+01
 20
-1.17937076E+02
  0
VERTEX
  8
0
 62
4
 10
-6.22792567E+01
 20
-1.17804117E+02
  0
VERTEX
  8
0
 62
4
 10
-6.20716232E+01
 20
-1.17653475E+02
  0
VERTEX
  8
0
 62
4
 10
-6.18786657E+01
 20
-1.17486295E+02
  0
VERTEX
  8
0
 62
4
 10
-6.17018527E+01
 20
-1.17303850E+02
  0
VERTEX
  8
0
 62
4
 10
-6.15425299E+01
 20
-1.17107529E+02
  0
VERTEX
  8
0
 62
4
 10
-6.14019098E+01
 20
-1.16898825E+02
  0
VERTEX
  8
0
 62
4
 10
-6.12810626E+01
 20
-1.16679327E+02
  0
VERTEX
  8
0
 62
4
 10
-6.11809081E+01
 20
-1.16450706E+02
  0
VERTEX
  8
0
 62
4
 10
-6.11022085E+01
 20
-1.16214702E+02
  0
VERTEX
  8
0
 62
4
 10
-6.10455627E+01
 20
-1.15973110E+02
  0
VERTEX
  8
0
 62
4
 10
-6.10114019E+01
 20
-1.15727769E+02
  0
VERTEX
  8
0
 62
4
 10
-6.09999860E+01
 20
-1.15480547E+02
  0
SEQEND
  8
0
  0
LINE
  8
0
 62
4
 10
-5.64999860E+01
 20
-1.14637324E+02
 11
-5.44999860E+01
 21
-1.14637324E+02
  0
LINE
  8
0
 62
4
 10
-7.34999860E+01
 20
-1.32602177E+02
 11
-5.44999860E+01
 21
-1.32602177E+02
  0
LINE
  8
0
 62
4
 10
-7.14999860E+01
 20
-1.08389158E+02
 11
-5.64999860E+01
 21
-1.08389158E+02
  0
ARC
  8
0
 62
4
 10
-8.05024761E+01
 20
-1.23939546E+02
 40
4.97516125E-01
 50
1.79713229E+02
 51
2.70286771E+02
  0
ARC
  8
0
 62
4
 10
-3.85024921E+01
 20
-1.15756028E+02
 40
1.50250815E+00
 50
9.55645858E-02
 51
8.99044354E+01
  0
LINE
  8
0
 62
4
 10
-7.44999860E+01
 20
-1.36268246E+02
 11
-3.84999860E+01
 21
-1.36268246E+02
  0
LINE
  8
0
 62
4
 10
-5.64999860E+01
 20
-1.14253522E+02
 11
-3.84999860E+01
 21
-1.14253522E+02
  0
LINE
  8
0
 62
4
 10
-7.59999860E+01
 20
-1.24437056E+02
 11
-7.59999860E+01
 21
-1.39500000E+02
  0
LINE
  8
0
 62
4
 10
-5.44999860E+01
 20
-1.14637324E+02
 11
-5.44999860E+01
 21
-1.33904450E+02
  0
LINE
  8
0
 62
4
 10
-7.34999860E+01
 20
-1.33904450E+02
 11
-7.34999860E+01
 21
-1.24437056E+02
  0
LINE
  8
0
 62
4
 10
-3.69999860E+01
 20
-1.15753522E+02
 11
-3.69999860E+01
 21
-1.39651769E+02
  0
LINE
  8
0
 62
4
 10
-9.09999860E+01
 20
-1.10067205E+02
 11
-8.59999860E+01
 21
-1.10067205E+02
  0
LINE
  8
0
 62
4
 10
-7.14999860E+01
 20
-1.22571936E+02
 11
-5.64999860E+01
 21
-1.22571936E+02
  0
LINE
  8
0
 62
4
 10
-8.44999860E+01
 20
-1.23187056E+02
 11
-8.09999860E+01
 21
-1.23187056E+02
  0
LINE
  8
0
 62
4
 10
-8.44999860E+01
 20
-1.11687056E+02
 11
-8.09999860E+01
 21
-1.11687056E+02
  0
LINE
  8
0
 62
4
 10
-8.44999860E+01
 20
-1.11187056E+02
 11
-8.44999860E+01
 21
-1.23687056E+02
  0
LINE
  8
0
 62
4
 10
-8.59999860E+01
 20
-1.23687056E+02
 11
-8.09999860E+01
 21
-1.23687056E+02
  0
LINE
  8
0
 62
4
 10
-8.59999860E+01
 20
-1.11187056E+02
 11
-8.09999860E+01
 21
-1.11187056E+02
  0
LINE
  8
0
 62
4
 10
-8.59999860E+01
 20
-1.10067205E+02
 11
-8.59999860E+01
 21
-1.24800707E+02
  0
LINE
  8
0
 62
4
 10
-9.09999860E+01
 20
-1.24800707E+02
 11
-9.09999860E+01
 21
-1.10067205E+02
  0
LINE
  8
0
 62
4
 10
-8.04999860E+01
 20
-1.24437056E+02
 11
-7.14999860E+01
 21
-1.24437056E+02
  0
LINE
  8
0
  6
CENTER
 62
6
 10
-6.39999860E+01
 20
-1.00612871E+02
 11
-6.39999860E+01
 21
-1.50599969E+02
  0
LINE
  8
0
 62
4
 10
-6.73999860E+01
 20
-1.41157748E+02
 11
-6.73999860E+01
 21
-1.39182767E+02
  0
LINE
  8
0
 62
4
 10
-6.05999860E+01
 20
-1.39182767E+02
 11
-6.05999860E+01
 21
-1.41157748E+02
  0
LINE
  8
0
 62
6
 10
-6.64999860E+01
 20
-1.00752376E+02
 11
-6.64999860E+01
 21
-1.01922376E+02
  0
LINE
  8
0
 62
4
 10
-6.99999860E+01
 20
-1.01752376E+02
 11
-6.97399860E+01
 21
-1.00752376E+02
  0
LINE
  8
0
 62
4
 10
-6.59999860E+01
 20
-1.01752376E+02
 11
-6.62699860E+01
 21
-1.00752376E+02
  0
LINE
  8
0
 62
4
 10
-6.62699860E+01
 20
-1.00752376E+02
 11
-6.97399860E+01
 21
-1.00752376E+02
  0
LINE
  8
0
 62
4
 10
-6.99999860E+01
 20
-1.01752376E+02
 11
-6.99999860E+01
 21
-1.01922376E+02
  0
LINE
  8
0
 62
4
 10
-6.59999860E+01
 20
-1.01752376E+02
 11
-6.59999860E+01
 21
-1.01922376E+02
  0
LINE
  8
0
 62
6
 10
-6.94999860E+01
 20
-1.00752376E+02
 11
-6.94999860E+01
 21
-1.01922376E+02
  0
LINE
  8
0
  6
CENTER
 62
6
 10
-6.79999860E+01
 20
-9.89223758E+01
 11
-6.79999860E+01
 21
-1.09422376E+02
  0
LINE
  8
0
 62
4
 10
-5.64999860E+01
 20
-1.01922376E+02
 11
-7.14999860E+01
 21
-1.01922376E+02
  0
LINE
  8
0
 62
4
 10
-5.64999860E+01
 20
-1.01922376E+02
 11
-5.64999860E+01
 21
-1.30711140E+02
  0
LINE
  8
0
 62
4
 10
-7.14999860E+01
 20
-1.01922376E+02
 11
-7.14999860E+01
 21
-1.30711140E+02
  0
LINE
  8
0
 62
6
 10
-6.14999860E+01
 20
-1.00752376E+02
 11
-6.14999860E+01
 21
-1.01922376E+02
  0
LINE
  8
0
 62
6
 10
-5.84999860E+01
 20
-1.00752376E+02
 11
-5.84999860E+01
 21
-1.01922376E+02
  0
LINE
  8
0
 62
4
 10
-6.19999860E+01
 20
-1.01752376E+02
 11
-6.17399860E+01
 21
-1.00752376E+02
  0
LINE
  8
0
 62
4
 10
-5.79999860E+01
 20
-1.01752376E+02
 11
-5.82699860E+01
 21
-1.00752376E+02
  0
LINE
  8
0
 62
4
 10
-5.82699860E+01
 20
-1.00752376E+02
 11
-6.17399860E+01
 21
-1.00752376E+02
  0
LINE
  8
0
 62
4
 10
-6.19999860E+01
 20
-1.01752376E+02
 11
-6.19999860E+01
 21
-1.01922376E+02
  0
LINE
  8
0
 62
4
 10
-5.79999860E+01
 20
-1.01752376E+02
 11
-5.79999860E+01
 21
-1.01922376E+02
  0
LINE
  8
0
  6
CENTER
 62
6
 10
-5.99999860E+01
 20
-9.89223758E+01
 11
-5.99999860E+01
 21
-1.09422376E+02
  0
ARC
  8
0
 62
4
 10
-6.82355810E+01
 20
-1.30602479E+02
 40
1.21769740E+01
 50
2.83121604E+02
 51
2.99537899E+02
  0
ARC
  8
0
 62
4
 10
-5.97643910E+01
 20
-1.30602479E+02
 40
1.21769740E+01
 50
2.40462101E+02
 51
2.56878396E+02
  0
POLYLINE
  8
0
 62
4
 66
1
  0
VERTEX
  8
0
 62
4
 10
-6.05999860E+01
 20
-1.41157748E+02
  0
VERTEX
  8
0
 62
4
 10
-6.06129240E+01
 20
-1.41031706E+02
  0
VERTEX
  8
0
 62
4
 10
-6.06516396E+01
 20
-1.40906624E+02
  0
VERTEX
  8
0
 62
4
 10
-6.07158382E+01
 20
-1.40783453E+02
  0
VERTEX
  8
0
 62
4
 10
-6.08050311E+01
 20
-1.40663130E+02
  0
VERTEX
  8
0
 62
4
 10
-6.09185395E+01
 20
-1.40546572E+02
  0
VERTEX
  8
0
 62
4
 10
-6.10554996E+01
 20
-1.40434665E+02
  0
VERTEX
  8
0
 62
4
 10
-6.12148690E+01
 20
-1.40328261E+02
  0
VERTEX
  8
0
 62
4
 10
-6.13954349E+01
 20
-1.40228171E+02
  0
VERTEX
  8
0
 62
4
 10
-6.15958229E+01
 20
-1.40135154E+02
  0
VERTEX
  8
0
 62
4
 10
-6.18145081E+01
 20
-1.40049921E+02
  0
VERTEX
  8
0
 62
4
 10
-6.20498261E+01
 20
-1.39973118E+02
  0
VERTEX
  8
0
 62
4
 10
-6.22999860E+01
 20
-1.39905332E+02
  0
VERTEX
  8
0
 62
4
 10
-6.25630839E+01
 20
-1.39847077E+02
  0
VERTEX
  8
0
 62
4
 10
-6.28371175E+01
 20
-1.39798797E+02
  0
VERTEX
  8
0
 62
4
 10
-6.31200012E+01
 20
-1.39760859E+02
  0
VERTEX
  8
0
 62
4
 10
-6.34095822E+01
 20
-1.39733553E+02
  0
VERTEX
  8
0
 62
4
 10
-6.37036565E+01
 20
-1.39717085E+02
  0
VERTEX
  8
0
 62
4
 10
-6.39999860E+01
 20
-1.39711582E+02
  0
VERTEX
  8
0
 62
4
 10
-6.42963155E+01
 20
-1.39717085E+02
  0
VERTEX
  8
0
 62
4
 10
-6.45903898E+01
 20
-1.39733553E+02
  0
VERTEX
  8
0
 62
4
 10
-6.48799708E+01
 20
-1.39760859E+02
  0
VERTEX
  8
0
 62
4
 10
-6.51628545E+01
 20
-1.39798797E+02
  0
VERTEX
  8
0
 62
4
 10
-6.54368881E+01
 20
-1.39847077E+02
  0
VERTEX
  8
0
 62
4
 10
-6.56999860E+01
 20
-1.39905332E+02
  0
VERTEX
  8
0
 62
4
 10
-6.59501459E+01
 20
-1.39973118E+02
  0
VERTEX
  8
0
 62
4
 10
-6.61854639E+01
 20
-1.40049921E+02
  0
VERTEX
  8
0
 62
4
 10
-6.64041491E+01
 20
-1.40135154E+02
  0
VERTEX
  8
0
 62
4
 10
-6.66045371E+01
 20
-1.40228171E+02
  0
VERTEX
  8
0
 62
4
 10
-6.67851030E+01
 20
-1.40328261E+02
  0
VERTEX
  8
0
 62
4
 10
-6.69444724E+01
 20
-1.40434665E+02
  0
VERTEX
  8
0
 62
4
 10
-6.70814325E+01
 20
-1.40546572E+02
  0
VERTEX
  8
0
 62
4
 10
-6.71949409E+01
 20
-1.40663130E+02
  0
VERTEX
  8
0
 62
4
 10
-6.72841338E+01
 20
-1.40783453E+02
  0
VERTEX
  8
0
 62
4
 10
-6.73483324E+01
 20
-1.40906624E+02
  0
VERTEX
  8
0
 62
4
 10
-6.73870480E+01
 20
-1.41031706E+02
  0
VERTEX
  8
0
 62
4
 10
-6.73999860E+01
 20
-1.41157748E+02
  0
VERTEX
  8
0
 62
4
 10
-6.73870480E+01
 20
-1.41283790E+02
  0
VERTEX
  8
0
 62
4
 10
-6.73483324E+01
 20
-1.41408872E+02
  0
VERTEX
  8
0
 62
4
 10
-6.72841338E+01
 20
-1.41532043E+02
  0
VERTEX
  8
0
 62
4
 10
-6.71949409E+01
 20
-1.41652366E+02
  0
VERTEX
  8
0
 62
4
 10
-6.70814325E+01
 20
-1.41768924E+02
  0
VERTEX
  8
0
 62
4
 10
-6.69444724E+01
 20
-1.41880831E+02
  0
VERTEX
  8
0
 62
4
 10
-6.67851029E+01
 20
-1.41987235E+02
  0
VERTEX
  8
0
 62
4
 10
-6.66045371E+01
 20
-1.42087325E+02
  0
VERTEX
  8
0
 62
4
 10
-6.64041491E+01
 20
-1.42180342E+02
  0
VERTEX
  8
0
 62
4
 10
-6.61854639E+01
 20
-1.42265575E+02
  0
VERTEX
  8
0
 62
4
 10
-6.59501459E+01
 20
-1.42342378E+02
  0
VERTEX
  8
0
 62
4
 10
-6.56999860E+01
 20
-1.42410164E+02
  0
VERTEX
  8
0
 62
4
 10
-6.54368881E+01
 20
-1.42468419E+02
  0
VERTEX
  8
0
 62
4
 10
-6.51628545E+01
 20
-1.42516699E+02
  0
VERTEX
  8
0
 62
4
 10
-6.48799707E+01
 20
-1.42554637E+02
  0
VERTEX
  8
0
 62
4
 10
-6.45903898E+01
 20
-1.42581943E+02
  0
VERTEX
  8
0
 62
4
 10
-6.42963155E+01
 20
-1.42598411E+02
  0
VERTEX
  8
0
 62
4
 10
-6.39999860E+01
 20
-1.42603914E+02
  0
VERTEX
  8
0
 62
4
 10
-6.37036565E+01
 20
-1.42598411E+02
  0
VERTEX
  8
0
 62
4
 10
-6.34095822E+01
 20
-1.42581943E+02
  0
VERTEX
  8
0
 62
4
 10
-6.31200012E+01
 20
-1.42554637E+02
  0
VERTEX
  8
0
 62
4
 10
-6.28371175E+01
 20
-1.42516699E+02
  0
VERTEX
  8
0
 62
4
 10
-6.25630839E+01
 20
-1.42468419E+02
  0
VERTEX
  8
0
 62
4
 10
-6.22999860E+01
 20
-1.42410164E+02
  0
VERTEX
  8
0
 62
4
 10
-6.20498261E+01
 20
-1.42342378E+02
  0
VERTEX
  8
0
 62
4
 10
-6.18145081E+01
 20
-1.42265575E+02
  0
VERTEX
  8
0
 62
4
 10
-6.15958229E+01
 20
-1.42180342E+02
  0
VERTEX
  8
0
 62
4
 10
-6.13954349E+01
 20
-1.42087325E+02
  0
VERTEX
  8
0
 62
4
 10
-6.12148690E+01
 20
-1.41987235E+02
  0
VERTEX
  8
0
 62
4
 10
-6.10554996E+01
 20
-1.41880831E+02
  0
VERTEX
  8
0
 62
4
 10
-6.09185395E+01
 20
-1.41768924E+02
  0
VERTEX
  8
0
 62
4
 10
-6.08050311E+01
 20
-1.41652366E+02
  0
VERTEX
  8
0
 62
4
 10
-6.07158382E+01
 20
-1.41532043E+02
  0
VERTEX
  8
0
 62
4
 10
-6.06516396E+01
 20
-1.41408872E+02
  0
VERTEX
  8
0
 62
4
 10
-6.06129240E+01
 20
-1.41283790E+02
  0
VERTEX
  8
0
 62
4
 10
-6.05999860E+01
 20
-1.41157748E+02
  0
SEQEND
  8
0
  0
LINE
  8
0
 62
4
 10
3.30860008E+02
 20
-2.66261079E+02
 11
3.30531412E+02
 21
-2.67054294E+02
  0
LINE
  8
0
 62
4
 10
3.37140008E+02
 20
-2.66261079E+02
 11
3.37500008E+02
 21
-2.67206597E+02
  0
POLYLINE
  8
0
 62
4
 66
1
  0
VERTEX
  8
0
 62
4
 10
3.30531412E+02
 20
-2.67054294E+02
  0
VERTEX
  8
0
 62
4
 10
3.30503635E+02
 20
-2.67154735E+02
  0
VERTEX
  8
0
 62
4
 10
3.30503244E+02
 20
-2.67255582E+02
  0
VERTEX
  8
0
 62
4
 10
3.30530241E+02
 20
-2.67356046E+02
  0
VERTEX
  8
0
 62
4
 10
3.30584416E+02
 20
-2.67455339E+02
  0
VERTEX
  8
0
 62
4
 10
3.30665344E+02
 20
-2.67552683E+02
  0
VERTEX
  8
0
 62
4
 10
3.30772392E+02
 20
-2.67647317E+02
  0
VERTEX
  8
0
 62
4
 10
3.30904720E+02
 20
-2.67738499E+02
  0
VERTEX
  8
0
 62
4
 10
3.31061292E+02
 20
-2.67825515E+02
  0
VERTEX
  8
0
 62
4
 10
3.31240883E+02
 20
-2.67907683E+02
  0
VERTEX
  8
0
 62
4
 10
3.31442084E+02
 20
-2.67984359E+02
  0
VERTEX
  8
0
 62
4
 10
3.31663321E+02
 20
-2.68054944E+02
  0
VERTEX
  8
0
 62
4
 10
3.31902861E+02
 20
-2.68118884E+02
  0
VERTEX
  8
0
 62
4
 10
3.32158826E+02
 20
-2.68175678E+02
  0
VERTEX
  8
0
 62
4
 10
3.32429213E+02
 20
-2.68224882E+02
  0
VERTEX
  8
0
 62
4
 10
3.32711904E+02
 20
-2.68266109E+02
  0
VERTEX
  8
0
 62
4
 10
3.33004684E+02
 20
-2.68299038E+02
  0
VERTEX
  8
0
 62
4
 10
3.33305259E+02
 20
-2.68323411E+02
  0
VERTEX
  8
0
 62
4
 10
3.33611277E+02
 20
-2.68339036E+02
  0
VERTEX
  8
0
 62
4
 10
3.33920339E+02
 20
-2.68345790E+02
  0
VERTEX
  8
0
 62
4
 10
3.34230025E+02
 20
-2.68343622E+02
  0
VERTEX
  8
0
 62
4
 10
3.34537910E+02
 20
-2.68332548E+02
  0
VERTEX
  8
0
 62
4
 10
3.34841581E+02
 20
-2.68312655E+02
  0
VERTEX
  8
0
 62
4
 10
3.35138661E+02
 20
-2.68284098E+02
  0
VERTEX
  8
0
 62
4
 10
3.35426822E+02
 20
-2.68247102E+02
  0
VERTEX
  8
0
 62
4
 10
3.35703807E+02
 20
-2.68201956E+02
  0
VERTEX
  8
0
 62
4
 10
3.35967447E+02
 20
-2.68149013E+02
  0
VERTEX
  8
0
 62
4
 10
3.36215677E+02
 20
-2.68088689E+02
  0
VERTEX
  8
0
 62
4
 10
3.36446552E+02
 20
-2.68021456E+02
  0
VERTEX
  8
0
 62
4
 10
3.36658265E+02
 20
-2.67947840E+02
  0
VERTEX
  8
0
 62
4
 10
3.36849156E+02
 20
-2.67868418E+02
  0
VERTEX
  8
0
 62
4
 10
3.37017730E+02
 20
-2.67783813E+02
  0
VERTEX
  8
0
 62
4
 10
3.37162668E+02
 20
-2.67694686E+02
  0
VERTEX
  8
0
 62
4
 10
3.37282834E+02
 20
-2.67601737E+02
  0
VERTEX
  8
0
 62
4
 10
3.37377287E+02
 20
-2.67505692E+02
  0
VERTEX
  8
0
 62
4
 10
3.37445287E+02
 20
-2.67407305E+02
  0
VERTEX
  8
0
 62
4
 10
3.37486301E+02
 20
-2.67307346E+02
  0
VERTEX
  8
0
 62
4
 10
3.37500008E+02
 20
-2.67206597E+02
  0
SEQEND
  8
0
  0
POLYLINE
  8
0
 62
4
 66
1
  0
VERTEX
  8
0
 62
4
 10
3.37140008E+02
 20
-2.66261079E+02
  0
VERTEX
  8
0
 62
4
 10
3.37128059E+02
 20
-2.66171981E+02
  0
VERTEX
  8
0
 62
4
 10
3.37092304E+02
 20
-2.66083561E+02
  0
VERTEX
  8
0
 62
4
 10
3.37033015E+02
 20
-2.65996492E+02
  0
VERTEX
  8
0
 62
4
 10
3.36950643E+02
 20
-2.65911437E+02
  0
VERTEX
  8
0
 62
4
 10
3.36845814E+02
 20
-2.65829043E+02
  0
VERTEX
  8
0
 62
4
 10
3.36719328E+02
 20
-2.65749937E+02
  0
VERTEX
  8
0
 62
4
 10
3.36572145E+02
 20
-2.65674721E+02
  0
VERTEX
  8
0
 62
4
 10
3.36405388E+02
 20
-2.65603968E+02
  0
VERTEX
  8
0
 62
4
 10
3.36220323E+02
 20
-2.65538215E+02
  0
VERTEX
  8
0
 62
4
 10
3.36018361E+02
 20
-2.65477964E+02
  0
VERTEX
  8
0
 62
4
 10
3.35801038E+02
 20
-2.65423673E+02
  0
VERTEX
  8
0
 62
4
 10
3.35570008E+02
 20
-2.65375755E+02
  0
VERTEX
  8
0
 62
4
 10
3.35327029E+02
 20
-2.65334575E+02
  0
VERTEX
  8
0
 62
4
 10
3.35073951E+02
 20
-2.65300446E+02
  0
VERTEX
  8
0
 62
4
 10
3.34812700E+02
 20
-2.65273628E+02
  0
VERTEX
  8
0
 62
4
 10
3.34545263E+02
 20
-2.65254326E+02
  0
VERTEX
  8
0
 62
4
 10
3.34273677E+02
 20
-2.65242685E+02
  0
VERTEX
  8
0
 62
4
 10
3.34000008E+02
 20
-2.65238795E+02
  0
VERTEX
  8
0
 62
4
 10
3.33726339E+02
 20
-2.65242685E+02
  0
VERTEX
  8
0
 62
4
 10
3.33454753E+02
 20
-2.65254326E+02
  0
VERTEX
  8
0
 62
4
 10
3.33187316E+02
 20
-2.65273628E+02
  0
VERTEX
  8
0
 62
4
 10
3.32926065E+02
 20
-2.65300446E+02
  0
VERTEX
  8
0
 62
4
 10
3.32672987E+02
 20
-2.65334575E+02
  0
VERTEX
  8
0
 62
4
 10
3.32430008E+02
 20
-2.65375755E+02
  0
VERTEX
  8
0
 62
4
 10
3.32198978E+02
 20
-2.65423673E+02
  0
VERTEX
  8
0
 62
4
 10
3.31981655E+02
 20
-2.65477964E+02
  0
VERTEX
  8
0
 62
4
 10
3.31779693E+02
 20
-2.65538215E+02
  0
VERTEX
  8
0
 62
4
 10
3.31594628E+02
 20
-2.65603968E+02
  0
VERTEX
  8
0
 62
4
 10
3.31427871E+02
 20
-2.65674721E+02
  0
VERTEX
  8
0
 62
4
 10
3.31280688E+02
 20
-2.65749937E+02
  0
VERTEX
  8
0
 62
4
 10
3.31154202E+02
 20
-2.65829043E+02
  0
VERTEX
  8
0
 62
4
 10
3.31049373E+02
 20
-2.65911437E+02
  0
VERTEX
  8
0
 62
4
 10
3.30967001E+02
 20
-2.65996492E+02
  0
VERTEX
  8
0
 62
4
 10
3.30907712E+02
 20
-2.66083561E+02
  0
VERTEX
  8
0
 62
4
 10
3.30871957E+02
 20
-2.66171981E+02
  0
VERTEX
  8
0
 62
4
 10
3.30860008E+02
 20
-2.66261079E+02
  0
VERTEX
  8
0
 62
4
 10
3.30871957E+02
 20
-2.66350177E+02
  0
VERTEX
  8
0
 62
4
 10
3.30907712E+02
 20
-2.66438597E+02
  0
VERTEX
  8
0
 62
4
 10
3.30967001E+02
 20
-2.66525666E+02
  0
VERTEX
  8
0
 62
4
 10
3.31049373E+02
 20
-2.66610721E+02
  0
VERTEX
  8
0
 62
4
 10
3.31154202E+02
 20
-2.66693115E+02
  0
VERTEX
  8
0
 62
4
 10
3.31280688E+02
 20
-2.66772221E+02
  0
VERTEX
  8
0
 62
4
 10
3.31427871E+02
 20
-2.66847437E+02
  0
VERTEX
  8
0
 62
4
 10
3.31594628E+02
 20
-2.66918190E+02
  0
VERTEX
  8
0
 62
4
 10
3.31779693E+02
 20
-2.66983943E+02
  0
VERTEX
  8
0
 62
4
 10
3.31981655E+02
 20
-2.67044194E+02
  0
VERTEX
  8
0
 62
4
 10
3.32198978E+02
 20
-2.67098485E+02
  0
VERTEX
  8
0
 62
4
 10
3.32430008E+02
 20
-2.67146403E+02
  0
VERTEX
  8
0
 62
4
 10
3.32672987E+02
 20
-2.67187583E+02
  0
VERTEX
  8
0
 62
4
 10
3.32926065E+02
 20
-2.67221712E+02
  0
VERTEX
  8
0
 62
4
 10
3.33187316E+02
 20
-2.67248530E+02
  0
VERTEX
  8
0
 62
4
 10
3.33454753E+02
 20
-2.67267832E+02
  0
VERTEX
  8
0
 62
4
 10
3.33726339E+02
 20
-2.67279473E+02
  0
VERTEX
  8
0
 62
4
 10
3.34000008E+02
 20
-2.67283363E+02
  0
VERTEX
  8
0
 62
4
 10
3.34273677E+02
 20
-2.67279473E+02
  0
VERTEX
  8
0
 62
4
 10
3.34545263E+02
 20
-2.67267832E+02
  0
VERTEX
  8
0
 62
4
 10
3.34812700E+02
 20
-2.67248530E+02
  0
VERTEX
  8
0
 62
4
 10
3.35073951E+02
 20
-2.67221712E+02
  0
VERTEX
  8
0
 62
4
 10
3.35327029E+02
 20
-2.67187583E+02
  0
VERTEX
  8
0
 62
4
 10
3.35570008E+02
 20
-2.67146403E+02
  0
VERTEX
  8
0
 62
4
 10
3.35801038E+02
 20
-2.67098485E+02
  0
VERTEX
  8
0
 62
4
 10
3.36018361E+02
 20
-2.67044194E+02
  0
VERTEX
  8
0
 62
4
 10
3.36220323E+02
 20
-2.66983943E+02
  0
VERTEX
  8
0
 62
4
 10
3.36405388E+02
 20
-2.66918190E+02
  0
VERTEX
  8
0
 62
4
 10
3.36572145E+02
 20
-2.66847437E+02
  0
VERTEX
  8
0
 62
4
 10
3.36719328E+02
 20
-2.66772221E+02
  0
VERTEX
  8
0
 62
4
 10
3.36845814E+02
 20
-2.66693115E+02
  0
VERTEX
  8
0
 62
4
 10
3.36950643E+02
 20
-2.66610721E+02
  0
VERTEX
  8
0
 62
4
 10
3.37033015E+02
 20
-2.66525666E+02
  0
VERTEX
  8
0
 62
4
 10
3.37092304E+02
 20
-2.66438597E+02
  0
VERTEX
  8
0
 62
4
 10
3.37128059E+02
 20
-2.66350177E+02
  0
VERTEX
  8
0
 62
4
 10
3.37140008E+02
 20
-2.66261079E+02
  0
SEQEND
  8
0
  0
LINE
  8
0
  6
CENTER
 62
6
 10
3.34000008E+02
 20
-2.63601553E+02
 11
3.34000008E+02
 21
-2.66261079E+02
  0
LINE
  8
0
 62
4
 10
3.60500008E+02
 20
-2.68702758E+02
 11
3.60500008E+02
 21
-2.65075972E+02
  0
LINE
  8
0
 62
4
 10
3.42500008E+02
 20
-2.63976140E+02
 11
3.24500008E+02
 21
-2.63976140E+02
  0
LINE
  8
0
 62
4
 10
3.24500008E+02
 20
-2.68702758E+02
 11
3.24500008E+02
 21
-2.65075972E+02
  0
ARC
  8
0
 62
4
 10
3.60502494E+02
 20
-2.65473653E+02
 40
1.49751542E+00
 50
3.59904859E+02
 51
9.00951404E+01
  0
LINE
  8
0
 62
4
 10
3.60500008E+02
 20
-2.63976140E+02
 11
3.57500008E+02
 21
-2.63976140E+02
  0
ARC
  8
0
 62
4
 10
3.24497521E+02
 20
-2.65473653E+02
 40
1.49751542E+00
 50
8.99048594E+01
 51
1.80095141E+02
  0
POLYLINE
  8
0
 62
6
 66
1
  0
VERTEX
  8
0
 62
6
 10
3.55500008E+02
 20
-2.98024585E+02
  0
VERTEX
  8
0
 62
6
 10
3.55494300E+02
 20
-2.97900974E+02
  0
VERTEX
  8
0
 62
6
 10
3.55477220E+02
 20
-2.97778304E+02
  0
VERTEX
  8
0
 62
6
 10
3.55448897E+02
 20
-2.97657508E+02
  0
VERTEX
  8
0
 62
6
 10
3.55409547E+02
 20
-2.97539505E+02
  0
VERTEX
  8
0
 62
6
 10
3.55359470E+02
 20
-2.97425195E+02
  0
VERTEX
  8
0
 62
6
 10
3.55299046E+02
 20
-2.97315446E+02
  0
VERTEX
  8
0
 62
6
 10
3.55228736E+02
 20
-2.97211094E+02
  0
VERTEX
  8
0
 62
6
 10
3.55149075E+02
 20
-2.97112934E+02
  0
VERTEX
  8
0
 62
6
 10
3.55060668E+02
 20
-2.97021711E+02
  0
VERTEX
  8
0
 62
6
 10
3.54964189E+02
 20
-2.96938121E+02
  0
VERTEX
  8
0
 62
6
 10
3.54860373E+02
 20
-2.96862800E+02
  0
VERTEX
  8
0
 62
6
 10
3.54750008E+02
 20
-2.96796320E+02
  0
VERTEX
  8
0
 62
6
 10
3.54633935E+02
 20
-2.96739189E+02
  0
VERTEX
  8
0
 62
6
 10
3.54513038E+02
 20
-2.96691840E+02
  0
VERTEX
  8
0
 62
6
 10
3.54388237E+02
 20
-2.96654634E+02
  0
VERTEX
  8
0
 62
6
 10
3.54260480E+02
 20
-2.96627854E+02
  0
VERTEX
  8
0
 62
6
 10
3.54130742E+02
 20
-2.96611704E+02
  0
VERTEX
  8
0
 62
6
 10
3.54000008E+02
 20
-2.96606307E+02
  0
VERTEX
  8
0
 62
6
 10
3.53869274E+02
 20
-2.96611704E+02
  0
VERTEX
  8
0
 62
6
 10
3.53739536E+02
 20
-2.96627854E+02
  0
VERTEX
  8
0
 62
6
 10
3.53611779E+02
 20
-2.96654634E+02
  0
VERTEX
  8
0
 62
6
 10
3.53486978E+02
 20
-2.96691840E+02
  0
VERTEX
  8
0
 62
6
 10
3.53366081E+02
 20
-2.96739189E+02
  0
VERTEX
  8
0
 62
6
 10
3.53250008E+02
 20
-2.96796320E+02
  0
VERTEX
  8
0
 62
6
 10
3.53139643E+02
 20
-2.96862800E+02
  0
VERTEX
  8
0
 62
6
 10
3.53035827E+02
 20
-2.96938121E+02
  0
VERTEX
  8
0
 62
6
 10
3.52939348E+02
 20
-2.97021711E+02
  0
VERTEX
  8
0
 62
6
 10
3.52850941E+02
 20
-2.97112934E+02
  0
VERTEX
  8
0
 62
6
 10
3.52771280E+02
 20
-2.97211094E+02
  0
VERTEX
  8
0
 62
6
 10
3.52700970E+02
 20
-2.97315446E+02
  0
VERTEX
  8
0
 62
6
 10
3.52640546E+02
 20
-2.97425195E+02
  0
VERTEX
  8
0
 62
6
 10
3.52590469E+02
 20
-2.97539505E+02
  0
VERTEX
  8
0
 62
6
 10
3.52551119E+02
 20
-2.97657508E+02
  0
VERTEX
  8
0
 62
6
 10
3.52522796E+02
 20
-2.97778304E+02
  0
VERTEX
  8
0
 62
6
 10
3.52505716E+02
 20
-2.97900974E+02
  0
VERTEX
  8
0
 62
6
 10
3.52500008E+02
 20
-2.98024585E+02
  0
VERTEX
  8
0
 62
6
 10
3.52505716E+02
 20
-2.98148196E+02
  0
VERTEX
  8
0
 62
6
 10
3.52522796E+02
 20
-2.98270866E+02
  0
VERTEX
  8
0
 62
6
 10
3.52551119E+02
 20
-2.98391662E+02
  0
VERTEX
  8
0
 62
6
 10
3.52590469E+02
 20
-2.98509665E+02
  0
VERTEX
  8
0
 62
6
 10
3.52640546E+02
 20
-2.98623975E+02
  0
VERTEX
  8
0
 62
6
 10
3.52700970E+02
 20
-2.98733724E+02
  0
VERTEX
  8
0
 62
6
 10
3.52771280E+02
 20
-2.98838076E+02
  0
VERTEX
  8
0
 62
6
 10
3.52850941E+02
 20
-2.98936236E+02
  0
VERTEX
  8
0
 62
6
 10
3.52939348E+02
 20
-2.99027459E+02
  0
VERTEX
  8
0
 62
6
 10
3.53035827E+02
 20
-2.99111049E+02
  0
VERTEX
  8
0
 62
6
 10
3.53139643E+02
 20
-2.99186370E+02
  0
VERTEX
  8
0
 62
6
 10
3.53250008E+02
 20
-2.99252850E+02
  0
VERTEX
  8
0
 62
6
 10
3.53366081E+02
 20
-2.99309981E+02
  0
VERTEX
  8
0
 62
6
 10
3.53486978E+02
 20
-2.99357330E+02
  0
VERTEX
  8
0
 62
6
 10
3.53611779E+02
 20
-2.99394536E+02
  0
VERTEX
  8
0
 62
6
 10
3.53739536E+02
 20
-2.99421316E+02
  0
VERTEX
  8
0
 62
6
 10
3.53869274E+02
 20
-2.99437466E+02
  0
VERTEX
  8
0
 62
6
 10
3.54000008E+02
 20
-2.99442863E+02
  0
VERTEX
  8
0
 62
6
 10
3.54130742E+02
 20
-2.99437466E+02
  0
VERTEX
  8
0
 62
6
 10
3.54260480E+02
 20
-2.99421316E+02
  0
VERTEX
  8
0
 62
6
 10
3.54388237E+02
 20
-2.99394536E+02
  0
VERTEX
  8
0
 62
6
 10
3.54513038E+02
 20
-2.99357330E+02
  0
VERTEX
  8
0
 62
6
 10
3.54633935E+02
 20
-2.99309981E+02
  0
VERTEX
  8
0
 62
6
 10
3.54750008E+02
 20
-2.99252850E+02
  0
VERTEX
  8
0
 62
6
 10
3.54860373E+02
 20
-2.99186370E+02
  0
VERTEX
  8
0
 62
6
 10
3.54964189E+02
 20
-2.99111049E+02
  0
VERTEX
  8
0
 62
6
 10
3.55060668E+02
 20
-2.99027459E+02
  0
VERTEX
  8
0
 62
6
 10
3.55149075E+02
 20
-2.98936236E+02
  0
VERTEX
  8
0
 62
6
 10
3.55228736E+02
 20
-2.98838076E+02
  0
VERTEX
  8
0
 62
6
 10
3.55299046E+02
 20
-2.98733724E+02
  0
VERTEX
  8
0
 62
6
 10
3.55359470E+02
 20
-2.98623975E+02
  0
VERTEX
  8
0
 62
6
 10
3.55409547E+02
 20
-2.98509665E+02
  0
VERTEX
  8
0
 62
6
 10
3.55448897E+02
 20
-2.98391662E+02
  0
VERTEX
  8
0
 62
6
 10
3.55477220E+02
 20
-2.98270866E+02
  0
VERTEX
  8
0
 62
6
 10
3.55494300E+02
 20
-2.98148196E+02
  0
VERTEX
  8
0
 62
6
 10
3.55500008E+02
 20
-2.98024585E+02
  0
SEQEND
  8
0
  0
POLYLINE
  8
0
 62
4
 66
1
  0
VERTEX
  8
0
 62
4
 10
3.55735008E+02
 20
-2.98024585E+02
  0
VERTEX
  8
0
 62
4
 10
3.55728406E+02
 20
-2.97882020E+02
  0
VERTEX
  8
0
 62
4
 10
3.55708649E+02
 20
-2.97740540E+02
  0
VERTEX
  8
0
 62
4
 10
3.55675889E+02
 20
-2.97601222E+02
  0
VERTEX
  8
0
 62
4
 10
3.55630375E+02
 20
-2.97465127E+02
  0
VERTEX
  8
0
 62
4
 10
3.55572452E+02
 20
-2.97333288E+02
  0
VERTEX
  8
0
 62
4
 10
3.55502562E+02
 20
-2.97206711E+02
  0
VERTEX
  8
0
 62
4
 10
3.55421237E+02
 20
-2.97086359E+02
  0
VERTEX
  8
0
 62
4
 10
3.55329095E+02
 20
-2.96973147E+02
  0
VERTEX
  8
0
 62
4
 10
3.55226838E+02
 20
-2.96867937E+02
  0
VERTEX
  8
0
 62
4
 10
3.55115245E+02
 20
-2.96771530E+02
  0
VERTEX
  8
0
 62
4
 10
3.54995163E+02
 20
-2.96684659E+02
  0
VERTEX
  8
0
 62
4
 10
3.54867508E+02
 20
-2.96607986E+02
  0
VERTEX
  8
0
 62
4
 10
3.54733251E+02
 20
-2.96542095E+02
  0
VERTEX
  8
0
 62
4
 10
3.54593413E+02
 20
-2.96487485E+02
  0
VERTEX
  8
0
 62
4
 10
3.54449059E+02
 20
-2.96444575E+02
  0
VERTEX
  8
0
 62
4
 10
3.54301288E+02
 20
-2.96413689E+02
  0
VERTEX
  8
0
 62
4
 10
3.54151223E+02
 20
-2.96395062E+02
  0
VERTEX
  8
0
 62
4
 10
3.54000008E+02
 20
-2.96388838E+02
  0
VERTEX
  8
0
 62
4
 10
3.53848793E+02
 20
-2.96395062E+02
  0
VERTEX
  8
0
 62
4
 10
3.53698728E+02
 20
-2.96413689E+02
  0
VERTEX
  8
0
 62
4
 10
3.53550957E+02
 20
-2.96444575E+02
  0
VERTEX
  8
0
 62
4
 10
3.53406603E+02
 20
-2.96487485E+02
  0
VERTEX
  8
0
 62
4
 10
3.53266765E+02
 20
-2.96542095E+02
  0
VERTEX
  8
0
 62
4
 10
3.53132508E+02
 20
-2.96607986E+02
  0
VERTEX
  8
0
 62
4
 10
3.53004853E+02
 20
-2.96684659E+02
  0
VERTEX
  8
0
 62
4
 10
3.52884771E+02
 20
-2.96771530E+02
  0
VERTEX
  8
0
 62
4
 10
3.52773178E+02
 20
-2.96867937E+02
  0
VERTEX
  8
0
 62
4
 10
3.52670921E+02
 20
-2.96973147E+02
  0
VERTEX
  8
0
 62
4
 10
3.52578779E+02
 20
-2.97086359E+02
  0
VERTEX
  8
0
 62
4
 10
3.52497454E+02
 20
-2.97206711E+02
  0
VERTEX
  8
0
 62
4
 10
3.52427564E+02
 20
-2.97333288E+02
  0
VERTEX
  8
0
 62
4
 10
3.52369641E+02
 20
-2.97465127E+02
  0
VERTEX
  8
0
 62
4
 10
3.52324127E+02
 20
-2.97601222E+02
  0
VERTEX
  8
0
 62
4
 10
3.52291367E+02
 20
-2.97740540E+02
  0
VERTEX
  8
0
 62
4
 10
3.52271610E+02
 20
-2.97882020E+02
  0
VERTEX
  8
0
 62
4
 10
3.52265008E+02
 20
-2.98024585E+02
  0
VERTEX
  8
0
 62
4
 10
3.52271610E+02
 20
-2.98167150E+02
  0
VERTEX
  8
0
 62
4
 10
3.52291367E+02
 20
-2.98308630E+02
  0
VERTEX
  8
0
 62
4
 10
3.52324127E+02
 20
-2.98447948E+02
  0
VERTEX
  8
0
 62
4
 10
3.52369641E+02
 20
-2.98584043E+02
  0
VERTEX
  8
0
 62
4
 10
3.52427564E+02
 20
-2.98715882E+02
  0
VERTEX
  8
0
 62
4
 10
3.52497454E+02
 20
-2.98842459E+02
  0
VERTEX
  8
0
 62
4
 10
3.52578779E+02
 20
-2.98962811E+02
  0
VERTEX
  8
0
 62
4
 10
3.52670921E+02
 20
-2.99076023E+02
  0
VERTEX
  8
0
 62
4
 10
3.52773178E+02
 20
-2.99181233E+02
  0
VERTEX
  8
0
 62
4
 10
3.52884771E+02
 20
-2.99277640E+02
  0
VERTEX
  8
0
 62
4
 10
3.53004853E+02
 20
-2.99364511E+02
  0
VERTEX
  8
0
 62
4
 10
3.53132508E+02
 20
-2.99441184E+02
  0
VERTEX
  8
0
 62
4
 10
3.53266765E+02
 20
-2.99507075E+02
  0
VERTEX
  8
0
 62
4
 10
3.53406603E+02
 20
-2.99561685E+02
  0
VERTEX
  8
0
 62
4
 10
3.53550957E+02
 20
-2.99604595E+02
  0
VERTEX
  8
0
 62
4
 10
3.53698728E+02
 20
-2.99635481E+02
  0
VERTEX
  8
0
 62
4
 10
3.53848793E+02
 20
-2.99654108E+02
  0
VERTEX
  8
0
 62
4
 10
3.54000008E+02
 20
-2.99660332E+02
  0
VERTEX
  8
0
 62
4
 10
3.54151223E+02
 20
-2.99654108E+02
  0
VERTEX
  8
0
 62
4
 10
3.54301288E+02
 20
-2.99635481E+02
  0
VERTEX
  8
0
 62
4
 10
3.54449059E+02
 20
-2.99604595E+02
  0
VERTEX
  8
0
 62
4
 10
3.54593413E+02
 20
-2.99561685E+02
  0
VERTEX
  8
0
 62
4
 10
3.54733251E+02
 20
-2.99507075E+02
  0
VERTEX
  8
0
 62
4
 10
3.54867508E+02
 20
-2.99441184E+02
  0
VERTEX
  8
0
 62
4
 10
3.54995163E+02
 20
-2.99364511E+02
  0
VERTEX
  8
0
 62
4
 10
3.55115245E+02
 20
-2.99277640E+02
  0
VERTEX
  8
0
 62
4
 10
3.55226838E+02
 20
-2.99181233E+02
  0
VERTEX
  8
0
 62
4
 10
3.55329095E+02
 20
-2.99076023E+02
  0
VERTEX
  8
0
 62
4
 10
3.55421237E+02
 20
-2.98962811E+02
  0
VERTEX
  8
0
 62
4
 10
3.55502562E+02
 20
-2.98842459E+02
  0
VERTEX
  8
0
 62
4
 10
3.55572452E+02
 20
-2.98715882E+02
  0
VERTEX
  8
0
 62
4
 10
3.55630375E+02
 20
-2.98584043E+02
  0
VERTEX
  8
0
 62
4
 10
3.55675889E+02
 20
-2.98447948E+02
  0
VERTEX
  8
0
 62
4
 10
3.55708649E+02
 20
-2.98308630E+02
  0
VERTEX
  8
0
 62
4
 10
3.55728406E+02
 20
-2.98167150E+02
  0
VERTEX
  8
0
 62
4
 10
3.55735008E+02
 20
-2.98024585E+02
  0
SEQEND
  8
0
  0
POLYLINE
  8
0
 62
4
 66
1
  0
VERTEX
  8
0
 62
4
 10
3.55493085E+02
 20
-2.98857742E+02
  0
VERTEX
  8
0
 62
4
 10
3.55604750E+02
 20
-2.98728174E+02
  0
VERTEX
  8
0
 62
4
 10
3.55703880E+02
 20
-2.98589790E+02
  0
VERTEX
  8
0
 62
4
 10
3.55789698E+02
 20
-2.98443670E+02
  0
VERTEX
  8
0
 62
4
 10
3.55861537E+02
 20
-2.98290956E+02
  0
VERTEX
  8
0
 62
4
 10
3.55918833E+02
 20
-2.98132840E+02
  0
VERTEX
  8
0
 62
4
 10
3.55961139E+02
 20
-2.97970559E+02
  0
VERTEX
  8
0
 62
4
 10
3.55988126E+02
 20
-2.97805380E+02
  0
VERTEX
  8
0
 62
4
 10
3.55999582E+02
 20
-2.97638593E+02
  0
VERTEX
  8
0
 62
4
 10
3.55995417E+02
 20
-2.97471500E+02
  0
VERTEX
  8
0
 62
4
 10
3.55975665E+02
 20
-2.97305409E+02
  0
VERTEX
  8
0
 62
4
 10
3.55940479E+02
 20
-2.97141615E+02
  0
VERTEX
  8
0
 62
4
 10
3.55890134E+02
 20
-2.96981398E+02
  0
VERTEX
  8
0
 62
4
 10
3.55825024E+02
 20
-2.96826010E+02
  0
VERTEX
  8
0
 62
4
 10
3.55745658E+02
 20
-2.96676665E+02
  0
VERTEX
  8
0
 62
4
 10
3.55652654E+02
 20
-2.96534530E+02
  0
VERTEX
  8
0
 62
4
 10
3.55546741E+02
 20
-2.96400714E+02
  0
VERTEX
  8
0
 62
4
 10
3.55428744E+02
 20
-2.96276264E+02
  0
VERTEX
  8
0
 62
4
 10
3.55299587E+02
 20
-2.96162151E+02
  0
VERTEX
  8
0
 62
4
 10
3.55160277E+02
 20
-2.96059266E+02
  0
VERTEX
  8
0
 62
4
 10
3.55011904E+02
 20
-2.95968414E+02
  0
VERTEX
  8
0
 62
4
 10
3.54855625E+02
 20
-2.95890305E+02
  0
VERTEX
  8
0
 62
4
 10
3.54692663E+02
 20
-2.95825547E+02
  0
VERTEX
  8
0
 62
4
 10
3.54524290E+02
 20
-2.95774648E+02
  0
VERTEX
  8
0
 62
4
 10
3.54351821E+02
 20
-2.95738005E+02
  0
VERTEX
  8
0
 62
4
 10
3.54176605E+02
 20
-2.95715904E+02
  0
VERTEX
  8
0
 62
4
 10
3.54000008E+02
 20
-2.95708518E+02
  0
VERTEX
  8
0
 62
4
 10
3.53823411E+02
 20
-2.95715904E+02
  0
VERTEX
  8
0
 62
4
 10
3.53648194E+02
 20
-2.95738005E+02
  0
VERTEX
  8
0
 62
4
 10
3.53475726E+02
 20
-2.95774648E+02
  0
VERTEX
  8
0
 62
4
 10
3.53307353E+02
 20
-2.95825547E+02
  0
VERTEX
  8
0
 62
4
 10
3.53144391E+02
 20
-2.95890305E+02
  0
VERTEX
  8
0
 62
4
 10
3.52988112E+02
 20
-2.95968414E+02
  0
VERTEX
  8
0
 62
4
 10
3.52839739E+02
 20
-2.96059266E+02
  0
VERTEX
  8
0
 62
4
 10
3.52700429E+02
 20
-2.96162151E+02
  0
VERTEX
  8
0
 62
4
 10
3.52571272E+02
 20
-2.96276264E+02
  0
VERTEX
  8
0
 62
4
 10
3.52453275E+02
 20
-2.96400714E+02
  0
VERTEX
  8
0
 62
4
 10
3.52347362E+02
 20
-2.96534530E+02
  0
VERTEX
  8
0
 62
4
 10
3.52254358E+02
 20
-2.96676665E+02
  0
VERTEX
  8
0
 62
4
 10
3.52174992E+02
 20
-2.96826010E+02
  0
VERTEX
  8
0
 62
4
 10
3.52109882E+02
 20
-2.96981398E+02
  0
VERTEX
  8
0
 62
4
 10
3.52059537E+02
 20
-2.97141615E+02
  0
VERTEX
  8
0
 62
4
 10
3.52024351E+02
 20
-2.97305409E+02
  0
VERTEX
  8
0
 62
4
 10
3.52004599E+02
 20
-2.97471500E+02
  0
VERTEX
  8
0
 62
4
 10
3.52000434E+02
 20
-2.97638593E+02
  0
VERTEX
  8
0
 62
4
 10
3.52011890E+02
 20
-2.97805380E+02
  0
VERTEX
  8
0
 62
4
 10
3.52038877E+02
 20
-2.97970559E+02
  0
VERTEX
  8
0
 62
4
 10
3.52081183E+02
 20
-2.98132840E+02
  0
VERTEX
  8
0
 62
4
 10
3.52138479E+02
 20
-2.98290956E+02
  0
VERTEX
  8
0
 62
4
 10
3.52210318E+02
 20
-2.98443670E+02
  0
VERTEX
  8
0
 62
4
 10
3.52296136E+02
 20
-2.98589790E+02
  0
VERTEX
  8
0
 62
4
 10
3.52395266E+02
 20
-2.98728174E+02
  0
VERTEX
  8
0
 62
4
 10
3.52506931E+02
 20
-2.98857742E+02
  0
SEQEND
  8
0
  0
POLYLINE
  8
0
 62
6
 66
1
  0
VERTEX
  8
0
 62
6
 10
3.47500008E+02
 20
-2.98024585E+02
  0
VERTEX
  8
0
 62
6
 10
3.47494300E+02
 20
-2.97900974E+02
  0
VERTEX
  8
0
 62
6
 10
3.47477220E+02
 20
-2.97778304E+02
  0
VERTEX
  8
0
 62
6
 10
3.47448897E+02
 20
-2.97657508E+02
  0
VERTEX
  8
0
 62
6
 10
3.47409547E+02
 20
-2.97539505E+02
  0
VERTEX
  8
0
 62
6
 10
3.47359470E+02
 20
-2.97425195E+02
  0
VERTEX
  8
0
 62
6
 10
3.47299046E+02
 20
-2.97315446E+02
  0
VERTEX
  8
0
 62
6
 10
3.47228736E+02
 20
-2.97211094E+02
  0
VERTEX
  8
0
 62
6
 10
3.47149075E+02
 20
-2.97112934E+02
  0
VERTEX
  8
0
 62
6
 10
3.47060668E+02
 20
-2.97021711E+02
  0
VERTEX
  8
0
 62
6
 10
3.46964189E+02
 20
-2.96938121E+02
  0
VERTEX
  8
0
 62
6
 10
3.46860373E+02
 20
-2.96862800E+02
  0
VERTEX
  8
0
 62
6
 10
3.46750008E+02
 20
-2.96796320E+02
  0
VERTEX
  8
0
 62
6
 10
3.46633935E+02
 20
-2.96739189E+02
  0
VERTEX
  8
0
 62
6
 10
3.46513038E+02
 20
-2.96691840E+02
  0
VERTEX
  8
0
 62
6
 10
3.46388237E+02
 20
-2.96654634E+02
  0
VERTEX
  8
0
 62
6
 10
3.46260480E+02
 20
-2.96627854E+02
  0
VERTEX
  8
0
 62
6
 10
3.46130742E+02
 20
-2.96611704E+02
  0
VERTEX
  8
0
 62
6
 10
3.46000008E+02
 20
-2.96606307E+02
  0
VERTEX
  8
0
 62
6
 10
3.45869274E+02
 20
-2.96611704E+02
  0
VERTEX
  8
0
 62
6
 10
3.45739536E+02
 20
-2.96627854E+02
  0
VERTEX
  8
0
 62
6
 10
3.45611779E+02
 20
-2.96654634E+02
  0
VERTEX
  8
0
 62
6
 10
3.45486978E+02
 20
-2.96691840E+02
  0
VERTEX
  8
0
 62
6
 10
3.45366081E+02
 20
-2.96739189E+02
  0
VERTEX
  8
0
 62
6
 10
3.45250008E+02
 20
-2.96796320E+02
  0
VERTEX
  8
0
 62
6
 10
3.45139643E+02
 20
-2.96862800E+02
  0
VERTEX
  8
0
 62
6
 10
3.45035827E+02
 20
-2.96938121E+02
  0
VERTEX
  8
0
 62
6
 10
3.44939348E+02
 20
-2.97021711E+02
  0
VERTEX
  8
0
 62
6
 10
3.44850941E+02
 20
-2.97112934E+02
  0
VERTEX
  8
0
 62
6
 10
3.44771280E+02
 20
-2.97211094E+02
  0
VERTEX
  8
0
 62
6
 10
3.44700970E+02
 20
-2.97315446E+02
  0
VERTEX
  8
0
 62
6
 10
3.44640546E+02
 20
-2.97425195E+02
  0
VERTEX
  8
0
 62
6
 10
3.44590469E+02
 20
-2.97539505E+02
  0
VERTEX
  8
0
 62
6
 10
3.44551119E+02
 20
-2.97657508E+02
  0
VERTEX
  8
0
 62
6
 10
3.44522796E+02
 20
-2.97778304E+02
  0
VERTEX
  8
0
 62
6
 10
3.44505716E+02
 20
-2.97900974E+02
  0
VERTEX
  8
0
 62
6
 10
3.44500008E+02
 20
-2.98024585E+02
  0
VERTEX
  8
0
 62
6
 10
3.44505716E+02
 20
-2.98148196E+02
  0
VERTEX
  8
0
 62
6
 10
3.44522796E+02
 20
-2.98270866E+02
  0
VERTEX
  8
0
 62
6
 10
3.44551119E+02
 20
-2.98391662E+02
  0
VERTEX
  8
0
 62
6
 10
3.44590469E+02
 20
-2.98509665E+02
  0
VERTEX
  8
0
 62
6
 10
3.44640546E+02
 20
-2.98623975E+02
  0
VERTEX
  8
0
 62
6
 10
3.44700970E+02
 20
-2.98733724E+02
  0
VERTEX
  8
0
 62
6
 10
3.44771280E+02
 20
-2.98838076E+02
  0
VERTEX
  8
0
 62
6
 10
3.44850941E+02
 20
-2.98936236E+02
  0
VERTEX
  8
0
 62
6
 10
3.44939348E+02
 20
-2.99027459E+02
  0
VERTEX
  8
0
 62
6
 10
3.45035827E+02
 20
-2.99111049E+02
  0
VERTEX
  8
0
 62
6
 10
3.45139643E+02
 20
-2.99186370E+02
  0
VERTEX
  8
0
 62
6
 10
3.45250008E+02
 20
-2.99252850E+02
  0
VERTEX
  8
0
 62
6
 10
3.45366081E+02
 20
-2.99309981E+02
  0
VERTEX
  8
0
 62
6
 10
3.45486978E+02
 20
-2.99357330E+02
  0
VERTEX
  8
0
 62
6
 10
3.45611779E+02
 20
-2.99394536E+02
  0
VERTEX
  8
0
 62
6
 10
3.45739536E+02
 20
-2.99421316E+02
  0
VERTEX
  8
0
 62
6
 10
3.45869274E+02
 20
-2.99437466E+02
  0
VERTEX
  8
0
 62
6
 10
3.46000008E+02
 20
-2.99442863E+02
  0
VERTEX
  8
0
 62
6
 10
3.46130742E+02
 20
-2.99437466E+02
  0
VERTEX
  8
0
 62
6
 10
3.46260480E+02
 20
-2.99421316E+02
  0
VERTEX
  8
0
 62
6
 10
3.46388237E+02
 20
-2.99394536E+02
  0
VERTEX
  8
0
 62
6
 10
3.46513038E+02
 20
-2.99357330E+02
  0
VERTEX
  8
0
 62
6
 10
3.46633935E+02
 20
-2.99309981E+02
  0
VERTEX
  8
0
 62
6
 10
3.46750008E+02
 20
-2.99252850E+02
  0
VERTEX
  8
0
 62
6
 10
3.46860373E+02
 20
-2.99186370E+02
  0
VERTEX
  8
0
 62
6
 10
3.46964189E+02
 20
-2.99111049E+02
  0
VERTEX
  8
0
 62
6
 10
3.47060668E+02
 20
-2.99027459E+02
  0
VERTEX
  8
0
 62
6
 10
3.47149075E+02
 20
-2.98936236E+02
  0
VERTEX
  8
0
 62
6
 10
3.47228736E+02
 20
-2.98838076E+02
  0
VERTEX
  8
0
 62
6
 10
3.47299046E+02
 20
-2.98733724E+02
  0
VERTEX
  8
0
 62
6
 10
3.47359470E+02
 20
-2.98623975E+02
  0
VERTEX
  8
0
 62
6
 10
3.47409547E+02
 20
-2.98509665E+02
  0
VERTEX
  8
0
 62
6
 10
3.47448897E+02
 20
-2.98391662E+02
  0
VERTEX
  8
0
 62
6
 10
3.47477220E+02
 20
-2.98270866E+02
  0
VERTEX
  8
0
 62
6
 10
3.47494300E+02
 20
-2.98148196E+02
  0
VERTEX
  8
0
 62
6
 10
3.47500008E+02
 20
-2.98024585E+02
  0
SEQEND
  8
0
  0
POLYLINE
  8
0
 62
4
 66
1
  0
VERTEX
  8
0
 62
4
 10
3.47735008E+02
 20
-2.98024585E+02
  0
VERTEX
  8
0
 62
4
 10
3.47728406E+02
 20
-2.97882020E+02
  0
VERTEX
  8
0
 62
4
 10
3.47708649E+02
 20
-2.97740540E+02
  0
VERTEX
  8
0
 62
4
 10
3.47675889E+02
 20
-2.97601222E+02
  0
VERTEX
  8
0
 62
4
 10
3.47630375E+02
 20
-2.97465127E+02
  0
VERTEX
  8
0
 62
4
 10
3.47572452E+02
 20
-2.97333288E+02
  0
VERTEX
  8
0
 62
4
 10
3.47502562E+02
 20
-2.97206711E+02
  0
VERTEX
  8
0
 62
4
 10
3.47421237E+02
 20
-2.97086359E+02
  0
VERTEX
  8
0
 62
4
 10
3.47329095E+02
 20
-2.96973147E+02
  0
VERTEX
  8
0
 62
4
 10
3.47226838E+02
 20
-2.96867937E+02
  0
VERTEX
  8
0
 62
4
 10
3.47115245E+02
 20
-2.96771530E+02
  0
VERTEX
  8
0
 62
4
 10
3.46995163E+02
 20
-2.96684659E+02
  0
VERTEX
  8
0
 62
4
 10
3.46867508E+02
 20
-2.96607986E+02
  0
VERTEX
  8
0
 62
4
 10
3.46733251E+02
 20
-2.96542095E+02
  0
VERTEX
  8
0
 62
4
 10
3.46593413E+02
 20
-2.96487485E+02
  0
VERTEX
  8
0
 62
4
 10
3.46449059E+02
 20
-2.96444575E+02
  0
VERTEX
  8
0
 62
4
 10
3.46301288E+02
 20
-2.96413689E+02
  0
VERTEX
  8
0
 62
4
 10
3.46151223E+02
 20
-2.96395062E+02
  0
VERTEX
  8
0
 62
4
 10
3.46000008E+02
 20
-2.96388838E+02
  0
VERTEX
  8
0
 62
4
 10
3.45848793E+02
 20
-2.96395062E+02
  0
VERTEX
  8
0
 62
4
 10
3.45698728E+02
 20
-2.96413689E+02
  0
VERTEX
  8
0
 62
4
 10
3.45550957E+02
 20
-2.96444575E+02
  0
VERTEX
  8
0
 62
4
 10
3.45406603E+02
 20
-2.96487485E+02
  0
VERTEX
  8
0
 62
4
 10
3.45266765E+02
 20
-2.96542095E+02
  0
VERTEX
  8
0
 62
4
 10
3.45132508E+02
 20
-2.96607986E+02
  0
VERTEX
  8
0
 62
4
 10
3.45004853E+02
 20
-2.96684659E+02
  0
VERTEX
  8
0
 62
4
 10
3.44884771E+02
 20
-2.96771530E+02
  0
VERTEX
  8
0
 62
4
 10
3.44773178E+02
 20
-2.96867937E+02
  0
VERTEX
  8
0
 62
4
 10
3.44670921E+02
 20
-2.96973147E+02
  0
VERTEX
  8
0
 62
4
 10
3.44578779E+02
 20
-2.97086359E+02
  0
VERTEX
  8
0
 62
4
 10
3.44497454E+02
 20
-2.97206711E+02
  0
VERTEX
  8
0
 62
4
 10
3.44427564E+02
 20
-2.97333288E+02
  0
VERTEX
  8
0
 62
4
 10
3.44369641E+02
 20
-2.97465127E+02
  0
VERTEX
  8
0
 62
4
 10
3.44324127E+02
 20
-2.97601222E+02
  0
VERTEX
  8
0
 62
4
 10
3.44291367E+02
 20
-2.97740540E+02
  0
VERTEX
  8
0
 62
4
 10
3.44271610E+02
 20
-2.97882020E+02
  0
VERTEX
  8
0
 62
4
 10
3.44265008E+02
 20
-2.98024585E+02
  0
VERTEX
  8
0
 62
4
 10
3.44271610E+02
 20
-2.98167150E+02
  0
VERTEX
  8
0
 62
4
 10
3.44291367E+02
 20
-2.98308630E+02
  0
VERTEX
  8
0
 62
4
 10
3.44324127E+02
 20
-2.98447948E+02
  0
VERTEX
  8
0
 62
4
 10
3.44369641E+02
 20
-2.98584043E+02
  0
VERTEX
  8
0
 62
4
 10
3.44427564E+02
 20
-2.98715882E+02
  0
VERTEX
  8
0
 62
4
 10
3.44497454E+02
 20
-2.98842459E+02
  0
VERTEX
  8
0
 62
4
 10
3.44578779E+02
 20
-2.98962811E+02
  0
VERTEX
  8
0
 62
4
 10
3.44670921E+02
 20
-2.99076023E+02
  0
VERTEX
  8
0
 62
4
 10
3.44773178E+02
 20
-2.99181233E+02
  0
VERTEX
  8
0
 62
4
 10
3.44884771E+02
 20
-2.99277640E+02
  0
VERTEX
  8
0
 62
4
 10
3.45004853E+02
 20
-2.99364511E+02
  0
VERTEX
  8
0
 62
4
 10
3.45132508E+02
 20
-2.99441184E+02
  0
VERTEX
  8
0
 62
4
 10
3.45266765E+02
 20
-2.99507075E+02
  0
VERTEX
  8
0
 62
4
 10
3.45406603E+02
 20
-2.99561685E+02
  0
VERTEX
  8
0
 62
4
 10
3.45550957E+02
 20
-2.99604595E+02
  0
VERTEX
  8
0
 62
4
 10
3.45698728E+02
 20
-2.99635481E+02
  0
VERTEX
  8
0
 62
4
 10
3.45848793E+02
 20
-2.99654108E+02
  0
VERTEX
  8
0
 62
4
 10
3.46000008E+02
 20
-2.99660332E+02
  0
VERTEX
  8
0
 62
4
 10
3.46151223E+02
 20
-2.99654108E+02
  0
VERTEX
  8
0
 62
4
 10
3.46301288E+02
 20
-2.99635481E+02
  0
VERTEX
  8
0
 62
4
 10
3.46449059E+02
 20
-2.99604595E+02
  0
VERTEX
  8
0
 62
4
 10
3.46593413E+02
 20
-2.99561685E+02
  0
VERTEX
  8
0
 62
4
 10
3.46733251E+02
 20
-2.99507075E+02
  0
VERTEX
  8
0
 62
4
 10
3.46867508E+02
 20
-2.99441184E+02
  0
VERTEX
  8
0
 62
4
 10
3.46995163E+02
 20
-2.99364511E+02
  0
VERTEX
  8
0
 62
4
 10
3.47115245E+02
 20
-2.99277640E+02
  0
VERTEX
  8
0
 62
4
 10
3.47226838E+02
 20
-2.99181233E+02
  0
VERTEX
  8
0
 62
4
 10
3.47329095E+02
 20
-2.99076023E+02
  0
VERTEX
  8
0
 62
4
 10
3.47421237E+02
 20
-2.98962811E+02
  0
VERTEX
  8
0
 62
4
 10
3.47502562E+02
 20
-2.98842459E+02
  0
VERTEX
  8
0
 62
4
 10
3.47572452E+02
 20
-2.98715882E+02
  0
VERTEX
  8
0
 62
4
 10
3.47630375E+02
 20
-2.98584043E+02
  0
VERTEX
  8
0
 62
4
 10
3.47675889E+02
 20
-2.98447948E+02
  0
VERTEX
  8
0
 62
4
 10
3.47708649E+02
 20
-2.98308630E+02
  0
VERTEX
  8
0
 62
4
 10
3.47728406E+02
 20
-2.98167150E+02
  0
VERTEX
  8
0
 62
4
 10
3.47735008E+02
 20
-2.98024585E+02
  0
SEQEND
  8
0
  0
POLYLINE
  8
0
 62
4
 66
1
  0
VERTEX
  8
0
 62
4
 10
3.47493085E+02
 20
-2.98857742E+02
  0
VERTEX
  8
0
 62
4
 10
3.47604750E+02
 20
-2.98728174E+02
  0
VERTEX
  8
0
 62
4
 10
3.47703880E+02
 20
-2.98589790E+02
  0
VERTEX
  8
0
 62
4
 10
3.47789698E+02
 20
-2.98443670E+02
  0
VERTEX
  8
0
 62
4
 10
3.47861537E+02
 20
-2.98290956E+02
  0
VERTEX
  8
0
 62
4
 10
3.47918833E+02
 20
-2.98132840E+02
  0
VERTEX
  8
0
 62
4
 10
3.47961139E+02
 20
-2.97970559E+02
  0
VERTEX
  8
0
 62
4
 10
3.47988126E+02
 20
-2.97805380E+02
  0
VERTEX
  8
0
 62
4
 10
3.47999582E+02
 20
-2.97638593E+02
  0
VERTEX
  8
0
 62
4
 10
3.47995417E+02
 20
-2.97471500E+02
  0
VERTEX
  8
0
 62
4
 10
3.47975665E+02
 20
-2.97305409E+02
  0
VERTEX
  8
0
 62
4
 10
3.47940479E+02
 20
-2.97141615E+02
  0
VERTEX
  8
0
 62
4
 10
3.47890134E+02
 20
-2.96981398E+02
  0
VERTEX
  8
0
 62
4
 10
3.47825024E+02
 20
-2.96826010E+02
  0
VERTEX
  8
0
 62
4
 10
3.47745658E+02
 20
-2.96676665E+02
  0
VERTEX
  8
0
 62
4
 10
3.47652654E+02
 20
-2.96534530E+02
  0
VERTEX
  8
0
 62
4
 10
3.47546741E+02
 20
-2.96400714E+02
  0
VERTEX
  8
0
 62
4
 10
3.47428744E+02
 20
-2.96276264E+02
  0
VERTEX
  8
0
 62
4
 10
3.47299587E+02
 20
-2.96162151E+02
  0
VERTEX
  8
0
 62
4
 10
3.47160277E+02
 20
-2.96059266E+02
  0
VERTEX
  8
0
 62
4
 10
3.47011904E+02
 20
-2.95968414E+02
  0
VERTEX
  8
0
 62
4
 10
3.46855625E+02
 20
-2.95890305E+02
  0
VERTEX
  8
0
 62
4
 10
3.46692663E+02
 20
-2.95825547E+02
  0
VERTEX
  8
0
 62
4
 10
3.46524290E+02
 20
-2.95774648E+02
  0
VERTEX
  8
0
 62
4
 10
3.46351821E+02
 20
-2.95738005E+02
  0
VERTEX
  8
0
 62
4
 10
3.46176605E+02
 20
-2.95715904E+02
  0
VERTEX
  8
0
 62
4
 10
3.46000008E+02
 20
-2.95708518E+02
  0
VERTEX
  8
0
 62
4
 10
3.45823411E+02
 20
-2.95715904E+02
  0
VERTEX
  8
0
 62
4
 10
3.45648194E+02
 20
-2.95738005E+02
  0
VERTEX
  8
0
 62
4
 10
3.45475726E+02
 20
-2.95774648E+02
  0
VERTEX
  8
0
 62
4
 10
3.45307353E+02
 20
-2.95825547E+02
  0
VERTEX
  8
0
 62
4
 10
3.45144391E+02
 20
-2.95890305E+02
  0
VERTEX
  8
0
 62
4
 10
3.44988112E+02
 20
-2.95968414E+02
  0
VERTEX
  8
0
 62
4
 10
3.44839739E+02
 20
-2.96059266E+02
  0
VERTEX
  8
0
 62
4
 10
3.44700429E+02
 20
-2.96162151E+02
  0
VERTEX
  8
0
 62
4
 10
3.44571272E+02
 20
-2.96276264E+02
  0
VERTEX
  8
0
 62
4
 10
3.44453275E+02
 20
-2.96400714E+02
  0
VERTEX
  8
0
 62
4
 10
3.44347362E+02
 20
-2.96534530E+02
  0
VERTEX
  8
0
 62
4
 10
3.44254358E+02
 20
-2.96676665E+02
  0
VERTEX
  8
0
 62
4
 10
3.44174992E+02
 20
-2.96826010E+02
  0
VERTEX
  8
0
 62
4
 10
3.44109882E+02
 20
-2.96981398E+02
  0
VERTEX
  8
0
 62
4
 10
3.44059537E+02
 20
-2.97141615E+02
  0
VERTEX
  8
0
 62
4
 10
3.44024351E+02
 20
-2.97305409E+02
  0
VERTEX
  8
0
 62
4
 10
3.44004599E+02
 20
-2.97471500E+02
  0
VERTEX
  8
0
 62
4
 10
3.44000434E+02
 20
-2.97638593E+02
  0
VERTEX
  8
0
 62
4
 10
3.44011890E+02
 20
-2.97805380E+02
  0
VERTEX
  8
0
 62
4
 10
3.44038877E+02
 20
-2.97970559E+02
  0
VERTEX
  8
0
 62
4
 10
3.44081183E+02
 20
-2.98132840E+02
  0
VERTEX
  8
0
 62
4
 10
3.44138479E+02
 20
-2.98290956E+02
  0
VERTEX
  8
0
 62
4
 10
3.44210318E+02
 20
-2.98443670E+02
  0
VERTEX
  8
0
 62
4
 10
3.44296136E+02
 20
-2.98589790E+02
  0
VERTEX
  8
0
 62
4
 10
3.44395266E+02
 20
-2.98728174E+02
  0
VERTEX
  8
0
 62
4
 10
3.44506931E+02
 20
-2.98857742E+02
  0
SEQEND
  8
0
  0
LINE
  8
0
 62
4
 10
3.25793911E+02
 20
-2.87900032E+02
 11
3.23000008E+02
 21
-2.85296194E+02
  0
LINE
  8
0
 62
4
 10
3.59206104E+02
 20
-2.87900032E+02
 11
3.62000008E+02
 21
-2.85296194E+02
  0
LINE
  8
0
 62
4
 10
3.57500008E+02
 20
-2.64920765E+02
 11
3.42500008E+02
 21
-2.64920765E+02
  0
LINE
  8
0
 62
4
 10
3.57500008E+02
 20
-2.37344797E+02
 11
3.42500008E+02
 21
-2.37344797E+02
  0
ARC
  8
0
 62
4
 10
3.24497521E+02
 20
-2.71797008E+02
 40
1.49751542E+00
 50
8.99048594E+01
 51
1.80095141E+02
  0
ARC
  8
0
 62
4
 10
3.57997525E+02
 20
-2.52952481E+02
 40
4.97523679E-01
 50
8.97141074E+01
 51
1.80285893E+02
  0
ARC
  8
0
 62
4
 10
3.66502490E+02
 20
-2.38952481E+02
 40
4.97523679E-01
 50
3.59714107E+02
 51
9.02858924E+01
  0
ARC
  8
0
 62
4
 10
3.66497513E+02
 20
-2.51952469E+02
 40
5.02501096E-01
 50
2.70284473E+02
 51
3.59715527E+02
  0
ARC
  8
0
 62
4
 10
3.60502494E+02
 20
-2.71797008E+02
 40
1.49751542E+00
 50
3.59904859E+02
 51
9.00951404E+01
  0
LINE
  8
0
 62
4
 10
3.23000008E+02
 20
-2.65476140E+02
 11
3.23000008E+02
 21
-2.85296194E+02
  0
LINE
  8
0
 62
4
 10
3.40500008E+02
 20
-2.66517420E+02
 11
3.40500008E+02
 21
-2.70517420E+02
  0
LINE
  8
0
 62
4
 10
3.57500008E+02
 20
-2.37344797E+02
 11
3.57500008E+02
 21
-2.66517420E+02
  0
LINE
  8
0
 62
4
 10
3.42500008E+02
 20
-2.37344797E+02
 11
3.42500008E+02
 21
-2.66517420E+02
  0
LINE
  8
0
 62
4
 10
3.59500008E+02
 20
-2.66517420E+02
 11
3.59500008E+02
 21
-2.70517420E+02
  0
LINE
  8
0
 62
4
 10
3.62000008E+02
 20
-2.83877916E+02
 11
3.57500008E+02
 21
-2.83877916E+02
  0
LINE
  8
0
 62
4
 10
3.62000008E+02
 20
-2.85296194E+02
 11
3.57500008E+02
 21
-2.85296194E+02
  0
LINE
  8
0
 62
4
 10
3.62000008E+02
 20
-2.65476140E+02
 11
3.62000008E+02
 21
-2.85296194E+02
  0
LINE
  8
0
 62
4
 10
3.59500008E+02
 20
-2.66517420E+02
 11
3.40500008E+02
 21
-2.66517420E+02
  0
LINE
  8
0
 62
4
 10
3.57500008E+02
 20
-2.42228320E+02
 11
3.42500008E+02
 21
-2.42228320E+02
  0
LINE
  8
0
 62
4
 10
3.42500008E+02
 20
-2.83877916E+02
 11
3.23000008E+02
 21
-2.83877916E+02
  0
LINE
  8
0
 62
4
 10
3.42500008E+02
 20
-2.85296194E+02
 11
3.23000008E+02
 21
-2.85296194E+02
  0
LINE
  8
0
 62
4
 10
3.77000008E+02
 20
-2.52560514E+02
 11
3.72000008E+02
 21
-2.52560514E+02
  0
LINE
  8
0
 62
4
 10
3.66500008E+02
 20
-2.52454964E+02
 11
3.58000008E+02
 21
-2.52454964E+02
  0
LINE
  8
0
 62
4
 10
3.70500008E+02
 20
-2.51204964E+02
 11
3.67000008E+02
 21
-2.51204964E+02
  0
LINE
  8
0
 62
4
 10
3.70500008E+02
 20
-2.39204964E+02
 11
3.70500008E+02
 21
-2.51704964E+02
  0
LINE
  8
0
 62
4
 10
3.72000008E+02
 20
-2.51704964E+02
 11
3.67000008E+02
 21
-2.51704964E+02
  0
LINE
  8
0
 62
4
 10
3.72000008E+02
 20
-2.39204964E+02
 11
3.67000008E+02
 21
-2.39204964E+02
  0
LINE
  8
0
 62
4
 10
3.72000008E+02
 20
-2.38358825E+02
 11
3.72000008E+02
 21
-2.52560514E+02
  0
LINE
  8
0
 62
4
 10
3.77000008E+02
 20
-2.38358825E+02
 11
3.77000008E+02
 21
-2.52560514E+02
  0
LINE
  8
0
 62
4
 10
3.67000008E+02
 20
-2.38954964E+02
 11
3.67000008E+02
 21
-2.51954964E+02
  0
LINE
  8
0
 62
4
 10
3.57500008E+02
 20
-2.38454964E+02
 11
3.66500008E+02
 21
-2.38454964E+02
  0
LINE
  8
0
 62
4
 10
3.77000008E+02
 20
-2.51121558E+02
 11
3.72000008E+02
 21
-2.51121558E+02
  0
LINE
  8
0
 62
4
 10
3.77000008E+02
 20
-2.44030168E+02
 11
3.72000008E+02
 21
-2.44030168E+02
  0
LINE
  8
0
 62
4
 10
3.77000008E+02
 20
-2.38358825E+02
 11
3.72000008E+02
 21
-2.38358825E+02
  0
LINE
  8
0
 62
4
 10
3.60500008E+02
 20
-2.70299495E+02
 11
3.24500008E+02
 21
-2.70299495E+02
  0
LINE
  8
0
 62
4
 10
3.70500008E+02
 20
-2.39704964E+02
 11
3.67000008E+02
 21
-2.39704964E+02
  0
LINE
  8
0
  6
CENTER
 62
6
 10
3.41000008E+02
 20
-2.98024585E+02
 11
3.59000008E+02
 21
-2.98024585E+02
  0
LINE
  8
0
  6
CENTER
 62
6
 10
3.46000008E+02
 20
-2.93034585E+02
 11
3.46000008E+02
 21
-3.03024585E+02
  0
LINE
  8
0
  6
CENTER
 62
6
 10
3.54000008E+02
 20
-2.93034585E+02
 11
3.54000008E+02
 21
-3.03024585E+02
  0
LINE
  8
0
 62
4
 10
3.42500008E+02
 20
-2.76109211E+02
 11
3.42500008E+02
 21
-3.02394641E+02
  0
LINE
  8
0
 62
4
 10
3.57500008E+02
 20
-2.76109211E+02
 11
3.57500008E+02
 21
-3.02394641E+02
  0
LINE
  8
0
 62
4
 10
3.43500008E+02
 20
-2.90990843E+02
 11
3.56500008E+02
 21
-2.90990843E+02
  0
LINE
  8
0
 62
4
 10
3.42500008E+02
 20
-3.02394641E+02
 11
3.57500008E+02
 21
-3.02394641E+02
  0
LINE
  8
0
 62
4
 10
3.42500008E+02
 20
-2.76109211E+02
 11
3.57500008E+02
 21
-2.76109211E+02
  0
LINE
  8
0
 62
7
 10
-3.51648692E+02
 20
-2.81499992E+02
 11
-3.18500008E+02
 21
-2.81499992E+02
  0
LINE
  8
0
 62
7
 10
-3.90000015E+02
 20
-3.19500000E+02
 11
-3.90000015E+02
 21
-2.85999992E+02
  0
ARC
  8
0
 62
7
 10
-3.85500015E+02
 20
-2.85999992E+02
 40
4.50000000E+00
 50
9.00000002E+01
 51
1.80000000E+02
  0
LINE
  8
0
 62
7
 10
-3.85500015E+02
 20
-2.81499992E+02
 11
-3.84953758E+02
 21
-2.81499992E+02
  0
ARC
  8
0
 62
7
 10
-3.18500008E+02
 20
-2.85999992E+02
 40
4.50000000E+00
 50
0.00000000E+00
 51
9.00000002E+01
  0
LINE
  8
0
 62
7
 10
-3.14000008E+02
 20
-3.19500000E+02
 11
-3.14000008E+02
 21
-2.85999992E+02
  0
LINE
  8
0
 62
7
 10
8.99999847E+01
 20
-3.19500000E+02
 11
8.99999847E+01
 21
-2.85999992E+02
  0
LINE
  8
0
 62
7
 10
1.65999992E+02
 20
-3.19500000E+02
 11
1.65999992E+02
 21
-2.85999992E+02
  0
LINE
  8
0
 62
7
 10
1.39999992E+02
 20
-3.19500000E+02
 11
1.39999992E+02
 21
-3.12571797E+02
  0
LINE
  8
0
 62
7
 10
1.33499986E+02
 20
-3.19500000E+02
 11
1.33499986E+02
 21
-3.16035873E+02
  0
LINE
  8
0
  6
CENTER
 62
2
 10
1.00000053E+02
 20
-3.02729584E+02
 11
1.00000053E+02
 21
-2.79942009E+02
  0
LINE
  8
0
  6
CENTER
 62
2
 10
1.27999992E+02
 20
-2.78032448E+02
 11
1.27999992E+02
 21
-3.19500000E+02
  0
LINE
  8
0
  6
CENTER
 62
2
 10
1.56000114E+02
 20
-2.79814705E+02
 11
1.56000114E+02
 21
-3.02729584E+02
  0
LINE
  8
0
  6
CENTER
 62
2
 10
1.68039757E+02
 20
-3.19500000E+02
 11
8.55222702E+01
 21
-3.19500000E+02
  0
LINE
  8
0
  6
CENTER
 62
2
 10
1.35999962E+02
 20
-2.79814705E+02
 11
1.35999962E+02
 21
-3.05781097E+02
  0
LINE
  8
0
  6
CENTER
 62
2
 10
8.79549179E+01
 20
-2.91499924E+02
 11
1.10106010E+02
 21
-2.91499924E+02
  0
LINE
  8
0
  6
CENTER
 62
2
 10
1.45369469E+02
 20
-2.91499924E+02
 11
1.67902428E+02
 21
-2.91499924E+02
  0
LINE
  8
0
  6
CENTER
 62
2
 10
1.15999992E+02
 20
-2.79785774E+02
 11
1.15999992E+02
 21
-3.09505516E+02
  0
CIRCLE
  8
0
 62
7
 10
1.00000053E+02
 20
-2.91499924E+02
 40
6.50000095E+00
  0
CIRCLE
  8
0
 62
2
 10
1.56000114E+02
 20
-2.91499924E+02
 40
4.00000000E+00
  0
CIRCLE
  8
0
 62
7
 10
1.00000053E+02
 20
-2.91499924E+02
 40
6.00000048E+00
  0
CIRCLE
  8
0
 62
7
 10
1.56000114E+02
 20
-2.91499969E+02
 40
6.50000095E+00
  0
CIRCLE
  8
0
 62
7
 10
1.56000114E+02
 20
-2.91499969E+02
 40
6.00000048E+00
  0
CIRCLE
  8
0
 62
2
 10
1.00000053E+02
 20
-2.91499924E+02
 40
4.00000000E+00
  0
CIRCLE
  8
0
 62
7
 10
1.00000053E+02
 20
-2.91499924E+02
 40
3.32000041E+00
  0
CIRCLE
  8
0
 62
7
 10
1.56000114E+02
 20
-2.91499924E+02
 40
3.32000041E+00
  0
LINE
  8
0
 62
7
 10
9.44999847E+01
 20
-2.81499992E+02
 11
1.61499992E+02
 21
-2.81499992E+02
  0
ARC
  8
0
 62
7
 10
1.61499992E+02
 20
-2.85999992E+02
 40
4.50000000E+00
 50
0.00000000E+00
 51
9.00000002E+01
  0
ARC
  8
0
 62
7
 10
9.44999847E+01
 20
-2.85999992E+02
 40
4.50000000E+00
 50
9.00000002E+01
 51
1.80000000E+02
  0
ARC
  8
0
 62
7
 10
1.27999992E+02
 20
-3.19500000E+02
 40
1.20000000E+01
 50
0.00000000E+00
 51
1.80000000E+02
  0
LINE
  8
0
 62
7
 10
1.27999992E+02
 20
-3.05643594E+02
 11
1.15999992E+02
 21
-3.12571797E+02
  0
LINE
  8
0
 62
7
 10
1.15999992E+02
 20
-3.12571797E+02
 11
1.15999992E+02
 21
-3.19500000E+02
  0
LINE
  8
0
 62
7
 10
1.39999992E+02
 20
-3.12571797E+02
 11
1.27999992E+02
 21
-3.05643594E+02
  0
ARC
  8
0
 62
7
 10
1.27999992E+02
 20
-3.19500000E+02
 40
1.51500015E+01
 50
0.00000000E+00
 51
1.80000000E+02
  0
ARC
  8
0
 62
7
 10
1.27999992E+02
 20
-3.19500000E+02
 40
8.00000763E+00
 50
0.00000000E+00
 51
1.80000000E+02
  0
ARC
  8
0
 62
2
 10
1.27999992E+02
 20
-3.19500000E+02
 40
7.18000031E+00
 50
0.00000000E+00
 51
1.80000000E+02
  0
ARC
  8
0
 62
7
 10
1.27999992E+02
 20
-3.19500000E+02
 40
6.99998104E+00
 50
0.00000000E+00
 51
1.80000000E+02
  0
ARC
  8
0
 62
7
 10
1.27999992E+02
 20
-3.19500000E+02
 40
6.50000763E+00
 50
0.00000000E+00
 51
1.80000000E+02
  0
LINE
  8
0
 62
7
 10
1.22499999E+02
 20
-3.16035873E+02
 11
1.22499999E+02
 21
-3.19500000E+02
  0
LINE
  8
0
 62
7
 10
1.31464119E+02
 20
-3.14000007E+02
 11
1.24535866E+02
 21
-3.14000007E+02
  0
TEXT
  8
0
 62
7
 10
3.63077964E+02
 20
7.29374860E+00
 40
9.00000000E+00
  1
(mm)
 41
1.00000000E+00
  7
MONOTXT
  0
TEXT
  8
0
 62
7
 10
-4.29220355E+01
 20
7.29374860E+00
 40
9.00000000E+00
  1
STRETCH LIST
 41
1.05263158E+00
  7
MONOTXT
  0
TEXT
  8
0
 62
7
 10
3.71077964E+02
 20
-2.52062514E+01
 40
9.00000000E+00
  1
925
 41
1.00000000E+00
  7
MONOTXT
  0
TEXT
  8
0
 62
7
 10
3.26077964E+02
 20
-2.52062514E+01
 40
9.00000000E+00
  1
825
 41
1.00000000E+00
  7
MONOTXT
  0
TEXT
  8
0
 62
7
 10
2.81077964E+02
 20
-2.52062514E+01
 40
9.00000000E+00
  1
725
 41
1.00000000E+00
  7
MONOTXT
  0
TEXT
  8
0
 62
7
 10
2.36077964E+02
 20
-2.52062514E+01
 40
9.00000000E+00
  1
625
 41
1.00000000E+00
  7
MONOTXT
  0
TEXT
  8
0
 62
7
 10
1.91077964E+02
 20
-2.52062514E+01
 40
9.00000000E+00
  1
525
 41
1.00000000E+00
  7
MONOTXT
  0
TEXT
  8
0
 62
7
 10
1.46077964E+02
 20
-2.52062514E+01
 40
9.00000000E+00
  1
425
 41
1.00000000E+00
  7
MONOTXT
  0
TEXT
  8
0
 62
7
 10
1.01077964E+02
 20
-2.52062514E+01
 40
9.00000000E+00
  1
375
 41
1.00000000E+00
  7
MONOTXT
  0
TEXT
  8
0
 62
7
 10
5.60779645E+01
 20
-2.52062514E+01
 40
9.00000000E+00
  1
325
 41
1.00000000E+00
  7
MONOTXT
  0
TEXT
  8
0
 62
7
 10
1.10779645E+01
 20
-2.52062514E+01
 40
9.00000000E+00
  1
275
 41
1.00000000E+00
  7
MONOTXT
  0
TEXT
  8
0
 62
7
 10
-3.39220355E+01
 20
-2.52062514E+01
 40
9.00000000E+00
  1
225
 41
1.00000000E+00
  7
MONOTXT
  0
TEXT
  8
0
 62
7
 10
-7.89220355E+01
 20
-2.52062514E+01
 40
9.00000000E+00
  1
175
 41
1.00000000E+00
  7
MONOTXT
  0
TEXT
  8
0
 62
7
 10
-1.23922036E+02
 20
-2.52062514E+01
 40
9.00000000E+00
  1
125
 41
1.00000000E+00
  7
MONOTXT
  0
TEXT
  8
0
 62
7
 10
-1.64422036E+02
 20
-2.52062514E+01
 40
9.00000000E+00
  1
75
 41
1.00000000E+00
  7
MONOTXT
  0
TEXT
  8
0
 62
7
 10
-2.09422036E+02
 20
-2.52062514E+01
 40
9.00000000E+00
  1
25
 41
1.00000000E+00
  7
MONOTXT
  0
TEXT
  8
0
 62
7
 10
-2.49922036E+02
 20
-2.52062514E+01
 40
9.00000000E+00
  1
0
 41
1.00000000E+00
  7
MONOTXT
  0
TEXT
  8
0
 62
7
 10
-3.03922036E+02
 20
-2.52062514E+01
 40
9.00000000E+00
  1
-25
 41
1.00000000E+00
  7
MONOTXT
  0
TEXT
  8
0
 62
7
 10
3.66577964E+02
 20
-1.02062514E+01
 40
9.00000000E+00
  1
1000
 41
1.00000000E+00
  7
MONOTXT
  0
TEXT
  8
0
 62
7
 10
3.26077964E+02
 20
-1.02062514E+01
 40
9.00000000E+00
  1
900
 41
1.00000000E+00
  7
MONOTXT
  0
TEXT
  8
0
 62
7
 10
2.81077964E+02
 20
-1.02062514E+01
 40
9.00000000E+00
  1
800
 41
1.00000000E+00
  7
MONOTXT
  0
TEXT
  8
0
 62
7
 10
2.36077964E+02
 20
-1.02062514E+01
 40
9.00000000E+00
  1
700
 41
1.00000000E+00
  7
MONOTXT
  0
TEXT
  8
0
 62
7
 10
1.91077964E+02
 20
-1.02062514E+01
 40
9.00000000E+00
  1
600
 41
1.00000000E+00
  7
MONOTXT
  0
TEXT
  8
0
 62
7
 10
1.46077964E+02
 20
-1.02062514E+01
 40
9.00000000E+00
  1
500
 41
1.00000000E+00
  7
MONOTXT
  0
TEXT
  8
0
 62
7
 10
1.01077964E+02
 20
-1.02062514E+01
 40
9.00000000E+00
  1
450
 41
1.00000000E+00
  7
MONOTXT
  0
TEXT
  8
0
 62
7
 10
5.60779645E+01
 20
-1.02062514E+01
 40
9.00000000E+00
  1
400
 41
1.00000000E+00
  7
MONOTXT
  0
TEXT
  8
0
 62
7
 10
1.10779645E+01
 20
-1.02062514E+01
 40
9.00000000E+00
  1
350
 41
1.00000000E+00
  7
MONOTXT
  0
TEXT
  8
0
 62
7
 10
-3.39220355E+01
 20
-1.02062514E+01
 40
9.00000000E+00
  1
300
 41
1.00000000E+00
  7
MONOTXT
  0
TEXT
  8
0
 62
7
 10
-7.89220355E+01
 20
-1.02062514E+01
 40
9.00000000E+00
  1
250
 41
1.00000000E+00
  7
MONOTXT
  0
TEXT
  8
0
 62
7
 10
-1.23922036E+02
 20
-1.02062514E+01
 40
9.00000000E+00
  1
200
 41
1.00000000E+00
  7
MONOTXT
  0
TEXT
  8
0
 62
7
 10
-1.68922036E+02
 20
-1.02062514E+01
 40
9.00000000E+00
  1
150
 41
1.00000000E+00
  7
MONOTXT
  0
TEXT
  8
0
 62
7
 10
-2.13922036E+02
 20
-1.02062514E+01
 40
9.00000000E+00
  1
100
 41
1.00000000E+00
  7
MONOTXT
  0
TEXT
  8
0
 62
7
 10
-2.54422036E+02
 20
-1.02062514E+01
 40
9.00000000E+00
  1
75
 41
1.00000000E+00
  7
MONOTXT
  0
TEXT
  8
0
 62
7
 10
-2.99422036E+02
 20
-1.02062514E+01
 40
9.00000000E+00
  1
50
 41
1.00000000E+00
  7
MONOTXT
  0
LINE
  8
0
 62
7
 10
4.06093589E+02
 20
-2.82062514E+01
 11
4.06093589E+02
 21
1.79374855E+00
  0
LINE
  8
0
 62
7
 10
3.61093589E+02
 20
-2.82062514E+01
 11
3.61093589E+02
 21
1.79374855E+00
  0
LINE
  8
0
 62
7
 10
3.16093589E+02
 20
-2.82062514E+01
 11
3.16093589E+02
 21
1.79374855E+00
  0
LINE
  8
0
 62
7
 10
2.71093589E+02
 20
-2.82062514E+01
 11
2.71093589E+02
 21
1.79374855E+00
  0
LINE
  8
0
 62
7
 10
2.26093589E+02
 20
-2.82062514E+01
 11
2.26093589E+02
 21
1.79374855E+00
  0
LINE
  8
0
 62
7
 10
1.81093589E+02
 20
-2.82062514E+01
 11
1.81093589E+02
 21
1.79374855E+00
  0
LINE
  8
0
 62
7
 10
1.36093589E+02
 20
-2.82062514E+01
 11
1.36093589E+02
 21
1.79374855E+00
  0
LINE
  8
0
 62
7
 10
9.10935895E+01
 20
-2.82062514E+01
 11
9.10935895E+01
 21
1.79374855E+00
  0
LINE
  8
0
 62
7
 10
4.60935895E+01
 20
-2.82062514E+01
 11
4.60935895E+01
 21
1.79374855E+00
  0
LINE
  8
0
 62
7
 10
1.09358949E+00
 20
-2.82062514E+01
 11
1.09358949E+00
 21
1.79374855E+00
  0
LINE
  8
0
 62
7
 10
-4.39064105E+01
 20
-2.82062514E+01
 11
-4.39064105E+01
 21
1.79374855E+00
  0
LINE
  8
0
 62
7
 10
-8.89064105E+01
 20
-2.82062514E+01
 11
-8.89064105E+01
 21
1.79374855E+00
  0
LINE
  8
0
 62
7
 10
-1.33906411E+02
 20
-2.82062514E+01
 11
-1.33906411E+02
 21
1.79374855E+00
  0
LINE
  8
0
 62
7
 10
-1.78906411E+02
 20
-2.82062514E+01
 11
-1.78906411E+02
 21
1.79374855E+00
  0
LINE
  8
0
 62
7
 10
-2.23906411E+02
 20
-2.82062514E+01
 11
-2.23906411E+02
 21
1.79374855E+00
  0
LINE
  8
0
 62
7
 10
-2.68906411E+02
 20
-2.82062514E+01
 11
-2.68906411E+02
 21
1.79374855E+00
  0
LINE
  8
0
 62
7
 10
-3.13906411E+02
 20
-2.82062514E+01
 11
-3.13906411E+02
 21
1.79374855E+00
  0
LINE
  8
0
 62
7
 10
-3.85906411E+02
 20
-1.32062514E+01
 11
4.06093589E+02
 21
-1.32062514E+01
  0
TEXT
  8
0
 62
7
 10
-3.80121098E+02
 20
-2.52062514E+01
 40
9.00000000E+00
  1
STRETCH
 41
1.00000000E+00
  7
MONOTXT
  0
TEXT
  8
0
 62
7
 10
-3.75621098E+02
 20
-1.02062514E+01
 40
9.00000000E+00
  1
STROKE
 41
1.00000000E+00
  7
MONOTXT
  0
LINE
  8
0
 62
7
 10
-3.85906411E+02
 20
-2.82062514E+01
 11
-3.85906411E+02
 21
1.79374855E+00
  0
LINE
  8
0
 62
7
 10
-3.85906411E+02
 20
-2.82062514E+01
 11
4.06093589E+02
 21
-2.82062514E+01
  0
LINE
  8
0
 62
7
 10
-3.85906411E+02
 20
1.79374855E+00
 11
4.06093589E+02
 21
1.79374855E+00
  0
LINE
  8
0
 62
7
 10
-1.73116328E+01
 20
-2.95100029E+02
 11
-8.00000229E+01
 21
-2.95100029E+02
  0
LINE
  8
0
 62
7
 10
-1.31546862E+01
 20
-2.87899986E+02
 11
-8.00000229E+01
 21
-2.87899986E+02
  0
LINE
  8
0
 62
7
 10
-1.17690579E+01
 20
-2.85500008E+02
 11
-8.00000229E+01
 21
-2.85500008E+02
  0
LINE
  8
0
 62
7
 10
-5.10288453E+01
 20
-1.73499954E+02
 11
-7.99999924E+01
 21
-1.73499954E+02
  0
LINE
  8
0
 62
7
 10
-4.96432258E+01
 20
-1.71099991E+02
 11
-7.99999924E+01
 21
-1.71099991E+02
  0
LINE
  8
0
 62
7
 10
-4.54862880E+01
 20
-1.63899963E+02
 11
-7.99999924E+01
 21
-1.63899963E+02
  0
LINE
  8
0
 62
7
 10
-7.14999860E+01
 20
-1.05500000E+02
 11
-7.99999924E+01
 21
-1.05500000E+02
  0
LINE
  8
0
 62
7
 10
-7.14999860E+01
 20
-1.07899963E+02
 11
-7.99999924E+01
 21
-1.07899963E+02
  0
LINE
  8
0
 62
2
 10
-1.48999992E+02
 20
-3.11320007E+02
 11
-1.39999977E+02
 21
-3.11320007E+02
  0
LINE
  8
0
 62
7
 10
-1.48999992E+02
 20
-3.10500000E+02
 11
-1.39999977E+02
 21
-3.10500000E+02
  0
LINE
  8
0
 62
2
 10
-1.48999992E+02
 20
-1.47679962E+02
 11
-1.39999977E+02
 21
-1.47679962E+02
  0
LINE
  8
0
 62
7
 10
-1.48999992E+02
 20
-1.48499969E+02
 11
-1.39999977E+02
 21
-1.48499969E+02
  0
LINE
  8
0
 62
2
 10
-1.48999992E+02
 20
-1.31319992E+02
 11
-1.39999977E+02
 21
-1.31319992E+02
  0
LINE
  8
0
 62
7
 10
-1.48999992E+02
 20
-1.30499985E+02
 11
-1.39999977E+02
 21
-1.30499985E+02
  0
LINE
  8
0
 62
4
 10
-1.48999992E+02
 20
-1.26000000E+02
 11
-1.48999992E+02
 21
-1.53000000E+02
  0
LINE
  8
0
 62
4
 10
-1.59999992E+02
 20
-1.26000000E+02
 11
-1.59999992E+02
 21
-1.53000000E+02
  0
LINE
  8
0
 62
4
 10
-1.48999992E+02
 20
-1.26000000E+02
 11
-1.59999992E+02
 21
-1.26000000E+02
  0
LINE
  8
0
 62
4
 10
-1.48999992E+02
 20
-1.53000000E+02
 11
-1.59999992E+02
 21
-1.53000000E+02
  0
LINE
  8
0
 62
4
 10
-1.50205764E+02
 20
-1.39500000E+02
 11
-1.58794221E+02
 21
-1.39500000E+02
  0
ARC
  8
0
 62
4
 10
-1.40503599E+02
 20
-1.46250000E+02
 40
1.94963929E+01
 50
1.59743842E+02
 51
2.00256158E+02
  0
ARC
  8
0
 62
4
 10
-1.40503599E+02
 20
-1.32750000E+02
 40
1.94963929E+01
 50
1.59743842E+02
 51
2.00256158E+02
  0
ARC
  8
0
 62
4
 10
-1.68496385E+02
 20
-1.32750000E+02
 40
1.94963929E+01
 50
3.39743842E+02
 51
2.02561580E+01
  0
ARC
  8
0
 62
4
 10
-1.68496385E+02
 20
-1.46250000E+02
 40
1.94963929E+01
 50
3.39743842E+02
 51
2.02561580E+01
  0
LINE
  8
0
 62
4
 10
-1.58794221E+02
 20
-3.03911543E+02
 11
-1.50205764E+02
 21
-3.03911543E+02
  0
LINE
  8
0
 62
4
 10
-1.58794221E+02
 20
-3.11705771E+02
 11
-1.50205764E+02
 21
-3.11705771E+02
  0
LINE
  8
0
 62
4
 10
-1.58794221E+02
 20
-3.03911543E+02
 11
-1.59999992E+02
 21
-3.06000000E+02
  0
LINE
  8
0
 62
4
 10
-1.50205764E+02
 20
-3.03911543E+02
 11
-1.48999992E+02
 21
-3.06000000E+02
  0
ARC
  8
0
 62
4
 10
-1.53099271E+02
 20
-3.07808657E+02
 40
6.90072132E+00
 50
1.45615752E+02
 51
2.14384248E+02
  0
ARC
  8
0
 62
4
 10
-1.55900714E+02
 20
-3.07808657E+02
 40
6.90072132E+00
 50
3.25615752E+02
 51
3.43842480E+01
  0
ARC
  8
0
 62
4
 10
-1.74794221E+02
 20
-3.19500000E+02
 40
2.57942282E+01
 50
2.54444375E-13
 51
1.75879541E+01
  0
ARC
  8
0
 62
4
 10
-1.34205764E+02
 20
-3.19500000E+02
 40
2.57942282E+01
 50
1.62412046E+02
 51
1.80000000E+02
  0
LINE
  8
0
 62
4
 10
-1.59999992E+02
 20
-3.19500000E+02
 11
-1.59999992E+02
 21
-3.06000000E+02
  0
LINE
  8
0
 62
4
 10
-1.48999992E+02
 20
-3.19500000E+02
 11
-1.48999992E+02
 21
-3.06000000E+02
  0
ARC
  8
0
 62
4
 10
-3.52000008E+02
 20
-3.19500000E+02
 40
1.35000000E+01
 50
0.00000000E+00
 51
1.80000000E+02
  0
LINE
  8
0
 62
4
 10
-3.52000008E+02
 20
-3.03911543E+02
 11
-3.65500008E+02
 21
-3.11705771E+02
  0
LINE
  8
0
 62
4
 10
-3.65500008E+02
 20
-3.11705771E+02
 11
-3.65500008E+02
 21
-3.19500000E+02
  0
LINE
  8
0
 62
4
 10
-3.38500008E+02
 20
-3.19500000E+02
 11
-3.38500008E+02
 21
-3.11705771E+02
  0
LINE
  8
0
 62
4
 10
-3.38500008E+02
 20
-3.11705771E+02
 11
-3.52000008E+02
 21
-3.03911543E+02
  0
ARC
  8
0
 62
7
 10
-3.52000008E+02
 20
-3.19500000E+02
 40
7.49999237E+00
 50
0.00000000E+00
 51
1.80000000E+02
  0
ARC
  8
0
 62
2
 10
-3.52000008E+02
 20
-3.19500000E+02
 40
8.18000031E+00
 50
0.00000000E+00
 51
1.80000000E+02
  0
ARC
  8
0
 62
7
 10
-3.52000008E+02
 20
-3.19500000E+02
 40
8.99999237E+00
 50
0.00000000E+00
 51
1.80000000E+02
  0
ARC
  8
0
 62
7
 10
-1.38500008E+02
 20
-3.19500000E+02
 40
9.99998474E+00
 50
0.00000000E+00
 51
3.17883527E+01
  0
ARC
  8
0
 62
7
 10
-1.11500038E+02
 20
-2.83049919E+02
 40
5.00000000E-01
 50
9.10003518E+01
 51
1.80000087E+02
  0
ARC
  8
0
 62
7
 10
-1.26500053E+02
 20
-3.03000031E+02
 40
5.00000000E-01
 50
9.00000369E+01
 51
1.80000019E+02
  0
ARC
  8
0
 62
7
 10
-1.21750008E+02
 20
-3.02491455E+02
 40
2.50000000E-01
 50
9.19988643E+01
 51
1.80000019E+02
  0
ARC
  8
0
 62
7
 10
-1.13500008E+02
 20
-3.00999992E+02
 40
5.00000000E-01
 50
9.00000369E+01
 51
1.80000019E+02
  0
CIRCLE
  8
0
 62
7
 10
-8.70000534E+01
 20
-1.51500000E+02
 40
2.59999990E+00
  0
ARC
  8
0
 62
7
 10
-8.70000534E+01
 20
-1.51500000E+02
 40
5.00000000E+00
 50
1.79999977E+02
 51
1.00179127E-05
  0
ARC
  8
0
 62
2
 10
-9.40000534E+01
 20
-1.31499985E+02
 40
8.32999992E+00
 50
6.88904594E+01
 51
5.35364402E+01
  0
ARC
  8
0
 62
7
 10
-1.06000008E+02
 20
-1.62500015E+02
 40
2.00000000E+00
 50
1.79999977E+02
 51
2.70000028E+02
  0
ARC
  8
0
 62
7
 10
-1.06000008E+02
 20
-1.16499985E+02
 40
2.00000000E+00
 50
8.99999818E+01
 51
1.79999964E+02
  0
ARC
  8
0
 62
7
 10
-9.40000534E+01
 20
-1.31499985E+02
 40
8.71000004E+00
 50
6.98524200E+01
 51
5.02774254E+01
  0
ARC
  8
0
 62
7
 10
-1.11500038E+02
 20
-1.03049896E+02
 40
5.00000000E-01
 50
9.10002223E+01
 51
1.79999964E+02
  0
ARC
  8
0
 62
7
 10
-9.40000534E+01
 20
-1.31499985E+02
 40
7.44000053E+00
 50
6.62194396E+01
 51
6.42160251E+01
  0
ARC
  8
0
 62
7
 10
-8.70000534E+01
 20
-1.51500000E+02
 40
5.00000000E+00
 50
0.00000000E+00
 51
1.79999964E+02
  0
ARC
  8
0
 62
7
 10
-1.11500038E+02
 20
-1.75950073E+02
 40
5.00000000E-01
 50
1.79999977E+02
 51
2.68999706E+02
  0
CIRCLE
  8
0
 62
7
 10
-3.23999886E+02
 20
-2.91499924E+02
 40
3.32000041E+00
  0
CIRCLE
  8
0
 62
7
 10
-3.79999947E+02
 20
-2.91499924E+02
 40
3.32000041E+00
  0
ARC
  8
0
 62
7
 10
-3.52000008E+02
 20
-3.19500000E+02
 40
1.70000000E+01
 50
0.00000000E+00
 51
1.80000000E+02
  0
CIRCLE
  8
0
 62
2
 10
-3.79999947E+02
 20
-2.91499924E+02
 40
4.00000000E+00
  0
ARC
  8
0
 62
7
 10
-3.52000008E+02
 20
-3.19500000E+02
 40
1.90000000E+01
 50
0.00000000E+00
 51
1.80000000E+02
  0
ARC
  8
0
 62
7
 10
-3.52000008E+02
 20
-3.19500000E+02
 40
1.75294495E+01
 50
0.00000000E+00
 51
1.80000000E+02
  0
ARC
  8
0
 62
7
 10
-3.85499977E+02
 20
-3.06499947E+02
 40
1.00000000E+00
 50
9.00017305E+01
 51
1.80000005E+02
  0
ARC
  8
0
 62
7
 10
-3.85500069E+02
 20
-3.01999947E+02
 40
3.50000024E+00
 50
2.70001002E+02
 51
0.00000000E+00
  0
ARC
  8
0
 62
7
 10
-3.81022133E+02
 20
-3.00944824E+02
 40
1.00000000E+00
 50
8.38236876E+01
 51
1.74325470E+02
  0
ARC
  8
0
 62
7
 10
-3.79999947E+02
 20
-2.91499969E+02
 40
8.50000000E+00
 50
2.63823553E+02
 51
6.17667669E+00
  0
ARC
  8
0
 62
7
 10
-3.65000038E+02
 20
-2.85999977E+02
 40
1.00000000E+00
 50
8.99999818E+01
 51
1.79998270E+02
  0
ARC
  8
0
 62
7
 10
-3.69500038E+02
 20
-2.85999886E+02
 40
3.50000024E+00
 50
2.70000018E+02
 51
3.59999001E+02
  0
ARC
  8
0
 62
7
 10
-3.70555183E+02
 20
-2.90477829E+02
 40
1.00000000E+00
 50
9.56745100E+01
 51
1.86176313E+02
  0
ARC
  8
0
 62
7
 10
-3.18500038E+02
 20
-3.06499947E+02
 40
1.00000000E+00
 50
3.59999986E+02
 51
8.99982469E+01
  0
ARC
  8
0
 62
7
 10
-3.22977882E+02
 20
-3.00944824E+02
 40
1.00000000E+00
 50
5.67452116E+00
 51
9.61763036E+01
  0
ARC
  8
0
 62
7
 10
-3.18499855E+02
 20
-3.01999947E+02
 40
3.50000024E+00
 50
1.79999977E+02
 51
2.69999017E+02
  0
ARC
  8
0
 62
7
 10
-3.33444832E+02
 20
-2.90477829E+02
 40
1.00000000E+00
 50
3.53822790E+02
 51
8.43256382E+01
  0
ARC
  8
0
 62
7
 10
-3.38999886E+02
 20
-2.85999977E+02
 40
1.00000000E+00
 50
1.77584919E-03
 51
8.99999549E+01
  0
ARC
  8
0
 62
7
 10
-3.34499886E+02
 20
-2.85999840E+02
 40
3.50000024E+00
 50
1.80001511E+02
 51
2.70000018E+02
  0
CIRCLE
  8
0
 62
7
 10
-3.23999886E+02
 20
-2.91499969E+02
 40
6.00000048E+00
  0
ARC
  8
0
 62
7
 10
-3.18500038E+02
 20
-2.85999977E+02
 40
4.00000000E+00
 50
0.00000000E+00
 51
8.99999818E+01
  0
ARC
  8
0
 62
7
 10
-3.32100288E+02
 20
-3.17500008E+02
 40
1.00000000E+00
 50
1.85739458E+02
 51
2.69999963E+02
  0
ARC
  8
0
 62
7
 10
-3.18500038E+02
 20
-3.17500008E+02
 40
1.00000000E+00
 50
2.69999963E+02
 51
0.00000000E+00
  0
ARC
  8
0
 62
7
 10
-3.18500038E+02
 20
-2.85999977E+02
 40
3.50000024E+00
 50
0.00000000E+00
 51
8.99999818E+01
  0
ARC
  8
0
 62
7
 10
-3.29152657E+02
 20
-2.99481125E+02
 40
1.00000000E+00
 50
5.71532472E+01
 51
1.34999959E+02
  0
ARC
  8
0
 62
7
 10
-3.31981178E+02
 20
-2.96652695E+02
 40
1.00000000E+00
 50
3.14999995E+02
 51
3.28461612E+01
  0
ARC
  8
0
 62
7
 10
-3.39342934E+02
 20
-3.04014519E+02
 40
1.00000000E+00
 50
2.30738998E+02
 51
3.14999995E+02
  0
ARC
  8
0
 62
7
 10
-3.36514503E+02
 20
-3.06842957E+02
 40
1.00000000E+00
 50
1.34999959E+02
 51
2.19260957E+02
  0
CIRCLE
  8
0
 62
7
 10
-3.23999886E+02
 20
-2.91499969E+02
 40
6.50000095E+00
  0
ARC
  8
0
 62
7
 10
-1.13500008E+02
 20
-1.21000000E+02
 40
5.00000000E-01
 50
8.99999818E+01
 51
1.79999964E+02
  0
ARC
  8
0
 62
7
 10
-1.21750008E+02
 20
-1.22491470E+02
 40
2.50000000E-01
 50
9.19988230E+01
 51
1.79999977E+02
  0
ARC
  8
0
 62
7
 10
-1.26500053E+02
 20
-1.23000046E+02
 40
5.00000000E-01
 50
8.99999818E+01
 51
1.79999964E+02
  0
ARC
  8
0
 62
7
 10
-1.13500008E+02
 20
-1.58000015E+02
 40
5.00000000E-01
 50
1.79999977E+02
 51
2.69999974E+02
  0
ARC
  8
0
 62
7
 10
-1.21750008E+02
 20
-1.56508530E+02
 40
2.50000000E-01
 50
1.79999977E+02
 51
2.68001132E+02
  0
ARC
  8
0
 62
7
 10
-1.26500053E+02
 20
-1.55999954E+02
 40
5.00000000E-01
 50
1.79999977E+02
 51
2.69999974E+02
  0
CIRCLE
  8
0
 62
7
 10
-3.79999947E+02
 20
-2.91499924E+02
 40
6.00000048E+00
  0
CIRCLE
  8
0
 62
2
 10
-3.23999886E+02
 20
-2.91499924E+02
 40
4.00000000E+00
  0
ARC
  8
0
 62
7
 10
-3.85499977E+02
 20
-2.85999977E+02
 40
4.00000000E+00
 50
9.00000231E+01
 51
1.79999977E+02
  0
ARC
  8
0
 62
7
 10
-3.71899727E+02
 20
-3.17500008E+02
 40
1.00000000E+00
 50
2.70000045E+02
 51
3.54260551E+02
  0
ARC
  8
0
 62
7
 10
-3.85499886E+02
 20
-3.17500008E+02
 40
1.00000000E+00
 50
1.80000008E+02
 51
2.70000045E+02
  0
ARC
  8
0
 62
7
 10
-3.49999947E+02
 20
-2.85999977E+02
 40
1.00000000E+00
 50
8.99999818E+01
 51
1.79999964E+02
  0
ARC
  8
0
 62
7
 10
-3.49999947E+02
 20
-2.99600258E+02
 40
1.00000000E+00
 50
1.79999964E+02
 51
2.64260484E+02
  0
ARC
  8
0
 62
7
 10
-3.53999977E+02
 20
-2.85999977E+02
 40
1.00000000E+00
 50
3.59999959E+02
 51
8.99999956E+01
  0
ARC
  8
0
 62
7
 10
-3.85499977E+02
 20
-2.85999977E+02
 40
3.50000024E+00
 50
9.00000231E+01
 51
1.79999977E+02
  0
ARC
  8
0
 62
7
 10
-3.23999886E+02
 20
-2.91499969E+02
 40
8.50000000E+00
 50
1.73823315E+02
 51
2.76176459E+02
  0
ARC
  8
0
 62
7
 10
-3.53999977E+02
 20
-2.99600258E+02
 40
1.00000000E+00
 50
2.75739453E+02
 51
3.59999959E+02
  0
ARC
  8
0
 62
7
 10
-3.64656990E+02
 20
-3.04014542E+02
 40
1.00000000E+00
 50
2.24999972E+02
 51
3.09260983E+02
  0
ARC
  8
0
 62
7
 10
-3.67485512E+02
 20
-3.06842972E+02
 40
1.00000000E+00
 50
3.20738994E+02
 51
4.49999910E+01
  0
ARC
  8
0
 62
7
 10
-3.72018837E+02
 20
-2.96652718E+02
 40
1.00000000E+00
 50
1.47153243E+02
 51
2.24999955E+02
  0
ARC
  8
0
 62
7
 10
-3.74847267E+02
 20
-2.99481125E+02
 40
1.00000000E+00
 50
4.49999910E+01
 51
1.22846171E+02
  0
CIRCLE
  8
0
 62
7
 10
-3.79999947E+02
 20
-2.91499924E+02
 40
6.50000095E+00
  0
LINE
  8
0
 62
7
 10
-1.39999977E+02
 20
-1.47679962E+02
 11
-1.36999992E+02
 21
-1.47679962E+02
  0
LINE
  8
0
 62
7
 10
-1.39999977E+02
 20
-1.31319992E+02
 11
-1.36999992E+02
 21
-1.31319992E+02
  0
LINE
  8
0
 62
7
 10
-1.30000172E+02
 20
-1.30999837E+02
 11
-1.28500149E+02
 21
-1.29499814E+02
  0
LINE
  8
0
 62
7
 10
-1.30000116E+02
 20
-1.47999906E+02
 11
-1.28500146E+02
 21
-1.49499875E+02
  0
LINE
  8
0
 62
7
 10
-1.36999992E+02
 20
-1.30999969E+02
 11
-1.30000053E+02
 21
-1.30999969E+02
  0
LINE
  8
0
 62
7
 10
-1.36999992E+02
 20
-1.47999985E+02
 11
-1.30000053E+02
 21
-1.47999985E+02
  0
LINE
  8
0
 62
7
 10
-1.36999992E+02
 20
-1.47999985E+02
 11
-1.36999992E+02
 21
-1.30999985E+02
  0
LINE
  8
0
 62
7
 10
-1.69000040E+02
 20
-1.46999853E+02
 11
-1.67500005E+02
 21
-1.48499843E+02
  0
LINE
  8
0
 62
2
 10
-1.68319954E+02
 20
-1.47679962E+02
 11
-1.59999992E+02
 21
-1.47679962E+02
  0
LINE
  8
0
 62
7
 10
-1.67499947E+02
 20
-1.48499969E+02
 11
-1.59999992E+02
 21
-1.48499969E+02
  0
LINE
  8
0
 62
7
 10
-1.68999855E+02
 20
-1.32000155E+02
 11
-1.67499823E+02
 21
-1.30500168E+02
  0
LINE
  8
0
 62
2
 10
-1.68319954E+02
 20
-1.31319992E+02
 11
-1.59999992E+02
 21
-1.31319992E+02
  0
LINE
  8
0
 62
7
 10
-1.67499947E+02
 20
-1.30499985E+02
 11
-1.59999992E+02
 21
-1.30499985E+02
  0
LINE
  8
0
 62
7
 10
-1.67499977E+02
 20
-1.48499985E+02
 11
-1.67499977E+02
 21
-1.30499985E+02
  0
LINE
  8
0
 62
7
 10
-1.69000008E+02
 20
-1.46999954E+02
 11
-1.69000008E+02
 21
-1.32000153E+02
  0
LINE
  8
0
 62
7
 10
-1.39999977E+02
 20
-1.48499985E+02
 11
-1.39999977E+02
 21
-1.30499985E+02
  0
LINE
  8
0
 62
7
 10
-1.28500008E+02
 20
-1.29499954E+02
 11
-1.27000023E+02
 21
-1.29499954E+02
  0
LINE
  8
0
 62
7
 10
-1.28500038E+02
 20
-1.49499954E+02
 11
-1.27000069E+02
 21
-1.49499954E+02
  0
LINE
  8
0
 62
7
 10
-1.33999992E+02
 20
-1.30999985E+02
 11
-1.33999992E+02
 21
-1.47999985E+02
  0
LINE
  8
0
 62
7
 10
-1.39999977E+02
 20
-3.11320007E+02
 11
-1.36999992E+02
 21
-3.11320007E+02
  0
LINE
  8
0
 62
7
 10
-1.36999971E+02
 20
-3.10500024E+02
 11
-1.33999982E+02
 21
-3.09500041E+02
  0
LINE
  8
0
 62
7
 10
-1.36999991E+02
 20
-3.16377557E+02
 11
-1.34000003E+02
 21
-3.14232460E+02
  0
LINE
  8
0
 62
7
 10
-1.34000114E+02
 20
-3.09500015E+02
 11
-1.27000069E+02
 21
-3.09500015E+02
  0
LINE
  8
0
 62
7
 10
-1.68999900E+02
 20
-3.12000188E+02
 11
-1.67499854E+02
 21
-3.10500188E+02
  0
LINE
  8
0
 62
2
 10
-1.68319954E+02
 20
-3.11320007E+02
 11
-1.59999992E+02
 21
-3.11320007E+02
  0
LINE
  8
0
 62
7
 10
-1.67499947E+02
 20
-3.10500000E+02
 11
-1.59999992E+02
 21
-3.10500000E+02
  0
LINE
  8
0
 62
7
 10
-1.67499977E+02
 20
-3.19500000E+02
 11
-1.67499977E+02
 21
-3.10499985E+02
  0
LINE
  8
0
 62
7
 10
-1.69000008E+02
 20
-3.19500000E+02
 11
-1.69000008E+02
 21
-3.12000153E+02
  0
LINE
  8
0
 62
7
 10
-1.39999977E+02
 20
-3.19500000E+02
 11
-1.39999977E+02
 21
-3.10499985E+02
  0
LINE
  8
0
 62
7
 10
-1.30000053E+02
 20
-3.19500000E+02
 11
-1.30000053E+02
 21
-3.14232132E+02
  0
LINE
  8
0
 62
7
 10
-1.33999992E+02
 20
-3.09499954E+02
 11
-1.33999992E+02
 21
-3.14232132E+02
  0
LINE
  8
0
 62
2
 10
-1.33499826E+02
 20
-3.19500000E+02
 11
-1.29999864E+02
 21
-3.14232194E+02
  0
LINE
  8
0
 62
2
 10
-1.36033602E+02
 20
-3.15686583E+02
 11
-1.33499945E+02
 21
-3.19500000E+02
  0
LINE
  8
0
 62
7
 10
-1.34000114E+02
 20
-3.14232147E+02
 11
-1.30000053E+02
 21
-3.14232147E+02
  0
LINE
  8
0
 62
7
 10
-1.36999992E+02
 20
-3.10500000E+02
 11
-1.36999992E+02
 21
-3.19500000E+02
  0
LINE
  8
0
 62
7
 10
-1.12000008E+02
 20
-3.19500000E+02
 11
-1.12000008E+02
 21
-2.83044395E+02
  0
LINE
  8
0
  6
CENTER
 62
2
 10
-1.52331507E+01
 20
-2.91499992E+02
 11
-1.15248116E+02
 21
-2.91499992E+02
  0
LINE
  8
0
 62
7
 10
-1.21999992E+02
 20
-3.02500008E+02
 11
-1.21999992E+02
 21
-3.02491455E+02
  0
LINE
  8
0
 62
7
 10
-1.21758707E+02
 20
-3.02241536E+02
 11
-1.13999993E+02
 21
-3.01970595E+02
  0
LINE
  8
0
 62
7
 10
-1.14000023E+02
 20
-3.19500000E+02
 11
-1.14000023E+02
 21
-3.00999992E+02
  0
LINE
  8
0
 62
7
 10
-1.26500053E+02
 20
-3.02500008E+02
 11
-1.21991432E+02
 21
-3.02500008E+02
  0
LINE
  8
0
 62
7
 10
-1.13500008E+02
 20
-3.00500000E+02
 11
-1.12000008E+02
 21
-3.00500000E+02
  0
LINE
  8
0
 62
7
 10
-1.27000023E+02
 20
-3.19500000E+02
 11
-1.27000023E+02
 21
-3.03000031E+02
  0
LINE
  8
0
 62
7
 10
-1.21999992E+02
 20
-3.19500000E+02
 11
-1.21999992E+02
 21
-3.02500008E+02
  0
LINE
  8
0
 62
7
 10
-1.11508713E+02
 20
-2.82550058E+02
 11
-7.99999934E+01
 21
-2.82000071E+02
  0
LINE
  8
0
 62
7
 10
-1.07999977E+02
 20
-2.82488777E+02
 11
-1.07999977E+02
 21
-2.81999992E+02
  0
LINE
  8
0
 62
7
 10
-8.00000229E+01
 20
-3.19500000E+02
 11
-8.00000229E+01
 21
-2.81999992E+02
  0
LINE
  8
0
 62
7
 10
-1.07999977E+02
 20
-2.81999992E+02
 11
-8.00000229E+01
 21
-2.81999992E+02
  0
LINE
  8
0
 62
7
 10
-1.17690535E+01
 20
-1.05500000E+02
 11
-5.64999860E+01
 21
-1.05500000E+02
  0
LINE
  8
0
 62
7
 10
-1.31546730E+01
 20
-1.07899963E+02
 11
-5.64999860E+01
 21
-1.07899963E+02
  0
LINE
  8
0
 62
7
 10
-1.73116196E+01
 20
-1.15100006E+02
 11
-3.71507649E+01
 21
-1.15100006E+02
  0
LINE
  8
0
  6
CENTER
 62
2
 10
-8.70000534E+01
 20
-1.45088837E+02
 11
-8.70000534E+01
 21
-1.58565582E+02
  0
LINE
  8
0
  6
CENTER
 62
2
 10
-9.36657791E+01
 20
-1.51500000E+02
 11
-8.08370132E+01
 21
-1.51500000E+02
  0
LINE
  8
0
 62
7
 10
-8.52679088E+01
 20
-1.51500066E+02
 11
-8.61339480E+01
 21
-1.53000099E+02
  0
LINE
  8
0
 62
7
 10
-8.61340256E+01
 20
-1.53000000E+02
 11
-8.78660965E+01
 21
-1.53000000E+02
  0
LINE
  8
0
 62
7
 10
-8.78660203E+01
 20
-1.52999949E+02
 11
-8.87320594E+01
 21
-1.51499917E+02
  0
LINE
  8
0
 62
7
 10
-8.87318845E+01
 20
-1.51500162E+02
 11
-8.78658682E+01
 21
-1.50000169E+02
  0
LINE
  8
0
 62
7
 10
-8.61340256E+01
 20
-1.49999969E+02
 11
-8.78660965E+01
 21
-1.49999969E+02
  0
LINE
  8
0
 62
7
 10
-8.52679101E+01
 20
-1.51500115E+02
 11
-8.61339798E+01
 21
-1.50000029E+02
  0
LINE
  8
0
 62
7
 10
-1.07999977E+02
 20
-1.16499985E+02
 11
-1.07999977E+02
 21
-1.62499985E+02
  0
LINE
  8
0
 62
7
 10
-1.06000008E+02
 20
-1.64500000E+02
 11
-7.99999924E+01
 21
-1.64500000E+02
  0
LINE
  8
0
 62
7
 10
-1.06000008E+02
 20
-1.14499985E+02
 11
-9.09999860E+01
 21
-1.14499985E+02
  0
LINE
  8
0
 62
7
 10
-1.11508757E+02
 20
-1.02549918E+02
 11
-8.00000519E+01
 21
-1.01999932E+02
  0
LINE
  8
0
 62
7
 10
-7.99999924E+01
 20
-1.76999954E+02
 11
-7.99999924E+01
 21
-1.24437056E+02
  0
LINE
  8
0
 62
7
 10
-1.12000008E+02
 20
-1.75950073E+02
 11
-1.12000008E+02
 21
-1.03049896E+02
  0
LINE
  8
0
 62
7
 10
-1.13500008E+02
 20
-1.20499985E+02
 11
-1.12000008E+02
 21
-1.20499985E+02
  0
LINE
  8
0
 62
7
 10
-1.11508846E+02
 20
-1.76449850E+02
 11
-8.00001411E+01
 21
-1.76999837E+02
  0
LINE
  8
0
 62
7
 10
-1.13500008E+02
 20
-1.58500000E+02
 11
-1.12000008E+02
 21
-1.58500000E+02
  0
LINE
  8
0
  6
CENTER
 62
2
 10
-9.40000534E+01
 20
-1.41500015E+02
 11
-9.40000534E+01
 21
-1.20953720E+02
  0
LINE
  8
0
  6
CENTER
 62
2
 10
-1.04364876E+02
 20
-1.31499985E+02
 11
-8.27607040E+01
 21
-1.31499985E+02
  0
LINE
  8
0
  6
CENTER
 62
2
 10
-9.40000534E+01
 20
-3.07585487E+02
 11
-9.40000534E+01
 21
-2.79614937E+02
  0
LINE
  8
0
  6
CENTER
 62
2
 10
-4.75647878E+01
 20
-1.67500031E+02
 11
-1.15248116E+02
 21
-1.67500031E+02
  0
LINE
  8
0
  6
CENTER
 62
2
 10
-1.52331375E+01
 20
-1.11499969E+02
 11
-5.64999860E+01
 21
-1.11499969E+02
  0
LINE
  8
0
  6
CENTER
 62
2
 10
-3.40000008E+02
 20
-2.79785774E+02
 11
-3.40000008E+02
 21
-3.09505516E+02
  0
LINE
  8
0
  6
CENTER
 62
2
 10
-3.34630531E+02
 20
-2.91499924E+02
 11
-3.12097572E+02
 21
-2.91499924E+02
  0
LINE
  8
0
 62
7
 10
-3.21999825E+02
 20
-3.01999931E+02
 11
-3.21999825E+02
 21
-3.00736198E+02
  0
LINE
  8
0
 62
7
 10
-3.34499886E+02
 20
-2.89499748E+02
 11
-3.33236458E+02
 21
-2.89499748E+02
  0
LINE
  8
0
 62
7
 10
-3.82000191E+02
 20
-3.01999931E+02
 11
-3.82000191E+02
 21
-3.00736336E+02
  0
LINE
  8
0
 62
7
 10
-3.69500038E+02
 20
-2.89499794E+02
 11
-3.70763649E+02
 21
-2.89499794E+02
  0
LINE
  8
0
 62
7
 10
-3.85500069E+02
 20
-2.81999947E+02
 11
-3.18500038E+02
 21
-2.81999947E+02
  0
LINE
  8
0
 62
7
 10
-3.65000038E+02
 20
-2.84999977E+02
 11
-3.38999886E+02
 21
-2.84999977E+02
  0
LINE
  8
0
 62
7
 10
-3.26999977E+02
 20
-2.81999947E+02
 11
-3.26999977E+02
 21
-2.82499962E+02
  0
LINE
  8
0
 62
7
 10
-3.76999947E+02
 20
-2.81999947E+02
 11
-3.76999947E+02
 21
-2.82499962E+02
  0
LINE
  8
0
 62
7
 10
-3.14999977E+02
 20
-3.19500000E+02
 11
-3.14999977E+02
 21
-2.85999962E+02
  0
LINE
  8
0
  6
CENTER
 62
2
 10
-3.92045082E+02
 20
-2.91499924E+02
 11
-3.69893990E+02
 21
-2.91499924E+02
  0
LINE
  8
0
  6
CENTER
 62
2
 10
-3.59999977E+02
 20
-2.79814705E+02
 11
-3.59999977E+02
 21
-3.05781097E+02
  0
LINE
  8
0
  6
CENTER
 62
2
 10
-3.11960243E+02
 20
-3.19500000E+02
 11
-3.94477730E+02
 21
-3.19500000E+02
  0
LINE
  8
0
  6
CENTER
 62
2
 10
-3.23999886E+02
 20
-2.79814705E+02
 11
-3.23999886E+02
 21
-3.02729584E+02
  0
LINE
  8
0
 62
7
 10
-3.14500008E+02
 20
-3.19500000E+02
 11
-3.14500008E+02
 21
-2.85999962E+02
  0
LINE
  8
0
 62
7
 10
-3.18500038E+02
 20
-3.18500015E+02
 11
-3.32100288E+02
 21
-3.18500015E+02
  0
LINE
  8
0
 62
7
 10
-3.17500008E+02
 20
-3.19500000E+02
 11
-3.17500008E+02
 21
-3.06499931E+02
  0
LINE
  8
0
 62
7
 10
-3.37221951E+02
 20
-3.06135514E+02
 11
-3.29860091E+02
 21
-2.98773657E+02
  0
LINE
  8
0
 62
7
 10
-3.38636164E+02
 20
-3.04721300E+02
 11
-3.31274337E+02
 21
-2.97359476E+02
  0
LINE
  8
0
 62
7
 10
-1.21999992E+02
 20
-1.22499985E+02
 11
-1.21999992E+02
 21
-1.56500015E+02
  0
LINE
  8
0
 62
7
 10
-1.14000023E+02
 20
-1.58000015E+02
 11
-1.14000023E+02
 21
-1.20999985E+02
  0
LINE
  8
0
 62
7
 10
-1.21758771E+02
 20
-1.22241309E+02
 11
-1.14000057E+02
 21
-1.21970369E+02
  0
LINE
  8
0
 62
7
 10
-1.21999992E+02
 20
-1.22499985E+02
 11
-1.21999992E+02
 21
-1.22491440E+02
  0
LINE
  8
0
 62
7
 10
-1.26500053E+02
 20
-1.22500031E+02
 11
-1.21991432E+02
 21
-1.22500031E+02
  0
LINE
  8
0
 62
7
 10
-1.27000023E+02
 20
-1.55999969E+02
 11
-1.27000023E+02
 21
-1.23000015E+02
  0
LINE
  8
0
 62
7
 10
-1.21758834E+02
 20
-1.56758437E+02
 11
-1.14000120E+02
 21
-1.57029377E+02
  0
LINE
  8
0
 62
7
 10
-1.21999992E+02
 20
-1.56500015E+02
 11
-1.21999992E+02
 21
-1.56508545E+02
  0
LINE
  8
0
 62
7
 10
-1.26500053E+02
 20
-1.56499985E+02
 11
-1.21991432E+02
 21
-1.56499985E+02
  0
LINE
  8
0
  6
CENTER
 62
2
 10
-3.52000008E+02
 20
-2.78032448E+02
 11
-3.52000008E+02
 21
-3.19500000E+02
  0
LINE
  8
0
  6
CENTER
 62
2
 10
-3.79999947E+02
 20
-3.02729584E+02
 11
-3.79999947E+02
 21
-2.79942009E+02
  0
LINE
  8
0
 62
7
 10
-3.89500008E+02
 20
-3.19500000E+02
 11
-3.89500008E+02
 21
-2.85999977E+02
  0
LINE
  8
0
 62
7
 10
-3.85499977E+02
 20
-3.18500038E+02
 11
-3.71899818E+02
 21
-3.18500038E+02
  0
LINE
  8
0
 62
7
 10
-3.86500008E+02
 20
-3.19500000E+02
 11
-3.86500008E+02
 21
-3.06499931E+02
  0
LINE
  8
0
 62
7
 10
-3.88999947E+02
 20
-3.19500000E+02
 11
-3.88999947E+02
 21
-2.85999977E+02
  0
LINE
  8
0
 62
7
 10
-3.50999977E+02
 20
-2.85999962E+02
 11
-3.50999977E+02
 21
-2.99600243E+02
  0
LINE
  8
0
 62
7
 10
-3.66778516E+02
 20
-3.06136117E+02
 11
-3.74140342E+02
 21
-2.98774292E+02
  0
LINE
  8
0
 62
7
 10
-3.53000038E+02
 20
-2.85999977E+02
 11
-3.53000038E+02
 21
-2.99600243E+02
  0
LINE
  8
0
 62
7
 10
-3.65364292E+02
 20
-3.04721893E+02
 11
-3.72726161E+02
 21
-2.97360024E+02
  0
LINE
  8
0
 62
7
 10
-3.85500069E+02
 20
-2.82499962E+02
 11
-3.18500038E+02
 21
-2.82499962E+02
  0
LINE
  8
0
  6
CENTER
 62
2
 10
-1.71028160E+02
 20
-3.19500000E+02
 11
-3.13989626E+01
 21
-3.19500000E+02
  0
LINE
  8
0
  6
CENTER
 62
2
 10
-1.72033318E+02
 20
-1.39500000E+02
 11
-7.59999860E+01
 21
-1.39500000E+02
  0
LINE
  8
0
 62
7
 10
-7.99999924E+01
 20
-1.10437056E+02
 11
-7.99999924E+01
 21
-1.01999969E+02
  0
LINE
  8
0
  6
CENTER
 62
2
 10
-9.09999860E+01
 20
-1.11499969E+02
 11
-1.15248116E+02
 21
-1.11499969E+02
  0
LINE
  8
0
  6
CENTER
 62
2
 10
-3.69999860E+01
 20
-1.39500000E+02
 11
-3.13989626E+01
 21
-1.39500000E+02
  0
LINE
  8
0
 62
2
 10
-5.61821197E+01
 20
-1.82425687E+02
 11
-8.27495145E+00
 21
-9.94480378E+01
  0
LINE
  8
0
 62
2
 10
-3.70163833E+01
 20
-3.29229658E+02
 11
-8.27495145E+00
 21
-2.79448038E+02
  0
LINE
  8
0
 62
7
 10
2.92226468E+02
 20
-2.95100029E+02
 11
3.42500008E+02
 21
-2.95100029E+02
  0
LINE
  8
0
 62
7
 10
2.96383414E+02
 20
-2.87899986E+02
 11
3.42500008E+02
 21
-2.87899986E+02
  0
LINE
  8
0
 62
7
 10
2.97769043E+02
 20
-2.85500008E+02
 11
3.23218699E+02
 21
-2.85500008E+02
  0
ARC
  8
0
 62
4
 10
4.60794205E+02
 20
-3.19500000E+02
 40
2.57942282E+01
 50
1.62412046E+02
 51
1.80000000E+02
  0
ARC
  8
0
 62
4
 10
4.20205749E+02
 20
-3.19500000E+02
 40
2.57942282E+01
 50
2.54444375E-13
 51
1.75879541E+01
  0
LINE
  8
0
 62
4
 10
4.45999977E+02
 20
-3.19500000E+02
 11
4.45999977E+02
 21
-3.06000000E+02
  0
LINE
  8
0
 62
4
 10
4.34999977E+02
 20
-3.19500000E+02
 11
4.34999977E+02
 21
-3.06000000E+02
  0
ARC
  8
0
 62
7
 10
4.24499992E+02
 20
-3.19500000E+02
 40
9.99998474E+00
 50
1.48211648E+02
 51
1.80000000E+02
  0
LINE
  8
0
 62
7
 10
4.53499962E+02
 20
-3.19500000E+02
 11
4.53499962E+02
 21
-3.10499985E+02
  0
LINE
  8
0
 62
7
 10
4.54999992E+02
 20
-3.19500000E+02
 11
4.54999992E+02
 21
-3.12000153E+02
  0
LINE
  8
0
 62
7
 10
4.25999962E+02
 20
-3.19500000E+02
 11
4.25999962E+02
 21
-3.10499985E+02
  0
LINE
  8
0
 62
7
 10
4.16000038E+02
 20
-3.19500000E+02
 11
4.16000038E+02
 21
-3.14232132E+02
  0
LINE
  8
0
 62
2
 10
4.19499810E+02
 20
-3.19500000E+02
 11
4.15999849E+02
 21
-3.14232194E+02
  0
LINE
  8
0
 62
2
 10
4.22033587E+02
 20
-3.15686583E+02
 11
4.19499930E+02
 21
-3.19500000E+02
  0
LINE
  8
0
 62
7
 10
4.22999977E+02
 20
-3.10500000E+02
 11
4.22999977E+02
 21
-3.19500000E+02
  0
LINE
  8
0
 62
7
 10
3.97999992E+02
 20
-3.19500000E+02
 11
3.97999992E+02
 21
-2.83044395E+02
  0
LINE
  8
0
  6
CENTER
 62
2
 10
2.94304950E+02
 20
-2.91499992E+02
 11
3.42500008E+02
 21
-2.91499992E+02
  0
LINE
  8
0
 62
7
 10
4.00000008E+02
 20
-3.19500000E+02
 11
4.00000008E+02
 21
-3.00999992E+02
  0
LINE
  8
0
 62
7
 10
4.13000008E+02
 20
-3.19500000E+02
 11
4.13000008E+02
 21
-3.03000031E+02
  0
LINE
  8
0
 62
7
 10
4.07999977E+02
 20
-3.19500000E+02
 11
4.07999977E+02
 21
-3.02500008E+02
  0
LINE
  8
0
 62
7
 10
3.66000008E+02
 20
-3.19500000E+02
 11
3.66000008E+02
 21
-2.81999992E+02
  0
LINE
  8
0
  6
CENTER
 62
2
 10
3.80000038E+02
 20
-3.07585487E+02
 11
3.80000038E+02
 21
-2.79614937E+02
  0
LINE
  8
0
 62
7
 10
3.93999962E+02
 20
-2.81999992E+02
 11
3.66000008E+02
 21
-2.81999992E+02
  0
LINE
  8
0
 62
7
 10
3.93999962E+02
 20
-2.82488777E+02
 11
3.93999962E+02
 21
-2.81999992E+02
  0
LINE
  8
0
 62
7
 10
3.97508698E+02
 20
-2.82550058E+02
 11
3.65999978E+02
 21
-2.82000071E+02
  0
LINE
  8
0
 62
7
 10
3.99499992E+02
 20
-3.00500000E+02
 11
3.97999992E+02
 21
-3.00500000E+02
  0
LINE
  8
0
 62
7
 10
4.12500038E+02
 20
-3.02500008E+02
 11
4.07991417E+02
 21
-3.02500008E+02
  0
LINE
  8
0
 62
7
 10
4.07758691E+02
 20
-3.02241536E+02
 11
3.99999977E+02
 21
-3.01970595E+02
  0
LINE
  8
0
 62
7
 10
4.07999977E+02
 20
-3.02500008E+02
 11
4.07999977E+02
 21
-3.02491455E+02
  0
LINE
  8
0
 62
7
 10
4.20000099E+02
 20
-3.14232147E+02
 11
4.16000038E+02
 21
-3.14232147E+02
  0
LINE
  8
0
 62
7
 10
4.19999977E+02
 20
-3.09499954E+02
 11
4.19999977E+02
 21
-3.14232132E+02
  0
LINE
  8
0
 62
7
 10
4.53499931E+02
 20
-3.10500000E+02
 11
4.45999977E+02
 21
-3.10500000E+02
  0
LINE
  8
0
 62
2
 10
4.54319939E+02
 20
-3.11320007E+02
 11
4.45999977E+02
 21
-3.11320007E+02
  0
LINE
  8
0
 62
7
 10
4.54999885E+02
 20
-3.12000188E+02
 11
4.53499838E+02
 21
-3.10500188E+02
  0
LINE
  8
0
 62
7
 10
4.20000099E+02
 20
-3.09500015E+02
 11
4.13000053E+02
 21
-3.09500015E+02
  0
LINE
  8
0
 62
7
 10
4.22999976E+02
 20
-3.16377557E+02
 11
4.19999987E+02
 21
-3.14232460E+02
  0
LINE
  8
0
 62
7
 10
4.22999955E+02
 20
-3.10500024E+02
 11
4.19999967E+02
 21
-3.09500041E+02
  0
LINE
  8
0
 62
7
 10
4.25999962E+02
 20
-3.11320007E+02
 11
4.22999977E+02
 21
-3.11320007E+02
  0
ARC
  8
0
 62
7
 10
3.99499992E+02
 20
-3.00999992E+02
 40
5.00000000E-01
 50
3.59999981E+02
 51
8.99999635E+01
  0
ARC
  8
0
 62
7
 10
4.07749992E+02
 20
-3.02491455E+02
 40
2.50000000E-01
 50
3.59999981E+02
 51
8.80011361E+01
  0
ARC
  8
0
 62
7
 10
4.12500038E+02
 20
-3.03000031E+02
 40
5.00000000E-01
 50
3.59999981E+02
 51
8.99999635E+01
  0
ARC
  8
0
 62
7
 10
3.97500023E+02
 20
-2.83049919E+02
 40
5.00000000E-01
 50
3.59999913E+02
 51
8.89996480E+01
  0
ARC
  8
0
 62
4
 10
4.41900698E+02
 20
-3.07808657E+02
 40
6.90072132E+00
 50
1.45615752E+02
 51
2.14384248E+02
  0
ARC
  8
0
 62
4
 10
4.39099256E+02
 20
-3.07808657E+02
 40
6.90072132E+00
 50
3.25615752E+02
 51
3.43842480E+01
  0
LINE
  8
0
 62
4
 10
4.36205748E+02
 20
-3.03911543E+02
 11
4.34999977E+02
 21
-3.06000000E+02
  0
LINE
  8
0
 62
4
 10
4.44794206E+02
 20
-3.03911543E+02
 11
4.45999977E+02
 21
-3.06000000E+02
  0
LINE
  8
0
 62
4
 10
4.44794206E+02
 20
-3.11705771E+02
 11
4.36205748E+02
 21
-3.11705771E+02
  0
LINE
  8
0
 62
4
 10
4.44794206E+02
 20
-3.03911543E+02
 11
4.36205748E+02
 21
-3.03911543E+02
  0
LINE
  8
0
 62
7
 10
4.34999977E+02
 20
-3.10500000E+02
 11
4.25999962E+02
 21
-3.10500000E+02
  0
LINE
  8
0
 62
2
 10
4.34999977E+02
 20
-3.11320007E+02
 11
4.25999962E+02
 21
-3.11320007E+02
  0
LINE
  8
0
  6
CENTER
 62
2
 10
4.57028145E+02
 20
-3.19500000E+02
 11
2.78139138E+02
 21
-3.19500000E+02
  0
LINE
  8
0
 62
2
 10
2.72521717E+02
 20
-3.29229658E+02
 11
3.01263149E+02
 21
-2.79448038E+02
  0
LINE
  8
0
 62
7
 10
3.61781316E+02
 20
-2.85500008E+02
 11
3.66000008E+02
 21
-2.85500008E+02
  0
LINE
  8
0
 62
7
 10
3.57500008E+02
 20
-2.87899986E+02
 11
3.66000008E+02
 21
-2.87899986E+02
  0
LINE
  8
0
 62
7
 10
3.57500008E+02
 20
-2.95100029E+02
 11
3.66000008E+02
 21
-2.95100029E+02
  0
LINE
  8
0
  6
CENTER
 62
2
 10
3.57500008E+02
 20
-2.91499992E+02
 11
4.01248100E+02
 21
-2.91499992E+02
  0
TEXT
  8
0
 10
-7.72146873E+01
 20
3.54316712E+02
 40
9.00000000E+00
  1
STRETCH LINE
 41
1.05263158E+00
  7
MONOTXT
  0
LINE
  8
0
 62
7
 10
5.74500000E+02
 20
4.00500000E+02
 11
5.74500000E+02
 21
-4.00500000E+02
  0
LINE
  8
0
 62
7
 10
-5.64500000E+02
 20
4.00500000E+02
 11
5.74500000E+02
 21
4.00500000E+02
  0
LINE
  8
0
 62
7
 10
-5.64500000E+02
 20
-4.00500000E+02
 11
5.74500000E+02
 21
-4.00500000E+02
  0
LINE
  8
0
 62
7
 10
-5.64500000E+02
 20
4.00500000E+02
 11
-5.64500000E+02
 21
-4.00500000E+02
  0
LINE
  8
0
 62
7
 10
-5.64500000E+02
 20
3.70500000E+02
 11
-3.34500000E+02
 21
3.70500000E+02
  0
LINE
  8
0
 62
7
 10
3.44500000E+02
 20
3.70500000E+02
 11
5.74500000E+02
 21
3.70500000E+02
  0
LINE
  8
0
 62
7
 10
3.44500000E+02
 20
-3.70500000E+02
 11
5.74500000E+02
 21
-3.70500000E+02
  0
LINE
  8
0
 62
7
 10
3.44500000E+02
 20
-3.70500000E+02
 11
3.44500000E+02
 21
-4.00500000E+02
  0
LINE
  8
0
 62
7
 10
3.44500000E+02
 20
4.00500000E+02
 11
3.44500000E+02
 21
3.70500000E+02
  0
LINE
  8
0
 62
7
 10
-3.34500000E+02
 20
4.00500000E+02
 11
-3.34500000E+02
 21
3.70500000E+02
  0
TEXT
  8
0
 62
7
 10
-5.37179687E+02
 20
3.34250000E+02
 40
1.25000000E+01
  1
MODEL:DDAE63*75
 41
1.00000015E+00
  7
MONOTXT
  0
TEXT
  8
0
 62
7
 10
4.11285149E+02
 20
3.79250000E+02
 40
1.25000000E+01
  1
Ver. 1.0
 41
1.08108125E+00
  7
MONOTXT
  0
TEXT
  8
0
 62
7
 10
3.50070624E+02
 20
-3.94500000E+02
 40
1.80000000E+01
  1
KOGANEI CORP.
 41
1.04838710E+00
  7
MONOTXT
  0
TEXT
  8
0
 62
7
 10
-5.53964859E+02
 20
3.79250000E+02
 40
1.25000000E+01
  1
NEW DYNA CYLINDER
 41
1.07594953E+00
  7
MONOTXT
  0
ENDSEC
  0
EOF
