  0
SECTION
  2
HEADER
  9
$ACADVER
  1
AC1003
  9
$EXTMIN
 10
-4.09780242E+02
 20
-2.76750000E+02
  9
$EXTMAX
 10
3.99799805E+02
 20
2.76250000E+02
  9
$LIMMIN
 10
-4.09781242E+02
 20
-2.76751000E+02
  9
$LIMMAX
 10
3.99800805E+02
 20
2.76251000E+02
  9
$SNAPUNIT
 10
1
 20
1
  9
$SNAPBASE
 10
0
 20
0
  9
$GRIDMODE
 70
0
  9
$GRIDUNIT
 10
0
 20
0
  9
$LTSCALE
 40
1.34930008E+01
  9
$TEXTSIZE
 40
3.2
  9
$DIMTAD
 70
0
  9
$LUNITS
 70
2
  9
$LUPREC
 70
4
  9
$FILLETRAD
 40
0
  9
$AUNITS
 70
0
  9
$AUPREC
 70
0
  0
ENDSEC
  0
SECTION
  2
TABLES
  0
TABLE
  2
LTYPE
 70
2
  0
LTYPE
  2
CONTINUOUS
 70
64
  3
Solid-Line
 72
65
 73
0
 40
0
  0
LTYPE
  2
DASHED
 70
64
  3
DASHED
 72
65
 73
2
 40
.75
 49
.5
 49
-.25
  0
LTYPE
  2
HIDDEN
 70
64
  3
HIDDEN
 72
65
 73
2
 40
.375
 49
.25
 49
-.125
  0
LTYPE
  2
CENTER
 70
64
  3
CENTER
 72
65
 73
4
 40
2
 49
1.25
 49
-.25
 49
.25
 49
-.25
  0
LTYPE
  2
PHANTOM
 70
64
  3
PHANTOM
 72
65
 73
6
 40
2.5
 49
1.25
 49
-.25
 49
.25
 49
-.25
 49
.25
 49
-.25
  0
ENDTAB
  0
TABLE
  2
LAYER
 70
1
  0
LAYER
  2
1
 70
0
 62
7
  6
CONTINUOUS
 0
ENDTAB
  0
TABLE
  2
STYLE
 70
2
  0
STYLE
  2
MONOTXT
 70
0
 40
0
 41
1
 50
0
 71
0
 42
.2
  3
monotxt
  0
STYLE
  2
BIGFONT
 70
0
 40
0
 41
1
 50
0
 71
0
 42
.2
  3
txt
  4
bigfont
  0
ENDTAB
  0
ENDSEC
  0
SECTION
  2
ENTITIES
  0
LINE
  8
0
  6
PHANTOM
 10
-5.92500000E+01
 20
1.26842335E+02
 11
-5.92500000E+01
 21
2.71367846E+01
  0
LINE
  8
0
 62
7
 10
-8.25001526E+00
 20
4.63694799E+01
 11
-1.14250015E+02
 21
4.63694799E+01
  0
LINE
  8
0
  6
CENTER
 62
2
 10
-1.96946304E+02
 20
6.83694647E+01
 11
1.21238940E+02
 21
6.83694647E+01
  0
LINE
  8
0
 62
7
 10
-1.59750046E+02
 20
5.33694265E+01
 11
-1.55241074E+02
 21
5.33694265E+01
  0
LINE
  8
0
 62
7
 10
1.77500000E+01
 20
4.33694647E+01
 11
-8.25001526E+00
 21
4.33694647E+01
  0
LINE
  8
0
 62
7
 10
2.27500218E+01
 20
4.41550455E+01
 11
-7.25007062E+00
 21
4.33694654E+01
  0
LINE
  8
0
 62
7
 10
-1.55008684E+02
 20
5.31110070E+01
 11
-1.47249101E+02
 21
5.28400364E+01
  0
LINE
  8
0
 62
7
 10
1.77499924E+01
 20
4.40240667E+01
 11
1.77499924E+01
 21
4.33694647E+01
  0
LINE
  8
0
  6
CENTER
 62
2
 10
-1.27249985E+02
 20
7.93600500E+01
 11
-1.27249985E+02
 21
9.49182318E+01
  0
LINE
  8
0
 62
7
 10
-1.46750015E+02
 20
5.23694647E+01
 11
-1.45249985E+02
 21
5.23694647E+01
  0
LINE
  8
0
 62
7
 10
-1.40249985E+02
 20
4.33694647E+01
 11
-1.14250015E+02
 21
4.33694647E+01
  0
LINE
  8
0
 62
7
 10
-1.45250088E+02
 20
4.41550214E+01
 11
-1.15250850E+02
 21
4.33694637E+01
  0
LINE
  8
0
 62
7
 10
-1.40249985E+02
 20
4.40240667E+01
 11
-1.40249985E+02
 21
4.33694647E+01
  0
LINE
  8
0
  6
CENTER
 62
2
 10
4.74996185E+00
 20
7.89897573E+01
 11
4.74996185E+00
 21
9.49182318E+01
  0
LINE
  8
0
 62
7
 10
2.27499924E+01
 20
4.33694647E+01
 11
3.67499847E+01
 21
4.33694647E+01
  0
LINE
  8
0
 62
7
 10
3.67499847E+01
 20
5.62194631E+01
 11
3.87499924E+01
 21
5.62194631E+01
  0
LINE
  8
0
 62
7
 10
4.76241301E+01
 20
5.74194838E+01
 11
4.87499616E+01
 21
5.93694814E+01
  0
LINE
  8
0
 62
7
 10
3.87499924E+01
 20
5.74194754E+01
 11
4.76241608E+01
 21
5.74194754E+01
  0
LINE
  8
0
 62
7
 10
3.87499924E+01
 20
6.28944662E+01
 11
4.76241608E+01
 21
6.28944662E+01
  0
LINE
  8
0
 62
7
 10
1.08749993E+02
 20
7.33694647E+01
 11
1.08749993E+02
 21
6.33694647E+01
  0
LINE
  8
0
 62
7
 10
1.18749993E+02
 20
7.23694647E+01
 11
1.18749993E+02
 21
6.43694723E+01
  0
LINE
  8
0
 62
7
 10
1.08749993E+02
 20
6.33694647E+01
 11
1.10749991E+02
 21
6.33694647E+01
  0
LINE
  8
0
 62
2
 10
4.87499924E+01
 20
6.31894720E+01
 11
1.08569982E+02
 21
6.31894720E+01
  0
LINE
  8
0
 62
7
 10
4.87499924E+01
 20
6.23694647E+01
 11
1.07749989E+02
 21
6.23694647E+01
  0
LINE
  8
0
 62
7
 10
1.07749975E+02
 20
6.23694769E+01
 11
1.08749970E+02
 21
6.33694726E+01
  0
LINE
  8
0
 62
7
 10
1.07749989E+02
 20
7.43694723E+01
 11
1.07749989E+02
 21
6.23694647E+01
  0
LINE
  8
0
 62
7
 10
1.10749991E+02
 20
6.43694723E+01
 11
1.18749993E+02
 21
6.43694723E+01
  0
LINE
  8
0
 62
7
 10
1.10749991E+02
 20
6.53694647E+01
 11
1.18749993E+02
 21
6.53694647E+01
  0
LINE
  8
0
 62
7
 10
1.10750000E+02
 20
7.13694647E+01
 11
1.10750000E+02
 21
6.53694647E+01
  0
LINE
  8
0
 62
7
 10
1.10750000E+02
 20
6.43694723E+01
 11
1.10750000E+02
 21
6.33694647E+01
  0
LINE
  8
0
 62
2
 10
1.10749965E+02
 20
6.53694993E+01
 11
1.18749959E+02
 21
7.13694950E+01
  0
LINE
  8
0
 62
2
 10
1.10749998E+02
 20
7.13695001E+01
 11
1.18749999E+02
 21
6.53694998E+01
  0
LINE
  8
0
 62
7
 10
1.08749993E+02
 20
7.33694647E+01
 11
1.10749991E+02
 21
7.33694647E+01
  0
LINE
  8
0
 62
7
 10
1.08749984E+02
 20
7.33694423E+01
 11
1.07749990E+02
 21
7.43694389E+01
  0
LINE
  8
0
 62
7
 10
1.10749991E+02
 20
7.23694647E+01
 11
1.18749993E+02
 21
7.23694647E+01
  0
LINE
  8
0
 62
7
 10
1.10750000E+02
 20
7.33694647E+01
 11
1.10750000E+02
 21
7.23694647E+01
  0
LINE
  8
0
 62
7
 10
1.10749991E+02
 20
7.13694647E+01
 11
1.18749993E+02
 21
7.13694647E+01
  0
LINE
  8
0
  6
CENTER
 62
2
 10
-1.45895737E+02
 20
4.98694723E+01
 11
3.96235504E+01
 21
4.98694723E+01
  0
LINE
  8
0
 62
7
 10
-8.25001526E+00
 20
9.03694494E+01
 11
-1.47500153E+01
 21
9.03694494E+01
  0
LINE
  8
0
 62
7
 10
-1.60249985E+02
 20
5.38694570E+01
 11
-1.60249985E+02
 21
8.28694723E+01
  0
LINE
  8
0
 62
7
 10
-1.59750046E+02
 20
8.33695028E+01
 11
-1.55241074E+02
 21
8.33695028E+01
  0
LINE
  8
0
 62
7
 10
-8.25001526E+00
 20
4.33694647E+01
 11
-8.25001526E+00
 21
9.33694647E+01
  0
LINE
  8
0
 62
7
 10
2.27499924E+01
 20
4.33694647E+01
 11
2.27499924E+01
 21
9.33694647E+01
  0
LINE
  8
0
 62
7
 10
1.77500000E+01
 20
9.33694647E+01
 11
-8.25001526E+00
 21
9.33694647E+01
  0
LINE
  8
0
 62
7
 10
2.27500230E+01
 20
9.25838893E+01
 11
-7.25007699E+00
 21
9.33694696E+01
  0
LINE
  8
0
 62
7
 10
-1.55008680E+02
 20
8.36279126E+01
 11
-1.47249097E+02
 21
8.38988832E+01
  0
LINE
  8
0
 62
7
 10
1.77499924E+01
 20
9.27148626E+01
 11
1.77499924E+01
 21
9.33694647E+01
  0
LINE
  8
0
 62
7
 10
-1.47250046E+02
 20
5.28400457E+01
 11
-1.47250046E+02
 21
8.38988836E+01
  0
LINE
  8
0
 62
7
 10
-1.55249985E+02
 20
5.33694265E+01
 11
-1.55249985E+02
 21
8.33695028E+01
  0
LINE
  8
0
 62
7
 10
-1.46750015E+02
 20
8.43694647E+01
 11
-1.45249985E+02
 21
8.43694647E+01
  0
LINE
  8
0
 62
7
 10
-1.14250015E+02
 20
4.33694647E+01
 11
-1.14250015E+02
 21
9.33694647E+01
  0
LINE
  8
0
 62
7
 10
-1.45249985E+02
 20
4.41550253E+01
 11
-1.45249985E+02
 21
9.25839117E+01
  0
LINE
  8
0
 62
7
 10
-1.40249985E+02
 20
9.33694647E+01
 11
-1.14250015E+02
 21
9.33694647E+01
  0
LINE
  8
0
 62
7
 10
-1.45250089E+02
 20
9.25839058E+01
 11
-1.15250836E+02
 21
9.33694639E+01
  0
LINE
  8
0
 62
7
 10
-1.40249985E+02
 20
9.27148626E+01
 11
-1.40249985E+02
 21
9.33694647E+01
  0
LINE
  8
0
 62
7
 10
2.27499924E+01
 20
9.33694647E+01
 11
3.67499847E+01
 21
9.33694647E+01
  0
LINE
  8
0
 62
7
 10
3.67499847E+01
 20
8.05194662E+01
 11
3.87499924E+01
 21
8.05194662E+01
  0
LINE
  8
0
 62
7
 10
4.76241316E+01
 20
7.93194489E+01
 11
4.87499631E+01
 21
7.73694512E+01
  0
LINE
  8
0
 62
7
 10
4.87499847E+01
 20
5.93694723E+01
 11
4.87499847E+01
 21
7.73694570E+01
  0
LINE
  8
0
 62
7
 10
3.87499924E+01
 20
7.93194540E+01
 11
4.76241608E+01
 21
7.93194540E+01
  0
LINE
  8
0
 62
7
 10
3.67499847E+01
 20
4.33694647E+01
 11
3.67499847E+01
 21
9.33694647E+01
  0
LINE
  8
0
 62
7
 10
3.87499924E+01
 20
5.62194631E+01
 11
3.87499924E+01
 21
8.05194662E+01
  0
LINE
  8
0
 62
7
 10
3.87499924E+01
 20
7.38444631E+01
 11
4.76241608E+01
 21
7.38444631E+01
  0
LINE
  8
0
 62
2
 10
4.87499924E+01
 20
7.35494573E+01
 11
1.08569982E+02
 21
7.35494573E+01
  0
LINE
  8
0
 62
7
 10
4.87499924E+01
 20
7.43694647E+01
 11
1.07749989E+02
 21
7.43694647E+01
  0
LINE
  8
0
  6
CENTER
 62
2
 10
-1.45895737E+02
 20
8.68694570E+01
 11
3.96235504E+01
 21
8.68694570E+01
  0
LINE
  8
0
 62
7
 10
-1.67249985E+02
 20
6.44964788E+01
 11
-1.67249985E+02
 21
6.03694494E+01
  0
LINE
  8
0
 62
7
 10
-1.70249985E+02
 20
6.13694342E+01
 11
-1.70249985E+02
 21
7.53694494E+01
  0
LINE
  8
0
 62
7
 10
-1.67249985E+02
 20
6.03694494E+01
 11
-1.60250000E+02
 21
6.03694494E+01
  0
LINE
  8
0
 62
7
 10
-1.67249985E+02
 20
7.22424505E+01
 11
-1.67249985E+02
 21
7.63694342E+01
  0
LINE
  8
0
 62
7
 10
-1.63249985E+02
 20
6.44964788E+01
 11
-1.63249985E+02
 21
7.22424505E+01
  0
LINE
  8
0
 62
7
 10
-1.94249954E+02
 20
6.28694189E+01
 11
-1.94249954E+02
 21
7.38694494E+01
  0
LINE
  8
0
 62
7
 10
-1.92749954E+02
 20
7.53694494E+01
 11
-1.87749985E+02
 21
7.53694494E+01
  0
LINE
  8
0
 62
7
 10
-1.92749954E+02
 20
6.13694342E+01
 11
-1.87749985E+02
 21
6.13694342E+01
  0
LINE
  8
0
 62
2
 10
-1.93569901E+02
 20
7.45494573E+01
 11
-1.87749985E+02
 21
7.45494573E+01
  0
LINE
  8
0
 62
2
 10
-1.93569901E+02
 20
6.21894262E+01
 11
-1.87749985E+02
 21
6.21894262E+01
  0
LINE
  8
0
 62
7
 10
-1.92749954E+02
 20
7.53694494E+01
 11
-1.92749954E+02
 21
6.13694342E+01
  0
LINE
  8
0
 62
7
 10
-1.73249985E+02
 20
7.53694494E+01
 11
-1.73249985E+02
 21
6.13694342E+01
  0
LINE
  8
0
 62
7
 10
-1.94249865E+02
 20
7.38693661E+01
 11
-1.92749919E+02
 21
7.53693582E+01
  0
LINE
  8
0
 62
7
 10
-1.94249969E+02
 20
6.28694289E+01
 11
-1.92749956E+02
 21
6.13694165E+01
  0
LINE
  8
0
 62
7
 10
-1.67249969E+02
 20
7.22424505E+01
 11
-1.63249985E+02
 21
7.22424505E+01
  0
LINE
  8
0
 62
7
 10
-1.67249969E+02
 20
6.44964788E+01
 11
-1.63249985E+02
 21
6.44964788E+01
  0
LINE
  8
0
 62
2
 10
-1.68634577E+02
 20
6.62839953E+01
 11
-1.63249958E+02
 21
7.22424390E+01
  0
LINE
  8
0
 62
2
 10
-1.68634588E+02
 20
7.04549218E+01
 11
-1.63249973E+02
 21
6.44964837E+01
  0
LINE
  8
0
 62
7
 10
-1.67249985E+02
 20
7.63694799E+01
 11
-1.60250000E+02
 21
7.63694799E+01
  0
LINE
  8
0
 62
7
 10
-1.70249994E+02
 20
6.83694717E+01
 11
-1.67249993E+02
 21
7.22424587E+01
  0
LINE
  8
0
 62
7
 10
-1.67249983E+02
 20
7.63694890E+01
 11
-1.70249988E+02
 21
7.53694568E+01
  0
LINE
  8
0
 62
7
 10
-1.70249975E+02
 20
6.83694495E+01
 11
-1.67249981E+02
 21
6.44964715E+01
  0
LINE
  8
0
 62
7
 10
-1.70249964E+02
 20
6.13694302E+01
 11
-1.67249974E+02
 21
6.03694489E+01
  0
LINE
  8
0
 62
7
 10
-1.73249985E+02
 20
7.45494573E+01
 11
-1.70249985E+02
 21
7.45494573E+01
  0
LINE
  8
0
 62
7
 10
-1.73249985E+02
 20
6.21894262E+01
 11
-1.70249985E+02
 21
6.21894262E+01
  0
ARC
  8
0
 62
7
 10
-1.59750046E+02
 20
5.38694570E+01
 40
5.00000000E-01
 50
1.79999977E+02
 51
2.69999974E+02
  0
ARC
  8
0
 62
7
 10
-1.46750015E+02
 20
5.28694647E+01
 40
5.00000000E-01
 50
1.79999977E+02
 51
2.69999974E+02
  0
ARC
  8
0
 62
7
 10
-1.54999985E+02
 20
5.33608663E+01
 40
2.50000000E-01
 50
1.79999977E+02
 51
2.67999192E+02
  0
ARC
  8
0
 62
7
 10
3.48743362E+01
 20
6.83694647E+01
 40
1.38756552E+01
 50
3.36760478E+02
 51
0.00000000E+00
  0
ARC
  8
0
 62
7
 10
4.52279510E+01
 20
6.03131979E+01
 40
3.52204657E+00
 50
3.29999958E+02
 51
4.71291385E+01
  0
ARC
  8
0
 62
7
 10
-1.59750046E+02
 20
8.28694723E+01
 40
5.00000000E-01
 50
9.00000300E+01
 51
1.80000019E+02
  0
ARC
  8
0
 62
7
 10
-1.46750015E+02
 20
8.38694647E+01
 40
5.00000000E-01
 50
9.00000300E+01
 51
1.80000019E+02
  0
ARC
  8
0
 62
7
 10
-1.54999985E+02
 20
8.33780630E+01
 40
2.50000000E-01
 50
9.20008106E+01
 51
1.80000019E+02
  0
ARC
  8
0
 62
7
 10
3.48743362E+01
 20
6.83694647E+01
 40
1.38756552E+01
 50
0.00000000E+00
 51
2.32395223E+01
  0
ARC
  8
0
 62
7
 10
4.52279510E+01
 20
7.64257315E+01
 40
3.52204657E+00
 50
3.12870862E+02
 51
3.00000418E+01
  0
ARC
  8
0
 62
7
 10
-1.70249985E+02
 20
6.83694647E+01
 40
8.00000000E+00
 50
3.31044960E+02
 51
2.89550399E+01
  0
LINE
  8
0
 62
4
 10
-1.86767504E+02
 20
8.10711706E+01
 11
-1.80732465E+02
 21
8.10711706E+01
  0
LINE
  8
0
 62
4
 10
-1.86767504E+02
 20
7.47203176E+01
 11
-1.80732465E+02
 21
7.47203176E+01
  0
LINE
  8
0
 62
4
 10
-1.86767504E+02
 20
6.20186117E+01
 11
-1.80732465E+02
 21
6.20186117E+01
  0
LINE
  8
0
 62
4
 10
-1.87749985E+02
 20
5.73694647E+01
 11
-1.87749985E+02
 21
7.93694647E+01
  0
LINE
  8
0
 62
4
 10
-1.79749985E+02
 20
5.73694647E+01
 11
-1.79749985E+02
 21
7.93694647E+01
  0
LINE
  8
0
 62
4
 10
-1.87749985E+02
 20
7.93694646E+01
 11
-1.86767504E+02
 21
8.10711705E+01
  0
LINE
  8
0
 62
4
 10
-1.79749985E+02
 20
7.93694647E+01
 11
-1.80732465E+02
 21
8.10711707E+01
  0
LINE
  8
0
 62
4
 10
-1.87749985E+02
 20
5.73694647E+01
 11
-1.86767504E+02
 21
5.56677588E+01
  0
LINE
  8
0
 62
4
 10
-1.79749985E+02
 20
5.73694647E+01
 11
-1.80732465E+02
 21
5.56677586E+01
  0
LINE
  8
0
 62
4
 10
-1.86767504E+02
 20
5.56677587E+01
 11
-1.80732465E+02
 21
5.56677587E+01
  0
ARC
  8
0
 62
4
 10
-1.82127175E+02
 20
7.78957441E+01
 40
5.62281003E+00
 50
1.45615752E+02
 51
2.14384247E+02
  0
ARC
  8
0
 62
4
 10
-1.66732465E+02
 20
6.83694646E+01
 40
2.10175199E+01
 50
1.62412046E+02
 51
1.97587953E+02
  0
ARC
  8
0
 62
4
 10
-1.82127175E+02
 20
5.88431852E+01
 40
5.62281017E+00
 50
1.45615753E+02
 51
2.14384247E+02
  0
ARC
  8
0
 62
4
 10
-1.85372795E+02
 20
7.78957441E+01
 40
5.62281003E+00
 50
3.25615753E+02
 51
3.43842476E+01
  0
ARC
  8
0
 62
4
 10
-2.00767505E+02
 20
6.83694646E+01
 40
2.10175199E+01
 50
3.42412047E+02
 51
1.75879537E+01
  0
ARC
  8
0
 62
4
 10
-1.85372795E+02
 20
5.88431852E+01
 40
5.62281017E+00
 50
3.25615753E+02
 51
3.43842467E+01
  0
LINE
  8
0
 62
7
 10
-1.79749985E+02
 20
7.53694494E+01
 11
-1.73249985E+02
 21
7.53694494E+01
  0
LINE
  8
0
 62
2
 10
-1.79749985E+02
 20
7.45494573E+01
 11
-1.73249985E+02
 21
7.45494573E+01
  0
LINE
  8
0
 62
2
 10
-1.79749985E+02
 20
6.21894262E+01
 11
-1.73249985E+02
 21
6.21894262E+01
  0
LINE
  8
0
 62
7
 10
-1.79749985E+02
 20
6.13694342E+01
 11
-1.73249985E+02
 21
6.13694342E+01
  0
LINE
  8
0
 62
7
 10
-1.14250015E+02
 20
8.42194631E+01
 11
-4.47500153E+01
 21
8.42194631E+01
  0
LINE
  8
0
 62
7
 10
-1.14250015E+02
 20
8.95194509E+01
 11
-4.47500153E+01
 21
8.95194509E+01
  0
LINE
  8
0
 62
7
 10
-1.14250015E+02
 20
5.25194509E+01
 11
-8.25011444E+00
 21
5.25194509E+01
  0
LINE
  8
0
 62
7
 10
-1.14250015E+02
 20
4.72194631E+01
 11
-8.25011444E+00
 21
4.72194631E+01
  0
LINE
  8
0
 62
4
 10
-7.37500153E+01
 20
9.53593081E+01
 11
-7.37500153E+01
 21
1.06875895E+02
  0
LINE
  8
0
 62
6
 10
-5.30179034E+01
 20
9.68593081E+01
 11
-5.64820050E+01
 21
9.08593081E+01
  0
LINE
  8
0
 62
6
 10
-6.54820661E+01
 20
9.08593080E+01
 11
-6.20179645E+01
 21
9.68593080E+01
  0
LINE
  8
0
 62
4
 10
-4.47499542E+01
 20
9.53593081E+01
 11
-5.38839288E+01
 21
9.53593081E+01
  0
LINE
  8
0
  6
CENTER
 62
6
 10
-9.74995422E+00
 20
9.38593081E+01
 11
-5.67499542E+01
 21
9.38593081E+01
  0
LINE
  8
0
 62
4
 10
-4.47499542E+01
 20
9.23593081E+01
 11
-5.56159796E+01
 21
9.23593081E+01
  0
LINE
  8
0
 62
4
 10
-8.02500153E+01
 20
9.23593081E+01
 11
-6.46160406E+01
 21
9.23593081E+01
  0
LINE
  8
0
  6
CENTER
 62
6
 10
-1.08750015E+02
 20
9.38593081E+01
 11
-6.17500153E+01
 21
9.38593081E+01
  0
LINE
  8
0
 62
4
 10
-8.02500153E+01
 20
9.53593081E+01
 11
-6.28839898E+01
 21
9.53593081E+01
  0
LINE
  8
0
 62
4
 10
-1.32500153E+01
 20
9.51683633E+01
 11
-1.32500153E+01
 21
9.25444606E+01
  0
LINE
  8
0
 62
4
 10
-1.32500153E+01
 20
9.25444606E+01
 11
-1.47500153E+01
 21
9.15423962E+01
  0
LINE
  8
0
 62
4
 10
-1.32500153E+01
 20
9.29377737E+01
 11
-1.47500153E+01
 21
9.22369889E+01
  0
LINE
  8
0
 62
4
 10
-1.47500153E+01
 20
9.61762199E+01
 11
-1.32500153E+01
 21
9.51683633E+01
  0
LINE
  8
0
 62
4
 10
-8.58127704E+01
 20
9.61762199E+01
 11
-8.02500153E+01
 21
9.61762199E+01
  0
LINE
  8
0
 62
4
 10
-8.54128922E+01
 20
9.66338942E+01
 11
-7.37500153E+01
 21
9.66338942E+01
  0
LINE
  8
0
  6
CENTER
 62
6
 10
-7.87500153E+01
 20
1.02444260E+02
 11
-8.37500153E+01
 21
1.02444260E+02
  0
LINE
  8
0
  6
CENTER
 62
6
 10
-8.12500153E+01
 20
1.04944260E+02
 11
-8.12500153E+01
 21
9.99442599E+01
  0
LINE
  8
0
  6
CENTER
 62
6
 10
-8.62500153E+01
 20
9.89974328E+01
 11
-9.12500153E+01
 21
9.89974328E+01
  0
LINE
  8
0
  6
CENTER
 62
6
 10
-8.87500153E+01
 20
1.01497433E+02
 11
-8.87500153E+01
 21
9.64974328E+01
  0
LINE
  8
0
  6
CENTER
 62
6
 10
-9.37500153E+01
 20
1.02444260E+02
 11
-9.87500153E+01
 21
1.02444260E+02
  0
LINE
  8
0
  6
CENTER
 62
6
 10
-9.62500153E+01
 20
1.04944260E+02
 11
-9.62500153E+01
 21
9.99442599E+01
  0
POLYLINE
  8
0
 62
4
 66
1
  0
VERTEX
  8
0
 62
4
 10
-9.29000153E+01
 20
9.90634191E+01
  0
VERTEX
  8
0
 62
4
 10
-9.28833086E+01
 20
9.86970675E+01
  0
VERTEX
  8
0
 62
4
 10
-9.28333231E+01
 20
9.83336656E+01
  0
VERTEX
  8
0
 62
4
 10
-9.27504612E+01
 20
9.79761392E+01
  0
VERTEX
  8
0
 62
4
 10
-9.26353900E+01
 20
9.76273670E+01
  0
VERTEX
  8
0
 62
4
 10
-9.24890361E+01
 20
9.72901570E+01
  0
VERTEX
  8
0
 62
4
 10
-9.23125778E+01
 20
9.69672243E+01
  0
VERTEX
  8
0
 62
4
 10
-9.21074358E+01
 20
9.66611689E+01
  0
VERTEX
  8
0
 62
4
 10
-9.18752619E+01
 20
9.63744550E+01
  0
VERTEX
  8
0
 62
4
 10
-9.16179253E+01
 20
9.61093911E+01
  0
VERTEX
  8
0
 62
4
 10
-9.13374980E+01
 20
9.58681112E+01
  0
VERTEX
  8
0
 62
4
 10
-9.10362378E+01
 20
9.56525581E+01
  0
VERTEX
  8
0
 62
4
 10
-9.07165703E+01
 20
9.54644673E+01
  0
VERTEX
  8
0
 62
4
 10
-9.03810692E+01
 20
9.53053531E+01
  0
VERTEX
  8
0
 62
4
 10
-9.00324358E+01
 20
9.51764966E+01
  0
VERTEX
  8
0
 62
4
 10
-8.96734772E+01
 20
9.50789353E+01
  0
VERTEX
  8
0
 62
4
 10
-8.93070834E+01
 20
9.50134548E+01
  0
VERTEX
  8
0
 62
4
 10
-8.89362044E+01
 20
9.49805822E+01
  0
VERTEX
  8
0
 62
4
 10
-8.85638263E+01
 20
9.49805822E+01
  0
VERTEX
  8
0
 62
4
 10
-8.81929473E+01
 20
9.50134548E+01
  0
VERTEX
  8
0
 62
4
 10
-8.78265534E+01
 20
9.50789353E+01
  0
VERTEX
  8
0
 62
4
 10
-8.74675948E+01
 20
9.51764966E+01
  0
VERTEX
  8
0
 62
4
 10
-8.71189614E+01
 20
9.53053531E+01
  0
VERTEX
  8
0
 62
4
 10
-8.67834604E+01
 20
9.54644673E+01
  0
VERTEX
  8
0
 62
4
 10
-8.64637928E+01
 20
9.56525581E+01
  0
VERTEX
  8
0
 62
4
 10
-8.61625326E+01
 20
9.58681112E+01
  0
VERTEX
  8
0
 62
4
 10
-8.58821053E+01
 20
9.61093910E+01
  0
VERTEX
  8
0
 62
4
 10
-8.56247687E+01
 20
9.63744550E+01
  0
VERTEX
  8
0
 62
4
 10
-8.53925948E+01
 20
9.66611689E+01
  0
VERTEX
  8
0
 62
4
 10
-8.51874528E+01
 20
9.69672243E+01
  0
VERTEX
  8
0
 62
4
 10
-8.50109945E+01
 20
9.72901570E+01
  0
VERTEX
  8
0
 62
4
 10
-8.48646406E+01
 20
9.76273670E+01
  0
VERTEX
  8
0
 62
4
 10
-8.47495694E+01
 20
9.79761392E+01
  0
VERTEX
  8
0
 62
4
 10
-8.46667075E+01
 20
9.83336656E+01
  0
VERTEX
  8
0
 62
4
 10
-8.46167220E+01
 20
9.86970675E+01
  0
VERTEX
  8
0
 62
4
 10
-8.46000153E+01
 20
9.90634191E+01
  0
SEQEND
  8
0
  0
POLYLINE
  8
0
 62
4
 66
1
  0
VERTEX
  8
0
 62
4
 10
-8.46000153E+01
 20
9.93690399E+01
  0
VERTEX
  8
0
 62
4
 10
-8.46158073E+01
 20
9.97252413E+01
  0
VERTEX
  8
0
 62
4
 10
-8.46630631E+01
 20
1.00078732E+02
  0
VERTEX
  8
0
 62
4
 10
-8.47414231E+01
 20
1.00426821E+02
  0
VERTEX
  8
0
 62
4
 10
-8.48502909E+01
 20
1.00766860E+02
  0
VERTEX
  8
0
 62
4
 10
-8.49888380E+01
 20
1.01096261E+02
  0
VERTEX
  8
0
 62
4
 10
-8.51560099E+01
 20
1.01412516E+02
  0
VERTEX
  8
0
 62
4
 10
-8.53505343E+01
 20
1.01713219E+02
  0
VERTEX
  8
0
 62
4
 10
-8.55709309E+01
 20
1.01996082E+02
  0
VERTEX
  8
0
 62
4
 10
-8.58155222E+01
 20
1.02258952E+02
  0
VERTEX
  8
0
 62
4
 10
-8.60824467E+01
 20
1.02499827E+02
  0
VERTEX
  8
0
 62
4
 10
-8.63696731E+01
 20
1.02716875E+02
  0
VERTEX
  8
0
 62
4
 10
-8.66750153E+01
 20
1.02908444E+02
  0
VERTEX
  8
0
 62
4
 10
-8.69961495E+01
 20
1.03073076E+02
  0
VERTEX
  8
0
 62
4
 10
-8.73306317E+01
 20
1.03209519E+02
  0
VERTEX
  8
0
 62
4
 10
-8.76759163E+01
 20
1.03316733E+02
  0
VERTEX
  8
0
 62
4
 10
-8.80293754E+01
 20
1.03393902E+02
  0
VERTEX
  8
0
 62
4
 10
-8.83883190E+01
 20
1.03440440E+02
  0
VERTEX
  8
0
 62
4
 10
-8.87500153E+01
 20
1.03455992E+02
  0
VERTEX
  8
0
 62
4
 10
-8.91117116E+01
 20
1.03440440E+02
  0
VERTEX
  8
0
 62
4
 10
-8.94706552E+01
 20
1.03393902E+02
  0
VERTEX
  8
0
 62
4
 10
-8.98241143E+01
 20
1.03316733E+02
  0
VERTEX
  8
0
 62
4
 10
-9.01693989E+01
 20
1.03209519E+02
  0
VERTEX
  8
0
 62
4
 10
-9.05038811E+01
 20
1.03073076E+02
  0
VERTEX
  8
0
 62
4
 10
-9.08250153E+01
 20
1.02908444E+02
  0
VERTEX
  8
0
 62
4
 10
-9.11303575E+01
 20
1.02716875E+02
  0
VERTEX
  8
0
 62
4
 10
-9.14175839E+01
 20
1.02499827E+02
  0
VERTEX
  8
0
 62
4
 10
-9.16845084E+01
 20
1.02258951E+02
  0
VERTEX
  8
0
 62
4
 10
-9.19290997E+01
 20
1.01996082E+02
  0
VERTEX
  8
0
 62
4
 10
-9.21494963E+01
 20
1.01713219E+02
  0
VERTEX
  8
0
 62
4
 10
-9.23440207E+01
 20
1.01412516E+02
  0
VERTEX
  8
0
 62
4
 10
-9.25111926E+01
 20
1.01096261E+02
  0
VERTEX
  8
0
 62
4
 10
-9.26497397E+01
 20
1.00766860E+02
  0
VERTEX
  8
0
 62
4
 10
-9.27586075E+01
 20
1.00426821E+02
  0
VERTEX
  8
0
 62
4
 10
-9.28369675E+01
 20
1.00078732E+02
  0
VERTEX
  8
0
 62
4
 10
-9.28842233E+01
 20
9.97252412E+01
  0
VERTEX
  8
0
 62
4
 10
-9.29000153E+01
 20
9.93690399E+01
  0
VERTEX
  8
0
 62
4
 10
-9.28842233E+01
 20
9.90128385E+01
  0
VERTEX
  8
0
 62
4
 10
-9.28369675E+01
 20
9.86593481E+01
  0
VERTEX
  8
0
 62
4
 10
-9.27586075E+01
 20
9.83112588E+01
  0
VERTEX
  8
0
 62
4
 10
-9.26497397E+01
 20
9.79712199E+01
  0
VERTEX
  8
0
 62
4
 10
-9.25111926E+01
 20
9.76418193E+01
  0
VERTEX
  8
0
 62
4
 10
-9.23440207E+01
 20
9.73255638E+01
  0
VERTEX
  8
0
 62
4
 10
-9.21494963E+01
 20
9.70248604E+01
  0
VERTEX
  8
0
 62
4
 10
-9.19290997E+01
 20
9.67419977E+01
  0
VERTEX
  8
0
 62
4
 10
-9.16845084E+01
 20
9.64791283E+01
  0
VERTEX
  8
0
 62
4
 10
-9.14175839E+01
 20
9.62382529E+01
  0
VERTEX
  8
0
 62
4
 10
-9.11303575E+01
 20
9.60212047E+01
  0
VERTEX
  8
0
 62
4
 10
-9.08250153E+01
 20
9.58296355E+01
  0
VERTEX
  8
0
 62
4
 10
-9.05038811E+01
 20
9.56650033E+01
  0
VERTEX
  8
0
 62
4
 10
-9.01693989E+01
 20
9.55285611E+01
  0
VERTEX
  8
0
 62
4
 10
-8.98241143E+01
 20
9.54213472E+01
  0
VERTEX
  8
0
 62
4
 10
-8.94706552E+01
 20
9.53441777E+01
  0
VERTEX
  8
0
 62
4
 10
-8.91117116E+01
 20
9.52976398E+01
  0
VERTEX
  8
0
 62
4
 10
-8.87500153E+01
 20
9.52820877E+01
  0
VERTEX
  8
0
 62
4
 10
-8.83883190E+01
 20
9.52976398E+01
  0
VERTEX
  8
0
 62
4
 10
-8.80293754E+01
 20
9.53441777E+01
  0
VERTEX
  8
0
 62
4
 10
-8.76759163E+01
 20
9.54213472E+01
  0
VERTEX
  8
0
 62
4
 10
-8.73306317E+01
 20
9.55285611E+01
  0
VERTEX
  8
0
 62
4
 10
-8.69961495E+01
 20
9.56650033E+01
  0
VERTEX
  8
0
 62
4
 10
-8.66750153E+01
 20
9.58296355E+01
  0
VERTEX
  8
0
 62
4
 10
-8.63696731E+01
 20
9.60212047E+01
  0
VERTEX
  8
0
 62
4
 10
-8.60824467E+01
 20
9.62382529E+01
  0
VERTEX
  8
0
 62
4
 10
-8.58155222E+01
 20
9.64791283E+01
  0
VERTEX
  8
0
 62
4
 10
-8.55709309E+01
 20
9.67419977E+01
  0
VERTEX
  8
0
 62
4
 10
-8.53505343E+01
 20
9.70248604E+01
  0
VERTEX
  8
0
 62
4
 10
-8.51560099E+01
 20
9.73255638E+01
  0
VERTEX
  8
0
 62
4
 10
-8.49888380E+01
 20
9.76418193E+01
  0
VERTEX
  8
0
 62
4
 10
-8.48502909E+01
 20
9.79712199E+01
  0
VERTEX
  8
0
 62
4
 10
-8.47414231E+01
 20
9.83112589E+01
  0
VERTEX
  8
0
 62
4
 10
-8.46630631E+01
 20
9.86593481E+01
  0
VERTEX
  8
0
 62
4
 10
-8.46158073E+01
 20
9.90128386E+01
  0
VERTEX
  8
0
 62
4
 10
-8.46000153E+01
 20
9.93690399E+01
  0
SEQEND
  8
0
  0
LINE
  8
0
 62
4
 10
-9.29000153E+01
 20
9.90634191E+01
 11
-9.29000153E+01
 21
9.93690399E+01
  0
LINE
  8
0
 62
4
 10
-8.46000153E+01
 20
9.90634191E+01
 11
-8.46000153E+01
 21
9.93690399E+01
  0
ARC
  8
0
 62
4
 10
4.36228079E+01
 20
-3.49304531E+01
 40
1.88658103E+02
 50
1.33811210E+02
 51
1.35318357E+02
  0
ARC
  8
0
 62
4
 10
-2.21122550E+02
 20
-3.49301601E+01
 40
1.88657692E+02
 50
4.46816411E+01
 51
4.61887918E+01
  0
LINE
  8
0
 62
4
 10
-8.50500153E+01
 20
1.02444260E+02
 11
-8.50500153E+01
 21
1.02617908E+02
  0
POLYLINE
  8
0
 62
4
 66
1
  0
VERTEX
  8
0
 62
4
 10
-8.50500153E+01
 20
1.02444260E+02
  0
VERTEX
  8
0
 62
4
 10
-8.50347176E+01
 20
1.02108806E+02
  0
VERTEX
  8
0
 62
4
 10
-8.49889478E+01
 20
1.01776052E+02
  0
VERTEX
  8
0
 62
4
 10
-8.49130742E+01
 20
1.01448678E+02
  0
VERTEX
  8
0
 62
4
 10
-8.48077078E+01
 20
1.01129321E+02
  0
VERTEX
  8
0
 62
4
 10
-8.46736970E+01
 20
1.00820550E+02
  0
VERTEX
  8
0
 62
4
 10
-8.45121207E+01
 20
1.00524853E+02
  0
VERTEX
  8
0
 62
4
 10
-8.43242799E+01
 20
1.00244609E+02
  0
VERTEX
  8
0
 62
4
 10
-8.41116869E+01
 20
9.99820760E+01
  0
VERTEX
  8
0
 62
4
 10
-8.38760534E+01
 20
9.97393669E+01
  0
VERTEX
  8
0
 62
4
 10
-8.36192766E+01
 20
9.95184359E+01
  0
VERTEX
  8
0
 62
4
 10
-8.33434239E+01
 20
9.93210620E+01
  0
VERTEX
  8
0
 62
4
 10
-8.30507162E+01
 20
9.91488342E+01
  0
VERTEX
  8
0
 62
4
 10
-8.27435104E+01
 20
9.90031393E+01
  0
VERTEX
  8
0
 62
4
 10
-8.24242799E+01
 20
9.88851503E+01
  0
VERTEX
  8
0
 62
4
 10
-8.20955949E+01
 20
9.87958171E+01
  0
VERTEX
  8
0
 62
4
 10
-8.17601017E+01
 20
9.87358590E+01
  0
VERTEX
  8
0
 62
4
 10
-8.14205017E+01
 20
9.87057588E+01
  0
VERTEX
  8
0
 62
4
 10
-8.10795290E+01
 20
9.87057588E+01
  0
VERTEX
  8
0
 62
4
 10
-8.07399289E+01
 20
9.87358590E+01
  0
VERTEX
  8
0
 62
4
 10
-8.04044358E+01
 20
9.87958170E+01
  0
VERTEX
  8
0
 62
4
 10
-8.00757507E+01
 20
9.88851502E+01
  0
VERTEX
  8
0
 62
4
 10
-7.97565202E+01
 20
9.90031393E+01
  0
VERTEX
  8
0
 62
4
 10
-7.94493144E+01
 20
9.91488342E+01
  0
VERTEX
  8
0
 62
4
 10
-7.91566068E+01
 20
9.93210620E+01
  0
VERTEX
  8
0
 62
4
 10
-7.88807541E+01
 20
9.95184359E+01
  0
VERTEX
  8
0
 62
4
 10
-7.86239772E+01
 20
9.97393668E+01
  0
VERTEX
  8
0
 62
4
 10
-7.83883437E+01
 20
9.99820760E+01
  0
VERTEX
  8
0
 62
4
 10
-7.81757507E+01
 20
1.00244609E+02
  0
VERTEX
  8
0
 62
4
 10
-7.79879099E+01
 20
1.00524853E+02
  0
VERTEX
  8
0
 62
4
 10
-7.78263336E+01
 20
1.00820550E+02
  0
VERTEX
  8
0
 62
4
 10
-7.76923228E+01
 20
1.01129321E+02
  0
VERTEX
  8
0
 62
4
 10
-7.75869564E+01
 20
1.01448678E+02
  0
VERTEX
  8
0
 62
4
 10
-7.75110828E+01
 20
1.01776052E+02
  0
VERTEX
  8
0
 62
4
 10
-7.74653130E+01
 20
1.02108806E+02
  0
VERTEX
  8
0
 62
4
 10
-7.74500153E+01
 20
1.02444260E+02
  0
SEQEND
  8
0
  0
POLYLINE
  8
0
 62
4
 66
1
  0
VERTEX
  8
0
 62
4
 10
-8.50500153E+01
 20
1.02617908E+02
  0
VERTEX
  8
0
 62
4
 10
-8.50355552E+01
 20
1.02291748E+02
  0
VERTEX
  8
0
 62
4
 10
-8.49922848E+01
 20
1.01968070E+02
  0
VERTEX
  8
0
 62
4
 10
-8.49205335E+01
 20
1.01649337E+02
  0
VERTEX
  8
0
 62
4
 10
-8.48208473E+01
 20
1.01337976E+02
  0
VERTEX
  8
0
 62
4
 10
-8.46939849E+01
 20
1.01036357E+02
  0
VERTEX
  8
0
 62
4
 10
-8.45409119E+01
 20
1.00746773E+02
  0
VERTEX
  8
0
 62
4
 10
-8.43627931E+01
 20
1.00471430E+02
  0
VERTEX
  8
0
 62
4
 10
-8.41609842E+01
 20
1.00212424E+02
  0
VERTEX
  8
0
 62
4
 10
-8.39370211E+01
 20
9.99717239E+01
  0
VERTEX
  8
0
 62
4
 10
-8.36926082E+01
 20
9.97511633E+01
  0
VERTEX
  8
0
 62
4
 10
-8.34296058E+01
 20
9.95524203E+01
  0
VERTEX
  8
0
 62
4
 10
-8.31500153E+01
 20
9.93770076E+01
  0
VERTEX
  8
0
 62
4
 10
-8.28559647E+01
 20
9.92262601E+01
  0
VERTEX
  8
0
 62
4
 10
-8.25496919E+01
 20
9.91013250E+01
  0
VERTEX
  8
0
 62
4
 10
-8.22335277E+01
 20
9.90031533E+01
  0
VERTEX
  8
0
 62
4
 10
-8.19098784E+01
 20
9.89324920E+01
  0
VERTEX
  8
0
 62
4
 10
-8.15812071E+01
 20
9.88898790E+01
  0
VERTEX
  8
0
 62
4
 10
-8.12500153E+01
 20
9.88756385E+01
  0
VERTEX
  8
0
 62
4
 10
-8.09188235E+01
 20
9.88898790E+01
  0
VERTEX
  8
0
 62
4
 10
-8.05901522E+01
 20
9.89324920E+01
  0
VERTEX
  8
0
 62
4
 10
-8.02665029E+01
 20
9.90031533E+01
  0
VERTEX
  8
0
 62
4
 10
-7.99503388E+01
 20
9.91013250E+01
  0
VERTEX
  8
0
 62
4
 10
-7.96440659E+01
 20
9.92262600E+01
  0
VERTEX
  8
0
 62
4
 10
-7.93500153E+01
 20
9.93770076E+01
  0
VERTEX
  8
0
 62
4
 10
-7.90704248E+01
 20
9.95524203E+01
  0
VERTEX
  8
0
 62
4
 10
-7.88074224E+01
 20
9.97511633E+01
  0
VERTEX
  8
0
 62
4
 10
-7.85630095E+01
 20
9.99717239E+01
  0
VERTEX
  8
0
 62
4
 10
-7.83390464E+01
 20
1.00212424E+02
  0
VERTEX
  8
0
 62
4
 10
-7.81372375E+01
 20
1.00471430E+02
  0
VERTEX
  8
0
 62
4
 10
-7.79591187E+01
 20
1.00746773E+02
  0
VERTEX
  8
0
 62
4
 10
-7.78060457E+01
 20
1.01036357E+02
  0
VERTEX
  8
0
 62
4
 10
-7.76791833E+01
 20
1.01337976E+02
  0
VERTEX
  8
0
 62
4
 10
-7.75794971E+01
 20
1.01649337E+02
  0
VERTEX
  8
0
 62
4
 10
-7.75077458E+01
 20
1.01968070E+02
  0
VERTEX
  8
0
 62
4
 10
-7.74644754E+01
 20
1.02291748E+02
  0
VERTEX
  8
0
 62
4
 10
-7.74500153E+01
 20
1.02617908E+02
  0
VERTEX
  8
0
 62
4
 10
-7.74644754E+01
 20
1.02944068E+02
  0
VERTEX
  8
0
 62
4
 10
-7.75077458E+01
 20
1.03267746E+02
  0
VERTEX
  8
0
 62
4
 10
-7.75794971E+01
 20
1.03586479E+02
  0
VERTEX
  8
0
 62
4
 10
-7.76791833E+01
 20
1.03897840E+02
  0
VERTEX
  8
0
 62
4
 10
-7.78060457E+01
 20
1.04199459E+02
  0
VERTEX
  8
0
 62
4
 10
-7.79591187E+01
 20
1.04489043E+02
  0
VERTEX
  8
0
 62
4
 10
-7.81372375E+01
 20
1.04764386E+02
  0
VERTEX
  8
0
 62
4
 10
-7.83390464E+01
 20
1.05023392E+02
  0
VERTEX
  8
0
 62
4
 10
-7.85630095E+01
 20
1.05264092E+02
  0
VERTEX
  8
0
 62
4
 10
-7.88074224E+01
 20
1.05484653E+02
  0
VERTEX
  8
0
 62
4
 10
-7.90704248E+01
 20
1.05683396E+02
  0
VERTEX
  8
0
 62
4
 10
-7.93500153E+01
 20
1.05858808E+02
  0
VERTEX
  8
0
 62
4
 10
-7.96440659E+01
 20
1.06009556E+02
  0
VERTEX
  8
0
 62
4
 10
-7.99503387E+01
 20
1.06134491E+02
  0
VERTEX
  8
0
 62
4
 10
-8.02665029E+01
 20
1.06232663E+02
  0
VERTEX
  8
0
 62
4
 10
-8.05901522E+01
 20
1.06303324E+02
  0
VERTEX
  8
0
 62
4
 10
-8.09188235E+01
 20
1.06345937E+02
  0
VERTEX
  8
0
 62
4
 10
-8.12500153E+01
 20
1.06360177E+02
  0
VERTEX
  8
0
 62
4
 10
-8.15812071E+01
 20
1.06345937E+02
  0
VERTEX
  8
0
 62
4
 10
-8.19098784E+01
 20
1.06303324E+02
  0
VERTEX
  8
0
 62
4
 10
-8.22335277E+01
 20
1.06232663E+02
  0
VERTEX
  8
0
 62
4
 10
-8.25496919E+01
 20
1.06134491E+02
  0
VERTEX
  8
0
 62
4
 10
-8.28559647E+01
 20
1.06009556E+02
  0
VERTEX
  8
0
 62
4
 10
-8.31500153E+01
 20
1.05858808E+02
  0
VERTEX
  8
0
 62
4
 10
-8.34296058E+01
 20
1.05683396E+02
  0
VERTEX
  8
0
 62
4
 10
-8.36926082E+01
 20
1.05484653E+02
  0
VERTEX
  8
0
 62
4
 10
-8.39370211E+01
 20
1.05264092E+02
  0
VERTEX
  8
0
 62
4
 10
-8.41609842E+01
 20
1.05023392E+02
  0
VERTEX
  8
0
 62
4
 10
-8.43627931E+01
 20
1.04764386E+02
  0
VERTEX
  8
0
 62
4
 10
-8.45409119E+01
 20
1.04489043E+02
  0
VERTEX
  8
0
 62
4
 10
-8.46939849E+01
 20
1.04199459E+02
  0
VERTEX
  8
0
 62
4
 10
-8.48208473E+01
 20
1.03897840E+02
  0
VERTEX
  8
0
 62
4
 10
-8.49205335E+01
 20
1.03586479E+02
  0
VERTEX
  8
0
 62
4
 10
-8.49922848E+01
 20
1.03267746E+02
  0
VERTEX
  8
0
 62
4
 10
-8.50355552E+01
 20
1.02944068E+02
  0
VERTEX
  8
0
 62
4
 10
-8.50500153E+01
 20
1.02617908E+02
  0
SEQEND
  8
0
  0
LINE
  8
0
 62
4
 10
-7.74500153E+01
 20
1.02444260E+02
 11
-7.74500153E+01
 21
1.02617908E+02
  0
LINE
  8
0
 62
4
 10
-8.46500153E+01
 20
1.02617908E+02
 11
-8.46500153E+01
 21
1.02814270E+02
  0
POLYLINE
  8
0
 62
4
 66
1
  0
VERTEX
  8
0
 62
4
 10
-8.46500153E+01
 20
1.02617908E+02
  0
VERTEX
  8
0
 62
4
 10
-8.46363279E+01
 20
1.02317765E+02
  0
VERTEX
  8
0
 62
4
 10
-8.45953759E+01
 20
1.02020038E+02
  0
VERTEX
  8
0
 62
4
 10
-8.45274891E+01
 20
1.01727125E+02
  0
VERTEX
  8
0
 62
4
 10
-8.44332139E+01
 20
1.01441383E+02
  0
VERTEX
  8
0
 62
4
 10
-8.43133095E+01
 20
1.01165115E+02
  0
VERTEX
  8
0
 62
4
 10
-8.41687412E+01
 20
1.00900544E+02
  0
VERTEX
  8
0
 62
4
 10
-8.40006731E+01
 20
1.00649799E+02
  0
VERTEX
  8
0
 62
4
 10
-8.38104583E+01
 20
1.00414901E+02
  0
VERTEX
  8
0
 62
4
 10
-8.35996283E+01
 20
1.00197740E+02
  0
VERTEX
  8
0
 62
4
 10
-8.33698807E+01
 20
1.00000065E+02
  0
VERTEX
  8
0
 62
4
 10
-8.31230651E+01
 20
9.98234677E+01
  0
VERTEX
  8
0
 62
4
 10
-8.28611688E+01
 20
9.96693692E+01
  0
VERTEX
  8
0
 62
4
 10
-8.25863004E+01
 20
9.95390105E+01
  0
VERTEX
  8
0
 62
4
 10
-8.23006731E+01
 20
9.94334414E+01
  0
VERTEX
  8
0
 62
4
 10
-8.20065865E+01
 20
9.93535117E+01
  0
VERTEX
  8
0
 62
4
 10
-8.17064084E+01
 20
9.92998650E+01
  0
VERTEX
  8
0
 62
4
 10
-8.14025557E+01
 20
9.92729332E+01
  0
VERTEX
  8
0
 62
4
 10
-8.10974749E+01
 20
9.92729332E+01
  0
VERTEX
  8
0
 62
4
 10
-8.07936222E+01
 20
9.92998650E+01
  0
VERTEX
  8
0
 62
4
 10
-8.04934441E+01
 20
9.93535117E+01
  0
VERTEX
  8
0
 62
4
 10
-8.01993575E+01
 20
9.94334414E+01
  0
VERTEX
  8
0
 62
4
 10
-7.99137302E+01
 20
9.95390105E+01
  0
VERTEX
  8
0
 62
4
 10
-7.96388619E+01
 20
9.96693691E+01
  0
VERTEX
  8
0
 62
4
 10
-7.93769656E+01
 20
9.98234677E+01
  0
VERTEX
  8
0
 62
4
 10
-7.91301500E+01
 20
1.00000065E+02
  0
VERTEX
  8
0
 62
4
 10
-7.89004023E+01
 20
1.00197740E+02
  0
VERTEX
  8
0
 62
4
 10
-7.86895723E+01
 20
1.00414901E+02
  0
VERTEX
  8
0
 62
4
 10
-7.84993575E+01
 20
1.00649799E+02
  0
VERTEX
  8
0
 62
4
 10
-7.83312894E+01
 20
1.00900544E+02
  0
VERTEX
  8
0
 62
4
 10
-7.81867211E+01
 20
1.01165115E+02
  0
VERTEX
  8
0
 62
4
 10
-7.80668167E+01
 20
1.01441383E+02
  0
VERTEX
  8
0
 62
4
 10
-7.79725416E+01
 20
1.01727124E+02
  0
VERTEX
  8
0
 62
4
 10
-7.79046547E+01
 20
1.02020038E+02
  0
VERTEX
  8
0
 62
4
 10
-7.78637027E+01
 20
1.02317765E+02
  0
VERTEX
  8
0
 62
4
 10
-7.78500153E+01
 20
1.02617908E+02
  0
SEQEND
  8
0
  0
POLYLINE
  8
0
 62
4
 66
1
  0
VERTEX
  8
0
 62
4
 10
-8.46500153E+01
 20
1.02814270E+02
  0
VERTEX
  8
0
 62
4
 10
-8.46370773E+01
 20
1.02522442E+02
  0
VERTEX
  8
0
 62
4
 10
-8.45983617E+01
 20
1.02232836E+02
  0
VERTEX
  8
0
 62
4
 10
-8.45341631E+01
 20
1.01947654E+02
  0
VERTEX
  8
0
 62
4
 10
-8.44449702E+01
 20
1.01669068E+02
  0
VERTEX
  8
0
 62
4
 10
-8.43314618E+01
 20
1.01399198E+02
  0
VERTEX
  8
0
 62
4
 10
-8.41945017E+01
 20
1.01140097E+02
  0
VERTEX
  8
0
 62
4
 10
-8.40351323E+01
 20
1.00893737E+02
  0
VERTEX
  8
0
 62
4
 10
-8.38545664E+01
 20
1.00661994E+02
  0
VERTEX
  8
0
 62
4
 10
-8.36541784E+01
 20
1.00446631E+02
  0
VERTEX
  8
0
 62
4
 10
-8.34354932E+01
 20
1.00249288E+02
  0
VERTEX
  8
0
 62
4
 10
-8.32001752E+01
 20
1.00071465E+02
  0
VERTEX
  8
0
 62
4
 10
-8.29500153E+01
 20
9.99145167E+01
  0
VERTEX
  8
0
 62
4
 10
-8.26869174E+01
 20
9.97796374E+01
  0
VERTEX
  8
0
 62
4
 10
-8.24128838E+01
 20
9.96678534E+01
  0
VERTEX
  8
0
 62
4
 10
-8.21300001E+01
 20
9.95800155E+01
  0
VERTEX
  8
0
 62
4
 10
-8.18404191E+01
 20
9.95167923E+01
  0
VERTEX
  8
0
 62
4
 10
-8.15463448E+01
 20
9.94786648E+01
  0
VERTEX
  8
0
 62
4
 10
-8.12500153E+01
 20
9.94659233E+01
  0
VERTEX
  8
0
 62
4
 10
-8.09536858E+01
 20
9.94786648E+01
  0
VERTEX
  8
0
 62
4
 10
-8.06596115E+01
 20
9.95167923E+01
  0
VERTEX
  8
0
 62
4
 10
-8.03700305E+01
 20
9.95800155E+01
  0
VERTEX
  8
0
 62
4
 10
-8.00871468E+01
 20
9.96678534E+01
  0
VERTEX
  8
0
 62
4
 10
-7.98131132E+01
 20
9.97796374E+01
  0
VERTEX
  8
0
 62
4
 10
-7.95500153E+01
 20
9.99145167E+01
  0
VERTEX
  8
0
 62
4
 10
-7.92998554E+01
 20
1.00071465E+02
  0
VERTEX
  8
0
 62
4
 10
-7.90645374E+01
 20
1.00249288E+02
  0
VERTEX
  8
0
 62
4
 10
-7.88458522E+01
 20
1.00446631E+02
  0
VERTEX
  8
0
 62
4
 10
-7.86454642E+01
 20
1.00661994E+02
  0
VERTEX
  8
0
 62
4
 10
-7.84648983E+01
 20
1.00893737E+02
  0
VERTEX
  8
0
 62
4
 10
-7.83055289E+01
 20
1.01140097E+02
  0
VERTEX
  8
0
 62
4
 10
-7.81685688E+01
 20
1.01399198E+02
  0
VERTEX
  8
0
 62
4
 10
-7.80550604E+01
 20
1.01669068E+02
  0
VERTEX
  8
0
 62
4
 10
-7.79658675E+01
 20
1.01947654E+02
  0
VERTEX
  8
0
 62
4
 10
-7.79016689E+01
 20
1.02232836E+02
  0
VERTEX
  8
0
 62
4
 10
-7.78629533E+01
 20
1.02522442E+02
  0
VERTEX
  8
0
 62
4
 10
-7.78500153E+01
 20
1.02814270E+02
  0
VERTEX
  8
0
 62
4
 10
-7.78629533E+01
 20
1.03106098E+02
  0
VERTEX
  8
0
 62
4
 10
-7.79016689E+01
 20
1.03395704E+02
  0
VERTEX
  8
0
 62
4
 10
-7.79658675E+01
 20
1.03680886E+02
  0
VERTEX
  8
0
 62
4
 10
-7.80550604E+01
 20
1.03959472E+02
  0
VERTEX
  8
0
 62
4
 10
-7.81685688E+01
 20
1.04229342E+02
  0
VERTEX
  8
0
 62
4
 10
-7.83055289E+01
 20
1.04488443E+02
  0
VERTEX
  8
0
 62
4
 10
-7.84648983E+01
 20
1.04734803E+02
  0
VERTEX
  8
0
 62
4
 10
-7.86454642E+01
 20
1.04966546E+02
  0
VERTEX
  8
0
 62
4
 10
-7.88458522E+01
 20
1.05181909E+02
  0
VERTEX
  8
0
 62
4
 10
-7.90645374E+01
 20
1.05379252E+02
  0
VERTEX
  8
0
 62
4
 10
-7.92998554E+01
 20
1.05557075E+02
  0
VERTEX
  8
0
 62
4
 10
-7.95500153E+01
 20
1.05714023E+02
  0
VERTEX
  8
0
 62
4
 10
-7.98131132E+01
 20
1.05848903E+02
  0
VERTEX
  8
0
 62
4
 10
-8.00871468E+01
 20
1.05960687E+02
  0
VERTEX
  8
0
 62
4
 10
-8.03700305E+01
 20
1.06048525E+02
  0
VERTEX
  8
0
 62
4
 10
-8.06596115E+01
 20
1.06111748E+02
  0
VERTEX
  8
0
 62
4
 10
-8.09536858E+01
 20
1.06149875E+02
  0
VERTEX
  8
0
 62
4
 10
-8.12500153E+01
 20
1.06162617E+02
  0
VERTEX
  8
0
 62
4
 10
-8.15463448E+01
 20
1.06149875E+02
  0
VERTEX
  8
0
 62
4
 10
-8.18404191E+01
 20
1.06111748E+02
  0
VERTEX
  8
0
 62
4
 10
-8.21300001E+01
 20
1.06048525E+02
  0
VERTEX
  8
0
 62
4
 10
-8.24128838E+01
 20
1.05960687E+02
  0
VERTEX
  8
0
 62
4
 10
-8.26869174E+01
 20
1.05848903E+02
  0
VERTEX
  8
0
 62
4
 10
-8.29500153E+01
 20
1.05714023E+02
  0
VERTEX
  8
0
 62
4
 10
-8.32001752E+01
 20
1.05557075E+02
  0
VERTEX
  8
0
 62
4
 10
-8.34354932E+01
 20
1.05379252E+02
  0
VERTEX
  8
0
 62
4
 10
-8.36541784E+01
 20
1.05181909E+02
  0
VERTEX
  8
0
 62
4
 10
-8.38545664E+01
 20
1.04966546E+02
  0
VERTEX
  8
0
 62
4
 10
-8.40351323E+01
 20
1.04734803E+02
  0
VERTEX
  8
0
 62
4
 10
-8.41945017E+01
 20
1.04488443E+02
  0
VERTEX
  8
0
 62
4
 10
-8.43314618E+01
 20
1.04229342E+02
  0
VERTEX
  8
0
 62
4
 10
-8.44449702E+01
 20
1.03959472E+02
  0
VERTEX
  8
0
 62
4
 10
-8.45341631E+01
 20
1.03680886E+02
  0
VERTEX
  8
0
 62
4
 10
-8.45983617E+01
 20
1.03395704E+02
  0
VERTEX
  8
0
 62
4
 10
-8.46370773E+01
 20
1.03106098E+02
  0
VERTEX
  8
0
 62
4
 10
-8.46500153E+01
 20
1.02814270E+02
  0
SEQEND
  8
0
  0
LINE
  8
0
 62
4
 10
-7.78500152E+01
 20
1.02617908E+02
 11
-7.78500152E+01
 21
1.02814270E+02
  0
ARC
  8
0
 62
4
 10
4.99314534E+01
 20
-3.01934927E+01
 40
1.86971513E+02
 50
1.33801123E+02
 51
1.35321779E+02
  0
ARC
  8
0
 62
4
 10
-2.12431484E+02
 20
-3.01934927E+01
 40
1.86971513E+02
 50
4.46782203E+01
 51
4.61988768E+01
  0
LINE
  8
0
 62
4
 10
-1.03750015E+02
 20
9.21037785E+01
 11
-1.03750015E+02
 21
9.03694418E+01
  0
LINE
  8
0
 62
4
 10
-1.03750015E+02
 20
9.61762199E+01
 11
-1.03750015E+02
 21
9.21037785E+01
  0
LINE
  8
0
 62
4
 10
-1.03750015E+02
 20
9.66338942E+01
 11
-9.20871383E+01
 21
9.66338942E+01
  0
LINE
  8
0
 62
4
 10
-1.03750015E+02
 20
9.22369889E+01
 11
-8.02500153E+01
 21
9.22369889E+01
  0
LINE
  8
0
 62
4
 10
-1.03750015E+02
 20
9.61762199E+01
 11
-9.16872601E+01
 21
9.61762199E+01
  0
LINE
  8
0
 62
4
 10
-1.05250015E+02
 20
9.25444606E+01
 11
-1.03750015E+02
 21
9.15423962E+01
  0
LINE
  8
0
 62
4
 10
-1.05250015E+02
 20
9.29377737E+01
 11
-1.03750015E+02
 21
9.22369889E+01
  0
LINE
  8
0
 62
4
 10
-1.05250015E+02
 20
9.51683633E+01
 11
-1.05250015E+02
 21
9.25444606E+01
  0
LINE
  8
0
 62
4
 10
-1.03750015E+02
 20
9.61762199E+01
 11
-1.05250015E+02
 21
9.51683633E+01
  0
LINE
  8
0
 62
4
 10
-1.03750015E+02
 20
9.21037785E+01
 11
-7.37500153E+01
 21
9.21037785E+01
  0
LINE
  8
0
 62
4
 10
-1.03750015E+02
 20
9.11189707E+01
 11
-7.37500153E+01
 21
9.11189707E+01
  0
LINE
  8
0
 62
4
 10
-1.03750015E+02
 20
1.06875895E+02
 11
-7.37500153E+01
 21
1.06875895E+02
  0
POLYLINE
  8
0
 62
4
 66
1
  0
VERTEX
  8
0
 62
4
 10
-3.92500153E+01
 20
8.26996168E+01
  0
VERTEX
  8
0
 62
4
 10
-3.92580667E+01
 20
8.28761718E+01
  0
VERTEX
  8
0
 62
4
 10
-3.92821561E+01
 20
8.30513052E+01
  0
VERTEX
  8
0
 62
4
 10
-3.93220896E+01
 20
8.32236071E+01
  0
VERTEX
  8
0
 62
4
 10
-3.93775456E+01
 20
8.33916901E+01
  0
VERTEX
  8
0
 62
4
 10
-3.94480776E+01
 20
8.35542009E+01
  0
VERTEX
  8
0
 62
4
 10
-3.95331177E+01
 20
8.37098312E+01
  0
VERTEX
  8
0
 62
4
 10
-3.96319813E+01
 20
8.38573277E+01
  0
VERTEX
  8
0
 62
4
 10
-3.97438724E+01
 20
8.39955031E+01
  0
VERTEX
  8
0
 62
4
 10
-3.98678900E+01
 20
8.41232448E+01
  0
VERTEX
  8
0
 62
4
 10
-4.00030357E+01
 20
8.42395242E+01
  0
VERTEX
  8
0
 62
4
 10
-4.01482213E+01
 20
8.43434052E+01
  0
VERTEX
  8
0
 62
4
 10
-4.03022780E+01
 20
8.44340514E+01
  0
VERTEX
  8
0
 62
4
 10
-4.04639652E+01
 20
8.45107330E+01
  0
VERTEX
  8
0
 62
4
 10
-4.06319813E+01
 20
8.45728325E+01
  0
VERTEX
  8
0
 62
4
 10
-4.08049734E+01
 20
8.46198499E+01
  0
VERTEX
  8
0
 62
4
 10
-4.09815488E+01
 20
8.46514068E+01
  0
VERTEX
  8
0
 62
4
 10
-4.11602856E+01
 20
8.46672490E+01
  0
VERTEX
  8
0
 62
4
 10
-4.13397449E+01
 20
8.46672490E+01
  0
VERTEX
  8
0
 62
4
 10
-4.15184818E+01
 20
8.46514068E+01
  0
VERTEX
  8
0
 62
4
 10
-4.16950572E+01
 20
8.46198499E+01
  0
VERTEX
  8
0
 62
4
 10
-4.18680493E+01
 20
8.45728325E+01
  0
VERTEX
  8
0
 62
4
 10
-4.20360653E+01
 20
8.45107330E+01
  0
VERTEX
  8
0
 62
4
 10
-4.21977526E+01
 20
8.44340514E+01
  0
VERTEX
  8
0
 62
4
 10
-4.23518092E+01
 20
8.43434052E+01
  0
VERTEX
  8
0
 62
4
 10
-4.24969949E+01
 20
8.42395242E+01
  0
VERTEX
  8
0
 62
4
 10
-4.26321406E+01
 20
8.41232448E+01
  0
VERTEX
  8
0
 62
4
 10
-4.27561582E+01
 20
8.39955031E+01
  0
VERTEX
  8
0
 62
4
 10
-4.28680493E+01
 20
8.38573278E+01
  0
VERTEX
  8
0
 62
4
 10
-4.29669129E+01
 20
8.37098312E+01
  0
VERTEX
  8
0
 62
4
 10
-4.30519530E+01
 20
8.35542010E+01
  0
VERTEX
  8
0
 62
4
 10
-4.31224850E+01
 20
8.33916901E+01
  0
VERTEX
  8
0
 62
4
 10
-4.31779410E+01
 20
8.32236071E+01
  0
VERTEX
  8
0
 62
4
 10
-4.32178745E+01
 20
8.30513052E+01
  0
VERTEX
  8
0
 62
4
 10
-4.32419639E+01
 20
8.28761718E+01
  0
VERTEX
  8
0
 62
4
 10
-4.32500153E+01
 20
8.26996168E+01
  0
SEQEND
  8
0
  0
POLYLINE
  8
0
 62
4
 66
1
  0
VERTEX
  8
0
 62
4
 10
-4.32500153E+01
 20
8.21639774E+01
  0
VERTEX
  8
0
 62
4
 10
-4.32424047E+01
 20
8.19923141E+01
  0
VERTEX
  8
0
 62
4
 10
-4.32196308E+01
 20
8.18219573E+01
  0
VERTEX
  8
0
 62
4
 10
-4.31818670E+01
 20
8.16542034E+01
  0
VERTEX
  8
0
 62
4
 10
-4.31294005E+01
 20
8.14903292E+01
  0
VERTEX
  8
0
 62
4
 10
-4.30626309E+01
 20
8.13315819E+01
  0
VERTEX
  8
0
 62
4
 10
-4.29820661E+01
 20
8.11791697E+01
  0
VERTEX
  8
0
 62
4
 10
-4.28883194E+01
 20
8.10342524E+01
  0
VERTEX
  8
0
 62
4
 10
-4.27821042E+01
 20
8.08979330E+01
  0
VERTEX
  8
0
 62
4
 10
-4.26642289E+01
 20
8.07712489E+01
  0
VERTEX
  8
0
 62
4
 10
-4.25355905E+01
 20
8.06551644E+01
  0
VERTEX
  8
0
 62
4
 10
-4.23971682E+01
 20
8.05505628E+01
  0
VERTEX
  8
0
 62
4
 10
-4.22500153E+01
 20
8.04582403E+01
  0
VERTEX
  8
0
 62
4
 10
-4.20952518E+01
 20
8.03788995E+01
  0
VERTEX
  8
0
 62
4
 10
-4.19340556E+01
 20
8.03131442E+01
  0
VERTEX
  8
0
 62
4
 10
-4.17676534E+01
 20
8.02614749E+01
  0
VERTEX
  8
0
 62
4
 10
-4.15973117E+01
 20
8.02242848E+01
  0
VERTEX
  8
0
 62
4
 10
-4.14243268E+01
 20
8.02018569E+01
  0
VERTEX
  8
0
 62
4
 10
-4.12500153E+01
 20
8.01943619E+01
  0
VERTEX
  8
0
 62
4
 10
-4.10757038E+01
 20
8.02018569E+01
  0
VERTEX
  8
0
 62
4
 10
-4.09027190E+01
 20
8.02242848E+01
  0
VERTEX
  8
0
 62
4
 10
-4.07323772E+01
 20
8.02614749E+01
  0
VERTEX
  8
0
 62
4
 10
-4.05659750E+01
 20
8.03131442E+01
  0
VERTEX
  8
0
 62
4
 10
-4.04047788E+01
 20
8.03788995E+01
  0
VERTEX
  8
0
 62
4
 10
-4.02500153E+01
 20
8.04582403E+01
  0
VERTEX
  8
0
 62
4
 10
-4.01028624E+01
 20
8.05505628E+01
  0
VERTEX
  8
0
 62
4
 10
-3.99644401E+01
 20
8.06551644E+01
  0
VERTEX
  8
0
 62
4
 10
-3.98358017E+01
 20
8.07712489E+01
  0
VERTEX
  8
0
 62
4
 10
-3.97179264E+01
 20
8.08979330E+01
  0
VERTEX
  8
0
 62
4
 10
-3.96117112E+01
 20
8.10342524E+01
  0
VERTEX
  8
0
 62
4
 10
-3.95179645E+01
 20
8.11791696E+01
  0
VERTEX
  8
0
 62
4
 10
-3.94373997E+01
 20
8.13315819E+01
  0
VERTEX
  8
0
 62
4
 10
-3.93706301E+01
 20
8.14903292E+01
  0
VERTEX
  8
0
 62
4
 10
-3.93181636E+01
 20
8.16542034E+01
  0
VERTEX
  8
0
 62
4
 10
-3.92803998E+01
 20
8.18219573E+01
  0
VERTEX
  8
0
 62
4
 10
-3.92576259E+01
 20
8.19923141E+01
  0
VERTEX
  8
0
 62
4
 10
-3.92500153E+01
 20
8.21639774E+01
  0
VERTEX
  8
0
 62
4
 10
-3.92576259E+01
 20
8.23356407E+01
  0
VERTEX
  8
0
 62
4
 10
-3.92803998E+01
 20
8.25059975E+01
  0
VERTEX
  8
0
 62
4
 10
-3.93181636E+01
 20
8.26737514E+01
  0
VERTEX
  8
0
 62
4
 10
-3.93706301E+01
 20
8.28376256E+01
  0
VERTEX
  8
0
 62
4
 10
-3.94373997E+01
 20
8.29963729E+01
  0
VERTEX
  8
0
 62
4
 10
-3.95179645E+01
 20
8.31487852E+01
  0
VERTEX
  8
0
 62
4
 10
-3.96117112E+01
 20
8.32937024E+01
  0
VERTEX
  8
0
 62
4
 10
-3.97179264E+01
 20
8.34300218E+01
  0
VERTEX
  8
0
 62
4
 10
-3.98358017E+01
 20
8.35567059E+01
  0
VERTEX
  8
0
 62
4
 10
-3.99644401E+01
 20
8.36727904E+01
  0
VERTEX
  8
0
 62
4
 10
-4.01028624E+01
 20
8.37773920E+01
  0
VERTEX
  8
0
 62
4
 10
-4.02500153E+01
 20
8.38697145E+01
  0
VERTEX
  8
0
 62
4
 10
-4.04047788E+01
 20
8.39490553E+01
  0
VERTEX
  8
0
 62
4
 10
-4.05659750E+01
 20
8.40148106E+01
  0
VERTEX
  8
0
 62
4
 10
-4.07323772E+01
 20
8.40664799E+01
  0
VERTEX
  8
0
 62
4
 10
-4.09027189E+01
 20
8.41036700E+01
  0
VERTEX
  8
0
 62
4
 10
-4.10757038E+01
 20
8.41260979E+01
  0
VERTEX
  8
0
 62
4
 10
-4.12500153E+01
 20
8.41335929E+01
  0
VERTEX
  8
0
 62
4
 10
-4.14243268E+01
 20
8.41260979E+01
  0
VERTEX
  8
0
 62
4
 10
-4.15973117E+01
 20
8.41036700E+01
  0
VERTEX
  8
0
 62
4
 10
-4.17676534E+01
 20
8.40664799E+01
  0
VERTEX
  8
0
 62
4
 10
-4.19340556E+01
 20
8.40148106E+01
  0
VERTEX
  8
0
 62
4
 10
-4.20952518E+01
 20
8.39490553E+01
  0
VERTEX
  8
0
 62
4
 10
-4.22500153E+01
 20
8.38697145E+01
  0
VERTEX
  8
0
 62
4
 10
-4.23971682E+01
 20
8.37773920E+01
  0
VERTEX
  8
0
 62
4
 10
-4.25355905E+01
 20
8.36727904E+01
  0
VERTEX
  8
0
 62
4
 10
-4.26642289E+01
 20
8.35567059E+01
  0
VERTEX
  8
0
 62
4
 10
-4.27821042E+01
 20
8.34300218E+01
  0
VERTEX
  8
0
 62
4
 10
-4.28883194E+01
 20
8.32937024E+01
  0
VERTEX
  8
0
 62
4
 10
-4.29820661E+01
 20
8.31487852E+01
  0
VERTEX
  8
0
 62
4
 10
-4.30626309E+01
 20
8.29963729E+01
  0
VERTEX
  8
0
 62
4
 10
-4.31294005E+01
 20
8.28376256E+01
  0
VERTEX
  8
0
 62
4
 10
-4.31818670E+01
 20
8.26737514E+01
  0
VERTEX
  8
0
 62
4
 10
-4.32196308E+01
 20
8.25059975E+01
  0
VERTEX
  8
0
 62
4
 10
-4.32424047E+01
 20
8.23356407E+01
  0
VERTEX
  8
0
 62
4
 10
-4.32500153E+01
 20
8.21639774E+01
  0
SEQEND
  8
0
  0
LINE
  8
0
 62
4
 10
-4.32500153E+01
 20
8.21639774E+01
 11
-4.32500153E+01
 21
8.26996168E+01
  0
LINE
  8
0
 62
4
 10
-3.92500153E+01
 20
8.21639774E+01
 11
-3.92500153E+01
 21
8.26996168E+01
  0
POLYLINE
  8
0
 62
6
 66
1
  0
VERTEX
  8
0
 62
6
 10
-3.97500153E+01
 20
8.21639774E+01
  0
VERTEX
  8
0
 62
6
 10
-3.97557233E+01
 20
8.22927249E+01
  0
VERTEX
  8
0
 62
6
 10
-3.97728037E+01
 20
8.24204925E+01
  0
VERTEX
  8
0
 62
6
 10
-3.98011266E+01
 20
8.25463079E+01
  0
VERTEX
  8
0
 62
6
 10
-3.98404764E+01
 20
8.26692135E+01
  0
VERTEX
  8
0
 62
6
 10
-3.98905536E+01
 20
8.27882740E+01
  0
VERTEX
  8
0
 62
6
 10
-3.99509772E+01
 20
8.29025832E+01
  0
VERTEX
  8
0
 62
6
 10
-4.00212872E+01
 20
8.30112712E+01
  0
VERTEX
  8
0
 62
6
 10
-4.01009486E+01
 20
8.31135107E+01
  0
VERTEX
  8
0
 62
6
 10
-4.01893551E+01
 20
8.32085238E+01
  0
VERTEX
  8
0
 62
6
 10
-4.02858339E+01
 20
8.32955872E+01
  0
VERTEX
  8
0
 62
6
 10
-4.03896506E+01
 20
8.33740383E+01
  0
VERTEX
  8
0
 62
6
 10
-4.05000153E+01
 20
8.34432802E+01
  0
VERTEX
  8
0
 62
6
 10
-4.06160879E+01
 20
8.35027858E+01
  0
VERTEX
  8
0
 62
6
 10
-4.07369851E+01
 20
8.35521023E+01
  0
VERTEX
  8
0
 62
6
 10
-4.08617867E+01
 20
8.35908543E+01
  0
VERTEX
  8
0
 62
6
 10
-4.09895430E+01
 20
8.36187469E+01
  0
VERTEX
  8
0
 62
6
 10
-4.11192817E+01
 20
8.36355678E+01
  0
VERTEX
  8
0
 62
6
 10
-4.12500153E+01
 20
8.36411890E+01
  0
VERTEX
  8
0
 62
6
 10
-4.13807489E+01
 20
8.36355678E+01
  0
VERTEX
  8
0
 62
6
 10
-4.15104876E+01
 20
8.36187469E+01
  0
VERTEX
  8
0
 62
6
 10
-4.16382439E+01
 20
8.35908543E+01
  0
VERTEX
  8
0
 62
6
 10
-4.17630455E+01
 20
8.35521023E+01
  0
VERTEX
  8
0
 62
6
 10
-4.18839427E+01
 20
8.35027858E+01
  0
VERTEX
  8
0
 62
6
 10
-4.20000153E+01
 20
8.34432802E+01
  0
VERTEX
  8
0
 62
6
 10
-4.21103800E+01
 20
8.33740383E+01
  0
VERTEX
  8
0
 62
6
 10
-4.22141967E+01
 20
8.32955872E+01
  0
VERTEX
  8
0
 62
6
 10
-4.23106755E+01
 20
8.32085238E+01
  0
VERTEX
  8
0
 62
6
 10
-4.23990820E+01
 20
8.31135107E+01
  0
VERTEX
  8
0
 62
6
 10
-4.24787434E+01
 20
8.30112712E+01
  0
VERTEX
  8
0
 62
6
 10
-4.25490534E+01
 20
8.29025832E+01
  0
VERTEX
  8
0
 62
6
 10
-4.26094770E+01
 20
8.27882740E+01
  0
VERTEX
  8
0
 62
6
 10
-4.26595542E+01
 20
8.26692135E+01
  0
VERTEX
  8
0
 62
6
 10
-4.26989040E+01
 20
8.25463079E+01
  0
VERTEX
  8
0
 62
6
 10
-4.27272269E+01
 20
8.24204925E+01
  0
VERTEX
  8
0
 62
6
 10
-4.27443073E+01
 20
8.22927249E+01
  0
VERTEX
  8
0
 62
6
 10
-4.27500153E+01
 20
8.21639774E+01
  0
VERTEX
  8
0
 62
6
 10
-4.27443073E+01
 20
8.20352299E+01
  0
VERTEX
  8
0
 62
6
 10
-4.27272269E+01
 20
8.19074623E+01
  0
VERTEX
  8
0
 62
6
 10
-4.26989040E+01
 20
8.17816469E+01
  0
VERTEX
  8
0
 62
6
 10
-4.26595542E+01
 20
8.16587413E+01
  0
VERTEX
  8
0
 62
6
 10
-4.26094770E+01
 20
8.15396808E+01
  0
VERTEX
  8
0
 62
6
 10
-4.25490534E+01
 20
8.14253716E+01
  0
VERTEX
  8
0
 62
6
 10
-4.24787434E+01
 20
8.13166836E+01
  0
VERTEX
  8
0
 62
6
 10
-4.23990820E+01
 20
8.12144441E+01
  0
VERTEX
  8
0
 62
6
 10
-4.23106755E+01
 20
8.11194310E+01
  0
VERTEX
  8
0
 62
6
 10
-4.22141967E+01
 20
8.10323676E+01
  0
VERTEX
  8
0
 62
6
 10
-4.21103800E+01
 20
8.09539165E+01
  0
VERTEX
  8
0
 62
6
 10
-4.20000153E+01
 20
8.08846746E+01
  0
VERTEX
  8
0
 62
6
 10
-4.18839427E+01
 20
8.08251690E+01
  0
VERTEX
  8
0
 62
6
 10
-4.17630455E+01
 20
8.07758525E+01
  0
VERTEX
  8
0
 62
6
 10
-4.16382439E+01
 20
8.07371005E+01
  0
VERTEX
  8
0
 62
6
 10
-4.15104876E+01
 20
8.07092079E+01
  0
VERTEX
  8
0
 62
6
 10
-4.13807489E+01
 20
8.06923870E+01
  0
VERTEX
  8
0
 62
6
 10
-4.12500153E+01
 20
8.06867658E+01
  0
VERTEX
  8
0
 62
6
 10
-4.11192817E+01
 20
8.06923870E+01
  0
VERTEX
  8
0
 62
6
 10
-4.09895430E+01
 20
8.07092079E+01
  0
VERTEX
  8
0
 62
6
 10
-4.08617867E+01
 20
8.07371005E+01
  0
VERTEX
  8
0
 62
6
 10
-4.07369851E+01
 20
8.07758525E+01
  0
VERTEX
  8
0
 62
6
 10
-4.06160879E+01
 20
8.08251690E+01
  0
VERTEX
  8
0
 62
6
 10
-4.05000153E+01
 20
8.08846746E+01
  0
VERTEX
  8
0
 62
6
 10
-4.03896506E+01
 20
8.09539165E+01
  0
VERTEX
  8
0
 62
6
 10
-4.02858339E+01
 20
8.10323676E+01
  0
VERTEX
  8
0
 62
6
 10
-4.01893551E+01
 20
8.11194310E+01
  0
VERTEX
  8
0
 62
6
 10
-4.01009486E+01
 20
8.12144441E+01
  0
VERTEX
  8
0
 62
6
 10
-4.00212872E+01
 20
8.13166836E+01
  0
VERTEX
  8
0
 62
6
 10
-3.99509772E+01
 20
8.14253716E+01
  0
VERTEX
  8
0
 62
6
 10
-3.98905536E+01
 20
8.15396808E+01
  0
VERTEX
  8
0
 62
6
 10
-3.98404764E+01
 20
8.16587413E+01
  0
VERTEX
  8
0
 62
6
 10
-3.98011266E+01
 20
8.17816469E+01
  0
VERTEX
  8
0
 62
6
 10
-3.97728037E+01
 20
8.19074623E+01
  0
VERTEX
  8
0
 62
6
 10
-3.97557233E+01
 20
8.20352299E+01
  0
VERTEX
  8
0
 62
6
 10
-3.97500153E+01
 20
8.21639774E+01
  0
SEQEND
  8
0
  0
LINE
  8
0
 62
4
 10
-4.22500153E+01
 20
8.27351659E+01
 11
-4.22500153E+01
 21
8.15927889E+01
  0
LINE
  8
0
 62
4
 10
-4.02500153E+01
 20
8.27351659E+01
 11
-4.02500153E+01
 21
8.15927889E+01
  0
LINE
  8
0
 62
4
 10
-4.12500153E+01
 20
8.32965063E+01
 11
-4.22500153E+01
 21
8.27351659E+01
  0
LINE
  8
0
 62
4
 10
-4.12500153E+01
 20
8.32965063E+01
 11
-4.02500153E+01
 21
8.27351659E+01
  0
LINE
  8
0
 62
4
 10
-4.02500153E+01
 20
8.15927889E+01
 11
-4.12500153E+01
 21
8.10216004E+01
  0
LINE
  8
0
 62
4
 10
-4.22500153E+01
 20
8.15927889E+01
 11
-4.12500153E+01
 21
8.10216004E+01
  0
LINE
  8
0
 62
4
 10
-3.42500153E+01
 20
8.15927889E+01
 11
-3.32500153E+01
 21
8.10216004E+01
  0
LINE
  8
0
 62
4
 10
-3.22500153E+01
 20
8.15927889E+01
 11
-3.32500153E+01
 21
8.10216004E+01
  0
LINE
  8
0
 62
4
 10
-3.32500153E+01
 20
8.32965063E+01
 11
-3.22500153E+01
 21
8.27351659E+01
  0
LINE
  8
0
 62
4
 10
-3.32500153E+01
 20
8.32965063E+01
 11
-3.42500153E+01
 21
8.27351659E+01
  0
LINE
  8
0
 62
4
 10
-3.22500153E+01
 20
8.27351659E+01
 11
-3.22500153E+01
 21
8.15927889E+01
  0
LINE
  8
0
 62
4
 10
-3.42500153E+01
 20
8.27351659E+01
 11
-3.42500153E+01
 21
8.15927889E+01
  0
POLYLINE
  8
0
 62
6
 66
1
  0
VERTEX
  8
0
 62
6
 10
-3.17500153E+01
 20
8.21639774E+01
  0
VERTEX
  8
0
 62
6
 10
-3.17557233E+01
 20
8.22927249E+01
  0
VERTEX
  8
0
 62
6
 10
-3.17728037E+01
 20
8.24204925E+01
  0
VERTEX
  8
0
 62
6
 10
-3.18011266E+01
 20
8.25463079E+01
  0
VERTEX
  8
0
 62
6
 10
-3.18404764E+01
 20
8.26692135E+01
  0
VERTEX
  8
0
 62
6
 10
-3.18905536E+01
 20
8.27882740E+01
  0
VERTEX
  8
0
 62
6
 10
-3.19509772E+01
 20
8.29025832E+01
  0
VERTEX
  8
0
 62
6
 10
-3.20212872E+01
 20
8.30112712E+01
  0
VERTEX
  8
0
 62
6
 10
-3.21009486E+01
 20
8.31135107E+01
  0
VERTEX
  8
0
 62
6
 10
-3.21893551E+01
 20
8.32085238E+01
  0
VERTEX
  8
0
 62
6
 10
-3.22858339E+01
 20
8.32955872E+01
  0
VERTEX
  8
0
 62
6
 10
-3.23896506E+01
 20
8.33740383E+01
  0
VERTEX
  8
0
 62
6
 10
-3.25000153E+01
 20
8.34432802E+01
  0
VERTEX
  8
0
 62
6
 10
-3.26160879E+01
 20
8.35027858E+01
  0
VERTEX
  8
0
 62
6
 10
-3.27369851E+01
 20
8.35521023E+01
  0
VERTEX
  8
0
 62
6
 10
-3.28617867E+01
 20
8.35908543E+01
  0
VERTEX
  8
0
 62
6
 10
-3.29895430E+01
 20
8.36187469E+01
  0
VERTEX
  8
0
 62
6
 10
-3.31192817E+01
 20
8.36355678E+01
  0
VERTEX
  8
0
 62
6
 10
-3.32500153E+01
 20
8.36411890E+01
  0
VERTEX
  8
0
 62
6
 10
-3.33807489E+01
 20
8.36355678E+01
  0
VERTEX
  8
0
 62
6
 10
-3.35104876E+01
 20
8.36187469E+01
  0
VERTEX
  8
0
 62
6
 10
-3.36382439E+01
 20
8.35908543E+01
  0
VERTEX
  8
0
 62
6
 10
-3.37630455E+01
 20
8.35521023E+01
  0
VERTEX
  8
0
 62
6
 10
-3.38839427E+01
 20
8.35027858E+01
  0
VERTEX
  8
0
 62
6
 10
-3.40000153E+01
 20
8.34432802E+01
  0
VERTEX
  8
0
 62
6
 10
-3.41103800E+01
 20
8.33740383E+01
  0
VERTEX
  8
0
 62
6
 10
-3.42141967E+01
 20
8.32955872E+01
  0
VERTEX
  8
0
 62
6
 10
-3.43106755E+01
 20
8.32085238E+01
  0
VERTEX
  8
0
 62
6
 10
-3.43990820E+01
 20
8.31135107E+01
  0
VERTEX
  8
0
 62
6
 10
-3.44787434E+01
 20
8.30112712E+01
  0
VERTEX
  8
0
 62
6
 10
-3.45490534E+01
 20
8.29025832E+01
  0
VERTEX
  8
0
 62
6
 10
-3.46094770E+01
 20
8.27882740E+01
  0
VERTEX
  8
0
 62
6
 10
-3.46595542E+01
 20
8.26692135E+01
  0
VERTEX
  8
0
 62
6
 10
-3.46989040E+01
 20
8.25463079E+01
  0
VERTEX
  8
0
 62
6
 10
-3.47272269E+01
 20
8.24204925E+01
  0
VERTEX
  8
0
 62
6
 10
-3.47443073E+01
 20
8.22927249E+01
  0
VERTEX
  8
0
 62
6
 10
-3.47500153E+01
 20
8.21639774E+01
  0
VERTEX
  8
0
 62
6
 10
-3.47443073E+01
 20
8.20352299E+01
  0
VERTEX
  8
0
 62
6
 10
-3.47272269E+01
 20
8.19074623E+01
  0
VERTEX
  8
0
 62
6
 10
-3.46989040E+01
 20
8.17816469E+01
  0
VERTEX
  8
0
 62
6
 10
-3.46595542E+01
 20
8.16587413E+01
  0
VERTEX
  8
0
 62
6
 10
-3.46094770E+01
 20
8.15396808E+01
  0
VERTEX
  8
0
 62
6
 10
-3.45490534E+01
 20
8.14253716E+01
  0
VERTEX
  8
0
 62
6
 10
-3.44787434E+01
 20
8.13166836E+01
  0
VERTEX
  8
0
 62
6
 10
-3.43990820E+01
 20
8.12144441E+01
  0
VERTEX
  8
0
 62
6
 10
-3.43106755E+01
 20
8.11194310E+01
  0
VERTEX
  8
0
 62
6
 10
-3.42141967E+01
 20
8.10323676E+01
  0
VERTEX
  8
0
 62
6
 10
-3.41103800E+01
 20
8.09539165E+01
  0
VERTEX
  8
0
 62
6
 10
-3.40000153E+01
 20
8.08846746E+01
  0
VERTEX
  8
0
 62
6
 10
-3.38839427E+01
 20
8.08251690E+01
  0
VERTEX
  8
0
 62
6
 10
-3.37630455E+01
 20
8.07758525E+01
  0
VERTEX
  8
0
 62
6
 10
-3.36382439E+01
 20
8.07371005E+01
  0
VERTEX
  8
0
 62
6
 10
-3.35104876E+01
 20
8.07092079E+01
  0
VERTEX
  8
0
 62
6
 10
-3.33807489E+01
 20
8.06923870E+01
  0
VERTEX
  8
0
 62
6
 10
-3.32500153E+01
 20
8.06867658E+01
  0
VERTEX
  8
0
 62
6
 10
-3.31192817E+01
 20
8.06923870E+01
  0
VERTEX
  8
0
 62
6
 10
-3.29895430E+01
 20
8.07092079E+01
  0
VERTEX
  8
0
 62
6
 10
-3.28617867E+01
 20
8.07371005E+01
  0
VERTEX
  8
0
 62
6
 10
-3.27369851E+01
 20
8.07758525E+01
  0
VERTEX
  8
0
 62
6
 10
-3.26160879E+01
 20
8.08251690E+01
  0
VERTEX
  8
0
 62
6
 10
-3.25000153E+01
 20
8.08846746E+01
  0
VERTEX
  8
0
 62
6
 10
-3.23896506E+01
 20
8.09539165E+01
  0
VERTEX
  8
0
 62
6
 10
-3.22858339E+01
 20
8.10323676E+01
  0
VERTEX
  8
0
 62
6
 10
-3.21893551E+01
 20
8.11194310E+01
  0
VERTEX
  8
0
 62
6
 10
-3.21009486E+01
 20
8.12144441E+01
  0
VERTEX
  8
0
 62
6
 10
-3.20212872E+01
 20
8.13166836E+01
  0
VERTEX
  8
0
 62
6
 10
-3.19509772E+01
 20
8.14253716E+01
  0
VERTEX
  8
0
 62
6
 10
-3.18905536E+01
 20
8.15396808E+01
  0
VERTEX
  8
0
 62
6
 10
-3.18404764E+01
 20
8.16587413E+01
  0
VERTEX
  8
0
 62
6
 10
-3.18011266E+01
 20
8.17816469E+01
  0
VERTEX
  8
0
 62
6
 10
-3.17728037E+01
 20
8.19074623E+01
  0
VERTEX
  8
0
 62
6
 10
-3.17557233E+01
 20
8.20352299E+01
  0
VERTEX
  8
0
 62
6
 10
-3.17500153E+01
 20
8.21639774E+01
  0
SEQEND
  8
0
  0
LINE
  8
0
 62
4
 10
-3.12500153E+01
 20
8.21639774E+01
 11
-3.12500153E+01
 21
8.26996168E+01
  0
LINE
  8
0
 62
4
 10
-3.52500153E+01
 20
8.21639774E+01
 11
-3.52500153E+01
 21
8.26996168E+01
  0
POLYLINE
  8
0
 62
4
 66
1
  0
VERTEX
  8
0
 62
4
 10
-3.52500153E+01
 20
8.21639774E+01
  0
VERTEX
  8
0
 62
4
 10
-3.52424047E+01
 20
8.19923141E+01
  0
VERTEX
  8
0
 62
4
 10
-3.52196308E+01
 20
8.18219573E+01
  0
VERTEX
  8
0
 62
4
 10
-3.51818670E+01
 20
8.16542034E+01
  0
VERTEX
  8
0
 62
4
 10
-3.51294005E+01
 20
8.14903292E+01
  0
VERTEX
  8
0
 62
4
 10
-3.50626309E+01
 20
8.13315819E+01
  0
VERTEX
  8
0
 62
4
 10
-3.49820661E+01
 20
8.11791697E+01
  0
VERTEX
  8
0
 62
4
 10
-3.48883194E+01
 20
8.10342524E+01
  0
VERTEX
  8
0
 62
4
 10
-3.47821042E+01
 20
8.08979330E+01
  0
VERTEX
  8
0
 62
4
 10
-3.46642289E+01
 20
8.07712489E+01
  0
VERTEX
  8
0
 62
4
 10
-3.45355905E+01
 20
8.06551644E+01
  0
VERTEX
  8
0
 62
4
 10
-3.43971682E+01
 20
8.05505628E+01
  0
VERTEX
  8
0
 62
4
 10
-3.42500153E+01
 20
8.04582403E+01
  0
VERTEX
  8
0
 62
4
 10
-3.40952518E+01
 20
8.03788995E+01
  0
VERTEX
  8
0
 62
4
 10
-3.39340556E+01
 20
8.03131442E+01
  0
VERTEX
  8
0
 62
4
 10
-3.37676534E+01
 20
8.02614749E+01
  0
VERTEX
  8
0
 62
4
 10
-3.35973117E+01
 20
8.02242848E+01
  0
VERTEX
  8
0
 62
4
 10
-3.34243268E+01
 20
8.02018569E+01
  0
VERTEX
  8
0
 62
4
 10
-3.32500153E+01
 20
8.01943619E+01
  0
VERTEX
  8
0
 62
4
 10
-3.30757038E+01
 20
8.02018569E+01
  0
VERTEX
  8
0
 62
4
 10
-3.29027190E+01
 20
8.02242848E+01
  0
VERTEX
  8
0
 62
4
 10
-3.27323772E+01
 20
8.02614749E+01
  0
VERTEX
  8
0
 62
4
 10
-3.25659750E+01
 20
8.03131442E+01
  0
VERTEX
  8
0
 62
4
 10
-3.24047788E+01
 20
8.03788995E+01
  0
VERTEX
  8
0
 62
4
 10
-3.22500153E+01
 20
8.04582403E+01
  0
VERTEX
  8
0
 62
4
 10
-3.21028624E+01
 20
8.05505628E+01
  0
VERTEX
  8
0
 62
4
 10
-3.19644401E+01
 20
8.06551644E+01
  0
VERTEX
  8
0
 62
4
 10
-3.18358017E+01
 20
8.07712489E+01
  0
VERTEX
  8
0
 62
4
 10
-3.17179264E+01
 20
8.08979330E+01
  0
VERTEX
  8
0
 62
4
 10
-3.16117112E+01
 20
8.10342524E+01
  0
VERTEX
  8
0
 62
4
 10
-3.15179645E+01
 20
8.11791696E+01
  0
VERTEX
  8
0
 62
4
 10
-3.14373997E+01
 20
8.13315819E+01
  0
VERTEX
  8
0
 62
4
 10
-3.13706301E+01
 20
8.14903292E+01
  0
VERTEX
  8
0
 62
4
 10
-3.13181636E+01
 20
8.16542034E+01
  0
VERTEX
  8
0
 62
4
 10
-3.12803998E+01
 20
8.18219573E+01
  0
VERTEX
  8
0
 62
4
 10
-3.12576259E+01
 20
8.19923141E+01
  0
VERTEX
  8
0
 62
4
 10
-3.12500153E+01
 20
8.21639774E+01
  0
VERTEX
  8
0
 62
4
 10
-3.12576259E+01
 20
8.23356407E+01
  0
VERTEX
  8
0
 62
4
 10
-3.12803998E+01
 20
8.25059975E+01
  0
VERTEX
  8
0
 62
4
 10
-3.13181636E+01
 20
8.26737514E+01
  0
VERTEX
  8
0
 62
4
 10
-3.13706301E+01
 20
8.28376256E+01
  0
VERTEX
  8
0
 62
4
 10
-3.14373997E+01
 20
8.29963729E+01
  0
VERTEX
  8
0
 62
4
 10
-3.15179645E+01
 20
8.31487852E+01
  0
VERTEX
  8
0
 62
4
 10
-3.16117112E+01
 20
8.32937024E+01
  0
VERTEX
  8
0
 62
4
 10
-3.17179264E+01
 20
8.34300218E+01
  0
VERTEX
  8
0
 62
4
 10
-3.18358017E+01
 20
8.35567059E+01
  0
VERTEX
  8
0
 62
4
 10
-3.19644401E+01
 20
8.36727904E+01
  0
VERTEX
  8
0
 62
4
 10
-3.21028624E+01
 20
8.37773920E+01
  0
VERTEX
  8
0
 62
4
 10
-3.22500153E+01
 20
8.38697145E+01
  0
VERTEX
  8
0
 62
4
 10
-3.24047788E+01
 20
8.39490553E+01
  0
VERTEX
  8
0
 62
4
 10
-3.25659750E+01
 20
8.40148106E+01
  0
VERTEX
  8
0
 62
4
 10
-3.27323772E+01
 20
8.40664799E+01
  0
VERTEX
  8
0
 62
4
 10
-3.29027189E+01
 20
8.41036700E+01
  0
VERTEX
  8
0
 62
4
 10
-3.30757038E+01
 20
8.41260979E+01
  0
VERTEX
  8
0
 62
4
 10
-3.32500153E+01
 20
8.41335929E+01
  0
VERTEX
  8
0
 62
4
 10
-3.34243268E+01
 20
8.41260979E+01
  0
VERTEX
  8
0
 62
4
 10
-3.35973117E+01
 20
8.41036700E+01
  0
VERTEX
  8
0
 62
4
 10
-3.37676534E+01
 20
8.40664799E+01
  0
VERTEX
  8
0
 62
4
 10
-3.39340556E+01
 20
8.40148106E+01
  0
VERTEX
  8
0
 62
4
 10
-3.40952518E+01
 20
8.39490553E+01
  0
VERTEX
  8
0
 62
4
 10
-3.42500153E+01
 20
8.38697145E+01
  0
VERTEX
  8
0
 62
4
 10
-3.43971682E+01
 20
8.37773920E+01
  0
VERTEX
  8
0
 62
4
 10
-3.45355905E+01
 20
8.36727904E+01
  0
VERTEX
  8
0
 62
4
 10
-3.46642289E+01
 20
8.35567059E+01
  0
VERTEX
  8
0
 62
4
 10
-3.47821042E+01
 20
8.34300218E+01
  0
VERTEX
  8
0
 62
4
 10
-3.48883194E+01
 20
8.32937024E+01
  0
VERTEX
  8
0
 62
4
 10
-3.49820661E+01
 20
8.31487852E+01
  0
VERTEX
  8
0
 62
4
 10
-3.50626309E+01
 20
8.29963729E+01
  0
VERTEX
  8
0
 62
4
 10
-3.51294005E+01
 20
8.28376256E+01
  0
VERTEX
  8
0
 62
4
 10
-3.51818670E+01
 20
8.26737514E+01
  0
VERTEX
  8
0
 62
4
 10
-3.52196308E+01
 20
8.25059975E+01
  0
VERTEX
  8
0
 62
4
 10
-3.52424047E+01
 20
8.23356407E+01
  0
VERTEX
  8
0
 62
4
 10
-3.52500153E+01
 20
8.21639774E+01
  0
SEQEND
  8
0
  0
POLYLINE
  8
0
 62
4
 66
1
  0
VERTEX
  8
0
 62
4
 10
-3.12500153E+01
 20
8.26996168E+01
  0
VERTEX
  8
0
 62
4
 10
-3.12580667E+01
 20
8.28761718E+01
  0
VERTEX
  8
0
 62
4
 10
-3.12821561E+01
 20
8.30513052E+01
  0
VERTEX
  8
0
 62
4
 10
-3.13220896E+01
 20
8.32236071E+01
  0
VERTEX
  8
0
 62
4
 10
-3.13775456E+01
 20
8.33916901E+01
  0
VERTEX
  8
0
 62
4
 10
-3.14480776E+01
 20
8.35542009E+01
  0
VERTEX
  8
0
 62
4
 10
-3.15331177E+01
 20
8.37098312E+01
  0
VERTEX
  8
0
 62
4
 10
-3.16319813E+01
 20
8.38573277E+01
  0
VERTEX
  8
0
 62
4
 10
-3.17438724E+01
 20
8.39955031E+01
  0
VERTEX
  8
0
 62
4
 10
-3.18678900E+01
 20
8.41232448E+01
  0
VERTEX
  8
0
 62
4
 10
-3.20030357E+01
 20
8.42395242E+01
  0
VERTEX
  8
0
 62
4
 10
-3.21482213E+01
 20
8.43434052E+01
  0
VERTEX
  8
0
 62
4
 10
-3.23022780E+01
 20
8.44340514E+01
  0
VERTEX
  8
0
 62
4
 10
-3.24639652E+01
 20
8.45107330E+01
  0
VERTEX
  8
0
 62
4
 10
-3.26319813E+01
 20
8.45728325E+01
  0
VERTEX
  8
0
 62
4
 10
-3.28049734E+01
 20
8.46198499E+01
  0
VERTEX
  8
0
 62
4
 10
-3.29815488E+01
 20
8.46514068E+01
  0
VERTEX
  8
0
 62
4
 10
-3.31602856E+01
 20
8.46672490E+01
  0
VERTEX
  8
0
 62
4
 10
-3.33397449E+01
 20
8.46672490E+01
  0
VERTEX
  8
0
 62
4
 10
-3.35184818E+01
 20
8.46514068E+01
  0
VERTEX
  8
0
 62
4
 10
-3.36950572E+01
 20
8.46198499E+01
  0
VERTEX
  8
0
 62
4
 10
-3.38680493E+01
 20
8.45728325E+01
  0
VERTEX
  8
0
 62
4
 10
-3.40360653E+01
 20
8.45107330E+01
  0
VERTEX
  8
0
 62
4
 10
-3.41977526E+01
 20
8.44340514E+01
  0
VERTEX
  8
0
 62
4
 10
-3.43518092E+01
 20
8.43434052E+01
  0
VERTEX
  8
0
 62
4
 10
-3.44969949E+01
 20
8.42395242E+01
  0
VERTEX
  8
0
 62
4
 10
-3.46321406E+01
 20
8.41232448E+01
  0
VERTEX
  8
0
 62
4
 10
-3.47561582E+01
 20
8.39955031E+01
  0
VERTEX
  8
0
 62
4
 10
-3.48680493E+01
 20
8.38573278E+01
  0
VERTEX
  8
0
 62
4
 10
-3.49669129E+01
 20
8.37098312E+01
  0
VERTEX
  8
0
 62
4
 10
-3.50519530E+01
 20
8.35542010E+01
  0
VERTEX
  8
0
 62
4
 10
-3.51224850E+01
 20
8.33916901E+01
  0
VERTEX
  8
0
 62
4
 10
-3.51779410E+01
 20
8.32236071E+01
  0
VERTEX
  8
0
 62
4
 10
-3.52178745E+01
 20
8.30513052E+01
  0
VERTEX
  8
0
 62
4
 10
-3.52419639E+01
 20
8.28761718E+01
  0
VERTEX
  8
0
 62
4
 10
-3.52500153E+01
 20
8.26996168E+01
  0
SEQEND
  8
0
  0
POLYLINE
  8
0
 62
4
 66
1
  0
VERTEX
  8
0
 62
4
 10
-2.45000153E+01
 20
1.00655684E+02
  0
VERTEX
  8
0
 62
4
 10
-2.44914534E+01
 20
1.00462563E+02
  0
VERTEX
  8
0
 62
4
 10
-2.44658327E+01
 20
1.00270911E+02
  0
VERTEX
  8
0
 62
4
 10
-2.44233484E+01
 20
1.00082188E+02
  0
VERTEX
  8
0
 62
4
 10
-2.43643237E+01
 20
9.98978298E+01
  0
VERTEX
  8
0
 62
4
 10
-2.42892078E+01
 20
9.97192391E+01
  0
VERTEX
  8
0
 62
4
 10
-2.41985725E+01
 20
9.95477753E+01
  0
VERTEX
  8
0
 62
4
 10
-2.40931074E+01
 20
9.93847433E+01
  0
VERTEX
  8
0
 62
4
 10
-2.39736153E+01
 20
9.92313840E+01
  0
VERTEX
  8
0
 62
4
 10
-2.38410056E+01
 20
9.90888645E+01
  0
VERTEX
  8
0
 62
4
 10
-2.36962874E+01
 20
9.89582694E+01
  0
VERTEX
  8
0
 62
4
 10
-2.35405623E+01
 20
9.88405926E+01
  0
VERTEX
  8
0
 62
4
 10
-2.33750153E+01
 20
9.87367298E+01
  0
VERTEX
  8
0
 62
4
 10
-2.32009064E+01
 20
9.86474714E+01
  0
VERTEX
  8
0
 62
4
 10
-2.30195606E+01
 20
9.85734967E+01
  0
VERTEX
  8
0
 62
4
 10
-2.28323582E+01
 20
9.85153687E+01
  0
VERTEX
  8
0
 62
4
 10
-2.26407237E+01
 20
9.84735298E+01
  0
VERTEX
  8
0
 62
4
 10
-2.24461157E+01
 20
9.84482984E+01
  0
VERTEX
  8
0
 62
4
 10
-2.22500153E+01
 20
9.84398666E+01
  0
VERTEX
  8
0
 62
4
 10
-2.20539149E+01
 20
9.84482984E+01
  0
VERTEX
  8
0
 62
4
 10
-2.18593069E+01
 20
9.84735298E+01
  0
VERTEX
  8
0
 62
4
 10
-2.16676725E+01
 20
9.85153687E+01
  0
VERTEX
  8
0
 62
4
 10
-2.14804700E+01
 20
9.85734967E+01
  0
VERTEX
  8
0
 62
4
 10
-2.12991242E+01
 20
9.86474714E+01
  0
VERTEX
  8
0
 62
4
 10
-2.11250153E+01
 20
9.87367298E+01
  0
VERTEX
  8
0
 62
4
 10
-2.09594683E+01
 20
9.88405926E+01
  0
VERTEX
  8
0
 62
4
 10
-2.08037432E+01
 20
9.89582694E+01
  0
VERTEX
  8
0
 62
4
 10
-2.06590250E+01
 20
9.90888645E+01
  0
VERTEX
  8
0
 62
4
 10
-2.05264153E+01
 20
9.92313840E+01
  0
VERTEX
  8
0
 62
4
 10
-2.04069232E+01
 20
9.93847433E+01
  0
VERTEX
  8
0
 62
4
 10
-2.03014581E+01
 20
9.95477753E+01
  0
VERTEX
  8
0
 62
4
 10
-2.02108228E+01
 20
9.97192391E+01
  0
VERTEX
  8
0
 62
4
 10
-2.01357069E+01
 20
9.98978298E+01
  0
VERTEX
  8
0
 62
4
 10
-2.00766822E+01
 20
1.00082188E+02
  0
VERTEX
  8
0
 62
4
 10
-2.00341979E+01
 20
1.00270911E+02
  0
VERTEX
  8
0
 62
4
 10
-2.00085772E+01
 20
1.00462563E+02
  0
VERTEX
  8
0
 62
4
 10
-2.00000153E+01
 20
1.00655684E+02
  0
VERTEX
  8
0
 62
4
 10
-2.00085772E+01
 20
1.00848805E+02
  0
VERTEX
  8
0
 62
4
 10
-2.00341979E+01
 20
1.01040457E+02
  0
VERTEX
  8
0
 62
4
 10
-2.00766822E+01
 20
1.01229180E+02
  0
VERTEX
  8
0
 62
4
 10
-2.01357069E+01
 20
1.01413538E+02
  0
VERTEX
  8
0
 62
4
 10
-2.02108228E+01
 20
1.01592129E+02
  0
VERTEX
  8
0
 62
4
 10
-2.03014581E+01
 20
1.01763593E+02
  0
VERTEX
  8
0
 62
4
 10
-2.04069232E+01
 20
1.01926625E+02
  0
VERTEX
  8
0
 62
4
 10
-2.05264153E+01
 20
1.02079984E+02
  0
VERTEX
  8
0
 62
4
 10
-2.06590250E+01
 20
1.02222504E+02
  0
VERTEX
  8
0
 62
4
 10
-2.08037432E+01
 20
1.02353099E+02
  0
VERTEX
  8
0
 62
4
 10
-2.09594683E+01
 20
1.02470775E+02
  0
VERTEX
  8
0
 62
4
 10
-2.11250153E+01
 20
1.02574638E+02
  0
VERTEX
  8
0
 62
4
 10
-2.12991242E+01
 20
1.02663897E+02
  0
VERTEX
  8
0
 62
4
 10
-2.14804700E+01
 20
1.02737871E+02
  0
VERTEX
  8
0
 62
4
 10
-2.16676724E+01
 20
1.02795999E+02
  0
VERTEX
  8
0
 62
4
 10
-2.18593069E+01
 20
1.02837838E+02
  0
VERTEX
  8
0
 62
4
 10
-2.20539149E+01
 20
1.02863070E+02
  0
VERTEX
  8
0
 62
4
 10
-2.22500153E+01
 20
1.02871501E+02
  0
VERTEX
  8
0
 62
4
 10
-2.24461157E+01
 20
1.02863070E+02
  0
VERTEX
  8
0
 62
4
 10
-2.26407237E+01
 20
1.02837838E+02
  0
VERTEX
  8
0
 62
4
 10
-2.28323581E+01
 20
1.02795999E+02
  0
VERTEX
  8
0
 62
4
 10
-2.30195606E+01
 20
1.02737871E+02
  0
VERTEX
  8
0
 62
4
 10
-2.32009064E+01
 20
1.02663897E+02
  0
VERTEX
  8
0
 62
4
 10
-2.33750153E+01
 20
1.02574638E+02
  0
VERTEX
  8
0
 62
4
 10
-2.35405623E+01
 20
1.02470775E+02
  0
VERTEX
  8
0
 62
4
 10
-2.36962874E+01
 20
1.02353099E+02
  0
VERTEX
  8
0
 62
4
 10
-2.38410056E+01
 20
1.02222504E+02
  0
VERTEX
  8
0
 62
4
 10
-2.39736153E+01
 20
1.02079984E+02
  0
VERTEX
  8
0
 62
4
 10
-2.40931074E+01
 20
1.01926625E+02
  0
VERTEX
  8
0
 62
4
 10
-2.41985725E+01
 20
1.01763593E+02
  0
VERTEX
  8
0
 62
4
 10
-2.42892078E+01
 20
1.01592129E+02
  0
VERTEX
  8
0
 62
4
 10
-2.43643237E+01
 20
1.01413538E+02
  0
VERTEX
  8
0
 62
4
 10
-2.44233484E+01
 20
1.01229180E+02
  0
VERTEX
  8
0
 62
4
 10
-2.44658327E+01
 20
1.01040457E+02
  0
VERTEX
  8
0
 62
4
 10
-2.44914534E+01
 20
1.00848805E+02
  0
VERTEX
  8
0
 62
4
 10
-2.45000153E+01
 20
1.00655684E+02
  0
SEQEND
  8
0
  0
LINE
  8
0
 62
4
 10
-2.97500153E+01
 20
9.66469934E+01
 11
-1.47500153E+01
 21
9.66469934E+01
  0
LINE
  8
0
 62
4
 10
-2.97500153E+01
 20
9.67164527E+01
 11
-1.47500153E+01
 21
9.67164527E+01
  0
LINE
  8
0
 62
4
 10
-2.97500153E+01
 20
8.92609352E+01
 11
-1.47500153E+01
 21
8.92609352E+01
  0
LINE
  8
0
 62
4
 10
-4.47500153E+01
 20
7.75208580E+01
 11
-2.97500153E+01
 21
7.75208580E+01
  0
LINE
  8
0
 62
4
 10
-4.35884513E+01
 20
8.78970068E+01
 11
-3.10092680E+01
 21
8.78970068E+01
  0
LINE
  8
0
 62
4
 10
-4.47500153E+01
 20
1.03871781E+02
 11
-2.97500153E+01
 21
1.03871781E+02
  0
LINE
  8
0
 62
4
 10
-4.47500153E+01
 20
1.05087319E+02
 11
-1.47500153E+01
 21
1.05087319E+02
  0
LINE
  8
0
 62
4
 10
-4.47500153E+01
 20
1.06875895E+02
 11
-1.47500153E+01
 21
1.06875895E+02
  0
LINE
  8
0
  6
CENTER
 62
6
 10
-1.86754184E+01
 20
1.00655684E+02
 11
-2.58246121E+01
 21
1.00655684E+02
  0
LINE
  8
0
  6
CENTER
 62
6
 10
-2.22500153E+01
 20
1.04230281E+02
 11
-2.22500153E+01
 21
9.70810868E+01
  0
LINE
  8
0
 62
4
 10
-1.47500153E+01
 20
1.06875895E+02
 11
-1.47500153E+01
 21
8.92609352E+01
  0
LINE
  8
0
 62
4
 10
-4.47500153E+01
 20
1.06875895E+02
 11
-4.47500153E+01
 21
7.75208580E+01
  0
LINE
  8
0
 62
4
 10
-2.97500153E+01
 20
1.05087319E+02
 11
-2.97500153E+01
 21
7.75208580E+01
  0
LINE
  8
0
  6
CENTER
 62
6
 10
-3.07500153E+01
 20
8.26996168E+01
 11
-3.57500153E+01
 21
8.26996168E+01
  0
LINE
  8
0
  6
CENTER
 62
6
 10
-3.32500153E+01
 20
8.51996168E+01
 11
-3.32500153E+01
 21
8.01996168E+01
  0
LINE
  8
0
  6
CENTER
 62
6
 10
-4.12500153E+01
 20
8.51996168E+01
 11
-4.12500153E+01
 21
8.01996168E+01
  0
LINE
  8
0
  6
CENTER
 62
6
 10
-3.87500153E+01
 20
8.26996168E+01
 11
-4.37500153E+01
 21
8.26996168E+01
  0
LINE
  8
0
 62
4
 10
-8.02500153E+01
 20
9.61762199E+01
 11
-8.02500153E+01
 21
9.21037785E+01
  0
LINE
  8
0
 62
4
 10
-1.03750015E+02
 20
1.06875895E+02
 11
-1.03750015E+02
 21
9.61762199E+01
  0
LINE
  8
0
 62
4
 10
-7.37500153E+01
 20
9.03694418E+01
 11
-7.37500153E+01
 21
9.23593081E+01
  0
LINE
  8
0
 62
7
 10
-4.47500153E+01
 20
9.03694494E+01
 11
-1.14250015E+02
 21
9.03694494E+01
  0
LINE
  8
0
 62
7
 10
-1.47500153E+01
 20
8.95194509E+01
 11
-8.25011444E+00
 21
8.95194509E+01
  0
LINE
  8
0
 62
7
 10
-2.97500153E+01
 20
8.42194631E+01
 11
-8.25011444E+00
 21
8.42194631E+01
  0
CIRCLE
  8
0
 62
7
 10
-2.98250107E+02
 20
4.98694799E+01
 40
2.45850000E+00
  0
CIRCLE
  8
0
 62
7
 10
-2.61250046E+02
 20
4.98694799E+01
 40
2.45850000E+00
  0
CIRCLE
  8
0
 62
7
 10
-2.61249893E+02
 20
8.68695486E+01
 40
2.45850000E+00
  0
CIRCLE
  8
0
 62
7
 10
-2.98249985E+02
 20
8.68695486E+01
 40
2.45850000E+00
  0
LINE
  8
0
  6
CENTER
 62
2
 10
-2.61249893E+02
 20
9.53761175E+01
 11
-2.61249893E+02
 21
8.04549826E+01
  0
LINE
  8
0
 62
7
 10
-2.54749954E+02
 20
9.03694952E+01
 11
-2.54749954E+02
 21
4.63694494E+01
  0
LINE
  8
0
 62
7
 10
-3.01750046E+02
 20
9.33695104E+01
 11
-2.57749954E+02
 21
9.33695104E+01
  0
LINE
  8
0
 62
7
 10
-2.55249985E+02
 20
9.03694342E+01
 11
-2.55249985E+02
 21
4.63694494E+01
  0
LINE
  8
0
 62
7
 10
-2.58749985E+02
 20
6.93694723E+01
 11
-2.62868027E+02
 21
6.93694723E+01
  0
LINE
  8
0
 62
7
 10
-2.66020220E+02
 20
8.06853047E+01
 11
-2.67105696E+02
 21
7.95998285E+01
  0
LINE
  8
0
 62
7
 10
-2.78749985E+02
 20
8.93694647E+01
 11
-2.78749985E+02
 21
8.52514074E+01
  0
LINE
  8
0
 62
7
 10
-2.67434379E+02
 20
8.20994860E+01
 11
-2.68519845E+02
 21
8.10140206E+01
  0
LINE
  8
0
 62
7
 10
-2.57749985E+02
 20
7.33694952E+01
 11
-2.57749985E+02
 21
6.33694265E+01
  0
LINE
  8
0
 62
7
 10
-2.84750046E+02
 20
9.03694952E+01
 11
-2.74749954E+02
 21
9.03694952E+01
  0
LINE
  8
0
  6
CENTER
 62
2
 10
-3.06839890E+02
 20
8.68695486E+01
 11
-2.92173019E+02
 21
8.68695486E+01
  0
LINE
  8
0
  6
CENTER
 62
2
 10
-2.98249985E+02
 20
9.52720983E+01
 11
-2.98249985E+02
 21
7.89851187E+01
  0
LINE
  8
0
 62
7
 10
-3.04750046E+02
 20
9.03694952E+01
 11
-3.04750046E+02
 21
4.63694494E+01
  0
LINE
  8
0
 62
7
 10
-3.04250015E+02
 20
9.03694952E+01
 11
-3.04250015E+02
 21
4.63694799E+01
  0
LINE
  8
0
 62
7
 10
-3.01749985E+02
 20
9.28694952E+01
 11
-2.57749954E+02
 21
9.28694342E+01
  0
LINE
  8
0
  6
CENTER
 62
2
 10
-2.98250107E+02
 20
4.12464636E+01
 11
-2.98250107E+02
 21
5.78889654E+01
  0
LINE
  8
0
  6
CENTER
 62
2
 10
-3.06694656E+02
 20
4.98694799E+01
 11
-2.91882614E+02
 21
4.98694799E+01
  0
LINE
  8
0
 62
7
 10
-2.80749985E+02
 20
8.93694647E+01
 11
-2.80749985E+02
 21
8.52514303E+01
  0
LINE
  8
0
 62
7
 10
-3.00749985E+02
 20
6.93694799E+01
 11
-2.96631943E+02
 21
6.93694799E+01
  0
LINE
  8
0
 62
7
 10
-2.93479938E+02
 20
8.06851300E+01
 11
-2.92394484E+02
 21
7.95996756E+01
  0
LINE
  8
0
 62
7
 10
-2.92065758E+02
 20
8.20994410E+01
 11
-2.90980303E+02
 21
8.10139866E+01
  0
LINE
  8
0
 62
7
 10
-3.01749985E+02
 20
7.33694952E+01
 11
-3.01749985E+02
 21
6.33694265E+01
  0
LINE
  8
0
 62
7
 10
-3.00749985E+02
 20
6.73694799E+01
 11
-2.96631943E+02
 21
6.73694799E+01
  0
LINE
  8
0
 62
7
 10
-2.93480119E+02
 20
5.60539206E+01
 11
-2.92394632E+02
 21
5.71394078E+01
  0
LINE
  8
0
 62
7
 10
-2.80750015E+02
 20
4.73694876E+01
 11
-2.80750015E+02
 21
5.14875296E+01
  0
LINE
  8
0
 62
7
 10
-2.92065852E+02
 20
5.46397180E+01
 11
-2.90980397E+02
 21
5.57251728E+01
  0
LINE
  8
0
  6
CENTER
 62
2
 10
-2.83750046E+02
 20
9.51218603E+01
 11
-2.83750046E+02
 21
7.97356985E+01
  0
LINE
  8
0
 62
7
 10
-2.57749954E+02
 20
4.33694494E+01
 11
-3.01750048E+02
 21
4.33694494E+01
  0
LINE
  8
0
 62
7
 10
-3.01750046E+02
 20
4.38694799E+01
 11
-2.57750046E+02
 21
4.38694494E+01
  0
LINE
  8
0
 62
7
 10
-2.78750046E+02
 20
4.73694876E+01
 11
-2.78750046E+02
 21
5.14875296E+01
  0
LINE
  8
0
 62
7
 10
-2.67434378E+02
 20
5.46394358E+01
 11
-2.68519854E+02
 21
5.57249120E+01
  0
LINE
  8
0
 62
7
 10
-2.58749985E+02
 20
6.73694494E+01
 11
-2.62868027E+02
 21
6.73694494E+01
  0
LINE
  8
0
 62
7
 10
-2.66020229E+02
 20
5.60536710E+01
 11
-2.67105662E+02
 21
5.71391041E+01
  0
LINE
  8
0
 62
7
 10
-2.84750046E+02
 20
4.63694418E+01
 11
-2.74749954E+02
 21
4.63694418E+01
  0
LINE
  8
0
  6
CENTER
 62
2
 10
-2.79749954E+02
 20
9.68644598E+01
 11
-2.79749954E+02
 21
3.90682028E+01
  0
LINE
  8
0
  6
CENTER
 62
2
 10
-2.61250046E+02
 20
4.14814108E+01
 11
-2.61250046E+02
 21
5.74458044E+01
  0
LINE
  8
0
 62
7
 10
-2.99749954E+02
 20
9.33694799E+01
 11
-2.99749954E+02
 21
9.28694952E+01
  0
LINE
  8
0
 62
7
 10
-2.59749954E+02
 20
9.33694799E+01
 11
-2.59749954E+02
 21
9.28694342E+01
  0
LINE
  8
0
 62
7
 10
-2.99749954E+02
 20
4.38694799E+01
 11
-2.99749954E+02
 21
4.33694494E+01
  0
LINE
  8
0
 62
7
 10
-2.59749954E+02
 20
4.38694494E+01
 11
-2.59749954E+02
 21
4.33694494E+01
  0
LINE
  8
0
 62
7
 10
-2.90463150E+02
 20
5.03694723E+01
 11
-2.88500046E+02
 21
5.03694723E+01
  0
LINE
  8
0
 62
7
 10
-2.69038071E+02
 20
5.03693884E+01
 11
-2.70999954E+02
 21
5.03693884E+01
  0
LINE
  8
0
 62
7
 10
-2.61750046E+02
 20
5.76568640E+01
 11
-2.61750046E+02
 21
5.96194265E+01
  0
LINE
  8
0
 62
7
 10
-2.61749924E+02
 20
7.90807760E+01
 11
-2.61749924E+02
 21
7.71194952E+01
  0
LINE
  8
0
 62
7
 10
-2.69037033E+02
 20
8.63694570E+01
 11
-2.70999954E+02
 21
8.63694570E+01
  0
LINE
  8
0
 62
7
 10
-2.90461716E+02
 20
8.63695562E+01
 11
-2.88500046E+02
 21
8.63695562E+01
  0
LINE
  8
0
 62
7
 10
-2.97749985E+02
 20
7.90816152E+01
 11
-2.97749985E+02
 21
7.71194952E+01
  0
LINE
  8
0
 62
7
 10
-2.97749985E+02
 20
5.76572988E+01
 11
-2.97749985E+02
 21
5.96194265E+01
  0
LINE
  8
0
  6
CENTER
 62
2
 10
-2.67631393E+02
 20
4.98694799E+01
 11
-2.53109726E+02
 21
4.98694799E+01
  0
LINE
  8
0
  6
CENTER
 62
2
 10
-2.67631393E+02
 20
8.68695486E+01
 11
-2.53109726E+02
 21
8.68695486E+01
  0
LINE
  8
0
  6
CENTER
 62
2
 10
-2.69749954E+02
 20
7.67235601E+01
 11
-2.69749954E+02
 21
9.52984808E+01
  0
LINE
  8
0
  6
CENTER
 62
2
 10
-2.50777634E+02
 20
6.83694647E+01
 11
-3.09453751E+02
 21
6.83694647E+01
  0
CIRCLE
  8
0
 62
2
 10
-2.98249985E+02
 20
8.68695486E+01
 40
3.00000000E+00
  0
ARC
  8
0
 62
7
 10
-2.57749985E+02
 20
9.03694342E+01
 40
2.50000000E+00
 50
0.00000000E+00
 51
8.99999818E+01
  0
CIRCLE
  8
0
 62
7
 10
-2.61249893E+02
 20
8.68694723E+01
 40
5.00000000E+00
  0
CIRCLE
  8
0
 62
7
 10
-2.61249893E+02
 20
8.68694723E+01
 40
4.50000000E+00
  0
ARC
  8
0
 62
7
 10
-2.68141373E+02
 20
8.28064535E+01
 40
1.00000000E+00
 50
3.15000624E+02
 51
3.05224488E+01
  0
ARC
  8
0
 62
7
 10
-2.58749985E+02
 20
7.03694647E+01
 40
1.00000000E+00
 50
2.69999963E+02
 51
0.00000000E+00
  0
ARC
  8
0
 62
7
 10
-2.62868027E+02
 20
7.03694647E+01
 40
1.00000000E+00
 50
1.86756090E+02
 51
2.69999963E+02
  0
ARC
  8
0
 62
7
 10
-2.65312973E+02
 20
7.99780310E+01
 40
1.00000000E+00
 50
5.94777518E+01
 51
1.34999345E+02
  0
ARC
  8
0
 62
7
 10
-2.77749985E+02
 20
8.93694647E+01
 40
1.00000000E+00
 50
8.99999818E+01
 51
1.79999964E+02
  0
ARC
  8
0
 62
7
 10
-2.77749985E+02
 20
8.52514074E+01
 40
1.00000000E+00
 50
1.79999964E+02
 51
2.63243741E+02
  0
ARC
  8
0
 62
7
 10
-2.66398422E+02
 20
7.88925588E+01
 40
1.00000000E+00
 50
1.34999959E+02
 51
2.18243614E+02
  0
ARC
  8
0
 62
7
 10
-2.69226852E+02
 20
8.17209814E+01
 40
1.00000000E+00
 50
2.31755794E+02
 51
3.14999380E+02
  0
ARC
  8
0
 62
7
 10
-2.57749985E+02
 20
9.03694952E+01
 40
3.00000000E+00
 50
0.00000000E+00
 51
8.99999818E+01
  0
ARC
  8
0
 62
7
 10
-2.58749985E+02
 20
7.33694952E+01
 40
1.00000000E+00
 50
0.00000000E+00
 51
8.99999818E+01
  0
ARC
  8
0
 62
7
 10
-2.58749985E+02
 20
7.73695028E+01
 40
3.00000000E+00
 50
1.77973583E+02
 51
2.69999946E+02
  0
ARC
  8
0
 62
7
 10
-2.62747482E+02
 20
7.90109289E+01
 40
1.00000000E+00
 50
3.57973879E+02
 51
7.92109058E+01
  0
ARC
  8
0
 62
7
 10
-2.61249985E+02
 20
8.68695257E+01
 40
7.00000000E+00
 50
1.90788702E+02
 51
2.59211358E+02
  0
ARC
  8
0
 62
7
 10
-2.69108566E+02
 20
8.53720281E+01
 40
1.00000000E+00
 50
1.07884614E+01
 51
9.20251808E+01
  0
ARC
  8
0
 62
7
 10
-2.70749985E+02
 20
8.93695257E+01
 40
3.00000000E+00
 50
1.80000569E+02
 51
2.72025811E+02
  0
ARC
  8
0
 62
7
 10
-2.74749954E+02
 20
8.93694952E+01
 40
1.00000000E+00
 50
0.00000000E+00
 51
8.99999818E+01
  0
ARC
  8
0
 62
7
 10
-3.01750046E+02
 20
4.63694799E+01
 40
2.50000000E+00
 50
1.79999964E+02
 51
2.69999946E+02
  0
ARC
  8
0
 62
7
 10
-3.01749985E+02
 20
9.03694952E+01
 40
2.50000000E+00
 50
8.99999818E+01
 51
1.79999964E+02
  0
ARC
  8
0
 62
7
 10
-3.01750046E+02
 20
9.03694952E+01
 40
3.00000000E+00
 50
8.99999818E+01
 51
1.79999964E+02
  0
ARC
  8
0
 62
7
 10
-3.01750046E+02
 20
4.63694494E+01
 40
3.00000000E+00
 50
1.79999964E+02
 51
2.69999946E+02
  0
CIRCLE
  8
0
 62
7
 10
-2.98249985E+02
 20
8.68695257E+01
 40
4.50000000E+00
  0
CIRCLE
  8
0
 62
7
 10
-2.98249985E+02
 20
8.68695257E+01
 40
5.00000000E+00
  0
CIRCLE
  8
0
 62
7
 10
-2.98250015E+02
 20
4.98694647E+01
 40
4.50000000E+00
  0
CIRCLE
  8
0
 62
7
 10
-2.98250015E+02
 20
4.98694647E+01
 40
5.00000000E+00
  0
ARC
  8
0
 62
7
 10
-3.00749985E+02
 20
7.03694647E+01
 40
1.00000000E+00
 50
1.79999964E+02
 51
2.69999946E+02
  0
ARC
  8
0
 62
7
 10
-2.81749985E+02
 20
8.93694647E+01
 40
1.00000000E+00
 50
3.59999959E+02
 51
8.99999956E+01
  0
ARC
  8
0
 62
7
 10
-2.91358536E+02
 20
8.28065145E+01
 40
1.00000000E+00
 50
1.49477747E+02
 51
2.24999340E+02
  0
ARC
  8
0
 62
7
 10
-2.98249985E+02
 20
8.68695257E+01
 40
7.00000000E+00
 50
2.80788623E+02
 51
3.49211279E+02
  0
ARC
  8
0
 62
7
 10
-2.94186996E+02
 20
7.99780844E+01
 40
1.00000000E+00
 50
4.50006194E+01
 51
1.20522431E+02
  0
ARC
  8
0
 62
7
 10
-2.81749985E+02
 20
8.52514303E+01
 40
1.00000000E+00
 50
2.76756086E+02
 51
3.59999959E+02
  0
ARC
  8
0
 62
7
 10
-2.90273117E+02
 20
8.17210577E+01
 40
1.00000000E+00
 50
2.24999972E+02
 51
3.08243613E+02
  0
ARC
  8
0
 62
7
 10
-2.93101547E+02
 20
7.88926351E+01
 40
1.00000000E+00
 50
3.21755790E+02
 51
4.49993763E+01
  0
ARC
  8
0
 62
7
 10
-2.96631943E+02
 20
7.03694647E+01
 40
1.00000000E+00
 50
2.69999963E+02
 51
3.53243768E+02
  0
ARC
  8
0
 62
7
 10
-2.91358627E+02
 20
5.39324758E+01
 40
1.00000000E+00
 50
1.35000615E+02
 51
2.10522426E+02
  0
ARC
  8
0
 62
7
 10
-3.00749985E+02
 20
6.63694647E+01
 40
1.00000000E+00
 50
8.99999549E+01
 51
1.79999991E+02
  0
ARC
  8
0
 62
7
 10
-2.96631943E+02
 20
6.63694647E+01
 40
1.00000000E+00
 50
6.75608163E+00
 51
8.99999549E+01
  0
ARC
  8
0
 62
7
 10
-2.94187057E+02
 20
5.67608831E+01
 40
1.00000000E+00
 50
2.39477760E+02
 51
3.14999353E+02
  0
ARC
  8
0
 62
7
 10
-2.81749985E+02
 20
4.73694647E+01
 40
1.00000000E+00
 50
2.69999991E+02
 51
3.59999973E+02
  0
ARC
  8
0
 62
7
 10
-2.81749985E+02
 20
5.14875067E+01
 40
1.00000000E+00
 50
3.59999973E+02
 51
8.32437569E+01
  0
ARC
  8
0
 62
7
 10
-2.93101608E+02
 20
5.78463552E+01
 40
1.00000000E+00
 50
3.14999968E+02
 51
3.82436225E+01
  0
ARC
  8
0
 62
7
 10
-2.90273178E+02
 20
5.50179327E+01
 40
1.00000000E+00
 50
5.17557857E+01
 51
1.34999372E+02
  0
ARC
  8
0
 62
7
 10
-3.00749985E+02
 20
7.73695028E+01
 40
3.00000000E+00
 50
2.70000018E+02
 51
0.00000000E+00
  0
ARC
  8
0
 62
7
 10
-2.88750046E+02
 20
8.93695257E+01
 40
3.00000000E+00
 50
2.67974177E+02
 51
3.59999417E+02
  0
ARC
  8
0
 62
7
 10
-3.00749985E+02
 20
7.33694952E+01
 40
1.00000000E+00
 50
8.99999818E+01
 51
1.79999964E+02
  0
ARC
  8
0
 62
7
 10
-2.96752487E+02
 20
7.90109289E+01
 40
1.00000000E+00
 50
1.00789058E+02
 51
1.82026085E+02
  0
ARC
  8
0
 62
7
 10
-2.84750046E+02
 20
8.93694952E+01
 40
1.00000000E+00
 50
8.99999818E+01
 51
1.79999964E+02
  0
ARC
  8
0
 62
7
 10
-2.90391403E+02
 20
8.53720281E+01
 40
1.00000000E+00
 50
8.79747829E+01
 51
1.69211502E+02
  0
ARC
  8
0
 62
7
 10
-2.96752487E+02
 20
5.77280081E+01
 40
1.00000000E+00
 50
1.77973898E+02
 51
2.59210925E+02
  0
ARC
  8
0
 62
7
 10
-2.98249985E+02
 20
4.98694036E+01
 40
7.00000000E+00
 50
1.07887209E+01
 51
7.92113774E+01
  0
ARC
  8
0
 62
7
 10
-2.90391403E+02
 20
5.13669012E+01
 40
1.00000000E+00
 50
1.90788497E+02
 51
2.72025217E+02
  0
ARC
  8
0
 62
7
 10
-2.88750046E+02
 20
4.73694036E+01
 40
3.00000000E+00
 50
5.82842824E-04
 51
9.20258231E+01
  0
ARC
  8
0
 62
7
 10
-2.84750046E+02
 20
4.73694342E+01
 40
1.00000000E+00
 50
1.80000036E+02
 51
2.70000018E+02
  0
ARC
  8
0
 62
7
 10
-2.57750046E+02
 20
4.63694494E+01
 40
2.50000000E+00
 50
2.69999963E+02
 51
0.00000000E+00
  0
ARC
  8
0
 62
7
 10
-2.57749985E+02
 20
4.63694494E+01
 40
3.00000000E+00
 50
2.69999963E+02
 51
0.00000000E+00
  0
CIRCLE
  8
0
 62
7
 10
-2.61249985E+02
 20
4.98694036E+01
 40
4.50000000E+00
  0
CIRCLE
  8
0
 62
7
 10
-2.61249985E+02
 20
4.98694036E+01
 40
5.00000000E+00
  0
ARC
  8
0
 62
7
 10
-2.65313004E+02
 20
5.67608450E+01
 40
1.00000000E+00
 50
2.25000628E+02
 51
3.00522440E+02
  0
ARC
  8
0
 62
7
 10
-2.77749985E+02
 20
4.73694647E+01
 40
1.00000000E+00
 50
1.79999951E+02
 51
2.70000001E+02
  0
ARC
  8
0
 62
7
 10
-2.77749985E+02
 20
5.14875067E+01
 40
1.00000000E+00
 50
9.67560773E+01
 51
1.79999951E+02
  0
ARC
  8
0
 62
7
 10
-2.68141373E+02
 20
5.39324224E+01
 40
1.00000000E+00
 50
3.29477756E+02
 51
4.49993490E+01
  0
ARC
  8
0
 62
7
 10
-2.58749985E+02
 20
6.63694647E+01
 40
1.00000000E+00
 50
3.59999986E+02
 51
8.99999681E+01
  0
ARC
  8
0
 62
7
 10
-2.62868027E+02
 20
6.63694647E+01
 40
1.00000000E+00
 50
8.99999681E+01
 51
1.73243759E+02
  0
ARC
  8
0
 62
7
 10
-2.69226883E+02
 20
5.50178717E+01
 40
1.00000000E+00
 50
4.49999637E+01
 51
1.28243618E+02
  0
ARC
  8
0
 62
7
 10
-2.66398483E+02
 20
5.78463018E+01
 40
1.00000000E+00
 50
1.41755781E+02
 51
2.24999368E+02
  0
ARC
  8
0
 62
7
 10
-2.74749954E+02
 20
4.73694342E+01
 40
1.00000000E+00
 50
2.70000018E+02
 51
0.00000000E+00
  0
ARC
  8
0
 62
7
 10
-2.70749985E+02
 20
4.73694036E+01
 40
3.00000000E+00
 50
8.79741887E+01
 51
1.79999431E+02
  0
ARC
  8
0
 62
7
 10
-2.69108566E+02
 20
5.13669012E+01
 40
1.00000000E+00
 50
2.67974819E+02
 51
3.49211538E+02
  0
ARC
  8
0
 62
7
 10
-2.61249985E+02
 20
4.98694036E+01
 40
7.00000000E+00
 50
1.00788641E+02
 51
1.69211298E+02
  0
ARC
  8
0
 62
7
 10
-2.62747482E+02
 20
5.77280081E+01
 40
1.00000000E+00
 50
2.80789094E+02
 51
2.02612098E+00
  0
ARC
  8
0
 62
7
 10
-2.58749985E+02
 20
5.93694342E+01
 40
3.00000000E+00
 50
9.00000369E+01
 51
1.82026399E+02
  0
ARC
  8
0
 62
7
 10
-2.58749985E+02
 20
6.33694342E+01
 40
1.00000000E+00
 50
2.70000018E+02
 51
0.00000000E+00
  0
CIRCLE
  8
0
 62
7
 10
-2.79749954E+02
 20
6.83694647E+01
 40
1.60000000E+01
  0
CIRCLE
  8
0
 62
7
 10
-2.79749954E+02
 20
6.83694647E+01
 40
1.55000010E+01
  0
CIRCLE
  8
0
 62
7
 10
-2.79749954E+02
 20
6.83694647E+01
 40
1.50000000E+01
  0
ARC
  8
0
 62
7
 10
-3.00749985E+02
 20
5.93694342E+01
 40
3.00000000E+00
 50
3.57973625E+02
 51
8.99999818E+01
  0
ARC
  8
0
 62
7
 10
-3.00749985E+02
 20
6.33694342E+01
 40
1.00000000E+00
 50
1.79999977E+02
 51
2.70000028E+02
  0
CIRCLE
  8
0
 62
2
 10
-2.98250107E+02
 20
4.98694799E+01
 40
3.00000000E+00
  0
CIRCLE
  8
0
 62
2
 10
-2.61250046E+02
 20
4.98694799E+01
 40
3.00000000E+00
  0
CIRCLE
  8
0
 62
2
 10
-2.61249893E+02
 20
8.68695486E+01
 40
3.00000000E+00
  0
CIRCLE
  8
0
 62
2
 10
-2.79749954E+02
 20
6.83694647E+01
 40
6.17999268E+00
  0
CIRCLE
  8
0
 62
7
 10
-2.79749954E+02
 20
6.83694647E+01
 40
5.49998474E+00
  0
CIRCLE
  8
0
 62
7
 10
-2.79749954E+02
 20
6.83694647E+01
 40
7.00000000E+00
  0
CIRCLE
  8
0
 62
4
 10
-2.79749954E+02
 20
6.83694647E+01
 40
1.10000000E+01
  0
LINE
  8
0
 62
4
 10
-2.79749954E+02
 20
8.10711706E+01
 11
-2.90749954E+02
 21
7.47203176E+01
  0
LINE
  8
0
 62
4
 10
-2.90749954E+02
 20
7.47203176E+01
 11
-2.90749954E+02
 21
6.20186117E+01
  0
LINE
  8
0
 62
4
 10
-2.90749954E+02
 20
6.20186117E+01
 11
-2.79749954E+02
 21
5.56677587E+01
  0
LINE
  8
0
 62
4
 10
-2.79749954E+02
 20
5.56677587E+01
 11
-2.68749954E+02
 21
6.20186117E+01
  0
LINE
  8
0
 62
4
 10
-2.68749954E+02
 20
6.20186117E+01
 11
-2.68749954E+02
 21
7.47203176E+01
  0
LINE
  8
0
 62
4
 10
-2.68749954E+02
 20
7.47203176E+01
 11
-2.79749954E+02
 21
8.10711706E+01
  0
LINE
  8
0
 62
6
 10
-3.08263087E+02
 20
8.06868497E+01
 11
-3.05225326E+02
 21
8.12224890E+01
  0
LINE
  8
0
 62
6
 10
-3.08784032E+02
 20
8.36412730E+01
 11
-3.05746270E+02
 21
8.41769123E+01
  0
LINE
  8
0
 62
4
 10
-3.08176263E+02
 20
8.01944458E+01
 11
-3.08870856E+02
 21
8.41336768E+01
  0
LINE
  8
0
 62
4
 10
-3.08176263E+02
 20
8.01944458E+01
 11
-3.05138501E+02
 21
8.07300852E+01
  0
LINE
  8
0
 62
4
 10
-3.08870856E+02
 20
8.41336768E+01
 11
-3.05833094E+02
 21
8.46693162E+01
  0
LINE
  8
0
 62
4
 10
-3.06402238E+02
 20
8.78970907E+01
 11
-3.04791205E+02
 21
7.87604697E+01
  0
LINE
  8
0
 62
4
 10
-2.93694241E+02
 20
1.05087402E+02
 11
-3.00587895E+02
 21
1.03871865E+02
  0
LINE
  8
0
 62
4
 10
-3.00587895E+02
 20
1.03871865E+02
 11
-3.06402238E+02
 21
8.78970907E+01
  0
ARC
  8
0
 62
4
 10
-3.03313993E+02
 20
7.90209419E+01
 40
1.50000000E+00
 50
1.90000000E+02
 51
1.96794373E+02
  0
LINE
  8
0
 62
4
 10
-2.92218232E+02
 20
9.67165366E+01
 11
-2.92710636E+02
 21
9.66297125E+01
  0
LINE
  8
0
 62
4
 10
-2.93116215E+02
 20
9.60504845E+01
 11
-2.92643485E+02
 21
9.33694952E+01
  0
ARC
  8
0
 62
4
 10
-2.92623811E+02
 20
9.61373086E+01
 40
5.00000000E-01
 50
9.99999999E+01
 51
1.90000000E+02
  0
LINE
  8
0
  6
CENTER
 62
6
 10
-2.99408837E+02
 20
8.37712328E+01
 11
-3.06874841E+02
 21
8.24547748E+01
  0
LINE
  8
0
  6
CENTER
 62
6
 10
-2.93843495E+02
 20
9.69376722E+01
 11
-2.80992989E+02
 21
9.92035630E+01
  0
LINE
  8
0
  6
CENTER
 62
6
 10
-3.03685131E+02
 20
9.87563194E+01
 11
-2.81600758E+02
 21
1.02650390E+02
  0
LINE
  8
0
 62
4
 10
-2.84925187E+02
 20
9.56670160E+01
 11
-2.84600723E+02
 21
9.61303984E+01
  0
LINE
  8
0
 62
4
 10
-2.84600723E+02
 20
9.61303984E+01
 11
-2.81744780E+02
 21
9.66339781E+01
  0
LINE
  8
0
 62
4
 10
-2.85417590E+02
 20
9.55801919E+01
 11
-2.85027785E+02
 21
9.33694952E+01
  0
LINE
  8
0
 62
4
 10
-2.85417590E+02
 20
9.55801919E+01
 11
-2.84925187E+02
 21
9.56670160E+01
  0
LINE
  8
0
 62
4
 10
-2.93694241E+02
 20
1.05087402E+02
 11
-2.92218232E+02
 21
9.67165366E+01
  0
LINE
  8
0
 62
4
 10
-2.83550721E+02
 20
1.06875979E+02
 11
-2.93694241E+02
 21
1.05087402E+02
  0
LINE
  8
0
 62
4
 10
-2.92612155E+02
 20
9.66470773E+01
 11
-2.92034229E+02
 21
9.33694952E+01
  0
LINE
  8
0
 62
4
 10
-2.82166703E+02
 20
9.51684472E+01
 11
-2.81849500E+02
 21
9.33694952E+01
  0
LINE
  8
0
 62
4
 10
-2.84149441E+02
 20
9.33694952E+01
 11
-2.84397293E+02
 21
9.47751341E+01
  0
LINE
  8
0
 62
4
 10
-2.81460995E+02
 20
9.61763038E+01
 11
-2.82166703E+02
 21
9.51684472E+01
  0
LINE
  8
0
 62
4
 10
-2.85400226E+02
 20
9.54817111E+01
 11
-2.84397293E+02
 21
9.47751341E+01
  0
LINE
  8
0
 62
4
 10
-2.84397293E+02
 20
9.47751341E+01
 11
-2.82166703E+02
 21
9.51684472E+01
  0
LINE
  8
0
 62
4
 10
-2.85400226E+02
 20
9.54817111E+01
 11
-2.81460995E+02
 21
9.61763038E+01
  0
LINE
  8
0
 62
4
 10
-2.81460995E+02
 20
9.61763038E+01
 11
-2.80966079E+02
 21
9.33694952E+01
  0
LINE
  8
0
  6
CENTER
 62
6
 10
-2.83604258E+02
 20
9.68138152E+01
 11
-2.82562369E+02
 21
9.09049687E+01
  0
LINE
  8
0
  6
CENTER
 62
6
 10
-2.86037737E+02
 20
9.33384475E+01
 11
-2.80128891E+02
 21
9.43803365E+01
  0
LINE
  8
0
 62
4
 10
-2.83429168E+02
 20
1.06186613E+02
 11
-2.82444360E+02
 21
1.06360261E+02
  0
ARC
  8
0
 62
4
 10
-2.80254118E+02
 20
1.00450815E+02
 40
1.00000000E+00
 50
3.28723662E+02
 51
3.57172490E+02
  0
ARC
  8
0
 62
4
 10
-2.81087629E+02
 20
1.05177893E+02
 40
1.00000000E+00
 50
2.28275100E+01
 51
9.99999999E+01
  0
ARC
  8
0
 62
4
 10
-2.91050958E+02
 20
1.00984065E+02
 40
1.18100000E+01
 50
3.57172490E+02
 51
2.28275100E+01
  0
LINE
  8
0
 62
4
 10
-2.82374901E+02
 20
1.05966338E+02
 11
-2.81262068E+02
 21
1.06162561E+02
  0
LINE
  8
0
 62
4
 10
-2.81897368E+02
 20
1.03258117E+02
 11
-2.82444360E+02
 21
1.06360261E+02
  0
LINE
  8
0
 62
4
 10
-2.81066669E+02
 20
9.49765508E+01
 11
-2.82507949E+02
 21
1.03150455E+02
  0
LINE
  8
0
 62
4
 10
-2.82856129E+02
 20
1.02936748E+02
 11
-2.82481902E+02
 21
1.03002734E+02
  0
LINE
  8
0
 62
4
 10
-2.81269982E+02
 20
9.50930153E+01
 11
-2.81092716E+02
 21
9.51242720E+01
  0
LINE
  8
0
 62
4
 10
-2.82507949E+02
 20
1.03150455E+02
 11
-2.80774687E+02
 21
1.03456076E+02
  0
LINE
  8
0
 62
4
 10
-2.81066669E+02
 20
9.49765508E+01
 11
-2.79333407E+02
 21
9.52821716E+01
  0
ARC
  8
0
 62
4
 10
-2.90947105E+02
 20
9.74562415E+01
 40
1.18100000E+01
 50
9.99999999E+00
 51
3.05326991E+01
  0
ARC
  8
0
 62
4
 10
-2.90944418E+02
 20
9.74410000E+01
 40
1.18100000E+01
 50
3.49467301E+02
 51
9.99999999E+00
  0
LINE
  8
0
 62
4
 10
-2.81657956E+02
 20
9.61415742E+01
 11
-2.83550721E+02
 21
1.06875979E+02
  0
LINE
  8
0
 62
4
 10
-2.78032904E+02
 20
9.50582857E+01
 11
-2.75949126E+02
 21
1.06875979E+02
  0
LINE
  8
0
 62
4
 10
-2.78032904E+02
 20
9.50582857E+01
 11
-2.78407131E+02
 21
9.51242720E+01
  0
LINE
  8
0
 62
4
 10
-2.78433178E+02
 20
9.49765508E+01
 11
-2.77764633E+02
 21
9.87680607E+01
  0
LINE
  8
0
 62
4
 10
-2.78375214E+02
 20
9.88757225E+01
 11
-2.77055488E+02
 21
1.06360261E+02
  0
LINE
  8
0
 62
4
 10
-2.76070680E+02
 20
1.06186613E+02
 11
-2.77055488E+02
 21
1.06360261E+02
  0
LINE
  8
0
 62
4
 10
-2.77390406E+02
 20
9.87020744E+01
 11
-2.78375214E+02
 21
9.88757225E+01
  0
ARC
  8
0
 62
4
 10
-2.76546770E+02
 20
9.31207862E+01
 40
5.00000000E-01
 50
2.98293252E+01
 51
1.50170675E+02
  0
CIRCLE
  8
0
 62
4
 10
-2.76286298E+02
 20
9.45979978E+01
 40
5.00000000E-01
  0
CIRCLE
  8
0
 62
4
 10
-2.76286298E+02
 20
9.45979978E+01
 40
3.00000000E-01
  0
ARC
  8
0
 62
4
 10
-2.76546770E+02
 20
9.31207862E+01
 40
3.00000000E-01
 50
5.59992305E+01
 51
1.24000769E+02
  0
ARC
  8
0
 62
4
 10
-2.76416534E+02
 20
9.38593920E+01
 40
1.50000000E+00
 50
3.40937591E+02
 51
1.99062409E+02
  0
LINE
  8
0
 62
4
 10
-2.53097610E+02
 20
8.78970907E+01
 11
-2.54708642E+02
 21
7.87604697E+01
  0
LINE
  8
0
 62
4
 10
-2.65805606E+02
 20
1.05087402E+02
 11
-2.58911952E+02
 21
1.03871865E+02
  0
LINE
  8
0
 62
4
 10
-2.58911952E+02
 20
1.03871865E+02
 11
-2.53097610E+02
 21
8.78970907E+01
  0
ARC
  8
0
 62
4
 10
-2.56185854E+02
 20
7.90209419E+01
 40
1.50000000E+00
 50
3.43189498E+02
 51
3.50000000E+02
  0
LINE
  8
0
 62
4
 10
-2.67281616E+02
 20
9.67165366E+01
 11
-2.66789212E+02
 21
9.66297125E+01
  0
LINE
  8
0
 62
4
 10
-2.66383632E+02
 20
9.60504845E+01
 11
-2.66856363E+02
 21
9.33694952E+01
  0
ARC
  8
0
 62
4
 10
-2.66876036E+02
 20
9.61373086E+01
 40
5.00000000E-01
 50
3.50000000E+02
 51
7.99999999E+01
  0
LINE
  8
0
  6
CENTER
 62
6
 10
-2.59681945E+02
 20
8.36991035E+01
 11
-2.52215941E+02
 21
8.23826456E+01
  0
LINE
  8
0
  6
CENTER
 62
6
 10
-2.65656353E+02
 20
9.69376722E+01
 11
-2.78506858E+02
 21
9.92035630E+01
  0
LINE
  8
0
  6
CENTER
 62
6
 10
-2.55814717E+02
 20
9.87563194E+01
 11
-2.77899089E+02
 21
1.02650390E+02
  0
LINE
  8
0
 62
4
 10
-2.74574661E+02
 20
9.56670160E+01
 11
-2.74899125E+02
 21
9.61303984E+01
  0
LINE
  8
0
 62
4
 10
-2.74899125E+02
 20
9.61303984E+01
 11
-2.77755067E+02
 21
9.66339781E+01
  0
LINE
  8
0
 62
4
 10
-2.74082257E+02
 20
9.55801919E+01
 11
-2.74472062E+02
 21
9.33694952E+01
  0
LINE
  8
0
 62
4
 10
-2.74082257E+02
 20
9.55801919E+01
 11
-2.74574661E+02
 21
9.56670160E+01
  0
LINE
  8
0
 62
4
 10
-2.65805606E+02
 20
1.05087402E+02
 11
-2.67281616E+02
 21
9.67165366E+01
  0
LINE
  8
0
 62
4
 10
-2.75949126E+02
 20
1.06875979E+02
 11
-2.65805606E+02
 21
1.05087402E+02
  0
LINE
  8
0
 62
4
 10
-2.66887693E+02
 20
9.66470773E+01
 11
-2.67465619E+02
 21
9.33694952E+01
  0
LINE
  8
0
 62
4
 10
-2.74099622E+02
 20
9.54817111E+01
 11
-2.78038853E+02
 21
9.61763038E+01
  0
LINE
  8
0
 62
4
 10
-2.78038853E+02
 20
9.61763038E+01
 11
-2.78533769E+02
 21
9.33694952E+01
  0
LINE
  8
0
  6
CENTER
 62
6
 10
-2.75895589E+02
 20
9.68138152E+01
 11
-2.76937478E+02
 21
9.09049687E+01
  0
LINE
  8
0
  6
CENTER
 62
6
 10
-2.73462110E+02
 20
9.33384475E+01
 11
-2.79370957E+02
 21
9.43803365E+01
  0
LINE
  8
0
 62
4
 10
-2.50628992E+02
 20
8.41336768E+01
 11
-2.53666753E+02
 21
8.46693162E+01
  0
LINE
  8
0
 62
4
 10
-2.51323584E+02
 20
8.01944458E+01
 11
-2.54361346E+02
 21
8.07300852E+01
  0
LINE
  8
0
 62
6
 10
-2.50715816E+02
 20
8.36412730E+01
 11
-2.53753577E+02
 21
8.41769123E+01
  0
LINE
  8
0
 62
6
 10
-2.51236760E+02
 20
8.06868497E+01
 11
-2.54274522E+02
 21
8.12224890E+01
  0
LINE
  8
0
 62
4
 10
-2.51323584E+02
 20
8.01944458E+01
 11
-2.50628992E+02
 21
8.41336768E+01
  0
ARC
  8
0
 62
4
 10
-2.78412218E+02
 20
1.05177893E+02
 40
1.00000000E+00
 50
7.99999999E+01
 51
1.57172490E+02
  0
LINE
  8
0
 62
4
 10
-2.77124947E+02
 20
1.05966338E+02
 11
-2.78237780E+02
 21
1.06162561E+02
  0
ARC
  8
0
  6
DASHED
 62
4
 10
-2.68448890E+02
 20
1.00984065E+02
 40
1.18100000E+01
 50
1.63117791E+02
 51
1.82827510E+02
  0
LINE
  8
0
 62
4
 10
-2.78305754E+02
 20
9.92696456E+01
 11
-2.79305856E+02
 21
9.94459906E+01
  0
ARC
  8
0
  6
DASHED
 62
4
 10
-2.79245729E+02
 20
1.00450815E+02
 40
1.00000000E+00
 50
1.82827510E+02
 51
2.60000000E+02
  0
ARC
  8
0
  6
DASHED
 62
4
 10
-2.68555430E+02
 20
9.74410000E+01
 40
1.18100000E+01
 50
1.70000000E+02
 51
1.90532699E+02
  0
ARC
  8
0
  6
DASHED
 62
4
 10
-2.68552742E+02
 20
9.74562415E+01
 40
1.18100000E+01
 50
1.67900933E+02
 51
1.70000000E+02
  0
LINE
  8
0
 62
4
 10
-2.78433178E+02
 20
9.49765508E+01
 11
-2.79749924E+02
 21
9.52087285E+01
  0
ARC
  8
0
 62
4
 10
-2.68448890E+02
 20
1.00984065E+02
 40
1.18100000E+01
 50
1.57172490E+02
 51
1.63117791E+02
  0
LINE
  8
0
  6
DASHED
 62
4
 10
-2.79305856E+02
 20
9.94459906E+01
 11
-2.79418587E+02
 21
9.94658681E+01
  0
LINE
  8
0
  6
DASHED
 62
4
 10
-2.79749924E+02
 20
9.52087285E+01
 11
-2.80166440E+02
 21
9.52821716E+01
  0
CIRCLE
  8
0
 62
7
 10
2.01749893E+02
 20
4.98694799E+01
 40
2.45850000E+00
  0
CIRCLE
  8
0
 62
7
 10
2.38749954E+02
 20
4.98694799E+01
 40
2.45850000E+00
  0
CIRCLE
  8
0
 62
7
 10
2.38750107E+02
 20
8.68695486E+01
 40
2.45850000E+00
  0
CIRCLE
  8
0
 62
7
 10
2.01749962E+02
 20
8.68695486E+01
 40
2.45850000E+00
  0
LINE
  8
0
 62
7
 10
2.24250018E+02
 20
7.13694647E+01
 11
2.24250018E+02
 21
6.53694647E+01
  0
LINE
  8
0
 62
7
 10
2.16250074E+02
 20
7.13694647E+01
 11
2.16250074E+02
 21
6.53694647E+01
  0
LINE
  8
0
 62
7
 10
2.17250073E+02
 20
6.43694723E+01
 11
2.23250019E+02
 21
6.43694723E+01
  0
LINE
  8
0
 62
7
 10
2.17250083E+02
 20
7.23694647E+01
 11
2.23541295E+02
 21
7.23694647E+01
  0
LINE
  8
0
 62
7
 10
2.29750046E+02
 20
7.38542922E+01
 11
2.20250046E+02
 21
7.93391198E+01
  0
LINE
  8
0
 62
7
 10
2.29750046E+02
 20
6.28846371E+01
 11
2.29750046E+02
 21
7.38542922E+01
  0
LINE
  8
0
 62
7
 10
2.20250046E+02
 20
5.73998096E+01
 11
2.29750046E+02
 21
6.28846371E+01
  0
LINE
  8
0
 62
7
 10
2.10750046E+02
 20
6.28846371E+01
 11
2.20250046E+02
 21
5.73998096E+01
  0
LINE
  8
0
 62
7
 10
2.10750046E+02
 20
7.38542922E+01
 11
2.10750046E+02
 21
6.28846371E+01
  0
LINE
  8
0
 62
7
 10
2.20250046E+02
 20
7.93391198E+01
 11
2.10750046E+02
 21
7.38542922E+01
  0
CIRCLE
  8
0
 62
7
 10
2.20250046E+02
 20
6.83694647E+01
 40
9.50000000E+00
  0
CIRCLE
  8
0
 62
7
 10
2.20250046E+02
 20
6.83694647E+01
 40
4.99997767E+00
  0
CIRCLE
  8
0
 62
2
 10
2.20250046E+02
 20
6.83694647E+01
 40
5.17999268E+00
  0
CIRCLE
  8
0
 62
7
 10
2.20250046E+02
 20
6.83694647E+01
 40
6.00000000E+00
  0
CIRCLE
  8
0
 62
7
 10
2.20250046E+02
 20
6.83694647E+01
 40
1.21500015E+01
  0
LINE
  8
0
  6
DASHED
 62
4
 10
2.20250076E+02
 20
9.52087285E+01
 11
2.19833560E+02
 21
9.52821716E+01
  0
LINE
  8
0
  6
DASHED
 62
4
 10
2.20694144E+02
 20
9.94459906E+01
 11
2.20581413E+02
 21
9.94658681E+01
  0
ARC
  8
0
 62
4
 10
2.31551110E+02
 20
1.00984065E+02
 40
1.18100000E+01
 50
1.57172490E+02
 51
1.63117791E+02
  0
LINE
  8
0
 62
4
 10
2.21566822E+02
 20
9.49765508E+01
 11
2.20250076E+02
 21
9.52087285E+01
  0
ARC
  8
0
  6
DASHED
 62
4
 10
2.31447258E+02
 20
9.74562415E+01
 40
1.18100000E+01
 50
1.67900933E+02
 51
1.70000000E+02
  0
ARC
  8
0
  6
DASHED
 62
4
 10
2.31444570E+02
 20
9.74410000E+01
 40
1.18100000E+01
 50
1.70000000E+02
 51
1.90532699E+02
  0
ARC
  8
0
  6
DASHED
 62
4
 10
2.20754271E+02
 20
1.00450815E+02
 40
1.00000000E+00
 50
1.82827510E+02
 51
2.60000000E+02
  0
LINE
  8
0
 62
4
 10
2.21694246E+02
 20
9.92696456E+01
 11
2.20694144E+02
 21
9.94459906E+01
  0
ARC
  8
0
  6
DASHED
 62
4
 10
2.31551110E+02
 20
1.00984065E+02
 40
1.18100000E+01
 50
1.63117791E+02
 51
1.82827510E+02
  0
LINE
  8
0
 62
4
 10
2.22875053E+02
 20
1.05966338E+02
 11
2.21762220E+02
 21
1.06162561E+02
  0
ARC
  8
0
 62
4
 10
2.21587782E+02
 20
1.05177893E+02
 40
1.00000000E+00
 50
7.99999999E+01
 51
1.57172490E+02
  0
LINE
  8
0
 62
4
 10
2.48676416E+02
 20
8.01944458E+01
 11
2.49371008E+02
 21
8.41336768E+01
  0
LINE
  8
0
 62
6
 10
2.48763240E+02
 20
8.06868497E+01
 11
2.45725478E+02
 21
8.12224890E+01
  0
LINE
  8
0
 62
6
 10
2.49284184E+02
 20
8.36412730E+01
 11
2.46246423E+02
 21
8.41769123E+01
  0
LINE
  8
0
 62
4
 10
2.48676416E+02
 20
8.01944458E+01
 11
2.45638654E+02
 21
8.07300852E+01
  0
LINE
  8
0
 62
4
 10
2.49371008E+02
 20
8.41336768E+01
 11
2.46333247E+02
 21
8.46693162E+01
  0
LINE
  8
0
  6
CENTER
 62
6
 10
2.26537890E+02
 20
9.33384475E+01
 11
2.20629043E+02
 21
9.43803365E+01
  0
LINE
  8
0
  6
CENTER
 62
6
 10
2.24104411E+02
 20
9.68138152E+01
 11
2.23062522E+02
 21
9.09049687E+01
  0
LINE
  8
0
 62
4
 10
2.21961147E+02
 20
9.61763038E+01
 11
2.21466231E+02
 21
9.33694952E+01
  0
LINE
  8
0
 62
4
 10
2.25900378E+02
 20
9.54817111E+01
 11
2.21961147E+02
 21
9.61763038E+01
  0
LINE
  8
0
 62
4
 10
2.33112307E+02
 20
9.66470773E+01
 11
2.32534381E+02
 21
9.33694952E+01
  0
LINE
  8
0
 62
4
 10
2.24050874E+02
 20
1.06875979E+02
 11
2.34194394E+02
 21
1.05087402E+02
  0
LINE
  8
0
 62
4
 10
2.34194394E+02
 20
1.05087402E+02
 11
2.32718384E+02
 21
9.67165366E+01
  0
LINE
  8
0
 62
4
 10
2.25917743E+02
 20
9.55801919E+01
 11
2.25425339E+02
 21
9.56670160E+01
  0
LINE
  8
0
 62
4
 10
2.25917743E+02
 20
9.55801919E+01
 11
2.25527938E+02
 21
9.33694952E+01
  0
LINE
  8
0
 62
4
 10
2.25100875E+02
 20
9.61303984E+01
 11
2.22244933E+02
 21
9.66339781E+01
  0
LINE
  8
0
 62
4
 10
2.25425339E+02
 20
9.56670160E+01
 11
2.25100875E+02
 21
9.61303984E+01
  0
LINE
  8
0
  6
CENTER
 62
6
 10
2.44185283E+02
 20
9.87563194E+01
 11
2.22100911E+02
 21
1.02650390E+02
  0
LINE
  8
0
  6
CENTER
 62
6
 10
2.34343647E+02
 20
9.69376722E+01
 11
2.21493142E+02
 21
9.92035630E+01
  0
LINE
  8
0
  6
CENTER
 62
6
 10
2.40318055E+02
 20
8.36991035E+01
 11
2.47784059E+02
 21
8.23826456E+01
  0
ARC
  8
0
 62
4
 10
2.33123964E+02
 20
9.61373086E+01
 40
5.00000000E-01
 50
3.50000000E+02
 51
7.99999999E+01
  0
LINE
  8
0
 62
4
 10
2.33616368E+02
 20
9.60504845E+01
 11
2.33143637E+02
 21
9.33694952E+01
  0
LINE
  8
0
 62
4
 10
2.32718384E+02
 20
9.67165366E+01
 11
2.33210788E+02
 21
9.66297125E+01
  0
ARC
  8
0
 62
4
 10
2.43814146E+02
 20
7.90209419E+01
 40
1.50000000E+00
 50
3.43189498E+02
 51
3.50000000E+02
  0
LINE
  8
0
 62
4
 10
2.41088048E+02
 20
1.03871865E+02
 11
2.46902390E+02
 21
8.78970907E+01
  0
LINE
  8
0
 62
4
 10
2.34194394E+02
 20
1.05087402E+02
 11
2.41088048E+02
 21
1.03871865E+02
  0
LINE
  8
0
 62
4
 10
2.46902390E+02
 20
8.78970907E+01
 11
2.45291358E+02
 21
7.87604697E+01
  0
ARC
  8
0
 62
4
 10
2.23583466E+02
 20
9.38593920E+01
 40
1.50000000E+00
 50
3.40937591E+02
 51
1.99062409E+02
  0
ARC
  8
0
 62
4
 10
2.23453230E+02
 20
9.31207862E+01
 40
3.00000000E-01
 50
5.59992305E+01
 51
1.24000769E+02
  0
CIRCLE
  8
0
 62
4
 10
2.23713702E+02
 20
9.45979978E+01
 40
3.00000000E-01
  0
CIRCLE
  8
0
 62
4
 10
2.23713702E+02
 20
9.45979978E+01
 40
5.00000000E-01
  0
ARC
  8
0
 62
4
 10
2.23453230E+02
 20
9.31207862E+01
 40
5.00000000E-01
 50
2.98293252E+01
 51
1.50170675E+02
  0
LINE
  8
0
 62
4
 10
2.22609594E+02
 20
9.87020744E+01
 11
2.21624786E+02
 21
9.88757225E+01
  0
LINE
  8
0
 62
4
 10
2.23929320E+02
 20
1.06186613E+02
 11
2.22944512E+02
 21
1.06360261E+02
  0
LINE
  8
0
 62
4
 10
2.21624786E+02
 20
9.88757225E+01
 11
2.22944512E+02
 21
1.06360261E+02
  0
LINE
  8
0
 62
4
 10
2.21566822E+02
 20
9.49765508E+01
 11
2.22235367E+02
 21
9.87680607E+01
  0
LINE
  8
0
 62
4
 10
2.21967096E+02
 20
9.50582857E+01
 11
2.21592869E+02
 21
9.51242720E+01
  0
LINE
  8
0
 62
4
 10
2.21967096E+02
 20
9.50582857E+01
 11
2.24050874E+02
 21
1.06875979E+02
  0
LINE
  8
0
 62
4
 10
2.18342044E+02
 20
9.61415742E+01
 11
2.16449279E+02
 21
1.06875979E+02
  0
ARC
  8
0
 62
4
 10
2.09055582E+02
 20
9.74410000E+01
 40
1.18100000E+01
 50
3.49467301E+02
 51
9.99999999E+00
  0
ARC
  8
0
 62
4
 10
2.09052895E+02
 20
9.74562415E+01
 40
1.18100000E+01
 50
9.99999999E+00
 51
3.05326991E+01
  0
LINE
  8
0
 62
4
 10
2.18933331E+02
 20
9.49765508E+01
 11
2.20666593E+02
 21
9.52821716E+01
  0
LINE
  8
0
 62
4
 10
2.17492051E+02
 20
1.03150455E+02
 11
2.19225313E+02
 21
1.03456076E+02
  0
LINE
  8
0
 62
4
 10
2.18730018E+02
 20
9.50930153E+01
 11
2.18907284E+02
 21
9.51242720E+01
  0
LINE
  8
0
 62
4
 10
2.17143871E+02
 20
1.02936748E+02
 11
2.17518098E+02
 21
1.03002734E+02
  0
LINE
  8
0
 62
4
 10
2.18933331E+02
 20
9.49765508E+01
 11
2.17492051E+02
 21
1.03150455E+02
  0
LINE
  8
0
 62
4
 10
2.18102632E+02
 20
1.03258117E+02
 11
2.17555640E+02
 21
1.06360261E+02
  0
LINE
  8
0
 62
4
 10
2.17625099E+02
 20
1.05966338E+02
 11
2.18737932E+02
 21
1.06162561E+02
  0
ARC
  8
0
 62
4
 10
2.08949042E+02
 20
1.00984065E+02
 40
1.18100000E+01
 50
3.57172490E+02
 51
2.28275100E+01
  0
ARC
  8
0
 62
4
 10
2.18912371E+02
 20
1.05177893E+02
 40
1.00000000E+00
 50
2.28275100E+01
 51
9.99999999E+01
  0
ARC
  8
0
 62
4
 10
2.19745882E+02
 20
1.00450815E+02
 40
1.00000000E+00
 50
3.28723662E+02
 51
3.57172490E+02
  0
LINE
  8
0
 62
4
 10
2.16570832E+02
 20
1.06186613E+02
 11
2.17555640E+02
 21
1.06360261E+02
  0
LINE
  8
0
  6
CENTER
 62
6
 10
2.13962263E+02
 20
9.33384475E+01
 11
2.19871109E+02
 21
9.43803365E+01
  0
LINE
  8
0
  6
CENTER
 62
6
 10
2.16395742E+02
 20
9.68138152E+01
 11
2.17437631E+02
 21
9.09049687E+01
  0
LINE
  8
0
 62
4
 10
2.18539005E+02
 20
9.61763038E+01
 11
2.19033921E+02
 21
9.33694952E+01
  0
LINE
  8
0
 62
4
 10
2.14599774E+02
 20
9.54817111E+01
 11
2.18539005E+02
 21
9.61763038E+01
  0
LINE
  8
0
 62
4
 10
2.15602707E+02
 20
9.47751341E+01
 11
2.17833297E+02
 21
9.51684472E+01
  0
LINE
  8
0
 62
4
 10
2.14599774E+02
 20
9.54817111E+01
 11
2.15602707E+02
 21
9.47751341E+01
  0
LINE
  8
0
 62
4
 10
2.18539005E+02
 20
9.61763038E+01
 11
2.17833297E+02
 21
9.51684472E+01
  0
LINE
  8
0
 62
4
 10
2.15850559E+02
 20
9.33694952E+01
 11
2.15602707E+02
 21
9.47751341E+01
  0
LINE
  8
0
 62
4
 10
2.17833297E+02
 20
9.51684472E+01
 11
2.18150500E+02
 21
9.33694952E+01
  0
LINE
  8
0
 62
4
 10
2.07387845E+02
 20
9.66470773E+01
 11
2.07965771E+02
 21
9.33694952E+01
  0
LINE
  8
0
 62
4
 10
2.16449279E+02
 20
1.06875979E+02
 11
2.06305759E+02
 21
1.05087402E+02
  0
LINE
  8
0
 62
4
 10
2.06305759E+02
 20
1.05087402E+02
 11
2.07781768E+02
 21
9.67165366E+01
  0
LINE
  8
0
 62
4
 10
2.14582410E+02
 20
9.55801919E+01
 11
2.15074813E+02
 21
9.56670160E+01
  0
LINE
  8
0
 62
4
 10
2.14582410E+02
 20
9.55801919E+01
 11
2.14972215E+02
 21
9.33694952E+01
  0
LINE
  8
0
 62
4
 10
2.15399277E+02
 20
9.61303984E+01
 11
2.18255220E+02
 21
9.66339781E+01
  0
LINE
  8
0
 62
4
 10
2.15074813E+02
 20
9.56670160E+01
 11
2.15399277E+02
 21
9.61303984E+01
  0
LINE
  8
0
  6
CENTER
 62
6
 10
1.96314869E+02
 20
9.87563194E+01
 11
2.18399242E+02
 21
1.02650390E+02
  0
LINE
  8
0
  6
CENTER
 62
6
 10
2.06156505E+02
 20
9.69376722E+01
 11
2.19007011E+02
 21
9.92035630E+01
  0
LINE
  8
0
  6
CENTER
 62
6
 10
2.00591163E+02
 20
8.37712328E+01
 11
1.93125159E+02
 21
8.24547748E+01
  0
ARC
  8
0
 62
4
 10
2.07376189E+02
 20
9.61373086E+01
 40
5.00000000E-01
 50
9.99999999E+01
 51
1.90000000E+02
  0
LINE
  8
0
 62
4
 10
2.06883785E+02
 20
9.60504845E+01
 11
2.07356515E+02
 21
9.33694952E+01
  0
LINE
  8
0
 62
4
 10
2.07781768E+02
 20
9.67165366E+01
 11
2.07289364E+02
 21
9.66297125E+01
  0
ARC
  8
0
 62
4
 10
1.96686007E+02
 20
7.90209419E+01
 40
1.50000000E+00
 50
1.90000000E+02
 51
1.96794373E+02
  0
LINE
  8
0
 62
4
 10
1.99412105E+02
 20
1.03871865E+02
 11
1.93597762E+02
 21
8.78970907E+01
  0
LINE
  8
0
 62
4
 10
2.06305759E+02
 20
1.05087402E+02
 11
1.99412105E+02
 21
1.03871865E+02
  0
LINE
  8
0
 62
4
 10
1.93597762E+02
 20
8.78970907E+01
 11
1.95208795E+02
 21
7.87604697E+01
  0
LINE
  8
0
 62
4
 10
1.91129144E+02
 20
8.41336768E+01
 11
1.94166906E+02
 21
8.46693162E+01
  0
LINE
  8
0
 62
4
 10
1.91823737E+02
 20
8.01944458E+01
 11
1.94861499E+02
 21
8.07300852E+01
  0
LINE
  8
0
 62
4
 10
1.91823737E+02
 20
8.01944458E+01
 11
1.91129144E+02
 21
8.41336768E+01
  0
LINE
  8
0
 62
6
 10
1.91215968E+02
 20
8.36412730E+01
 11
1.94253730E+02
 21
8.41769123E+01
  0
LINE
  8
0
 62
6
 10
1.91736913E+02
 20
8.06868497E+01
 11
1.94774674E+02
 21
8.12224890E+01
  0
CIRCLE
  8
0
 62
2
 10
2.38750107E+02
 20
8.68695486E+01
 40
3.00000000E+00
  0
CIRCLE
  8
0
 62
2
 10
2.38749954E+02
 20
4.98694799E+01
 40
3.00000000E+00
  0
CIRCLE
  8
0
 62
2
 10
2.01749893E+02
 20
4.98694799E+01
 40
3.00000000E+00
  0
CIRCLE
  8
0
 62
7
 10
2.38750015E+02
 20
4.98694036E+01
 40
5.00000000E+00
  0
CIRCLE
  8
0
 62
7
 10
2.38750015E+02
 20
4.98694036E+01
 40
4.50000000E+00
  0
ARC
  8
0
 62
7
 10
2.42250015E+02
 20
4.63694494E+01
 40
3.00000000E+00
 50
2.69999963E+02
 51
0.00000000E+00
  0
ARC
  8
0
 62
7
 10
2.42249954E+02
 20
4.63694494E+01
 40
2.50000000E+00
 50
2.69999963E+02
 51
0.00000000E+00
  0
CIRCLE
  8
0
 62
7
 10
2.01749985E+02
 20
4.98694647E+01
 40
5.00000000E+00
  0
CIRCLE
  8
0
 62
7
 10
2.01749985E+02
 20
4.98694647E+01
 40
4.50000000E+00
  0
CIRCLE
  8
0
 62
7
 10
2.01750015E+02
 20
8.68695257E+01
 40
5.00000000E+00
  0
CIRCLE
  8
0
 62
7
 10
2.01750015E+02
 20
8.68695257E+01
 40
4.50000000E+00
  0
ARC
  8
0
 62
7
 10
1.98249954E+02
 20
4.63694494E+01
 40
3.00000000E+00
 50
1.79999964E+02
 51
2.69999946E+02
  0
ARC
  8
0
 62
7
 10
1.98249954E+02
 20
9.03694952E+01
 40
3.00000000E+00
 50
8.99999818E+01
 51
1.79999964E+02
  0
ARC
  8
0
 62
7
 10
1.98250015E+02
 20
9.03694952E+01
 40
2.50000000E+00
 50
8.99999818E+01
 51
1.79999964E+02
  0
ARC
  8
0
 62
7
 10
1.98249954E+02
 20
4.63694799E+01
 40
2.50000000E+00
 50
1.79999964E+02
 51
2.69999946E+02
  0
ARC
  8
0
 62
7
 10
2.42250015E+02
 20
9.03694952E+01
 40
3.00000000E+00
 50
0.00000000E+00
 51
8.99999818E+01
  0
CIRCLE
  8
0
 62
7
 10
2.38750107E+02
 20
8.68694723E+01
 40
4.50000000E+00
  0
CIRCLE
  8
0
 62
7
 10
2.38750107E+02
 20
8.68694723E+01
 40
5.00000000E+00
  0
ARC
  8
0
 62
7
 10
2.42250015E+02
 20
9.03694342E+01
 40
2.50000000E+00
 50
0.00000000E+00
 51
8.99999818E+01
  0
CIRCLE
  8
0
 62
2
 10
2.01750015E+02
 20
8.68695486E+01
 40
3.00000000E+00
  0
LINE
  8
0
  6
CENTER
 62
2
 10
2.49222366E+02
 20
6.83694647E+01
 11
1.90546249E+02
 21
6.83694647E+01
  0
LINE
  8
0
  6
CENTER
 62
2
 10
2.10250046E+02
 20
7.67235601E+01
 11
2.10250046E+02
 21
9.52984808E+01
  0
LINE
  8
0
  6
CENTER
 62
2
 10
2.32368607E+02
 20
8.68695486E+01
 11
2.46890274E+02
 21
8.68695486E+01
  0
LINE
  8
0
  6
CENTER
 62
2
 10
2.32368607E+02
 20
4.98694799E+01
 11
2.46890274E+02
 21
4.98694799E+01
  0
LINE
  8
0
 62
7
 10
2.40250046E+02
 20
4.38694494E+01
 11
2.40250046E+02
 21
4.33694494E+01
  0
LINE
  8
0
 62
7
 10
2.00250046E+02
 20
4.38694799E+01
 11
2.00250046E+02
 21
4.33694494E+01
  0
LINE
  8
0
 62
7
 10
2.40250046E+02
 20
9.33694799E+01
 11
2.40250046E+02
 21
9.28694342E+01
  0
LINE
  8
0
 62
7
 10
2.00250046E+02
 20
9.33694799E+01
 11
2.00250046E+02
 21
9.28694952E+01
  0
LINE
  8
0
  6
CENTER
 62
2
 10
2.38749954E+02
 20
4.14814108E+01
 11
2.38749954E+02
 21
5.74458044E+01
  0
LINE
  8
0
  6
CENTER
 62
2
 10
2.20250046E+02
 20
9.68644598E+01
 11
2.20250046E+02
 21
3.90682028E+01
  0
LINE
  8
0
 62
7
 10
1.98249954E+02
 20
4.38694799E+01
 11
2.42249954E+02
 21
4.38694494E+01
  0
LINE
  8
0
 62
7
 10
2.42250046E+02
 20
4.33694494E+01
 11
1.98249952E+02
 21
4.33694494E+01
  0
LINE
  8
0
  6
CENTER
 62
2
 10
2.24250137E+02
 20
9.51218603E+01
 11
2.24250137E+02
 21
7.97356985E+01
  0
LINE
  8
0
  6
CENTER
 62
2
 10
1.93305344E+02
 20
4.98694799E+01
 11
2.08117386E+02
 21
4.98694799E+01
  0
LINE
  8
0
  6
CENTER
 62
2
 10
2.01749893E+02
 20
4.12464636E+01
 11
2.01749893E+02
 21
5.78889654E+01
  0
LINE
  8
0
 62
7
 10
1.98250015E+02
 20
9.28694952E+01
 11
2.42250046E+02
 21
9.28694342E+01
  0
LINE
  8
0
 62
7
 10
1.95749985E+02
 20
9.03694952E+01
 11
1.95749985E+02
 21
4.63694799E+01
  0
LINE
  8
0
 62
7
 10
1.95249954E+02
 20
9.03694952E+01
 11
1.95249954E+02
 21
4.63694494E+01
  0
LINE
  8
0
  6
CENTER
 62
2
 10
2.01750015E+02
 20
9.52720983E+01
 11
2.01750015E+02
 21
7.89851187E+01
  0
LINE
  8
0
  6
CENTER
 62
2
 10
1.93160110E+02
 20
8.68695486E+01
 11
2.07826981E+02
 21
8.68695486E+01
  0
LINE
  8
0
 62
7
 10
2.44750015E+02
 20
9.03694342E+01
 11
2.44750015E+02
 21
4.63694494E+01
  0
LINE
  8
0
 62
7
 10
1.98249954E+02
 20
9.33695104E+01
 11
2.42250046E+02
 21
9.33695104E+01
  0
LINE
  8
0
 62
7
 10
2.45250046E+02
 20
9.03694952E+01
 11
2.45250046E+02
 21
4.63694494E+01
  0
LINE
  8
0
  6
CENTER
 62
2
 10
2.38750107E+02
 20
9.53761175E+01
 11
2.38750107E+02
 21
8.04549826E+01
  0
LINE
  8
0
  6
PHANTOM
 10
-5.92500000E+01
 20
2.27628397E+02
 11
-5.92500000E+01
 21
1.26842335E+02
  0
LINE
  8
0
  6
CENTER
 62
2
 10
-1.27250015E+02
 20
1.82353596E+02
 11
-1.27250015E+02
 21
2.02513614E+02
  0
LINE
  8
0
  6
CENTER
 62
2
 10
-1.37366714E+02
 20
1.92369404E+02
 11
-1.17301559E+02
 21
1.92369404E+02
  0
LINE
  8
0
  6
CENTER
 62
2
 10
-1.19749985E+02
 20
1.72449756E+02
 11
-1.19749985E+02
 21
1.83974384E+02
  0
LINE
  8
0
 62
7
 10
-1.59750046E+02
 20
1.73369465E+02
 11
-1.55241074E+02
 21
1.73369465E+02
  0
LINE
  8
0
 62
7
 10
-1.46750015E+02
 20
1.72369495E+02
 11
-1.45249985E+02
 21
1.72369495E+02
  0
LINE
  8
0
 62
7
 10
-1.55008725E+02
 20
1.73111098E+02
 11
-1.47249142E+02
 21
1.72840126E+02
  0
LINE
  8
0
 62
7
 10
-1.60249985E+02
 20
1.73869449E+02
 11
-1.60249985E+02
 21
2.02869449E+02
  0
LINE
  8
0
 62
7
 10
-1.59750046E+02
 20
2.03369526E+02
 11
-1.55241074E+02
 21
2.03369526E+02
  0
LINE
  8
0
 62
7
 10
-1.46750015E+02
 20
2.04369480E+02
 11
-1.45249985E+02
 21
2.04369480E+02
  0
LINE
  8
0
 62
7
 10
-1.14249954E+02
 20
1.63369465E+02
 11
-1.14249954E+02
 21
2.13369465E+02
  0
LINE
  8
0
 62
7
 10
-1.45249985E+02
 20
1.64401935E+02
 11
-1.45249985E+02
 21
2.12336994E+02
  0
LINE
  8
0
 62
7
 10
-1.55008790E+02
 20
2.03628024E+02
 11
-1.47249176E+02
 21
2.03898995E+02
  0
LINE
  8
0
 62
7
 10
-1.55249985E+02
 20
2.03369480E+02
 11
-1.55249985E+02
 21
1.73369419E+02
  0
LINE
  8
0
 62
7
 10
-1.47249954E+02
 20
2.03869449E+02
 11
-1.47249954E+02
 21
1.72840046E+02
  0
LINE
  8
0
 62
7
 10
-1.14250016E+02
 20
2.13369530E+02
 11
-1.44758705E+02
 21
2.12837003E+02
  0
LINE
  8
0
 62
7
 10
-1.14249991E+02
 20
1.63369605E+02
 11
-1.44758741E+02
 21
1.63902141E+02
  0
LINE
  8
0
  6
CENTER
 62
2
 10
-1.25446594E+02
 20
1.78369465E+02
 11
-1.13831100E+02
 21
1.78369465E+02
  0
LINE
  8
0
 62
7
 10
-1.38249924E+02
 20
2.08369465E+02
 11
-1.14249954E+02
 21
2.08369465E+02
  0
LINE
  8
0
 62
7
 10
-1.38249924E+02
 20
1.68369465E+02
 11
-1.14249954E+02
 21
1.68369465E+02
  0
LINE
  8
0
 62
7
 10
-1.40249985E+02
 20
2.06369449E+02
 11
-1.40249985E+02
 21
1.70369449E+02
  0
LINE
  8
0
  6
CENTER
 62
2
 10
-1.47477005E+02
 20
1.69869465E+02
 11
3.95527039E+01
 21
1.69869465E+02
  0
LINE
  8
0
 62
7
 10
-1.14249954E+02
 20
1.72519459E+02
 11
-4.47500458E+01
 21
1.72519459E+02
  0
LINE
  8
0
 62
7
 10
-1.14249954E+02
 20
1.67219471E+02
 11
-4.47500458E+01
 21
1.67219471E+02
  0
LINE
  8
0
 62
7
 10
-1.14249954E+02
 20
1.66369480E+02
 11
-4.47500458E+01
 21
1.66369480E+02
  0
LINE
  8
0
  6
CENTER
 62
2
 10
-1.47477005E+02
 20
2.06869465E+02
 11
3.95527039E+01
 21
2.06869465E+02
  0
LINE
  8
0
 62
7
 10
-1.14249954E+02
 20
2.04219471E+02
 11
-8.87499542E+01
 21
2.04219471E+02
  0
LINE
  8
0
 62
7
 10
-1.14249954E+02
 20
2.09519459E+02
 11
-8.87499542E+01
 21
2.09519459E+02
  0
LINE
  8
0
 62
7
 10
-1.18306615E+02
 20
1.78369542E+02
 11
-1.19028303E+02
 21
1.79619558E+02
  0
LINE
  8
0
 62
7
 10
-1.19028290E+02
 20
1.79619526E+02
 11
-1.20471695E+02
 21
1.79619526E+02
  0
LINE
  8
0
 62
7
 10
-1.14249954E+02
 20
2.10369449E+02
 11
-8.87499542E+01
 21
2.10369449E+02
  0
LINE
  8
0
  6
CENTER
 62
2
 10
4.74997711E+00
 20
1.82353596E+02
 11
4.74997711E+00
 21
2.02513614E+02
  0
LINE
  8
0
  6
CENTER
 62
2
 10
1.48667068E+01
 20
1.92369404E+02
 11
-5.19844818E+00
 21
1.92369404E+02
  0
LINE
  8
0
  6
CENTER
 62
2
 10
-2.75002289E+00
 20
1.72449756E+02
 11
-2.75002289E+00
 21
1.83974384E+02
  0
LINE
  8
0
 62
7
 10
-8.25005341E+00
 20
1.63369465E+02
 11
-8.25005341E+00
 21
2.13369465E+02
  0
LINE
  8
0
 62
7
 10
2.27499542E+01
 20
1.63369465E+02
 11
2.27499542E+01
 21
2.13369465E+02
  0
LINE
  8
0
 62
7
 10
-8.24999062E+00
 20
2.13369533E+02
 11
2.22587063E+01
 21
2.12837006E+02
  0
LINE
  8
0
 62
7
 10
-8.25006454E+00
 20
1.63369599E+02
 11
2.22587087E+01
 21
1.63902137E+02
  0
LINE
  8
0
  6
CENTER
 62
2
 10
2.94657898E+00
 20
1.78369465E+02
 11
-8.66890717E+00
 21
1.78369465E+02
  0
LINE
  8
0
 62
7
 10
1.57499542E+01
 20
2.08369465E+02
 11
-8.25005341E+00
 21
2.08369465E+02
  0
LINE
  8
0
 62
7
 10
1.57499542E+01
 20
1.68369465E+02
 11
-8.25005341E+00
 21
1.68369465E+02
  0
LINE
  8
0
 62
7
 10
1.77499466E+01
 20
2.06369449E+02
 11
1.77499466E+01
 21
1.70369449E+02
  0
LINE
  8
0
 62
7
 10
-1.30666435E+00
 20
1.78369545E+02
 11
-2.02833702E+00
 21
1.79619535E+02
  0
LINE
  8
0
 62
7
 10
-2.02832031E+00
 20
1.79619526E+02
 11
-3.47170258E+00
 21
1.79619526E+02
  0
LINE
  8
0
 62
7
 10
3.67499466E+01
 20
2.00519459E+02
 11
3.87499542E+01
 21
2.00519459E+02
  0
LINE
  8
0
 62
7
 10
-1.21193316E+02
 20
1.78369466E+02
 11
-1.20471629E+02
 21
1.79619483E+02
  0
LINE
  8
0
 62
7
 10
-1.20471655E+02
 20
1.77119501E+02
 11
-1.21193343E+02
 21
1.78369517E+02
  0
LINE
  8
0
 62
7
 10
-1.19028290E+02
 20
1.77119495E+02
 11
-1.20471695E+02
 21
1.77119495E+02
  0
LINE
  8
0
 62
7
 10
-1.18306494E+02
 20
1.78369423E+02
 11
-1.19028178E+02
 21
1.77119413E+02
  0
LINE
  8
0
 62
7
 10
-4.19331929E+00
 20
1.78369471E+02
 11
-3.47163517E+00
 21
1.79619481E+02
  0
LINE
  8
0
 62
7
 10
-3.47165520E+00
 20
1.77119462E+02
 11
-4.19336603E+00
 21
1.78369518E+02
  0
LINE
  8
0
 62
7
 10
-2.02832031E+00
 20
1.77119495E+02
 11
-3.47170258E+00
 21
1.77119495E+02
  0
LINE
  8
0
 62
7
 10
-1.30652152E+00
 20
1.78369415E+02
 11
-2.02820564E+00
 21
1.77119406E+02
  0
LINE
  8
0
 62
7
 10
1.10749962E+02
 20
1.84369465E+02
 11
1.10749962E+02
 21
1.83369480E+02
  0
LINE
  8
0
 62
7
 10
1.10749962E+02
 20
1.91369480E+02
 11
1.10749962E+02
 21
1.85369465E+02
  0
LINE
  8
0
 62
7
 10
1.10749953E+02
 20
1.85369465E+02
 11
1.18749955E+02
 21
1.85369465E+02
  0
LINE
  8
0
 62
7
 10
1.10749962E+02
 20
1.93369480E+02
 11
1.10749962E+02
 21
1.92369480E+02
  0
LINE
  8
0
 62
7
 10
1.10749953E+02
 20
1.91369480E+02
 11
1.18749955E+02
 21
1.91369480E+02
  0
LINE
  8
0
 62
2
 10
1.10749903E+02
 20
1.85369532E+02
 11
1.18749897E+02
 21
1.91369528E+02
  0
LINE
  8
0
 62
2
 10
1.10749978E+02
 20
1.91369557E+02
 11
1.18749966E+02
 21
1.85369566E+02
  0
LINE
  8
0
 62
2
 10
4.87499542E+01
 20
1.93549473E+02
 11
1.08569944E+02
 21
1.93549473E+02
  0
LINE
  8
0
 62
7
 10
3.87499542E+01
 20
1.78869480E+02
 11
4.87499542E+01
 21
1.78869480E+02
  0
LINE
  8
0
 62
7
 10
1.08749955E+02
 20
1.93369480E+02
 11
1.08749955E+02
 21
1.83369480E+02
  0
LINE
  8
0
 62
7
 10
4.87499542E+01
 20
1.97869465E+02
 11
4.87499542E+01
 21
1.78869480E+02
  0
LINE
  8
0
 62
7
 10
3.87499542E+01
 20
2.00519459E+02
 11
3.87499542E+01
 21
1.76219486E+02
  0
LINE
  8
0
 62
7
 10
3.67499466E+01
 20
1.76219486E+02
 11
3.87499542E+01
 21
1.76219486E+02
  0
LINE
  8
0
 62
7
 10
3.67499466E+01
 20
2.13369465E+02
 11
3.67499466E+01
 21
1.63369465E+02
  0
LINE
  8
0
 62
7
 10
1.18749955E+02
 20
1.92369480E+02
 11
1.18749955E+02
 21
1.84369465E+02
  0
LINE
  8
0
 62
7
 10
2.27499542E+01
 20
2.13369465E+02
 11
3.67499466E+01
 21
2.13369465E+02
  0
LINE
  8
0
 62
7
 10
2.27499542E+01
 20
1.63369465E+02
 11
3.67499466E+01
 21
1.63369465E+02
  0
LINE
  8
0
 62
7
 10
3.87499542E+01
 20
1.97869465E+02
 11
4.87499542E+01
 21
1.97869465E+02
  0
LINE
  8
0
 62
7
 10
1.08749915E+02
 20
1.93369441E+02
 11
1.07749904E+02
 21
1.94369453E+02
  0
LINE
  8
0
 62
7
 10
1.08749955E+02
 20
1.93369465E+02
 11
1.10749953E+02
 21
1.93369465E+02
  0
LINE
  8
0
 62
7
 10
1.08749955E+02
 20
1.83369465E+02
 11
1.10749953E+02
 21
1.83369465E+02
  0
LINE
  8
0
 62
7
 10
4.87499542E+01
 20
1.94369480E+02
 11
1.07749951E+02
 21
1.94369480E+02
  0
LINE
  8
0
 62
7
 10
1.10749953E+02
 20
1.92369480E+02
 11
1.18749955E+02
 21
1.92369480E+02
  0
LINE
  8
0
 62
7
 10
1.07749951E+02
 20
1.94369465E+02
 11
1.07749951E+02
 21
1.82369480E+02
  0
LINE
  8
0
 62
7
 10
1.07749964E+02
 20
1.82369443E+02
 11
1.08749965E+02
 21
1.83369444E+02
  0
LINE
  8
0
 62
2
 10
4.87499542E+01
 20
1.83189487E+02
 11
1.08569944E+02
 21
1.83189487E+02
  0
LINE
  8
0
 62
7
 10
4.87499542E+01
 20
1.82369480E+02
 11
1.07749951E+02
 21
1.82369480E+02
  0
LINE
  8
0
 62
7
 10
1.10749953E+02
 20
1.84369480E+02
 11
1.18749955E+02
 21
1.84369480E+02
  0
LINE
  8
0
 62
7
 10
3.87499542E+01
 20
1.88369465E+02
 11
4.76241226E+01
 21
1.88369465E+02
  0
LINE
  8
0
  6
CENTER
 62
2
 10
-1.97883804E+02
 20
1.88369465E+02
 11
1.21534807E+02
 21
1.88369465E+02
  0
LINE
  8
0
 62
7
 10
-1.62250061E+02
 20
1.96369434E+02
 11
-1.60249985E+02
 21
1.96369434E+02
  0
LINE
  8
0
 62
7
 10
-1.62249969E+02
 20
1.80369449E+02
 11
-1.60250000E+02
 21
1.80369449E+02
  0
LINE
  8
0
 62
7
 10
-1.70250000E+02
 20
1.95369465E+02
 11
-1.70250000E+02
 21
1.81369434E+02
  0
LINE
  8
0
 62
7
 10
-1.70250000E+02
 20
1.95369465E+02
 11
-1.63250031E+02
 21
1.95369465E+02
  0
LINE
  8
0
 62
7
 10
-1.70250000E+02
 20
1.81369434E+02
 11
-1.63249954E+02
 21
1.81369434E+02
  0
LINE
  8
0
 62
7
 10
-1.63250048E+02
 20
1.95369511E+02
 11
-1.62250098E+02
 21
1.96369461E+02
  0
LINE
  8
0
 62
7
 10
-1.63250011E+02
 20
1.81369486E+02
 11
-1.62249989E+02
 21
1.80369463E+02
  0
LINE
  8
0
 62
7
 10
-1.67250000E+02
 20
1.95369465E+02
 11
-1.67250000E+02
 21
1.81369434E+02
  0
CIRCLE
  8
0
 62
7
 10
-1.19749985E+02
 20
1.78369465E+02
 40
4.00000000E+00
  0
ARC
  8
0
 62
7
 10
-1.59750046E+02
 20
1.73869449E+02
 40
5.00000000E-01
 50
1.80000008E+02
 51
2.69999998E+02
  0
ARC
  8
0
 62
7
 10
-1.46750015E+02
 20
1.72869465E+02
 40
5.00000000E-01
 50
1.80000008E+02
 51
2.69999998E+02
  0
ARC
  8
0
 62
7
 10
-1.54999985E+02
 20
1.73360859E+02
 40
2.50000000E-01
 50
1.80000008E+02
 51
2.67999216E+02
  0
ARC
  8
0
 62
7
 10
-1.59750046E+02
 20
2.02869465E+02
 40
5.00000000E-01
 50
9.00000231E+01
 51
1.80000005E+02
  0
ARC
  8
0
 62
7
 10
-1.46750015E+02
 20
2.03869449E+02
 40
5.00000000E-01
 50
9.00000231E+01
 51
1.80000005E+02
  0
ARC
  8
0
 62
7
 10
-1.54999985E+02
 20
2.03378071E+02
 40
2.50000000E-01
 50
9.20007768E+01
 51
1.79999991E+02
  0
ARC
  8
0
 62
7
 10
-1.44750046E+02
 20
2.12336994E+02
 40
5.00000000E-01
 50
9.10002155E+01
 51
1.80000005E+02
  0
ARC
  8
0
 62
7
 10
-1.44750046E+02
 20
1.64401935E+02
 40
5.00000000E-01
 50
1.80000008E+02
 51
2.68999785E+02
  0
CIRCLE
  8
0
 62
7
 10
-1.27250015E+02
 20
1.92369404E+02
 40
7.00000000E+00
  0
ARC
  8
0
 62
7
 10
-1.38249985E+02
 20
2.06369449E+02
 40
2.00000000E+00
 50
8.99999818E+01
 51
1.79999964E+02
  0
ARC
  8
0
 62
7
 10
-1.38249985E+02
 20
1.70369465E+02
 40
2.00000000E+00
 50
1.79999977E+02
 51
2.70000028E+02
  0
CIRCLE
  8
0
 62
7
 10
-1.27250015E+02
 20
1.92369404E+02
 40
5.65999985E+00
  0
CIRCLE
  8
0
 62
2
 10
-1.27250015E+02
 20
1.92369404E+02
 40
6.57849979E+00
  0
CIRCLE
  8
0
 62
7
 10
-2.75002289E+00
 20
1.78369465E+02
 40
4.00000000E+00
  0
ARC
  8
0
 62
7
 10
2.22500000E+01
 20
2.12336994E+02
 40
5.00000000E-01
 50
0.00000000E+00
 51
8.89997895E+01
  0
ARC
  8
0
 62
7
 10
2.22500000E+01
 20
1.64401935E+02
 40
5.00000000E-01
 50
2.71000231E+02
 51
1.36603783E-05
  0
CIRCLE
  8
0
 62
7
 10
4.74997711E+00
 20
1.92369404E+02
 40
7.00000000E+00
  0
ARC
  8
0
 62
7
 10
1.57499466E+01
 20
2.06369449E+02
 40
2.00000000E+00
 50
5.46415133E-05
 51
9.00000369E+01
  0
ARC
  8
0
 62
7
 10
1.57499466E+01
 20
1.70369465E+02
 40
2.00000000E+00
 50
2.70000018E+02
 51
5.46415133E-05
  0
CIRCLE
  8
0
 62
7
 10
4.74997711E+00
 20
1.92369404E+02
 40
5.65999985E+00
  0
CIRCLE
  8
0
 62
2
 10
4.74997711E+00
 20
1.92369404E+02
 40
6.57849979E+00
  0
CIRCLE
  8
0
 62
7
 10
-1.19749985E+02
 20
1.78369465E+02
 40
2.09999990E+00
  0
CIRCLE
  8
0
 62
7
 10
-2.75002289E+00
 20
1.78369465E+02
 40
2.09999990E+00
  0
ARC
  8
0
 62
7
 10
3.81666336E+01
 20
1.83619480E+02
 40
1.05833187E+01
 50
3.33332025E+02
 51
2.66679750E+01
  0
ARC
  8
0
 62
7
 10
3.81666336E+01
 20
1.93119480E+02
 40
1.05833187E+01
 50
3.33332025E+02
 51
2.66679750E+01
  0
LINE
  8
0
 62
7
 10
-1.73250000E+02
 20
1.94549438E+02
 11
-1.70250000E+02
 21
1.94549438E+02
  0
LINE
  8
0
 62
7
 10
-1.73250000E+02
 20
1.82189407E+02
 11
-1.70250000E+02
 21
1.82189407E+02
  0
LINE
  8
0
 62
7
 10
-1.94249984E+02
 20
1.82869410E+02
 11
-1.92749972E+02
 21
1.81369397E+02
  0
LINE
  8
0
 62
7
 10
-1.94249881E+02
 20
1.93869347E+02
 11
-1.92749934E+02
 21
1.95369339E+02
  0
LINE
  8
0
 62
7
 10
-1.73250000E+02
 20
1.95369430E+02
 11
-1.73250000E+02
 21
1.81369415E+02
  0
LINE
  8
0
 62
7
 10
-1.92749969E+02
 20
1.95369430E+02
 11
-1.92749969E+02
 21
1.81369415E+02
  0
LINE
  8
0
 62
2
 10
-1.93569916E+02
 20
1.82189407E+02
 11
-1.87749985E+02
 21
1.82189407E+02
  0
LINE
  8
0
 62
2
 10
-1.93569916E+02
 20
1.94549438E+02
 11
-1.87749985E+02
 21
1.94549438E+02
  0
LINE
  8
0
 62
7
 10
-1.92749969E+02
 20
1.81369415E+02
 11
-1.87749985E+02
 21
1.81369415E+02
  0
LINE
  8
0
 62
7
 10
-1.92749969E+02
 20
1.95369430E+02
 11
-1.87749985E+02
 21
1.95369430E+02
  0
LINE
  8
0
 62
7
 10
-1.94249969E+02
 20
1.82869400E+02
 11
-1.94249969E+02
 21
1.93869430E+02
  0
LINE
  8
0
 62
4
 10
-1.79749985E+02
 20
1.77369465E+02
 11
-1.79749985E+02
 21
1.99369465E+02
  0
LINE
  8
0
 62
4
 10
-1.87749985E+02
 20
1.77369465E+02
 11
-1.87749985E+02
 21
1.99369465E+02
  0
LINE
  8
0
 62
4
 10
-1.86767504E+02
 20
1.88369465E+02
 11
-1.80732465E+02
 21
1.88369465E+02
  0
LINE
  8
0
 62
4
 10
-1.87749985E+02
 20
1.99369465E+02
 11
-1.79749985E+02
 21
1.99369465E+02
  0
LINE
  8
0
 62
4
 10
-1.87749985E+02
 20
1.77369465E+02
 11
-1.79749985E+02
 21
1.77369465E+02
  0
ARC
  8
0
 62
4
 10
-1.95635935E+02
 20
1.82869465E+02
 40
1.58859499E+01
 50
3.39743842E+02
 51
2.02561578E+01
  0
ARC
  8
0
 62
4
 10
-1.95635935E+02
 20
1.93869465E+02
 40
1.58859499E+01
 50
3.39743842E+02
 51
2.02561578E+01
  0
ARC
  8
0
 62
4
 10
-1.71864037E+02
 20
1.93869465E+02
 40
1.58859474E+01
 50
1.59743839E+02
 51
2.00256161E+02
  0
ARC
  8
0
 62
4
 10
-1.71864037E+02
 20
1.82869465E+02
 40
1.58859473E+01
 50
1.59743839E+02
 51
2.00256161E+02
  0
LINE
  8
0
 62
2
 10
-1.79749985E+02
 20
1.94549438E+02
 11
-1.73250000E+02
 21
1.94549438E+02
  0
LINE
  8
0
 62
7
 10
-1.79749985E+02
 20
1.95369430E+02
 11
-1.73250000E+02
 21
1.95369430E+02
  0
LINE
  8
0
 62
2
 10
-1.79749985E+02
 20
1.82189407E+02
 11
-1.73250000E+02
 21
1.82189407E+02
  0
LINE
  8
0
 62
7
 10
-1.79749985E+02
 20
1.81369415E+02
 11
-1.73250000E+02
 21
1.81369415E+02
  0
LINE
  8
0
 62
6
 10
-5.30179949E+01
 20
1.88036105E+02
 11
-5.64820966E+01
 21
1.82036105E+02
  0
LINE
  8
0
 62
4
 10
-4.47500458E+01
 20
1.86536105E+02
 11
-5.38840204E+01
 21
1.86536105E+02
  0
LINE
  8
0
  6
CENTER
 62
6
 10
-9.75004578E+00
 20
1.85036105E+02
 11
-5.67500458E+01
 21
1.85036105E+02
  0
LINE
  8
0
 62
4
 10
-4.47500458E+01
 20
1.83536105E+02
 11
-5.56160712E+01
 21
1.83536105E+02
  0
LINE
  8
0
 62
6
 10
-6.54820051E+01
 20
1.88702824E+02
 11
-6.20179034E+01
 21
1.94702824E+02
  0
LINE
  8
0
 62
4
 10
-7.37499542E+01
 20
1.90202824E+02
 11
-6.46159796E+01
 21
1.90202824E+02
  0
LINE
  8
0
  6
CENTER
 62
6
 10
-1.08749954E+02
 20
1.91702824E+02
 11
-6.17499542E+01
 21
1.91702824E+02
  0
LINE
  8
0
 62
4
 10
-7.37499542E+01
 20
1.93202824E+02
 11
-6.28839288E+01
 21
1.93202824E+02
  0
LINE
  8
0
 62
6
 10
-3.97500458E+01
 20
1.59366144E+02
 11
-3.97500458E+01
 21
1.61717181E+02
  0
LINE
  8
0
 62
6
 10
-4.27500458E+01
 20
1.59366144E+02
 11
-4.27500458E+01
 21
1.61717181E+02
  0
LINE
  8
0
 62
4
 10
-3.92500458E+01
 20
1.59595859E+02
 11
-3.92500458E+01
 21
1.61717181E+02
  0
LINE
  8
0
 62
4
 10
-4.32500458E+01
 20
1.59595859E+02
 11
-4.32500458E+01
 21
1.61717181E+02
  0
LINE
  8
0
 62
4
 10
-2.97500458E+01
 20
1.61717181E+02
 11
-2.97500458E+01
 21
1.74425178E+02
  0
LINE
  8
0
 62
4
 10
-4.47500458E+01
 20
1.61717181E+02
 11
-4.47500458E+01
 21
1.87347068E+02
  0
LINE
  8
0
 62
4
 10
-1.47500458E+01
 20
1.74425178E+02
 11
-1.47500458E+01
 21
1.86374639E+02
  0
LINE
  8
0
  6
CENTER
 62
6
 10
-4.12500458E+01
 20
1.56253886E+02
 11
-4.12500458E+01
 21
1.66519465E+02
  0
LINE
  8
0
  6
CENTER
 62
6
 10
-3.32500458E+01
 20
1.56253886E+02
 11
-3.32500458E+01
 21
1.66519465E+02
  0
LINE
  8
0
  6
CENTER
 62
6
 10
-2.97500458E+01
 20
1.83457883E+02
 11
-2.97500458E+01
 21
1.88457883E+02
  0
LINE
  8
0
 62
4
 10
-2.97500458E+01
 20
1.61717181E+02
 11
-4.47500458E+01
 21
1.61717181E+02
  0
LINE
  8
0
 62
4
 10
-2.97500458E+01
 20
1.67531523E+02
 11
-4.47500458E+01
 21
1.67531523E+02
  0
LINE
  8
0
 62
4
 10
-1.47500458E+01
 20
1.74425178E+02
 11
-4.47500458E+01
 21
1.74425178E+02
  0
LINE
  8
0
 62
4
 10
-1.47500458E+01
 20
1.84568698E+02
 11
-4.47500458E+01
 21
1.84568698E+02
  0
LINE
  8
0
 62
4
 10
-4.06500458E+01
 20
1.87347068E+02
 11
-4.47500458E+01
 21
1.87347068E+02
  0
LINE
  8
0
 62
4
 10
-4.06500458E+01
 20
1.87173420E+02
 11
-4.47500458E+01
 21
1.87173420E+02
  0
LINE
  8
0
 62
4
 10
-1.47500458E+01
 20
1.86374639E+02
 11
-2.56000458E+01
 21
1.86374639E+02
  0
POLYLINE
  8
0
 62
4
 66
1
  0
VERTEX
  8
0
 62
4
 10
-4.32500458E+01
 20
1.59595859E+02
  0
VERTEX
  8
0
 62
4
 10
-4.32419944E+01
 20
1.59564728E+02
  0
VERTEX
  8
0
 62
4
 10
-4.32179050E+01
 20
1.59533847E+02
  0
VERTEX
  8
0
 62
4
 10
-4.31779715E+01
 20
1.59503465E+02
  0
VERTEX
  8
0
 62
4
 10
-4.31225155E+01
 20
1.59473828E+02
  0
VERTEX
  8
0
 62
4
 10
-4.30519835E+01
 20
1.59445173E+02
  0
VERTEX
  8
0
 62
4
 10
-4.29669434E+01
 20
1.59417731E+02
  0
VERTEX
  8
0
 62
4
 10
-4.28680798E+01
 20
1.59391723E+02
  0
VERTEX
  8
0
 62
4
 10
-4.27561887E+01
 20
1.59367359E+02
  0
VERTEX
  8
0
 62
4
 10
-4.26321711E+01
 20
1.59344835E+02
  0
VERTEX
  8
0
 62
4
 10
-4.24970254E+01
 20
1.59324332E+02
  0
VERTEX
  8
0
 62
4
 10
-4.23518398E+01
 20
1.59306015E+02
  0
VERTEX
  8
0
 62
4
 10
-4.21977831E+01
 20
1.59290031E+02
  0
VERTEX
  8
0
 62
4
 10
-4.20360959E+01
 20
1.59276510E+02
  0
VERTEX
  8
0
 62
4
 10
-4.18680798E+01
 20
1.59265561E+02
  0
VERTEX
  8
0
 62
4
 10
-4.16950877E+01
 20
1.59257270E+02
  0
VERTEX
  8
0
 62
4
 10
-4.15185123E+01
 20
1.59251706E+02
  0
VERTEX
  8
0
 62
4
 10
-4.13397755E+01
 20
1.59248912E+02
  0
VERTEX
  8
0
 62
4
 10
-4.11603162E+01
 20
1.59248912E+02
  0
VERTEX
  8
0
 62
4
 10
-4.09815793E+01
 20
1.59251706E+02
  0
VERTEX
  8
0
 62
4
 10
-4.08050039E+01
 20
1.59257270E+02
  0
VERTEX
  8
0
 62
4
 10
-4.06320118E+01
 20
1.59265561E+02
  0
VERTEX
  8
0
 62
4
 10
-4.04639957E+01
 20
1.59276510E+02
  0
VERTEX
  8
0
 62
4
 10
-4.03023085E+01
 20
1.59290031E+02
  0
VERTEX
  8
0
 62
4
 10
-4.01482518E+01
 20
1.59306015E+02
  0
VERTEX
  8
0
 62
4
 10
-4.00030662E+01
 20
1.59324332E+02
  0
VERTEX
  8
0
 62
4
 10
-3.98679205E+01
 20
1.59344835E+02
  0
VERTEX
  8
0
 62
4
 10
-3.97439029E+01
 20
1.59367359E+02
  0
VERTEX
  8
0
 62
4
 10
-3.96320118E+01
 20
1.59391723E+02
  0
VERTEX
  8
0
 62
4
 10
-3.95331482E+01
 20
1.59417731E+02
  0
VERTEX
  8
0
 62
4
 10
-3.94481081E+01
 20
1.59445173E+02
  0
VERTEX
  8
0
 62
4
 10
-3.93775761E+01
 20
1.59473828E+02
  0
VERTEX
  8
0
 62
4
 10
-3.93221201E+01
 20
1.59503465E+02
  0
VERTEX
  8
0
 62
4
 10
-3.92821866E+01
 20
1.59533847E+02
  0
VERTEX
  8
0
 62
4
 10
-3.92580972E+01
 20
1.59564728E+02
  0
VERTEX
  8
0
 62
4
 10
-3.92500458E+01
 20
1.59595859E+02
  0
SEQEND
  8
0
  0
LINE
  8
0
 62
6
 10
-3.17500458E+01
 20
1.59366144E+02
 11
-3.17500458E+01
 21
1.61717181E+02
  0
LINE
  8
0
 62
6
 10
-3.47500458E+01
 20
1.59366144E+02
 11
-3.47500458E+01
 21
1.61717181E+02
  0
LINE
  8
0
 62
4
 10
-3.12500458E+01
 20
1.59595859E+02
 11
-3.12500458E+01
 21
1.61717181E+02
  0
LINE
  8
0
 62
4
 10
-3.52500458E+01
 20
1.59595859E+02
 11
-3.52500458E+01
 21
1.61717181E+02
  0
POLYLINE
  8
0
 62
4
 66
1
  0
VERTEX
  8
0
 62
4
 10
-3.52500458E+01
 20
1.59595859E+02
  0
VERTEX
  8
0
 62
4
 10
-3.52419944E+01
 20
1.59564728E+02
  0
VERTEX
  8
0
 62
4
 10
-3.52179050E+01
 20
1.59533847E+02
  0
VERTEX
  8
0
 62
4
 10
-3.51779715E+01
 20
1.59503465E+02
  0
VERTEX
  8
0
 62
4
 10
-3.51225155E+01
 20
1.59473828E+02
  0
VERTEX
  8
0
 62
4
 10
-3.50519835E+01
 20
1.59445173E+02
  0
VERTEX
  8
0
 62
4
 10
-3.49669434E+01
 20
1.59417731E+02
  0
VERTEX
  8
0
 62
4
 10
-3.48680798E+01
 20
1.59391723E+02
  0
VERTEX
  8
0
 62
4
 10
-3.47561887E+01
 20
1.59367359E+02
  0
VERTEX
  8
0
 62
4
 10
-3.46321711E+01
 20
1.59344835E+02
  0
VERTEX
  8
0
 62
4
 10
-3.44970254E+01
 20
1.59324332E+02
  0
VERTEX
  8
0
 62
4
 10
-3.43518398E+01
 20
1.59306015E+02
  0
VERTEX
  8
0
 62
4
 10
-3.41977831E+01
 20
1.59290031E+02
  0
VERTEX
  8
0
 62
4
 10
-3.40360959E+01
 20
1.59276510E+02
  0
VERTEX
  8
0
 62
4
 10
-3.38680798E+01
 20
1.59265561E+02
  0
VERTEX
  8
0
 62
4
 10
-3.36950877E+01
 20
1.59257270E+02
  0
VERTEX
  8
0
 62
4
 10
-3.35185123E+01
 20
1.59251706E+02
  0
VERTEX
  8
0
 62
4
 10
-3.33397755E+01
 20
1.59248912E+02
  0
VERTEX
  8
0
 62
4
 10
-3.31603162E+01
 20
1.59248912E+02
  0
VERTEX
  8
0
 62
4
 10
-3.29815793E+01
 20
1.59251706E+02
  0
VERTEX
  8
0
 62
4
 10
-3.28050039E+01
 20
1.59257270E+02
  0
VERTEX
  8
0
 62
4
 10
-3.26320118E+01
 20
1.59265561E+02
  0
VERTEX
  8
0
 62
4
 10
-3.24639957E+01
 20
1.59276510E+02
  0
VERTEX
  8
0
 62
4
 10
-3.23023085E+01
 20
1.59290031E+02
  0
VERTEX
  8
0
 62
4
 10
-3.21482518E+01
 20
1.59306015E+02
  0
VERTEX
  8
0
 62
4
 10
-3.20030662E+01
 20
1.59324332E+02
  0
VERTEX
  8
0
 62
4
 10
-3.18679205E+01
 20
1.59344835E+02
  0
VERTEX
  8
0
 62
4
 10
-3.17439029E+01
 20
1.59367359E+02
  0
VERTEX
  8
0
 62
4
 10
-3.16320118E+01
 20
1.59391723E+02
  0
VERTEX
  8
0
 62
4
 10
-3.15331482E+01
 20
1.59417731E+02
  0
VERTEX
  8
0
 62
4
 10
-3.14481081E+01
 20
1.59445173E+02
  0
VERTEX
  8
0
 62
4
 10
-3.13775761E+01
 20
1.59473828E+02
  0
VERTEX
  8
0
 62
4
 10
-3.13221201E+01
 20
1.59503465E+02
  0
VERTEX
  8
0
 62
4
 10
-3.12821866E+01
 20
1.59533847E+02
  0
VERTEX
  8
0
 62
4
 10
-3.12580972E+01
 20
1.59564728E+02
  0
VERTEX
  8
0
 62
4
 10
-3.12500458E+01
 20
1.59595859E+02
  0
SEQEND
  8
0
  0
LINE
  8
0
 62
4
 10
-1.47500458E+01
 20
1.82719193E+02
 11
-1.32500458E+01
 21
1.83722126E+02
  0
LINE
  8
0
 62
4
 10
-1.32500458E+01
 20
1.83722126E+02
 11
-1.32500458E+01
 21
1.86346029E+02
  0
LINE
  8
0
 62
4
 10
-1.32500458E+01
 20
1.85952715E+02
 11
-1.47500458E+01
 21
1.86658424E+02
  0
LINE
  8
0
 62
4
 10
-1.32500458E+01
 20
1.86346029E+02
 11
-1.47500458E+01
 21
1.87353017E+02
  0
LINE
  8
0
 62
4
 10
-1.47500458E+01
 20
1.87353017E+02
 11
-2.56000458E+01
 21
1.87353017E+02
  0
LINE
  8
0
 62
4
 10
-1.47500458E+01
 20
1.86658424E+02
 11
-2.56000458E+01
 21
1.86658424E+02
  0
LINE
  8
0
 62
4
 10
-1.47500458E+01
 20
1.86374639E+02
 11
-1.47500458E+01
 21
1.87347068E+02
  0
POLYLINE
  8
0
 62
4
 66
1
  0
VERTEX
  8
0
 62
4
 10
-3.34500458E+01
 20
1.86005739E+02
  0
VERTEX
  8
0
 62
4
 10
-3.32682308E+01
 20
1.85949892E+02
  0
VERTEX
  8
0
 62
4
 10
-3.30585336E+01
 20
1.85897073E+02
  0
VERTEX
  8
0
 62
4
 10
-3.28226159E+01
 20
1.85847703E+02
  0
VERTEX
  8
0
 62
4
 10
-3.25623476E+01
 20
1.85802171E+02
  0
VERTEX
  8
0
 62
4
 10
-3.22797913E+01
 20
1.85760840E+02
  0
VERTEX
  8
0
 62
4
 10
-3.19771862E+01
 20
1.85724035E+02
  0
VERTEX
  8
0
 62
4
 10
-3.16569307E+01
 20
1.85692050E+02
  0
VERTEX
  8
0
 62
4
 10
-3.13215627E+01
 20
1.85665137E+02
  0
VERTEX
  8
0
 62
4
 10
-3.09737402E+01
 20
1.85643511E+02
  0
VERTEX
  8
0
 62
4
 10
-3.06162196E+01
 20
1.85627341E+02
  0
VERTEX
  8
0
 62
4
 10
-3.02518345E+01
 20
1.85616757E+02
  0
VERTEX
  8
0
 62
4
 10
-2.98834726E+01
 20
1.85611843E+02
  0
VERTEX
  8
0
 62
4
 10
-2.95140533E+01
 20
1.85612636E+02
  0
VERTEX
  8
0
 62
4
 10
-2.91465042E+01
 20
1.85619132E+02
  0
VERTEX
  8
0
 62
4
 10
-2.87837384E+01
 20
1.85631278E+02
  0
VERTEX
  8
0
 62
4
 10
-2.84286307E+01
 20
1.85648978E+02
  0
VERTEX
  8
0
 62
4
 10
-2.80839954E+01
 20
1.85672092E+02
  0
VERTEX
  8
0
 62
4
 10
-2.77525640E+01
 20
1.85700437E+02
  0
VERTEX
  8
0
 62
4
 10
-2.74369629E+01
 20
1.85733788E+02
  0
VERTEX
  8
0
 62
4
 10
-2.71396935E+01
 20
1.85771881E+02
  0
VERTEX
  8
0
 62
4
 10
-2.68631115E+01
 20
1.85814414E+02
  0
VERTEX
  8
0
 62
4
 10
-2.66094091E+01
 20
1.85861049E+02
  0
VERTEX
  8
0
 62
4
 10
-2.63805968E+01
 20
1.85911418E+02
  0
VERTEX
  8
0
 62
4
 10
-2.61784880E+01
 20
1.85965121E+02
  0
VERTEX
  8
0
 62
4
 10
-2.60046845E+01
 20
1.86021733E+02
  0
VERTEX
  8
0
 62
4
 10
-2.58605637E+01
 20
1.86080804E+02
  0
VERTEX
  8
0
 62
4
 10
-2.57472677E+01
 20
1.86141867E+02
  0
VERTEX
  8
0
 62
4
 10
-2.56656945E+01
 20
1.86204437E+02
  0
VERTEX
  8
0
 62
4
 10
-2.56164906E+01
 20
1.86268020E+02
  0
VERTEX
  8
0
 62
4
 10
-2.56000458E+01
 20
1.86332110E+02
  0
SEQEND
  8
0
  0
ARC
  8
0
 62
4
 10
-2.97577841E+01
 20
1.77175004E+02
 40
1.18100000E+01
 50
8.99624577E+01
 51
1.09675998E+02
  0
ARC
  8
0
 62
4
 10
-2.97423075E+01
 20
1.77175004E+02
 40
1.18100000E+01
 50
7.03240015E+01
 51
9.00375421E+01
  0
LINE
  8
0
 62
4
 10
-2.56000458E+01
 20
1.88060035E+02
 11
-2.56000458E+01
 21
1.86332110E+02
  0
LINE
  8
0
 62
4
 10
-3.39000458E+01
 20
1.88060035E+02
 11
-3.39000458E+01
 21
1.87920926E+02
  0
LINE
  8
0
 62
4
 10
-2.57500458E+01
 20
1.85957883E+02
 11
-2.57500458E+01
 21
1.86140113E+02
  0
POLYLINE
  8
0
 62
4
 66
1
  0
VERTEX
  8
0
 62
4
 10
-3.34500458E+01
 20
1.85693961E+02
  0
VERTEX
  8
0
 62
4
 10
-3.33007378E+01
 20
1.85638041E+02
  0
VERTEX
  8
0
 62
4
 10
-3.31234691E+01
 20
1.85584640E+02
  0
VERTEX
  8
0
 62
4
 10
-3.29196357E+01
 20
1.85534178E+02
  0
VERTEX
  8
0
 62
4
 10
-3.26908426E+01
 20
1.85487053E+02
  0
VERTEX
  8
0
 62
4
 10
-3.24388916E+01
 20
1.85443635E+02
  0
VERTEX
  8
0
 62
4
 10
-3.21657666E+01
 20
1.85404267E+02
  0
VERTEX
  8
0
 62
4
 10
-3.18736185E+01
 20
1.85369258E+02
  0
VERTEX
  8
0
 62
4
 10
-3.15647479E+01
 20
1.85338885E+02
  0
VERTEX
  8
0
 62
4
 10
-3.12415870E+01
 20
1.85313386E+02
  0
VERTEX
  8
0
 62
4
 10
-3.09066806E+01
 20
1.85292962E+02
  0
VERTEX
  8
0
 62
4
 10
-3.05626660E+01
 20
1.85277775E+02
  0
VERTEX
  8
0
 62
4
 10
-3.02122523E+01
 20
1.85267943E+02
  0
VERTEX
  8
0
 62
4
 10
-2.98581989E+01
 20
1.85263544E+02
  0
VERTEX
  8
0
 62
4
 10
-2.95032937E+01
 20
1.85264613E+02
  0
VERTEX
  8
0
 62
4
 10
-2.91503317E+01
 20
1.85271141E+02
  0
VERTEX
  8
0
 62
4
 10
-2.88020922E+01
 20
1.85283077E+02
  0
VERTEX
  8
0
 62
4
 10
-2.84613177E+01
 20
1.85300328E+02
  0
VERTEX
  8
0
 62
4
 10
-2.81306914E+01
 20
1.85322756E+02
  0
VERTEX
  8
0
 62
4
 10
-2.78128172E+01
 20
1.85350185E+02
  0
VERTEX
  8
0
 62
4
 10
-2.75101981E+01
 20
1.85382400E+02
  0
VERTEX
  8
0
 62
4
 10
-2.72252172E+01
 20
1.85419147E+02
  0
VERTEX
  8
0
 62
4
 10
-2.69601186E+01
 20
1.85460136E+02
  0
VERTEX
  8
0
 62
4
 10
-2.67169899E+01
 20
1.85505045E+02
  0
VERTEX
  8
0
 62
4
 10
-2.64977456E+01
 20
1.85553520E+02
  0
VERTEX
  8
0
 62
4
 10
-2.63041124E+01
 20
1.85605179E+02
  0
VERTEX
  8
0
 62
4
 10
-2.61376149E+01
 20
1.85659615E+02
  0
VERTEX
  8
0
 62
4
 10
-2.59995642E+01
 20
1.85716400E+02
  0
VERTEX
  8
0
 62
4
 10
-2.58910476E+01
 20
1.85775087E+02
  0
VERTEX
  8
0
 62
4
 10
-2.58129195E+01
 20
1.85835214E+02
  0
VERTEX
  8
0
 62
4
 10
-2.57657952E+01
 20
1.85896306E+02
  0
VERTEX
  8
0
 62
4
 10
-2.57500458E+01
 20
1.85957883E+02
  0
SEQEND
  8
0
  0
ARC
  8
0
 62
4
 10
-2.76314402E+01
 20
1.76473794E+02
 40
1.25124521E+01
 50
9.49416351E+01
 51
1.08095416E+02
  0
ARC
  8
0
 62
4
 10
-3.18686516E+01
 20
1.76473791E+02
 40
1.25124547E+01
 50
7.19045858E+01
 51
8.50583647E+01
  0
POLYLINE
  8
0
 62
4
 66
1
  0
VERTEX
  8
0
 62
4
 10
-3.39000458E+01
 20
1.88065372E+02
  0
VERTEX
  8
0
 62
4
 10
-3.38833391E+01
 20
1.88000774E+02
  0
VERTEX
  8
0
 62
4
 10
-3.38333536E+01
 20
1.87936697E+02
  0
VERTEX
  8
0
 62
4
 10
-3.37504917E+01
 20
1.87873655E+02
  0
VERTEX
  8
0
 62
4
 10
-3.36354205E+01
 20
1.87812157E+02
  0
VERTEX
  8
0
 62
4
 10
-3.34890666E+01
 20
1.87752698E+02
  0
VERTEX
  8
0
 62
4
 10
-3.33126083E+01
 20
1.87695756E+02
  0
VERTEX
  8
0
 62
4
 10
-3.31074663E+01
 20
1.87641790E+02
  0
VERTEX
  8
0
 62
4
 10
-3.28752924E+01
 20
1.87591235E+02
  0
VERTEX
  8
0
 62
4
 10
-3.26179558E+01
 20
1.87544497E+02
  0
VERTEX
  8
0
 62
4
 10
-3.23375285E+01
 20
1.87501953E+02
  0
VERTEX
  8
0
 62
4
 10
-3.20362683E+01
 20
1.87463945E+02
  0
VERTEX
  8
0
 62
4
 10
-3.17166008E+01
 20
1.87430780E+02
  0
VERTEX
  8
0
 62
4
 10
-3.13810997E+01
 20
1.87402724E+02
  0
VERTEX
  8
0
 62
4
 10
-3.10324663E+01
 20
1.87380003E+02
  0
VERTEX
  8
0
 62
4
 10
-3.06735077E+01
 20
1.87362800E+02
  0
VERTEX
  8
0
 62
4
 10
-3.03071139E+01
 20
1.87351254E+02
  0
VERTEX
  8
0
 62
4
 10
-2.99362349E+01
 20
1.87345458E+02
  0
VERTEX
  8
0
 62
4
 10
-2.95638568E+01
 20
1.87345458E+02
  0
VERTEX
  8
0
 62
4
 10
-2.91929778E+01
 20
1.87351254E+02
  0
VERTEX
  8
0
 62
4
 10
-2.88265839E+01
 20
1.87362800E+02
  0
VERTEX
  8
0
 62
4
 10
-2.84676253E+01
 20
1.87380003E+02
  0
VERTEX
  8
0
 62
4
 10
-2.81189919E+01
 20
1.87402724E+02
  0
VERTEX
  8
0
 62
4
 10
-2.77834909E+01
 20
1.87430780E+02
  0
VERTEX
  8
0
 62
4
 10
-2.74638233E+01
 20
1.87463945E+02
  0
VERTEX
  8
0
 62
4
 10
-2.71625631E+01
 20
1.87501953E+02
  0
VERTEX
  8
0
 62
4
 10
-2.68821358E+01
 20
1.87544497E+02
  0
VERTEX
  8
0
 62
4
 10
-2.66247992E+01
 20
1.87591235E+02
  0
VERTEX
  8
0
 62
4
 10
-2.63926253E+01
 20
1.87641790E+02
  0
VERTEX
  8
0
 62
4
 10
-2.61874833E+01
 20
1.87695756E+02
  0
VERTEX
  8
0
 62
4
 10
-2.60110250E+01
 20
1.87752698E+02
  0
VERTEX
  8
0
 62
4
 10
-2.58646711E+01
 20
1.87812157E+02
  0
VERTEX
  8
0
 62
4
 10
-2.57495999E+01
 20
1.87873655E+02
  0
VERTEX
  8
0
 62
4
 10
-2.56667380E+01
 20
1.87936697E+02
  0
VERTEX
  8
0
 62
4
 10
-2.56167525E+01
 20
1.88000774E+02
  0
VERTEX
  8
0
 62
4
 10
-2.56000458E+01
 20
1.88065372E+02
  0
SEQEND
  8
0
  0
ARC
  8
0
 62
4
 10
-2.58500458E+01
 20
1.88060035E+02
 40
2.50000000E-01
 50
0.00000000E+00
 51
7.03240015E+01
  0
ARC
  8
0
 62
4
 10
-3.36500458E+01
 20
1.88060035E+02
 40
2.50000000E-01
 50
1.09675998E+02
 51
1.80000000E+02
  0
LINE
  8
0
 62
4
 10
-3.34500458E+01
 20
1.86334922E+02
 11
-3.34500458E+01
 21
1.85350114E+02
  0
LINE
  8
0
 62
4
 10
-4.10500458E+01
 20
1.86334922E+02
 11
-4.10500458E+01
 21
1.85350114E+02
  0
POLYLINE
  8
0
 62
4
 66
1
  0
VERTEX
  8
0
 62
4
 10
-4.10500458E+01
 20
1.85350114E+02
  0
VERTEX
  8
0
 62
4
 10
-4.10347481E+01
 20
1.85290964E+02
  0
VERTEX
  8
0
 62
4
 10
-4.09889782E+01
 20
1.85232291E+02
  0
VERTEX
  8
0
 62
4
 10
-4.09131047E+01
 20
1.85174566E+02
  0
VERTEX
  8
0
 62
4
 10
-4.08077383E+01
 20
1.85118255E+02
  0
VERTEX
  8
0
 62
4
 10
-4.06737275E+01
 20
1.85063810E+02
  0
VERTEX
  8
0
 62
4
 10
-4.05121512E+01
 20
1.85011671E+02
  0
VERTEX
  8
0
 62
4
 10
-4.03243104E+01
 20
1.84962256E+02
  0
VERTEX
  8
0
 62
4
 10
-4.01117174E+01
 20
1.84915965E+02
  0
VERTEX
  8
0
 62
4
 10
-3.98760839E+01
 20
1.84873168E+02
  0
VERTEX
  8
0
 62
4
 10
-3.96193071E+01
 20
1.84834212E+02
  0
VERTEX
  8
0
 62
4
 10
-3.93434543E+01
 20
1.84799410E+02
  0
VERTEX
  8
0
 62
4
 10
-3.90507467E+01
 20
1.84769042E+02
  0
VERTEX
  8
0
 62
4
 10
-3.87435409E+01
 20
1.84743352E+02
  0
VERTEX
  8
0
 62
4
 10
-3.84243104E+01
 20
1.84722547E+02
  0
VERTEX
  8
0
 62
4
 10
-3.80956254E+01
 20
1.84706795E+02
  0
VERTEX
  8
0
 62
4
 10
-3.77601322E+01
 20
1.84696223E+02
  0
VERTEX
  8
0
 62
4
 10
-3.74205322E+01
 20
1.84690915E+02
  0
VERTEX
  8
0
 62
4
 10
-3.70795595E+01
 20
1.84690915E+02
  0
VERTEX
  8
0
 62
4
 10
-3.67399594E+01
 20
1.84696223E+02
  0
VERTEX
  8
0
 62
4
 10
-3.64044663E+01
 20
1.84706795E+02
  0
VERTEX
  8
0
 62
4
 10
-3.60757812E+01
 20
1.84722547E+02
  0
VERTEX
  8
0
 62
4
 10
-3.57565507E+01
 20
1.84743352E+02
  0
VERTEX
  8
0
 62
4
 10
-3.54493449E+01
 20
1.84769042E+02
  0
VERTEX
  8
0
 62
4
 10
-3.51566373E+01
 20
1.84799410E+02
  0
VERTEX
  8
0
 62
4
 10
-3.48807846E+01
 20
1.84834212E+02
  0
VERTEX
  8
0
 62
4
 10
-3.46240078E+01
 20
1.84873168E+02
  0
VERTEX
  8
0
 62
4
 10
-3.43883742E+01
 20
1.84915965E+02
  0
VERTEX
  8
0
 62
4
 10
-3.41757812E+01
 20
1.84962256E+02
  0
VERTEX
  8
0
 62
4
 10
-3.39879404E+01
 20
1.85011671E+02
  0
VERTEX
  8
0
 62
4
 10
-3.38263641E+01
 20
1.85063810E+02
  0
VERTEX
  8
0
 62
4
 10
-3.36923533E+01
 20
1.85118255E+02
  0
VERTEX
  8
0
 62
4
 10
-3.35869869E+01
 20
1.85174566E+02
  0
VERTEX
  8
0
 62
4
 10
-3.35111134E+01
 20
1.85232291E+02
  0
VERTEX
  8
0
 62
4
 10
-3.34653435E+01
 20
1.85290964E+02
  0
VERTEX
  8
0
 62
4
 10
-3.34500458E+01
 20
1.85350114E+02
  0
SEQEND
  8
0
  0
POLYLINE
  8
0
 62
4
 66
1
  0
VERTEX
  8
0
 62
4
 10
-4.06500458E+01
 20
1.86629613E+02
  0
VERTEX
  8
0
 62
4
 10
-4.07866275E+01
 20
1.86576324E+02
  0
VERTEX
  8
0
 62
4
 10
-4.08955753E+01
 20
1.86521148E+02
  0
VERTEX
  8
0
 62
4
 10
-4.09760381E+01
 20
1.86464518E+02
  0
VERTEX
  8
0
 62
4
 10
-4.10273871E+01
 20
1.86406875E+02
  0
VERTEX
  8
0
 62
4
 10
-4.10492211E+01
 20
1.86348669E+02
  0
VERTEX
  8
0
 62
4
 10
-4.10413694E+01
 20
1.86290356E+02
  0
VERTEX
  8
0
 62
4
 10
-4.10038934E+01
 20
1.86232392E+02
  0
VERTEX
  8
0
 62
4
 10
-4.09370860E+01
 20
1.86175229E+02
  0
VERTEX
  8
0
 62
4
 10
-4.08414692E+01
 20
1.86119313E+02
  0
VERTEX
  8
0
 62
4
 10
-4.07177900E+01
 20
1.86065082E+02
  0
VERTEX
  8
0
 62
4
 10
-4.05670149E+01
 20
1.86012960E+02
  0
VERTEX
  8
0
 62
4
 10
-4.03903220E+01
 20
1.85963353E+02
  0
VERTEX
  8
0
 62
4
 10
-4.01890920E+01
 20
1.85916649E+02
  0
VERTEX
  8
0
 62
4
 10
-3.99648970E+01
 20
1.85873214E+02
  0
VERTEX
  8
0
 62
4
 10
-3.97194891E+01
 20
1.85833387E+02
  0
VERTEX
  8
0
 62
4
 10
-3.94547856E+01
 20
1.85797478E+02
  0
VERTEX
  8
0
 62
4
 10
-3.91728550E+01
 20
1.85765769E+02
  0
VERTEX
  8
0
 62
4
 10
-3.88759001E+01
 20
1.85738507E+02
  0
VERTEX
  8
0
 62
4
 10
-3.85662412E+01
 20
1.85715905E+02
  0
VERTEX
  8
0
 62
4
 10
-3.82462980E+01
 20
1.85698140E+02
  0
VERTEX
  8
0
 62
4
 10
-3.79185704E+01
 20
1.85685351E+02
  0
VERTEX
  8
0
 62
4
 10
-3.75856191E+01
 20
1.85677637E+02
  0
VERTEX
  8
0
 62
4
 10
-3.72500458E+01
 20
1.85675059E+02
  0
VERTEX
  8
0
 62
4
 10
-3.69144724E+01
 20
1.85677637E+02
  0
VERTEX
  8
0
 62
4
 10
-3.65815212E+01
 20
1.85685351E+02
  0
VERTEX
  8
0
 62
4
 10
-3.62537935E+01
 20
1.85698140E+02
  0
VERTEX
  8
0
 62
4
 10
-3.59338503E+01
 20
1.85715905E+02
  0
VERTEX
  8
0
 62
4
 10
-3.56241915E+01
 20
1.85738507E+02
  0
VERTEX
  8
0
 62
4
 10
-3.53272366E+01
 20
1.85765769E+02
  0
VERTEX
  8
0
 62
4
 10
-3.50453059E+01
 20
1.85797478E+02
  0
VERTEX
  8
0
 62
4
 10
-3.47806025E+01
 20
1.85833387E+02
  0
VERTEX
  8
0
 62
4
 10
-3.45351945E+01
 20
1.85873214E+02
  0
VERTEX
  8
0
 62
4
 10
-3.43109996E+01
 20
1.85916649E+02
  0
VERTEX
  8
0
 62
4
 10
-3.41097695E+01
 20
1.85963353E+02
  0
VERTEX
  8
0
 62
4
 10
-3.39330766E+01
 20
1.86012960E+02
  0
VERTEX
  8
0
 62
4
 10
-3.37823016E+01
 20
1.86065082E+02
  0
VERTEX
  8
0
 62
4
 10
-3.36586224E+01
 20
1.86119313E+02
  0
VERTEX
  8
0
 62
4
 10
-3.35630056E+01
 20
1.86175229E+02
  0
VERTEX
  8
0
 62
4
 10
-3.34961982E+01
 20
1.86232392E+02
  0
VERTEX
  8
0
 62
4
 10
-3.34587222E+01
 20
1.86290356E+02
  0
VERTEX
  8
0
 62
4
 10
-3.34508706E+01
 20
1.86348669E+02
  0
VERTEX
  8
0
 62
4
 10
-3.34727045E+01
 20
1.86406875E+02
  0
VERTEX
  8
0
 62
4
 10
-3.35240535E+01
 20
1.86464518E+02
  0
VERTEX
  8
0
 62
4
 10
-3.36045163E+01
 20
1.86521148E+02
  0
VERTEX
  8
0
 62
4
 10
-3.37134641E+01
 20
1.86576324E+02
  0
VERTEX
  8
0
 62
4
 10
-3.38500458E+01
 20
1.86629613E+02
  0
SEQEND
  8
0
  0
LINE
  8
0
 62
4
 10
-3.38500458E+01
 20
1.87608675E+02
 11
-3.38500458E+01
 21
1.86334922E+02
  0
LINE
  8
0
 62
4
 10
-4.06500458E+01
 20
1.87608675E+02
 11
-4.06500458E+01
 21
1.86334922E+02
  0
POLYLINE
  8
0
 62
4
 66
1
  0
VERTEX
  8
0
 62
4
 10
-4.06500458E+01
 20
1.86334922E+02
  0
VERTEX
  8
0
 62
4
 10
-4.06363584E+01
 20
1.86281999E+02
  0
VERTEX
  8
0
 62
4
 10
-4.05954064E+01
 20
1.86229501E+02
  0
VERTEX
  8
0
 62
4
 10
-4.05275195E+01
 20
1.86177853E+02
  0
VERTEX
  8
0
 62
4
 10
-4.04332444E+01
 20
1.86127469E+02
  0
VERTEX
  8
0
 62
4
 10
-4.03133400E+01
 20
1.86078755E+02
  0
VERTEX
  8
0
 62
4
 10
-4.01687717E+01
 20
1.86032104E+02
  0
VERTEX
  8
0
 62
4
 10
-4.00007036E+01
 20
1.85987891E+02
  0
VERTEX
  8
0
 62
4
 10
-3.98104888E+01
 20
1.85946472E+02
  0
VERTEX
  8
0
 62
4
 10
-3.95996588E+01
 20
1.85908181E+02
  0
VERTEX
  8
0
 62
4
 10
-3.93699111E+01
 20
1.85873326E+02
  0
VERTEX
  8
0
 62
4
 10
-3.91230956E+01
 20
1.85842187E+02
  0
VERTEX
  8
0
 62
4
 10
-3.88611993E+01
 20
1.85815015E+02
  0
VERTEX
  8
0
 62
4
 10
-3.85863309E+01
 20
1.85792029E+02
  0
VERTEX
  8
0
 62
4
 10
-3.83007036E+01
 20
1.85773415E+02
  0
VERTEX
  8
0
 62
4
 10
-3.80066170E+01
 20
1.85759321E+02
  0
VERTEX
  8
0
 62
4
 10
-3.77064389E+01
 20
1.85749861E+02
  0
VERTEX
  8
0
 62
4
 10
-3.74025862E+01
 20
1.85745113E+02
  0
VERTEX
  8
0
 62
4
 10
-3.70975054E+01
 20
1.85745113E+02
  0
VERTEX
  8
0
 62
4
 10
-3.67936527E+01
 20
1.85749861E+02
  0
VERTEX
  8
0
 62
4
 10
-3.64934746E+01
 20
1.85759321E+02
  0
VERTEX
  8
0
 62
4
 10
-3.61993880E+01
 20
1.85773415E+02
  0
VERTEX
  8
0
 62
4
 10
-3.59137607E+01
 20
1.85792029E+02
  0
VERTEX
  8
0
 62
4
 10
-3.56388924E+01
 20
1.85815015E+02
  0
VERTEX
  8
0
 62
4
 10
-3.53769961E+01
 20
1.85842187E+02
  0
VERTEX
  8
0
 62
4
 10
-3.51301805E+01
 20
1.85873326E+02
  0
VERTEX
  8
0
 62
4
 10
-3.49004328E+01
 20
1.85908181E+02
  0
VERTEX
  8
0
 62
4
 10
-3.46896028E+01
 20
1.85946472E+02
  0
VERTEX
  8
0
 62
4
 10
-3.44993880E+01
 20
1.85987891E+02
  0
VERTEX
  8
0
 62
4
 10
-3.43313199E+01
 20
1.86032104E+02
  0
VERTEX
  8
0
 62
4
 10
-3.41867517E+01
 20
1.86078755E+02
  0
VERTEX
  8
0
 62
4
 10
-3.40668472E+01
 20
1.86127469E+02
  0
VERTEX
  8
0
 62
4
 10
-3.39725721E+01
 20
1.86177853E+02
  0
VERTEX
  8
0
 62
4
 10
-3.39046852E+01
 20
1.86229501E+02
  0
VERTEX
  8
0
 62
4
 10
-3.38637332E+01
 20
1.86281999E+02
  0
VERTEX
  8
0
 62
4
 10
-3.38500458E+01
 20
1.86334922E+02
  0
SEQEND
  8
0
  0
ARC
  8
0
 62
4
 10
-3.72500458E+01
 20
1.77068461E+02
 40
1.18100000E+01
 50
7.71724899E+01
 51
1.02827510E+02
  0
ARC
  8
0
 62
4
 10
-3.96500461E+01
 20
1.87608675E+02
 40
1.00000000E+00
 50
1.02827510E+02
 51
1.80000000E+02
  0
ARC
  8
0
 62
4
 10
-3.48500455E+01
 20
1.87608675E+02
 40
1.00000000E+00
 50
3.60000000E+02
 51
7.71724899E+01
  0
ARC
  8
0
 62
4
 10
-3.51282922E+01
 20
1.76349318E+02
 40
1.25306621E+01
 50
9.49686598E+01
 51
1.08083352E+02
  0
ARC
  8
0
 62
4
 10
-3.93717994E+01
 20
1.76349317E+02
 40
1.25306626E+01
 50
7.19166483E+01
 51
8.50313400E+01
  0
LINE
  8
0
  6
CENTER
 62
6
 10
-2.72500458E+01
 20
1.85957883E+02
 11
-3.22500458E+01
 21
1.85957883E+02
  0
LINE
  8
0
  6
CENTER
 62
6
 10
-3.72500458E+01
 20
1.82850114E+02
 11
-3.72500458E+01
 21
1.87850114E+02
  0
LINE
  8
0
  6
CENTER
 62
6
 10
-3.47500458E+01
 20
1.85350114E+02
 11
-3.97500458E+01
 21
1.85350114E+02
  0
LINE
  8
0
  6
CENTER
 62
6
 10
-2.22500458E+01
 20
1.82850114E+02
 11
-2.22500458E+01
 21
1.87850114E+02
  0
LINE
  8
0
  6
CENTER
 62
6
 10
-1.97500458E+01
 20
1.85350114E+02
 11
-2.47500458E+01
 21
1.85350114E+02
  0
LINE
  8
0
 62
4
 10
-4.10431564E+01
 20
1.86374639E+02
 11
-4.47500458E+01
 21
1.86374639E+02
  0
LINE
  8
0
 62
6
 10
-7.87499542E+01
 20
2.17372785E+02
 11
-7.87499542E+01
 21
2.15021748E+02
  0
LINE
  8
0
 62
6
 10
-7.57499542E+01
 20
2.17372785E+02
 11
-7.57499542E+01
 21
2.15021748E+02
  0
LINE
  8
0
 62
4
 10
-7.92499542E+01
 20
2.17143070E+02
 11
-7.92499542E+01
 21
2.15021748E+02
  0
LINE
  8
0
 62
4
 10
-7.52499542E+01
 20
2.17143070E+02
 11
-7.52499542E+01
 21
2.15021748E+02
  0
LINE
  8
0
 62
4
 10
-8.87499542E+01
 20
2.15021748E+02
 11
-8.87499542E+01
 21
2.02313752E+02
  0
LINE
  8
0
 62
4
 10
-7.37499542E+01
 20
2.15021748E+02
 11
-7.37499542E+01
 21
1.89391861E+02
  0
LINE
  8
0
 62
4
 10
-1.03749954E+02
 20
2.02313752E+02
 11
-1.03749954E+02
 21
1.90364291E+02
  0
LINE
  8
0
  6
CENTER
 62
6
 10
-7.72499542E+01
 20
2.20485044E+02
 11
-7.72499542E+01
 21
2.10219465E+02
  0
LINE
  8
0
  6
CENTER
 62
6
 10
-8.52499542E+01
 20
2.20485044E+02
 11
-8.52499542E+01
 21
2.10219465E+02
  0
LINE
  8
0
  6
CENTER
 62
6
 10
-8.87499542E+01
 20
1.93281046E+02
 11
-8.87499542E+01
 21
1.88281046E+02
  0
LINE
  8
0
 62
4
 10
-8.87499542E+01
 20
2.15021748E+02
 11
-7.37499542E+01
 21
2.15021748E+02
  0
LINE
  8
0
 62
4
 10
-8.87499542E+01
 20
2.09207406E+02
 11
-7.37499542E+01
 21
2.09207406E+02
  0
LINE
  8
0
 62
4
 10
-1.03749954E+02
 20
2.02313752E+02
 11
-7.37499542E+01
 21
2.02313752E+02
  0
LINE
  8
0
 62
4
 10
-1.03749954E+02
 20
1.92170232E+02
 11
-7.37499542E+01
 21
1.92170232E+02
  0
LINE
  8
0
 62
4
 10
-7.78499542E+01
 20
1.89391861E+02
 11
-7.37499542E+01
 21
1.89391861E+02
  0
LINE
  8
0
 62
4
 10
-7.78499542E+01
 20
1.89565509E+02
 11
-7.37499542E+01
 21
1.89565509E+02
  0
LINE
  8
0
 62
4
 10
-1.03749954E+02
 20
1.90364291E+02
 11
-9.28999542E+01
 21
1.90364291E+02
  0
POLYLINE
  8
0
 62
4
 66
1
  0
VERTEX
  8
0
 62
4
 10
-7.52499542E+01
 20
2.17143070E+02
  0
VERTEX
  8
0
 62
4
 10
-7.52580056E+01
 20
2.17174201E+02
  0
VERTEX
  8
0
 62
4
 10
-7.52820950E+01
 20
2.17205082E+02
  0
VERTEX
  8
0
 62
4
 10
-7.53220285E+01
 20
2.17235464E+02
  0
VERTEX
  8
0
 62
4
 10
-7.53774845E+01
 20
2.17265101E+02
  0
VERTEX
  8
0
 62
4
 10
-7.54480165E+01
 20
2.17293756E+02
  0
VERTEX
  8
0
 62
4
 10
-7.55330566E+01
 20
2.17321198E+02
  0
VERTEX
  8
0
 62
4
 10
-7.56319202E+01
 20
2.17347206E+02
  0
VERTEX
  8
0
 62
4
 10
-7.57438113E+01
 20
2.17371570E+02
  0
VERTEX
  8
0
 62
4
 10
-7.58678289E+01
 20
2.17394094E+02
  0
VERTEX
  8
0
 62
4
 10
-7.60029746E+01
 20
2.17414597E+02
  0
VERTEX
  8
0
 62
4
 10
-7.61481602E+01
 20
2.17432914E+02
  0
VERTEX
  8
0
 62
4
 10
-7.63022169E+01
 20
2.17448898E+02
  0
VERTEX
  8
0
 62
4
 10
-7.64639041E+01
 20
2.17462419E+02
  0
VERTEX
  8
0
 62
4
 10
-7.66319202E+01
 20
2.17473368E+02
  0
VERTEX
  8
0
 62
4
 10
-7.68049123E+01
 20
2.17481659E+02
  0
VERTEX
  8
0
 62
4
 10
-7.69814877E+01
 20
2.17487223E+02
  0
VERTEX
  8
0
 62
4
 10
-7.71602245E+01
 20
2.17490017E+02
  0
VERTEX
  8
0
 62
4
 10
-7.73396838E+01
 20
2.17490017E+02
  0
VERTEX
  8
0
 62
4
 10
-7.75184207E+01
 20
2.17487223E+02
  0
VERTEX
  8
0
 62
4
 10
-7.76949961E+01
 20
2.17481659E+02
  0
VERTEX
  8
0
 62
4
 10
-7.78679882E+01
 20
2.17473368E+02
  0
VERTEX
  8
0
 62
4
 10
-7.80360043E+01
 20
2.17462419E+02
  0
VERTEX
  8
0
 62
4
 10
-7.81976915E+01
 20
2.17448898E+02
  0
VERTEX
  8
0
 62
4
 10
-7.83517482E+01
 20
2.17432914E+02
  0
VERTEX
  8
0
 62
4
 10
-7.84969338E+01
 20
2.17414597E+02
  0
VERTEX
  8
0
 62
4
 10
-7.86320795E+01
 20
2.17394094E+02
  0
VERTEX
  8
0
 62
4
 10
-7.87560971E+01
 20
2.17371570E+02
  0
VERTEX
  8
0
 62
4
 10
-7.88679882E+01
 20
2.17347206E+02
  0
VERTEX
  8
0
 62
4
 10
-7.89668518E+01
 20
2.17321198E+02
  0
VERTEX
  8
0
 62
4
 10
-7.90518919E+01
 20
2.17293756E+02
  0
VERTEX
  8
0
 62
4
 10
-7.91224239E+01
 20
2.17265101E+02
  0
VERTEX
  8
0
 62
4
 10
-7.91778799E+01
 20
2.17235464E+02
  0
VERTEX
  8
0
 62
4
 10
-7.92178134E+01
 20
2.17205082E+02
  0
VERTEX
  8
0
 62
4
 10
-7.92419028E+01
 20
2.17174201E+02
  0
VERTEX
  8
0
 62
4
 10
-7.92499542E+01
 20
2.17143070E+02
  0
SEQEND
  8
0
  0
LINE
  8
0
 62
6
 10
-8.67499542E+01
 20
2.17372785E+02
 11
-8.67499542E+01
 21
2.15021748E+02
  0
LINE
  8
0
 62
6
 10
-8.37499542E+01
 20
2.17372785E+02
 11
-8.37499542E+01
 21
2.15021748E+02
  0
LINE
  8
0
 62
4
 10
-8.72499542E+01
 20
2.17143070E+02
 11
-8.72499542E+01
 21
2.15021748E+02
  0
LINE
  8
0
 62
4
 10
-8.32499542E+01
 20
2.17143070E+02
 11
-8.32499542E+01
 21
2.15021748E+02
  0
POLYLINE
  8
0
 62
4
 66
1
  0
VERTEX
  8
0
 62
4
 10
-8.32499542E+01
 20
2.17143070E+02
  0
VERTEX
  8
0
 62
4
 10
-8.32580056E+01
 20
2.17174201E+02
  0
VERTEX
  8
0
 62
4
 10
-8.32820950E+01
 20
2.17205082E+02
  0
VERTEX
  8
0
 62
4
 10
-8.33220285E+01
 20
2.17235464E+02
  0
VERTEX
  8
0
 62
4
 10
-8.33774845E+01
 20
2.17265101E+02
  0
VERTEX
  8
0
 62
4
 10
-8.34480165E+01
 20
2.17293756E+02
  0
VERTEX
  8
0
 62
4
 10
-8.35330566E+01
 20
2.17321198E+02
  0
VERTEX
  8
0
 62
4
 10
-8.36319202E+01
 20
2.17347206E+02
  0
VERTEX
  8
0
 62
4
 10
-8.37438113E+01
 20
2.17371570E+02
  0
VERTEX
  8
0
 62
4
 10
-8.38678289E+01
 20
2.17394094E+02
  0
VERTEX
  8
0
 62
4
 10
-8.40029746E+01
 20
2.17414597E+02
  0
VERTEX
  8
0
 62
4
 10
-8.41481602E+01
 20
2.17432914E+02
  0
VERTEX
  8
0
 62
4
 10
-8.43022169E+01
 20
2.17448898E+02
  0
VERTEX
  8
0
 62
4
 10
-8.44639041E+01
 20
2.17462419E+02
  0
VERTEX
  8
0
 62
4
 10
-8.46319202E+01
 20
2.17473368E+02
  0
VERTEX
  8
0
 62
4
 10
-8.48049123E+01
 20
2.17481659E+02
  0
VERTEX
  8
0
 62
4
 10
-8.49814877E+01
 20
2.17487223E+02
  0
VERTEX
  8
0
 62
4
 10
-8.51602245E+01
 20
2.17490017E+02
  0
VERTEX
  8
0
 62
4
 10
-8.53396838E+01
 20
2.17490017E+02
  0
VERTEX
  8
0
 62
4
 10
-8.55184207E+01
 20
2.17487223E+02
  0
VERTEX
  8
0
 62
4
 10
-8.56949961E+01
 20
2.17481659E+02
  0
VERTEX
  8
0
 62
4
 10
-8.58679882E+01
 20
2.17473368E+02
  0
VERTEX
  8
0
 62
4
 10
-8.60360043E+01
 20
2.17462419E+02
  0
VERTEX
  8
0
 62
4
 10
-8.61976915E+01
 20
2.17448898E+02
  0
VERTEX
  8
0
 62
4
 10
-8.63517482E+01
 20
2.17432914E+02
  0
VERTEX
  8
0
 62
4
 10
-8.64969338E+01
 20
2.17414597E+02
  0
VERTEX
  8
0
 62
4
 10
-8.66320795E+01
 20
2.17394094E+02
  0
VERTEX
  8
0
 62
4
 10
-8.67560971E+01
 20
2.17371570E+02
  0
VERTEX
  8
0
 62
4
 10
-8.68679882E+01
 20
2.17347206E+02
  0
VERTEX
  8
0
 62
4
 10
-8.69668518E+01
 20
2.17321198E+02
  0
VERTEX
  8
0
 62
4
 10
-8.70518919E+01
 20
2.17293756E+02
  0
VERTEX
  8
0
 62
4
 10
-8.71224239E+01
 20
2.17265101E+02
  0
VERTEX
  8
0
 62
4
 10
-8.71778799E+01
 20
2.17235464E+02
  0
VERTEX
  8
0
 62
4
 10
-8.72178134E+01
 20
2.17205082E+02
  0
VERTEX
  8
0
 62
4
 10
-8.72419028E+01
 20
2.17174201E+02
  0
VERTEX
  8
0
 62
4
 10
-8.72499542E+01
 20
2.17143070E+02
  0
SEQEND
  8
0
  0
LINE
  8
0
 62
4
 10
-1.03749954E+02
 20
1.94019736E+02
 11
-1.05249954E+02
 21
1.93016803E+02
  0
LINE
  8
0
 62
4
 10
-1.05249954E+02
 20
1.93016803E+02
 11
-1.05249954E+02
 21
1.90392901E+02
  0
LINE
  8
0
 62
4
 10
-1.05249954E+02
 20
1.90786214E+02
 11
-1.03749954E+02
 21
1.90080505E+02
  0
LINE
  8
0
 62
4
 10
-1.05249954E+02
 20
1.90392901E+02
 11
-1.03749954E+02
 21
1.89385912E+02
  0
LINE
  8
0
 62
4
 10
-1.03749954E+02
 20
1.89385912E+02
 11
-9.28999542E+01
 21
1.89385912E+02
  0
LINE
  8
0
 62
4
 10
-1.03749954E+02
 20
1.90080505E+02
 11
-9.28999542E+01
 21
1.90080505E+02
  0
LINE
  8
0
 62
4
 10
-1.03749954E+02
 20
1.90364291E+02
 11
-1.03749954E+02
 21
1.89391861E+02
  0
POLYLINE
  8
0
 62
4
 66
1
  0
VERTEX
  8
0
 62
4
 10
-8.50499542E+01
 20
1.90733190E+02
  0
VERTEX
  8
0
 62
4
 10
-8.52317692E+01
 20
1.90789037E+02
  0
VERTEX
  8
0
 62
4
 10
-8.54414664E+01
 20
1.90841856E+02
  0
VERTEX
  8
0
 62
4
 10
-8.56773841E+01
 20
1.90891226E+02
  0
VERTEX
  8
0
 62
4
 10
-8.59376524E+01
 20
1.90936758E+02
  0
VERTEX
  8
0
 62
4
 10
-8.62202087E+01
 20
1.90978089E+02
  0
VERTEX
  8
0
 62
4
 10
-8.65228138E+01
 20
1.91014894E+02
  0
VERTEX
  8
0
 62
4
 10
-8.68430693E+01
 20
1.91046879E+02
  0
VERTEX
  8
0
 62
4
 10
-8.71784373E+01
 20
1.91073792E+02
  0
VERTEX
  8
0
 62
4
 10
-8.75262598E+01
 20
1.91095418E+02
  0
VERTEX
  8
0
 62
4
 10
-8.78837804E+01
 20
1.91111588E+02
  0
VERTEX
  8
0
 62
4
 10
-8.82481655E+01
 20
1.91122172E+02
  0
VERTEX
  8
0
 62
4
 10
-8.86165274E+01
 20
1.91127086E+02
  0
VERTEX
  8
0
 62
4
 10
-8.89859467E+01
 20
1.91126293E+02
  0
VERTEX
  8
0
 62
4
 10
-8.93534958E+01
 20
1.91119797E+02
  0
VERTEX
  8
0
 62
4
 10
-8.97162616E+01
 20
1.91107651E+02
  0
VERTEX
  8
0
 62
4
 10
-9.00713693E+01
 20
1.91089951E+02
  0
VERTEX
  8
0
 62
4
 10
-9.04160046E+01
 20
1.91066837E+02
  0
VERTEX
  8
0
 62
4
 10
-9.07474360E+01
 20
1.91038492E+02
  0
VERTEX
  8
0
 62
4
 10
-9.10630371E+01
 20
1.91005141E+02
  0
VERTEX
  8
0
 62
4
 10
-9.13603065E+01
 20
1.90967048E+02
  0
VERTEX
  8
0
 62
4
 10
-9.16368885E+01
 20
1.90924515E+02
  0
VERTEX
  8
0
 62
4
 10
-9.18905909E+01
 20
1.90877880E+02
  0
VERTEX
  8
0
 62
4
 10
-9.21194032E+01
 20
1.90827511E+02
  0
VERTEX
  8
0
 62
4
 10
-9.23215120E+01
 20
1.90773808E+02
  0
VERTEX
  8
0
 62
4
 10
-9.24953155E+01
 20
1.90717196E+02
  0
VERTEX
  8
0
 62
4
 10
-9.26394363E+01
 20
1.90658125E+02
  0
VERTEX
  8
0
 62
4
 10
-9.27527323E+01
 20
1.90597062E+02
  0
VERTEX
  8
0
 62
4
 10
-9.28343055E+01
 20
1.90534492E+02
  0
VERTEX
  8
0
 62
4
 10
-9.28835094E+01
 20
1.90470909E+02
  0
VERTEX
  8
0
 62
4
 10
-9.28999542E+01
 20
1.90406819E+02
  0
SEQEND
  8
0
  0
ARC
  8
0
 62
4
 10
-8.87422159E+01
 20
1.99563926E+02
 40
1.18100000E+01
 50
2.69962458E+02
 51
2.89675999E+02
  0
ARC
  8
0
 62
4
 10
-8.87576925E+01
 20
1.99563926E+02
 40
1.18100000E+01
 50
2.50324001E+02
 51
2.70037542E+02
  0
LINE
  8
0
 62
4
 10
-9.28999542E+01
 20
1.88678895E+02
 11
-9.28999542E+01
 21
1.90406819E+02
  0
LINE
  8
0
 62
4
 10
-8.45999542E+01
 20
1.88678895E+02
 11
-8.45999542E+01
 21
1.88818004E+02
  0
LINE
  8
0
 62
4
 10
-9.27499542E+01
 20
1.90781046E+02
 11
-9.27499542E+01
 21
1.90598816E+02
  0
POLYLINE
  8
0
 62
4
 66
1
  0
VERTEX
  8
0
 62
4
 10
-8.50499542E+01
 20
1.91044968E+02
  0
VERTEX
  8
0
 62
4
 10
-8.51992622E+01
 20
1.91100888E+02
  0
VERTEX
  8
0
 62
4
 10
-8.53765309E+01
 20
1.91154289E+02
  0
VERTEX
  8
0
 62
4
 10
-8.55803643E+01
 20
1.91204751E+02
  0
VERTEX
  8
0
 62
4
 10
-8.58091574E+01
 20
1.91251876E+02
  0
VERTEX
  8
0
 62
4
 10
-8.60611084E+01
 20
1.91295294E+02
  0
VERTEX
  8
0
 62
4
 10
-8.63342334E+01
 20
1.91334662E+02
  0
VERTEX
  8
0
 62
4
 10
-8.66263815E+01
 20
1.91369671E+02
  0
VERTEX
  8
0
 62
4
 10
-8.69352521E+01
 20
1.91400044E+02
  0
VERTEX
  8
0
 62
4
 10
-8.72584130E+01
 20
1.91425543E+02
  0
VERTEX
  8
0
 62
4
 10
-8.75933194E+01
 20
1.91445967E+02
  0
VERTEX
  8
0
 62
4
 10
-8.79373340E+01
 20
1.91461154E+02
  0
VERTEX
  8
0
 62
4
 10
-8.82877477E+01
 20
1.91470986E+02
  0
VERTEX
  8
0
 62
4
 10
-8.86418011E+01
 20
1.91475385E+02
  0
VERTEX
  8
0
 62
4
 10
-8.89967063E+01
 20
1.91474316E+02
  0
VERTEX
  8
0
 62
4
 10
-8.93496683E+01
 20
1.91467788E+02
  0
VERTEX
  8
0
 62
4
 10
-8.96979078E+01
 20
1.91455852E+02
  0
VERTEX
  8
0
 62
4
 10
-9.00386823E+01
 20
1.91438601E+02
  0
VERTEX
  8
0
 62
4
 10
-9.03693085E+01
 20
1.91416173E+02
  0
VERTEX
  8
0
 62
4
 10
-9.06871828E+01
 20
1.91388744E+02
  0
VERTEX
  8
0
 62
4
 10
-9.09898019E+01
 20
1.91356529E+02
  0
VERTEX
  8
0
 62
4
 10
-9.12747828E+01
 20
1.91319782E+02
  0
VERTEX
  8
0
 62
4
 10
-9.15398814E+01
 20
1.91278793E+02
  0
VERTEX
  8
0
 62
4
 10
-9.17830101E+01
 20
1.91233884E+02
  0
VERTEX
  8
0
 62
4
 10
-9.20022544E+01
 20
1.91185409E+02
  0
VERTEX
  8
0
 62
4
 10
-9.21958876E+01
 20
1.91133750E+02
  0
VERTEX
  8
0
 62
4
 10
-9.23623851E+01
 20
1.91079314E+02
  0
VERTEX
  8
0
 62
4
 10
-9.25004358E+01
 20
1.91022529E+02
  0
VERTEX
  8
0
 62
4
 10
-9.26089524E+01
 20
1.90963842E+02
  0
VERTEX
  8
0
 62
4
 10
-9.26870804E+01
 20
1.90903716E+02
  0
VERTEX
  8
0
 62
4
 10
-9.27342048E+01
 20
1.90842623E+02
  0
VERTEX
  8
0
 62
4
 10
-9.27499542E+01
 20
1.90781046E+02
  0
SEQEND
  8
0
  0
ARC
  8
0
 62
4
 10
-9.08685598E+01
 20
2.00265135E+02
 40
1.25124521E+01
 50
2.74941635E+02
 51
2.88095416E+02
  0
ARC
  8
0
 62
4
 10
-8.66313484E+01
 20
2.00265138E+02
 40
1.25124547E+01
 50
2.51904586E+02
 51
2.65058365E+02
  0
POLYLINE
  8
0
 62
4
 66
1
  0
VERTEX
  8
0
 62
4
 10
-8.45999542E+01
 20
1.88673558E+02
  0
VERTEX
  8
0
 62
4
 10
-8.46166609E+01
 20
1.88738156E+02
  0
VERTEX
  8
0
 62
4
 10
-8.46666464E+01
 20
1.88802233E+02
  0
VERTEX
  8
0
 62
4
 10
-8.47495083E+01
 20
1.88865275E+02
  0
VERTEX
  8
0
 62
4
 10
-8.48645795E+01
 20
1.88926773E+02
  0
VERTEX
  8
0
 62
4
 10
-8.50109334E+01
 20
1.88986232E+02
  0
VERTEX
  8
0
 62
4
 10
-8.51873917E+01
 20
1.89043174E+02
  0
VERTEX
  8
0
 62
4
 10
-8.53925337E+01
 20
1.89097140E+02
  0
VERTEX
  8
0
 62
4
 10
-8.56247076E+01
 20
1.89147695E+02
  0
VERTEX
  8
0
 62
4
 10
-8.58820442E+01
 20
1.89194433E+02
  0
VERTEX
  8
0
 62
4
 10
-8.61624715E+01
 20
1.89236977E+02
  0
VERTEX
  8
0
 62
4
 10
-8.64637317E+01
 20
1.89274985E+02
  0
VERTEX
  8
0
 62
4
 10
-8.67833992E+01
 20
1.89308150E+02
  0
VERTEX
  8
0
 62
4
 10
-8.71189003E+01
 20
1.89336206E+02
  0
VERTEX
  8
0
 62
4
 10
-8.74675336E+01
 20
1.89358927E+02
  0
VERTEX
  8
0
 62
4
 10
-8.78264923E+01
 20
1.89376130E+02
  0
VERTEX
  8
0
 62
4
 10
-8.81928861E+01
 20
1.89387676E+02
  0
VERTEX
  8
0
 62
4
 10
-8.85637651E+01
 20
1.89393472E+02
  0
VERTEX
  8
0
 62
4
 10
-8.89361432E+01
 20
1.89393472E+02
  0
VERTEX
  8
0
 62
4
 10
-8.93070222E+01
 20
1.89387676E+02
  0
VERTEX
  8
0
 62
4
 10
-8.96734161E+01
 20
1.89376130E+02
  0
VERTEX
  8
0
 62
4
 10
-9.00323747E+01
 20
1.89358927E+02
  0
VERTEX
  8
0
 62
4
 10
-9.03810081E+01
 20
1.89336206E+02
  0
VERTEX
  8
0
 62
4
 10
-9.07165091E+01
 20
1.89308150E+02
  0
VERTEX
  8
0
 62
4
 10
-9.10361767E+01
 20
1.89274985E+02
  0
VERTEX
  8
0
 62
4
 10
-9.13374369E+01
 20
1.89236977E+02
  0
VERTEX
  8
0
 62
4
 10
-9.16178642E+01
 20
1.89194433E+02
  0
VERTEX
  8
0
 62
4
 10
-9.18752008E+01
 20
1.89147695E+02
  0
VERTEX
  8
0
 62
4
 10
-9.21073747E+01
 20
1.89097140E+02
  0
VERTEX
  8
0
 62
4
 10
-9.23125167E+01
 20
1.89043174E+02
  0
VERTEX
  8
0
 62
4
 10
-9.24889750E+01
 20
1.88986232E+02
  0
VERTEX
  8
0
 62
4
 10
-9.26353289E+01
 20
1.88926773E+02
  0
VERTEX
  8
0
 62
4
 10
-9.27504001E+01
 20
1.88865275E+02
  0
VERTEX
  8
0
 62
4
 10
-9.28332620E+01
 20
1.88802233E+02
  0
VERTEX
  8
0
 62
4
 10
-9.28832475E+01
 20
1.88738156E+02
  0
VERTEX
  8
0
 62
4
 10
-9.28999542E+01
 20
1.88673558E+02
  0
SEQEND
  8
0
  0
ARC
  8
0
 62
4
 10
-9.26499542E+01
 20
1.88678895E+02
 40
2.50000000E-01
 50
1.80000000E+02
 51
2.50324001E+02
  0
ARC
  8
0
 62
4
 10
-8.48499542E+01
 20
1.88678895E+02
 40
2.50000000E-01
 50
2.89675999E+02
 51
0.00000000E+00
  0
LINE
  8
0
 62
4
 10
-8.50499542E+01
 20
1.90404007E+02
 11
-8.50499542E+01
 21
1.91388815E+02
  0
LINE
  8
0
 62
4
 10
-7.74499542E+01
 20
1.90404007E+02
 11
-7.74499542E+01
 21
1.91388815E+02
  0
POLYLINE
  8
0
 62
4
 66
1
  0
VERTEX
  8
0
 62
4
 10
-7.74499542E+01
 20
1.91388815E+02
  0
VERTEX
  8
0
 62
4
 10
-7.74652519E+01
 20
1.91447965E+02
  0
VERTEX
  8
0
 62
4
 10
-7.75110218E+01
 20
1.91506638E+02
  0
VERTEX
  8
0
 62
4
 10
-7.75868953E+01
 20
1.91564363E+02
  0
VERTEX
  8
0
 62
4
 10
-7.76922617E+01
 20
1.91620674E+02
  0
VERTEX
  8
0
 62
4
 10
-7.78262725E+01
 20
1.91675119E+02
  0
VERTEX
  8
0
 62
4
 10
-7.79878488E+01
 20
1.91727258E+02
  0
VERTEX
  8
0
 62
4
 10
-7.81756896E+01
 20
1.91776673E+02
  0
VERTEX
  8
0
 62
4
 10
-7.83882826E+01
 20
1.91822964E+02
  0
VERTEX
  8
0
 62
4
 10
-7.86239161E+01
 20
1.91865761E+02
  0
VERTEX
  8
0
 62
4
 10
-7.88806929E+01
 20
1.91904717E+02
  0
VERTEX
  8
0
 62
4
 10
-7.91565457E+01
 20
1.91939519E+02
  0
VERTEX
  8
0
 62
4
 10
-7.94492533E+01
 20
1.91969887E+02
  0
VERTEX
  8
0
 62
4
 10
-7.97564591E+01
 20
1.91995577E+02
  0
VERTEX
  8
0
 62
4
 10
-8.00756896E+01
 20
1.92016382E+02
  0
VERTEX
  8
0
 62
4
 10
-8.04043746E+01
 20
1.92032134E+02
  0
VERTEX
  8
0
 62
4
 10
-8.07398678E+01
 20
1.92042706E+02
  0
VERTEX
  8
0
 62
4
 10
-8.10794678E+01
 20
1.92048014E+02
  0
VERTEX
  8
0
 62
4
 10
-8.14204405E+01
 20
1.92048014E+02
  0
VERTEX
  8
0
 62
4
 10
-8.17600406E+01
 20
1.92042706E+02
  0
VERTEX
  8
0
 62
4
 10
-8.20955337E+01
 20
1.92032134E+02
  0
VERTEX
  8
0
 62
4
 10
-8.24242188E+01
 20
1.92016382E+02
  0
VERTEX
  8
0
 62
4
 10
-8.27434493E+01
 20
1.91995577E+02
  0
VERTEX
  8
0
 62
4
 10
-8.30506551E+01
 20
1.91969887E+02
  0
VERTEX
  8
0
 62
4
 10
-8.33433627E+01
 20
1.91939519E+02
  0
VERTEX
  8
0
 62
4
 10
-8.36192154E+01
 20
1.91904717E+02
  0
VERTEX
  8
0
 62
4
 10
-8.38759922E+01
 20
1.91865761E+02
  0
VERTEX
  8
0
 62
4
 10
-8.41116258E+01
 20
1.91822964E+02
  0
VERTEX
  8
0
 62
4
 10
-8.43242188E+01
 20
1.91776673E+02
  0
VERTEX
  8
0
 62
4
 10
-8.45120596E+01
 20
1.91727258E+02
  0
VERTEX
  8
0
 62
4
 10
-8.46736359E+01
 20
1.91675119E+02
  0
VERTEX
  8
0
 62
4
 10
-8.48076467E+01
 20
1.91620674E+02
  0
VERTEX
  8
0
 62
4
 10
-8.49130131E+01
 20
1.91564363E+02
  0
VERTEX
  8
0
 62
4
 10
-8.49888866E+01
 20
1.91506638E+02
  0
VERTEX
  8
0
 62
4
 10
-8.50346565E+01
 20
1.91447965E+02
  0
VERTEX
  8
0
 62
4
 10
-8.50499542E+01
 20
1.91388815E+02
  0
SEQEND
  8
0
  0
POLYLINE
  8
0
 62
4
 66
1
  0
VERTEX
  8
0
 62
4
 10
-7.78499542E+01
 20
1.90109316E+02
  0
VERTEX
  8
0
 62
4
 10
-7.77133725E+01
 20
1.90162605E+02
  0
VERTEX
  8
0
 62
4
 10
-7.76044247E+01
 20
1.90217781E+02
  0
VERTEX
  8
0
 62
4
 10
-7.75239619E+01
 20
1.90274411E+02
  0
VERTEX
  8
0
 62
4
 10
-7.74726129E+01
 20
1.90332054E+02
  0
VERTEX
  8
0
 62
4
 10
-7.74507789E+01
 20
1.90390260E+02
  0
VERTEX
  8
0
 62
4
 10
-7.74586306E+01
 20
1.90448573E+02
  0
VERTEX
  8
0
 62
4
 10
-7.74961066E+01
 20
1.90506537E+02
  0
VERTEX
  8
0
 62
4
 10
-7.75629140E+01
 20
1.90563700E+02
  0
VERTEX
  8
0
 62
4
 10
-7.76585308E+01
 20
1.90619616E+02
  0
VERTEX
  8
0
 62
4
 10
-7.77822100E+01
 20
1.90673847E+02
  0
VERTEX
  8
0
 62
4
 10
-7.79329851E+01
 20
1.90725969E+02
  0
VERTEX
  8
0
 62
4
 10
-7.81096780E+01
 20
1.90775576E+02
  0
VERTEX
  8
0
 62
4
 10
-7.83109080E+01
 20
1.90822280E+02
  0
VERTEX
  8
0
 62
4
 10
-7.85351030E+01
 20
1.90865715E+02
  0
VERTEX
  8
0
 62
4
 10
-7.87805109E+01
 20
1.90905542E+02
  0
VERTEX
  8
0
 62
4
 10
-7.90452144E+01
 20
1.90941451E+02
  0
VERTEX
  8
0
 62
4
 10
-7.93271450E+01
 20
1.90973160E+02
  0
VERTEX
  8
0
 62
4
 10
-7.96240999E+01
 20
1.91000422E+02
  0
VERTEX
  8
0
 62
4
 10
-7.99337588E+01
 20
1.91023024E+02
  0
VERTEX
  8
0
 62
4
 10
-8.02537020E+01
 20
1.91040789E+02
  0
VERTEX
  8
0
 62
4
 10
-8.05814296E+01
 20
1.91053578E+02
  0
VERTEX
  8
0
 62
4
 10
-8.09143809E+01
 20
1.91061292E+02
  0
VERTEX
  8
0
 62
4
 10
-8.12499542E+01
 20
1.91063870E+02
  0
VERTEX
  8
0
 62
4
 10
-8.15855276E+01
 20
1.91061292E+02
  0
VERTEX
  8
0
 62
4
 10
-8.19184788E+01
 20
1.91053578E+02
  0
VERTEX
  8
0
 62
4
 10
-8.22462065E+01
 20
1.91040789E+02
  0
VERTEX
  8
0
 62
4
 10
-8.25661497E+01
 20
1.91023024E+02
  0
VERTEX
  8
0
 62
4
 10
-8.28758085E+01
 20
1.91000422E+02
  0
VERTEX
  8
0
 62
4
 10
-8.31727634E+01
 20
1.90973160E+02
  0
VERTEX
  8
0
 62
4
 10
-8.34546941E+01
 20
1.90941451E+02
  0
VERTEX
  8
0
 62
4
 10
-8.37193975E+01
 20
1.90905542E+02
  0
VERTEX
  8
0
 62
4
 10
-8.39648055E+01
 20
1.90865715E+02
  0
VERTEX
  8
0
 62
4
 10
-8.41890004E+01
 20
1.90822280E+02
  0
VERTEX
  8
0
 62
4
 10
-8.43902305E+01
 20
1.90775576E+02
  0
VERTEX
  8
0
 62
4
 10
-8.45669234E+01
 20
1.90725969E+02
  0
VERTEX
  8
0
 62
4
 10
-8.47176984E+01
 20
1.90673847E+02
  0
VERTEX
  8
0
 62
4
 10
-8.48413776E+01
 20
1.90619616E+02
  0
VERTEX
  8
0
 62
4
 10
-8.49369944E+01
 20
1.90563701E+02
  0
VERTEX
  8
0
 62
4
 10
-8.50038018E+01
 20
1.90506537E+02
  0
VERTEX
  8
0
 62
4
 10
-8.50412778E+01
 20
1.90448573E+02
  0
VERTEX
  8
0
 62
4
 10
-8.50491295E+01
 20
1.90390260E+02
  0
VERTEX
  8
0
 62
4
 10
-8.50272955E+01
 20
1.90332054E+02
  0
VERTEX
  8
0
 62
4
 10
-8.49759465E+01
 20
1.90274411E+02
  0
VERTEX
  8
0
 62
4
 10
-8.48954837E+01
 20
1.90217781E+02
  0
VERTEX
  8
0
 62
4
 10
-8.47865359E+01
 20
1.90162605E+02
  0
VERTEX
  8
0
 62
4
 10
-8.46499542E+01
 20
1.90109316E+02
  0
SEQEND
  8
0
  0
LINE
  8
0
 62
4
 10
-8.46499542E+01
 20
1.89130255E+02
 11
-8.46499542E+01
 21
1.90404007E+02
  0
LINE
  8
0
 62
4
 10
-7.78499542E+01
 20
1.89130255E+02
 11
-7.78499542E+01
 21
1.90404007E+02
  0
POLYLINE
  8
0
 62
4
 66
1
  0
VERTEX
  8
0
 62
4
 10
-7.78499542E+01
 20
1.90404007E+02
  0
VERTEX
  8
0
 62
4
 10
-7.78636416E+01
 20
1.90456930E+02
  0
VERTEX
  8
0
 62
4
 10
-7.79045936E+01
 20
1.90509428E+02
  0
VERTEX
  8
0
 62
4
 10
-7.79724805E+01
 20
1.90561076E+02
  0
VERTEX
  8
0
 62
4
 10
-7.80667556E+01
 20
1.90611460E+02
  0
VERTEX
  8
0
 62
4
 10
-7.81866600E+01
 20
1.90660174E+02
  0
VERTEX
  8
0
 62
4
 10
-7.83312283E+01
 20
1.90706825E+02
  0
VERTEX
  8
0
 62
4
 10
-7.84992964E+01
 20
1.90751038E+02
  0
VERTEX
  8
0
 62
4
 10
-7.86895112E+01
 20
1.90792457E+02
  0
VERTEX
  8
0
 62
4
 10
-7.89003412E+01
 20
1.90830748E+02
  0
VERTEX
  8
0
 62
4
 10
-7.91300889E+01
 20
1.90865603E+02
  0
VERTEX
  8
0
 62
4
 10
-7.93769044E+01
 20
1.90896742E+02
  0
VERTEX
  8
0
 62
4
 10
-7.96388007E+01
 20
1.90923914E+02
  0
VERTEX
  8
0
 62
4
 10
-7.99136691E+01
 20
1.90946900E+02
  0
VERTEX
  8
0
 62
4
 10
-8.01992964E+01
 20
1.90965514E+02
  0
VERTEX
  8
0
 62
4
 10
-8.04933830E+01
 20
1.90979608E+02
  0
VERTEX
  8
0
 62
4
 10
-8.07935611E+01
 20
1.90989068E+02
  0
VERTEX
  8
0
 62
4
 10
-8.10974138E+01
 20
1.90993816E+02
  0
VERTEX
  8
0
 62
4
 10
-8.14024946E+01
 20
1.90993816E+02
  0
VERTEX
  8
0
 62
4
 10
-8.17063473E+01
 20
1.90989068E+02
  0
VERTEX
  8
0
 62
4
 10
-8.20065254E+01
 20
1.90979608E+02
  0
VERTEX
  8
0
 62
4
 10
-8.23006120E+01
 20
1.90965514E+02
  0
VERTEX
  8
0
 62
4
 10
-8.25862393E+01
 20
1.90946900E+02
  0
VERTEX
  8
0
 62
4
 10
-8.28611076E+01
 20
1.90923914E+02
  0
VERTEX
  8
0
 62
4
 10
-8.31230039E+01
 20
1.90896742E+02
  0
VERTEX
  8
0
 62
4
 10
-8.33698195E+01
 20
1.90865603E+02
  0
VERTEX
  8
0
 62
4
 10
-8.35995672E+01
 20
1.90830748E+02
  0
VERTEX
  8
0
 62
4
 10
-8.38103972E+01
 20
1.90792457E+02
  0
VERTEX
  8
0
 62
4
 10
-8.40006120E+01
 20
1.90751038E+02
  0
VERTEX
  8
0
 62
4
 10
-8.41686801E+01
 20
1.90706825E+02
  0
VERTEX
  8
0
 62
4
 10
-8.43132483E+01
 20
1.90660174E+02
  0
VERTEX
  8
0
 62
4
 10
-8.44331528E+01
 20
1.90611460E+02
  0
VERTEX
  8
0
 62
4
 10
-8.45274279E+01
 20
1.90561076E+02
  0
VERTEX
  8
0
 62
4
 10
-8.45953148E+01
 20
1.90509428E+02
  0
VERTEX
  8
0
 62
4
 10
-8.46362668E+01
 20
1.90456930E+02
  0
VERTEX
  8
0
 62
4
 10
-8.46499542E+01
 20
1.90404007E+02
  0
SEQEND
  8
0
  0
ARC
  8
0
 62
4
 10
-8.12499542E+01
 20
1.99670468E+02
 40
1.18100000E+01
 50
2.57172490E+02
 51
2.82827510E+02
  0
ARC
  8
0
 62
4
 10
-7.88499539E+01
 20
1.89130255E+02
 40
1.00000000E+00
 50
2.82827510E+02
 51
5.08888749E-14
  0
ARC
  8
0
 62
4
 10
-8.36499545E+01
 20
1.89130255E+02
 40
1.00000000E+00
 50
1.80000000E+02
 51
2.57172490E+02
  0
ARC
  8
0
 62
4
 10
-8.33717078E+01
 20
2.00389611E+02
 40
1.25306621E+01
 50
2.74968660E+02
 51
2.88083352E+02
  0
ARC
  8
0
 62
4
 10
-7.91282006E+01
 20
2.00389612E+02
 40
1.25306626E+01
 50
2.51916648E+02
 51
2.65031340E+02
  0
LINE
  8
0
  6
CENTER
 62
6
 10
-9.12499542E+01
 20
1.90781046E+02
 11
-8.62499542E+01
 21
1.90781046E+02
  0
LINE
  8
0
  6
CENTER
 62
6
 10
-8.12499542E+01
 20
1.93888815E+02
 11
-8.12499542E+01
 21
1.88888815E+02
  0
LINE
  8
0
  6
CENTER
 62
6
 10
-8.37499542E+01
 20
1.91388815E+02
 11
-7.87499542E+01
 21
1.91388815E+02
  0
LINE
  8
0
  6
CENTER
 62
6
 10
-9.62499542E+01
 20
1.93888815E+02
 11
-9.62499542E+01
 21
1.88888815E+02
  0
LINE
  8
0
  6
CENTER
 62
6
 10
-9.87499542E+01
 20
1.91388815E+02
 11
-9.37499542E+01
 21
1.91388815E+02
  0
LINE
  8
0
 62
4
 10
-7.74568436E+01
 20
1.90364291E+02
 11
-7.37499542E+01
 21
1.90364291E+02
  0
LINE
  8
0
 62
7
 10
-7.37499542E+01
 20
2.09519459E+02
 11
-8.25005341E+00
 21
2.09519459E+02
  0
LINE
  8
0
 62
7
 10
-7.37499542E+01
 20
2.10369449E+02
 11
-8.25005341E+00
 21
2.10369449E+02
  0
LINE
  8
0
 62
7
 10
-7.37499542E+01
 20
2.04219471E+02
 11
-8.25005341E+00
 21
2.04219471E+02
  0
LINE
  8
0
 62
7
 10
-2.97500458E+01
 20
1.72519459E+02
 11
-8.25005341E+00
 21
1.72519459E+02
  0
LINE
  8
0
 62
7
 10
-2.97500458E+01
 20
1.67219471E+02
 11
-8.25005341E+00
 21
1.67219471E+02
  0
LINE
  8
0
 62
7
 10
-2.97500458E+01
 20
1.66369480E+02
 11
-8.25005341E+00
 21
1.66369480E+02
  0
LINE
  8
0
 62
6
 10
-1.00464959E+02
 20
-2.08377292E+02
 11
-9.70350895E+01
 21
-2.04947417E+02
  0
LINE
  8
0
 62
6
 10
-9.70350871E+01
 20
-2.08377289E+02
 11
-1.00464962E+02
 21
-2.04947420E+02
  0
POLYLINE
  8
0
 62
4
 66
1
  0
VERTEX
  8
0
 62
4
 10
-1.02750024E+02
 20
-2.07021498E+02
  0
VERTEX
  8
0
 62
4
 10
-1.02734808E+02
 20
-2.07362503E+02
  0
VERTEX
  8
0
 62
4
 10
-1.02689266E+02
 20
-2.07700913E+02
  0
VERTEX
  8
0
 62
4
 10
-1.02613743E+02
 20
-2.08034153E+02
  0
VERTEX
  8
0
 62
4
 10
-1.02508816E+02
 20
-2.08359686E+02
  0
VERTEX
  8
0
 62
4
 10
-1.02375281E+02
 20
-2.08675036E+02
  0
VERTEX
  8
0
 62
4
 10
-1.02214157E+02
 20
-2.08977801E+02
  0
VERTEX
  8
0
 62
4
 10
-1.02026668E+02
 20
-2.09265679E+02
  0
VERTEX
  8
0
 62
4
 10
-1.01814242E+02
 20
-2.09536477E+02
  0
VERTEX
  8
0
 62
4
 10
-1.01578495E+02
 20
-2.09788135E+02
  0
VERTEX
  8
0
 62
4
 10
-1.01321222E+02
 20
-2.10018738E+02
  0
VERTEX
  8
0
 62
4
 10
-1.01044381E+02
 20
-2.10226531E+02
  0
VERTEX
  8
0
 62
4
 10
-1.00750078E+02
 20
-2.10409932E+02
  0
VERTEX
  8
0
 62
4
 10
-1.00440553E+02
 20
-2.10567545E+02
  0
VERTEX
  8
0
 62
4
 10
-1.00118163E+02
 20
-2.10698172E+02
  0
VERTEX
  8
0
 62
4
 10
-9.97853600E+01
 20
-2.10800817E+02
  0
VERTEX
  8
0
 62
4
 10
-9.94446777E+01
 20
-2.10874699E+02
  0
VERTEX
  8
0
 62
4
 10
-9.90987087E+01
 20
-2.10919257E+02
  0
VERTEX
  8
0
 62
4
 10
-9.87500860E+01
 20
-2.10934151E+02
  0
VERTEX
  8
0
 62
4
 10
-9.84014628E+01
 20
-2.10919268E+02
  0
VERTEX
  8
0
 62
4
 10
-9.80554923E+01
 20
-2.10874721E+02
  0
VERTEX
  8
0
 62
4
 10
-9.77148077E+01
 20
-2.10800849E+02
  0
VERTEX
  8
0
 62
4
 10
-9.73820017E+01
 20
-2.10698215E+02
  0
VERTEX
  8
0
 62
4
 10
-9.70596071E+01
 20
-2.10567599E+02
  0
VERTEX
  8
0
 62
4
 10
-9.67500777E+01
 20
-2.10409995E+02
  0
VERTEX
  8
0
 62
4
 10
-9.64557690E+01
 20
-2.10226604E+02
  0
VERTEX
  8
0
 62
4
 10
-9.61789211E+01
 20
-2.10018820E+02
  0
VERTEX
  8
0
 62
4
 10
-9.59216407E+01
 20
-2.09788225E+02
  0
VERTEX
  8
0
 62
4
 10
-9.56858861E+01
 20
-2.09536574E+02
  0
VERTEX
  8
0
 62
4
 10
-9.54734514E+01
 20
-2.09265782E+02
  0
VERTEX
  8
0
 62
4
 10
-9.52859534E+01
 20
-2.08977911E+02
  0
VERTEX
  8
0
 62
4
 10
-9.51248191E+01
 20
-2.08675150E+02
  0
VERTEX
  8
0
 62
4
 10
-9.49912748E+01
 20
-2.08359805E+02
  0
VERTEX
  8
0
 62
4
 10
-9.48863368E+01
 20
-2.08034275E+02
  0
VERTEX
  8
0
 62
4
 10
-9.48108038E+01
 20
-2.07701037E+02
  0
VERTEX
  8
0
 62
4
 10
-9.47652507E+01
 20
-2.07362629E+02
  0
VERTEX
  8
0
 62
4
 10
-9.47500241E+01
 20
-2.07021624E+02
  0
VERTEX
  8
0
 62
4
 10
-9.47652399E+01
 20
-2.06680619E+02
  0
VERTEX
  8
0
 62
4
 10
-9.48107823E+01
 20
-2.06342209E+02
  0
VERTEX
  8
0
 62
4
 10
-9.48863048E+01
 20
-2.06008969E+02
  0
VERTEX
  8
0
 62
4
 10
-9.49912325E+01
 20
-2.05683436E+02
  0
VERTEX
  8
0
 62
4
 10
-9.51247668E+01
 20
-2.05368086E+02
  0
VERTEX
  8
0
 62
4
 10
-9.52858916E+01
 20
-2.05065321E+02
  0
VERTEX
  8
0
 62
4
 10
-9.54733804E+01
 20
-2.04777443E+02
  0
VERTEX
  8
0
 62
4
 10
-9.56858066E+01
 20
-2.04506645E+02
  0
VERTEX
  8
0
 62
4
 10
-9.59215532E+01
 20
-2.04254987E+02
  0
VERTEX
  8
0
 62
4
 10
-9.61788263E+01
 20
-2.04024384E+02
  0
VERTEX
  8
0
 62
4
 10
-9.64556677E+01
 20
-2.03816591E+02
  0
VERTEX
  8
0
 62
4
 10
-9.67499705E+01
 20
-2.03633190E+02
  0
VERTEX
  8
0
 62
4
 10
-9.70594950E+01
 20
-2.03475577E+02
  0
VERTEX
  8
0
 62
4
 10
-9.73818854E+01
 20
-2.03344950E+02
  0
VERTEX
  8
0
 62
4
 10
-9.77146882E+01
 20
-2.03242305E+02
  0
VERTEX
  8
0
 62
4
 10
-9.80553705E+01
 20
-2.03168423E+02
  0
VERTEX
  8
0
 62
4
 10
-9.84013395E+01
 20
-2.03123865E+02
  0
VERTEX
  8
0
 62
4
 10
-9.87499622E+01
 20
-2.03108971E+02
  0
VERTEX
  8
0
 62
4
 10
-9.90985854E+01
 20
-2.03123854E+02
  0
VERTEX
  8
0
 62
4
 10
-9.94445559E+01
 20
-2.03168401E+02
  0
VERTEX
  8
0
 62
4
 10
-9.97852405E+01
 20
-2.03242273E+02
  0
VERTEX
  8
0
 62
4
 10
-1.00118047E+02
 20
-2.03344907E+02
  0
VERTEX
  8
0
 62
4
 10
-1.00440441E+02
 20
-2.03475523E+02
  0
VERTEX
  8
0
 62
4
 10
-1.00749971E+02
 20
-2.03633127E+02
  0
VERTEX
  8
0
 62
4
 10
-1.01044279E+02
 20
-2.03816518E+02
  0
VERTEX
  8
0
 62
4
 10
-1.01321127E+02
 20
-2.04024302E+02
  0
VERTEX
  8
0
 62
4
 10
-1.01578407E+02
 20
-2.04254897E+02
  0
VERTEX
  8
0
 62
4
 10
-1.01814162E+02
 20
-2.04506548E+02
  0
VERTEX
  8
0
 62
4
 10
-1.02026597E+02
 20
-2.04777340E+02
  0
VERTEX
  8
0
 62
4
 10
-1.02214095E+02
 20
-2.05065211E+02
  0
VERTEX
  8
0
 62
4
 10
-1.02375229E+02
 20
-2.05367972E+02
  0
VERTEX
  8
0
 62
4
 10
-1.02508773E+02
 20
-2.05683317E+02
  0
VERTEX
  8
0
 62
4
 10
-1.02613711E+02
 20
-2.06008847E+02
  0
VERTEX
  8
0
 62
4
 10
-1.02689244E+02
 20
-2.06342085E+02
  0
VERTEX
  8
0
 62
4
 10
-1.02734798E+02
 20
-2.06680493E+02
  0
VERTEX
  8
0
 62
4
 10
-1.02750024E+02
 20
-2.07021498E+02
  0
SEQEND
  8
0
  0
POLYLINE
  8
0
 62
4
 66
1
  0
VERTEX
  8
0
 62
4
 10
-1.02148997E+02
 20
-2.06744644E+02
  0
VERTEX
  8
0
 62
4
 10
-1.02143053E+02
 20
-2.07056129E+02
  0
VERTEX
  8
0
 62
4
 10
-1.02110472E+02
 20
-2.07365847E+02
  0
VERTEX
  8
0
 62
4
 10
-1.02051510E+02
 20
-2.07671366E+02
  0
VERTEX
  8
0
 62
4
 10
-1.01966629E+02
 20
-2.07970289E+02
  0
VERTEX
  8
0
 62
4
 10
-1.01856496E+02
 20
-2.08260269E+02
  0
VERTEX
  8
0
 62
4
 10
-1.01721976E+02
 20
-2.08539029E+02
  0
VERTEX
  8
0
 62
4
 10
-1.01564124E+02
 20
-2.08804380E+02
  0
VERTEX
  8
0
 62
4
 10
-1.01384180E+02
 20
-2.09054240E+02
  0
VERTEX
  8
0
 62
4
 10
-1.01183556E+02
 20
-2.09286647E+02
  0
VERTEX
  8
0
 62
4
 10
-1.00963828E+02
 20
-2.09499777E+02
  0
VERTEX
  8
0
 62
4
 10
-1.00726721E+02
 20
-2.09691955E+02
  0
VERTEX
  8
0
 62
4
 10
-1.00474095E+02
 20
-2.09861675E+02
  0
VERTEX
  8
0
 62
4
 10
-1.00207934E+02
 20
-2.10007602E+02
  0
VERTEX
  8
0
 62
4
 10
-9.99303281E+01
 20
-2.10128592E+02
  0
VERTEX
  8
0
 62
4
 10
-9.96434560E+01
 20
-2.10223695E+02
  0
VERTEX
  8
0
 62
4
 10
-9.93495699E+01
 20
-2.10292164E+02
  0
VERTEX
  8
0
 62
4
 10
-9.90509771E+01
 20
-2.10333461E+02
  0
VERTEX
  8
0
 62
4
 10
-9.87500217E+01
 20
-2.10347263E+02
  0
VERTEX
  8
0
 62
4
 10
-9.84490663E+01
 20
-2.10333461E+02
  0
VERTEX
  8
0
 62
4
 10
-9.81504735E+01
 20
-2.10292164E+02
  0
VERTEX
  8
0
 62
4
 10
-9.78565876E+01
 20
-2.10223695E+02
  0
VERTEX
  8
0
 62
4
 10
-9.75697156E+01
 20
-2.10128592E+02
  0
VERTEX
  8
0
 62
4
 10
-9.72921097E+01
 20
-2.10007602E+02
  0
VERTEX
  8
0
 62
4
 10
-9.70259492E+01
 20
-2.09861675E+02
  0
VERTEX
  8
0
 62
4
 10
-9.67733236E+01
 20
-2.09691955E+02
  0
VERTEX
  8
0
 62
4
 10
-9.65362163E+01
 20
-2.09499777E+02
  0
VERTEX
  8
0
 62
4
 10
-9.63164885E+01
 20
-2.09286647E+02
  0
VERTEX
  8
0
 62
4
 10
-9.61158653E+01
 20
-2.09054240E+02
  0
VERTEX
  8
0
 62
4
 10
-9.59359216E+01
 20
-2.08804380E+02
  0
VERTEX
  8
0
 62
4
 10
-9.57780702E+01
 20
-2.08539029E+02
  0
VERTEX
  8
0
 62
4
 10
-9.56435503E+01
 20
-2.08260269E+02
  0
VERTEX
  8
0
 62
4
 10
-9.55334178E+01
 20
-2.07970289E+02
  0
VERTEX
  8
0
 62
4
 10
-9.54485375E+01
 20
-2.07671366E+02
  0
VERTEX
  8
0
 62
4
 10
-9.53895756E+01
 20
-2.07365847E+02
  0
VERTEX
  8
0
 62
4
 10
-9.53569951E+01
 20
-2.07056129E+02
  0
VERTEX
  8
0
 62
4
 10
-9.53510517E+01
 20
-2.06744644E+02
  0
SEQEND
  8
0
  0
POLYLINE
  8
0
 62
4
 66
1
  0
VERTEX
  8
0
 62
4
 10
-1.02150024E+02
 20
-2.06662277E+02
  0
VERTEX
  8
0
 62
4
 10
-1.02137093E+02
 20
-2.06954028E+02
  0
VERTEX
  8
0
 62
4
 10
-1.02098384E+02
 20
-2.07243558E+02
  0
VERTEX
  8
0
 62
4
 10
-1.02034192E+02
 20
-2.07528665E+02
  0
VERTEX
  8
0
 62
4
 10
-1.01945005E+02
 20
-2.07807179E+02
  0
VERTEX
  8
0
 62
4
 10
-1.01831503E+02
 20
-2.08076981E+02
  0
VERTEX
  8
0
 62
4
 10
-1.01694549E+02
 20
-2.08336016E+02
  0
VERTEX
  8
0
 62
4
 10
-1.01535185E+02
 20
-2.08582313E+02
  0
VERTEX
  8
0
 62
4
 10
-1.01354624E+02
 20
-2.08813999E+02
  0
VERTEX
  8
0
 62
4
 10
-1.01154241E+02
 20
-2.09029309E+02
  0
VERTEX
  8
0
 62
4
 10
-1.00935560E+02
 20
-2.09226605E+02
  0
VERTEX
  8
0
 62
4
 10
-1.00700246E+02
 20
-2.09404386E+02
  0
VERTEX
  8
0
 62
4
 10
-1.00450090E+02
 20
-2.09561298E+02
  0
VERTEX
  8
0
 62
4
 10
-1.00186995E+02
 20
-2.09696147E+02
  0
VERTEX
  8
0
 62
4
 10
-9.99129639E+01
 20
-2.09807908E+02
  0
VERTEX
  8
0
 62
4
 10
-9.96300821E+01
 20
-2.09895728E+02
  0
VERTEX
  8
0
 62
4
 10
-9.93405026E+01
 20
-2.09958941E+02
  0
VERTEX
  8
0
 62
4
 10
-9.90464292E+01
 20
-2.09997065E+02
  0
VERTEX
  8
0
 62
4
 10
-9.87501000E+01
 20
-2.10009810E+02
  0
VERTEX
  8
0
 62
4
 10
-9.84537701E+01
 20
-2.09997079E+02
  0
VERTEX
  8
0
 62
4
 10
-9.81596950E+01
 20
-2.09958968E+02
  0
VERTEX
  8
0
 62
4
 10
-9.78701126E+01
 20
-2.09895768E+02
  0
VERTEX
  8
0
 62
4
 10
-9.75872269E+01
 20
-2.09807960E+02
  0
VERTEX
  8
0
 62
4
 10
-9.73131908E+01
 20
-2.09696212E+02
  0
VERTEX
  8
0
 62
4
 10
-9.70500898E+01
 20
-2.09561374E+02
  0
VERTEX
  8
0
 62
4
 10
-9.67999264E+01
 20
-2.09404474E+02
  0
VERTEX
  8
0
 62
4
 10
-9.65646044E+01
 20
-2.09226703E+02
  0
VERTEX
  8
0
 62
4
 10
-9.63459148E+01
 20
-2.09029417E+02
  0
VERTEX
  8
0
 62
4
 10
-9.61455219E+01
 20
-2.08814116E+02
  0
VERTEX
  8
0
 62
4
 10
-9.59649508E+01
 20
-2.08582439E+02
  0
VERTEX
  8
0
 62
4
 10
-9.58055758E+01
 20
-2.08336149E+02
  0
VERTEX
  8
0
 62
4
 10
-9.56686099E+01
 20
-2.08077120E+02
  0
VERTEX
  8
0
 62
4
 10
-9.55550953E+01
 20
-2.07807324E+02
  0
VERTEX
  8
0
 62
4
 10
-9.54658961E+01
 20
-2.07528814E+02
  0
VERTEX
  8
0
 62
4
 10
-9.54016912E+01
 20
-2.07243709E+02
  0
VERTEX
  8
0
 62
4
 10
-9.53629690E+01
 20
-2.06954180E+02
  0
VERTEX
  8
0
 62
4
 10
-9.53500244E+01
 20
-2.06662431E+02
  0
VERTEX
  8
0
 62
4
 10
-9.53629558E+01
 20
-2.06370680E+02
  0
VERTEX
  8
0
 62
4
 10
-9.54016649E+01
 20
-2.06081150E+02
  0
VERTEX
  8
0
 62
4
 10
-9.54658570E+01
 20
-2.05796043E+02
  0
VERTEX
  8
0
 62
4
 10
-9.55550436E+01
 20
-2.05517529E+02
  0
VERTEX
  8
0
 62
4
 10
-9.56685460E+01
 20
-2.05247727E+02
  0
VERTEX
  8
0
 62
4
 10
-9.58055002E+01
 20
-2.04988692E+02
  0
VERTEX
  8
0
 62
4
 10
-9.59648641E+01
 20
-2.04742395E+02
  0
VERTEX
  8
0
 62
4
 10
-9.61454247E+01
 20
-2.04510709E+02
  0
VERTEX
  8
0
 62
4
 10
-9.63458079E+01
 20
-2.04295399E+02
  0
VERTEX
  8
0
 62
4
 10
-9.65644886E+01
 20
-2.04098103E+02
  0
VERTEX
  8
0
 62
4
 10
-9.67998026E+01
 20
-2.03920322E+02
  0
VERTEX
  8
0
 62
4
 10
-9.70499590E+01
 20
-2.03763410E+02
  0
VERTEX
  8
0
 62
4
 10
-9.73130538E+01
 20
-2.03628561E+02
  0
VERTEX
  8
0
 62
4
 10
-9.75870849E+01
 20
-2.03516800E+02
  0
VERTEX
  8
0
 62
4
 10
-9.78699667E+01
 20
-2.03428980E+02
  0
VERTEX
  8
0
 62
4
 10
-9.81595462E+01
 20
-2.03365767E+02
  0
VERTEX
  8
0
 62
4
 10
-9.84536196E+01
 20
-2.03327643E+02
  0
VERTEX
  8
0
 62
4
 10
-9.87499488E+01
 20
-2.03314898E+02
  0
VERTEX
  8
0
 62
4
 10
-9.90462787E+01
 20
-2.03327629E+02
  0
VERTEX
  8
0
 62
4
 10
-9.93403538E+01
 20
-2.03365740E+02
  0
VERTEX
  8
0
 62
4
 10
-9.96299362E+01
 20
-2.03428940E+02
  0
VERTEX
  8
0
 62
4
 10
-9.99128219E+01
 20
-2.03516748E+02
  0
VERTEX
  8
0
 62
4
 10
-1.00186858E+02
 20
-2.03628496E+02
  0
VERTEX
  8
0
 62
4
 10
-1.00449959E+02
 20
-2.03763334E+02
  0
VERTEX
  8
0
 62
4
 10
-1.00700122E+02
 20
-2.03920234E+02
  0
VERTEX
  8
0
 62
4
 10
-1.00935444E+02
 20
-2.04098005E+02
  0
VERTEX
  8
0
 62
4
 10
-1.01154134E+02
 20
-2.04295291E+02
  0
VERTEX
  8
0
 62
4
 10
-1.01354527E+02
 20
-2.04510592E+02
  0
VERTEX
  8
0
 62
4
 10
-1.01535098E+02
 20
-2.04742269E+02
  0
VERTEX
  8
0
 62
4
 10
-1.01694473E+02
 20
-2.04988559E+02
  0
VERTEX
  8
0
 62
4
 10
-1.01831439E+02
 20
-2.05247588E+02
  0
VERTEX
  8
0
 62
4
 10
-1.01944953E+02
 20
-2.05517384E+02
  0
VERTEX
  8
0
 62
4
 10
-1.02034153E+02
 20
-2.05795894E+02
  0
VERTEX
  8
0
 62
4
 10
-1.02098358E+02
 20
-2.06080999E+02
  0
VERTEX
  8
0
 62
4
 10
-1.02137080E+02
 20
-2.06370528E+02
  0
VERTEX
  8
0
 62
4
 10
-1.02150024E+02
 20
-2.06662277E+02
  0
SEQEND
  8
0
  0
LINE
  8
0
 62
4
 10
-1.07750011E+02
 20
-2.22740360E+02
 11
-7.43747331E+01
 21
-2.22740336E+02
  0
LINE
  8
0
 62
4
 10
-1.07750011E+02
 20
-2.21804757E+02
 11
-7.43747331E+01
 21
-2.21804734E+02
  0
LINE
  8
0
 62
4
 10
-1.07750011E+02
 20
-2.19933552E+02
 11
-7.43747331E+01
 21
-2.19933528E+02
  0
LINE
  8
0
 62
4
 10
-1.07750011E+02
 20
-2.18997950E+02
 11
-7.43747331E+01
 21
-2.18997926E+02
  0
LINE
  8
0
 62
4
 10
-7.43747331E+01
 20
-2.18997950E+02
 11
-7.17500188E+01
 21
-2.14461596E+02
  0
LINE
  8
0
 62
4
 10
-1.07750011E+02
 20
-2.18997950E+02
 11
-1.10750019E+02
 21
-2.14461624E+02
  0
LINE
  8
0
 62
4
 10
-7.43747331E+01
 20
-2.23557728E+02
 11
-7.43747331E+01
 21
-2.18997950E+02
  0
LINE
  8
0
 62
4
 10
-1.07750011E+02
 20
-2.23557728E+02
 11
-1.07750011E+02
 21
-2.18997950E+02
  0
LINE
  8
0
  6
CENTER
 62
6
 10
-9.87500200E+01
 20
-2.12801224E+02
 11
-9.87500291E+01
 21
-2.00001224E+02
  0
LINE
  8
0
  6
CENTER
 62
6
 10
-1.05150025E+02
 20
-2.06397520E+02
 11
-9.23500246E+01
 21
-2.06397511E+02
  0
LINE
  8
0
 62
4
 10
-1.06250046E+02
 20
-1.72358732E+02
 11
-9.12500456E+01
 21
-1.72358722E+02
  0
LINE
  8
0
 62
4
 10
-1.08250028E+02
 20
-1.96396613E+02
 11
-8.92500278E+01
 21
-1.96396599E+02
  0
LINE
  8
0
 62
4
 10
-1.10750028E+02
 20
-2.01754386E+02
 11
-1.10750019E+02
 21
-2.14461624E+02
  0
LINE
  8
0
 62
4
 10
-1.08250028E+02
 20
-1.96396599E+02
 11
-1.08250025E+02
 21
-2.00258083E+02
  0
LINE
  8
0
 62
4
 10
-9.12500456E+01
 20
-1.72358732E+02
 11
-9.12500285E+01
 21
-1.96396600E+02
  0
LINE
  8
0
 62
4
 10
-1.06250046E+02
 20
-1.72358732E+02
 11
-1.06250028E+02
 21
-1.96396611E+02
  0
LINE
  8
0
 62
4
 10
-8.92500278E+01
 20
-1.96396599E+02
 11
-8.92500250E+01
 21
-2.00258083E+02
  0
LINE
  8
0
 62
4
 10
-1.06250029E+02
 20
-1.95834275E+02
 11
-9.12500289E+01
 21
-1.95834264E+02
  0
LINE
  8
0
 62
4
 10
-7.17500279E+01
 20
-2.01754358E+02
 11
-7.17500188E+01
 21
-2.14461599E+02
  0
LINE
  8
0
 62
4
 10
-1.10750019E+02
 20
-2.14461624E+02
 11
-7.17500188E+01
 21
-2.14461596E+02
  0
LINE
  8
0
 62
4
 10
-1.10750020E+02
 20
-2.12994403E+02
 11
-7.17500198E+01
 21
-2.12994375E+02
  0
LINE
  8
0
 62
4
 10
-1.09250025E+02
 20
-2.00254385E+02
 11
-7.32500249E+01
 21
-2.00254359E+02
  0
LINE
  8
0
 62
4
 10
-1.25750047E+02
 20
-1.72454557E+02
 11
-1.20750047E+02
 21
-1.72454553E+02
  0
LINE
  8
0
 62
4
 10
-1.25750046E+02
 20
-1.74771184E+02
 11
-1.20750046E+02
 21
-1.74771181E+02
  0
LINE
  8
0
 62
4
 10
-1.25750039E+02
 20
-1.82117073E+02
 11
-1.20750039E+02
 21
-1.82117069E+02
  0
LINE
  8
0
 62
4
 10
-1.25750036E+02
 20
-1.87136556E+02
 11
-1.20750036E+02
 21
-1.87136552E+02
  0
LINE
  8
0
 62
4
 10
-1.15250030E+02
 20
-1.86789499E+02
 11
-1.06750030E+02
 21
-1.86789493E+02
  0
LINE
  8
0
 62
4
 10
-1.06250040E+02
 20
-1.72789493E+02
 11
-1.15250040E+02
 21
-1.72789499E+02
  0
LINE
  8
0
 62
4
 10
-1.15750040E+02
 20
-1.73289500E+02
 11
-1.15750031E+02
 21
-1.86289500E+02
  0
LINE
  8
0
 62
4
 10
-1.25750047E+02
 20
-1.72454557E+02
 11
-1.25750036E+02
 21
-1.87136556E+02
  0
LINE
  8
0
 62
4
 10
-1.20750047E+02
 20
-1.72454553E+02
 11
-1.20750036E+02
 21
-1.87136552E+02
  0
LINE
  8
0
 62
4
 10
-1.20750040E+02
 20
-1.73535788E+02
 11
-1.15750040E+02
 21
-1.73535785E+02
  0
LINE
  8
0
 62
4
 10
-1.20750031E+02
 20
-1.86035788E+02
 11
-1.15750031E+02
 21
-1.86035785E+02
  0
LINE
  8
0
 62
4
 10
-1.19250040E+02
 20
-1.73535787E+02
 11
-1.19250031E+02
 21
-1.86035787E+02
  0
LINE
  8
0
 62
4
 10
-1.19250039E+02
 20
-1.74035787E+02
 11
-1.15750039E+02
 21
-1.74035785E+02
  0
LINE
  8
0
 62
4
 10
-1.19250031E+02
 20
-1.85535787E+02
 11
-1.15750031E+02
 21
-1.85535785E+02
  0
ARC
  8
0
 62
4
 10
-1.15250532E+02
 20
-1.73289007E+02
 40
4.99508251E-01
 50
8.99436074E+01
 51
1.80056475E+02
  0
ARC
  8
0
 62
4
 10
-1.06749523E+02
 20
-1.87288986E+02
 40
4.99492993E-01
 50
3.59941854E+02
 51
9.00582282E+01
  0
ARC
  8
0
 62
4
 10
-7.32495164E+01
 20
-2.01753852E+02
 40
1.49949266E+00
 50
3.59980652E+02
 51
9.00194298E+01
  0
ARC
  8
0
 62
4
 10
-1.15249523E+02
 20
-1.86288991E+02
 40
5.00508007E-01
 50
1.80058166E+02
 51
2.69941916E+02
  0
ARC
  8
0
 62
4
 10
-1.09250516E+02
 20
-2.01753893E+02
 40
1.49950792E+00
 50
8.99812358E+01
 51
1.80018846E+02
  0
LINE
  8
0
 62
4
 10
-3.06633758E+02
 20
-2.25323388E+02
 11
-3.04750046E+02
 21
-2.34185556E+02
  0
ARC
  8
0
 62
4
 10
-2.88207912E+02
 20
-1.79785769E+02
 40
7.00000000E+00
 50
1.10107658E+02
 51
1.33018360E+02
  0
LINE
  8
0
 62
4
 10
-3.01389236E+02
 20
-2.09169408E+02
 11
-2.94540753E+02
 21
-2.07713718E+02
  0
LINE
  8
0
 62
4
 10
-2.93262577E+02
 20
-2.16131929E+02
 11
-2.92773503E+02
 21
-2.16027973E+02
  0
LINE
  8
0
 62
4
 10
-2.93647695E+02
 20
-2.16724958E+02
 11
-2.92833028E+02
 21
-2.20557667E+02
  0
LINE
  8
0
 62
4
 10
-3.01389236E+02
 20
-2.09169408E+02
 11
-3.06633758E+02
 21
-2.25323388E+02
  0
LINE
  8
0
 62
4
 10
-2.96792263E+02
 20
-1.75477392E+02
 11
-2.92009121E+02
 21
-1.74460704E+02
  0
LINE
  8
0
 62
4
 10
-2.82120049E+02
 20
-1.72358717E+02
 11
-2.76922256E+02
 21
-1.96812407E+02
  0
LINE
  8
0
 62
4
 10
-2.96792263E+02
 20
-1.75477392E+02
 11
-2.91594470E+02
 21
-1.99931082E+02
  0
LINE
  8
0
 62
4
 10
-2.93550766E+02
 20
-2.00346906E+02
 11
-2.74965961E+02
 21
-1.96396584E+02
  0
LINE
  8
0
 62
4
 10
-2.91802382E+02
 20
-1.98952935E+02
 11
-2.77130168E+02
 21
-1.95834259E+02
  0
LINE
  8
0
 62
4
 10
-2.74965961E+02
 20
-1.96396584E+02
 11
-2.74134314E+02
 21
-2.00309174E+02
  0
LINE
  8
0
 62
4
 10
-2.93550766E+02
 20
-2.00346906E+02
 11
-2.92719119E+02
 21
-2.04259496E+02
  0
LINE
  8
0
 62
4
 10
-2.92719119E+02
 20
-2.04259496E+02
 11
-2.74134314E+02
 21
-2.00309174E+02
  0
LINE
  8
0
 62
4
 10
-2.92045812E+02
 20
-2.19451489E+02
 11
-2.68570270E+02
 21
-2.14461609E+02
  0
LINE
  8
0
 62
4
 10
-2.71169166E+02
 20
-2.02234764E+02
 11
-2.68570270E+02
 21
-2.14461609E+02
  0
LINE
  8
0
 62
4
 10
-2.94644709E+02
 20
-2.07224644E+02
 11
-2.92045812E+02
 21
-2.19451489E+02
  0
LINE
  8
0
 62
4
 10
-2.92045812E+02
 20
-2.19451489E+02
 11
-2.90779121E+02
 21
-2.20557667E+02
  0
LINE
  8
0
 62
4
 10
-2.68570270E+02
 20
-2.14461609E+02
 11
-2.70673066E+02
 21
-2.18997934E+02
  0
LINE
  8
0
 62
4
 10
-2.75074730E+02
 20
-2.19933537E+02
 11
-2.70673066E+02
 21
-2.18997934E+02
  0
LINE
  8
0
 62
4
 10
-2.92357680E+02
 20
-2.17984268E+02
 11
-2.68882138E+02
 21
-2.12994387E+02
  0
LINE
  8
0
 62
4
 10
-2.83719718E+02
 20
-2.10525339E+02
 11
-2.79807128E+02
 21
-2.09693693E+02
  0
LINE
  8
0
 62
4
 10
-2.83199939E+02
 20
-2.12970708E+02
 11
-2.79287349E+02
 21
-2.12139062E+02
  0
LINE
  8
0
 62
4
 10
-2.83719718E+02
 20
-2.10525339E+02
 11
-2.83199939E+02
 21
-2.12970708E+02
  0
LINE
  8
0
 62
4
 10
-2.79807128E+02
 20
-2.09693693E+02
 11
-2.79287349E+02
 21
-2.12139062E+02
  0
LINE
  8
0
 62
4
 10
-2.86647269E+02
 20
-1.87132829E+02
 11
-2.81068978E+02
 21
-1.82113349E+02
  0
LINE
  8
0
 62
4
 10
-2.95346314E+02
 20
-1.77470313E+02
 11
-2.89768023E+02
 21
-1.72450833E+02
  0
LINE
  8
0
 62
4
 10
-2.95346314E+02
 20
-1.77470313E+02
 11
-2.93784897E+02
 21
-1.84816201E+02
  0
LINE
  8
0
 62
4
 10
-2.82630395E+02
 20
-1.74767461E+02
 11
-2.81068978E+02
 21
-1.82113349E+02
  0
LINE
  8
0
 62
4
 10
-2.93784897E+02
 20
-1.84816201E+02
 11
-2.86647269E+02
 21
-1.87132829E+02
  0
LINE
  8
0
 62
4
 10
-2.89768023E+02
 20
-1.72450833E+02
 11
-2.82630395E+02
 21
-1.74767461E+02
  0
LINE
  8
0
 62
4
 10
-2.86912972E+02
 20
-1.73377484E+02
 11
-2.82120049E+02
 21
-1.72358717E+02
  0
LINE
  8
0
 62
4
 10
-2.70961255E+02
 20
-2.03212911E+02
 11
-2.70472181E+02
 21
-2.03108956E+02
  0
LINE
  8
0
 62
4
 10
-2.69297961E+02
 20
-2.11038092E+02
 11
-2.68808887E+02
 21
-2.10934136E+02
  0
LINE
  8
0
 62
4
 10
-2.70347434E+02
 20
-2.03695844E+02
 11
-2.68655238E+02
 21
-2.03336157E+02
  0
LINE
  8
0
 62
4
 10
-2.67241439E+02
 20
-2.09987561E+02
 11
-2.68933634E+02
 21
-2.10347248E+02
  0
LINE
  8
0
  6
CENTER
 62
6
 10
-3.00872787E+02
 20
-2.13660166E+02
 11
-2.63771648E+02
 21
-2.05774076E+02
  0
LINE
  8
0
 62
4
 10
-2.70472181E+02
 20
-2.03108956E+02
 11
-2.68808887E+02
 21
-2.10934136E+02
  0
ARC
  8
0
 62
4
 10
-2.93158621E+02
 20
-2.16621003E+02
 40
5.00000533E-01
 50
1.02000061E+02
 51
1.91999939E+02
  0
ARC
  8
0
 62
4
 10
-2.78258780E+02
 20
-2.08831614E+02
 40
1.18077645E+01
 50
3.59024145E+02
 51
2.47266957E+01
  0
ARC
  8
0
 62
4
 10
-2.92199318E+02
 20
-2.06704879E+02
 40
2.50001831E+00
 50
1.02000420E+02
 51
1.91999580E+02
  0
ARC
  8
0
 62
4
 10
-2.73613777E+02
 20
-2.02753375E+02
 40
2.49901570E+00
 50
1.19774281E+01
 51
1.02022572E+02
  0
ARC
  8
0
 62
4
 10
-2.77475449E+02
 20
-2.30282849E+02
 40
1.06241099E+01
 50
7.69401406E+01
 51
1.13739125E+02
  0
CIRCLE
  8
0
 62
4
 10
-2.88207912E+02
 20
-1.79785769E+02
 40
3.75000000E+00
  0
ARC
  8
0
 62
4
 10
-2.67450980E+02
 20
-2.09011314E+02
 40
9.98481423E-01
 50
2.82114125E+02
 51
3.58771982E+02
  0
ARC
  8
0
 62
4
 10
-2.68450471E+02
 20
-2.04310996E+02
 40
9.96112687E-01
 50
2.45301420E+01
 51
1.01862685E+02
  0
ARC
  8
0
 62
4
 10
-2.88207912E+02
 20
-1.79785769E+02
 40
7.00000000E+00
 50
7.09816396E+01
 51
9.39142840E+01
  0
LINE
  8
0
  6
CENTER
 62
6
 10
-3.08852025E+02
 20
-2.31192262E+02
 11
-3.04750046E+02
 21
-2.30320359E+02
  0
LINE
  8
0
 62
6
 10
-3.07334448E+02
 20
-2.32403201E+02
 11
-3.05224237E+02
 21
-2.31954662E+02
  0
LINE
  8
0
 62
4
 10
-3.07081912E+02
 20
-2.28781555E+02
 11
-3.05949849E+02
 21
-2.28540927E+02
  0
LINE
  8
0
 62
4
 10
-3.06252345E+02
 20
-2.32684364E+02
 11
-3.05120281E+02
 21
-2.32443736E+02
  0
LINE
  8
0
 62
4
 10
-3.08006003E+02
 20
-2.29243785E+02
 11
-3.07284549E+02
 21
-2.32637957E+02
  0
LINE
  8
0
 62
4
 10
-3.07081912E+02
 20
-2.28781555E+02
 11
-3.08006003E+02
 21
-2.29243785E+02
  0
LINE
  8
0
 62
4
 10
-3.06252345E+02
 20
-2.32684364E+02
 11
-3.07284549E+02
 21
-2.32637957E+02
  0
LINE
  8
0
 62
6
 10
-3.07958183E+02
 20
-2.29468759E+02
 11
-3.05847972E+02
 21
-2.29020219E+02
  0
LINE
  8
0
 62
4
 10
6.28892056E+01
 20
-2.09169408E+02
 11
6.81337272E+01
 21
-2.25323388E+02
  0
ARC
  8
0
 62
4
 10
3.89754183E+01
 20
-2.30282849E+02
 40
1.06241099E+01
 50
6.62608748E+01
 51
1.03059860E+02
  0
LINE
  8
0
 62
4
 10
5.51476646E+01
 20
-2.16724958E+02
 11
5.43329972E+01
 21
-2.20557667E+02
  0
LINE
  8
0
 62
4
 10
5.35457820E+01
 20
-2.19451489E+02
 11
5.22790904E+01
 21
-2.20557667E+02
  0
LINE
  8
0
 62
4
 10
5.47625467E+01
 20
-2.16131929E+02
 11
5.42734729E+01
 21
-2.16027973E+02
  0
ARC
  8
0
 62
4
 10
5.46585902E+01
 20
-2.16621003E+02
 40
5.00000533E-01
 50
3.48000061E+02
 51
7.79999389E+01
  0
LINE
  8
0
 62
4
 10
3.65746998E+01
 20
-2.19933537E+02
 11
3.21730356E+01
 21
-2.18997934E+02
  0
LINE
  8
0
 62
4
 10
4.46999086E+01
 20
-2.12970708E+02
 11
4.07873182E+01
 21
-2.12139062E+02
  0
LINE
  8
0
 62
4
 10
4.52196878E+01
 20
-2.10525339E+02
 11
4.46999086E+01
 21
-2.12970708E+02
  0
LINE
  8
0
 62
4
 10
3.07979305E+01
 20
-2.11038092E+02
 11
3.03088567E+01
 21
-2.10934136E+02
  0
LINE
  8
0
 62
4
 10
5.38576495E+01
 20
-2.17984268E+02
 11
3.03821071E+01
 21
-2.12994387E+02
  0
LINE
  8
0
 62
4
 10
3.00702396E+01
 20
-2.14461609E+02
 11
3.21730356E+01
 21
-2.18997934E+02
  0
LINE
  8
0
 62
4
 10
5.35457820E+01
 20
-2.19451489E+02
 11
3.00702396E+01
 21
-2.14461609E+02
  0
ARC
  8
0
 62
4
 10
4.97088277E+01
 20
-1.79785824E+02
 40
7.00000000E+00
 50
4.69793705E+01
 51
1.09020630E+02
  0
LINE
  8
0
 62
4
 10
6.28892056E+01
 20
-2.09169408E+02
 11
5.60407223E+01
 21
-2.07713718E+02
  0
LINE
  8
0
 62
4
 10
4.36200182E+01
 20
-1.72358717E+02
 11
5.82922322E+01
 21
-1.75477392E+02
  0
LINE
  8
0
 62
4
 10
4.36200182E+01
 20
-1.72358717E+02
 11
3.84222259E+01
 21
-1.96812407E+02
  0
LINE
  8
0
 62
4
 10
5.82922322E+01
 20
-1.75477392E+02
 11
5.30944399E+01
 21
-1.99931082E+02
  0
LINE
  8
0
 62
4
 10
5.50507351E+01
 20
-2.00346906E+02
 11
3.64659307E+01
 21
-1.96396584E+02
  0
LINE
  8
0
 62
4
 10
5.33023516E+01
 20
-1.98952935E+02
 11
3.86301376E+01
 21
-1.95834259E+02
  0
LINE
  8
0
 62
4
 10
3.64659307E+01
 20
-1.96396584E+02
 11
3.56342839E+01
 21
-2.00309174E+02
  0
LINE
  8
0
 62
4
 10
5.50507351E+01
 20
-2.00346906E+02
 11
5.42190883E+01
 21
-2.04259496E+02
  0
LINE
  8
0
 62
4
 10
5.42190883E+01
 20
-2.04259496E+02
 11
3.56342839E+01
 21
-2.00309174E+02
  0
LINE
  8
0
 62
4
 10
5.21138328E+01
 20
-1.73211941E+02
 11
5.12679927E+01
 21
-1.72450833E+02
  0
LINE
  8
0
 62
4
 10
5.12679927E+01
 20
-1.72450833E+02
 11
5.01857545E+01
 21
-1.72802090E+02
  0
LINE
  8
0
 62
4
 10
3.24612240E+01
 20
-2.03212911E+02
 11
3.19721502E+01
 21
-2.03108956E+02
  0
LINE
  8
0
 62
4
 10
3.18474032E+01
 20
-2.03695844E+02
 11
3.01552078E+01
 21
-2.03336157E+02
  0
ARC
  8
0
 62
4
 10
3.97587491E+01
 20
-2.08831614E+02
 40
1.18077645E+01
 50
1.55273304E+02
 51
1.80975855E+02
  0
ARC
  8
0
 62
4
 10
5.36992874E+01
 20
-2.06704879E+02
 40
2.50001831E+00
 50
3.48000420E+02
 51
7.79995802E+01
  0
ARC
  8
0
 62
4
 10
3.51137464E+01
 20
-2.02753375E+02
 40
2.49901570E+00
 50
7.79774280E+01
 51
1.68022572E+02
  0
ARC
  8
0
 62
4
 10
2.89509493E+01
 20
-2.09011314E+02
 40
9.98481423E-01
 50
1.81228019E+02
 51
2.57885875E+02
  0
ARC
  8
0
 62
4
 10
2.99504401E+01
 20
-2.04310996E+02
 40
9.96112687E-01
 50
7.81373153E+01
 51
1.55469858E+02
  0
LINE
  8
0
 62
4
 10
4.82059816E+01
 20
-2.01959030E+02
 11
4.83502031E+01
 21
-2.03012026E+02
  0
LINE
  8
0
 62
4
 10
4.15031699E+01
 20
-2.01556644E+02
 11
4.20632147E+01
 21
-2.00653345E+02
  0
LINE
  8
0
  6
CENTER
 62
6
 10
4.54853988E+01
 20
-1.99655800E+02
 11
4.46168981E+01
 21
-2.03741775E+02
  0
LINE
  8
0
 62
4
 10
4.20632147E+01
 20
-2.00653345E+02
 11
4.82059816E+01
 21
-2.01959030E+02
  0
LINE
  8
0
 62
4
 10
3.19721502E+01
 20
-2.03108956E+02
 11
3.03088567E+01
 21
-2.10934136E+02
  0
LINE
  8
0
  6
CENTER
 62
6
 10
6.23727563E+01
 20
-2.13660166E+02
 11
2.52716178E+01
 21
-2.05774076E+02
  0
LINE
  8
0
 62
4
 10
2.87414083E+01
 20
-2.09987561E+02
 11
3.04336037E+01
 21
-2.10347248E+02
  0
LINE
  8
0
 62
4
 10
4.13070974E+01
 20
-2.09693693E+02
 11
4.07873182E+01
 21
-2.12139062E+02
  0
LINE
  8
0
 62
4
 10
4.52196878E+01
 20
-2.10525339E+02
 11
4.13070974E+01
 21
-2.09693693E+02
  0
LINE
  8
0
 62
4
 10
5.61446781E+01
 20
-2.07224644E+02
 11
5.35457820E+01
 21
-2.19451489E+02
  0
LINE
  8
0
 62
4
 10
3.26691357E+01
 20
-2.02234764E+02
 11
3.00702396E+01
 21
-2.14461609E+02
  0
LINE
  8
0
 62
6
 10
6.88344175E+01
 20
-2.32403201E+02
 11
6.67242064E+01
 21
-2.31954662E+02
  0
LINE
  8
0
 62
4
 10
6.85818817E+01
 20
-2.28781555E+02
 11
6.74498182E+01
 21
-2.28540927E+02
  0
LINE
  8
0
 62
4
 10
6.77523141E+01
 20
-2.32684364E+02
 11
6.66202505E+01
 21
-2.32443736E+02
  0
LINE
  8
0
 62
4
 10
6.95059723E+01
 20
-2.29243785E+02
 11
6.87845187E+01
 21
-2.32637957E+02
  0
LINE
  8
0
 62
4
 10
6.85818817E+01
 20
-2.28781555E+02
 11
6.95059723E+01
 21
-2.29243785E+02
  0
LINE
  8
0
 62
4
 10
6.77523141E+01
 20
-2.32684364E+02
 11
6.87845187E+01
 21
-2.32637957E+02
  0
LINE
  8
0
 62
6
 10
6.94581526E+01
 20
-2.29468759E+02
 11
6.73479414E+01
 21
-2.29020219E+02
  0
LINE
  8
0
  6
CENTER
 62
6
 10
7.03519943E+01
 20
-2.31192262E+02
 11
6.62500153E+01
 21
-2.30320359E+02
  0
LINE
  8
0
 62
4
 10
6.81337272E+01
 20
-2.25323388E+02
 11
6.62044271E+01
 21
-2.34400031E+02
  0
ARC
  8
0
 62
4
 10
-7.32494337E+01
 20
-1.12119245E+02
 40
1.49950029E+00
 50
2.69980903E+02
 51
1.90971113E-02
  0
ARC
  8
0
 62
4
 10
-1.09250437E+02
 20
-1.12119248E+02
 40
1.49949647E+00
 50
1.79980757E+02
 51
2.70019243E+02
  0
LINE
  8
0
 62
4
 10
-1.08249933E+02
 20
-1.11173376E+02
 11
-8.92499335E+01
 21
-1.11173376E+02
  0
POLYLINE
  8
0
 62
4
 66
1
  0
VERTEX
  8
0
 62
4
 10
-7.96099335E+01
 20
-1.01673062E+02
  0
VERTEX
  8
0
 62
4
 10
-7.96218821E+01
 20
-1.01405373E+02
  0
VERTEX
  8
0
 62
4
 10
-7.96576372E+01
 20
-1.01139722E+02
  0
VERTEX
  8
0
 62
4
 10
-7.97169264E+01
 20
-1.00878129E+02
  0
VERTEX
  8
0
 62
4
 10
-7.97992987E+01
 20
-1.00622587E+02
  0
VERTEX
  8
0
 62
4
 10
-7.99041270E+01
 20
-1.00375039E+02
  0
VERTEX
  8
0
 62
4
 10
-8.00306137E+01
 20
-1.00137370E+02
  0
VERTEX
  8
0
 62
4
 10
-8.01777961E+01
 20
-9.99113888E+01
  0
VERTEX
  8
0
 62
4
 10
-8.03445539E+01
 20
-9.96988148E+01
  0
VERTEX
  8
0
 62
4
 10
-8.05296182E+01
 20
-9.95012659E+01
  0
VERTEX
  8
0
 62
4
 10
-8.07315804E+01
 20
-9.93202458E+01
  0
VERTEX
  8
0
 62
4
 10
-8.09489035E+01
 20
-9.91571320E+01
  0
VERTEX
  8
0
 62
4
 10
-8.11799335E+01
 20
-9.90131659E+01
  0
VERTEX
  8
0
 62
4
 10
-8.14229122E+01
 20
-9.88894432E+01
  0
VERTEX
  8
0
 62
4
 10
-8.16759903E+01
 20
-9.87869056E+01
  0
VERTEX
  8
0
 62
4
 10
-8.19372417E+01
 20
-9.87063334E+01
  0
VERTEX
  8
0
 62
4
 10
-8.22046782E+01
 20
-9.86483397E+01
  0
VERTEX
  8
0
 62
4
 10
-8.24762645E+01
 20
-9.86133661E+01
  0
VERTEX
  8
0
 62
4
 10
-8.27499335E+01
 20
-9.86016785E+01
  0
VERTEX
  8
0
 62
4
 10
-8.30236025E+01
 20
-9.86133661E+01
  0
VERTEX
  8
0
 62
4
 10
-8.32951888E+01
 20
-9.86483397E+01
  0
VERTEX
  8
0
 62
4
 10
-8.35626253E+01
 20
-9.87063334E+01
  0
VERTEX
  8
0
 62
4
 10
-8.38238768E+01
 20
-9.87869056E+01
  0
VERTEX
  8
0
 62
4
 10
-8.40769548E+01
 20
-9.88894432E+01
  0
VERTEX
  8
0
 62
4
 10
-8.43199335E+01
 20
-9.90131659E+01
  0
VERTEX
  8
0
 62
4
 10
-8.45509635E+01
 20
-9.91571320E+01
  0
VERTEX
  8
0
 62
4
 10
-8.47682866E+01
 20
-9.93202458E+01
  0
VERTEX
  8
0
 62
4
 10
-8.49702488E+01
 20
-9.95012659E+01
  0
VERTEX
  8
0
 62
4
 10
-8.51553131E+01
 20
-9.96988148E+01
  0
VERTEX
  8
0
 62
4
 10
-8.53220709E+01
 20
-9.99113888E+01
  0
VERTEX
  8
0
 62
4
 10
-8.54692533E+01
 20
-1.00137370E+02
  0
VERTEX
  8
0
 62
4
 10
-8.55957400E+01
 20
-1.00375039E+02
  0
VERTEX
  8
0
 62
4
 10
-8.57005683E+01
 20
-1.00622587E+02
  0
VERTEX
  8
0
 62
4
 10
-8.57829406E+01
 20
-1.00878129E+02
  0
VERTEX
  8
0
 62
4
 10
-8.58422298E+01
 20
-1.01139722E+02
  0
VERTEX
  8
0
 62
4
 10
-8.58779849E+01
 20
-1.01405373E+02
  0
VERTEX
  8
0
 62
4
 10
-8.58899335E+01
 20
-1.01673062E+02
  0
VERTEX
  8
0
 62
4
 10
-8.58779849E+01
 20
-1.01940751E+02
  0
VERTEX
  8
0
 62
4
 10
-8.58422298E+01
 20
-1.02206402E+02
  0
VERTEX
  8
0
 62
4
 10
-8.57829406E+01
 20
-1.02467995E+02
  0
VERTEX
  8
0
 62
4
 10
-8.57005683E+01
 20
-1.02723537E+02
  0
VERTEX
  8
0
 62
4
 10
-8.55957399E+01
 20
-1.02971085E+02
  0
VERTEX
  8
0
 62
4
 10
-8.54692533E+01
 20
-1.03208754E+02
  0
VERTEX
  8
0
 62
4
 10
-8.53220709E+01
 20
-1.03434735E+02
  0
VERTEX
  8
0
 62
4
 10
-8.51553130E+01
 20
-1.03647309E+02
  0
VERTEX
  8
0
 62
4
 10
-8.49702488E+01
 20
-1.03844858E+02
  0
VERTEX
  8
0
 62
4
 10
-8.47682866E+01
 20
-1.04025878E+02
  0
VERTEX
  8
0
 62
4
 10
-8.45509635E+01
 20
-1.04188992E+02
  0
VERTEX
  8
0
 62
4
 10
-8.43199335E+01
 20
-1.04332958E+02
  0
VERTEX
  8
0
 62
4
 10
-8.40769548E+01
 20
-1.04456681E+02
  0
VERTEX
  8
0
 62
4
 10
-8.38238767E+01
 20
-1.04559218E+02
  0
VERTEX
  8
0
 62
4
 10
-8.35626253E+01
 20
-1.04639791E+02
  0
VERTEX
  8
0
 62
4
 10
-8.32951888E+01
 20
-1.04697784E+02
  0
VERTEX
  8
0
 62
4
 10
-8.30236025E+01
 20
-1.04732758E+02
  0
VERTEX
  8
0
 62
4
 10
-8.27499335E+01
 20
-1.04744445E+02
  0
VERTEX
  8
0
 62
4
 10
-8.24762645E+01
 20
-1.04732758E+02
  0
VERTEX
  8
0
 62
4
 10
-8.22046782E+01
 20
-1.04697784E+02
  0
VERTEX
  8
0
 62
4
 10
-8.19372417E+01
 20
-1.04639791E+02
  0
VERTEX
  8
0
 62
4
 10
-8.16759902E+01
 20
-1.04559218E+02
  0
VERTEX
  8
0
 62
4
 10
-8.14229122E+01
 20
-1.04456681E+02
  0
VERTEX
  8
0
 62
4
 10
-8.11799335E+01
 20
-1.04332958E+02
  0
VERTEX
  8
0
 62
4
 10
-8.09489035E+01
 20
-1.04188992E+02
  0
VERTEX
  8
0
 62
4
 10
-8.07315804E+01
 20
-1.04025878E+02
  0
VERTEX
  8
0
 62
4
 10
-8.05296182E+01
 20
-1.03844858E+02
  0
VERTEX
  8
0
 62
4
 10
-8.03445539E+01
 20
-1.03647309E+02
  0
VERTEX
  8
0
 62
4
 10
-8.01777961E+01
 20
-1.03434735E+02
  0
VERTEX
  8
0
 62
4
 10
-8.00306137E+01
 20
-1.03208754E+02
  0
VERTEX
  8
0
 62
4
 10
-7.99041270E+01
 20
-1.02971085E+02
  0
VERTEX
  8
0
 62
4
 10
-7.97992987E+01
 20
-1.02723537E+02
  0
VERTEX
  8
0
 62
4
 10
-7.97169264E+01
 20
-1.02467995E+02
  0
VERTEX
  8
0
 62
4
 10
-7.96576372E+01
 20
-1.02206402E+02
  0
VERTEX
  8
0
 62
4
 10
-7.96218821E+01
 20
-1.01940751E+02
  0
VERTEX
  8
0
 62
4
 10
-7.96099335E+01
 20
-1.01673062E+02
  0
SEQEND
  8
0
  0
POLYLINE
  8
0
 62
4
 66
1
  0
VERTEX
  8
0
 62
4
 10
-7.92499335E+01
 20
-1.01880973E+02
  0
VERTEX
  8
0
 62
4
 10
-7.92632521E+01
 20
-1.01582594E+02
  0
VERTEX
  8
0
 62
4
 10
-7.93031064E+01
 20
-1.01286486E+02
  0
VERTEX
  8
0
 62
4
 10
-7.93691931E+01
 20
-1.00994902E+02
  0
VERTEX
  8
0
 62
4
 10
-7.94610093E+01
 20
-1.00710061E+02
  0
VERTEX
  8
0
 62
4
 10
-7.95778562E+01
 20
-1.00434132E+02
  0
VERTEX
  8
0
 62
4
 10
-7.97188446E+01
 20
-1.00169215E+02
  0
VERTEX
  8
0
 62
4
 10
-7.98829013E+01
 20
-9.99173245E+01
  0
VERTEX
  8
0
 62
4
 10
-8.00687779E+01
 20
-9.96803789E+01
  0
VERTEX
  8
0
 62
4
 10
-8.02750598E+01
 20
-9.94601812E+01
  0
VERTEX
  8
0
 62
4
 10
-8.05001769E+01
 20
-9.92584071E+01
  0
VERTEX
  8
0
 62
4
 10
-8.07424160E+01
 20
-9.90765924E+01
  0
VERTEX
  8
0
 62
4
 10
-8.09999335E+01
 20
-9.89161207E+01
  0
VERTEX
  8
0
 62
4
 10
-8.12707696E+01
 20
-9.87782132E+01
  0
VERTEX
  8
0
 62
4
 10
-8.15528630E+01
 20
-9.86639197E+01
  0
VERTEX
  8
0
 62
4
 10
-8.18440668E+01
 20
-9.85741099E+01
  0
VERTEX
  8
0
 62
4
 10
-8.21421649E+01
 20
-9.85094673E+01
  0
VERTEX
  8
0
 62
4
 10
-8.24448884E+01
 20
-9.84704839E+01
  0
VERTEX
  8
0
 62
4
 10
-8.27499335E+01
 20
-9.84574564E+01
  0
VERTEX
  8
0
 62
4
 10
-8.30549786E+01
 20
-9.84704839E+01
  0
VERTEX
  8
0
 62
4
 10
-8.33577021E+01
 20
-9.85094673E+01
  0
VERTEX
  8
0
 62
4
 10
-8.36558002E+01
 20
-9.85741099E+01
  0
VERTEX
  8
0
 62
4
 10
-8.39470040E+01
 20
-9.86639197E+01
  0
VERTEX
  8
0
 62
4
 10
-8.42290974E+01
 20
-9.87782132E+01
  0
VERTEX
  8
0
 62
4
 10
-8.44999335E+01
 20
-9.89161207E+01
  0
VERTEX
  8
0
 62
4
 10
-8.47574510E+01
 20
-9.90765924E+01
  0
VERTEX
  8
0
 62
4
 10
-8.49996901E+01
 20
-9.92584071E+01
  0
VERTEX
  8
0
 62
4
 10
-8.52248072E+01
 20
-9.94601812E+01
  0
VERTEX
  8
0
 62
4
 10
-8.54310891E+01
 20
-9.96803790E+01
  0
VERTEX
  8
0
 62
4
 10
-8.56169657E+01
 20
-9.99173246E+01
  0
VERTEX
  8
0
 62
4
 10
-8.57810224E+01
 20
-1.00169215E+02
  0
VERTEX
  8
0
 62
4
 10
-8.59220108E+01
 20
-1.00434132E+02
  0
VERTEX
  8
0
 62
4
 10
-8.60388577E+01
 20
-1.00710061E+02
  0
VERTEX
  8
0
 62
4
 10
-8.61306739E+01
 20
-1.00994902E+02
  0
VERTEX
  8
0
 62
4
 10
-8.61967606E+01
 20
-1.01286486E+02
  0
VERTEX
  8
0
 62
4
 10
-8.62366149E+01
 20
-1.01582594E+02
  0
VERTEX
  8
0
 62
4
 10
-8.62499335E+01
 20
-1.01880973E+02
  0
VERTEX
  8
0
 62
4
 10
-8.62366149E+01
 20
-1.02179352E+02
  0
VERTEX
  8
0
 62
4
 10
-8.61967606E+01
 20
-1.02475460E+02
  0
VERTEX
  8
0
 62
4
 10
-8.61306739E+01
 20
-1.02767044E+02
  0
VERTEX
  8
0
 62
4
 10
-8.60388577E+01
 20
-1.03051885E+02
  0
VERTEX
  8
0
 62
4
 10
-8.59220108E+01
 20
-1.03327814E+02
  0
VERTEX
  8
0
 62
4
 10
-8.57810224E+01
 20
-1.03592731E+02
  0
VERTEX
  8
0
 62
4
 10
-8.56169657E+01
 20
-1.03844621E+02
  0
VERTEX
  8
0
 62
4
 10
-8.54310890E+01
 20
-1.04081567E+02
  0
VERTEX
  8
0
 62
4
 10
-8.52248072E+01
 20
-1.04301765E+02
  0
VERTEX
  8
0
 62
4
 10
-8.49996901E+01
 20
-1.04503539E+02
  0
VERTEX
  8
0
 62
4
 10
-8.47574510E+01
 20
-1.04685354E+02
  0
VERTEX
  8
0
 62
4
 10
-8.44999335E+01
 20
-1.04845825E+02
  0
VERTEX
  8
0
 62
4
 10
-8.42290974E+01
 20
-1.04983733E+02
  0
VERTEX
  8
0
 62
4
 10
-8.39470040E+01
 20
-1.05098026E+02
  0
VERTEX
  8
0
 62
4
 10
-8.36558002E+01
 20
-1.05187836E+02
  0
VERTEX
  8
0
 62
4
 10
-8.33577021E+01
 20
-1.05252479E+02
  0
VERTEX
  8
0
 62
4
 10
-8.30549786E+01
 20
-1.05291462E+02
  0
VERTEX
  8
0
 62
4
 10
-8.27499335E+01
 20
-1.05304490E+02
  0
VERTEX
  8
0
 62
4
 10
-8.24448884E+01
 20
-1.05291462E+02
  0
VERTEX
  8
0
 62
4
 10
-8.21421649E+01
 20
-1.05252479E+02
  0
VERTEX
  8
0
 62
4
 10
-8.18440668E+01
 20
-1.05187836E+02
  0
VERTEX
  8
0
 62
4
 10
-8.15528630E+01
 20
-1.05098026E+02
  0
VERTEX
  8
0
 62
4
 10
-8.12707696E+01
 20
-1.04983733E+02
  0
VERTEX
  8
0
 62
4
 10
-8.09999335E+01
 20
-1.04845825E+02
  0
VERTEX
  8
0
 62
4
 10
-8.07424160E+01
 20
-1.04685354E+02
  0
VERTEX
  8
0
 62
4
 10
-8.05001769E+01
 20
-1.04503539E+02
  0
VERTEX
  8
0
 62
4
 10
-8.02750598E+01
 20
-1.04301765E+02
  0
VERTEX
  8
0
 62
4
 10
-8.00687779E+01
 20
-1.04081567E+02
  0
VERTEX
  8
0
 62
4
 10
-7.98829013E+01
 20
-1.03844621E+02
  0
VERTEX
  8
0
 62
4
 10
-7.97188446E+01
 20
-1.03592731E+02
  0
VERTEX
  8
0
 62
4
 10
-7.95778562E+01
 20
-1.03327814E+02
  0
VERTEX
  8
0
 62
4
 10
-7.94610093E+01
 20
-1.03051885E+02
  0
VERTEX
  8
0
 62
4
 10
-7.93691931E+01
 20
-1.02767044E+02
  0
VERTEX
  8
0
 62
4
 10
-7.93031064E+01
 20
-1.02475460E+02
  0
VERTEX
  8
0
 62
4
 10
-7.92632521E+01
 20
-1.02179352E+02
  0
VERTEX
  8
0
 62
4
 10
-7.92499335E+01
 20
-1.01880973E+02
  0
SEQEND
  8
0
  0
ARC
  8
0
 62
4
 10
-9.45143385E+01
 20
-1.07186475E+02
 40
1.21769740E+01
 50
2.40462101E+02
 51
2.53021762E+02
  0
ARC
  8
0
 62
4
 10
-1.02985528E+02
 20
-1.07186475E+02
 40
1.21769740E+01
 50
2.86978238E+02
 51
2.99537899E+02
  0
POLYLINE
  8
0
 62
4
 66
1
  0
VERTEX
  8
0
 62
4
 10
-9.53499335E+01
 20
-1.17753707E+02
  0
VERTEX
  8
0
 62
4
 10
-9.53628715E+01
 20
-1.17657726E+02
  0
VERTEX
  8
0
 62
4
 10
-9.54015871E+01
 20
-1.17562476E+02
  0
VERTEX
  8
0
 62
4
 10
-9.54657857E+01
 20
-1.17468681E+02
  0
VERTEX
  8
0
 62
4
 10
-9.55549786E+01
 20
-1.17377055E+02
  0
VERTEX
  8
0
 62
4
 10
-9.56684870E+01
 20
-1.17288296E+02
  0
VERTEX
  8
0
 62
4
 10
-9.58054471E+01
 20
-1.17203079E+02
  0
VERTEX
  8
0
 62
4
 10
-9.59648165E+01
 20
-1.17122053E+02
  0
VERTEX
  8
0
 62
4
 10
-9.61453824E+01
 20
-1.17045834E+02
  0
VERTEX
  8
0
 62
4
 10
-9.63457704E+01
 20
-1.16975002E+02
  0
VERTEX
  8
0
 62
4
 10
-9.65644556E+01
 20
-1.16910096E+02
  0
VERTEX
  8
0
 62
4
 10
-9.67997736E+01
 20
-1.16851611E+02
  0
VERTEX
  8
0
 62
4
 10
-9.70499335E+01
 20
-1.16799992E+02
  0
VERTEX
  8
0
 62
4
 10
-9.73130314E+01
 20
-1.16755631E+02
  0
VERTEX
  8
0
 62
4
 10
-9.75870650E+01
 20
-1.16718865E+02
  0
VERTEX
  8
0
 62
4
 10
-9.78699487E+01
 20
-1.16689976E+02
  0
VERTEX
  8
0
 62
4
 10
-9.81595297E+01
 20
-1.16669182E+02
  0
VERTEX
  8
0
 62
4
 10
-9.84536040E+01
 20
-1.16656642E+02
  0
VERTEX
  8
0
 62
4
 10
-9.87499335E+01
 20
-1.16652452E+02
  0
VERTEX
  8
0
 62
4
 10
-9.90462630E+01
 20
-1.16656642E+02
  0
VERTEX
  8
0
 62
4
 10
-9.93403373E+01
 20
-1.16669182E+02
  0
VERTEX
  8
0
 62
4
 10
-9.96299183E+01
 20
-1.16689976E+02
  0
VERTEX
  8
0
 62
4
 10
-9.99128020E+01
 20
-1.16718865E+02
  0
VERTEX
  8
0
 62
4
 10
-1.00186836E+02
 20
-1.16755631E+02
  0
VERTEX
  8
0
 62
4
 10
-1.00449934E+02
 20
-1.16799992E+02
  0
VERTEX
  8
0
 62
4
 10
-1.00700093E+02
 20
-1.16851611E+02
  0
VERTEX
  8
0
 62
4
 10
-1.00935411E+02
 20
-1.16910096E+02
  0
VERTEX
  8
0
 62
4
 10
-1.01154097E+02
 20
-1.16975002E+02
  0
VERTEX
  8
0
 62
4
 10
-1.01354485E+02
 20
-1.17045834E+02
  0
VERTEX
  8
0
 62
4
 10
-1.01535050E+02
 20
-1.17122053E+02
  0
VERTEX
  8
0
 62
4
 10
-1.01694420E+02
 20
-1.17203079E+02
  0
VERTEX
  8
0
 62
4
 10
-1.01831380E+02
 20
-1.17288296E+02
  0
VERTEX
  8
0
 62
4
 10
-1.01944888E+02
 20
-1.17377055E+02
  0
VERTEX
  8
0
 62
4
 10
-1.02034081E+02
 20
-1.17468681E+02
  0
VERTEX
  8
0
 62
4
 10
-1.02098280E+02
 20
-1.17562476E+02
  0
VERTEX
  8
0
 62
4
 10
-1.02136995E+02
 20
-1.17657726E+02
  0
VERTEX
  8
0
 62
4
 10
-1.02149934E+02
 20
-1.17753707E+02
  0
VERTEX
  8
0
 62
4
 10
-1.02136995E+02
 20
-1.17849688E+02
  0
VERTEX
  8
0
 62
4
 10
-1.02098280E+02
 20
-1.17944938E+02
  0
VERTEX
  8
0
 62
4
 10
-1.02034081E+02
 20
-1.18038733E+02
  0
VERTEX
  8
0
 62
4
 10
-1.01944888E+02
 20
-1.18130359E+02
  0
VERTEX
  8
0
 62
4
 10
-1.01831380E+02
 20
-1.18219118E+02
  0
VERTEX
  8
0
 62
4
 10
-1.01694420E+02
 20
-1.18304335E+02
  0
VERTEX
  8
0
 62
4
 10
-1.01535050E+02
 20
-1.18385361E+02
  0
VERTEX
  8
0
 62
4
 10
-1.01354485E+02
 20
-1.18461580E+02
  0
VERTEX
  8
0
 62
4
 10
-1.01154097E+02
 20
-1.18532412E+02
  0
VERTEX
  8
0
 62
4
 10
-1.00935411E+02
 20
-1.18597318E+02
  0
VERTEX
  8
0
 62
4
 10
-1.00700093E+02
 20
-1.18655803E+02
  0
VERTEX
  8
0
 62
4
 10
-1.00449933E+02
 20
-1.18707422E+02
  0
VERTEX
  8
0
 62
4
 10
-1.00186836E+02
 20
-1.18751783E+02
  0
VERTEX
  8
0
 62
4
 10
-9.99128020E+01
 20
-1.18788549E+02
  0
VERTEX
  8
0
 62
4
 10
-9.96299182E+01
 20
-1.18817438E+02
  0
VERTEX
  8
0
 62
4
 10
-9.93403373E+01
 20
-1.18838232E+02
  0
VERTEX
  8
0
 62
4
 10
-9.90462630E+01
 20
-1.18850772E+02
  0
VERTEX
  8
0
 62
4
 10
-9.87499335E+01
 20
-1.18854962E+02
  0
VERTEX
  8
0
 62
4
 10
-9.84536040E+01
 20
-1.18850772E+02
  0
VERTEX
  8
0
 62
4
 10
-9.81595297E+01
 20
-1.18838232E+02
  0
VERTEX
  8
0
 62
4
 10
-9.78699487E+01
 20
-1.18817438E+02
  0
VERTEX
  8
0
 62
4
 10
-9.75870650E+01
 20
-1.18788549E+02
  0
VERTEX
  8
0
 62
4
 10
-9.73130314E+01
 20
-1.18751783E+02
  0
VERTEX
  8
0
 62
4
 10
-9.70499335E+01
 20
-1.18707422E+02
  0
VERTEX
  8
0
 62
4
 10
-9.67997736E+01
 20
-1.18655803E+02
  0
VERTEX
  8
0
 62
4
 10
-9.65644556E+01
 20
-1.18597318E+02
  0
VERTEX
  8
0
 62
4
 10
-9.63457704E+01
 20
-1.18532412E+02
  0
VERTEX
  8
0
 62
4
 10
-9.61453824E+01
 20
-1.18461580E+02
  0
VERTEX
  8
0
 62
4
 10
-9.59648165E+01
 20
-1.18385361E+02
  0
VERTEX
  8
0
 62
4
 10
-9.58054471E+01
 20
-1.18304335E+02
  0
VERTEX
  8
0
 62
4
 10
-9.56684870E+01
 20
-1.18219118E+02
  0
VERTEX
  8
0
 62
4
 10
-9.55549786E+01
 20
-1.18130359E+02
  0
VERTEX
  8
0
 62
4
 10
-9.54657857E+01
 20
-1.18038733E+02
  0
VERTEX
  8
0
 62
4
 10
-9.54015871E+01
 20
-1.17944938E+02
  0
VERTEX
  8
0
 62
4
 10
-9.53628715E+01
 20
-1.17849688E+02
  0
VERTEX
  8
0
 62
4
 10
-9.53499335E+01
 20
-1.17753707E+02
  0
SEQEND
  8
0
  0
POLYLINE
  8
0
 62
4
 66
1
  0
VERTEX
  8
0
 62
4
 10
-9.47499335E+01
 20
-1.15178083E+02
  0
VERTEX
  8
0
 62
4
 10
-9.47660363E+01
 20
-1.15103535E+02
  0
VERTEX
  8
0
 62
4
 10
-9.48142151E+01
 20
-1.15029587E+02
  0
VERTEX
  8
0
 62
4
 10
-9.48940821E+01
 20
-1.14956834E+02
  0
VERTEX
  8
0
 62
4
 10
-9.50049940E+01
 20
-1.14885863E+02
  0
VERTEX
  8
0
 62
4
 10
-9.51460580E+01
 20
-1.14817245E+02
  0
VERTEX
  8
0
 62
4
 10
-9.53161383E+01
 20
-1.14751532E+02
  0
VERTEX
  8
0
 62
4
 10
-9.55138655E+01
 20
-1.14689253E+02
  0
VERTEX
  8
0
 62
4
 10
-9.57376476E+01
 20
-1.14630910E+02
  0
VERTEX
  8
0
 62
4
 10
-9.59856829E+01
 20
-1.14576973E+02
  0
VERTEX
  8
0
 62
4
 10
-9.62559743E+01
 20
-1.14527875E+02
  0
VERTEX
  8
0
 62
4
 10
-9.65463456E+01
 20
-1.14484013E+02
  0
VERTEX
  8
0
 62
4
 10
-9.68544588E+01
 20
-1.14445739E+02
  0
VERTEX
  8
0
 62
4
 10
-9.71778334E+01
 20
-1.14413361E+02
  0
VERTEX
  8
0
 62
4
 10
-9.75138655E+01
 20
-1.14387140E+02
  0
VERTEX
  8
0
 62
4
 10
-9.78598498E+01
 20
-1.14367287E+02
  0
VERTEX
  8
0
 62
4
 10
-9.82130004E+01
 20
-1.14353963E+02
  0
VERTEX
  8
0
 62
4
 10
-9.85704742E+01
 20
-1.14347274E+02
  0
VERTEX
  8
0
 62
4
 10
-9.89293928E+01
 20
-1.14347274E+02
  0
VERTEX
  8
0
 62
4
 10
-9.92868666E+01
 20
-1.14353963E+02
  0
VERTEX
  8
0
 62
4
 10
-9.96400172E+01
 20
-1.14367287E+02
  0
VERTEX
  8
0
 62
4
 10
-9.99860015E+01
 20
-1.14387140E+02
  0
VERTEX
  8
0
 62
4
 10
-1.00322034E+02
 20
-1.14413361E+02
  0
VERTEX
  8
0
 62
4
 10
-1.00645408E+02
 20
-1.14445739E+02
  0
VERTEX
  8
0
 62
4
 10
-1.00953521E+02
 20
-1.14484013E+02
  0
VERTEX
  8
0
 62
4
 10
-1.01243893E+02
 20
-1.14527875E+02
  0
VERTEX
  8
0
 62
4
 10
-1.01514184E+02
 20
-1.14576973E+02
  0
VERTEX
  8
0
 62
4
 10
-1.01762219E+02
 20
-1.14630910E+02
  0
VERTEX
  8
0
 62
4
 10
-1.01986001E+02
 20
-1.14689253E+02
  0
VERTEX
  8
0
 62
4
 10
-1.02183729E+02
 20
-1.14751532E+02
  0
VERTEX
  8
0
 62
4
 10
-1.02353809E+02
 20
-1.14817245E+02
  0
VERTEX
  8
0
 62
4
 10
-1.02494873E+02
 20
-1.14885863E+02
  0
VERTEX
  8
0
 62
4
 10
-1.02605785E+02
 20
-1.14956834E+02
  0
VERTEX
  8
0
 62
4
 10
-1.02685652E+02
 20
-1.15029587E+02
  0
VERTEX
  8
0
 62
4
 10
-1.02733831E+02
 20
-1.15103535E+02
  0
VERTEX
  8
0
 62
4
 10
-1.02749933E+02
 20
-1.15178083E+02
  0
SEQEND
  8
0
  0
LINE
  8
0
 62
4
 10
-9.53499335E+01
 20
-1.16737420E+02
 11
-7.32499335E+01
 21
-1.16737420E+02
  0
ARC
  8
0
 62
4
 10
-1.09250437E+02
 20
-1.15237924E+02
 40
1.49949647E+00
 50
1.79980757E+02
 51
2.70019243E+02
  0
ARC
  8
0
 62
4
 10
-7.32494337E+01
 20
-1.15237920E+02
 40
1.49950029E+00
 50
2.69980903E+02
 51
1.90971113E-02
  0
LINE
  8
0
 62
4
 10
-1.09249933E+02
 20
-1.16737420E+02
 11
-1.02149933E+02
 21
-1.16737420E+02
  0
POLYLINE
  8
0
 62
4
 66
1
  0
VERTEX
  8
0
 62
4
 10
-9.53499335E+01
 20
-1.15667148E+02
  0
VERTEX
  8
0
 62
4
 10
-9.53636244E+01
 20
-1.15603782E+02
  0
VERTEX
  8
0
 62
4
 10
-9.54045798E+01
 20
-1.15540926E+02
  0
VERTEX
  8
0
 62
4
 10
-9.54724697E+01
 20
-1.15479087E+02
  0
VERTEX
  8
0
 62
4
 10
-9.55667476E+01
 20
-1.15418762E+02
  0
VERTEX
  8
0
 62
4
 10
-9.56866545E+01
 20
-1.15360437E+02
  0
VERTEX
  8
0
 62
4
 10
-9.58312249E+01
 20
-1.15304582E+02
  0
VERTEX
  8
0
 62
4
 10
-9.59992949E+01
 20
-1.15251645E+02
  0
VERTEX
  8
0
 62
4
 10
-9.61895112E+01
 20
-1.15202054E+02
  0
VERTEX
  8
0
 62
4
 10
-9.64003424E+01
 20
-1.15156208E+02
  0
VERTEX
  8
0
 62
4
 10
-9.66300909E+01
 20
-1.15114476E+02
  0
VERTEX
  8
0
 62
4
 10
-9.68769071E+01
 20
-1.15077193E+02
  0
VERTEX
  8
0
 62
4
 10
-9.71388036E+01
 20
-1.15044661E+02
  0
VERTEX
  8
0
 62
4
 10
-9.74136719E+01
 20
-1.15017140E+02
  0
VERTEX
  8
0
 62
4
 10
-9.76992990E+01
 20
-1.14994853E+02
  0
VERTEX
  8
0
 62
4
 10
-9.79933850E+01
 20
-1.14977979E+02
  0
VERTEX
  8
0
 62
4
 10
-9.82935623E+01
 20
-1.14966653E+02
  0
VERTEX
  8
0
 62
4
 10
-9.85974140E+01
 20
-1.14960968E+02
  0
VERTEX
  8
0
 62
4
 10
-9.89024937E+01
 20
-1.14960968E+02
  0
VERTEX
  8
0
 62
4
 10
-9.92063451E+01
 20
-1.14966654E+02
  0
VERTEX
  8
0
 62
4
 10
-9.95065217E+01
 20
-1.14977981E+02
  0
VERTEX
  8
0
 62
4
 10
-9.98006068E+01
 20
-1.14994855E+02
  0
VERTEX
  8
0
 62
4
 10
-1.00086233E+02
 20
-1.15017143E+02
  0
VERTEX
  8
0
 62
4
 10
-1.00361099E+02
 20
-1.15044665E+02
  0
VERTEX
  8
0
 62
4
 10
-1.00622994E+02
 20
-1.15077198E+02
  0
VERTEX
  8
0
 62
4
 10
-1.00869808E+02
 20
-1.15114481E+02
  0
VERTEX
  8
0
 62
4
 10
-1.01099554E+02
 20
-1.15156214E+02
  0
VERTEX
  8
0
 62
4
 10
-1.01310383E+02
 20
-1.15202061E+02
  0
VERTEX
  8
0
 62
4
 10
-1.01500596E+02
 20
-1.15251652E+02
  0
VERTEX
  8
0
 62
4
 10
-1.01668663E+02
 20
-1.15304589E+02
  0
VERTEX
  8
0
 62
4
 10
-1.01813230E+02
 20
-1.15360445E+02
  0
VERTEX
  8
0
 62
4
 10
-1.01933134E+02
 20
-1.15418770E+02
  0
VERTEX
  8
0
 62
4
 10
-1.02027408E+02
 20
-1.15479095E+02
  0
VERTEX
  8
0
 62
4
 10
-1.02095295E+02
 20
-1.15540935E+02
  0
VERTEX
  8
0
 62
4
 10
-1.02136246E+02
 20
-1.15603790E+02
  0
VERTEX
  8
0
 62
4
 10
-1.02149934E+02
 20
-1.15667156E+02
  0
SEQEND
  8
0
  0
POLYLINE
  8
0
 62
4
 66
1
  0
VERTEX
  8
0
 62
4
 10
-9.53499335E+01
 20
-1.16105253E+02
  0
VERTEX
  8
0
 62
4
 10
-9.51768815E+01
 20
-1.16041010E+02
  0
VERTEX
  8
0
 62
4
 10
-9.50318385E+01
 20
-1.15973836E+02
  0
VERTEX
  8
0
 62
4
 10
-9.49159417E+01
 20
-1.15904258E+02
  0
VERTEX
  8
0
 62
4
 10
-9.48300994E+01
 20
-1.15832821E+02
  0
VERTEX
  8
0
 62
4
 10
-9.47749846E+01
 20
-1.15760086E+02
  0
VERTEX
  8
0
 62
4
 10
-9.47510294E+01
 20
-1.15686622E+02
  0
VERTEX
  8
0
 62
4
 10
-9.47584216E+01
 20
-1.15613006E+02
  0
VERTEX
  8
0
 62
4
 10
-9.47971031E+01
 20
-1.15539814E+02
  0
VERTEX
  8
0
 62
4
 10
-9.48667708E+01
 20
-1.15467621E+02
  0
VERTEX
  8
0
 62
4
 10
-9.49668785E+01
 20
-1.15396991E+02
  0
VERTEX
  8
0
 62
4
 10
-9.50966416E+01
 20
-1.15328480E+02
  0
VERTEX
  8
0
 62
4
 10
-9.52550427E+01
 20
-1.15262623E+02
  0
VERTEX
  8
0
 62
4
 10
-9.54408402E+01
 20
-1.15199937E+02
  0
VERTEX
  8
0
 62
4
 10
-9.56525777E+01
 20
-1.15140914E+02
  0
VERTEX
  8
0
 62
4
 10
-9.58885953E+01
 20
-1.15086016E+02
  0
VERTEX
  8
0
 62
4
 10
-9.61470428E+01
 20
-1.15035674E+02
  0
VERTEX
  8
0
 62
4
 10
-9.64258944E+01
 20
-1.14990282E+02
  0
VERTEX
  8
0
 62
4
 10
-9.67229640E+01
 20
-1.14950195E+02
  0
VERTEX
  8
0
 62
4
 10
-9.70359231E+01
 20
-1.14915729E+02
  0
VERTEX
  8
0
 62
4
 10
-9.73623182E+01
 20
-1.14887154E+02
  0
VERTEX
  8
0
 62
4
 10
-9.76995909E+01
 20
-1.14864693E+02
  0
VERTEX
  8
0
 62
4
 10
-9.80450971E+01
 20
-1.14848522E+02
  0
VERTEX
  8
0
 62
4
 10
-9.83961286E+01
 20
-1.14838769E+02
  0
VERTEX
  8
0
 62
4
 10
-9.87499335E+01
 20
-1.14835509E+02
  0
VERTEX
  8
0
 62
4
 10
-9.91037384E+01
 20
-1.14838769E+02
  0
VERTEX
  8
0
 62
4
 10
-9.94547699E+01
 20
-1.14848522E+02
  0
VERTEX
  8
0
 62
4
 10
-9.98002761E+01
 20
-1.14864693E+02
  0
VERTEX
  8
0
 62
4
 10
-1.00137549E+02
 20
-1.14887154E+02
  0
VERTEX
  8
0
 62
4
 10
-1.00463944E+02
 20
-1.14915729E+02
  0
VERTEX
  8
0
 62
4
 10
-1.00776903E+02
 20
-1.14950195E+02
  0
VERTEX
  8
0
 62
4
 10
-1.01073973E+02
 20
-1.14990282E+02
  0
VERTEX
  8
0
 62
4
 10
-1.01352824E+02
 20
-1.15035674E+02
  0
VERTEX
  8
0
 62
4
 10
-1.01611272E+02
 20
-1.15086016E+02
  0
VERTEX
  8
0
 62
4
 10
-1.01847289E+02
 20
-1.15140914E+02
  0
VERTEX
  8
0
 62
4
 10
-1.02059027E+02
 20
-1.15199937E+02
  0
VERTEX
  8
0
 62
4
 10
-1.02244824E+02
 20
-1.15262623E+02
  0
VERTEX
  8
0
 62
4
 10
-1.02403225E+02
 20
-1.15328480E+02
  0
VERTEX
  8
0
 62
4
 10
-1.02532988E+02
 20
-1.15396991E+02
  0
VERTEX
  8
0
 62
4
 10
-1.02633096E+02
 20
-1.15467621E+02
  0
VERTEX
  8
0
 62
4
 10
-1.02702764E+02
 20
-1.15539814E+02
  0
VERTEX
  8
0
 62
4
 10
-1.02741445E+02
 20
-1.15613006E+02
  0
VERTEX
  8
0
 62
4
 10
-1.02748838E+02
 20
-1.15686622E+02
  0
VERTEX
  8
0
 62
4
 10
-1.02724882E+02
 20
-1.15760086E+02
  0
VERTEX
  8
0
 62
4
 10
-1.02669768E+02
 20
-1.15832821E+02
  0
VERTEX
  8
0
 62
4
 10
-1.02583925E+02
 20
-1.15904258E+02
  0
VERTEX
  8
0
 62
4
 10
-1.02468028E+02
 20
-1.15973836E+02
  0
VERTEX
  8
0
 62
4
 10
-1.02322986E+02
 20
-1.16041010E+02
  0
VERTEX
  8
0
 62
4
 10
-1.02149934E+02
 20
-1.16105253E+02
  0
SEQEND
  8
0
  0
LINE
  8
0
  6
CENTER
 62
6
 10
-1.03799018E+02
 20
-9.58515346E+01
 11
-9.37008486E+01
 21
-9.58515346E+01
  0
LINE
  8
0
  6
CENTER
 62
6
 10
-8.27499335E+01
 20
-9.67237131E+01
 11
-8.27499335E+01
 21
-1.06622410E+02
  0
POLYLINE
  8
0
 62
4
 66
1
  0
VERTEX
  8
0
 62
4
 10
-9.57499335E+01
 20
-9.58515346E+01
  0
VERTEX
  8
0
 62
4
 10
-9.57613494E+01
 20
-9.55957811E+01
  0
VERTEX
  8
0
 62
4
 10
-9.57955102E+01
 20
-9.53419740E+01
  0
VERTEX
  8
0
 62
4
 10
-9.58521560E+01
 20
-9.50920449E+01
  0
VERTEX
  8
0
 62
4
 10
-9.59308556E+01
 20
-9.48478961E+01
  0
VERTEX
  8
0
 62
4
 10
-9.60310101E+01
 20
-9.46113855E+01
  0
VERTEX
  8
0
 62
4
 10
-9.61518573E+01
 20
-9.43843132E+01
  0
VERTEX
  8
0
 62
4
 10
-9.62924774E+01
 20
-9.41684074E+01
  0
VERTEX
  8
0
 62
4
 10
-9.64518002E+01
 20
-9.39653111E+01
  0
VERTEX
  8
0
 62
4
 10
-9.66286132E+01
 20
-9.37765702E+01
  0
VERTEX
  8
0
 62
4
 10
-9.68215707E+01
 20
-9.36036210E+01
  0
VERTEX
  8
0
 62
4
 10
-9.70292042E+01
 20
-9.34477798E+01
  0
VERTEX
  8
0
 62
4
 10
-9.72499335E+01
 20
-9.33102326E+01
  0
VERTEX
  8
0
 62
4
 10
-9.74820787E+01
 20
-9.31920262E+01
  0
VERTEX
  8
0
 62
4
 10
-9.77238731E+01
 20
-9.30940604E+01
  0
VERTEX
  8
0
 62
4
 10
-9.79734764E+01
 20
-9.30170805E+01
  0
VERTEX
  8
0
 62
4
 10
-9.82289890E+01
 20
-9.29616726E+01
  0
VERTEX
  8
0
 62
4
 10
-9.84884663E+01
 20
-9.29282582E+01
  0
VERTEX
  8
0
 62
4
 10
-9.87499335E+01
 20
-9.29170918E+01
  0
VERTEX
  8
0
 62
4
 10
-9.90114007E+01
 20
-9.29282582E+01
  0
VERTEX
  8
0
 62
4
 10
-9.92708780E+01
 20
-9.29616726E+01
  0
VERTEX
  8
0
 62
4
 10
-9.95263906E+01
 20
-9.30170805E+01
  0
VERTEX
  8
0
 62
4
 10
-9.97759939E+01
 20
-9.30940604E+01
  0
VERTEX
  8
0
 62
4
 10
-1.00017788E+02
 20
-9.31920262E+01
  0
VERTEX
  8
0
 62
4
 10
-1.00249934E+02
 20
-9.33102326E+01
  0
VERTEX
  8
0
 62
4
 10
-1.00470663E+02
 20
-9.34477798E+01
  0
VERTEX
  8
0
 62
4
 10
-1.00678296E+02
 20
-9.36036210E+01
  0
VERTEX
  8
0
 62
4
 10
-1.00871254E+02
 20
-9.37765702E+01
  0
VERTEX
  8
0
 62
4
 10
-1.01048067E+02
 20
-9.39653111E+01
  0
VERTEX
  8
0
 62
4
 10
-1.01207390E+02
 20
-9.41684074E+01
  0
VERTEX
  8
0
 62
4
 10
-1.01348010E+02
 20
-9.43843132E+01
  0
VERTEX
  8
0
 62
4
 10
-1.01468857E+02
 20
-9.46113855E+01
  0
VERTEX
  8
0
 62
4
 10
-1.01569011E+02
 20
-9.48478961E+01
  0
VERTEX
  8
0
 62
4
 10
-1.01647711E+02
 20
-9.50920449E+01
  0
VERTEX
  8
0
 62
4
 10
-1.01704357E+02
 20
-9.53419740E+01
  0
VERTEX
  8
0
 62
4
 10
-1.01738518E+02
 20
-9.55957811E+01
  0
VERTEX
  8
0
 62
4
 10
-1.01749933E+02
 20
-9.58515346E+01
  0
VERTEX
  8
0
 62
4
 10
-1.01738518E+02
 20
-9.61072881E+01
  0
VERTEX
  8
0
 62
4
 10
-1.01704357E+02
 20
-9.63610952E+01
  0
VERTEX
  8
0
 62
4
 10
-1.01647711E+02
 20
-9.66110243E+01
  0
VERTEX
  8
0
 62
4
 10
-1.01569011E+02
 20
-9.68551732E+01
  0
VERTEX
  8
0
 62
4
 10
-1.01468857E+02
 20
-9.70916837E+01
  0
VERTEX
  8
0
 62
4
 10
-1.01348010E+02
 20
-9.73187560E+01
  0
VERTEX
  8
0
 62
4
 10
-1.01207390E+02
 20
-9.75346618E+01
  0
VERTEX
  8
0
 62
4
 10
-1.01048067E+02
 20
-9.77377581E+01
  0
VERTEX
  8
0
 62
4
 10
-1.00871254E+02
 20
-9.79264990E+01
  0
VERTEX
  8
0
 62
4
 10
-1.00678296E+02
 20
-9.80994482E+01
  0
VERTEX
  8
0
 62
4
 10
-1.00470663E+02
 20
-9.82552894E+01
  0
VERTEX
  8
0
 62
4
 10
-1.00249933E+02
 20
-9.83928366E+01
  0
VERTEX
  8
0
 62
4
 10
-1.00017788E+02
 20
-9.85110430E+01
  0
VERTEX
  8
0
 62
4
 10
-9.97759939E+01
 20
-9.86090088E+01
  0
VERTEX
  8
0
 62
4
 10
-9.95263906E+01
 20
-9.86859887E+01
  0
VERTEX
  8
0
 62
4
 10
-9.92708780E+01
 20
-9.87413966E+01
  0
VERTEX
  8
0
 62
4
 10
-9.90114007E+01
 20
-9.87748110E+01
  0
VERTEX
  8
0
 62
4
 10
-9.87499335E+01
 20
-9.87859774E+01
  0
VERTEX
  8
0
 62
4
 10
-9.84884663E+01
 20
-9.87748110E+01
  0
VERTEX
  8
0
 62
4
 10
-9.82289890E+01
 20
-9.87413966E+01
  0
VERTEX
  8
0
 62
4
 10
-9.79734764E+01
 20
-9.86859887E+01
  0
VERTEX
  8
0
 62
4
 10
-9.77238731E+01
 20
-9.86090088E+01
  0
VERTEX
  8
0
 62
4
 10
-9.74820787E+01
 20
-9.85110430E+01
  0
VERTEX
  8
0
 62
4
 10
-9.72499335E+01
 20
-9.83928366E+01
  0
VERTEX
  8
0
 62
4
 10
-9.70292042E+01
 20
-9.82552894E+01
  0
VERTEX
  8
0
 62
4
 10
-9.68215707E+01
 20
-9.80994482E+01
  0
VERTEX
  8
0
 62
4
 10
-9.66286132E+01
 20
-9.79264990E+01
  0
VERTEX
  8
0
 62
4
 10
-9.64518002E+01
 20
-9.77377581E+01
  0
VERTEX
  8
0
 62
4
 10
-9.62924774E+01
 20
-9.75346618E+01
  0
VERTEX
  8
0
 62
4
 10
-9.61518573E+01
 20
-9.73187560E+01
  0
VERTEX
  8
0
 62
4
 10
-9.60310101E+01
 20
-9.70916837E+01
  0
VERTEX
  8
0
 62
4
 10
-9.59308556E+01
 20
-9.68551731E+01
  0
VERTEX
  8
0
 62
4
 10
-9.58521560E+01
 20
-9.66110243E+01
  0
VERTEX
  8
0
 62
4
 10
-9.57955102E+01
 20
-9.63610952E+01
  0
VERTEX
  8
0
 62
4
 10
-9.57613494E+01
 20
-9.61072881E+01
  0
VERTEX
  8
0
 62
4
 10
-9.57499335E+01
 20
-9.58515346E+01
  0
SEQEND
  8
0
  0
LINE
  8
0
  6
CENTER
 62
6
 10
-8.76992821E+01
 20
-1.01673062E+02
 11
-7.78005849E+01
 21
-1.01673062E+02
  0
LINE
  8
0
 62
4
 10
-1.06249933E+02
 20
-1.08385434E+02
 11
-9.12499335E+01
 21
-1.08385434E+02
  0
LINE
  8
0
 62
4
 10
-1.25749933E+02
 20
-1.04238712E+02
 11
-1.20749933E+02
 21
-1.04238712E+02
  0
LINE
  8
0
 62
4
 10
-1.15749933E+02
 20
-9.05997780E+01
 11
-1.15749933E+02
 21
-1.03599778E+02
  0
ARC
  8
0
 62
4
 10
-1.15249433E+02
 20
-9.06002781E+01
 40
5.00500378E-01
 50
9.00572530E+01
 51
1.79942747E+02
  0
LINE
  8
0
 62
4
 10
-1.06249933E+02
 20
-9.00997780E+01
 11
-1.15249933E+02
 21
-9.00997780E+01
  0
LINE
  8
0
 62
4
 10
-1.25749933E+02
 20
-1.02677295E+02
 11
-1.20749933E+02
 21
-1.02677295E+02
  0
LINE
  8
0
 62
4
 10
-1.25749933E+02
 20
-9.55396671E+01
 11
-1.20749933E+02
 21
-9.55396671E+01
  0
LINE
  8
0
 62
4
 10
-9.12499335E+01
 20
-9.06083541E+01
 11
-7.32499335E+01
 21
-9.06083541E+01
  0
LINE
  8
0
  6
CENTER
 62
6
 10
-9.47499335E+01
 20
-7.60416875E+01
 11
-9.47499335E+01
 21
-8.65416875E+01
  0
LINE
  8
0
 62
4
 10
-9.27499335E+01
 20
-7.83016875E+01
 11
-9.27499335E+01
 21
-7.86739326E+01
  0
LINE
  8
0
 62
4
 10
-9.67499335E+01
 20
-7.83016875E+01
 11
-9.67499335E+01
 21
-7.86739326E+01
  0
LINE
  8
0
 62
4
 10
-9.30199335E+01
 20
-7.73016875E+01
 11
-9.64899335E+01
 21
-7.73016875E+01
  0
LINE
  8
0
 62
4
 10
-9.27499335E+01
 20
-7.83016875E+01
 11
-9.30199335E+01
 21
-7.73016875E+01
  0
LINE
  8
0
 62
4
 10
-9.67499335E+01
 20
-7.83016875E+01
 11
-9.64899335E+01
 21
-7.73016875E+01
  0
LINE
  8
0
 62
6
 10
-9.32499335E+01
 20
-7.73016875E+01
 11
-9.32499335E+01
 21
-7.86739326E+01
  0
LINE
  8
0
 62
6
 10
-9.62499335E+01
 20
-7.73016875E+01
 11
-9.62499335E+01
 21
-7.86739326E+01
  0
LINE
  8
0
 62
4
 10
-9.22499335E+01
 20
-8.39184541E+01
 11
-1.05249933E+02
 21
-8.39184541E+01
  0
LINE
  8
0
 62
4
 10
-9.12499335E+01
 20
-7.86739326E+01
 11
-1.06249933E+02
 21
-7.86739326E+01
  0
LINE
  8
0
  6
CENTER
 62
6
 10
-1.02749933E+02
 20
-7.60416875E+01
 11
-1.02749933E+02
 21
-8.65416875E+01
  0
LINE
  8
0
 62
6
 10
-1.04249933E+02
 20
-7.73016875E+01
 11
-1.04249933E+02
 21
-7.86739326E+01
  0
LINE
  8
0
 62
4
 10
-1.00749933E+02
 20
-7.83016875E+01
 11
-1.00749933E+02
 21
-7.86739326E+01
  0
LINE
  8
0
 62
4
 10
-1.04749933E+02
 20
-7.83016875E+01
 11
-1.04749933E+02
 21
-7.86739326E+01
  0
LINE
  8
0
 62
4
 10
-1.01019933E+02
 20
-7.73016875E+01
 11
-1.04489933E+02
 21
-7.73016875E+01
  0
LINE
  8
0
 62
4
 10
-1.00749933E+02
 20
-7.83016875E+01
 11
-1.01019933E+02
 21
-7.73016875E+01
  0
LINE
  8
0
 62
4
 10
-1.04749933E+02
 20
-7.83016875E+01
 11
-1.04489933E+02
 21
-7.73016875E+01
  0
LINE
  8
0
 62
6
 10
-1.01249933E+02
 20
-7.73016875E+01
 11
-1.01249933E+02
 21
-7.86739326E+01
  0
LINE
  8
0
 62
4
 10
-9.47499335E+01
 20
-1.15178083E+02
 11
-9.47499335E+01
 21
-1.15667156E+02
  0
LINE
  8
0
 62
4
 10
-1.02749933E+02
 20
-1.15667156E+02
 11
-1.02749933E+02
 21
-1.15178083E+02
  0
LINE
  8
0
 62
4
 10
-9.53499335E+01
 20
-1.15667156E+02
 11
-9.53499335E+01
 21
-1.17591113E+02
  0
LINE
  8
0
 62
4
 10
-1.02149933E+02
 20
-1.17591113E+02
 11
-1.02149933E+02
 21
-1.15667156E+02
  0
LINE
  8
0
  6
CENTER
 62
6
 10
-9.87499335E+01
 20
-7.14742264E+01
 11
-9.87499335E+01
 21
-1.25191746E+02
  0
LINE
  8
0
 62
4
 10
-1.15249933E+02
 20
-1.04099778E+02
 11
-1.06249933E+02
 21
-1.04099778E+02
  0
LINE
  8
0
 62
4
 10
-1.25749933E+02
 20
-8.99613765E+01
 11
-1.25749933E+02
 21
-1.04238712E+02
  0
LINE
  8
0
 62
4
 10
-1.20749933E+02
 20
-8.99613765E+01
 11
-1.20749933E+02
 21
-1.04238712E+02
  0
LINE
  8
0
 62
4
 10
-1.20749933E+02
 20
-9.08497780E+01
 11
-1.15749933E+02
 21
-9.08497780E+01
  0
LINE
  8
0
 62
4
 10
-1.20749933E+02
 20
-1.03349778E+02
 11
-1.15749933E+02
 21
-1.03349778E+02
  0
LINE
  8
0
 62
4
 10
-1.19249933E+02
 20
-9.08497780E+01
 11
-1.19249933E+02
 21
-1.03349778E+02
  0
LINE
  8
0
 62
4
 10
-1.19249933E+02
 20
-9.13497780E+01
 11
-1.15749933E+02
 21
-9.13497780E+01
  0
LINE
  8
0
 62
4
 10
-1.19249933E+02
 20
-1.02849778E+02
 11
-1.15749933E+02
 21
-1.02849778E+02
  0
LINE
  8
0
 62
4
 10
-9.12499335E+01
 20
-1.08385434E+02
 11
-9.12499335E+01
 21
-7.86739326E+01
  0
LINE
  8
0
 62
4
 10
-1.06249933E+02
 20
-8.85154276E+01
 11
-9.12499335E+01
 21
-8.85154276E+01
  0
LINE
  8
0
 62
4
 10
-1.06249933E+02
 20
-1.03187642E+02
 11
-9.12499335E+01
 21
-1.03187642E+02
  0
LINE
  8
0
 62
4
 10
-1.25749933E+02
 20
-8.99613765E+01
 11
-1.20749933E+02
 21
-8.99613765E+01
  0
LINE
  8
0
 62
4
 10
-7.17499335E+01
 20
-9.21088579E+01
 11
-7.17499335E+01
 21
-1.15237420E+02
  0
LINE
  8
0
 62
4
 10
-8.92499335E+01
 20
-9.17569247E+01
 11
-8.92499335E+01
 21
-1.11173376E+02
  0
LINE
  8
0
 62
4
 10
-1.10749933E+02
 20
-1.15237420E+02
 11
-1.10749933E+02
 21
-1.04099778E+02
  0
LINE
  8
0
 62
4
 10
-1.08249933E+02
 20
-1.04099778E+02
 11
-1.08249933E+02
 21
-1.11173376E+02
  0
LINE
  8
0
 62
4
 10
-1.06249933E+02
 20
-7.86739326E+01
 11
-1.06249933E+02
 21
-1.08385434E+02
  0
LINE
  8
0
 62
4
 10
-1.08249933E+02
 20
-1.10341729E+02
 11
-8.92499335E+01
 21
-1.10341729E+02
  0
LINE
  8
0
 62
4
 10
-1.09249933E+02
 20
-1.13618745E+02
 11
-7.32499335E+01
 21
-1.13618745E+02
  0
LINE
  8
0
 62
4
 10
-8.92499335E+01
 20
-9.17569247E+01
 11
-9.12499335E+01
 21
-9.17569247E+01
  0
ARC
  8
0
 62
4
 10
-7.32504373E+01
 20
-9.21088579E+01
 40
1.50050386E+00
 50
1.92364101E-02
 51
8.99807637E+01
  0
ARC
  8
0
 62
4
 10
-1.15250433E+02
 20
-1.03600278E+02
 40
4.99500622E-01
 50
1.79942690E+02
 51
2.70057311E+02
  0
LINE
  8
0
 62
4
 10
2.18622115E+02
 20
-2.01754375E+02
 11
2.18622115E+02
 21
-2.19451505E+02
  0
LINE
  8
0
 62
4
 10
1.79622115E+02
 20
-2.01754375E+02
 11
1.79622115E+02
 21
-2.19451505E+02
  0
ARC
  8
0
 62
4
 10
2.17122615E+02
 20
-2.01753875E+02
 40
1.49950029E+00
 50
3.59980903E+02
 51
9.00190969E+01
  0
ARC
  8
0
 62
4
 10
2.23121615E+02
 20
-1.86285340E+02
 40
5.00500378E-01
 50
2.70057253E+02
 51
3.59942747E+02
  0
ARC
  8
0
 62
4
 10
1.81121615E+02
 20
-2.01753875E+02
 40
1.49950029E+00
 50
8.99809029E+01
 51
1.80019097E+02
  0
ARC
  8
0
 62
4
 10
2.14621615E+02
 20
-1.87285340E+02
 40
4.99500622E-01
 50
8.99426895E+01
 51
1.80057310E+02
  0
ARC
  8
0
 62
4
 10
2.23122614E+02
 20
-1.73285340E+02
 40
4.99500622E-01
 50
3.59942689E+02
 51
9.00573103E+01
  0
LINE
  8
0
 62
4
 10
2.14122115E+02
 20
-1.98952950E+02
 11
1.99122115E+02
 21
-1.98952950E+02
  0
LINE
  8
0
 62
4
 10
1.97122115E+02
 20
-2.00346921E+02
 11
1.97122115E+02
 21
-2.04259511E+02
  0
LINE
  8
0
 62
4
 10
2.14122115E+02
 20
-1.72358732E+02
 11
2.14122115E+02
 21
-2.00346921E+02
  0
LINE
  8
0
 62
4
 10
1.99122115E+02
 20
-1.72358732E+02
 11
1.99122115E+02
 21
-2.00346921E+02
  0
LINE
  8
0
 62
4
 10
2.16122115E+02
 20
-2.00346921E+02
 11
2.16122115E+02
 21
-2.04259511E+02
  0
LINE
  8
0
 62
4
 10
2.16122115E+02
 20
-2.00346921E+02
 11
1.97122115E+02
 21
-2.00346921E+02
  0
LINE
  8
0
 62
4
 10
2.14122115E+02
 20
-1.72358732E+02
 11
1.99122115E+02
 21
-1.72358732E+02
  0
LINE
  8
0
 62
4
 10
2.33622115E+02
 20
-1.87132844E+02
 11
2.28622115E+02
 21
-1.87132844E+02
  0
LINE
  8
0
 62
4
 10
2.23122115E+02
 20
-1.86785840E+02
 11
2.14622115E+02
 21
-1.86785840E+02
  0
LINE
  8
0
 62
4
 10
2.27122115E+02
 20
-1.85535840E+02
 11
2.23622115E+02
 21
-1.85535840E+02
  0
LINE
  8
0
 62
4
 10
2.27122115E+02
 20
-1.73535840E+02
 11
2.27122115E+02
 21
-1.86035840E+02
  0
LINE
  8
0
 62
4
 10
2.28622115E+02
 20
-1.86035840E+02
 11
2.23622115E+02
 21
-1.86035840E+02
  0
LINE
  8
0
 62
4
 10
2.28622115E+02
 20
-1.73535840E+02
 11
2.23622115E+02
 21
-1.73535840E+02
  0
LINE
  8
0
 62
4
 10
2.28622115E+02
 20
-1.72450849E+02
 11
2.28622115E+02
 21
-1.87132844E+02
  0
LINE
  8
0
 62
4
 10
2.33622115E+02
 20
-1.72450849E+02
 11
2.33622115E+02
 21
-1.87132844E+02
  0
LINE
  8
0
 62
4
 10
2.23622115E+02
 20
-1.73285840E+02
 11
2.23622115E+02
 21
-1.86285840E+02
  0
LINE
  8
0
 62
4
 10
2.14122115E+02
 20
-1.72785840E+02
 11
2.23122115E+02
 21
-1.72785840E+02
  0
LINE
  8
0
 62
4
 10
2.33622115E+02
 20
-1.84816217E+02
 11
2.28622115E+02
 21
-1.84816217E+02
  0
LINE
  8
0
 62
4
 10
2.33622115E+02
 20
-1.77474036E+02
 11
2.28622115E+02
 21
-1.77474036E+02
  0
LINE
  8
0
 62
4
 10
2.33622115E+02
 20
-1.77470328E+02
 11
2.28622115E+02
 21
-1.77470328E+02
  0
LINE
  8
0
 62
4
 10
2.17122115E+02
 20
-2.00254375E+02
 11
2.14122115E+02
 21
-2.00254375E+02
  0
LINE
  8
0
 62
4
 10
2.27122115E+02
 20
-1.74035840E+02
 11
2.23622115E+02
 21
-1.74035840E+02
  0
LINE
  8
0
 62
4
 10
2.14122115E+02
 20
-1.75477408E+02
 11
1.99122115E+02
 21
-1.75477408E+02
  0
LINE
  8
0
 62
4
 10
2.33622115E+02
 20
-1.72450849E+02
 11
2.28622115E+02
 21
-1.72450849E+02
  0
ARC
  8
0
 62
4
 10
1.81121615E+02
 20
-2.05759012E+02
 40
1.49950029E+00
 50
8.99809029E+01
 51
1.80019097E+02
  0
LINE
  8
0
 62
4
 10
2.17122115E+02
 20
-2.04259511E+02
 11
1.81122115E+02
 21
-2.04259511E+02
  0
ARC
  8
0
 62
4
 10
2.17122615E+02
 20
-2.05759012E+02
 40
1.49950029E+00
 50
3.59980903E+02
 51
9.00190969E+01
  0
LINE
  8
0
 62
4
 10
1.99122115E+02
 20
-2.00254375E+02
 11
1.81122115E+02
 21
-2.00254375E+02
  0
LINE
  8
0
  6
CENTER
 62
6
 10
1.90622115E+02
 20
-1.99223237E+02
 11
1.90622115E+02
 21
-2.01306203E+02
  0
POLYLINE
  8
0
 62
4
 66
1
  0
VERTEX
  8
0
 62
4
 10
1.93762115E+02
 20
-2.01306203E+02
  0
VERTEX
  8
0
 62
4
 10
1.93750166E+02
 20
-2.01249304E+02
  0
VERTEX
  8
0
 62
4
 10
1.93714411E+02
 20
-2.01192838E+02
  0
VERTEX
  8
0
 62
4
 10
1.93655122E+02
 20
-2.01137235E+02
  0
VERTEX
  8
0
 62
4
 10
1.93572750E+02
 20
-2.01082918E+02
  0
VERTEX
  8
0
 62
4
 10
1.93467921E+02
 20
-2.01030300E+02
  0
VERTEX
  8
0
 62
4
 10
1.93341435E+02
 20
-2.00979782E+02
  0
VERTEX
  8
0
 62
4
 10
1.93194252E+02
 20
-2.00931748E+02
  0
VERTEX
  8
0
 62
4
 10
1.93027495E+02
 20
-2.00886564E+02
  0
VERTEX
  8
0
 62
4
 10
1.92842430E+02
 20
-2.00844573E+02
  0
VERTEX
  8
0
 62
4
 10
1.92640468E+02
 20
-2.00806096E+02
  0
VERTEX
  8
0
 62
4
 10
1.92423145E+02
 20
-2.00771426E+02
  0
VERTEX
  8
0
 62
4
 10
1.92192115E+02
 20
-2.00740825E+02
  0
VERTEX
  8
0
 62
4
 10
1.91949136E+02
 20
-2.00714527E+02
  0
VERTEX
  8
0
 62
4
 10
1.91696058E+02
 20
-2.00692732E+02
  0
VERTEX
  8
0
 62
4
 10
1.91434807E+02
 20
-2.00675605E+02
  0
VERTEX
  8
0
 62
4
 10
1.91167370E+02
 20
-2.00663278E+02
  0
VERTEX
  8
0
 62
4
 10
1.90895784E+02
 20
-2.00655845E+02
  0
VERTEX
  8
0
 62
4
 10
1.90622115E+02
 20
-2.00653360E+02
  0
VERTEX
  8
0
 62
4
 10
1.90348446E+02
 20
-2.00655845E+02
  0
VERTEX
  8
0
 62
4
 10
1.90076860E+02
 20
-2.00663278E+02
  0
VERTEX
  8
0
 62
4
 10
1.89809423E+02
 20
-2.00675605E+02
  0
VERTEX
  8
0
 62
4
 10
1.89548172E+02
 20
-2.00692732E+02
  0
VERTEX
  8
0
 62
4
 10
1.89295094E+02
 20
-2.00714527E+02
  0
VERTEX
  8
0
 62
4
 10
1.89052115E+02
 20
-2.00740825E+02
  0
VERTEX
  8
0
 62
4
 10
1.88821085E+02
 20
-2.00771426E+02
  0
VERTEX
  8
0
 62
4
 10
1.88603762E+02
 20
-2.00806096E+02
  0
VERTEX
  8
0
 62
4
 10
1.88401800E+02
 20
-2.00844573E+02
  0
VERTEX
  8
0
 62
4
 10
1.88216735E+02
 20
-2.00886564E+02
  0
VERTEX
  8
0
 62
4
 10
1.88049978E+02
 20
-2.00931748E+02
  0
VERTEX
  8
0
 62
4
 10
1.87902795E+02
 20
-2.00979782E+02
  0
VERTEX
  8
0
 62
4
 10
1.87776309E+02
 20
-2.01030300E+02
  0
VERTEX
  8
0
 62
4
 10
1.87671480E+02
 20
-2.01082918E+02
  0
VERTEX
  8
0
 62
4
 10
1.87589108E+02
 20
-2.01137235E+02
  0
VERTEX
  8
0
 62
4
 10
1.87529819E+02
 20
-2.01192838E+02
  0
VERTEX
  8
0
 62
4
 10
1.87494064E+02
 20
-2.01249304E+02
  0
VERTEX
  8
0
 62
4
 10
1.87482115E+02
 20
-2.01306203E+02
  0
VERTEX
  8
0
 62
4
 10
1.87494064E+02
 20
-2.01363102E+02
  0
VERTEX
  8
0
 62
4
 10
1.87529819E+02
 20
-2.01419568E+02
  0
VERTEX
  8
0
 62
4
 10
1.87589108E+02
 20
-2.01475171E+02
  0
VERTEX
  8
0
 62
4
 10
1.87671480E+02
 20
-2.01529488E+02
  0
VERTEX
  8
0
 62
4
 10
1.87776309E+02
 20
-2.01582106E+02
  0
VERTEX
  8
0
 62
4
 10
1.87902795E+02
 20
-2.01632624E+02
  0
VERTEX
  8
0
 62
4
 10
1.88049978E+02
 20
-2.01680658E+02
  0
VERTEX
  8
0
 62
4
 10
1.88216735E+02
 20
-2.01725842E+02
  0
VERTEX
  8
0
 62
4
 10
1.88401800E+02
 20
-2.01767833E+02
  0
VERTEX
  8
0
 62
4
 10
1.88603762E+02
 20
-2.01806310E+02
  0
VERTEX
  8
0
 62
4
 10
1.88821085E+02
 20
-2.01840980E+02
  0
VERTEX
  8
0
 62
4
 10
1.89052115E+02
 20
-2.01871581E+02
  0
VERTEX
  8
0
 62
4
 10
1.89295094E+02
 20
-2.01897879E+02
  0
VERTEX
  8
0
 62
4
 10
1.89548172E+02
 20
-2.01919674E+02
  0
VERTEX
  8
0
 62
4
 10
1.89809423E+02
 20
-2.01936801E+02
  0
VERTEX
  8
0
 62
4
 10
1.90076860E+02
 20
-2.01949128E+02
  0
VERTEX
  8
0
 62
4
 10
1.90348446E+02
 20
-2.01956561E+02
  0
VERTEX
  8
0
 62
4
 10
1.90622115E+02
 20
-2.01959046E+02
  0
VERTEX
  8
0
 62
4
 10
1.90895784E+02
 20
-2.01956561E+02
  0
VERTEX
  8
0
 62
4
 10
1.91167370E+02
 20
-2.01949128E+02
  0
VERTEX
  8
0
 62
4
 10
1.91434807E+02
 20
-2.01936801E+02
  0
VERTEX
  8
0
 62
4
 10
1.91696058E+02
 20
-2.01919674E+02
  0
VERTEX
  8
0
 62
4
 10
1.91949136E+02
 20
-2.01897879E+02
  0
VERTEX
  8
0
 62
4
 10
1.92192115E+02
 20
-2.01871581E+02
  0
VERTEX
  8
0
 62
4
 10
1.92423145E+02
 20
-2.01840980E+02
  0
VERTEX
  8
0
 62
4
 10
1.92640468E+02
 20
-2.01806310E+02
  0
VERTEX
  8
0
 62
4
 10
1.92842430E+02
 20
-2.01767833E+02
  0
VERTEX
  8
0
 62
4
 10
1.93027495E+02
 20
-2.01725842E+02
  0
VERTEX
  8
0
 62
4
 10
1.93194252E+02
 20
-2.01680658E+02
  0
VERTEX
  8
0
 62
4
 10
1.93341435E+02
 20
-2.01632624E+02
  0
VERTEX
  8
0
 62
4
 10
1.93467921E+02
 20
-2.01582106E+02
  0
VERTEX
  8
0
 62
4
 10
1.93572750E+02
 20
-2.01529488E+02
  0
VERTEX
  8
0
 62
4
 10
1.93655122E+02
 20
-2.01475171E+02
  0
VERTEX
  8
0
 62
4
 10
1.93714411E+02
 20
-2.01419568E+02
  0
VERTEX
  8
0
 62
4
 10
1.93750166E+02
 20
-2.01363102E+02
  0
VERTEX
  8
0
 62
4
 10
1.93762115E+02
 20
-2.01306203E+02
  0
SEQEND
  8
0
  0
POLYLINE
  8
0
 62
4
 66
1
  0
VERTEX
  8
0
 62
4
 10
1.87162864E+02
 20
-2.02173632E+02
  0
VERTEX
  8
0
 62
4
 10
1.87129215E+02
 20
-2.02238022E+02
  0
VERTEX
  8
0
 62
4
 10
1.87123238E+02
 20
-2.02302780E+02
  0
VERTEX
  8
0
 62
4
 10
1.87144979E+02
 20
-2.02367391E+02
  0
VERTEX
  8
0
 62
4
 10
1.87194267E+02
 20
-2.02431345E+02
  0
VERTEX
  8
0
 62
4
 10
1.87270711E+02
 20
-2.02494134E+02
  0
VERTEX
  8
0
 62
4
 10
1.87373705E+02
 20
-2.02555261E+02
  0
VERTEX
  8
0
 62
4
 10
1.87502434E+02
 20
-2.02614242E+02
  0
VERTEX
  8
0
 62
4
 10
1.87655878E+02
 20
-2.02670609E+02
  0
VERTEX
  8
0
 62
4
 10
1.87832821E+02
 20
-2.02723917E+02
  0
VERTEX
  8
0
 62
4
 10
1.88031861E+02
 20
-2.02773742E+02
  0
VERTEX
  8
0
 62
4
 10
1.88251421E+02
 20
-2.02819690E+02
  0
VERTEX
  8
0
 62
4
 10
1.88489763E+02
 20
-2.02861397E+02
  0
VERTEX
  8
0
 62
4
 10
1.88744997E+02
 20
-2.02898532E+02
  0
VERTEX
  8
0
 62
4
 10
1.89015103E+02
 20
-2.02930802E+02
  0
VERTEX
  8
0
 62
4
 10
1.89297939E+02
 20
-2.02957950E+02
  0
VERTEX
  8
0
 62
4
 10
1.89591266E+02
 20
-2.02979763E+02
  0
VERTEX
  8
0
 62
4
 10
1.89892760E+02
 20
-2.02996065E+02
  0
VERTEX
  8
0
 62
4
 10
1.90200031E+02
 20
-2.03006730E+02
  0
VERTEX
  8
0
 62
4
 10
1.90510647E+02
 20
-2.03011672E+02
  0
VERTEX
  8
0
 62
4
 10
1.90822145E+02
 20
-2.03010852E+02
  0
VERTEX
  8
0
 62
4
 10
1.91132059E+02
 20
-2.03004276E+02
  0
VERTEX
  8
0
 62
4
 10
1.91437933E+02
 20
-2.02991997E+02
  0
VERTEX
  8
0
 62
4
 10
1.91737344E+02
 20
-2.02974111E+02
  0
VERTEX
  8
0
 62
4
 10
1.92027919E+02
 20
-2.02950762E+02
  0
VERTEX
  8
0
 62
4
 10
1.92307358E+02
 20
-2.02922133E+02
  0
VERTEX
  8
0
 62
4
 10
1.92573446E+02
 20
-2.02888451E+02
  0
VERTEX
  8
0
 62
4
 10
1.92824075E+02
 20
-2.02849983E+02
  0
VERTEX
  8
0
 62
4
 10
1.93057260E+02
 20
-2.02807035E+02
  0
VERTEX
  8
0
 62
4
 10
1.93271153E+02
 20
-2.02759945E+02
  0
VERTEX
  8
0
 62
4
 10
1.93464060E+02
 20
-2.02709088E+02
  0
VERTEX
  8
0
 62
4
 10
1.93634452E+02
 20
-2.02654866E+02
  0
VERTEX
  8
0
 62
4
 10
1.93780980E+02
 20
-2.02597709E+02
  0
VERTEX
  8
0
 62
4
 10
1.93902483E+02
 20
-2.02538069E+02
  0
VERTEX
  8
0
 62
4
 10
1.93997999E+02
 20
-2.02476419E+02
  0
VERTEX
  8
0
 62
4
 10
1.94066769E+02
 20
-2.02413248E+02
  0
VERTEX
  8
0
 62
4
 10
1.94108251E+02
 20
-2.02349055E+02
  0
VERTEX
  8
0
 62
4
 10
1.94122115E+02
 20
-2.02284350E+02
  0
SEQEND
  8
0
  0
LINE
  8
0
 62
4
 10
1.87482115E+02
 20
-2.01306203E+02
 11
1.87122115E+02
 21
-2.02284350E+02
  0
LINE
  8
0
 62
4
 10
1.93762115E+02
 20
-2.01306203E+02
 11
1.94122115E+02
 21
-2.02284350E+02
  0
LINE
  8
0
 62
4
 10
2.14122115E+02
 20
-2.09169424E+02
 11
2.14122115E+02
 21
-2.35589880E+02
  0
LINE
  8
0
 62
4
 10
1.99122115E+02
 20
-2.09169424E+02
 11
1.99122115E+02
 21
-2.35589880E+02
  0
LINE
  8
0
 62
4
 10
1.99122115E+02
 20
-2.09169424E+02
 11
2.14122115E+02
 21
-2.09169424E+02
  0
LINE
  8
0
 62
4
 10
2.15622115E+02
 20
-2.24407719E+02
 11
2.15622115E+02
 21
-2.22740360E+02
  0
LINE
  8
0
 62
4
 10
1.82622115E+02
 20
-2.24407719E+02
 11
1.82622115E+02
 21
-2.22740360E+02
  0
LINE
  8
0
 62
4
 10
2.18622115E+02
 20
-2.17984283E+02
 11
2.14122115E+02
 21
-2.17984283E+02
  0
LINE
  8
0
 62
4
 10
2.18622115E+02
 20
-2.19451505E+02
 11
2.14122115E+02
 21
-2.19451505E+02
  0
LINE
  8
0
 62
4
 10
1.99122115E+02
 20
-2.17984283E+02
 11
1.79622115E+02
 21
-2.17984283E+02
  0
LINE
  8
0
 62
4
 10
1.99122115E+02
 20
-2.19451505E+02
 11
1.79622115E+02
 21
-2.19451505E+02
  0
LINE
  8
0
 62
4
 10
2.15622115E+02
 20
-2.22740360E+02
 11
2.14122115E+02
 21
-2.22740360E+02
  0
LINE
  8
0
 62
4
 10
1.99122115E+02
 20
-2.22740360E+02
 11
1.82622115E+02
 21
-2.22740360E+02
  0
LINE
  8
0
 62
4
 10
1.82622115E+02
 20
-2.22740360E+02
 11
1.79622115E+02
 21
-2.19451505E+02
  0
LINE
  8
0
 62
4
 10
2.15622115E+02
 20
-2.22740360E+02
 11
2.18622115E+02
 21
-2.19451505E+02
  0
POLYLINE
  8
0
 62
4
 66
1
  0
VERTEX
  8
0
 62
4
 10
2.12357115E+02
 20
-2.30940886E+02
  0
VERTEX
  8
0
 62
4
 10
2.12350513E+02
 20
-2.30792975E+02
  0
VERTEX
  8
0
 62
4
 10
2.12330756E+02
 20
-2.30646190E+02
  0
VERTEX
  8
0
 62
4
 10
2.12297996E+02
 20
-2.30501648E+02
  0
VERTEX
  8
0
 62
4
 10
2.12252482E+02
 20
-2.30360448E+02
  0
VERTEX
  8
0
 62
4
 10
2.12194559E+02
 20
-2.30223666E+02
  0
VERTEX
  8
0
 62
4
 10
2.12124669E+02
 20
-2.30092343E+02
  0
VERTEX
  8
0
 62
4
 10
2.12043344E+02
 20
-2.29967477E+02
  0
VERTEX
  8
0
 62
4
 10
2.11951202E+02
 20
-2.29850020E+02
  0
VERTEX
  8
0
 62
4
 10
2.11848945E+02
 20
-2.29740865E+02
  0
VERTEX
  8
0
 62
4
 10
2.11737352E+02
 20
-2.29640843E+02
  0
VERTEX
  8
0
 62
4
 10
2.11617270E+02
 20
-2.29550714E+02
  0
VERTEX
  8
0
 62
4
 10
2.11489615E+02
 20
-2.29471166E+02
  0
VERTEX
  8
0
 62
4
 10
2.11355358E+02
 20
-2.29402804E+02
  0
VERTEX
  8
0
 62
4
 10
2.11215520E+02
 20
-2.29346147E+02
  0
VERTEX
  8
0
 62
4
 10
2.11071166E+02
 20
-2.29301627E+02
  0
VERTEX
  8
0
 62
4
 10
2.10923395E+02
 20
-2.29269582E+02
  0
VERTEX
  8
0
 62
4
 10
2.10773330E+02
 20
-2.29250258E+02
  0
VERTEX
  8
0
 62
4
 10
2.10622115E+02
 20
-2.29243800E+02
  0
VERTEX
  8
0
 62
4
 10
2.10470900E+02
 20
-2.29250258E+02
  0
VERTEX
  8
0
 62
4
 10
2.10320835E+02
 20
-2.29269582E+02
  0
VERTEX
  8
0
 62
4
 10
2.10173064E+02
 20
-2.29301627E+02
  0
VERTEX
  8
0
 62
4
 10
2.10028710E+02
 20
-2.29346147E+02
  0
VERTEX
  8
0
 62
4
 10
2.09888872E+02
 20
-2.29402804E+02
  0
VERTEX
  8
0
 62
4
 10
2.09754615E+02
 20
-2.29471166E+02
  0
VERTEX
  8
0
 62
4
 10
2.09626960E+02
 20
-2.29550714E+02
  0
VERTEX
  8
0
 62
4
 10
2.09506878E+02
 20
-2.29640843E+02
  0
VERTEX
  8
0
 62
4
 10
2.09395285E+02
 20
-2.29740865E+02
  0
VERTEX
  8
0
 62
4
 10
2.09293028E+02
 20
-2.29850020E+02
  0
VERTEX
  8
0
 62
4
 10
2.09200886E+02
 20
-2.29967477E+02
  0
VERTEX
  8
0
 62
4
 10
2.09119561E+02
 20
-2.30092343E+02
  0
VERTEX
  8
0
 62
4
 10
2.09049671E+02
 20
-2.30223666E+02
  0
VERTEX
  8
0
 62
4
 10
2.08991748E+02
 20
-2.30360448E+02
  0
VERTEX
  8
0
 62
4
 10
2.08946234E+02
 20
-2.30501648E+02
  0
VERTEX
  8
0
 62
4
 10
2.08913474E+02
 20
-2.30646190E+02
  0
VERTEX
  8
0
 62
4
 10
2.08893717E+02
 20
-2.30792975E+02
  0
VERTEX
  8
0
 62
4
 10
2.08887115E+02
 20
-2.30940886E+02
  0
VERTEX
  8
0
 62
4
 10
2.08893717E+02
 20
-2.31088797E+02
  0
VERTEX
  8
0
 62
4
 10
2.08913474E+02
 20
-2.31235582E+02
  0
VERTEX
  8
0
 62
4
 10
2.08946234E+02
 20
-2.31380124E+02
  0
VERTEX
  8
0
 62
4
 10
2.08991748E+02
 20
-2.31521324E+02
  0
VERTEX
  8
0
 62
4
 10
2.09049671E+02
 20
-2.31658106E+02
  0
VERTEX
  8
0
 62
4
 10
2.09119561E+02
 20
-2.31789429E+02
  0
VERTEX
  8
0
 62
4
 10
2.09200886E+02
 20
-2.31914295E+02
  0
VERTEX
  8
0
 62
4
 10
2.09293028E+02
 20
-2.32031752E+02
  0
VERTEX
  8
0
 62
4
 10
2.09395285E+02
 20
-2.32140907E+02
  0
VERTEX
  8
0
 62
4
 10
2.09506878E+02
 20
-2.32240929E+02
  0
VERTEX
  8
0
 62
4
 10
2.09626960E+02
 20
-2.32331058E+02
  0
VERTEX
  8
0
 62
4
 10
2.09754615E+02
 20
-2.32410606E+02
  0
VERTEX
  8
0
 62
4
 10
2.09888872E+02
 20
-2.32478968E+02
  0
VERTEX
  8
0
 62
4
 10
2.10028710E+02
 20
-2.32535625E+02
  0
VERTEX
  8
0
 62
4
 10
2.10173064E+02
 20
-2.32580145E+02
  0
VERTEX
  8
0
 62
4
 10
2.10320835E+02
 20
-2.32612190E+02
  0
VERTEX
  8
0
 62
4
 10
2.10470900E+02
 20
-2.32631514E+02
  0
VERTEX
  8
0
 62
4
 10
2.10622115E+02
 20
-2.32637972E+02
  0
VERTEX
  8
0
 62
4
 10
2.10773330E+02
 20
-2.32631514E+02
  0
VERTEX
  8
0
 62
4
 10
2.10923395E+02
 20
-2.32612190E+02
  0
VERTEX
  8
0
 62
4
 10
2.11071166E+02
 20
-2.32580145E+02
  0
VERTEX
  8
0
 62
4
 10
2.11215520E+02
 20
-2.32535625E+02
  0
VERTEX
  8
0
 62
4
 10
2.11355358E+02
 20
-2.32478968E+02
  0
VERTEX
  8
0
 62
4
 10
2.11489615E+02
 20
-2.32410606E+02
  0
VERTEX
  8
0
 62
4
 10
2.11617270E+02
 20
-2.32331058E+02
  0
VERTEX
  8
0
 62
4
 10
2.11737352E+02
 20
-2.32240929E+02
  0
VERTEX
  8
0
 62
4
 10
2.11848945E+02
 20
-2.32140907E+02
  0
VERTEX
  8
0
 62
4
 10
2.11951202E+02
 20
-2.32031752E+02
  0
VERTEX
  8
0
 62
4
 10
2.12043344E+02
 20
-2.31914295E+02
  0
VERTEX
  8
0
 62
4
 10
2.12124669E+02
 20
-2.31789429E+02
  0
VERTEX
  8
0
 62
4
 10
2.12194559E+02
 20
-2.31658106E+02
  0
VERTEX
  8
0
 62
4
 10
2.12252482E+02
 20
-2.31521324E+02
  0
VERTEX
  8
0
 62
4
 10
2.12297996E+02
 20
-2.31380124E+02
  0
VERTEX
  8
0
 62
4
 10
2.12330756E+02
 20
-2.31235582E+02
  0
VERTEX
  8
0
 62
4
 10
2.12350513E+02
 20
-2.31088797E+02
  0
VERTEX
  8
0
 62
4
 10
2.12357115E+02
 20
-2.30940886E+02
  0
SEQEND
  8
0
  0
POLYLINE
  8
0
 62
4
 66
1
  0
VERTEX
  8
0
 62
4
 10
2.10622115E+02
 20
-2.32684379E+02
  0
VERTEX
  8
0
 62
4
 10
2.10796426E+02
 20
-2.32676496E+02
  0
VERTEX
  8
0
 62
4
 10
2.10969411E+02
 20
-2.32652905E+02
  0
VERTEX
  8
0
 62
4
 10
2.11139753E+02
 20
-2.32613787E+02
  0
VERTEX
  8
0
 62
4
 10
2.11306155E+02
 20
-2.32559439E+02
  0
VERTEX
  8
0
 62
4
 10
2.11467352E+02
 20
-2.32490275E+02
  0
VERTEX
  8
0
 62
4
 10
2.11622115E+02
 20
-2.32406822E+02
  0
VERTEX
  8
0
 62
4
 10
2.11769268E+02
 20
-2.32309713E+02
  0
VERTEX
  8
0
 62
4
 10
2.11907690E+02
 20
-2.32199689E+02
  0
VERTEX
  8
0
 62
4
 10
2.12036329E+02
 20
-2.32077587E+02
  0
VERTEX
  8
0
 62
4
 10
2.12154204E+02
 20
-2.31944336E+02
  0
VERTEX
  8
0
 62
4
 10
2.12260419E+02
 20
-2.31800950E+02
  0
VERTEX
  8
0
 62
4
 10
2.12354166E+02
 20
-2.31648520E+02
  0
VERTEX
  8
0
 62
4
 10
2.12434731E+02
 20
-2.31488207E+02
  0
VERTEX
  8
0
 62
4
 10
2.12501500E+02
 20
-2.31321230E+02
  0
VERTEX
  8
0
 62
4
 10
2.12553967E+02
 20
-2.31148861E+02
  0
VERTEX
  8
0
 62
4
 10
2.12591731E+02
 20
-2.30972411E+02
  0
VERTEX
  8
0
 62
4
 10
2.12614504E+02
 20
-2.30793223E+02
  0
VERTEX
  8
0
 62
4
 10
2.12622115E+02
 20
-2.30612661E+02
  0
VERTEX
  8
0
 62
4
 10
2.12614504E+02
 20
-2.30432099E+02
  0
VERTEX
  8
0
 62
4
 10
2.12591731E+02
 20
-2.30252911E+02
  0
VERTEX
  8
0
 62
4
 10
2.12553967E+02
 20
-2.30076461E+02
  0
VERTEX
  8
0
 62
4
 10
2.12501500E+02
 20
-2.29904092E+02
  0
VERTEX
  8
0
 62
4
 10
2.12434731E+02
 20
-2.29737115E+02
  0
VERTEX
  8
0
 62
4
 10
2.12354166E+02
 20
-2.29576802E+02
  0
VERTEX
  8
0
 62
4
 10
2.12260419E+02
 20
-2.29424372E+02
  0
VERTEX
  8
0
 62
4
 10
2.12154204E+02
 20
-2.29280986E+02
  0
VERTEX
  8
0
 62
4
 10
2.12036329E+02
 20
-2.29147735E+02
  0
VERTEX
  8
0
 62
4
 10
2.11907690E+02
 20
-2.29025633E+02
  0
VERTEX
  8
0
 62
4
 10
2.11769268E+02
 20
-2.28915609E+02
  0
VERTEX
  8
0
 62
4
 10
2.11622115E+02
 20
-2.28818500E+02
  0
VERTEX
  8
0
 62
4
 10
2.11467352E+02
 20
-2.28735047E+02
  0
VERTEX
  8
0
 62
4
 10
2.11306155E+02
 20
-2.28665883E+02
  0
VERTEX
  8
0
 62
4
 10
2.11139753E+02
 20
-2.28611535E+02
  0
VERTEX
  8
0
 62
4
 10
2.10969411E+02
 20
-2.28572417E+02
  0
VERTEX
  8
0
 62
4
 10
2.10796426E+02
 20
-2.28548826E+02
  0
VERTEX
  8
0
 62
4
 10
2.10622115E+02
 20
-2.28540943E+02
  0
VERTEX
  8
0
 62
4
 10
2.10447804E+02
 20
-2.28548826E+02
  0
VERTEX
  8
0
 62
4
 10
2.10274819E+02
 20
-2.28572417E+02
  0
VERTEX
  8
0
 62
4
 10
2.10104477E+02
 20
-2.28611535E+02
  0
VERTEX
  8
0
 62
4
 10
2.09938075E+02
 20
-2.28665883E+02
  0
VERTEX
  8
0
 62
4
 10
2.09776878E+02
 20
-2.28735047E+02
  0
VERTEX
  8
0
 62
4
 10
2.09622115E+02
 20
-2.28818500E+02
  0
VERTEX
  8
0
 62
4
 10
2.09474962E+02
 20
-2.28915609E+02
  0
VERTEX
  8
0
 62
4
 10
2.09336540E+02
 20
-2.29025633E+02
  0
VERTEX
  8
0
 62
4
 10
2.09207901E+02
 20
-2.29147735E+02
  0
VERTEX
  8
0
 62
4
 10
2.09090026E+02
 20
-2.29280986E+02
  0
VERTEX
  8
0
 62
4
 10
2.08983811E+02
 20
-2.29424372E+02
  0
VERTEX
  8
0
 62
4
 10
2.08890064E+02
 20
-2.29576802E+02
  0
VERTEX
  8
0
 62
4
 10
2.08809499E+02
 20
-2.29737115E+02
  0
VERTEX
  8
0
 62
4
 10
2.08742730E+02
 20
-2.29904092E+02
  0
VERTEX
  8
0
 62
4
 10
2.08690263E+02
 20
-2.30076461E+02
  0
VERTEX
  8
0
 62
4
 10
2.08652499E+02
 20
-2.30252911E+02
  0
VERTEX
  8
0
 62
4
 10
2.08629726E+02
 20
-2.30432099E+02
  0
VERTEX
  8
0
 62
4
 10
2.08622115E+02
 20
-2.30612661E+02
  0
VERTEX
  8
0
 62
4
 10
2.08629726E+02
 20
-2.30793223E+02
  0
VERTEX
  8
0
 62
4
 10
2.08652499E+02
 20
-2.30972411E+02
  0
VERTEX
  8
0
 62
4
 10
2.08690263E+02
 20
-2.31148861E+02
  0
VERTEX
  8
0
 62
4
 10
2.08742730E+02
 20
-2.31321230E+02
  0
VERTEX
  8
0
 62
4
 10
2.08809499E+02
 20
-2.31488207E+02
  0
VERTEX
  8
0
 62
4
 10
2.08890064E+02
 20
-2.31648520E+02
  0
VERTEX
  8
0
 62
4
 10
2.08983811E+02
 20
-2.31800950E+02
  0
VERTEX
  8
0
 62
4
 10
2.09090026E+02
 20
-2.31944336E+02
  0
VERTEX
  8
0
 62
4
 10
2.09207901E+02
 20
-2.32077587E+02
  0
VERTEX
  8
0
 62
4
 10
2.09336540E+02
 20
-2.32199689E+02
  0
VERTEX
  8
0
 62
4
 10
2.09474962E+02
 20
-2.32309713E+02
  0
VERTEX
  8
0
 62
4
 10
2.09622115E+02
 20
-2.32406822E+02
  0
VERTEX
  8
0
 62
4
 10
2.09776878E+02
 20
-2.32490275E+02
  0
VERTEX
  8
0
 62
4
 10
2.09938075E+02
 20
-2.32559439E+02
  0
VERTEX
  8
0
 62
4
 10
2.10104477E+02
 20
-2.32613787E+02
  0
VERTEX
  8
0
 62
4
 10
2.10274819E+02
 20
-2.32652905E+02
  0
VERTEX
  8
0
 62
4
 10
2.10447804E+02
 20
-2.32676496E+02
  0
VERTEX
  8
0
 62
4
 10
2.10622115E+02
 20
-2.32684379E+02
  0
SEQEND
  8
0
  0
LINE
  8
0
  6
CENTER
 62
6
 10
1.99699847E+02
 20
-2.30935995E+02
 11
2.13544383E+02
 21
-2.30935995E+02
  0
POLYLINE
  8
0
 62
4
 66
1
  0
VERTEX
  8
0
 62
4
 10
2.04357115E+02
 20
-2.30940886E+02
  0
VERTEX
  8
0
 62
4
 10
2.04350513E+02
 20
-2.30792975E+02
  0
VERTEX
  8
0
 62
4
 10
2.04330756E+02
 20
-2.30646190E+02
  0
VERTEX
  8
0
 62
4
 10
2.04297996E+02
 20
-2.30501648E+02
  0
VERTEX
  8
0
 62
4
 10
2.04252482E+02
 20
-2.30360448E+02
  0
VERTEX
  8
0
 62
4
 10
2.04194559E+02
 20
-2.30223666E+02
  0
VERTEX
  8
0
 62
4
 10
2.04124669E+02
 20
-2.30092343E+02
  0
VERTEX
  8
0
 62
4
 10
2.04043344E+02
 20
-2.29967477E+02
  0
VERTEX
  8
0
 62
4
 10
2.03951202E+02
 20
-2.29850020E+02
  0
VERTEX
  8
0
 62
4
 10
2.03848945E+02
 20
-2.29740865E+02
  0
VERTEX
  8
0
 62
4
 10
2.03737352E+02
 20
-2.29640843E+02
  0
VERTEX
  8
0
 62
4
 10
2.03617270E+02
 20
-2.29550714E+02
  0
VERTEX
  8
0
 62
4
 10
2.03489615E+02
 20
-2.29471166E+02
  0
VERTEX
  8
0
 62
4
 10
2.03355358E+02
 20
-2.29402804E+02
  0
VERTEX
  8
0
 62
4
 10
2.03215520E+02
 20
-2.29346147E+02
  0
VERTEX
  8
0
 62
4
 10
2.03071166E+02
 20
-2.29301627E+02
  0
VERTEX
  8
0
 62
4
 10
2.02923395E+02
 20
-2.29269582E+02
  0
VERTEX
  8
0
 62
4
 10
2.02773330E+02
 20
-2.29250258E+02
  0
VERTEX
  8
0
 62
4
 10
2.02622115E+02
 20
-2.29243800E+02
  0
VERTEX
  8
0
 62
4
 10
2.02470900E+02
 20
-2.29250258E+02
  0
VERTEX
  8
0
 62
4
 10
2.02320835E+02
 20
-2.29269582E+02
  0
VERTEX
  8
0
 62
4
 10
2.02173064E+02
 20
-2.29301627E+02
  0
VERTEX
  8
0
 62
4
 10
2.02028710E+02
 20
-2.29346147E+02
  0
VERTEX
  8
0
 62
4
 10
2.01888872E+02
 20
-2.29402804E+02
  0
VERTEX
  8
0
 62
4
 10
2.01754615E+02
 20
-2.29471166E+02
  0
VERTEX
  8
0
 62
4
 10
2.01626960E+02
 20
-2.29550714E+02
  0
VERTEX
  8
0
 62
4
 10
2.01506878E+02
 20
-2.29640843E+02
  0
VERTEX
  8
0
 62
4
 10
2.01395285E+02
 20
-2.29740865E+02
  0
VERTEX
  8
0
 62
4
 10
2.01293028E+02
 20
-2.29850020E+02
  0
VERTEX
  8
0
 62
4
 10
2.01200886E+02
 20
-2.29967477E+02
  0
VERTEX
  8
0
 62
4
 10
2.01119561E+02
 20
-2.30092343E+02
  0
VERTEX
  8
0
 62
4
 10
2.01049671E+02
 20
-2.30223666E+02
  0
VERTEX
  8
0
 62
4
 10
2.00991748E+02
 20
-2.30360448E+02
  0
VERTEX
  8
0
 62
4
 10
2.00946234E+02
 20
-2.30501648E+02
  0
VERTEX
  8
0
 62
4
 10
2.00913474E+02
 20
-2.30646190E+02
  0
VERTEX
  8
0
 62
4
 10
2.00893717E+02
 20
-2.30792975E+02
  0
VERTEX
  8
0
 62
4
 10
2.00887115E+02
 20
-2.30940886E+02
  0
VERTEX
  8
0
 62
4
 10
2.00893717E+02
 20
-2.31088797E+02
  0
VERTEX
  8
0
 62
4
 10
2.00913474E+02
 20
-2.31235582E+02
  0
VERTEX
  8
0
 62
4
 10
2.00946234E+02
 20
-2.31380124E+02
  0
VERTEX
  8
0
 62
4
 10
2.00991748E+02
 20
-2.31521324E+02
  0
VERTEX
  8
0
 62
4
 10
2.01049671E+02
 20
-2.31658106E+02
  0
VERTEX
  8
0
 62
4
 10
2.01119561E+02
 20
-2.31789429E+02
  0
VERTEX
  8
0
 62
4
 10
2.01200886E+02
 20
-2.31914295E+02
  0
VERTEX
  8
0
 62
4
 10
2.01293028E+02
 20
-2.32031752E+02
  0
VERTEX
  8
0
 62
4
 10
2.01395285E+02
 20
-2.32140907E+02
  0
VERTEX
  8
0
 62
4
 10
2.01506878E+02
 20
-2.32240929E+02
  0
VERTEX
  8
0
 62
4
 10
2.01626960E+02
 20
-2.32331058E+02
  0
VERTEX
  8
0
 62
4
 10
2.01754615E+02
 20
-2.32410606E+02
  0
VERTEX
  8
0
 62
4
 10
2.01888872E+02
 20
-2.32478968E+02
  0
VERTEX
  8
0
 62
4
 10
2.02028710E+02
 20
-2.32535625E+02
  0
VERTEX
  8
0
 62
4
 10
2.02173064E+02
 20
-2.32580145E+02
  0
VERTEX
  8
0
 62
4
 10
2.02320835E+02
 20
-2.32612190E+02
  0
VERTEX
  8
0
 62
4
 10
2.02470900E+02
 20
-2.32631514E+02
  0
VERTEX
  8
0
 62
4
 10
2.02622115E+02
 20
-2.32637972E+02
  0
VERTEX
  8
0
 62
4
 10
2.02773330E+02
 20
-2.32631514E+02
  0
VERTEX
  8
0
 62
4
 10
2.02923395E+02
 20
-2.32612190E+02
  0
VERTEX
  8
0
 62
4
 10
2.03071166E+02
 20
-2.32580145E+02
  0
VERTEX
  8
0
 62
4
 10
2.03215520E+02
 20
-2.32535625E+02
  0
VERTEX
  8
0
 62
4
 10
2.03355358E+02
 20
-2.32478968E+02
  0
VERTEX
  8
0
 62
4
 10
2.03489615E+02
 20
-2.32410606E+02
  0
VERTEX
  8
0
 62
4
 10
2.03617270E+02
 20
-2.32331058E+02
  0
VERTEX
  8
0
 62
4
 10
2.03737352E+02
 20
-2.32240929E+02
  0
VERTEX
  8
0
 62
4
 10
2.03848945E+02
 20
-2.32140907E+02
  0
VERTEX
  8
0
 62
4
 10
2.03951202E+02
 20
-2.32031752E+02
  0
VERTEX
  8
0
 62
4
 10
2.04043344E+02
 20
-2.31914295E+02
  0
VERTEX
  8
0
 62
4
 10
2.04124669E+02
 20
-2.31789429E+02
  0
VERTEX
  8
0
 62
4
 10
2.04194559E+02
 20
-2.31658106E+02
  0
VERTEX
  8
0
 62
4
 10
2.04252482E+02
 20
-2.31521324E+02
  0
VERTEX
  8
0
 62
4
 10
2.04297996E+02
 20
-2.31380124E+02
  0
VERTEX
  8
0
 62
4
 10
2.04330756E+02
 20
-2.31235582E+02
  0
VERTEX
  8
0
 62
4
 10
2.04350513E+02
 20
-2.31088797E+02
  0
VERTEX
  8
0
 62
4
 10
2.04357115E+02
 20
-2.30940886E+02
  0
SEQEND
  8
0
  0
POLYLINE
  8
0
 62
4
 66
1
  0
VERTEX
  8
0
 62
4
 10
2.02622115E+02
 20
-2.32684379E+02
  0
VERTEX
  8
0
 62
4
 10
2.02796426E+02
 20
-2.32676496E+02
  0
VERTEX
  8
0
 62
4
 10
2.02969411E+02
 20
-2.32652905E+02
  0
VERTEX
  8
0
 62
4
 10
2.03139753E+02
 20
-2.32613787E+02
  0
VERTEX
  8
0
 62
4
 10
2.03306155E+02
 20
-2.32559439E+02
  0
VERTEX
  8
0
 62
4
 10
2.03467352E+02
 20
-2.32490275E+02
  0
VERTEX
  8
0
 62
4
 10
2.03622115E+02
 20
-2.32406822E+02
  0
VERTEX
  8
0
 62
4
 10
2.03769268E+02
 20
-2.32309713E+02
  0
VERTEX
  8
0
 62
4
 10
2.03907690E+02
 20
-2.32199689E+02
  0
VERTEX
  8
0
 62
4
 10
2.04036329E+02
 20
-2.32077587E+02
  0
VERTEX
  8
0
 62
4
 10
2.04154204E+02
 20
-2.31944336E+02
  0
VERTEX
  8
0
 62
4
 10
2.04260419E+02
 20
-2.31800950E+02
  0
VERTEX
  8
0
 62
4
 10
2.04354166E+02
 20
-2.31648520E+02
  0
VERTEX
  8
0
 62
4
 10
2.04434731E+02
 20
-2.31488207E+02
  0
VERTEX
  8
0
 62
4
 10
2.04501500E+02
 20
-2.31321230E+02
  0
VERTEX
  8
0
 62
4
 10
2.04553967E+02
 20
-2.31148861E+02
  0
VERTEX
  8
0
 62
4
 10
2.04591731E+02
 20
-2.30972411E+02
  0
VERTEX
  8
0
 62
4
 10
2.04614504E+02
 20
-2.30793223E+02
  0
VERTEX
  8
0
 62
4
 10
2.04622115E+02
 20
-2.30612661E+02
  0
VERTEX
  8
0
 62
4
 10
2.04614504E+02
 20
-2.30432099E+02
  0
VERTEX
  8
0
 62
4
 10
2.04591731E+02
 20
-2.30252911E+02
  0
VERTEX
  8
0
 62
4
 10
2.04553967E+02
 20
-2.30076461E+02
  0
VERTEX
  8
0
 62
4
 10
2.04501500E+02
 20
-2.29904092E+02
  0
VERTEX
  8
0
 62
4
 10
2.04434731E+02
 20
-2.29737115E+02
  0
VERTEX
  8
0
 62
4
 10
2.04354166E+02
 20
-2.29576802E+02
  0
VERTEX
  8
0
 62
4
 10
2.04260419E+02
 20
-2.29424372E+02
  0
VERTEX
  8
0
 62
4
 10
2.04154204E+02
 20
-2.29280986E+02
  0
VERTEX
  8
0
 62
4
 10
2.04036329E+02
 20
-2.29147735E+02
  0
VERTEX
  8
0
 62
4
 10
2.03907690E+02
 20
-2.29025633E+02
  0
VERTEX
  8
0
 62
4
 10
2.03769268E+02
 20
-2.28915609E+02
  0
VERTEX
  8
0
 62
4
 10
2.03622115E+02
 20
-2.28818500E+02
  0
VERTEX
  8
0
 62
4
 10
2.03467352E+02
 20
-2.28735047E+02
  0
VERTEX
  8
0
 62
4
 10
2.03306155E+02
 20
-2.28665883E+02
  0
VERTEX
  8
0
 62
4
 10
2.03139753E+02
 20
-2.28611535E+02
  0
VERTEX
  8
0
 62
4
 10
2.02969411E+02
 20
-2.28572417E+02
  0
VERTEX
  8
0
 62
4
 10
2.02796426E+02
 20
-2.28548826E+02
  0
VERTEX
  8
0
 62
4
 10
2.02622115E+02
 20
-2.28540943E+02
  0
VERTEX
  8
0
 62
4
 10
2.02447804E+02
 20
-2.28548826E+02
  0
VERTEX
  8
0
 62
4
 10
2.02274819E+02
 20
-2.28572417E+02
  0
VERTEX
  8
0
 62
4
 10
2.02104477E+02
 20
-2.28611535E+02
  0
VERTEX
  8
0
 62
4
 10
2.01938075E+02
 20
-2.28665883E+02
  0
VERTEX
  8
0
 62
4
 10
2.01776878E+02
 20
-2.28735047E+02
  0
VERTEX
  8
0
 62
4
 10
2.01622115E+02
 20
-2.28818500E+02
  0
VERTEX
  8
0
 62
4
 10
2.01474962E+02
 20
-2.28915609E+02
  0
VERTEX
  8
0
 62
4
 10
2.01336540E+02
 20
-2.29025633E+02
  0
VERTEX
  8
0
 62
4
 10
2.01207901E+02
 20
-2.29147735E+02
  0
VERTEX
  8
0
 62
4
 10
2.01090026E+02
 20
-2.29280986E+02
  0
VERTEX
  8
0
 62
4
 10
2.00983811E+02
 20
-2.29424372E+02
  0
VERTEX
  8
0
 62
4
 10
2.00890064E+02
 20
-2.29576802E+02
  0
VERTEX
  8
0
 62
4
 10
2.00809499E+02
 20
-2.29737115E+02
  0
VERTEX
  8
0
 62
4
 10
2.00742730E+02
 20
-2.29904092E+02
  0
VERTEX
  8
0
 62
4
 10
2.00690263E+02
 20
-2.30076461E+02
  0
VERTEX
  8
0
 62
4
 10
2.00652499E+02
 20
-2.30252911E+02
  0
VERTEX
  8
0
 62
4
 10
2.00629726E+02
 20
-2.30432099E+02
  0
VERTEX
  8
0
 62
4
 10
2.00622115E+02
 20
-2.30612661E+02
  0
VERTEX
  8
0
 62
4
 10
2.00629726E+02
 20
-2.30793223E+02
  0
VERTEX
  8
0
 62
4
 10
2.00652499E+02
 20
-2.30972411E+02
  0
VERTEX
  8
0
 62
4
 10
2.00690263E+02
 20
-2.31148861E+02
  0
VERTEX
  8
0
 62
4
 10
2.00742730E+02
 20
-2.31321230E+02
  0
VERTEX
  8
0
 62
4
 10
2.00809499E+02
 20
-2.31488207E+02
  0
VERTEX
  8
0
 62
4
 10
2.00890064E+02
 20
-2.31648520E+02
  0
VERTEX
  8
0
 62
4
 10
2.00983811E+02
 20
-2.31800950E+02
  0
VERTEX
  8
0
 62
4
 10
2.01090026E+02
 20
-2.31944336E+02
  0
VERTEX
  8
0
 62
4
 10
2.01207901E+02
 20
-2.32077587E+02
  0
VERTEX
  8
0
 62
4
 10
2.01336540E+02
 20
-2.32199689E+02
  0
VERTEX
  8
0
 62
4
 10
2.01474962E+02
 20
-2.32309713E+02
  0
VERTEX
  8
0
 62
4
 10
2.01622115E+02
 20
-2.32406822E+02
  0
VERTEX
  8
0
 62
4
 10
2.01776878E+02
 20
-2.32490275E+02
  0
VERTEX
  8
0
 62
4
 10
2.01938075E+02
 20
-2.32559439E+02
  0
VERTEX
  8
0
 62
4
 10
2.02104477E+02
 20
-2.32613787E+02
  0
VERTEX
  8
0
 62
4
 10
2.02274819E+02
 20
-2.32652905E+02
  0
VERTEX
  8
0
 62
4
 10
2.02447804E+02
 20
-2.32676496E+02
  0
VERTEX
  8
0
 62
4
 10
2.02622115E+02
 20
-2.32684379E+02
  0
SEQEND
  8
0
  0
LINE
  8
0
 62
4
 10
1.99122115E+02
 20
-2.35589880E+02
 11
2.14122115E+02
 21
-2.35589880E+02
  0
LINE
  8
0
 62
4
 10
2.00122115E+02
 20
-2.25323403E+02
 11
2.13122115E+02
 21
-2.25323403E+02
  0
LINE
  8
0
  6
CENTER
 62
6
 10
2.02622115E+02
 20
-2.28013728E+02
 11
2.02622115E+02
 21
-2.33858263E+02
  0
POLYLINE
  8
0
 62
6
 66
1
  0
VERTEX
  8
0
 62
6
 10
2.04122115E+02
 20
-2.30935995E+02
  0
VERTEX
  8
0
 62
6
 10
2.04116407E+02
 20
-2.30808118E+02
  0
VERTEX
  8
0
 62
6
 10
2.04099327E+02
 20
-2.30681215E+02
  0
VERTEX
  8
0
 62
6
 10
2.04071004E+02
 20
-2.30556250E+02
  0
VERTEX
  8
0
 62
6
 10
2.04031654E+02
 20
-2.30434176E+02
  0
VERTEX
  8
0
 62
6
 10
2.03981577E+02
 20
-2.30315920E+02
  0
VERTEX
  8
0
 62
6
 10
2.03921153E+02
 20
-2.30202384E+02
  0
VERTEX
  8
0
 62
6
 10
2.03850843E+02
 20
-2.30094431E+02
  0
VERTEX
  8
0
 62
6
 10
2.03771182E+02
 20
-2.29992883E+02
  0
VERTEX
  8
0
 62
6
 10
2.03682775E+02
 20
-2.29898513E+02
  0
VERTEX
  8
0
 62
6
 10
2.03586296E+02
 20
-2.29812038E+02
  0
VERTEX
  8
0
 62
6
 10
2.03482480E+02
 20
-2.29734118E+02
  0
VERTEX
  8
0
 62
6
 10
2.03372115E+02
 20
-2.29665344E+02
  0
VERTEX
  8
0
 62
6
 10
2.03256042E+02
 20
-2.29606241E+02
  0
VERTEX
  8
0
 62
6
 10
2.03135145E+02
 20
-2.29557258E+02
  0
VERTEX
  8
0
 62
6
 10
2.03010344E+02
 20
-2.29518768E+02
  0
VERTEX
  8
0
 62
6
 10
2.02882587E+02
 20
-2.29491064E+02
  0
VERTEX
  8
0
 62
6
 10
2.02752849E+02
 20
-2.29474357E+02
  0
VERTEX
  8
0
 62
6
 10
2.02622115E+02
 20
-2.29468774E+02
  0
VERTEX
  8
0
 62
6
 10
2.02491381E+02
 20
-2.29474357E+02
  0
VERTEX
  8
0
 62
6
 10
2.02361643E+02
 20
-2.29491064E+02
  0
VERTEX
  8
0
 62
6
 10
2.02233886E+02
 20
-2.29518768E+02
  0
VERTEX
  8
0
 62
6
 10
2.02109085E+02
 20
-2.29557258E+02
  0
VERTEX
  8
0
 62
6
 10
2.01988188E+02
 20
-2.29606241E+02
  0
VERTEX
  8
0
 62
6
 10
2.01872115E+02
 20
-2.29665344E+02
  0
VERTEX
  8
0
 62
6
 10
2.01761750E+02
 20
-2.29734118E+02
  0
VERTEX
  8
0
 62
6
 10
2.01657934E+02
 20
-2.29812038E+02
  0
VERTEX
  8
0
 62
6
 10
2.01561455E+02
 20
-2.29898513E+02
  0
VERTEX
  8
0
 62
6
 10
2.01473048E+02
 20
-2.29992883E+02
  0
VERTEX
  8
0
 62
6
 10
2.01393387E+02
 20
-2.30094431E+02
  0
VERTEX
  8
0
 62
6
 10
2.01323077E+02
 20
-2.30202384E+02
  0
VERTEX
  8
0
 62
6
 10
2.01262653E+02
 20
-2.30315920E+02
  0
VERTEX
  8
0
 62
6
 10
2.01212576E+02
 20
-2.30434176E+02
  0
VERTEX
  8
0
 62
6
 10
2.01173226E+02
 20
-2.30556250E+02
  0
VERTEX
  8
0
 62
6
 10
2.01144903E+02
 20
-2.30681215E+02
  0
VERTEX
  8
0
 62
6
 10
2.01127823E+02
 20
-2.30808118E+02
  0
VERTEX
  8
0
 62
6
 10
2.01122115E+02
 20
-2.30935995E+02
  0
VERTEX
  8
0
 62
6
 10
2.01127823E+02
 20
-2.31063872E+02
  0
VERTEX
  8
0
 62
6
 10
2.01144903E+02
 20
-2.31190775E+02
  0
VERTEX
  8
0
 62
6
 10
2.01173226E+02
 20
-2.31315740E+02
  0
VERTEX
  8
0
 62
6
 10
2.01212576E+02
 20
-2.31437814E+02
  0
VERTEX
  8
0
 62
6
 10
2.01262653E+02
 20
-2.31556070E+02
  0
VERTEX
  8
0
 62
6
 10
2.01323077E+02
 20
-2.31669606E+02
  0
VERTEX
  8
0
 62
6
 10
2.01393387E+02
 20
-2.31777559E+02
  0
VERTEX
  8
0
 62
6
 10
2.01473048E+02
 20
-2.31879107E+02
  0
VERTEX
  8
0
 62
6
 10
2.01561455E+02
 20
-2.31973477E+02
  0
VERTEX
  8
0
 62
6
 10
2.01657934E+02
 20
-2.32059952E+02
  0
VERTEX
  8
0
 62
6
 10
2.01761750E+02
 20
-2.32137872E+02
  0
VERTEX
  8
0
 62
6
 10
2.01872115E+02
 20
-2.32206646E+02
  0
VERTEX
  8
0
 62
6
 10
2.01988188E+02
 20
-2.32265749E+02
  0
VERTEX
  8
0
 62
6
 10
2.02109085E+02
 20
-2.32314732E+02
  0
VERTEX
  8
0
 62
6
 10
2.02233886E+02
 20
-2.32353222E+02
  0
VERTEX
  8
0
 62
6
 10
2.02361643E+02
 20
-2.32380926E+02
  0
VERTEX
  8
0
 62
6
 10
2.02491381E+02
 20
-2.32397633E+02
  0
VERTEX
  8
0
 62
6
 10
2.02622115E+02
 20
-2.32403216E+02
  0
VERTEX
  8
0
 62
6
 10
2.02752849E+02
 20
-2.32397633E+02
  0
VERTEX
  8
0
 62
6
 10
2.02882587E+02
 20
-2.32380926E+02
  0
VERTEX
  8
0
 62
6
 10
2.03010344E+02
 20
-2.32353222E+02
  0
VERTEX
  8
0
 62
6
 10
2.03135145E+02
 20
-2.32314732E+02
  0
VERTEX
  8
0
 62
6
 10
2.03256042E+02
 20
-2.32265749E+02
  0
VERTEX
  8
0
 62
6
 10
2.03372115E+02
 20
-2.32206646E+02
  0
VERTEX
  8
0
 62
6
 10
2.03482480E+02
 20
-2.32137872E+02
  0
VERTEX
  8
0
 62
6
 10
2.03586296E+02
 20
-2.32059952E+02
  0
VERTEX
  8
0
 62
6
 10
2.03682775E+02
 20
-2.31973477E+02
  0
VERTEX
  8
0
 62
6
 10
2.03771182E+02
 20
-2.31879107E+02
  0
VERTEX
  8
0
 62
6
 10
2.03850843E+02
 20
-2.31777559E+02
  0
VERTEX
  8
0
 62
6
 10
2.03921153E+02
 20
-2.31669606E+02
  0
VERTEX
  8
0
 62
6
 10
2.03981577E+02
 20
-2.31556070E+02
  0
VERTEX
  8
0
 62
6
 10
2.04031654E+02
 20
-2.31437814E+02
  0
VERTEX
  8
0
 62
6
 10
2.04071004E+02
 20
-2.31315740E+02
  0
VERTEX
  8
0
 62
6
 10
2.04099327E+02
 20
-2.31190775E+02
  0
VERTEX
  8
0
 62
6
 10
2.04116407E+02
 20
-2.31063872E+02
  0
VERTEX
  8
0
 62
6
 10
2.04122115E+02
 20
-2.30935995E+02
  0
SEQEND
  8
0
  0
LINE
  8
0
  6
CENTER
 62
6
 10
2.10622115E+02
 20
-2.28013728E+02
 11
2.10622115E+02
 21
-2.33858263E+02
  0
POLYLINE
  8
0
 62
6
 66
1
  0
VERTEX
  8
0
 62
6
 10
2.12122115E+02
 20
-2.30935995E+02
  0
VERTEX
  8
0
 62
6
 10
2.12116407E+02
 20
-2.30808118E+02
  0
VERTEX
  8
0
 62
6
 10
2.12099327E+02
 20
-2.30681215E+02
  0
VERTEX
  8
0
 62
6
 10
2.12071004E+02
 20
-2.30556250E+02
  0
VERTEX
  8
0
 62
6
 10
2.12031654E+02
 20
-2.30434176E+02
  0
VERTEX
  8
0
 62
6
 10
2.11981577E+02
 20
-2.30315920E+02
  0
VERTEX
  8
0
 62
6
 10
2.11921153E+02
 20
-2.30202384E+02
  0
VERTEX
  8
0
 62
6
 10
2.11850843E+02
 20
-2.30094431E+02
  0
VERTEX
  8
0
 62
6
 10
2.11771182E+02
 20
-2.29992883E+02
  0
VERTEX
  8
0
 62
6
 10
2.11682775E+02
 20
-2.29898513E+02
  0
VERTEX
  8
0
 62
6
 10
2.11586296E+02
 20
-2.29812038E+02
  0
VERTEX
  8
0
 62
6
 10
2.11482480E+02
 20
-2.29734118E+02
  0
VERTEX
  8
0
 62
6
 10
2.11372115E+02
 20
-2.29665344E+02
  0
VERTEX
  8
0
 62
6
 10
2.11256042E+02
 20
-2.29606241E+02
  0
VERTEX
  8
0
 62
6
 10
2.11135145E+02
 20
-2.29557258E+02
  0
VERTEX
  8
0
 62
6
 10
2.11010344E+02
 20
-2.29518768E+02
  0
VERTEX
  8
0
 62
6
 10
2.10882587E+02
 20
-2.29491064E+02
  0
VERTEX
  8
0
 62
6
 10
2.10752849E+02
 20
-2.29474357E+02
  0
VERTEX
  8
0
 62
6
 10
2.10622115E+02
 20
-2.29468774E+02
  0
VERTEX
  8
0
 62
6
 10
2.10491381E+02
 20
-2.29474357E+02
  0
VERTEX
  8
0
 62
6
 10
2.10361643E+02
 20
-2.29491064E+02
  0
VERTEX
  8
0
 62
6
 10
2.10233886E+02
 20
-2.29518768E+02
  0
VERTEX
  8
0
 62
6
 10
2.10109085E+02
 20
-2.29557258E+02
  0
VERTEX
  8
0
 62
6
 10
2.09988188E+02
 20
-2.29606241E+02
  0
VERTEX
  8
0
 62
6
 10
2.09872115E+02
 20
-2.29665344E+02
  0
VERTEX
  8
0
 62
6
 10
2.09761750E+02
 20
-2.29734118E+02
  0
VERTEX
  8
0
 62
6
 10
2.09657934E+02
 20
-2.29812038E+02
  0
VERTEX
  8
0
 62
6
 10
2.09561455E+02
 20
-2.29898513E+02
  0
VERTEX
  8
0
 62
6
 10
2.09473048E+02
 20
-2.29992883E+02
  0
VERTEX
  8
0
 62
6
 10
2.09393387E+02
 20
-2.30094431E+02
  0
VERTEX
  8
0
 62
6
 10
2.09323077E+02
 20
-2.30202384E+02
  0
VERTEX
  8
0
 62
6
 10
2.09262653E+02
 20
-2.30315920E+02
  0
VERTEX
  8
0
 62
6
 10
2.09212576E+02
 20
-2.30434176E+02
  0
VERTEX
  8
0
 62
6
 10
2.09173226E+02
 20
-2.30556250E+02
  0
VERTEX
  8
0
 62
6
 10
2.09144903E+02
 20
-2.30681215E+02
  0
VERTEX
  8
0
 62
6
 10
2.09127823E+02
 20
-2.30808118E+02
  0
VERTEX
  8
0
 62
6
 10
2.09122115E+02
 20
-2.30935995E+02
  0
VERTEX
  8
0
 62
6
 10
2.09127823E+02
 20
-2.31063872E+02
  0
VERTEX
  8
0
 62
6
 10
2.09144903E+02
 20
-2.31190775E+02
  0
VERTEX
  8
0
 62
6
 10
2.09173226E+02
 20
-2.31315740E+02
  0
VERTEX
  8
0
 62
6
 10
2.09212576E+02
 20
-2.31437814E+02
  0
VERTEX
  8
0
 62
6
 10
2.09262653E+02
 20
-2.31556070E+02
  0
VERTEX
  8
0
 62
6
 10
2.09323077E+02
 20
-2.31669606E+02
  0
VERTEX
  8
0
 62
6
 10
2.09393387E+02
 20
-2.31777559E+02
  0
VERTEX
  8
0
 62
6
 10
2.09473048E+02
 20
-2.31879107E+02
  0
VERTEX
  8
0
 62
6
 10
2.09561455E+02
 20
-2.31973477E+02
  0
VERTEX
  8
0
 62
6
 10
2.09657934E+02
 20
-2.32059952E+02
  0
VERTEX
  8
0
 62
6
 10
2.09761750E+02
 20
-2.32137872E+02
  0
VERTEX
  8
0
 62
6
 10
2.09872115E+02
 20
-2.32206646E+02
  0
VERTEX
  8
0
 62
6
 10
2.09988188E+02
 20
-2.32265749E+02
  0
VERTEX
  8
0
 62
6
 10
2.10109085E+02
 20
-2.32314732E+02
  0
VERTEX
  8
0
 62
6
 10
2.10233886E+02
 20
-2.32353222E+02
  0
VERTEX
  8
0
 62
6
 10
2.10361643E+02
 20
-2.32380926E+02
  0
VERTEX
  8
0
 62
6
 10
2.10491381E+02
 20
-2.32397633E+02
  0
VERTEX
  8
0
 62
6
 10
2.10622115E+02
 20
-2.32403216E+02
  0
VERTEX
  8
0
 62
6
 10
2.10752849E+02
 20
-2.32397633E+02
  0
VERTEX
  8
0
 62
6
 10
2.10882587E+02
 20
-2.32380926E+02
  0
VERTEX
  8
0
 62
6
 10
2.11010344E+02
 20
-2.32353222E+02
  0
VERTEX
  8
0
 62
6
 10
2.11135145E+02
 20
-2.32314732E+02
  0
VERTEX
  8
0
 62
6
 10
2.11256042E+02
 20
-2.32265749E+02
  0
VERTEX
  8
0
 62
6
 10
2.11372115E+02
 20
-2.32206646E+02
  0
VERTEX
  8
0
 62
6
 10
2.11482480E+02
 20
-2.32137872E+02
  0
VERTEX
  8
0
 62
6
 10
2.11586296E+02
 20
-2.32059952E+02
  0
VERTEX
  8
0
 62
6
 10
2.11682775E+02
 20
-2.31973477E+02
  0
VERTEX
  8
0
 62
6
 10
2.11771182E+02
 20
-2.31879107E+02
  0
VERTEX
  8
0
 62
6
 10
2.11850843E+02
 20
-2.31777559E+02
  0
VERTEX
  8
0
 62
6
 10
2.11921153E+02
 20
-2.31669606E+02
  0
VERTEX
  8
0
 62
6
 10
2.11981577E+02
 20
-2.31556070E+02
  0
VERTEX
  8
0
 62
6
 10
2.12031654E+02
 20
-2.31437814E+02
  0
VERTEX
  8
0
 62
6
 10
2.12071004E+02
 20
-2.31315740E+02
  0
VERTEX
  8
0
 62
6
 10
2.12099327E+02
 20
-2.31190775E+02
  0
VERTEX
  8
0
 62
6
 10
2.12116407E+02
 20
-2.31063872E+02
  0
VERTEX
  8
0
 62
6
 10
2.12122115E+02
 20
-2.30935995E+02
  0
SEQEND
  8
0
  0
CIRCLE
  8
0
 62
7
 10
-2.61249893E+02
 20
-2.27057622E+02
 40
2.45850000E+00
  0
CIRCLE
  8
0
 62
7
 10
-2.98249985E+02
 20
-2.27057622E+02
 40
2.45850000E+00
  0
CIRCLE
  8
0
 62
7
 10
5.97499847E+01
 20
-2.27057622E+02
 40
2.45850000E+00
  0
CIRCLE
  8
0
 62
7
 10
2.27498932E+01
 20
-2.27057622E+02
 40
2.45850000E+00
  0
LINE
  8
0
 62
7
 10
5.07499237E+01
 20
-2.45557706E+02
 11
5.07499237E+01
 21
-2.40072878E+02
  0
LINE
  8
0
  6
CENTER
 62
2
 10
5.97499847E+01
 20
-2.18551053E+02
 11
5.97499847E+01
 21
-2.33472188E+02
  0
LINE
  8
0
 62
7
 10
6.62499237E+01
 20
-2.23557675E+02
 11
6.62499237E+01
 21
-2.45557706E+02
  0
LINE
  8
0
 62
7
 10
1.92498322E+01
 20
-2.20557660E+02
 11
6.32499237E+01
 21
-2.20557660E+02
  0
LINE
  8
0
 62
7
 10
6.57498932E+01
 20
-2.23557736E+02
 11
6.57498932E+01
 21
-2.45557706E+02
  0
LINE
  8
0
  6
CENTER
 62
2
 10
1.41599884E+01
 20
-2.27057622E+02
 11
2.88268585E+01
 21
-2.27057622E+02
  0
LINE
  8
0
  6
CENTER
 62
2
 10
2.27498932E+01
 20
-2.18655072E+02
 11
2.27498932E+01
 21
-2.34942052E+02
  0
LINE
  8
0
 62
7
 10
1.62498322E+01
 20
-2.23557675E+02
 11
1.62498322E+01
 21
-2.45557706E+02
  0
LINE
  8
0
 62
7
 10
1.67498627E+01
 20
-2.23557675E+02
 11
1.67498627E+01
 21
-2.45557706E+02
  0
LINE
  8
0
 62
7
 10
1.92498932E+01
 20
-2.21057675E+02
 11
6.32499237E+01
 21
-2.21057736E+02
  0
LINE
  8
0
  6
CENTER
 62
2
 10
4.52500153E+01
 20
-2.18805310E+02
 11
4.52500153E+01
 21
-2.34191472E+02
  0
LINE
  8
0
  6
CENTER
 62
2
 10
4.12499237E+01
 20
-2.17062710E+02
 11
4.12499237E+01
 21
-2.45557706E+02
  0
LINE
  8
0
 62
7
 10
2.12499237E+01
 20
-2.20557690E+02
 11
2.12499237E+01
 21
-2.21057675E+02
  0
LINE
  8
0
 62
7
 10
6.12499237E+01
 20
-2.20557690E+02
 11
6.12499237E+01
 21
-2.21057736E+02
  0
LINE
  8
0
  6
CENTER
 62
2
 10
5.33684845E+01
 20
-2.27057622E+02
 11
6.78901520E+01
 21
-2.27057622E+02
  0
LINE
  8
0
  6
CENTER
 62
2
 10
3.12499237E+01
 20
-2.37203610E+02
 11
3.12499237E+01
 21
-2.18628689E+02
  0
LINE
  8
0
  6
CENTER
 62
2
 10
7.02222443E+01
 20
-2.45557706E+02
 11
1.15461273E+01
 21
-2.45557706E+02
  0
CIRCLE
  8
0
 62
2
 10
2.27498932E+01
 20
-2.27057622E+02
 40
3.00000000E+00
  0
ARC
  8
0
 62
7
 10
6.32498932E+01
 20
-2.23557736E+02
 40
2.50000000E+00
 50
0.00000000E+00
 51
8.99999818E+01
  0
CIRCLE
  8
0
 62
7
 10
5.97499847E+01
 20
-2.27057698E+02
 40
5.00000000E+00
  0
CIRCLE
  8
0
 62
7
 10
5.97499847E+01
 20
-2.27057698E+02
 40
4.50000000E+00
  0
ARC
  8
0
 62
7
 10
6.32498932E+01
 20
-2.23557675E+02
 40
3.00000000E+00
 50
0.00000000E+00
 51
8.99999818E+01
  0
ARC
  8
0
 62
7
 10
1.92498932E+01
 20
-2.23557675E+02
 40
2.50000000E+00
 50
8.99999818E+01
 51
1.79999964E+02
  0
ARC
  8
0
 62
7
 10
1.92498322E+01
 20
-2.23557675E+02
 40
3.00000000E+00
 50
8.99999818E+01
 51
1.79999964E+02
  0
CIRCLE
  8
0
 62
7
 10
2.27498932E+01
 20
-2.27057645E+02
 40
4.50000000E+00
  0
CIRCLE
  8
0
 62
7
 10
2.27498932E+01
 20
-2.27057645E+02
 40
5.00000000E+00
  0
CIRCLE
  8
0
 62
2
 10
5.97499847E+01
 20
-2.27057622E+02
 40
3.00000000E+00
  0
ARC
  8
0
 62
7
 10
4.12499237E+01
 20
-2.45557706E+02
 40
1.21500015E+01
 50
0.00000000E+00
 51
1.80000000E+02
  0
ARC
  8
0
 62
7
 10
4.12499237E+01
 20
-2.45557706E+02
 40
6.00000000E+00
 50
0.00000000E+00
 51
1.80000000E+02
  0
ARC
  8
0
 62
2
 10
4.12499237E+01
 20
-2.45557706E+02
 40
5.17999268E+00
 50
0.00000000E+00
 51
1.80000000E+02
  0
ARC
  8
0
 62
7
 10
4.12499237E+01
 20
-2.45557706E+02
 40
4.99997767E+00
 50
0.00000000E+00
 51
1.80000000E+02
  0
ARC
  8
0
 62
7
 10
4.12499237E+01
 20
-2.45557706E+02
 40
9.50000000E+00
 50
0.00000000E+00
 51
1.80000000E+02
  0
LINE
  8
0
 62
7
 10
4.12499237E+01
 20
-2.34588050E+02
 11
3.17499237E+01
 21
-2.40072878E+02
  0
LINE
  8
0
 62
7
 10
3.17499237E+01
 20
-2.40072878E+02
 11
3.17499237E+01
 21
-2.45557706E+02
  0
LINE
  8
0
 62
7
 10
5.07499237E+01
 20
-2.40072878E+02
 11
4.12499237E+01
 21
-2.34588050E+02
  0
LINE
  8
0
 62
7
 10
3.82499609E+01
 20
-2.41557706E+02
 11
4.45411733E+01
 21
-2.41557706E+02
  0
LINE
  8
0
 62
7
 10
3.72499516E+01
 20
-2.42557706E+02
 11
3.72499516E+01
 21
-2.45557706E+02
  0
LINE
  8
0
 62
7
 10
4.52498958E+01
 20
-2.42557706E+02
 11
4.52498958E+01
 21
-2.45557706E+02
  0
TEXT
  8
0
 62
7
 10
1.90439063E+02
 20
-5.40000010E+00
 40
6.30000019E+00
  1
(mm)
 41
1.00000000E+00
  7
MONOTXT
  0
LINE
  8
0
 62
7
 10
2.13950000E+02
 20
-3.02500000E+01
 11
2.13950000E+02
 21
-1.02500000E+01
  0
TEXT
  8
0
 62
7
 10
1.92589063E+02
 20
-2.84000001E+01
 40
6.30000019E+00
  1
725
 41
1.00000000E+00
  7
MONOTXT
  0
TEXT
  8
0
 62
7
 10
1.92589063E+02
 20
-1.84000001E+01
 40
6.30000019E+00
  1
800
 41
1.00000000E+00
  7
MONOTXT
  0
LINE
  8
0
 62
7
 10
-5.06127469E+01
 20
-2.23557721E+02
 11
-1.14250015E+02
 21
-2.23557721E+02
  0
LINE
  8
0
 62
7
 10
-9.12499335E+01
 20
-8.97076995E+01
 11
-5.41634236E+01
 21
-8.97076995E+01
  0
LINE
  8
0
 62
7
 10
-9.12499335E+01
 20
-8.35577208E+01
 11
-5.06127317E+01
 21
-8.35577208E+01
  0
LINE
  8
0
 62
7
 10
-9.12499335E+01
 20
-8.44077117E+01
 11
-5.11034742E+01
 21
-8.44077117E+01
  0
LINE
  8
0
 62
7
 10
-1.14250015E+02
 20
-2.24407719E+02
 11
-5.11034938E+01
 21
-2.24407719E+02
  0
LINE
  8
0
 62
7
 10
-1.14250015E+02
 20
-2.29707707E+02
 11
-5.41634432E+01
 21
-2.29707707E+02
  0
LINE
  8
0
 62
2
 10
-1.79749985E+02
 20
-2.39377713E+02
 11
-1.73249985E+02
 21
-2.39377713E+02
  0
LINE
  8
0
 62
7
 10
-1.79749985E+02
 20
-2.38557721E+02
 11
-1.73249985E+02
 21
-2.38557721E+02
  0
LINE
  8
0
 62
7
 10
-1.79749969E+02
 20
-1.12557755E+02
 11
-1.73249985E+02
 21
-1.12557755E+02
  0
LINE
  8
0
 62
2
 10
-1.79749969E+02
 20
-1.11737763E+02
 11
-1.73249985E+02
 21
-1.11737763E+02
  0
LINE
  8
0
 62
7
 10
-1.79749969E+02
 20
-9.85577400E+01
 11
-1.73249985E+02
 21
-9.85577400E+01
  0
LINE
  8
0
 62
2
 10
-1.79749969E+02
 20
-9.93777320E+01
 11
-1.73249985E+02
 21
-9.93777320E+01
  0
ARC
  8
0
 62
4
 10
-1.71864022E+02
 20
-1.11057706E+02
 40
1.58859473E+01
 50
1.59743839E+02
 51
2.00256161E+02
  0
ARC
  8
0
 62
4
 10
-1.71864022E+02
 20
-1.00057706E+02
 40
1.58859474E+01
 50
1.59743839E+02
 51
2.00256161E+02
  0
ARC
  8
0
 62
4
 10
-1.95635919E+02
 20
-1.00057706E+02
 40
1.58859499E+01
 50
3.39743842E+02
 51
2.02561578E+01
  0
ARC
  8
0
 62
4
 10
-1.95635919E+02
 20
-1.11057706E+02
 40
1.58859499E+01
 50
3.39743842E+02
 51
2.02561578E+01
  0
LINE
  8
0
 62
4
 10
-1.87749969E+02
 20
-1.16557706E+02
 11
-1.79749969E+02
 21
-1.16557706E+02
  0
LINE
  8
0
 62
4
 10
-1.87749969E+02
 20
-9.45577056E+01
 11
-1.79749969E+02
 21
-9.45577056E+01
  0
LINE
  8
0
 62
4
 10
-1.86767489E+02
 20
-1.05557706E+02
 11
-1.80732450E+02
 21
-1.05557706E+02
  0
LINE
  8
0
 62
4
 10
-1.87749969E+02
 20
-1.16557706E+02
 11
-1.87749969E+02
 21
-9.45577056E+01
  0
LINE
  8
0
 62
4
 10
-1.79749969E+02
 20
-1.16557706E+02
 11
-1.79749969E+02
 21
-9.45577056E+01
  0
ARC
  8
0
 62
4
 10
-2.00767505E+02
 20
-2.45557706E+02
 40
2.10175199E+01
 50
3.60000000E+02
 51
1.75879534E+01
  0
ARC
  8
0
 62
4
 10
-1.85372795E+02
 20
-2.36031426E+02
 40
5.62281003E+00
 50
3.25615753E+02
 51
3.43842476E+01
  0
ARC
  8
0
 62
4
 10
-1.66732465E+02
 20
-2.45557706E+02
 40
2.10175199E+01
 50
1.62412046E+02
 51
1.80000000E+02
  0
ARC
  8
0
 62
4
 10
-1.82127175E+02
 20
-2.36031426E+02
 40
5.62281003E+00
 50
1.45615752E+02
 51
2.14384247E+02
  0
LINE
  8
0
 62
4
 10
-1.79749985E+02
 20
-2.34557706E+02
 11
-1.80732465E+02
 21
-2.32856000E+02
  0
LINE
  8
0
 62
4
 10
-1.87749985E+02
 20
-2.34557706E+02
 11
-1.86767504E+02
 21
-2.32856000E+02
  0
LINE
  8
0
 62
4
 10
-1.79749985E+02
 20
-2.45557706E+02
 11
-1.79749985E+02
 21
-2.34557706E+02
  0
LINE
  8
0
 62
4
 10
-1.87749985E+02
 20
-2.45557706E+02
 11
-1.87749985E+02
 21
-2.34557706E+02
  0
LINE
  8
0
 62
4
 10
-1.86767504E+02
 20
-2.39206853E+02
 11
-1.80732465E+02
 21
-2.39206853E+02
  0
LINE
  8
0
 62
4
 10
-1.86767504E+02
 20
-2.32856000E+02
 11
-1.80732465E+02
 21
-2.32856000E+02
  0
LINE
  8
0
 62
4
 10
-2.68749954E+02
 20
-2.39206853E+02
 11
-2.79749954E+02
 21
-2.32856000E+02
  0
LINE
  8
0
 62
4
 10
-2.68749954E+02
 20
-2.45557706E+02
 11
-2.68749954E+02
 21
-2.39206853E+02
  0
LINE
  8
0
 62
4
 10
-2.90749954E+02
 20
-2.39206853E+02
 11
-2.90749954E+02
 21
-2.45557706E+02
  0
LINE
  8
0
 62
4
 10
-2.79749954E+02
 20
-2.32856000E+02
 11
-2.90749954E+02
 21
-2.39206853E+02
  0
ARC
  8
0
 62
4
 10
-2.79749954E+02
 20
-2.45557706E+02
 40
1.10000000E+01
 50
0.00000000E+00
 51
1.80000000E+02
  0
ARC
  8
0
 62
7
 10
-2.79749954E+02
 20
-2.45557706E+02
 40
7.00000000E+00
 50
0.00000000E+00
 51
1.80000000E+02
  0
LINE
  8
0
 62
7
 10
-1.94249954E+02
 20
-1.11057771E+02
 11
-1.94249954E+02
 21
-1.00057740E+02
  0
LINE
  8
0
 62
7
 10
-1.92749954E+02
 20
-9.85577400E+01
 11
-1.87749969E+02
 21
-9.85577400E+01
  0
LINE
  8
0
 62
7
 10
-1.92749954E+02
 20
-1.12557755E+02
 11
-1.87749969E+02
 21
-1.12557755E+02
  0
LINE
  8
0
 62
2
 10
-1.93569901E+02
 20
-9.93777320E+01
 11
-1.87749969E+02
 21
-9.93777320E+01
  0
LINE
  8
0
 62
2
 10
-1.93569901E+02
 20
-1.11737763E+02
 11
-1.87749969E+02
 21
-1.11737763E+02
  0
LINE
  8
0
 62
7
 10
-1.92749954E+02
 20
-9.85577400E+01
 11
-1.92749954E+02
 21
-1.12557755E+02
  0
LINE
  8
0
 62
7
 10
-1.73249985E+02
 20
-9.85577400E+01
 11
-1.73249985E+02
 21
-1.12557755E+02
  0
LINE
  8
0
 62
7
 10
-1.94249865E+02
 20
-1.00057823E+02
 11
-1.92749919E+02
 21
-9.85578312E+01
  0
LINE
  8
0
 62
7
 10
-1.94249969E+02
 20
-1.11057761E+02
 11
-1.92749956E+02
 21
-1.12557773E+02
  0
LINE
  8
0
 62
7
 10
-1.73249985E+02
 20
-1.11737763E+02
 11
-1.70249985E+02
 21
-1.11737763E+02
  0
LINE
  8
0
 62
7
 10
-1.73249985E+02
 20
-9.93777320E+01
 11
-1.70249985E+02
 21
-9.93777320E+01
  0
ARC
  8
0
 62
7
 10
-2.79749954E+02
 20
-2.45557706E+02
 40
5.49998474E+00
 50
0.00000000E+00
 51
1.80000000E+02
  0
ARC
  8
0
 62
2
 10
-2.79749954E+02
 20
-2.45557706E+02
 40
6.17999268E+00
 50
0.00000000E+00
 51
1.80000000E+02
  0
ARC
  8
0
 62
7
 10
-1.70249985E+02
 20
-2.45557706E+02
 40
8.00000000E+00
 50
0.00000000E+00
 51
2.89550399E+01
  0
ARC
  8
0
 62
7
 10
-1.54999985E+02
 20
-2.30549107E+02
 40
2.50000000E-01
 50
9.20008106E+01
 51
1.80000019E+02
  0
ARC
  8
0
 62
7
 10
-1.46750015E+02
 20
-2.30057706E+02
 40
5.00000000E-01
 50
9.00000300E+01
 51
1.80000019E+02
  0
ARC
  8
0
 62
7
 10
-1.59750046E+02
 20
-2.31057698E+02
 40
5.00000000E-01
 50
9.00000300E+01
 51
1.80000019E+02
  0
CIRCLE
  8
0
 62
7
 10
-1.19749969E+02
 20
-1.15557706E+02
 40
2.09999990E+00
  0
CIRCLE
  8
0
 62
2
 10
-2.61249893E+02
 20
-2.27057622E+02
 40
3.00000000E+00
  0
ARC
  8
0
 62
2
 10
-1.27250000E+02
 20
-1.01557767E+02
 40
6.57849979E+00
 50
7.68191399E+01
 51
3.35950142E+02
  0
ARC
  8
0
 62
7
 10
-2.79749954E+02
 20
-2.45557706E+02
 40
1.50000000E+01
 50
0.00000000E+00
 51
1.80000000E+02
  0
ARC
  8
0
 62
7
 10
-2.79749954E+02
 20
-2.45557706E+02
 40
1.55000010E+01
 50
0.00000000E+00
 51
1.80000000E+02
  0
ARC
  8
0
 62
7
 10
-2.79749954E+02
 20
-2.45557706E+02
 40
1.60000000E+01
 50
0.00000000E+00
 51
1.80000000E+02
  0
ARC
  8
0
 62
7
 10
-2.90391403E+02
 20
-2.28555142E+02
 40
1.00000000E+00
 50
8.79747829E+01
 51
1.69211502E+02
  0
ARC
  8
0
 62
7
 10
-2.84750046E+02
 20
-2.24557675E+02
 40
1.00000000E+00
 50
8.99999818E+01
 51
1.79999964E+02
  0
ARC
  8
0
 62
7
 10
-2.96752487E+02
 20
-2.34916241E+02
 40
1.00000000E+00
 50
1.00789058E+02
 51
1.82026085E+02
  0
ARC
  8
0
 62
7
 10
-3.00749985E+02
 20
-2.40557675E+02
 40
1.00000000E+00
 50
8.99999818E+01
 51
1.79999964E+02
  0
ARC
  8
0
 62
7
 10
-2.88750046E+02
 20
-2.24557645E+02
 40
3.00000000E+00
 50
2.67974177E+02
 51
3.59999417E+02
  0
ARC
  8
0
 62
7
 10
-3.00749985E+02
 20
-2.36557667E+02
 40
3.00000000E+00
 50
2.70000018E+02
 51
0.00000000E+00
  0
ARC
  8
0
 62
7
 10
-2.96631943E+02
 20
-2.43557706E+02
 40
1.00000000E+00
 50
2.69999963E+02
 51
3.53243768E+02
  0
ARC
  8
0
 62
7
 10
-2.93101547E+02
 20
-2.35034535E+02
 40
1.00000000E+00
 50
3.21755790E+02
 51
4.49993763E+01
  0
ARC
  8
0
 62
7
 10
-2.90273117E+02
 20
-2.32206113E+02
 40
1.00000000E+00
 50
2.24999972E+02
 51
3.08243613E+02
  0
ARC
  8
0
 62
7
 10
-2.81749985E+02
 20
-2.28675740E+02
 40
1.00000000E+00
 50
2.76756086E+02
 51
3.59999959E+02
  0
ARC
  8
0
 62
7
 10
-2.94186996E+02
 20
-2.33949086E+02
 40
1.00000000E+00
 50
4.50006194E+01
 51
1.20522431E+02
  0
ARC
  8
0
 62
7
 10
-2.98249985E+02
 20
-2.27057645E+02
 40
7.00000000E+00
 50
2.80788623E+02
 51
3.49211279E+02
  0
ARC
  8
0
 62
7
 10
-2.91358536E+02
 20
-2.31120656E+02
 40
1.00000000E+00
 50
1.49477747E+02
 51
2.24999340E+02
  0
ARC
  8
0
 62
7
 10
-2.81749985E+02
 20
-2.24557706E+02
 40
1.00000000E+00
 50
3.59999959E+02
 51
8.99999956E+01
  0
ARC
  8
0
 62
7
 10
-3.00749985E+02
 20
-2.43557706E+02
 40
1.00000000E+00
 50
1.79999964E+02
 51
2.69999946E+02
  0
CIRCLE
  8
0
 62
7
 10
-2.98249985E+02
 20
-2.27057645E+02
 40
5.00000000E+00
  0
CIRCLE
  8
0
 62
7
 10
-2.98249985E+02
 20
-2.27057645E+02
 40
4.50000000E+00
  0
ARC
  8
0
 62
7
 10
-3.01750046E+02
 20
-2.23557675E+02
 40
3.00000000E+00
 50
8.99999818E+01
 51
1.79999964E+02
  0
ARC
  8
0
 62
7
 10
-3.01749985E+02
 20
-2.23557675E+02
 40
2.50000000E+00
 50
8.99999818E+01
 51
1.79999964E+02
  0
ARC
  8
0
 62
7
 10
-2.74749954E+02
 20
-2.24557675E+02
 40
1.00000000E+00
 50
0.00000000E+00
 51
8.99999818E+01
  0
ARC
  8
0
 62
7
 10
-2.70749985E+02
 20
-2.24557645E+02
 40
3.00000000E+00
 50
1.80000569E+02
 51
2.72025811E+02
  0
ARC
  8
0
 62
7
 10
-2.69108566E+02
 20
-2.28555142E+02
 40
1.00000000E+00
 50
1.07884614E+01
 51
9.20251808E+01
  0
ARC
  8
0
 62
7
 10
-2.61249985E+02
 20
-2.27057645E+02
 40
7.00000000E+00
 50
1.90788702E+02
 51
2.59211358E+02
  0
ARC
  8
0
 62
7
 10
-2.62747482E+02
 20
-2.34916241E+02
 40
1.00000000E+00
 50
3.57973879E+02
 51
7.92109058E+01
  0
ARC
  8
0
 62
7
 10
-2.58749985E+02
 20
-2.36557667E+02
 40
3.00000000E+00
 50
1.77973583E+02
 51
2.69999946E+02
  0
ARC
  8
0
 62
7
 10
-2.58749985E+02
 20
-2.40557675E+02
 40
1.00000000E+00
 50
0.00000000E+00
 51
8.99999818E+01
  0
ARC
  8
0
 62
7
 10
-2.57749985E+02
 20
-2.23557675E+02
 40
3.00000000E+00
 50
0.00000000E+00
 51
8.99999818E+01
  0
ARC
  8
0
 62
7
 10
-2.69226852E+02
 20
-2.32206189E+02
 40
1.00000000E+00
 50
2.31755794E+02
 51
3.14999380E+02
  0
ARC
  8
0
 62
7
 10
-2.66398422E+02
 20
-2.35034611E+02
 40
1.00000000E+00
 50
1.34999959E+02
 51
2.18243614E+02
  0
ARC
  8
0
 62
7
 10
-2.77749985E+02
 20
-2.28675763E+02
 40
1.00000000E+00
 50
1.79999964E+02
 51
2.63243741E+02
  0
ARC
  8
0
 62
7
 10
-2.77749985E+02
 20
-2.24557706E+02
 40
1.00000000E+00
 50
8.99999818E+01
 51
1.79999964E+02
  0
ARC
  8
0
 62
7
 10
-2.65312973E+02
 20
-2.33949139E+02
 40
1.00000000E+00
 50
5.94777518E+01
 51
1.34999345E+02
  0
ARC
  8
0
 62
7
 10
-2.62868027E+02
 20
-2.43557706E+02
 40
1.00000000E+00
 50
1.86756090E+02
 51
2.69999963E+02
  0
ARC
  8
0
 62
7
 10
-2.58749985E+02
 20
-2.43557706E+02
 40
1.00000000E+00
 50
2.69999963E+02
 51
0.00000000E+00
  0
ARC
  8
0
 62
7
 10
-2.68141373E+02
 20
-2.31120717E+02
 40
1.00000000E+00
 50
3.15000624E+02
 51
3.05224488E+01
  0
CIRCLE
  8
0
 62
7
 10
-2.61249893E+02
 20
-2.27057698E+02
 40
4.50000000E+00
  0
CIRCLE
  8
0
 62
7
 10
-2.61249893E+02
 20
-2.27057698E+02
 40
5.00000000E+00
  0
ARC
  8
0
 62
7
 10
-2.57749985E+02
 20
-2.23557736E+02
 40
2.50000000E+00
 50
0.00000000E+00
 51
8.99999818E+01
  0
ARC
  8
0
 62
7
 10
-1.27250000E+02
 20
-1.01557767E+02
 40
5.65999985E+00
 50
7.46312989E+01
 51
3.31727516E+02
  0
ARC
  8
0
 62
7
 10
-1.38249969E+02
 20
-1.23557706E+02
 40
2.00000000E+00
 50
1.79999977E+02
 51
2.70000028E+02
  0
ARC
  8
0
 62
7
 10
-1.38249969E+02
 20
-8.75577208E+01
 40
2.00000000E+00
 50
8.99999818E+01
 51
1.79999964E+02
  0
ARC
  8
0
 62
7
 10
-1.27250000E+02
 20
-1.01557767E+02
 40
7.00000000E+00
 50
7.76258175E+01
 51
3.45167056E+02
  0
ARC
  8
0
 62
7
 10
-1.44750031E+02
 20
-1.29525235E+02
 40
5.00000000E-01
 50
1.80000008E+02
 51
2.68999785E+02
  0
ARC
  8
0
 62
7
 10
-1.44750031E+02
 20
-8.15901763E+01
 40
5.00000000E-01
 50
9.10002155E+01
 51
1.80000005E+02
  0
ARC
  8
0
 62
7
 10
-1.54999969E+02
 20
-9.05490996E+01
 40
2.50000000E-01
 50
9.20007768E+01
 51
1.79999991E+02
  0
ARC
  8
0
 62
7
 10
-1.46750000E+02
 20
-9.00577208E+01
 40
5.00000000E-01
 50
9.00000231E+01
 51
1.80000005E+02
  0
ARC
  8
0
 62
7
 10
-1.59750031E+02
 20
-9.10577056E+01
 40
5.00000000E-01
 50
9.00000231E+01
 51
1.80000005E+02
  0
ARC
  8
0
 62
7
 10
-1.54999969E+02
 20
-1.20566312E+02
 40
2.50000000E-01
 50
1.80000008E+02
 51
2.67999216E+02
  0
ARC
  8
0
 62
7
 10
-1.46750000E+02
 20
-1.21057706E+02
 40
5.00000000E-01
 50
1.80000008E+02
 51
2.69999998E+02
  0
ARC
  8
0
 62
7
 10
-1.59750031E+02
 20
-1.20057721E+02
 40
5.00000000E-01
 50
1.80000008E+02
 51
2.69999998E+02
  0
CIRCLE
  8
0
 62
7
 10
-1.19749969E+02
 20
-1.15557706E+02
 40
4.00000000E+00
  0
CIRCLE
  8
0
 62
2
 10
-2.98249985E+02
 20
-2.27057622E+02
 40
3.00000000E+00
  0
LINE
  8
0
 62
7
 10
-1.67249985E+02
 20
-9.85577056E+01
 11
-1.67249985E+02
 21
-1.12557736E+02
  0
LINE
  8
0
 62
7
 10
-1.63249996E+02
 20
-1.12557684E+02
 11
-1.62249973E+02
 21
-1.13557707E+02
  0
LINE
  8
0
 62
7
 10
-1.63250032E+02
 20
-9.85576592E+01
 11
-1.62250082E+02
 21
-9.75577094E+01
  0
LINE
  8
0
 62
7
 10
-1.70249985E+02
 20
-1.12557736E+02
 11
-1.63249939E+02
 21
-1.12557736E+02
  0
LINE
  8
0
 62
7
 10
-1.70249985E+02
 20
-9.85577056E+01
 11
-1.63250015E+02
 21
-9.85577056E+01
  0
LINE
  8
0
 62
7
 10
-1.70249985E+02
 20
-9.85577056E+01
 11
-1.70249985E+02
 21
-1.12557736E+02
  0
LINE
  8
0
 62
7
 10
-1.62249954E+02
 20
-1.13557721E+02
 11
-1.60249985E+02
 21
-1.13557721E+02
  0
LINE
  8
0
 62
7
 10
-1.62250046E+02
 20
-9.75577361E+01
 11
-1.60249969E+02
 21
-9.75577361E+01
  0
LINE
  8
0
 62
7
 10
-1.73249985E+02
 20
-2.39377713E+02
 11
-1.70249985E+02
 21
-2.39377713E+02
  0
LINE
  8
0
 62
7
 10
-1.67249983E+02
 20
-2.37557681E+02
 11
-1.70249988E+02
 21
-2.38557713E+02
  0
LINE
  8
0
 62
7
 10
-1.70249994E+02
 20
-2.45557699E+02
 11
-1.67249993E+02
 21
-2.41684712E+02
  0
LINE
  8
0
 62
7
 10
-1.67249985E+02
 20
-2.37557690E+02
 11
-1.60250000E+02
 21
-2.37557690E+02
  0
LINE
  8
0
 62
2
 10
-1.68634588E+02
 20
-2.43472248E+02
 11
-1.66749969E+02
 21
-2.45557706E+02
  0
LINE
  8
0
 62
2
 10
-1.66749948E+02
 20
-2.45557706E+02
 11
-1.63249958E+02
 21
-2.41684731E+02
  0
LINE
  8
0
 62
7
 10
-1.67249969E+02
 20
-2.41684720E+02
 11
-1.63249985E+02
 21
-2.41684720E+02
  0
LINE
  8
0
 62
7
 10
-1.94249865E+02
 20
-2.40057804E+02
 11
-1.92749919E+02
 21
-2.38557812E+02
  0
LINE
  8
0
 62
7
 10
-1.73249985E+02
 20
-2.38557721E+02
 11
-1.73249985E+02
 21
-2.45557706E+02
  0
LINE
  8
0
 62
7
 10
-1.92749954E+02
 20
-2.38557721E+02
 11
-1.92749954E+02
 21
-2.45557706E+02
  0
LINE
  8
0
 62
2
 10
-1.93569901E+02
 20
-2.39377713E+02
 11
-1.87749985E+02
 21
-2.39377713E+02
  0
LINE
  8
0
 62
7
 10
-1.92749954E+02
 20
-2.38557721E+02
 11
-1.87749985E+02
 21
-2.38557721E+02
  0
LINE
  8
0
 62
7
 10
-1.94249954E+02
 20
-2.45557706E+02
 11
-1.94249954E+02
 21
-2.40057721E+02
  0
LINE
  8
0
 62
7
 10
-1.63249985E+02
 20
-2.45557706E+02
 11
-1.63249985E+02
 21
-2.41684720E+02
  0
LINE
  8
0
 62
7
 10
-1.67249985E+02
 20
-2.41684720E+02
 11
-1.67249985E+02
 21
-2.37557736E+02
  0
LINE
  8
0
 62
7
 10
-1.70249985E+02
 20
-2.45557706E+02
 11
-1.70249985E+02
 21
-2.38557721E+02
  0
LINE
  8
0
  6
CENTER
 62
2
 10
-1.45895737E+02
 20
-2.27057713E+02
 11
-5.26334685E+01
 21
-2.27057713E+02
  0
LINE
  8
0
 62
7
 10
-1.40249985E+02
 20
-2.21212308E+02
 11
-1.40249985E+02
 21
-2.20557706E+02
  0
LINE
  8
0
 62
7
 10
-1.45250089E+02
 20
-2.21343264E+02
 11
-1.15250836E+02
 21
-2.20557706E+02
  0
LINE
  8
0
 62
7
 10
-1.40249985E+02
 20
-2.20557706E+02
 11
-1.14250015E+02
 21
-2.20557706E+02
  0
LINE
  8
0
 62
7
 10
-1.45249985E+02
 20
-2.45557706E+02
 11
-1.45249985E+02
 21
-2.21343259E+02
  0
LINE
  8
0
 62
7
 10
-1.14250015E+02
 20
-2.45557706E+02
 11
-1.14250015E+02
 21
-2.20557706E+02
  0
LINE
  8
0
 62
7
 10
-1.46750015E+02
 20
-2.29557706E+02
 11
-1.45249985E+02
 21
-2.29557706E+02
  0
LINE
  8
0
 62
7
 10
-1.55249985E+02
 20
-2.45557706E+02
 11
-1.55249985E+02
 21
-2.30557667E+02
  0
LINE
  8
0
 62
7
 10
-1.47250046E+02
 20
-2.45557706E+02
 11
-1.47250046E+02
 21
-2.30028287E+02
  0
LINE
  8
0
 62
7
 10
-1.55008680E+02
 20
-2.30299258E+02
 11
-1.47249097E+02
 21
-2.30028287E+02
  0
LINE
  8
0
 62
7
 10
-1.59750046E+02
 20
-2.30557667E+02
 11
-1.55241074E+02
 21
-2.30557667E+02
  0
LINE
  8
0
 62
7
 10
-1.60249985E+02
 20
-2.45557706E+02
 11
-1.60249985E+02
 21
-2.31057698E+02
  0
LINE
  8
0
  6
CENTER
 62
2
 10
-1.97883789E+02
 20
-1.05557706E+02
 11
-1.10749933E+02
 21
-1.05557706E+02
  0
LINE
  8
0
 62
7
 10
-1.18306479E+02
 20
-1.15557748E+02
 11
-1.19028163E+02
 21
-1.16807757E+02
  0
LINE
  8
0
 62
7
 10
-1.19028275E+02
 20
-1.16807675E+02
 11
-1.20471680E+02
 21
-1.16807675E+02
  0
LINE
  8
0
 62
7
 10
-1.20471640E+02
 20
-1.16807669E+02
 11
-1.21193327E+02
 21
-1.15557653E+02
  0
LINE
  8
0
 62
7
 10
-1.21193301E+02
 20
-1.15557704E+02
 11
-1.20471613E+02
 21
-1.14307688E+02
  0
LINE
  8
0
 62
7
 10
-1.14249939E+02
 20
-8.35577208E+01
 11
-1.06249933E+02
 21
-8.35577208E+01
  0
LINE
  8
0
 62
7
 10
-1.19028275E+02
 20
-1.14307645E+02
 11
-1.20471680E+02
 21
-1.14307645E+02
  0
LINE
  8
0
 62
7
 10
-1.18306600E+02
 20
-1.15557629E+02
 11
-1.19028288E+02
 21
-1.14307612E+02
  0
LINE
  8
0
 62
7
 10
-1.14249939E+02
 20
-8.44077117E+01
 11
-1.06249933E+02
 21
-8.44077117E+01
  0
LINE
  8
0
 62
7
 10
-1.14249939E+02
 20
-8.97076995E+01
 11
-1.06249933E+02
 21
-8.97076995E+01
  0
LINE
  8
0
  6
CENTER
 62
2
 10
-1.47476990E+02
 20
-8.70577056E+01
 11
-1.06249933E+02
 21
-8.70577056E+01
  0
LINE
  8
0
 62
7
 10
-1.13749954E+02
 20
-8.97076995E+01
 11
-1.13749954E+02
 21
-9.00997780E+01
  0
LINE
  8
0
 62
7
 10
-1.14249939E+02
 20
-1.27557690E+02
 11
-7.60161260E+01
 21
-1.27557690E+02
  0
LINE
  8
0
 62
7
 10
-1.14249939E+02
 20
-1.26707699E+02
 11
-7.55253835E+01
 21
-1.26707699E+02
  0
LINE
  8
0
 62
7
 10
-1.14249939E+02
 20
-1.21407712E+02
 11
-7.24654341E+01
 21
-1.21407712E+02
  0
LINE
  8
0
  6
CENTER
 62
2
 10
-2.50777634E+02
 20
-2.45557706E+02
 11
-3.09453751E+02
 21
-2.45557706E+02
  0
LINE
  8
0
  6
CENTER
 62
2
 10
-2.69749954E+02
 20
-2.37203610E+02
 11
-2.69749954E+02
 21
-2.18628689E+02
  0
LINE
  8
0
  6
CENTER
 62
2
 10
-2.67631393E+02
 20
-2.27057622E+02
 11
-2.53109726E+02
 21
-2.27057622E+02
  0
LINE
  8
0
 62
7
 10
-2.97749985E+02
 20
-2.34845555E+02
 11
-2.97749985E+02
 21
-2.36807675E+02
  0
LINE
  8
0
 62
7
 10
-2.90461716E+02
 20
-2.27557614E+02
 11
-2.88500046E+02
 21
-2.27557614E+02
  0
LINE
  8
0
 62
7
 10
-2.69037033E+02
 20
-2.27557713E+02
 11
-2.70999954E+02
 21
-2.27557713E+02
  0
LINE
  8
0
 62
7
 10
-2.61749924E+02
 20
-2.34846394E+02
 11
-2.61749924E+02
 21
-2.36807675E+02
  0
LINE
  8
0
 62
7
 10
-2.59749954E+02
 20
-2.20557690E+02
 11
-2.59749954E+02
 21
-2.21057736E+02
  0
LINE
  8
0
 62
7
 10
-2.99749954E+02
 20
-2.20557690E+02
 11
-2.99749954E+02
 21
-2.21057675E+02
  0
LINE
  8
0
  6
CENTER
 62
2
 10
-2.79749954E+02
 20
-2.17062710E+02
 11
-2.79749954E+02
 21
-2.45557706E+02
  0
LINE
  8
0
  6
CENTER
 62
2
 10
-2.83750046E+02
 20
-2.18805310E+02
 11
-2.83750046E+02
 21
-2.34191472E+02
  0
LINE
  8
0
 62
7
 10
-3.01749985E+02
 20
-2.40557675E+02
 11
-3.01749985E+02
 21
-2.45557706E+02
  0
LINE
  8
0
 62
7
 10
-2.92065758E+02
 20
-2.31827729E+02
 11
-2.90980303E+02
 21
-2.32913184E+02
  0
LINE
  8
0
 62
7
 10
-2.93479938E+02
 20
-2.33242040E+02
 11
-2.92394484E+02
 21
-2.34327495E+02
  0
LINE
  8
0
 62
7
 10
-3.00749985E+02
 20
-2.44557690E+02
 11
-2.96631943E+02
 21
-2.44557690E+02
  0
LINE
  8
0
 62
7
 10
-2.80749985E+02
 20
-2.24557706E+02
 11
-2.80749985E+02
 21
-2.28675740E+02
  0
LINE
  8
0
 62
7
 10
-3.01749985E+02
 20
-2.21057675E+02
 11
-2.57749954E+02
 21
-2.21057736E+02
  0
LINE
  8
0
 62
7
 10
-3.04250015E+02
 20
-2.23557675E+02
 11
-3.04250015E+02
 21
-2.45557706E+02
  0
LINE
  8
0
 62
7
 10
-3.04750046E+02
 20
-2.23557675E+02
 11
-3.04750046E+02
 21
-2.45557706E+02
  0
LINE
  8
0
  6
CENTER
 62
2
 10
-2.98249985E+02
 20
-2.18655072E+02
 11
-2.98249985E+02
 21
-2.34942052E+02
  0
LINE
  8
0
  6
CENTER
 62
2
 10
-3.06839890E+02
 20
-2.27057622E+02
 11
-2.92173019E+02
 21
-2.27057622E+02
  0
LINE
  8
0
  6
CENTER
 62
2
 10
-1.27249985E+02
 20
-2.34567120E+02
 11
-1.27249985E+02
 21
-2.19008938E+02
  0
LINE
  8
0
 62
7
 10
-2.84750046E+02
 20
-2.23557675E+02
 11
-2.74749954E+02
 21
-2.23557675E+02
  0
LINE
  8
0
 62
7
 10
-2.57749985E+02
 20
-2.40557675E+02
 11
-2.57749985E+02
 21
-2.45557706E+02
  0
LINE
  8
0
 62
7
 10
-2.67434379E+02
 20
-2.31827684E+02
 11
-2.68519845E+02
 21
-2.32913150E+02
  0
LINE
  8
0
 62
7
 10
-2.78749985E+02
 20
-2.24557706E+02
 11
-2.78749985E+02
 21
-2.28675763E+02
  0
LINE
  8
0
 62
7
 10
-2.66020220E+02
 20
-2.33241866E+02
 11
-2.67105696E+02
 21
-2.34327342E+02
  0
LINE
  8
0
 62
7
 10
-2.58749985E+02
 20
-2.44557698E+02
 11
-2.62868027E+02
 21
-2.44557698E+02
  0
LINE
  8
0
 62
7
 10
-2.55249985E+02
 20
-2.23557736E+02
 11
-2.55249985E+02
 21
-2.45557706E+02
  0
LINE
  8
0
 62
7
 10
-3.01750046E+02
 20
-2.20557660E+02
 11
-2.57749954E+02
 21
-2.20557660E+02
  0
LINE
  8
0
 62
7
 10
-2.54749954E+02
 20
-2.23557675E+02
 11
-2.54749954E+02
 21
-2.45557706E+02
  0
LINE
  8
0
  6
CENTER
 62
2
 10
-2.61249893E+02
 20
-2.18551053E+02
 11
-2.61249893E+02
 21
-2.33472188E+02
  0
LINE
  8
0
  6
CENTER
 62
2
 10
-1.47476990E+02
 20
-1.24057706E+02
 11
-7.39954088E+01
 21
-1.24057706E+02
  0
LINE
  8
0
 62
7
 10
-1.40249969E+02
 20
-8.75577208E+01
 11
-1.40249969E+02
 21
-1.23557721E+02
  0
LINE
  8
0
 62
7
 10
-1.38249908E+02
 20
-1.25557706E+02
 11
-1.14249939E+02
 21
-1.25557706E+02
  0
LINE
  8
0
 62
7
 10
-1.38249908E+02
 20
-8.55577056E+01
 11
-1.14249939E+02
 21
-8.55577056E+01
  0
LINE
  8
0
  6
CENTER
 62
2
 10
-1.25446579E+02
 20
-1.15557706E+02
 11
-1.13831085E+02
 21
-1.15557706E+02
  0
LINE
  8
0
 62
7
 10
-1.14249976E+02
 20
-1.30557566E+02
 11
-1.44758726E+02
 21
-1.30025029E+02
  0
LINE
  8
0
 62
7
 10
-1.14250000E+02
 20
-8.05576402E+01
 11
-1.44758690E+02
 21
-8.10901667E+01
  0
LINE
  8
0
 62
7
 10
-1.47249939E+02
 20
-9.00577208E+01
 11
-1.47249939E+02
 21
-1.21087125E+02
  0
LINE
  8
0
 62
7
 10
-1.55249969E+02
 20
-9.05576903E+01
 11
-1.55249969E+02
 21
-1.20557751E+02
  0
LINE
  8
0
 62
7
 10
-1.55008774E+02
 20
-9.02991461E+01
 11
-1.47249161E+02
 21
-9.00281756E+01
  0
LINE
  8
0
 62
7
 10
-1.45249969E+02
 20
-1.29525235E+02
 11
-1.45249969E+02
 21
-8.15901763E+01
  0
LINE
  8
0
 62
7
 10
-1.14249939E+02
 20
-1.30557706E+02
 11
-1.14249939E+02
 21
-1.04099778E+02
  0
LINE
  8
0
 62
7
 10
-1.46750000E+02
 20
-8.95576903E+01
 11
-1.45249969E+02
 21
-8.95576903E+01
  0
LINE
  8
0
 62
7
 10
-1.59750031E+02
 20
-9.05576445E+01
 11
-1.55241058E+02
 21
-9.05576445E+01
  0
LINE
  8
0
 62
7
 10
-1.60249969E+02
 20
-1.20057721E+02
 11
-1.60249969E+02
 21
-9.10577208E+01
  0
LINE
  8
0
 62
7
 10
-1.55008710E+02
 20
-1.20816072E+02
 11
-1.47249127E+02
 21
-1.21087044E+02
  0
LINE
  8
0
 62
7
 10
-1.46750000E+02
 20
-1.21557675E+02
 11
-1.45249969E+02
 21
-1.21557675E+02
  0
LINE
  8
0
 62
7
 10
-1.59750031E+02
 20
-1.20557706E+02
 11
-1.55241058E+02
 21
-1.20557706E+02
  0
LINE
  8
0
  6
CENTER
 62
2
 10
-1.19749969E+02
 20
-1.21477414E+02
 11
-1.19749969E+02
 21
-1.09952786E+02
  0
LINE
  8
0
  6
CENTER
 62
2
 10
-1.37366699E+02
 20
-1.01557767E+02
 11
-1.25749933E+02
 21
-1.01557767E+02
  0
LINE
  8
0
  6
CENTER
 62
2
 10
-1.27250000E+02
 20
-1.11573575E+02
 11
-1.27250000E+02
 21
-9.14135558E+01
  0
LINE
  8
0
  6
CENTER
 62
2
 10
-1.96946304E+02
 20
-2.45557706E+02
 11
-6.33144441E+01
 21
-2.45557706E+02
  0
LINE
  8
0
  6
CENTER
 62
2
 10
-9.12499335E+01
 20
-8.70577056E+01
 11
-5.26334489E+01
 21
-8.70577056E+01
  0
LINE
  8
0
  6
CENTER
 62
2
 10
-7.17499335E+01
 20
-1.05557706E+02
 11
-6.33144288E+01
 21
-1.05557706E+02
  0
LINE
  8
0
 62
7
 10
-1.14249939E+02
 20
-9.00997780E+01
 11
-1.14249939E+02
 21
-8.05577056E+01
  0
LINE
  8
0
 62
2
 10
-7.85220993E+01
 20
-1.31898163E+02
 11
-4.80949137E+01
 21
-7.91967321E+01
  0
LINE
  8
0
 62
2
 10
-6.69103370E+01
 20
-2.51785975E+02
 11
-4.80949290E+01
 21
-2.19196732E+02
  0
LINE
  8
0
 62
7
 10
1.58484847E+02
 20
-2.23557721E+02
 11
1.82622115E+02
 21
-2.23557721E+02
  0
LINE
  8
0
 62
7
 10
2.22122115E+02
 20
-2.24407719E+02
 11
2.14122115E+02
 21
-2.24407719E+02
  0
LINE
  8
0
 62
7
 10
2.22122115E+02
 20
-2.29707707E+02
 11
2.14122115E+02
 21
-2.29707707E+02
  0
LINE
  8
0
  6
CENTER
 62
2
 10
2.53767836E+02
 20
-2.27057713E+02
 11
1.56464125E+02
 21
-2.27057713E+02
  0
LINE
  8
0
  6
CENTER
 62
2
 10
3.04818404E+02
 20
-2.45557706E+02
 11
1.45783149E+02
 21
-2.45557706E+02
  0
LINE
  8
0
  6
CENTER
 62
2
 10
2.35122084E+02
 20
-2.34567120E+02
 11
2.35122084E+02
 21
-2.19008938E+02
  0
LINE
  8
0
 62
7
 10
2.68122084E+02
 20
-2.45557706E+02
 11
2.68122084E+02
 21
-2.31057698E+02
  0
LINE
  8
0
 62
7
 10
2.67622145E+02
 20
-2.30557667E+02
 11
2.63113173E+02
 21
-2.30557667E+02
  0
LINE
  8
0
 62
7
 10
2.62880780E+02
 20
-2.30299258E+02
 11
2.55121197E+02
 21
-2.30028287E+02
  0
LINE
  8
0
 62
7
 10
2.55122145E+02
 20
-2.45557706E+02
 11
2.55122145E+02
 21
-2.30028287E+02
  0
LINE
  8
0
 62
7
 10
2.63122084E+02
 20
-2.45557706E+02
 11
2.63122084E+02
 21
-2.30557667E+02
  0
LINE
  8
0
 62
7
 10
2.54622115E+02
 20
-2.29557706E+02
 11
2.53122084E+02
 21
-2.29557706E+02
  0
LINE
  8
0
 62
7
 10
2.22122115E+02
 20
-2.45557706E+02
 11
2.22122115E+02
 21
-2.20557706E+02
  0
LINE
  8
0
 62
7
 10
2.53122084E+02
 20
-2.45557706E+02
 11
2.53122084E+02
 21
-2.21343259E+02
  0
LINE
  8
0
 62
7
 10
2.48122084E+02
 20
-2.20557706E+02
 11
2.22122115E+02
 21
-2.20557706E+02
  0
LINE
  8
0
 62
7
 10
2.53122189E+02
 20
-2.21343264E+02
 11
2.23122936E+02
 21
-2.20557706E+02
  0
LINE
  8
0
 62
7
 10
2.48122084E+02
 20
-2.21212308E+02
 11
2.48122084E+02
 21
-2.20557706E+02
  0
LINE
  8
0
 62
7
 10
2.78122084E+02
 20
-2.45557706E+02
 11
2.78122084E+02
 21
-2.38557721E+02
  0
LINE
  8
0
 62
7
 10
2.75122084E+02
 20
-2.41684720E+02
 11
2.75122084E+02
 21
-2.37557736E+02
  0
LINE
  8
0
 62
7
 10
2.71122084E+02
 20
-2.45557706E+02
 11
2.71122084E+02
 21
-2.41684720E+02
  0
LINE
  8
0
 62
7
 10
3.02122054E+02
 20
-2.45557706E+02
 11
3.02122054E+02
 21
-2.40057721E+02
  0
LINE
  8
0
 62
7
 10
3.00622054E+02
 20
-2.38557721E+02
 11
2.95622084E+02
 21
-2.38557721E+02
  0
LINE
  8
0
 62
2
 10
3.01442000E+02
 20
-2.39377713E+02
 11
2.95622084E+02
 21
-2.39377713E+02
  0
LINE
  8
0
 62
7
 10
3.00622054E+02
 20
-2.38557721E+02
 11
3.00622054E+02
 21
-2.45557706E+02
  0
LINE
  8
0
 62
7
 10
2.81122084E+02
 20
-2.38557721E+02
 11
2.81122084E+02
 21
-2.45557706E+02
  0
LINE
  8
0
 62
7
 10
3.02121965E+02
 20
-2.40057804E+02
 11
3.00622019E+02
 21
-2.38557812E+02
  0
LINE
  8
0
 62
7
 10
2.75122069E+02
 20
-2.41684720E+02
 11
2.71122084E+02
 21
-2.41684720E+02
  0
LINE
  8
0
 62
2
 10
2.74622047E+02
 20
-2.45557706E+02
 11
2.71122057E+02
 21
-2.41684731E+02
  0
LINE
  8
0
 62
2
 10
2.76506687E+02
 20
-2.43472248E+02
 11
2.74622069E+02
 21
-2.45557706E+02
  0
LINE
  8
0
 62
7
 10
2.75122084E+02
 20
-2.37557690E+02
 11
2.68122100E+02
 21
-2.37557690E+02
  0
LINE
  8
0
 62
7
 10
2.78122094E+02
 20
-2.45557699E+02
 11
2.75122093E+02
 21
-2.41684712E+02
  0
LINE
  8
0
 62
7
 10
2.75122083E+02
 20
-2.37557681E+02
 11
2.78122088E+02
 21
-2.38557713E+02
  0
LINE
  8
0
 62
7
 10
2.81122084E+02
 20
-2.39377713E+02
 11
2.78122084E+02
 21
-2.39377713E+02
  0
ARC
  8
0
 62
7
 10
2.67622145E+02
 20
-2.31057698E+02
 40
5.00000000E-01
 50
3.59999981E+02
 51
8.99999704E+01
  0
ARC
  8
0
 62
7
 10
2.54622115E+02
 20
-2.30057706E+02
 40
5.00000000E-01
 50
3.59999981E+02
 51
8.99999704E+01
  0
ARC
  8
0
 62
7
 10
2.62872084E+02
 20
-2.30549107E+02
 40
2.50000000E-01
 50
3.59999981E+02
 51
8.79991892E+01
  0
ARC
  8
0
 62
7
 10
2.78122084E+02
 20
-2.45557706E+02
 40
8.00000000E+00
 50
1.51044960E+02
 51
1.80000000E+02
  0
LINE
  8
0
 62
4
 10
2.94639604E+02
 20
-2.32856000E+02
 11
2.88604565E+02
 21
-2.32856000E+02
  0
LINE
  8
0
 62
4
 10
2.94639604E+02
 20
-2.39206853E+02
 11
2.88604565E+02
 21
-2.39206853E+02
  0
LINE
  8
0
 62
4
 10
2.95622084E+02
 20
-2.45557706E+02
 11
2.95622084E+02
 21
-2.34557706E+02
  0
LINE
  8
0
 62
4
 10
2.87622084E+02
 20
-2.45557706E+02
 11
2.87622084E+02
 21
-2.34557706E+02
  0
LINE
  8
0
 62
4
 10
2.95622084E+02
 20
-2.34557706E+02
 11
2.94639604E+02
 21
-2.32856000E+02
  0
LINE
  8
0
 62
4
 10
2.87622084E+02
 20
-2.34557706E+02
 11
2.88604565E+02
 21
-2.32856000E+02
  0
ARC
  8
0
 62
4
 10
2.89999274E+02
 20
-2.36031426E+02
 40
5.62281003E+00
 50
3.25615753E+02
 51
3.43842476E+01
  0
ARC
  8
0
 62
4
 10
2.74604564E+02
 20
-2.45557706E+02
 40
2.10175199E+01
 50
1.22042794E-07
 51
1.75879537E+01
  0
ARC
  8
0
 62
4
 10
2.93244894E+02
 20
-2.36031426E+02
 40
5.62281003E+00
 50
1.45615752E+02
 51
2.14384247E+02
  0
ARC
  8
0
 62
4
 10
3.08639604E+02
 20
-2.45557706E+02
 40
2.10175199E+01
 50
1.62412047E+02
 51
1.80000000E+02
  0
LINE
  8
0
 62
7
 10
2.87622084E+02
 20
-2.38557721E+02
 11
2.81122084E+02
 21
-2.38557721E+02
  0
LINE
  8
0
 62
2
 10
2.87622084E+02
 20
-2.39377713E+02
 11
2.81122084E+02
 21
-2.39377713E+02
  0
LINE
  8
0
 62
2
 10
1.42187256E+02
 20
-2.51785975E+02
 11
1.61002665E+02
 21
-2.19196732E+02
  0
LINE
  8
0
 62
7
 10
2.15622115E+02
 20
-2.23557721E+02
 11
2.22122115E+02
 21
-2.23557721E+02
  0
LINE
  8
0
 62
7
 10
1.99122115E+02
 20
-2.24407719E+02
 11
1.57994100E+02
 21
-2.24407719E+02
  0
LINE
  8
0
 62
7
 10
1.99122115E+02
 20
-2.29707707E+02
 11
1.54934150E+02
 21
-2.29707707E+02
  0
TEXT
  8
0
 10
-9.61502877E+01
 20
2.29478397E+02
 40
6.30000019E+00
  1
STRETCH LINE
 41
1.05263174E+00
  7
MONOTXT
  0
TEXT
  8
0
 62
7
 10
-2.47609386E+01
 20
-5.40000010E+00
 40
6.30000019E+00
  1
STRETCH LIST
 41
1.05263158E+00
  7
MONOTXT
  0
TEXT
  8
0
 62
7
 10
1.67389063E+02
 20
-2.84000001E+01
 40
6.30000019E+00
  1
625
 41
1.00000000E+00
  7
MONOTXT
  0
TEXT
  8
0
 62
7
 10
1.67389063E+02
 20
-1.84000001E+01
 40
6.30000019E+00
  1
700
 41
1.00000000E+00
  7
MONOTXT
  0
TEXT
  8
0
 62
7
 10
1.42189063E+02
 20
-2.84000001E+01
 40
6.30000019E+00
  1
525
 41
1.00000000E+00
  7
MONOTXT
  0
TEXT
  8
0
 62
7
 10
1.42189063E+02
 20
-1.84000001E+01
 40
6.30000019E+00
  1
600
 41
1.00000000E+00
  7
MONOTXT
  0
TEXT
  8
0
 62
7
 10
1.16989063E+02
 20
-2.84000001E+01
 40
6.30000019E+00
  1
425
 41
1.00000000E+00
  7
MONOTXT
  0
TEXT
  8
0
 62
7
 10
1.16989063E+02
 20
-1.84000001E+01
 40
6.30000019E+00
  1
500
 41
1.00000000E+00
  7
MONOTXT
  0
TEXT
  8
0
 62
7
 10
9.17890623E+01
 20
-2.84000001E+01
 40
6.30000019E+00
  1
375
 41
1.00000000E+00
  7
MONOTXT
  0
TEXT
  8
0
 62
7
 10
9.17890623E+01
 20
-1.84000001E+01
 40
6.30000019E+00
  1
450
 41
1.00000000E+00
  7
MONOTXT
  0
TEXT
  8
0
 62
7
 10
6.65890623E+01
 20
-2.84000001E+01
 40
6.30000019E+00
  1
325
 41
1.00000000E+00
  7
MONOTXT
  0
TEXT
  8
0
 62
7
 10
6.65890623E+01
 20
-1.84000001E+01
 40
6.30000019E+00
  1
400
 41
1.00000000E+00
  7
MONOTXT
  0
TEXT
  8
0
 62
7
 10
4.13890623E+01
 20
-2.84000001E+01
 40
6.30000019E+00
  1
275
 41
1.00000000E+00
  7
MONOTXT
  0
TEXT
  8
0
 62
7
 10
4.13890623E+01
 20
-1.84000001E+01
 40
6.30000019E+00
  1
350
 41
1.00000000E+00
  7
MONOTXT
  0
TEXT
  8
0
 62
7
 10
1.61890623E+01
 20
-2.84000001E+01
 40
6.30000019E+00
  1
225
 41
1.00000000E+00
  7
MONOTXT
  0
TEXT
  8
0
 62
7
 10
1.61890623E+01
 20
-1.84000001E+01
 40
6.30000019E+00
  1
300
 41
1.00000000E+00
  7
MONOTXT
  0
TEXT
  8
0
 62
7
 10
-9.01093769E+00
 20
-2.84000001E+01
 40
6.30000019E+00
  1
175
 41
1.00000000E+00
  7
MONOTXT
  0
TEXT
  8
0
 62
7
 10
-9.01093769E+00
 20
-1.84000001E+01
 40
6.30000019E+00
  1
250
 41
1.00000000E+00
  7
MONOTXT
  0
TEXT
  8
0
 62
7
 10
-3.42109377E+01
 20
-2.84000001E+01
 40
6.30000019E+00
  1
125
 41
1.00000000E+00
  7
MONOTXT
  0
TEXT
  8
0
 62
7
 10
-3.42109377E+01
 20
-1.84000001E+01
 40
6.30000019E+00
  1
200
 41
1.00000000E+00
  7
MONOTXT
  0
TEXT
  8
0
 62
7
 10
-5.62609376E+01
 20
-2.84000001E+01
 40
6.30000019E+00
  1
75
 41
1.00000000E+00
  7
MONOTXT
  0
TEXT
  8
0
 62
7
 10
-5.94109377E+01
 20
-1.84000001E+01
 40
6.30000019E+00
  1
150
 41
1.00000000E+00
  7
MONOTXT
  0
TEXT
  8
0
 62
7
 10
-8.14609376E+01
 20
-2.84000001E+01
 40
6.30000019E+00
  1
25
 41
1.00000000E+00
  7
MONOTXT
  0
TEXT
  8
0
 62
7
 10
-8.46109377E+01
 20
-1.84000001E+01
 40
6.30000019E+00
  1
100
 41
1.00000000E+00
  7
MONOTXT
  0
TEXT
  8
0
 62
7
 10
-1.03510937E+02
 20
-2.84000001E+01
 40
6.30000019E+00
  1
0
 41
1.00000000E+00
  7
MONOTXT
  0
TEXT
  8
0
 62
7
 10
-1.06660937E+02
 20
-1.84000001E+01
 40
6.30000019E+00
  1
75
 41
1.00000000E+00
  7
MONOTXT
  0
TEXT
  8
0
 62
7
 10
-1.85410938E+02
 20
-2.84000001E+01
 40
6.30000019E+00
  1
STRETCH
 41
1.00000000E+00
  7
MONOTXT
  0
TEXT
  8
0
 62
7
 10
-1.82260938E+02
 20
-1.84000001E+01
 40
6.30000019E+00
  1
STROKE
 41
1.00000000E+00
  7
MONOTXT
  0
TEXT
  8
0
 62
7
 10
-1.35010937E+02
 20
-2.84000001E+01
 40
6.30000019E+00
  1
-25
 41
1.00000000E+00
  7
MONOTXT
  0
TEXT
  8
0
 62
7
 10
-1.31860937E+02
 20
-1.84000001E+01
 40
6.30000019E+00
  1
50
 41
1.00000000E+00
  7
MONOTXT
  0
LINE
  8
0
 62
7
 10
1.88750000E+02
 20
-3.02500000E+01
 11
1.88750000E+02
 21
-1.02500000E+01
  0
LINE
  8
0
 62
7
 10
1.63550000E+02
 20
-3.02500000E+01
 11
1.63550000E+02
 21
-1.02500000E+01
  0
LINE
  8
0
 62
7
 10
1.38350000E+02
 20
-3.02500000E+01
 11
1.38350000E+02
 21
-1.02500000E+01
  0
LINE
  8
0
 62
7
 10
1.13150000E+02
 20
-3.02500000E+01
 11
1.13150000E+02
 21
-1.02500000E+01
  0
LINE
  8
0
 62
7
 10
8.79500000E+01
 20
-3.02500000E+01
 11
8.79500000E+01
 21
-1.02500000E+01
  0
LINE
  8
0
 62
7
 10
6.27500000E+01
 20
-3.02500000E+01
 11
6.27500000E+01
 21
-1.02500000E+01
  0
LINE
  8
0
 62
7
 10
3.75500000E+01
 20
-3.02500000E+01
 11
3.75500000E+01
 21
-1.02500000E+01
  0
LINE
  8
0
 62
7
 10
1.23500000E+01
 20
-3.02500000E+01
 11
1.23500000E+01
 21
-1.02500000E+01
  0
LINE
  8
0
 62
7
 10
-1.28500000E+01
 20
-3.02500000E+01
 11
-1.28500000E+01
 21
-1.02500000E+01
  0
LINE
  8
0
 62
7
 10
-3.80500000E+01
 20
-3.02500000E+01
 11
-3.80500000E+01
 21
-1.02500000E+01
  0
LINE
  8
0
 62
7
 10
-6.32500000E+01
 20
-3.02500000E+01
 11
-6.32500000E+01
 21
-1.02500000E+01
  0
LINE
  8
0
 62
7
 10
-8.84500000E+01
 20
-3.02500000E+01
 11
-8.84500000E+01
 21
-1.02500000E+01
  0
LINE
  8
0
 62
7
 10
-1.13650000E+02
 20
-3.02500000E+01
 11
-1.13650000E+02
 21
-1.02500000E+01
  0
LINE
  8
0
 62
7
 10
-1.38850000E+02
 20
-3.02500000E+01
 11
-1.38850000E+02
 21
-1.02500000E+01
  0
LINE
  8
0
 62
7
 10
-1.89250000E+02
 20
-3.02500000E+01
 11
2.13950000E+02
 21
-3.02500000E+01
  0
LINE
  8
0
 62
7
 10
-1.89250000E+02
 20
-1.02500000E+01
 11
2.13950000E+02
 21
-1.02500000E+01
  0
LINE
  8
0
 62
7
 10
-1.89250000E+02
 20
-3.02500000E+01
 11
-1.89250000E+02
 21
-1.02500000E+01
  0
LINE
  8
0
 62
7
 10
-1.89250000E+02
 20
-2.02500000E+01
 11
2.13950000E+02
 21
-2.02500000E+01
  0
LINE
  8
0
 62
7
 10
2.79799927E+02
 20
-2.56750000E+02
 11
3.99799805E+02
 21
-2.56750000E+02
  0
LINE
  8
0
 62
7
 10
2.79799927E+02
 20
-2.56750000E+02
 11
2.79799927E+02
 21
-2.76750000E+02
  0
TEXT
  8
0
 62
7
 10
2.87585240E+02
 20
-2.71250000E+02
 40
9.00000000E+00
  1
KOGANEI CORP.
 41
1.04838710E+00
  7
MONOTXT
  0
TEXT
  8
0
 62
7
 10
3.15499641E+02
 20
2.63100000E+02
 40
6.30000019E+00
  1
Ver. 1.0
 41
1.08108124E+00
  7
MONOTXT
  0
LINE
  8
0
 62
7
 10
2.79799927E+02
 20
2.56250000E+02
 11
3.99799805E+02
 21
2.56250000E+02
  0
LINE
  8
0
 62
7
 10
2.79799927E+02
 20
2.76250000E+02
 11
2.79799927E+02
 21
2.56250000E+02
  0
TEXT
  8
0
 62
7
 10
-3.85600562E+02
 20
2.38100000E+02
 40
6.30000019E+00
  1
MODEL:DDAE40*75
 41
1.00000015E+00
  7
MONOTXT
  0
LINE
  8
0
 62
7
 10
-3.99250000E+02
 20
2.56250000E+02
 11
-2.79250000E+02
 21
2.56250000E+02
  0
LINE
  8
0
 62
7
 10
-2.79250000E+02
 20
2.76250000E+02
 11
-2.79250000E+02
 21
2.56250000E+02
  0
TEXT
  8
0
 62
7
 10
-3.91900291E+02
 20
2.63100000E+02
 40
6.30000019E+00
  1
NEW DYNA CYLINDER
 41
1.07594953E+00
  7
MONOTXT
  0
LINE
  8
0
 62
7
 10
-3.99250000E+02
 20
-2.76750000E+02
 11
3.99799805E+02
 21
-2.76750000E+02
  0
LINE
  8
0
 62
7
 10
-3.99250000E+02
 20
2.76250000E+02
 11
3.99799805E+02
 21
2.76250000E+02
  0
LINE
  8
0
 62
7
 10
-3.99250000E+02
 20
2.76250000E+02
 11
-3.99250000E+02
 21
-2.76750000E+02
  0
LINE
  8
0
 62
7
 10
3.99799805E+02
 20
2.76250000E+02
 11
3.99799805E+02
 21
-2.76750000E+02
  0
ENDSEC
  0
EOF
