  0
SECTION
  2
HEADER
  9
$ACADVER
  1
AC1003
  9
$EXTMIN
 10
-5.69500000E+02
 20
-4.00500000E+02
  9
$EXTMAX
 10
5.69500000E+02
 20
4.00500000E+02
  9
$LIMMIN
 10
-5.69501000E+02
 20
-4.00501000E+02
  9
$LIMMAX
 10
5.69501000E+02
 20
4.00501000E+02
  9
$SNAPUNIT
 10
1
 20
1
  9
$SNAPBASE
 10
0
 20
0
  9
$GRIDMODE
 70
0
  9
$GRIDUNIT
 10
0
 20
0
  9
$LTSCALE
 40
1.89833333E+01
  9
$TEXTSIZE
 40
3.2
  9
$DIMTAD
 70
0
  9
$LUNITS
 70
2
  9
$LUPREC
 70
4
  9
$FILLETRAD
 40
0
  9
$AUNITS
 70
0
  9
$AUPREC
 70
0
  0
ENDSEC
  0
SECTION
  2
TABLES
  0
TABLE
  2
LTYPE
 70
2
  0
LTYPE
  2
CONTINUOUS
 70
64
  3
Solid-Line
 72
65
 73
0
 40
0
  0
LTYPE
  2
DASHED
 70
64
  3
DASHED
 72
65
 73
2
 40
.75
 49
.5
 49
-.25
  0
LTYPE
  2
HIDDEN
 70
64
  3
HIDDEN
 72
65
 73
2
 40
.375
 49
.25
 49
-.125
  0
LTYPE
  2
CENTER
 70
64
  3
CENTER
 72
65
 73
4
 40
2
 49
1.25
 49
-.25
 49
.25
 49
-.25
  0
LTYPE
  2
PHANTOM
 70
64
  3
PHANTOM
 72
65
 73
6
 40
2.5
 49
1.25
 49
-.25
 49
.25
 49
-.25
 49
.25
 49
-.25
  0
ENDTAB
  0
TABLE
  2
LAYER
 70
1
  0
LAYER
  2
1
 70
0
 62
7
  6
CONTINUOUS
 0
ENDTAB
  0
TABLE
  2
STYLE
 70
2
  0
STYLE
  2
MONOTXT
 70
0
 40
0
 41
1
 50
0
 71
0
 42
.2
  3
monotxt
  0
STYLE
  2
BIGFONT
 70
0
 40
0
 41
1
 50
0
 71
0
 42
.2
  3
txt
  4
bigfont
  0
ENDTAB
  0
ENDSEC
  0
SECTION
  2
ENTITIES
  0
LINE
  8
0
  6
PHANTOM
 10
-2.95000000E+01
 20
2.81313474E+01
 11
-2.95000000E+01
 21
1.94632131E+02
  0
LINE
  8
0
  6
PHANTOM
 10
1.16999981E+02
 20
2.81313474E+01
 11
1.16999981E+02
 21
1.92001967E+02
  0
LINE
  8
0
  6
CENTER
 62
2
 10
-2.07243382E+02
 20
1.00500000E+02
 11
1.89111042E+02
 21
1.00500000E+02
  0
LINE
  8
0
 62
7
 10
-1.45000004E+02
 20
8.15000000E+01
 11
-1.45000004E+02
 21
1.19500000E+02
  0
LINE
  8
0
 62
7
 10
-1.44500034E+02
 20
8.10000000E+01
 11
-1.40000034E+02
 21
8.10000000E+01
  0
LINE
  8
0
 62
7
 10
-1.20000034E+02
 20
5.34999924E+01
 11
-8.80000343E+01
 21
5.34999924E+01
  0
LINE
  8
0
 62
7
 10
-1.23508747E+02
 20
5.41198004E+01
 11
-8.80000256E+01
 21
5.34999934E+01
  0
LINE
  8
0
 62
7
 10
-1.20000004E+02
 20
5.40585480E+01
 11
-1.20000004E+02
 21
5.34999924E+01
  0
LINE
  8
0
 62
7
 10
-1.25500034E+02
 20
7.85000000E+01
 11
-1.24000034E+02
 21
7.85000000E+01
  0
LINE
  8
0
 62
7
 10
-1.40000019E+02
 20
7.99717331E+01
 11
-1.40000019E+02
 21
1.21028259E+02
  0
LINE
  8
0
 62
7
 10
-1.39517534E+02
 20
7.94720949E+01
 11
-1.26000062E+02
 21
7.90000544E+01
  0
LINE
  8
0
 62
7
 10
-1.26000004E+02
 20
1.21999954E+02
 11
-1.26000004E+02
 21
7.90000153E+01
  0
LINE
  8
0
 62
7
 10
5.89999886E+01
 20
1.00500000E+02
 11
5.89999886E+01
 21
5.46197205E+01
  0
LINE
  8
0
 62
7
 10
5.49999695E+01
 20
5.34999924E+01
 11
2.29999657E+01
 21
5.34999924E+01
  0
LINE
  8
0
 62
7
 10
5.85087110E+01
 20
5.41198392E+01
 11
2.29999746E+01
 21
5.35000319E+01
  0
LINE
  8
0
 62
7
 10
5.49999809E+01
 20
5.40585480E+01
 11
5.49999809E+01
 21
5.34999924E+01
  0
LINE
  8
0
 62
7
 10
6.04999657E+01
 20
7.85000000E+01
 11
5.89999657E+01
 21
7.85000000E+01
  0
LINE
  8
0
 62
7
 10
6.09999809E+01
 20
1.22000000E+02
 11
6.09999809E+01
 21
7.90000153E+01
  0
LINE
  8
0
 62
7
 10
2.29999886E+01
 20
5.69999847E+01
 11
-8.80000191E+01
 21
5.69999847E+01
  0
LINE
  8
0
  6
CENTER
 62
2
 10
6.17791653E+01
 20
6.54999847E+01
 11
-1.26524509E+02
 21
6.54999847E+01
  0
LINE
  8
0
 62
7
 10
2.29999886E+01
 20
6.99999847E+01
 11
-8.80000191E+01
 21
6.99999847E+01
  0
LINE
  8
0
 62
7
 10
2.29999886E+01
 20
6.09999847E+01
 11
-8.80000191E+01
 21
6.09999847E+01
  0
LINE
  8
0
 62
7
 10
-1.44500034E+02
 20
1.19999985E+02
 11
-1.40000034E+02
 21
1.19999985E+02
  0
LINE
  8
0
 62
7
 10
-1.39517550E+02
 20
1.21527927E+02
 11
-1.26000079E+02
 21
1.21999967E+02
  0
LINE
  8
0
 62
7
 10
-1.25500034E+02
 20
1.22500000E+02
 11
-1.24000034E+02
 21
1.22500000E+02
  0
LINE
  8
0
  6
CENTER
 62
2
 10
3.89999733E+01
 20
1.34800049E+02
 11
3.89999733E+01
 21
1.49952652E+02
  0
LINE
  8
0
 62
7
 10
-1.24000019E+02
 20
5.46197205E+01
 11
-1.24000019E+02
 21
1.46380280E+02
  0
LINE
  8
0
 62
7
 10
-8.80000191E+01
 20
5.34999924E+01
 11
-8.80000191E+01
 21
1.47500000E+02
  0
LINE
  8
0
 62
7
 10
-1.20000034E+02
 20
1.47500000E+02
 11
-8.80000343E+01
 21
1.47500000E+02
  0
LINE
  8
0
 62
7
 10
-1.23508792E+02
 20
1.46880208E+02
 11
-8.80000405E+01
 21
1.47500015E+02
  0
LINE
  8
0
 62
7
 10
-1.20000004E+02
 20
1.46941452E+02
 11
-1.20000004E+02
 21
1.47500000E+02
  0
LINE
  8
0
 62
7
 10
5.89999886E+01
 20
1.00500000E+02
 11
5.89999886E+01
 21
1.46380280E+02
  0
LINE
  8
0
 62
7
 10
2.29999886E+01
 20
5.34999924E+01
 11
2.29999886E+01
 21
1.47500000E+02
  0
LINE
  8
0
 62
7
 10
5.49999695E+01
 20
1.47500000E+02
 11
2.29999657E+01
 21
1.47500000E+02
  0
LINE
  8
0
 62
7
 10
5.85086805E+01
 20
1.46880189E+02
 11
2.29999517E+01
 21
1.47499996E+02
  0
LINE
  8
0
 62
7
 10
5.49999809E+01
 20
1.46941452E+02
 11
5.49999809E+01
 21
1.47500000E+02
  0
LINE
  8
0
 62
7
 10
6.04999657E+01
 20
1.22500000E+02
 11
5.89999657E+01
 21
1.22500000E+02
  0
LINE
  8
0
 62
7
 10
2.29999886E+01
 20
1.44000000E+02
 11
1.64999886E+01
 21
1.44000000E+02
  0
LINE
  8
0
  6
CENTER
 62
2
 10
6.17791653E+01
 20
1.35500015E+02
 11
-1.26524509E+02
 21
1.35500015E+02
  0
LINE
  8
0
 62
7
 10
2.29999886E+01
 20
1.31000000E+02
 11
-1.14440918E-05
 21
1.31000000E+02
  0
LINE
  8
0
 62
7
 10
2.29999886E+01
 20
1.40000015E+02
 11
1.49999886E+01
 21
1.40000015E+02
  0
LINE
  8
0
  6
CENTER
 62
2
 10
-1.04000004E+02
 20
1.34800049E+02
 11
-1.04000004E+02
 21
1.49952652E+02
  0
LINE
  8
0
 62
7
 10
-1.57626270E+02
 20
1.11999992E+02
 11
-1.45000004E+02
 21
1.11999992E+02
  0
LINE
  8
0
 62
7
 10
-1.57626270E+02
 20
8.90000076E+01
 11
-1.45000004E+02
 21
8.90000076E+01
  0
LINE
  8
0
 62
7
 10
-1.52738361E+02
 20
1.00500000E+02
 11
-1.45000004E+02
 21
1.00500000E+02
  0
LINE
  8
0
 62
7
 10
-1.58999988E+02
 20
1.11500002E+02
 11
-1.57626267E+02
 21
1.11999996E+02
  0
LINE
  8
0
 62
7
 10
-1.58999989E+02
 20
8.94999771E+01
 11
-1.58999989E+02
 21
1.11500023E+02
  0
LINE
  8
0
 62
7
 10
-1.99000004E+02
 20
1.10000046E+02
 11
-1.99000004E+02
 21
9.09999542E+01
  0
LINE
  8
0
 62
7
 10
-1.61999989E+02
 20
1.11500023E+02
 11
-1.61999989E+02
 21
8.94999847E+01
  0
LINE
  8
0
 62
7
 10
-1.97500034E+02
 20
8.94999771E+01
 11
-1.87000004E+02
 21
8.94999771E+01
  0
LINE
  8
0
 62
7
 10
-1.97500004E+02
 20
1.11500023E+02
 11
-1.97500004E+02
 21
8.94999847E+01
  0
LINE
  8
0
 62
7
 10
-1.99000080E+02
 20
9.10000158E+01
 11
-1.97500067E+02
 21
8.95000035E+01
  0
LINE
  8
0
 62
2
 10
-1.98320072E+02
 20
9.03199921E+01
 11
-1.87000004E+02
 21
9.03199921E+01
  0
LINE
  8
0
 62
2
 10
-1.98320072E+02
 20
1.10680008E+02
 11
-1.87000004E+02
 21
1.10680008E+02
  0
LINE
  8
0
 62
7
 10
-1.99000042E+02
 20
1.09999966E+02
 11
-1.97500024E+02
 21
1.11499984E+02
  0
LINE
  8
0
 62
7
 10
-1.97500034E+02
 20
1.11500023E+02
 11
-1.87000004E+02
 21
1.11500023E+02
  0
LINE
  8
0
 62
7
 10
-1.58999978E+02
 20
8.94999891E+01
 11
-1.57626271E+02
 21
8.90000008E+01
  0
LINE
  8
0
 62
7
 10
-1.61999989E+02
 20
1.10680008E+02
 11
-1.58999989E+02
 21
1.10680008E+02
  0
LINE
  8
0
 62
7
 10
-1.61999989E+02
 20
9.03199921E+01
 11
-1.58999989E+02
 21
9.03199921E+01
  0
LINE
  8
0
 62
2
 10
1.33999972E+02
 20
9.37176729E+01
 11
1.42660532E+02
 21
1.05465386E+02
  0
LINE
  8
0
 62
2
 10
1.33999996E+02
 20
1.07282288E+02
 11
1.42660539E+02
 21
9.55345968E+01
  0
LINE
  8
0
 62
7
 10
1.44000001E+02
 20
8.94999819E+01
 11
1.40999989E+02
 21
8.79999529E+01
  0
LINE
  8
0
 62
7
 10
1.44000001E+02
 20
1.11500038E+02
 11
1.40999989E+02
 21
1.13000067E+02
  0
LINE
  8
0
 62
7
 10
1.43999963E+02
 20
1.03999858E+02
 11
1.40999965E+02
 21
1.07282273E+02
  0
LINE
  8
0
 62
7
 10
1.40999966E+02
 20
9.37176882E+01
 11
1.43999973E+02
 21
9.70001361E+01
  0
LINE
  8
0
 62
7
 10
1.33999989E+02
 20
9.37176895E+01
 11
1.33999989E+02
 21
1.07282280E+02
  0
LINE
  8
0
 62
7
 10
1.82500034E+02
 20
1.11500023E+02
 11
1.71999973E+02
 21
1.11500023E+02
  0
LINE
  8
0
 62
7
 10
1.84000042E+02
 20
1.09999982E+02
 11
1.82500024E+02
 21
1.11500000E+02
  0
LINE
  8
0
 62
7
 10
7.45175167E+01
 20
1.21527921E+02
 11
6.10000430E+01
 21
1.21999961E+02
  0
LINE
  8
0
 62
7
 10
1.41000019E+02
 20
1.13000046E+02
 11
8.00000038E+01
 21
1.13000046E+02
  0
LINE
  8
0
 62
7
 10
7.95000038E+01
 20
1.19999985E+02
 11
7.50000038E+01
 21
1.19999985E+02
  0
LINE
  8
0
 62
7
 10
1.46999973E+02
 20
1.10680008E+02
 11
1.43999973E+02
 21
1.10680008E+02
  0
LINE
  8
0
 62
2
 10
1.83320042E+02
 20
1.10680008E+02
 11
1.71999973E+02
 21
1.10680008E+02
  0
LINE
  8
0
 62
7
 10
1.46999973E+02
 20
9.03199844E+01
 11
1.43999973E+02
 21
9.03199844E+01
  0
LINE
  8
0
 62
2
 10
1.83320042E+02
 20
9.03199844E+01
 11
1.71999973E+02
 21
9.03199844E+01
  0
LINE
  8
0
 62
7
 10
1.84000058E+02
 20
9.10000104E+01
 11
1.82500045E+02
 21
8.94999981E+01
  0
LINE
  8
0
 62
7
 10
1.82499973E+02
 20
1.11500023E+02
 11
1.82499973E+02
 21
8.94999847E+01
  0
LINE
  8
0
 62
7
 10
1.82500034E+02
 20
8.94999695E+01
 11
1.71999973E+02
 21
8.94999695E+01
  0
LINE
  8
0
 62
7
 10
1.46999973E+02
 20
1.11500023E+02
 11
1.46999973E+02
 21
8.94999847E+01
  0
LINE
  8
0
 62
7
 10
1.83999973E+02
 20
1.10000046E+02
 11
1.83999973E+02
 21
9.09999466E+01
  0
LINE
  8
0
 62
7
 10
1.43999973E+02
 20
8.94999695E+01
 11
1.43999973E+02
 21
1.11500023E+02
  0
LINE
  8
0
 62
7
 10
1.40999973E+02
 20
1.07282280E+02
 11
1.33999989E+02
 21
1.07282280E+02
  0
LINE
  8
0
 62
7
 10
1.40999973E+02
 20
1.07282280E+02
 11
1.40999973E+02
 21
1.13000000E+02
  0
LINE
  8
0
 62
7
 10
1.40999973E+02
 20
9.37176895E+01
 11
1.40999973E+02
 21
8.79999619E+01
  0
LINE
  8
0
 62
7
 10
1.41000019E+02
 20
8.79999466E+01
 11
8.00000038E+01
 21
8.79999466E+01
  0
LINE
  8
0
 62
7
 10
1.40999973E+02
 20
9.37176895E+01
 11
1.33999989E+02
 21
9.37176895E+01
  0
LINE
  8
0
 62
7
 10
7.45175002E+01
 20
7.94720932E+01
 11
6.10000284E+01
 21
7.90000527E+01
  0
LINE
  8
0
 62
7
 10
7.49999886E+01
 20
7.99717331E+01
 11
7.49999886E+01
 21
1.21028259E+02
  0
LINE
  8
0
 62
7
 10
7.95000038E+01
 20
8.10000000E+01
 11
7.50000038E+01
 21
8.10000000E+01
  0
LINE
  8
0
 62
7
 10
7.99999733E+01
 20
8.15000000E+01
 11
7.99999733E+01
 21
1.19500000E+02
  0
ARC
  8
0
 62
7
 10
-1.44500019E+02
 20
8.15000000E+01
 40
5.00000000E-01
 50
1.79999977E+02
 51
2.69999974E+02
  0
ARC
  8
0
 62
7
 10
-1.23500019E+02
 20
5.46197205E+01
 40
5.00000000E-01
 50
1.79999977E+02
 51
2.68999679E+02
  0
ARC
  8
0
 62
7
 10
-1.25500019E+02
 20
7.89999924E+01
 40
5.00000000E-01
 50
1.79999977E+02
 51
2.69999974E+02
  0
ARC
  8
0
 62
7
 10
-1.39500004E+02
 20
7.99717331E+01
 40
5.00000000E-01
 50
1.79999977E+02
 51
2.67999192E+02
  0
ARC
  8
0
 62
7
 10
5.84999962E+01
 20
5.46197205E+01
 40
5.00000000E-01
 50
2.71000347E+02
 51
5.46415133E-05
  0
ARC
  8
0
 62
7
 10
6.04999886E+01
 20
7.89999924E+01
 40
5.00000000E-01
 50
2.70000073E+02
 51
5.46415133E-05
  0
ARC
  8
0
 62
7
 10
6.04999886E+01
 20
1.22000000E+02
 40
5.00000000E-01
 50
5.46415133E-05
 51
9.00000369E+01
  0
ARC
  8
0
 62
7
 10
-1.44500019E+02
 20
1.19500000E+02
 40
5.00000000E-01
 50
8.99999818E+01
 51
1.79999964E+02
  0
ARC
  8
0
 62
7
 10
-1.39500004E+02
 20
1.21028259E+02
 40
5.00000000E-01
 50
9.20007356E+01
 51
1.79999964E+02
  0
ARC
  8
0
 62
7
 10
-1.25500019E+02
 20
1.22000000E+02
 40
5.00000000E-01
 50
8.99999818E+01
 51
1.79999964E+02
  0
ARC
  8
0
 62
7
 10
5.84999962E+01
 20
1.46380280E+02
 40
5.00000000E-01
 50
3.59999891E+02
 51
8.89995981E+01
  0
ARC
  8
0
 62
7
 10
-1.23500019E+02
 20
1.46380280E+02
 40
5.00000000E-01
 50
9.10002493E+01
 51
1.79999964E+02
  0
ARC
  8
0
 62
7
 10
1.44500004E+02
 20
1.00499985E+02
 40
1.25000010E+01
 50
1.47140306E+02
 51
2.12859690E+02
  0
ARC
  8
0
 62
7
 10
7.94999886E+01
 20
1.19500000E+02
 40
5.00000000E-01
 50
3.59721781E-05
 51
9.00000162E+01
  0
ARC
  8
0
 62
7
 10
7.44999733E+01
 20
1.21028259E+02
 40
5.00000000E-01
 50
3.59721781E-05
 51
8.79992625E+01
  0
ARC
  8
0
 62
7
 10
7.44999733E+01
 20
7.99717331E+01
 40
5.00000000E-01
 50
2.72000806E+02
 51
2.23117997E-05
  0
ARC
  8
0
 62
7
 10
7.94999886E+01
 20
8.15000000E+01
 40
5.00000000E-01
 50
2.70000025E+02
 51
2.23117997E-05
  0
POLYLINE
  8
0
 62
7
 66
1
  0
VERTEX
  8
0
 62
7
 10
-1.52738361E+02
 20
1.11999992E+02
  0
VERTEX
  8
0
 62
7
 10
-1.53176510E+02
 20
1.11976845E+02
  0
VERTEX
  8
0
 62
7
 10
-1.53611131E+02
 20
1.11907588E+02
  0
VERTEX
  8
0
 62
7
 10
-1.54038725E+02
 20
1.11792779E+02
  0
VERTEX
  8
0
 62
7
 10
-1.54455849E+02
 20
1.11633343E+02
  0
VERTEX
  8
0
 62
7
 10
-1.54859145E+02
 20
1.11430564E+02
  0
VERTEX
  8
0
 62
7
 10
-1.55245366E+02
 20
1.11186074E+02
  0
VERTEX
  8
0
 62
7
 10
-1.55611402E+02
 20
1.10901842E+02
  0
VERTEX
  8
0
 62
7
 10
-1.55954306E+02
 20
1.10580155E+02
  0
VERTEX
  8
0
 62
7
 10
-1.56271316E+02
 20
1.10223605E+02
  0
VERTEX
  8
0
 62
7
 10
-1.56559882E+02
 20
1.09835062E+02
  0
VERTEX
  8
0
 62
7
 10
-1.56817679E+02
 20
1.09417653E+02
  0
VERTEX
  8
0
 62
7
 10
-1.57042632E+02
 20
1.08974741E+02
  0
VERTEX
  8
0
 62
7
 10
-1.57232929E+02
 20
1.08509891E+02
  0
VERTEX
  8
0
 62
7
 10
-1.57387039E+02
 20
1.08026845E+02
  0
VERTEX
  8
0
 62
7
 10
-1.57503720E+02
 20
1.07529494E+02
  0
VERTEX
  8
0
 62
7
 10
-1.57582033E+02
 20
1.07021840E+02
  0
VERTEX
  8
0
 62
7
 10
-1.57621348E+02
 20
1.06507972E+02
  0
VERTEX
  8
0
 62
7
 10
-1.57621348E+02
 20
1.05992028E+02
  0
VERTEX
  8
0
 62
7
 10
-1.57582033E+02
 20
1.05478160E+02
  0
VERTEX
  8
0
 62
7
 10
-1.57503720E+02
 20
1.04970506E+02
  0
VERTEX
  8
0
 62
7
 10
-1.57387039E+02
 20
1.04473155E+02
  0
VERTEX
  8
0
 62
7
 10
-1.57232929E+02
 20
1.03990109E+02
  0
VERTEX
  8
0
 62
7
 10
-1.57042632E+02
 20
1.03525259E+02
  0
VERTEX
  8
0
 62
7
 10
-1.56817679E+02
 20
1.03082347E+02
  0
VERTEX
  8
0
 62
7
 10
-1.56559882E+02
 20
1.02664938E+02
  0
VERTEX
  8
0
 62
7
 10
-1.56271316E+02
 20
1.02276395E+02
  0
VERTEX
  8
0
 62
7
 10
-1.55954306E+02
 20
1.01919845E+02
  0
VERTEX
  8
0
 62
7
 10
-1.55611402E+02
 20
1.01598158E+02
  0
VERTEX
  8
0
 62
7
 10
-1.55245366E+02
 20
1.01313926E+02
  0
VERTEX
  8
0
 62
7
 10
-1.54859145E+02
 20
1.01069436E+02
  0
VERTEX
  8
0
 62
7
 10
-1.54455849E+02
 20
1.00866657E+02
  0
VERTEX
  8
0
 62
7
 10
-1.54038725E+02
 20
1.00707221E+02
  0
VERTEX
  8
0
 62
7
 10
-1.53611131E+02
 20
1.00592412E+02
  0
VERTEX
  8
0
 62
7
 10
-1.53176510E+02
 20
1.00523155E+02
  0
VERTEX
  8
0
 62
7
 10
-1.52738361E+02
 20
1.00500008E+02
  0
SEQEND
  8
0
  0
POLYLINE
  8
0
 62
7
 66
1
  0
VERTEX
  8
0
 62
7
 10
-1.52738361E+02
 20
1.00500004E+02
  0
VERTEX
  8
0
 62
7
 10
-1.53176510E+02
 20
1.00476856E+02
  0
VERTEX
  8
0
 62
7
 10
-1.53611131E+02
 20
1.00407599E+02
  0
VERTEX
  8
0
 62
7
 10
-1.54038725E+02
 20
1.00292790E+02
  0
VERTEX
  8
0
 62
7
 10
-1.54455849E+02
 20
1.00133354E+02
  0
VERTEX
  8
0
 62
7
 10
-1.54859145E+02
 20
9.99305744E+01
  0
VERTEX
  8
0
 62
7
 10
-1.55245366E+02
 20
9.96860838E+01
  0
VERTEX
  8
0
 62
7
 10
-1.55611402E+02
 20
9.94018508E+01
  0
VERTEX
  8
0
 62
7
 10
-1.55954306E+02
 20
9.90801638E+01
  0
VERTEX
  8
0
 62
7
 10
-1.56271316E+02
 20
9.87236129E+01
  0
VERTEX
  8
0
 62
7
 10
-1.56559882E+02
 20
9.83350687E+01
  0
VERTEX
  8
0
 62
7
 10
-1.56817679E+02
 20
9.79176597E+01
  0
VERTEX
  8
0
 62
7
 10
-1.57042632E+02
 20
9.74747466E+01
  0
VERTEX
  8
0
 62
7
 10
-1.57232929E+02
 20
9.70098954E+01
  0
VERTEX
  8
0
 62
7
 10
-1.57387039E+02
 20
9.65268489E+01
  0
VERTEX
  8
0
 62
7
 10
-1.57503720E+02
 20
9.60294962E+01
  0
VERTEX
  8
0
 62
7
 10
-1.57582033E+02
 20
9.55218418E+01
  0
VERTEX
  8
0
 62
7
 10
-1.57621348E+02
 20
9.50079729E+01
  0
VERTEX
  8
0
 62
7
 10
-1.57621348E+02
 20
9.44920270E+01
  0
VERTEX
  8
0
 62
7
 10
-1.57582033E+02
 20
9.39781582E+01
  0
VERTEX
  8
0
 62
7
 10
-1.57503720E+02
 20
9.34705038E+01
  0
VERTEX
  8
0
 62
7
 10
-1.57387039E+02
 20
9.29731511E+01
  0
VERTEX
  8
0
 62
7
 10
-1.57232929E+02
 20
9.24901046E+01
  0
VERTEX
  8
0
 62
7
 10
-1.57042632E+02
 20
9.20252534E+01
  0
VERTEX
  8
0
 62
7
 10
-1.56817679E+02
 20
9.15823403E+01
  0
VERTEX
  8
0
 62
7
 10
-1.56559882E+02
 20
9.11649313E+01
  0
VERTEX
  8
0
 62
7
 10
-1.56271316E+02
 20
9.07763871E+01
  0
VERTEX
  8
0
 62
7
 10
-1.55954306E+02
 20
9.04198362E+01
  0
VERTEX
  8
0
 62
7
 10
-1.55611402E+02
 20
9.00981492E+01
  0
VERTEX
  8
0
 62
7
 10
-1.55245366E+02
 20
8.98139162E+01
  0
VERTEX
  8
0
 62
7
 10
-1.54859145E+02
 20
8.95694256E+01
  0
VERTEX
  8
0
 62
7
 10
-1.54455849E+02
 20
8.93666459E+01
  0
VERTEX
  8
0
 62
7
 10
-1.54038725E+02
 20
8.92072099E+01
  0
VERTEX
  8
0
 62
7
 10
-1.53611131E+02
 20
8.90924011E+01
  0
VERTEX
  8
0
 62
7
 10
-1.53176510E+02
 20
8.90231440E+01
  0
VERTEX
  8
0
 62
7
 10
-1.52738361E+02
 20
8.89999962E+01
  0
SEQEND
  8
0
  0
LINE
  8
0
 62
7
 10
-1.74000004E+02
 20
1.10000046E+02
 11
-1.74000004E+02
 21
9.09999542E+01
  0
LINE
  8
0
 62
7
 10
1.71999973E+02
 20
1.10000046E+02
 11
1.71999973E+02
 21
9.09999466E+01
  0
ARC
  8
0
 62
4
 10
-1.78437401E+02
 20
1.14220553E+02
 40
8.56342793E+00
 50
1.46410665E+02
 51
2.13589318E+02
  0
ARC
  8
0
 62
4
 10
-1.57945204E+02
 20
1.00482943E+02
 40
2.90548000E+01
 50
1.61955287E+02
 51
1.98044695E+02
  0
ARC
  8
0
 62
4
 10
-1.78437401E+02
 20
8.67453331E+01
 40
8.56342793E+00
 50
1.46410624E+02
 51
2.13589277E+02
  0
ARC
  8
0
 62
4
 10
-1.82562607E+02
 20
1.14220553E+02
 40
8.56342793E+00
 50
3.26410605E+02
 51
3.35892584E+01
  0
ARC
  8
0
 62
4
 10
-2.03054799E+02
 20
1.00482943E+02
 40
2.90548000E+01
 50
3.41955269E+02
 51
1.80446768E+01
  0
ARC
  8
0
 62
4
 10
-1.82562607E+02
 20
8.67453331E+01
 40
8.56342793E+00
 50
3.26410646E+02
 51
3.35892994E+01
  0
LINE
  8
0
 62
4
 10
-1.85570942E+02
 20
1.09482943E+02
 11
-1.75429066E+02
 21
1.09482943E+02
  0
LINE
  8
0
 62
4
 10
-1.85570942E+02
 20
9.14829430E+01
 11
-1.75429066E+02
 21
9.14829430E+01
  0
LINE
  8
0
 62
4
 10
-1.75429084E+02
 20
1.18958119E+02
 11
-1.74000011E+02
 21
1.16482931E+02
  0
LINE
  8
0
 62
4
 10
-1.86999967E+02
 20
8.44829893E+01
 11
-1.85570912E+02
 21
8.20077994E+01
  0
LINE
  8
0
 62
4
 10
-1.75429039E+02
 20
8.20077861E+01
 11
-1.73999993E+02
 21
8.44829145E+01
  0
LINE
  8
0
 62
4
 10
-1.87000020E+02
 20
1.16482946E+02
 11
-1.85570937E+02
 21
1.18958163E+02
  0
LINE
  8
0
 62
4
 10
-1.74000004E+02
 20
1.16482947E+02
 11
-1.74000004E+02
 21
8.44829430E+01
  0
LINE
  8
0
 62
4
 10
-1.87000004E+02
 20
1.16482947E+02
 11
-1.87000004E+02
 21
8.44829430E+01
  0
LINE
  8
0
 62
4
 10
-1.85570942E+02
 20
1.18958167E+02
 11
-1.75429066E+02
 21
1.18958167E+02
  0
LINE
  8
0
 62
4
 10
-1.85570942E+02
 20
8.20077251E+01
 11
-1.75429066E+02
 21
8.20077251E+01
  0
LINE
  8
0
 62
4
 10
1.60429035E+02
 20
8.20077251E+01
 11
1.70570911E+02
 21
8.20077251E+01
  0
LINE
  8
0
 62
4
 10
1.60429035E+02
 20
1.18958167E+02
 11
1.70570911E+02
 21
1.18958167E+02
  0
LINE
  8
0
 62
4
 10
1.58999974E+02
 20
1.16482947E+02
 11
1.58999974E+02
 21
8.44829430E+01
  0
LINE
  8
0
 62
4
 10
1.71999973E+02
 20
1.16482947E+02
 11
1.71999973E+02
 21
8.44829430E+01
  0
LINE
  8
0
 62
4
 10
1.58999957E+02
 20
1.16482946E+02
 11
1.60429040E+02
 21
1.18958163E+02
  0
LINE
  8
0
 62
4
 10
1.70570938E+02
 20
8.20077861E+01
 11
1.71999984E+02
 21
8.44829145E+01
  0
LINE
  8
0
 62
4
 10
1.59000010E+02
 20
8.44829893E+01
 11
1.60429065E+02
 21
8.20077994E+01
  0
LINE
  8
0
 62
4
 10
1.70570893E+02
 20
1.18958119E+02
 11
1.71999966E+02
 21
1.16482931E+02
  0
LINE
  8
0
 62
4
 10
1.60429035E+02
 20
9.14829430E+01
 11
1.70570911E+02
 21
9.14829430E+01
  0
LINE
  8
0
 62
4
 10
1.60429035E+02
 20
1.09482943E+02
 11
1.70570911E+02
 21
1.09482943E+02
  0
ARC
  8
0
 62
4
 10
1.63437371E+02
 20
8.67453331E+01
 40
8.56342793E+00
 50
3.26410646E+02
 51
3.35892994E+01
  0
ARC
  8
0
 62
4
 10
1.42945178E+02
 20
1.00482943E+02
 40
2.90548000E+01
 50
3.41955269E+02
 51
1.80446768E+01
  0
ARC
  8
0
 62
4
 10
1.63437371E+02
 20
1.14220553E+02
 40
8.56342793E+00
 50
3.26410605E+02
 51
3.35892584E+01
  0
ARC
  8
0
 62
4
 10
1.67562576E+02
 20
8.67453331E+01
 40
8.56342793E+00
 50
1.46410624E+02
 51
2.13589277E+02
  0
ARC
  8
0
 62
4
 10
1.88054774E+02
 20
1.00482943E+02
 40
2.90548000E+01
 50
1.61955287E+02
 51
1.98044695E+02
  0
ARC
  8
0
 62
4
 10
1.67562576E+02
 20
1.14220553E+02
 40
8.56342793E+00
 50
1.46410665E+02
 51
2.13589318E+02
  0
LINE
  8
0
 62
2
 10
1.58999974E+02
 20
9.03199844E+01
 11
1.46999973E+02
 21
9.03199844E+01
  0
LINE
  8
0
 62
7
 10
1.58999974E+02
 20
8.94999695E+01
 11
1.46999973E+02
 21
8.94999695E+01
  0
LINE
  8
0
 62
7
 10
1.58999974E+02
 20
1.11500023E+02
 11
1.46999973E+02
 21
1.11500023E+02
  0
LINE
  8
0
 62
2
 10
1.58999974E+02
 20
1.10680008E+02
 11
1.46999973E+02
 21
1.10680008E+02
  0
LINE
  8
0
 62
7
 10
-1.74000004E+02
 20
8.94999771E+01
 11
-1.61999989E+02
 21
8.94999771E+01
  0
LINE
  8
0
 62
2
 10
-1.74000004E+02
 20
9.03199921E+01
 11
-1.61999989E+02
 21
9.03199921E+01
  0
LINE
  8
0
 62
2
 10
-1.74000004E+02
 20
1.10680008E+02
 11
-1.61999989E+02
 21
1.10680008E+02
  0
LINE
  8
0
 62
7
 10
-1.74000004E+02
 20
1.11500023E+02
 11
-1.61999989E+02
 21
1.11500023E+02
  0
LINE
  8
0
 62
6
 10
-3.57320394E+01
 20
1.40726428E+02
 11
-3.22679378E+01
 21
1.46726428E+02
  0
LINE
  8
0
 62
6
 10
-2.32678767E+01
 20
1.46726428E+02
 11
-2.67319783E+01
 21
1.40726428E+02
  0
LINE
  8
0
 62
4
 10
-1.49999275E+01
 20
1.45226428E+02
 11
-2.41339021E+01
 21
1.45226428E+02
  0
LINE
  8
0
  6
CENTER
 62
6
 10
2.00000725E+01
 20
1.43726428E+02
 11
-2.69999275E+01
 21
1.43726428E+02
  0
LINE
  8
0
 62
4
 10
-1.49999275E+01
 20
1.42226428E+02
 11
-2.58659529E+01
 21
1.42226428E+02
  0
LINE
  8
0
 62
4
 10
-5.04999885E+01
 20
1.45226428E+02
 11
-3.31339631E+01
 21
1.45226428E+02
  0
LINE
  8
0
 62
4
 10
1.64999886E+01
 20
1.42248896E+02
 11
1.49999886E+01
 21
1.41122847E+02
  0
LINE
  8
0
 62
4
 10
1.64999886E+01
 20
1.43097380E+02
 11
1.49999886E+01
 21
1.42621274E+02
  0
LINE
  8
0
 62
4
 10
1.64999886E+01
 20
1.45197451E+02
 11
1.64999886E+01
 21
1.42248896E+02
  0
LINE
  8
0
 62
4
 10
1.49999886E+01
 20
1.46330009E+02
 11
1.64999886E+01
 21
1.45197451E+02
  0
LINE
  8
0
 62
4
 10
-7.39999886E+01
 20
1.44000000E+02
 11
-7.39999886E+01
 21
1.56361392E+02
  0
LINE
  8
0
 62
4
 10
-4.39999886E+01
 20
1.45226428E+02
 11
-4.39999886E+01
 21
1.56361392E+02
  0
LINE
  8
0
 62
4
 10
-1.50000114E+01
 20
1.24976467E+02
 11
-1.50000114E+01
 21
1.56361392E+02
  0
LINE
  8
0
  6
CENTER
 62
6
 10
1.10745854E+01
 20
1.48330616E+02
 11
3.92539167E+00
 21
1.48330616E+02
  0
LINE
  8
0
  6
CENTER
 62
6
 10
7.49998856E+00
 20
1.51905213E+02
 11
7.49998856E+00
 21
1.44756020E+02
  0
LINE
  8
0
 62
4
 10
1.49999886E+01
 20
1.56361392E+02
 11
1.49999886E+01
 21
1.37518159E+02
  0
LINE
  8
0
 62
4
 10
-1.14440918E-05
 20
1.24976467E+02
 11
-1.14440918E-05
 21
1.56361392E+02
  0
LINE
  8
0
  6
CENTER
 62
6
 10
-1.50000114E+01
 20
1.29159701E+02
 11
-8.00001144E+00
 21
1.29159701E+02
  0
LINE
  8
0
  6
CENTER
 62
6
 10
-1.15000114E+01
 20
1.25659701E+02
 11
-1.15000114E+01
 21
1.32659701E+02
  0
LINE
  8
0
  6
CENTER
 62
6
 10
-7.00001144E+00
 20
1.29159701E+02
 11
-1.14440918E-05
 21
1.29159701E+02
  0
LINE
  8
0
  6
CENTER
 62
6
 10
-3.50001144E+00
 20
1.25659701E+02
 11
-3.50001144E+00
 21
1.32659701E+02
  0
LINE
  8
0
 62
4
 10
-1.50000114E+01
 20
1.56361392E+02
 11
1.49999885E+01
 21
1.56361392E+02
  0
LINE
  8
0
 62
4
 10
-1.50000114E+01
 20
1.24976467E+02
 11
-1.14440918E-05
 21
1.24976467E+02
  0
LINE
  8
0
 62
4
 10
-1.50000115E+01
 20
1.52502944E+02
 11
1.49999885E+01
 21
1.52502944E+02
  0
LINE
  8
0
 62
4
 10
-1.50000115E+01
 20
1.49880698E+02
 11
-1.14511321E-05
 21
1.49880698E+02
  0
LINE
  8
0
 62
4
 10
-1.40000115E+01
 20
1.36049423E+02
 11
-1.00001145E+00
 21
1.36049423E+02
  0
LINE
  8
0
 62
4
 10
-1.14511321E-05
 20
1.37518159E+02
 11
1.49999885E+01
 21
1.37518159E+02
  0
LINE
  8
0
 62
4
 10
-1.14511321E-05
 20
1.44621881E+02
 11
1.49999885E+01
 21
1.44621881E+02
  0
LINE
  8
0
 62
4
 10
-1.14511321E-05
 20
1.44472038E+02
 11
1.49999885E+01
 21
1.44472038E+02
  0
POLYLINE
  8
0
 62
4
 66
1
  0
VERTEX
  8
0
 62
4
 10
5.24998856E+00
 20
1.48330616E+02
  0
VERTEX
  8
0
 62
4
 10
5.25855049E+00
 20
1.48148795E+02
  0
VERTEX
  8
0
 62
4
 10
5.28417111E+00
 20
1.47968357E+02
  0
VERTEX
  8
0
 62
4
 10
5.32665545E+00
 20
1.47790677E+02
  0
VERTEX
  8
0
 62
4
 10
5.38568016E+00
 20
1.47617106E+02
  0
VERTEX
  8
0
 62
4
 10
5.46079604E+00
 20
1.47448965E+02
  0
VERTEX
  8
0
 62
4
 10
5.55143140E+00
 20
1.47287534E+02
  0
VERTEX
  8
0
 62
4
 10
5.65689646E+00
 20
1.47134042E+02
  0
VERTEX
  8
0
 62
4
 10
5.77638856E+00
 20
1.46989656E+02
  0
VERTEX
  8
0
 62
4
 10
5.90899830E+00
 20
1.46855476E+02
  0
VERTEX
  8
0
 62
4
 10
6.05371643E+00
 20
1.46732522E+02
  0
VERTEX
  8
0
 62
4
 10
6.20944157E+00
 20
1.46621731E+02
  0
VERTEX
  8
0
 62
4
 10
6.37498855E+00
 20
1.46523945E+02
  0
VERTEX
  8
0
 62
4
 10
6.54909747E+00
 20
1.46439910E+02
  0
VERTEX
  8
0
 62
4
 10
6.73044323E+00
 20
1.46370263E+02
  0
VERTEX
  8
0
 62
4
 10
6.91764570E+00
 20
1.46315537E+02
  0
VERTEX
  8
0
 62
4
 10
7.10928015E+00
 20
1.46276146E+02
  0
VERTEX
  8
0
 62
4
 10
7.30388813E+00
 20
1.46252391E+02
  0
VERTEX
  8
0
 62
4
 10
7.49998855E+00
 20
1.46244452E+02
  0
VERTEX
  8
0
 62
4
 10
7.69608898E+00
 20
1.46252391E+02
  0
VERTEX
  8
0
 62
4
 10
7.89069695E+00
 20
1.46276146E+02
  0
VERTEX
  8
0
 62
4
 10
8.08233141E+00
 20
1.46315537E+02
  0
VERTEX
  8
0
 62
4
 10
8.26953388E+00
 20
1.46370263E+02
  0
VERTEX
  8
0
 62
4
 10
8.45087964E+00
 20
1.46439910E+02
  0
VERTEX
  8
0
 62
4
 10
8.62498856E+00
 20
1.46523945E+02
  0
VERTEX
  8
0
 62
4
 10
8.79053554E+00
 20
1.46621731E+02
  0
VERTEX
  8
0
 62
4
 10
8.94626068E+00
 20
1.46732522E+02
  0
VERTEX
  8
0
 62
4
 10
9.09097881E+00
 20
1.46855476E+02
  0
VERTEX
  8
0
 62
4
 10
9.22358855E+00
 20
1.46989656E+02
  0
VERTEX
  8
0
 62
4
 10
9.34308066E+00
 20
1.47134042E+02
  0
VERTEX
  8
0
 62
4
 10
9.44854572E+00
 20
1.47287534E+02
  0
VERTEX
  8
0
 62
4
 10
9.53918108E+00
 20
1.47448965E+02
  0
VERTEX
  8
0
 62
4
 10
9.61429696E+00
 20
1.47617106E+02
  0
VERTEX
  8
0
 62
4
 10
9.67332167E+00
 20
1.47790677E+02
  0
VERTEX
  8
0
 62
4
 10
9.71580600E+00
 20
1.47968357E+02
  0
VERTEX
  8
0
 62
4
 10
9.74142663E+00
 20
1.48148795E+02
  0
VERTEX
  8
0
 62
4
 10
9.74998856E+00
 20
1.48330616E+02
  0
VERTEX
  8
0
 62
4
 10
9.74142663E+00
 20
1.48512437E+02
  0
VERTEX
  8
0
 62
4
 10
9.71580600E+00
 20
1.48692875E+02
  0
VERTEX
  8
0
 62
4
 10
9.67332167E+00
 20
1.48870555E+02
  0
VERTEX
  8
0
 62
4
 10
9.61429696E+00
 20
1.49044126E+02
  0
VERTEX
  8
0
 62
4
 10
9.53918108E+00
 20
1.49212267E+02
  0
VERTEX
  8
0
 62
4
 10
9.44854572E+00
 20
1.49373698E+02
  0
VERTEX
  8
0
 62
4
 10
9.34308066E+00
 20
1.49527190E+02
  0
VERTEX
  8
0
 62
4
 10
9.22358856E+00
 20
1.49671576E+02
  0
VERTEX
  8
0
 62
4
 10
9.09097882E+00
 20
1.49805756E+02
  0
VERTEX
  8
0
 62
4
 10
8.94626068E+00
 20
1.49928710E+02
  0
VERTEX
  8
0
 62
4
 10
8.79053554E+00
 20
1.50039501E+02
  0
VERTEX
  8
0
 62
4
 10
8.62498856E+00
 20
1.50137287E+02
  0
VERTEX
  8
0
 62
4
 10
8.45087965E+00
 20
1.50221322E+02
  0
VERTEX
  8
0
 62
4
 10
8.26953389E+00
 20
1.50290969E+02
  0
VERTEX
  8
0
 62
4
 10
8.08233141E+00
 20
1.50345695E+02
  0
VERTEX
  8
0
 62
4
 10
7.89069696E+00
 20
1.50385086E+02
  0
VERTEX
  8
0
 62
4
 10
7.69608898E+00
 20
1.50408841E+02
  0
VERTEX
  8
0
 62
4
 10
7.49998856E+00
 20
1.50416780E+02
  0
VERTEX
  8
0
 62
4
 10
7.30388814E+00
 20
1.50408841E+02
  0
VERTEX
  8
0
 62
4
 10
7.10928016E+00
 20
1.50385086E+02
  0
VERTEX
  8
0
 62
4
 10
6.91764571E+00
 20
1.50345695E+02
  0
VERTEX
  8
0
 62
4
 10
6.73044324E+00
 20
1.50290969E+02
  0
VERTEX
  8
0
 62
4
 10
6.54909747E+00
 20
1.50221322E+02
  0
VERTEX
  8
0
 62
4
 10
6.37498856E+00
 20
1.50137287E+02
  0
VERTEX
  8
0
 62
4
 10
6.20944158E+00
 20
1.50039501E+02
  0
VERTEX
  8
0
 62
4
 10
6.05371644E+00
 20
1.49928710E+02
  0
VERTEX
  8
0
 62
4
 10
5.90899830E+00
 20
1.49805756E+02
  0
VERTEX
  8
0
 62
4
 10
5.77638856E+00
 20
1.49671576E+02
  0
VERTEX
  8
0
 62
4
 10
5.65689646E+00
 20
1.49527190E+02
  0
VERTEX
  8
0
 62
4
 10
5.55143140E+00
 20
1.49373698E+02
  0
VERTEX
  8
0
 62
4
 10
5.46079604E+00
 20
1.49212267E+02
  0
VERTEX
  8
0
 62
4
 10
5.38568016E+00
 20
1.49044126E+02
  0
VERTEX
  8
0
 62
4
 10
5.32665545E+00
 20
1.48870555E+02
  0
VERTEX
  8
0
 62
4
 10
5.28417112E+00
 20
1.48692875E+02
  0
VERTEX
  8
0
 62
4
 10
5.25855049E+00
 20
1.48512437E+02
  0
VERTEX
  8
0
 62
4
 10
5.24998856E+00
 20
1.48330616E+02
  0
SEQEND
  8
0
  0
POLYLINE
  8
0
 62
4
 66
1
  0
VERTEX
  8
0
 62
4
 10
-1.50001144E+00
 20
1.29159701E+02
  0
VERTEX
  8
0
 62
4
 10
-1.50806285E+00
 20
1.29325925E+02
  0
VERTEX
  8
0
 62
4
 10
-1.53215226E+00
 20
1.29490811E+02
  0
VERTEX
  8
0
 62
4
 10
-1.57208571E+00
 20
1.29653031E+02
  0
VERTEX
  8
0
 62
4
 10
-1.62754169E+00
 20
1.29811279E+02
  0
VERTEX
  8
0
 62
4
 10
-1.69807370E+00
 20
1.29964281E+02
  0
VERTEX
  8
0
 62
4
 10
-1.78311385E+00
 20
1.30110805E+02
  0
VERTEX
  8
0
 62
4
 10
-1.88197744E+00
 20
1.30249671E+02
  0
VERTEX
  8
0
 62
4
 10
-1.99386850E+00
 20
1.30379761E+02
  0
VERTEX
  8
0
 62
4
 10
-2.11788613E+00
 20
1.30500028E+02
  0
VERTEX
  8
0
 62
4
 10
-2.25303182E+00
 20
1.30609504E+02
  0
VERTEX
  8
0
 62
4
 10
-2.39821746E+00
 20
1.30707307E+02
  0
VERTEX
  8
0
 62
4
 10
-2.55227410E+00
 20
1.30792649E+02
  0
VERTEX
  8
0
 62
4
 10
-2.71396136E+00
 20
1.30864844E+02
  0
VERTEX
  8
0
 62
4
 10
-2.88197744E+00
 20
1.30923309E+02
  0
VERTEX
  8
0
 62
4
 10
-3.05496956E+00
 20
1.30967576E+02
  0
VERTEX
  8
0
 62
4
 10
-3.23154489E+00
 20
1.30997286E+02
  0
VERTEX
  8
0
 62
4
 10
-3.41028176E+00
 20
1.31012201E+02
  0
VERTEX
  8
0
 62
4
 10
-3.58974108E+00
 20
1.31012201E+02
  0
VERTEX
  8
0
 62
4
 10
-3.76847795E+00
 20
1.30997286E+02
  0
VERTEX
  8
0
 62
4
 10
-3.94505329E+00
 20
1.30967576E+02
  0
VERTEX
  8
0
 62
4
 10
-4.11804541E+00
 20
1.30923309E+02
  0
VERTEX
  8
0
 62
4
 10
-4.28606149E+00
 20
1.30864844E+02
  0
VERTEX
  8
0
 62
4
 10
-4.44774875E+00
 20
1.30792649E+02
  0
VERTEX
  8
0
 62
4
 10
-4.60180539E+00
 20
1.30707307E+02
  0
VERTEX
  8
0
 62
4
 10
-4.74699103E+00
 20
1.30609504E+02
  0
VERTEX
  8
0
 62
4
 10
-4.88213672E+00
 20
1.30500028E+02
  0
VERTEX
  8
0
 62
4
 10
-5.00615436E+00
 20
1.30379761E+02
  0
VERTEX
  8
0
 62
4
 10
-5.11804542E+00
 20
1.30249671E+02
  0
VERTEX
  8
0
 62
4
 10
-5.21690902E+00
 20
1.30110805E+02
  0
VERTEX
  8
0
 62
4
 10
-5.30194917E+00
 20
1.29964281E+02
  0
VERTEX
  8
0
 62
4
 10
-5.37248117E+00
 20
1.29811279E+02
  0
VERTEX
  8
0
 62
4
 10
-5.42793716E+00
 20
1.29653031E+02
  0
VERTEX
  8
0
 62
4
 10
-5.46787061E+00
 20
1.29490811E+02
  0
VERTEX
  8
0
 62
4
 10
-5.49196003E+00
 20
1.29325925E+02
  0
VERTEX
  8
0
 62
4
 10
-5.50001144E+00
 20
1.29159701E+02
  0
SEQEND
  8
0
  0
LINE
  8
0
 62
4
 10
-5.50001144E+00
 20
1.27682824E+02
 11
-5.50001144E+00
 21
1.29159701E+02
  0
LINE
  8
0
 62
4
 10
-1.50001144E+00
 20
1.27682824E+02
 11
-1.50001144E+00
 21
1.29159701E+02
  0
POLYLINE
  8
0
 62
4
 66
1
  0
VERTEX
  8
0
 62
4
 10
-5.50001144E+00
 20
1.27682824E+02
  0
VERTEX
  8
0
 62
4
 10
-5.49240084E+00
 20
1.27521205E+02
  0
VERTEX
  8
0
 62
4
 10
-5.46962695E+00
 20
1.27360816E+02
  0
VERTEX
  8
0
 62
4
 10
-5.43186309E+00
 20
1.27202878E+02
  0
VERTEX
  8
0
 62
4
 10
-5.37939668E+00
 20
1.27048593E+02
  0
VERTEX
  8
0
 62
4
 10
-5.31262702E+00
 20
1.26899134E+02
  0
VERTEX
  8
0
 62
4
 10
-5.23206225E+00
 20
1.26755640E+02
  0
VERTEX
  8
0
 62
4
 10
-5.13831553E+00
 20
1.26619202E+02
  0
VERTEX
  8
0
 62
4
 10
-5.03210033E+00
 20
1.26490859E+02
  0
VERTEX
  8
0
 62
4
 10
-4.91422501E+00
 20
1.26371588E+02
  0
VERTEX
  8
0
 62
4
 10
-4.78558666E+00
 20
1.26262296E+02
  0
VERTEX
  8
0
 62
4
 10
-4.64716432E+00
 20
1.26163815E+02
  0
VERTEX
  8
0
 62
4
 10
-4.50001144E+00
 20
1.26076894E+02
  0
VERTEX
  8
0
 62
4
 10
-4.34524797E+00
 20
1.26002196E+02
  0
VERTEX
  8
0
 62
4
 10
-4.18405173E+00
 20
1.25940288E+02
  0
VERTEX
  8
0
 62
4
 10
-4.01764954E+00
 20
1.25891642E+02
  0
VERTEX
  8
0
 62
4
 10
-3.84730780E+00
 20
1.25856628E+02
  0
VERTEX
  8
0
 62
4
 10
-3.67432293E+00
 20
1.25835513E+02
  0
VERTEX
  8
0
 62
4
 10
-3.50001145E+00
 20
1.25828456E+02
  0
VERTEX
  8
0
 62
4
 10
-3.32569996E+00
 20
1.25835513E+02
  0
VERTEX
  8
0
 62
4
 10
-3.15271509E+00
 20
1.25856628E+02
  0
VERTEX
  8
0
 62
4
 10
-2.98237335E+00
 20
1.25891642E+02
  0
VERTEX
  8
0
 62
4
 10
-2.81597116E+00
 20
1.25940288E+02
  0
VERTEX
  8
0
 62
4
 10
-2.65477492E+00
 20
1.26002196E+02
  0
VERTEX
  8
0
 62
4
 10
-2.50001144E+00
 20
1.26076894E+02
  0
VERTEX
  8
0
 62
4
 10
-2.35285857E+00
 20
1.26163815E+02
  0
VERTEX
  8
0
 62
4
 10
-2.21443622E+00
 20
1.26262296E+02
  0
VERTEX
  8
0
 62
4
 10
-2.08579788E+00
 20
1.26371588E+02
  0
VERTEX
  8
0
 62
4
 10
-1.96792256E+00
 20
1.26490859E+02
  0
VERTEX
  8
0
 62
4
 10
-1.86170735E+00
 20
1.26619202E+02
  0
VERTEX
  8
0
 62
4
 10
-1.76796063E+00
 20
1.26755640E+02
  0
VERTEX
  8
0
 62
4
 10
-1.68739587E+00
 20
1.26899134E+02
  0
VERTEX
  8
0
 62
4
 10
-1.62062620E+00
 20
1.27048593E+02
  0
VERTEX
  8
0
 62
4
 10
-1.56815979E+00
 20
1.27202878E+02
  0
VERTEX
  8
0
 62
4
 10
-1.53039593E+00
 20
1.27360816E+02
  0
VERTEX
  8
0
 62
4
 10
-1.50762204E+00
 20
1.27521205E+02
  0
VERTEX
  8
0
 62
4
 10
-1.50001144E+00
 20
1.27682824E+02
  0
VERTEX
  8
0
 62
4
 10
-1.50762204E+00
 20
1.27844443E+02
  0
VERTEX
  8
0
 62
4
 10
-1.53039593E+00
 20
1.28004832E+02
  0
VERTEX
  8
0
 62
4
 10
-1.56815979E+00
 20
1.28162770E+02
  0
VERTEX
  8
0
 62
4
 10
-1.62062620E+00
 20
1.28317055E+02
  0
VERTEX
  8
0
 62
4
 10
-1.68739586E+00
 20
1.28466514E+02
  0
VERTEX
  8
0
 62
4
 10
-1.76796063E+00
 20
1.28610008E+02
  0
VERTEX
  8
0
 62
4
 10
-1.86170735E+00
 20
1.28746446E+02
  0
VERTEX
  8
0
 62
4
 10
-1.96792255E+00
 20
1.28874789E+02
  0
VERTEX
  8
0
 62
4
 10
-2.08579788E+00
 20
1.28994060E+02
  0
VERTEX
  8
0
 62
4
 10
-2.21443622E+00
 20
1.29103352E+02
  0
VERTEX
  8
0
 62
4
 10
-2.35285856E+00
 20
1.29201833E+02
  0
VERTEX
  8
0
 62
4
 10
-2.50001144E+00
 20
1.29288754E+02
  0
VERTEX
  8
0
 62
4
 10
-2.65477491E+00
 20
1.29363452E+02
  0
VERTEX
  8
0
 62
4
 10
-2.81597115E+00
 20
1.29425360E+02
  0
VERTEX
  8
0
 62
4
 10
-2.98237335E+00
 20
1.29474006E+02
  0
VERTEX
  8
0
 62
4
 10
-3.15271508E+00
 20
1.29509020E+02
  0
VERTEX
  8
0
 62
4
 10
-3.32569995E+00
 20
1.29530135E+02
  0
VERTEX
  8
0
 62
4
 10
-3.50001144E+00
 20
1.29537192E+02
  0
VERTEX
  8
0
 62
4
 10
-3.67432292E+00
 20
1.29530135E+02
  0
VERTEX
  8
0
 62
4
 10
-3.84730779E+00
 20
1.29509020E+02
  0
VERTEX
  8
0
 62
4
 10
-4.01764953E+00
 20
1.29474006E+02
  0
VERTEX
  8
0
 62
4
 10
-4.18405172E+00
 20
1.29425360E+02
  0
VERTEX
  8
0
 62
4
 10
-4.34524796E+00
 20
1.29363452E+02
  0
VERTEX
  8
0
 62
4
 10
-4.50001144E+00
 20
1.29288754E+02
  0
VERTEX
  8
0
 62
4
 10
-4.64716431E+00
 20
1.29201833E+02
  0
VERTEX
  8
0
 62
4
 10
-4.78558666E+00
 20
1.29103352E+02
  0
VERTEX
  8
0
 62
4
 10
-4.91422500E+00
 20
1.28994060E+02
  0
VERTEX
  8
0
 62
4
 10
-5.03210033E+00
 20
1.28874789E+02
  0
VERTEX
  8
0
 62
4
 10
-5.13831553E+00
 20
1.28746446E+02
  0
VERTEX
  8
0
 62
4
 10
-5.23206225E+00
 20
1.28610008E+02
  0
VERTEX
  8
0
 62
4
 10
-5.31262701E+00
 20
1.28466514E+02
  0
VERTEX
  8
0
 62
4
 10
-5.37939668E+00
 20
1.28317055E+02
  0
VERTEX
  8
0
 62
4
 10
-5.43186309E+00
 20
1.28162770E+02
  0
VERTEX
  8
0
 62
4
 10
-5.46962695E+00
 20
1.28004832E+02
  0
VERTEX
  8
0
 62
4
 10
-5.49240084E+00
 20
1.27844443E+02
  0
VERTEX
  8
0
 62
4
 10
-5.50001144E+00
 20
1.27682824E+02
  0
SEQEND
  8
0
  0
POLYLINE
  8
0
 62
6
 66
1
  0
VERTEX
  8
0
 62
6
 10
-5.00001144E+00
 20
1.27682824E+02
  0
VERTEX
  8
0
 62
6
 10
-4.99430349E+00
 20
1.27561610E+02
  0
VERTEX
  8
0
 62
6
 10
-4.97722307E+00
 20
1.27441318E+02
  0
VERTEX
  8
0
 62
6
 10
-4.94890018E+00
 20
1.27322865E+02
  0
VERTEX
  8
0
 62
6
 10
-4.90955037E+00
 20
1.27207151E+02
  0
VERTEX
  8
0
 62
6
 10
-4.85947312E+00
 20
1.27095057E+02
  0
VERTEX
  8
0
 62
6
 10
-4.79904955E+00
 20
1.26987436E+02
  0
VERTEX
  8
0
 62
6
 10
-4.72873951E+00
 20
1.26885108E+02
  0
VERTEX
  8
0
 62
6
 10
-4.64907811E+00
 20
1.26788851E+02
  0
VERTEX
  8
0
 62
6
 10
-4.56067161E+00
 20
1.26699397E+02
  0
VERTEX
  8
0
 62
6
 10
-4.46419286E+00
 20
1.26617428E+02
  0
VERTEX
  8
0
 62
6
 10
-4.36037610E+00
 20
1.26543567E+02
  0
VERTEX
  8
0
 62
6
 10
-4.25001144E+00
 20
1.26478377E+02
  0
VERTEX
  8
0
 62
6
 10
-4.13393884E+00
 20
1.26422353E+02
  0
VERTEX
  8
0
 62
6
 10
-4.01304166E+00
 20
1.26375922E+02
  0
VERTEX
  8
0
 62
6
 10
-3.88824001E+00
 20
1.26339438E+02
  0
VERTEX
  8
0
 62
6
 10
-3.76048371E+00
 20
1.26313177E+02
  0
VERTEX
  8
0
 62
6
 10
-3.63074506E+00
 20
1.26297341E+02
  0
VERTEX
  8
0
 62
6
 10
-3.50001144E+00
 20
1.26292048E+02
  0
VERTEX
  8
0
 62
6
 10
-3.36927783E+00
 20
1.26297341E+02
  0
VERTEX
  8
0
 62
6
 10
-3.23953918E+00
 20
1.26313177E+02
  0
VERTEX
  8
0
 62
6
 10
-3.11178288E+00
 20
1.26339438E+02
  0
VERTEX
  8
0
 62
6
 10
-2.98698123E+00
 20
1.26375922E+02
  0
VERTEX
  8
0
 62
6
 10
-2.86608405E+00
 20
1.26422353E+02
  0
VERTEX
  8
0
 62
6
 10
-2.75001144E+00
 20
1.26478377E+02
  0
VERTEX
  8
0
 62
6
 10
-2.63964679E+00
 20
1.26543567E+02
  0
VERTEX
  8
0
 62
6
 10
-2.53583003E+00
 20
1.26617428E+02
  0
VERTEX
  8
0
 62
6
 10
-2.43935127E+00
 20
1.26699397E+02
  0
VERTEX
  8
0
 62
6
 10
-2.35094478E+00
 20
1.26788851E+02
  0
VERTEX
  8
0
 62
6
 10
-2.27128338E+00
 20
1.26885108E+02
  0
VERTEX
  8
0
 62
6
 10
-2.20097334E+00
 20
1.26987436E+02
  0
VERTEX
  8
0
 62
6
 10
-2.14054976E+00
 20
1.27095057E+02
  0
VERTEX
  8
0
 62
6
 10
-2.09047251E+00
 20
1.27207151E+02
  0
VERTEX
  8
0
 62
6
 10
-2.05112270E+00
 20
1.27322865E+02
  0
VERTEX
  8
0
 62
6
 10
-2.02279981E+00
 20
1.27441318E+02
  0
VERTEX
  8
0
 62
6
 10
-2.00571939E+00
 20
1.27561610E+02
  0
VERTEX
  8
0
 62
6
 10
-2.00001144E+00
 20
1.27682824E+02
  0
VERTEX
  8
0
 62
6
 10
-2.00571939E+00
 20
1.27804038E+02
  0
VERTEX
  8
0
 62
6
 10
-2.02279981E+00
 20
1.27924330E+02
  0
VERTEX
  8
0
 62
6
 10
-2.05112270E+00
 20
1.28042783E+02
  0
VERTEX
  8
0
 62
6
 10
-2.09047251E+00
 20
1.28158497E+02
  0
VERTEX
  8
0
 62
6
 10
-2.14054976E+00
 20
1.28270591E+02
  0
VERTEX
  8
0
 62
6
 10
-2.20097333E+00
 20
1.28378212E+02
  0
VERTEX
  8
0
 62
6
 10
-2.27128337E+00
 20
1.28480540E+02
  0
VERTEX
  8
0
 62
6
 10
-2.35094477E+00
 20
1.28576797E+02
  0
VERTEX
  8
0
 62
6
 10
-2.43935127E+00
 20
1.28666251E+02
  0
VERTEX
  8
0
 62
6
 10
-2.53583002E+00
 20
1.28748220E+02
  0
VERTEX
  8
0
 62
6
 10
-2.63964678E+00
 20
1.28822081E+02
  0
VERTEX
  8
0
 62
6
 10
-2.75001144E+00
 20
1.28887271E+02
  0
VERTEX
  8
0
 62
6
 10
-2.86608405E+00
 20
1.28943295E+02
  0
VERTEX
  8
0
 62
6
 10
-2.98698122E+00
 20
1.28989726E+02
  0
VERTEX
  8
0
 62
6
 10
-3.11178287E+00
 20
1.29026210E+02
  0
VERTEX
  8
0
 62
6
 10
-3.23953917E+00
 20
1.29052471E+02
  0
VERTEX
  8
0
 62
6
 10
-3.36927782E+00
 20
1.29068307E+02
  0
VERTEX
  8
0
 62
6
 10
-3.50001144E+00
 20
1.29073600E+02
  0
VERTEX
  8
0
 62
6
 10
-3.63074505E+00
 20
1.29068307E+02
  0
VERTEX
  8
0
 62
6
 10
-3.76048370E+00
 20
1.29052471E+02
  0
VERTEX
  8
0
 62
6
 10
-3.88824001E+00
 20
1.29026210E+02
  0
VERTEX
  8
0
 62
6
 10
-4.01304165E+00
 20
1.28989726E+02
  0
VERTEX
  8
0
 62
6
 10
-4.13393883E+00
 20
1.28943295E+02
  0
VERTEX
  8
0
 62
6
 10
-4.25001144E+00
 20
1.28887271E+02
  0
VERTEX
  8
0
 62
6
 10
-4.36037609E+00
 20
1.28822081E+02
  0
VERTEX
  8
0
 62
6
 10
-4.46419285E+00
 20
1.28748220E+02
  0
VERTEX
  8
0
 62
6
 10
-4.56067161E+00
 20
1.28666251E+02
  0
VERTEX
  8
0
 62
6
 10
-4.64907810E+00
 20
1.28576797E+02
  0
VERTEX
  8
0
 62
6
 10
-4.72873951E+00
 20
1.28480540E+02
  0
VERTEX
  8
0
 62
6
 10
-4.79904955E+00
 20
1.28378212E+02
  0
VERTEX
  8
0
 62
6
 10
-4.85947312E+00
 20
1.28270591E+02
  0
VERTEX
  8
0
 62
6
 10
-4.90955037E+00
 20
1.28158497E+02
  0
VERTEX
  8
0
 62
6
 10
-4.94890018E+00
 20
1.28042783E+02
  0
VERTEX
  8
0
 62
6
 10
-4.97722307E+00
 20
1.27924330E+02
  0
VERTEX
  8
0
 62
6
 10
-4.99430349E+00
 20
1.27804038E+02
  0
VERTEX
  8
0
 62
6
 10
-5.00001144E+00
 20
1.27682824E+02
  0
SEQEND
  8
0
  0
LINE
  8
0
 62
4
 10
-3.50001144E+00
 20
1.28749086E+02
 11
-4.50001144E+00
 21
1.28220591E+02
  0
LINE
  8
0
 62
4
 10
-4.50001144E+00
 20
1.28220591E+02
 11
-4.50001144E+00
 21
1.27145058E+02
  0
LINE
  8
0
 62
4
 10
-4.50001144E+00
 20
1.27145058E+02
 11
-3.50001144E+00
 21
1.26607291E+02
  0
LINE
  8
0
 62
4
 10
-3.50001144E+00
 20
1.26607291E+02
 11
-2.50001144E+00
 21
1.27145058E+02
  0
LINE
  8
0
 62
4
 10
-2.50001144E+00
 20
1.27145058E+02
 11
-2.50001144E+00
 21
1.28220591E+02
  0
LINE
  8
0
 62
4
 10
-2.50001144E+00
 20
1.28220591E+02
 11
-3.50001144E+00
 21
1.28749086E+02
  0
LINE
  8
0
 62
4
 10
-1.05000114E+01
 20
1.28220591E+02
 11
-1.15000114E+01
 21
1.28749086E+02
  0
LINE
  8
0
 62
4
 10
-1.05000114E+01
 20
1.27145058E+02
 11
-1.05000114E+01
 21
1.28220591E+02
  0
LINE
  8
0
 62
4
 10
-1.15000114E+01
 20
1.26607291E+02
 11
-1.05000114E+01
 21
1.27145058E+02
  0
LINE
  8
0
 62
4
 10
-1.25000114E+01
 20
1.27145058E+02
 11
-1.15000114E+01
 21
1.26607291E+02
  0
LINE
  8
0
 62
4
 10
-1.25000114E+01
 20
1.28220591E+02
 11
-1.25000114E+01
 21
1.27145058E+02
  0
LINE
  8
0
 62
4
 10
-1.15000114E+01
 20
1.28749086E+02
 11
-1.25000114E+01
 21
1.28220591E+02
  0
POLYLINE
  8
0
 62
6
 66
1
  0
VERTEX
  8
0
 62
6
 10
-1.30000114E+01
 20
1.27682824E+02
  0
VERTEX
  8
0
 62
6
 10
-1.29943034E+01
 20
1.27561610E+02
  0
VERTEX
  8
0
 62
6
 10
-1.29772230E+01
 20
1.27441318E+02
  0
VERTEX
  8
0
 62
6
 10
-1.29489001E+01
 20
1.27322865E+02
  0
VERTEX
  8
0
 62
6
 10
-1.29095503E+01
 20
1.27207151E+02
  0
VERTEX
  8
0
 62
6
 10
-1.28594731E+01
 20
1.27095057E+02
  0
VERTEX
  8
0
 62
6
 10
-1.27990495E+01
 20
1.26987436E+02
  0
VERTEX
  8
0
 62
6
 10
-1.27287395E+01
 20
1.26885108E+02
  0
VERTEX
  8
0
 62
6
 10
-1.26490781E+01
 20
1.26788851E+02
  0
VERTEX
  8
0
 62
6
 10
-1.25606716E+01
 20
1.26699397E+02
  0
VERTEX
  8
0
 62
6
 10
-1.24641928E+01
 20
1.26617428E+02
  0
VERTEX
  8
0
 62
6
 10
-1.23603761E+01
 20
1.26543567E+02
  0
VERTEX
  8
0
 62
6
 10
-1.22500114E+01
 20
1.26478377E+02
  0
VERTEX
  8
0
 62
6
 10
-1.21339388E+01
 20
1.26422353E+02
  0
VERTEX
  8
0
 62
6
 10
-1.20130416E+01
 20
1.26375922E+02
  0
VERTEX
  8
0
 62
6
 10
-1.18882400E+01
 20
1.26339438E+02
  0
VERTEX
  8
0
 62
6
 10
-1.17604837E+01
 20
1.26313177E+02
  0
VERTEX
  8
0
 62
6
 10
-1.16307450E+01
 20
1.26297341E+02
  0
VERTEX
  8
0
 62
6
 10
-1.15000114E+01
 20
1.26292048E+02
  0
VERTEX
  8
0
 62
6
 10
-1.13692778E+01
 20
1.26297341E+02
  0
VERTEX
  8
0
 62
6
 10
-1.12395391E+01
 20
1.26313177E+02
  0
VERTEX
  8
0
 62
6
 10
-1.11117828E+01
 20
1.26339438E+02
  0
VERTEX
  8
0
 62
6
 10
-1.09869812E+01
 20
1.26375922E+02
  0
VERTEX
  8
0
 62
6
 10
-1.08660840E+01
 20
1.26422353E+02
  0
VERTEX
  8
0
 62
6
 10
-1.07500114E+01
 20
1.26478377E+02
  0
VERTEX
  8
0
 62
6
 10
-1.06396467E+01
 20
1.26543567E+02
  0
VERTEX
  8
0
 62
6
 10
-1.05358300E+01
 20
1.26617428E+02
  0
VERTEX
  8
0
 62
6
 10
-1.04393512E+01
 20
1.26699397E+02
  0
VERTEX
  8
0
 62
6
 10
-1.03509447E+01
 20
1.26788851E+02
  0
VERTEX
  8
0
 62
6
 10
-1.02712833E+01
 20
1.26885108E+02
  0
VERTEX
  8
0
 62
6
 10
-1.02009733E+01
 20
1.26987436E+02
  0
VERTEX
  8
0
 62
6
 10
-1.01405497E+01
 20
1.27095057E+02
  0
VERTEX
  8
0
 62
6
 10
-1.00904725E+01
 20
1.27207151E+02
  0
VERTEX
  8
0
 62
6
 10
-1.00511227E+01
 20
1.27322865E+02
  0
VERTEX
  8
0
 62
6
 10
-1.00227998E+01
 20
1.27441318E+02
  0
VERTEX
  8
0
 62
6
 10
-1.00057194E+01
 20
1.27561610E+02
  0
VERTEX
  8
0
 62
6
 10
-1.00000114E+01
 20
1.27682824E+02
  0
VERTEX
  8
0
 62
6
 10
-1.00057194E+01
 20
1.27804038E+02
  0
VERTEX
  8
0
 62
6
 10
-1.00227998E+01
 20
1.27924330E+02
  0
VERTEX
  8
0
 62
6
 10
-1.00511227E+01
 20
1.28042783E+02
  0
VERTEX
  8
0
 62
6
 10
-1.00904725E+01
 20
1.28158497E+02
  0
VERTEX
  8
0
 62
6
 10
-1.01405497E+01
 20
1.28270591E+02
  0
VERTEX
  8
0
 62
6
 10
-1.02009733E+01
 20
1.28378212E+02
  0
VERTEX
  8
0
 62
6
 10
-1.02712833E+01
 20
1.28480540E+02
  0
VERTEX
  8
0
 62
6
 10
-1.03509447E+01
 20
1.28576797E+02
  0
VERTEX
  8
0
 62
6
 10
-1.04393512E+01
 20
1.28666251E+02
  0
VERTEX
  8
0
 62
6
 10
-1.05358300E+01
 20
1.28748220E+02
  0
VERTEX
  8
0
 62
6
 10
-1.06396467E+01
 20
1.28822081E+02
  0
VERTEX
  8
0
 62
6
 10
-1.07500114E+01
 20
1.28887271E+02
  0
VERTEX
  8
0
 62
6
 10
-1.08660840E+01
 20
1.28943295E+02
  0
VERTEX
  8
0
 62
6
 10
-1.09869812E+01
 20
1.28989726E+02
  0
VERTEX
  8
0
 62
6
 10
-1.11117828E+01
 20
1.29026210E+02
  0
VERTEX
  8
0
 62
6
 10
-1.12395391E+01
 20
1.29052471E+02
  0
VERTEX
  8
0
 62
6
 10
-1.13692778E+01
 20
1.29068307E+02
  0
VERTEX
  8
0
 62
6
 10
-1.15000114E+01
 20
1.29073600E+02
  0
VERTEX
  8
0
 62
6
 10
-1.16307450E+01
 20
1.29068307E+02
  0
VERTEX
  8
0
 62
6
 10
-1.17604837E+01
 20
1.29052471E+02
  0
VERTEX
  8
0
 62
6
 10
-1.18882400E+01
 20
1.29026210E+02
  0
VERTEX
  8
0
 62
6
 10
-1.20130416E+01
 20
1.28989726E+02
  0
VERTEX
  8
0
 62
6
 10
-1.21339388E+01
 20
1.28943295E+02
  0
VERTEX
  8
0
 62
6
 10
-1.22500114E+01
 20
1.28887271E+02
  0
VERTEX
  8
0
 62
6
 10
-1.23603761E+01
 20
1.28822081E+02
  0
VERTEX
  8
0
 62
6
 10
-1.24641928E+01
 20
1.28748220E+02
  0
VERTEX
  8
0
 62
6
 10
-1.25606716E+01
 20
1.28666251E+02
  0
VERTEX
  8
0
 62
6
 10
-1.26490781E+01
 20
1.28576797E+02
  0
VERTEX
  8
0
 62
6
 10
-1.27287395E+01
 20
1.28480540E+02
  0
VERTEX
  8
0
 62
6
 10
-1.27990495E+01
 20
1.28378212E+02
  0
VERTEX
  8
0
 62
6
 10
-1.28594731E+01
 20
1.28270591E+02
  0
VERTEX
  8
0
 62
6
 10
-1.29095503E+01
 20
1.28158497E+02
  0
VERTEX
  8
0
 62
6
 10
-1.29489001E+01
 20
1.28042783E+02
  0
VERTEX
  8
0
 62
6
 10
-1.29772230E+01
 20
1.27924330E+02
  0
VERTEX
  8
0
 62
6
 10
-1.29943034E+01
 20
1.27804038E+02
  0
VERTEX
  8
0
 62
6
 10
-1.30000114E+01
 20
1.27682824E+02
  0
SEQEND
  8
0
  0
POLYLINE
  8
0
 62
4
 66
1
  0
VERTEX
  8
0
 62
4
 10
-1.35000114E+01
 20
1.27682824E+02
  0
VERTEX
  8
0
 62
4
 10
-1.34924008E+01
 20
1.27521205E+02
  0
VERTEX
  8
0
 62
4
 10
-1.34696269E+01
 20
1.27360816E+02
  0
VERTEX
  8
0
 62
4
 10
-1.34318631E+01
 20
1.27202878E+02
  0
VERTEX
  8
0
 62
4
 10
-1.33793966E+01
 20
1.27048593E+02
  0
VERTEX
  8
0
 62
4
 10
-1.33126270E+01
 20
1.26899134E+02
  0
VERTEX
  8
0
 62
4
 10
-1.32320622E+01
 20
1.26755640E+02
  0
VERTEX
  8
0
 62
4
 10
-1.31383155E+01
 20
1.26619202E+02
  0
VERTEX
  8
0
 62
4
 10
-1.30321003E+01
 20
1.26490859E+02
  0
VERTEX
  8
0
 62
4
 10
-1.29142250E+01
 20
1.26371588E+02
  0
VERTEX
  8
0
 62
4
 10
-1.27855866E+01
 20
1.26262296E+02
  0
VERTEX
  8
0
 62
4
 10
-1.26471643E+01
 20
1.26163815E+02
  0
VERTEX
  8
0
 62
4
 10
-1.25000114E+01
 20
1.26076894E+02
  0
VERTEX
  8
0
 62
4
 10
-1.23452479E+01
 20
1.26002196E+02
  0
VERTEX
  8
0
 62
4
 10
-1.21840517E+01
 20
1.25940288E+02
  0
VERTEX
  8
0
 62
4
 10
-1.20176495E+01
 20
1.25891642E+02
  0
VERTEX
  8
0
 62
4
 10
-1.18473078E+01
 20
1.25856628E+02
  0
VERTEX
  8
0
 62
4
 10
-1.16743229E+01
 20
1.25835513E+02
  0
VERTEX
  8
0
 62
4
 10
-1.15000114E+01
 20
1.25828456E+02
  0
VERTEX
  8
0
 62
4
 10
-1.13256999E+01
 20
1.25835513E+02
  0
VERTEX
  8
0
 62
4
 10
-1.11527150E+01
 20
1.25856628E+02
  0
VERTEX
  8
0
 62
4
 10
-1.09823733E+01
 20
1.25891642E+02
  0
VERTEX
  8
0
 62
4
 10
-1.08159711E+01
 20
1.25940288E+02
  0
VERTEX
  8
0
 62
4
 10
-1.06547749E+01
 20
1.26002196E+02
  0
VERTEX
  8
0
 62
4
 10
-1.05000114E+01
 20
1.26076894E+02
  0
VERTEX
  8
0
 62
4
 10
-1.03528585E+01
 20
1.26163815E+02
  0
VERTEX
  8
0
 62
4
 10
-1.02144362E+01
 20
1.26262296E+02
  0
VERTEX
  8
0
 62
4
 10
-1.00857978E+01
 20
1.26371588E+02
  0
VERTEX
  8
0
 62
4
 10
-9.96792252E+00
 20
1.26490859E+02
  0
VERTEX
  8
0
 62
4
 10
-9.86170731E+00
 20
1.26619202E+02
  0
VERTEX
  8
0
 62
4
 10
-9.76796059E+00
 20
1.26755640E+02
  0
VERTEX
  8
0
 62
4
 10
-9.68739583E+00
 20
1.26899134E+02
  0
VERTEX
  8
0
 62
4
 10
-9.62062616E+00
 20
1.27048593E+02
  0
VERTEX
  8
0
 62
4
 10
-9.56815975E+00
 20
1.27202878E+02
  0
VERTEX
  8
0
 62
4
 10
-9.53039589E+00
 20
1.27360816E+02
  0
VERTEX
  8
0
 62
4
 10
-9.50762200E+00
 20
1.27521205E+02
  0
VERTEX
  8
0
 62
4
 10
-9.50001140E+00
 20
1.27682824E+02
  0
VERTEX
  8
0
 62
4
 10
-9.50762200E+00
 20
1.27844443E+02
  0
VERTEX
  8
0
 62
4
 10
-9.53039589E+00
 20
1.28004832E+02
  0
VERTEX
  8
0
 62
4
 10
-9.56815975E+00
 20
1.28162770E+02
  0
VERTEX
  8
0
 62
4
 10
-9.62062616E+00
 20
1.28317055E+02
  0
VERTEX
  8
0
 62
4
 10
-9.68739582E+00
 20
1.28466514E+02
  0
VERTEX
  8
0
 62
4
 10
-9.76796059E+00
 20
1.28610008E+02
  0
VERTEX
  8
0
 62
4
 10
-9.86170731E+00
 20
1.28746446E+02
  0
VERTEX
  8
0
 62
4
 10
-9.96792251E+00
 20
1.28874789E+02
  0
VERTEX
  8
0
 62
4
 10
-1.00857978E+01
 20
1.28994060E+02
  0
VERTEX
  8
0
 62
4
 10
-1.02144362E+01
 20
1.29103352E+02
  0
VERTEX
  8
0
 62
4
 10
-1.03528585E+01
 20
1.29201833E+02
  0
VERTEX
  8
0
 62
4
 10
-1.05000114E+01
 20
1.29288754E+02
  0
VERTEX
  8
0
 62
4
 10
-1.06547749E+01
 20
1.29363452E+02
  0
VERTEX
  8
0
 62
4
 10
-1.08159711E+01
 20
1.29425360E+02
  0
VERTEX
  8
0
 62
4
 10
-1.09823733E+01
 20
1.29474006E+02
  0
VERTEX
  8
0
 62
4
 10
-1.11527150E+01
 20
1.29509020E+02
  0
VERTEX
  8
0
 62
4
 10
-1.13256999E+01
 20
1.29530135E+02
  0
VERTEX
  8
0
 62
4
 10
-1.15000114E+01
 20
1.29537192E+02
  0
VERTEX
  8
0
 62
4
 10
-1.16743229E+01
 20
1.29530135E+02
  0
VERTEX
  8
0
 62
4
 10
-1.18473078E+01
 20
1.29509020E+02
  0
VERTEX
  8
0
 62
4
 10
-1.20176495E+01
 20
1.29474006E+02
  0
VERTEX
  8
0
 62
4
 10
-1.21840517E+01
 20
1.29425360E+02
  0
VERTEX
  8
0
 62
4
 10
-1.23452479E+01
 20
1.29363452E+02
  0
VERTEX
  8
0
 62
4
 10
-1.25000114E+01
 20
1.29288754E+02
  0
VERTEX
  8
0
 62
4
 10
-1.26471643E+01
 20
1.29201833E+02
  0
VERTEX
  8
0
 62
4
 10
-1.27855866E+01
 20
1.29103352E+02
  0
VERTEX
  8
0
 62
4
 10
-1.29142250E+01
 20
1.28994060E+02
  0
VERTEX
  8
0
 62
4
 10
-1.30321003E+01
 20
1.28874789E+02
  0
VERTEX
  8
0
 62
4
 10
-1.31383155E+01
 20
1.28746446E+02
  0
VERTEX
  8
0
 62
4
 10
-1.32320622E+01
 20
1.28610008E+02
  0
VERTEX
  8
0
 62
4
 10
-1.33126270E+01
 20
1.28466514E+02
  0
VERTEX
  8
0
 62
4
 10
-1.33793966E+01
 20
1.28317055E+02
  0
VERTEX
  8
0
 62
4
 10
-1.34318631E+01
 20
1.28162770E+02
  0
VERTEX
  8
0
 62
4
 10
-1.34696269E+01
 20
1.28004832E+02
  0
VERTEX
  8
0
 62
4
 10
-1.34924008E+01
 20
1.27844443E+02
  0
VERTEX
  8
0
 62
4
 10
-1.35000114E+01
 20
1.27682824E+02
  0
SEQEND
  8
0
  0
LINE
  8
0
 62
4
 10
-9.50001144E+00
 20
1.27682824E+02
 11
-9.50001144E+00
 21
1.29159701E+02
  0
LINE
  8
0
 62
4
 10
-1.35000114E+01
 20
1.27682824E+02
 11
-1.35000114E+01
 21
1.29159701E+02
  0
POLYLINE
  8
0
 62
4
 66
1
  0
VERTEX
  8
0
 62
4
 10
-9.50001140E+00
 20
1.29159701E+02
  0
VERTEX
  8
0
 62
4
 10
-9.50806281E+00
 20
1.29325925E+02
  0
VERTEX
  8
0
 62
4
 10
-9.53215222E+00
 20
1.29490811E+02
  0
VERTEX
  8
0
 62
4
 10
-9.57208567E+00
 20
1.29653031E+02
  0
VERTEX
  8
0
 62
4
 10
-9.62754165E+00
 20
1.29811279E+02
  0
VERTEX
  8
0
 62
4
 10
-9.69807366E+00
 20
1.29964281E+02
  0
VERTEX
  8
0
 62
4
 10
-9.78311381E+00
 20
1.30110805E+02
  0
VERTEX
  8
0
 62
4
 10
-9.88197740E+00
 20
1.30249671E+02
  0
VERTEX
  8
0
 62
4
 10
-9.99386846E+00
 20
1.30379761E+02
  0
VERTEX
  8
0
 62
4
 10
-1.01178861E+01
 20
1.30500028E+02
  0
VERTEX
  8
0
 62
4
 10
-1.02530318E+01
 20
1.30609504E+02
  0
VERTEX
  8
0
 62
4
 10
-1.03982174E+01
 20
1.30707307E+02
  0
VERTEX
  8
0
 62
4
 10
-1.05522741E+01
 20
1.30792649E+02
  0
VERTEX
  8
0
 62
4
 10
-1.07139613E+01
 20
1.30864844E+02
  0
VERTEX
  8
0
 62
4
 10
-1.08819774E+01
 20
1.30923309E+02
  0
VERTEX
  8
0
 62
4
 10
-1.10549695E+01
 20
1.30967576E+02
  0
VERTEX
  8
0
 62
4
 10
-1.12315449E+01
 20
1.30997286E+02
  0
VERTEX
  8
0
 62
4
 10
-1.14102817E+01
 20
1.31012201E+02
  0
VERTEX
  8
0
 62
4
 10
-1.15897410E+01
 20
1.31012201E+02
  0
VERTEX
  8
0
 62
4
 10
-1.17684779E+01
 20
1.30997286E+02
  0
VERTEX
  8
0
 62
4
 10
-1.19450533E+01
 20
1.30967576E+02
  0
VERTEX
  8
0
 62
4
 10
-1.21180454E+01
 20
1.30923309E+02
  0
VERTEX
  8
0
 62
4
 10
-1.22860614E+01
 20
1.30864844E+02
  0
VERTEX
  8
0
 62
4
 10
-1.24477487E+01
 20
1.30792649E+02
  0
VERTEX
  8
0
 62
4
 10
-1.26018053E+01
 20
1.30707307E+02
  0
VERTEX
  8
0
 62
4
 10
-1.27469910E+01
 20
1.30609504E+02
  0
VERTEX
  8
0
 62
4
 10
-1.28821367E+01
 20
1.30500028E+02
  0
VERTEX
  8
0
 62
4
 10
-1.30061543E+01
 20
1.30379761E+02
  0
VERTEX
  8
0
 62
4
 10
-1.31180454E+01
 20
1.30249671E+02
  0
VERTEX
  8
0
 62
4
 10
-1.32169090E+01
 20
1.30110805E+02
  0
VERTEX
  8
0
 62
4
 10
-1.33019491E+01
 20
1.29964281E+02
  0
VERTEX
  8
0
 62
4
 10
-1.33724811E+01
 20
1.29811279E+02
  0
VERTEX
  8
0
 62
4
 10
-1.34279371E+01
 20
1.29653031E+02
  0
VERTEX
  8
0
 62
4
 10
-1.34678706E+01
 20
1.29490811E+02
  0
VERTEX
  8
0
 62
4
 10
-1.34919600E+01
 20
1.29325925E+02
  0
VERTEX
  8
0
 62
4
 10
-1.35000114E+01
 20
1.29159701E+02
  0
SEQEND
  8
0
  0
LINE
  8
0
 62
4
 10
-7.54999886E+01
 20
1.45197451E+02
 11
-7.54999886E+01
 21
1.44000000E+02
  0
LINE
  8
0
 62
4
 10
-5.04999886E+01
 20
1.46330009E+02
 11
-5.04999886E+01
 21
1.44000000E+02
  0
LINE
  8
0
  6
CENTER
 62
6
 10
-5.43499886E+01
 20
1.48943921E+02
 11
-6.36499886E+01
 21
1.48943921E+02
  0
LINE
  8
0
  6
CENTER
 62
6
 10
-5.89999886E+01
 20
1.53593921E+02
 11
-5.89999886E+01
 21
1.44293921E+02
  0
LINE
  8
0
  6
CENTER
 62
6
 10
-6.29253917E+01
 20
1.52189064E+02
 11
-7.00745854E+01
 21
1.52189064E+02
  0
LINE
  8
0
  6
CENTER
 62
6
 10
-6.64999886E+01
 20
1.55763661E+02
 11
-6.64999886E+01
 21
1.48614467E+02
  0
LINE
  8
0
  6
CENTER
 62
6
 10
-4.66999886E+01
 20
1.52189064E+02
 11
-5.62999886E+01
 21
1.52189064E+02
  0
LINE
  8
0
  6
CENTER
 62
6
 10
-5.14999886E+01
 20
1.56989064E+02
 11
-5.14999886E+01
 21
1.47389064E+02
  0
LINE
  8
0
 62
4
 10
-7.39999886E+01
 20
1.56361392E+02
 11
-4.39999886E+01
 21
1.56361392E+02
  0
LINE
  8
0
 62
4
 10
-7.39999886E+01
 20
1.46718680E+02
 11
-6.22713774E+01
 21
1.46718680E+02
  0
LINE
  8
0
 62
4
 10
-7.39999886E+01
 20
1.46330009E+02
 11
-6.18957454E+01
 21
1.46330009E+02
  0
LINE
  8
0
 62
4
 10
-7.39999886E+01
 20
1.46330009E+02
 11
-7.54999886E+01
 21
1.45197451E+02
  0
LINE
  8
0
 62
4
 10
-6.31499886E+01
 20
1.49086271E+02
 11
-6.31499886E+01
 21
1.49745579E+02
  0
POLYLINE
  8
0
 62
4
 66
1
  0
VERTEX
  8
0
 62
4
 10
-6.31499886E+01
 20
1.49086271E+02
  0
VERTEX
  8
0
 62
4
 10
-6.31332819E+01
 20
1.48741356E+02
  0
VERTEX
  8
0
 62
4
 10
-6.30832964E+01
 20
1.48399217E+02
  0
VERTEX
  8
0
 62
4
 10
-6.30004345E+01
 20
1.48062611E+02
  0
VERTEX
  8
0
 62
4
 10
-6.28853633E+01
 20
1.47734246E+02
  0
VERTEX
  8
0
 62
4
 10
-6.27390094E+01
 20
1.47416768E+02
  0
VERTEX
  8
0
 62
4
 10
-6.25625511E+01
 20
1.47112731E+02
  0
VERTEX
  8
0
 62
4
 10
-6.23574091E+01
 20
1.46824583E+02
  0
VERTEX
  8
0
 62
4
 10
-6.21252352E+01
 20
1.46554646E+02
  0
VERTEX
  8
0
 62
4
 10
-6.18678986E+01
 20
1.46305092E+02
  0
VERTEX
  8
0
 62
4
 10
-6.15874713E+01
 20
1.46077930E+02
  0
VERTEX
  8
0
 62
4
 10
-6.12862111E+01
 20
1.45874989E+02
  0
VERTEX
  8
0
 62
4
 10
-6.09665436E+01
 20
1.45697904E+02
  0
VERTEX
  8
0
 62
4
 10
-6.06310425E+01
 20
1.45548100E+02
  0
VERTEX
  8
0
 62
4
 10
-6.02824091E+01
 20
1.45426783E+02
  0
VERTEX
  8
0
 62
4
 10
-5.99234505E+01
 20
1.45334931E+02
  0
VERTEX
  8
0
 62
4
 10
-5.95570567E+01
 20
1.45273282E+02
  0
VERTEX
  8
0
 62
4
 10
-5.91861777E+01
 20
1.45242332E+02
  0
VERTEX
  8
0
 62
4
 10
-5.88137996E+01
 20
1.45242332E+02
  0
VERTEX
  8
0
 62
4
 10
-5.84429206E+01
 20
1.45273282E+02
  0
VERTEX
  8
0
 62
4
 10
-5.80765267E+01
 20
1.45334931E+02
  0
VERTEX
  8
0
 62
4
 10
-5.77175681E+01
 20
1.45426783E+02
  0
VERTEX
  8
0
 62
4
 10
-5.73689347E+01
 20
1.45548100E+02
  0
VERTEX
  8
0
 62
4
 10
-5.70334337E+01
 20
1.45697904E+02
  0
VERTEX
  8
0
 62
4
 10
-5.67137661E+01
 20
1.45874989E+02
  0
VERTEX
  8
0
 62
4
 10
-5.64125059E+01
 20
1.46077930E+02
  0
VERTEX
  8
0
 62
4
 10
-5.61320786E+01
 20
1.46305092E+02
  0
VERTEX
  8
0
 62
4
 10
-5.58747420E+01
 20
1.46554646E+02
  0
VERTEX
  8
0
 62
4
 10
-5.56425681E+01
 20
1.46824583E+02
  0
VERTEX
  8
0
 62
4
 10
-5.54374261E+01
 20
1.47112730E+02
  0
VERTEX
  8
0
 62
4
 10
-5.52609678E+01
 20
1.47416767E+02
  0
VERTEX
  8
0
 62
4
 10
-5.51146139E+01
 20
1.47734246E+02
  0
VERTEX
  8
0
 62
4
 10
-5.49995427E+01
 20
1.48062611E+02
  0
VERTEX
  8
0
 62
4
 10
-5.49166808E+01
 20
1.48399217E+02
  0
VERTEX
  8
0
 62
4
 10
-5.48666953E+01
 20
1.48741356E+02
  0
VERTEX
  8
0
 62
4
 10
-5.48499886E+01
 20
1.49086271E+02
  0
SEQEND
  8
0
  0
POLYLINE
  8
0
 62
4
 66
1
  0
VERTEX
  8
0
 62
4
 10
-6.31499886E+01
 20
1.49745579E+02
  0
VERTEX
  8
0
 62
4
 10
-6.31341966E+01
 20
1.49410220E+02
  0
VERTEX
  8
0
 62
4
 10
-6.30869408E+01
 20
1.49077413E+02
  0
VERTEX
  8
0
 62
4
 10
-6.30085808E+01
 20
1.48749692E+02
  0
VERTEX
  8
0
 62
4
 10
-6.28997130E+01
 20
1.48429549E+02
  0
VERTEX
  8
0
 62
4
 10
-6.27611659E+01
 20
1.48119423E+02
  0
VERTEX
  8
0
 62
4
 10
-6.25939940E+01
 20
1.47821673E+02
  0
VERTEX
  8
0
 62
4
 10
-6.23994696E+01
 20
1.47538564E+02
  0
VERTEX
  8
0
 62
4
 10
-6.21790730E+01
 20
1.47272252E+02
  0
VERTEX
  8
0
 62
4
 10
-6.19344818E+01
 20
1.47024764E+02
  0
VERTEX
  8
0
 62
4
 10
-6.16675572E+01
 20
1.46797983E+02
  0
VERTEX
  8
0
 62
4
 10
-6.13803308E+01
 20
1.46593635E+02
  0
VERTEX
  8
0
 62
4
 10
-6.10749886E+01
 20
1.46413275E+02
  0
VERTEX
  8
0
 62
4
 10
-6.07538544E+01
 20
1.46258276E+02
  0
VERTEX
  8
0
 62
4
 10
-6.04193722E+01
 20
1.46129818E+02
  0
VERTEX
  8
0
 62
4
 10
-6.00740876E+01
 20
1.46028877E+02
  0
VERTEX
  8
0
 62
4
 10
-5.97206285E+01
 20
1.45956223E+02
  0
VERTEX
  8
0
 62
4
 10
-5.93616849E+01
 20
1.45912408E+02
  0
VERTEX
  8
0
 62
4
 10
-5.89999886E+01
 20
1.45897766E+02
  0
VERTEX
  8
0
 62
4
 10
-5.86382923E+01
 20
1.45912408E+02
  0
VERTEX
  8
0
 62
4
 10
-5.82793487E+01
 20
1.45956223E+02
  0
VERTEX
  8
0
 62
4
 10
-5.79258896E+01
 20
1.46028877E+02
  0
VERTEX
  8
0
 62
4
 10
-5.75806050E+01
 20
1.46129818E+02
  0
VERTEX
  8
0
 62
4
 10
-5.72461228E+01
 20
1.46258276E+02
  0
VERTEX
  8
0
 62
4
 10
-5.69249886E+01
 20
1.46413275E+02
  0
VERTEX
  8
0
 62
4
 10
-5.66196464E+01
 20
1.46593635E+02
  0
VERTEX
  8
0
 62
4
 10
-5.63324200E+01
 20
1.46797983E+02
  0
VERTEX
  8
0
 62
4
 10
-5.60654955E+01
 20
1.47024764E+02
  0
VERTEX
  8
0
 62
4
 10
-5.58209042E+01
 20
1.47272252E+02
  0
VERTEX
  8
0
 62
4
 10
-5.56005076E+01
 20
1.47538564E+02
  0
VERTEX
  8
0
 62
4
 10
-5.54059832E+01
 20
1.47821672E+02
  0
VERTEX
  8
0
 62
4
 10
-5.52388113E+01
 20
1.48119423E+02
  0
VERTEX
  8
0
 62
4
 10
-5.51002642E+01
 20
1.48429549E+02
  0
VERTEX
  8
0
 62
4
 10
-5.49913964E+01
 20
1.48749692E+02
  0
VERTEX
  8
0
 62
4
 10
-5.49130364E+01
 20
1.49077413E+02
  0
VERTEX
  8
0
 62
4
 10
-5.48657806E+01
 20
1.49410220E+02
  0
VERTEX
  8
0
 62
4
 10
-5.48499886E+01
 20
1.49745579E+02
  0
VERTEX
  8
0
 62
4
 10
-5.48657806E+01
 20
1.50080938E+02
  0
VERTEX
  8
0
 62
4
 10
-5.49130364E+01
 20
1.50413745E+02
  0
VERTEX
  8
0
 62
4
 10
-5.49913964E+01
 20
1.50741466E+02
  0
VERTEX
  8
0
 62
4
 10
-5.51002642E+01
 20
1.51061609E+02
  0
VERTEX
  8
0
 62
4
 10
-5.52388113E+01
 20
1.51371735E+02
  0
VERTEX
  8
0
 62
4
 10
-5.54059832E+01
 20
1.51669485E+02
  0
VERTEX
  8
0
 62
4
 10
-5.56005076E+01
 20
1.51952594E+02
  0
VERTEX
  8
0
 62
4
 10
-5.58209042E+01
 20
1.52218906E+02
  0
VERTEX
  8
0
 62
4
 10
-5.60654955E+01
 20
1.52466394E+02
  0
VERTEX
  8
0
 62
4
 10
-5.63324200E+01
 20
1.52693175E+02
  0
VERTEX
  8
0
 62
4
 10
-5.66196464E+01
 20
1.52897523E+02
  0
VERTEX
  8
0
 62
4
 10
-5.69249886E+01
 20
1.53077883E+02
  0
VERTEX
  8
0
 62
4
 10
-5.72461228E+01
 20
1.53232882E+02
  0
VERTEX
  8
0
 62
4
 10
-5.75806050E+01
 20
1.53361340E+02
  0
VERTEX
  8
0
 62
4
 10
-5.79258896E+01
 20
1.53462281E+02
  0
VERTEX
  8
0
 62
4
 10
-5.82793487E+01
 20
1.53534935E+02
  0
VERTEX
  8
0
 62
4
 10
-5.86382923E+01
 20
1.53578750E+02
  0
VERTEX
  8
0
 62
4
 10
-5.89999886E+01
 20
1.53593392E+02
  0
VERTEX
  8
0
 62
4
 10
-5.93616849E+01
 20
1.53578750E+02
  0
VERTEX
  8
0
 62
4
 10
-5.97206285E+01
 20
1.53534935E+02
  0
VERTEX
  8
0
 62
4
 10
-6.00740876E+01
 20
1.53462281E+02
  0
VERTEX
  8
0
 62
4
 10
-6.04193722E+01
 20
1.53361340E+02
  0
VERTEX
  8
0
 62
4
 10
-6.07538544E+01
 20
1.53232882E+02
  0
VERTEX
  8
0
 62
4
 10
-6.10749886E+01
 20
1.53077883E+02
  0
VERTEX
  8
0
 62
4
 10
-6.13803308E+01
 20
1.52897523E+02
  0
VERTEX
  8
0
 62
4
 10
-6.16675572E+01
 20
1.52693175E+02
  0
VERTEX
  8
0
 62
4
 10
-6.19344817E+01
 20
1.52466394E+02
  0
VERTEX
  8
0
 62
4
 10
-6.21790730E+01
 20
1.52218906E+02
  0
VERTEX
  8
0
 62
4
 10
-6.23994696E+01
 20
1.51952594E+02
  0
VERTEX
  8
0
 62
4
 10
-6.25939940E+01
 20
1.51669486E+02
  0
VERTEX
  8
0
 62
4
 10
-6.27611659E+01
 20
1.51371735E+02
  0
VERTEX
  8
0
 62
4
 10
-6.28997130E+01
 20
1.51061609E+02
  0
VERTEX
  8
0
 62
4
 10
-6.30085808E+01
 20
1.50741466E+02
  0
VERTEX
  8
0
 62
4
 10
-6.30869408E+01
 20
1.50413745E+02
  0
VERTEX
  8
0
 62
4
 10
-6.31341966E+01
 20
1.50080938E+02
  0
VERTEX
  8
0
 62
4
 10
-6.31499886E+01
 20
1.49745579E+02
  0
SEQEND
  8
0
  0
LINE
  8
0
 62
4
 10
-5.48499886E+01
 20
1.49086271E+02
 11
-5.48499886E+01
 21
1.49745579E+02
  0
ARC
  8
0
 62
4
 10
-4.46340640E+00
 20
9.11661273E+01
 40
8.02368575E+01
 50
1.31121885E+02
 51
1.34565706E+02
  0
ARC
  8
0
 62
4
 10
-1.13536439E+02
 20
9.11662695E+01
 40
8.02366638E+01
 50
4.54342898E+01
 51
4.88781190E+01
  0
POLYLINE
  8
0
 62
4
 66
1
  0
VERTEX
  8
0
 62
4
 10
-5.52999886E+01
 20
1.52189064E+02
  0
VERTEX
  8
0
 62
4
 10
-5.52846909E+01
 20
1.51873238E+02
  0
VERTEX
  8
0
 62
4
 10
-5.52389211E+01
 20
1.51559955E+02
  0
VERTEX
  8
0
 62
4
 10
-5.51630475E+01
 20
1.51251737E+02
  0
VERTEX
  8
0
 62
4
 10
-5.50576811E+01
 20
1.50951066E+02
  0
VERTEX
  8
0
 62
4
 10
-5.49236703E+01
 20
1.50660362E+02
  0
VERTEX
  8
0
 62
4
 10
-5.47620940E+01
 20
1.50381967E+02
  0
VERTEX
  8
0
 62
4
 10
-5.45742532E+01
 20
1.50118121E+02
  0
VERTEX
  8
0
 62
4
 10
-5.43616602E+01
 20
1.49870949E+02
  0
VERTEX
  8
0
 62
4
 10
-5.41260267E+01
 20
1.49642442E+02
  0
VERTEX
  8
0
 62
4
 10
-5.38692499E+01
 20
1.49434438E+02
  0
VERTEX
  8
0
 62
4
 10
-5.35933972E+01
 20
1.49248613E+02
  0
VERTEX
  8
0
 62
4
 10
-5.33006895E+01
 20
1.49086463E+02
  0
VERTEX
  8
0
 62
4
 10
-5.29934837E+01
 20
1.48949293E+02
  0
VERTEX
  8
0
 62
4
 10
-5.26742532E+01
 20
1.48838208E+02
  0
VERTEX
  8
0
 62
4
 10
-5.23455682E+01
 20
1.48754102E+02
  0
VERTEX
  8
0
 62
4
 10
-5.20100750E+01
 20
1.48697652E+02
  0
VERTEX
  8
0
 62
4
 10
-5.16704750E+01
 20
1.48669313E+02
  0
VERTEX
  8
0
 62
4
 10
-5.13295023E+01
 20
1.48669313E+02
  0
VERTEX
  8
0
 62
4
 10
-5.09899022E+01
 20
1.48697652E+02
  0
VERTEX
  8
0
 62
4
 10
-5.06544091E+01
 20
1.48754102E+02
  0
VERTEX
  8
0
 62
4
 10
-5.03257240E+01
 20
1.48838208E+02
  0
VERTEX
  8
0
 62
4
 10
-5.00064935E+01
 20
1.48949293E+02
  0
VERTEX
  8
0
 62
4
 10
-4.96992877E+01
 20
1.49086463E+02
  0
VERTEX
  8
0
 62
4
 10
-4.94065801E+01
 20
1.49248613E+02
  0
VERTEX
  8
0
 62
4
 10
-4.91307274E+01
 20
1.49434438E+02
  0
VERTEX
  8
0
 62
4
 10
-4.88739505E+01
 20
1.49642442E+02
  0
VERTEX
  8
0
 62
4
 10
-4.86383170E+01
 20
1.49870949E+02
  0
VERTEX
  8
0
 62
4
 10
-4.84257240E+01
 20
1.50118121E+02
  0
VERTEX
  8
0
 62
4
 10
-4.82378832E+01
 20
1.50381967E+02
  0
VERTEX
  8
0
 62
4
 10
-4.80763069E+01
 20
1.50660362E+02
  0
VERTEX
  8
0
 62
4
 10
-4.79422961E+01
 20
1.50951066E+02
  0
VERTEX
  8
0
 62
4
 10
-4.78369297E+01
 20
1.51251737E+02
  0
VERTEX
  8
0
 62
4
 10
-4.77610561E+01
 20
1.51559955E+02
  0
VERTEX
  8
0
 62
4
 10
-4.77152863E+01
 20
1.51873238E+02
  0
VERTEX
  8
0
 62
4
 10
-4.76999886E+01
 20
1.52189064E+02
  0
SEQEND
  8
0
  0
POLYLINE
  8
0
 62
4
 66
1
  0
VERTEX
  8
0
 62
4
 10
-5.38863552E+01
 20
1.55305574E+02
  0
VERTEX
  8
0
 62
4
 10
-5.41368878E+01
 20
1.55100627E+02
  0
VERTEX
  8
0
 62
4
 10
-5.43670362E+01
 20
1.54876068E+02
  0
VERTEX
  8
0
 62
4
 10
-5.45750213E+01
 20
1.54633633E+02
  0
VERTEX
  8
0
 62
4
 10
-5.47592352E+01
 20
1.54375197E+02
  0
VERTEX
  8
0
 62
4
 10
-5.49182540E+01
 20
1.54102758E+02
  0
VERTEX
  8
0
 62
4
 10
-5.50508484E+01
 20
1.53818420E+02
  0
VERTEX
  8
0
 62
4
 10
-5.51559933E+01
 20
1.53524383E+02
  0
VERTEX
  8
0
 62
4
 10
-5.52328760E+01
 20
1.53222919E+02
  0
VERTEX
  8
0
 62
4
 10
-5.52809021E+01
 20
1.52916359E+02
  0
VERTEX
  8
0
 62
4
 10
-5.52997003E+01
 20
1.52607072E+02
  0
VERTEX
  8
0
 62
4
 10
-5.52891254E+01
 20
1.52297450E+02
  0
VERTEX
  8
0
 62
4
 10
-5.52492591E+01
 20
1.51989886E+02
  0
VERTEX
  8
0
 62
4
 10
-5.51804095E+01
 20
1.51686758E+02
  0
VERTEX
  8
0
 62
4
 10
-5.50831090E+01
 20
1.51390408E+02
  0
VERTEX
  8
0
 62
4
 10
-5.49581096E+01
 20
1.51103129E+02
  0
VERTEX
  8
0
 62
4
 10
-5.48063777E+01
 20
1.50827139E+02
  0
VERTEX
  8
0
 62
4
 10
-5.46290862E+01
 20
1.50564574E+02
  0
VERTEX
  8
0
 62
4
 10
-5.44276057E+01
 20
1.50317462E+02
  0
VERTEX
  8
0
 62
4
 10
-5.42034936E+01
 20
1.50087715E+02
  0
VERTEX
  8
0
 62
4
 10
-5.39584824E+01
 20
1.49877107E+02
  0
VERTEX
  8
0
 62
4
 10
-5.36944661E+01
 20
1.49687268E+02
  0
VERTEX
  8
0
 62
4
 10
-5.34134858E+01
 20
1.49519664E+02
  0
VERTEX
  8
0
 62
4
 10
-5.31177134E+01
 20
1.49375592E+02
  0
VERTEX
  8
0
 62
4
 10
-5.28094354E+01
 20
1.49256164E+02
  0
VERTEX
  8
0
 62
4
 10
-5.24910349E+01
 20
1.49162305E+02
  0
VERTEX
  8
0
 62
4
 10
-5.21649733E+01
 20
1.49094740E+02
  0
VERTEX
  8
0
 62
4
 10
-5.18337711E+01
 20
1.49053991E+02
  0
VERTEX
  8
0
 62
4
 10
-5.14999886E+01
 20
1.49040372E+02
  0
VERTEX
  8
0
 62
4
 10
-5.11662061E+01
 20
1.49053991E+02
  0
VERTEX
  8
0
 62
4
 10
-5.08350039E+01
 20
1.49094740E+02
  0
VERTEX
  8
0
 62
4
 10
-5.05089423E+01
 20
1.49162305E+02
  0
VERTEX
  8
0
 62
4
 10
-5.01905418E+01
 20
1.49256164E+02
  0
VERTEX
  8
0
 62
4
 10
-4.98822638E+01
 20
1.49375592E+02
  0
VERTEX
  8
0
 62
4
 10
-4.95864914E+01
 20
1.49519664E+02
  0
VERTEX
  8
0
 62
4
 10
-4.93055111E+01
 20
1.49687268E+02
  0
VERTEX
  8
0
 62
4
 10
-4.90414948E+01
 20
1.49877107E+02
  0
VERTEX
  8
0
 62
4
 10
-4.87964836E+01
 20
1.50087715E+02
  0
VERTEX
  8
0
 62
4
 10
-4.85723715E+01
 20
1.50317462E+02
  0
VERTEX
  8
0
 62
4
 10
-4.83708910E+01
 20
1.50564574E+02
  0
VERTEX
  8
0
 62
4
 10
-4.81935995E+01
 20
1.50827139E+02
  0
VERTEX
  8
0
 62
4
 10
-4.80418676E+01
 20
1.51103129E+02
  0
VERTEX
  8
0
 62
4
 10
-4.79168682E+01
 20
1.51390408E+02
  0
VERTEX
  8
0
 62
4
 10
-4.78195677E+01
 20
1.51686758E+02
  0
VERTEX
  8
0
 62
4
 10
-4.77507181E+01
 20
1.51989886E+02
  0
VERTEX
  8
0
 62
4
 10
-4.77108518E+01
 20
1.52297450E+02
  0
VERTEX
  8
0
 62
4
 10
-4.77002769E+01
 20
1.52607072E+02
  0
VERTEX
  8
0
 62
4
 10
-4.77190751E+01
 20
1.52916359E+02
  0
VERTEX
  8
0
 62
4
 10
-4.77671012E+01
 20
1.53222919E+02
  0
VERTEX
  8
0
 62
4
 10
-4.78439839E+01
 20
1.53524383E+02
  0
VERTEX
  8
0
 62
4
 10
-4.79491288E+01
 20
1.53818420E+02
  0
VERTEX
  8
0
 62
4
 10
-4.80817232E+01
 20
1.54102758E+02
  0
VERTEX
  8
0
 62
4
 10
-4.82407420E+01
 20
1.54375197E+02
  0
VERTEX
  8
0
 62
4
 10
-4.84249559E+01
 20
1.54633633E+02
  0
VERTEX
  8
0
 62
4
 10
-4.86329410E+01
 20
1.54876068E+02
  0
VERTEX
  8
0
 62
4
 10
-4.88630894E+01
 20
1.55100627E+02
  0
VERTEX
  8
0
 62
4
 10
-4.91136220E+01
 20
1.55305574E+02
  0
SEQEND
  8
0
  0
LINE
  8
0
 62
4
 10
-5.52999886E+01
 20
1.52189064E+02
 11
-5.52999886E+01
 21
1.52563671E+02
  0
LINE
  8
0
 62
4
 10
-4.76999886E+01
 20
1.52563671E+02
 11
-4.76999886E+01
 21
1.52189064E+02
  0
LINE
  8
0
 62
4
 10
-5.48999886E+01
 20
1.52563671E+02
 11
-5.48999886E+01
 21
1.53060093E+02
  0
POLYLINE
  8
0
 62
4
 66
1
  0
VERTEX
  8
0
 62
4
 10
-5.48999886E+01
 20
1.52563671E+02
  0
VERTEX
  8
0
 62
4
 10
-5.48863012E+01
 20
1.52281090E+02
  0
VERTEX
  8
0
 62
4
 10
-5.48453492E+01
 20
1.52000784E+02
  0
VERTEX
  8
0
 62
4
 10
-5.47774624E+01
 20
1.51725010E+02
  0
VERTEX
  8
0
 62
4
 10
-5.46831872E+01
 20
1.51455988E+02
  0
VERTEX
  8
0
 62
4
 10
-5.45632828E+01
 20
1.51195885E+02
  0
VERTEX
  8
0
 62
4
 10
-5.44187145E+01
 20
1.50946794E+02
  0
VERTEX
  8
0
 62
4
 10
-5.42506464E+01
 20
1.50710722E+02
  0
VERTEX
  8
0
 62
4
 10
-5.40604316E+01
 20
1.50489568E+02
  0
VERTEX
  8
0
 62
4
 10
-5.38496016E+01
 20
1.50285114E+02
  0
VERTEX
  8
0
 62
4
 10
-5.36198540E+01
 20
1.50099006E+02
  0
VERTEX
  8
0
 62
4
 10
-5.33730384E+01
 20
1.49932741E+02
  0
VERTEX
  8
0
 62
4
 10
-5.31111421E+01
 20
1.49787660E+02
  0
VERTEX
  8
0
 62
4
 10
-5.28362737E+01
 20
1.49664929E+02
  0
VERTEX
  8
0
 62
4
 10
-5.25506464E+01
 20
1.49565537E+02
  0
VERTEX
  8
0
 62
4
 10
-5.22565598E+01
 20
1.49490284E+02
  0
VERTEX
  8
0
 62
4
 10
-5.19563817E+01
 20
1.49439776E+02
  0
VERTEX
  8
0
 62
4
 10
-5.16525290E+01
 20
1.49414420E+02
  0
VERTEX
  8
0
 62
4
 10
-5.13474482E+01
 20
1.49414420E+02
  0
VERTEX
  8
0
 62
4
 10
-5.10435955E+01
 20
1.49439776E+02
  0
VERTEX
  8
0
 62
4
 10
-5.07434174E+01
 20
1.49490284E+02
  0
VERTEX
  8
0
 62
4
 10
-5.04493308E+01
 20
1.49565537E+02
  0
VERTEX
  8
0
 62
4
 10
-5.01637035E+01
 20
1.49664929E+02
  0
VERTEX
  8
0
 62
4
 10
-4.98888352E+01
 20
1.49787660E+02
  0
VERTEX
  8
0
 62
4
 10
-4.96269389E+01
 20
1.49932741E+02
  0
VERTEX
  8
0
 62
4
 10
-4.93801233E+01
 20
1.50099006E+02
  0
VERTEX
  8
0
 62
4
 10
-4.91503756E+01
 20
1.50285114E+02
  0
VERTEX
  8
0
 62
4
 10
-4.89395456E+01
 20
1.50489568E+02
  0
VERTEX
  8
0
 62
4
 10
-4.87493308E+01
 20
1.50710722E+02
  0
VERTEX
  8
0
 62
4
 10
-4.85812627E+01
 20
1.50946794E+02
  0
VERTEX
  8
0
 62
4
 10
-4.84366944E+01
 20
1.51195885E+02
  0
VERTEX
  8
0
 62
4
 10
-4.83167900E+01
 20
1.51455988E+02
  0
VERTEX
  8
0
 62
4
 10
-4.82225149E+01
 20
1.51725010E+02
  0
VERTEX
  8
0
 62
4
 10
-4.81546280E+01
 20
1.52000784E+02
  0
VERTEX
  8
0
 62
4
 10
-4.81136760E+01
 20
1.52281090E+02
  0
VERTEX
  8
0
 62
4
 10
-4.80999886E+01
 20
1.52563671E+02
  0
SEQEND
  8
0
  0
LINE
  8
0
 62
4
 10
-4.80999885E+01
 20
1.52563671E+02
 11
-4.80999885E+01
 21
1.53060093E+02
  0
POLYLINE
  8
0
 62
4
 66
1
  0
VERTEX
  8
0
 62
4
 10
-5.48999886E+01
 20
1.53060093E+02
  0
VERTEX
  8
0
 62
4
 10
-5.48870506E+01
 20
1.52785341E+02
  0
VERTEX
  8
0
 62
4
 10
-5.48483350E+01
 20
1.52512680E+02
  0
VERTEX
  8
0
 62
4
 10
-5.47841364E+01
 20
1.52244185E+02
  0
VERTEX
  8
0
 62
4
 10
-5.46949435E+01
 20
1.51981900E+02
  0
VERTEX
  8
0
 62
4
 10
-5.45814351E+01
 20
1.51727821E+02
  0
VERTEX
  8
0
 62
4
 10
-5.44444750E+01
 20
1.51483880E+02
  0
VERTEX
  8
0
 62
4
 10
-5.42851056E+01
 20
1.51251936E+02
  0
VERTEX
  8
0
 62
4
 10
-5.41045397E+01
 20
1.51033753E+02
  0
VERTEX
  8
0
 62
4
 10
-5.39041517E+01
 20
1.50830992E+02
  0
VERTEX
  8
0
 62
4
 10
-5.36854665E+01
 20
1.50645195E+02
  0
VERTEX
  8
0
 62
4
 10
-5.34501485E+01
 20
1.50477778E+02
  0
VERTEX
  8
0
 62
4
 10
-5.31999886E+01
 20
1.50330013E+02
  0
VERTEX
  8
0
 62
4
 10
-5.29368907E+01
 20
1.50203026E+02
  0
VERTEX
  8
0
 62
4
 10
-5.26628571E+01
 20
1.50097782E+02
  0
VERTEX
  8
0
 62
4
 10
-5.23799734E+01
 20
1.50015084E+02
  0
VERTEX
  8
0
 62
4
 10
-5.20903924E+01
 20
1.49955560E+02
  0
VERTEX
  8
0
 62
4
 10
-5.17963181E+01
 20
1.49919664E+02
  0
VERTEX
  8
0
 62
4
 10
-5.14999886E+01
 20
1.49907668E+02
  0
VERTEX
  8
0
 62
4
 10
-5.12036591E+01
 20
1.49919664E+02
  0
VERTEX
  8
0
 62
4
 10
-5.09095848E+01
 20
1.49955560E+02
  0
VERTEX
  8
0
 62
4
 10
-5.06200038E+01
 20
1.50015084E+02
  0
VERTEX
  8
0
 62
4
 10
-5.03371201E+01
 20
1.50097782E+02
  0
VERTEX
  8
0
 62
4
 10
-5.00630865E+01
 20
1.50203026E+02
  0
VERTEX
  8
0
 62
4
 10
-4.97999886E+01
 20
1.50330013E+02
  0
VERTEX
  8
0
 62
4
 10
-4.95498287E+01
 20
1.50477778E+02
  0
VERTEX
  8
0
 62
4
 10
-4.93145107E+01
 20
1.50645195E+02
  0
VERTEX
  8
0
 62
4
 10
-4.90958255E+01
 20
1.50830992E+02
  0
VERTEX
  8
0
 62
4
 10
-4.88954375E+01
 20
1.51033753E+02
  0
VERTEX
  8
0
 62
4
 10
-4.87148716E+01
 20
1.51251936E+02
  0
VERTEX
  8
0
 62
4
 10
-4.85555022E+01
 20
1.51483880E+02
  0
VERTEX
  8
0
 62
4
 10
-4.84185421E+01
 20
1.51727821E+02
  0
VERTEX
  8
0
 62
4
 10
-4.83050337E+01
 20
1.51981900E+02
  0
VERTEX
  8
0
 62
4
 10
-4.82158408E+01
 20
1.52244185E+02
  0
VERTEX
  8
0
 62
4
 10
-4.81516422E+01
 20
1.52512680E+02
  0
VERTEX
  8
0
 62
4
 10
-4.81129266E+01
 20
1.52785341E+02
  0
VERTEX
  8
0
 62
4
 10
-4.80999886E+01
 20
1.53060093E+02
  0
VERTEX
  8
0
 62
4
 10
-4.81129266E+01
 20
1.53334845E+02
  0
VERTEX
  8
0
 62
4
 10
-4.81516422E+01
 20
1.53607506E+02
  0
VERTEX
  8
0
 62
4
 10
-4.82158408E+01
 20
1.53876001E+02
  0
VERTEX
  8
0
 62
4
 10
-4.83050337E+01
 20
1.54138286E+02
  0
VERTEX
  8
0
 62
4
 10
-4.84185421E+01
 20
1.54392365E+02
  0
VERTEX
  8
0
 62
4
 10
-4.85555022E+01
 20
1.54636306E+02
  0
VERTEX
  8
0
 62
4
 10
-4.87148716E+01
 20
1.54868250E+02
  0
VERTEX
  8
0
 62
4
 10
-4.88954375E+01
 20
1.55086433E+02
  0
VERTEX
  8
0
 62
4
 10
-4.90958255E+01
 20
1.55289194E+02
  0
VERTEX
  8
0
 62
4
 10
-4.93145107E+01
 20
1.55474991E+02
  0
VERTEX
  8
0
 62
4
 10
-4.95498287E+01
 20
1.55642408E+02
  0
VERTEX
  8
0
 62
4
 10
-4.97999886E+01
 20
1.55790173E+02
  0
VERTEX
  8
0
 62
4
 10
-5.00630865E+01
 20
1.55917160E+02
  0
VERTEX
  8
0
 62
4
 10
-5.03371201E+01
 20
1.56022404E+02
  0
VERTEX
  8
0
 62
4
 10
-5.06200038E+01
 20
1.56105102E+02
  0
VERTEX
  8
0
 62
4
 10
-5.09095848E+01
 20
1.56164626E+02
  0
VERTEX
  8
0
 62
4
 10
-5.12036591E+01
 20
1.56200522E+02
  0
VERTEX
  8
0
 62
4
 10
-5.14999886E+01
 20
1.56212518E+02
  0
VERTEX
  8
0
 62
4
 10
-5.17963181E+01
 20
1.56200522E+02
  0
VERTEX
  8
0
 62
4
 10
-5.20903924E+01
 20
1.56164626E+02
  0
VERTEX
  8
0
 62
4
 10
-5.23799734E+01
 20
1.56105102E+02
  0
VERTEX
  8
0
 62
4
 10
-5.26628571E+01
 20
1.56022404E+02
  0
VERTEX
  8
0
 62
4
 10
-5.29368907E+01
 20
1.55917160E+02
  0
VERTEX
  8
0
 62
4
 10
-5.31999886E+01
 20
1.55790173E+02
  0
VERTEX
  8
0
 62
4
 10
-5.34501485E+01
 20
1.55642408E+02
  0
VERTEX
  8
0
 62
4
 10
-5.36854665E+01
 20
1.55474991E+02
  0
VERTEX
  8
0
 62
4
 10
-5.39041517E+01
 20
1.55289194E+02
  0
VERTEX
  8
0
 62
4
 10
-5.41045397E+01
 20
1.55086433E+02
  0
VERTEX
  8
0
 62
4
 10
-5.42851056E+01
 20
1.54868250E+02
  0
VERTEX
  8
0
 62
4
 10
-5.44444750E+01
 20
1.54636306E+02
  0
VERTEX
  8
0
 62
4
 10
-5.45814351E+01
 20
1.54392365E+02
  0
VERTEX
  8
0
 62
4
 10
-5.46949435E+01
 20
1.54138286E+02
  0
VERTEX
  8
0
 62
4
 10
-5.47841364E+01
 20
1.53876001E+02
  0
VERTEX
  8
0
 62
4
 10
-5.48483350E+01
 20
1.53607506E+02
  0
VERTEX
  8
0
 62
4
 10
-5.48870506E+01
 20
1.53334845E+02
  0
VERTEX
  8
0
 62
4
 10
-5.48999886E+01
 20
1.53060093E+02
  0
SEQEND
  8
0
  0
ARC
  8
0
 62
4
 10
2.53028844E+00
 20
9.51395741E+01
 40
7.95040043E+01
 50
1.31098609E+02
 51
1.34573756E+02
  0
ARC
  8
0
 62
4
 10
-1.05530266E+02
 20
9.51395741E+01
 40
7.95040043E+01
 50
4.54262442E+01
 51
4.89013908E+01
  0
LINE
  8
0
 62
4
 10
-5.57285997E+01
 20
1.46718680E+02
 11
-4.39999886E+01
 21
1.46718680E+02
  0
LINE
  8
0
 62
4
 10
-5.61042317E+01
 20
1.46330009E+02
 11
-5.04999886E+01
 21
1.46330009E+02
  0
LINE
  8
0
 62
7
 10
-1.50000114E+01
 20
1.40000015E+02
 11
-8.80000191E+01
 21
1.40000015E+02
  0
LINE
  8
0
 62
7
 10
-1.50000114E+01
 20
1.31000000E+02
 11
-8.80000191E+01
 21
1.31000000E+02
  0
LINE
  8
0
 62
7
 10
-2.48419807E+01
 20
1.44000000E+02
 11
-8.80000191E+01
 21
1.44000000E+02
  0
LINE
  8
0
 62
7
 10
-4.10400043E+02
 20
5.75000229E+01
 11
-4.10400043E+02
 21
1.43499985E+02
  0
LINE
  8
0
 62
7
 10
-4.07400043E+02
 20
8.24987946E+01
 11
-4.07400043E+02
 21
1.18501083E+02
  0
LINE
  8
0
 62
7
 10
-4.06999958E+02
 20
1.47500000E+02
 11
-3.20999989E+02
 21
1.47499969E+02
  0
LINE
  8
0
  6
CENTER
 62
2
 10
-3.99000019E+02
 20
1.49685333E+02
 11
-3.99000019E+02
 21
1.20961639E+02
  0
LINE
  8
0
  6
CENTER
 62
2
 10
-3.99000019E+02
 20
5.07628784E+01
 11
-3.99000019E+02
 21
8.09070358E+01
  0
LINE
  8
0
 62
7
 10
-4.11000019E+02
 20
5.75000229E+01
 11
-4.11000019E+02
 21
1.43499985E+02
  0
LINE
  8
0
 62
7
 10
-3.81069455E+02
 20
1.15801561E+02
 11
-3.91189511E+02
 21
1.25921617E+02
  0
LINE
  8
0
 62
7
 10
-3.79301580E+02
 20
1.17569350E+02
 11
-3.89421615E+02
 21
1.27689384E+02
  0
LINE
  8
0
 62
7
 10
-3.65250019E+02
 20
1.42899994E+02
 11
-3.65250019E+02
 21
1.23389679E+02
  0
LINE
  8
0
 62
7
 10
-4.06399952E+02
 20
1.01750000E+02
 11
-3.86889698E+02
 21
1.01750000E+02
  0
LINE
  8
0
 62
7
 10
-3.81069499E+02
 20
8.51986725E+01
 11
-3.91189534E+02
 21
7.50786384E+01
  0
LINE
  8
0
 62
7
 10
-3.79301711E+02
 20
8.34307544E+01
 11
-3.89421767E+02
 21
7.33106987E+01
  0
LINE
  8
0
 62
7
 10
-3.21599964E+02
 20
1.01749977E+02
 11
-3.41110279E+02
 21
1.01749977E+02
  0
LINE
  8
0
 62
7
 10
-3.65250019E+02
 20
5.81000366E+01
 11
-3.65250019E+02
 21
7.76102600E+01
  0
LINE
  8
0
 62
7
 10
-4.06399952E+02
 20
9.92500305E+01
 11
-3.86889668E+02
 21
9.92500305E+01
  0
LINE
  8
0
 62
7
 10
-4.06999989E+02
 20
5.41000290E+01
 11
-3.20999989E+02
 21
5.40999756E+01
  0
LINE
  8
0
 62
7
 10
-3.17600025E+02
 20
5.75000000E+01
 11
-3.17600025E+02
 21
1.43499969E+02
  0
LINE
  8
0
 62
7
 10
-3.20600025E+02
 20
8.24988861E+01
 11
-3.20600025E+02
 21
1.18501175E+02
  0
LINE
  8
0
 62
7
 10
-3.45998829E+02
 20
5.70999756E+01
 11
-3.82001118E+02
 21
5.70999756E+01
  0
LINE
  8
0
 62
7
 10
-3.16999989E+02
 20
5.75000000E+01
 11
-3.16999989E+02
 21
1.43499969E+02
  0
LINE
  8
0
  6
CENTER
 62
2
 10
-4.13555500E+02
 20
6.55000153E+01
 11
-3.85134876E+02
 21
6.55000153E+01
  0
LINE
  8
0
 62
7
 10
-4.06999989E+02
 20
5.35000305E+01
 11
-3.20999989E+02
 21
5.34999924E+01
  0
LINE
  8
0
 62
7
 10
-3.48698434E+02
 20
8.34306228E+01
 11
-3.38578401E+02
 21
7.33105870E+01
  0
LINE
  8
0
 62
7
 10
-3.46930646E+02
 20
8.51984112E+01
 11
-3.36810612E+02
 21
7.50783754E+01
  0
LINE
  8
0
 62
7
 10
-3.21600025E+02
 20
9.92499924E+01
 11
-3.41110218E+02
 21
9.92499924E+01
  0
LINE
  8
0
 62
7
 10
-3.62749989E+02
 20
5.81000061E+01
 11
-3.62749989E+02
 21
7.76103134E+01
  0
LINE
  8
0
  6
CENTER
 62
2
 10
-3.64000019E+02
 20
1.51355759E+02
 11
-3.64000019E+02
 21
4.95240784E+01
  0
LINE
  8
0
 62
7
 10
-4.06999958E+02
 20
1.46900024E+02
 11
-3.20999989E+02
 21
1.46899963E+02
  0
LINE
  8
0
  6
CENTER
 62
2
 10
-3.28999989E+02
 20
1.49872681E+02
 11
-3.28999989E+02
 21
1.20135757E+02
  0
LINE
  8
0
  6
CENTER
 62
2
 10
-4.13555500E+02
 20
1.35500000E+02
 11
-3.84309010E+02
 21
1.35500000E+02
  0
LINE
  8
0
 62
7
 10
-3.46930674E+02
 20
1.15801657E+02
 11
-3.36810605E+02
 21
1.25921722E+02
  0
LINE
  8
0
 62
7
 10
-3.48698570E+02
 20
1.17569511E+02
 11
-3.38578512E+02
 21
1.27689565E+02
  0
LINE
  8
0
 62
7
 10
-3.62749989E+02
 20
1.42899948E+02
 11
-3.62749989E+02
 21
1.23389725E+02
  0
LINE
  8
0
 62
7
 10
-3.45998920E+02
 20
1.43899963E+02
 11
-3.82001148E+02
 21
1.43899963E+02
  0
LINE
  8
0
 62
7
 10
-3.34000019E+02
 20
1.47499969E+02
 11
-3.34000019E+02
 21
1.46899963E+02
  0
LINE
  8
0
 62
7
 10
-3.94000019E+02
 20
1.47500000E+02
 11
-3.94000019E+02
 21
1.46900024E+02
  0
LINE
  8
0
 62
7
 10
-3.94000019E+02
 20
5.41000290E+01
 11
-3.94000019E+02
 21
5.35000305E+01
  0
LINE
  8
0
 62
7
 10
-3.34000019E+02
 20
5.40999756E+01
 11
-3.34000019E+02
 21
5.34999924E+01
  0
LINE
  8
0
 62
7
 10
-4.03000019E+02
 20
1.23365311E+02
 11
-4.03000019E+02
 21
1.22999969E+02
  0
LINE
  8
0
 62
7
 10
-3.86865345E+02
 20
1.39500046E+02
 11
-3.86500050E+02
 21
1.39500046E+02
  0
LINE
  8
0
 62
7
 10
-3.41134632E+02
 20
1.39499954E+02
 11
-3.41500019E+02
 21
1.39499954E+02
  0
LINE
  8
0
 62
7
 10
-3.24999928E+02
 20
1.23365326E+02
 11
-3.24999928E+02
 21
1.23000061E+02
  0
LINE
  8
0
 62
7
 10
-4.03000050E+02
 20
7.76346436E+01
 11
-4.03000050E+02
 21
7.79999084E+01
  0
LINE
  8
0
 62
7
 10
-3.25000019E+02
 20
7.76346664E+01
 11
-3.25000019E+02
 21
7.80000000E+01
  0
LINE
  8
0
 62
7
 10
-3.41134632E+02
 20
6.14999390E+01
 11
-3.41499928E+02
 21
6.14999390E+01
  0
LINE
  8
0
 62
7
 10
-3.86865314E+02
 20
6.15000305E+01
 11
-3.86500019E+02
 21
6.15000305E+01
  0
LINE
  8
0
  6
CENTER
 62
2
 10
-3.42809132E+02
 20
6.55000153E+01
 11
-3.14012257E+02
 21
6.55000153E+01
  0
LINE
  8
0
  6
CENTER
 62
2
 10
-3.43222126E+02
 20
1.35500000E+02
 11
-3.14012257E+02
 21
1.35500000E+02
  0
LINE
  8
0
  6
CENTER
 62
2
 10
-3.28999989E+02
 20
5.08976555E+01
 11
-3.28999989E+02
 21
7.95789261E+01
  0
LINE
  8
0
  6
CENTER
 62
2
 10
-3.12465199E+02
 20
1.00500000E+02
 11
-4.14465443E+02
 21
1.00500000E+02
  0
LINE
  8
0
  6
CENTER
 62
2
 10
-3.75000080E+02
 20
1.34800034E+02
 11
-3.75000080E+02
 21
1.49952621E+02
  0
CIRCLE
  8
0
 62
7
 10
-3.99000019E+02
 20
1.35499969E+02
 40
8.69999981E+00
  0
CIRCLE
  8
0
 62
7
 10
-3.99000019E+02
 20
6.54999924E+01
 40
8.69999981E+00
  0
ARC
  8
0
 62
7
 10
-3.88714527E+02
 20
1.28396545E+02
 40
1.00000000E+00
 50
1.45369634E+02
 51
2.24999955E+02
  0
ARC
  8
0
 62
7
 10
-3.91896534E+02
 20
1.25214508E+02
 40
1.00000000E+00
 50
4.49999910E+01
 51
1.24630380E+02
  0
ARC
  8
0
 62
7
 10
-3.66250019E+02
 20
1.42899994E+02
 40
1.00000000E+00
 50
3.59999959E+02
 51
8.99999956E+01
  0
ARC
  8
0
 62
7
 10
-3.99000019E+02
 20
1.35499969E+02
 40
1.15000000E+01
 50
2.56113404E+02
 51
1.38868930E+01
  0
ARC
  8
0
 62
7
 10
-4.06399952E+02
 20
1.02750000E+02
 40
1.00000000E+00
 50
1.79999964E+02
 51
2.69999946E+02
  0
ARC
  8
0
 62
7
 10
-3.91896534E+02
 20
7.57854767E+01
 40
1.00000000E+00
 50
2.35369648E+02
 51
3.14999968E+02
  0
ARC
  8
0
 62
7
 10
-3.88714527E+02
 20
7.26034698E+01
 40
1.00000000E+00
 50
1.34999987E+02
 51
2.14630376E+02
  0
ARC
  8
0
 62
7
 10
-4.06999989E+02
 20
1.43499985E+02
 40
3.40000033E+00
 50
9.00000231E+01
 51
1.79999977E+02
  0
ARC
  8
0
 62
7
 10
-3.66250019E+02
 20
5.81000366E+01
 40
1.00000000E+00
 50
2.69999991E+02
 51
3.59999973E+02
  0
ARC
  8
0
 62
7
 10
-4.06400043E+02
 20
9.82500076E+01
 40
1.00000000E+00
 50
8.99999549E+01
 51
1.79999991E+02
  0
ARC
  8
0
 62
7
 10
-4.06999989E+02
 20
5.75000000E+01
 40
3.40000033E+00
 50
1.80000036E+02
 51
2.69999991E+02
  0
ARC
  8
0
 62
7
 10
-3.99000019E+02
 20
6.54999924E+01
 40
1.15000000E+01
 50
3.46113659E+02
 51
1.03886911E+02
  0
ARC
  8
0
 62
7
 10
-4.06999989E+02
 20
1.43499985E+02
 40
4.00000000E+00
 50
9.00000231E+01
 51
1.79999977E+02
  0
CIRCLE
  8
0
 62
7
 10
-3.99000019E+02
 20
1.35499969E+02
 40
8.00000000E+00
  0
CIRCLE
  8
0
 62
7
 10
-3.99000019E+02
 20
6.54999924E+01
 40
8.00000000E+00
  0
ARC
  8
0
 62
7
 10
-4.06999989E+02
 20
5.75000000E+01
 40
4.00000000E+00
 50
1.80000036E+02
 51
2.69999991E+02
  0
ARC
  8
0
 62
7
 10
-3.86500050E+02
 20
1.43000000E+02
 40
3.50000024E+00
 50
2.70000018E+02
 51
3.58726970E+02
  0
ARC
  8
0
 62
7
 10
-4.06500080E+02
 20
1.22999969E+02
 40
3.50000024E+00
 50
2.71274531E+02
 51
4.99579573E-04
  0
ARC
  8
0
 62
7
 10
-4.06399952E+02
 20
1.18501083E+02
 40
1.00000000E+00
 50
9.12747958E+01
 51
1.79999964E+02
  0
ARC
  8
0
 62
7
 10
-3.82001148E+02
 20
1.42900024E+02
 40
1.00000000E+00
 50
8.99999818E+01
 51
1.78726994E+02
  0
ARC
  8
0
 62
7
 10
-4.06500019E+02
 20
7.79999084E+01
 40
3.50000024E+00
 50
0.00000000E+00
 51
8.87269647E+01
  0
ARC
  8
0
 62
7
 10
-3.86500019E+02
 20
5.79999390E+01
 40
3.50000024E+00
 50
1.27452835E+00
 51
8.99999818E+01
  0
ARC
  8
0
 62
7
 10
-4.06400043E+02
 20
8.24987946E+01
 40
1.00000000E+00
 50
1.79999977E+02
 51
2.68726963E+02
  0
ARC
  8
0
 62
7
 10
-3.82001118E+02
 20
5.81000366E+01
 40
1.00000000E+00
 50
1.81274754E+02
 51
2.70000018E+02
  0
ARC
  8
0
 62
7
 10
-3.78594471E+02
 20
1.18276489E+02
 40
1.00000000E+00
 50
2.24999972E+02
 51
3.09385511E+02
  0
ARC
  8
0
 62
7
 10
-3.81776478E+02
 20
1.15094475E+02
 40
1.00000000E+00
 50
3.20613837E+02
 51
4.49999910E+01
  0
ARC
  8
0
 62
7
 10
-3.66250019E+02
 20
1.23389679E+02
 40
1.00000000E+00
 50
2.75613832E+02
 51
3.59999959E+02
  0
ARC
  8
0
 62
7
 10
-3.86889698E+02
 20
1.02750000E+02
 40
1.00000000E+00
 50
2.69999963E+02
 51
3.54386117E+02
  0
ARC
  8
0
 62
7
 10
-3.81776478E+02
 20
8.59055328E+01
 40
1.00000000E+00
 50
3.14999968E+02
 51
3.93854936E+01
  0
ARC
  8
0
 62
7
 10
-3.78594471E+02
 20
8.27235107E+01
 40
1.00000000E+00
 50
5.06138328E+01
 51
1.34999987E+02
  0
ARC
  8
0
 62
7
 10
-3.86889668E+02
 20
9.82500076E+01
 40
1.00000000E+00
 50
5.61382810E+00
 51
8.99999549E+01
  0
ARC
  8
0
 62
7
 10
-3.66250019E+02
 20
7.76102600E+01
 40
1.00000000E+00
 50
3.59999973E+02
 51
8.43861127E+01
  0
CIRCLE
  8
0
 62
7
 10
-3.28999989E+02
 20
6.54999924E+01
 40
8.69999981E+00
  0
ARC
  8
0
 62
7
 10
-3.39285480E+02
 20
7.26034546E+01
 40
1.00000000E+00
 50
3.25369629E+02
 51
4.49999637E+01
  0
ARC
  8
0
 62
7
 10
-3.36103474E+02
 20
7.57854767E+01
 40
1.00000000E+00
 50
2.25000000E+02
 51
3.04630388E+02
  0
ARC
  8
0
 62
7
 10
-3.21600025E+02
 20
9.82500000E+01
 40
1.00000000E+00
 50
3.59999986E+02
 51
8.99999681E+01
  0
ARC
  8
0
 62
7
 10
-3.61750019E+02
 20
5.80999908E+01
 40
1.00000000E+00
 50
1.79999951E+02
 51
2.70000001E+02
  0
ARC
  8
0
 62
7
 10
-3.20999989E+02
 20
5.75000000E+01
 40
3.40000033E+00
 50
2.70000018E+02
 51
3.59999986E+02
  0
ARC
  8
0
 62
7
 10
-3.28999989E+02
 20
6.54999924E+01
 40
1.15000000E+01
 50
7.61135653E+01
 51
1.93886777E+02
  0
ARC
  8
0
 62
7
 10
-3.20999989E+02
 20
5.75000000E+01
 40
4.00000000E+00
 50
2.70000018E+02
 51
3.59999986E+02
  0
CIRCLE
  8
0
 62
7
 10
-3.28999989E+02
 20
6.54999924E+01
 40
8.00000000E+00
  0
ARC
  8
0
 62
7
 10
-3.21499958E+02
 20
7.80000000E+01
 40
3.50000024E+00
 50
9.12745500E+01
 51
1.79999964E+02
  0
ARC
  8
0
 62
7
 10
-3.41499958E+02
 20
5.79999924E+01
 40
3.50000024E+00
 50
8.99999818E+01
 51
1.78726994E+02
  0
ARC
  8
0
 62
7
 10
-3.21600025E+02
 20
8.24988861E+01
 40
1.00000000E+00
 50
2.71274777E+02
 51
0.00000000E+00
  0
ARC
  8
0
 62
7
 10
-3.49405537E+02
 20
8.27235107E+01
 40
1.00000000E+00
 50
4.49999637E+01
 51
1.29385489E+02
  0
ARC
  8
0
 62
7
 10
-3.46223530E+02
 20
8.59055176E+01
 40
1.00000000E+00
 50
1.40613828E+02
 51
2.24999982E+02
  0
ARC
  8
0
 62
7
 10
-3.61750019E+02
 20
7.76103134E+01
 40
1.00000000E+00
 50
9.56138240E+01
 51
1.79999951E+02
  0
ARC
  8
0
 62
7
 10
-3.41110218E+02
 20
9.82500000E+01
 40
1.00000000E+00
 50
8.99999681E+01
 51
1.74386108E+02
  0
ARC
  8
0
 62
7
 10
-3.45998859E+02
 20
5.80999680E+01
 40
1.00000000E+00
 50
2.70000018E+02
 51
3.58726970E+02
  0
CIRCLE
  8
0
 62
7
 10
-3.28999989E+02
 20
1.35499969E+02
 40
8.69999981E+00
  0
ARC
  8
0
 62
7
 10
-3.36103474E+02
 20
1.25214508E+02
 40
1.00000000E+00
 50
5.53696252E+01
 51
1.34999959E+02
  0
ARC
  8
0
 62
7
 10
-3.39285480E+02
 20
1.28396515E+02
 40
1.00000000E+00
 50
3.14999995E+02
 51
3.46303842E+01
  0
ARC
  8
0
 62
7
 10
-3.61750019E+02
 20
1.42899948E+02
 40
1.00000000E+00
 50
8.99999818E+01
 51
1.79999964E+02
  0
ARC
  8
0
 62
7
 10
-3.21599964E+02
 20
1.02749985E+02
 40
1.00000000E+00
 50
2.69999963E+02
 51
0.00000000E+00
  0
ARC
  8
0
 62
7
 10
-3.20999989E+02
 20
1.43499969E+02
 40
3.40000033E+00
 50
0.00000000E+00
 51
8.99999818E+01
  0
ARC
  8
0
 62
7
 10
-3.28999989E+02
 20
1.35499969E+02
 40
1.15000000E+01
 50
1.66113425E+02
 51
2.83886868E+02
  0
ARC
  8
0
 62
7
 10
-3.20999989E+02
 20
1.43499969E+02
 40
4.00000000E+00
 50
0.00000000E+00
 51
8.99999818E+01
  0
CIRCLE
  8
0
 62
7
 10
-3.28999989E+02
 20
1.35499969E+02
 40
8.00000000E+00
  0
ARC
  8
0
 62
7
 10
-3.21499989E+02
 20
1.23000061E+02
 40
3.50000024E+00
 50
1.79999977E+02
 51
2.68726963E+02
  0
ARC
  8
0
 62
7
 10
-3.41500019E+02
 20
1.43000061E+02
 40
3.50000024E+00
 50
1.81274508E+02
 51
2.70000018E+02
  0
ARC
  8
0
 62
7
 10
-3.21599964E+02
 20
1.18501175E+02
 40
1.00000000E+00
 50
0.00000000E+00
 51
8.87269716E+01
  0
ARC
  8
0
 62
7
 10
-3.45998920E+02
 20
1.42899948E+02
 40
1.00000000E+00
 50
1.27477808E+00
 51
8.99999818E+01
  0
ARC
  8
0
 62
7
 10
-3.46223530E+02
 20
1.15094452E+02
 40
1.00000000E+00
 50
1.34999959E+02
 51
2.19385485E+02
  0
ARC
  8
0
 62
7
 10
-3.49405537E+02
 20
1.18276489E+02
 40
1.00000000E+00
 50
2.30613841E+02
 51
3.14999995E+02
  0
ARC
  8
0
 62
7
 10
-3.41110310E+02
 20
1.02749985E+02
 40
1.00000000E+00
 50
1.85613837E+02
 51
2.69999963E+02
  0
ARC
  8
0
 62
7
 10
-3.61750019E+02
 20
1.23389725E+02
 40
1.00000000E+00
 50
1.79999964E+02
 51
2.64386104E+02
  0
CIRCLE
  8
0
 62
7
 10
-3.64000019E+02
 20
1.00500076E+02
 40
2.20000000E+01
  0
CIRCLE
  8
0
 62
7
 10
-3.64000019E+02
 20
1.00500076E+02
 40
1.95000000E+01
  0
CIRCLE
  8
0
 62
7
 10
-3.64000019E+02
 20
1.00500000E+02
 40
2.10111084E+01
  0
ARC
  8
0
 62
7
 10
-3.25999958E+02
 20
1.23365326E+02
 40
1.00000000E+00
 50
0.00000000E+00
 51
1.03886139E+02
  0
ARC
  8
0
 62
7
 10
-3.41134663E+02
 20
1.38499969E+02
 40
1.00000000E+00
 50
3.46114302E+02
 51
8.99999818E+01
  0
ARC
  8
0
 62
7
 10
-3.86865345E+02
 20
1.38500061E+02
 40
1.00000000E+00
 50
8.99999818E+01
 51
1.93887774E+02
  0
ARC
  8
0
 62
7
 10
-4.02000019E+02
 20
1.23365311E+02
 40
1.00000000E+00
 50
7.61138799E+01
 51
1.79999964E+02
  0
ARC
  8
0
 62
7
 10
-4.02000080E+02
 20
7.76346436E+01
 40
1.00000000E+00
 50
1.79999977E+02
 51
2.83886131E+02
  0
ARC
  8
0
 62
7
 10
-3.86865314E+02
 20
6.25000305E+01
 40
1.00000000E+00
 50
1.66113056E+02
 51
2.70000001E+02
  0
ARC
  8
0
 62
7
 10
-3.41134663E+02
 20
6.24999390E+01
 40
1.00000000E+00
 50
2.70000018E+02
 51
1.38869656E+01
  0
ARC
  8
0
 62
7
 10
-3.25999989E+02
 20
7.76346664E+01
 40
1.00000000E+00
 50
2.56114073E+02
 51
0.00000000E+00
  0
CIRCLE
  8
0
 62
2
 10
-3.99000019E+02
 20
1.35500000E+02
 40
5.00000000E+00
  0
CIRCLE
  8
0
 62
2
 10
-3.28999989E+02
 20
1.35500000E+02
 40
5.00000000E+00
  0
CIRCLE
  8
0
 62
2
 10
-3.28999989E+02
 20
6.55000153E+01
 40
5.00000000E+00
  0
CIRCLE
  8
0
 62
2
 10
-3.99000019E+02
 20
6.55000153E+01
 40
5.00000000E+00
  0
CIRCLE
  8
0
 62
7
 10
-3.99000019E+02
 20
6.55000153E+01
 40
4.18000031E+00
  0
CIRCLE
  8
0
 62
7
 10
-3.99000019E+02
 20
1.35500000E+02
 40
4.18000031E+00
  0
CIRCLE
  8
0
 62
7
 10
-3.28999989E+02
 20
1.35500000E+02
 40
4.18000031E+00
  0
CIRCLE
  8
0
 62
7
 10
-3.28999989E+02
 20
6.55000153E+01
 40
4.18000031E+00
  0
CIRCLE
  8
0
 62
2
 10
-3.64000019E+02
 20
1.00500000E+02
 40
1.01800117E+01
  0
CIRCLE
  8
0
 62
4
 10
-3.64000019E+02
 20
1.00500000E+02
 40
1.60000000E+01
  0
CIRCLE
  8
0
 62
7
 10
-3.64000019E+02
 20
1.00500000E+02
 40
1.10000000E+01
  0
LINE
  8
0
 62
4
 10
-3.48000019E+02
 20
1.09737610E+02
 11
-3.48000019E+02
 21
9.12623901E+01
  0
LINE
  8
0
 62
4
 10
-3.80000019E+02
 20
1.09737610E+02
 11
-3.80000019E+02
 21
9.12623901E+01
  0
LINE
  8
0
 62
4
 10
-3.63999958E+02
 20
1.18975222E+02
 11
-3.47999985E+02
 21
1.09737641E+02
  0
LINE
  8
0
 62
4
 10
-3.79999862E+02
 20
9.12624957E+01
 11
-3.63999834E+02
 21
8.20249178E+01
  0
LINE
  8
0
 62
4
 10
-3.63999899E+02
 20
8.20248469E+01
 11
-3.48000020E+02
 21
9.12623953E+01
  0
LINE
  8
0
 62
4
 10
-3.80000053E+02
 20
1.09737581E+02
 11
-3.63999991E+02
 21
1.18975223E+02
  0
LINE
  8
0
 62
4
 10
-4.11000019E+02
 20
1.29316799E+02
 11
-4.11089057E+02
 21
1.29537177E+02
  0
LINE
  8
0
 62
4
 10
-4.11089057E+02
 20
1.29537177E+02
 11
-4.11000019E+02
 21
1.29573151E+02
  0
LINE
  8
0
 62
4
 10
-3.86073574E+02
 20
1.56361376E+02
 11
-3.95623568E+02
 21
1.52502929E+02
  0
LINE
  8
0
  6
CENTER
 62
6
 10
-4.04079826E+02
 20
1.44232972E+02
 11
-3.83287673E+02
 21
1.52633547E+02
  0
LINE
  8
0
  6
CENTER
 62
6
 10
-3.94075136E+02
 20
1.44500258E+02
 11
-3.81976550E+02
 21
1.49388404E+02
  0
LINE
  8
0
 62
4
 10
-4.02113855E+02
 20
1.49880682E+02
 11
-3.95623568E+02
 21
1.52502929E+02
  0
LINE
  8
0
 62
4
 10
-3.93602252E+02
 20
1.47499995E+02
 11
-3.95623568E+02
 21
1.52502929E+02
  0
LINE
  8
0
 62
4
 10
-4.03379687E+02
 20
1.47499999E+02
 11
-4.02113855E+02
 21
1.49880682E+02
  0
LINE
  8
0
 62
4
 10
-3.85811350E+02
 20
1.55712348E+02
 11
-3.84884166E+02
 21
1.56086954E+02
  0
ARC
  8
0
 62
4
 10
-3.81513143E+02
 20
1.50762020E+02
 40
1.00000000E+00
 50
3.40723662E+02
 51
9.17248994E+00
  0
ARC
  8
0
 62
4
 10
-3.83311255E+02
 20
1.55212503E+02
 40
1.00000000E+00
 50
3.48275100E+01
 51
1.12000000E+02
  0
ARC
  8
0
 62
4
 10
-3.92184915E+02
 20
1.49038828E+02
 40
1.18100000E+01
 50
9.17248994E+00
 51
3.48275100E+01
  0
LINE
  8
0
 62
4
 10
-3.84734323E+02
 20
1.55716081E+02
 11
-3.83686605E+02
 21
1.56139386E+02
  0
LINE
  8
0
 62
4
 10
-3.83704155E+02
 20
1.53166325E+02
 11
-3.84884166E+02
 21
1.56086954E+02
  0
LINE
  8
0
 62
4
 10
-3.82083499E+02
 20
1.47499991E+02
 11
-3.84279009E+02
 21
1.52934069E+02
  0
LINE
  8
0
 62
4
 10
-3.84575148E+02
 20
1.52652641E+02
 11
-3.84222818E+02
 21
1.52794992E+02
  0
LINE
  8
0
 62
4
 10
-3.84279009E+02
 20
1.52934069E+02
 11
-3.82647166E+02
 21
1.53593377E+02
  0
ARC
  8
0
 62
4
 10
-3.91349856E+02
 20
1.45609688E+02
 40
1.18100000E+01
 50
2.20000000E+01
 51
4.25326990E+01
  0
ARC
  8
0
 62
4
 10
-3.91344058E+02
 20
1.45595339E+02
 40
1.18100000E+01
 50
9.28087917E+00
 51
2.20000000E+01
  0
LINE
  8
0
 62
4
 10
-3.82493342E+02
 20
1.47499991E+02
 11
-3.86073574E+02
 21
1.56361376E+02
  0
LINE
  8
0
 62
4
 10
-3.16910950E+02
 20
1.29537177E+02
 11
-3.16999989E+02
 21
1.29573151E+02
  0
LINE
  8
0
  6
CENTER
 62
6
 10
-3.33924872E+02
 20
1.44500258E+02
 11
-3.46023458E+02
 21
1.49388404E+02
  0
LINE
  8
0
  6
CENTER
 62
6
 10
-3.23920181E+02
 20
1.44232972E+02
 11
-3.44712334E+02
 21
1.52633547E+02
  0
LINE
  8
0
 62
4
 10
-3.41926433E+02
 20
1.56361376E+02
 11
-3.32376440E+02
 21
1.52502929E+02
  0
LINE
  8
0
 62
4
 10
-3.25886153E+02
 20
1.49880682E+02
 11
-3.32376440E+02
 21
1.52502929E+02
  0
LINE
  8
0
 62
4
 10
-3.34397764E+02
 20
1.47499974E+02
 11
-3.32376440E+02
 21
1.52502929E+02
  0
LINE
  8
0
 62
4
 10
-3.24620306E+02
 20
1.47499971E+02
 11
-3.25886153E+02
 21
1.49880682E+02
  0
LINE
  8
0
 62
4
 10
-3.45035668E+02
 20
1.48665750E+02
 11
-3.45962852E+02
 21
1.49040357E+02
  0
LINE
  8
0
 62
4
 10
-3.42188658E+02
 20
1.55712348E+02
 11
-3.43115842E+02
 21
1.56086954E+02
  0
ARC
  8
0
 62
4
 10
-3.46486864E+02
 20
1.50762020E+02
 40
1.00000000E+00
 50
1.70827510E+02
 51
2.48000000E+02
  0
ARC
  8
0
 62
4
 10
-3.44688753E+02
 20
1.55212503E+02
 40
1.00000000E+00
 50
6.79999999E+01
 51
1.45172490E+02
  0
LINE
  8
0
 62
4
 10
-3.45813009E+02
 20
1.49411231E+02
 11
-3.46860727E+02
 21
1.49834536E+02
  0
LINE
  8
0
 62
4
 10
-3.43265684E+02
 20
1.55716081E+02
 11
-3.44313402E+02
 21
1.56139386E+02
  0
LINE
  8
0
 62
4
 10
-3.45962852E+02
 20
1.49040357E+02
 11
-3.43115842E+02
 21
1.56086954E+02
  0
ARC
  8
0
 62
4
 10
-3.35815093E+02
 20
1.49038828E+02
 40
1.18100000E+01
 50
1.45172490E+02
 51
1.70827510E+02
  0
LINE
  8
0
 62
4
 10
-3.45916514E+02
 20
1.47499978E+02
 11
-3.45387998E+02
 21
1.48808101E+02
  0
ARC
  8
0
 62
4
 10
-3.36650152E+02
 20
1.45609688E+02
 40
1.18100000E+01
 50
1.55900933E+02
 51
1.58000000E+02
  0
ARC
  8
0
 62
4
 10
-3.36655949E+02
 20
1.45595339E+02
 40
1.18100000E+01
 50
1.58000000E+02
 51
1.70719176E+02
  0
LINE
  8
0
 62
4
 10
-3.45506671E+02
 20
1.47499978E+02
 11
-3.41926433E+02
 21
1.56361376E+02
  0
LINE
  8
0
 62
4
 10
-3.16999989E+02
 20
1.29316799E+02
 11
-3.16910950E+02
 21
1.29537177E+02
  0
LINE
  8
0
 62
7
 10
2.82999950E+02
 20
1.46899963E+02
 11
3.68999920E+02
 21
1.46900024E+02
  0
LINE
  8
0
 62
7
 10
3.72400005E+02
 20
5.75000229E+01
 11
3.72400005E+02
 21
1.43499985E+02
  0
LINE
  8
0
 62
7
 10
2.82999950E+02
 20
5.40999756E+01
 11
3.68999950E+02
 21
5.41000290E+01
  0
LINE
  8
0
 62
7
 10
3.69400005E+02
 20
8.24987946E+01
 11
3.69400005E+02
 21
1.18501083E+02
  0
LINE
  8
0
 62
7
 10
2.82999950E+02
 20
1.47499969E+02
 11
3.68999920E+02
 21
1.47500000E+02
  0
LINE
  8
0
  6
CENTER
 62
2
 10
3.60999981E+02
 20
1.49685333E+02
 11
3.60999981E+02
 21
1.20961639E+02
  0
LINE
  8
0
  6
CENTER
 62
2
 10
3.60999981E+02
 20
5.07628784E+01
 11
3.60999981E+02
 21
8.09070358E+01
  0
LINE
  8
0
 62
7
 10
3.72999996E+02
 20
5.75000229E+01
 11
3.72999996E+02
 21
1.43499985E+02
  0
LINE
  8
0
 62
7
 10
3.43069413E+02
 20
1.15801562E+02
 11
3.53189480E+02
 21
1.25921628E+02
  0
LINE
  8
0
 62
7
 10
3.41301544E+02
 20
1.17569367E+02
 11
3.51421579E+02
 21
1.27689401E+02
  0
LINE
  8
0
 62
7
 10
3.27249981E+02
 20
1.42899994E+02
 11
3.27249981E+02
 21
1.23389679E+02
  0
LINE
  8
0
 62
7
 10
3.68399914E+02
 20
1.01750000E+02
 11
3.48889660E+02
 21
1.01750000E+02
  0
LINE
  8
0
 62
7
 10
3.43069460E+02
 20
8.51986746E+01
 11
3.53189495E+02
 21
7.50786405E+01
  0
LINE
  8
0
 62
7
 10
3.41301672E+02
 20
8.34307565E+01
 11
3.51421723E+02
 21
7.33107062E+01
  0
LINE
  8
0
 62
7
 10
2.83599941E+02
 20
1.01749977E+02
 11
3.03110241E+02
 21
1.01749977E+02
  0
LINE
  8
0
 62
7
 10
3.27249981E+02
 20
5.81000366E+01
 11
3.27249981E+02
 21
7.76102600E+01
  0
LINE
  8
0
 62
7
 10
3.68399914E+02
 20
9.92500305E+01
 11
3.48889629E+02
 21
9.92500305E+01
  0
LINE
  8
0
 62
7
 10
2.79600002E+02
 20
5.75000000E+01
 11
2.79600002E+02
 21
1.43499969E+02
  0
LINE
  8
0
 62
7
 10
2.82600002E+02
 20
8.24988861E+01
 11
2.82600002E+02
 21
1.18501175E+02
  0
LINE
  8
0
 62
7
 10
3.07998791E+02
 20
5.70999756E+01
 11
3.44001080E+02
 21
5.70999756E+01
  0
LINE
  8
0
 62
7
 10
2.78999966E+02
 20
5.75000000E+01
 11
2.78999966E+02
 21
1.43499969E+02
  0
LINE
  8
0
  6
CENTER
 62
2
 10
3.75555462E+02
 20
6.55000153E+01
 11
3.47134838E+02
 21
6.55000153E+01
  0
LINE
  8
0
 62
7
 10
2.82999950E+02
 20
5.34999924E+01
 11
3.68999950E+02
 21
5.35000305E+01
  0
LINE
  8
0
 62
7
 10
3.10698387E+02
 20
8.34306156E+01
 11
3.00578354E+02
 21
7.33105799E+01
  0
LINE
  8
0
 62
7
 10
3.08930599E+02
 20
8.51984040E+01
 11
2.98810565E+02
 21
7.50783682E+01
  0
LINE
  8
0
 62
7
 10
2.83599987E+02
 20
9.92499924E+01
 11
3.03110195E+02
 21
9.92499924E+01
  0
LINE
  8
0
 62
7
 10
3.24749950E+02
 20
5.81000061E+01
 11
3.24749950E+02
 21
7.76103134E+01
  0
LINE
  8
0
  6
CENTER
 62
2
 10
3.25999981E+02
 20
1.51355759E+02
 11
3.25999981E+02
 21
4.95240784E+01
  0
LINE
  8
0
  6
CENTER
 62
2
 10
2.90999966E+02
 20
1.49872681E+02
 11
2.90999966E+02
 21
1.20135757E+02
  0
LINE
  8
0
  6
CENTER
 62
2
 10
3.75555462E+02
 20
1.35500000E+02
 11
3.46308971E+02
 21
1.35500000E+02
  0
LINE
  8
0
 62
7
 10
3.08930627E+02
 20
1.15801654E+02
 11
2.98810558E+02
 21
1.25921719E+02
  0
LINE
  8
0
 62
7
 10
3.10698529E+02
 20
1.17569524E+02
 11
3.00578476E+02
 21
1.27689573E+02
  0
LINE
  8
0
 62
7
 10
3.24749950E+02
 20
1.42899948E+02
 11
3.24749950E+02
 21
1.23389725E+02
  0
LINE
  8
0
 62
7
 10
3.07998882E+02
 20
1.43899963E+02
 11
3.44001110E+02
 21
1.43899963E+02
  0
LINE
  8
0
 62
7
 10
2.95999981E+02
 20
1.47499969E+02
 11
2.95999981E+02
 21
1.46899963E+02
  0
LINE
  8
0
 62
7
 10
3.55999981E+02
 20
1.47500000E+02
 11
3.55999981E+02
 21
1.46900024E+02
  0
LINE
  8
0
 62
7
 10
3.55999981E+02
 20
5.41000290E+01
 11
3.55999981E+02
 21
5.35000305E+01
  0
LINE
  8
0
 62
7
 10
2.95999981E+02
 20
5.40999756E+01
 11
2.95999981E+02
 21
5.34999924E+01
  0
LINE
  8
0
 62
7
 10
3.64999981E+02
 20
1.23365311E+02
 11
3.64999981E+02
 21
1.22999969E+02
  0
LINE
  8
0
 62
7
 10
3.48865307E+02
 20
1.39500046E+02
 11
3.48500011E+02
 21
1.39500046E+02
  0
LINE
  8
0
 62
7
 10
3.03134594E+02
 20
1.39499954E+02
 11
3.03499981E+02
 21
1.39499954E+02
  0
LINE
  8
0
 62
7
 10
2.86999889E+02
 20
1.23365326E+02
 11
2.86999889E+02
 21
1.23000061E+02
  0
LINE
  8
0
 62
7
 10
3.65000011E+02
 20
7.76346436E+01
 11
3.65000011E+02
 21
7.79999084E+01
  0
LINE
  8
0
 62
7
 10
2.86999981E+02
 20
7.76346664E+01
 11
2.86999981E+02
 21
7.80000000E+01
  0
LINE
  8
0
 62
7
 10
3.03134594E+02
 20
6.14999390E+01
 11
3.03499889E+02
 21
6.14999390E+01
  0
LINE
  8
0
 62
7
 10
3.48865276E+02
 20
6.15000305E+01
 11
3.48499981E+02
 21
6.15000305E+01
  0
LINE
  8
0
  6
CENTER
 62
2
 10
3.04809093E+02
 20
6.55000153E+01
 11
2.76012234E+02
 21
6.55000153E+01
  0
LINE
  8
0
  6
CENTER
 62
2
 10
3.05222088E+02
 20
1.35500000E+02
 11
2.76012234E+02
 21
1.35500000E+02
  0
LINE
  8
0
  6
CENTER
 62
2
 10
2.90999966E+02
 20
5.08976555E+01
 11
2.90999966E+02
 21
7.95789261E+01
  0
LINE
  8
0
  6
CENTER
 62
2
 10
2.74465176E+02
 20
1.00500000E+02
 11
3.76465405E+02
 21
1.00500000E+02
  0
LINE
  8
0
  6
CENTER
 62
2
 10
3.37000042E+02
 20
1.34800034E+02
 11
3.37000042E+02
 21
1.49952621E+02
  0
LINE
  8
0
 62
7
 10
3.60999995E+02
 20
1.41273505E+02
 11
3.55999998E+02
 21
1.38386756E+02
  0
LINE
  8
0
 62
7
 10
3.55999981E+02
 20
1.38386749E+02
 11
3.55999981E+02
 21
1.32613251E+02
  0
LINE
  8
0
 62
7
 10
3.60999988E+02
 20
1.29726490E+02
 11
3.55999985E+02
 21
1.32613243E+02
  0
LINE
  8
0
 62
7
 10
3.65999993E+02
 20
1.32613254E+02
 11
3.60999997E+02
 21
1.29726505E+02
  0
LINE
  8
0
 62
7
 10
3.65999981E+02
 20
1.38386749E+02
 11
3.65999981E+02
 21
1.32613251E+02
  0
LINE
  8
0
 62
7
 10
3.60999985E+02
 20
1.41273497E+02
 11
3.65999988E+02
 21
1.38386744E+02
  0
LINE
  8
0
 62
7
 10
3.60999987E+02
 20
7.12735208E+01
 11
3.55999990E+02
 21
6.83867715E+01
  0
LINE
  8
0
 62
7
 10
3.55999981E+02
 20
6.83867722E+01
 11
3.55999981E+02
 21
6.26132660E+01
  0
LINE
  8
0
 62
7
 10
3.60999995E+02
 20
5.97265194E+01
 11
3.55999998E+02
 21
6.26132686E+01
  0
LINE
  8
0
 62
7
 10
3.65999987E+02
 20
6.26132669E+01
 11
3.60999990E+02
 21
5.97265177E+01
  0
LINE
  8
0
 62
7
 10
3.65999981E+02
 20
6.83867722E+01
 11
3.65999981E+02
 21
6.26132660E+01
  0
LINE
  8
0
 62
7
 10
3.60999991E+02
 20
7.12735093E+01
 11
3.65999987E+02
 21
6.83867600E+01
  0
LINE
  8
0
 62
7
 10
2.90999965E+02
 20
7.12735242E+01
 11
2.85999956E+02
 21
6.83867673E+01
  0
LINE
  8
0
 62
7
 10
2.85999966E+02
 20
6.83867722E+01
 11
2.85999966E+02
 21
6.26132660E+01
  0
LINE
  8
0
 62
7
 10
2.90999966E+02
 20
5.97265192E+01
 11
2.85999964E+02
 21
6.26132723E+01
  0
LINE
  8
0
 62
7
 10
2.95999966E+02
 20
6.26132701E+01
 11
2.90999956E+02
 21
5.97265132E+01
  0
LINE
  8
0
 62
7
 10
2.95999966E+02
 20
6.83867722E+01
 11
2.95999966E+02
 21
6.26132660E+01
  0
LINE
  8
0
 62
7
 10
2.90999964E+02
 20
7.12735262E+01
 11
2.95999966E+02
 21
6.83867731E+01
  0
LINE
  8
0
 62
7
 10
2.90999960E+02
 20
1.41273502E+02
 11
2.85999963E+02
 21
1.38386752E+02
  0
LINE
  8
0
 62
7
 10
2.85999966E+02
 20
1.38386749E+02
 11
2.85999966E+02
 21
1.32613251E+02
  0
LINE
  8
0
 62
7
 10
2.90999959E+02
 20
1.29726490E+02
 11
2.85999956E+02
 21
1.32613243E+02
  0
LINE
  8
0
 62
7
 10
2.95999960E+02
 20
1.32613248E+02
 11
2.90999963E+02
 21
1.29726498E+02
  0
LINE
  8
0
 62
7
 10
2.95999966E+02
 20
1.38386749E+02
 11
2.95999966E+02
 21
1.32613251E+02
  0
LINE
  8
0
 62
7
 10
2.90999956E+02
 20
1.41273497E+02
 11
2.95999959E+02
 21
1.38386744E+02
  0
CIRCLE
  8
0
 62
2
 10
2.90999966E+02
 20
6.55000153E+01
 40
5.00000000E+00
  0
CIRCLE
  8
0
 62
2
 10
3.60999981E+02
 20
6.55000153E+01
 40
5.00000000E+00
  0
CIRCLE
  8
0
 62
7
 10
3.60999981E+02
 20
6.55000153E+01
 40
4.18000031E+00
  0
CIRCLE
  8
0
 62
7
 10
3.60999981E+02
 20
1.35500000E+02
 40
4.18000031E+00
  0
CIRCLE
  8
0
 62
7
 10
2.90999966E+02
 20
1.35500000E+02
 40
4.18000031E+00
  0
CIRCLE
  8
0
 62
7
 10
2.90999966E+02
 20
6.55000153E+01
 40
4.18000031E+00
  0
CIRCLE
  8
0
 62
7
 10
3.60999981E+02
 20
1.35499969E+02
 40
8.69999981E+00
  0
CIRCLE
  8
0
 62
7
 10
3.60999981E+02
 20
6.54999924E+01
 40
8.69999981E+00
  0
ARC
  8
0
 62
7
 10
3.50714489E+02
 20
1.28396545E+02
 40
1.00000000E+00
 50
3.15000047E+02
 51
3.46303671E+01
  0
ARC
  8
0
 62
7
 10
3.53896496E+02
 20
1.25214508E+02
 40
1.00000000E+00
 50
5.53696217E+01
 51
1.35000014E+02
  0
ARC
  8
0
 62
7
 10
3.28249981E+02
 20
1.42899994E+02
 40
1.00000000E+00
 50
9.00000025E+01
 51
1.80000046E+02
  0
ARC
  8
0
 62
7
 10
3.60999981E+02
 20
1.35499969E+02
 40
1.15000000E+01
 50
1.66113111E+02
 51
2.83886595E+02
  0
ARC
  8
0
 62
7
 10
3.68399914E+02
 20
1.02750000E+02
 40
1.00000000E+00
 50
2.70000052E+02
 51
3.59721781E-05
  0
ARC
  8
0
 62
7
 10
3.53896496E+02
 20
7.57854767E+01
 40
1.00000000E+00
 50
2.25000027E+02
 51
3.04630351E+02
  0
ARC
  8
0
 62
7
 10
3.50714489E+02
 20
7.26034698E+01
 40
1.00000000E+00
 50
3.25369626E+02
 51
4.50000149E+01
  0
ARC
  8
0
 62
7
 10
3.68999950E+02
 20
1.43499985E+02
 40
3.40000033E+00
 50
2.23117997E-05
 51
8.99999750E+01
  0
ARC
  8
0
 62
7
 10
3.28249981E+02
 20
5.81000366E+01
 40
1.00000000E+00
 50
1.80000022E+02
 51
2.70000011E+02
  0
ARC
  8
0
 62
7
 10
3.68400005E+02
 20
9.82500076E+01
 40
1.00000000E+00
 50
8.65142224E-06
 51
9.00000437E+01
  0
ARC
  8
0
 62
7
 10
3.68999950E+02
 20
5.75000000E+01
 40
3.40000033E+00
 50
2.70000011E+02
 51
3.59999964E+02
  0
ARC
  8
0
 62
7
 10
3.60999981E+02
 20
6.54999924E+01
 40
1.15000000E+01
 50
7.61130875E+01
 51
1.93886340E+02
  0
ARC
  8
0
 62
7
 10
3.68999950E+02
 20
1.43499985E+02
 40
4.00000000E+00
 50
2.23117997E-05
 51
8.99999750E+01
  0
CIRCLE
  8
0
 62
7
 10
3.60999981E+02
 20
1.35499969E+02
 40
8.00000000E+00
  0
CIRCLE
  8
0
 62
2
 10
2.90999966E+02
 20
1.35500000E+02
 40
5.00000000E+00
  0
CIRCLE
  8
0
 62
7
 10
3.60999981E+02
 20
6.54999924E+01
 40
8.00000000E+00
  0
ARC
  8
0
 62
7
 10
3.68999950E+02
 20
5.75000000E+01
 40
4.00000000E+00
 50
2.70000011E+02
 51
3.59999964E+02
  0
ARC
  8
0
 62
7
 10
3.48500011E+02
 20
1.43000000E+02
 40
3.50000024E+00
 50
1.81273033E+02
 51
2.69999984E+02
  0
ARC
  8
0
 62
7
 10
3.68500042E+02
 20
1.22999969E+02
 40
3.50000024E+00
 50
1.79999500E+02
 51
2.68725460E+02
  0
ARC
  8
0
 62
7
 10
3.68399914E+02
 20
1.18501083E+02
 40
1.00000000E+00
 50
3.59721781E-05
 51
8.87252023E+01
  0
ARC
  8
0
 62
7
 10
3.44001110E+02
 20
1.42900024E+02
 40
1.00000000E+00
 50
1.27300564E+00
 51
9.00000162E+01
  0
ARC
  8
0
 62
7
 10
3.68499981E+02
 20
7.79999084E+01
 40
3.50000024E+00
 50
9.12730339E+01
 51
1.80000005E+02
  0
ARC
  8
0
 62
7
 10
3.48499981E+02
 20
5.79999390E+01
 40
3.50000024E+00
 50
9.00000162E+01
 51
1.78725478E+02
  0
ARC
  8
0
 62
7
 10
3.68400005E+02
 20
8.24987946E+01
 40
1.00000000E+00
 50
2.71273049E+02
 51
1.86693353E-05
  0
ARC
  8
0
 62
7
 10
3.44001080E+02
 20
5.81000366E+01
 40
1.00000000E+00
 50
2.69999984E+02
 51
3.58725246E+02
  0
ARC
  8
0
 62
7
 10
3.40594433E+02
 20
1.18276489E+02
 40
1.00000000E+00
 50
2.30614484E+02
 51
3.15000026E+02
  0
ARC
  8
0
 62
7
 10
3.43776440E+02
 20
1.15094475E+02
 40
1.00000000E+00
 50
1.35000014E+02
 51
2.19386168E+02
  0
ARC
  8
0
 62
7
 10
3.28249981E+02
 20
1.23389679E+02
 40
1.00000000E+00
 50
1.80000036E+02
 51
2.64386169E+02
  0
ARC
  8
0
 62
7
 10
3.48889660E+02
 20
1.02750000E+02
 40
1.00000000E+00
 50
1.85613878E+02
 51
2.70000038E+02
  0
ARC
  8
0
 62
7
 10
3.43776440E+02
 20
8.59055328E+01
 40
1.00000000E+00
 50
1.40614511E+02
 51
2.25000037E+02
  0
ARC
  8
0
 62
7
 10
3.40594433E+02
 20
8.27235107E+01
 40
1.00000000E+00
 50
4.50000149E+01
 51
1.29386172E+02
  0
ARC
  8
0
 62
7
 10
3.48889629E+02
 20
9.82500076E+01
 40
1.00000000E+00
 50
9.00000437E+01
 51
1.74386177E+02
  0
ARC
  8
0
 62
7
 10
3.28249981E+02
 20
7.76102600E+01
 40
1.00000000E+00
 50
9.56138854E+01
 51
1.80000032E+02
  0
CIRCLE
  8
0
 62
7
 10
2.90999966E+02
 20
6.54999924E+01
 40
8.69999981E+00
  0
ARC
  8
0
 62
7
 10
3.01285458E+02
 20
7.26034546E+01
 40
1.00000000E+00
 50
1.35000041E+02
 51
2.14630376E+02
  0
ARC
  8
0
 62
7
 10
2.98103451E+02
 20
7.57854767E+01
 40
1.00000000E+00
 50
2.35369606E+02
 51
3.14999999E+02
  0
ARC
  8
0
 62
7
 10
2.83599987E+02
 20
9.82500000E+01
 40
1.00000000E+00
 50
9.00000300E+01
 51
1.80000019E+02
  0
ARC
  8
0
 62
7
 10
3.23749981E+02
 20
5.80999908E+01
 40
1.00000000E+00
 50
2.69999998E+02
 51
4.96325564E-05
  0
ARC
  8
0
 62
7
 10
2.82999950E+02
 20
5.75000000E+01
 40
3.40000033E+00
 50
1.80000008E+02
 51
2.69999984E+02
  0
ARC
  8
0
 62
7
 10
2.90999966E+02
 20
6.54999924E+01
 40
1.15000000E+01
 50
3.46113223E+02
 51
1.03886433E+02
  0
ARC
  8
0
 62
7
 10
2.82999950E+02
 20
5.75000000E+01
 40
4.00000000E+00
 50
1.80000008E+02
 51
2.69999984E+02
  0
CIRCLE
  8
0
 62
7
 10
2.90999966E+02
 20
6.54999924E+01
 40
8.00000000E+00
  0
CIRCLE
  8
0
 62
2
 10
3.60999981E+02
 20
1.35500000E+02
 40
5.00000000E+00
  0
ARC
  8
0
 62
7
 10
2.83499920E+02
 20
7.80000000E+01
 40
3.50000024E+00
 50
3.59721781E-05
 51
8.87254481E+01
  0
ARC
  8
0
 62
7
 10
3.03499935E+02
 20
5.79999924E+01
 40
3.50000024E+00
 50
1.27300564E+00
 51
9.00000162E+01
  0
ARC
  8
0
 62
7
 10
2.83599987E+02
 20
8.24988861E+01
 40
1.00000000E+00
 50
1.79999991E+02
 51
2.68725214E+02
  0
ARC
  8
0
 62
7
 10
3.11405499E+02
 20
8.27235107E+01
 40
1.00000000E+00
 50
5.06145124E+01
 51
1.35000041E+02
  0
ARC
  8
0
 62
7
 10
3.08223492E+02
 20
8.59055176E+01
 40
1.00000000E+00
 50
3.15000019E+02
 51
3.93861731E+01
  0
ARC
  8
0
 62
7
 10
3.23749981E+02
 20
7.76103134E+01
 40
1.00000000E+00
 50
4.96325564E-05
 51
8.43861746E+01
  0
ARC
  8
0
 62
7
 10
3.03110195E+02
 20
9.82500000E+01
 40
1.00000000E+00
 50
5.61389128E+00
 51
9.00000300E+01
  0
ARC
  8
0
 62
7
 10
3.07998821E+02
 20
5.80999680E+01
 40
1.00000000E+00
 50
1.81273033E+02
 51
2.69999984E+02
  0
CIRCLE
  8
0
 62
7
 10
2.90999966E+02
 20
1.35499969E+02
 40
8.69999981E+00
  0
ARC
  8
0
 62
7
 10
2.98103451E+02
 20
1.25214508E+02
 40
1.00000000E+00
 50
4.50000423E+01
 51
1.24630380E+02
  0
ARC
  8
0
 62
7
 10
3.01285458E+02
 20
1.28396515E+02
 40
1.00000000E+00
 50
1.45369621E+02
 51
2.25000010E+02
  0
ARC
  8
0
 62
7
 10
3.23749981E+02
 20
1.42899948E+02
 40
1.00000000E+00
 50
3.59721781E-05
 51
9.00000162E+01
  0
ARC
  8
0
 62
7
 10
2.83599941E+02
 20
1.02749985E+02
 40
1.00000000E+00
 50
1.79999991E+02
 51
2.70000028E+02
  0
ARC
  8
0
 62
7
 10
2.82999950E+02
 20
1.43499969E+02
 40
3.40000033E+00
 50
9.00000162E+01
 51
1.80000005E+02
  0
ARC
  8
0
 62
7
 10
2.90999966E+02
 20
1.35499969E+02
 40
1.15000000E+01
 50
2.56113130E+02
 51
1.38865754E+01
  0
ARC
  8
0
 62
7
 10
2.82999950E+02
 20
1.43499969E+02
 40
4.00000000E+00
 50
9.00000162E+01
 51
1.80000005E+02
  0
CIRCLE
  8
0
 62
7
 10
2.90999966E+02
 20
1.35499969E+02
 40
8.00000000E+00
  0
ARC
  8
0
 62
7
 10
2.83499966E+02
 20
1.23000061E+02
 40
3.50000024E+00
 50
2.71273049E+02
 51
1.86693353E-05
  0
ARC
  8
0
 62
7
 10
3.03499981E+02
 20
1.43000061E+02
 40
3.50000024E+00
 50
2.69999984E+02
 51
3.58725492E+02
  0
ARC
  8
0
 62
7
 10
2.83599941E+02
 20
1.18501175E+02
 40
1.00000000E+00
 50
9.12730270E+01
 51
1.80000005E+02
  0
ARC
  8
0
 62
7
 10
3.07998882E+02
 20
1.42899948E+02
 40
1.00000000E+00
 50
9.00000162E+01
 51
1.78725219E+02
  0
ARC
  8
0
 62
7
 10
3.08223492E+02
 20
1.15094452E+02
 40
1.00000000E+00
 50
3.20614517E+02
 51
4.50000423E+01
  0
ARC
  8
0
 62
7
 10
3.11405499E+02
 20
1.18276489E+02
 40
1.00000000E+00
 50
2.25000000E+02
 51
3.09386157E+02
  0
ARC
  8
0
 62
7
 10
3.03110287E+02
 20
1.02749985E+02
 40
1.00000000E+00
 50
2.70000038E+02
 51
3.54386163E+02
  0
ARC
  8
0
 62
7
 10
3.23749981E+02
 20
1.23389725E+02
 40
1.00000000E+00
 50
2.75613894E+02
 51
3.59721781E-05
  0
CIRCLE
  8
0
 62
7
 10
3.25999981E+02
 20
1.00500076E+02
 40
2.20000000E+01
  0
ARC
  8
0
 62
7
 10
2.87999920E+02
 20
1.23365326E+02
 40
1.00000000E+00
 50
7.61138592E+01
 51
1.80000005E+02
  0
ARC
  8
0
 62
7
 10
3.03134640E+02
 20
1.38499969E+02
 40
1.00000000E+00
 50
9.00000162E+01
 51
1.93885698E+02
  0
ARC
  8
0
 62
7
 10
3.48865307E+02
 20
1.38500061E+02
 40
1.00000000E+00
 50
3.46112226E+02
 51
9.00000162E+01
  0
ARC
  8
0
 62
7
 10
3.63999981E+02
 20
1.23365311E+02
 40
1.00000000E+00
 50
3.59721781E-05
 51
1.03886119E+02
  0
ARC
  8
0
 62
7
 10
3.64000042E+02
 20
7.76346436E+01
 40
1.00000000E+00
 50
2.56113881E+02
 51
1.86693353E-05
  0
ARC
  8
0
 62
7
 10
3.48865276E+02
 20
6.25000305E+01
 40
1.00000000E+00
 50
2.69999998E+02
 51
1.38869442E+01
  0
ARC
  8
0
 62
7
 10
3.03134640E+02
 20
6.24999390E+01
 40
1.00000000E+00
 50
1.66113028E+02
 51
2.69999974E+02
  0
ARC
  8
0
 62
7
 10
2.87999966E+02
 20
7.76346664E+01
 40
1.00000000E+00
 50
1.79999991E+02
 51
2.83885939E+02
  0
CIRCLE
  8
0
 62
2
 10
3.25999981E+02
 20
1.00500000E+02
 40
1.01800117E+01
  0
CIRCLE
  8
0
 62
7
 10
3.25999981E+02
 20
1.00500076E+02
 40
1.95000000E+01
  0
CIRCLE
  8
0
 62
7
 10
3.25999981E+02
 20
1.00500000E+02
 40
2.10111084E+01
  0
CIRCLE
  8
0
 62
4
 10
3.25999981E+02
 20
1.00500000E+02
 40
1.60000000E+01
  0
CIRCLE
  8
0
 62
7
 10
3.25999981E+02
 20
1.00500000E+02
 40
1.10000000E+01
  0
LINE
  8
0
 62
4
 10
3.41999981E+02
 20
1.09737610E+02
 11
3.41999981E+02
 21
9.12623901E+01
  0
LINE
  8
0
 62
4
 10
3.09999981E+02
 20
1.09737610E+02
 11
3.09999981E+02
 21
9.12623901E+01
  0
LINE
  8
0
 62
4
 10
3.26000042E+02
 20
1.18975222E+02
 11
3.42000015E+02
 21
1.09737641E+02
  0
LINE
  8
0
 62
4
 10
3.10000138E+02
 20
9.12624957E+01
 11
3.26000166E+02
 21
8.20249178E+01
  0
LINE
  8
0
 62
4
 10
3.26000101E+02
 20
8.20248469E+01
 11
3.41999980E+02
 21
9.12623953E+01
  0
LINE
  8
0
 62
4
 10
3.09999947E+02
 20
1.09737581E+02
 11
3.26000009E+02
 21
1.18975223E+02
  0
LINE
  8
0
 62
4
 10
2.78999981E+02
 20
1.29316799E+02
 11
2.78910943E+02
 21
1.29537177E+02
  0
LINE
  8
0
 62
4
 10
2.78910943E+02
 20
1.29537177E+02
 11
2.78999981E+02
 21
1.29573151E+02
  0
LINE
  8
0
 62
4
 10
3.03926426E+02
 20
1.56361376E+02
 11
2.94376432E+02
 21
1.52502929E+02
  0
LINE
  8
0
  6
CENTER
 62
6
 10
2.85920174E+02
 20
1.44232972E+02
 11
3.06712327E+02
 21
1.52633547E+02
  0
LINE
  8
0
  6
CENTER
 62
6
 10
2.95924864E+02
 20
1.44500258E+02
 11
3.08023450E+02
 21
1.49388404E+02
  0
LINE
  8
0
 62
4
 10
2.87886145E+02
 20
1.49880682E+02
 11
2.94376432E+02
 21
1.52502929E+02
  0
LINE
  8
0
 62
4
 10
2.96397748E+02
 20
1.47499995E+02
 11
2.94376432E+02
 21
1.52502929E+02
  0
LINE
  8
0
 62
4
 10
2.86620313E+02
 20
1.47499999E+02
 11
2.87886145E+02
 21
1.49880682E+02
  0
LINE
  8
0
 62
4
 10
3.04188650E+02
 20
1.55712348E+02
 11
3.05115834E+02
 21
1.56086954E+02
  0
ARC
  8
0
 62
4
 10
3.08486857E+02
 20
1.50762020E+02
 40
1.00000000E+00
 50
3.40723662E+02
 51
9.17248994E+00
  0
ARC
  8
0
 62
4
 10
3.06688745E+02
 20
1.55212503E+02
 40
1.00000000E+00
 50
3.48275100E+01
 51
1.12000000E+02
  0
ARC
  8
0
 62
4
 10
2.97815085E+02
 20
1.49038828E+02
 40
1.18100000E+01
 50
9.17248994E+00
 51
3.48275100E+01
  0
LINE
  8
0
 62
4
 10
3.05265677E+02
 20
1.55716081E+02
 11
3.06313395E+02
 21
1.56139386E+02
  0
LINE
  8
0
 62
4
 10
3.06295845E+02
 20
1.53166325E+02
 11
3.05115834E+02
 21
1.56086954E+02
  0
LINE
  8
0
 62
4
 10
3.07916501E+02
 20
1.47499991E+02
 11
3.05720991E+02
 21
1.52934069E+02
  0
LINE
  8
0
 62
4
 10
3.05424852E+02
 20
1.52652641E+02
 11
3.05777182E+02
 21
1.52794992E+02
  0
LINE
  8
0
 62
4
 10
3.05720991E+02
 20
1.52934069E+02
 11
3.07352834E+02
 21
1.53593377E+02
  0
ARC
  8
0
 62
4
 10
2.98650144E+02
 20
1.45609688E+02
 40
1.18100000E+01
 50
2.20000000E+01
 51
4.25326990E+01
  0
ARC
  8
0
 62
4
 10
2.98655942E+02
 20
1.45595339E+02
 40
1.18100000E+01
 50
9.28087917E+00
 51
2.20000000E+01
  0
LINE
  8
0
 62
4
 10
3.07506658E+02
 20
1.47499991E+02
 11
3.03926426E+02
 21
1.56361376E+02
  0
LINE
  8
0
 62
4
 10
3.73089050E+02
 20
1.29537177E+02
 11
3.73000011E+02
 21
1.29573151E+02
  0
LINE
  8
0
  6
CENTER
 62
6
 10
3.56075128E+02
 20
1.44500258E+02
 11
3.43976542E+02
 21
1.49388404E+02
  0
LINE
  8
0
  6
CENTER
 62
6
 10
3.66079819E+02
 20
1.44232972E+02
 11
3.45287666E+02
 21
1.52633547E+02
  0
LINE
  8
0
 62
4
 10
3.48073567E+02
 20
1.56361376E+02
 11
3.57623560E+02
 21
1.52502929E+02
  0
LINE
  8
0
 62
4
 10
3.64113847E+02
 20
1.49880682E+02
 11
3.57623560E+02
 21
1.52502929E+02
  0
LINE
  8
0
 62
4
 10
3.55602236E+02
 20
1.47499974E+02
 11
3.57623560E+02
 21
1.52502929E+02
  0
LINE
  8
0
 62
4
 10
3.65379694E+02
 20
1.47499971E+02
 11
3.64113847E+02
 21
1.49880682E+02
  0
LINE
  8
0
 62
4
 10
3.44964332E+02
 20
1.48665750E+02
 11
3.44037148E+02
 21
1.49040357E+02
  0
LINE
  8
0
 62
4
 10
3.47811342E+02
 20
1.55712348E+02
 11
3.46884158E+02
 21
1.56086954E+02
  0
ARC
  8
0
 62
4
 10
3.43513136E+02
 20
1.50762020E+02
 40
1.00000000E+00
 50
1.70827510E+02
 51
2.48000000E+02
  0
ARC
  8
0
 62
4
 10
3.45311247E+02
 20
1.55212503E+02
 40
1.00000000E+00
 50
6.79999999E+01
 51
1.45172490E+02
  0
LINE
  8
0
 62
4
 10
3.44186991E+02
 20
1.49411231E+02
 11
3.43139273E+02
 21
1.49834536E+02
  0
LINE
  8
0
 62
4
 10
3.46734316E+02
 20
1.55716081E+02
 11
3.45686598E+02
 21
1.56139386E+02
  0
LINE
  8
0
 62
4
 10
3.44037148E+02
 20
1.49040357E+02
 11
3.46884158E+02
 21
1.56086954E+02
  0
ARC
  8
0
 62
4
 10
3.54184907E+02
 20
1.49038828E+02
 40
1.18100000E+01
 50
1.45172490E+02
 51
1.70827510E+02
  0
LINE
  8
0
 62
4
 10
3.44083486E+02
 20
1.47499978E+02
 11
3.44612002E+02
 21
1.48808101E+02
  0
ARC
  8
0
 62
4
 10
3.53349848E+02
 20
1.45609688E+02
 40
1.18100000E+01
 50
1.55900933E+02
 51
1.58000000E+02
  0
ARC
  8
0
 62
4
 10
3.53344051E+02
 20
1.45595339E+02
 40
1.18100000E+01
 50
1.58000000E+02
 51
1.70719176E+02
  0
LINE
  8
0
 62
4
 10
3.44493329E+02
 20
1.47499978E+02
 11
3.48073567E+02
 21
1.56361376E+02
  0
LINE
  8
0
 62
4
 10
3.73000011E+02
 20
1.29316799E+02
 11
3.73089050E+02
 21
1.29537177E+02
  0
LINE
  8
0
  6
PHANTOM
 10
-2.95000000E+01
 20
1.94632131E+02
 11
-2.95000000E+01
 21
3.53816712E+02
  0
LINE
  8
0
  6
PHANTOM
 10
1.16999981E+02
 20
1.92001967E+02
 11
1.16999981E+02
 21
3.53816712E+02
  0
LINE
  8
0
  6
CENTER
 62
2
 10
-2.07798344E+02
 20
2.80500000E+02
 11
1.89908726E+02
 21
2.80500000E+02
  0
LINE
  8
0
 62
7
 10
-1.23508697E+02
 20
3.26880416E+02
 11
-8.79999757E+01
 21
3.27500223E+02
  0
LINE
  8
0
 62
7
 10
-1.23999989E+02
 20
3.26380280E+02
 11
-1.23999989E+02
 21
2.34619720E+02
  0
LINE
  8
0
 62
7
 10
-8.79999886E+01
 20
3.27500000E+02
 11
-8.79999886E+01
 21
2.33500031E+02
  0
LINE
  8
0
 62
7
 10
-1.23508767E+02
 20
2.34119935E+02
 11
-8.80000459E+01
 21
2.33500128E+02
  0
LINE
  8
0
 62
7
 10
-1.19999989E+02
 20
3.08500031E+02
 11
-1.19999989E+02
 21
2.52500015E+02
  0
LINE
  8
0
 62
7
 10
-1.17999989E+02
 20
3.10499969E+02
 11
-8.79999886E+01
 21
3.10499969E+02
  0
LINE
  8
0
 62
7
 10
-1.17999989E+02
 20
2.50499969E+02
 11
-8.79999886E+01
 21
2.50499969E+02
  0
LINE
  8
0
 62
7
 10
-1.44499973E+02
 20
2.99999969E+02
 11
-1.39999973E+02
 21
2.99999969E+02
  0
LINE
  8
0
 62
7
 10
-1.39999989E+02
 20
3.01063232E+02
 11
-1.39999989E+02
 21
2.59971771E+02
  0
LINE
  8
0
 62
7
 10
-1.44999989E+02
 20
2.99500031E+02
 11
-1.44999989E+02
 21
2.61500015E+02
  0
LINE
  8
0
 62
7
 10
-1.44499973E+02
 20
2.60999969E+02
 11
-1.39999973E+02
 21
2.60999969E+02
  0
LINE
  8
0
 62
7
 10
-1.25499989E+02
 20
2.58499939E+02
 11
-1.23999989E+02
 21
2.58499939E+02
  0
LINE
  8
0
 62
7
 10
-1.39517463E+02
 20
2.59472242E+02
 11
-1.26000022E+02
 21
2.59000203E+02
  0
LINE
  8
0
 62
7
 10
-1.25499989E+02
 20
3.02499969E+02
 11
-1.23999989E+02
 21
3.02499969E+02
  0
LINE
  8
0
 62
7
 10
-1.39517469E+02
 20
3.01528117E+02
 11
-1.26000013E+02
 21
3.02000157E+02
  0
LINE
  8
0
 62
7
 10
-1.25999989E+02
 20
2.59000031E+02
 11
-1.25999989E+02
 21
3.02000000E+02
  0
LINE
  8
0
 62
7
 10
5.85086292E+01
 20
2.34119652E+02
 11
2.29998947E+01
 21
2.33499850E+02
  0
LINE
  8
0
 62
7
 10
5.89999886E+01
 20
2.34619690E+02
 11
5.89999886E+01
 21
3.26380249E+02
  0
LINE
  8
0
 62
7
 10
2.29999886E+01
 20
2.33499939E+02
 11
2.29999886E+01
 21
3.27499939E+02
  0
LINE
  8
0
 62
7
 10
5.85086912E+01
 20
3.26880158E+02
 11
2.29999815E+01
 21
3.27499971E+02
  0
LINE
  8
0
  6
CENTER
 62
2
 10
5.28009071E+01
 20
2.91500000E+02
 11
2.47883949E+01
 21
2.91500000E+02
  0
LINE
  8
0
  6
CENTER
 62
2
 10
3.89999733E+01
 20
2.78242966E+02
 11
3.89999733E+01
 21
3.06501221E+02
  0
LINE
  8
0
 62
7
 10
5.49999809E+01
 20
2.52499939E+02
 11
5.49999809E+01
 21
3.08499939E+02
  0
LINE
  8
0
 62
7
 10
5.29999428E+01
 20
2.50499969E+02
 11
2.29999428E+01
 21
2.50499969E+02
  0
LINE
  8
0
 62
7
 10
5.29999428E+01
 20
3.10499969E+02
 11
2.29999428E+01
 21
3.10499969E+02
  0
LINE
  8
0
 62
7
 10
6.04999428E+01
 20
3.02499969E+02
 11
5.89999428E+01
 21
3.02499969E+02
  0
LINE
  8
0
 62
7
 10
6.04999428E+01
 20
2.58499985E+02
 11
5.89999428E+01
 21
2.58499985E+02
  0
LINE
  8
0
 62
7
 10
6.09999809E+01
 20
3.01999939E+02
 11
6.09999809E+01
 21
2.58999939E+02
  0
LINE
  8
0
 62
7
 10
2.29999886E+01
 20
2.36999969E+02
 11
-1.14440917E-05
 21
2.36999969E+02
  0
LINE
  8
0
  6
CENTER
 62
2
 10
6.17791653E+01
 20
2.45499985E+02
 11
-1.26524509E+02
 21
2.45499985E+02
  0
LINE
  8
0
 62
7
 10
2.29999886E+01
 20
2.49999985E+02
 11
1.49999886E+01
 21
2.49999985E+02
  0
LINE
  8
0
 62
7
 10
2.29999886E+01
 20
2.40999985E+02
 11
-1.14440917E-05
 21
2.40999985E+02
  0
LINE
  8
0
  6
CENTER
 62
2
 10
2.99999771E+01
 20
2.72047775E+02
 11
2.99999771E+01
 21
2.57434387E+02
  0
LINE
  8
0
  6
CENTER
 62
2
 10
2.18054008E+01
 20
2.64499985E+02
 11
3.80744095E+01
 21
2.64499985E+02
  0
LINE
  8
0
 62
7
 10
3.17320987E+01
 20
2.64499833E+02
 11
3.08660672E+01
 21
2.65999853E+02
  0
LINE
  8
0
 62
7
 10
3.08660088E+01
 20
2.65999985E+02
 11
2.91339226E+01
 21
2.65999985E+02
  0
LINE
  8
0
 62
7
 10
2.82681864E+01
 20
2.64499759E+02
 11
2.91342027E+01
 21
2.65999752E+02
  0
LINE
  8
0
 62
7
 10
2.91339543E+01
 20
2.62999944E+02
 11
2.82678922E+01
 21
2.64500016E+02
  0
LINE
  8
0
 62
7
 10
3.08660088E+01
 20
2.62999969E+02
 11
2.91339226E+01
 21
2.62999969E+02
  0
LINE
  8
0
 62
7
 10
3.17322361E+01
 20
2.64499891E+02
 11
3.08661969E+01
 21
2.62999859E+02
  0
LINE
  8
0
  6
CENTER
 62
2
 10
-9.50000038E+01
 20
2.72047729E+02
 11
-9.50000038E+01
 21
2.57434341E+02
  0
LINE
  8
0
  6
CENTER
 62
2
 10
-1.03194584E+02
 20
2.64499939E+02
 11
-8.69255714E+01
 21
2.64499939E+02
  0
LINE
  8
0
 62
7
 10
-9.32678799E+01
 20
2.64499859E+02
 11
-9.41339190E+01
 21
2.65999892E+02
  0
LINE
  8
0
 62
7
 10
-9.41339760E+01
 20
2.65999939E+02
 11
-9.58660622E+01
 21
2.65999939E+02
  0
LINE
  8
0
 62
7
 10
-9.67318123E+01
 20
2.64499709E+02
 11
-9.58657961E+01
 21
2.65999702E+02
  0
LINE
  8
0
 62
7
 10
-9.58659653E+01
 20
2.62999898E+02
 11
-9.67320350E+01
 21
2.64499984E+02
  0
LINE
  8
0
 62
7
 10
-9.41339760E+01
 20
2.62999924E+02
 11
-9.58660622E+01
 21
2.62999924E+02
  0
LINE
  8
0
 62
7
 10
-9.32677759E+01
 20
2.64499849E+02
 11
-9.41338151E+01
 21
2.62999817E+02
  0
LINE
  8
0
 62
7
 10
2.29999886E+01
 20
3.11000000E+02
 11
-4.39999886E+01
 21
3.11000000E+02
  0
LINE
  8
0
  6
CENTER
 62
2
 10
6.17791653E+01
 20
3.15500000E+02
 11
-1.26524509E+02
 21
3.15500000E+02
  0
LINE
  8
0
 62
7
 10
2.29999886E+01
 20
3.20000000E+02
 11
-4.39999886E+01
 21
3.20000000E+02
  0
LINE
  8
0
 62
7
 10
2.29999886E+01
 20
3.24000031E+02
 11
-4.39999886E+01
 21
3.24000031E+02
  0
LINE
  8
0
  6
CENTER
 62
2
 10
-1.04000004E+02
 20
2.77394135E+02
 11
-1.04000004E+02
 21
3.05323242E+02
  0
LINE
  8
0
  6
CENTER
 62
2
 10
-9.02976723E+01
 20
2.91499939E+02
 11
-1.18094929E+02
 21
2.91499939E+02
  0
LINE
  8
0
 62
7
 10
-1.52738361E+02
 20
2.73860474E+02
 11
-1.44999989E+02
 21
2.73860474E+02
  0
LINE
  8
0
 62
7
 10
-1.52738361E+02
 20
2.67220963E+02
 11
-1.44999989E+02
 21
2.67220963E+02
  0
LINE
  8
0
 62
7
 10
-1.52738316E+02
 20
2.93779022E+02
 11
-1.44999989E+02
 21
2.93779022E+02
  0
LINE
  8
0
 62
7
 10
-1.58999989E+02
 20
2.69500000E+02
 11
-1.58999989E+02
 21
2.91500000E+02
  0
LINE
  8
0
 62
7
 10
-1.99000034E+02
 20
2.71000122E+02
 11
-1.99000034E+02
 21
2.89999939E+02
  0
LINE
  8
0
 62
7
 10
-1.61999989E+02
 20
2.69500000E+02
 11
-1.61999989E+02
 21
2.91500031E+02
  0
LINE
  8
0
 62
7
 10
-1.97500034E+02
 20
2.91500031E+02
 11
-1.87000034E+02
 21
2.91500031E+02
  0
LINE
  8
0
 62
7
 10
-1.97500034E+02
 20
2.69500000E+02
 11
-1.97500034E+02
 21
2.91500031E+02
  0
LINE
  8
0
 62
7
 10
-1.98999986E+02
 20
2.89999912E+02
 11
-1.97499951E+02
 21
2.91499946E+02
  0
LINE
  8
0
 62
2
 10
-1.98320042E+02
 20
2.90680023E+02
 11
-1.87000034E+02
 21
2.90680023E+02
  0
LINE
  8
0
 62
7
 10
-1.97500034E+02
 20
2.69500000E+02
 11
-1.87000034E+02
 21
2.69500000E+02
  0
LINE
  8
0
 62
7
 10
-1.98999997E+02
 20
2.71000074E+02
 11
-1.97500006E+02
 21
2.69500083E+02
  0
LINE
  8
0
 62
2
 10
-1.98320042E+02
 20
2.70320023E+02
 11
-1.87000034E+02
 21
2.70320023E+02
  0
LINE
  8
0
 62
7
 10
-1.52738361E+02
 20
2.87139526E+02
 11
-1.44999989E+02
 21
2.87139526E+02
  0
LINE
  8
0
 62
7
 10
-1.58999998E+02
 20
2.91499990E+02
 11
-1.52738358E+02
 21
2.93779041E+02
  0
LINE
  8
0
 62
7
 10
-1.58999972E+02
 20
2.69499990E+02
 11
-1.52738346E+02
 21
2.67220945E+02
  0
LINE
  8
0
 62
7
 10
-1.61999989E+02
 20
2.90680023E+02
 11
-1.58999989E+02
 21
2.90680023E+02
  0
LINE
  8
0
 62
7
 10
-1.61999989E+02
 20
2.70320023E+02
 11
-1.58999989E+02
 21
2.70320023E+02
  0
LINE
  8
0
 62
2
 10
1.83320011E+02
 20
2.70320023E+02
 11
1.72345687E+02
 21
2.70320023E+02
  0
LINE
  8
0
 62
7
 10
1.83999977E+02
 20
2.71000067E+02
 11
1.82499986E+02
 21
2.69500077E+02
  0
LINE
  8
0
 62
7
 10
1.82500034E+02
 20
2.69500000E+02
 11
1.72345687E+02
 21
2.69500000E+02
  0
LINE
  8
0
 62
7
 10
1.46999973E+02
 20
2.70320023E+02
 11
1.43999973E+02
 21
2.70320023E+02
  0
LINE
  8
0
 62
7
 10
1.46999973E+02
 20
2.90680023E+02
 11
1.43999973E+02
 21
2.90680023E+02
  0
LINE
  8
0
 62
2
 10
1.83320011E+02
 20
2.90680023E+02
 11
1.72345687E+02
 21
2.90680023E+02
  0
LINE
  8
0
 62
7
 10
1.83999966E+02
 20
2.89999904E+02
 11
1.82499927E+02
 21
2.91499943E+02
  0
LINE
  8
0
 62
7
 10
1.82500004E+02
 20
2.69500000E+02
 11
1.82500004E+02
 21
2.91500031E+02
  0
LINE
  8
0
 62
7
 10
1.82500034E+02
 20
2.91500031E+02
 11
1.72345687E+02
 21
2.91500031E+02
  0
LINE
  8
0
 62
7
 10
1.46999973E+02
 20
2.69500000E+02
 11
1.46999973E+02
 21
2.91500031E+02
  0
LINE
  8
0
 62
7
 10
1.84000004E+02
 20
2.71000122E+02
 11
1.84000004E+02
 21
2.89999939E+02
  0
LINE
  8
0
 62
7
 10
1.43999973E+02
 20
2.69999969E+02
 11
1.43999973E+02
 21
2.91000000E+02
  0
LINE
  8
0
 62
7
 10
1.43999989E+02
 20
2.91000000E+02
 11
1.34000141E+02
 21
2.91000000E+02
  0
LINE
  8
0
 62
7
 10
1.40999973E+02
 20
2.91000000E+02
 11
1.40999973E+02
 21
2.70000000E+02
  0
LINE
  8
0
 62
7
 10
1.31999989E+02
 20
2.67999954E+02
 11
8.00000038E+01
 21
2.67999954E+02
  0
LINE
  8
0
 62
7
 10
1.32000126E+02
 20
2.93000000E+02
 11
7.99999733E+01
 21
2.93000000E+02
  0
LINE
  8
0
 62
7
 10
1.34000092E+02
 20
2.91000096E+02
 11
1.32000133E+02
 21
2.93000055E+02
  0
LINE
  8
0
 62
7
 10
1.34000038E+02
 20
2.69999994E+02
 11
1.31999993E+02
 21
2.67999949E+02
  0
LINE
  8
0
 62
7
 10
1.43999989E+02
 20
2.70000000E+02
 11
1.34000034E+02
 21
2.70000000E+02
  0
LINE
  8
0
 62
7
 10
7.45174362E+01
 20
3.01528127E+02
 11
6.09999778E+01
 21
3.02000167E+02
  0
LINE
  8
0
 62
7
 10
7.45174297E+01
 20
2.59472248E+02
 11
6.09999885E+01
 21
2.59000209E+02
  0
LINE
  8
0
 62
7
 10
7.94999428E+01
 20
2.60999969E+02
 11
7.49999428E+01
 21
2.60999969E+02
  0
LINE
  8
0
 62
7
 10
7.99999580E+01
 20
2.99500031E+02
 11
7.99999580E+01
 21
2.61500015E+02
  0
LINE
  8
0
 62
7
 10
7.49999580E+01
 20
3.01063232E+02
 11
7.49999580E+01
 21
2.59971771E+02
  0
LINE
  8
0
 62
7
 10
7.94999428E+01
 20
2.99999969E+02
 11
7.49999428E+01
 21
2.99999969E+02
  0
ARC
  8
0
 62
7
 10
-1.23499973E+02
 20
3.26380280E+02
 40
5.00000000E-01
 50
9.10002493E+01
 51
1.79999951E+02
  0
ARC
  8
0
 62
7
 10
-1.23499973E+02
 20
2.34619720E+02
 40
5.00000000E-01
 50
1.79999977E+02
 51
2.68999679E+02
  0
ARC
  8
0
 62
7
 10
-1.17999989E+02
 20
3.08500031E+02
 40
2.00000000E+00
 50
8.99999818E+01
 51
1.79999951E+02
  0
ARC
  8
0
 62
7
 10
-1.17999989E+02
 20
2.52500061E+02
 40
2.00000000E+00
 50
1.79999977E+02
 51
2.70000028E+02
  0
ARC
  8
0
 62
7
 10
-1.25499989E+02
 20
3.02000061E+02
 40
5.00000000E-01
 50
8.99999818E+01
 51
1.79999951E+02
  0
ARC
  8
0
 62
7
 10
-1.44499973E+02
 20
2.99500031E+02
 40
5.00000000E-01
 50
8.99999818E+01
 51
1.79999951E+02
  0
ARC
  8
0
 62
7
 10
-1.44499973E+02
 20
2.61500061E+02
 40
5.00000000E-01
 50
1.79999977E+02
 51
2.69999974E+02
  0
ARC
  8
0
 62
7
 10
-1.25499989E+02
 20
2.59000031E+02
 40
5.00000000E-01
 50
1.79999977E+02
 51
2.69999974E+02
  0
ARC
  8
0
 62
7
 10
-1.39499973E+02
 20
2.59971771E+02
 40
5.00000000E-01
 50
1.79999977E+02
 51
2.67999192E+02
  0
ARC
  8
0
 62
7
 10
-1.39499973E+02
 20
3.01028320E+02
 40
5.00000000E-01
 50
9.20007356E+01
 51
1.79999951E+02
  0
ARC
  8
0
 62
7
 10
5.84999504E+01
 20
2.34619690E+02
 40
5.00000000E-01
 50
2.71000272E+02
 51
3.59999959E+02
  0
ARC
  8
0
 62
7
 10
5.84999733E+01
 20
3.26380249E+02
 40
5.00000000E-01
 50
3.59999973E+02
 51
8.89996800E+01
  0
ARC
  8
0
 62
7
 10
5.29999657E+01
 20
2.52499939E+02
 40
2.00000000E+00
 50
2.69999991E+02
 51
3.59999945E+02
  0
ARC
  8
0
 62
7
 10
5.29999657E+01
 20
3.08499939E+02
 40
2.00000000E+00
 50
3.59999973E+02
 51
9.00000094E+01
  0
ARC
  8
0
 62
7
 10
6.04999657E+01
 20
2.58999939E+02
 40
5.00000000E-01
 50
2.69999991E+02
 51
3.59999945E+02
  0
ARC
  8
0
 62
7
 10
6.04999657E+01
 20
3.01999939E+02
 40
5.00000000E-01
 50
3.59999973E+02
 51
8.99999549E+01
  0
CIRCLE
  8
0
 62
7
 10
2.99999771E+01
 20
2.64499985E+02
 40
5.00000000E+00
  0
CIRCLE
  8
0
 62
7
 10
-9.50000038E+01
 20
2.64499939E+02
 40
5.00000000E+00
  0
CIRCLE
  8
0
 62
7
 10
-1.03999973E+02
 20
2.91500031E+02
 40
9.25000000E+00
  0
CIRCLE
  8
0
 62
2
 10
-1.04000004E+02
 20
2.91499969E+02
 40
1.04775009E+01
  0
CIRCLE
  8
0
 62
7
 10
-1.03999973E+02
 20
2.91499969E+02
 40
1.10000000E+01
  0
CIRCLE
  8
0
 62
7
 10
3.89999733E+01
 20
2.91500031E+02
 40
9.25000000E+00
  0
CIRCLE
  8
0
 62
2
 10
3.89999962E+01
 20
2.91499969E+02
 40
1.04775009E+01
  0
CIRCLE
  8
0
 62
7
 10
3.89999733E+01
 20
2.91499969E+02
 40
1.10000000E+01
  0
CIRCLE
  8
0
 62
7
 10
-9.50000038E+01
 20
2.64499939E+02
 40
2.59999990E+00
  0
CIRCLE
  8
0
 62
7
 10
2.99999771E+01
 20
2.64499985E+02
 40
2.59999990E+00
  0
ARC
  8
0
 62
7
 10
7.44999428E+01
 20
3.01028320E+02
 40
5.00000000E-01
 50
4.96325564E-05
 51
8.79992625E+01
  0
ARC
  8
0
 62
7
 10
7.44999428E+01
 20
2.59971771E+02
 40
5.00000000E-01
 50
2.72000806E+02
 51
2.23117997E-05
  0
ARC
  8
0
 62
7
 10
7.94999428E+01
 20
2.61500061E+02
 40
5.00000000E-01
 50
2.70000025E+02
 51
2.23117997E-05
  0
ARC
  8
0
 62
7
 10
7.94999428E+01
 20
2.99500031E+02
 40
5.00000000E-01
 50
4.96325564E-05
 51
9.00000162E+01
  0
POLYLINE
  8
0
 62
7
 66
1
  0
VERTEX
  8
0
 62
7
 10
-1.55306809E+02
 20
2.92821084E+02
  0
VERTEX
  8
0
 62
7
 10
-1.55667267E+02
 20
2.92666909E+02
  0
VERTEX
  8
0
 62
7
 10
-1.56004409E+02
 20
2.92493169E+02
  0
VERTEX
  8
0
 62
7
 10
-1.56315550E+02
 20
2.92301248E+02
  0
VERTEX
  8
0
 62
7
 10
-1.56598215E+02
 20
2.92092674E+02
  0
VERTEX
  8
0
 62
7
 10
-1.56850153E+02
 20
2.91869106E+02
  0
VERTEX
  8
0
 62
7
 10
-1.57069357E+02
 20
2.91632325E+02
  0
VERTEX
  8
0
 62
7
 10
-1.57254084E+02
 20
2.91384215E+02
  0
VERTEX
  8
0
 62
7
 10
-1.57402862E+02
 20
2.91126752E+02
  0
VERTEX
  8
0
 62
7
 10
-1.57514507E+02
 20
2.90861986E+02
  0
VERTEX
  8
0
 62
7
 10
-1.57588131E+02
 20
2.90592024E+02
  0
VERTEX
  8
0
 62
7
 10
-1.57623147E+02
 20
2.90319014E+02
  0
VERTEX
  8
0
 62
7
 10
-1.57619276E+02
 20
2.90045132E+02
  0
VERTEX
  8
0
 62
7
 10
-1.57576550E+02
 20
2.89772556E+02
  0
VERTEX
  8
0
 62
7
 10
-1.57495309E+02
 20
2.89503456E+02
  0
VERTEX
  8
0
 62
7
 10
-1.57376198E+02
 20
2.89239976E+02
  0
VERTEX
  8
0
 62
7
 10
-1.57220167E+02
 20
2.88984212E+02
  0
VERTEX
  8
0
 62
7
 10
-1.57028457E+02
 20
2.88738201E+02
  0
VERTEX
  8
0
 62
7
 10
-1.56802596E+02
 20
2.88503901E+02
  0
VERTEX
  8
0
 62
7
 10
-1.56544379E+02
 20
2.88283177E+02
  0
VERTEX
  8
0
 62
7
 10
-1.56255865E+02
 20
2.88077786E+02
  0
VERTEX
  8
0
 62
7
 10
-1.55939348E+02
 20
2.87889364E+02
  0
VERTEX
  8
0
 62
7
 10
-1.55597349E+02
 20
2.87719410E+02
  0
VERTEX
  8
0
 62
7
 10
-1.55232590E+02
 20
2.87569277E+02
  0
VERTEX
  8
0
 62
7
 10
-1.54847976E+02
 20
2.87440160E+02
  0
VERTEX
  8
0
 62
7
 10
-1.54446568E+02
 20
2.87333088E+02
  0
VERTEX
  8
0
 62
7
 10
-1.54031561E+02
 20
2.87248913E+02
  0
VERTEX
  8
0
 62
7
 10
-1.53606259E+02
 20
2.87188305E+02
  0
VERTEX
  8
0
 62
7
 10
-1.53174048E+02
 20
2.87151746E+02
  0
VERTEX
  8
0
 62
7
 10
-1.52738369E+02
 20
2.87139527E+02
  0
SEQEND
  8
0
  0
POLYLINE
  8
0
 62
7
 66
1
  0
VERTEX
  8
0
 62
7
 10
-1.52738369E+02
 20
2.73860466E+02
  0
VERTEX
  8
0
 62
7
 10
-1.53174048E+02
 20
2.73848247E+02
  0
VERTEX
  8
0
 62
7
 10
-1.53606259E+02
 20
2.73811688E+02
  0
VERTEX
  8
0
 62
7
 10
-1.54031561E+02
 20
2.73751079E+02
  0
VERTEX
  8
0
 62
7
 10
-1.54446568E+02
 20
2.73666904E+02
  0
VERTEX
  8
0
 62
7
 10
-1.54847976E+02
 20
2.73559833E+02
  0
VERTEX
  8
0
 62
7
 10
-1.55232590E+02
 20
2.73430717E+02
  0
VERTEX
  8
0
 62
7
 10
-1.55597349E+02
 20
2.73280584E+02
  0
VERTEX
  8
0
 62
7
 10
-1.55939348E+02
 20
2.73110631E+02
  0
VERTEX
  8
0
 62
7
 10
-1.56255865E+02
 20
2.72922209E+02
  0
VERTEX
  8
0
 62
7
 10
-1.56544379E+02
 20
2.72716818E+02
  0
VERTEX
  8
0
 62
7
 10
-1.56802596E+02
 20
2.72496095E+02
  0
VERTEX
  8
0
 62
7
 10
-1.57028457E+02
 20
2.72261795E+02
  0
VERTEX
  8
0
 62
7
 10
-1.57220167E+02
 20
2.72015784E+02
  0
VERTEX
  8
0
 62
7
 10
-1.57376198E+02
 20
2.71760021E+02
  0
VERTEX
  8
0
 62
7
 10
-1.57495309E+02
 20
2.71496542E+02
  0
VERTEX
  8
0
 62
7
 10
-1.57576550E+02
 20
2.71227443E+02
  0
VERTEX
  8
0
 62
7
 10
-1.57619276E+02
 20
2.70954868E+02
  0
VERTEX
  8
0
 62
7
 10
-1.57623147E+02
 20
2.70680986E+02
  0
VERTEX
  8
0
 62
7
 10
-1.57588131E+02
 20
2.70407977E+02
  0
VERTEX
  8
0
 62
7
 10
-1.57514507E+02
 20
2.70138016E+02
  0
VERTEX
  8
0
 62
7
 10
-1.57402862E+02
 20
2.69873250E+02
  0
VERTEX
  8
0
 62
7
 10
-1.57254084E+02
 20
2.69615788E+02
  0
VERTEX
  8
0
 62
7
 10
-1.57069357E+02
 20
2.69367679E+02
  0
VERTEX
  8
0
 62
7
 10
-1.56850153E+02
 20
2.69130898E+02
  0
VERTEX
  8
0
 62
7
 10
-1.56598215E+02
 20
2.68907331E+02
  0
VERTEX
  8
0
 62
7
 10
-1.56315550E+02
 20
2.68698757E+02
  0
VERTEX
  8
0
 62
7
 10
-1.56004409E+02
 20
2.68506837E+02
  0
VERTEX
  8
0
 62
7
 10
-1.55667267E+02
 20
2.68333097E+02
  0
VERTEX
  8
0
 62
7
 10
-1.55306809E+02
 20
2.68178923E+02
  0
SEQEND
  8
0
  0
POLYLINE
  8
0
 62
7
 66
1
  0
VERTEX
  8
0
 62
7
 10
-1.52738361E+02
 20
2.87139526E+02
  0
VERTEX
  8
0
 62
7
 10
-1.53176509E+02
 20
2.87112798E+02
  0
VERTEX
  8
0
 62
7
 10
-1.53611129E+02
 20
2.87032826E+02
  0
VERTEX
  8
0
 62
7
 10
-1.54038723E+02
 20
2.86900257E+02
  0
VERTEX
  8
0
 62
7
 10
-1.54455846E+02
 20
2.86716156E+02
  0
VERTEX
  8
0
 62
7
 10
-1.54859142E+02
 20
2.86482007E+02
  0
VERTEX
  8
0
 62
7
 10
-1.55245362E+02
 20
2.86199693E+02
  0
VERTEX
  8
0
 62
7
 10
-1.55611397E+02
 20
2.85871490E+02
  0
VERTEX
  8
0
 62
7
 10
-1.55954301E+02
 20
2.85500038E+02
  0
VERTEX
  8
0
 62
7
 10
-1.56271311E+02
 20
2.85088329E+02
  0
VERTEX
  8
0
 62
7
 10
-1.56559876E+02
 20
2.84639677E+02
  0
VERTEX
  8
0
 62
7
 10
-1.56817673E+02
 20
2.84157695E+02
  0
VERTEX
  8
0
 62
7
 10
-1.57042625E+02
 20
2.83646264E+02
  0
VERTEX
  8
0
 62
7
 10
-1.57232922E+02
 20
2.83109500E+02
  0
VERTEX
  8
0
 62
7
 10
-1.57387031E+02
 20
2.82551727E+02
  0
VERTEX
  8
0
 62
7
 10
-1.57503712E+02
 20
2.81977434E+02
  0
VERTEX
  8
0
 62
7
 10
-1.57582026E+02
 20
2.81391245E+02
  0
VERTEX
  8
0
 62
7
 10
-1.57621341E+02
 20
2.80797881E+02
  0
VERTEX
  8
0
 62
7
 10
-1.57621341E+02
 20
2.80202119E+02
  0
VERTEX
  8
0
 62
7
 10
-1.57582026E+02
 20
2.79608755E+02
  0
VERTEX
  8
0
 62
7
 10
-1.57503712E+02
 20
2.79022566E+02
  0
VERTEX
  8
0
 62
7
 10
-1.57387031E+02
 20
2.78448274E+02
  0
VERTEX
  8
0
 62
7
 10
-1.57232922E+02
 20
2.77890500E+02
  0
VERTEX
  8
0
 62
7
 10
-1.57042625E+02
 20
2.77353737E+02
  0
VERTEX
  8
0
 62
7
 10
-1.56817673E+02
 20
2.76842305E+02
  0
VERTEX
  8
0
 62
7
 10
-1.56559876E+02
 20
2.76360323E+02
  0
VERTEX
  8
0
 62
7
 10
-1.56271311E+02
 20
2.75911671E+02
  0
VERTEX
  8
0
 62
7
 10
-1.55954301E+02
 20
2.75499962E+02
  0
VERTEX
  8
0
 62
7
 10
-1.55611397E+02
 20
2.75128510E+02
  0
VERTEX
  8
0
 62
7
 10
-1.55245362E+02
 20
2.74800307E+02
  0
VERTEX
  8
0
 62
7
 10
-1.54859142E+02
 20
2.74517993E+02
  0
VERTEX
  8
0
 62
7
 10
-1.54455846E+02
 20
2.74283844E+02
  0
VERTEX
  8
0
 62
7
 10
-1.54038723E+02
 20
2.74099743E+02
  0
VERTEX
  8
0
 62
7
 10
-1.53611130E+02
 20
2.73967174E+02
  0
VERTEX
  8
0
 62
7
 10
-1.53176509E+02
 20
2.73887202E+02
  0
VERTEX
  8
0
 62
7
 10
-1.52738361E+02
 20
2.73860474E+02
  0
SEQEND
  8
0
  0
LINE
  8
0
 62
4
 10
1.60774753E+02
 20
2.80500000E+02
 11
1.70916622E+02
 21
2.80500000E+02
  0
ARC
  8
0
 62
4
 10
1.49238900E+02
 20
2.72500000E+02
 40
2.31067870E+01
 50
3.39743797E+02
 51
2.02562028E+01
  0
ARC
  8
0
 62
4
 10
1.49238900E+02
 20
2.88500000E+02
 40
2.31067870E+01
 50
3.39743797E+02
 51
2.02562028E+01
  0
ARC
  8
0
 62
4
 10
1.82452474E+02
 20
2.72500000E+02
 40
2.31067870E+01
 50
1.59743797E+02
 51
2.00256203E+02
  0
ARC
  8
0
 62
4
 10
1.82452474E+02
 20
2.88500000E+02
 40
2.31067870E+01
 50
1.59743797E+02
 51
2.00256203E+02
  0
LINE
  8
0
 62
4
 10
1.72345687E+02
 20
2.96500000E+02
 11
1.72345687E+02
 21
2.64500000E+02
  0
LINE
  8
0
 62
4
 10
1.59345687E+02
 20
2.96500000E+02
 11
1.59345687E+02
 21
2.64500000E+02
  0
LINE
  8
0
 62
4
 10
1.59345687E+02
 20
2.96500000E+02
 11
1.72345687E+02
 21
2.96500000E+02
  0
LINE
  8
0
 62
4
 10
1.59345687E+02
 20
2.64500000E+02
 11
1.72345687E+02
 21
2.64500000E+02
  0
LINE
  8
0
 62
4
 10
-1.85570969E+02
 20
2.80500000E+02
 11
-1.75429100E+02
 21
2.80500000E+02
  0
ARC
  8
0
 62
4
 10
-1.97106821E+02
 20
2.72500000E+02
 40
2.31067870E+01
 50
3.39743797E+02
 51
2.02562028E+01
  0
ARC
  8
0
 62
4
 10
-1.97106821E+02
 20
2.88500000E+02
 40
2.31067870E+01
 50
3.39743797E+02
 51
2.02562028E+01
  0
ARC
  8
0
 62
4
 10
-1.63893247E+02
 20
2.72500000E+02
 40
2.31067870E+01
 50
1.59743797E+02
 51
2.00256203E+02
  0
ARC
  8
0
 62
4
 10
-1.63893247E+02
 20
2.88500000E+02
 40
2.31067870E+01
 50
1.59743797E+02
 51
2.00256203E+02
  0
LINE
  8
0
 62
4
 10
-1.74000034E+02
 20
2.96500000E+02
 11
-1.74000034E+02
 21
2.64500000E+02
  0
LINE
  8
0
 62
4
 10
-1.87000034E+02
 20
2.96500000E+02
 11
-1.87000034E+02
 21
2.64500000E+02
  0
LINE
  8
0
 62
4
 10
-1.87000034E+02
 20
2.96500000E+02
 11
-1.74000034E+02
 21
2.96500000E+02
  0
LINE
  8
0
 62
4
 10
-1.87000034E+02
 20
2.64500000E+02
 11
-1.74000034E+02
 21
2.64500000E+02
  0
LINE
  8
0
 62
7
 10
-1.74000034E+02
 20
2.91500031E+02
 11
-1.61999989E+02
 21
2.91500031E+02
  0
LINE
  8
0
 62
2
 10
-1.74000034E+02
 20
2.90680023E+02
 11
-1.61999989E+02
 21
2.90680023E+02
  0
LINE
  8
0
 62
7
 10
-1.74000034E+02
 20
2.69500000E+02
 11
-1.61999989E+02
 21
2.69500000E+02
  0
LINE
  8
0
 62
2
 10
-1.74000034E+02
 20
2.70320023E+02
 11
-1.61999989E+02
 21
2.70320023E+02
  0
LINE
  8
0
 62
2
 10
1.59345687E+02
 20
2.90680023E+02
 11
1.46999973E+02
 21
2.90680023E+02
  0
LINE
  8
0
 62
7
 10
1.59345687E+02
 20
2.91500031E+02
 11
1.46999973E+02
 21
2.91500031E+02
  0
LINE
  8
0
 62
2
 10
1.59345687E+02
 20
2.70320023E+02
 11
1.46999973E+02
 21
2.70320023E+02
  0
LINE
  8
0
 62
7
 10
1.59345687E+02
 20
2.69500000E+02
 11
1.46999973E+02
 21
2.69500000E+02
  0
LINE
  8
0
  6
CENTER
 62
6
 10
-7.89999885E+01
 20
2.99410061E+02
 11
-3.19999885E+01
 21
2.99410061E+02
  0
LINE
  8
0
 62
6
 10
-2.32679606E+01
 20
2.64589924E+02
 11
-2.67320622E+01
 21
2.58589924E+02
  0
LINE
  8
0
 62
4
 10
-1.50000115E+01
 20
2.63089924E+02
 11
-2.41339861E+01
 21
2.63089924E+02
  0
LINE
  8
0
  6
CENTER
 62
6
 10
1.99999885E+01
 20
2.61589924E+02
 11
-2.70000115E+01
 21
2.61589924E+02
  0
LINE
  8
0
 62
4
 10
-1.50000115E+01
 20
2.60089924E+02
 11
-2.58660369E+01
 21
2.60089924E+02
  0
LINE
  8
0
 62
6
 10
-3.57320394E+01
 20
2.96410061E+02
 11
-3.22679378E+01
 21
3.02410061E+02
  0
LINE
  8
0
 62
4
 10
-4.39999885E+01
 20
2.97910061E+02
 11
-3.48660139E+01
 21
2.97910061E+02
  0
LINE
  8
0
 62
4
 10
-4.39999885E+01
 20
3.00910061E+02
 11
-3.31339631E+01
 21
3.00910061E+02
  0
LINE
  8
0
 62
6
 10
-2.00001147E+00
 20
2.33664602E+02
 11
-2.00001147E+00
 21
2.35031930E+02
  0
LINE
  8
0
 62
6
 10
-5.00001147E+00
 20
2.33664602E+02
 11
-5.00001147E+00
 21
2.35031930E+02
  0
LINE
  8
0
 62
4
 10
-1.50001147E+00
 20
2.34160160E+02
 11
-1.50001147E+00
 21
2.35031930E+02
  0
LINE
  8
0
 62
4
 10
-5.50001147E+00
 20
2.34160160E+02
 11
-5.50001147E+00
 21
2.35031930E+02
  0
LINE
  8
0
 62
4
 10
-1.14440917E-05
 20
2.35031930E+02
 11
-1.14440917E-05
 21
2.48876436E+02
  0
LINE
  8
0
 62
4
 10
-1.50000114E+01
 20
2.35031930E+02
 11
-1.50000114E+01
 21
2.64420135E+02
  0
LINE
  8
0
  6
CENTER
 62
6
 10
-1.15000115E+01
 20
2.30234406E+02
 11
-1.15000115E+01
 21
2.40499985E+02
  0
LINE
  8
0
  6
CENTER
 62
6
 10
-3.50001147E+00
 20
2.30234406E+02
 11
-3.50001147E+00
 21
2.40499985E+02
  0
LINE
  8
0
  6
CENTER
 62
6
 10
7.49998856E+00
 20
2.57612159E+02
 11
7.49998856E+00
 21
2.62612159E+02
  0
LINE
  8
0
 62
4
 10
-1.00000114E+01
 20
2.64193504E+02
 11
-1.00000114E+01
 21
2.63549596E+02
  0
LINE
  8
0
 62
4
 10
1.49999886E+01
 20
2.48876436E+02
 11
1.49999886E+01
 21
2.62322338E+02
  0
LINE
  8
0
 62
4
 10
-8.50001144E+00
 20
2.64193504E+02
 11
-8.50001144E+00
 21
2.63918659E+02
  0
LINE
  8
0
 62
4
 10
1.64999886E+01
 20
2.60114264E+02
 11
1.64999886E+01
 21
2.63062820E+02
  0
LINE
  8
0
 62
4
 10
-1.14370513E-05
 20
2.35031930E+02
 11
-1.50000114E+01
 21
2.35031930E+02
  0
LINE
  8
0
 62
4
 10
-1.14370513E-05
 20
2.42386149E+02
 11
-1.50000114E+01
 21
2.42386149E+02
  0
LINE
  8
0
 62
4
 10
1.49999886E+01
 20
2.48876436E+02
 11
-1.50000114E+01
 21
2.48876436E+02
  0
LINE
  8
0
 62
4
 10
1.49999886E+01
 20
2.58426429E+02
 11
-1.50000114E+01
 21
2.58426429E+02
  0
LINE
  8
0
 62
4
 10
1.49999886E+01
 20
2.64420135E+02
 11
3.14873318E+00
 21
2.64420135E+02
  0
POLYLINE
  8
0
 62
4
 66
1
  0
VERTEX
  8
0
 62
4
 10
-5.50001147E+00
 20
2.34160160E+02
  0
VERTEX
  8
0
 62
4
 10
-5.49196006E+00
 20
2.34093001E+02
  0
VERTEX
  8
0
 62
4
 10
-5.46787065E+00
 20
2.34026383E+02
  0
VERTEX
  8
0
 62
4
 10
-5.42793719E+00
 20
2.33960842E+02
  0
VERTEX
  8
0
 62
4
 10
-5.37248121E+00
 20
2.33896905E+02
  0
VERTEX
  8
0
 62
4
 10
-5.30194921E+00
 20
2.33835089E+02
  0
VERTEX
  8
0
 62
4
 10
-5.21690906E+00
 20
2.33775889E+02
  0
VERTEX
  8
0
 62
4
 10
-5.11804546E+00
 20
2.33719784E+02
  0
VERTEX
  8
0
 62
4
 10
-5.00615441E+00
 20
2.33667224E+02
  0
VERTEX
  8
0
 62
4
 10
-4.88213677E+00
 20
2.33618633E+02
  0
VERTEX
  8
0
 62
4
 10
-4.74699108E+00
 20
2.33574402E+02
  0
VERTEX
  8
0
 62
4
 10
-4.60180544E+00
 20
2.33534887E+02
  0
VERTEX
  8
0
 62
4
 10
-4.44774880E+00
 20
2.33500406E+02
  0
VERTEX
  8
0
 62
4
 10
-4.28606154E+00
 20
2.33471238E+02
  0
VERTEX
  8
0
 62
4
 10
-4.11804547E+00
 20
2.33447616E+02
  0
VERTEX
  8
0
 62
4
 10
-3.94505335E+00
 20
2.33429731E+02
  0
VERTEX
  8
0
 62
4
 10
-3.76847801E+00
 20
2.33417727E+02
  0
VERTEX
  8
0
 62
4
 10
-3.58974114E+00
 20
2.33411701E+02
  0
VERTEX
  8
0
 62
4
 10
-3.41028182E+00
 20
2.33411701E+02
  0
VERTEX
  8
0
 62
4
 10
-3.23154495E+00
 20
2.33417727E+02
  0
VERTEX
  8
0
 62
4
 10
-3.05496961E+00
 20
2.33429731E+02
  0
VERTEX
  8
0
 62
4
 10
-2.88197749E+00
 20
2.33447616E+02
  0
VERTEX
  8
0
 62
4
 10
-2.71396142E+00
 20
2.33471238E+02
  0
VERTEX
  8
0
 62
4
 10
-2.55227416E+00
 20
2.33500406E+02
  0
VERTEX
  8
0
 62
4
 10
-2.39821752E+00
 20
2.33534887E+02
  0
VERTEX
  8
0
 62
4
 10
-2.25303188E+00
 20
2.33574402E+02
  0
VERTEX
  8
0
 62
4
 10
-2.11788618E+00
 20
2.33618633E+02
  0
VERTEX
  8
0
 62
4
 10
-1.99386855E+00
 20
2.33667224E+02
  0
VERTEX
  8
0
 62
4
 10
-1.88197749E+00
 20
2.33719784E+02
  0
VERTEX
  8
0
 62
4
 10
-1.78311389E+00
 20
2.33775889E+02
  0
VERTEX
  8
0
 62
4
 10
-1.69807374E+00
 20
2.33835089E+02
  0
VERTEX
  8
0
 62
4
 10
-1.62754173E+00
 20
2.33896905E+02
  0
VERTEX
  8
0
 62
4
 10
-1.57208575E+00
 20
2.33960842E+02
  0
VERTEX
  8
0
 62
4
 10
-1.53215230E+00
 20
2.34026383E+02
  0
VERTEX
  8
0
 62
4
 10
-1.50806288E+00
 20
2.34093001E+02
  0
VERTEX
  8
0
 62
4
 10
-1.50001147E+00
 20
2.34160160E+02
  0
SEQEND
  8
0
  0
LINE
  8
0
 62
6
 10
-1.30000115E+01
 20
2.33664602E+02
 11
-1.30000115E+01
 21
2.35031930E+02
  0
LINE
  8
0
 62
4
 10
-1.35000115E+01
 20
2.34160160E+02
 11
-1.35000115E+01
 21
2.35031930E+02
  0
POLYLINE
  8
0
 62
4
 66
1
  0
VERTEX
  8
0
 62
4
 10
-1.35000115E+01
 20
2.34160160E+02
  0
VERTEX
  8
0
 62
4
 10
-1.34919601E+01
 20
2.34093001E+02
  0
VERTEX
  8
0
 62
4
 10
-1.34678707E+01
 20
2.34026383E+02
  0
VERTEX
  8
0
 62
4
 10
-1.34279372E+01
 20
2.33960842E+02
  0
VERTEX
  8
0
 62
4
 10
-1.33724812E+01
 20
2.33896905E+02
  0
VERTEX
  8
0
 62
4
 10
-1.33019492E+01
 20
2.33835089E+02
  0
VERTEX
  8
0
 62
4
 10
-1.32169091E+01
 20
2.33775889E+02
  0
VERTEX
  8
0
 62
4
 10
-1.31180455E+01
 20
2.33719784E+02
  0
VERTEX
  8
0
 62
4
 10
-1.30061544E+01
 20
2.33667224E+02
  0
VERTEX
  8
0
 62
4
 10
-1.28821368E+01
 20
2.33618633E+02
  0
VERTEX
  8
0
 62
4
 10
-1.27469911E+01
 20
2.33574402E+02
  0
VERTEX
  8
0
 62
4
 10
-1.26018055E+01
 20
2.33534887E+02
  0
VERTEX
  8
0
 62
4
 10
-1.24477488E+01
 20
2.33500406E+02
  0
VERTEX
  8
0
 62
4
 10
-1.22860616E+01
 20
2.33471238E+02
  0
VERTEX
  8
0
 62
4
 10
-1.21180455E+01
 20
2.33447616E+02
  0
VERTEX
  8
0
 62
4
 10
-1.19450534E+01
 20
2.33429731E+02
  0
VERTEX
  8
0
 62
4
 10
-1.17684780E+01
 20
2.33417727E+02
  0
VERTEX
  8
0
 62
4
 10
-1.15897412E+01
 20
2.33411701E+02
  0
VERTEX
  8
0
 62
4
 10
-1.14102819E+01
 20
2.33411701E+02
  0
VERTEX
  8
0
 62
4
 10
-1.12315450E+01
 20
2.33417727E+02
  0
VERTEX
  8
0
 62
4
 10
-1.10549696E+01
 20
2.33429731E+02
  0
VERTEX
  8
0
 62
4
 10
-1.08819775E+01
 20
2.33447616E+02
  0
VERTEX
  8
0
 62
4
 10
-1.07139614E+01
 20
2.33471238E+02
  0
VERTEX
  8
0
 62
4
 10
-1.05522742E+01
 20
2.33500406E+02
  0
VERTEX
  8
0
 62
4
 10
-1.03982175E+01
 20
2.33534887E+02
  0
VERTEX
  8
0
 62
4
 10
-1.02530319E+01
 20
2.33574402E+02
  0
VERTEX
  8
0
 62
4
 10
-1.01178862E+01
 20
2.33618633E+02
  0
VERTEX
  8
0
 62
4
 10
-9.99386858E+00
 20
2.33667224E+02
  0
VERTEX
  8
0
 62
4
 10
-9.88197752E+00
 20
2.33719784E+02
  0
VERTEX
  8
0
 62
4
 10
-9.78311392E+00
 20
2.33775889E+02
  0
VERTEX
  8
0
 62
4
 10
-9.69807377E+00
 20
2.33835089E+02
  0
VERTEX
  8
0
 62
4
 10
-9.62754176E+00
 20
2.33896905E+02
  0
VERTEX
  8
0
 62
4
 10
-9.57208578E+00
 20
2.33960842E+02
  0
VERTEX
  8
0
 62
4
 10
-9.53215233E+00
 20
2.34026383E+02
  0
VERTEX
  8
0
 62
4
 10
-9.50806291E+00
 20
2.34093001E+02
  0
VERTEX
  8
0
 62
4
 10
-9.50001150E+00
 20
2.34160160E+02
  0
SEQEND
  8
0
  0
LINE
  8
0
 62
6
 10
-1.00000115E+01
 20
2.33664602E+02
 11
-1.00000115E+01
 21
2.35031930E+02
  0
LINE
  8
0
 62
4
 10
-9.50001147E+00
 20
2.34160160E+02
 11
-9.50001147E+00
 21
2.35031930E+02
  0
LINE
  8
0
 62
4
 10
-4.15001144E+00
 20
2.62829325E+02
 11
-4.15001144E+00
 21
2.63407456E+02
  0
LINE
  8
0
 62
4
 10
4.14998856E+00
 20
2.61775612E+02
 11
4.14998856E+00
 21
2.63407456E+02
  0
POLYLINE
  8
0
 62
4
 66
1
  0
VERTEX
  8
0
 62
4
 10
-3.70102953E+00
 20
2.61072292E+02
  0
VERTEX
  8
0
 62
4
 10
-3.51934915E+00
 20
2.60951753E+02
  0
VERTEX
  8
0
 62
4
 10
-3.30976606E+00
 20
2.60837746E+02
  0
VERTEX
  8
0
 62
4
 10
-3.07394191E+00
 20
2.60731175E+02
  0
VERTEX
  8
0
 62
4
 10
-2.81374640E+00
 20
2.60632884E+02
  0
VERTEX
  8
0
 62
4
 10
-2.53124248E+00
 20
2.60543653E+02
  0
VERTEX
  8
0
 62
4
 10
-2.22866995E+00
 20
2.60464190E+02
  0
VERTEX
  8
0
 62
4
 10
-1.90842772E+00
 20
2.60395125E+02
  0
VERTEX
  8
0
 62
4
 10
-1.57305480E+00
 20
2.60337004E+02
  0
VERTEX
  8
0
 62
4
 10
-1.22521016E+00
 20
2.60290289E+02
  0
VERTEX
  8
0
 62
4
 10
-8.67651664E-01
 20
2.60255351E+02
  0
VERTEX
  8
0
 62
4
 10
-5.03214164E-01
 20
2.60232465E+02
  0
VERTEX
  8
0
 62
4
 10
-1.34787072E-01
 20
2.60221815E+02
  0
VERTEX
  8
0
 62
4
 10
2.34708575E-01
 20
2.60223483E+02
  0
VERTEX
  8
0
 62
4
 10
6.02343268E-01
 20
2.60237458E+02
  0
VERTEX
  8
0
 62
4
 10
9.65202252E-01
 20
2.60263627E+02
  0
VERTEX
  8
0
 62
4
 10
1.32040864E+00
 20
2.60301784E+02
  0
VERTEX
  8
0
 62
4
 10
1.66514620E+00
 20
2.60351626E+02
  0
VERTEX
  8
0
 62
4
 10
1.99668173E+00
 20
2.60412759E+02
  0
VERTEX
  8
0
 62
4
 10
2.31238667E+00
 20
2.60484696E+02
  0
VERTEX
  8
0
 62
4
 10
2.60975800E+00
 20
2.60566868E+02
  0
VERTEX
  8
0
 62
4
 10
2.88643804E+00
 20
2.60658624E+02
  0
VERTEX
  8
0
 62
4
 10
3.14023314E+00
 20
2.60759236E+02
  0
VERTEX
  8
0
 62
4
 10
3.36913113E+00
 20
2.60867905E+02
  0
VERTEX
  8
0
 62
4
 10
3.57131721E+00
 20
2.60983772E+02
  0
VERTEX
  8
0
 62
4
 10
3.74518837E+00
 20
2.61105917E+02
  0
VERTEX
  8
0
 62
4
 10
3.88936608E+00
 20
2.61233371E+02
  0
VERTEX
  8
0
 62
4
 10
4.00270725E+00
 20
2.61365124E+02
  0
VERTEX
  8
0
 62
4
 10
4.08431327E+00
 20
2.61500132E+02
  0
VERTEX
  8
0
 62
4
 10
4.13353713E+00
 20
2.61637324E+02
  0
VERTEX
  8
0
 62
4
 10
4.14998856E+00
 20
2.61775612E+02
  0
SEQEND
  8
0
  0
POLYLINE
  8
0
 62
4
 66
1
  0
VERTEX
  8
0
 62
4
 10
4.14998856E+00
 20
2.63407456E+02
  0
VERTEX
  8
0
 62
4
 10
4.13419655E+00
 20
2.63542950E+02
  0
VERTEX
  8
0
 62
4
 10
4.08694073E+00
 20
2.63677412E+02
  0
VERTEX
  8
0
 62
4
 10
4.00858073E+00
 20
2.63809821E+02
  0
VERTEX
  8
0
 62
4
 10
3.89971293E+00
 20
2.63939166E+02
  0
VERTEX
  8
0
 62
4
 10
3.76116587E+00
 20
2.64064466E+02
  0
VERTEX
  8
0
 62
4
 10
3.59399398E+00
 20
2.64184765E+02
  0
VERTEX
  8
0
 62
4
 10
3.39946954E+00
 20
2.64299148E+02
  0
VERTEX
  8
0
 62
4
 10
3.17907299E+00
 20
2.64406745E+02
  0
VERTEX
  8
0
 62
4
 10
2.93448170E+00
 20
2.64506736E+02
  0
VERTEX
  8
0
 62
4
 10
2.66755713E+00
 20
2.64598362E+02
  0
VERTEX
  8
0
 62
4
 10
2.38033077E+00
 20
2.64680924E+02
  0
VERTEX
  8
0
 62
4
 10
2.07498855E+00
 20
2.64753794E+02
  0
VERTEX
  8
0
 62
4
 10
1.75385434E+00
 20
2.64816418E+02
  0
VERTEX
  8
0
 62
4
 10
1.41937215E+00
 20
2.64868318E+02
  0
VERTEX
  8
0
 62
4
 10
1.07408759E+00
 20
2.64909101E+02
  0
VERTEX
  8
0
 62
4
 10
7.20628491E-01
 20
2.64938455E+02
  0
VERTEX
  8
0
 62
4
 10
3.61684886E-01
 20
2.64956158E+02
  0
VERTEX
  8
0
 62
4
 10
-1.14470179E-05
 20
2.64962073E+02
  0
VERTEX
  8
0
 62
4
 10
-3.61707780E-01
 20
2.64956158E+02
  0
VERTEX
  8
0
 62
4
 10
-7.20651385E-01
 20
2.64938455E+02
  0
VERTEX
  8
0
 62
4
 10
-1.07411048E+00
 20
2.64909101E+02
  0
VERTEX
  8
0
 62
4
 10
-1.41939504E+00
 20
2.64868318E+02
  0
VERTEX
  8
0
 62
4
 10
-1.75387723E+00
 20
2.64816418E+02
  0
VERTEX
  8
0
 62
4
 10
-2.07501145E+00
 20
2.64753794E+02
  0
VERTEX
  8
0
 62
4
 10
-2.38035366E+00
 20
2.64680924E+02
  0
VERTEX
  8
0
 62
4
 10
-2.66758003E+00
 20
2.64598362E+02
  0
VERTEX
  8
0
 62
4
 10
-2.93450459E+00
 20
2.64506736E+02
  0
VERTEX
  8
0
 62
4
 10
-3.17909589E+00
 20
2.64406745E+02
  0
VERTEX
  8
0
 62
4
 10
-3.39949243E+00
 20
2.64299148E+02
  0
VERTEX
  8
0
 62
4
 10
-3.59401687E+00
 20
2.64184765E+02
  0
VERTEX
  8
0
 62
4
 10
-3.76118876E+00
 20
2.64064466E+02
  0
VERTEX
  8
0
 62
4
 10
-3.89973582E+00
 20
2.63939166E+02
  0
VERTEX
  8
0
 62
4
 10
-4.00860362E+00
 20
2.63809821E+02
  0
VERTEX
  8
0
 62
4
 10
-4.08696362E+00
 20
2.63677412E+02
  0
VERTEX
  8
0
 62
4
 10
-4.13421944E+00
 20
2.63542950E+02
  0
VERTEX
  8
0
 62
4
 10
-4.15001144E+00
 20
2.63407456E+02
  0
VERTEX
  8
0
 62
4
 10
-4.13421944E+00
 20
2.63271962E+02
  0
VERTEX
  8
0
 62
4
 10
-4.08696362E+00
 20
2.63137500E+02
  0
VERTEX
  8
0
 62
4
 10
-4.00860362E+00
 20
2.63005091E+02
  0
VERTEX
  8
0
 62
4
 10
-3.89973582E+00
 20
2.62875746E+02
  0
VERTEX
  8
0
 62
4
 10
-3.76118876E+00
 20
2.62750446E+02
  0
VERTEX
  8
0
 62
4
 10
-3.59401687E+00
 20
2.62630147E+02
  0
VERTEX
  8
0
 62
4
 10
-3.39949242E+00
 20
2.62515764E+02
  0
VERTEX
  8
0
 62
4
 10
-3.17909588E+00
 20
2.62408167E+02
  0
VERTEX
  8
0
 62
4
 10
-2.93450458E+00
 20
2.62308176E+02
  0
VERTEX
  8
0
 62
4
 10
-2.66758002E+00
 20
2.62216550E+02
  0
VERTEX
  8
0
 62
4
 10
-2.38035365E+00
 20
2.62133988E+02
  0
VERTEX
  8
0
 62
4
 10
-2.07501144E+00
 20
2.62061118E+02
  0
VERTEX
  8
0
 62
4
 10
-1.75387722E+00
 20
2.61998494E+02
  0
VERTEX
  8
0
 62
4
 10
-1.41939503E+00
 20
2.61946594E+02
  0
VERTEX
  8
0
 62
4
 10
-1.07411047E+00
 20
2.61905811E+02
  0
VERTEX
  8
0
 62
4
 10
-7.20651373E-01
 20
2.61876457E+02
  0
VERTEX
  8
0
 62
4
 10
-3.61707768E-01
 20
2.61858754E+02
  0
VERTEX
  8
0
 62
4
 10
-1.14353132E-05
 20
2.61852839E+02
  0
VERTEX
  8
0
 62
4
 10
3.61684897E-01
 20
2.61858754E+02
  0
VERTEX
  8
0
 62
4
 10
7.20628502E-01
 20
2.61876457E+02
  0
VERTEX
  8
0
 62
4
 10
1.07408760E+00
 20
2.61905811E+02
  0
VERTEX
  8
0
 62
4
 10
1.41937216E+00
 20
2.61946594E+02
  0
VERTEX
  8
0
 62
4
 10
1.75385435E+00
 20
2.61998494E+02
  0
VERTEX
  8
0
 62
4
 10
2.07498856E+00
 20
2.62061118E+02
  0
VERTEX
  8
0
 62
4
 10
2.38033077E+00
 20
2.62133988E+02
  0
VERTEX
  8
0
 62
4
 10
2.66755714E+00
 20
2.62216550E+02
  0
VERTEX
  8
0
 62
4
 10
2.93448171E+00
 20
2.62308176E+02
  0
VERTEX
  8
0
 62
4
 10
3.17907300E+00
 20
2.62408167E+02
  0
VERTEX
  8
0
 62
4
 10
3.39946955E+00
 20
2.62515764E+02
  0
VERTEX
  8
0
 62
4
 10
3.59399399E+00
 20
2.62630147E+02
  0
VERTEX
  8
0
 62
4
 10
3.76116588E+00
 20
2.62750446E+02
  0
VERTEX
  8
0
 62
4
 10
3.89971294E+00
 20
2.62875746E+02
  0
VERTEX
  8
0
 62
4
 10
4.00858074E+00
 20
2.63005091E+02
  0
VERTEX
  8
0
 62
4
 10
4.08694073E+00
 20
2.63137500E+02
  0
VERTEX
  8
0
 62
4
 10
4.13419655E+00
 20
2.63271962E+02
  0
VERTEX
  8
0
 62
4
 10
4.14998856E+00
 20
2.63407456E+02
  0
SEQEND
  8
0
  0
ARC
  8
0
 62
4
 10
5.61669576E+00
 20
2.48987314E+02
 40
1.61228529E+01
 50
1.03811346E+02
 51
1.17258955E+02
  0
ARC
  8
0
 62
4
 10
-5.61672130E+00
 20
2.48987307E+02
 40
1.61228609E+01
 50
6.27410478E+01
 51
7.61886514E+01
  0
POLYLINE
  8
0
 62
4
 66
1
  0
VERTEX
  8
0
 62
4
 10
-3.70001144E+00
 20
2.60853929E+02
  0
VERTEX
  8
0
 62
4
 10
-3.55336888E+00
 20
2.60735223E+02
  0
VERTEX
  8
0
 62
4
 10
-3.37965017E+00
 20
2.60621760E+02
  0
VERTEX
  8
0
 62
4
 10
-3.18017902E+00
 20
2.60514405E+02
  0
VERTEX
  8
0
 62
4
 10
-2.95647540E+00
 20
2.60413975E+02
  0
VERTEX
  8
0
 62
4
 10
-2.71024387E+00
 20
2.60321235E+02
  0
VERTEX
  8
0
 62
4
 10
-2.44336071E+00
 20
2.60236894E+02
  0
VERTEX
  8
0
 62
4
 10
-2.15785953E+00
 20
2.60161592E+02
  0
VERTEX
  8
0
 62
4
 10
-1.85591581E+00
 20
2.60095904E+02
  0
VERTEX
  8
0
 62
4
 10
-1.53983032E+00
 20
2.60040331E+02
  0
VERTEX
  8
0
 62
4
 10
-1.21201161E+00
 20
2.59995296E+02
  0
VERTEX
  8
0
 62
4
 10
-8.74957598E-01
 20
2.59961142E+02
  0
VERTEX
  8
0
 62
4
 10
-5.31236607E-01
 20
2.59938129E+02
  0
VERTEX
  8
0
 62
4
 10
-1.83467745E-01
 20
2.59926432E+02
  0
VERTEX
  8
0
 62
4
 10
1.65699031E-01
 20
2.59926142E+02
  0
VERTEX
  8
0
 62
4
 10
5.13603114E-01
 20
2.59937260E+02
  0
VERTEX
  8
0
 62
4
 10
8.57593517E-01
 20
2.59959701E+02
  0
VERTEX
  8
0
 62
4
 10
1.19504907E+00
 20
2.59993294E+02
  0
VERTEX
  8
0
 62
4
 10
1.52339842E+00
 20
2.60037783E+02
  0
VERTEX
  8
0
 62
4
 10
1.84013957E+00
 20
2.60092830E+02
  0
VERTEX
  8
0
 62
4
 10
2.14285899E+00
 20
2.60158015E+02
  0
VERTEX
  8
0
 62
4
 10
2.42925000E+00
 20
2.60232841E+02
  0
VERTEX
  8
0
 62
4
 10
2.69713034E+00
 20
2.60316738E+02
  0
VERTEX
  8
0
 62
4
 10
2.94445878E+00
 20
2.60409067E+02
  0
VERTEX
  8
0
 62
4
 10
3.16935073E+00
 20
2.60509123E+02
  0
VERTEX
  8
0
 62
4
 10
3.37009252E+00
 20
2.60616146E+02
  0
VERTEX
  8
0
 62
4
 10
3.54515454E+00
 20
2.60729319E+02
  0
VERTEX
  8
0
 62
4
 10
3.69320282E+00
 20
2.60847780E+02
  0
VERTEX
  8
0
 62
4
 10
3.81310927E+00
 20
2.60970626E+02
  0
VERTEX
  8
0
 62
4
 10
3.90396020E+00
 20
2.61096921E+02
  0
VERTEX
  8
0
 62
4
 10
3.96506335E+00
 20
2.61225703E+02
  0
VERTEX
  8
0
 62
4
 10
3.99595311E+00
 20
2.61355991E+02
  0
SEQEND
  8
0
  0
LINE
  8
0
 62
4
 10
-4.10001144E+00
 20
2.61039343E+02
 11
-4.10001144E+00
 21
2.62517074E+02
  0
POLYLINE
  8
0
 62
4
 66
1
  0
VERTEX
  8
0
 62
4
 10
-1.09000114E+01
 20
2.61039343E+02
  0
VERTEX
  8
0
 62
4
 10
-1.08863240E+01
 20
2.60925173E+02
  0
VERTEX
  8
0
 62
4
 10
-1.08453720E+01
 20
2.60811922E+02
  0
VERTEX
  8
0
 62
4
 10
-1.07774852E+01
 20
2.60700502E+02
  0
VERTEX
  8
0
 62
4
 10
-1.06832100E+01
 20
2.60591810E+02
  0
VERTEX
  8
0
 62
4
 10
-1.05633056E+01
 20
2.60486722E+02
  0
VERTEX
  8
0
 62
4
 10
-1.04187373E+01
 20
2.60386082E+02
  0
VERTEX
  8
0
 62
4
 10
-1.02506692E+01
 20
2.60290703E+02
  0
VERTEX
  8
0
 62
4
 10
-1.00604544E+01
 20
2.60201351E+02
  0
VERTEX
  8
0
 62
4
 10
-9.84962446E+00
 20
2.60118746E+02
  0
VERTEX
  8
0
 62
4
 10
-9.61987678E+00
 20
2.60043554E+02
  0
VERTEX
  8
0
 62
4
 10
-9.37306119E+00
 20
2.59976378E+02
  0
VERTEX
  8
0
 62
4
 10
-9.11116491E+00
 20
2.59917762E+02
  0
VERTEX
  8
0
 62
4
 10
-8.83629656E+00
 20
2.59868175E+02
  0
VERTEX
  8
0
 62
4
 10
-8.55066924E+00
 20
2.59828018E+02
  0
VERTEX
  8
0
 62
4
 10
-8.25658263E+00
 20
2.59797614E+02
  0
VERTEX
  8
0
 62
4
 10
-7.95640456E+00
 20
2.59777208E+02
  0
VERTEX
  8
0
 62
4
 10
-7.65255188E+00
 20
2.59766963E+02
  0
VERTEX
  8
0
 62
4
 10
-7.34747104E+00
 20
2.59766963E+02
  0
VERTEX
  8
0
 62
4
 10
-7.04361835E+00
 20
2.59777208E+02
  0
VERTEX
  8
0
 62
4
 10
-6.74344028E+00
 20
2.59797614E+02
  0
VERTEX
  8
0
 62
4
 10
-6.44935368E+00
 20
2.59828018E+02
  0
VERTEX
  8
0
 62
4
 10
-6.16372635E+00
 20
2.59868175E+02
  0
VERTEX
  8
0
 62
4
 10
-5.88885801E+00
 20
2.59917762E+02
  0
VERTEX
  8
0
 62
4
 10
-5.62696172E+00
 20
2.59976378E+02
  0
VERTEX
  8
0
 62
4
 10
-5.38014613E+00
 20
2.60043554E+02
  0
VERTEX
  8
0
 62
4
 10
-5.15039845E+00
 20
2.60118746E+02
  0
VERTEX
  8
0
 62
4
 10
-4.93956847E+00
 20
2.60201351E+02
  0
VERTEX
  8
0
 62
4
 10
-4.74935367E+00
 20
2.60290703E+02
  0
VERTEX
  8
0
 62
4
 10
-4.58128555E+00
 20
2.60386082E+02
  0
VERTEX
  8
0
 62
4
 10
-4.43671730E+00
 20
2.60486722E+02
  0
VERTEX
  8
0
 62
4
 10
-4.31681289E+00
 20
2.60591810E+02
  0
VERTEX
  8
0
 62
4
 10
-4.22253772E+00
 20
2.60700502E+02
  0
VERTEX
  8
0
 62
4
 10
-4.15465084E+00
 20
2.60811922E+02
  0
VERTEX
  8
0
 62
4
 10
-4.11369884E+00
 20
2.60925173E+02
  0
VERTEX
  8
0
 62
4
 10
-4.10001144E+00
 20
2.61039343E+02
  0
SEQEND
  8
0
  0
POLYLINE
  8
0
 62
4
 66
1
  0
VERTEX
  8
0
 62
4
 10
-1.09000114E+01
 20
2.62087061E+02
  0
VERTEX
  8
0
 62
4
 10
-1.08863240E+01
 20
2.61972891E+02
  0
VERTEX
  8
0
 62
4
 10
-1.08453720E+01
 20
2.61859640E+02
  0
VERTEX
  8
0
 62
4
 10
-1.07774852E+01
 20
2.61748220E+02
  0
VERTEX
  8
0
 62
4
 10
-1.06832100E+01
 20
2.61639528E+02
  0
VERTEX
  8
0
 62
4
 10
-1.05633056E+01
 20
2.61534440E+02
  0
VERTEX
  8
0
 62
4
 10
-1.04187373E+01
 20
2.61433800E+02
  0
VERTEX
  8
0
 62
4
 10
-1.02506692E+01
 20
2.61338421E+02
  0
VERTEX
  8
0
 62
4
 10
-1.00604544E+01
 20
2.61249069E+02
  0
VERTEX
  8
0
 62
4
 10
-9.84962446E+00
 20
2.61166464E+02
  0
VERTEX
  8
0
 62
4
 10
-9.61987678E+00
 20
2.61091272E+02
  0
VERTEX
  8
0
 62
4
 10
-9.37306119E+00
 20
2.61024096E+02
  0
VERTEX
  8
0
 62
4
 10
-9.11116491E+00
 20
2.60965480E+02
  0
VERTEX
  8
0
 62
4
 10
-8.83629656E+00
 20
2.60915893E+02
  0
VERTEX
  8
0
 62
4
 10
-8.55066924E+00
 20
2.60875736E+02
  0
VERTEX
  8
0
 62
4
 10
-8.25658263E+00
 20
2.60845332E+02
  0
VERTEX
  8
0
 62
4
 10
-7.95640456E+00
 20
2.60824926E+02
  0
VERTEX
  8
0
 62
4
 10
-7.65255188E+00
 20
2.60814681E+02
  0
VERTEX
  8
0
 62
4
 10
-7.34747104E+00
 20
2.60814681E+02
  0
VERTEX
  8
0
 62
4
 10
-7.04361835E+00
 20
2.60824926E+02
  0
VERTEX
  8
0
 62
4
 10
-6.74344028E+00
 20
2.60845332E+02
  0
VERTEX
  8
0
 62
4
 10
-6.44935368E+00
 20
2.60875736E+02
  0
VERTEX
  8
0
 62
4
 10
-6.16372635E+00
 20
2.60915893E+02
  0
VERTEX
  8
0
 62
4
 10
-5.88885801E+00
 20
2.60965480E+02
  0
VERTEX
  8
0
 62
4
 10
-5.62696172E+00
 20
2.61024096E+02
  0
VERTEX
  8
0
 62
4
 10
-5.38014613E+00
 20
2.61091272E+02
  0
VERTEX
  8
0
 62
4
 10
-5.15039845E+00
 20
2.61166464E+02
  0
VERTEX
  8
0
 62
4
 10
-4.93956847E+00
 20
2.61249069E+02
  0
VERTEX
  8
0
 62
4
 10
-4.74935367E+00
 20
2.61338421E+02
  0
VERTEX
  8
0
 62
4
 10
-4.58128555E+00
 20
2.61433800E+02
  0
VERTEX
  8
0
 62
4
 10
-4.43671730E+00
 20
2.61534440E+02
  0
VERTEX
  8
0
 62
4
 10
-4.31681289E+00
 20
2.61639528E+02
  0
VERTEX
  8
0
 62
4
 10
-4.22253772E+00
 20
2.61748220E+02
  0
VERTEX
  8
0
 62
4
 10
-4.15465084E+00
 20
2.61859640E+02
  0
VERTEX
  8
0
 62
4
 10
-4.11369884E+00
 20
2.61972891E+02
  0
VERTEX
  8
0
 62
4
 10
-4.10001144E+00
 20
2.62087061E+02
  0
SEQEND
  8
0
  0
LINE
  8
0
 62
4
 10
-1.09000114E+01
 20
2.62517074E+02
 11
-1.09000114E+01
 21
2.61039343E+02
  0
ARC
  8
0
 62
4
 10
-9.90001177E+00
 20
2.62517074E+02
 40
1.00000000E+00
 50
1.02827510E+02
 51
1.80000000E+02
  0
ARC
  8
0
 62
4
 10
-5.10001112E+00
 20
2.62517074E+02
 40
1.00000000E+00
 50
3.60000000E+02
 51
7.71724899E+01
  0
ARC
  8
0
 62
4
 10
-2.11262664E+00
 20
2.48760319E+02
 40
1.54729912E+01
 50
1.03783165E+02
 51
1.17543924E+02
  0
ARC
  8
0
 62
4
 10
-1.28873967E+01
 20
2.48760318E+02
 40
1.54729926E+01
 50
6.24560769E+01
 51
7.62168346E+01
  0
LINE
  8
0
 62
4
 10
-1.13000114E+01
 20
2.60112159E+02
 11
-1.13000114E+01
 21
2.61039343E+02
  0
LINE
  8
0
 62
4
 10
-3.70001144E+00
 20
2.60112159E+02
 11
-3.70001144E+00
 21
2.61039343E+02
  0
POLYLINE
  8
0
 62
4
 66
1
  0
VERTEX
  8
0
 62
4
 10
-1.13000114E+01
 20
2.60112159E+02
  0
VERTEX
  8
0
 62
4
 10
-1.12847138E+01
 20
2.59984557E+02
  0
VERTEX
  8
0
 62
4
 10
-1.12389439E+01
 20
2.59857982E+02
  0
VERTEX
  8
0
 62
4
 10
-1.11630703E+01
 20
2.59733454E+02
  0
VERTEX
  8
0
 62
4
 10
-1.10577040E+01
 20
2.59611975E+02
  0
VERTEX
  8
0
 62
4
 10
-1.09236931E+01
 20
2.59494523E+02
  0
VERTEX
  8
0
 62
4
 10
-1.07621169E+01
 20
2.59382044E+02
  0
VERTEX
  8
0
 62
4
 10
-1.05742760E+01
 20
2.59275444E+02
  0
VERTEX
  8
0
 62
4
 10
-1.03616830E+01
 20
2.59175580E+02
  0
VERTEX
  8
0
 62
4
 10
-1.01260495E+01
 20
2.59083257E+02
  0
VERTEX
  8
0
 62
4
 10
-9.86927270E+00
 20
2.58999218E+02
  0
VERTEX
  8
0
 62
4
 10
-9.59341998E+00
 20
2.58924140E+02
  0
VERTEX
  8
0
 62
4
 10
-9.30071237E+00
 20
2.58858627E+02
  0
VERTEX
  8
0
 62
4
 10
-8.99350658E+00
 20
2.58803207E+02
  0
VERTEX
  8
0
 62
4
 10
-8.67427604E+00
 20
2.58758325E+02
  0
VERTEX
  8
0
 62
4
 10
-8.34559101E+00
 20
2.58724344E+02
  0
VERTEX
  8
0
 62
4
 10
-8.01009787E+00
 20
2.58701537E+02
  0
VERTEX
  8
0
 62
4
 10
-7.67049782E+00
 20
2.58690087E+02
  0
VERTEX
  8
0
 62
4
 10
-7.32952511E+00
 20
2.58690087E+02
  0
VERTEX
  8
0
 62
4
 10
-6.98992505E+00
 20
2.58701537E+02
  0
VERTEX
  8
0
 62
4
 10
-6.65443191E+00
 20
2.58724344E+02
  0
VERTEX
  8
0
 62
4
 10
-6.32574688E+00
 20
2.58758325E+02
  0
VERTEX
  8
0
 62
4
 10
-6.00651634E+00
 20
2.58803207E+02
  0
VERTEX
  8
0
 62
4
 10
-5.69931054E+00
 20
2.58858627E+02
  0
VERTEX
  8
0
 62
4
 10
-5.40660293E+00
 20
2.58924140E+02
  0
VERTEX
  8
0
 62
4
 10
-5.13075021E+00
 20
2.58999218E+02
  0
VERTEX
  8
0
 62
4
 10
-4.87397339E+00
 20
2.59083257E+02
  0
VERTEX
  8
0
 62
4
 10
-4.63833989E+00
 20
2.59175580E+02
  0
VERTEX
  8
0
 62
4
 10
-4.42574688E+00
 20
2.59275444E+02
  0
VERTEX
  8
0
 62
4
 10
-4.23790604E+00
 20
2.59382044E+02
  0
VERTEX
  8
0
 62
4
 10
-4.07632975E+00
 20
2.59494523E+02
  0
VERTEX
  8
0
 62
4
 10
-3.94231894E+00
 20
2.59611975E+02
  0
VERTEX
  8
0
 62
4
 10
-3.83695258E+00
 20
2.59733454E+02
  0
VERTEX
  8
0
 62
4
 10
-3.76107901E+00
 20
2.59857982E+02
  0
VERTEX
  8
0
 62
4
 10
-3.71530913E+00
 20
2.59984557E+02
  0
VERTEX
  8
0
 62
4
 10
-3.70001144E+00
 20
2.60112159E+02
  0
SEQEND
  8
0
  0
POLYLINE
  8
0
 62
4
 66
1
  0
VERTEX
  8
0
 62
4
 10
-1.09000114E+01
 20
2.61675071E+02
  0
VERTEX
  8
0
 62
4
 10
-1.10365931E+01
 20
2.61560112E+02
  0
VERTEX
  8
0
 62
4
 10
-1.11455410E+01
 20
2.61441084E+02
  0
VERTEX
  8
0
 62
4
 10
-1.12260038E+01
 20
2.61318916E+02
  0
VERTEX
  8
0
 62
4
 10
-1.12773527E+01
 20
2.61194564E+02
  0
VERTEX
  8
0
 62
4
 10
-1.12991867E+01
 20
2.61068999E+02
  0
VERTEX
  8
0
 62
4
 10
-1.12913350E+01
 20
2.60943203E+02
  0
VERTEX
  8
0
 62
4
 10
-1.12538591E+01
 20
2.60818158E+02
  0
VERTEX
  8
0
 62
4
 10
-1.11870517E+01
 20
2.60694840E+02
  0
VERTEX
  8
0
 62
4
 10
-1.10914348E+01
 20
2.60574215E+02
  0
VERTEX
  8
0
 62
4
 10
-1.09677557E+01
 20
2.60457224E+02
  0
VERTEX
  8
0
 62
4
 10
-1.08169806E+01
 20
2.60344782E+02
  0
VERTEX
  8
0
 62
4
 10
-1.06402877E+01
 20
2.60237767E+02
  0
VERTEX
  8
0
 62
4
 10
-1.04390576E+01
 20
2.60137015E+02
  0
VERTEX
  8
0
 62
4
 10
-1.02148627E+01
 20
2.60043313E+02
  0
VERTEX
  8
0
 62
4
 10
-9.96945472E+00
 20
2.59957394E+02
  0
VERTEX
  8
0
 62
4
 10
-9.70475126E+00
 20
2.59879930E+02
  0
VERTEX
  8
0
 62
4
 10
-9.42282062E+00
 20
2.59811524E+02
  0
VERTEX
  8
0
 62
4
 10
-9.12586572E+00
 20
2.59752713E+02
  0
VERTEX
  8
0
 62
4
 10
-8.81620688E+00
 20
2.59703954E+02
  0
VERTEX
  8
0
 62
4
 10
-8.49626367E+00
 20
2.59665630E+02
  0
VERTEX
  8
0
 62
4
 10
-8.16853605E+00
 20
2.59638040E+02
  0
VERTEX
  8
0
 62
4
 10
-7.83558477E+00
 20
2.59621399E+02
  0
VERTEX
  8
0
 62
4
 10
-7.50001142E+00
 20
2.59615838E+02
  0
VERTEX
  8
0
 62
4
 10
-7.16443807E+00
 20
2.59621399E+02
  0
VERTEX
  8
0
 62
4
 10
-6.83148680E+00
 20
2.59638040E+02
  0
VERTEX
  8
0
 62
4
 10
-6.50375917E+00
 20
2.59665630E+02
  0
VERTEX
  8
0
 62
4
 10
-6.18381597E+00
 20
2.59703954E+02
  0
VERTEX
  8
0
 62
4
 10
-5.87415713E+00
 20
2.59752713E+02
  0
VERTEX
  8
0
 62
4
 10
-5.57720223E+00
 20
2.59811524E+02
  0
VERTEX
  8
0
 62
4
 10
-5.29527159E+00
 20
2.59879930E+02
  0
VERTEX
  8
0
 62
4
 10
-5.03056813E+00
 20
2.59957394E+02
  0
VERTEX
  8
0
 62
4
 10
-4.78516017E+00
 20
2.60043313E+02
  0
VERTEX
  8
0
 62
4
 10
-4.56096526E+00
 20
2.60137015E+02
  0
VERTEX
  8
0
 62
4
 10
-4.35973518E+00
 20
2.60237767E+02
  0
VERTEX
  8
0
 62
4
 10
-4.18304228E+00
 20
2.60344782E+02
  0
VERTEX
  8
0
 62
4
 10
-4.03226720E+00
 20
2.60457224E+02
  0
VERTEX
  8
0
 62
4
 10
-3.90858805E+00
 20
2.60574215E+02
  0
VERTEX
  8
0
 62
4
 10
-3.81297121E+00
 20
2.60694840E+02
  0
VERTEX
  8
0
 62
4
 10
-3.74616381E+00
 20
2.60818158E+02
  0
VERTEX
  8
0
 62
4
 10
-3.70868786E+00
 20
2.60943203E+02
  0
VERTEX
  8
0
 62
4
 10
-3.70083619E+00
 20
2.61068999E+02
  0
VERTEX
  8
0
 62
4
 10
-3.72267015E+00
 20
2.61194564E+02
  0
VERTEX
  8
0
 62
4
 10
-3.77401913E+00
 20
2.61318916E+02
  0
VERTEX
  8
0
 62
4
 10
-3.85448191E+00
 20
2.61441084E+02
  0
VERTEX
  8
0
 62
4
 10
-3.96342978E+00
 20
2.61560112E+02
  0
VERTEX
  8
0
 62
4
 10
-4.10001145E+00
 20
2.61675071E+02
  0
SEQEND
  8
0
  0
ARC
  8
0
 62
4
 10
-7.50001144E+00
 20
2.56621523E+02
 40
7.36533796E+00
 50
6.78494174E+01
 51
1.12150583E+02
  0
LINE
  8
0
  6
CENTER
 62
6
 10
9.99998856E+00
 20
2.60112159E+02
 11
4.99998856E+00
 21
2.60112159E+02
  0
LINE
  8
0
  6
CENTER
 62
6
 10
-1.14440917E-05
 20
2.58923282E+02
 11
-1.14440917E-05
 21
2.63923282E+02
  0
LINE
  8
0
  6
CENTER
 62
6
 10
2.49998856E+00
 20
2.61423282E+02
 11
-2.50001144E+00
 21
2.61423282E+02
  0
LINE
  8
0
  6
CENTER
 62
6
 10
-7.50001144E+00
 20
2.57612159E+02
 11
-7.50001144E+00
 21
2.62612159E+02
  0
LINE
  8
0
  6
CENTER
 62
6
 10
-5.00001144E+00
 20
2.60112159E+02
 11
-1.00000114E+01
 21
2.60112159E+02
  0
LINE
  8
0
 62
4
 10
-3.14875607E+00
 20
2.64420135E+02
 11
-1.50000114E+01
 21
2.64420135E+02
  0
LINE
  8
0
 62
4
 10
1.49999886E+01
 20
2.58986343E+02
 11
1.64999886E+01
 21
2.60114264E+02
  0
LINE
  8
0
 62
4
 10
1.64999886E+01
 20
2.62214336E+02
 11
1.49999886E+01
 21
2.62695078E+02
  0
LINE
  8
0
 62
4
 10
1.64999886E+01
 20
2.63062820E+02
 11
1.49999886E+01
 21
2.64193504E+02
  0
LINE
  8
0
 62
4
 10
1.49999886E+01
 20
2.62695078E+02
 11
4.14998856E+00
 21
2.62695078E+02
  0
LINE
  8
0
 62
4
 10
1.49999886E+01
 20
2.64193504E+02
 11
3.58042217E+00
 21
2.64193504E+02
  0
LINE
  8
0
 62
4
 10
1.49999886E+01
 20
2.62322338E+02
 11
4.14998856E+00
 21
2.62322338E+02
  0
LINE
  8
0
 62
4
 10
-1.00000114E+01
 20
2.64045528E+02
 11
-1.50000114E+01
 21
2.64045528E+02
  0
LINE
  8
0
 62
4
 10
-1.09000114E+01
 20
2.62322338E+02
 11
-1.50000114E+01
 21
2.62322338E+02
  0
LINE
  8
0
 62
4
 10
-3.58044506E+00
 20
2.64193504E+02
 11
-1.00000114E+01
 21
2.64193504E+02
  0
LINE
  8
0
 62
4
 10
1.49999886E+01
 20
2.64193504E+02
 11
1.49999886E+01
 21
2.64420135E+02
  0
LINE
  8
0
 62
4
 10
1.49999886E+01
 20
2.62322338E+02
 11
1.49999886E+01
 21
2.64193504E+02
  0
LINE
  8
0
 62
6
 10
-5.69999885E+01
 20
3.27335383E+02
 11
-5.69999885E+01
 21
3.25968055E+02
  0
LINE
  8
0
 62
6
 10
-5.39999885E+01
 20
3.27335383E+02
 11
-5.39999885E+01
 21
3.25968055E+02
  0
LINE
  8
0
 62
4
 10
-5.74999885E+01
 20
3.26839825E+02
 11
-5.74999885E+01
 21
3.25968055E+02
  0
LINE
  8
0
 62
4
 10
-5.34999885E+01
 20
3.26839825E+02
 11
-5.34999885E+01
 21
3.25968055E+02
  0
LINE
  8
0
 62
4
 10
-5.89999886E+01
 20
3.25968055E+02
 11
-5.89999886E+01
 21
3.12123549E+02
  0
LINE
  8
0
 62
4
 10
-4.39999886E+01
 20
3.25968055E+02
 11
-4.39999886E+01
 21
2.96579850E+02
  0
LINE
  8
0
  6
CENTER
 62
6
 10
-4.74999885E+01
 20
3.30765579E+02
 11
-4.74999885E+01
 21
3.20500000E+02
  0
LINE
  8
0
  6
CENTER
 62
6
 10
-5.54999885E+01
 20
3.30765579E+02
 11
-5.54999885E+01
 21
3.20500000E+02
  0
LINE
  8
0
  6
CENTER
 62
6
 10
-6.64999886E+01
 20
3.03387826E+02
 11
-6.64999886E+01
 21
2.98387826E+02
  0
LINE
  8
0
 62
4
 10
-4.89999886E+01
 20
2.96806480E+02
 11
-4.89999886E+01
 21
2.97450388E+02
  0
LINE
  8
0
 62
4
 10
-7.39999886E+01
 20
3.12123549E+02
 11
-7.39999886E+01
 21
2.98677647E+02
  0
LINE
  8
0
 62
4
 10
-5.04999886E+01
 20
2.96806480E+02
 11
-5.04999886E+01
 21
2.97081325E+02
  0
LINE
  8
0
 62
4
 10
-7.54999886E+01
 20
3.00885720E+02
 11
-7.54999886E+01
 21
2.97937165E+02
  0
LINE
  8
0
 62
4
 10
-5.89999886E+01
 20
3.25968055E+02
 11
-4.39999886E+01
 21
3.25968055E+02
  0
LINE
  8
0
 62
4
 10
-5.89999886E+01
 20
3.18613836E+02
 11
-4.39999886E+01
 21
3.18613836E+02
  0
LINE
  8
0
 62
4
 10
-7.39999886E+01
 20
3.12123549E+02
 11
-4.39999886E+01
 21
3.12123549E+02
  0
LINE
  8
0
 62
4
 10
-7.39999886E+01
 20
3.02573555E+02
 11
-4.39999886E+01
 21
3.02573555E+02
  0
LINE
  8
0
 62
4
 10
-7.39999886E+01
 20
2.96579850E+02
 11
-6.21487332E+01
 21
2.96579850E+02
  0
POLYLINE
  8
0
 62
4
 66
1
  0
VERTEX
  8
0
 62
4
 10
-5.34999885E+01
 20
3.26839825E+02
  0
VERTEX
  8
0
 62
4
 10
-5.35080399E+01
 20
3.26906984E+02
  0
VERTEX
  8
0
 62
4
 10
-5.35321293E+01
 20
3.26973602E+02
  0
VERTEX
  8
0
 62
4
 10
-5.35720628E+01
 20
3.27039143E+02
  0
VERTEX
  8
0
 62
4
 10
-5.36275188E+01
 20
3.27103080E+02
  0
VERTEX
  8
0
 62
4
 10
-5.36980508E+01
 20
3.27164896E+02
  0
VERTEX
  8
0
 62
4
 10
-5.37830909E+01
 20
3.27224096E+02
  0
VERTEX
  8
0
 62
4
 10
-5.38819545E+01
 20
3.27280201E+02
  0
VERTEX
  8
0
 62
4
 10
-5.39938456E+01
 20
3.27332761E+02
  0
VERTEX
  8
0
 62
4
 10
-5.41178632E+01
 20
3.27381352E+02
  0
VERTEX
  8
0
 62
4
 10
-5.42530089E+01
 20
3.27425583E+02
  0
VERTEX
  8
0
 62
4
 10
-5.43981945E+01
 20
3.27465098E+02
  0
VERTEX
  8
0
 62
4
 10
-5.45522512E+01
 20
3.27499579E+02
  0
VERTEX
  8
0
 62
4
 10
-5.47139384E+01
 20
3.27528747E+02
  0
VERTEX
  8
0
 62
4
 10
-5.48819545E+01
 20
3.27552369E+02
  0
VERTEX
  8
0
 62
4
 10
-5.50549466E+01
 20
3.27570254E+02
  0
VERTEX
  8
0
 62
4
 10
-5.52315220E+01
 20
3.27582258E+02
  0
VERTEX
  8
0
 62
4
 10
-5.54102588E+01
 20
3.27588284E+02
  0
VERTEX
  8
0
 62
4
 10
-5.55897181E+01
 20
3.27588284E+02
  0
VERTEX
  8
0
 62
4
 10
-5.57684550E+01
 20
3.27582258E+02
  0
VERTEX
  8
0
 62
4
 10
-5.59450304E+01
 20
3.27570254E+02
  0
VERTEX
  8
0
 62
4
 10
-5.61180225E+01
 20
3.27552369E+02
  0
VERTEX
  8
0
 62
4
 10
-5.62860386E+01
 20
3.27528747E+02
  0
VERTEX
  8
0
 62
4
 10
-5.64477258E+01
 20
3.27499579E+02
  0
VERTEX
  8
0
 62
4
 10
-5.66017825E+01
 20
3.27465098E+02
  0
VERTEX
  8
0
 62
4
 10
-5.67469681E+01
 20
3.27425583E+02
  0
VERTEX
  8
0
 62
4
 10
-5.68821138E+01
 20
3.27381352E+02
  0
VERTEX
  8
0
 62
4
 10
-5.70061314E+01
 20
3.27332761E+02
  0
VERTEX
  8
0
 62
4
 10
-5.71180225E+01
 20
3.27280201E+02
  0
VERTEX
  8
0
 62
4
 10
-5.72168861E+01
 20
3.27224096E+02
  0
VERTEX
  8
0
 62
4
 10
-5.73019262E+01
 20
3.27164896E+02
  0
VERTEX
  8
0
 62
4
 10
-5.73724582E+01
 20
3.27103080E+02
  0
VERTEX
  8
0
 62
4
 10
-5.74279142E+01
 20
3.27039143E+02
  0
VERTEX
  8
0
 62
4
 10
-5.74678477E+01
 20
3.26973602E+02
  0
VERTEX
  8
0
 62
4
 10
-5.74919371E+01
 20
3.26906984E+02
  0
VERTEX
  8
0
 62
4
 10
-5.74999885E+01
 20
3.26839825E+02
  0
SEQEND
  8
0
  0
LINE
  8
0
 62
6
 10
-4.59999885E+01
 20
3.27335383E+02
 11
-4.59999885E+01
 21
3.25968055E+02
  0
LINE
  8
0
 62
4
 10
-4.54999885E+01
 20
3.26839825E+02
 11
-4.54999885E+01
 21
3.25968055E+02
  0
POLYLINE
  8
0
 62
4
 66
1
  0
VERTEX
  8
0
 62
4
 10
-4.54999885E+01
 20
3.26839825E+02
  0
VERTEX
  8
0
 62
4
 10
-4.55080399E+01
 20
3.26906984E+02
  0
VERTEX
  8
0
 62
4
 10
-4.55321293E+01
 20
3.26973602E+02
  0
VERTEX
  8
0
 62
4
 10
-4.55720628E+01
 20
3.27039143E+02
  0
VERTEX
  8
0
 62
4
 10
-4.56275188E+01
 20
3.27103080E+02
  0
VERTEX
  8
0
 62
4
 10
-4.56980508E+01
 20
3.27164896E+02
  0
VERTEX
  8
0
 62
4
 10
-4.57830909E+01
 20
3.27224096E+02
  0
VERTEX
  8
0
 62
4
 10
-4.58819545E+01
 20
3.27280201E+02
  0
VERTEX
  8
0
 62
4
 10
-4.59938456E+01
 20
3.27332761E+02
  0
VERTEX
  8
0
 62
4
 10
-4.61178632E+01
 20
3.27381352E+02
  0
VERTEX
  8
0
 62
4
 10
-4.62530089E+01
 20
3.27425583E+02
  0
VERTEX
  8
0
 62
4
 10
-4.63981945E+01
 20
3.27465098E+02
  0
VERTEX
  8
0
 62
4
 10
-4.65522512E+01
 20
3.27499579E+02
  0
VERTEX
  8
0
 62
4
 10
-4.67139384E+01
 20
3.27528747E+02
  0
VERTEX
  8
0
 62
4
 10
-4.68819545E+01
 20
3.27552369E+02
  0
VERTEX
  8
0
 62
4
 10
-4.70549466E+01
 20
3.27570254E+02
  0
VERTEX
  8
0
 62
4
 10
-4.72315220E+01
 20
3.27582258E+02
  0
VERTEX
  8
0
 62
4
 10
-4.74102588E+01
 20
3.27588284E+02
  0
VERTEX
  8
0
 62
4
 10
-4.75897181E+01
 20
3.27588284E+02
  0
VERTEX
  8
0
 62
4
 10
-4.77684550E+01
 20
3.27582258E+02
  0
VERTEX
  8
0
 62
4
 10
-4.79450304E+01
 20
3.27570254E+02
  0
VERTEX
  8
0
 62
4
 10
-4.81180225E+01
 20
3.27552369E+02
  0
VERTEX
  8
0
 62
4
 10
-4.82860386E+01
 20
3.27528747E+02
  0
VERTEX
  8
0
 62
4
 10
-4.84477258E+01
 20
3.27499579E+02
  0
VERTEX
  8
0
 62
4
 10
-4.86017825E+01
 20
3.27465098E+02
  0
VERTEX
  8
0
 62
4
 10
-4.87469681E+01
 20
3.27425583E+02
  0
VERTEX
  8
0
 62
4
 10
-4.88821138E+01
 20
3.27381352E+02
  0
VERTEX
  8
0
 62
4
 10
-4.90061314E+01
 20
3.27332761E+02
  0
VERTEX
  8
0
 62
4
 10
-4.91180225E+01
 20
3.27280201E+02
  0
VERTEX
  8
0
 62
4
 10
-4.92168861E+01
 20
3.27224096E+02
  0
VERTEX
  8
0
 62
4
 10
-4.93019262E+01
 20
3.27164896E+02
  0
VERTEX
  8
0
 62
4
 10
-4.93724582E+01
 20
3.27103080E+02
  0
VERTEX
  8
0
 62
4
 10
-4.94279142E+01
 20
3.27039143E+02
  0
VERTEX
  8
0
 62
4
 10
-4.94678477E+01
 20
3.26973602E+02
  0
VERTEX
  8
0
 62
4
 10
-4.94919371E+01
 20
3.26906984E+02
  0
VERTEX
  8
0
 62
4
 10
-4.94999885E+01
 20
3.26839825E+02
  0
SEQEND
  8
0
  0
LINE
  8
0
 62
6
 10
-4.89999885E+01
 20
3.27335383E+02
 11
-4.89999885E+01
 21
3.25968055E+02
  0
LINE
  8
0
 62
4
 10
-4.94999885E+01
 20
3.26839825E+02
 11
-4.94999885E+01
 21
3.25968055E+02
  0
LINE
  8
0
 62
4
 10
-5.48499886E+01
 20
2.98170660E+02
 11
-5.48499886E+01
 21
2.97592529E+02
  0
LINE
  8
0
 62
4
 10
-6.31499886E+01
 20
2.99224373E+02
 11
-6.31499886E+01
 21
2.97592529E+02
  0
POLYLINE
  8
0
 62
4
 66
1
  0
VERTEX
  8
0
 62
4
 10
-5.52989705E+01
 20
2.99927693E+02
  0
VERTEX
  8
0
 62
4
 10
-5.54806509E+01
 20
3.00048232E+02
  0
VERTEX
  8
0
 62
4
 10
-5.56902340E+01
 20
3.00162239E+02
  0
VERTEX
  8
0
 62
4
 10
-5.59260581E+01
 20
3.00268810E+02
  0
VERTEX
  8
0
 62
4
 10
-5.61862536E+01
 20
3.00367101E+02
  0
VERTEX
  8
0
 62
4
 10
-5.64687576E+01
 20
3.00456332E+02
  0
VERTEX
  8
0
 62
4
 10
-5.67713301E+01
 20
3.00535795E+02
  0
VERTEX
  8
0
 62
4
 10
-5.70915723E+01
 20
3.00604860E+02
  0
VERTEX
  8
0
 62
4
 10
-5.74269452E+01
 20
3.00662981E+02
  0
VERTEX
  8
0
 62
4
 10
-5.77747899E+01
 20
3.00709696E+02
  0
VERTEX
  8
0
 62
4
 10
-5.81323484E+01
 20
3.00744634E+02
  0
VERTEX
  8
0
 62
4
 10
-5.84967859E+01
 20
3.00767520E+02
  0
VERTEX
  8
0
 62
4
 10
-5.88652130E+01
 20
3.00778170E+02
  0
VERTEX
  8
0
 62
4
 10
-5.92347086E+01
 20
3.00776502E+02
  0
VERTEX
  8
0
 62
4
 10
-5.96023433E+01
 20
3.00762527E+02
  0
VERTEX
  8
0
 62
4
 10
-5.99652023E+01
 20
3.00736358E+02
  0
VERTEX
  8
0
 62
4
 10
-6.03204087E+01
 20
3.00698201E+02
  0
VERTEX
  8
0
 62
4
 10
-6.06651462E+01
 20
3.00648359E+02
  0
VERTEX
  8
0
 62
4
 10
-6.09966818E+01
 20
3.00587226E+02
  0
VERTEX
  8
0
 62
4
 10
-6.13123867E+01
 20
3.00515289E+02
  0
VERTEX
  8
0
 62
4
 10
-6.16097580E+01
 20
3.00433117E+02
  0
VERTEX
  8
0
 62
4
 10
-6.18864381E+01
 20
3.00341361E+02
  0
VERTEX
  8
0
 62
4
 10
-6.21402332E+01
 20
3.00240749E+02
  0
VERTEX
  8
0
 62
4
 10
-6.23691312E+01
 20
3.00132080E+02
  0
VERTEX
  8
0
 62
4
 10
-6.25713173E+01
 20
3.00016213E+02
  0
VERTEX
  8
0
 62
4
 10
-6.27451884E+01
 20
2.99894068E+02
  0
VERTEX
  8
0
 62
4
 10
-6.28893661E+01
 20
2.99766614E+02
  0
VERTEX
  8
0
 62
4
 10
-6.30027073E+01
 20
2.99634861E+02
  0
VERTEX
  8
0
 62
4
 10
-6.30843133E+01
 20
2.99499853E+02
  0
VERTEX
  8
0
 62
4
 10
-6.31335372E+01
 20
2.99362661E+02
  0
VERTEX
  8
0
 62
4
 10
-6.31499886E+01
 20
2.99224373E+02
  0
SEQEND
  8
0
  0
POLYLINE
  8
0
 62
4
 66
1
  0
VERTEX
  8
0
 62
4
 10
-6.31499886E+01
 20
2.97592529E+02
  0
VERTEX
  8
0
 62
4
 10
-6.31341966E+01
 20
2.97457035E+02
  0
VERTEX
  8
0
 62
4
 10
-6.30869408E+01
 20
2.97322573E+02
  0
VERTEX
  8
0
 62
4
 10
-6.30085808E+01
 20
2.97190164E+02
  0
VERTEX
  8
0
 62
4
 10
-6.28997130E+01
 20
2.97060819E+02
  0
VERTEX
  8
0
 62
4
 10
-6.27611659E+01
 20
2.96935519E+02
  0
VERTEX
  8
0
 62
4
 10
-6.25939940E+01
 20
2.96815220E+02
  0
VERTEX
  8
0
 62
4
 10
-6.23994696E+01
 20
2.96700837E+02
  0
VERTEX
  8
0
 62
4
 10
-6.21790730E+01
 20
2.96593240E+02
  0
VERTEX
  8
0
 62
4
 10
-6.19344817E+01
 20
2.96493249E+02
  0
VERTEX
  8
0
 62
4
 10
-6.16675572E+01
 20
2.96401623E+02
  0
VERTEX
  8
0
 62
4
 10
-6.13803308E+01
 20
2.96319061E+02
  0
VERTEX
  8
0
 62
4
 10
-6.10749886E+01
 20
2.96246191E+02
  0
VERTEX
  8
0
 62
4
 10
-6.07538544E+01
 20
2.96183567E+02
  0
VERTEX
  8
0
 62
4
 10
-6.04193722E+01
 20
2.96131667E+02
  0
VERTEX
  8
0
 62
4
 10
-6.00740876E+01
 20
2.96090884E+02
  0
VERTEX
  8
0
 62
4
 10
-5.97206285E+01
 20
2.96061530E+02
  0
VERTEX
  8
0
 62
4
 10
-5.93616849E+01
 20
2.96043827E+02
  0
VERTEX
  8
0
 62
4
 10
-5.89999886E+01
 20
2.96037912E+02
  0
VERTEX
  8
0
 62
4
 10
-5.86382923E+01
 20
2.96043827E+02
  0
VERTEX
  8
0
 62
4
 10
-5.82793487E+01
 20
2.96061530E+02
  0
VERTEX
  8
0
 62
4
 10
-5.79258896E+01
 20
2.96090884E+02
  0
VERTEX
  8
0
 62
4
 10
-5.75806050E+01
 20
2.96131667E+02
  0
VERTEX
  8
0
 62
4
 10
-5.72461228E+01
 20
2.96183567E+02
  0
VERTEX
  8
0
 62
4
 10
-5.69249886E+01
 20
2.96246191E+02
  0
VERTEX
  8
0
 62
4
 10
-5.66196464E+01
 20
2.96319061E+02
  0
VERTEX
  8
0
 62
4
 10
-5.63324200E+01
 20
2.96401623E+02
  0
VERTEX
  8
0
 62
4
 10
-5.60654955E+01
 20
2.96493249E+02
  0
VERTEX
  8
0
 62
4
 10
-5.58209042E+01
 20
2.96593240E+02
  0
VERTEX
  8
0
 62
4
 10
-5.56005076E+01
 20
2.96700837E+02
  0
VERTEX
  8
0
 62
4
 10
-5.54059832E+01
 20
2.96815220E+02
  0
VERTEX
  8
0
 62
4
 10
-5.52388113E+01
 20
2.96935519E+02
  0
VERTEX
  8
0
 62
4
 10
-5.51002642E+01
 20
2.97060819E+02
  0
VERTEX
  8
0
 62
4
 10
-5.49913964E+01
 20
2.97190164E+02
  0
VERTEX
  8
0
 62
4
 10
-5.49130364E+01
 20
2.97322573E+02
  0
VERTEX
  8
0
 62
4
 10
-5.48657806E+01
 20
2.97457035E+02
  0
VERTEX
  8
0
 62
4
 10
-5.48499886E+01
 20
2.97592529E+02
  0
VERTEX
  8
0
 62
4
 10
-5.48657806E+01
 20
2.97728023E+02
  0
VERTEX
  8
0
 62
4
 10
-5.49130364E+01
 20
2.97862485E+02
  0
VERTEX
  8
0
 62
4
 10
-5.49913964E+01
 20
2.97994894E+02
  0
VERTEX
  8
0
 62
4
 10
-5.51002642E+01
 20
2.98124239E+02
  0
VERTEX
  8
0
 62
4
 10
-5.52388113E+01
 20
2.98249539E+02
  0
VERTEX
  8
0
 62
4
 10
-5.54059832E+01
 20
2.98369838E+02
  0
VERTEX
  8
0
 62
4
 10
-5.56005076E+01
 20
2.98484221E+02
  0
VERTEX
  8
0
 62
4
 10
-5.58209042E+01
 20
2.98591818E+02
  0
VERTEX
  8
0
 62
4
 10
-5.60654955E+01
 20
2.98691809E+02
  0
VERTEX
  8
0
 62
4
 10
-5.63324200E+01
 20
2.98783435E+02
  0
VERTEX
  8
0
 62
4
 10
-5.66196464E+01
 20
2.98865997E+02
  0
VERTEX
  8
0
 62
4
 10
-5.69249886E+01
 20
2.98938867E+02
  0
VERTEX
  8
0
 62
4
 10
-5.72461228E+01
 20
2.99001491E+02
  0
VERTEX
  8
0
 62
4
 10
-5.75806050E+01
 20
2.99053391E+02
  0
VERTEX
  8
0
 62
4
 10
-5.79258896E+01
 20
2.99094174E+02
  0
VERTEX
  8
0
 62
4
 10
-5.82793487E+01
 20
2.99123528E+02
  0
VERTEX
  8
0
 62
4
 10
-5.86382923E+01
 20
2.99141231E+02
  0
VERTEX
  8
0
 62
4
 10
-5.89999886E+01
 20
2.99147146E+02
  0
VERTEX
  8
0
 62
4
 10
-5.93616849E+01
 20
2.99141231E+02
  0
VERTEX
  8
0
 62
4
 10
-5.97206285E+01
 20
2.99123528E+02
  0
VERTEX
  8
0
 62
4
 10
-6.00740876E+01
 20
2.99094174E+02
  0
VERTEX
  8
0
 62
4
 10
-6.04193722E+01
 20
2.99053391E+02
  0
VERTEX
  8
0
 62
4
 10
-6.07538544E+01
 20
2.99001491E+02
  0
VERTEX
  8
0
 62
4
 10
-6.10749886E+01
 20
2.98938867E+02
  0
VERTEX
  8
0
 62
4
 10
-6.13803308E+01
 20
2.98865997E+02
  0
VERTEX
  8
0
 62
4
 10
-6.16675572E+01
 20
2.98783435E+02
  0
VERTEX
  8
0
 62
4
 10
-6.19344817E+01
 20
2.98691809E+02
  0
VERTEX
  8
0
 62
4
 10
-6.21790730E+01
 20
2.98591818E+02
  0
VERTEX
  8
0
 62
4
 10
-6.23994696E+01
 20
2.98484221E+02
  0
VERTEX
  8
0
 62
4
 10
-6.25939940E+01
 20
2.98369838E+02
  0
VERTEX
  8
0
 62
4
 10
-6.27611659E+01
 20
2.98249539E+02
  0
VERTEX
  8
0
 62
4
 10
-6.28997130E+01
 20
2.98124239E+02
  0
VERTEX
  8
0
 62
4
 10
-6.30085808E+01
 20
2.97994894E+02
  0
VERTEX
  8
0
 62
4
 10
-6.30869408E+01
 20
2.97862485E+02
  0
VERTEX
  8
0
 62
4
 10
-6.31341966E+01
 20
2.97728023E+02
  0
VERTEX
  8
0
 62
4
 10
-6.31499886E+01
 20
2.97592529E+02
  0
SEQEND
  8
0
  0
ARC
  8
0
 62
4
 10
-6.46166958E+01
 20
3.12012670E+02
 40
1.61228529E+01
 50
2.83811345E+02
 51
2.97258956E+02
  0
ARC
  8
0
 62
4
 10
-5.33832787E+01
 20
3.12012678E+02
 40
1.61228609E+01
 50
2.42741048E+02
 51
2.56188651E+02
  0
POLYLINE
  8
0
 62
4
 66
1
  0
VERTEX
  8
0
 62
4
 10
-5.52999886E+01
 20
3.00146056E+02
  0
VERTEX
  8
0
 62
4
 10
-5.54466312E+01
 20
3.00264762E+02
  0
VERTEX
  8
0
 62
4
 10
-5.56203499E+01
 20
3.00378225E+02
  0
VERTEX
  8
0
 62
4
 10
-5.58198210E+01
 20
3.00485580E+02
  0
VERTEX
  8
0
 62
4
 10
-5.60435246E+01
 20
3.00586010E+02
  0
VERTEX
  8
0
 62
4
 10
-5.62897562E+01
 20
3.00678750E+02
  0
VERTEX
  8
0
 62
4
 10
-5.65566393E+01
 20
3.00763091E+02
  0
VERTEX
  8
0
 62
4
 10
-5.68421405E+01
 20
3.00838393E+02
  0
VERTEX
  8
0
 62
4
 10
-5.71440842E+01
 20
3.00904081E+02
  0
VERTEX
  8
0
 62
4
 10
-5.74601697E+01
 20
3.00959654E+02
  0
VERTEX
  8
0
 62
4
 10
-5.77879884E+01
 20
3.01004689E+02
  0
VERTEX
  8
0
 62
4
 10
-5.81250424E+01
 20
3.01038843E+02
  0
VERTEX
  8
0
 62
4
 10
-5.84687634E+01
 20
3.01061856E+02
  0
VERTEX
  8
0
 62
4
 10
-5.88165323E+01
 20
3.01073553E+02
  0
VERTEX
  8
0
 62
4
 10
-5.91656991E+01
 20
3.01073843E+02
  0
VERTEX
  8
0
 62
4
 10
-5.95136032E+01
 20
3.01062725E+02
  0
VERTEX
  8
0
 62
4
 10
-5.98575936E+01
 20
3.01040284E+02
  0
VERTEX
  8
0
 62
4
 10
-6.01950491E+01
 20
3.01006691E+02
  0
VERTEX
  8
0
 62
4
 10
-6.05233985E+01
 20
3.00962202E+02
  0
VERTEX
  8
0
 62
4
 10
-6.08401396E+01
 20
3.00907155E+02
  0
VERTEX
  8
0
 62
4
 10
-6.11428590E+01
 20
3.00841970E+02
  0
VERTEX
  8
0
 62
4
 10
-6.14292500E+01
 20
3.00767144E+02
  0
VERTEX
  8
0
 62
4
 10
-6.16971304E+01
 20
3.00683247E+02
  0
VERTEX
  8
0
 62
4
 10
-6.19444588E+01
 20
3.00590918E+02
  0
VERTEX
  8
0
 62
4
 10
-6.21693508E+01
 20
3.00490862E+02
  0
VERTEX
  8
0
 62
4
 10
-6.23700926E+01
 20
3.00383839E+02
  0
VERTEX
  8
0
 62
4
 10
-6.25451546E+01
 20
3.00270666E+02
  0
VERTEX
  8
0
 62
4
 10
-6.26932029E+01
 20
3.00152205E+02
  0
VERTEX
  8
0
 62
4
 10
-6.28131093E+01
 20
3.00029359E+02
  0
VERTEX
  8
0
 62
4
 10
-6.29039602E+01
 20
2.99903064E+02
  0
VERTEX
  8
0
 62
4
 10
-6.29650634E+01
 20
2.99774282E+02
  0
VERTEX
  8
0
 62
4
 10
-6.29959532E+01
 20
2.99643994E+02
  0
SEQEND
  8
0
  0
LINE
  8
0
 62
4
 10
-5.48999886E+01
 20
2.99960642E+02
 11
-5.48999886E+01
 21
2.98482911E+02
  0
POLYLINE
  8
0
 62
4
 66
1
  0
VERTEX
  8
0
 62
4
 10
-4.80999886E+01
 20
2.99960642E+02
  0
VERTEX
  8
0
 62
4
 10
-4.81136760E+01
 20
3.00074812E+02
  0
VERTEX
  8
0
 62
4
 10
-4.81546280E+01
 20
3.00188063E+02
  0
VERTEX
  8
0
 62
4
 10
-4.82225149E+01
 20
3.00299483E+02
  0
VERTEX
  8
0
 62
4
 10
-4.83167900E+01
 20
3.00408175E+02
  0
VERTEX
  8
0
 62
4
 10
-4.84366944E+01
 20
3.00513263E+02
  0
VERTEX
  8
0
 62
4
 10
-4.85812627E+01
 20
3.00613903E+02
  0
VERTEX
  8
0
 62
4
 10
-4.87493308E+01
 20
3.00709282E+02
  0
VERTEX
  8
0
 62
4
 10
-4.89395456E+01
 20
3.00798634E+02
  0
VERTEX
  8
0
 62
4
 10
-4.91503756E+01
 20
3.00881239E+02
  0
VERTEX
  8
0
 62
4
 10
-4.93801233E+01
 20
3.00956431E+02
  0
VERTEX
  8
0
 62
4
 10
-4.96269388E+01
 20
3.01023607E+02
  0
VERTEX
  8
0
 62
4
 10
-4.98888351E+01
 20
3.01082223E+02
  0
VERTEX
  8
0
 62
4
 10
-5.01637035E+01
 20
3.01131810E+02
  0
VERTEX
  8
0
 62
4
 10
-5.04493308E+01
 20
3.01171967E+02
  0
VERTEX
  8
0
 62
4
 10
-5.07434174E+01
 20
3.01202371E+02
  0
VERTEX
  8
0
 62
4
 10
-5.10435955E+01
 20
3.01222777E+02
  0
VERTEX
  8
0
 62
4
 10
-5.13474482E+01
 20
3.01233022E+02
  0
VERTEX
  8
0
 62
4
 10
-5.16525290E+01
 20
3.01233022E+02
  0
VERTEX
  8
0
 62
4
 10
-5.19563817E+01
 20
3.01222777E+02
  0
VERTEX
  8
0
 62
4
 10
-5.22565598E+01
 20
3.01202371E+02
  0
VERTEX
  8
0
 62
4
 10
-5.25506464E+01
 20
3.01171967E+02
  0
VERTEX
  8
0
 62
4
 10
-5.28362737E+01
 20
3.01131810E+02
  0
VERTEX
  8
0
 62
4
 10
-5.31111420E+01
 20
3.01082223E+02
  0
VERTEX
  8
0
 62
4
 10
-5.33730383E+01
 20
3.01023607E+02
  0
VERTEX
  8
0
 62
4
 10
-5.36198539E+01
 20
3.00956431E+02
  0
VERTEX
  8
0
 62
4
 10
-5.38496016E+01
 20
3.00881239E+02
  0
VERTEX
  8
0
 62
4
 10
-5.40604316E+01
 20
3.00798634E+02
  0
VERTEX
  8
0
 62
4
 10
-5.42506464E+01
 20
3.00709282E+02
  0
VERTEX
  8
0
 62
4
 10
-5.44187145E+01
 20
3.00613903E+02
  0
VERTEX
  8
0
 62
4
 10
-5.45632827E+01
 20
3.00513263E+02
  0
VERTEX
  8
0
 62
4
 10
-5.46831872E+01
 20
3.00408175E+02
  0
VERTEX
  8
0
 62
4
 10
-5.47774623E+01
 20
3.00299483E+02
  0
VERTEX
  8
0
 62
4
 10
-5.48453492E+01
 20
3.00188063E+02
  0
VERTEX
  8
0
 62
4
 10
-5.48863012E+01
 20
3.00074812E+02
  0
VERTEX
  8
0
 62
4
 10
-5.48999886E+01
 20
2.99960642E+02
  0
SEQEND
  8
0
  0
POLYLINE
  8
0
 62
4
 66
1
  0
VERTEX
  8
0
 62
4
 10
-4.80999886E+01
 20
2.98912924E+02
  0
VERTEX
  8
0
 62
4
 10
-4.81136760E+01
 20
2.99027094E+02
  0
VERTEX
  8
0
 62
4
 10
-4.81546280E+01
 20
2.99140345E+02
  0
VERTEX
  8
0
 62
4
 10
-4.82225149E+01
 20
2.99251765E+02
  0
VERTEX
  8
0
 62
4
 10
-4.83167900E+01
 20
2.99360457E+02
  0
VERTEX
  8
0
 62
4
 10
-4.84366944E+01
 20
2.99465545E+02
  0
VERTEX
  8
0
 62
4
 10
-4.85812627E+01
 20
2.99566185E+02
  0
VERTEX
  8
0
 62
4
 10
-4.87493308E+01
 20
2.99661564E+02
  0
VERTEX
  8
0
 62
4
 10
-4.89395456E+01
 20
2.99750916E+02
  0
VERTEX
  8
0
 62
4
 10
-4.91503756E+01
 20
2.99833521E+02
  0
VERTEX
  8
0
 62
4
 10
-4.93801233E+01
 20
2.99908713E+02
  0
VERTEX
  8
0
 62
4
 10
-4.96269388E+01
 20
2.99975889E+02
  0
VERTEX
  8
0
 62
4
 10
-4.98888351E+01
 20
3.00034505E+02
  0
VERTEX
  8
0
 62
4
 10
-5.01637035E+01
 20
3.00084092E+02
  0
VERTEX
  8
0
 62
4
 10
-5.04493308E+01
 20
3.00124249E+02
  0
VERTEX
  8
0
 62
4
 10
-5.07434174E+01
 20
3.00154653E+02
  0
VERTEX
  8
0
 62
4
 10
-5.10435955E+01
 20
3.00175059E+02
  0
VERTEX
  8
0
 62
4
 10
-5.13474482E+01
 20
3.00185304E+02
  0
VERTEX
  8
0
 62
4
 10
-5.16525290E+01
 20
3.00185304E+02
  0
VERTEX
  8
0
 62
4
 10
-5.19563817E+01
 20
3.00175059E+02
  0
VERTEX
  8
0
 62
4
 10
-5.22565598E+01
 20
3.00154653E+02
  0
VERTEX
  8
0
 62
4
 10
-5.25506464E+01
 20
3.00124249E+02
  0
VERTEX
  8
0
 62
4
 10
-5.28362737E+01
 20
3.00084092E+02
  0
VERTEX
  8
0
 62
4
 10
-5.31111420E+01
 20
3.00034505E+02
  0
VERTEX
  8
0
 62
4
 10
-5.33730383E+01
 20
2.99975889E+02
  0
VERTEX
  8
0
 62
4
 10
-5.36198539E+01
 20
2.99908713E+02
  0
VERTEX
  8
0
 62
4
 10
-5.38496016E+01
 20
2.99833521E+02
  0
VERTEX
  8
0
 62
4
 10
-5.40604316E+01
 20
2.99750916E+02
  0
VERTEX
  8
0
 62
4
 10
-5.42506464E+01
 20
2.99661564E+02
  0
VERTEX
  8
0
 62
4
 10
-5.44187145E+01
 20
2.99566185E+02
  0
VERTEX
  8
0
 62
4
 10
-5.45632827E+01
 20
2.99465545E+02
  0
VERTEX
  8
0
 62
4
 10
-5.46831872E+01
 20
2.99360457E+02
  0
VERTEX
  8
0
 62
4
 10
-5.47774623E+01
 20
2.99251765E+02
  0
VERTEX
  8
0
 62
4
 10
-5.48453492E+01
 20
2.99140345E+02
  0
VERTEX
  8
0
 62
4
 10
-5.48863012E+01
 20
2.99027094E+02
  0
VERTEX
  8
0
 62
4
 10
-5.48999886E+01
 20
2.98912924E+02
  0
SEQEND
  8
0
  0
LINE
  8
0
 62
4
 10
-4.80999886E+01
 20
2.98482911E+02
 11
-4.80999886E+01
 21
2.99960642E+02
  0
ARC
  8
0
 62
4
 10
-4.90999882E+01
 20
2.98482911E+02
 40
1.00000000E+00
 50
2.82827510E+02
 51
0.00000000E+00
  0
ARC
  8
0
 62
4
 10
-5.38999889E+01
 20
2.98482911E+02
 40
1.00000000E+00
 50
1.80000000E+02
 51
2.57172490E+02
  0
ARC
  8
0
 62
4
 10
-5.68873734E+01
 20
3.12239665E+02
 40
1.54729912E+01
 50
2.83783165E+02
 51
2.97543924E+02
  0
ARC
  8
0
 62
4
 10
-4.61126033E+01
 20
3.12239667E+02
 40
1.54729926E+01
 50
2.42456077E+02
 51
2.56216834E+02
  0
LINE
  8
0
 62
4
 10
-4.76999886E+01
 20
3.00887826E+02
 11
-4.76999886E+01
 21
2.99960642E+02
  0
LINE
  8
0
 62
4
 10
-5.52999886E+01
 20
3.00887826E+02
 11
-5.52999886E+01
 21
2.99960642E+02
  0
POLYLINE
  8
0
 62
4
 66
1
  0
VERTEX
  8
0
 62
4
 10
-4.76999886E+01
 20
3.00887826E+02
  0
VERTEX
  8
0
 62
4
 10
-4.77152863E+01
 20
3.01015428E+02
  0
VERTEX
  8
0
 62
4
 10
-4.77610562E+01
 20
3.01142003E+02
  0
VERTEX
  8
0
 62
4
 10
-4.78369297E+01
 20
3.01266531E+02
  0
VERTEX
  8
0
 62
4
 10
-4.79422961E+01
 20
3.01388010E+02
  0
VERTEX
  8
0
 62
4
 10
-4.80763069E+01
 20
3.01505462E+02
  0
VERTEX
  8
0
 62
4
 10
-4.82378832E+01
 20
3.01617941E+02
  0
VERTEX
  8
0
 62
4
 10
-4.84257240E+01
 20
3.01724541E+02
  0
VERTEX
  8
0
 62
4
 10
-4.86383170E+01
 20
3.01824405E+02
  0
VERTEX
  8
0
 62
4
 10
-4.88739505E+01
 20
3.01916728E+02
  0
VERTEX
  8
0
 62
4
 10
-4.91307273E+01
 20
3.02000767E+02
  0
VERTEX
  8
0
 62
4
 10
-4.94065801E+01
 20
3.02075845E+02
  0
VERTEX
  8
0
 62
4
 10
-4.96992877E+01
 20
3.02141358E+02
  0
VERTEX
  8
0
 62
4
 10
-5.00064935E+01
 20
3.02196778E+02
  0
VERTEX
  8
0
 62
4
 10
-5.03257240E+01
 20
3.02241660E+02
  0
VERTEX
  8
0
 62
4
 10
-5.06544090E+01
 20
3.02275641E+02
  0
VERTEX
  8
0
 62
4
 10
-5.09899022E+01
 20
3.02298448E+02
  0
VERTEX
  8
0
 62
4
 10
-5.13295022E+01
 20
3.02309898E+02
  0
VERTEX
  8
0
 62
4
 10
-5.16704749E+01
 20
3.02309898E+02
  0
VERTEX
  8
0
 62
4
 10
-5.20100750E+01
 20
3.02298448E+02
  0
VERTEX
  8
0
 62
4
 10
-5.23455681E+01
 20
3.02275641E+02
  0
VERTEX
  8
0
 62
4
 10
-5.26742532E+01
 20
3.02241660E+02
  0
VERTEX
  8
0
 62
4
 10
-5.29934837E+01
 20
3.02196778E+02
  0
VERTEX
  8
0
 62
4
 10
-5.33006895E+01
 20
3.02141358E+02
  0
VERTEX
  8
0
 62
4
 10
-5.35933971E+01
 20
3.02075845E+02
  0
VERTEX
  8
0
 62
4
 10
-5.38692498E+01
 20
3.02000767E+02
  0
VERTEX
  8
0
 62
4
 10
-5.41260266E+01
 20
3.01916728E+02
  0
VERTEX
  8
0
 62
4
 10
-5.43616602E+01
 20
3.01824405E+02
  0
VERTEX
  8
0
 62
4
 10
-5.45742532E+01
 20
3.01724541E+02
  0
VERTEX
  8
0
 62
4
 10
-5.47620940E+01
 20
3.01617941E+02
  0
VERTEX
  8
0
 62
4
 10
-5.49236703E+01
 20
3.01505462E+02
  0
VERTEX
  8
0
 62
4
 10
-5.50576811E+01
 20
3.01388010E+02
  0
VERTEX
  8
0
 62
4
 10
-5.51630475E+01
 20
3.01266531E+02
  0
VERTEX
  8
0
 62
4
 10
-5.52389210E+01
 20
3.01142003E+02
  0
VERTEX
  8
0
 62
4
 10
-5.52846909E+01
 20
3.01015428E+02
  0
VERTEX
  8
0
 62
4
 10
-5.52999886E+01
 20
3.00887826E+02
  0
SEQEND
  8
0
  0
POLYLINE
  8
0
 62
4
 66
1
  0
VERTEX
  8
0
 62
4
 10
-4.80999886E+01
 20
2.99324914E+02
  0
VERTEX
  8
0
 62
4
 10
-4.79634069E+01
 20
2.99439873E+02
  0
VERTEX
  8
0
 62
4
 10
-4.78544591E+01
 20
2.99558901E+02
  0
VERTEX
  8
0
 62
4
 10
-4.77739963E+01
 20
2.99681069E+02
  0
VERTEX
  8
0
 62
4
 10
-4.77226473E+01
 20
2.99805421E+02
  0
VERTEX
  8
0
 62
4
 10
-4.77008133E+01
 20
2.99930986E+02
  0
VERTEX
  8
0
 62
4
 10
-4.77086650E+01
 20
3.00056782E+02
  0
VERTEX
  8
0
 62
4
 10
-4.77461410E+01
 20
3.00181827E+02
  0
VERTEX
  8
0
 62
4
 10
-4.78129484E+01
 20
3.00305145E+02
  0
VERTEX
  8
0
 62
4
 10
-4.79085652E+01
 20
3.00425770E+02
  0
VERTEX
  8
0
 62
4
 10
-4.80322444E+01
 20
3.00542761E+02
  0
VERTEX
  8
0
 62
4
 10
-4.81830195E+01
 20
3.00655203E+02
  0
VERTEX
  8
0
 62
4
 10
-4.83597124E+01
 20
3.00762218E+02
  0
VERTEX
  8
0
 62
4
 10
-4.85609424E+01
 20
3.00862970E+02
  0
VERTEX
  8
0
 62
4
 10
-4.87851374E+01
 20
3.00956672E+02
  0
VERTEX
  8
0
 62
4
 10
-4.90305453E+01
 20
3.01042591E+02
  0
VERTEX
  8
0
 62
4
 10
-4.92952488E+01
 20
3.01120055E+02
  0
VERTEX
  8
0
 62
4
 10
-4.95771794E+01
 20
3.01188461E+02
  0
VERTEX
  8
0
 62
4
 10
-4.98741343E+01
 20
3.01247272E+02
  0
VERTEX
  8
0
 62
4
 10
-5.01837932E+01
 20
3.01296031E+02
  0
VERTEX
  8
0
 62
4
 10
-5.05037364E+01
 20
3.01334355E+02
  0
VERTEX
  8
0
 62
4
 10
-5.08314640E+01
 20
3.01361945E+02
  0
VERTEX
  8
0
 62
4
 10
-5.11644153E+01
 20
3.01378586E+02
  0
VERTEX
  8
0
 62
4
 10
-5.14999886E+01
 20
3.01384147E+02
  0
VERTEX
  8
0
 62
4
 10
-5.18355620E+01
 20
3.01378586E+02
  0
VERTEX
  8
0
 62
4
 10
-5.21685132E+01
 20
3.01361945E+02
  0
VERTEX
  8
0
 62
4
 10
-5.24962409E+01
 20
3.01334355E+02
  0
VERTEX
  8
0
 62
4
 10
-5.28161841E+01
 20
3.01296031E+02
  0
VERTEX
  8
0
 62
4
 10
-5.31258429E+01
 20
3.01247272E+02
  0
VERTEX
  8
0
 62
4
 10
-5.34227978E+01
 20
3.01188461E+02
  0
VERTEX
  8
0
 62
4
 10
-5.37047284E+01
 20
3.01120055E+02
  0
VERTEX
  8
0
 62
4
 10
-5.39694319E+01
 20
3.01042591E+02
  0
VERTEX
  8
0
 62
4
 10
-5.42148399E+01
 20
3.00956672E+02
  0
VERTEX
  8
0
 62
4
 10
-5.44390348E+01
 20
3.00862970E+02
  0
VERTEX
  8
0
 62
4
 10
-5.46402649E+01
 20
3.00762218E+02
  0
VERTEX
  8
0
 62
4
 10
-5.48169578E+01
 20
3.00655203E+02
  0
VERTEX
  8
0
 62
4
 10
-5.49677328E+01
 20
3.00542761E+02
  0
VERTEX
  8
0
 62
4
 10
-5.50914120E+01
 20
3.00425770E+02
  0
VERTEX
  8
0
 62
4
 10
-5.51870288E+01
 20
3.00305145E+02
  0
VERTEX
  8
0
 62
4
 10
-5.52538362E+01
 20
3.00181827E+02
  0
VERTEX
  8
0
 62
4
 10
-5.52913122E+01
 20
3.00056782E+02
  0
VERTEX
  8
0
 62
4
 10
-5.52991639E+01
 20
2.99930986E+02
  0
VERTEX
  8
0
 62
4
 10
-5.52773299E+01
 20
2.99805421E+02
  0
VERTEX
  8
0
 62
4
 10
-5.52259809E+01
 20
2.99681069E+02
  0
VERTEX
  8
0
 62
4
 10
-5.51455181E+01
 20
2.99558901E+02
  0
VERTEX
  8
0
 62
4
 10
-5.50365703E+01
 20
2.99439873E+02
  0
VERTEX
  8
0
 62
4
 10
-5.48999886E+01
 20
2.99324914E+02
  0
SEQEND
  8
0
  0
ARC
  8
0
 62
4
 10
-5.14999886E+01
 20
3.04378462E+02
 40
7.36533796E+00
 50
2.47849417E+02
 51
2.92150583E+02
  0
LINE
  8
0
  6
CENTER
 62
6
 10
-6.89999886E+01
 20
3.00887826E+02
 11
-6.39999886E+01
 21
3.00887826E+02
  0
LINE
  8
0
  6
CENTER
 62
6
 10
-5.89999886E+01
 20
3.02076703E+02
 11
-5.89999886E+01
 21
2.97076703E+02
  0
LINE
  8
0
  6
CENTER
 62
6
 10
-6.14999886E+01
 20
2.99576703E+02
 11
-5.64999886E+01
 21
2.99576703E+02
  0
LINE
  8
0
  6
CENTER
 62
6
 10
-5.14999886E+01
 20
3.03387826E+02
 11
-5.14999886E+01
 21
2.98387826E+02
  0
LINE
  8
0
  6
CENTER
 62
6
 10
-5.39999886E+01
 20
3.00887826E+02
 11
-4.89999886E+01
 21
3.00887826E+02
  0
LINE
  8
0
 62
4
 10
-5.58512439E+01
 20
2.96579850E+02
 11
-4.39999886E+01
 21
2.96579850E+02
  0
LINE
  8
0
 62
4
 10
-7.39999886E+01
 20
3.02013642E+02
 11
-7.54999886E+01
 21
3.00885720E+02
  0
LINE
  8
0
 62
4
 10
-7.54999886E+01
 20
2.98785649E+02
 11
-7.39999886E+01
 21
2.98304907E+02
  0
LINE
  8
0
 62
4
 10
-7.54999886E+01
 20
2.97937165E+02
 11
-7.39999886E+01
 21
2.96806480E+02
  0
LINE
  8
0
 62
4
 10
-7.39999886E+01
 20
2.98304907E+02
 11
-6.31499886E+01
 21
2.98304907E+02
  0
LINE
  8
0
 62
4
 10
-7.39999886E+01
 20
2.96806480E+02
 11
-6.25804222E+01
 21
2.96806480E+02
  0
LINE
  8
0
 62
4
 10
-7.39999886E+01
 20
2.98677647E+02
 11
-6.31499886E+01
 21
2.98677647E+02
  0
LINE
  8
0
 62
4
 10
-4.89999886E+01
 20
2.96954456E+02
 11
-4.39999886E+01
 21
2.96954456E+02
  0
LINE
  8
0
 62
4
 10
-4.80999886E+01
 20
2.98677647E+02
 11
-4.39999886E+01
 21
2.98677647E+02
  0
LINE
  8
0
 62
4
 10
-5.54195549E+01
 20
2.96806480E+02
 11
-4.89999886E+01
 21
2.96806480E+02
  0
LINE
  8
0
 62
4
 10
-7.39999886E+01
 20
2.96806480E+02
 11
-7.39999886E+01
 21
2.96579850E+02
  0
LINE
  8
0
 62
4
 10
-7.39999886E+01
 20
2.98677647E+02
 11
-7.39999886E+01
 21
2.96806480E+02
  0
LINE
  8
0
 62
7
 10
-5.89999886E+01
 20
3.20000000E+02
 11
-8.79999886E+01
 21
3.20000000E+02
  0
LINE
  8
0
 62
7
 10
-5.89999886E+01
 20
3.24000031E+02
 11
-8.79999886E+01
 21
3.24000031E+02
  0
LINE
  8
0
 62
7
 10
-7.39999886E+01
 20
3.11000000E+02
 11
-8.79999886E+01
 21
3.11000000E+02
  0
LINE
  8
0
 62
7
 10
-1.50000114E+01
 20
2.49999985E+02
 11
-8.79999886E+01
 21
2.49999985E+02
  0
LINE
  8
0
 62
7
 10
-1.50000114E+01
 20
2.36999969E+02
 11
-8.79999886E+01
 21
2.36999969E+02
  0
LINE
  8
0
 62
7
 10
-1.50000114E+01
 20
2.40999985E+02
 11
-8.79999886E+01
 21
2.40999985E+02
  0
LINE
  8
0
 62
4
 10
-8.59999886E+01
 20
-2.62318859E+02
 11
-8.59999886E+01
 21
-2.75318859E+02
  0
ARC
  8
0
 62
4
 10
-8.54999843E+01
 20
-2.62318864E+02
 40
5.00004272E-01
 50
9.00004895E+01
 51
1.79999510E+02
  0
LINE
  8
0
 62
4
 10
-7.64999886E+01
 20
-2.61818859E+02
 11
-8.54999886E+01
 21
-2.61818859E+02
  0
LINE
  8
0
 62
4
 10
-9.59999886E+01
 20
-2.75731826E+02
 11
-9.09999886E+01
 21
-2.75731826E+02
  0
LINE
  8
0
 62
4
 10
-9.59999886E+01
 20
-2.62827189E+02
 11
-9.09999886E+01
 21
-2.62827189E+02
  0
LINE
  8
0
 62
4
 10
-9.59999886E+01
 20
-2.69740180E+02
 11
-9.09999886E+01
 21
-2.69740180E+02
  0
POLYLINE
  8
0
 62
4
 66
1
  0
VERTEX
  8
0
 62
4
 10
-6.55999886E+01
 20
-2.91335177E+02
  0
VERTEX
  8
0
 62
4
 10
-6.56129266E+01
 20
-2.91055514E+02
  0
VERTEX
  8
0
 62
4
 10
-6.56516422E+01
 20
-2.90777980E+02
  0
VERTEX
  8
0
 62
4
 10
-6.57158408E+01
 20
-2.90504687E+02
  0
VERTEX
  8
0
 62
4
 10
-6.58050337E+01
 20
-2.90237714E+02
  0
VERTEX
  8
0
 62
4
 10
-6.59185421E+01
 20
-2.89979093E+02
  0
VERTEX
  8
0
 62
4
 10
-6.60555022E+01
 20
-2.89730793E+02
  0
VERTEX
  8
0
 62
4
 10
-6.62148716E+01
 20
-2.89494704E+02
  0
VERTEX
  8
0
 62
4
 10
-6.63954375E+01
 20
-2.89272621E+02
  0
VERTEX
  8
0
 62
4
 10
-6.65958255E+01
 20
-2.89066236E+02
  0
VERTEX
  8
0
 62
4
 10
-6.68145107E+01
 20
-2.88877119E+02
  0
VERTEX
  8
0
 62
4
 10
-6.70498287E+01
 20
-2.88706709E+02
  0
VERTEX
  8
0
 62
4
 10
-6.72999886E+01
 20
-2.88556303E+02
  0
VERTEX
  8
0
 62
4
 10
-6.75630865E+01
 20
-2.88427046E+02
  0
VERTEX
  8
0
 62
4
 10
-6.78371201E+01
 20
-2.88319922E+02
  0
VERTEX
  8
0
 62
4
 10
-6.81200038E+01
 20
-2.88235746E+02
  0
VERTEX
  8
0
 62
4
 10
-6.84095848E+01
 20
-2.88175158E+02
  0
VERTEX
  8
0
 62
4
 10
-6.87036591E+01
 20
-2.88138620E+02
  0
VERTEX
  8
0
 62
4
 10
-6.89999886E+01
 20
-2.88126410E+02
  0
VERTEX
  8
0
 62
4
 10
-6.92963181E+01
 20
-2.88138620E+02
  0
VERTEX
  8
0
 62
4
 10
-6.95903924E+01
 20
-2.88175158E+02
  0
VERTEX
  8
0
 62
4
 10
-6.98799734E+01
 20
-2.88235746E+02
  0
VERTEX
  8
0
 62
4
 10
-7.01628571E+01
 20
-2.88319922E+02
  0
VERTEX
  8
0
 62
4
 10
-7.04368907E+01
 20
-2.88427046E+02
  0
VERTEX
  8
0
 62
4
 10
-7.06999886E+01
 20
-2.88556303E+02
  0
VERTEX
  8
0
 62
4
 10
-7.09501485E+01
 20
-2.88706709E+02
  0
VERTEX
  8
0
 62
4
 10
-7.11854665E+01
 20
-2.88877119E+02
  0
VERTEX
  8
0
 62
4
 10
-7.14041517E+01
 20
-2.89066236E+02
  0
VERTEX
  8
0
 62
4
 10
-7.16045397E+01
 20
-2.89272621E+02
  0
VERTEX
  8
0
 62
4
 10
-7.17851056E+01
 20
-2.89494704E+02
  0
VERTEX
  8
0
 62
4
 10
-7.19444750E+01
 20
-2.89730793E+02
  0
VERTEX
  8
0
 62
4
 10
-7.20814351E+01
 20
-2.89979093E+02
  0
VERTEX
  8
0
 62
4
 10
-7.21949435E+01
 20
-2.90237714E+02
  0
VERTEX
  8
0
 62
4
 10
-7.22841364E+01
 20
-2.90504687E+02
  0
VERTEX
  8
0
 62
4
 10
-7.23483350E+01
 20
-2.90777980E+02
  0
VERTEX
  8
0
 62
4
 10
-7.23870506E+01
 20
-2.91055514E+02
  0
VERTEX
  8
0
 62
4
 10
-7.23999886E+01
 20
-2.91335177E+02
  0
VERTEX
  8
0
 62
4
 10
-7.23870506E+01
 20
-2.91614840E+02
  0
VERTEX
  8
0
 62
4
 10
-7.23483350E+01
 20
-2.91892374E+02
  0
VERTEX
  8
0
 62
4
 10
-7.22841364E+01
 20
-2.92165667E+02
  0
VERTEX
  8
0
 62
4
 10
-7.21949435E+01
 20
-2.92432640E+02
  0
VERTEX
  8
0
 62
4
 10
-7.20814351E+01
 20
-2.92691261E+02
  0
VERTEX
  8
0
 62
4
 10
-7.19444750E+01
 20
-2.92939561E+02
  0
VERTEX
  8
0
 62
4
 10
-7.17851055E+01
 20
-2.93175650E+02
  0
VERTEX
  8
0
 62
4
 10
-7.16045397E+01
 20
-2.93397733E+02
  0
VERTEX
  8
0
 62
4
 10
-7.14041517E+01
 20
-2.93604118E+02
  0
VERTEX
  8
0
 62
4
 10
-7.11854665E+01
 20
-2.93793235E+02
  0
VERTEX
  8
0
 62
4
 10
-7.09501485E+01
 20
-2.93963645E+02
  0
VERTEX
  8
0
 62
4
 10
-7.06999886E+01
 20
-2.94114051E+02
  0
VERTEX
  8
0
 62
4
 10
-7.04368907E+01
 20
-2.94243308E+02
  0
VERTEX
  8
0
 62
4
 10
-7.01628571E+01
 20
-2.94350432E+02
  0
VERTEX
  8
0
 62
4
 10
-6.98799733E+01
 20
-2.94434608E+02
  0
VERTEX
  8
0
 62
4
 10
-6.95903924E+01
 20
-2.94495196E+02
  0
VERTEX
  8
0
 62
4
 10
-6.92963181E+01
 20
-2.94531734E+02
  0
VERTEX
  8
0
 62
4
 10
-6.89999886E+01
 20
-2.94543944E+02
  0
VERTEX
  8
0
 62
4
 10
-6.87036591E+01
 20
-2.94531734E+02
  0
VERTEX
  8
0
 62
4
 10
-6.84095848E+01
 20
-2.94495196E+02
  0
VERTEX
  8
0
 62
4
 10
-6.81200038E+01
 20
-2.94434608E+02
  0
VERTEX
  8
0
 62
4
 10
-6.78371201E+01
 20
-2.94350432E+02
  0
VERTEX
  8
0
 62
4
 10
-6.75630865E+01
 20
-2.94243308E+02
  0
VERTEX
  8
0
 62
4
 10
-6.72999886E+01
 20
-2.94114051E+02
  0
VERTEX
  8
0
 62
4
 10
-6.70498287E+01
 20
-2.93963645E+02
  0
VERTEX
  8
0
 62
4
 10
-6.68145107E+01
 20
-2.93793235E+02
  0
VERTEX
  8
0
 62
4
 10
-6.65958255E+01
 20
-2.93604118E+02
  0
VERTEX
  8
0
 62
4
 10
-6.63954375E+01
 20
-2.93397733E+02
  0
VERTEX
  8
0
 62
4
 10
-6.62148716E+01
 20
-2.93175650E+02
  0
VERTEX
  8
0
 62
4
 10
-6.60555022E+01
 20
-2.92939561E+02
  0
VERTEX
  8
0
 62
4
 10
-6.59185421E+01
 20
-2.92691261E+02
  0
VERTEX
  8
0
 62
4
 10
-6.58050337E+01
 20
-2.92432640E+02
  0
VERTEX
  8
0
 62
4
 10
-6.57158408E+01
 20
-2.92165667E+02
  0
VERTEX
  8
0
 62
4
 10
-6.56516422E+01
 20
-2.91892374E+02
  0
VERTEX
  8
0
 62
4
 10
-6.56129266E+01
 20
-2.91614839E+02
  0
VERTEX
  8
0
 62
4
 10
-6.55999886E+01
 20
-2.91335177E+02
  0
SEQEND
  8
0
  0
POLYLINE
  8
0
 62
4
 66
1
  0
VERTEX
  8
0
 62
4
 10
-7.23806586E+01
 20
-2.91676837E+02
  0
VERTEX
  8
0
 62
4
 10
-7.23994134E+01
 20
-2.91952525E+02
  0
VERTEX
  8
0
 62
4
 10
-7.23916874E+01
 20
-2.92228661E+02
  0
VERTEX
  8
0
 62
4
 10
-7.23575408E+01
 20
-2.92503095E+02
  0
VERTEX
  8
0
 62
4
 10
-7.22972396E+01
 20
-2.92773688E+02
  0
VERTEX
  8
0
 62
4
 10
-7.22112535E+01
 20
-2.93038333E+02
  0
VERTEX
  8
0
 62
4
 10
-7.21002524E+01
 20
-2.93294969E+02
  0
VERTEX
  8
0
 62
4
 10
-7.19651009E+01
 20
-2.93541595E+02
  0
VERTEX
  8
0
 62
4
 10
-7.18068518E+01
 20
-2.93776292E+02
  0
VERTEX
  8
0
 62
4
 10
-7.16267379E+01
 20
-2.93997230E+02
  0
VERTEX
  8
0
 62
4
 10
-7.14261621E+01
 20
-2.94202689E+02
  0
VERTEX
  8
0
 62
4
 10
-7.12066870E+01
 20
-2.94391068E+02
  0
VERTEX
  8
0
 62
4
 10
-7.09700222E+01
 20
-2.94560899E+02
  0
VERTEX
  8
0
 62
4
 10
-7.07180113E+01
 20
-2.94710861E+02
  0
VERTEX
  8
0
 62
4
 10
-7.04526173E+01
 20
-2.94839784E+02
  0
VERTEX
  8
0
 62
4
 10
-7.01759077E+01
 20
-2.94946664E+02
  0
VERTEX
  8
0
 62
4
 10
-6.98900380E+01
 20
-2.95030669E+02
  0
VERTEX
  8
0
 62
4
 10
-6.95972349E+01
 20
-2.95091145E+02
  0
VERTEX
  8
0
 62
4
 10
-6.92997794E+01
 20
-2.95127620E+02
  0
VERTEX
  8
0
 62
4
 10
-6.89999886E+01
 20
-2.95139809E+02
  0
VERTEX
  8
0
 62
4
 10
-6.87001978E+01
 20
-2.95127620E+02
  0
VERTEX
  8
0
 62
4
 10
-6.84027423E+01
 20
-2.95091145E+02
  0
VERTEX
  8
0
 62
4
 10
-6.81099393E+01
 20
-2.95030669E+02
  0
VERTEX
  8
0
 62
4
 10
-6.78240695E+01
 20
-2.94946664E+02
  0
VERTEX
  8
0
 62
4
 10
-6.75473599E+01
 20
-2.94839784E+02
  0
VERTEX
  8
0
 62
4
 10
-6.72819659E+01
 20
-2.94710861E+02
  0
VERTEX
  8
0
 62
4
 10
-6.70299550E+01
 20
-2.94560899E+02
  0
VERTEX
  8
0
 62
4
 10
-6.67932902E+01
 20
-2.94391068E+02
  0
VERTEX
  8
0
 62
4
 10
-6.65738151E+01
 20
-2.94202689E+02
  0
VERTEX
  8
0
 62
4
 10
-6.63732393E+01
 20
-2.93997230E+02
  0
VERTEX
  8
0
 62
4
 10
-6.61931254E+01
 20
-2.93776292E+02
  0
VERTEX
  8
0
 62
4
 10
-6.60348763E+01
 20
-2.93541595E+02
  0
VERTEX
  8
0
 62
4
 10
-6.58997248E+01
 20
-2.93294969E+02
  0
VERTEX
  8
0
 62
4
 10
-6.57887237E+01
 20
-2.93038333E+02
  0
VERTEX
  8
0
 62
4
 10
-6.57027376E+01
 20
-2.92773688E+02
  0
VERTEX
  8
0
 62
4
 10
-6.56424364E+01
 20
-2.92503095E+02
  0
VERTEX
  8
0
 62
4
 10
-6.56082898E+01
 20
-2.92228661E+02
  0
VERTEX
  8
0
 62
4
 10
-6.56005638E+01
 20
-2.91952525E+02
  0
VERTEX
  8
0
 62
4
 10
-6.56193186E+01
 20
-2.91676837E+02
  0
SEQEND
  8
0
  0
POLYLINE
  8
0
 62
4
 66
1
  0
VERTEX
  8
0
 62
4
 10
-7.29985807E+01
 20
-2.92107775E+02
  0
VERTEX
  8
0
 62
4
 10
-7.29922516E+01
 20
-2.92434360E+02
  0
VERTEX
  8
0
 62
4
 10
-7.29545045E+01
 20
-2.92759144E+02
  0
VERTEX
  8
0
 62
4
 10
-7.28856365E+01
 20
-2.93079571E+02
  0
VERTEX
  8
0
 62
4
 10
-7.27861896E+01
 20
-2.93393118E+02
  0
VERTEX
  8
0
 62
4
 10
-7.26569463E+01
 20
-2.93697319E+02
  0
VERTEX
  8
0
 62
4
 10
-7.24989239E+01
 20
-2.93989779E+02
  0
VERTEX
  8
0
 62
4
 10
-7.23133658E+01
 20
-2.94268198E+02
  0
VERTEX
  8
0
 62
4
 10
-7.21017324E+01
 20
-2.94530383E+02
  0
VERTEX
  8
0
 62
4
 10
-7.18656892E+01
 20
-2.94774271E+02
  0
VERTEX
  8
0
 62
4
 10
-7.16070937E+01
 20
-2.94997944E+02
  0
VERTEX
  8
0
 62
4
 10
-7.13279810E+01
 20
-2.95199641E+02
  0
VERTEX
  8
0
 62
4
 10
-7.10305477E+01
 20
-2.95377774E+02
  0
VERTEX
  8
0
 62
4
 10
-7.07171345E+01
 20
-2.95530942E+02
  0
VERTEX
  8
0
 62
4
 10
-7.03902079E+01
 20
-2.95657940E+02
  0
VERTEX
  8
0
 62
4
 10
-7.00523406E+01
 20
-2.95757768E+02
  0
VERTEX
  8
0
 62
4
 10
-6.97061916E+01
 20
-2.95829640E+02
  0
VERTEX
  8
0
 62
4
 10
-6.93544850E+01
 20
-2.95872990E+02
  0
VERTEX
  8
0
 62
4
 10
-6.89999886E+01
 20
-2.95887478E+02
  0
VERTEX
  8
0
 62
4
 10
-6.86454922E+01
 20
-2.95872990E+02
  0
VERTEX
  8
0
 62
4
 10
-6.82937856E+01
 20
-2.95829640E+02
  0
VERTEX
  8
0
 62
4
 10
-6.79476366E+01
 20
-2.95757768E+02
  0
VERTEX
  8
0
 62
4
 10
-6.76097693E+01
 20
-2.95657940E+02
  0
VERTEX
  8
0
 62
4
 10
-6.72828427E+01
 20
-2.95530942E+02
  0
VERTEX
  8
0
 62
4
 10
-6.69694295E+01
 20
-2.95377774E+02
  0
VERTEX
  8
0
 62
4
 10
-6.66719962E+01
 20
-2.95199641E+02
  0
VERTEX
  8
0
 62
4
 10
-6.63928835E+01
 20
-2.94997944E+02
  0
VERTEX
  8
0
 62
4
 10
-6.61342880E+01
 20
-2.94774271E+02
  0
VERTEX
  8
0
 62
4
 10
-6.58982448E+01
 20
-2.94530383E+02
  0
VERTEX
  8
0
 62
4
 10
-6.56866114E+01
 20
-2.94268198E+02
  0
VERTEX
  8
0
 62
4
 10
-6.55010533E+01
 20
-2.93989779E+02
  0
VERTEX
  8
0
 62
4
 10
-6.53430309E+01
 20
-2.93697319E+02
  0
VERTEX
  8
0
 62
4
 10
-6.52137876E+01
 20
-2.93393118E+02
  0
VERTEX
  8
0
 62
4
 10
-6.51143407E+01
 20
-2.93079571E+02
  0
VERTEX
  8
0
 62
4
 10
-6.50454727E+01
 20
-2.92759144E+02
  0
VERTEX
  8
0
 62
4
 10
-6.50077256E+01
 20
-2.92434360E+02
  0
VERTEX
  8
0
 62
4
 10
-6.50013965E+01
 20
-2.92107775E+02
  0
SEQEND
  8
0
  0
POLYLINE
  8
0
 62
4
 66
1
  0
VERTEX
  8
0
 62
4
 10
-7.14085825E+01
 20
-2.89070427E+02
  0
VERTEX
  8
0
 62
4
 10
-7.16786183E+01
 20
-2.89275567E+02
  0
VERTEX
  8
0
 62
4
 10
-7.19281318E+01
 20
-2.89501658E+02
  0
VERTEX
  8
0
 62
4
 10
-7.21552113E+01
 20
-2.89746967E+02
  0
VERTEX
  8
0
 62
4
 10
-7.23581170E+01
 20
-2.90009615E+02
  0
VERTEX
  8
0
 62
4
 10
-7.25352944E+01
 20
-2.90287589E+02
  0
VERTEX
  8
0
 62
4
 10
-7.26853860E+01
 20
-2.90578761E+02
  0
VERTEX
  8
0
 62
4
 10
-7.28072419E+01
 20
-2.90880899E+02
  0
VERTEX
  8
0
 62
4
 10
-7.28999285E+01
 20
-2.91191688E+02
  0
VERTEX
  8
0
 62
4
 10
-7.29627357E+01
 20
-2.91508747E+02
  0
VERTEX
  8
0
 62
4
 10
-7.29951823E+01
 20
-2.91829648E+02
  0
VERTEX
  8
0
 62
4
 10
-7.29970197E+01
 20
-2.92151930E+02
  0
VERTEX
  8
0
 62
4
 10
-7.29682337E+01
 20
-2.92473127E+02
  0
VERTEX
  8
0
 62
4
 10
-7.29090451E+01
 20
-2.92790775E+02
  0
VERTEX
  8
0
 62
4
 10
-7.28199071E+01
 20
-2.93102443E+02
  0
VERTEX
  8
0
 62
4
 10
-7.27015029E+01
 20
-2.93405741E+02
  0
VERTEX
  8
0
 62
4
 10
-7.25547394E+01
 20
-2.93698347E+02
  0
VERTEX
  8
0
 62
4
 10
-7.23807412E+01
 20
-2.93978018E+02
  0
VERTEX
  8
0
 62
4
 10
-7.21808413E+01
 20
-2.94242612E+02
  0
VERTEX
  8
0
 62
4
 10
-7.19565713E+01
 20
-2.94490101E+02
  0
VERTEX
  8
0
 62
4
 10
-7.17096494E+01
 20
-2.94718590E+02
  0
VERTEX
  8
0
 62
4
 10
-7.14419675E+01
 20
-2.94926327E+02
  0
VERTEX
  8
0
 62
4
 10
-7.11555763E+01
 20
-2.95111722E+02
  0
VERTEX
  8
0
 62
4
 10
-7.08526700E+01
 20
-2.95273354E+02
  0
VERTEX
  8
0
 62
4
 10
-7.05355694E+01
 20
-2.95409984E+02
  0
VERTEX
  8
0
 62
4
 10
-7.02067039E+01
 20
-2.95520566E+02
  0
VERTEX
  8
0
 62
4
 10
-6.98685932E+01
 20
-2.95604252E+02
  0
VERTEX
  8
0
 62
4
 10
-6.95238277E+01
 20
-2.95660402E+02
  0
VERTEX
  8
0
 62
4
 10
-6.91750487E+01
 20
-2.95688584E+02
  0
VERTEX
  8
0
 62
4
 10
-6.88249285E+01
 20
-2.95688584E+02
  0
VERTEX
  8
0
 62
4
 10
-6.84761496E+01
 20
-2.95660402E+02
  0
VERTEX
  8
0
 62
4
 10
-6.81313840E+01
 20
-2.95604252E+02
  0
VERTEX
  8
0
 62
4
 10
-6.77932733E+01
 20
-2.95520566E+02
  0
VERTEX
  8
0
 62
4
 10
-6.74644078E+01
 20
-2.95409984E+02
  0
VERTEX
  8
0
 62
4
 10
-6.71473072E+01
 20
-2.95273354E+02
  0
VERTEX
  8
0
 62
4
 10
-6.68444010E+01
 20
-2.95111722E+02
  0
VERTEX
  8
0
 62
4
 10
-6.65580098E+01
 20
-2.94926327E+02
  0
VERTEX
  8
0
 62
4
 10
-6.62903278E+01
 20
-2.94718590E+02
  0
VERTEX
  8
0
 62
4
 10
-6.60434059E+01
 20
-2.94490101E+02
  0
VERTEX
  8
0
 62
4
 10
-6.58191359E+01
 20
-2.94242612E+02
  0
VERTEX
  8
0
 62
4
 10
-6.56192360E+01
 20
-2.93978018E+02
  0
VERTEX
  8
0
 62
4
 10
-6.54452378E+01
 20
-2.93698347E+02
  0
VERTEX
  8
0
 62
4
 10
-6.52984743E+01
 20
-2.93405741E+02
  0
VERTEX
  8
0
 62
4
 10
-6.51800701E+01
 20
-2.93102443E+02
  0
VERTEX
  8
0
 62
4
 10
-6.50909321E+01
 20
-2.92790775E+02
  0
VERTEX
  8
0
 62
4
 10
-6.50317435E+01
 20
-2.92473127E+02
  0
VERTEX
  8
0
 62
4
 10
-6.50029575E+01
 20
-2.92151930E+02
  0
VERTEX
  8
0
 62
4
 10
-6.50047949E+01
 20
-2.91829648E+02
  0
VERTEX
  8
0
 62
4
 10
-6.50372415E+01
 20
-2.91508747E+02
  0
VERTEX
  8
0
 62
4
 10
-6.51000487E+01
 20
-2.91191688E+02
  0
VERTEX
  8
0
 62
4
 10
-6.51927353E+01
 20
-2.90880899E+02
  0
VERTEX
  8
0
 62
4
 10
-6.53145912E+01
 20
-2.90578761E+02
  0
VERTEX
  8
0
 62
4
 10
-6.54646828E+01
 20
-2.90287589E+02
  0
VERTEX
  8
0
 62
4
 10
-6.56418602E+01
 20
-2.90009615E+02
  0
VERTEX
  8
0
 62
4
 10
-6.58447659E+01
 20
-2.89746967E+02
  0
VERTEX
  8
0
 62
4
 10
-6.60718454E+01
 20
-2.89501658E+02
  0
VERTEX
  8
0
 62
4
 10
-6.63213589E+01
 20
-2.89275567E+02
  0
VERTEX
  8
0
 62
4
 10
-6.65913947E+01
 20
-2.89070427E+02
  0
SEQEND
  8
0
  0
LINE
  8
0
 62
4
 10
-4.49999886E+01
 20
-3.06000000E+02
 11
-4.49999886E+01
 21
-3.03963458E+02
  0
LINE
  8
0
 62
4
 10
-7.79999886E+01
 20
-3.06000000E+02
 11
-7.79999886E+01
 21
-3.03963458E+02
  0
LINE
  8
0
 62
4
 10
-4.49999886E+01
 20
-3.03963458E+02
 11
-4.19999886E+01
 21
-2.99109245E+02
  0
LINE
  8
0
 62
4
 10
-8.09999886E+01
 20
-2.99109245E+02
 11
-7.79999886E+01
 21
-3.03963458E+02
  0
LINE
  8
0
 62
4
 10
-7.64999886E+01
 20
-2.82457438E+02
 11
-6.14999886E+01
 21
-2.82457438E+02
  0
LINE
  8
0
 62
4
 10
-7.64999886E+01
 20
-2.60365322E+02
 11
-6.14999886E+01
 21
-2.60365322E+02
  0
LINE
  8
0
 62
6
 10
-7.07149234E+01
 20
-2.92557058E+02
 11
-6.72850537E+01
 21
-2.89127183E+02
  0
LINE
  8
0
 62
6
 10
-6.72850513E+01
 20
-2.92557056E+02
 11
-7.07149259E+01
 21
-2.89127186E+02
  0
ARC
  8
0
 62
4
 10
-7.94999857E+01
 20
-2.87579770E+02
 40
1.50000284E+00
 50
9.00001085E+01
 51
1.79999892E+02
  0
ARC
  8
0
 62
4
 10
-8.54999928E+01
 20
-2.75318864E+02
 40
4.99995728E-01
 50
1.79999510E+02
 51
2.70000490E+02
  0
ARC
  8
0
 62
4
 10
-4.34999914E+01
 20
-2.87579770E+02
 40
1.50000284E+00
 50
1.08554370E-04
 51
8.99998913E+01
  0
ARC
  8
0
 62
4
 10
-7.69999928E+01
 20
-2.76318864E+02
 40
5.00004272E-01
 50
4.89585868E-04
 51
8.99995103E+01
  0
LINE
  8
0
 62
4
 10
-8.94999886E+01
 20
-2.74568859E+02
 11
-8.59999886E+01
 21
-2.74568859E+02
  0
LINE
  8
0
 62
4
 10
-8.94999886E+01
 20
-2.63068859E+02
 11
-8.59999886E+01
 21
-2.63068859E+02
  0
LINE
  8
0
 62
4
 10
-8.94999886E+01
 20
-2.62568859E+02
 11
-8.94999886E+01
 21
-2.75068859E+02
  0
LINE
  8
0
 62
4
 10
-9.09999886E+01
 20
-2.75068859E+02
 11
-8.59999886E+01
 21
-2.75068859E+02
  0
LINE
  8
0
 62
4
 10
-9.09999886E+01
 20
-2.62568859E+02
 11
-8.59999886E+01
 21
-2.62568859E+02
  0
LINE
  8
0
 62
4
 10
-9.09999886E+01
 20
-2.61915048E+02
 11
-9.09999886E+01
 21
-2.75731826E+02
  0
LINE
  8
0
 62
4
 10
-9.59999886E+01
 20
-2.61915048E+02
 11
-9.59999886E+01
 21
-2.75731826E+02
  0
LINE
  8
0
 62
4
 10
-8.54999886E+01
 20
-2.75818859E+02
 11
-7.69999886E+01
 21
-2.75818859E+02
  0
LINE
  8
0
 62
4
 10
-9.59999886E+01
 20
-2.61915048E+02
 11
-9.09999886E+01
 21
-2.61915048E+02
  0
LINE
  8
0
 62
4
 10
-7.94999886E+01
 20
-2.86079767E+02
 11
-4.34999886E+01
 21
-2.86079767E+02
  0
LINE
  8
0
 62
4
 10
-8.09999886E+01
 20
-2.97728488E+02
 11
-4.19999886E+01
 21
-2.97728488E+02
  0
LINE
  8
0
 62
4
 10
-8.09999886E+01
 20
-2.99109245E+02
 11
-4.19999886E+01
 21
-2.99109245E+02
  0
LINE
  8
0
 62
4
 10
-7.79999886E+01
 20
-3.03963458E+02
 11
-4.49999886E+01
 21
-3.03963458E+02
  0
LINE
  8
0
 62
4
 10
-4.19999886E+01
 20
-2.87579767E+02
 11
-4.19999886E+01
 21
-2.99109245E+02
  0
LINE
  8
0
 62
4
 10
-5.94999886E+01
 20
-2.82596481E+02
 11
-5.94999886E+01
 21
-2.86079767E+02
  0
LINE
  8
0
 62
4
 10
-7.64999886E+01
 20
-2.60365322E+02
 11
-7.64999886E+01
 21
-2.82596481E+02
  0
LINE
  8
0
 62
4
 10
-6.14999886E+01
 20
-2.60365322E+02
 11
-6.14999886E+01
 21
-2.82596481E+02
  0
LINE
  8
0
 62
4
 10
-7.84999886E+01
 20
-2.82596481E+02
 11
-7.84999886E+01
 21
-2.86079767E+02
  0
LINE
  8
0
 62
4
 10
-8.09999886E+01
 20
-2.87579767E+02
 11
-8.09999886E+01
 21
-2.99109245E+02
  0
LINE
  8
0
 62
4
 10
-7.84999886E+01
 20
-2.82596481E+02
 11
-5.94999886E+01
 21
-2.82596481E+02
  0
LINE
  8
0
  6
CENTER
 62
6
 10
-7.53999886E+01
 20
-2.90842121E+02
 11
-6.25999886E+01
 21
-2.90842121E+02
  0
LINE
  8
0
  6
CENTER
 62
6
 10
-6.89999886E+01
 20
-2.97242121E+02
 11
-6.89999886E+01
 21
-2.84442121E+02
  0
LINE
  8
0
 62
4
 10
-3.78865088E+02
 20
-2.82596481E+02
 11
-3.77302163E+02
 21
-2.86278500E+02
  0
LINE
  8
0
 62
4
 10
-3.94904402E+02
 20
-2.88318405E+02
 11
-3.81096829E+02
 21
-2.82457438E+02
  0
LINE
  8
0
 62
4
 10
-3.96354680E+02
 20
-2.90020372E+02
 11
-3.78865088E+02
 21
-2.82596481E+02
  0
LINE
  8
0
 62
4
 10
-4.04281949E+02
 20
-2.66226289E+02
 11
-3.94513670E+02
 21
-2.89238910E+02
  0
LINE
  8
0
 62
4
 10
-3.90474376E+02
 20
-2.60365322E+02
 11
-3.80706098E+02
 21
-2.83377943E+02
  0
LINE
  8
0
 62
4
 10
-4.04281949E+02
 20
-2.66226289E+02
 11
-3.99780680E+02
 21
-2.64315613E+02
  0
LINE
  8
0
 62
4
 10
-3.92099385E+02
 20
-2.75731826E+02
 11
-3.87581345E+02
 21
-2.69740180E+02
  0
LINE
  8
0
 62
4
 10
-4.02482299E+02
 20
-2.67906693E+02
 11
-3.97964259E+02
 21
-2.61915048E+02
  0
LINE
  8
0
 62
4
 10
-4.02482299E+02
 20
-2.67906693E+02
 11
-3.99547908E+02
 21
-2.74819685E+02
  0
LINE
  8
0
 62
4
 10
-3.90515736E+02
 20
-2.62827189E+02
 11
-3.87581345E+02
 21
-2.69740180E+02
  0
LINE
  8
0
 62
4
 10
-3.99547908E+02
 20
-2.74819685E+02
 11
-3.92099385E+02
 21
-2.75731826E+02
  0
LINE
  8
0
 62
4
 10
-3.97964259E+02
 20
-2.61915048E+02
 11
-3.90515736E+02
 21
-2.62827189E+02
  0
LINE
  8
0
 62
4
 10
-3.94984850E+02
 20
-2.62279904E+02
 11
-3.90474376E+02
 21
-2.60365322E+02
  0
CIRCLE
  8
0
 62
4
 10
-3.95033774E+02
 20
-2.68818859E+02
 40
3.75000000E+00
  0
ARC
  8
0
 62
4
 10
-3.95033774E+02
 20
-2.68818859E+02
 40
7.00000000E+00
 50
8.19976591E+01
 51
1.04884035E+02
  0
ARC
  8
0
 62
4
 10
-3.95033774E+02
 20
-2.68818859E+02
 40
7.00000000E+00
 50
1.21115777E+02
 51
1.44002341E+02
  0
LINE
  8
0
  6
CENTER
 62
6
 10
-3.96322846E+02
 20
-3.02500004E+02
 11
-3.66087136E+02
 21
-2.89665706E+02
  0
LINE
  8
0
 62
4
 10
-3.84762120E+02
 20
-2.98135947E+02
 11
-3.83785292E+02
 21
-3.00437209E+02
  0
LINE
  8
0
 62
4
 10
-3.83785292E+02
 20
-3.00437209E+02
 11
-3.80103273E+02
 21
-2.98874285E+02
  0
LINE
  8
0
 62
4
 10
-3.80967031E+02
 20
-3.02500009E+02
 11
-3.69726031E+02
 21
-2.97728488E+02
  0
LINE
  8
0
 62
4
 10
-3.69139934E+02
 20
-2.99109245E+02
 11
-3.69977174E+02
 21
-3.02500013E+02
  0
LINE
  8
0
 62
4
 10
-3.94791756E+02
 20
-2.93702392E+02
 11
-3.77302163E+02
 21
-2.86278500E+02
  0
LINE
  8
0
 62
4
 10
-3.74024073E+02
 20
-2.87602934E+02
 11
-3.69139934E+02
 21
-2.99109245E+02
  0
LINE
  8
0
 62
4
 10
-3.84762120E+02
 20
-2.98135947E+02
 11
-3.81080101E+02
 21
-2.96573022E+02
  0
LINE
  8
0
 62
4
 10
-3.81080101E+02
 20
-2.96573022E+02
 11
-3.80103273E+02
 21
-2.98874285E+02
  0
LINE
  8
0
 62
4
 10
-3.73633342E+02
 20
-2.88523439E+02
 11
-3.73173090E+02
 21
-2.88328074E+02
  0
LINE
  8
0
 62
4
 10
-3.70507493E+02
 20
-2.95887478E+02
 11
-3.70047241E+02
 21
-2.95692113E+02
  0
LINE
  8
0
 62
4
 10
-3.72938651E+02
 20
-2.88880377E+02
 11
-3.71346178E+02
 21
-2.88204412E+02
  0
LINE
  8
0
 62
4
 10
-3.68689206E+02
 20
-2.94463845E+02
 11
-3.70281680E+02
 21
-2.95139810E+02
  0
LINE
  8
0
 62
4
 10
-3.73173090E+02
 20
-2.88328074E+02
 11
-3.70047241E+02
 21
-2.95692113E+02
  0
ARC
  8
0
 62
4
 10
-3.69081021E+02
 20
-2.93545600E+02
 40
9.98345090E-01
 50
2.93107940E+02
 51
9.77816763E+00
  0
ARC
  8
0
 62
4
 10
-3.70959546E+02
 20
-2.89123619E+02
 40
9.97209177E-01
 50
3.55805360E+01
 51
1.12812291E+02
  0
ARC
  8
0
 62
4
 10
-3.79710970E+02
 20
-2.95484496E+02
 40
1.18036308E+01
 50
1.02898056E+01
 51
3.59747793E+01
  0
ARC
  8
0
 62
4
 10
-3.76325344E+02
 20
-2.88579783E+02
 40
2.50001570E+00
 50
2.30003598E+01
 51
1.12999640E+02
  0
LINE
  8
0
 62
4
 10
-3.77128077E+02
 20
-3.02500011E+02
 11
-3.69139934E+02
 21
-2.99109245E+02
  0
LINE
  8
0
 62
4
 10
-3.96116190E+02
 20
-2.96980481E+02
 11
-3.93773291E+02
 21
-3.02500005E+02
  0
LINE
  8
0
 62
4
 10
-3.96354680E+02
 20
-2.90020372E+02
 11
-3.94791756E+02
 21
-2.93702392E+02
  0
LINE
  8
0
 62
4
 10
-4.02358813E+02
 20
-3.00173498E+02
 11
-3.95920824E+02
 21
-2.97440734E+02
  0
ARC
  8
0
 62
4
 10
-3.93814912E+02
 20
-2.96003660E+02
 40
2.50001192E+00
 50
1.13000273E+02
 51
2.02999727E+02
  0
LINE
  8
0
 62
4
 10
-4.02358813E+02
 20
-3.00173498E+02
 11
-4.03544241E+02
 21
-3.02500001E+02
  0
LINE
  8
0
 62
4
 10
1.35547267E+02
 20
-2.87843045E+02
 11
1.41328038E+02
 21
-2.90296837E+02
  0
LINE
  8
0
 62
4
 10
1.41328038E+02
 20
-2.90296837E+02
 11
1.41268688E+02
 21
-2.91358005E+02
  0
LINE
  8
0
 62
4
 10
1.34825154E+02
 20
-2.88622887E+02
 11
1.35547267E+02
 21
-2.87843045E+02
  0
LINE
  8
0
  6
CENTER
 62
6
 10
1.39288223E+02
 20
-2.87066122E+02
 11
1.37464732E+02
 21
-2.91361998E+02
  0
ARC
  8
0
 62
4
 10
1.47033728E+02
 20
-2.68818856E+02
 40
7.00000000E+00
 50
3.59976591E+01
 51
9.80023407E+01
  0
LINE
  8
0
 62
4
 10
1.54358775E+02
 20
-3.00173498E+02
 11
1.47920786E+02
 21
-2.97440734E+02
  0
LINE
  8
0
 62
4
 10
1.54358775E+02
 20
-3.00173498E+02
 11
1.55544203E+02
 21
-3.02500001E+02
  0
LINE
  8
0
 62
4
 10
1.42474338E+02
 20
-2.60365322E+02
 11
1.56281910E+02
 21
-2.66226289E+02
  0
LINE
  8
0
 62
4
 10
1.42474338E+02
 20
-2.60365322E+02
 11
1.32706059E+02
 21
-2.83377943E+02
  0
LINE
  8
0
 62
4
 10
1.56281910E+02
 20
-2.66226289E+02
 11
1.46513632E+02
 21
-2.89238910E+02
  0
LINE
  8
0
 62
4
 10
1.48354642E+02
 20
-2.90020372E+02
 11
1.30865050E+02
 21
-2.82596481E+02
  0
LINE
  8
0
 62
4
 10
1.46904363E+02
 20
-2.88318405E+02
 11
1.33096791E+02
 21
-2.82457438E+02
  0
LINE
  8
0
 62
4
 10
1.30865050E+02
 20
-2.82596481E+02
 11
1.29302125E+02
 21
-2.86278500E+02
  0
LINE
  8
0
 62
4
 10
1.48354642E+02
 20
-2.90020372E+02
 11
1.46791717E+02
 21
-2.93702392E+02
  0
LINE
  8
0
 62
4
 10
1.46791717E+02
 20
-2.93702392E+02
 11
1.29302125E+02
 21
-2.86278500E+02
  0
LINE
  8
0
 62
4
 10
1.29128039E+02
 20
-3.02500011E+02
 11
1.21139896E+02
 21
-2.99109245E+02
  0
LINE
  8
0
 62
4
 10
1.26024035E+02
 20
-2.87602934E+02
 11
1.21139896E+02
 21
-2.99109245E+02
  0
LINE
  8
0
 62
4
 10
1.48116152E+02
 20
-2.96980481E+02
 11
1.45773253E+02
 21
-3.02500005E+02
  0
LINE
  8
0
 62
4
 10
1.21139896E+02
 20
-2.99109245E+02
 11
1.21977136E+02
 21
-3.02500013E+02
  0
LINE
  8
0
 62
4
 10
1.32966993E+02
 20
-3.02500009E+02
 11
1.21725993E+02
 21
-2.97728488E+02
  0
LINE
  8
0
 62
4
 10
1.36762082E+02
 20
-2.98135947E+02
 11
1.33080063E+02
 21
-2.96573022E+02
  0
LINE
  8
0
 62
4
 10
1.35785254E+02
 20
-3.00437209E+02
 11
1.32103235E+02
 21
-2.98874285E+02
  0
LINE
  8
0
 62
4
 10
1.36762082E+02
 20
-2.98135947E+02
 11
1.35785254E+02
 21
-3.00437209E+02
  0
LINE
  8
0
 62
4
 10
1.33080063E+02
 20
-2.96573022E+02
 11
1.32103235E+02
 21
-2.98874285E+02
  0
LINE
  8
0
 62
4
 10
1.50651121E+02
 20
-2.62825988E+02
 11
1.49964221E+02
 21
-2.61915048E+02
  0
LINE
  8
0
 62
4
 10
1.49964221E+02
 20
-2.61915048E+02
 11
1.48831784E+02
 21
-2.62053725E+02
  0
LINE
  8
0
 62
4
 10
1.25633304E+02
 20
-2.88523439E+02
 11
1.25173052E+02
 21
-2.88328074E+02
  0
LINE
  8
0
 62
4
 10
1.22507455E+02
 20
-2.95887478E+02
 11
1.22047203E+02
 21
-2.95692113E+02
  0
LINE
  8
0
 62
4
 10
1.24938613E+02
 20
-2.88880377E+02
 11
1.23346140E+02
 21
-2.88204412E+02
  0
LINE
  8
0
 62
4
 10
1.20689168E+02
 20
-2.94463845E+02
 11
1.22281641E+02
 21
-2.95139810E+02
  0
LINE
  8
0
  6
CENTER
 62
6
 10
1.48322808E+02
 20
-3.02500004E+02
 11
1.18087098E+02
 21
-2.89665706E+02
  0
LINE
  8
0
 62
4
 10
1.25173052E+02
 20
-2.88328074E+02
 11
1.22047203E+02
 21
-2.95692113E+02
  0
ARC
  8
0
 62
4
 10
1.21080983E+02
 20
-2.93545600E+02
 40
9.98345090E-01
 50
1.70221832E+02
 51
2.46892060E+02
  0
ARC
  8
0
 62
4
 10
1.22959508E+02
 20
-2.89123619E+02
 40
9.97209177E-01
 50
6.71877091E+01
 51
1.44419464E+02
  0
ARC
  8
0
 62
4
 10
1.31710932E+02
 20
-2.95484496E+02
 40
1.18036308E+01
 50
1.44025221E+02
 51
1.69710195E+02
  0
ARC
  8
0
 62
4
 10
1.45814874E+02
 20
-2.96003660E+02
 40
2.50001192E+00
 50
3.37000273E+02
 51
6.69997268E+01
  0
ARC
  8
0
 62
4
 10
1.28325306E+02
 20
-2.88579783E+02
 40
2.50001570E+00
 50
6.70003599E+01
 51
1.56999640E+02
  0
ARC
  8
0
 62
4
 10
-7.94999576E+01
 20
-1.56999117E+02
 40
1.50000046E+00
 50
1.80000018E+02
 51
2.69999983E+02
  0
ARC
  8
0
 62
4
 10
-4.34999547E+01
 20
-1.56999121E+02
 40
1.49999664E+00
 50
2.69999872E+02
 51
1.28225561E-04
  0
LINE
  8
0
 62
4
 10
-7.84999580E+01
 20
-1.56197841E+02
 11
-5.94999580E+01
 21
-1.56197841E+02
  0
POLYLINE
  8
0
 62
4
 66
1
  0
VERTEX
  8
0
 62
4
 10
-4.98599580E+01
 20
-1.47062332E+02
  0
VERTEX
  8
0
 62
4
 10
-4.98719066E+01
 20
-1.46810418E+02
  0
VERTEX
  8
0
 62
4
 10
-4.99076617E+01
 20
-1.46560422E+02
  0
VERTEX
  8
0
 62
4
 10
-4.99669509E+01
 20
-1.46314245E+02
  0
VERTEX
  8
0
 62
4
 10
-5.00493232E+01
 20
-1.46073762E+02
  0
VERTEX
  8
0
 62
4
 10
-5.01541515E+01
 20
-1.45840802E+02
  0
VERTEX
  8
0
 62
4
 10
-5.02806382E+01
 20
-1.45617139E+02
  0
VERTEX
  8
0
 62
4
 10
-5.04278206E+01
 20
-1.45404475E+02
  0
VERTEX
  8
0
 62
4
 10
-5.05945784E+01
 20
-1.45204428E+02
  0
VERTEX
  8
0
 62
4
 10
-5.07796427E+01
 20
-1.45018521E+02
  0
VERTEX
  8
0
 62
4
 10
-5.09816049E+01
 20
-1.44848168E+02
  0
VERTEX
  8
0
 62
4
 10
-5.11989280E+01
 20
-1.44694667E+02
  0
VERTEX
  8
0
 62
4
 10
-5.14299580E+01
 20
-1.44559185E+02
  0
VERTEX
  8
0
 62
4
 10
-5.16729367E+01
 20
-1.44442753E+02
  0
VERTEX
  8
0
 62
4
 10
-5.19260148E+01
 20
-1.44346258E+02
  0
VERTEX
  8
0
 62
4
 10
-5.21872662E+01
 20
-1.44270434E+02
  0
VERTEX
  8
0
 62
4
 10
-5.24547027E+01
 20
-1.44215858E+02
  0
VERTEX
  8
0
 62
4
 10
-5.27262890E+01
 20
-1.44182946E+02
  0
VERTEX
  8
0
 62
4
 10
-5.29999580E+01
 20
-1.44171947E+02
  0
VERTEX
  8
0
 62
4
 10
-5.32736270E+01
 20
-1.44182946E+02
  0
VERTEX
  8
0
 62
4
 10
-5.35452133E+01
 20
-1.44215858E+02
  0
VERTEX
  8
0
 62
4
 10
-5.38126498E+01
 20
-1.44270434E+02
  0
VERTEX
  8
0
 62
4
 10
-5.40739013E+01
 20
-1.44346258E+02
  0
VERTEX
  8
0
 62
4
 10
-5.43269793E+01
 20
-1.44442753E+02
  0
VERTEX
  8
0
 62
4
 10
-5.45699580E+01
 20
-1.44559185E+02
  0
VERTEX
  8
0
 62
4
 10
-5.48009880E+01
 20
-1.44694667E+02
  0
VERTEX
  8
0
 62
4
 10
-5.50183111E+01
 20
-1.44848168E+02
  0
VERTEX
  8
0
 62
4
 10
-5.52202733E+01
 20
-1.45018521E+02
  0
VERTEX
  8
0
 62
4
 10
-5.54053376E+01
 20
-1.45204428E+02
  0
VERTEX
  8
0
 62
4
 10
-5.55720954E+01
 20
-1.45404475E+02
  0
VERTEX
  8
0
 62
4
 10
-5.57192778E+01
 20
-1.45617139E+02
  0
VERTEX
  8
0
 62
4
 10
-5.58457645E+01
 20
-1.45840802E+02
  0
VERTEX
  8
0
 62
4
 10
-5.59505928E+01
 20
-1.46073762E+02
  0
VERTEX
  8
0
 62
4
 10
-5.60329651E+01
 20
-1.46314245E+02
  0
VERTEX
  8
0
 62
4
 10
-5.60922543E+01
 20
-1.46560422E+02
  0
VERTEX
  8
0
 62
4
 10
-5.61280094E+01
 20
-1.46810418E+02
  0
VERTEX
  8
0
 62
4
 10
-5.61399580E+01
 20
-1.47062332E+02
  0
VERTEX
  8
0
 62
4
 10
-5.61280094E+01
 20
-1.47314246E+02
  0
VERTEX
  8
0
 62
4
 10
-5.60922543E+01
 20
-1.47564242E+02
  0
VERTEX
  8
0
 62
4
 10
-5.60329651E+01
 20
-1.47810419E+02
  0
VERTEX
  8
0
 62
4
 10
-5.59505928E+01
 20
-1.48050902E+02
  0
VERTEX
  8
0
 62
4
 10
-5.58457644E+01
 20
-1.48283862E+02
  0
VERTEX
  8
0
 62
4
 10
-5.57192778E+01
 20
-1.48507525E+02
  0
VERTEX
  8
0
 62
4
 10
-5.55720954E+01
 20
-1.48720189E+02
  0
VERTEX
  8
0
 62
4
 10
-5.54053375E+01
 20
-1.48920236E+02
  0
VERTEX
  8
0
 62
4
 10
-5.52202733E+01
 20
-1.49106143E+02
  0
VERTEX
  8
0
 62
4
 10
-5.50183111E+01
 20
-1.49276496E+02
  0
VERTEX
  8
0
 62
4
 10
-5.48009880E+01
 20
-1.49429997E+02
  0
VERTEX
  8
0
 62
4
 10
-5.45699580E+01
 20
-1.49565479E+02
  0
VERTEX
  8
0
 62
4
 10
-5.43269793E+01
 20
-1.49681911E+02
  0
VERTEX
  8
0
 62
4
 10
-5.40739012E+01
 20
-1.49778406E+02
  0
VERTEX
  8
0
 62
4
 10
-5.38126498E+01
 20
-1.49854230E+02
  0
VERTEX
  8
0
 62
4
 10
-5.35452133E+01
 20
-1.49908806E+02
  0
VERTEX
  8
0
 62
4
 10
-5.32736270E+01
 20
-1.49941718E+02
  0
VERTEX
  8
0
 62
4
 10
-5.29999580E+01
 20
-1.49952717E+02
  0
VERTEX
  8
0
 62
4
 10
-5.27262890E+01
 20
-1.49941718E+02
  0
VERTEX
  8
0
 62
4
 10
-5.24547027E+01
 20
-1.49908806E+02
  0
VERTEX
  8
0
 62
4
 10
-5.21872662E+01
 20
-1.49854230E+02
  0
VERTEX
  8
0
 62
4
 10
-5.19260147E+01
 20
-1.49778406E+02
  0
VERTEX
  8
0
 62
4
 10
-5.16729367E+01
 20
-1.49681911E+02
  0
VERTEX
  8
0
 62
4
 10
-5.14299580E+01
 20
-1.49565479E+02
  0
VERTEX
  8
0
 62
4
 10
-5.11989280E+01
 20
-1.49429997E+02
  0
VERTEX
  8
0
 62
4
 10
-5.09816049E+01
 20
-1.49276496E+02
  0
VERTEX
  8
0
 62
4
 10
-5.07796427E+01
 20
-1.49106143E+02
  0
VERTEX
  8
0
 62
4
 10
-5.05945784E+01
 20
-1.48920236E+02
  0
VERTEX
  8
0
 62
4
 10
-5.04278206E+01
 20
-1.48720189E+02
  0
VERTEX
  8
0
 62
4
 10
-5.02806382E+01
 20
-1.48507525E+02
  0
VERTEX
  8
0
 62
4
 10
-5.01541515E+01
 20
-1.48283862E+02
  0
VERTEX
  8
0
 62
4
 10
-5.00493232E+01
 20
-1.48050902E+02
  0
VERTEX
  8
0
 62
4
 10
-4.99669509E+01
 20
-1.47810419E+02
  0
VERTEX
  8
0
 62
4
 10
-4.99076617E+01
 20
-1.47564242E+02
  0
VERTEX
  8
0
 62
4
 10
-4.98719066E+01
 20
-1.47314246E+02
  0
VERTEX
  8
0
 62
4
 10
-4.98599580E+01
 20
-1.47062332E+02
  0
SEQEND
  8
0
  0
POLYLINE
  8
0
 62
4
 66
1
  0
VERTEX
  8
0
 62
4
 10
-5.47553789E+01
 20
-1.44665818E+02
  0
VERTEX
  8
0
 62
4
 10
-5.50166620E+01
 20
-1.44819887E+02
  0
VERTEX
  8
0
 62
4
 10
-5.52620941E+01
 20
-1.44994653E+02
  0
VERTEX
  8
0
 62
4
 10
-5.54897462E+01
 20
-1.45188742E+02
  0
VERTEX
  8
0
 62
4
 10
-5.56978289E+01
 20
-1.45400628E+02
  0
VERTEX
  8
0
 62
4
 10
-5.58847067E+01
 20
-1.45628645E+02
  0
VERTEX
  8
0
 62
4
 10
-5.60489108E+01
 20
-1.45871003E+02
  0
VERTEX
  8
0
 62
4
 10
-5.61891505E+01
 20
-1.46125795E+02
  0
VERTEX
  8
0
 62
4
 10
-5.63043237E+01
 20
-1.46391019E+02
  0
VERTEX
  8
0
 62
4
 10
-5.63935250E+01
 20
-1.46664591E+02
  0
VERTEX
  8
0
 62
4
 10
-5.64560533E+01
 20
-1.46944360E+02
  0
VERTEX
  8
0
 62
4
 10
-5.64914172E+01
 20
-1.47228127E+02
  0
VERTEX
  8
0
 62
4
 10
-5.64993388E+01
 20
-1.47513663E+02
  0
VERTEX
  8
0
 62
4
 10
-5.64797557E+01
 20
-1.47798722E+02
  0
VERTEX
  8
0
 62
4
 10
-5.64328219E+01
 20
-1.48081064E+02
  0
VERTEX
  8
0
 62
4
 10
-5.63589063E+01
 20
-1.48358470E+02
  0
VERTEX
  8
0
 62
4
 10
-5.62585898E+01
 20
-1.48628760E+02
  0
VERTEX
  8
0
 62
4
 10
-5.61326610E+01
 20
-1.48889809E+02
  0
VERTEX
  8
0
 62
4
 10
-5.59821095E+01
 20
-1.49139566E+02
  0
VERTEX
  8
0
 62
4
 10
-5.58081188E+01
 20
-1.49376066E+02
  0
VERTEX
  8
0
 62
4
 10
-5.56120563E+01
 20
-1.49597453E+02
  0
VERTEX
  8
0
 62
4
 10
-5.53954631E+01
 20
-1.49801984E+02
  0
VERTEX
  8
0
 62
4
 10
-5.51600416E+01
 20
-1.49988054E+02
  0
VERTEX
  8
0
 62
4
 10
-5.49076421E+01
 20
-1.50154198E+02
  0
VERTEX
  8
0
 62
4
 10
-5.46402485E+01
 20
-1.50299113E+02
  0
VERTEX
  8
0
 62
4
 10
-5.43599624E+01
 20
-1.50421657E+02
  0
VERTEX
  8
0
 62
4
 10
-5.40689869E+01
 20
-1.50520869E+02
  0
VERTEX
  8
0
 62
4
 10
-5.37696090E+01
 20
-1.50595969E+02
  0
VERTEX
  8
0
 62
4
 10
-5.34641817E+01
 20
-1.50646365E+02
  0
VERTEX
  8
0
 62
4
 10
-5.31551057E+01
 20
-1.50671663E+02
  0
VERTEX
  8
0
 62
4
 10
-5.28448103E+01
 20
-1.50671663E+02
  0
VERTEX
  8
0
 62
4
 10
-5.25357343E+01
 20
-1.50646365E+02
  0
VERTEX
  8
0
 62
4
 10
-5.22303070E+01
 20
-1.50595969E+02
  0
VERTEX
  8
0
 62
4
 10
-5.19309291E+01
 20
-1.50520869E+02
  0
VERTEX
  8
0
 62
4
 10
-5.16399536E+01
 20
-1.50421657E+02
  0
VERTEX
  8
0
 62
4
 10
-5.13596675E+01
 20
-1.50299113E+02
  0
VERTEX
  8
0
 62
4
 10
-5.10922739E+01
 20
-1.50154198E+02
  0
VERTEX
  8
0
 62
4
 10
-5.08398744E+01
 20
-1.49988054E+02
  0
VERTEX
  8
0
 62
4
 10
-5.06044529E+01
 20
-1.49801984E+02
  0
VERTEX
  8
0
 62
4
 10
-5.03878597E+01
 20
-1.49597453E+02
  0
VERTEX
  8
0
 62
4
 10
-5.01917972E+01
 20
-1.49376066E+02
  0
VERTEX
  8
0
 62
4
 10
-5.00178065E+01
 20
-1.49139566E+02
  0
VERTEX
  8
0
 62
4
 10
-4.98672550E+01
 20
-1.48889809E+02
  0
VERTEX
  8
0
 62
4
 10
-4.97413262E+01
 20
-1.48628760E+02
  0
VERTEX
  8
0
 62
4
 10
-4.96410097E+01
 20
-1.48358470E+02
  0
VERTEX
  8
0
 62
4
 10
-4.95670941E+01
 20
-1.48081064E+02
  0
VERTEX
  8
0
 62
4
 10
-4.95201603E+01
 20
-1.47798722E+02
  0
VERTEX
  8
0
 62
4
 10
-4.95005772E+01
 20
-1.47513663E+02
  0
VERTEX
  8
0
 62
4
 10
-4.95084988E+01
 20
-1.47228127E+02
  0
VERTEX
  8
0
 62
4
 10
-4.95438627E+01
 20
-1.46944360E+02
  0
VERTEX
  8
0
 62
4
 10
-4.96063910E+01
 20
-1.46664591E+02
  0
VERTEX
  8
0
 62
4
 10
-4.96955923E+01
 20
-1.46391019E+02
  0
VERTEX
  8
0
 62
4
 10
-4.98107655E+01
 20
-1.46125795E+02
  0
VERTEX
  8
0
 62
4
 10
-4.99510052E+01
 20
-1.45871003E+02
  0
VERTEX
  8
0
 62
4
 10
-5.01152093E+01
 20
-1.45628645E+02
  0
VERTEX
  8
0
 62
4
 10
-5.03020871E+01
 20
-1.45400628E+02
  0
VERTEX
  8
0
 62
4
 10
-5.05101698E+01
 20
-1.45188742E+02
  0
VERTEX
  8
0
 62
4
 10
-5.07378219E+01
 20
-1.44994653E+02
  0
VERTEX
  8
0
 62
4
 10
-5.09832540E+01
 20
-1.44819887E+02
  0
VERTEX
  8
0
 62
4
 10
-5.12445371E+01
 20
-1.44665818E+02
  0
SEQEND
  8
0
  0
POLYLINE
  8
0
 62
4
 66
1
  0
VERTEX
  8
0
 62
4
 10
-6.55999580E+01
 20
-1.63785592E+02
  0
VERTEX
  8
0
 62
4
 10
-6.56128960E+01
 20
-1.63643376E+02
  0
VERTEX
  8
0
 62
4
 10
-6.56516116E+01
 20
-1.63502241E+02
  0
VERTEX
  8
0
 62
4
 10
-6.57158102E+01
 20
-1.63363264E+02
  0
VERTEX
  8
0
 62
4
 10
-6.58050031E+01
 20
-1.63227500E+02
  0
VERTEX
  8
0
 62
4
 10
-6.59185115E+01
 20
-1.63095984E+02
  0
VERTEX
  8
0
 62
4
 10
-6.60554716E+01
 20
-1.62969717E+02
  0
VERTEX
  8
0
 62
4
 10
-6.62148410E+01
 20
-1.62849658E+02
  0
VERTEX
  8
0
 62
4
 10
-6.63954069E+01
 20
-1.62736723E+02
  0
VERTEX
  8
0
 62
4
 10
-6.65957949E+01
 20
-1.62631770E+02
  0
VERTEX
  8
0
 62
4
 10
-6.68144801E+01
 20
-1.62535598E+02
  0
VERTEX
  8
0
 62
4
 10
-6.70497981E+01
 20
-1.62448940E+02
  0
VERTEX
  8
0
 62
4
 10
-6.72999580E+01
 20
-1.62372454E+02
  0
VERTEX
  8
0
 62
4
 10
-6.75630559E+01
 20
-1.62306724E+02
  0
VERTEX
  8
0
 62
4
 10
-6.78370895E+01
 20
-1.62252248E+02
  0
VERTEX
  8
0
 62
4
 10
-6.81199732E+01
 20
-1.62209442E+02
  0
VERTEX
  8
0
 62
4
 10
-6.84095542E+01
 20
-1.62178631E+02
  0
VERTEX
  8
0
 62
4
 10
-6.87036285E+01
 20
-1.62160050E+02
  0
VERTEX
  8
0
 62
4
 10
-6.89999580E+01
 20
-1.62153841E+02
  0
VERTEX
  8
0
 62
4
 10
-6.92962875E+01
 20
-1.62160050E+02
  0
VERTEX
  8
0
 62
4
 10
-6.95903618E+01
 20
-1.62178631E+02
  0
VERTEX
  8
0
 62
4
 10
-6.98799428E+01
 20
-1.62209442E+02
  0
VERTEX
  8
0
 62
4
 10
-7.01628265E+01
 20
-1.62252248E+02
  0
VERTEX
  8
0
 62
4
 10
-7.04368601E+01
 20
-1.62306724E+02
  0
VERTEX
  8
0
 62
4
 10
-7.06999580E+01
 20
-1.62372454E+02
  0
VERTEX
  8
0
 62
4
 10
-7.09501179E+01
 20
-1.62448940E+02
  0
VERTEX
  8
0
 62
4
 10
-7.11854359E+01
 20
-1.62535598E+02
  0
VERTEX
  8
0
 62
4
 10
-7.14041211E+01
 20
-1.62631770E+02
  0
VERTEX
  8
0
 62
4
 10
-7.16045091E+01
 20
-1.62736723E+02
  0
VERTEX
  8
0
 62
4
 10
-7.17850750E+01
 20
-1.62849658E+02
  0
VERTEX
  8
0
 62
4
 10
-7.19444444E+01
 20
-1.62969717E+02
  0
VERTEX
  8
0
 62
4
 10
-7.20814045E+01
 20
-1.63095984E+02
  0
VERTEX
  8
0
 62
4
 10
-7.21949129E+01
 20
-1.63227500E+02
  0
VERTEX
  8
0
 62
4
 10
-7.22841058E+01
 20
-1.63363264E+02
  0
VERTEX
  8
0
 62
4
 10
-7.23483044E+01
 20
-1.63502241E+02
  0
VERTEX
  8
0
 62
4
 10
-7.23870200E+01
 20
-1.63643376E+02
  0
VERTEX
  8
0
 62
4
 10
-7.23999580E+01
 20
-1.63785592E+02
  0
VERTEX
  8
0
 62
4
 10
-7.23870200E+01
 20
-1.63927808E+02
  0
VERTEX
  8
0
 62
4
 10
-7.23483044E+01
 20
-1.64068943E+02
  0
VERTEX
  8
0
 62
4
 10
-7.22841058E+01
 20
-1.64207920E+02
  0
VERTEX
  8
0
 62
4
 10
-7.21949129E+01
 20
-1.64343684E+02
  0
VERTEX
  8
0
 62
4
 10
-7.20814045E+01
 20
-1.64475200E+02
  0
VERTEX
  8
0
 62
4
 10
-7.19444444E+01
 20
-1.64601467E+02
  0
VERTEX
  8
0
 62
4
 10
-7.17850749E+01
 20
-1.64721526E+02
  0
VERTEX
  8
0
 62
4
 10
-7.16045091E+01
 20
-1.64834461E+02
  0
VERTEX
  8
0
 62
4
 10
-7.14041211E+01
 20
-1.64939414E+02
  0
VERTEX
  8
0
 62
4
 10
-7.11854359E+01
 20
-1.65035586E+02
  0
VERTEX
  8
0
 62
4
 10
-7.09501179E+01
 20
-1.65122244E+02
  0
VERTEX
  8
0
 62
4
 10
-7.06999580E+01
 20
-1.65198730E+02
  0
VERTEX
  8
0
 62
4
 10
-7.04368601E+01
 20
-1.65264460E+02
  0
VERTEX
  8
0
 62
4
 10
-7.01628265E+01
 20
-1.65318936E+02
  0
VERTEX
  8
0
 62
4
 10
-6.98799427E+01
 20
-1.65361742E+02
  0
VERTEX
  8
0
 62
4
 10
-6.95903618E+01
 20
-1.65392553E+02
  0
VERTEX
  8
0
 62
4
 10
-6.92962875E+01
 20
-1.65411134E+02
  0
VERTEX
  8
0
 62
4
 10
-6.89999580E+01
 20
-1.65417343E+02
  0
VERTEX
  8
0
 62
4
 10
-6.87036285E+01
 20
-1.65411134E+02
  0
VERTEX
  8
0
 62
4
 10
-6.84095542E+01
 20
-1.65392553E+02
  0
VERTEX
  8
0
 62
4
 10
-6.81199732E+01
 20
-1.65361742E+02
  0
VERTEX
  8
0
 62
4
 10
-6.78370895E+01
 20
-1.65318936E+02
  0
VERTEX
  8
0
 62
4
 10
-6.75630559E+01
 20
-1.65264460E+02
  0
VERTEX
  8
0
 62
4
 10
-6.72999580E+01
 20
-1.65198730E+02
  0
VERTEX
  8
0
 62
4
 10
-6.70497981E+01
 20
-1.65122244E+02
  0
VERTEX
  8
0
 62
4
 10
-6.68144801E+01
 20
-1.65035586E+02
  0
VERTEX
  8
0
 62
4
 10
-6.65957949E+01
 20
-1.64939414E+02
  0
VERTEX
  8
0
 62
4
 10
-6.63954069E+01
 20
-1.64834461E+02
  0
VERTEX
  8
0
 62
4
 10
-6.62148410E+01
 20
-1.64721526E+02
  0
VERTEX
  8
0
 62
4
 10
-6.60554716E+01
 20
-1.64601467E+02
  0
VERTEX
  8
0
 62
4
 10
-6.59185115E+01
 20
-1.64475200E+02
  0
VERTEX
  8
0
 62
4
 10
-6.58050031E+01
 20
-1.64343684E+02
  0
VERTEX
  8
0
 62
4
 10
-6.57158102E+01
 20
-1.64207920E+02
  0
VERTEX
  8
0
 62
4
 10
-6.56516116E+01
 20
-1.64068943E+02
  0
VERTEX
  8
0
 62
4
 10
-6.56128960E+01
 20
-1.63927808E+02
  0
VERTEX
  8
0
 62
4
 10
-6.55999580E+01
 20
-1.63785592E+02
  0
SEQEND
  8
0
  0
LINE
  8
0
  6
CENTER
 62
6
 10
-5.91663523E+01
 20
-1.47062332E+02
 11
-4.68335638E+01
 21
-1.47062332E+02
  0
LINE
  8
0
  6
CENTER
 62
6
 10
-5.29999580E+01
 20
-1.40895938E+02
 11
-5.29999580E+01
 21
-1.53228727E+02
  0
LINE
  8
0
 62
4
 10
-6.58176492E+01
 20
-1.64360085E+02
 11
-4.34999547E+01
 21
-1.64360085E+02
  0
LINE
  8
0
 62
4
 10
-7.94999576E+01
 20
-1.64360085E+02
 11
-7.21822669E+01
 21
-1.64360085E+02
  0
ARC
  8
0
 62
4
 10
-6.47643630E+01
 20
-1.53224838E+02
 40
1.21769740E+01
 50
2.40462101E+02
 51
2.58262147E+02
  0
ARC
  8
0
 62
4
 10
-7.32355530E+01
 20
-1.53224838E+02
 40
1.21769740E+01
 50
2.81737853E+02
 51
2.99537899E+02
  0
POLYLINE
  8
0
 62
4
 66
1
  0
VERTEX
  8
0
 62
4
 10
-6.55999580E+01
 20
-1.61889854E+02
  0
VERTEX
  8
0
 62
4
 10
-6.56136454E+01
 20
-1.61770769E+02
  0
VERTEX
  8
0
 62
4
 10
-6.56545974E+01
 20
-1.61652644E+02
  0
VERTEX
  8
0
 62
4
 10
-6.57224843E+01
 20
-1.61536428E+02
  0
VERTEX
  8
0
 62
4
 10
-6.58167594E+01
 20
-1.61423058E+02
  0
VERTEX
  8
0
 62
4
 10
-6.59366638E+01
 20
-1.61313446E+02
  0
VERTEX
  8
0
 62
4
 10
-6.60812321E+01
 20
-1.61208475E+02
  0
VERTEX
  8
0
 62
4
 10
-6.62493002E+01
 20
-1.61108990E+02
  0
VERTEX
  8
0
 62
4
 10
-6.64395150E+01
 20
-1.61015792E+02
  0
VERTEX
  8
0
 62
4
 10
-6.66503450E+01
 20
-1.60929631E+02
  0
VERTEX
  8
0
 62
4
 10
-6.68800927E+01
 20
-1.60851202E+02
  0
VERTEX
  8
0
 62
4
 10
-6.71269083E+01
 20
-1.60781135E+02
  0
VERTEX
  8
0
 62
4
 10
-6.73888045E+01
 20
-1.60719995E+02
  0
VERTEX
  8
0
 62
4
 10
-6.76636729E+01
 20
-1.60668274E+02
  0
VERTEX
  8
0
 62
4
 10
-6.79493002E+01
 20
-1.60626389E+02
  0
VERTEX
  8
0
 62
4
 10
-6.82433868E+01
 20
-1.60594676E+02
  0
VERTEX
  8
0
 62
4
 10
-6.85435649E+01
 20
-1.60573391E+02
  0
VERTEX
  8
0
 62
4
 10
-6.88474176E+01
 20
-1.60562706E+02
  0
VERTEX
  8
0
 62
4
 10
-6.91524984E+01
 20
-1.60562706E+02
  0
VERTEX
  8
0
 62
4
 10
-6.94563511E+01
 20
-1.60573391E+02
  0
VERTEX
  8
0
 62
4
 10
-6.97565292E+01
 20
-1.60594676E+02
  0
VERTEX
  8
0
 62
4
 10
-7.00506158E+01
 20
-1.60626389E+02
  0
VERTEX
  8
0
 62
4
 10
-7.03362431E+01
 20
-1.60668274E+02
  0
VERTEX
  8
0
 62
4
 10
-7.06111114E+01
 20
-1.60719995E+02
  0
VERTEX
  8
0
 62
4
 10
-7.08730077E+01
 20
-1.60781135E+02
  0
VERTEX
  8
0
 62
4
 10
-7.11198233E+01
 20
-1.60851202E+02
  0
VERTEX
  8
0
 62
4
 10
-7.13495710E+01
 20
-1.60929631E+02
  0
VERTEX
  8
0
 62
4
 10
-7.15604010E+01
 20
-1.61015792E+02
  0
VERTEX
  8
0
 62
4
 10
-7.17506158E+01
 20
-1.61108990E+02
  0
VERTEX
  8
0
 62
4
 10
-7.19186839E+01
 20
-1.61208475E+02
  0
VERTEX
  8
0
 62
4
 10
-7.20632521E+01
 20
-1.61313446E+02
  0
VERTEX
  8
0
 62
4
 10
-7.21831566E+01
 20
-1.61423058E+02
  0
VERTEX
  8
0
 62
4
 10
-7.22774317E+01
 20
-1.61536428E+02
  0
VERTEX
  8
0
 62
4
 10
-7.23453186E+01
 20
-1.61652644E+02
  0
VERTEX
  8
0
 62
4
 10
-7.23862706E+01
 20
-1.61770769E+02
  0
VERTEX
  8
0
 62
4
 10
-7.23999580E+01
 20
-1.61889854E+02
  0
SEQEND
  8
0
  0
LINE
  8
0
 62
4
 10
-7.29999580E+01
 20
-1.61429601E+02
 11
-7.29999580E+01
 21
-1.61889854E+02
  0
LINE
  8
0
 62
4
 10
-6.49999580E+01
 20
-1.61429601E+02
 11
-6.49999580E+01
 21
-1.61889854E+02
  0
POLYLINE
  8
0
 62
4
 66
1
  0
VERTEX
  8
0
 62
4
 10
-6.55999580E+01
 20
-1.62713176E+02
  0
VERTEX
  8
0
 62
4
 10
-6.54269060E+01
 20
-1.62592442E+02
  0
VERTEX
  8
0
 62
4
 10
-6.52818630E+01
 20
-1.62466202E+02
  0
VERTEX
  8
0
 62
4
 10
-6.51659662E+01
 20
-1.62335443E+02
  0
VERTEX
  8
0
 62
4
 10
-6.50801239E+01
 20
-1.62201191E+02
  0
VERTEX
  8
0
 62
4
 10
-6.50250091E+01
 20
-1.62064499E+02
  0
VERTEX
  8
0
 62
4
 10
-6.50010539E+01
 20
-1.61926437E+02
  0
VERTEX
  8
0
 62
4
 10
-6.50084461E+01
 20
-1.61788089E+02
  0
VERTEX
  8
0
 62
4
 10
-6.50471276E+01
 20
-1.61650539E+02
  0
VERTEX
  8
0
 62
4
 10
-6.51167953E+01
 20
-1.61514865E+02
  0
VERTEX
  8
0
 62
4
 10
-6.52169030E+01
 20
-1.61382130E+02
  0
VERTEX
  8
0
 62
4
 10
-6.53466661E+01
 20
-1.61253375E+02
  0
VERTEX
  8
0
 62
4
 10
-6.55050672E+01
 20
-1.61129609E+02
  0
VERTEX
  8
0
 62
4
 10
-6.56908647E+01
 20
-1.61011804E+02
  0
VERTEX
  8
0
 62
4
 10
-6.59026022E+01
 20
-1.60900881E+02
  0
VERTEX
  8
0
 62
4
 10
-6.61386198E+01
 20
-1.60797710E+02
  0
VERTEX
  8
0
 62
4
 10
-6.63970673E+01
 20
-1.60703101E+02
  0
VERTEX
  8
0
 62
4
 10
-6.66759189E+01
 20
-1.60617795E+02
  0
VERTEX
  8
0
 62
4
 10
-6.69729885E+01
 20
-1.60542461E+02
  0
VERTEX
  8
0
 62
4
 10
-6.72859476E+01
 20
-1.60477688E+02
  0
VERTEX
  8
0
 62
4
 10
-6.76123427E+01
 20
-1.60423986E+02
  0
VERTEX
  8
0
 62
4
 10
-6.79496154E+01
 20
-1.60381775E+02
  0
VERTEX
  8
0
 62
4
 10
-6.82951216E+01
 20
-1.60351385E+02
  0
VERTEX
  8
0
 62
4
 10
-6.86461531E+01
 20
-1.60333055E+02
  0
VERTEX
  8
0
 62
4
 10
-6.89999580E+01
 20
-1.60326929E+02
  0
VERTEX
  8
0
 62
4
 10
-6.93537629E+01
 20
-1.60333055E+02
  0
VERTEX
  8
0
 62
4
 10
-6.97047944E+01
 20
-1.60351385E+02
  0
VERTEX
  8
0
 62
4
 10
-7.00503006E+01
 20
-1.60381775E+02
  0
VERTEX
  8
0
 62
4
 10
-7.03875732E+01
 20
-1.60423986E+02
  0
VERTEX
  8
0
 62
4
 10
-7.07139684E+01
 20
-1.60477688E+02
  0
VERTEX
  8
0
 62
4
 10
-7.10269274E+01
 20
-1.60542461E+02
  0
VERTEX
  8
0
 62
4
 10
-7.13239971E+01
 20
-1.60617795E+02
  0
VERTEX
  8
0
 62
4
 10
-7.16028487E+01
 20
-1.60703101E+02
  0
VERTEX
  8
0
 62
4
 10
-7.18612962E+01
 20
-1.60797710E+02
  0
VERTEX
  8
0
 62
4
 10
-7.20973138E+01
 20
-1.60900881E+02
  0
VERTEX
  8
0
 62
4
 10
-7.23090512E+01
 20
-1.61011804E+02
  0
VERTEX
  8
0
 62
4
 10
-7.24948488E+01
 20
-1.61129609E+02
  0
VERTEX
  8
0
 62
4
 10
-7.26532499E+01
 20
-1.61253375E+02
  0
VERTEX
  8
0
 62
4
 10
-7.27830130E+01
 20
-1.61382130E+02
  0
VERTEX
  8
0
 62
4
 10
-7.28831207E+01
 20
-1.61514865E+02
  0
VERTEX
  8
0
 62
4
 10
-7.29527884E+01
 20
-1.61650539E+02
  0
VERTEX
  8
0
 62
4
 10
-7.29914699E+01
 20
-1.61788089E+02
  0
VERTEX
  8
0
 62
4
 10
-7.29988621E+01
 20
-1.61926437E+02
  0
VERTEX
  8
0
 62
4
 10
-7.29749069E+01
 20
-1.62064499E+02
  0
VERTEX
  8
0
 62
4
 10
-7.29197921E+01
 20
-1.62201191E+02
  0
VERTEX
  8
0
 62
4
 10
-7.28339498E+01
 20
-1.62335443E+02
  0
VERTEX
  8
0
 62
4
 10
-7.27180530E+01
 20
-1.62466202E+02
  0
VERTEX
  8
0
 62
4
 10
-7.25730100E+01
 20
-1.62592442E+02
  0
VERTEX
  8
0
 62
4
 10
-7.23999580E+01
 20
-1.62713176E+02
  0
SEQEND
  8
0
  0
POLYLINE
  8
0
 62
4
 66
1
  0
VERTEX
  8
0
 62
4
 10
-6.49999580E+01
 20
-1.61429601E+02
  0
VERTEX
  8
0
 62
4
 10
-6.50160608E+01
 20
-1.61289502E+02
  0
VERTEX
  8
0
 62
4
 10
-6.50642396E+01
 20
-1.61150530E+02
  0
VERTEX
  8
0
 62
4
 10
-6.51441066E+01
 20
-1.61013805E+02
  0
VERTEX
  8
0
 62
4
 10
-6.52550185E+01
 20
-1.60880429E+02
  0
VERTEX
  8
0
 62
4
 10
-6.53960825E+01
 20
-1.60751473E+02
  0
VERTEX
  8
0
 62
4
 10
-6.55661628E+01
 20
-1.60627978E+02
  0
VERTEX
  8
0
 62
4
 10
-6.57638900E+01
 20
-1.60510937E+02
  0
VERTEX
  8
0
 62
4
 10
-6.59876721E+01
 20
-1.60401292E+02
  0
VERTEX
  8
0
 62
4
 10
-6.62357074E+01
 20
-1.60299927E+02
  0
VERTEX
  8
0
 62
4
 10
-6.65059988E+01
 20
-1.60207657E+02
  0
VERTEX
  8
0
 62
4
 10
-6.67963701E+01
 20
-1.60125226E+02
  0
VERTEX
  8
0
 62
4
 10
-6.71044833E+01
 20
-1.60053297E+02
  0
VERTEX
  8
0
 62
4
 10
-6.74278579E+01
 20
-1.59992449E+02
  0
VERTEX
  8
0
 62
4
 10
-6.77638900E+01
 20
-1.59943171E+02
  0
VERTEX
  8
0
 62
4
 10
-6.81098743E+01
 20
-1.59905862E+02
  0
VERTEX
  8
0
 62
4
 10
-6.84630249E+01
 20
-1.59880821E+02
  0
VERTEX
  8
0
 62
4
 10
-6.88204987E+01
 20
-1.59868250E+02
  0
VERTEX
  8
0
 62
4
 10
-6.91794173E+01
 20
-1.59868250E+02
  0
VERTEX
  8
0
 62
4
 10
-6.95368911E+01
 20
-1.59880821E+02
  0
VERTEX
  8
0
 62
4
 10
-6.98900417E+01
 20
-1.59905862E+02
  0
VERTEX
  8
0
 62
4
 10
-7.02360260E+01
 20
-1.59943171E+02
  0
VERTEX
  8
0
 62
4
 10
-7.05720581E+01
 20
-1.59992449E+02
  0
VERTEX
  8
0
 62
4
 10
-7.08954326E+01
 20
-1.60053297E+02
  0
VERTEX
  8
0
 62
4
 10
-7.12035459E+01
 20
-1.60125226E+02
  0
VERTEX
  8
0
 62
4
 10
-7.14939172E+01
 20
-1.60207657E+02
  0
VERTEX
  8
0
 62
4
 10
-7.17642086E+01
 20
-1.60299927E+02
  0
VERTEX
  8
0
 62
4
 10
-7.20122439E+01
 20
-1.60401292E+02
  0
VERTEX
  8
0
 62
4
 10
-7.22360260E+01
 20
-1.60510937E+02
  0
VERTEX
  8
0
 62
4
 10
-7.24337532E+01
 20
-1.60627978E+02
  0
VERTEX
  8
0
 62
4
 10
-7.26038335E+01
 20
-1.60751473E+02
  0
VERTEX
  8
0
 62
4
 10
-7.27448975E+01
 20
-1.60880429E+02
  0
VERTEX
  8
0
 62
4
 10
-7.28558094E+01
 20
-1.61013805E+02
  0
VERTEX
  8
0
 62
4
 10
-7.29356764E+01
 20
-1.61150530E+02
  0
VERTEX
  8
0
 62
4
 10
-7.29838552E+01
 20
-1.61289502E+02
  0
VERTEX
  8
0
 62
4
 10
-7.29999580E+01
 20
-1.61429601E+02
  0
SEQEND
  8
0
  0
POLYLINE
  8
0
 62
4
 66
1
  0
VERTEX
  8
0
 62
4
 10
-6.59999580E+01
 20
-1.36121857E+02
  0
VERTEX
  8
0
 62
4
 10
-6.60113739E+01
 20
-1.35881175E+02
  0
VERTEX
  8
0
 62
4
 10
-6.60455347E+01
 20
-1.35642325E+02
  0
VERTEX
  8
0
 62
4
 10
-6.61021805E+01
 20
-1.35407124E+02
  0
VERTEX
  8
0
 62
4
 10
-6.61808801E+01
 20
-1.35177363E+02
  0
VERTEX
  8
0
 62
4
 10
-6.62810346E+01
 20
-1.34954791E+02
  0
VERTEX
  8
0
 62
4
 10
-6.64018818E+01
 20
-1.34741100E+02
  0
VERTEX
  8
0
 62
4
 10
-6.65425019E+01
 20
-1.34537917E+02
  0
VERTEX
  8
0
 62
4
 10
-6.67018247E+01
 20
-1.34346790E+02
  0
VERTEX
  8
0
 62
4
 10
-6.68786377E+01
 20
-1.34169171E+02
  0
VERTEX
  8
0
 62
4
 10
-6.70715952E+01
 20
-1.34006414E+02
  0
VERTEX
  8
0
 62
4
 10
-6.72792287E+01
 20
-1.33859757E+02
  0
VERTEX
  8
0
 62
4
 10
-6.74999580E+01
 20
-1.33730315E+02
  0
VERTEX
  8
0
 62
4
 10
-6.77321032E+01
 20
-1.33619075E+02
  0
VERTEX
  8
0
 62
4
 10
-6.79738976E+01
 20
-1.33526882E+02
  0
VERTEX
  8
0
 62
4
 10
-6.82235009E+01
 20
-1.33454439E+02
  0
VERTEX
  8
0
 62
4
 10
-6.84790135E+01
 20
-1.33402296E+02
  0
VERTEX
  8
0
 62
4
 10
-6.87384908E+01
 20
-1.33370851E+02
  0
VERTEX
  8
0
 62
4
 10
-6.89999580E+01
 20
-1.33360342E+02
  0
VERTEX
  8
0
 62
4
 10
-6.92614252E+01
 20
-1.33370851E+02
  0
VERTEX
  8
0
 62
4
 10
-6.95209025E+01
 20
-1.33402296E+02
  0
VERTEX
  8
0
 62
4
 10
-6.97764151E+01
 20
-1.33454439E+02
  0
VERTEX
  8
0
 62
4
 10
-7.00260184E+01
 20
-1.33526882E+02
  0
VERTEX
  8
0
 62
4
 10
-7.02678128E+01
 20
-1.33619075E+02
  0
VERTEX
  8
0
 62
4
 10
-7.04999580E+01
 20
-1.33730315E+02
  0
VERTEX
  8
0
 62
4
 10
-7.07206873E+01
 20
-1.33859757E+02
  0
VERTEX
  8
0
 62
4
 10
-7.09283208E+01
 20
-1.34006414E+02
  0
VERTEX
  8
0
 62
4
 10
-7.11212783E+01
 20
-1.34169171E+02
  0
VERTEX
  8
0
 62
4
 10
-7.12980913E+01
 20
-1.34346790E+02
  0
VERTEX
  8
0
 62
4
 10
-7.14574141E+01
 20
-1.34537917E+02
  0
VERTEX
  8
0
 62
4
 10
-7.15980342E+01
 20
-1.34741100E+02
  0
VERTEX
  8
0
 62
4
 10
-7.17188814E+01
 20
-1.34954791E+02
  0
VERTEX
  8
0
 62
4
 10
-7.18190359E+01
 20
-1.35177363E+02
  0
VERTEX
  8
0
 62
4
 10
-7.18977355E+01
 20
-1.35407124E+02
  0
VERTEX
  8
0
 62
4
 10
-7.19543813E+01
 20
-1.35642325E+02
  0
VERTEX
  8
0
 62
4
 10
-7.19885421E+01
 20
-1.35881175E+02
  0
VERTEX
  8
0
 62
4
 10
-7.19999580E+01
 20
-1.36121857E+02
  0
VERTEX
  8
0
 62
4
 10
-7.19885421E+01
 20
-1.36362539E+02
  0
VERTEX
  8
0
 62
4
 10
-7.19543813E+01
 20
-1.36601389E+02
  0
VERTEX
  8
0
 62
4
 10
-7.18977355E+01
 20
-1.36836590E+02
  0
VERTEX
  8
0
 62
4
 10
-7.18190359E+01
 20
-1.37066351E+02
  0
VERTEX
  8
0
 62
4
 10
-7.17188814E+01
 20
-1.37288923E+02
  0
VERTEX
  8
0
 62
4
 10
-7.15980342E+01
 20
-1.37502614E+02
  0
VERTEX
  8
0
 62
4
 10
-7.14574141E+01
 20
-1.37705797E+02
  0
VERTEX
  8
0
 62
4
 10
-7.12980913E+01
 20
-1.37896924E+02
  0
VERTEX
  8
0
 62
4
 10
-7.11212783E+01
 20
-1.38074543E+02
  0
VERTEX
  8
0
 62
4
 10
-7.09283208E+01
 20
-1.38237300E+02
  0
VERTEX
  8
0
 62
4
 10
-7.07206873E+01
 20
-1.38383957E+02
  0
VERTEX
  8
0
 62
4
 10
-7.04999580E+01
 20
-1.38513399E+02
  0
VERTEX
  8
0
 62
4
 10
-7.02678128E+01
 20
-1.38624639E+02
  0
VERTEX
  8
0
 62
4
 10
-7.00260184E+01
 20
-1.38716832E+02
  0
VERTEX
  8
0
 62
4
 10
-6.97764151E+01
 20
-1.38789275E+02
  0
VERTEX
  8
0
 62
4
 10
-6.95209025E+01
 20
-1.38841418E+02
  0
VERTEX
  8
0
 62
4
 10
-6.92614252E+01
 20
-1.38872863E+02
  0
VERTEX
  8
0
 62
4
 10
-6.89999580E+01
 20
-1.38883372E+02
  0
VERTEX
  8
0
 62
4
 10
-6.87384908E+01
 20
-1.38872863E+02
  0
VERTEX
  8
0
 62
4
 10
-6.84790135E+01
 20
-1.38841418E+02
  0
VERTEX
  8
0
 62
4
 10
-6.82235009E+01
 20
-1.38789275E+02
  0
VERTEX
  8
0
 62
4
 10
-6.79738976E+01
 20
-1.38716832E+02
  0
VERTEX
  8
0
 62
4
 10
-6.77321032E+01
 20
-1.38624639E+02
  0
VERTEX
  8
0
 62
4
 10
-6.74999580E+01
 20
-1.38513399E+02
  0
VERTEX
  8
0
 62
4
 10
-6.72792287E+01
 20
-1.38383957E+02
  0
VERTEX
  8
0
 62
4
 10
-6.70715952E+01
 20
-1.38237300E+02
  0
VERTEX
  8
0
 62
4
 10
-6.68786377E+01
 20
-1.38074543E+02
  0
VERTEX
  8
0
 62
4
 10
-6.67018247E+01
 20
-1.37896924E+02
  0
VERTEX
  8
0
 62
4
 10
-6.65425019E+01
 20
-1.37705797E+02
  0
VERTEX
  8
0
 62
4
 10
-6.64018818E+01
 20
-1.37502614E+02
  0
VERTEX
  8
0
 62
4
 10
-6.62810346E+01
 20
-1.37288923E+02
  0
VERTEX
  8
0
 62
4
 10
-6.61808801E+01
 20
-1.37066351E+02
  0
VERTEX
  8
0
 62
4
 10
-6.61021805E+01
 20
-1.36836590E+02
  0
VERTEX
  8
0
 62
4
 10
-6.60455347E+01
 20
-1.36601389E+02
  0
VERTEX
  8
0
 62
4
 10
-6.60113739E+01
 20
-1.36362539E+02
  0
VERTEX
  8
0
 62
4
 10
-6.59999580E+01
 20
-1.36121857E+02
  0
SEQEND
  8
0
  0
LINE
  8
0
  6
CENTER
 62
6
 10
-7.34684369E+01
 20
-1.36121857E+02
 11
-6.45314792E+01
 21
-1.36121857E+02
  0
LINE
  8
0
 62
4
 10
-8.59999580E+01
 20
-1.31966245E+02
 11
-8.59999580E+01
 21
-1.44966245E+02
  0
ARC
  8
0
 62
4
 10
-8.54999585E+01
 20
-1.31966245E+02
 40
4.99999542E-01
 50
8.99999475E+01
 51
1.80000053E+02
  0
LINE
  8
0
 62
4
 10
-7.64999580E+01
 20
-1.31466245E+02
 11
-8.54999580E+01
 21
-1.31466245E+02
  0
LINE
  8
0
 62
4
 10
-9.59999580E+01
 20
-1.45918674E+02
 11
-9.09999580E+01
 21
-1.45918674E+02
  0
LINE
  8
0
 62
4
 10
-9.59999580E+01
 20
-1.42984283E+02
 11
-9.09999580E+01
 21
-1.42984283E+02
  0
LINE
  8
0
 62
4
 10
-9.59999580E+01
 20
-1.35535760E+02
 11
-9.09999580E+01
 21
-1.35535760E+02
  0
ARC
  8
0
 62
4
 10
-7.94999576E+01
 20
-1.62860084E+02
 40
1.50000046E+00
 50
1.80000018E+02
 51
2.69999983E+02
  0
ARC
  8
0
 62
4
 10
-4.34999547E+01
 20
-1.62860088E+02
 40
1.49999664E+00
 50
2.69999872E+02
 51
1.28225561E-04
  0
LINE
  8
0
 62
4
 10
-5.94999580E+01
 20
-1.37185095E+02
 11
-4.34999580E+01
 21
-1.37185095E+02
  0
LINE
  8
0
 62
4
 10
-6.14999580E+01
 20
-1.37145339E+02
 11
-5.94999580E+01
 21
-1.37145339E+02
  0
LINE
  8
0
 62
4
 10
-5.94999580E+01
 20
-1.37145339E+02
 11
-5.94999580E+01
 21
-1.56197841E+02
  0
LINE
  8
0
 62
4
 10
-7.64999580E+01
 20
-1.52793921E+02
 11
-6.14999580E+01
 21
-1.52793921E+02
  0
LINE
  8
0
 62
4
 10
-7.64999580E+01
 20
-1.43025643E+02
 11
-6.14999580E+01
 21
-1.43025643E+02
  0
ARC
  8
0
 62
4
 10
-8.54999538E+01
 20
-1.44966241E+02
 40
5.00004272E-01
 50
1.80000490E+02
 51
2.69999511E+02
  0
ARC
  8
0
 62
4
 10
-4.34999614E+01
 20
-1.38685098E+02
 40
1.50000336E+00
 50
1.28225275E-04
 51
8.99998718E+01
  0
LINE
  8
0
 62
4
 10
-7.94999580E+01
 20
-1.58499118E+02
 11
-4.34999580E+01
 21
-1.58499118E+02
  0
LINE
  8
0
 62
4
 10
-7.84999580E+01
 20
-1.54634931E+02
 11
-5.94999580E+01
 21
-1.54634931E+02
  0
LINE
  8
0
 62
4
 10
-8.09999580E+01
 20
-1.45466245E+02
 11
-8.09999580E+01
 21
-1.62860085E+02
  0
LINE
  8
0
 62
4
 10
-7.84999580E+01
 20
-1.45466245E+02
 11
-7.84999580E+01
 21
-1.56197841E+02
  0
LINE
  8
0
 62
4
 10
-4.19999580E+01
 20
-1.38685095E+02
 11
-4.19999580E+01
 21
-1.62860085E+02
  0
LINE
  8
0
 62
4
 10
-9.59999580E+01
 20
-1.31017720E+02
 11
-9.09999580E+01
 21
-1.31017720E+02
  0
LINE
  8
0
 62
4
 10
-7.64999580E+01
 20
-1.29218070E+02
 11
-6.14999580E+01
 21
-1.29218070E+02
  0
LINE
  8
0
 62
4
 10
-8.94999580E+01
 20
-1.44216245E+02
 11
-8.59999580E+01
 21
-1.44216245E+02
  0
LINE
  8
0
 62
4
 10
-8.94999580E+01
 20
-1.32716245E+02
 11
-8.59999580E+01
 21
-1.32716245E+02
  0
LINE
  8
0
 62
4
 10
-8.94999580E+01
 20
-1.32216245E+02
 11
-8.94999580E+01
 21
-1.44716245E+02
  0
LINE
  8
0
 62
4
 10
-9.09999580E+01
 20
-1.44716245E+02
 11
-8.59999580E+01
 21
-1.44716245E+02
  0
LINE
  8
0
 62
4
 10
-9.09999580E+01
 20
-1.32216245E+02
 11
-8.59999580E+01
 21
-1.32216245E+02
  0
LINE
  8
0
 62
4
 10
-9.09999580E+01
 20
-1.45918674E+02
 11
-9.09999580E+01
 21
-1.31017720E+02
  0
LINE
  8
0
 62
4
 10
-9.59999580E+01
 20
-1.31017720E+02
 11
-9.59999580E+01
 21
-1.45918674E+02
  0
LINE
  8
0
 62
4
 10
-8.54999580E+01
 20
-1.45466245E+02
 11
-7.64999580E+01
 21
-1.45466245E+02
  0
LINE
  8
0
  6
CENTER
 62
6
 10
-6.89999580E+01
 20
-1.22105166E+02
 11
-6.89999580E+01
 21
-1.74500000E+02
  0
LINE
  8
0
 62
4
 10
-7.23999580E+01
 20
-1.63785592E+02
 11
-7.23999580E+01
 21
-1.61889854E+02
  0
LINE
  8
0
 62
4
 10
-6.55999580E+01
 20
-1.61889854E+02
 11
-6.55999580E+01
 21
-1.63785592E+02
  0
LINE
  8
0
  6
CENTER
 62
6
 10
-7.29999580E+01
 20
-1.20345885E+02
 11
-7.29999580E+01
 21
-1.30845885E+02
  0
LINE
  8
0
 62
4
 10
-6.14999580E+01
 20
-1.24025885E+02
 11
-7.64999580E+01
 21
-1.24025885E+02
  0
LINE
  8
0
 62
4
 10
-6.14999580E+01
 20
-1.24025885E+02
 11
-6.14999580E+01
 21
-1.52793921E+02
  0
LINE
  8
0
 62
4
 10
-7.64999580E+01
 20
-1.24025885E+02
 11
-7.64999580E+01
 21
-1.52793921E+02
  0
LINE
  8
0
  6
CENTER
 62
6
 10
-6.49999580E+01
 20
-1.20345885E+02
 11
-6.49999580E+01
 21
-1.30845885E+02
  0
LINE
  8
0
 62
4
 10
3.18139950E+02
 20
-2.89069941E+02
 11
3.18447251E+02
 21
-2.89754023E+02
  0
LINE
  8
0
 62
4
 10
3.11859950E+02
 20
-2.89069941E+02
 11
3.11552650E+02
 21
-2.89754023E+02
  0
POLYLINE
  8
0
 62
4
 66
1
  0
VERTEX
  8
0
 62
4
 10
3.11552650E+02
 20
-2.89754023E+02
  0
VERTEX
  8
0
 62
4
 10
3.11512376E+02
 20
-2.89875313E+02
  0
VERTEX
  8
0
 62
4
 10
3.11499997E+02
 20
-2.89997524E+02
  0
VERTEX
  8
0
 62
4
 10
3.11515612E+02
 20
-2.90119678E+02
  0
VERTEX
  8
0
 62
4
 10
3.11559097E+02
 20
-2.90240799E+02
  0
VERTEX
  8
0
 62
4
 10
3.11630104E+02
 20
-2.90359917E+02
  0
VERTEX
  8
0
 62
4
 10
3.11728064E+02
 20
-2.90476080E+02
  0
VERTEX
  8
0
 62
4
 10
3.11852194E+02
 20
-2.90588358E+02
  0
VERTEX
  8
0
 62
4
 10
3.12001502E+02
 20
-2.90695855E+02
  0
VERTEX
  8
0
 62
4
 10
3.12174792E+02
 20
-2.90797709E+02
  0
VERTEX
  8
0
 62
4
 10
3.12370680E+02
 20
-2.90893106E+02
  0
VERTEX
  8
0
 62
4
 10
3.12587598E+02
 20
-2.90981283E+02
  0
VERTEX
  8
0
 62
4
 10
3.12823810E+02
 20
-2.91061535E+02
  0
VERTEX
  8
0
 62
4
 10
3.13077429E+02
 20
-2.91133220E+02
  0
VERTEX
  8
0
 62
4
 10
3.13346425E+02
 20
-2.91195765E+02
  0
VERTEX
  8
0
 62
4
 10
3.13628647E+02
 20
-2.91248669E+02
  0
VERTEX
  8
0
 62
4
 10
3.13921837E+02
 20
-2.91291509E+02
  0
VERTEX
  8
0
 62
4
 10
3.14223650E+02
 20
-2.91323942E+02
  0
VERTEX
  8
0
 62
4
 10
3.14531672E+02
 20
-2.91345710E+02
  0
VERTEX
  8
0
 62
4
 10
3.14843440E+02
 20
-2.91356637E+02
  0
VERTEX
  8
0
 62
4
 10
3.15156460E+02
 20
-2.91356637E+02
  0
VERTEX
  8
0
 62
4
 10
3.15468228E+02
 20
-2.91345710E+02
  0
VERTEX
  8
0
 62
4
 10
3.15776250E+02
 20
-2.91323942E+02
  0
VERTEX
  8
0
 62
4
 10
3.16078063E+02
 20
-2.91291509E+02
  0
VERTEX
  8
0
 62
4
 10
3.16371253E+02
 20
-2.91248669E+02
  0
VERTEX
  8
0
 62
4
 10
3.16653475E+02
 20
-2.91195765E+02
  0
VERTEX
  8
0
 62
4
 10
3.16922471E+02
 20
-2.91133220E+02
  0
VERTEX
  8
0
 62
4
 10
3.17176089E+02
 20
-2.91061535E+02
  0
VERTEX
  8
0
 62
4
 10
3.17412302E+02
 20
-2.90981283E+02
  0
VERTEX
  8
0
 62
4
 10
3.17629220E+02
 20
-2.90893106E+02
  0
VERTEX
  8
0
 62
4
 10
3.17825108E+02
 20
-2.90797709E+02
  0
VERTEX
  8
0
 62
4
 10
3.17998398E+02
 20
-2.90695855E+02
  0
VERTEX
  8
0
 62
4
 10
3.18147706E+02
 20
-2.90588358E+02
  0
VERTEX
  8
0
 62
4
 10
3.18271836E+02
 20
-2.90476080E+02
  0
VERTEX
  8
0
 62
4
 10
3.18369796E+02
 20
-2.90359917E+02
  0
VERTEX
  8
0
 62
4
 10
3.18440803E+02
 20
-2.90240799E+02
  0
VERTEX
  8
0
 62
4
 10
3.18484288E+02
 20
-2.90119678E+02
  0
VERTEX
  8
0
 62
4
 10
3.18499903E+02
 20
-2.89997524E+02
  0
VERTEX
  8
0
 62
4
 10
3.18487524E+02
 20
-2.89875313E+02
  0
VERTEX
  8
0
 62
4
 10
3.18447250E+02
 20
-2.89754023E+02
  0
SEQEND
  8
0
  0
POLYLINE
  8
0
 62
4
 66
1
  0
VERTEX
  8
0
 62
4
 10
3.18139950E+02
 20
-2.89069941E+02
  0
VERTEX
  8
0
 62
4
 10
3.18128001E+02
 20
-2.88963010E+02
  0
VERTEX
  8
0
 62
4
 10
3.18092246E+02
 20
-2.88856893E+02
  0
VERTEX
  8
0
 62
4
 10
3.18032957E+02
 20
-2.88752397E+02
  0
VERTEX
  8
0
 62
4
 10
3.17950585E+02
 20
-2.88650318E+02
  0
VERTEX
  8
0
 62
4
 10
3.17845756E+02
 20
-2.88551432E+02
  0
VERTEX
  8
0
 62
4
 10
3.17719270E+02
 20
-2.88456493E+02
  0
VERTEX
  8
0
 62
4
 10
3.17572087E+02
 20
-2.88366223E+02
  0
VERTEX
  8
0
 62
4
 10
3.17405330E+02
 20
-2.88281308E+02
  0
VERTEX
  8
0
 62
4
 10
3.17220265E+02
 20
-2.88202395E+02
  0
VERTEX
  8
0
 62
4
 10
3.17018303E+02
 20
-2.88130084E+02
  0
VERTEX
  8
0
 62
4
 10
3.16800980E+02
 20
-2.88064927E+02
  0
VERTEX
  8
0
 62
4
 10
3.16569950E+02
 20
-2.88007418E+02
  0
VERTEX
  8
0
 62
4
 10
3.16326971E+02
 20
-2.87957996E+02
  0
VERTEX
  8
0
 62
4
 10
3.16073893E+02
 20
-2.87917036E+02
  0
VERTEX
  8
0
 62
4
 10
3.15812642E+02
 20
-2.87884851E+02
  0
VERTEX
  8
0
 62
4
 10
3.15545205E+02
 20
-2.87861685E+02
  0
VERTEX
  8
0
 62
4
 10
3.15273619E+02
 20
-2.87847714E+02
  0
VERTEX
  8
0
 62
4
 10
3.14999950E+02
 20
-2.87843045E+02
  0
VERTEX
  8
0
 62
4
 10
3.14726281E+02
 20
-2.87847714E+02
  0
VERTEX
  8
0
 62
4
 10
3.14454695E+02
 20
-2.87861685E+02
  0
VERTEX
  8
0
 62
4
 10
3.14187258E+02
 20
-2.87884851E+02
  0
VERTEX
  8
0
 62
4
 10
3.13926007E+02
 20
-2.87917036E+02
  0
VERTEX
  8
0
 62
4
 10
3.13672929E+02
 20
-2.87957996E+02
  0
VERTEX
  8
0
 62
4
 10
3.13429950E+02
 20
-2.88007418E+02
  0
VERTEX
  8
0
 62
4
 10
3.13198920E+02
 20
-2.88064927E+02
  0
VERTEX
  8
0
 62
4
 10
3.12981597E+02
 20
-2.88130084E+02
  0
VERTEX
  8
0
 62
4
 10
3.12779635E+02
 20
-2.88202395E+02
  0
VERTEX
  8
0
 62
4
 10
3.12594570E+02
 20
-2.88281308E+02
  0
VERTEX
  8
0
 62
4
 10
3.12427813E+02
 20
-2.88366223E+02
  0
VERTEX
  8
0
 62
4
 10
3.12280630E+02
 20
-2.88456493E+02
  0
VERTEX
  8
0
 62
4
 10
3.12154144E+02
 20
-2.88551432E+02
  0
VERTEX
  8
0
 62
4
 10
3.12049315E+02
 20
-2.88650318E+02
  0
VERTEX
  8
0
 62
4
 10
3.11966943E+02
 20
-2.88752397E+02
  0
VERTEX
  8
0
 62
4
 10
3.11907654E+02
 20
-2.88856893E+02
  0
VERTEX
  8
0
 62
4
 10
3.11871899E+02
 20
-2.88963010E+02
  0
VERTEX
  8
0
 62
4
 10
3.11859950E+02
 20
-2.89069941E+02
  0
VERTEX
  8
0
 62
4
 10
3.11871899E+02
 20
-2.89176872E+02
  0
VERTEX
  8
0
 62
4
 10
3.11907654E+02
 20
-2.89282989E+02
  0
VERTEX
  8
0
 62
4
 10
3.11966943E+02
 20
-2.89387485E+02
  0
VERTEX
  8
0
 62
4
 10
3.12049315E+02
 20
-2.89489564E+02
  0
VERTEX
  8
0
 62
4
 10
3.12154144E+02
 20
-2.89588450E+02
  0
VERTEX
  8
0
 62
4
 10
3.12280630E+02
 20
-2.89683389E+02
  0
VERTEX
  8
0
 62
4
 10
3.12427813E+02
 20
-2.89773659E+02
  0
VERTEX
  8
0
 62
4
 10
3.12594570E+02
 20
-2.89858574E+02
  0
VERTEX
  8
0
 62
4
 10
3.12779635E+02
 20
-2.89937487E+02
  0
VERTEX
  8
0
 62
4
 10
3.12981597E+02
 20
-2.90009798E+02
  0
VERTEX
  8
0
 62
4
 10
3.13198920E+02
 20
-2.90074955E+02
  0
VERTEX
  8
0
 62
4
 10
3.13429950E+02
 20
-2.90132464E+02
  0
VERTEX
  8
0
 62
4
 10
3.13672929E+02
 20
-2.90181886E+02
  0
VERTEX
  8
0
 62
4
 10
3.13926007E+02
 20
-2.90222846E+02
  0
VERTEX
  8
0
 62
4
 10
3.14187258E+02
 20
-2.90255031E+02
  0
VERTEX
  8
0
 62
4
 10
3.14454695E+02
 20
-2.90278197E+02
  0
VERTEX
  8
0
 62
4
 10
3.14726281E+02
 20
-2.90292168E+02
  0
VERTEX
  8
0
 62
4
 10
3.14999950E+02
 20
-2.90296837E+02
  0
VERTEX
  8
0
 62
4
 10
3.15273619E+02
 20
-2.90292168E+02
  0
VERTEX
  8
0
 62
4
 10
3.15545205E+02
 20
-2.90278197E+02
  0
VERTEX
  8
0
 62
4
 10
3.15812642E+02
 20
-2.90255031E+02
  0
VERTEX
  8
0
 62
4
 10
3.16073893E+02
 20
-2.90222846E+02
  0
VERTEX
  8
0
 62
4
 10
3.16326971E+02
 20
-2.90181886E+02
  0
VERTEX
  8
0
 62
4
 10
3.16569950E+02
 20
-2.90132464E+02
  0
VERTEX
  8
0
 62
4
 10
3.16800980E+02
 20
-2.90074955E+02
  0
VERTEX
  8
0
 62
4
 10
3.17018303E+02
 20
-2.90009798E+02
  0
VERTEX
  8
0
 62
4
 10
3.17220265E+02
 20
-2.89937487E+02
  0
VERTEX
  8
0
 62
4
 10
3.17405330E+02
 20
-2.89858574E+02
  0
VERTEX
  8
0
 62
4
 10
3.17572087E+02
 20
-2.89773659E+02
  0
VERTEX
  8
0
 62
4
 10
3.17719270E+02
 20
-2.89683389E+02
  0
VERTEX
  8
0
 62
4
 10
3.17845756E+02
 20
-2.89588450E+02
  0
VERTEX
  8
0
 62
4
 10
3.17950585E+02
 20
-2.89489564E+02
  0
VERTEX
  8
0
 62
4
 10
3.18032957E+02
 20
-2.89387485E+02
  0
VERTEX
  8
0
 62
4
 10
3.18092246E+02
 20
-2.89282989E+02
  0
VERTEX
  8
0
 62
4
 10
3.18128001E+02
 20
-2.89176872E+02
  0
VERTEX
  8
0
 62
4
 10
3.18139950E+02
 20
-2.89069941E+02
  0
SEQEND
  8
0
  0
LINE
  8
0
  6
CENTER
 62
6
 10
3.14999950E+02
 20
-2.85236745E+02
 11
3.14999950E+02
 21
-2.89069941E+02
  0
LINE
  8
0
 62
4
 10
3.57999950E+02
 20
-2.75731826E+02
 11
3.52999950E+02
 21
-2.75731826E+02
  0
LINE
  8
0
 62
4
 10
3.57999950E+02
 20
-2.74819685E+02
 11
3.52999950E+02
 21
-2.74819685E+02
  0
LINE
  8
0
 62
4
 10
3.57999950E+02
 20
-2.67906693E+02
 11
3.52999950E+02
 21
-2.67906693E+02
  0
LINE
  8
0
 62
4
 10
3.41499950E+02
 20
-2.92422316E+02
 11
3.41499950E+02
 21
-2.87381862E+02
  0
LINE
  8
0
 62
4
 10
3.05499959E+02
 20
-2.92422316E+02
 11
3.05499959E+02
 21
-2.87381862E+02
  0
POLYLINE
  8
0
 62
4
 66
1
  0
VERTEX
  8
0
 62
4
 10
3.36734950E+02
 20
-3.21735521E+02
  0
VERTEX
  8
0
 62
4
 10
3.36728348E+02
 20
-3.21596327E+02
  0
VERTEX
  8
0
 62
4
 10
3.36708591E+02
 20
-3.21458192E+02
  0
VERTEX
  8
0
 62
4
 10
3.36675831E+02
 20
-3.21322167E+02
  0
VERTEX
  8
0
 62
4
 10
3.36630317E+02
 20
-3.21189289E+02
  0
VERTEX
  8
0
 62
4
 10
3.36572394E+02
 20
-3.21060568E+02
  0
VERTEX
  8
0
 62
4
 10
3.36502504E+02
 20
-3.20936983E+02
  0
VERTEX
  8
0
 62
4
 10
3.36421179E+02
 20
-3.20819476E+02
  0
VERTEX
  8
0
 62
4
 10
3.36329037E+02
 20
-3.20708940E+02
  0
VERTEX
  8
0
 62
4
 10
3.36226780E+02
 20
-3.20606218E+02
  0
VERTEX
  8
0
 62
4
 10
3.36115187E+02
 20
-3.20512090E+02
  0
VERTEX
  8
0
 62
4
 10
3.35995105E+02
 20
-3.20427273E+02
  0
VERTEX
  8
0
 62
4
 10
3.35867450E+02
 20
-3.20352413E+02
  0
VERTEX
  8
0
 62
4
 10
3.35733193E+02
 20
-3.20288079E+02
  0
VERTEX
  8
0
 62
4
 10
3.35593355E+02
 20
-3.20234761E+02
  0
VERTEX
  8
0
 62
4
 10
3.35449001E+02
 20
-3.20192864E+02
  0
VERTEX
  8
0
 62
4
 10
3.35301230E+02
 20
-3.20162708E+02
  0
VERTEX
  8
0
 62
4
 10
3.35151165E+02
 20
-3.20144522E+02
  0
VERTEX
  8
0
 62
4
 10
3.34999950E+02
 20
-3.20138445E+02
  0
VERTEX
  8
0
 62
4
 10
3.34848735E+02
 20
-3.20144522E+02
  0
VERTEX
  8
0
 62
4
 10
3.34698670E+02
 20
-3.20162708E+02
  0
VERTEX
  8
0
 62
4
 10
3.34550899E+02
 20
-3.20192864E+02
  0
VERTEX
  8
0
 62
4
 10
3.34406545E+02
 20
-3.20234761E+02
  0
VERTEX
  8
0
 62
4
 10
3.34266707E+02
 20
-3.20288079E+02
  0
VERTEX
  8
0
 62
4
 10
3.34132450E+02
 20
-3.20352413E+02
  0
VERTEX
  8
0
 62
4
 10
3.34004795E+02
 20
-3.20427273E+02
  0
VERTEX
  8
0
 62
4
 10
3.33884713E+02
 20
-3.20512090E+02
  0
VERTEX
  8
0
 62
4
 10
3.33773120E+02
 20
-3.20606218E+02
  0
VERTEX
  8
0
 62
4
 10
3.33670863E+02
 20
-3.20708940E+02
  0
VERTEX
  8
0
 62
4
 10
3.33578721E+02
 20
-3.20819476E+02
  0
VERTEX
  8
0
 62
4
 10
3.33497396E+02
 20
-3.20936983E+02
  0
VERTEX
  8
0
 62
4
 10
3.33427506E+02
 20
-3.21060568E+02
  0
VERTEX
  8
0
 62
4
 10
3.33369583E+02
 20
-3.21189289E+02
  0
VERTEX
  8
0
 62
4
 10
3.33324069E+02
 20
-3.21322167E+02
  0
VERTEX
  8
0
 62
4
 10
3.33291309E+02
 20
-3.21458192E+02
  0
VERTEX
  8
0
 62
4
 10
3.33271552E+02
 20
-3.21596327E+02
  0
VERTEX
  8
0
 62
4
 10
3.33264950E+02
 20
-3.21735521E+02
  0
VERTEX
  8
0
 62
4
 10
3.33271552E+02
 20
-3.21874715E+02
  0
VERTEX
  8
0
 62
4
 10
3.33291309E+02
 20
-3.22012850E+02
  0
VERTEX
  8
0
 62
4
 10
3.33324069E+02
 20
-3.22148875E+02
  0
VERTEX
  8
0
 62
4
 10
3.33369583E+02
 20
-3.22281753E+02
  0
VERTEX
  8
0
 62
4
 10
3.33427506E+02
 20
-3.22410474E+02
  0
VERTEX
  8
0
 62
4
 10
3.33497396E+02
 20
-3.22534059E+02
  0
VERTEX
  8
0
 62
4
 10
3.33578721E+02
 20
-3.22651566E+02
  0
VERTEX
  8
0
 62
4
 10
3.33670863E+02
 20
-3.22762102E+02
  0
VERTEX
  8
0
 62
4
 10
3.33773120E+02
 20
-3.22864824E+02
  0
VERTEX
  8
0
 62
4
 10
3.33884713E+02
 20
-3.22958952E+02
  0
VERTEX
  8
0
 62
4
 10
3.34004795E+02
 20
-3.23043769E+02
  0
VERTEX
  8
0
 62
4
 10
3.34132450E+02
 20
-3.23118629E+02
  0
VERTEX
  8
0
 62
4
 10
3.34266707E+02
 20
-3.23182963E+02
  0
VERTEX
  8
0
 62
4
 10
3.34406545E+02
 20
-3.23236281E+02
  0
VERTEX
  8
0
 62
4
 10
3.34550899E+02
 20
-3.23278178E+02
  0
VERTEX
  8
0
 62
4
 10
3.34698670E+02
 20
-3.23308334E+02
  0
VERTEX
  8
0
 62
4
 10
3.34848735E+02
 20
-3.23326520E+02
  0
VERTEX
  8
0
 62
4
 10
3.34999950E+02
 20
-3.23332597E+02
  0
VERTEX
  8
0
 62
4
 10
3.35151165E+02
 20
-3.23326520E+02
  0
VERTEX
  8
0
 62
4
 10
3.35301230E+02
 20
-3.23308334E+02
  0
VERTEX
  8
0
 62
4
 10
3.35449001E+02
 20
-3.23278178E+02
  0
VERTEX
  8
0
 62
4
 10
3.35593355E+02
 20
-3.23236281E+02
  0
VERTEX
  8
0
 62
4
 10
3.35733193E+02
 20
-3.23182963E+02
  0
VERTEX
  8
0
 62
4
 10
3.35867450E+02
 20
-3.23118629E+02
  0
VERTEX
  8
0
 62
4
 10
3.35995105E+02
 20
-3.23043769E+02
  0
VERTEX
  8
0
 62
4
 10
3.36115187E+02
 20
-3.22958952E+02
  0
VERTEX
  8
0
 62
4
 10
3.36226780E+02
 20
-3.22864824E+02
  0
VERTEX
  8
0
 62
4
 10
3.36329037E+02
 20
-3.22762102E+02
  0
VERTEX
  8
0
 62
4
 10
3.36421179E+02
 20
-3.22651566E+02
  0
VERTEX
  8
0
 62
4
 10
3.36502504E+02
 20
-3.22534059E+02
  0
VERTEX
  8
0
 62
4
 10
3.36572394E+02
 20
-3.22410474E+02
  0
VERTEX
  8
0
 62
4
 10
3.36630317E+02
 20
-3.22281753E+02
  0
VERTEX
  8
0
 62
4
 10
3.36675831E+02
 20
-3.22148875E+02
  0
VERTEX
  8
0
 62
4
 10
3.36708591E+02
 20
-3.22012850E+02
  0
VERTEX
  8
0
 62
4
 10
3.36728348E+02
 20
-3.21874715E+02
  0
VERTEX
  8
0
 62
4
 10
3.36734950E+02
 20
-3.21735521E+02
  0
SEQEND
  8
0
  0
POLYLINE
  8
0
 62
6
 66
1
  0
VERTEX
  8
0
 62
6
 10
3.36499950E+02
 20
-3.21740123E+02
  0
VERTEX
  8
0
 62
6
 10
3.36494242E+02
 20
-3.21619782E+02
  0
VERTEX
  8
0
 62
6
 10
3.36477162E+02
 20
-3.21500357E+02
  0
VERTEX
  8
0
 62
6
 10
3.36448839E+02
 20
-3.21382757E+02
  0
VERTEX
  8
0
 62
6
 10
3.36409489E+02
 20
-3.21267876E+02
  0
VERTEX
  8
0
 62
6
 10
3.36359412E+02
 20
-3.21156590E+02
  0
VERTEX
  8
0
 62
6
 10
3.36298988E+02
 20
-3.21049744E+02
  0
VERTEX
  8
0
 62
6
 10
3.36228678E+02
 20
-3.20948153E+02
  0
VERTEX
  8
0
 62
6
 10
3.36149017E+02
 20
-3.20852589E+02
  0
VERTEX
  8
0
 62
6
 10
3.36060610E+02
 20
-3.20763780E+02
  0
VERTEX
  8
0
 62
6
 10
3.35964131E+02
 20
-3.20682402E+02
  0
VERTEX
  8
0
 62
6
 10
3.35860315E+02
 20
-3.20609073E+02
  0
VERTEX
  8
0
 62
6
 10
3.35749950E+02
 20
-3.20544352E+02
  0
VERTEX
  8
0
 62
6
 10
3.35633877E+02
 20
-3.20488732E+02
  0
VERTEX
  8
0
 62
6
 10
3.35512980E+02
 20
-3.20442636E+02
  0
VERTEX
  8
0
 62
6
 10
3.35388179E+02
 20
-3.20406414E+02
  0
VERTEX
  8
0
 62
6
 10
3.35260422E+02
 20
-3.20380343E+02
  0
VERTEX
  8
0
 62
6
 10
3.35130684E+02
 20
-3.20364620E+02
  0
VERTEX
  8
0
 62
6
 10
3.34999950E+02
 20
-3.20359366E+02
  0
VERTEX
  8
0
 62
6
 10
3.34869216E+02
 20
-3.20364620E+02
  0
VERTEX
  8
0
 62
6
 10
3.34739478E+02
 20
-3.20380343E+02
  0
VERTEX
  8
0
 62
6
 10
3.34611721E+02
 20
-3.20406414E+02
  0
VERTEX
  8
0
 62
6
 10
3.34486920E+02
 20
-3.20442636E+02
  0
VERTEX
  8
0
 62
6
 10
3.34366023E+02
 20
-3.20488732E+02
  0
VERTEX
  8
0
 62
6
 10
3.34249950E+02
 20
-3.20544352E+02
  0
VERTEX
  8
0
 62
6
 10
3.34139585E+02
 20
-3.20609073E+02
  0
VERTEX
  8
0
 62
6
 10
3.34035769E+02
 20
-3.20682402E+02
  0
VERTEX
  8
0
 62
6
 10
3.33939290E+02
 20
-3.20763780E+02
  0
VERTEX
  8
0
 62
6
 10
3.33850883E+02
 20
-3.20852589E+02
  0
VERTEX
  8
0
 62
6
 10
3.33771222E+02
 20
-3.20948153E+02
  0
VERTEX
  8
0
 62
6
 10
3.33700912E+02
 20
-3.21049744E+02
  0
VERTEX
  8
0
 62
6
 10
3.33640488E+02
 20
-3.21156590E+02
  0
VERTEX
  8
0
 62
6
 10
3.33590411E+02
 20
-3.21267876E+02
  0
VERTEX
  8
0
 62
6
 10
3.33551061E+02
 20
-3.21382757E+02
  0
VERTEX
  8
0
 62
6
 10
3.33522738E+02
 20
-3.21500357E+02
  0
VERTEX
  8
0
 62
6
 10
3.33505658E+02
 20
-3.21619782E+02
  0
VERTEX
  8
0
 62
6
 10
3.33499950E+02
 20
-3.21740123E+02
  0
VERTEX
  8
0
 62
6
 10
3.33505658E+02
 20
-3.21860464E+02
  0
VERTEX
  8
0
 62
6
 10
3.33522738E+02
 20
-3.21979889E+02
  0
VERTEX
  8
0
 62
6
 10
3.33551061E+02
 20
-3.22097489E+02
  0
VERTEX
  8
0
 62
6
 10
3.33590411E+02
 20
-3.22212370E+02
  0
VERTEX
  8
0
 62
6
 10
3.33640488E+02
 20
-3.22323656E+02
  0
VERTEX
  8
0
 62
6
 10
3.33700912E+02
 20
-3.22430502E+02
  0
VERTEX
  8
0
 62
6
 10
3.33771222E+02
 20
-3.22532093E+02
  0
VERTEX
  8
0
 62
6
 10
3.33850883E+02
 20
-3.22627657E+02
  0
VERTEX
  8
0
 62
6
 10
3.33939290E+02
 20
-3.22716466E+02
  0
VERTEX
  8
0
 62
6
 10
3.34035769E+02
 20
-3.22797844E+02
  0
VERTEX
  8
0
 62
6
 10
3.34139585E+02
 20
-3.22871173E+02
  0
VERTEX
  8
0
 62
6
 10
3.34249950E+02
 20
-3.22935894E+02
  0
VERTEX
  8
0
 62
6
 10
3.34366023E+02
 20
-3.22991514E+02
  0
VERTEX
  8
0
 62
6
 10
3.34486920E+02
 20
-3.23037610E+02
  0
VERTEX
  8
0
 62
6
 10
3.34611721E+02
 20
-3.23073832E+02
  0
VERTEX
  8
0
 62
6
 10
3.34739478E+02
 20
-3.23099903E+02
  0
VERTEX
  8
0
 62
6
 10
3.34869216E+02
 20
-3.23115626E+02
  0
VERTEX
  8
0
 62
6
 10
3.34999950E+02
 20
-3.23120880E+02
  0
VERTEX
  8
0
 62
6
 10
3.35130684E+02
 20
-3.23115626E+02
  0
VERTEX
  8
0
 62
6
 10
3.35260422E+02
 20
-3.23099903E+02
  0
VERTEX
  8
0
 62
6
 10
3.35388179E+02
 20
-3.23073832E+02
  0
VERTEX
  8
0
 62
6
 10
3.35512980E+02
 20
-3.23037610E+02
  0
VERTEX
  8
0
 62
6
 10
3.35633877E+02
 20
-3.22991514E+02
  0
VERTEX
  8
0
 62
6
 10
3.35749950E+02
 20
-3.22935894E+02
  0
VERTEX
  8
0
 62
6
 10
3.35860315E+02
 20
-3.22871173E+02
  0
VERTEX
  8
0
 62
6
 10
3.35964131E+02
 20
-3.22797844E+02
  0
VERTEX
  8
0
 62
6
 10
3.36060610E+02
 20
-3.22716466E+02
  0
VERTEX
  8
0
 62
6
 10
3.36149017E+02
 20
-3.22627657E+02
  0
VERTEX
  8
0
 62
6
 10
3.36228678E+02
 20
-3.22532093E+02
  0
VERTEX
  8
0
 62
6
 10
3.36298988E+02
 20
-3.22430502E+02
  0
VERTEX
  8
0
 62
6
 10
3.36359412E+02
 20
-3.22323656E+02
  0
VERTEX
  8
0
 62
6
 10
3.36409489E+02
 20
-3.22212370E+02
  0
VERTEX
  8
0
 62
6
 10
3.36448839E+02
 20
-3.22097489E+02
  0
VERTEX
  8
0
 62
6
 10
3.36477162E+02
 20
-3.21979889E+02
  0
VERTEX
  8
0
 62
6
 10
3.36494242E+02
 20
-3.21860464E+02
  0
VERTEX
  8
0
 62
6
 10
3.36499950E+02
 20
-3.21740123E+02
  0
SEQEND
  8
0
  0
POLYLINE
  8
0
 62
4
 66
1
  0
VERTEX
  8
0
 62
4
 10
3.36725182E+02
 20
-3.21904752E+02
  0
VERTEX
  8
0
 62
4
 10
3.36807036E+02
 20
-3.21762327E+02
  0
VERTEX
  8
0
 62
4
 10
3.36875048E+02
 20
-3.21613860E+02
  0
VERTEX
  8
0
 62
4
 10
3.36928697E+02
 20
-3.21460488E+02
  0
VERTEX
  8
0
 62
4
 10
3.36967572E+02
 20
-3.21303385E+02
  0
VERTEX
  8
0
 62
4
 10
3.36991375E+02
 20
-3.21143755E+02
  0
VERTEX
  8
0
 62
4
 10
3.36999924E+02
 20
-3.20982820E+02
  0
VERTEX
  8
0
 62
4
 10
3.36993153E+02
 20
-3.20821814E+02
  0
VERTEX
  8
0
 62
4
 10
3.36971115E+02
 20
-3.20661969E+02
  0
VERTEX
  8
0
 62
4
 10
3.36933977E+02
 20
-3.20504510E+02
  0
VERTEX
  8
0
 62
4
 10
3.36882026E+02
 20
-3.20350644E+02
  0
VERTEX
  8
0
 62
4
 10
3.36815657E+02
 20
-3.20201548E+02
  0
VERTEX
  8
0
 62
4
 10
3.36735380E+02
 20
-3.20058365E+02
  0
VERTEX
  8
0
 62
4
 10
3.36641810E+02
 20
-3.19922191E+02
  0
VERTEX
  8
0
 62
4
 10
3.36535664E+02
 20
-3.19794070E+02
  0
VERTEX
  8
0
 62
4
 10
3.36417754E+02
 20
-3.19674983E+02
  0
VERTEX
  8
0
 62
4
 10
3.36288984E+02
 20
-3.19565842E+02
  0
VERTEX
  8
0
 62
4
 10
3.36150340E+02
 20
-3.19467484E+02
  0
VERTEX
  8
0
 62
4
 10
3.36002884E+02
 20
-3.19380661E+02
  0
VERTEX
  8
0
 62
4
 10
3.35847746E+02
 20
-3.19306039E+02
  0
VERTEX
  8
0
 62
4
 10
3.35686113E+02
 20
-3.19244189E+02
  0
VERTEX
  8
0
 62
4
 10
3.35519225E+02
 20
-3.19195586E+02
  0
VERTEX
  8
0
 62
4
 10
3.35348359E+02
 20
-3.19160600E+02
  0
VERTEX
  8
0
 62
4
 10
3.35174824E+02
 20
-3.19139501E+02
  0
VERTEX
  8
0
 62
4
 10
3.34999950E+02
 20
-3.19132450E+02
  0
VERTEX
  8
0
 62
4
 10
3.34825076E+02
 20
-3.19139501E+02
  0
VERTEX
  8
0
 62
4
 10
3.34651541E+02
 20
-3.19160600E+02
  0
VERTEX
  8
0
 62
4
 10
3.34480675E+02
 20
-3.19195586E+02
  0
VERTEX
  8
0
 62
4
 10
3.34313787E+02
 20
-3.19244189E+02
  0
VERTEX
  8
0
 62
4
 10
3.34152154E+02
 20
-3.19306039E+02
  0
VERTEX
  8
0
 62
4
 10
3.33997016E+02
 20
-3.19380661E+02
  0
VERTEX
  8
0
 62
4
 10
3.33849560E+02
 20
-3.19467484E+02
  0
VERTEX
  8
0
 62
4
 10
3.33710916E+02
 20
-3.19565842E+02
  0
VERTEX
  8
0
 62
4
 10
3.33582146E+02
 20
-3.19674983E+02
  0
VERTEX
  8
0
 62
4
 10
3.33464236E+02
 20
-3.19794070E+02
  0
VERTEX
  8
0
 62
4
 10
3.33358090E+02
 20
-3.19922191E+02
  0
VERTEX
  8
0
 62
4
 10
3.33264520E+02
 20
-3.20058365E+02
  0
VERTEX
  8
0
 62
4
 10
3.33184243E+02
 20
-3.20201548E+02
  0
VERTEX
  8
0
 62
4
 10
3.33117874E+02
 20
-3.20350644E+02
  0
VERTEX
  8
0
 62
4
 10
3.33065923E+02
 20
-3.20504510E+02
  0
VERTEX
  8
0
 62
4
 10
3.33028785E+02
 20
-3.20661969E+02
  0
VERTEX
  8
0
 62
4
 10
3.33006747E+02
 20
-3.20821814E+02
  0
VERTEX
  8
0
 62
4
 10
3.32999976E+02
 20
-3.20982820E+02
  0
VERTEX
  8
0
 62
4
 10
3.33008525E+02
 20
-3.21143755E+02
  0
VERTEX
  8
0
 62
4
 10
3.33032328E+02
 20
-3.21303385E+02
  0
VERTEX
  8
0
 62
4
 10
3.33071203E+02
 20
-3.21460488E+02
  0
VERTEX
  8
0
 62
4
 10
3.33124852E+02
 20
-3.21613860E+02
  0
VERTEX
  8
0
 62
4
 10
3.33192864E+02
 20
-3.21762327E+02
  0
VERTEX
  8
0
 62
4
 10
3.33274718E+02
 20
-3.21904752E+02
  0
SEQEND
  8
0
  0
POLYLINE
  8
0
 62
4
 66
1
  0
VERTEX
  8
0
 62
4
 10
3.28734950E+02
 20
-3.21735521E+02
  0
VERTEX
  8
0
 62
4
 10
3.28728348E+02
 20
-3.21596327E+02
  0
VERTEX
  8
0
 62
4
 10
3.28708591E+02
 20
-3.21458192E+02
  0
VERTEX
  8
0
 62
4
 10
3.28675831E+02
 20
-3.21322167E+02
  0
VERTEX
  8
0
 62
4
 10
3.28630317E+02
 20
-3.21189289E+02
  0
VERTEX
  8
0
 62
4
 10
3.28572394E+02
 20
-3.21060568E+02
  0
VERTEX
  8
0
 62
4
 10
3.28502504E+02
 20
-3.20936983E+02
  0
VERTEX
  8
0
 62
4
 10
3.28421179E+02
 20
-3.20819476E+02
  0
VERTEX
  8
0
 62
4
 10
3.28329037E+02
 20
-3.20708940E+02
  0
VERTEX
  8
0
 62
4
 10
3.28226780E+02
 20
-3.20606218E+02
  0
VERTEX
  8
0
 62
4
 10
3.28115187E+02
 20
-3.20512090E+02
  0
VERTEX
  8
0
 62
4
 10
3.27995105E+02
 20
-3.20427273E+02
  0
VERTEX
  8
0
 62
4
 10
3.27867450E+02
 20
-3.20352413E+02
  0
VERTEX
  8
0
 62
4
 10
3.27733193E+02
 20
-3.20288079E+02
  0
VERTEX
  8
0
 62
4
 10
3.27593355E+02
 20
-3.20234761E+02
  0
VERTEX
  8
0
 62
4
 10
3.27449001E+02
 20
-3.20192864E+02
  0
VERTEX
  8
0
 62
4
 10
3.27301230E+02
 20
-3.20162708E+02
  0
VERTEX
  8
0
 62
4
 10
3.27151165E+02
 20
-3.20144522E+02
  0
VERTEX
  8
0
 62
4
 10
3.26999950E+02
 20
-3.20138445E+02
  0
VERTEX
  8
0
 62
4
 10
3.26848735E+02
 20
-3.20144522E+02
  0
VERTEX
  8
0
 62
4
 10
3.26698670E+02
 20
-3.20162708E+02
  0
VERTEX
  8
0
 62
4
 10
3.26550899E+02
 20
-3.20192864E+02
  0
VERTEX
  8
0
 62
4
 10
3.26406545E+02
 20
-3.20234761E+02
  0
VERTEX
  8
0
 62
4
 10
3.26266707E+02
 20
-3.20288079E+02
  0
VERTEX
  8
0
 62
4
 10
3.26132450E+02
 20
-3.20352413E+02
  0
VERTEX
  8
0
 62
4
 10
3.26004795E+02
 20
-3.20427273E+02
  0
VERTEX
  8
0
 62
4
 10
3.25884713E+02
 20
-3.20512090E+02
  0
VERTEX
  8
0
 62
4
 10
3.25773120E+02
 20
-3.20606218E+02
  0
VERTEX
  8
0
 62
4
 10
3.25670863E+02
 20
-3.20708940E+02
  0
VERTEX
  8
0
 62
4
 10
3.25578721E+02
 20
-3.20819476E+02
  0
VERTEX
  8
0
 62
4
 10
3.25497396E+02
 20
-3.20936983E+02
  0
VERTEX
  8
0
 62
4
 10
3.25427506E+02
 20
-3.21060568E+02
  0
VERTEX
  8
0
 62
4
 10
3.25369583E+02
 20
-3.21189289E+02
  0
VERTEX
  8
0
 62
4
 10
3.25324069E+02
 20
-3.21322167E+02
  0
VERTEX
  8
0
 62
4
 10
3.25291309E+02
 20
-3.21458192E+02
  0
VERTEX
  8
0
 62
4
 10
3.25271552E+02
 20
-3.21596327E+02
  0
VERTEX
  8
0
 62
4
 10
3.25264950E+02
 20
-3.21735521E+02
  0
VERTEX
  8
0
 62
4
 10
3.25271552E+02
 20
-3.21874715E+02
  0
VERTEX
  8
0
 62
4
 10
3.25291309E+02
 20
-3.22012850E+02
  0
VERTEX
  8
0
 62
4
 10
3.25324069E+02
 20
-3.22148875E+02
  0
VERTEX
  8
0
 62
4
 10
3.25369583E+02
 20
-3.22281753E+02
  0
VERTEX
  8
0
 62
4
 10
3.25427506E+02
 20
-3.22410474E+02
  0
VERTEX
  8
0
 62
4
 10
3.25497396E+02
 20
-3.22534059E+02
  0
VERTEX
  8
0
 62
4
 10
3.25578721E+02
 20
-3.22651566E+02
  0
VERTEX
  8
0
 62
4
 10
3.25670863E+02
 20
-3.22762102E+02
  0
VERTEX
  8
0
 62
4
 10
3.25773120E+02
 20
-3.22864824E+02
  0
VERTEX
  8
0
 62
4
 10
3.25884713E+02
 20
-3.22958952E+02
  0
VERTEX
  8
0
 62
4
 10
3.26004795E+02
 20
-3.23043769E+02
  0
VERTEX
  8
0
 62
4
 10
3.26132450E+02
 20
-3.23118629E+02
  0
VERTEX
  8
0
 62
4
 10
3.26266707E+02
 20
-3.23182963E+02
  0
VERTEX
  8
0
 62
4
 10
3.26406545E+02
 20
-3.23236281E+02
  0
VERTEX
  8
0
 62
4
 10
3.26550899E+02
 20
-3.23278178E+02
  0
VERTEX
  8
0
 62
4
 10
3.26698670E+02
 20
-3.23308334E+02
  0
VERTEX
  8
0
 62
4
 10
3.26848735E+02
 20
-3.23326520E+02
  0
VERTEX
  8
0
 62
4
 10
3.26999950E+02
 20
-3.23332597E+02
  0
VERTEX
  8
0
 62
4
 10
3.27151165E+02
 20
-3.23326520E+02
  0
VERTEX
  8
0
 62
4
 10
3.27301230E+02
 20
-3.23308334E+02
  0
VERTEX
  8
0
 62
4
 10
3.27449001E+02
 20
-3.23278178E+02
  0
VERTEX
  8
0
 62
4
 10
3.27593355E+02
 20
-3.23236281E+02
  0
VERTEX
  8
0
 62
4
 10
3.27733193E+02
 20
-3.23182963E+02
  0
VERTEX
  8
0
 62
4
 10
3.27867450E+02
 20
-3.23118629E+02
  0
VERTEX
  8
0
 62
4
 10
3.27995105E+02
 20
-3.23043769E+02
  0
VERTEX
  8
0
 62
4
 10
3.28115187E+02
 20
-3.22958952E+02
  0
VERTEX
  8
0
 62
4
 10
3.28226780E+02
 20
-3.22864824E+02
  0
VERTEX
  8
0
 62
4
 10
3.28329037E+02
 20
-3.22762102E+02
  0
VERTEX
  8
0
 62
4
 10
3.28421179E+02
 20
-3.22651566E+02
  0
VERTEX
  8
0
 62
4
 10
3.28502504E+02
 20
-3.22534059E+02
  0
VERTEX
  8
0
 62
4
 10
3.28572394E+02
 20
-3.22410474E+02
  0
VERTEX
  8
0
 62
4
 10
3.28630317E+02
 20
-3.22281753E+02
  0
VERTEX
  8
0
 62
4
 10
3.28675831E+02
 20
-3.22148875E+02
  0
VERTEX
  8
0
 62
4
 10
3.28708591E+02
 20
-3.22012850E+02
  0
VERTEX
  8
0
 62
4
 10
3.28728348E+02
 20
-3.21874715E+02
  0
VERTEX
  8
0
 62
4
 10
3.28734950E+02
 20
-3.21735521E+02
  0
SEQEND
  8
0
  0
POLYLINE
  8
0
 62
6
 66
1
  0
VERTEX
  8
0
 62
6
 10
3.28499950E+02
 20
-3.21740123E+02
  0
VERTEX
  8
0
 62
6
 10
3.28494242E+02
 20
-3.21619782E+02
  0
VERTEX
  8
0
 62
6
 10
3.28477162E+02
 20
-3.21500357E+02
  0
VERTEX
  8
0
 62
6
 10
3.28448839E+02
 20
-3.21382757E+02
  0
VERTEX
  8
0
 62
6
 10
3.28409489E+02
 20
-3.21267876E+02
  0
VERTEX
  8
0
 62
6
 10
3.28359412E+02
 20
-3.21156590E+02
  0
VERTEX
  8
0
 62
6
 10
3.28298988E+02
 20
-3.21049744E+02
  0
VERTEX
  8
0
 62
6
 10
3.28228678E+02
 20
-3.20948153E+02
  0
VERTEX
  8
0
 62
6
 10
3.28149017E+02
 20
-3.20852589E+02
  0
VERTEX
  8
0
 62
6
 10
3.28060610E+02
 20
-3.20763780E+02
  0
VERTEX
  8
0
 62
6
 10
3.27964131E+02
 20
-3.20682402E+02
  0
VERTEX
  8
0
 62
6
 10
3.27860315E+02
 20
-3.20609073E+02
  0
VERTEX
  8
0
 62
6
 10
3.27749950E+02
 20
-3.20544352E+02
  0
VERTEX
  8
0
 62
6
 10
3.27633877E+02
 20
-3.20488732E+02
  0
VERTEX
  8
0
 62
6
 10
3.27512980E+02
 20
-3.20442636E+02
  0
VERTEX
  8
0
 62
6
 10
3.27388179E+02
 20
-3.20406414E+02
  0
VERTEX
  8
0
 62
6
 10
3.27260422E+02
 20
-3.20380343E+02
  0
VERTEX
  8
0
 62
6
 10
3.27130684E+02
 20
-3.20364620E+02
  0
VERTEX
  8
0
 62
6
 10
3.26999950E+02
 20
-3.20359366E+02
  0
VERTEX
  8
0
 62
6
 10
3.26869216E+02
 20
-3.20364620E+02
  0
VERTEX
  8
0
 62
6
 10
3.26739478E+02
 20
-3.20380343E+02
  0
VERTEX
  8
0
 62
6
 10
3.26611721E+02
 20
-3.20406414E+02
  0
VERTEX
  8
0
 62
6
 10
3.26486920E+02
 20
-3.20442636E+02
  0
VERTEX
  8
0
 62
6
 10
3.26366023E+02
 20
-3.20488732E+02
  0
VERTEX
  8
0
 62
6
 10
3.26249950E+02
 20
-3.20544352E+02
  0
VERTEX
  8
0
 62
6
 10
3.26139585E+02
 20
-3.20609073E+02
  0
VERTEX
  8
0
 62
6
 10
3.26035769E+02
 20
-3.20682402E+02
  0
VERTEX
  8
0
 62
6
 10
3.25939290E+02
 20
-3.20763780E+02
  0
VERTEX
  8
0
 62
6
 10
3.25850883E+02
 20
-3.20852589E+02
  0
VERTEX
  8
0
 62
6
 10
3.25771222E+02
 20
-3.20948153E+02
  0
VERTEX
  8
0
 62
6
 10
3.25700912E+02
 20
-3.21049744E+02
  0
VERTEX
  8
0
 62
6
 10
3.25640488E+02
 20
-3.21156590E+02
  0
VERTEX
  8
0
 62
6
 10
3.25590411E+02
 20
-3.21267876E+02
  0
VERTEX
  8
0
 62
6
 10
3.25551061E+02
 20
-3.21382757E+02
  0
VERTEX
  8
0
 62
6
 10
3.25522738E+02
 20
-3.21500357E+02
  0
VERTEX
  8
0
 62
6
 10
3.25505658E+02
 20
-3.21619782E+02
  0
VERTEX
  8
0
 62
6
 10
3.25499950E+02
 20
-3.21740123E+02
  0
VERTEX
  8
0
 62
6
 10
3.25505658E+02
 20
-3.21860464E+02
  0
VERTEX
  8
0
 62
6
 10
3.25522738E+02
 20
-3.21979889E+02
  0
VERTEX
  8
0
 62
6
 10
3.25551061E+02
 20
-3.22097489E+02
  0
VERTEX
  8
0
 62
6
 10
3.25590411E+02
 20
-3.22212370E+02
  0
VERTEX
  8
0
 62
6
 10
3.25640488E+02
 20
-3.22323656E+02
  0
VERTEX
  8
0
 62
6
 10
3.25700912E+02
 20
-3.22430502E+02
  0
VERTEX
  8
0
 62
6
 10
3.25771222E+02
 20
-3.22532093E+02
  0
VERTEX
  8
0
 62
6
 10
3.25850883E+02
 20
-3.22627657E+02
  0
VERTEX
  8
0
 62
6
 10
3.25939290E+02
 20
-3.22716466E+02
  0
VERTEX
  8
0
 62
6
 10
3.26035769E+02
 20
-3.22797844E+02
  0
VERTEX
  8
0
 62
6
 10
3.26139585E+02
 20
-3.22871173E+02
  0
VERTEX
  8
0
 62
6
 10
3.26249950E+02
 20
-3.22935894E+02
  0
VERTEX
  8
0
 62
6
 10
3.26366023E+02
 20
-3.22991514E+02
  0
VERTEX
  8
0
 62
6
 10
3.26486920E+02
 20
-3.23037610E+02
  0
VERTEX
  8
0
 62
6
 10
3.26611721E+02
 20
-3.23073832E+02
  0
VERTEX
  8
0
 62
6
 10
3.26739478E+02
 20
-3.23099903E+02
  0
VERTEX
  8
0
 62
6
 10
3.26869216E+02
 20
-3.23115626E+02
  0
VERTEX
  8
0
 62
6
 10
3.26999950E+02
 20
-3.23120880E+02
  0
VERTEX
  8
0
 62
6
 10
3.27130684E+02
 20
-3.23115626E+02
  0
VERTEX
  8
0
 62
6
 10
3.27260422E+02
 20
-3.23099903E+02
  0
VERTEX
  8
0
 62
6
 10
3.27388179E+02
 20
-3.23073832E+02
  0
VERTEX
  8
0
 62
6
 10
3.27512980E+02
 20
-3.23037610E+02
  0
VERTEX
  8
0
 62
6
 10
3.27633877E+02
 20
-3.22991514E+02
  0
VERTEX
  8
0
 62
6
 10
3.27749950E+02
 20
-3.22935894E+02
  0
VERTEX
  8
0
 62
6
 10
3.27860315E+02
 20
-3.22871173E+02
  0
VERTEX
  8
0
 62
6
 10
3.27964131E+02
 20
-3.22797844E+02
  0
VERTEX
  8
0
 62
6
 10
3.28060610E+02
 20
-3.22716466E+02
  0
VERTEX
  8
0
 62
6
 10
3.28149017E+02
 20
-3.22627657E+02
  0
VERTEX
  8
0
 62
6
 10
3.28228678E+02
 20
-3.22532093E+02
  0
VERTEX
  8
0
 62
6
 10
3.28298988E+02
 20
-3.22430502E+02
  0
VERTEX
  8
0
 62
6
 10
3.28359412E+02
 20
-3.22323656E+02
  0
VERTEX
  8
0
 62
6
 10
3.28409489E+02
 20
-3.22212370E+02
  0
VERTEX
  8
0
 62
6
 10
3.28448839E+02
 20
-3.22097489E+02
  0
VERTEX
  8
0
 62
6
 10
3.28477162E+02
 20
-3.21979889E+02
  0
VERTEX
  8
0
 62
6
 10
3.28494242E+02
 20
-3.21860464E+02
  0
VERTEX
  8
0
 62
6
 10
3.28499950E+02
 20
-3.21740123E+02
  0
SEQEND
  8
0
  0
POLYLINE
  8
0
 62
4
 66
1
  0
VERTEX
  8
0
 62
4
 10
3.28725182E+02
 20
-3.21904752E+02
  0
VERTEX
  8
0
 62
4
 10
3.28807036E+02
 20
-3.21762327E+02
  0
VERTEX
  8
0
 62
4
 10
3.28875048E+02
 20
-3.21613860E+02
  0
VERTEX
  8
0
 62
4
 10
3.28928697E+02
 20
-3.21460488E+02
  0
VERTEX
  8
0
 62
4
 10
3.28967572E+02
 20
-3.21303385E+02
  0
VERTEX
  8
0
 62
4
 10
3.28991375E+02
 20
-3.21143755E+02
  0
VERTEX
  8
0
 62
4
 10
3.28999924E+02
 20
-3.20982820E+02
  0
VERTEX
  8
0
 62
4
 10
3.28993153E+02
 20
-3.20821814E+02
  0
VERTEX
  8
0
 62
4
 10
3.28971115E+02
 20
-3.20661969E+02
  0
VERTEX
  8
0
 62
4
 10
3.28933977E+02
 20
-3.20504510E+02
  0
VERTEX
  8
0
 62
4
 10
3.28882026E+02
 20
-3.20350644E+02
  0
VERTEX
  8
0
 62
4
 10
3.28815657E+02
 20
-3.20201548E+02
  0
VERTEX
  8
0
 62
4
 10
3.28735380E+02
 20
-3.20058365E+02
  0
VERTEX
  8
0
 62
4
 10
3.28641810E+02
 20
-3.19922191E+02
  0
VERTEX
  8
0
 62
4
 10
3.28535664E+02
 20
-3.19794070E+02
  0
VERTEX
  8
0
 62
4
 10
3.28417754E+02
 20
-3.19674983E+02
  0
VERTEX
  8
0
 62
4
 10
3.28288984E+02
 20
-3.19565842E+02
  0
VERTEX
  8
0
 62
4
 10
3.28150340E+02
 20
-3.19467484E+02
  0
VERTEX
  8
0
 62
4
 10
3.28002884E+02
 20
-3.19380661E+02
  0
VERTEX
  8
0
 62
4
 10
3.27847746E+02
 20
-3.19306039E+02
  0
VERTEX
  8
0
 62
4
 10
3.27686113E+02
 20
-3.19244189E+02
  0
VERTEX
  8
0
 62
4
 10
3.27519225E+02
 20
-3.19195586E+02
  0
VERTEX
  8
0
 62
4
 10
3.27348359E+02
 20
-3.19160600E+02
  0
VERTEX
  8
0
 62
4
 10
3.27174824E+02
 20
-3.19139501E+02
  0
VERTEX
  8
0
 62
4
 10
3.26999950E+02
 20
-3.19132450E+02
  0
VERTEX
  8
0
 62
4
 10
3.26825076E+02
 20
-3.19139501E+02
  0
VERTEX
  8
0
 62
4
 10
3.26651541E+02
 20
-3.19160600E+02
  0
VERTEX
  8
0
 62
4
 10
3.26480675E+02
 20
-3.19195586E+02
  0
VERTEX
  8
0
 62
4
 10
3.26313787E+02
 20
-3.19244189E+02
  0
VERTEX
  8
0
 62
4
 10
3.26152154E+02
 20
-3.19306039E+02
  0
VERTEX
  8
0
 62
4
 10
3.25997016E+02
 20
-3.19380661E+02
  0
VERTEX
  8
0
 62
4
 10
3.25849560E+02
 20
-3.19467484E+02
  0
VERTEX
  8
0
 62
4
 10
3.25710916E+02
 20
-3.19565842E+02
  0
VERTEX
  8
0
 62
4
 10
3.25582146E+02
 20
-3.19674983E+02
  0
VERTEX
  8
0
 62
4
 10
3.25464236E+02
 20
-3.19794070E+02
  0
VERTEX
  8
0
 62
4
 10
3.25358090E+02
 20
-3.19922191E+02
  0
VERTEX
  8
0
 62
4
 10
3.25264520E+02
 20
-3.20058365E+02
  0
VERTEX
  8
0
 62
4
 10
3.25184243E+02
 20
-3.20201548E+02
  0
VERTEX
  8
0
 62
4
 10
3.25117874E+02
 20
-3.20350644E+02
  0
VERTEX
  8
0
 62
4
 10
3.25065923E+02
 20
-3.20504510E+02
  0
VERTEX
  8
0
 62
4
 10
3.25028785E+02
 20
-3.20661969E+02
  0
VERTEX
  8
0
 62
4
 10
3.25006747E+02
 20
-3.20821814E+02
  0
VERTEX
  8
0
 62
4
 10
3.24999976E+02
 20
-3.20982820E+02
  0
VERTEX
  8
0
 62
4
 10
3.25008525E+02
 20
-3.21143755E+02
  0
VERTEX
  8
0
 62
4
 10
3.25032328E+02
 20
-3.21303385E+02
  0
VERTEX
  8
0
 62
4
 10
3.25071203E+02
 20
-3.21460488E+02
  0
VERTEX
  8
0
 62
4
 10
3.25124852E+02
 20
-3.21613860E+02
  0
VERTEX
  8
0
 62
4
 10
3.25192864E+02
 20
-3.21762327E+02
  0
VERTEX
  8
0
 62
4
 10
3.25274718E+02
 20
-3.21904752E+02
  0
SEQEND
  8
0
  0
LINE
  8
0
 62
4
 10
3.23499950E+02
 20
-2.97440734E+02
 11
3.38499950E+02
 21
-2.97440734E+02
  0
LINE
  8
0
 62
4
 10
3.41191228E+02
 20
-3.09999985E+02
 11
3.42999950E+02
 21
-3.08486792E+02
  0
LINE
  8
0
 62
4
 10
3.03999950E+02
 20
-3.08486792E+02
 11
3.05808673E+02
 21
-3.09999985E+02
  0
LINE
  8
0
 62
4
 10
3.42999950E+02
 20
-3.07106035E+02
 11
3.38499950E+02
 21
-3.07106035E+02
  0
LINE
  8
0
 62
4
 10
3.23499950E+02
 20
-3.07106035E+02
 11
3.03999950E+02
 21
-3.07106035E+02
  0
LINE
  8
0
 62
4
 10
3.23499950E+02
 20
-2.86079767E+02
 11
3.05499950E+02
 21
-2.86079767E+02
  0
ARC
  8
0
 62
4
 10
3.05499959E+02
 20
-2.87579776E+02
 40
1.50000856E+00
 50
9.00003273E+01
 51
1.79999673E+02
  0
LINE
  8
0
 62
4
 10
3.41499950E+02
 20
-2.86079767E+02
 11
3.38499950E+02
 21
-2.86079767E+02
  0
ARC
  8
0
 62
4
 10
3.41499942E+02
 20
-2.87579776E+02
 40
1.50000856E+00
 50
3.27119593E-04
 51
8.99996730E+01
  0
LINE
  8
0
 62
4
 10
3.38499950E+02
 20
-2.60365322E+02
 11
3.23499950E+02
 21
-2.60365322E+02
  0
ARC
  8
0
 62
4
 10
3.05499959E+02
 20
-2.95003657E+02
 40
1.50000856E+00
 50
9.00003273E+01
 51
1.79999673E+02
  0
ARC
  8
0
 62
4
 10
3.38999964E+02
 20
-2.76318870E+02
 40
5.00013809E-01
 50
9.00015821E+01
 51
1.79998418E+02
  0
ARC
  8
0
 62
4
 10
3.47499939E+02
 20
-2.62318868E+02
 40
5.00011902E-01
 50
1.36383594E-03
 51
8.99986360E+01
  0
ARC
  8
0
 62
4
 10
3.47499962E+02
 20
-2.75318868E+02
 40
4.99988098E-01
 50
2.69998636E+02
 51
1.36386840E-03
  0
ARC
  8
0
 62
4
 10
3.41499942E+02
 20
-2.95003657E+02
 40
1.50000856E+00
 50
3.27119593E-04
 51
8.99996730E+01
  0
LINE
  8
0
 62
4
 10
3.03999950E+02
 20
-2.87579767E+02
 11
3.03999950E+02
 21
-3.08503648E+02
  0
LINE
  8
0
 62
4
 10
3.38499950E+02
 20
-2.88318405E+02
 11
3.23499950E+02
 21
-2.88318405E+02
  0
LINE
  8
0
 62
4
 10
3.21499950E+02
 20
-2.90020372E+02
 11
3.21499950E+02
 21
-2.93503648E+02
  0
LINE
  8
0
 62
4
 10
3.38499950E+02
 20
-2.60365322E+02
 11
3.38499950E+02
 21
-2.90020372E+02
  0
LINE
  8
0
 62
4
 10
3.23499950E+02
 20
-2.60365322E+02
 11
3.23499950E+02
 21
-2.90020372E+02
  0
LINE
  8
0
 62
4
 10
3.40499950E+02
 20
-2.90020372E+02
 11
3.40499950E+02
 21
-2.93503648E+02
  0
LINE
  8
0
 62
4
 10
3.42999950E+02
 20
-3.08486792E+02
 11
3.38499950E+02
 21
-3.08486792E+02
  0
LINE
  8
0
 62
4
 10
3.42999950E+02
 20
-2.87579767E+02
 11
3.42999950E+02
 21
-3.08503648E+02
  0
LINE
  8
0
 62
4
 10
3.40499950E+02
 20
-2.90020372E+02
 11
3.21499950E+02
 21
-2.90020372E+02
  0
LINE
  8
0
 62
4
 10
3.38499950E+02
 20
-2.66226289E+02
 11
3.23499950E+02
 21
-2.66226289E+02
  0
LINE
  8
0
 62
4
 10
3.23499950E+02
 20
-3.08486792E+02
 11
3.03999950E+02
 21
-3.08486792E+02
  0
LINE
  8
0
 62
4
 10
3.47499950E+02
 20
-2.75818856E+02
 11
3.38999950E+02
 21
-2.75818856E+02
  0
LINE
  8
0
 62
4
 10
3.51499950E+02
 20
-2.74568856E+02
 11
3.47999950E+02
 21
-2.74568856E+02
  0
LINE
  8
0
 62
4
 10
3.51499950E+02
 20
-2.62568856E+02
 11
3.51499950E+02
 21
-2.75068856E+02
  0
LINE
  8
0
 62
4
 10
3.52999950E+02
 20
-2.75068856E+02
 11
3.47999950E+02
 21
-2.75068856E+02
  0
LINE
  8
0
 62
4
 10
3.52999950E+02
 20
-2.62568856E+02
 11
3.47999950E+02
 21
-2.62568856E+02
  0
LINE
  8
0
 62
4
 10
3.52999950E+02
 20
-2.61915048E+02
 11
3.52999950E+02
 21
-2.75731826E+02
  0
LINE
  8
0
 62
4
 10
3.57999950E+02
 20
-2.61915048E+02
 11
3.57999950E+02
 21
-2.75731826E+02
  0
LINE
  8
0
 62
4
 10
3.47999950E+02
 20
-2.62318856E+02
 11
3.47999950E+02
 21
-2.75318856E+02
  0
LINE
  8
0
 62
4
 10
3.38499950E+02
 20
-2.61818856E+02
 11
3.47499950E+02
 21
-2.61818856E+02
  0
LINE
  8
0
 62
4
 10
3.57999950E+02
 20
-2.61915048E+02
 11
3.52999950E+02
 21
-2.61915048E+02
  0
LINE
  8
0
 62
4
 10
3.41499950E+02
 20
-2.93503648E+02
 11
3.05499950E+02
 21
-2.93503648E+02
  0
LINE
  8
0
 62
4
 10
3.51499950E+02
 20
-2.63068856E+02
 11
3.47999950E+02
 21
-2.63068856E+02
  0
LINE
  8
0
  6
CENTER
 62
6
 10
3.21999950E+02
 20
-3.21740123E+02
 11
3.39999950E+02
 21
-3.21740123E+02
  0
LINE
  8
0
  6
CENTER
 62
6
 10
3.26999950E+02
 20
-3.16740123E+02
 11
3.26999950E+02
 21
-3.26740123E+02
  0
LINE
  8
0
  6
CENTER
 62
6
 10
3.34999950E+02
 20
-3.16740123E+02
 11
3.34999950E+02
 21
-3.26740123E+02
  0
LINE
  8
0
 62
4
 10
3.23499950E+02
 20
-2.97440734E+02
 11
3.23499950E+02
 21
-3.25109131E+02
  0
LINE
  8
0
 62
4
 10
3.38499950E+02
 20
-2.97440734E+02
 11
3.38499950E+02
 21
-3.25109131E+02
  0
LINE
  8
0
 62
4
 10
3.24499950E+02
 20
-3.14137925E+02
 11
3.37499950E+02
 21
-3.14137925E+02
  0
LINE
  8
0
 62
4
 10
3.23499950E+02
 20
-3.25109131E+02
 11
3.38499950E+02
 21
-3.25109131E+02
  0
LINE
  8
0
 62
4
 10
3.23499950E+02
 20
-3.00173498E+02
 11
3.38499950E+02
 21
-3.00173498E+02
  0
LINE
  8
0
 62
2
 10
-4.57079626E+01
 20
-3.61741447E+02
 11
-9.57014190E+00
 21
-2.99148905E+02
  0
TEXT
  8
0
 62
7
 10
2.37177090E+02
 20
-7.07792281E+01
 40
9.00000000E+00
  1
425
 41
1.00000000E+00
  7
MONOTXT
  0
TEXT
  8
0
 62
7
 10
1.92177090E+02
 20
-7.07792281E+01
 40
9.00000000E+00
  1
375
 41
1.00000000E+00
  7
MONOTXT
  0
TEXT
  8
0
 62
7
 10
1.47177090E+02
 20
-7.07792281E+01
 40
9.00000000E+00
  1
325
 41
1.00000000E+00
  7
MONOTXT
  0
TEXT
  8
0
 62
7
 10
1.02177090E+02
 20
-7.07792281E+01
 40
9.00000000E+00
  1
275
 41
1.00000000E+00
  7
MONOTXT
  0
TEXT
  8
0
 62
7
 10
5.71770900E+01
 20
-7.07792281E+01
 40
9.00000000E+00
  1
225
 41
1.00000000E+00
  7
MONOTXT
  0
TEXT
  8
0
 62
7
 10
1.21770900E+01
 20
-7.07792281E+01
 40
9.00000000E+00
  1
175
 41
1.00000000E+00
  7
MONOTXT
  0
TEXT
  8
0
 62
7
 10
-3.28229100E+01
 20
-7.07792281E+01
 40
9.00000000E+00
  1
125
 41
1.00000000E+00
  7
MONOTXT
  0
TEXT
  8
0
 62
7
 10
-7.33229100E+01
 20
-7.07792281E+01
 40
9.00000000E+00
  1
75
 41
1.00000000E+00
  7
MONOTXT
  0
TEXT
  8
0
 62
7
 10
-1.18322910E+02
 20
-7.07792281E+01
 40
9.00000000E+00
  1
25
 41
1.00000000E+00
  7
MONOTXT
  0
TEXT
  8
0
 62
7
 10
-1.58822910E+02
 20
-7.07792281E+01
 40
9.00000000E+00
  1
0
 41
1.00000000E+00
  7
MONOTXT
  0
TEXT
  8
0
 62
7
 10
-2.12822910E+02
 20
-7.07792281E+01
 40
9.00000000E+00
  1
-25
 41
1.00000000E+00
  7
MONOTXT
  0
TEXT
  8
0
 62
7
 10
2.37177090E+02
 20
-5.57792281E+01
 40
9.00000000E+00
  1
425
 41
1.00000000E+00
  7
MONOTXT
  0
TEXT
  8
0
 62
7
 10
1.92177090E+02
 20
-5.57792281E+01
 40
9.00000000E+00
  1
375
 41
1.00000000E+00
  7
MONOTXT
  0
TEXT
  8
0
 62
7
 10
1.47177090E+02
 20
-5.57792281E+01
 40
9.00000000E+00
  1
325
 41
1.00000000E+00
  7
MONOTXT
  0
TEXT
  8
0
 62
7
 10
1.02177090E+02
 20
-5.57792281E+01
 40
9.00000000E+00
  1
275
 41
1.00000000E+00
  7
MONOTXT
  0
TEXT
  8
0
 62
7
 10
5.71770900E+01
 20
-5.57792281E+01
 40
9.00000000E+00
  1
225
 41
1.00000000E+00
  7
MONOTXT
  0
TEXT
  8
0
 62
7
 10
1.21770900E+01
 20
-5.57792281E+01
 40
9.00000000E+00
  1
175
 41
1.00000000E+00
  7
MONOTXT
  0
TEXT
  8
0
 62
7
 10
-3.28229100E+01
 20
-5.57792281E+01
 40
9.00000000E+00
  1
125
 41
1.00000000E+00
  7
MONOTXT
  0
TEXT
  8
0
 62
7
 10
-7.33229100E+01
 20
-5.57792281E+01
 40
9.00000000E+00
  1
75
 41
1.00000000E+00
  7
MONOTXT
  0
TEXT
  8
0
 62
7
 10
-1.18322910E+02
 20
-5.57792281E+01
 40
9.00000000E+00
  1
25
 41
1.00000000E+00
  7
MONOTXT
  0
TEXT
  8
0
 62
7
 10
-1.58822910E+02
 20
-5.57792281E+01
 40
9.00000000E+00
  1
0
 41
1.00000000E+00
  7
MONOTXT
  0
TEXT
  8
0
 62
7
 10
-2.12822910E+02
 20
-5.57792281E+01
 40
9.00000000E+00
  1
-25
 41
1.00000000E+00
  7
MONOTXT
  0
TEXT
  8
0
 62
7
 10
2.37177090E+02
 20
-2.65292276E+01
 40
9.00000000E+00
  1
500
 41
1.00000000E+00
  7
MONOTXT
  0
TEXT
  8
0
 62
7
 10
1.92177090E+02
 20
-2.65292276E+01
 40
9.00000000E+00
  1
450
 41
1.00000000E+00
  7
MONOTXT
  0
TEXT
  8
0
 62
7
 10
1.47177090E+02
 20
-2.65292276E+01
 40
9.00000000E+00
  1
400
 41
1.00000000E+00
  7
MONOTXT
  0
TEXT
  8
0
 62
7
 10
1.02177090E+02
 20
-2.65292276E+01
 40
9.00000000E+00
  1
350
 41
1.00000000E+00
  7
MONOTXT
  0
TEXT
  8
0
 62
7
 10
5.71770900E+01
 20
-2.65292276E+01
 40
9.00000000E+00
  1
300
 41
1.00000000E+00
  7
MONOTXT
  0
TEXT
  8
0
 62
7
 10
1.21770900E+01
 20
-2.65292276E+01
 40
9.00000000E+00
  1
250
 41
1.00000000E+00
  7
MONOTXT
  0
TEXT
  8
0
 62
7
 10
-3.28229100E+01
 20
-2.65292276E+01
 40
9.00000000E+00
  1
200
 41
1.00000000E+00
  7
MONOTXT
  0
TEXT
  8
0
 62
7
 10
-7.78229100E+01
 20
-2.65292276E+01
 40
9.00000000E+00
  1
150
 41
1.00000000E+00
  7
MONOTXT
  0
TEXT
  8
0
 62
7
 10
-1.22822910E+02
 20
-2.65292276E+01
 40
9.00000000E+00
  1
100
 41
1.00000000E+00
  7
MONOTXT
  0
TEXT
  8
0
 62
7
 10
-1.63322910E+02
 20
-2.65292276E+01
 40
9.00000000E+00
  1
75
 41
1.00000000E+00
  7
MONOTXT
  0
TEXT
  8
0
 62
7
 10
-2.08322910E+02
 20
-2.65292276E+01
 40
9.00000000E+00
  1
50
 41
1.00000000E+00
  7
MONOTXT
  0
LINE
  8
0
 62
7
 10
2.72192715E+02
 20
-7.34042283E+01
 11
2.72192715E+02
 21
9.57726155E-02
  0
LINE
  8
0
 62
7
 10
2.27192715E+02
 20
-7.34042283E+01
 11
2.27192715E+02
 21
9.57726155E-02
  0
LINE
  8
0
 62
7
 10
1.82192715E+02
 20
-7.34042283E+01
 11
1.82192715E+02
 21
9.57726155E-02
  0
LINE
  8
0
 62
7
 10
1.37192715E+02
 20
-7.34042283E+01
 11
1.37192715E+02
 21
9.57726155E-02
  0
LINE
  8
0
 62
7
 10
9.21927150E+01
 20
-7.34042283E+01
 11
9.21927150E+01
 21
9.57726155E-02
  0
LINE
  8
0
 62
7
 10
4.71927150E+01
 20
-7.34042283E+01
 11
4.71927150E+01
 21
9.57726155E-02
  0
LINE
  8
0
 62
7
 10
2.19271497E+00
 20
-7.34042283E+01
 11
2.19271497E+00
 21
9.57726155E-02
  0
LINE
  8
0
 62
7
 10
-4.28072850E+01
 20
-7.34042283E+01
 11
-4.28072850E+01
 21
9.57726155E-02
  0
LINE
  8
0
 62
7
 10
-8.78072850E+01
 20
-7.34042283E+01
 11
-8.78072850E+01
 21
9.57726155E-02
  0
LINE
  8
0
 62
7
 10
-1.32807285E+02
 20
-7.34042283E+01
 11
-1.32807285E+02
 21
9.57726155E-02
  0
LINE
  8
0
 62
7
 10
-1.77807285E+02
 20
-7.34042283E+01
 11
-1.77807285E+02
 21
9.57726155E-02
  0
LINE
  8
0
 62
7
 10
-3.04807285E+02
 20
-7.34042283E+01
 11
-3.04807285E+02
 21
9.57726155E-02
  0
LINE
  8
0
 62
7
 10
-2.22807285E+02
 20
-7.34042283E+01
 11
-2.22807285E+02
 21
9.57726155E-02
  0
TEXT
  8
0
 62
7
 10
-2.67021972E+02
 20
-7.04042283E+01
 40
9.00000000E+00
  1
B
 41
1.00000000E+00
  7
MONOTXT
  0
TEXT
  8
0
 62
7
 10
-2.67021972E+02
 20
-5.57792281E+01
 40
9.00000000E+00
  1
A
 41
1.00000000E+00
  7
MONOTXT
  0
LINE
  8
0
 62
7
 10
-2.22807285E+02
 20
-4.41542278E+01
 11
-2.40127793E+02
 21
-1.41542279E+01
  0
TEXT
  8
0
 62
7
 10
-2.99021972E+02
 20
-4.11542279E+01
 40
9.00000000E+00
  1
  PLACE
 41
1.20689655E+00
  7
MONOTXT
  0
LINE
  8
0
 62
7
 10
-3.04807285E+02
 20
-1.41542279E+01
 11
-2.40127793E+02
 21
-1.41542279E+01
  0
LINE
  8
0
 62
7
 10
-3.04807285E+02
 20
-7.34042283E+01
 11
2.72192715E+02
 21
-7.34042283E+01
  0
LINE
  8
0
 62
7
 10
-3.04807285E+02
 20
-5.84042283E+01
 11
2.72192715E+02
 21
-5.84042283E+01
  0
TEXT
  8
0
 62
7
 10
-2.99021972E+02
 20
-2.81542279E+01
 40
9.00000000E+00
  1
STRETCH
 41
1.00000000E+00
  7
MONOTXT
  0
TEXT
  8
0
 62
7
 10
-2.94521976E+02
 20
-1.19042274E+01
 40
9.00000000E+00
  1
STROKE
 41
1.00000000E+00
  7
MONOTXT
  0
LINE
  8
0
 62
7
 10
-3.04807289E+02
 20
9.57726155E-02
 11
2.72192715E+02
 21
9.57726155E-02
  0
LINE
  8
0
 62
7
 10
-3.04807285E+02
 20
-4.41542279E+01
 11
2.72192715E+02
 21
-4.41542279E+01
  0
TEXT
  8
0
 62
7
 10
-6.90219743E+01
 20
5.59577260E+00
 40
9.00000000E+00
  1
STRETCH LIST
 41
1.05263158E+00
  7
MONOTXT
  0
TEXT
  8
0
 62
7
 10
2.29478026E+02
 20
5.59577260E+00
 40
9.00000000E+00
  1
(mm)
 41
1.00000000E+00
  7
MONOTXT
  0
TEXT
  8
0
 10
5.52852936E+01
 20
3.54316712E+02
 40
9.00000000E+00
  1
STRETCH LINE B
 41
1.09375000E+00
  7
MONOTXT
  0
LINE
  8
0
 62
7
 10
-1.35256232E+01
 20
-3.06000000E+02
 11
-8.80000191E+01
 21
-3.06000000E+02
  0
LINE
  8
0
 62
7
 10
-2.10311767E+01
 20
-3.19000000E+02
 11
-8.80000191E+01
 21
-3.19000000E+02
  0
LINE
  8
0
 62
7
 10
-1.58350155E+01
 20
-3.09999985E+02
 11
-8.80000191E+01
 21
-3.09999985E+02
  0
LINE
  8
0
 62
7
 10
-6.14456433E+01
 20
-2.09000015E+02
 11
-8.79999580E+01
 21
-2.09000015E+02
  0
LINE
  8
0
 62
7
 10
-6.37550532E+01
 20
-2.13000031E+02
 11
-8.79999580E+01
 21
-2.13000031E+02
  0
LINE
  8
0
 62
7
 10
-5.62494909E+01
 20
-2.00000015E+02
 11
-8.79999580E+01
 21
-2.00000015E+02
  0
LINE
  8
0
 62
7
 10
-7.64999580E+01
 20
-1.25999969E+02
 11
-8.79999580E+01
 21
-1.25999969E+02
  0
LINE
  8
0
 62
7
 10
-7.64999580E+01
 20
-1.30000000E+02
 11
-8.79999580E+01
 21
-1.30000000E+02
  0
LINE
  8
0
 62
7
 10
-1.74000004E+02
 20
-3.38499977E+02
 11
-1.61999989E+02
 21
-3.38499977E+02
  0
LINE
  8
0
 62
2
 10
-1.74000004E+02
 20
-3.39319992E+02
 11
-1.61999989E+02
 21
-3.39319992E+02
  0
LINE
  8
0
 62
4
 10
-1.85570942E+02
 20
-3.31041833E+02
 11
-1.75429066E+02
 21
-3.31041833E+02
  0
LINE
  8
0
 62
4
 10
-1.87000004E+02
 20
-3.33517053E+02
 11
-1.87000004E+02
 21
-3.49500000E+02
  0
LINE
  8
0
 62
4
 10
-1.74000004E+02
 20
-3.33517053E+02
 11
-1.74000004E+02
 21
-3.49500000E+02
  0
LINE
  8
0
 62
4
 10
-1.87000020E+02
 20
-3.33517054E+02
 11
-1.85570937E+02
 21
-3.31041837E+02
  0
LINE
  8
0
 62
4
 10
-1.75429084E+02
 20
-3.31041881E+02
 11
-1.74000011E+02
 21
-3.33517069E+02
  0
LINE
  8
0
 62
4
 10
-1.85570942E+02
 20
-3.40517057E+02
 11
-1.75429066E+02
 21
-3.40517057E+02
  0
ARC
  8
0
 62
4
 10
-2.03054799E+02
 20
-3.49517057E+02
 40
2.90548000E+01
 50
3.36363131E-02
 51
1.80446768E+01
  0
ARC
  8
0
 62
4
 10
-1.82562607E+02
 20
-3.35779447E+02
 40
8.56342793E+00
 50
3.26410605E+02
 51
3.35892584E+01
  0
ARC
  8
0
 62
4
 10
-1.57945204E+02
 20
-3.49517057E+02
 40
2.90548000E+01
 50
1.61955287E+02
 51
1.79966364E+02
  0
ARC
  8
0
 62
4
 10
-1.78437401E+02
 20
-3.35779447E+02
 40
8.56342793E+00
 50
1.46410665E+02
 51
2.13589318E+02
  0
LINE
  8
0
 62
7
 10
-1.74000004E+02
 20
-3.39999954E+02
 11
-1.74000004E+02
 21
-3.49500000E+02
  0
LINE
  8
0
 62
2
 10
-1.74000004E+02
 20
-1.79679977E+02
 11
-1.61999958E+02
 21
-1.79679977E+02
  0
LINE
  8
0
 62
7
 10
-1.74000004E+02
 20
-1.80500000E+02
 11
-1.61999958E+02
 21
-1.80500000E+02
  0
LINE
  8
0
 62
2
 10
-1.74000004E+02
 20
-1.59319977E+02
 11
-1.61999958E+02
 21
-1.59319977E+02
  0
LINE
  8
0
 62
7
 10
-1.74000004E+02
 20
-1.58499969E+02
 11
-1.61999958E+02
 21
-1.58499969E+02
  0
LINE
  8
0
 62
4
 10
-3.80000053E+02
 20
-3.40262419E+02
 11
-3.63999991E+02
 21
-3.31024777E+02
  0
LINE
  8
0
 62
4
 10
-3.63999958E+02
 20
-3.31024778E+02
 11
-3.47999985E+02
 21
-3.40262359E+02
  0
LINE
  8
0
 62
4
 10
-3.80000019E+02
 20
-3.40262390E+02
 11
-3.80000019E+02
 21
-3.49500000E+02
  0
LINE
  8
0
 62
4
 10
-3.48000019E+02
 20
-3.40262390E+02
 11
-3.48000019E+02
 21
-3.49500000E+02
  0
ARC
  8
0
 62
7
 10
-3.64000019E+02
 20
-3.49500000E+02
 40
1.10000000E+01
 50
0.00000000E+00
 51
1.80000000E+02
  0
ARC
  8
0
 62
4
 10
-3.64000019E+02
 20
-3.49500000E+02
 40
1.60000000E+01
 50
0.00000000E+00
 51
1.80000000E+02
  0
LINE
  8
0
 62
4
 10
9.99999465E+01
 20
-3.40262419E+02
 11
1.16000009E+02
 21
-3.31024777E+02
  0
LINE
  8
0
 62
4
 10
1.16000042E+02
 20
-3.31024778E+02
 11
1.32000015E+02
 21
-3.40262359E+02
  0
LINE
  8
0
 62
4
 10
9.99999809E+01
 20
-3.40262390E+02
 11
9.99999809E+01
 21
-3.49500000E+02
  0
LINE
  8
0
 62
4
 10
1.31999981E+02
 20
-3.40262390E+02
 11
1.31999981E+02
 21
-3.49500000E+02
  0
ARC
  8
0
 62
7
 10
1.15999981E+02
 20
-3.49500000E+02
 40
1.10000000E+01
 50
0.00000000E+00
 51
1.80000000E+02
  0
ARC
  8
0
 62
4
 10
1.15999981E+02
 20
-3.49500000E+02
 40
1.60000000E+01
 50
0.00000000E+00
 51
1.80000000E+02
  0
LINE
  8
0
 62
4
 10
-1.87000004E+02
 20
-1.85500000E+02
 11
-1.74000004E+02
 21
-1.85500000E+02
  0
LINE
  8
0
 62
4
 10
-1.87000004E+02
 20
-1.53500000E+02
 11
-1.74000004E+02
 21
-1.53500000E+02
  0
LINE
  8
0
 62
4
 10
-1.87000004E+02
 20
-1.53500000E+02
 11
-1.87000004E+02
 21
-1.85500000E+02
  0
LINE
  8
0
 62
4
 10
-1.74000004E+02
 20
-1.53500000E+02
 11
-1.74000004E+02
 21
-1.85500000E+02
  0
ARC
  8
0
 62
4
 10
-1.63893217E+02
 20
-1.61500000E+02
 40
2.31067870E+01
 50
1.59743797E+02
 51
2.00256203E+02
  0
ARC
  8
0
 62
4
 10
-1.63893217E+02
 20
-1.77500000E+02
 40
2.31067870E+01
 50
1.59743797E+02
 51
2.00256203E+02
  0
ARC
  8
0
 62
4
 10
-1.97106791E+02
 20
-1.61500000E+02
 40
2.31067870E+01
 50
3.39743797E+02
 51
2.02562028E+01
  0
ARC
  8
0
 62
4
 10
-1.97106791E+02
 20
-1.77500000E+02
 40
2.31067870E+01
 50
3.39743797E+02
 51
2.02562028E+01
  0
LINE
  8
0
 62
4
 10
-1.85570938E+02
 20
-1.69500000E+02
 11
-1.75429069E+02
 21
-1.69500000E+02
  0
POLYLINE
  8
0
 62
7
 66
1
  0
VERTEX
  8
0
 62
7
 10
-1.52738331E+02
 20
-1.62860474E+02
  0
VERTEX
  8
0
 62
7
 10
-1.53176479E+02
 20
-1.62887202E+02
  0
VERTEX
  8
0
 62
7
 10
-1.53611099E+02
 20
-1.62967174E+02
  0
VERTEX
  8
0
 62
7
 10
-1.54038693E+02
 20
-1.63099743E+02
  0
VERTEX
  8
0
 62
7
 10
-1.54455816E+02
 20
-1.63283844E+02
  0
VERTEX
  8
0
 62
7
 10
-1.54859112E+02
 20
-1.63517993E+02
  0
VERTEX
  8
0
 62
7
 10
-1.55245332E+02
 20
-1.63800307E+02
  0
VERTEX
  8
0
 62
7
 10
-1.55611367E+02
 20
-1.64128510E+02
  0
VERTEX
  8
0
 62
7
 10
-1.55954271E+02
 20
-1.64499962E+02
  0
VERTEX
  8
0
 62
7
 10
-1.56271281E+02
 20
-1.64911671E+02
  0
VERTEX
  8
0
 62
7
 10
-1.56559846E+02
 20
-1.65360323E+02
  0
VERTEX
  8
0
 62
7
 10
-1.56817643E+02
 20
-1.65842305E+02
  0
VERTEX
  8
0
 62
7
 10
-1.57042595E+02
 20
-1.66353736E+02
  0
VERTEX
  8
0
 62
7
 10
-1.57232892E+02
 20
-1.66890500E+02
  0
VERTEX
  8
0
 62
7
 10
-1.57387001E+02
 20
-1.67448273E+02
  0
VERTEX
  8
0
 62
7
 10
-1.57503682E+02
 20
-1.68022566E+02
  0
VERTEX
  8
0
 62
7
 10
-1.57581996E+02
 20
-1.68608755E+02
  0
VERTEX
  8
0
 62
7
 10
-1.57621311E+02
 20
-1.69202119E+02
  0
VERTEX
  8
0
 62
7
 10
-1.57621311E+02
 20
-1.69797881E+02
  0
VERTEX
  8
0
 62
7
 10
-1.57581996E+02
 20
-1.70391245E+02
  0
VERTEX
  8
0
 62
7
 10
-1.57503682E+02
 20
-1.70977434E+02
  0
VERTEX
  8
0
 62
7
 10
-1.57387001E+02
 20
-1.71551726E+02
  0
VERTEX
  8
0
 62
7
 10
-1.57232892E+02
 20
-1.72109500E+02
  0
VERTEX
  8
0
 62
7
 10
-1.57042595E+02
 20
-1.72646263E+02
  0
VERTEX
  8
0
 62
7
 10
-1.56817643E+02
 20
-1.73157695E+02
  0
VERTEX
  8
0
 62
7
 10
-1.56559846E+02
 20
-1.73639677E+02
  0
VERTEX
  8
0
 62
7
 10
-1.56271281E+02
 20
-1.74088329E+02
  0
VERTEX
  8
0
 62
7
 10
-1.55954271E+02
 20
-1.74500038E+02
  0
VERTEX
  8
0
 62
7
 10
-1.55611367E+02
 20
-1.74871490E+02
  0
VERTEX
  8
0
 62
7
 10
-1.55245332E+02
 20
-1.75199693E+02
  0
VERTEX
  8
0
 62
7
 10
-1.54859112E+02
 20
-1.75482007E+02
  0
VERTEX
  8
0
 62
7
 10
-1.54455816E+02
 20
-1.75716156E+02
  0
VERTEX
  8
0
 62
7
 10
-1.54038693E+02
 20
-1.75900257E+02
  0
VERTEX
  8
0
 62
7
 10
-1.53611100E+02
 20
-1.76032826E+02
  0
VERTEX
  8
0
 62
7
 10
-1.53176479E+02
 20
-1.76112798E+02
  0
VERTEX
  8
0
 62
7
 10
-1.52738331E+02
 20
-1.76139526E+02
  0
SEQEND
  8
0
  0
POLYLINE
  8
0
 62
7
 66
1
  0
VERTEX
  8
0
 62
7
 10
-1.52738338E+02
 20
-1.76139534E+02
  0
VERTEX
  8
0
 62
7
 10
-1.53174017E+02
 20
-1.76151753E+02
  0
VERTEX
  8
0
 62
7
 10
-1.53606228E+02
 20
-1.76188312E+02
  0
VERTEX
  8
0
 62
7
 10
-1.54031530E+02
 20
-1.76248921E+02
  0
VERTEX
  8
0
 62
7
 10
-1.54446537E+02
 20
-1.76333096E+02
  0
VERTEX
  8
0
 62
7
 10
-1.54847945E+02
 20
-1.76440167E+02
  0
VERTEX
  8
0
 62
7
 10
-1.55232559E+02
 20
-1.76569283E+02
  0
VERTEX
  8
0
 62
7
 10
-1.55597318E+02
 20
-1.76719416E+02
  0
VERTEX
  8
0
 62
7
 10
-1.55939317E+02
 20
-1.76889369E+02
  0
VERTEX
  8
0
 62
7
 10
-1.56255834E+02
 20
-1.77077791E+02
  0
VERTEX
  8
0
 62
7
 10
-1.56544348E+02
 20
-1.77283182E+02
  0
VERTEX
  8
0
 62
7
 10
-1.56802565E+02
 20
-1.77503905E+02
  0
VERTEX
  8
0
 62
7
 10
-1.57028426E+02
 20
-1.77738205E+02
  0
VERTEX
  8
0
 62
7
 10
-1.57220136E+02
 20
-1.77984216E+02
  0
VERTEX
  8
0
 62
7
 10
-1.57376167E+02
 20
-1.78239979E+02
  0
VERTEX
  8
0
 62
7
 10
-1.57495278E+02
 20
-1.78503458E+02
  0
VERTEX
  8
0
 62
7
 10
-1.57576519E+02
 20
-1.78772557E+02
  0
VERTEX
  8
0
 62
7
 10
-1.57619245E+02
 20
-1.79045132E+02
  0
VERTEX
  8
0
 62
7
 10
-1.57623116E+02
 20
-1.79319014E+02
  0
VERTEX
  8
0
 62
7
 10
-1.57588100E+02
 20
-1.79592023E+02
  0
VERTEX
  8
0
 62
7
 10
-1.57514476E+02
 20
-1.79861984E+02
  0
VERTEX
  8
0
 62
7
 10
-1.57402831E+02
 20
-1.80126750E+02
  0
VERTEX
  8
0
 62
7
 10
-1.57254053E+02
 20
-1.80384212E+02
  0
VERTEX
  8
0
 62
7
 10
-1.57069326E+02
 20
-1.80632321E+02
  0
VERTEX
  8
0
 62
7
 10
-1.56850122E+02
 20
-1.80869102E+02
  0
VERTEX
  8
0
 62
7
 10
-1.56598184E+02
 20
-1.81092669E+02
  0
VERTEX
  8
0
 62
7
 10
-1.56315519E+02
 20
-1.81301243E+02
  0
VERTEX
  8
0
 62
7
 10
-1.56004378E+02
 20
-1.81493163E+02
  0
VERTEX
  8
0
 62
7
 10
-1.55667236E+02
 20
-1.81666903E+02
  0
VERTEX
  8
0
 62
7
 10
-1.55306778E+02
 20
-1.81821077E+02
  0
SEQEND
  8
0
  0
POLYLINE
  8
0
 62
7
 66
1
  0
VERTEX
  8
0
 62
7
 10
-1.55306778E+02
 20
-1.57178916E+02
  0
VERTEX
  8
0
 62
7
 10
-1.55667236E+02
 20
-1.57333091E+02
  0
VERTEX
  8
0
 62
7
 10
-1.56004378E+02
 20
-1.57506831E+02
  0
VERTEX
  8
0
 62
7
 10
-1.56315519E+02
 20
-1.57698752E+02
  0
VERTEX
  8
0
 62
7
 10
-1.56598184E+02
 20
-1.57907326E+02
  0
VERTEX
  8
0
 62
7
 10
-1.56850122E+02
 20
-1.58130894E+02
  0
VERTEX
  8
0
 62
7
 10
-1.57069326E+02
 20
-1.58367675E+02
  0
VERTEX
  8
0
 62
7
 10
-1.57254053E+02
 20
-1.58615785E+02
  0
VERTEX
  8
0
 62
7
 10
-1.57402831E+02
 20
-1.58873248E+02
  0
VERTEX
  8
0
 62
7
 10
-1.57514476E+02
 20
-1.59138014E+02
  0
VERTEX
  8
0
 62
7
 10
-1.57588100E+02
 20
-1.59407976E+02
  0
VERTEX
  8
0
 62
7
 10
-1.57623116E+02
 20
-1.59680986E+02
  0
VERTEX
  8
0
 62
7
 10
-1.57619245E+02
 20
-1.59954868E+02
  0
VERTEX
  8
0
 62
7
 10
-1.57576519E+02
 20
-1.60227444E+02
  0
VERTEX
  8
0
 62
7
 10
-1.57495278E+02
 20
-1.60496544E+02
  0
VERTEX
  8
0
 62
7
 10
-1.57376167E+02
 20
-1.60760024E+02
  0
VERTEX
  8
0
 62
7
 10
-1.57220136E+02
 20
-1.61015788E+02
  0
VERTEX
  8
0
 62
7
 10
-1.57028426E+02
 20
-1.61261799E+02
  0
VERTEX
  8
0
 62
7
 10
-1.56802565E+02
 20
-1.61496099E+02
  0
VERTEX
  8
0
 62
7
 10
-1.56544348E+02
 20
-1.61716823E+02
  0
VERTEX
  8
0
 62
7
 10
-1.56255834E+02
 20
-1.61922214E+02
  0
VERTEX
  8
0
 62
7
 10
-1.55939317E+02
 20
-1.62110636E+02
  0
VERTEX
  8
0
 62
7
 10
-1.55597318E+02
 20
-1.62280590E+02
  0
VERTEX
  8
0
 62
7
 10
-1.55232559E+02
 20
-1.62430723E+02
  0
VERTEX
  8
0
 62
7
 10
-1.54847945E+02
 20
-1.62559840E+02
  0
VERTEX
  8
0
 62
7
 10
-1.54446537E+02
 20
-1.62666912E+02
  0
VERTEX
  8
0
 62
7
 10
-1.54031530E+02
 20
-1.62751087E+02
  0
VERTEX
  8
0
 62
7
 10
-1.53606228E+02
 20
-1.62811695E+02
  0
VERTEX
  8
0
 62
7
 10
-1.53174017E+02
 20
-1.62848254E+02
  0
VERTEX
  8
0
 62
7
 10
-1.52738338E+02
 20
-1.62860473E+02
  0
SEQEND
  8
0
  0
POLYLINE
  8
0
 62
7
 66
1
  0
VERTEX
  8
0
 62
7
 10
-1.52738361E+02
 20
-3.38000008E+02
  0
VERTEX
  8
0
 62
7
 10
-1.53176510E+02
 20
-3.38023155E+02
  0
VERTEX
  8
0
 62
7
 10
-1.53611131E+02
 20
-3.38092412E+02
  0
VERTEX
  8
0
 62
7
 10
-1.54038725E+02
 20
-3.38207221E+02
  0
VERTEX
  8
0
 62
7
 10
-1.54455849E+02
 20
-3.38366657E+02
  0
VERTEX
  8
0
 62
7
 10
-1.54859145E+02
 20
-3.38569436E+02
  0
VERTEX
  8
0
 62
7
 10
-1.55245366E+02
 20
-3.38813926E+02
  0
VERTEX
  8
0
 62
7
 10
-1.55611402E+02
 20
-3.39098158E+02
  0
VERTEX
  8
0
 62
7
 10
-1.55954306E+02
 20
-3.39419845E+02
  0
VERTEX
  8
0
 62
7
 10
-1.56271316E+02
 20
-3.39776395E+02
  0
VERTEX
  8
0
 62
7
 10
-1.56559882E+02
 20
-3.40164938E+02
  0
VERTEX
  8
0
 62
7
 10
-1.56817679E+02
 20
-3.40582347E+02
  0
VERTEX
  8
0
 62
7
 10
-1.57042632E+02
 20
-3.41025259E+02
  0
VERTEX
  8
0
 62
7
 10
-1.57232929E+02
 20
-3.41490109E+02
  0
VERTEX
  8
0
 62
7
 10
-1.57387039E+02
 20
-3.41973155E+02
  0
VERTEX
  8
0
 62
7
 10
-1.57503720E+02
 20
-3.42470506E+02
  0
VERTEX
  8
0
 62
7
 10
-1.57582033E+02
 20
-3.42978160E+02
  0
VERTEX
  8
0
 62
7
 10
-1.57621348E+02
 20
-3.43492028E+02
  0
VERTEX
  8
0
 62
7
 10
-1.57621348E+02
 20
-3.44007972E+02
  0
VERTEX
  8
0
 62
7
 10
-1.57582033E+02
 20
-3.44521840E+02
  0
VERTEX
  8
0
 62
7
 10
-1.57503720E+02
 20
-3.45029494E+02
  0
VERTEX
  8
0
 62
7
 10
-1.57387039E+02
 20
-3.45526845E+02
  0
VERTEX
  8
0
 62
7
 10
-1.57232929E+02
 20
-3.46009891E+02
  0
VERTEX
  8
0
 62
7
 10
-1.57042632E+02
 20
-3.46474741E+02
  0
VERTEX
  8
0
 62
7
 10
-1.56817679E+02
 20
-3.46917653E+02
  0
VERTEX
  8
0
 62
7
 10
-1.56559882E+02
 20
-3.47335062E+02
  0
VERTEX
  8
0
 62
7
 10
-1.56271316E+02
 20
-3.47723605E+02
  0
VERTEX
  8
0
 62
7
 10
-1.55954306E+02
 20
-3.48080155E+02
  0
VERTEX
  8
0
 62
7
 10
-1.55611402E+02
 20
-3.48401842E+02
  0
VERTEX
  8
0
 62
7
 10
-1.55245366E+02
 20
-3.48686074E+02
  0
VERTEX
  8
0
 62
7
 10
-1.54859145E+02
 20
-3.48930564E+02
  0
VERTEX
  8
0
 62
7
 10
-1.54455849E+02
 20
-3.49133343E+02
  0
VERTEX
  8
0
 62
7
 10
-1.54038725E+02
 20
-3.49292779E+02
  0
VERTEX
  8
0
 62
7
 10
-1.53611131E+02
 20
-3.49407588E+02
  0
VERTEX
  8
0
 62
7
 10
-1.53176510E+02
 20
-3.49476845E+02
  0
VERTEX
  8
0
 62
7
 10
-1.52738361E+02
 20
-3.49499992E+02
  0
SEQEND
  8
0
  0
ARC
  8
0
 62
7
 10
1.15999981E+02
 20
-3.49500000E+02
 40
2.10111084E+01
 50
0.00000000E+00
 51
1.80000000E+02
  0
ARC
  8
0
 62
7
 10
1.15999981E+02
 20
-3.49499924E+02
 40
1.95000000E+01
 50
0.00000000E+00
 51
1.80000224E+02
  0
ARC
  8
0
 62
2
 10
1.15999981E+02
 20
-3.49500000E+02
 40
1.01800117E+01
 50
0.00000000E+00
 51
1.80000000E+02
  0
ARC
  8
0
 62
7
 10
1.53999981E+02
 20
-3.26634689E+02
 40
1.00000000E+00
 50
3.59721781E-05
 51
1.03886119E+02
  0
ARC
  8
0
 62
7
 10
1.38865307E+02
 20
-3.11499939E+02
 40
1.00000000E+00
 50
3.46112226E+02
 51
9.00000162E+01
  0
ARC
  8
0
 62
7
 10
9.31346397E+01
 20
-3.11500031E+02
 40
1.00000000E+00
 50
9.00000162E+01
 51
1.93885698E+02
  0
ARC
  8
0
 62
7
 10
7.79999199E+01
 20
-3.26634674E+02
 40
1.00000000E+00
 50
7.61138592E+01
 51
1.80000005E+02
  0
ARC
  8
0
 62
7
 10
1.15999981E+02
 20
-3.49499924E+02
 40
2.20000000E+01
 50
0.00000000E+00
 51
1.80000199E+02
  0
ARC
  8
0
 62
7
 10
1.13749981E+02
 20
-3.26610275E+02
 40
1.00000000E+00
 50
2.75613894E+02
 51
3.59721781E-05
  0
ARC
  8
0
 62
7
 10
9.31102867E+01
 20
-3.47250015E+02
 40
1.00000000E+00
 50
2.70000038E+02
 51
3.54386163E+02
  0
ARC
  8
0
 62
7
 10
1.01405499E+02
 20
-3.31723511E+02
 40
1.00000000E+00
 50
2.25000000E+02
 51
3.09386157E+02
  0
ARC
  8
0
 62
7
 10
9.82234917E+01
 20
-3.34905548E+02
 40
1.00000000E+00
 50
3.20614517E+02
 51
4.50000423E+01
  0
ARC
  8
0
 62
7
 10
9.79988823E+01
 20
-3.07100052E+02
 40
1.00000000E+00
 50
9.00000162E+01
 51
1.78725219E+02
  0
ARC
  8
0
 62
7
 10
7.35999413E+01
 20
-3.31498825E+02
 40
1.00000000E+00
 50
9.12730270E+01
 51
1.80000005E+02
  0
ARC
  8
0
 62
7
 10
9.34999809E+01
 20
-3.06999939E+02
 40
3.50000024E+00
 50
2.69999984E+02
 51
3.58725492E+02
  0
ARC
  8
0
 62
7
 10
7.34999657E+01
 20
-3.26999939E+02
 40
3.50000024E+00
 50
2.71273049E+02
 51
1.86693353E-05
  0
CIRCLE
  8
0
 62
7
 10
8.09999657E+01
 20
-3.14500031E+02
 40
8.00000000E+00
  0
ARC
  8
0
 62
7
 10
7.29999504E+01
 20
-3.06500031E+02
 40
4.00000000E+00
 50
9.00000162E+01
 51
1.80000005E+02
  0
ARC
  8
0
 62
7
 10
8.09999657E+01
 20
-3.14500031E+02
 40
1.15000000E+01
 50
2.56113130E+02
 51
1.38865754E+01
  0
ARC
  8
0
 62
7
 10
7.29999504E+01
 20
-3.06500031E+02
 40
3.40000033E+00
 50
9.00000162E+01
 51
1.80000005E+02
  0
ARC
  8
0
 62
7
 10
7.35999413E+01
 20
-3.47250015E+02
 40
1.00000000E+00
 50
1.79999991E+02
 51
2.70000028E+02
  0
ARC
  8
0
 62
7
 10
1.13749981E+02
 20
-3.07100052E+02
 40
1.00000000E+00
 50
3.59721781E-05
 51
9.00000162E+01
  0
ARC
  8
0
 62
7
 10
9.12854576E+01
 20
-3.21603485E+02
 40
1.00000000E+00
 50
1.45369621E+02
 51
2.25000010E+02
  0
ARC
  8
0
 62
7
 10
8.81034508E+01
 20
-3.24785492E+02
 40
1.00000000E+00
 50
4.50000423E+01
 51
1.24630380E+02
  0
CIRCLE
  8
0
 62
7
 10
8.09999657E+01
 20
-3.14500031E+02
 40
8.69999981E+00
  0
CIRCLE
  8
0
 62
2
 10
1.50999981E+02
 20
-3.14500000E+02
 40
5.00000000E+00
  0
ARC
  8
0
 62
7
 10
1.38889660E+02
 20
-3.47250000E+02
 40
1.00000000E+00
 50
1.85613878E+02
 51
2.70000038E+02
  0
ARC
  8
0
 62
7
 10
1.18249981E+02
 20
-3.26610321E+02
 40
1.00000000E+00
 50
1.80000036E+02
 51
2.64386169E+02
  0
ARC
  8
0
 62
7
 10
1.33776440E+02
 20
-3.34905525E+02
 40
1.00000000E+00
 50
1.35000014E+02
 51
2.19386168E+02
  0
ARC
  8
0
 62
7
 10
1.30594433E+02
 20
-3.31723511E+02
 40
1.00000000E+00
 50
2.30614484E+02
 51
3.15000026E+02
  0
ARC
  8
0
 62
7
 10
1.34001110E+02
 20
-3.07099976E+02
 40
1.00000000E+00
 50
1.27300564E+00
 51
9.00000162E+01
  0
ARC
  8
0
 62
7
 10
1.58399914E+02
 20
-3.31498917E+02
 40
1.00000000E+00
 50
3.59721781E-05
 51
8.87252023E+01
  0
ARC
  8
0
 62
7
 10
1.58500042E+02
 20
-3.27000031E+02
 40
3.50000024E+00
 50
1.79999500E+02
 51
2.68725460E+02
  0
ARC
  8
0
 62
7
 10
1.38500011E+02
 20
-3.07000000E+02
 40
3.50000024E+00
 50
1.81273033E+02
 51
2.69999984E+02
  0
CIRCLE
  8
0
 62
2
 10
8.09999657E+01
 20
-3.14500000E+02
 40
5.00000000E+00
  0
CIRCLE
  8
0
 62
7
 10
1.50999981E+02
 20
-3.14500031E+02
 40
8.00000000E+00
  0
ARC
  8
0
 62
7
 10
1.58999950E+02
 20
-3.06500015E+02
 40
4.00000000E+00
 50
2.23117997E-05
 51
8.99999750E+01
  0
ARC
  8
0
 62
7
 10
1.58999950E+02
 20
-3.06500015E+02
 40
3.40000033E+00
 50
2.23117997E-05
 51
8.99999750E+01
  0
ARC
  8
0
 62
7
 10
1.58399914E+02
 20
-3.47250000E+02
 40
1.00000000E+00
 50
2.70000052E+02
 51
3.59721781E-05
  0
ARC
  8
0
 62
7
 10
1.50999981E+02
 20
-3.14500031E+02
 40
1.15000000E+01
 50
1.66113111E+02
 51
2.83886595E+02
  0
ARC
  8
0
 62
7
 10
1.18249981E+02
 20
-3.07100006E+02
 40
1.00000000E+00
 50
9.00000025E+01
 51
1.80000046E+02
  0
ARC
  8
0
 62
7
 10
1.43896496E+02
 20
-3.24785492E+02
 40
1.00000000E+00
 50
5.53696217E+01
 51
1.35000014E+02
  0
ARC
  8
0
 62
7
 10
1.40714489E+02
 20
-3.21603455E+02
 40
1.00000000E+00
 50
3.15000047E+02
 51
3.46303671E+01
  0
CIRCLE
  8
0
 62
7
 10
1.50999981E+02
 20
-3.14500031E+02
 40
8.69999981E+00
  0
CIRCLE
  8
0
 62
7
 10
8.09999657E+01
 20
-3.14500000E+02
 40
4.18000031E+00
  0
CIRCLE
  8
0
 62
7
 10
1.50999981E+02
 20
-3.14500000E+02
 40
4.18000031E+00
  0
ARC
  8
0
 62
7
 10
-1.23500019E+02
 20
-3.03619720E+02
 40
5.00000000E-01
 50
9.10002493E+01
 51
1.79999964E+02
  0
CIRCLE
  8
0
 62
7
 10
-9.49999733E+01
 20
-1.85500061E+02
 40
2.59999990E+00
  0
CIRCLE
  8
0
 62
7
 10
-1.03999943E+02
 20
-1.58500031E+02
 40
1.10000000E+01
  0
CIRCLE
  8
0
 62
2
 10
-1.03999973E+02
 20
-1.58500031E+02
 40
1.04775009E+01
  0
CIRCLE
  8
0
 62
7
 10
-1.03999943E+02
 20
-1.58499969E+02
 40
9.25000000E+00
  0
ARC
  8
0
 62
2
 10
-3.64000019E+02
 20
-3.49500000E+02
 40
1.01800117E+01
 50
0.00000000E+00
 51
1.80000000E+02
  0
ARC
  8
0
 62
7
 10
-1.25500019E+02
 20
-3.28000000E+02
 40
5.00000000E-01
 50
8.99999818E+01
 51
1.79999964E+02
  0
ARC
  8
0
 62
7
 10
-1.39500004E+02
 20
-3.28971741E+02
 40
5.00000000E-01
 50
9.20007356E+01
 51
1.79999964E+02
  0
ARC
  8
0
 62
7
 10
-1.44500019E+02
 20
-3.30500000E+02
 40
5.00000000E-01
 50
8.99999818E+01
 51
1.79999964E+02
  0
CIRCLE
  8
0
 62
7
 10
-3.28999989E+02
 20
-3.14500000E+02
 40
4.18000031E+00
  0
CIRCLE
  8
0
 62
7
 10
-3.99000019E+02
 20
-3.14500000E+02
 40
4.18000031E+00
  0
CIRCLE
  8
0
 62
2
 10
-3.28999989E+02
 20
-3.14500000E+02
 40
5.00000000E+00
  0
CIRCLE
  8
0
 62
2
 10
-3.99000019E+02
 20
-3.14500000E+02
 40
5.00000000E+00
  0
CIRCLE
  8
0
 62
7
 10
-9.49999733E+01
 20
-1.85500061E+02
 40
5.00000000E+00
  0
ARC
  8
0
 62
7
 10
-4.02000019E+02
 20
-3.26634689E+02
 40
1.00000000E+00
 50
7.61138799E+01
 51
1.79999964E+02
  0
ARC
  8
0
 62
7
 10
-3.86865345E+02
 20
-3.11499939E+02
 40
1.00000000E+00
 50
8.99999818E+01
 51
1.93887774E+02
  0
ARC
  8
0
 62
7
 10
-3.41134663E+02
 20
-3.11500031E+02
 40
1.00000000E+00
 50
3.46114302E+02
 51
8.99999818E+01
  0
ARC
  8
0
 62
7
 10
-3.25999958E+02
 20
-3.26634674E+02
 40
1.00000000E+00
 50
0.00000000E+00
 51
1.03886139E+02
  0
ARC
  8
0
 62
7
 10
-3.64000019E+02
 20
-3.49500000E+02
 40
2.10111084E+01
 50
0.00000000E+00
 51
1.80000000E+02
  0
ARC
  8
0
 62
7
 10
-3.64000019E+02
 20
-3.49499924E+02
 40
1.95000000E+01
 50
0.00000000E+00
 51
1.80000224E+02
  0
ARC
  8
0
 62
7
 10
-3.64000019E+02
 20
-3.49499924E+02
 40
2.20000000E+01
 50
0.00000000E+00
 51
1.80000199E+02
  0
ARC
  8
0
 62
7
 10
-3.61750019E+02
 20
-3.26610275E+02
 40
1.00000000E+00
 50
1.79999964E+02
 51
2.64386104E+02
  0
ARC
  8
0
 62
7
 10
-3.41110310E+02
 20
-3.47250015E+02
 40
1.00000000E+00
 50
1.85613837E+02
 51
2.69999963E+02
  0
ARC
  8
0
 62
7
 10
-3.49405537E+02
 20
-3.31723511E+02
 40
1.00000000E+00
 50
2.30613841E+02
 51
3.14999995E+02
  0
ARC
  8
0
 62
7
 10
-3.46223530E+02
 20
-3.34905548E+02
 40
1.00000000E+00
 50
1.34999959E+02
 51
2.19385485E+02
  0
ARC
  8
0
 62
7
 10
-3.45998920E+02
 20
-3.07100052E+02
 40
1.00000000E+00
 50
1.27477808E+00
 51
8.99999818E+01
  0
ARC
  8
0
 62
7
 10
-3.21599964E+02
 20
-3.31498825E+02
 40
1.00000000E+00
 50
0.00000000E+00
 51
8.87269716E+01
  0
ARC
  8
0
 62
7
 10
-3.41500019E+02
 20
-3.06999939E+02
 40
3.50000024E+00
 50
1.81274508E+02
 51
2.70000018E+02
  0
ARC
  8
0
 62
7
 10
-3.21499989E+02
 20
-3.26999939E+02
 40
3.50000024E+00
 50
1.79999977E+02
 51
2.68726963E+02
  0
CIRCLE
  8
0
 62
7
 10
-3.28999989E+02
 20
-3.14500031E+02
 40
8.00000000E+00
  0
ARC
  8
0
 62
7
 10
-3.20999989E+02
 20
-3.06500031E+02
 40
4.00000000E+00
 50
0.00000000E+00
 51
8.99999818E+01
  0
ARC
  8
0
 62
7
 10
-3.28999989E+02
 20
-3.14500031E+02
 40
1.15000000E+01
 50
1.66113425E+02
 51
2.83886868E+02
  0
ARC
  8
0
 62
7
 10
-3.20999989E+02
 20
-3.06500031E+02
 40
3.40000033E+00
 50
0.00000000E+00
 51
8.99999818E+01
  0
ARC
  8
0
 62
7
 10
-3.21599964E+02
 20
-3.47250015E+02
 40
1.00000000E+00
 50
2.69999963E+02
 51
0.00000000E+00
  0
ARC
  8
0
 62
7
 10
-3.61750019E+02
 20
-3.07100052E+02
 40
1.00000000E+00
 50
8.99999818E+01
 51
1.79999964E+02
  0
ARC
  8
0
 62
7
 10
-3.39285480E+02
 20
-3.21603485E+02
 40
1.00000000E+00
 50
3.14999995E+02
 51
3.46303842E+01
  0
ARC
  8
0
 62
7
 10
-3.36103474E+02
 20
-3.24785492E+02
 40
1.00000000E+00
 50
5.53696252E+01
 51
1.34999959E+02
  0
CIRCLE
  8
0
 62
7
 10
-3.28999989E+02
 20
-3.14500031E+02
 40
8.69999981E+00
  0
ARC
  8
0
 62
7
 10
-3.86889698E+02
 20
-3.47250000E+02
 40
1.00000000E+00
 50
2.69999963E+02
 51
3.54386117E+02
  0
ARC
  8
0
 62
7
 10
-3.66250019E+02
 20
-3.26610321E+02
 40
1.00000000E+00
 50
2.75613832E+02
 51
3.59999959E+02
  0
ARC
  8
0
 62
7
 10
-3.81776478E+02
 20
-3.34905525E+02
 40
1.00000000E+00
 50
3.20613837E+02
 51
4.49999910E+01
  0
ARC
  8
0
 62
7
 10
-3.78594471E+02
 20
-3.31723511E+02
 40
1.00000000E+00
 50
2.24999972E+02
 51
3.09385511E+02
  0
ARC
  8
0
 62
7
 10
-1.39499943E+02
 20
-1.48971680E+02
 40
5.00000000E-01
 50
9.20007356E+01
 51
1.79999951E+02
  0
ARC
  8
0
 62
7
 10
-1.39499943E+02
 20
-1.90028229E+02
 40
5.00000000E-01
 50
1.79999977E+02
 51
2.67999192E+02
  0
ARC
  8
0
 62
7
 10
-1.25499958E+02
 20
-1.90999969E+02
 40
5.00000000E-01
 50
1.79999977E+02
 51
2.69999974E+02
  0
ARC
  8
0
 62
7
 10
-1.44499943E+02
 20
-1.88499939E+02
 40
5.00000000E-01
 50
1.79999977E+02
 51
2.69999974E+02
  0
ARC
  8
0
 62
7
 10
-1.44499943E+02
 20
-1.50499969E+02
 40
5.00000000E-01
 50
8.99999818E+01
 51
1.79999951E+02
  0
ARC
  8
0
 62
7
 10
-1.25499958E+02
 20
-1.47999939E+02
 40
5.00000000E-01
 50
8.99999818E+01
 51
1.79999951E+02
  0
ARC
  8
0
 62
7
 10
-1.17999958E+02
 20
-1.97499939E+02
 40
2.00000000E+00
 50
1.79999977E+02
 51
2.70000028E+02
  0
ARC
  8
0
 62
7
 10
-1.17999958E+02
 20
-1.41499969E+02
 40
2.00000000E+00
 50
8.99999818E+01
 51
1.79999951E+02
  0
ARC
  8
0
 62
7
 10
-1.23499943E+02
 20
-2.15380280E+02
 40
5.00000000E-01
 50
1.79999977E+02
 51
2.68999679E+02
  0
ARC
  8
0
 62
7
 10
-1.23499943E+02
 20
-1.23619720E+02
 40
5.00000000E-01
 50
9.10002493E+01
 51
1.79999951E+02
  0
ARC
  8
0
 62
7
 10
-3.82001148E+02
 20
-3.07099976E+02
 40
1.00000000E+00
 50
8.99999818E+01
 51
1.78726994E+02
  0
ARC
  8
0
 62
7
 10
-4.06399952E+02
 20
-3.31498917E+02
 40
1.00000000E+00
 50
9.12747958E+01
 51
1.79999964E+02
  0
ARC
  8
0
 62
7
 10
-4.06500080E+02
 20
-3.27000031E+02
 40
3.50000024E+00
 50
2.71274531E+02
 51
4.99579573E-04
  0
ARC
  8
0
 62
7
 10
-3.86500050E+02
 20
-3.07000000E+02
 40
3.50000024E+00
 50
2.70000018E+02
 51
3.58726970E+02
  0
CIRCLE
  8
0
 62
7
 10
-3.99000019E+02
 20
-3.14500031E+02
 40
8.00000000E+00
  0
ARC
  8
0
 62
7
 10
-4.06999989E+02
 20
-3.06500015E+02
 40
4.00000000E+00
 50
9.00000231E+01
 51
1.79999977E+02
  0
ARC
  8
0
 62
7
 10
-4.06999989E+02
 20
-3.06500015E+02
 40
3.40000033E+00
 50
9.00000231E+01
 51
1.79999977E+02
  0
ARC
  8
0
 62
7
 10
-4.06399952E+02
 20
-3.47250000E+02
 40
1.00000000E+00
 50
1.79999964E+02
 51
2.69999946E+02
  0
ARC
  8
0
 62
7
 10
-3.99000019E+02
 20
-3.14500031E+02
 40
1.15000000E+01
 50
2.56113404E+02
 51
1.38868930E+01
  0
ARC
  8
0
 62
7
 10
-3.66250019E+02
 20
-3.07100006E+02
 40
1.00000000E+00
 50
3.59999959E+02
 51
8.99999956E+01
  0
ARC
  8
0
 62
7
 10
-3.91896534E+02
 20
-3.24785492E+02
 40
1.00000000E+00
 50
4.49999910E+01
 51
1.24630380E+02
  0
ARC
  8
0
 62
7
 10
-3.88714527E+02
 20
-3.21603455E+02
 40
1.00000000E+00
 50
1.45369634E+02
 51
2.24999955E+02
  0
CIRCLE
  8
0
 62
7
 10
-3.99000019E+02
 20
-3.14500031E+02
 40
8.69999981E+00
  0
LINE
  8
0
 62
7
 10
-1.61999989E+02
 20
-3.39319992E+02
 11
-1.58999989E+02
 21
-3.39319992E+02
  0
LINE
  8
0
 62
7
 10
-1.61999958E+02
 20
-1.79679977E+02
 11
-1.58999958E+02
 21
-1.79679977E+02
  0
LINE
  8
0
 62
7
 10
-1.61999958E+02
 20
-1.59319977E+02
 11
-1.58999958E+02
 21
-1.59319977E+02
  0
LINE
  8
0
 62
7
 10
-1.58999941E+02
 20
-1.80500010E+02
 11
-1.52738316E+02
 21
-1.82779055E+02
  0
LINE
  8
0
 62
7
 10
-1.58999967E+02
 20
-1.58500010E+02
 11
-1.52738328E+02
 21
-1.56220959E+02
  0
LINE
  8
0
 62
7
 10
-1.52738331E+02
 20
-1.62860474E+02
 11
-1.44999958E+02
 21
-1.62860474E+02
  0
LINE
  8
0
 62
7
 10
-1.97500034E+02
 20
-3.38499977E+02
 11
-1.87000004E+02
 21
-3.38499977E+02
  0
LINE
  8
0
 62
7
 10
-1.99000042E+02
 20
-3.40000034E+02
 11
-1.97500024E+02
 21
-3.38500016E+02
  0
LINE
  8
0
 62
2
 10
-1.98320011E+02
 20
-1.79679977E+02
 11
-1.87000004E+02
 21
-1.79679977E+02
  0
LINE
  8
0
 62
7
 10
-1.98999967E+02
 20
-1.78999926E+02
 11
-1.97499976E+02
 21
-1.80499917E+02
  0
LINE
  8
0
 62
7
 10
-1.97500004E+02
 20
-1.80500000E+02
 11
-1.87000004E+02
 21
-1.80500000E+02
  0
LINE
  8
0
 62
2
 10
-1.98320072E+02
 20
-3.39319992E+02
 11
-1.87000004E+02
 21
-3.39319992E+02
  0
LINE
  8
0
 62
2
 10
-1.98320011E+02
 20
-1.59319977E+02
 11
-1.87000004E+02
 21
-1.59319977E+02
  0
LINE
  8
0
 62
7
 10
-1.98999955E+02
 20
-1.60000088E+02
 11
-1.97499920E+02
 21
-1.58500054E+02
  0
LINE
  8
0
 62
7
 10
-1.97500004E+02
 20
-1.80500000E+02
 11
-1.97500004E+02
 21
-1.58499969E+02
  0
LINE
  8
0
 62
7
 10
-1.97500004E+02
 20
-1.58499969E+02
 11
-1.87000004E+02
 21
-1.58499969E+02
  0
LINE
  8
0
 62
7
 10
-1.61999958E+02
 20
-1.80500000E+02
 11
-1.61999958E+02
 21
-1.58499969E+02
  0
LINE
  8
0
 62
7
 10
-1.99000004E+02
 20
-1.78999878E+02
 11
-1.99000004E+02
 21
-1.60000061E+02
  0
LINE
  8
0
 62
7
 10
-1.58999958E+02
 20
-1.80500000E+02
 11
-1.58999958E+02
 21
-1.58500000E+02
  0
LINE
  8
0
 62
7
 10
-1.97500004E+02
 20
-3.38499977E+02
 11
-1.97500004E+02
 21
-3.49500000E+02
  0
LINE
  8
0
 62
7
 10
-1.61999989E+02
 20
-3.38499977E+02
 11
-1.61999989E+02
 21
-3.49500000E+02
  0
LINE
  8
0
 62
7
 10
-1.99000004E+02
 20
-3.39999954E+02
 11
-1.99000004E+02
 21
-3.49500000E+02
  0
LINE
  8
0
 62
7
 10
-1.58999989E+02
 20
-3.49500000E+02
 11
-1.58999989E+02
 21
-3.38499977E+02
  0
LINE
  8
0
 62
7
 10
-1.52738285E+02
 20
-1.56220978E+02
 11
-1.44999958E+02
 21
-1.56220978E+02
  0
LINE
  8
0
 62
7
 10
-1.58999988E+02
 20
-3.38499998E+02
 11
-1.57626267E+02
 21
-3.38000004E+02
  0
LINE
  8
0
 62
7
 10
-1.52738331E+02
 20
-1.82779037E+02
 11
-1.44999958E+02
 21
-1.82779037E+02
  0
LINE
  8
0
 62
7
 10
-1.52738331E+02
 20
-1.76139526E+02
 11
-1.44999958E+02
 21
-1.76139526E+02
  0
LINE
  8
0
 62
7
 10
-1.52738361E+02
 20
-3.49500000E+02
 11
-1.45000004E+02
 21
-3.49500000E+02
  0
LINE
  8
0
 62
7
 10
-1.57626270E+02
 20
-3.38000008E+02
 11
-1.45000004E+02
 21
-3.38000008E+02
  0
LINE
  8
0
 62
7
 10
8.09999565E+01
 20
-3.08726503E+02
 11
8.59999594E+01
 21
-3.11613256E+02
  0
LINE
  8
0
 62
7
 10
8.59999657E+01
 20
-3.11613251E+02
 11
8.59999657E+01
 21
-3.17386749E+02
  0
LINE
  8
0
 62
7
 10
8.59999598E+01
 20
-3.17386752E+02
 11
8.09999635E+01
 21
-3.20273502E+02
  0
LINE
  8
0
 62
7
 10
8.09999594E+01
 20
-3.20273510E+02
 11
7.59999565E+01
 21
-3.17386757E+02
  0
LINE
  8
0
 62
7
 10
7.59999657E+01
 20
-3.11613251E+02
 11
7.59999657E+01
 21
-3.17386749E+02
  0
LINE
  8
0
 62
7
 10
8.09999598E+01
 20
-3.08726498E+02
 11
7.59999635E+01
 21
-3.11613248E+02
  0
LINE
  8
0
 62
7
 10
1.50999985E+02
 20
-3.08726503E+02
 11
1.55999988E+02
 21
-3.11613256E+02
  0
LINE
  8
0
 62
7
 10
1.55999981E+02
 20
-3.11613251E+02
 11
1.55999981E+02
 21
-3.17386749E+02
  0
LINE
  8
0
 62
7
 10
1.55999993E+02
 20
-3.17386746E+02
 11
1.50999997E+02
 21
-3.20273495E+02
  0
LINE
  8
0
 62
7
 10
1.50999988E+02
 20
-3.20273510E+02
 11
1.45999985E+02
 21
-3.17386757E+02
  0
LINE
  8
0
 62
7
 10
1.45999981E+02
 20
-3.11613251E+02
 11
1.45999981E+02
 21
-3.17386749E+02
  0
LINE
  8
0
 62
7
 10
1.50999995E+02
 20
-3.08726495E+02
 11
1.45999998E+02
 21
-3.11613244E+02
  0
LINE
  8
0
  6
CENTER
 62
2
 10
1.27000042E+02
 20
-3.15199966E+02
 11
1.27000042E+02
 21
-3.00047379E+02
  0
LINE
  8
0
  6
CENTER
 62
2
 10
6.44651756E+01
 20
-3.49500000E+02
 11
1.66465405E+02
 21
-3.49500000E+02
  0
LINE
  8
0
  6
CENTER
 62
2
 10
9.52220879E+01
 20
-3.14500000E+02
 11
6.60122337E+01
 21
-3.14500000E+02
  0
LINE
  8
0
 62
7
 10
7.69998894E+01
 20
-3.26634674E+02
 11
7.69998894E+01
 21
-3.26999939E+02
  0
LINE
  8
0
 62
7
 10
9.31345940E+01
 20
-3.10500046E+02
 11
9.34999809E+01
 21
-3.10500046E+02
  0
LINE
  8
0
 62
7
 10
1.38865307E+02
 20
-3.10499954E+02
 11
1.38500011E+02
 21
-3.10499954E+02
  0
LINE
  8
0
 62
7
 10
1.54999981E+02
 20
-3.26634689E+02
 11
1.54999981E+02
 21
-3.27000031E+02
  0
LINE
  8
0
 62
7
 10
1.45999981E+02
 20
-3.02500000E+02
 11
1.45999981E+02
 21
-3.03099976E+02
  0
LINE
  8
0
 62
7
 10
8.59999809E+01
 20
-3.02500031E+02
 11
8.59999809E+01
 21
-3.03100037E+02
  0
LINE
  8
0
 62
7
 10
9.79988823E+01
 20
-3.06100037E+02
 11
1.34001110E+02
 21
-3.06100037E+02
  0
LINE
  8
0
 62
7
 10
1.14749950E+02
 20
-3.07100052E+02
 11
1.14749950E+02
 21
-3.26610275E+02
  0
LINE
  8
0
 62
7
 10
1.00698529E+02
 20
-3.32430476E+02
 11
9.05784758E+01
 21
-3.22310427E+02
  0
LINE
  8
0
 62
7
 10
9.89306271E+01
 20
-3.34198346E+02
 11
8.88105581E+01
 21
-3.24078281E+02
  0
LINE
  8
0
  6
CENTER
 62
2
 10
1.65555462E+02
 20
-3.14500000E+02
 11
1.36308971E+02
 21
-3.14500000E+02
  0
LINE
  8
0
  6
CENTER
 62
2
 10
8.09999657E+01
 20
-3.00127319E+02
 11
8.09999657E+01
 21
-3.29864243E+02
  0
LINE
  8
0
  6
CENTER
 62
2
 10
1.15999981E+02
 20
-2.98644241E+02
 11
1.15999981E+02
 21
-3.49500000E+02
  0
LINE
  8
0
 62
7
 10
6.89999657E+01
 20
-3.49500000E+02
 11
6.89999657E+01
 21
-3.06500031E+02
  0
LINE
  8
0
 62
7
 10
7.26000023E+01
 20
-3.49500000E+02
 11
7.26000023E+01
 21
-3.31498825E+02
  0
LINE
  8
0
 62
7
 10
6.96000023E+01
 20
-3.49500000E+02
 11
6.96000023E+01
 21
-3.06500031E+02
  0
LINE
  8
0
 62
7
 10
7.35999413E+01
 20
-3.48250023E+02
 11
9.31102409E+01
 21
-3.48250023E+02
  0
LINE
  8
0
 62
7
 10
1.58399914E+02
 20
-3.48250000E+02
 11
1.38889660E+02
 21
-3.48250000E+02
  0
LINE
  8
0
 62
7
 10
1.17249981E+02
 20
-3.07100006E+02
 11
1.17249981E+02
 21
-3.26610321E+02
  0
LINE
  8
0
 62
7
 10
1.31301544E+02
 20
-3.32430633E+02
 11
1.41421579E+02
 21
-3.22310599E+02
  0
LINE
  8
0
 62
7
 10
1.33069413E+02
 20
-3.34198438E+02
 11
1.43189480E+02
 21
-3.24078372E+02
  0
LINE
  8
0
 62
7
 10
1.62999996E+02
 20
-3.49500000E+02
 11
1.62999996E+02
 21
-3.06500015E+02
  0
LINE
  8
0
  6
CENTER
 62
2
 10
1.50999981E+02
 20
-3.00314667E+02
 11
1.50999981E+02
 21
-3.29038361E+02
  0
LINE
  8
0
 62
7
 10
7.29999504E+01
 20
-3.02500031E+02
 11
1.58999920E+02
 21
-3.02500000E+02
  0
LINE
  8
0
 62
7
 10
1.59400005E+02
 20
-3.49500000E+02
 11
1.59400005E+02
 21
-3.31498917E+02
  0
LINE
  8
0
 62
7
 10
1.62400005E+02
 20
-3.49500000E+02
 11
1.62400005E+02
 21
-3.06500015E+02
  0
LINE
  8
0
 62
7
 10
7.29999504E+01
 20
-3.03100037E+02
 11
1.58999920E+02
 21
-3.03099976E+02
  0
LINE
  8
0
  6
CENTER
 62
2
 10
-1.04000004E+02
 20
-3.15199951E+02
 11
-1.04000004E+02
 21
-3.00047348E+02
  0
LINE
  8
0
  6
CENTER
 62
2
 10
-3.75000080E+02
 20
-3.15199966E+02
 11
-3.75000080E+02
 21
-3.00047379E+02
  0
LINE
  8
0
  6
CENTER
 62
2
 10
-1.84330917E+01
 20
-3.14499985E+02
 11
-1.26524509E+02
 21
-3.14499985E+02
  0
LINE
  8
0
 62
7
 10
-1.20000004E+02
 20
-3.03058548E+02
 11
-1.20000004E+02
 21
-3.02500000E+02
  0
LINE
  8
0
 62
7
 10
-1.23508792E+02
 20
-3.03119792E+02
 11
-8.80000405E+01
 21
-3.02499985E+02
  0
LINE
  8
0
 62
7
 10
-1.20000034E+02
 20
-3.02500000E+02
 11
-8.80000343E+01
 21
-3.02500000E+02
  0
LINE
  8
0
 62
7
 10
-8.80000191E+01
 20
-3.49500000E+02
 11
-8.80000191E+01
 21
-3.02500000E+02
  0
LINE
  8
0
 62
7
 10
-1.24000019E+02
 20
-3.49500000E+02
 11
-1.24000019E+02
 21
-3.03619720E+02
  0
LINE
  8
0
  6
CENTER
 62
2
 10
-9.02976418E+01
 20
-1.58500061E+02
 11
-1.18094898E+02
 21
-1.58500061E+02
  0
LINE
  8
0
  6
CENTER
 62
2
 10
-1.03999973E+02
 20
-1.72605865E+02
 11
-1.03999973E+02
 21
-1.44676758E+02
  0
LINE
  8
0
 62
7
 10
-1.25500034E+02
 20
-3.27500000E+02
 11
-1.24000034E+02
 21
-3.27500000E+02
  0
LINE
  8
0
 62
7
 10
-1.39517550E+02
 20
-3.28472073E+02
 11
-1.26000079E+02
 21
-3.28000033E+02
  0
LINE
  8
0
 62
7
 10
-1.44500034E+02
 20
-3.30000015E+02
 11
-1.40000034E+02
 21
-3.30000015E+02
  0
LINE
  8
0
 62
7
 10
-1.35255445E+01
 20
-1.25999969E+02
 11
-6.14999580E+01
 21
-1.25999969E+02
  0
LINE
  8
0
 62
7
 10
-1.58349632E+01
 20
-1.30000000E+02
 11
-6.14999580E+01
 21
-1.30000000E+02
  0
LINE
  8
0
  6
CENTER
 62
2
 10
-1.84330394E+01
 20
-1.34500000E+02
 11
-6.14999580E+01
 21
-1.34500000E+02
  0
LINE
  8
0
 62
7
 10
-2.10311156E+01
 20
-1.39000000E+02
 11
-4.19999580E+01
 21
-1.39000000E+02
  0
LINE
  8
0
 62
7
 10
-9.32677454E+01
 20
-1.85500151E+02
 11
-9.41337845E+01
 21
-1.87000183E+02
  0
LINE
  8
0
 62
7
 10
-9.41339455E+01
 20
-1.87000076E+02
 11
-9.58660316E+01
 21
-1.87000076E+02
  0
LINE
  8
0
 62
7
 10
-9.58659348E+01
 20
-1.87000102E+02
 11
-9.67320045E+01
 21
-1.85500016E+02
  0
LINE
  8
0
 62
7
 10
-9.67317818E+01
 20
-1.85500291E+02
 11
-9.58657655E+01
 21
-1.84000298E+02
  0
LINE
  8
0
 62
7
 10
-9.41339455E+01
 20
-1.84000061E+02
 11
-9.58660316E+01
 21
-1.84000061E+02
  0
LINE
  8
0
 62
7
 10
-9.32678494E+01
 20
-1.85500141E+02
 11
-9.41338885E+01
 21
-1.84000108E+02
  0
LINE
  8
0
  6
CENTER
 62
2
 10
-1.03194553E+02
 20
-1.85500061E+02
 11
-8.69255409E+01
 21
-1.85500061E+02
  0
LINE
  8
0
  6
CENTER
 62
2
 10
-9.49999733E+01
 20
-1.77952271E+02
 11
-9.49999733E+01
 21
-1.92565659E+02
  0
LINE
  8
0
  6
CENTER
 62
2
 10
-5.88475671E+01
 20
-2.04500015E+02
 11
-1.26524479E+02
 21
-2.04500015E+02
  0
LINE
  8
0
 62
7
 10
-1.26000004E+02
 20
-3.28000046E+02
 11
-1.26000004E+02
 21
-3.49500000E+02
  0
LINE
  8
0
  6
CENTER
 62
2
 10
-3.12465199E+02
 20
-3.49500000E+02
 11
-4.14465443E+02
 21
-3.49500000E+02
  0
LINE
  8
0
  6
CENTER
 62
2
 10
-3.43222126E+02
 20
-3.14500000E+02
 11
-3.14012257E+02
 21
-3.14500000E+02
  0
LINE
  8
0
 62
7
 10
-3.24999928E+02
 20
-3.26634674E+02
 11
-3.24999928E+02
 21
-3.26999939E+02
  0
LINE
  8
0
 62
7
 10
-3.41134632E+02
 20
-3.10500046E+02
 11
-3.41500019E+02
 21
-3.10500046E+02
  0
LINE
  8
0
 62
7
 10
-3.86865345E+02
 20
-3.10499954E+02
 11
-3.86500050E+02
 21
-3.10499954E+02
  0
LINE
  8
0
 62
7
 10
-4.03000019E+02
 20
-3.26634689E+02
 11
-4.03000019E+02
 21
-3.27000031E+02
  0
LINE
  8
0
 62
7
 10
-3.94000019E+02
 20
-3.02500000E+02
 11
-3.94000019E+02
 21
-3.03099976E+02
  0
LINE
  8
0
 62
7
 10
-3.34000019E+02
 20
-3.02500031E+02
 11
-3.34000019E+02
 21
-3.03100037E+02
  0
LINE
  8
0
 62
7
 10
-3.45998920E+02
 20
-3.06100037E+02
 11
-3.82001148E+02
 21
-3.06100037E+02
  0
LINE
  8
0
 62
7
 10
-3.62749989E+02
 20
-3.07100052E+02
 11
-3.62749989E+02
 21
-3.26610275E+02
  0
LINE
  8
0
 62
7
 10
-3.48698570E+02
 20
-3.32430489E+02
 11
-3.38578512E+02
 21
-3.22310435E+02
  0
LINE
  8
0
 62
7
 10
-3.46930674E+02
 20
-3.34198343E+02
 11
-3.36810605E+02
 21
-3.24078278E+02
  0
LINE
  8
0
  6
CENTER
 62
2
 10
-4.13555500E+02
 20
-3.14500000E+02
 11
-3.84309010E+02
 21
-3.14500000E+02
  0
LINE
  8
0
  6
CENTER
 62
2
 10
-3.28999989E+02
 20
-3.00127319E+02
 11
-3.28999989E+02
 21
-3.29864243E+02
  0
LINE
  8
0
 62
7
 10
-4.06999958E+02
 20
-3.03099976E+02
 11
-3.20999989E+02
 21
-3.03100037E+02
  0
LINE
  8
0
  6
CENTER
 62
2
 10
-3.64000019E+02
 20
-2.98644241E+02
 11
-3.64000019E+02
 21
-3.49500000E+02
  0
LINE
  8
0
 62
7
 10
-3.16999989E+02
 20
-3.49500000E+02
 11
-3.16999989E+02
 21
-3.06500031E+02
  0
LINE
  8
0
 62
7
 10
-3.20600025E+02
 20
-3.49500000E+02
 11
-3.20600025E+02
 21
-3.31498825E+02
  0
LINE
  8
0
 62
7
 10
-3.17600025E+02
 20
-3.49500000E+02
 11
-3.17600025E+02
 21
-3.06500031E+02
  0
LINE
  8
0
 62
7
 10
-3.21599964E+02
 20
-3.48250023E+02
 11
-3.41110279E+02
 21
-3.48250023E+02
  0
LINE
  8
0
 62
7
 10
-4.06399952E+02
 20
-3.48250000E+02
 11
-3.86889698E+02
 21
-3.48250000E+02
  0
LINE
  8
0
 62
7
 10
-3.65250019E+02
 20
-3.07100006E+02
 11
-3.65250019E+02
 21
-3.26610321E+02
  0
LINE
  8
0
 62
7
 10
-3.79301580E+02
 20
-3.32430650E+02
 11
-3.89421615E+02
 21
-3.22310616E+02
  0
LINE
  8
0
 62
7
 10
-3.81069455E+02
 20
-3.34198439E+02
 11
-3.91189511E+02
 21
-3.24078383E+02
  0
LINE
  8
0
 62
7
 10
-1.25999958E+02
 20
-1.90999969E+02
 11
-1.25999958E+02
 21
-1.48000000E+02
  0
LINE
  8
0
 62
7
 10
-1.39517439E+02
 20
-1.48471883E+02
 11
-1.25999982E+02
 21
-1.47999843E+02
  0
LINE
  8
0
 62
7
 10
-1.25499958E+02
 20
-1.47500031E+02
 11
-1.23999958E+02
 21
-1.47500031E+02
  0
LINE
  8
0
 62
7
 10
-1.39517433E+02
 20
-1.90527758E+02
 11
-1.25999992E+02
 21
-1.90999797E+02
  0
LINE
  8
0
 62
7
 10
-1.25499958E+02
 20
-1.91500061E+02
 11
-1.23999958E+02
 21
-1.91500061E+02
  0
LINE
  8
0
 62
7
 10
-1.44499943E+02
 20
-1.89000031E+02
 11
-1.39999943E+02
 21
-1.89000031E+02
  0
LINE
  8
0
 62
7
 10
-1.44999958E+02
 20
-1.50499969E+02
 11
-1.44999958E+02
 21
-1.88499985E+02
  0
LINE
  8
0
 62
7
 10
-1.39999958E+02
 20
-1.48936768E+02
 11
-1.39999958E+02
 21
-1.90028229E+02
  0
LINE
  8
0
 62
7
 10
-1.44499943E+02
 20
-1.50000031E+02
 11
-1.39999943E+02
 21
-1.50000031E+02
  0
LINE
  8
0
 62
7
 10
-1.40000019E+02
 20
-3.49500000E+02
 11
-1.40000019E+02
 21
-3.28971741E+02
  0
LINE
  8
0
 62
7
 10
-1.17999958E+02
 20
-1.99500031E+02
 11
-8.79999580E+01
 21
-1.99500031E+02
  0
LINE
  8
0
 62
7
 10
-1.17999958E+02
 20
-1.39500031E+02
 11
-9.59999580E+01
 21
-1.39500031E+02
  0
LINE
  8
0
 62
7
 10
-1.19999958E+02
 20
-1.41499969E+02
 11
-1.19999958E+02
 21
-1.97499985E+02
  0
LINE
  8
0
 62
7
 10
-1.23508737E+02
 20
-2.15880065E+02
 11
-8.80000153E+01
 21
-2.16499872E+02
  0
LINE
  8
0
 62
7
 10
-8.79999580E+01
 20
-1.22500000E+02
 11
-8.79999580E+01
 21
-1.32216245E+02
  0
LINE
  8
0
 62
7
 10
-1.23999958E+02
 20
-1.23619720E+02
 11
-1.23999958E+02
 21
-2.15380280E+02
  0
LINE
  8
0
 62
7
 10
-1.23508666E+02
 20
-1.23119584E+02
 11
-8.79999452E+01
 21
-1.22499777E+02
  0
LINE
  8
0
 62
7
 10
-1.45000004E+02
 20
-3.49500000E+02
 11
-1.45000004E+02
 21
-3.30500000E+02
  0
LINE
  8
0
 62
7
 10
-4.11000019E+02
 20
-3.49500000E+02
 11
-4.11000019E+02
 21
-3.06500015E+02
  0
LINE
  8
0
  6
CENTER
 62
2
 10
-3.99000019E+02
 20
-3.00314667E+02
 11
-3.99000019E+02
 21
-3.29038361E+02
  0
LINE
  8
0
 62
7
 10
-4.06999958E+02
 20
-3.02500000E+02
 11
-3.20999989E+02
 21
-3.02500031E+02
  0
LINE
  8
0
 62
7
 10
-4.07400043E+02
 20
-3.49500000E+02
 11
-4.07400043E+02
 21
-3.31498917E+02
  0
LINE
  8
0
 62
7
 10
-4.10400043E+02
 20
-3.49500000E+02
 11
-4.10400043E+02
 21
-3.06500015E+02
  0
LINE
  8
0
  6
CENTER
 62
2
 10
-2.07798313E+02
 20
-1.69500000E+02
 11
-3.86402989E+01
 21
-1.69500000E+02
  0
LINE
  8
0
  6
CENTER
 62
2
 10
-2.07243382E+02
 20
-3.49500000E+02
 11
-3.86403599E+01
 21
-3.49500000E+02
  0
LINE
  8
0
 62
2
 10
-7.13646428E+01
 20
-2.26180226E+02
 11
-9.57008087E+00
 21
-1.19148905E+02
  0
LINE
  8
0
 62
7
 10
-8.79999580E+01
 20
-1.44716245E+02
 11
-8.79999580E+01
 21
-2.16499969E+02
  0
LINE
  8
0
  6
CENTER
 62
2
 10
-9.59999580E+01
 20
-1.34500000E+02
 11
-1.26524479E+02
 21
-1.34500000E+02
  0
LINE
  8
0
 62
7
 10
2.75525585E+02
 20
-3.06000000E+02
 11
3.03999950E+02
 21
-3.06000000E+02
  0
LINE
  8
0
 62
7
 10
2.68020032E+02
 20
-3.19000000E+02
 11
3.23499950E+02
 21
-3.19000000E+02
  0
LINE
  8
0
 62
7
 10
2.73216193E+02
 20
-3.09999985E+02
 11
3.23499950E+02
 21
-3.09999985E+02
  0
LINE
  8
0
  6
CENTER
 62
2
 10
2.70618117E+02
 20
-3.14499985E+02
 11
3.23499950E+02
 21
-3.14499985E+02
  0
LINE
  8
0
  6
CENTER
 62
2
 10
4.69243343E+02
 20
-3.49500000E+02
 11
2.50410848E+02
 21
-3.49500000E+02
  0
LINE
  8
0
 62
7
 10
4.06999966E+02
 20
-3.49500000E+02
 11
4.06999966E+02
 21
-3.30500000E+02
  0
LINE
  8
0
 62
7
 10
4.01999981E+02
 20
-3.49500000E+02
 11
4.01999981E+02
 21
-3.28971741E+02
  0
LINE
  8
0
 62
7
 10
3.87999966E+02
 20
-3.28000046E+02
 11
3.87999966E+02
 21
-3.49500000E+02
  0
LINE
  8
0
 62
7
 10
4.06499996E+02
 20
-3.30000015E+02
 11
4.01999996E+02
 21
-3.30000015E+02
  0
LINE
  8
0
 62
7
 10
4.01517512E+02
 20
-3.28472073E+02
 11
3.88000040E+02
 21
-3.28000033E+02
  0
LINE
  8
0
 62
7
 10
3.87499996E+02
 20
-3.27500000E+02
 11
3.85999996E+02
 21
-3.27500000E+02
  0
LINE
  8
0
 62
7
 10
3.85999981E+02
 20
-3.49500000E+02
 11
3.85999981E+02
 21
-3.03619720E+02
  0
LINE
  8
0
 62
7
 10
3.49999981E+02
 20
-3.49500000E+02
 11
3.49999981E+02
 21
-3.02500000E+02
  0
LINE
  8
0
 62
7
 10
3.81999996E+02
 20
-3.02500000E+02
 11
3.49999996E+02
 21
-3.02500000E+02
  0
LINE
  8
0
 62
7
 10
3.85508754E+02
 20
-3.03119792E+02
 11
3.50000002E+02
 21
-3.02499985E+02
  0
LINE
  8
0
 62
7
 10
3.81999966E+02
 20
-3.03058548E+02
 11
3.81999966E+02
 21
-3.02500000E+02
  0
LINE
  8
0
  6
CENTER
 62
2
 10
3.65999966E+02
 20
-3.15199951E+02
 11
3.65999966E+02
 21
-3.00047348E+02
  0
LINE
  8
0
 62
7
 10
4.19626232E+02
 20
-3.38000008E+02
 11
4.06999966E+02
 21
-3.38000008E+02
  0
LINE
  8
0
 62
7
 10
4.14738323E+02
 20
-3.49500000E+02
 11
4.06999966E+02
 21
-3.49500000E+02
  0
LINE
  8
0
 62
7
 10
4.20999950E+02
 20
-3.38499998E+02
 11
4.19626229E+02
 21
-3.38000004E+02
  0
LINE
  8
0
 62
7
 10
4.20999950E+02
 20
-3.49500000E+02
 11
4.20999950E+02
 21
-3.38499977E+02
  0
LINE
  8
0
 62
7
 10
4.60999966E+02
 20
-3.39999954E+02
 11
4.60999966E+02
 21
-3.49500000E+02
  0
LINE
  8
0
 62
7
 10
4.23999950E+02
 20
-3.38499977E+02
 11
4.23999950E+02
 21
-3.49500000E+02
  0
LINE
  8
0
 62
7
 10
4.59499966E+02
 20
-3.38499977E+02
 11
4.59499966E+02
 21
-3.49500000E+02
  0
LINE
  8
0
 62
2
 10
4.60320034E+02
 20
-3.39319992E+02
 11
4.48999965E+02
 21
-3.39319992E+02
  0
LINE
  8
0
 62
7
 10
4.61000004E+02
 20
-3.40000034E+02
 11
4.59499986E+02
 21
-3.38500016E+02
  0
LINE
  8
0
 62
7
 10
4.59499996E+02
 20
-3.38499977E+02
 11
4.48999965E+02
 21
-3.38499977E+02
  0
LINE
  8
0
 62
7
 10
4.23999950E+02
 20
-3.39319992E+02
 11
4.20999950E+02
 21
-3.39319992E+02
  0
ARC
  8
0
 62
7
 10
4.06499981E+02
 20
-3.30500000E+02
 40
5.00000000E-01
 50
3.59721787E-05
 51
9.00000179E+01
  0
ARC
  8
0
 62
7
 10
4.01499966E+02
 20
-3.28971741E+02
 40
5.00000000E-01
 50
3.59721787E-05
 51
8.79992642E+01
  0
ARC
  8
0
 62
7
 10
3.87499981E+02
 20
-3.28000000E+02
 40
5.00000000E-01
 50
3.59721787E-05
 51
9.00000179E+01
  0
ARC
  8
0
 62
7
 10
3.85499981E+02
 20
-3.03619720E+02
 40
5.00000000E-01
 50
3.59721787E-05
 51
8.89997505E+01
  0
POLYLINE
  8
0
 62
7
 66
1
  0
VERTEX
  8
0
 62
7
 10
4.14738323E+02
 20
-3.49499992E+02
  0
VERTEX
  8
0
 62
7
 10
4.15176472E+02
 20
-3.49476845E+02
  0
VERTEX
  8
0
 62
7
 10
4.15611093E+02
 20
-3.49407588E+02
  0
VERTEX
  8
0
 62
7
 10
4.16038687E+02
 20
-3.49292779E+02
  0
VERTEX
  8
0
 62
7
 10
4.16455811E+02
 20
-3.49133343E+02
  0
VERTEX
  8
0
 62
7
 10
4.16859107E+02
 20
-3.48930564E+02
  0
VERTEX
  8
0
 62
7
 10
4.17245328E+02
 20
-3.48686074E+02
  0
VERTEX
  8
0
 62
7
 10
4.17611364E+02
 20
-3.48401842E+02
  0
VERTEX
  8
0
 62
7
 10
4.17954268E+02
 20
-3.48080155E+02
  0
VERTEX
  8
0
 62
7
 10
4.18271278E+02
 20
-3.47723605E+02
  0
VERTEX
  8
0
 62
7
 10
4.18559844E+02
 20
-3.47335062E+02
  0
VERTEX
  8
0
 62
7
 10
4.18817641E+02
 20
-3.46917653E+02
  0
VERTEX
  8
0
 62
7
 10
4.19042594E+02
 20
-3.46474741E+02
  0
VERTEX
  8
0
 62
7
 10
4.19232891E+02
 20
-3.46009891E+02
  0
VERTEX
  8
0
 62
7
 10
4.19387001E+02
 20
-3.45526845E+02
  0
VERTEX
  8
0
 62
7
 10
4.19503682E+02
 20
-3.45029494E+02
  0
VERTEX
  8
0
 62
7
 10
4.19581995E+02
 20
-3.44521840E+02
  0
VERTEX
  8
0
 62
7
 10
4.19621310E+02
 20
-3.44007972E+02
  0
VERTEX
  8
0
 62
7
 10
4.19621310E+02
 20
-3.43492028E+02
  0
VERTEX
  8
0
 62
7
 10
4.19581995E+02
 20
-3.42978160E+02
  0
VERTEX
  8
0
 62
7
 10
4.19503682E+02
 20
-3.42470506E+02
  0
VERTEX
  8
0
 62
7
 10
4.19387001E+02
 20
-3.41973155E+02
  0
VERTEX
  8
0
 62
7
 10
4.19232891E+02
 20
-3.41490109E+02
  0
VERTEX
  8
0
 62
7
 10
4.19042594E+02
 20
-3.41025259E+02
  0
VERTEX
  8
0
 62
7
 10
4.18817641E+02
 20
-3.40582347E+02
  0
VERTEX
  8
0
 62
7
 10
4.18559844E+02
 20
-3.40164938E+02
  0
VERTEX
  8
0
 62
7
 10
4.18271278E+02
 20
-3.39776395E+02
  0
VERTEX
  8
0
 62
7
 10
4.17954268E+02
 20
-3.39419845E+02
  0
VERTEX
  8
0
 62
7
 10
4.17611364E+02
 20
-3.39098158E+02
  0
VERTEX
  8
0
 62
7
 10
4.17245328E+02
 20
-3.38813926E+02
  0
VERTEX
  8
0
 62
7
 10
4.16859107E+02
 20
-3.38569436E+02
  0
VERTEX
  8
0
 62
7
 10
4.16455811E+02
 20
-3.38366657E+02
  0
VERTEX
  8
0
 62
7
 10
4.16038687E+02
 20
-3.38207221E+02
  0
VERTEX
  8
0
 62
7
 10
4.15611093E+02
 20
-3.38092412E+02
  0
VERTEX
  8
0
 62
7
 10
4.15176472E+02
 20
-3.38023155E+02
  0
VERTEX
  8
0
 62
7
 10
4.14738323E+02
 20
-3.38000008E+02
  0
SEQEND
  8
0
  0
LINE
  8
0
 62
7
 10
4.35999966E+02
 20
-3.39999954E+02
 11
4.35999966E+02
 21
-3.49500000E+02
  0
ARC
  8
0
 62
4
 10
4.40437363E+02
 20
-3.35779447E+02
 40
8.56342793E+00
 50
3.26410682E+02
 51
3.35893354E+01
  0
ARC
  8
0
 62
4
 10
4.19945165E+02
 20
-3.49517057E+02
 40
2.90548000E+01
 50
3.36363131E-02
 51
1.80447127E+01
  0
ARC
  8
0
 62
4
 10
4.44562568E+02
 20
-3.35779447E+02
 40
8.56342793E+00
 50
1.46410742E+02
 51
2.13589395E+02
  0
ARC
  8
0
 62
4
 10
4.65054761E+02
 20
-3.49517057E+02
 40
2.90548000E+01
 50
1.61955323E+02
 51
1.79966364E+02
  0
LINE
  8
0
 62
4
 10
4.47570904E+02
 20
-3.40517057E+02
 11
4.37429028E+02
 21
-3.40517057E+02
  0
LINE
  8
0
 62
4
 10
4.37429046E+02
 20
-3.31041881E+02
 11
4.35999973E+02
 21
-3.33517069E+02
  0
LINE
  8
0
 62
4
 10
4.48999982E+02
 20
-3.33517054E+02
 11
4.47570899E+02
 21
-3.31041837E+02
  0
LINE
  8
0
 62
4
 10
4.35999966E+02
 20
-3.33517053E+02
 11
4.35999966E+02
 21
-3.49500000E+02
  0
LINE
  8
0
 62
4
 10
4.48999965E+02
 20
-3.33517053E+02
 11
4.48999965E+02
 21
-3.49500000E+02
  0
LINE
  8
0
 62
4
 10
4.47570904E+02
 20
-3.31041833E+02
 11
4.37429028E+02
 21
-3.31041833E+02
  0
LINE
  8
0
 62
2
 10
4.35999966E+02
 20
-3.39319992E+02
 11
4.23999950E+02
 21
-3.39319992E+02
  0
LINE
  8
0
 62
7
 10
4.35999966E+02
 20
-3.38499977E+02
 11
4.23999950E+02
 21
-3.38499977E+02
  0
LINE
  8
0
 62
2
 10
2.44747683E+02
 20
-3.59308891E+02
 11
2.80221205E+02
 21
-2.97866948E+02
  0
LINE
  8
0
 62
7
 10
3.42999950E+02
 20
-3.06000000E+02
 11
3.49999981E+02
 21
-3.06000000E+02
  0
LINE
  8
0
 62
7
 10
3.38499950E+02
 20
-3.09999985E+02
 11
3.49999981E+02
 21
-3.09999985E+02
  0
LINE
  8
0
 62
7
 10
3.38499950E+02
 20
-3.19000000E+02
 11
3.49999981E+02
 21
-3.19000000E+02
  0
LINE
  8
0
  6
CENTER
 62
2
 10
3.38499950E+02
 20
-3.14499985E+02
 11
3.88524471E+02
 21
-3.14499985E+02
  0
TEXT
  8
0
 10
-9.12146873E+01
 20
3.54316712E+02
 40
9.00000000E+00
  1
STRETCH LINE A
 41
1.09375000E+00
  7
MONOTXT
  0
LINE
  8
0
 62
7
 10
5.69500000E+02
 20
4.00500000E+02
 11
5.69500000E+02
 21
-4.00500000E+02
  0
LINE
  8
0
 62
7
 10
-5.69500000E+02
 20
4.00500000E+02
 11
5.69500000E+02
 21
4.00500000E+02
  0
LINE
  8
0
 62
7
 10
-5.69500000E+02
 20
-4.00500000E+02
 11
5.69500000E+02
 21
-4.00500000E+02
  0
LINE
  8
0
 62
7
 10
-5.69500000E+02
 20
4.00500000E+02
 11
-5.69500000E+02
 21
-4.00500000E+02
  0
LINE
  8
0
 62
7
 10
-5.69500000E+02
 20
3.70500000E+02
 11
-3.39500000E+02
 21
3.70500000E+02
  0
LINE
  8
0
 62
7
 10
3.39500000E+02
 20
3.70500000E+02
 11
5.69500000E+02
 21
3.70500000E+02
  0
LINE
  8
0
 62
7
 10
3.39500000E+02
 20
-3.70500000E+02
 11
5.69500000E+02
 21
-3.70500000E+02
  0
LINE
  8
0
 62
7
 10
3.39500000E+02
 20
-3.70500000E+02
 11
3.39500000E+02
 21
-4.00500000E+02
  0
LINE
  8
0
 62
7
 10
3.39500000E+02
 20
4.00500000E+02
 11
3.39500000E+02
 21
3.70500000E+02
  0
LINE
  8
0
 62
7
 10
-3.39500000E+02
 20
4.00500000E+02
 11
-3.39500000E+02
 21
3.70500000E+02
  0
TEXT
  8
0
 62
7
 10
-5.42179687E+02
 20
3.34250000E+02
 40
1.25000000E+01
  1
MODEL:DDADL80*75
 41
1.00000015E+00
  7
MONOTXT
  0
TEXT
  8
0
 62
7
 10
4.06285149E+02
 20
3.79250000E+02
 40
1.25000000E+01
  1
Ver. 1.0
 41
1.08108125E+00
  7
MONOTXT
  0
TEXT
  8
0
 62
7
 10
3.45070624E+02
 20
-3.94500000E+02
 40
1.80000000E+01
  1
KOGANEI CORP.
 41
1.04838710E+00
  7
MONOTXT
  0
TEXT
  8
0
 62
7
 10
-5.58964859E+02
 20
3.79250000E+02
 40
1.25000000E+01
  1
NEW DYNA CYLINDER
 41
1.07594953E+00
  7
MONOTXT
  0
ENDSEC
  0
EOF
