  0
SECTION
  2
HEADER
  9
$ACADVER
  1
AC1003
  9
$EXTMIN
 10
-3.99250000E+02
 20
-2.76750000E+02
  9
$EXTMAX
 10
4.01338146E+02
 20
2.76250000E+02
  9
$LIMMIN
 10
-3.99251000E+02
 20
-2.76751000E+02
  9
$LIMMAX
 10
4.01339146E+02
 20
2.76251000E+02
  9
$SNAPUNIT
 10
1
 20
1
  9
$SNAPBASE
 10
0
 20
0
  9
$GRIDMODE
 70
0
  9
$GRIDUNIT
 10
0
 20
0
  9
$LTSCALE
 40
1.33431358E+01
  9
$TEXTSIZE
 40
3.2
  9
$DIMTAD
 70
0
  9
$LUNITS
 70
2
  9
$LUPREC
 70
4
  9
$FILLETRAD
 40
0
  9
$AUNITS
 70
0
  9
$AUPREC
 70
0
  0
ENDSEC
  0
SECTION
  2
TABLES
  0
TABLE
  2
LTYPE
 70
2
  0
LTYPE
  2
CONTINUOUS
 70
64
  3
Solid-Line
 72
65
 73
0
 40
0
  0
LTYPE
  2
DASHED
 70
64
  3
DASHED
 72
65
 73
2
 40
.75
 49
.5
 49
-.25
  0
LTYPE
  2
HIDDEN
 70
64
  3
HIDDEN
 72
65
 73
2
 40
.375
 49
.25
 49
-.125
  0
LTYPE
  2
CENTER
 70
64
  3
CENTER
 72
65
 73
4
 40
2
 49
1.25
 49
-.25
 49
.25
 49
-.25
  0
LTYPE
  2
PHANTOM
 70
64
  3
PHANTOM
 72
65
 73
6
 40
2.5
 49
1.25
 49
-.25
 49
.25
 49
-.25
 49
.25
 49
-.25
  0
ENDTAB
  0
TABLE
  2
LAYER
 70
1
  0
LAYER
  2
1
 70
0
 62
7
  6
CONTINUOUS
 0
ENDTAB
  0
TABLE
  2
STYLE
 70
2
  0
STYLE
  2
MONOTXT
 70
0
 40
0
 41
1
 50
0
 71
0
 42
.2
  3
monotxt
  0
STYLE
  2
BIGFONT
 70
0
 40
0
 41
1
 50
0
 71
0
 42
.2
  3
txt
  4
bigfont
  0
ENDTAB
  0
ENDSEC
  0
SECTION
  2
ENTITIES
  0
LINE
  8
0
  6
PHANTOM
 10
-3.92500000E+01
 20
1.58154938E+02
 11
-3.92500000E+01
 21
5.21367846E+01
  0
LINE
  8
0
  6
PHANTOM
 10
9.02499733E+01
 20
1.58154938E+02
 11
9.02499733E+01
 21
5.21367846E+01
  0
LINE
  8
0
  6
CENTER
 62
2
 10
-1.87523201E+02
 20
9.83694647E+01
 11
1.54998444E+02
 21
9.83694647E+01
  0
LINE
  8
0
 62
7
 10
-1.41749992E+02
 20
8.18694952E+01
 11
-1.41749992E+02
 21
1.14869449E+02
  0
LINE
  8
0
 62
7
 10
-1.28249992E+02
 20
7.93694723E+01
 11
-1.26749992E+02
 21
7.93694723E+01
  0
LINE
  8
0
 62
7
 10
-1.41250008E+02
 20
8.13694647E+01
 11
-1.36741447E+02
 21
8.13694647E+01
  0
LINE
  8
0
 62
7
 10
-1.36749992E+02
 20
8.13694647E+01
 11
-1.36749992E+02
 21
8.13609198E+01
  0
LINE
  8
0
 62
7
 10
-1.36508675E+02
 20
8.11109870E+01
 11
-1.28749961E+02
 21
8.08400468E+01
  0
LINE
  8
0
 62
7
 10
4.42499809E+01
 20
1.34819538E+02
 11
4.42499809E+01
 21
6.19193914E+01
  0
LINE
  8
0
 62
7
 10
1.22499771E+01
 20
1.35869465E+02
 11
1.22499771E+01
 21
6.08694647E+01
  0
LINE
  8
0
 62
7
 10
4.37587218E+01
 20
6.14195041E+01
 11
1.22500170E+01
 21
6.08695177E+01
  0
LINE
  8
0
 62
7
 10
-1.28750008E+02
 20
1.16869465E+02
 11
-1.28750008E+02
 21
7.98694647E+01
  0
LINE
  8
0
 62
7
 10
4.02499847E+01
 20
6.08694647E+01
 11
1.22499771E+01
 21
6.08694647E+01
  0
LINE
  8
0
 62
7
 10
4.02499847E+01
 20
6.13582342E+01
 11
4.02499847E+01
 21
6.08694647E+01
  0
LINE
  8
0
 62
7
 10
-1.36749992E+02
 20
8.13694647E+01
 11
-1.36749992E+02
 21
1.15369480E+02
  0
LINE
  8
0
 62
7
 10
4.57499924E+01
 20
7.93694723E+01
 11
4.42499924E+01
 21
7.93694723E+01
  0
LINE
  8
0
 62
7
 10
-1.26749992E+02
 20
1.34819538E+02
 11
-1.26749992E+02
 21
6.19193914E+01
  0
LINE
  8
0
 62
7
 10
-9.47500076E+01
 20
1.35869465E+02
 11
-9.47500076E+01
 21
6.08694647E+01
  0
LINE
  8
0
 62
7
 10
-1.26258717E+02
 20
6.14195129E+01
 11
-9.47500277E+01
 21
6.08695267E+01
  0
LINE
  8
0
 62
7
 10
4.62499886E+01
 20
1.16869465E+02
 11
4.62499886E+01
 21
7.98694647E+01
  0
LINE
  8
0
 62
7
 10
-1.22750008E+02
 20
6.08694647E+01
 11
-9.47500076E+01
 21
6.08694647E+01
  0
LINE
  8
0
 62
7
 10
-1.22750008E+02
 20
6.13582342E+01
 11
-1.22750008E+02
 21
6.08694647E+01
  0
LINE
  8
0
  6
CENTER
 62
2
 10
4.84792213E+01
 20
7.03694570E+01
 11
-1.29998100E+02
 21
7.03694570E+01
  0
LINE
  8
0
 62
7
 10
1.22499771E+01
 20
7.39695013E+01
 11
-9.47500076E+01
 21
7.39695013E+01
  0
LINE
  8
0
 62
7
 10
1.22499771E+01
 20
6.67694891E+01
 11
-9.47500076E+01
 21
6.67694891E+01
  0
LINE
  8
0
 62
7
 10
1.22499771E+01
 20
6.43694876E+01
 11
-9.47500076E+01
 21
6.43694876E+01
  0
LINE
  8
0
 62
7
 10
-1.51749962E+02
 20
1.07369465E+02
 11
-1.51749962E+02
 21
8.93694723E+01
  0
LINE
  8
0
 62
7
 10
-1.48750084E+02
 20
1.03637317E+02
 11
-1.44750023E+02
 21
1.03637317E+02
  0
LINE
  8
0
 62
7
 10
-1.48750084E+02
 20
9.31016577E+01
 11
-1.44750023E+02
 21
9.31016577E+01
  0
LINE
  8
0
 62
7
 10
-1.48749962E+02
 20
8.83694952E+01
 11
-1.48749962E+02
 21
9.31016653E+01
  0
LINE
  8
0
 62
2
 10
-1.50783577E+02
 20
1.02182883E+02
 11
-1.44749986E+02
 21
9.31017019E+01
  0
LINE
  8
0
 62
2
 10
-1.50783571E+02
 20
9.45558575E+01
 11
-1.44749829E+02
 21
1.03637268E+02
  0
LINE
  8
0
 62
7
 10
-1.48750084E+02
 20
8.83694876E+01
 11
-1.41750038E+02
 21
8.83694876E+01
  0
LINE
  8
0
 62
7
 10
-1.48749962E+02
 20
1.08369510E+02
 11
-1.48749962E+02
 21
1.03637333E+02
  0
LINE
  8
0
 62
7
 10
-1.44750023E+02
 20
9.31016653E+01
 11
-1.44750023E+02
 21
1.03637333E+02
  0
LINE
  8
0
 62
7
 10
-1.54749947E+02
 20
8.93694799E+01
 11
-1.54749947E+02
 21
1.07369480E+02
  0
LINE
  8
0
 62
7
 10
-1.83749977E+02
 20
9.08695028E+01
 11
-1.83749977E+02
 21
1.05869312E+02
  0
LINE
  8
0
 62
7
 10
-1.82249947E+02
 20
8.93694799E+01
 11
-1.82249947E+02
 21
1.07369480E+02
  0
LINE
  8
0
 62
7
 10
-1.82249916E+02
 20
1.07369465E+02
 11
-1.74749962E+02
 21
1.07369465E+02
  0
LINE
  8
0
 62
2
 10
-1.83069923E+02
 20
1.06549457E+02
 11
-1.74749962E+02
 21
1.06549457E+02
  0
LINE
  8
0
 62
7
 10
-1.83749867E+02
 20
1.05869273E+02
 11
-1.82249820E+02
 21
1.07369273E+02
  0
LINE
  8
0
 62
7
 10
-1.82249916E+02
 20
8.93694723E+01
 11
-1.74749962E+02
 21
8.93694723E+01
  0
LINE
  8
0
 62
2
 10
-1.83069923E+02
 20
9.01894644E+01
 11
-1.74749962E+02
 21
9.01894644E+01
  0
LINE
  8
0
 62
7
 10
-1.83749973E+02
 20
9.08695912E+01
 11
-1.82249916E+02
 21
8.93695801E+01
  0
LINE
  8
0
 62
7
 10
-1.48750084E+02
 20
1.08369449E+02
 11
-1.41750038E+02
 21
1.08369449E+02
  0
LINE
  8
0
  6
CENTER
 62
2
 10
2.62500458E+01
 20
1.38054523E+02
 11
2.62500458E+01
 21
1.26169239E+02
  0
LINE
  8
0
 62
7
 10
-1.28249992E+02
 20
1.17369465E+02
 11
-1.26749992E+02
 21
1.17369465E+02
  0
LINE
  8
0
 62
7
 10
-1.41250008E+02
 20
1.15369480E+02
 11
-1.36741447E+02
 21
1.15369480E+02
  0
LINE
  8
0
 62
7
 10
-1.36749992E+02
 20
1.15369480E+02
 11
-1.36749992E+02
 21
1.15378025E+02
  0
LINE
  8
0
 62
7
 10
-1.36508667E+02
 20
1.15627945E+02
 11
-1.28749954E+02
 21
1.15898885E+02
  0
LINE
  8
0
 62
7
 10
4.37587308E+01
 20
1.35319445E+02
 11
1.22500336E+01
 21
1.35869431E+02
  0
LINE
  8
0
 62
7
 10
4.02499847E+01
 20
1.35869465E+02
 11
1.22499771E+01
 21
1.35869465E+02
  0
LINE
  8
0
 62
7
 10
4.02499847E+01
 20
1.35380680E+02
 11
4.02499847E+01
 21
1.35869465E+02
  0
LINE
  8
0
 62
7
 10
1.22499771E+01
 20
1.32369434E+02
 11
6.16938428E+00
 21
1.32369434E+02
  0
LINE
  8
0
 62
7
 10
4.57499924E+01
 20
1.17369465E+02
 11
4.42499924E+01
 21
1.17369465E+02
  0
LINE
  8
0
 62
7
 10
-1.26258741E+02
 20
1.35319420E+02
 11
-9.47500364E+01
 21
1.35869407E+02
  0
LINE
  8
0
 62
7
 10
-1.22750008E+02
 20
1.35869465E+02
 11
-9.47500076E+01
 21
1.35869465E+02
  0
LINE
  8
0
 62
7
 10
-1.22750008E+02
 20
1.35380680E+02
 11
-1.22750008E+02
 21
1.35869465E+02
  0
LINE
  8
0
  6
CENTER
 62
2
 10
4.84792213E+01
 20
1.26369480E+02
 11
-1.29998100E+02
 21
1.26369480E+02
  0
LINE
  8
0
 62
7
 10
1.22499771E+01
 20
1.22769428E+02
 11
-9.75002289E+00
 21
1.22769428E+02
  0
LINE
  8
0
 62
7
 10
1.22499771E+01
 20
1.29969440E+02
 11
5.24997711E+00
 21
1.29969440E+02
  0
LINE
  8
0
  6
CENTER
 62
2
 10
-1.08750069E+02
 20
1.38054523E+02
 11
-1.08750069E+02
 21
1.26169239E+02
  0
LINE
  8
0
 62
7
 10
-1.51749961E+02
 20
1.01491906E+02
 11
-1.48749972E+02
 21
1.03637003E+02
  0
LINE
  8
0
 62
7
 10
-1.51749961E+02
 20
9.52470298E+01
 11
-1.48749961E+02
 21
9.31013719E+01
  0
LINE
  8
0
 62
7
 10
-1.51749936E+02
 20
1.07369447E+02
 11
-1.48749947E+02
 21
1.08369431E+02
  0
LINE
  8
0
 62
7
 10
-1.51749978E+02
 20
8.93694769E+01
 11
-1.48749986E+02
 21
8.83695020E+01
  0
LINE
  8
0
 62
7
 10
-1.54749947E+02
 20
1.06549457E+02
 11
-1.51749962E+02
 21
1.06549457E+02
  0
LINE
  8
0
 62
7
 10
-1.54749947E+02
 20
9.01894644E+01
 11
-1.51749962E+02
 21
9.01894644E+01
  0
LINE
  8
0
 62
7
 10
1.22249935E+02
 20
8.93694799E+01
 11
1.22249935E+02
 21
1.07369480E+02
  0
LINE
  8
0
 62
7
 10
1.16250072E+02
 20
1.08369449E+02
 11
5.92500267E+01
 21
1.08369449E+02
  0
LINE
  8
0
 62
7
 10
1.51249966E+02
 20
9.08695028E+01
 11
1.51249966E+02
 21
1.05869312E+02
  0
LINE
  8
0
 62
7
 10
1.49749935E+02
 20
8.93694799E+01
 11
1.49749935E+02
 21
1.07369480E+02
  0
LINE
  8
0
 62
7
 10
1.49749905E+02
 20
1.07369465E+02
 11
1.42249950E+02
 21
1.07369465E+02
  0
LINE
  8
0
 62
2
 10
1.50569912E+02
 20
1.06549457E+02
 11
1.42249950E+02
 21
1.06549457E+02
  0
LINE
  8
0
 62
7
 10
1.51249860E+02
 20
1.05869274E+02
 11
1.49749814E+02
 21
1.07369274E+02
  0
LINE
  8
0
 62
7
 10
1.49749905E+02
 20
8.93694723E+01
 11
1.42249950E+02
 21
8.93694723E+01
  0
LINE
  8
0
 62
2
 10
1.50569912E+02
 20
9.01894644E+01
 11
1.42249950E+02
 21
9.01894644E+01
  0
LINE
  8
0
 62
7
 10
1.51249964E+02
 20
9.08695876E+01
 11
1.49749907E+02
 21
8.93695765E+01
  0
LINE
  8
0
 62
7
 10
1.19249950E+02
 20
1.07369465E+02
 11
1.19249950E+02
 21
8.93694723E+01
  0
LINE
  8
0
 62
7
 10
1.16250072E+02
 20
1.03637317E+02
 11
1.12250011E+02
 21
1.03637317E+02
  0
LINE
  8
0
 62
7
 10
1.16250072E+02
 20
9.31016577E+01
 11
1.12250011E+02
 21
9.31016577E+01
  0
LINE
  8
0
 62
7
 10
1.16249950E+02
 20
8.83694952E+01
 11
1.16249950E+02
 21
9.31016653E+01
  0
LINE
  8
0
 62
7
 10
1.19249923E+02
 20
1.07369450E+02
 11
1.16249934E+02
 21
1.08369434E+02
  0
LINE
  8
0
 62
2
 10
1.18283570E+02
 20
1.02182880E+02
 11
1.12249979E+02
 21
9.31016980E+01
  0
LINE
  8
0
 62
2
 10
1.18283565E+02
 20
9.45558598E+01
 11
1.12249823E+02
 21
1.03637270E+02
  0
LINE
  8
0
 62
7
 10
1.16250072E+02
 20
8.83694876E+01
 11
5.92500267E+01
 21
8.83694876E+01
  0
LINE
  8
0
 62
7
 10
1.16249950E+02
 20
1.08369510E+02
 11
1.16249950E+02
 21
1.03637333E+02
  0
LINE
  8
0
 62
7
 10
1.12250011E+02
 20
9.31016653E+01
 11
1.12250011E+02
 21
1.03637333E+02
  0
LINE
  8
0
 62
7
 10
1.22249935E+02
 20
1.06549457E+02
 11
1.19249950E+02
 21
1.06549457E+02
  0
LINE
  8
0
 62
7
 10
1.22249935E+02
 20
9.01894644E+01
 11
1.19249950E+02
 21
9.01894644E+01
  0
LINE
  8
0
 62
7
 10
5.92499809E+01
 20
8.18694952E+01
 11
5.92499809E+01
 21
1.14869449E+02
  0
LINE
  8
0
 62
7
 10
5.87499962E+01
 20
8.13694647E+01
 11
5.42414360E+01
 21
8.13694647E+01
  0
LINE
  8
0
 62
7
 10
5.42499809E+01
 20
8.13694647E+01
 11
5.42499809E+01
 21
8.13609198E+01
  0
LINE
  8
0
 62
7
 10
5.40086599E+01
 20
8.11109891E+01
 11
4.62499461E+01
 21
8.08400489E+01
  0
LINE
  8
0
 62
7
 10
5.42499809E+01
 20
8.13694647E+01
 11
5.42499809E+01
 21
1.15369480E+02
  0
LINE
  8
0
 62
7
 10
5.87499962E+01
 20
1.15369480E+02
 11
5.42414360E+01
 21
1.15369480E+02
  0
LINE
  8
0
 62
7
 10
5.42499809E+01
 20
1.15369480E+02
 11
5.42499809E+01
 21
1.15378025E+02
  0
LINE
  8
0
 62
7
 10
5.40086529E+01
 20
1.15627951E+02
 11
4.62499353E+01
 21
1.15898891E+02
  0
LINE
  8
0
 62
7
 10
1.19249948E+02
 20
1.01491907E+02
 11
1.16249960E+02
 21
1.03637003E+02
  0
LINE
  8
0
 62
7
 10
1.19249947E+02
 20
9.52470284E+01
 11
1.16249948E+02
 21
9.31013705E+01
  0
LINE
  8
0
 62
7
 10
1.19249969E+02
 20
8.93694772E+01
 11
1.16249978E+02
 21
8.83695022E+01
  0
ARC
  8
0
 62
7
 10
-1.28249992E+02
 20
7.98694647E+01
 40
5.00000000E-01
 50
1.79999977E+02
 51
2.69999974E+02
  0
ARC
  8
0
 62
7
 10
4.37499886E+01
 20
6.19193914E+01
 40
5.00000000E-01
 50
2.71000258E+02
 51
3.59999993E+02
  0
ARC
  8
0
 62
7
 10
-1.36500008E+02
 20
8.13609198E+01
 40
2.50000000E-01
 50
1.79999977E+02
 51
2.68001132E+02
  0
ARC
  8
0
 62
7
 10
-1.41250008E+02
 20
8.18694952E+01
 40
5.00000000E-01
 50
1.79999977E+02
 51
2.69999974E+02
  0
ARC
  8
0
 62
7
 10
4.57499962E+01
 20
1.16869465E+02
 40
5.00000000E-01
 50
5.46415133E-05
 51
9.00000369E+01
  0
ARC
  8
0
 62
7
 10
4.57499962E+01
 20
7.98694647E+01
 40
5.00000000E-01
 50
2.70000073E+02
 51
5.46415133E-05
  0
ARC
  8
0
 62
7
 10
-1.26250008E+02
 20
6.19193914E+01
 40
5.00000000E-01
 50
1.79999909E+02
 51
2.68999651E+02
  0
ARC
  8
0
 62
7
 10
-1.53249977E+02
 20
9.83694647E+01
 40
9.99998474E+00
 50
0.00000000E+00
 51
3.17883527E+01
  0
ARC
  8
0
 62
7
 10
-1.53249977E+02
 20
9.83694647E+01
 40
9.99998474E+00
 50
3.28211647E+02
 51
0.00000000E+00
  0
ARC
  8
0
 62
7
 10
-1.28249992E+02
 20
1.16869465E+02
 40
5.00000000E-01
 50
8.99999818E+01
 51
1.79999964E+02
  0
ARC
  8
0
 62
7
 10
4.37499886E+01
 20
1.34819538E+02
 40
5.00000000E-01
 50
3.59999952E+02
 51
8.89996869E+01
  0
ARC
  8
0
 62
7
 10
-1.41250008E+02
 20
1.14869449E+02
 40
5.00000000E-01
 50
8.99999818E+01
 51
1.79999964E+02
  0
ARC
  8
0
 62
7
 10
-1.26250008E+02
 20
1.34819538E+02
 40
5.00000000E-01
 50
9.10002768E+01
 51
1.80000019E+02
  0
ARC
  8
0
 62
7
 10
-1.36500008E+02
 20
1.15378025E+02
 40
2.50000000E-01
 50
9.19988230E+01
 51
1.79999977E+02
  0
ARC
  8
0
 62
7
 10
1.20749966E+02
 20
9.83694647E+01
 40
9.99998474E+00
 50
1.79999995E+02
 51
2.11788351E+02
  0
ARC
  8
0
 62
7
 10
1.20749966E+02
 20
9.83694647E+01
 40
9.99998474E+00
 50
1.48211649E+02
 51
1.80000005E+02
  0
ARC
  8
0
 62
7
 10
5.39999962E+01
 20
8.13609198E+01
 40
2.50000000E-01
 50
2.71998866E+02
 51
2.23117997E-05
  0
ARC
  8
0
 62
7
 10
5.87499962E+01
 20
8.18694952E+01
 40
5.00000000E-01
 50
2.70000025E+02
 51
2.23117997E-05
  0
ARC
  8
0
 62
7
 10
5.87499962E+01
 20
1.14869449E+02
 40
5.00000000E-01
 50
3.59721781E-05
 51
9.00000162E+01
  0
ARC
  8
0
 62
7
 10
5.39999962E+01
 20
1.15378025E+02
 40
2.50000000E-01
 50
2.23117997E-05
 51
8.80011750E+01
  0
LINE
  8
0
 62
4
 10
-1.63749962E+02
 20
8.48694647E+01
 11
-1.63749962E+02
 21
1.11869465E+02
  0
LINE
  8
0
 62
4
 10
-1.74749962E+02
 20
8.48694647E+01
 11
-1.74749962E+02
 21
1.11869465E+02
  0
ARC
  8
0
 62
4
 10
-1.48955734E+02
 20
9.83694647E+01
 40
2.57942282E+01
 50
1.62412046E+02
 51
1.97587954E+02
  0
ARC
  8
0
 62
4
 10
-1.89544190E+02
 20
9.83694647E+01
 40
2.57942282E+01
 50
3.42412046E+02
 51
1.75879541E+01
  0
ARC
  8
0
 62
4
 10
-1.70650683E+02
 20
1.10060808E+02
 40
6.90072132E+00
 50
3.25615752E+02
 51
3.43842480E+01
  0
ARC
  8
0
 62
4
 10
-1.67849241E+02
 20
1.10060808E+02
 40
6.90072132E+00
 50
1.45615752E+02
 51
2.14384248E+02
  0
LINE
  8
0
 62
4
 10
-1.64955733E+02
 20
1.13957922E+02
 11
-1.63749962E+02
 21
1.11869465E+02
  0
LINE
  8
0
 62
4
 10
-1.73544190E+02
 20
1.13957922E+02
 11
-1.74749962E+02
 21
1.11869465E+02
  0
LINE
  8
0
 62
4
 10
-1.73544190E+02
 20
1.06163693E+02
 11
-1.64955733E+02
 21
1.06163693E+02
  0
LINE
  8
0
 62
4
 10
-1.73544190E+02
 20
1.13957922E+02
 11
-1.64955733E+02
 21
1.13957922E+02
  0
ARC
  8
0
 62
4
 10
-1.70650683E+02
 20
8.66781217E+01
 40
6.90072132E+00
 50
3.25615752E+02
 51
3.43842480E+01
  0
ARC
  8
0
 62
4
 10
-1.67849241E+02
 20
8.66781217E+01
 40
6.90072132E+00
 50
1.45615752E+02
 51
2.14384248E+02
  0
LINE
  8
0
 62
4
 10
-1.74749962E+02
 20
8.48694647E+01
 11
-1.73544190E+02
 21
8.27810074E+01
  0
LINE
  8
0
 62
4
 10
-1.63749962E+02
 20
8.48694647E+01
 11
-1.64955733E+02
 21
8.27810074E+01
  0
LINE
  8
0
 62
4
 10
-1.73544190E+02
 20
9.05752360E+01
 11
-1.64955733E+02
 21
9.05752360E+01
  0
LINE
  8
0
 62
4
 10
-1.73544190E+02
 20
8.27810074E+01
 11
-1.64955733E+02
 21
8.27810074E+01
  0
LINE
  8
0
 62
4
 10
1.42249950E+02
 20
8.48694647E+01
 11
1.42249950E+02
 21
1.11869465E+02
  0
LINE
  8
0
 62
4
 10
1.31249950E+02
 20
8.48694647E+01
 11
1.31249950E+02
 21
1.11869465E+02
  0
ARC
  8
0
 62
4
 10
1.57044179E+02
 20
9.83694647E+01
 40
2.57942282E+01
 50
1.62412046E+02
 51
1.97587954E+02
  0
ARC
  8
0
 62
4
 10
1.16455722E+02
 20
9.83694647E+01
 40
2.57942282E+01
 50
3.42412046E+02
 51
1.75879541E+01
  0
ARC
  8
0
 62
4
 10
1.35349229E+02
 20
1.10060808E+02
 40
6.90072132E+00
 50
3.25615752E+02
 51
3.43842480E+01
  0
ARC
  8
0
 62
4
 10
1.38150672E+02
 20
1.10060808E+02
 40
6.90072132E+00
 50
1.45615752E+02
 51
2.14384248E+02
  0
LINE
  8
0
 62
4
 10
1.41044179E+02
 20
1.13957922E+02
 11
1.42249950E+02
 21
1.11869465E+02
  0
LINE
  8
0
 62
4
 10
1.32455722E+02
 20
1.13957922E+02
 11
1.31249950E+02
 21
1.11869465E+02
  0
LINE
  8
0
 62
4
 10
1.32455722E+02
 20
1.06163693E+02
 11
1.41044179E+02
 21
1.06163693E+02
  0
LINE
  8
0
 62
4
 10
1.32455722E+02
 20
1.13957922E+02
 11
1.41044179E+02
 21
1.13957922E+02
  0
ARC
  8
0
 62
4
 10
1.35349229E+02
 20
8.66781217E+01
 40
6.90072132E+00
 50
3.25615752E+02
 51
3.43842480E+01
  0
ARC
  8
0
 62
4
 10
1.38150672E+02
 20
8.66781217E+01
 40
6.90072132E+00
 50
1.45615752E+02
 51
2.14384248E+02
  0
LINE
  8
0
 62
4
 10
1.31249950E+02
 20
8.48694647E+01
 11
1.32455722E+02
 21
8.27810074E+01
  0
LINE
  8
0
 62
4
 10
1.42249950E+02
 20
8.48694647E+01
 11
1.41044179E+02
 21
8.27810074E+01
  0
LINE
  8
0
 62
4
 10
1.32455722E+02
 20
9.05752360E+01
 11
1.41044179E+02
 21
9.05752360E+01
  0
LINE
  8
0
 62
4
 10
1.32455722E+02
 20
8.27810074E+01
 11
1.41044179E+02
 21
8.27810074E+01
  0
LINE
  8
0
 62
7
 10
-1.63749962E+02
 20
1.07369465E+02
 11
-1.54749947E+02
 21
1.07369465E+02
  0
LINE
  8
0
 62
2
 10
-1.63749962E+02
 20
1.06549457E+02
 11
-1.54749947E+02
 21
1.06549457E+02
  0
LINE
  8
0
 62
7
 10
-1.63749962E+02
 20
8.93694723E+01
 11
-1.54749947E+02
 21
8.93694723E+01
  0
LINE
  8
0
 62
2
 10
-1.63749962E+02
 20
9.01894644E+01
 11
-1.54749947E+02
 21
9.01894644E+01
  0
LINE
  8
0
 62
7
 10
1.31249950E+02
 20
1.07369465E+02
 11
1.22249935E+02
 21
1.07369465E+02
  0
LINE
  8
0
 62
2
 10
1.31249950E+02
 20
1.06549457E+02
 11
1.22249935E+02
 21
1.06549457E+02
  0
LINE
  8
0
 62
7
 10
1.31249950E+02
 20
8.93694723E+01
 11
1.22249935E+02
 21
8.93694723E+01
  0
LINE
  8
0
 62
2
 10
1.31249950E+02
 20
9.01894644E+01
 11
1.22249935E+02
 21
9.01894644E+01
  0
LINE
  8
0
  6
CENTER
 62
6
 10
-8.87500229E+01
 20
1.34221523E+02
 11
-4.17500229E+01
 21
1.34221523E+02
  0
LINE
  8
0
  6
CENTER
 62
6
 10
1.02500381E+01
 20
1.34221523E+02
 11
-3.67499619E+01
 21
1.34221523E+02
  0
LINE
  8
0
 62
4
 10
-5.37500076E+01
 20
1.35721523E+02
 11
-5.37500076E+01
 21
1.47046383E+02
  0
LINE
  8
0
 62
6
 10
-3.30179110E+01
 20
1.37221523E+02
 11
-3.64820126E+01
 21
1.31221523E+02
  0
LINE
  8
0
 62
6
 10
-4.54820737E+01
 20
1.31221523E+02
 11
-4.20179721E+01
 21
1.37221523E+02
  0
LINE
  8
0
 62
4
 10
-2.47499618E+01
 20
1.35721523E+02
 11
-3.38839365E+01
 21
1.35721523E+02
  0
LINE
  8
0
 62
4
 10
-2.47499619E+01
 20
1.32721523E+02
 11
-3.56159873E+01
 21
1.32721523E+02
  0
LINE
  8
0
 62
4
 10
-5.37500076E+01
 20
1.32721523E+02
 11
-4.46160483E+01
 21
1.32721523E+02
  0
LINE
  8
0
 62
4
 10
-6.02500229E+01
 20
1.35721523E+02
 11
-4.28839975E+01
 21
1.35721523E+02
  0
LINE
  8
0
 62
4
 10
-5.37500076E+01
 20
1.32369434E+02
 11
-5.37500076E+01
 21
1.32780535E+02
  0
LINE
  8
0
 62
4
 10
-6.02500076E+01
 20
1.36741670E+02
 11
-6.02500076E+01
 21
1.32780535E+02
  0
LINE
  8
0
 62
4
 10
-8.37500076E+01
 20
1.47046383E+02
 11
-8.37500076E+01
 21
1.36741670E+02
  0
LINE
  8
0
  6
CENTER
 62
6
 10
-6.41000076E+01
 20
1.39437931E+02
 11
-7.34000076E+01
 21
1.39437931E+02
  0
LINE
  8
0
  6
CENTER
 62
6
 10
-6.87500076E+01
 20
1.44087931E+02
 11
-6.87500076E+01
 21
1.34787931E+02
  0
LINE
  8
0
 62
4
 10
5.24997711E+00
 20
1.47046383E+02
 11
5.24997711E+00
 21
1.28522997E+02
  0
LINE
  8
0
  6
CENTER
 62
6
 10
-2.47500229E+01
 20
1.20385637E+02
 11
-1.77500229E+01
 21
1.20385637E+02
  0
LINE
  8
0
  6
CENTER
 62
6
 10
-1.67500229E+01
 20
1.20385637E+02
 11
-9.75002289E+00
 21
1.20385637E+02
  0
LINE
  8
0
  6
CENTER
 62
6
 10
-1.32500229E+01
 20
1.16885637E+02
 11
-1.32500229E+01
 21
1.23885637E+02
  0
LINE
  8
0
  6
CENTER
 62
6
 10
-2.12500229E+01
 20
1.16885637E+02
 11
-2.12500229E+01
 21
1.23885637E+02
  0
LINE
  8
0
 62
4
 10
-2.47500229E+01
 20
1.15544936E+02
 11
-2.47500229E+01
 21
1.47046383E+02
  0
LINE
  8
0
 62
4
 10
-9.75002289E+00
 20
1.43863508E+02
 11
-9.75002289E+00
 21
1.15544936E+02
  0
LINE
  8
0
  6
CENTER
 62
6
 10
1.32457400E+00
 20
1.39583753E+02
 11
-5.82461978E+00
 21
1.39583753E+02
  0
LINE
  8
0
  6
CENTER
 62
6
 10
-2.25002289E+00
 20
1.43158350E+02
 11
-2.25002289E+00
 21
1.36009157E+02
  0
LINE
  8
0
 62
4
 10
-8.37500076E+01
 20
1.47046383E+02
 11
-5.37500076E+01
 21
1.47046383E+02
  0
LINE
  8
0
 62
4
 10
-2.47500229E+01
 20
1.47046383E+02
 11
5.24997711E+00
 21
1.47046383E+02
  0
LINE
  8
0
 62
4
 10
-2.47500229E+01
 20
1.15544936E+02
 11
-9.75002289E+00
 21
1.15544936E+02
  0
LINE
  8
0
 62
4
 10
-2.47500229E+01
 20
1.43863508E+02
 11
5.24997710E+00
 21
1.43863508E+02
  0
LINE
  8
0
 62
4
 10
-2.47500229E+01
 20
1.42472931E+02
 11
-9.75002289E+00
 21
1.42472931E+02
  0
LINE
  8
0
 62
4
 10
-2.37500229E+01
 20
1.26091976E+02
 11
-1.07500229E+01
 21
1.26091976E+02
  0
LINE
  8
0
 62
4
 10
-9.75002289E+00
 20
1.35779527E+02
 11
5.24997710E+00
 21
1.35779527E+02
  0
LINE
  8
0
 62
4
 10
-9.75002289E+00
 20
1.35655921E+02
 11
5.24997710E+00
 21
1.35655921E+02
  0
LINE
  8
0
 62
4
 10
-9.75002290E+00
 20
1.28522997E+02
 11
5.24997711E+00
 21
1.28522997E+02
  0
POLYLINE
  8
0
 62
4
 66
1
  0
VERTEX
  8
0
 62
4
 10
-4.50002289E+00
 20
1.39583753E+02
  0
VERTEX
  8
0
 62
4
 10
-4.49146096E+00
 20
1.39397250E+02
  0
VERTEX
  8
0
 62
4
 10
-4.46584034E+00
 20
1.39212167E+02
  0
VERTEX
  8
0
 62
4
 10
-4.42335600E+00
 20
1.39029912E+02
  0
VERTEX
  8
0
 62
4
 10
-4.36433129E+00
 20
1.38851872E+02
  0
VERTEX
  8
0
 62
4
 10
-4.28921541E+00
 20
1.38679402E+02
  0
VERTEX
  8
0
 62
4
 10
-4.19858005E+00
 20
1.38513814E+02
  0
VERTEX
  8
0
 62
4
 10
-4.09311499E+00
 20
1.38356370E+02
  0
VERTEX
  8
0
 62
4
 10
-3.97362289E+00
 20
1.38208266E+02
  0
VERTEX
  8
0
 62
4
 10
-3.84101315E+00
 20
1.38070631E+02
  0
VERTEX
  8
0
 62
4
 10
-3.69629502E+00
 20
1.37944512E+02
  0
VERTEX
  8
0
 62
4
 10
-3.54056988E+00
 20
1.37830868E+02
  0
VERTEX
  8
0
 62
4
 10
-3.37502290E+00
 20
1.37730565E+02
  0
VERTEX
  8
0
 62
4
 10
-3.20091398E+00
 20
1.37644366E+02
  0
VERTEX
  8
0
 62
4
 10
-3.01956822E+00
 20
1.37572926E+02
  0
VERTEX
  8
0
 62
4
 10
-2.83236575E+00
 20
1.37516790E+02
  0
VERTEX
  8
0
 62
4
 10
-2.64073130E+00
 20
1.37476385E+02
  0
VERTEX
  8
0
 62
4
 10
-2.44612332E+00
 20
1.37452019E+02
  0
VERTEX
  8
0
 62
4
 10
-2.25002290E+00
 20
1.37443876E+02
  0
VERTEX
  8
0
 62
4
 10
-2.05392247E+00
 20
1.37452019E+02
  0
VERTEX
  8
0
 62
4
 10
-1.85931450E+00
 20
1.37476385E+02
  0
VERTEX
  8
0
 62
4
 10
-1.66768004E+00
 20
1.37516790E+02
  0
VERTEX
  8
0
 62
4
 10
-1.48047757E+00
 20
1.37572926E+02
  0
VERTEX
  8
0
 62
4
 10
-1.29913181E+00
 20
1.37644366E+02
  0
VERTEX
  8
0
 62
4
 10
-1.12502289E+00
 20
1.37730565E+02
  0
VERTEX
  8
0
 62
4
 10
-9.59475913E-01
 20
1.37830868E+02
  0
VERTEX
  8
0
 62
4
 10
-8.03750772E-01
 20
1.37944512E+02
  0
VERTEX
  8
0
 62
4
 10
-6.59032636E-01
 20
1.38070631E+02
  0
VERTEX
  8
0
 62
4
 10
-5.26422896E-01
 20
1.38208266E+02
  0
VERTEX
  8
0
 62
4
 10
-4.06930793E-01
 20
1.38356370E+02
  0
VERTEX
  8
0
 62
4
 10
-3.01465734E-01
 20
1.38513814E+02
  0
VERTEX
  8
0
 62
4
 10
-2.10830371E-01
 20
1.38679402E+02
  0
VERTEX
  8
0
 62
4
 10
-1.35714495E-01
 20
1.38851872E+02
  0
VERTEX
  8
0
 62
4
 10
-7.66897821E-02
 20
1.39029912E+02
  0
VERTEX
  8
0
 62
4
 10
-3.42054465E-02
 20
1.39212167E+02
  0
VERTEX
  8
0
 62
4
 10
-8.58481969E-03
 20
1.39397250E+02
  0
VERTEX
  8
0
 62
4
 10
-2.28900000E-05
 20
1.39583753E+02
  0
VERTEX
  8
0
 62
4
 10
-8.58481891E-03
 20
1.39770256E+02
  0
VERTEX
  8
0
 62
4
 10
-3.42054450E-02
 20
1.39955339E+02
  0
VERTEX
  8
0
 62
4
 10
-7.66897798E-02
 20
1.40137594E+02
  0
VERTEX
  8
0
 62
4
 10
-1.35714492E-01
 20
1.40315634E+02
  0
VERTEX
  8
0
 62
4
 10
-2.10830367E-01
 20
1.40488104E+02
  0
VERTEX
  8
0
 62
4
 10
-3.01465729E-01
 20
1.40653692E+02
  0
VERTEX
  8
0
 62
4
 10
-4.06930788E-01
 20
1.40811136E+02
  0
VERTEX
  8
0
 62
4
 10
-5.26422891E-01
 20
1.40959240E+02
  0
VERTEX
  8
0
 62
4
 10
-6.59032630E-01
 20
1.41096875E+02
  0
VERTEX
  8
0
 62
4
 10
-8.03750765E-01
 20
1.41222994E+02
  0
VERTEX
  8
0
 62
4
 10
-9.59475905E-01
 20
1.41336638E+02
  0
VERTEX
  8
0
 62
4
 10
-1.12502289E+00
 20
1.41436941E+02
  0
VERTEX
  8
0
 62
4
 10
-1.29913180E+00
 20
1.41523140E+02
  0
VERTEX
  8
0
 62
4
 10
-1.48047756E+00
 20
1.41594580E+02
  0
VERTEX
  8
0
 62
4
 10
-1.66768004E+00
 20
1.41650716E+02
  0
VERTEX
  8
0
 62
4
 10
-1.85931449E+00
 20
1.41691121E+02
  0
VERTEX
  8
0
 62
4
 10
-2.05392247E+00
 20
1.41715487E+02
  0
VERTEX
  8
0
 62
4
 10
-2.25002289E+00
 20
1.41723630E+02
  0
VERTEX
  8
0
 62
4
 10
-2.44612331E+00
 20
1.41715487E+02
  0
VERTEX
  8
0
 62
4
 10
-2.64073129E+00
 20
1.41691121E+02
  0
VERTEX
  8
0
 62
4
 10
-2.83236574E+00
 20
1.41650716E+02
  0
VERTEX
  8
0
 62
4
 10
-3.01956821E+00
 20
1.41594580E+02
  0
VERTEX
  8
0
 62
4
 10
-3.20091398E+00
 20
1.41523140E+02
  0
VERTEX
  8
0
 62
4
 10
-3.37502289E+00
 20
1.41436941E+02
  0
VERTEX
  8
0
 62
4
 10
-3.54056987E+00
 20
1.41336638E+02
  0
VERTEX
  8
0
 62
4
 10
-3.69629501E+00
 20
1.41222994E+02
  0
VERTEX
  8
0
 62
4
 10
-3.84101315E+00
 20
1.41096875E+02
  0
VERTEX
  8
0
 62
4
 10
-3.97362289E+00
 20
1.40959240E+02
  0
VERTEX
  8
0
 62
4
 10
-4.09311499E+00
 20
1.40811136E+02
  0
VERTEX
  8
0
 62
4
 10
-4.19858005E+00
 20
1.40653692E+02
  0
VERTEX
  8
0
 62
4
 10
-4.28921541E+00
 20
1.40488104E+02
  0
VERTEX
  8
0
 62
4
 10
-4.36433129E+00
 20
1.40315634E+02
  0
VERTEX
  8
0
 62
4
 10
-4.42335600E+00
 20
1.40137594E+02
  0
VERTEX
  8
0
 62
4
 10
-4.46584033E+00
 20
1.39955339E+02
  0
VERTEX
  8
0
 62
4
 10
-4.49146096E+00
 20
1.39770256E+02
  0
VERTEX
  8
0
 62
4
 10
-4.50002289E+00
 20
1.39583753E+02
  0
SEQEND
  8
0
  0
POLYLINE
  8
0
 62
4
 66
1
  0
VERTEX
  8
0
 62
4
 10
-1.12500229E+01
 20
1.20385637E+02
  0
VERTEX
  8
0
 62
4
 10
-1.12580743E+01
 20
1.20556141E+02
  0
VERTEX
  8
0
 62
4
 10
-1.12821637E+01
 20
1.20725272E+02
  0
VERTEX
  8
0
 62
4
 10
-1.13220972E+01
 20
1.20891669E+02
  0
VERTEX
  8
0
 62
4
 10
-1.13775532E+01
 20
1.21053992E+02
  0
VERTEX
  8
0
 62
4
 10
-1.14480852E+01
 20
1.21210933E+02
  0
VERTEX
  8
0
 62
4
 10
-1.15331253E+01
 20
1.21361229E+02
  0
VERTEX
  8
0
 62
4
 10
-1.16319889E+01
 20
1.21503671E+02
  0
VERTEX
  8
0
 62
4
 10
-1.17438800E+01
 20
1.21637111E+02
  0
VERTEX
  8
0
 62
4
 10
-1.18678976E+01
 20
1.21760475E+02
  0
VERTEX
  8
0
 62
4
 10
-1.20030433E+01
 20
1.21872769E+02
  0
VERTEX
  8
0
 62
4
 10
-1.21482289E+01
 20
1.21973090E+02
  0
VERTEX
  8
0
 62
4
 10
-1.23022856E+01
 20
1.22060629E+02
  0
VERTEX
  8
0
 62
4
 10
-1.24639728E+01
 20
1.22134683E+02
  0
VERTEX
  8
0
 62
4
 10
-1.26319889E+01
 20
1.22194654E+02
  0
VERTEX
  8
0
 62
4
 10
-1.28049810E+01
 20
1.22240060E+02
  0
VERTEX
  8
0
 62
4
 10
-1.29815564E+01
 20
1.22270535E+02
  0
VERTEX
  8
0
 62
4
 10
-1.31602932E+01
 20
1.22285835E+02
  0
VERTEX
  8
0
 62
4
 10
-1.33397526E+01
 20
1.22285835E+02
  0
VERTEX
  8
0
 62
4
 10
-1.35184894E+01
 20
1.22270535E+02
  0
VERTEX
  8
0
 62
4
 10
-1.36950648E+01
 20
1.22240060E+02
  0
VERTEX
  8
0
 62
4
 10
-1.38680569E+01
 20
1.22194654E+02
  0
VERTEX
  8
0
 62
4
 10
-1.40360730E+01
 20
1.22134683E+02
  0
VERTEX
  8
0
 62
4
 10
-1.41977602E+01
 20
1.22060629E+02
  0
VERTEX
  8
0
 62
4
 10
-1.43518169E+01
 20
1.21973090E+02
  0
VERTEX
  8
0
 62
4
 10
-1.44970025E+01
 20
1.21872769E+02
  0
VERTEX
  8
0
 62
4
 10
-1.46321482E+01
 20
1.21760475E+02
  0
VERTEX
  8
0
 62
4
 10
-1.47561658E+01
 20
1.21637111E+02
  0
VERTEX
  8
0
 62
4
 10
-1.48680569E+01
 20
1.21503671E+02
  0
VERTEX
  8
0
 62
4
 10
-1.49669205E+01
 20
1.21361229E+02
  0
VERTEX
  8
0
 62
4
 10
-1.50519606E+01
 20
1.21210933E+02
  0
VERTEX
  8
0
 62
4
 10
-1.51224926E+01
 20
1.21053992E+02
  0
VERTEX
  8
0
 62
4
 10
-1.51779486E+01
 20
1.20891669E+02
  0
VERTEX
  8
0
 62
4
 10
-1.52178821E+01
 20
1.20725272E+02
  0
VERTEX
  8
0
 62
4
 10
-1.52419715E+01
 20
1.20556141E+02
  0
VERTEX
  8
0
 62
4
 10
-1.52500229E+01
 20
1.20385637E+02
  0
SEQEND
  8
0
  0
POLYLINE
  8
0
 62
4
 66
1
  0
VERTEX
  8
0
 62
4
 10
-1.12500229E+01
 20
1.19510296E+02
  0
VERTEX
  8
0
 62
4
 10
-1.12576335E+01
 20
1.19676076E+02
  0
VERTEX
  8
0
 62
4
 10
-1.12804074E+01
 20
1.19840594E+02
  0
VERTEX
  8
0
 62
4
 10
-1.13181712E+01
 20
1.20002599E+02
  0
VERTEX
  8
0
 62
4
 10
-1.13706377E+01
 20
1.20160857E+02
  0
VERTEX
  8
0
 62
4
 10
-1.14374073E+01
 20
1.20314164E+02
  0
VERTEX
  8
0
 62
4
 10
-1.15179721E+01
 20
1.20461353E+02
  0
VERTEX
  8
0
 62
4
 10
-1.16117188E+01
 20
1.20601303E+02
  0
VERTEX
  8
0
 62
4
 10
-1.17179340E+01
 20
1.20732951E+02
  0
VERTEX
  8
0
 62
4
 10
-1.18358093E+01
 20
1.20855293E+02
  0
VERTEX
  8
0
 62
4
 10
-1.19644477E+01
 20
1.20967399E+02
  0
VERTEX
  8
0
 62
4
 10
-1.21028700E+01
 20
1.21068416E+02
  0
VERTEX
  8
0
 62
4
 10
-1.22500229E+01
 20
1.21157574E+02
  0
VERTEX
  8
0
 62
4
 10
-1.24047864E+01
 20
1.21234196E+02
  0
VERTEX
  8
0
 62
4
 10
-1.25659826E+01
 20
1.21297698E+02
  0
VERTEX
  8
0
 62
4
 10
-1.27323848E+01
 20
1.21347596E+02
  0
VERTEX
  8
0
 62
4
 10
-1.29027265E+01
 20
1.21383512E+02
  0
VERTEX
  8
0
 62
4
 10
-1.30757114E+01
 20
1.21405171E+02
  0
VERTEX
  8
0
 62
4
 10
-1.32500229E+01
 20
1.21412409E+02
  0
VERTEX
  8
0
 62
4
 10
-1.34243344E+01
 20
1.21405171E+02
  0
VERTEX
  8
0
 62
4
 10
-1.35973193E+01
 20
1.21383512E+02
  0
VERTEX
  8
0
 62
4
 10
-1.37676610E+01
 20
1.21347596E+02
  0
VERTEX
  8
0
 62
4
 10
-1.39340632E+01
 20
1.21297698E+02
  0
VERTEX
  8
0
 62
4
 10
-1.40952594E+01
 20
1.21234196E+02
  0
VERTEX
  8
0
 62
4
 10
-1.42500229E+01
 20
1.21157574E+02
  0
VERTEX
  8
0
 62
4
 10
-1.43971758E+01
 20
1.21068416E+02
  0
VERTEX
  8
0
 62
4
 10
-1.45355981E+01
 20
1.20967399E+02
  0
VERTEX
  8
0
 62
4
 10
-1.46642365E+01
 20
1.20855293E+02
  0
VERTEX
  8
0
 62
4
 10
-1.47821118E+01
 20
1.20732951E+02
  0
VERTEX
  8
0
 62
4
 10
-1.48883270E+01
 20
1.20601303E+02
  0
VERTEX
  8
0
 62
4
 10
-1.49820737E+01
 20
1.20461353E+02
  0
VERTEX
  8
0
 62
4
 10
-1.50626385E+01
 20
1.20314164E+02
  0
VERTEX
  8
0
 62
4
 10
-1.51294081E+01
 20
1.20160857E+02
  0
VERTEX
  8
0
 62
4
 10
-1.51818746E+01
 20
1.20002599E+02
  0
VERTEX
  8
0
 62
4
 10
-1.52196384E+01
 20
1.19840594E+02
  0
VERTEX
  8
0
 62
4
 10
-1.52424123E+01
 20
1.19676076E+02
  0
VERTEX
  8
0
 62
4
 10
-1.52500229E+01
 20
1.19510296E+02
  0
VERTEX
  8
0
 62
4
 10
-1.52424123E+01
 20
1.19344516E+02
  0
VERTEX
  8
0
 62
4
 10
-1.52196384E+01
 20
1.19179998E+02
  0
VERTEX
  8
0
 62
4
 10
-1.51818746E+01
 20
1.19017993E+02
  0
VERTEX
  8
0
 62
4
 10
-1.51294081E+01
 20
1.18859735E+02
  0
VERTEX
  8
0
 62
4
 10
-1.50626385E+01
 20
1.18706428E+02
  0
VERTEX
  8
0
 62
4
 10
-1.49820737E+01
 20
1.18559239E+02
  0
VERTEX
  8
0
 62
4
 10
-1.48883270E+01
 20
1.18419289E+02
  0
VERTEX
  8
0
 62
4
 10
-1.47821118E+01
 20
1.18287641E+02
  0
VERTEX
  8
0
 62
4
 10
-1.46642365E+01
 20
1.18165299E+02
  0
VERTEX
  8
0
 62
4
 10
-1.45355981E+01
 20
1.18053193E+02
  0
VERTEX
  8
0
 62
4
 10
-1.43971758E+01
 20
1.17952176E+02
  0
VERTEX
  8
0
 62
4
 10
-1.42500229E+01
 20
1.17863018E+02
  0
VERTEX
  8
0
 62
4
 10
-1.40952594E+01
 20
1.17786396E+02
  0
VERTEX
  8
0
 62
4
 10
-1.39340632E+01
 20
1.17722894E+02
  0
VERTEX
  8
0
 62
4
 10
-1.37676610E+01
 20
1.17672996E+02
  0
VERTEX
  8
0
 62
4
 10
-1.35973193E+01
 20
1.17637080E+02
  0
VERTEX
  8
0
 62
4
 10
-1.34243344E+01
 20
1.17615421E+02
  0
VERTEX
  8
0
 62
4
 10
-1.32500229E+01
 20
1.17608183E+02
  0
VERTEX
  8
0
 62
4
 10
-1.30757114E+01
 20
1.17615421E+02
  0
VERTEX
  8
0
 62
4
 10
-1.29027265E+01
 20
1.17637080E+02
  0
VERTEX
  8
0
 62
4
 10
-1.27323848E+01
 20
1.17672996E+02
  0
VERTEX
  8
0
 62
4
 10
-1.25659826E+01
 20
1.17722894E+02
  0
VERTEX
  8
0
 62
4
 10
-1.24047864E+01
 20
1.17786396E+02
  0
VERTEX
  8
0
 62
4
 10
-1.22500229E+01
 20
1.17863018E+02
  0
VERTEX
  8
0
 62
4
 10
-1.21028700E+01
 20
1.17952176E+02
  0
VERTEX
  8
0
 62
4
 10
-1.19644477E+01
 20
1.18053193E+02
  0
VERTEX
  8
0
 62
4
 10
-1.18358093E+01
 20
1.18165299E+02
  0
VERTEX
  8
0
 62
4
 10
-1.17179340E+01
 20
1.18287641E+02
  0
VERTEX
  8
0
 62
4
 10
-1.16117188E+01
 20
1.18419289E+02
  0
VERTEX
  8
0
 62
4
 10
-1.15179721E+01
 20
1.18559239E+02
  0
VERTEX
  8
0
 62
4
 10
-1.14374073E+01
 20
1.18706428E+02
  0
VERTEX
  8
0
 62
4
 10
-1.13706377E+01
 20
1.18859735E+02
  0
VERTEX
  8
0
 62
4
 10
-1.13181712E+01
 20
1.19017993E+02
  0
VERTEX
  8
0
 62
4
 10
-1.12804074E+01
 20
1.19179998E+02
  0
VERTEX
  8
0
 62
4
 10
-1.12576335E+01
 20
1.19344516E+02
  0
VERTEX
  8
0
 62
4
 10
-1.12500229E+01
 20
1.19510296E+02
  0
SEQEND
  8
0
  0
LINE
  8
0
 62
4
 10
-1.52500229E+01
 20
1.19510296E+02
 11
-1.52500229E+01
 21
1.20385637E+02
  0
LINE
  8
0
 62
4
 10
-1.12500229E+01
 20
1.19510296E+02
 11
-1.12500229E+01
 21
1.20385637E+02
  0
POLYLINE
  8
0
 62
6
 66
1
  0
VERTEX
  8
0
 62
6
 10
-1.47500229E+01
 20
1.19510296E+02
  0
VERTEX
  8
0
 62
6
 10
-1.47443149E+01
 20
1.19385961E+02
  0
VERTEX
  8
0
 62
6
 10
-1.47272345E+01
 20
1.19262572E+02
  0
VERTEX
  8
0
 62
6
 10
-1.46989116E+01
 20
1.19141069E+02
  0
VERTEX
  8
0
 62
6
 10
-1.46595618E+01
 20
1.19022375E+02
  0
VERTEX
  8
0
 62
6
 10
-1.46094846E+01
 20
1.18907395E+02
  0
VERTEX
  8
0
 62
6
 10
-1.45490610E+01
 20
1.18797004E+02
  0
VERTEX
  8
0
 62
6
 10
-1.44787510E+01
 20
1.18692041E+02
  0
VERTEX
  8
0
 62
6
 10
-1.43990896E+01
 20
1.18593305E+02
  0
VERTEX
  8
0
 62
6
 10
-1.43106831E+01
 20
1.18501548E+02
  0
VERTEX
  8
0
 62
6
 10
-1.42142043E+01
 20
1.18417469E+02
  0
VERTEX
  8
0
 62
6
 10
-1.41103876E+01
 20
1.18341706E+02
  0
VERTEX
  8
0
 62
6
 10
-1.40000229E+01
 20
1.18274837E+02
  0
VERTEX
  8
0
 62
6
 10
-1.38839503E+01
 20
1.18217371E+02
  0
VERTEX
  8
0
 62
6
 10
-1.37630531E+01
 20
1.18169745E+02
  0
VERTEX
  8
0
 62
6
 10
-1.36382515E+01
 20
1.18132321E+02
  0
VERTEX
  8
0
 62
6
 10
-1.35104952E+01
 20
1.18105384E+02
  0
VERTEX
  8
0
 62
6
 10
-1.33807565E+01
 20
1.18089140E+02
  0
VERTEX
  8
0
 62
6
 10
-1.32500229E+01
 20
1.18083711E+02
  0
VERTEX
  8
0
 62
6
 10
-1.31192893E+01
 20
1.18089140E+02
  0
VERTEX
  8
0
 62
6
 10
-1.29895506E+01
 20
1.18105384E+02
  0
VERTEX
  8
0
 62
6
 10
-1.28617943E+01
 20
1.18132321E+02
  0
VERTEX
  8
0
 62
6
 10
-1.27369927E+01
 20
1.18169745E+02
  0
VERTEX
  8
0
 62
6
 10
-1.26160955E+01
 20
1.18217371E+02
  0
VERTEX
  8
0
 62
6
 10
-1.25000229E+01
 20
1.18274837E+02
  0
VERTEX
  8
0
 62
6
 10
-1.23896582E+01
 20
1.18341706E+02
  0
VERTEX
  8
0
 62
6
 10
-1.22858415E+01
 20
1.18417469E+02
  0
VERTEX
  8
0
 62
6
 10
-1.21893627E+01
 20
1.18501548E+02
  0
VERTEX
  8
0
 62
6
 10
-1.21009562E+01
 20
1.18593305E+02
  0
VERTEX
  8
0
 62
6
 10
-1.20212948E+01
 20
1.18692041E+02
  0
VERTEX
  8
0
 62
6
 10
-1.19509848E+01
 20
1.18797004E+02
  0
VERTEX
  8
0
 62
6
 10
-1.18905612E+01
 20
1.18907395E+02
  0
VERTEX
  8
0
 62
6
 10
-1.18404840E+01
 20
1.19022375E+02
  0
VERTEX
  8
0
 62
6
 10
-1.18011342E+01
 20
1.19141069E+02
  0
VERTEX
  8
0
 62
6
 10
-1.17728113E+01
 20
1.19262572E+02
  0
VERTEX
  8
0
 62
6
 10
-1.17557309E+01
 20
1.19385961E+02
  0
VERTEX
  8
0
 62
6
 10
-1.17500229E+01
 20
1.19510296E+02
  0
VERTEX
  8
0
 62
6
 10
-1.17557309E+01
 20
1.19634631E+02
  0
VERTEX
  8
0
 62
6
 10
-1.17728113E+01
 20
1.19758020E+02
  0
VERTEX
  8
0
 62
6
 10
-1.18011342E+01
 20
1.19879523E+02
  0
VERTEX
  8
0
 62
6
 10
-1.18404840E+01
 20
1.19998217E+02
  0
VERTEX
  8
0
 62
6
 10
-1.18905612E+01
 20
1.20113197E+02
  0
VERTEX
  8
0
 62
6
 10
-1.19509848E+01
 20
1.20223588E+02
  0
VERTEX
  8
0
 62
6
 10
-1.20212948E+01
 20
1.20328551E+02
  0
VERTEX
  8
0
 62
6
 10
-1.21009562E+01
 20
1.20427287E+02
  0
VERTEX
  8
0
 62
6
 10
-1.21893627E+01
 20
1.20519044E+02
  0
VERTEX
  8
0
 62
6
 10
-1.22858415E+01
 20
1.20603123E+02
  0
VERTEX
  8
0
 62
6
 10
-1.23896582E+01
 20
1.20678886E+02
  0
VERTEX
  8
0
 62
6
 10
-1.25000229E+01
 20
1.20745755E+02
  0
VERTEX
  8
0
 62
6
 10
-1.26160955E+01
 20
1.20803221E+02
  0
VERTEX
  8
0
 62
6
 10
-1.27369927E+01
 20
1.20850847E+02
  0
VERTEX
  8
0
 62
6
 10
-1.28617943E+01
 20
1.20888271E+02
  0
VERTEX
  8
0
 62
6
 10
-1.29895506E+01
 20
1.20915208E+02
  0
VERTEX
  8
0
 62
6
 10
-1.31192893E+01
 20
1.20931452E+02
  0
VERTEX
  8
0
 62
6
 10
-1.32500229E+01
 20
1.20936881E+02
  0
VERTEX
  8
0
 62
6
 10
-1.33807565E+01
 20
1.20931452E+02
  0
VERTEX
  8
0
 62
6
 10
-1.35104952E+01
 20
1.20915208E+02
  0
VERTEX
  8
0
 62
6
 10
-1.36382515E+01
 20
1.20888271E+02
  0
VERTEX
  8
0
 62
6
 10
-1.37630531E+01
 20
1.20850847E+02
  0
VERTEX
  8
0
 62
6
 10
-1.38839503E+01
 20
1.20803221E+02
  0
VERTEX
  8
0
 62
6
 10
-1.40000229E+01
 20
1.20745755E+02
  0
VERTEX
  8
0
 62
6
 10
-1.41103876E+01
 20
1.20678886E+02
  0
VERTEX
  8
0
 62
6
 10
-1.42142043E+01
 20
1.20603123E+02
  0
VERTEX
  8
0
 62
6
 10
-1.43106831E+01
 20
1.20519044E+02
  0
VERTEX
  8
0
 62
6
 10
-1.43990896E+01
 20
1.20427287E+02
  0
VERTEX
  8
0
 62
6
 10
-1.44787510E+01
 20
1.20328551E+02
  0
VERTEX
  8
0
 62
6
 10
-1.45490610E+01
 20
1.20223588E+02
  0
VERTEX
  8
0
 62
6
 10
-1.46094846E+01
 20
1.20113197E+02
  0
VERTEX
  8
0
 62
6
 10
-1.46595618E+01
 20
1.19998217E+02
  0
VERTEX
  8
0
 62
6
 10
-1.46989116E+01
 20
1.19879523E+02
  0
VERTEX
  8
0
 62
6
 10
-1.47272345E+01
 20
1.19758020E+02
  0
VERTEX
  8
0
 62
6
 10
-1.47443149E+01
 20
1.19634631E+02
  0
VERTEX
  8
0
 62
6
 10
-1.47500229E+01
 20
1.19510296E+02
  0
SEQEND
  8
0
  0
LINE
  8
0
 62
4
 10
-1.42500229E+01
 20
1.18958683E+02
 11
-1.42500229E+01
 21
1.20061909E+02
  0
LINE
  8
0
 62
4
 10
-1.22500229E+01
 20
1.18958683E+02
 11
-1.22500229E+01
 21
1.20061909E+02
  0
LINE
  8
0
 62
4
 10
-1.32500229E+01
 20
1.20604011E+02
 11
-1.42500229E+01
 21
1.20061909E+02
  0
LINE
  8
0
 62
4
 10
-1.32500229E+01
 20
1.20604011E+02
 11
-1.22500229E+01
 21
1.20061909E+02
  0
LINE
  8
0
 62
4
 10
-1.22500229E+01
 20
1.18958683E+02
 11
-1.32500229E+01
 21
1.18407071E+02
  0
LINE
  8
0
 62
4
 10
-1.32500229E+01
 20
1.18407071E+02
 11
-1.42500229E+01
 21
1.18958683E+02
  0
LINE
  8
0
 62
4
 10
-2.12500229E+01
 20
1.18407071E+02
 11
-2.22500229E+01
 21
1.18958683E+02
  0
LINE
  8
0
 62
4
 10
-2.02500229E+01
 20
1.18958683E+02
 11
-2.12500229E+01
 21
1.18407071E+02
  0
LINE
  8
0
 62
4
 10
-2.12500229E+01
 20
1.20604011E+02
 11
-2.02500229E+01
 21
1.20061909E+02
  0
LINE
  8
0
 62
4
 10
-2.12500229E+01
 20
1.20604011E+02
 11
-2.22500229E+01
 21
1.20061909E+02
  0
LINE
  8
0
 62
4
 10
-2.02500229E+01
 20
1.18958683E+02
 11
-2.02500229E+01
 21
1.20061909E+02
  0
LINE
  8
0
 62
4
 10
-2.22500229E+01
 20
1.18958683E+02
 11
-2.22500229E+01
 21
1.20061909E+02
  0
POLYLINE
  8
0
 62
6
 66
1
  0
VERTEX
  8
0
 62
6
 10
-2.27500229E+01
 20
1.19510296E+02
  0
VERTEX
  8
0
 62
6
 10
-2.27443149E+01
 20
1.19385961E+02
  0
VERTEX
  8
0
 62
6
 10
-2.27272345E+01
 20
1.19262572E+02
  0
VERTEX
  8
0
 62
6
 10
-2.26989116E+01
 20
1.19141069E+02
  0
VERTEX
  8
0
 62
6
 10
-2.26595618E+01
 20
1.19022375E+02
  0
VERTEX
  8
0
 62
6
 10
-2.26094846E+01
 20
1.18907395E+02
  0
VERTEX
  8
0
 62
6
 10
-2.25490610E+01
 20
1.18797004E+02
  0
VERTEX
  8
0
 62
6
 10
-2.24787510E+01
 20
1.18692041E+02
  0
VERTEX
  8
0
 62
6
 10
-2.23990896E+01
 20
1.18593305E+02
  0
VERTEX
  8
0
 62
6
 10
-2.23106831E+01
 20
1.18501548E+02
  0
VERTEX
  8
0
 62
6
 10
-2.22142043E+01
 20
1.18417469E+02
  0
VERTEX
  8
0
 62
6
 10
-2.21103876E+01
 20
1.18341706E+02
  0
VERTEX
  8
0
 62
6
 10
-2.20000229E+01
 20
1.18274837E+02
  0
VERTEX
  8
0
 62
6
 10
-2.18839503E+01
 20
1.18217371E+02
  0
VERTEX
  8
0
 62
6
 10
-2.17630531E+01
 20
1.18169745E+02
  0
VERTEX
  8
0
 62
6
 10
-2.16382515E+01
 20
1.18132321E+02
  0
VERTEX
  8
0
 62
6
 10
-2.15104952E+01
 20
1.18105384E+02
  0
VERTEX
  8
0
 62
6
 10
-2.13807565E+01
 20
1.18089140E+02
  0
VERTEX
  8
0
 62
6
 10
-2.12500229E+01
 20
1.18083711E+02
  0
VERTEX
  8
0
 62
6
 10
-2.11192893E+01
 20
1.18089140E+02
  0
VERTEX
  8
0
 62
6
 10
-2.09895506E+01
 20
1.18105384E+02
  0
VERTEX
  8
0
 62
6
 10
-2.08617943E+01
 20
1.18132321E+02
  0
VERTEX
  8
0
 62
6
 10
-2.07369927E+01
 20
1.18169745E+02
  0
VERTEX
  8
0
 62
6
 10
-2.06160955E+01
 20
1.18217371E+02
  0
VERTEX
  8
0
 62
6
 10
-2.05000229E+01
 20
1.18274837E+02
  0
VERTEX
  8
0
 62
6
 10
-2.03896582E+01
 20
1.18341706E+02
  0
VERTEX
  8
0
 62
6
 10
-2.02858415E+01
 20
1.18417469E+02
  0
VERTEX
  8
0
 62
6
 10
-2.01893627E+01
 20
1.18501548E+02
  0
VERTEX
  8
0
 62
6
 10
-2.01009562E+01
 20
1.18593305E+02
  0
VERTEX
  8
0
 62
6
 10
-2.00212948E+01
 20
1.18692041E+02
  0
VERTEX
  8
0
 62
6
 10
-1.99509848E+01
 20
1.18797004E+02
  0
VERTEX
  8
0
 62
6
 10
-1.98905612E+01
 20
1.18907395E+02
  0
VERTEX
  8
0
 62
6
 10
-1.98404840E+01
 20
1.19022375E+02
  0
VERTEX
  8
0
 62
6
 10
-1.98011342E+01
 20
1.19141069E+02
  0
VERTEX
  8
0
 62
6
 10
-1.97728113E+01
 20
1.19262572E+02
  0
VERTEX
  8
0
 62
6
 10
-1.97557309E+01
 20
1.19385961E+02
  0
VERTEX
  8
0
 62
6
 10
-1.97500229E+01
 20
1.19510296E+02
  0
VERTEX
  8
0
 62
6
 10
-1.97557309E+01
 20
1.19634631E+02
  0
VERTEX
  8
0
 62
6
 10
-1.97728113E+01
 20
1.19758020E+02
  0
VERTEX
  8
0
 62
6
 10
-1.98011342E+01
 20
1.19879523E+02
  0
VERTEX
  8
0
 62
6
 10
-1.98404840E+01
 20
1.19998217E+02
  0
VERTEX
  8
0
 62
6
 10
-1.98905612E+01
 20
1.20113197E+02
  0
VERTEX
  8
0
 62
6
 10
-1.99509848E+01
 20
1.20223588E+02
  0
VERTEX
  8
0
 62
6
 10
-2.00212948E+01
 20
1.20328551E+02
  0
VERTEX
  8
0
 62
6
 10
-2.01009562E+01
 20
1.20427287E+02
  0
VERTEX
  8
0
 62
6
 10
-2.01893627E+01
 20
1.20519044E+02
  0
VERTEX
  8
0
 62
6
 10
-2.02858415E+01
 20
1.20603123E+02
  0
VERTEX
  8
0
 62
6
 10
-2.03896582E+01
 20
1.20678886E+02
  0
VERTEX
  8
0
 62
6
 10
-2.05000229E+01
 20
1.20745755E+02
  0
VERTEX
  8
0
 62
6
 10
-2.06160955E+01
 20
1.20803221E+02
  0
VERTEX
  8
0
 62
6
 10
-2.07369927E+01
 20
1.20850847E+02
  0
VERTEX
  8
0
 62
6
 10
-2.08617943E+01
 20
1.20888271E+02
  0
VERTEX
  8
0
 62
6
 10
-2.09895506E+01
 20
1.20915208E+02
  0
VERTEX
  8
0
 62
6
 10
-2.11192893E+01
 20
1.20931452E+02
  0
VERTEX
  8
0
 62
6
 10
-2.12500229E+01
 20
1.20936881E+02
  0
VERTEX
  8
0
 62
6
 10
-2.13807565E+01
 20
1.20931452E+02
  0
VERTEX
  8
0
 62
6
 10
-2.15104952E+01
 20
1.20915208E+02
  0
VERTEX
  8
0
 62
6
 10
-2.16382515E+01
 20
1.20888271E+02
  0
VERTEX
  8
0
 62
6
 10
-2.17630531E+01
 20
1.20850847E+02
  0
VERTEX
  8
0
 62
6
 10
-2.18839503E+01
 20
1.20803221E+02
  0
VERTEX
  8
0
 62
6
 10
-2.20000229E+01
 20
1.20745755E+02
  0
VERTEX
  8
0
 62
6
 10
-2.21103876E+01
 20
1.20678886E+02
  0
VERTEX
  8
0
 62
6
 10
-2.22142043E+01
 20
1.20603123E+02
  0
VERTEX
  8
0
 62
6
 10
-2.23106831E+01
 20
1.20519044E+02
  0
VERTEX
  8
0
 62
6
 10
-2.23990896E+01
 20
1.20427287E+02
  0
VERTEX
  8
0
 62
6
 10
-2.24787510E+01
 20
1.20328551E+02
  0
VERTEX
  8
0
 62
6
 10
-2.25490610E+01
 20
1.20223588E+02
  0
VERTEX
  8
0
 62
6
 10
-2.26094846E+01
 20
1.20113197E+02
  0
VERTEX
  8
0
 62
6
 10
-2.26595618E+01
 20
1.19998217E+02
  0
VERTEX
  8
0
 62
6
 10
-2.26989116E+01
 20
1.19879523E+02
  0
VERTEX
  8
0
 62
6
 10
-2.27272345E+01
 20
1.19758020E+02
  0
VERTEX
  8
0
 62
6
 10
-2.27443149E+01
 20
1.19634631E+02
  0
VERTEX
  8
0
 62
6
 10
-2.27500229E+01
 20
1.19510296E+02
  0
SEQEND
  8
0
  0
LINE
  8
0
 62
4
 10
-1.92500229E+01
 20
1.19510296E+02
 11
-1.92500229E+01
 21
1.20385637E+02
  0
LINE
  8
0
 62
4
 10
-2.32500229E+01
 20
1.19510296E+02
 11
-2.32500229E+01
 21
1.20385637E+02
  0
POLYLINE
  8
0
 62
4
 66
1
  0
VERTEX
  8
0
 62
4
 10
-1.92500229E+01
 20
1.19510296E+02
  0
VERTEX
  8
0
 62
4
 10
-1.92576335E+01
 20
1.19676076E+02
  0
VERTEX
  8
0
 62
4
 10
-1.92804074E+01
 20
1.19840594E+02
  0
VERTEX
  8
0
 62
4
 10
-1.93181712E+01
 20
1.20002599E+02
  0
VERTEX
  8
0
 62
4
 10
-1.93706377E+01
 20
1.20160857E+02
  0
VERTEX
  8
0
 62
4
 10
-1.94374073E+01
 20
1.20314164E+02
  0
VERTEX
  8
0
 62
4
 10
-1.95179721E+01
 20
1.20461353E+02
  0
VERTEX
  8
0
 62
4
 10
-1.96117188E+01
 20
1.20601303E+02
  0
VERTEX
  8
0
 62
4
 10
-1.97179340E+01
 20
1.20732951E+02
  0
VERTEX
  8
0
 62
4
 10
-1.98358093E+01
 20
1.20855293E+02
  0
VERTEX
  8
0
 62
4
 10
-1.99644477E+01
 20
1.20967399E+02
  0
VERTEX
  8
0
 62
4
 10
-2.01028700E+01
 20
1.21068416E+02
  0
VERTEX
  8
0
 62
4
 10
-2.02500229E+01
 20
1.21157574E+02
  0
VERTEX
  8
0
 62
4
 10
-2.04047864E+01
 20
1.21234196E+02
  0
VERTEX
  8
0
 62
4
 10
-2.05659826E+01
 20
1.21297698E+02
  0
VERTEX
  8
0
 62
4
 10
-2.07323848E+01
 20
1.21347596E+02
  0
VERTEX
  8
0
 62
4
 10
-2.09027265E+01
 20
1.21383512E+02
  0
VERTEX
  8
0
 62
4
 10
-2.10757114E+01
 20
1.21405171E+02
  0
VERTEX
  8
0
 62
4
 10
-2.12500229E+01
 20
1.21412409E+02
  0
VERTEX
  8
0
 62
4
 10
-2.14243344E+01
 20
1.21405171E+02
  0
VERTEX
  8
0
 62
4
 10
-2.15973193E+01
 20
1.21383512E+02
  0
VERTEX
  8
0
 62
4
 10
-2.17676610E+01
 20
1.21347596E+02
  0
VERTEX
  8
0
 62
4
 10
-2.19340632E+01
 20
1.21297698E+02
  0
VERTEX
  8
0
 62
4
 10
-2.20952594E+01
 20
1.21234196E+02
  0
VERTEX
  8
0
 62
4
 10
-2.22500229E+01
 20
1.21157574E+02
  0
VERTEX
  8
0
 62
4
 10
-2.23971758E+01
 20
1.21068416E+02
  0
VERTEX
  8
0
 62
4
 10
-2.25355981E+01
 20
1.20967399E+02
  0
VERTEX
  8
0
 62
4
 10
-2.26642365E+01
 20
1.20855293E+02
  0
VERTEX
  8
0
 62
4
 10
-2.27821118E+01
 20
1.20732951E+02
  0
VERTEX
  8
0
 62
4
 10
-2.28883270E+01
 20
1.20601303E+02
  0
VERTEX
  8
0
 62
4
 10
-2.29820737E+01
 20
1.20461353E+02
  0
VERTEX
  8
0
 62
4
 10
-2.30626385E+01
 20
1.20314164E+02
  0
VERTEX
  8
0
 62
4
 10
-2.31294081E+01
 20
1.20160857E+02
  0
VERTEX
  8
0
 62
4
 10
-2.31818746E+01
 20
1.20002599E+02
  0
VERTEX
  8
0
 62
4
 10
-2.32196384E+01
 20
1.19840594E+02
  0
VERTEX
  8
0
 62
4
 10
-2.32424123E+01
 20
1.19676076E+02
  0
VERTEX
  8
0
 62
4
 10
-2.32500229E+01
 20
1.19510296E+02
  0
VERTEX
  8
0
 62
4
 10
-2.32424123E+01
 20
1.19344516E+02
  0
VERTEX
  8
0
 62
4
 10
-2.32196384E+01
 20
1.19179998E+02
  0
VERTEX
  8
0
 62
4
 10
-2.31818746E+01
 20
1.19017993E+02
  0
VERTEX
  8
0
 62
4
 10
-2.31294081E+01
 20
1.18859735E+02
  0
VERTEX
  8
0
 62
4
 10
-2.30626385E+01
 20
1.18706428E+02
  0
VERTEX
  8
0
 62
4
 10
-2.29820737E+01
 20
1.18559239E+02
  0
VERTEX
  8
0
 62
4
 10
-2.28883270E+01
 20
1.18419289E+02
  0
VERTEX
  8
0
 62
4
 10
-2.27821118E+01
 20
1.18287641E+02
  0
VERTEX
  8
0
 62
4
 10
-2.26642365E+01
 20
1.18165299E+02
  0
VERTEX
  8
0
 62
4
 10
-2.25355981E+01
 20
1.18053193E+02
  0
VERTEX
  8
0
 62
4
 10
-2.23971758E+01
 20
1.17952176E+02
  0
VERTEX
  8
0
 62
4
 10
-2.22500229E+01
 20
1.17863018E+02
  0
VERTEX
  8
0
 62
4
 10
-2.20952594E+01
 20
1.17786396E+02
  0
VERTEX
  8
0
 62
4
 10
-2.19340632E+01
 20
1.17722894E+02
  0
VERTEX
  8
0
 62
4
 10
-2.17676610E+01
 20
1.17672996E+02
  0
VERTEX
  8
0
 62
4
 10
-2.15973193E+01
 20
1.17637080E+02
  0
VERTEX
  8
0
 62
4
 10
-2.14243344E+01
 20
1.17615421E+02
  0
VERTEX
  8
0
 62
4
 10
-2.12500229E+01
 20
1.17608183E+02
  0
VERTEX
  8
0
 62
4
 10
-2.10757114E+01
 20
1.17615421E+02
  0
VERTEX
  8
0
 62
4
 10
-2.09027265E+01
 20
1.17637080E+02
  0
VERTEX
  8
0
 62
4
 10
-2.07323848E+01
 20
1.17672996E+02
  0
VERTEX
  8
0
 62
4
 10
-2.05659826E+01
 20
1.17722894E+02
  0
VERTEX
  8
0
 62
4
 10
-2.04047864E+01
 20
1.17786396E+02
  0
VERTEX
  8
0
 62
4
 10
-2.02500229E+01
 20
1.17863018E+02
  0
VERTEX
  8
0
 62
4
 10
-2.01028700E+01
 20
1.17952176E+02
  0
VERTEX
  8
0
 62
4
 10
-1.99644477E+01
 20
1.18053193E+02
  0
VERTEX
  8
0
 62
4
 10
-1.98358093E+01
 20
1.18165299E+02
  0
VERTEX
  8
0
 62
4
 10
-1.97179340E+01
 20
1.18287641E+02
  0
VERTEX
  8
0
 62
4
 10
-1.96117188E+01
 20
1.18419289E+02
  0
VERTEX
  8
0
 62
4
 10
-1.95179721E+01
 20
1.18559239E+02
  0
VERTEX
  8
0
 62
4
 10
-1.94374073E+01
 20
1.18706428E+02
  0
VERTEX
  8
0
 62
4
 10
-1.93706377E+01
 20
1.18859735E+02
  0
VERTEX
  8
0
 62
4
 10
-1.93181712E+01
 20
1.19017993E+02
  0
VERTEX
  8
0
 62
4
 10
-1.92804074E+01
 20
1.19179998E+02
  0
VERTEX
  8
0
 62
4
 10
-1.92576335E+01
 20
1.19344516E+02
  0
VERTEX
  8
0
 62
4
 10
-1.92500229E+01
 20
1.19510296E+02
  0
SEQEND
  8
0
  0
POLYLINE
  8
0
 62
4
 66
1
  0
VERTEX
  8
0
 62
4
 10
-1.92500229E+01
 20
1.20385637E+02
  0
VERTEX
  8
0
 62
4
 10
-1.92580743E+01
 20
1.20556141E+02
  0
VERTEX
  8
0
 62
4
 10
-1.92821637E+01
 20
1.20725272E+02
  0
VERTEX
  8
0
 62
4
 10
-1.93220972E+01
 20
1.20891669E+02
  0
VERTEX
  8
0
 62
4
 10
-1.93775532E+01
 20
1.21053992E+02
  0
VERTEX
  8
0
 62
4
 10
-1.94480852E+01
 20
1.21210933E+02
  0
VERTEX
  8
0
 62
4
 10
-1.95331253E+01
 20
1.21361229E+02
  0
VERTEX
  8
0
 62
4
 10
-1.96319889E+01
 20
1.21503671E+02
  0
VERTEX
  8
0
 62
4
 10
-1.97438800E+01
 20
1.21637111E+02
  0
VERTEX
  8
0
 62
4
 10
-1.98678976E+01
 20
1.21760475E+02
  0
VERTEX
  8
0
 62
4
 10
-2.00030433E+01
 20
1.21872769E+02
  0
VERTEX
  8
0
 62
4
 10
-2.01482289E+01
 20
1.21973090E+02
  0
VERTEX
  8
0
 62
4
 10
-2.03022856E+01
 20
1.22060629E+02
  0
VERTEX
  8
0
 62
4
 10
-2.04639728E+01
 20
1.22134683E+02
  0
VERTEX
  8
0
 62
4
 10
-2.06319889E+01
 20
1.22194654E+02
  0
VERTEX
  8
0
 62
4
 10
-2.08049810E+01
 20
1.22240060E+02
  0
VERTEX
  8
0
 62
4
 10
-2.09815564E+01
 20
1.22270535E+02
  0
VERTEX
  8
0
 62
4
 10
-2.11602932E+01
 20
1.22285835E+02
  0
VERTEX
  8
0
 62
4
 10
-2.13397526E+01
 20
1.22285835E+02
  0
VERTEX
  8
0
 62
4
 10
-2.15184894E+01
 20
1.22270535E+02
  0
VERTEX
  8
0
 62
4
 10
-2.16950648E+01
 20
1.22240060E+02
  0
VERTEX
  8
0
 62
4
 10
-2.18680569E+01
 20
1.22194654E+02
  0
VERTEX
  8
0
 62
4
 10
-2.20360730E+01
 20
1.22134683E+02
  0
VERTEX
  8
0
 62
4
 10
-2.21977602E+01
 20
1.22060629E+02
  0
VERTEX
  8
0
 62
4
 10
-2.23518169E+01
 20
1.21973090E+02
  0
VERTEX
  8
0
 62
4
 10
-2.24970025E+01
 20
1.21872769E+02
  0
VERTEX
  8
0
 62
4
 10
-2.26321482E+01
 20
1.21760475E+02
  0
VERTEX
  8
0
 62
4
 10
-2.27561658E+01
 20
1.21637111E+02
  0
VERTEX
  8
0
 62
4
 10
-2.28680569E+01
 20
1.21503671E+02
  0
VERTEX
  8
0
 62
4
 10
-2.29669205E+01
 20
1.21361229E+02
  0
VERTEX
  8
0
 62
4
 10
-2.30519606E+01
 20
1.21210933E+02
  0
VERTEX
  8
0
 62
4
 10
-2.31224926E+01
 20
1.21053992E+02
  0
VERTEX
  8
0
 62
4
 10
-2.31779486E+01
 20
1.20891669E+02
  0
VERTEX
  8
0
 62
4
 10
-2.32178821E+01
 20
1.20725272E+02
  0
VERTEX
  8
0
 62
4
 10
-2.32419715E+01
 20
1.20556141E+02
  0
VERTEX
  8
0
 62
4
 10
-2.32500229E+01
 20
1.20385637E+02
  0
SEQEND
  8
0
  0
LINE
  8
0
  6
CENTER
 62
6
 10
-5.64500077E+01
 20
1.42766628E+02
 11
-6.60500077E+01
 21
1.42766628E+02
  0
LINE
  8
0
  6
CENTER
 62
6
 10
-6.12500076E+01
 20
1.47566628E+02
 11
-6.12500076E+01
 21
1.37966628E+02
  0
LINE
  8
0
  6
CENTER
 62
6
 10
-7.26754107E+01
 20
1.42766628E+02
 11
-7.98246045E+01
 21
1.42766628E+02
  0
LINE
  8
0
  6
CENTER
 62
6
 10
-7.62500076E+01
 20
1.46341225E+02
 11
-7.62500076E+01
 21
1.39192032E+02
  0
LINE
  8
0
 62
4
 10
-8.37500076E+01
 20
1.36741670E+02
 11
-8.52500076E+01
 21
1.35645406E+02
  0
LINE
  8
0
 62
4
 10
-8.52500076E+01
 20
1.35645406E+02
 11
-8.52500076E+01
 21
1.32791340E+02
  0
LINE
  8
0
 62
4
 10
-8.52500076E+01
 20
1.33491263E+02
 11
-8.37500076E+01
 21
1.32937444E+02
  0
LINE
  8
0
 62
4
 10
-8.52500076E+01
 20
1.32791340E+02
 11
-8.46693843E+01
 21
1.32369434E+02
  0
LINE
  8
0
 62
4
 10
-8.37500076E+01
 20
1.32937444E+02
 11
-6.02500076E+01
 21
1.32937444E+02
  0
LINE
  8
0
 62
4
 10
-8.37500076E+01
 20
1.36741670E+02
 11
-7.16603106E+01
 21
1.36741670E+02
  0
LINE
  8
0
 62
4
 10
-8.37500076E+01
 20
1.37155395E+02
 11
-7.20446399E+01
 21
1.37155395E+02
  0
LINE
  8
0
 62
4
 10
-8.37500076E+01
 20
1.32780535E+02
 11
-5.37500076E+01
 21
1.32780535E+02
  0
LINE
  8
0
 62
4
 10
-8.37500076E+01
 20
1.36741670E+02
 11
-8.37500076E+01
 21
1.32780535E+02
  0
LINE
  8
0
 62
4
 10
-8.37500076E+01
 20
1.32780535E+02
 11
-8.37500076E+01
 21
1.32369434E+02
  0
POLYLINE
  8
0
 62
4
 66
1
  0
VERTEX
  8
0
 62
4
 10
-7.29000076E+01
 20
1.40099227E+02
  0
VERTEX
  8
0
 62
4
 10
-7.28842156E+01
 20
1.39755233E+02
  0
VERTEX
  8
0
 62
4
 10
-7.28369598E+01
 20
1.39413858E+02
  0
VERTEX
  8
0
 62
4
 10
-7.27585998E+01
 20
1.39077698E+02
  0
VERTEX
  8
0
 62
4
 10
-7.26497320E+01
 20
1.38749313E+02
  0
VERTEX
  8
0
 62
4
 10
-7.25111849E+01
 20
1.38431202E+02
  0
VERTEX
  8
0
 62
4
 10
-7.23440130E+01
 20
1.38125785E+02
  0
VERTEX
  8
0
 62
4
 10
-7.21494886E+01
 20
1.37835387E+02
  0
VERTEX
  8
0
 62
4
 10
-7.19290920E+01
 20
1.37562219E+02
  0
VERTEX
  8
0
 62
4
 10
-7.16845008E+01
 20
1.37308358E+02
  0
VERTEX
  8
0
 62
4
 10
-7.14175762E+01
 20
1.37075738E+02
  0
VERTEX
  8
0
 62
4
 10
-7.11303498E+01
 20
1.36866128E+02
  0
VERTEX
  8
0
 62
4
 10
-7.08250076E+01
 20
1.36681125E+02
  0
VERTEX
  8
0
 62
4
 10
-7.05038734E+01
 20
1.36522135E+02
  0
VERTEX
  8
0
 62
4
 10
-7.01693912E+01
 20
1.36390369E+02
  0
VERTEX
  8
0
 62
4
 10
-6.98241066E+01
 20
1.36286829E+02
  0
VERTEX
  8
0
 62
4
 10
-6.94706475E+01
 20
1.36212305E+02
  0
VERTEX
  8
0
 62
4
 10
-6.91117039E+01
 20
1.36167362E+02
  0
VERTEX
  8
0
 62
4
 10
-6.87500076E+01
 20
1.36152342E+02
  0
VERTEX
  8
0
 62
4
 10
-6.83883113E+01
 20
1.36167362E+02
  0
VERTEX
  8
0
 62
4
 10
-6.80293677E+01
 20
1.36212305E+02
  0
VERTEX
  8
0
 62
4
 10
-6.76759086E+01
 20
1.36286829E+02
  0
VERTEX
  8
0
 62
4
 10
-6.73306240E+01
 20
1.36390369E+02
  0
VERTEX
  8
0
 62
4
 10
-6.69961418E+01
 20
1.36522135E+02
  0
VERTEX
  8
0
 62
4
 10
-6.66750076E+01
 20
1.36681125E+02
  0
VERTEX
  8
0
 62
4
 10
-6.63696654E+01
 20
1.36866128E+02
  0
VERTEX
  8
0
 62
4
 10
-6.60824390E+01
 20
1.37075738E+02
  0
VERTEX
  8
0
 62
4
 10
-6.58155145E+01
 20
1.37308358E+02
  0
VERTEX
  8
0
 62
4
 10
-6.55709232E+01
 20
1.37562219E+02
  0
VERTEX
  8
0
 62
4
 10
-6.53505266E+01
 20
1.37835387E+02
  0
VERTEX
  8
0
 62
4
 10
-6.51560022E+01
 20
1.38125785E+02
  0
VERTEX
  8
0
 62
4
 10
-6.49888303E+01
 20
1.38431202E+02
  0
VERTEX
  8
0
 62
4
 10
-6.48502832E+01
 20
1.38749313E+02
  0
VERTEX
  8
0
 62
4
 10
-6.47414154E+01
 20
1.39077698E+02
  0
VERTEX
  8
0
 62
4
 10
-6.46630554E+01
 20
1.39413858E+02
  0
VERTEX
  8
0
 62
4
 10
-6.46157996E+01
 20
1.39755233E+02
  0
VERTEX
  8
0
 62
4
 10
-6.46000076E+01
 20
1.40099227E+02
  0
VERTEX
  8
0
 62
4
 10
-6.46157996E+01
 20
1.40443221E+02
  0
VERTEX
  8
0
 62
4
 10
-6.46630554E+01
 20
1.40784596E+02
  0
VERTEX
  8
0
 62
4
 10
-6.47414154E+01
 20
1.41120756E+02
  0
VERTEX
  8
0
 62
4
 10
-6.48502832E+01
 20
1.41449141E+02
  0
VERTEX
  8
0
 62
4
 10
-6.49888303E+01
 20
1.41767252E+02
  0
VERTEX
  8
0
 62
4
 10
-6.51560022E+01
 20
1.42072669E+02
  0
VERTEX
  8
0
 62
4
 10
-6.53505266E+01
 20
1.42363067E+02
  0
VERTEX
  8
0
 62
4
 10
-6.55709232E+01
 20
1.42636235E+02
  0
VERTEX
  8
0
 62
4
 10
-6.58155145E+01
 20
1.42890096E+02
  0
VERTEX
  8
0
 62
4
 10
-6.60824390E+01
 20
1.43122716E+02
  0
VERTEX
  8
0
 62
4
 10
-6.63696654E+01
 20
1.43332326E+02
  0
VERTEX
  8
0
 62
4
 10
-6.66750076E+01
 20
1.43517329E+02
  0
VERTEX
  8
0
 62
4
 10
-6.69961418E+01
 20
1.43676319E+02
  0
VERTEX
  8
0
 62
4
 10
-6.73306240E+01
 20
1.43808085E+02
  0
VERTEX
  8
0
 62
4
 10
-6.76759086E+01
 20
1.43911625E+02
  0
VERTEX
  8
0
 62
4
 10
-6.80293677E+01
 20
1.43986149E+02
  0
VERTEX
  8
0
 62
4
 10
-6.83883113E+01
 20
1.44031092E+02
  0
VERTEX
  8
0
 62
4
 10
-6.87500076E+01
 20
1.44046112E+02
  0
VERTEX
  8
0
 62
4
 10
-6.91117039E+01
 20
1.44031092E+02
  0
VERTEX
  8
0
 62
4
 10
-6.94706475E+01
 20
1.43986149E+02
  0
VERTEX
  8
0
 62
4
 10
-6.98241066E+01
 20
1.43911625E+02
  0
VERTEX
  8
0
 62
4
 10
-7.01693912E+01
 20
1.43808085E+02
  0
VERTEX
  8
0
 62
4
 10
-7.05038734E+01
 20
1.43676319E+02
  0
VERTEX
  8
0
 62
4
 10
-7.08250076E+01
 20
1.43517329E+02
  0
VERTEX
  8
0
 62
4
 10
-7.11303498E+01
 20
1.43332326E+02
  0
VERTEX
  8
0
 62
4
 10
-7.14175762E+01
 20
1.43122716E+02
  0
VERTEX
  8
0
 62
4
 10
-7.16845007E+01
 20
1.42890096E+02
  0
VERTEX
  8
0
 62
4
 10
-7.19290920E+01
 20
1.42636235E+02
  0
VERTEX
  8
0
 62
4
 10
-7.21494886E+01
 20
1.42363067E+02
  0
VERTEX
  8
0
 62
4
 10
-7.23440130E+01
 20
1.42072669E+02
  0
VERTEX
  8
0
 62
4
 10
-7.25111849E+01
 20
1.41767252E+02
  0
VERTEX
  8
0
 62
4
 10
-7.26497320E+01
 20
1.41449141E+02
  0
VERTEX
  8
0
 62
4
 10
-7.27585998E+01
 20
1.41120756E+02
  0
VERTEX
  8
0
 62
4
 10
-7.28369598E+01
 20
1.40784596E+02
  0
VERTEX
  8
0
 62
4
 10
-7.28842156E+01
 20
1.40443221E+02
  0
VERTEX
  8
0
 62
4
 10
-7.29000076E+01
 20
1.40099227E+02
  0
SEQEND
  8
0
  0
ARC
  8
0
 62
4
 10
3.17935889E+00
 20
6.46664639E+01
 40
1.04392782E+02
 50
1.32228766E+02
 51
1.34907157E+02
  0
ARC
  8
0
 62
4
 10
-1.40679150E+02
 20
6.46666992E+01
 40
1.04392457E+02
 50
4.50928385E+01
 51
4.77712376E+01
  0
POLYLINE
  8
0
 62
4
 66
1
  0
VERTEX
  8
0
 62
4
 10
-7.29000076E+01
 20
1.39555357E+02
  0
VERTEX
  8
0
 62
4
 10
-7.28833009E+01
 20
1.39201561E+02
  0
VERTEX
  8
0
 62
4
 10
-7.28333154E+01
 20
1.38850614E+02
  0
VERTEX
  8
0
 62
4
 10
-7.27504535E+01
 20
1.38505340E+02
  0
VERTEX
  8
0
 62
4
 10
-7.26353823E+01
 20
1.38168521E+02
  0
VERTEX
  8
0
 62
4
 10
-7.24890284E+01
 20
1.37842868E+02
  0
VERTEX
  8
0
 62
4
 10
-7.23125701E+01
 20
1.37531003E+02
  0
VERTEX
  8
0
 62
4
 10
-7.21074281E+01
 20
1.37235436E+02
  0
VERTEX
  8
0
 62
4
 10
-7.18752542E+01
 20
1.36958549E+02
  0
VERTEX
  8
0
 62
4
 10
-7.16179176E+01
 20
1.36702569E+02
  0
VERTEX
  8
0
 62
4
 10
-7.13374903E+01
 20
1.36469558E+02
  0
VERTEX
  8
0
 62
4
 10
-7.10362301E+01
 20
1.36261393E+02
  0
VERTEX
  8
0
 62
4
 10
-7.07165626E+01
 20
1.36079748E+02
  0
VERTEX
  8
0
 62
4
 10
-7.03810615E+01
 20
1.35926087E+02
  0
VERTEX
  8
0
 62
4
 10
-7.00324281E+01
 20
1.35801647E+02
  0
VERTEX
  8
0
 62
4
 10
-6.96734695E+01
 20
1.35707429E+02
  0
VERTEX
  8
0
 62
4
 10
-6.93070757E+01
 20
1.35644193E+02
  0
VERTEX
  8
0
 62
4
 10
-6.89361967E+01
 20
1.35612447E+02
  0
VERTEX
  8
0
 62
4
 10
-6.85638186E+01
 20
1.35612447E+02
  0
VERTEX
  8
0
 62
4
 10
-6.81929396E+01
 20
1.35644193E+02
  0
VERTEX
  8
0
 62
4
 10
-6.78265457E+01
 20
1.35707429E+02
  0
VERTEX
  8
0
 62
4
 10
-6.74675871E+01
 20
1.35801647E+02
  0
VERTEX
  8
0
 62
4
 10
-6.71189537E+01
 20
1.35926087E+02
  0
VERTEX
  8
0
 62
4
 10
-6.67834527E+01
 20
1.36079748E+02
  0
VERTEX
  8
0
 62
4
 10
-6.64637851E+01
 20
1.36261393E+02
  0
VERTEX
  8
0
 62
4
 10
-6.61625249E+01
 20
1.36469558E+02
  0
VERTEX
  8
0
 62
4
 10
-6.58820976E+01
 20
1.36702569E+02
  0
VERTEX
  8
0
 62
4
 10
-6.56247610E+01
 20
1.36958549E+02
  0
VERTEX
  8
0
 62
4
 10
-6.53925871E+01
 20
1.37235436E+02
  0
VERTEX
  8
0
 62
4
 10
-6.51874451E+01
 20
1.37531003E+02
  0
VERTEX
  8
0
 62
4
 10
-6.50109868E+01
 20
1.37842868E+02
  0
VERTEX
  8
0
 62
4
 10
-6.48646329E+01
 20
1.38168521E+02
  0
VERTEX
  8
0
 62
4
 10
-6.47495617E+01
 20
1.38505340E+02
  0
VERTEX
  8
0
 62
4
 10
-6.46666998E+01
 20
1.38850614E+02
  0
VERTEX
  8
0
 62
4
 10
-6.46167143E+01
 20
1.39201561E+02
  0
VERTEX
  8
0
 62
4
 10
-6.46000076E+01
 20
1.39555357E+02
  0
SEQEND
  8
0
  0
LINE
  8
0
 62
4
 10
-7.29000076E+01
 20
1.39555357E+02
 11
-7.29000076E+01
 21
1.40099227E+02
  0
LINE
  8
0
 62
4
 10
-6.46000076E+01
 20
1.39555357E+02
 11
-6.46000076E+01
 21
1.40099227E+02
  0
POLYLINE
  8
0
 62
4
 66
1
  0
VERTEX
  8
0
 62
4
 10
-6.50500076E+01
 20
1.42766628E+02
  0
VERTEX
  8
0
 62
4
 10
-6.50347099E+01
 20
1.42442670E+02
  0
VERTEX
  8
0
 62
4
 10
-6.49889401E+01
 20
1.42121321E+02
  0
VERTEX
  8
0
 62
4
 10
-6.49130665E+01
 20
1.41805167E+02
  0
VERTEX
  8
0
 62
4
 10
-6.48077001E+01
 20
1.41496754E+02
  0
VERTEX
  8
0
 62
4
 10
-6.46736893E+01
 20
1.41198566E+02
  0
VERTEX
  8
0
 62
4
 10
-6.45121130E+01
 20
1.40913002E+02
  0
VERTEX
  8
0
 62
4
 10
-6.43242722E+01
 20
1.40642363E+02
  0
VERTEX
  8
0
 62
4
 10
-6.41116792E+01
 20
1.40388828E+02
  0
VERTEX
  8
0
 62
4
 10
-6.38760457E+01
 20
1.40154437E+02
  0
VERTEX
  8
0
 62
4
 10
-6.36192689E+01
 20
1.39941077E+02
  0
VERTEX
  8
0
 62
4
 10
-6.33434162E+01
 20
1.39750468E+02
  0
VERTEX
  8
0
 62
4
 10
-6.30507085E+01
 20
1.39584143E+02
  0
VERTEX
  8
0
 62
4
 10
-6.27435027E+01
 20
1.39443441E+02
  0
VERTEX
  8
0
 62
4
 10
-6.24242722E+01
 20
1.39329496E+02
  0
VERTEX
  8
0
 62
4
 10
-6.20955872E+01
 20
1.39243224E+02
  0
VERTEX
  8
0
 62
4
 10
-6.17600940E+01
 20
1.39185321E+02
  0
VERTEX
  8
0
 62
4
 10
-6.14204940E+01
 20
1.39156252E+02
  0
VERTEX
  8
0
 62
4
 10
-6.10795213E+01
 20
1.39156252E+02
  0
VERTEX
  8
0
 62
4
 10
-6.07399212E+01
 20
1.39185321E+02
  0
VERTEX
  8
0
 62
4
 10
-6.04044281E+01
 20
1.39243224E+02
  0
VERTEX
  8
0
 62
4
 10
-6.00757430E+01
 20
1.39329496E+02
  0
VERTEX
  8
0
 62
4
 10
-5.97565125E+01
 20
1.39443441E+02
  0
VERTEX
  8
0
 62
4
 10
-5.94493067E+01
 20
1.39584143E+02
  0
VERTEX
  8
0
 62
4
 10
-5.91565991E+01
 20
1.39750468E+02
  0
VERTEX
  8
0
 62
4
 10
-5.88807464E+01
 20
1.39941077E+02
  0
VERTEX
  8
0
 62
4
 10
-5.86239695E+01
 20
1.40154437E+02
  0
VERTEX
  8
0
 62
4
 10
-5.83883360E+01
 20
1.40388828E+02
  0
VERTEX
  8
0
 62
4
 10
-5.81757430E+01
 20
1.40642363E+02
  0
VERTEX
  8
0
 62
4
 10
-5.79879022E+01
 20
1.40913002E+02
  0
VERTEX
  8
0
 62
4
 10
-5.78263259E+01
 20
1.41198566E+02
  0
VERTEX
  8
0
 62
4
 10
-5.76923151E+01
 20
1.41496754E+02
  0
VERTEX
  8
0
 62
4
 10
-5.75869487E+01
 20
1.41805167E+02
  0
VERTEX
  8
0
 62
4
 10
-5.75110751E+01
 20
1.42121321E+02
  0
VERTEX
  8
0
 62
4
 10
-5.74653053E+01
 20
1.42442670E+02
  0
VERTEX
  8
0
 62
4
 10
-5.74500076E+01
 20
1.42766628E+02
  0
SEQEND
  8
0
  0
POLYLINE
  8
0
 62
4
 66
1
  0
VERTEX
  8
0
 62
4
 10
-6.50500076E+01
 20
1.43075645E+02
  0
VERTEX
  8
0
 62
4
 10
-6.50355475E+01
 20
1.42760663E+02
  0
VERTEX
  8
0
 62
4
 10
-6.49922771E+01
 20
1.42448078E+02
  0
VERTEX
  8
0
 62
4
 10
-6.49205258E+01
 20
1.42140269E+02
  0
VERTEX
  8
0
 62
4
 10
-6.48208396E+01
 20
1.41839579E+02
  0
VERTEX
  8
0
 62
4
 10
-6.46939772E+01
 20
1.41548296E+02
  0
VERTEX
  8
0
 62
4
 10
-6.45409042E+01
 20
1.41268638E+02
  0
VERTEX
  8
0
 62
4
 10
-6.43627854E+01
 20
1.41002731E+02
  0
VERTEX
  8
0
 62
4
 10
-6.41609765E+01
 20
1.40752601E+02
  0
VERTEX
  8
0
 62
4
 10
-6.39370134E+01
 20
1.40520151E+02
  0
VERTEX
  8
0
 62
4
 10
-6.36926005E+01
 20
1.40307149E+02
  0
VERTEX
  8
0
 62
4
 10
-6.34295981E+01
 20
1.40115217E+02
  0
VERTEX
  8
0
 62
4
 10
-6.31500076E+01
 20
1.39945816E+02
  0
VERTEX
  8
0
 62
4
 10
-6.28559570E+01
 20
1.39800235E+02
  0
VERTEX
  8
0
 62
4
 10
-6.25496842E+01
 20
1.39679582E+02
  0
VERTEX
  8
0
 62
4
 10
-6.22335200E+01
 20
1.39584775E+02
  0
VERTEX
  8
0
 62
4
 10
-6.19098707E+01
 20
1.39516535E+02
  0
VERTEX
  8
0
 62
4
 10
-6.15811994E+01
 20
1.39475383E+02
  0
VERTEX
  8
0
 62
4
 10
-6.12500076E+01
 20
1.39461630E+02
  0
VERTEX
  8
0
 62
4
 10
-6.09188158E+01
 20
1.39475383E+02
  0
VERTEX
  8
0
 62
4
 10
-6.05901445E+01
 20
1.39516535E+02
  0
VERTEX
  8
0
 62
4
 10
-6.02664952E+01
 20
1.39584775E+02
  0
VERTEX
  8
0
 62
4
 10
-5.99503311E+01
 20
1.39679582E+02
  0
VERTEX
  8
0
 62
4
 10
-5.96440582E+01
 20
1.39800235E+02
  0
VERTEX
  8
0
 62
4
 10
-5.93500076E+01
 20
1.39945816E+02
  0
VERTEX
  8
0
 62
4
 10
-5.90704171E+01
 20
1.40115217E+02
  0
VERTEX
  8
0
 62
4
 10
-5.88074147E+01
 20
1.40307149E+02
  0
VERTEX
  8
0
 62
4
 10
-5.85630018E+01
 20
1.40520151E+02
  0
VERTEX
  8
0
 62
4
 10
-5.83390387E+01
 20
1.40752601E+02
  0
VERTEX
  8
0
 62
4
 10
-5.81372298E+01
 20
1.41002731E+02
  0
VERTEX
  8
0
 62
4
 10
-5.79591110E+01
 20
1.41268638E+02
  0
VERTEX
  8
0
 62
4
 10
-5.78060380E+01
 20
1.41548296E+02
  0
VERTEX
  8
0
 62
4
 10
-5.76791756E+01
 20
1.41839579E+02
  0
VERTEX
  8
0
 62
4
 10
-5.75794894E+01
 20
1.42140269E+02
  0
VERTEX
  8
0
 62
4
 10
-5.75077381E+01
 20
1.42448078E+02
  0
VERTEX
  8
0
 62
4
 10
-5.74644677E+01
 20
1.42760663E+02
  0
VERTEX
  8
0
 62
4
 10
-5.74500076E+01
 20
1.43075645E+02
  0
VERTEX
  8
0
 62
4
 10
-5.74644677E+01
 20
1.43390627E+02
  0
VERTEX
  8
0
 62
4
 10
-5.75077381E+01
 20
1.43703212E+02
  0
VERTEX
  8
0
 62
4
 10
-5.75794894E+01
 20
1.44011021E+02
  0
VERTEX
  8
0
 62
4
 10
-5.76791756E+01
 20
1.44311711E+02
  0
VERTEX
  8
0
 62
4
 10
-5.78060380E+01
 20
1.44602994E+02
  0
VERTEX
  8
0
 62
4
 10
-5.79591110E+01
 20
1.44882652E+02
  0
VERTEX
  8
0
 62
4
 10
-5.81372298E+01
 20
1.45148559E+02
  0
VERTEX
  8
0
 62
4
 10
-5.83390387E+01
 20
1.45398689E+02
  0
VERTEX
  8
0
 62
4
 10
-5.85630018E+01
 20
1.45631139E+02
  0
VERTEX
  8
0
 62
4
 10
-5.88074147E+01
 20
1.45844141E+02
  0
VERTEX
  8
0
 62
4
 10
-5.90704171E+01
 20
1.46036073E+02
  0
VERTEX
  8
0
 62
4
 10
-5.93500076E+01
 20
1.46205474E+02
  0
VERTEX
  8
0
 62
4
 10
-5.96440582E+01
 20
1.46351055E+02
  0
VERTEX
  8
0
 62
4
 10
-5.99503310E+01
 20
1.46471708E+02
  0
VERTEX
  8
0
 62
4
 10
-6.02664952E+01
 20
1.46566515E+02
  0
VERTEX
  8
0
 62
4
 10
-6.05901445E+01
 20
1.46634755E+02
  0
VERTEX
  8
0
 62
4
 10
-6.09188158E+01
 20
1.46675907E+02
  0
VERTEX
  8
0
 62
4
 10
-6.12500076E+01
 20
1.46689660E+02
  0
VERTEX
  8
0
 62
4
 10
-6.15811994E+01
 20
1.46675907E+02
  0
VERTEX
  8
0
 62
4
 10
-6.19098707E+01
 20
1.46634755E+02
  0
VERTEX
  8
0
 62
4
 10
-6.22335200E+01
 20
1.46566515E+02
  0
VERTEX
  8
0
 62
4
 10
-6.25496842E+01
 20
1.46471708E+02
  0
VERTEX
  8
0
 62
4
 10
-6.28559570E+01
 20
1.46351055E+02
  0
VERTEX
  8
0
 62
4
 10
-6.31500076E+01
 20
1.46205474E+02
  0
VERTEX
  8
0
 62
4
 10
-6.34295981E+01
 20
1.46036073E+02
  0
VERTEX
  8
0
 62
4
 10
-6.36926005E+01
 20
1.45844141E+02
  0
VERTEX
  8
0
 62
4
 10
-6.39370134E+01
 20
1.45631139E+02
  0
VERTEX
  8
0
 62
4
 10
-6.41609765E+01
 20
1.45398689E+02
  0
VERTEX
  8
0
 62
4
 10
-6.43627854E+01
 20
1.45148559E+02
  0
VERTEX
  8
0
 62
4
 10
-6.45409042E+01
 20
1.44882652E+02
  0
VERTEX
  8
0
 62
4
 10
-6.46939772E+01
 20
1.44602994E+02
  0
VERTEX
  8
0
 62
4
 10
-6.48208396E+01
 20
1.44311711E+02
  0
VERTEX
  8
0
 62
4
 10
-6.49205258E+01
 20
1.44011021E+02
  0
VERTEX
  8
0
 62
4
 10
-6.49922771E+01
 20
1.43703212E+02
  0
VERTEX
  8
0
 62
4
 10
-6.50355475E+01
 20
1.43390627E+02
  0
VERTEX
  8
0
 62
4
 10
-6.50500076E+01
 20
1.43075645E+02
  0
SEQEND
  8
0
  0
LINE
  8
0
 62
4
 10
-6.50500077E+01
 20
1.42766628E+02
 11
-6.50500077E+01
 21
1.43075645E+02
  0
LINE
  8
0
 62
4
 10
-5.74500077E+01
 20
1.42766628E+02
 11
-5.74500077E+01
 21
1.43075645E+02
  0
POLYLINE
  8
0
 62
4
 66
1
  0
VERTEX
  8
0
 62
4
 10
-6.46500076E+01
 20
1.43075645E+02
  0
VERTEX
  8
0
 62
4
 10
-6.46363202E+01
 20
1.42785788E+02
  0
VERTEX
  8
0
 62
4
 10
-6.45953682E+01
 20
1.42498265E+02
  0
VERTEX
  8
0
 62
4
 10
-6.45274814E+01
 20
1.42215390E+02
  0
VERTEX
  8
0
 62
4
 10
-6.44332062E+01
 20
1.41939442E+02
  0
VERTEX
  8
0
 62
4
 10
-6.43133018E+01
 20
1.41672642E+02
  0
VERTEX
  8
0
 62
4
 10
-6.41687335E+01
 20
1.41417138E+02
  0
VERTEX
  8
0
 62
4
 10
-6.40006654E+01
 20
1.41174987E+02
  0
VERTEX
  8
0
 62
4
 10
-6.38104506E+01
 20
1.40948140E+02
  0
VERTEX
  8
0
 62
4
 10
-6.35996206E+01
 20
1.40738421E+02
  0
VERTEX
  8
0
 62
4
 10
-6.33698730E+01
 20
1.40547521E+02
  0
VERTEX
  8
0
 62
4
 10
-6.31230574E+01
 20
1.40376975E+02
  0
VERTEX
  8
0
 62
4
 10
-6.28611611E+01
 20
1.40228158E+02
  0
VERTEX
  8
0
 62
4
 10
-6.25862927E+01
 20
1.40102267E+02
  0
VERTEX
  8
0
 62
4
 10
-6.23006654E+01
 20
1.40000316E+02
  0
VERTEX
  8
0
 62
4
 10
-6.20065788E+01
 20
1.39923126E+02
  0
VERTEX
  8
0
 62
4
 10
-6.17064007E+01
 20
1.39871318E+02
  0
VERTEX
  8
0
 62
4
 10
-6.14025480E+01
 20
1.39845309E+02
  0
VERTEX
  8
0
 62
4
 10
-6.10974672E+01
 20
1.39845309E+02
  0
VERTEX
  8
0
 62
4
 10
-6.07936145E+01
 20
1.39871318E+02
  0
VERTEX
  8
0
 62
4
 10
-6.04934364E+01
 20
1.39923126E+02
  0
VERTEX
  8
0
 62
4
 10
-6.01993498E+01
 20
1.40000316E+02
  0
VERTEX
  8
0
 62
4
 10
-5.99137225E+01
 20
1.40102267E+02
  0
VERTEX
  8
0
 62
4
 10
-5.96388542E+01
 20
1.40228158E+02
  0
VERTEX
  8
0
 62
4
 10
-5.93769579E+01
 20
1.40376975E+02
  0
VERTEX
  8
0
 62
4
 10
-5.91301423E+01
 20
1.40547521E+02
  0
VERTEX
  8
0
 62
4
 10
-5.89003946E+01
 20
1.40738421E+02
  0
VERTEX
  8
0
 62
4
 10
-5.86895646E+01
 20
1.40948139E+02
  0
VERTEX
  8
0
 62
4
 10
-5.84993498E+01
 20
1.41174987E+02
  0
VERTEX
  8
0
 62
4
 10
-5.83312817E+01
 20
1.41417138E+02
  0
VERTEX
  8
0
 62
4
 10
-5.81867134E+01
 20
1.41672642E+02
  0
VERTEX
  8
0
 62
4
 10
-5.80668090E+01
 20
1.41939442E+02
  0
VERTEX
  8
0
 62
4
 10
-5.79725339E+01
 20
1.42215390E+02
  0
VERTEX
  8
0
 62
4
 10
-5.79046470E+01
 20
1.42498265E+02
  0
VERTEX
  8
0
 62
4
 10
-5.78636950E+01
 20
1.42785788E+02
  0
VERTEX
  8
0
 62
4
 10
-5.78500076E+01
 20
1.43075645E+02
  0
SEQEND
  8
0
  0
LINE
  8
0
 62
4
 10
-5.78500076E+01
 20
1.43474026E+02
 11
-5.78500076E+01
 21
1.43075645E+02
  0
LINE
  8
0
 62
4
 10
-6.46500076E+01
 20
1.43075645E+02
 11
-6.46500076E+01
 21
1.43474026E+02
  0
POLYLINE
  8
0
 62
4
 66
1
  0
VERTEX
  8
0
 62
4
 10
-6.46500076E+01
 20
1.43474026E+02
  0
VERTEX
  8
0
 62
4
 10
-6.46370696E+01
 20
1.43192200E+02
  0
VERTEX
  8
0
 62
4
 10
-6.45983540E+01
 20
1.42912519E+02
  0
VERTEX
  8
0
 62
4
 10
-6.45341554E+01
 20
1.42637111E+02
  0
VERTEX
  8
0
 62
4
 10
-6.44449625E+01
 20
1.42368072E+02
  0
VERTEX
  8
0
 62
4
 10
-6.43314541E+01
 20
1.42107451E+02
  0
VERTEX
  8
0
 62
4
 10
-6.41944940E+01
 20
1.41857230E+02
  0
VERTEX
  8
0
 62
4
 10
-6.40351246E+01
 20
1.41619314E+02
  0
VERTEX
  8
0
 62
4
 10
-6.38545587E+01
 20
1.41395513E+02
  0
VERTEX
  8
0
 62
4
 10
-6.36541707E+01
 20
1.41187531E+02
  0
VERTEX
  8
0
 62
4
 10
-6.34354855E+01
 20
1.40996951E+02
  0
VERTEX
  8
0
 62
4
 10
-6.32001675E+01
 20
1.40825222E+02
  0
VERTEX
  8
0
 62
4
 10
-6.29500076E+01
 20
1.40673653E+02
  0
VERTEX
  8
0
 62
4
 10
-6.26869097E+01
 20
1.40543396E+02
  0
VERTEX
  8
0
 62
4
 10
-6.24128761E+01
 20
1.40435443E+02
  0
VERTEX
  8
0
 62
4
 10
-6.21299924E+01
 20
1.40350616E+02
  0
VERTEX
  8
0
 62
4
 10
-6.18404114E+01
 20
1.40289559E+02
  0
VERTEX
  8
0
 62
4
 10
-6.15463371E+01
 20
1.40252739E+02
  0
VERTEX
  8
0
 62
4
 10
-6.12500076E+01
 20
1.40240434E+02
  0
VERTEX
  8
0
 62
4
 10
-6.09536781E+01
 20
1.40252739E+02
  0
VERTEX
  8
0
 62
4
 10
-6.06596038E+01
 20
1.40289559E+02
  0
VERTEX
  8
0
 62
4
 10
-6.03700228E+01
 20
1.40350616E+02
  0
VERTEX
  8
0
 62
4
 10
-6.00871391E+01
 20
1.40435443E+02
  0
VERTEX
  8
0
 62
4
 10
-5.98131055E+01
 20
1.40543396E+02
  0
VERTEX
  8
0
 62
4
 10
-5.95500076E+01
 20
1.40673653E+02
  0
VERTEX
  8
0
 62
4
 10
-5.92998477E+01
 20
1.40825222E+02
  0
VERTEX
  8
0
 62
4
 10
-5.90645297E+01
 20
1.40996951E+02
  0
VERTEX
  8
0
 62
4
 10
-5.88458445E+01
 20
1.41187531E+02
  0
VERTEX
  8
0
 62
4
 10
-5.86454565E+01
 20
1.41395513E+02
  0
VERTEX
  8
0
 62
4
 10
-5.84648906E+01
 20
1.41619314E+02
  0
VERTEX
  8
0
 62
4
 10
-5.83055212E+01
 20
1.41857230E+02
  0
VERTEX
  8
0
 62
4
 10
-5.81685611E+01
 20
1.42107451E+02
  0
VERTEX
  8
0
 62
4
 10
-5.80550527E+01
 20
1.42368072E+02
  0
VERTEX
  8
0
 62
4
 10
-5.79658598E+01
 20
1.42637111E+02
  0
VERTEX
  8
0
 62
4
 10
-5.79016612E+01
 20
1.42912519E+02
  0
VERTEX
  8
0
 62
4
 10
-5.78629456E+01
 20
1.43192200E+02
  0
VERTEX
  8
0
 62
4
 10
-5.78500076E+01
 20
1.43474026E+02
  0
VERTEX
  8
0
 62
4
 10
-5.78629456E+01
 20
1.43755852E+02
  0
VERTEX
  8
0
 62
4
 10
-5.79016612E+01
 20
1.44035533E+02
  0
VERTEX
  8
0
 62
4
 10
-5.79658598E+01
 20
1.44310941E+02
  0
VERTEX
  8
0
 62
4
 10
-5.80550527E+01
 20
1.44579980E+02
  0
VERTEX
  8
0
 62
4
 10
-5.81685611E+01
 20
1.44840601E+02
  0
VERTEX
  8
0
 62
4
 10
-5.83055212E+01
 20
1.45090822E+02
  0
VERTEX
  8
0
 62
4
 10
-5.84648906E+01
 20
1.45328738E+02
  0
VERTEX
  8
0
 62
4
 10
-5.86454565E+01
 20
1.45552539E+02
  0
VERTEX
  8
0
 62
4
 10
-5.88458445E+01
 20
1.45760521E+02
  0
VERTEX
  8
0
 62
4
 10
-5.90645297E+01
 20
1.45951101E+02
  0
VERTEX
  8
0
 62
4
 10
-5.92998477E+01
 20
1.46122830E+02
  0
VERTEX
  8
0
 62
4
 10
-5.95500076E+01
 20
1.46274399E+02
  0
VERTEX
  8
0
 62
4
 10
-5.98131055E+01
 20
1.46404656E+02
  0
VERTEX
  8
0
 62
4
 10
-6.00871391E+01
 20
1.46512609E+02
  0
VERTEX
  8
0
 62
4
 10
-6.03700228E+01
 20
1.46597436E+02
  0
VERTEX
  8
0
 62
4
 10
-6.06596038E+01
 20
1.46658493E+02
  0
VERTEX
  8
0
 62
4
 10
-6.09536781E+01
 20
1.46695313E+02
  0
VERTEX
  8
0
 62
4
 10
-6.12500076E+01
 20
1.46707618E+02
  0
VERTEX
  8
0
 62
4
 10
-6.15463371E+01
 20
1.46695313E+02
  0
VERTEX
  8
0
 62
4
 10
-6.18404114E+01
 20
1.46658493E+02
  0
VERTEX
  8
0
 62
4
 10
-6.21299924E+01
 20
1.46597436E+02
  0
VERTEX
  8
0
 62
4
 10
-6.24128761E+01
 20
1.46512609E+02
  0
VERTEX
  8
0
 62
4
 10
-6.26869097E+01
 20
1.46404656E+02
  0
VERTEX
  8
0
 62
4
 10
-6.29500076E+01
 20
1.46274399E+02
  0
VERTEX
  8
0
 62
4
 10
-6.32001675E+01
 20
1.46122830E+02
  0
VERTEX
  8
0
 62
4
 10
-6.34354855E+01
 20
1.45951101E+02
  0
VERTEX
  8
0
 62
4
 10
-6.36541707E+01
 20
1.45760521E+02
  0
VERTEX
  8
0
 62
4
 10
-6.38545587E+01
 20
1.45552539E+02
  0
VERTEX
  8
0
 62
4
 10
-6.40351246E+01
 20
1.45328738E+02
  0
VERTEX
  8
0
 62
4
 10
-6.41944940E+01
 20
1.45090822E+02
  0
VERTEX
  8
0
 62
4
 10
-6.43314541E+01
 20
1.44840601E+02
  0
VERTEX
  8
0
 62
4
 10
-6.44449625E+01
 20
1.44579980E+02
  0
VERTEX
  8
0
 62
4
 10
-6.45341554E+01
 20
1.44310941E+02
  0
VERTEX
  8
0
 62
4
 10
-6.45983540E+01
 20
1.44035533E+02
  0
VERTEX
  8
0
 62
4
 10
-6.46370696E+01
 20
1.43755852E+02
  0
VERTEX
  8
0
 62
4
 10
-6.46500076E+01
 20
1.43474026E+02
  0
SEQEND
  8
0
  0
ARC
  8
0
 62
4
 10
7.56451173E+00
 20
7.14204851E+01
 40
9.98837386E+01
 50
1.32163454E+02
 51
1.34962547E+02
  0
ARC
  8
0
 62
4
 10
-1.30064527E+02
 20
7.14204851E+01
 40
9.98837386E+01
 50
4.50374523E+01
 51
4.78365464E+01
  0
LINE
  8
0
 62
4
 10
-6.54553754E+01
 20
1.37155395E+02
 11
-5.37500076E+01
 21
1.37155395E+02
  0
LINE
  8
0
 62
4
 10
-6.58397047E+01
 20
1.36741670E+02
 11
-6.02500076E+01
 21
1.36741670E+02
  0
LINE
  8
0
 62
7
 10
-2.47500229E+01
 20
1.32369434E+02
 11
-9.47500076E+01
 21
1.32369434E+02
  0
LINE
  8
0
 62
7
 10
-2.47500229E+01
 20
1.29969440E+02
 11
-9.47500076E+01
 21
1.29969440E+02
  0
LINE
  8
0
 62
7
 10
-2.47500229E+01
 20
1.22769428E+02
 11
-9.47500076E+01
 21
1.22769428E+02
  0
LINE
  8
0
 62
4
 10
6.75000763E+00
 20
1.35645406E+02
 11
6.75000763E+00
 21
1.32791340E+02
  0
LINE
  8
0
 62
4
 10
5.25000763E+00
 20
1.36741670E+02
 11
6.75000763E+00
 21
1.35645406E+02
  0
LINE
  8
0
 62
4
 10
5.24997711E+00
 20
1.35505602E+02
 11
6.75000763E+00
 21
1.34945483E+02
  0
LINE
  8
0
 62
4
 10
6.75000763E+00
 20
1.32791340E+02
 11
5.24997711E+00
 21
1.31701354E+02
  0
LINE
  8
0
 62
7
 10
-3.22750008E+02
 20
1.35369495E+02
 11
-2.55749977E+02
 21
1.35369495E+02
  0
LINE
  8
0
 62
7
 10
-3.02614220E+02
 20
1.13147585E+02
 11
-3.09976068E+02
 21
1.20509432E+02
  0
LINE
  8
0
 62
7
 10
-3.04028520E+02
 20
8.50055406E+01
 11
-3.11390357E+02
 21
7.76437041E+01
  0
LINE
  8
0
 62
7
 10
-2.90249977E+02
 20
1.31869465E+02
 11
-2.90249977E+02
 21
1.18269214E+02
  0
LINE
  8
0
 62
7
 10
-3.22750008E+02
 20
9.73694342E+01
 11
-3.09149757E+02
 21
9.73694342E+01
  0
LINE
  8
0
 62
7
 10
-3.02614274E+02
 20
8.35912730E+01
 11
-3.09976122E+02
 21
7.62294258E+01
  0
LINE
  8
0
 62
7
 10
-3.04028422E+02
 20
1.11733425E+02
 11
-3.11390270E+02
 21
1.19095272E+02
  0
LINE
  8
0
 62
7
 10
-2.88249977E+02
 20
1.31869480E+02
 11
-2.88249977E+02
 21
1.18269214E+02
  0
LINE
  8
0
 62
7
 10
-3.26250038E+02
 20
6.48694342E+01
 11
-3.26250038E+02
 21
1.31869465E+02
  0
LINE
  8
0
 62
7
 10
-3.23750038E+02
 20
8.53693426E+01
 11
-3.23750038E+02
 21
1.11369541E+02
  0
LINE
  8
0
 62
7
 10
-3.22749947E+02
 20
9.93694342E+01
 11
-3.09149757E+02
 21
9.93694342E+01
  0
LINE
  8
0
 62
7
 10
-2.90250008E+02
 20
6.48694342E+01
 11
-2.90250008E+02
 21
7.84697149E+01
  0
LINE
  8
0
 62
7
 10
-3.26750038E+02
 20
6.48694342E+01
 11
-3.26750038E+02
 21
1.31869465E+02
  0
LINE
  8
0
 62
7
 10
-3.22749947E+02
 20
6.08694647E+01
 11
-2.55749977E+02
 21
6.08694647E+01
  0
LINE
  8
0
  6
CENTER
 62
2
 10
-3.17250099E+02
 20
5.88710821E+01
 11
-3.17250099E+02
 21
8.14040563E+01
  0
LINE
  8
0
  6
CENTER
 62
2
 10
-3.17250038E+02
 20
1.15139866E+02
 11
-3.17250038E+02
 21
1.37927448E+02
  0
LINE
  8
0
  6
CENTER
 62
2
 10
-2.89249947E+02
 20
1.39837009E+02
 11
-2.89249947E+02
 21
5.73434179E+01
  0
LINE
  8
0
 62
7
 10
-2.75886054E+02
 20
1.13148084E+02
 11
-2.68524237E+02
 21
1.20509897E+02
  0
LINE
  8
0
 62
7
 10
-2.74471840E+02
 20
1.11733870E+02
 11
-2.67109991E+02
 21
1.19095716E+02
  0
LINE
  8
0
 62
7
 10
-2.54749947E+02
 20
8.53693426E+01
 11
-2.54749947E+02
 21
1.11369541E+02
  0
LINE
  8
0
 62
7
 10
-2.55749977E+02
 20
9.93694494E+01
 11
-2.69350258E+02
 21
9.93694494E+01
  0
LINE
  8
0
 62
7
 10
-2.51749947E+02
 20
6.48694647E+01
 11
-2.51749947E+02
 21
1.31869480E+02
  0
LINE
  8
0
  6
CENTER
 62
2
 10
-2.61249886E+02
 20
1.38054752E+02
 11
-2.61249886E+02
 21
1.15139866E+02
  0
LINE
  8
0
  6
CENTER
 62
2
 10
-2.48482246E+02
 20
9.83694647E+01
 11
-3.31727669E+02
 21
9.83694647E+01
  0
LINE
  8
0
  6
CENTER
 62
2
 10
-2.97249947E+02
 20
1.38054752E+02
 11
-2.97249947E+02
 21
1.26169483E+02
  0
LINE
  8
0
  6
CENTER
 62
2
 10
-3.29295052E+02
 20
1.26369526E+02
 11
-3.07143990E+02
 21
1.26369526E+02
  0
LINE
  8
0
 62
7
 10
-2.88250008E+02
 20
6.48694647E+01
 11
-2.88250008E+02
 21
7.84697149E+01
  0
LINE
  8
0
 62
7
 10
-2.74471661E+02
 20
8.50052340E+01
 11
-2.67109836E+02
 21
7.76434071E+01
  0
LINE
  8
0
 62
7
 10
-2.75885972E+02
 20
8.35910529E+01
 11
-2.68524125E+02
 21
7.62292045E+01
  0
LINE
  8
0
 62
7
 10
-3.22749947E+02
 20
6.13694647E+01
 11
-2.55749977E+02
 21
6.13694647E+01
  0
LINE
  8
0
 62
7
 10
-2.52249947E+02
 20
6.48694647E+01
 11
-2.52249947E+02
 21
1.31869480E+02
  0
LINE
  8
0
 62
7
 10
-3.02250069E+02
 20
6.38694570E+01
 11
-2.76249886E+02
 21
6.38694570E+01
  0
LINE
  8
0
 62
7
 10
-2.55749977E+02
 20
9.73694647E+01
 11
-2.69350258E+02
 21
9.73694647E+01
  0
LINE
  8
0
  6
CENTER
 62
2
 10
-2.49220253E+02
 20
7.03694342E+01
 11
-2.71753212E+02
 21
7.03694342E+01
  0
LINE
  8
0
 62
7
 10
-3.14249947E+02
 20
1.35869495E+02
 11
-3.14249947E+02
 21
1.35369495E+02
  0
LINE
  8
0
 62
7
 10
-2.64249947E+02
 20
1.35869495E+02
 11
-2.64249947E+02
 21
1.35369495E+02
  0
LINE
  8
0
 62
7
 10
-3.14249947E+02
 20
6.13694647E+01
 11
-3.14249947E+02
 21
6.08694647E+01
  0
LINE
  8
0
 62
7
 10
-2.64249947E+02
 20
6.13694647E+01
 11
-2.64249947E+02
 21
6.08694647E+01
  0
LINE
  8
0
 62
7
 10
-3.02250038E+02
 20
1.32869495E+02
 11
-2.76249855E+02
 21
1.32869495E+02
  0
LINE
  8
0
 62
7
 10
-3.22750008E+02
 20
1.35869495E+02
 11
-2.55749977E+02
 21
1.35869495E+02
  0
LINE
  8
0
 62
7
 10
-3.06750038E+02
 20
1.28369678E+02
 11
-3.08013588E+02
 21
1.28369678E+02
  0
LINE
  8
0
 62
7
 10
-3.19250221E+02
 20
1.15869526E+02
 11
-3.19250221E+02
 21
1.17133121E+02
  0
LINE
  8
0
 62
7
 10
-2.71749855E+02
 20
1.28369709E+02
 11
-2.70486427E+02
 21
1.28369709E+02
  0
LINE
  8
0
 62
7
 10
-2.59249763E+02
 20
1.15869526E+02
 11
-2.59249763E+02
 21
1.17133259E+02
  0
LINE
  8
0
 62
7
 10
-2.71749886E+02
 20
6.83692739E+01
 11
-2.70486153E+02
 21
6.83692739E+01
  0
LINE
  8
0
 62
7
 10
-2.59249763E+02
 20
8.08693426E+01
 11
-2.59249763E+02
 21
7.96057775E+01
  0
LINE
  8
0
 62
7
 10
-3.19250221E+02
 20
8.08693426E+01
 11
-3.19250221E+02
 21
7.96059301E+01
  0
LINE
  8
0
 62
7
 10
-3.06750069E+02
 20
6.83692587E+01
 11
-3.08013618E+02
 21
6.83692587E+01
  0
LINE
  8
0
  6
CENTER
 62
2
 10
-3.07016640E+02
 20
7.03694342E+01
 11
-3.29295052E+02
 21
7.03694342E+01
  0
LINE
  8
0
  6
CENTER
 62
2
 10
-2.71880501E+02
 20
1.26369526E+02
 11
-2.49347542E+02
 21
1.26369526E+02
  0
LINE
  8
0
  6
CENTER
 62
2
 10
-2.61249977E+02
 20
8.04299429E+01
 11
-2.61249977E+02
 21
5.88735693E+01
  0
CIRCLE
  8
0
 62
7
 10
-3.17250038E+02
 20
1.26369526E+02
 40
6.50000048E+00
  0
ARC
  8
0
 62
7
 10
-3.12097237E+02
 20
1.18388325E+02
 40
1.00000000E+00
 50
4.49999910E+01
 51
1.22846171E+02
  0
ARC
  8
0
 62
7
 10
-3.09268837E+02
 20
1.21216755E+02
 40
1.00000000E+00
 50
1.47153243E+02
 51
2.24999955E+02
  0
CIRCLE
  8
0
 62
7
 10
-3.17250038E+02
 20
7.03694342E+01
 40
6.50000048E+00
  0
ARC
  8
0
 62
7
 10
-3.04735451E+02
 20
1.11026493E+02
 40
1.00000000E+00
 50
3.20738994E+02
 51
4.49999910E+01
  0
ARC
  8
0
 62
7
 10
-3.01907021E+02
 20
1.13854923E+02
 40
1.00000000E+00
 50
2.24999972E+02
 51
3.09260983E+02
  0
ARC
  8
0
 62
7
 10
-2.91249977E+02
 20
1.18269214E+02
 40
1.00000000E+00
 50
2.75739453E+02
 51
3.59999959E+02
  0
ARC
  8
0
 62
7
 10
-3.09149757E+02
 20
9.63694647E+01
 40
1.00000000E+00
 50
5.73948995E+00
 51
9.00000369E+01
  0
ARC
  8
0
 62
7
 10
-3.22750008E+02
 20
9.63694647E+01
 40
1.00000000E+00
 50
9.00000369E+01
 51
1.80000019E+02
  0
ARC
  8
0
 62
7
 10
-2.61249886E+02
 20
1.26369495E+02
 40
8.50000000E+00
 50
1.73823315E+02
 51
2.76176459E+02
  0
ARC
  8
0
 62
7
 10
-3.04735451E+02
 20
8.57124212E+01
 40
1.00000000E+00
 50
3.14999968E+02
 51
3.92609655E+01
  0
ARC
  8
0
 62
7
 10
-3.01907021E+02
 20
8.28839910E+01
 40
1.00000000E+00
 50
5.07389892E+01
 51
1.34999987E+02
  0
ARC
  8
0
 62
7
 10
-3.09268837E+02
 20
7.55221594E+01
 40
1.00000000E+00
 50
1.34999987E+02
 51
2.12846166E+02
  0
ARC
  8
0
 62
7
 10
-3.12097237E+02
 20
7.83505819E+01
 40
1.00000000E+00
 50
2.37153256E+02
 51
3.14999968E+02
  0
ARC
  8
0
 62
7
 10
-3.22750008E+02
 20
1.31869465E+02
 40
3.50000000E+00
 50
9.00000231E+01
 51
1.79999977E+02
  0
ARC
  8
0
 62
7
 10
-2.91249977E+02
 20
1.31869465E+02
 40
1.00000000E+00
 50
3.59999959E+02
 51
8.99999956E+01
  0
ARC
  8
0
 62
7
 10
-2.87249947E+02
 20
1.18269214E+02
 40
1.00000000E+00
 50
1.79999964E+02
 51
2.64260484E+02
  0
ARC
  8
0
 62
7
 10
-2.87249947E+02
 20
1.31869480E+02
 40
1.00000000E+00
 50
8.99999818E+01
 51
1.79999964E+02
  0
ARC
  8
0
 62
7
 10
-3.22749977E+02
 20
6.48694342E+01
 40
3.50000000E+00
 50
1.80000036E+02
 51
2.69999991E+02
  0
ARC
  8
0
 62
7
 10
-3.22749977E+02
 20
1.00369465E+02
 40
1.00000000E+00
 50
1.80000008E+02
 51
2.70000045E+02
  0
ARC
  8
0
 62
7
 10
-3.09149757E+02
 20
1.00369465E+02
 40
1.00000000E+00
 50
2.70000045E+02
 51
3.54260551E+02
  0
ARC
  8
0
 62
7
 10
-2.91249977E+02
 20
7.84697149E+01
 40
1.00000000E+00
 50
3.59999973E+02
 51
8.42604992E+01
  0
ARC
  8
0
 62
7
 10
-2.91249977E+02
 20
6.48694342E+01
 40
1.00000000E+00
 50
2.69999991E+02
 51
3.59999973E+02
  0
ARC
  8
0
 62
7
 10
-3.22750008E+02
 20
1.31869465E+02
 40
4.00000000E+00
 50
9.00000231E+01
 51
1.79999977E+02
  0
ARC
  8
0
 62
7
 10
-3.22749977E+02
 20
6.48694342E+01
 40
4.00000000E+00
 50
1.80000036E+02
 51
2.69999991E+02
  0
CIRCLE
  8
0
 62
7
 10
-3.17250038E+02
 20
7.03694342E+01
 40
6.00000000E+00
  0
CIRCLE
  8
0
 62
7
 10
-3.17250038E+02
 20
1.26369526E+02
 40
6.00000000E+00
  0
CIRCLE
  8
0
 62
7
 10
-2.61249886E+02
 20
1.26369495E+02
 40
6.50000048E+00
  0
ARC
  8
0
 62
7
 10
-2.73764503E+02
 20
1.11026523E+02
 40
1.00000000E+00
 50
1.34999959E+02
 51
2.19260957E+02
  0
ARC
  8
0
 62
7
 10
-2.76592903E+02
 20
1.13854938E+02
 40
1.00000000E+00
 50
2.30738998E+02
 51
3.14999995E+02
  0
ARC
  8
0
 62
7
 10
-2.69231117E+02
 20
1.21216770E+02
 40
1.00000000E+00
 50
3.14999995E+02
 51
3.28461612E+01
  0
ARC
  8
0
 62
7
 10
-2.66402657E+02
 20
1.18388355E+02
 40
1.00000000E+00
 50
5.71532472E+01
 51
1.34999959E+02
  0
ARC
  8
0
 62
7
 10
-2.55749977E+02
 20
1.31869480E+02
 40
3.50000000E+00
 50
0.00000000E+00
 51
8.99999818E+01
  0
ARC
  8
0
 62
7
 10
-2.55749977E+02
 20
1.00369457E+02
 40
1.00000000E+00
 50
2.69999963E+02
 51
0.00000000E+00
  0
ARC
  8
0
 62
7
 10
-2.69350258E+02
 20
1.00369457E+02
 40
1.00000000E+00
 50
1.85739458E+02
 51
2.69999963E+02
  0
ARC
  8
0
 62
7
 10
-2.55749977E+02
 20
1.31869480E+02
 40
4.00000000E+00
 50
0.00000000E+00
 51
8.99999818E+01
  0
CIRCLE
  8
0
 62
7
 10
-2.61249886E+02
 20
1.26369495E+02
 40
6.00000000E+00
  0
ARC
  8
0
 62
7
 10
-2.71749855E+02
 20
1.31869617E+02
 40
3.50000000E+00
 50
1.80001511E+02
 51
2.70000018E+02
  0
ARC
  8
0
 62
7
 10
-2.76249855E+02
 20
1.31869480E+02
 40
1.00000000E+00
 50
1.77584919E-03
 51
8.99999549E+01
  0
ARC
  8
0
 62
7
 10
-2.70694771E+02
 20
1.27391636E+02
 40
1.00000000E+00
 50
3.53822790E+02
 51
8.43256382E+01
  0
ARC
  8
0
 62
7
 10
-2.55749825E+02
 20
1.15869526E+02
 40
3.50000000E+00
 50
1.79999977E+02
 51
2.69999017E+02
  0
ARC
  8
0
 62
7
 10
-2.60227821E+02
 20
1.16924656E+02
 40
1.00000000E+00
 50
5.67452116E+00
 51
9.61763036E+01
  0
ARC
  8
0
 62
7
 10
-2.55749977E+02
 20
1.11369541E+02
 40
1.00000000E+00
 50
3.59999986E+02
 51
8.99982469E+01
  0
ARC
  8
0
 62
7
 10
-3.22750008E+02
 20
8.53693426E+01
 40
1.00000000E+00
 50
1.80000036E+02
 51
2.69998235E+02
  0
ARC
  8
0
 62
7
 10
-3.22750130E+02
 20
8.08693350E+01
 40
3.50000000E+00
 50
0.00000000E+00
 51
8.99984996E+01
  0
ARC
  8
0
 62
7
 10
-3.18272163E+02
 20
7.98142660E+01
 40
1.00000000E+00
 50
1.85674380E+02
 51
2.76177221E+02
  0
ARC
  8
0
 62
7
 10
-3.17250038E+02
 20
7.03693960E+01
 40
8.50000000E+00
 50
3.53823551E+02
 51
9.61766726E+01
  0
ARC
  8
0
 62
7
 10
-3.07805153E+02
 20
1.27391636E+02
 40
1.00000000E+00
 50
9.56745100E+01
 51
1.86176313E+02
  0
ARC
  8
0
 62
7
 10
-3.06750038E+02
 20
1.31869587E+02
 40
3.50000000E+00
 50
2.70000018E+02
 51
3.59999001E+02
  0
ARC
  8
0
 62
7
 10
-3.02250038E+02
 20
1.31869480E+02
 40
1.00000000E+00
 50
8.99999818E+01
 51
1.79998270E+02
  0
ARC
  8
0
 62
7
 10
-3.02250099E+02
 20
6.48694342E+01
 40
1.00000000E+00
 50
1.80001785E+02
 51
2.69999963E+02
  0
ARC
  8
0
 62
7
 10
-3.06750069E+02
 20
6.48693121E+01
 40
3.50000000E+00
 50
1.49581143E-03
 51
8.99999818E+01
  0
ARC
  8
0
 62
7
 10
-3.07805214E+02
 20
6.93472784E+01
 40
1.00000000E+00
 50
1.73822768E+02
 51
2.64325616E+02
  0
ARC
  8
0
 62
7
 10
-3.17250038E+02
 20
1.26369495E+02
 40
8.50000000E+00
 50
2.63823553E+02
 51
6.17667669E+00
  0
ARC
  8
0
 62
7
 10
-3.18272163E+02
 20
1.16924656E+02
 40
1.00000000E+00
 50
8.38236876E+01
 51
1.74325470E+02
  0
ARC
  8
0
 62
7
 10
-3.22750099E+02
 20
1.15869526E+02
 40
3.50000000E+00
 50
2.70001002E+02
 51
0.00000000E+00
  0
ARC
  8
0
 62
7
 10
-3.22750008E+02
 20
1.11369541E+02
 40
1.00000000E+00
 50
9.00017305E+01
 51
1.80000005E+02
  0
ARC
  8
0
 62
7
 10
-2.71749916E+02
 20
6.48693502E+01
 40
3.50000000E+00
 50
8.99999818E+01
 51
1.79998994E+02
  0
ARC
  8
0
 62
7
 10
-2.76249886E+02
 20
6.48694342E+01
 40
1.00000000E+00
 50
2.70000018E+02
 51
3.59998251E+02
  0
ARC
  8
0
 62
7
 10
-2.87249947E+02
 20
6.48694647E+01
 40
1.00000000E+00
 50
1.79999951E+02
 51
2.70000001E+02
  0
ARC
  8
0
 62
7
 10
-2.87249947E+02
 20
7.84697149E+01
 40
1.00000000E+00
 50
9.57394445E+01
 51
1.79999951E+02
  0
CIRCLE
  8
0
 62
7
 10
-2.89249947E+02
 20
9.83694647E+01
 40
1.75294495E+01
  0
CIRCLE
  8
0
 62
7
 10
-2.89249947E+02
 20
9.83694647E+01
 40
1.90000000E+01
  0
CIRCLE
  8
0
 62
7
 10
-2.61249977E+02
 20
7.03693960E+01
 40
6.50000048E+00
  0
ARC
  8
0
 62
7
 10
-2.76592903E+02
 20
8.28840063E+01
 40
1.00000000E+00
 50
4.49999637E+01
 51
1.29260961E+02
  0
ARC
  8
0
 62
7
 10
-2.73764503E+02
 20
8.57124365E+01
 40
1.00000000E+00
 50
1.40738985E+02
 51
2.24999982E+02
  0
ARC
  8
0
 62
7
 10
-2.66402657E+02
 20
7.83506048E+01
 40
1.00000000E+00
 50
2.25000000E+02
 51
3.02846179E+02
  0
ARC
  8
0
 62
7
 10
-2.69231117E+02
 20
7.55221746E+01
 40
1.00000000E+00
 50
3.27153252E+02
 51
4.49999637E+01
  0
ARC
  8
0
 62
7
 10
-2.55749977E+02
 20
6.48694647E+01
 40
3.50000000E+00
 50
2.70000018E+02
 51
3.59999986E+02
  0
ARC
  8
0
 62
7
 10
-2.69350258E+02
 20
9.63694647E+01
 40
1.00000000E+00
 50
8.99999681E+01
 51
1.74260502E+02
  0
ARC
  8
0
 62
7
 10
-2.55749977E+02
 20
9.63694647E+01
 40
1.00000000E+00
 50
3.59999986E+02
 51
8.99999681E+01
  0
ARC
  8
0
 62
7
 10
-2.55749977E+02
 20
6.48694647E+01
 40
4.00000000E+00
 50
2.70000018E+02
 51
3.59999986E+02
  0
CIRCLE
  8
0
 62
7
 10
-2.61249977E+02
 20
7.03693960E+01
 40
6.00000000E+00
  0
CIRCLE
  8
0
 62
7
 10
-2.89249947E+02
 20
9.83694647E+01
 40
1.70000000E+01
  0
ARC
  8
0
 62
7
 10
-2.55749977E+02
 20
8.53693426E+01
 40
1.00000000E+00
 50
2.70001780E+02
 51
3.59999959E+02
  0
ARC
  8
0
 62
7
 10
-2.55749825E+02
 20
8.08693350E+01
 40
3.50000000E+00
 50
9.00014916E+01
 51
1.79999964E+02
  0
ARC
  8
0
 62
7
 10
-2.60227821E+02
 20
7.98142660E+01
 40
1.00000000E+00
 50
2.63822795E+02
 51
3.54325643E+02
  0
ARC
  8
0
 62
7
 10
-2.61249977E+02
 20
7.03693960E+01
 40
8.50000000E+00
 50
8.38233192E+01
 51
1.86176449E+02
  0
ARC
  8
0
 62
7
 10
-2.70694771E+02
 20
6.93472784E+01
 40
1.00000000E+00
 50
2.75674525E+02
 51
6.17630782E+00
  0
ARC
  8
0
 62
7
 10
-3.01791573E+02
 20
1.31869480E+02
 40
1.00000000E+00
 50
8.99999818E+01
 51
1.79999964E+02
  0
CIRCLE
  8
0
 62
2
 10
-3.17250038E+02
 20
1.26369526E+02
 40
4.00000000E+00
  0
CIRCLE
  8
0
 62
2
 10
-2.61249886E+02
 20
1.26369526E+02
 40
4.00000000E+00
  0
CIRCLE
  8
0
 62
2
 10
-2.61249977E+02
 20
7.03694342E+01
 40
4.00000000E+00
  0
CIRCLE
  8
0
 62
2
 10
-3.17250099E+02
 20
7.03694342E+01
 40
4.00000000E+00
  0
CIRCLE
  8
0
 62
7
 10
-3.17250099E+02
 20
7.03694342E+01
 40
3.32000017E+00
  0
CIRCLE
  8
0
 62
7
 10
-3.17250038E+02
 20
1.26369526E+02
 40
3.32000017E+00
  0
CIRCLE
  8
0
 62
7
 10
-2.61249886E+02
 20
1.26369526E+02
 40
3.32000017E+00
  0
CIRCLE
  8
0
 62
7
 10
-2.61249977E+02
 20
7.03694342E+01
 40
3.32000017E+00
  0
CIRCLE
  8
0
 62
7
 10
-2.89249947E+02
 20
9.83694647E+01
 40
8.99999237E+00
  0
CIRCLE
  8
0
 62
2
 10
-2.89249947E+02
 20
9.83694647E+01
 40
8.18000031E+00
  0
LINE
  8
0
 62
4
 10
-2.75749947E+02
 20
1.06163693E+02
 11
-2.89249947E+02
 21
1.13957922E+02
  0
LINE
  8
0
 62
4
 10
-2.75749947E+02
 20
9.05752360E+01
 11
-2.75749947E+02
 21
1.06163693E+02
  0
LINE
  8
0
 62
4
 10
-2.89249947E+02
 20
8.27810074E+01
 11
-2.75749947E+02
 21
9.05752360E+01
  0
LINE
  8
0
 62
4
 10
-3.02749947E+02
 20
9.05752360E+01
 11
-2.89249947E+02
 21
8.27810074E+01
  0
LINE
  8
0
 62
4
 10
-3.02749947E+02
 20
1.06163693E+02
 11
-3.02749947E+02
 21
9.05752360E+01
  0
LINE
  8
0
 62
4
 10
-2.89249947E+02
 20
1.13957922E+02
 11
-3.02749947E+02
 21
1.06163693E+02
  0
CIRCLE
  8
0
 62
4
 10
-2.89249947E+02
 20
9.83694647E+01
 40
1.35000000E+01
  0
CIRCLE
  8
0
 62
7
 10
-2.89249947E+02
 20
9.83694647E+01
 40
7.50000000E+00
  0
LINE
  8
0
 62
4
 10
-2.78035794E+02
 20
1.35869495E+02
 11
-2.74404189E+02
 21
1.47046429E+02
  0
ARC
  8
0
 62
4
 10
-2.68395542E+02
 20
1.36674267E+02
 40
1.18100000E+01
 50
1.62000000E+02
 51
1.82532699E+02
  0
ARC
  8
0
 62
4
 10
-2.68390760E+02
 20
1.36688986E+02
 40
1.18100000E+01
 50
1.59900933E+02
 51
1.62000000E+02
  0
LINE
  8
0
 62
4
 10
-2.79323351E+02
 20
1.35869495E+02
 11
-2.80194006E+02
 21
1.36152388E+02
  0
LINE
  8
0
 62
4
 10
-2.78435350E+02
 20
1.35869495E+02
 11
-2.77330431E+02
 21
1.39270086E+02
  0
ARC
  8
0
 62
4
 10
-2.67796940E+02
 20
1.40168023E+02
 40
1.18100000E+01
 50
1.49172490E+02
 51
1.74827510E+02
  0
LINE
  8
0
 62
4
 10
-2.77920086E+02
 20
1.39461676E+02
 11
-2.75571557E+02
 21
1.46689706E+02
  0
LINE
  8
0
 62
4
 10
-2.75695164E+02
 20
1.46309283E+02
 11
-2.76769858E+02
 21
1.46658473E+02
  0
LINE
  8
0
 62
4
 10
-2.77796479E+02
 20
1.39842099E+02
 11
-2.78871173E+02
 21
1.40191288E+02
  0
ARC
  8
0
 62
4
 10
-2.77079638E+02
 20
1.45707664E+02
 40
1.00000000E+00
 50
7.19999999E+01
 51
1.49172490E+02
  0
ARC
  8
0
 62
4
 10
-2.78562919E+02
 20
1.41142592E+02
 40
1.00000000E+00
 50
1.74827510E+02
 51
2.52000000E+02
  0
LINE
  8
0
 62
4
 10
-2.74620501E+02
 20
1.46380689E+02
 11
-2.75571557E+02
 21
1.46689706E+02
  0
LINE
  8
0
 62
4
 10
-2.76969030E+02
 20
1.39152659E+02
 11
-2.77920086E+02
 21
1.39461676E+02
  0
LINE
  8
0
 62
4
 10
-2.64608306E+02
 20
1.43863554E+02
 11
-2.67205733E+02
 21
1.35869495E+02
  0
LINE
  8
0
 62
4
 10
-2.60328552E+02
 20
1.42472977E+02
 11
-2.64608306E+02
 21
1.43863554E+02
  0
LINE
  8
0
 62
4
 10
-2.56963910E+02
 20
1.35869495E+02
 11
-2.60328552E+02
 21
1.42472977E+02
  0
LINE
  8
0
  6
CENTER
 62
6
 10
-2.73825437E+02
 20
1.33294518E+02
 11
-2.79531776E+02
 21
1.35148620E+02
  0
LINE
  8
0
  6
CENTER
 62
6
 10
-2.75751555E+02
 20
1.37074738E+02
 11
-2.77605657E+02
 21
1.31368399E+02
  0
LINE
  8
0
 62
4
 10
-2.77962685E+02
 20
1.36741716E+02
 11
-2.78246087E+02
 21
1.35869495E+02
  0
LINE
  8
0
 62
4
 10
-2.75278266E+02
 20
1.35869495E+02
 11
-2.77962685E+02
 21
1.36741716E+02
  0
LINE
  8
0
 62
4
 10
-2.74404189E+02
 20
1.47046429E+02
 11
-2.64608306E+02
 21
1.43863554E+02
  0
LINE
  8
0
 62
4
 10
-2.74859901E+02
 20
1.36259292E+02
 11
-2.77617965E+02
 21
1.37155441E+02
  0
LINE
  8
0
 62
4
 10
-2.74661290E+02
 20
1.35869495E+02
 11
-2.74859901E+02
 21
1.36259292E+02
  0
LINE
  8
0
  6
CENTER
 62
6
 10
-2.55595764E+02
 20
1.36203621E+02
 11
-2.80632202E+02
 21
1.44338453E+02
  0
LINE
  8
0
  6
CENTER
 62
6
 10
-2.65594729E+02
 20
1.35772364E+02
 11
-2.81713761E+02
 21
1.41009755E+02
  0
LINE
  8
0
 62
6
 10
-2.51605645E+02
 20
1.18083757E+02
 11
-2.51749947E+02
 21
1.18130644E+02
  0
LINE
  8
0
 62
6
 10
-2.50678594E+02
 20
1.20936927E+02
 11
-2.51749947E+02
 21
1.21285030E+02
  0
LINE
  8
0
 62
4
 10
-2.50524086E+02
 20
1.21412455E+02
 11
-2.51749947E+02
 21
1.21810761E+02
  0
LINE
  8
0
 62
4
 10
-2.51749947E+02
 20
1.17639643E+02
 11
-2.50524086E+02
 21
1.21412455E+02
  0
LINE
  8
0
 62
4
 10
-3.00464129E+02
 20
1.35869495E+02
 11
-3.04095735E+02
 21
1.47046429E+02
  0
ARC
  8
0
 62
4
 10
-3.10104381E+02
 20
1.36674267E+02
 40
1.18100000E+01
 50
3.57467301E+02
 51
1.80000000E+01
  0
ARC
  8
0
 62
4
 10
-3.10109164E+02
 20
1.36688986E+02
 40
1.18100000E+01
 50
1.80000000E+01
 51
3.85326990E+01
  0
LINE
  8
0
 62
4
 10
-2.99176573E+02
 20
1.35869495E+02
 11
-2.98305918E+02
 21
1.36152388E+02
  0
LINE
  8
0
 62
4
 10
-3.02544618E+02
 20
1.43502287E+02
 11
-3.00870759E+02
 21
1.44046157E+02
  0
LINE
  8
0
 62
4
 10
-3.02859667E+02
 20
1.43242202E+02
 11
-3.02498266E+02
 21
1.43359629E+02
  0
LINE
  8
0
 62
4
 10
-3.00064574E+02
 20
1.35869495E+02
 11
-3.02544618E+02
 21
1.43502287E+02
  0
LINE
  8
0
 62
4
 10
-3.01954963E+02
 20
1.43693878E+02
 11
-3.02928367E+02
 21
1.46689706E+02
  0
LINE
  8
0
 62
4
 10
-3.02804760E+02
 20
1.46309283E+02
 11
-3.01730066E+02
 21
1.46658473E+02
  0
ARC
  8
0
 62
4
 10
-3.10702984E+02
 20
1.40168023E+02
 40
1.18100000E+01
 50
5.17248996E+00
 51
3.08275100E+01
  0
ARC
  8
0
 62
4
 10
-3.01420286E+02
 20
1.45707664E+02
 40
1.00000000E+00
 50
3.08275100E+01
 51
1.08000000E+02
  0
ARC
  8
0
 62
4
 10
-2.99937004E+02
 20
1.41142592E+02
 40
1.00000000E+00
 50
3.36723662E+02
 51
5.17248996E+00
  0
LINE
  8
0
 62
4
 10
-3.03879423E+02
 20
1.46380689E+02
 11
-3.02928367E+02
 21
1.46689706E+02
  0
LINE
  8
0
 62
4
 10
-3.21536014E+02
 20
1.35869495E+02
 11
-3.18171371E+02
 21
1.42472977E+02
  0
LINE
  8
0
 62
4
 10
-3.11294190E+02
 20
1.35869495E+02
 11
-3.13891617E+02
 21
1.43863554E+02
  0
LINE
  8
0
 62
4
 10
-3.18171371E+02
 20
1.42472977E+02
 11
-3.13891617E+02
 21
1.43863554E+02
  0
LINE
  8
0
  6
CENTER
 62
6
 10
-3.12905195E+02
 20
1.35772364E+02
 11
-2.96427545E+02
 21
1.41126277E+02
  0
LINE
  8
0
  6
CENTER
 62
6
 10
-3.22904159E+02
 20
1.36203621E+02
 11
-2.97509104E+02
 21
1.44454975E+02
  0
LINE
  8
0
 62
4
 10
-3.03838633E+02
 20
1.35869495E+02
 11
-3.03640022E+02
 21
1.36259292E+02
  0
LINE
  8
0
 62
4
 10
-3.03640022E+02
 20
1.36259292E+02
 11
-3.00881958E+02
 21
1.37155441E+02
  0
LINE
  8
0
 62
4
 10
-3.04095735E+02
 20
1.47046429E+02
 11
-3.13891617E+02
 21
1.43863554E+02
  0
LINE
  8
0
 62
4
 10
-3.00537239E+02
 20
1.36741716E+02
 11
-3.00981657E+02
 21
1.35869495E+02
  0
LINE
  8
0
 62
4
 10
-3.03221658E+02
 20
1.35869495E+02
 11
-3.00537239E+02
 21
1.36741716E+02
  0
LINE
  8
0
 62
4
 10
-3.00537239E+02
 20
1.36741716E+02
 11
-3.00253837E+02
 21
1.35869495E+02
  0
LINE
  8
0
  6
CENTER
 62
6
 10
-3.02748369E+02
 20
1.37074738E+02
 11
-3.00894267E+02
 21
1.31368399E+02
  0
LINE
  8
0
  6
CENTER
 62
6
 10
-3.04674487E+02
 20
1.33294518E+02
 11
-2.98968148E+02
 21
1.35148620E+02
  0
LINE
  8
0
 62
6
 10
-3.26894279E+02
 20
1.18083757E+02
 11
-3.26750038E+02
 21
1.18130624E+02
  0
LINE
  8
0
 62
6
 10
-3.27821330E+02
 20
1.20936927E+02
 11
-3.26750038E+02
 21
1.21285010E+02
  0
LINE
  8
0
 62
4
 10
-3.26750038E+02
 20
1.17639830E+02
 11
-3.27975838E+02
 21
1.21412455E+02
  0
LINE
  8
0
 62
4
 10
-3.27975838E+02
 20
1.21412455E+02
 11
-3.26750038E+02
 21
1.21810741E+02
  0
LINE
  8
0
  6
PHANTOM
 10
-3.92500000E+01
 20
2.60722723E+02
 11
-3.92500000E+01
 21
1.58154938E+02
  0
LINE
  8
0
  6
PHANTOM
 10
9.02499733E+01
 20
2.60722723E+02
 11
9.02499733E+01
 21
1.58154938E+02
  0
LINE
  8
0
  6
CENTER
 62
2
 10
-1.86783272E+02
 20
2.13369465E+02
 11
1.55547871E+02
 21
2.13369465E+02
  0
LINE
  8
0
  6
CENTER
 62
2
 10
-1.19114861E+02
 20
2.21369465E+02
 11
-9.75106888E+01
 21
2.21369465E+02
  0
LINE
  8
0
  6
CENTER
 62
2
 10
-1.08750069E+02
 20
2.11369449E+02
 11
-1.08750069E+02
 21
2.31915729E+02
  0
LINE
  8
0
 62
7
 10
-1.28249992E+02
 20
1.94369449E+02
 11
-1.26749992E+02
 21
1.94369449E+02
  0
LINE
  8
0
 62
7
 10
-1.41250008E+02
 20
1.96369465E+02
 11
-1.36741447E+02
 21
1.96369465E+02
  0
LINE
  8
0
 62
7
 10
-1.36749992E+02
 20
1.96369449E+02
 11
-1.36749992E+02
 21
1.96360904E+02
  0
LINE
  8
0
 62
7
 10
-1.36508764E+02
 20
1.96110985E+02
 11
-1.28750066E+02
 21
1.95840045E+02
  0
LINE
  8
0
 62
7
 10
-1.26258758E+02
 20
1.76419536E+02
 11
-9.47500536E+01
 21
1.75869549E+02
  0
LINE
  8
0
 62
7
 10
-1.41749992E+02
 20
1.96869480E+02
 11
-1.41749992E+02
 21
2.29869434E+02
  0
LINE
  8
0
 62
7
 10
-1.28249992E+02
 20
2.32369465E+02
 11
-1.26749992E+02
 21
2.32369465E+02
  0
LINE
  8
0
 62
7
 10
-1.41250008E+02
 20
2.30369434E+02
 11
-1.36741447E+02
 21
2.30369434E+02
  0
LINE
  8
0
 62
7
 10
-1.36749992E+02
 20
2.30369465E+02
 11
-1.36749992E+02
 21
2.30378010E+02
  0
LINE
  8
0
 62
7
 10
-1.36508735E+02
 20
2.30628082E+02
 11
-1.28750052E+02
 21
2.30899022E+02
  0
LINE
  8
0
 62
7
 10
-1.26749992E+02
 20
1.76919376E+02
 11
-1.26749992E+02
 21
2.49819538E+02
  0
LINE
  8
0
 62
7
 10
-9.47499924E+01
 20
1.75869495E+02
 11
-9.47499924E+01
 21
2.50869465E+02
  0
LINE
  8
0
 62
7
 10
-1.26258731E+02
 20
2.50319466E+02
 11
-9.47500108E+01
 21
2.50869452E+02
  0
LINE
  8
0
 62
7
 10
-1.28750008E+02
 20
1.94869449E+02
 11
-1.28750008E+02
 21
2.31869480E+02
  0
LINE
  8
0
 62
7
 10
-1.36749992E+02
 20
2.30369465E+02
 11
-1.36749992E+02
 21
1.96369449E+02
  0
LINE
  8
0
 62
7
 10
-1.20749992E+02
 20
2.38369465E+02
 11
-9.47499924E+01
 21
2.38369465E+02
  0
LINE
  8
0
 62
7
 10
-1.20749992E+02
 20
1.88369449E+02
 11
-9.47499924E+01
 21
1.88369449E+02
  0
LINE
  8
0
 62
7
 10
-1.22750008E+02
 20
2.36369465E+02
 11
-1.22750008E+02
 21
1.90369465E+02
  0
LINE
  8
0
  6
CENTER
 62
2
 10
3.66148529E+01
 20
2.21369465E+02
 11
1.50106735E+01
 21
2.21369465E+02
  0
LINE
  8
0
  6
CENTER
 62
2
 10
2.62500458E+01
 20
2.11369449E+02
 11
2.62500458E+01
 21
2.31915729E+02
  0
LINE
  8
0
 62
7
 10
4.57499924E+01
 20
2.32369449E+02
 11
4.42499924E+01
 21
2.32369449E+02
  0
LINE
  8
0
 62
7
 10
4.37587352E+01
 20
2.50319459E+02
 11
1.22500456E+01
 21
2.50869445E+02
  0
LINE
  8
0
 62
7
 10
4.57499924E+01
 20
1.94369449E+02
 11
4.42499924E+01
 21
1.94369449E+02
  0
LINE
  8
0
 62
7
 10
4.42499809E+01
 20
2.49819538E+02
 11
4.42499809E+01
 21
1.76919376E+02
  0
LINE
  8
0
 62
7
 10
1.22499924E+01
 20
2.50869404E+02
 11
1.22499924E+01
 21
1.75869434E+02
  0
LINE
  8
0
 62
7
 10
4.37587298E+01
 20
1.76419466E+02
 11
1.22500135E+01
 21
1.75869479E+02
  0
LINE
  8
0
 62
7
 10
4.62499886E+01
 20
2.31869449E+02
 11
4.62499886E+01
 21
1.94869449E+02
  0
LINE
  8
0
 62
7
 10
3.82499847E+01
 20
1.88369449E+02
 11
1.22499924E+01
 21
1.88369449E+02
  0
LINE
  8
0
 62
7
 10
3.82499847E+01
 20
2.38369465E+02
 11
1.22499924E+01
 21
2.38369465E+02
  0
LINE
  8
0
 62
7
 10
4.02499847E+01
 20
1.90369465E+02
 11
4.02499847E+01
 21
2.36369465E+02
  0
LINE
  8
0
  6
CENTER
 62
2
 10
4.84792404E+01
 20
1.85369434E+02
 11
-1.29998085E+02
 21
1.85369434E+02
  0
LINE
  8
0
 62
7
 10
1.22499924E+01
 20
1.88969486E+02
 11
5.24999237E+00
 21
1.88969486E+02
  0
LINE
  8
0
 62
7
 10
1.22499924E+01
 20
1.81769474E+02
 11
-9.75000763E+00
 21
1.81769474E+02
  0
LINE
  8
0
 62
7
 10
1.22499924E+01
 20
1.79369495E+02
 11
-9.75000763E+00
 21
1.79369495E+02
  0
LINE
  8
0
  6
CENTER
 62
2
 10
1.92500229E+01
 20
2.07780613E+02
 11
1.92500229E+01
 21
1.94303867E+02
  0
LINE
  8
0
  6
CENTER
 62
2
 10
1.25842972E+01
 20
2.01369465E+02
 11
2.54130478E+01
 21
2.01369465E+02
  0
LINE
  8
0
 62
7
 10
2.09820801E+01
 20
2.01369358E+02
 11
2.01160485E+01
 21
2.02869378E+02
  0
LINE
  8
0
 62
7
 10
2.01160355E+01
 20
2.02869480E+02
 11
1.83839722E+01
 21
2.02869480E+02
  0
LINE
  8
0
 62
7
 10
1.75181294E+01
 20
2.01369341E+02
 11
1.83841380E+01
 21
2.02869321E+02
  0
LINE
  8
0
 62
7
 10
1.83840299E+01
 20
1.99869435E+02
 11
1.75179831E+01
 21
2.01369481E+02
  0
LINE
  8
0
 62
7
 10
2.01160355E+01
 20
1.99869449E+02
 11
1.83839722E+01
 21
1.99869449E+02
  0
LINE
  8
0
 62
7
 10
2.09821521E+01
 20
2.01369366E+02
 11
2.01161205E+01
 21
1.99869346E+02
  0
LINE
  8
0
 62
7
 10
-1.00017968E+02
 20
2.01369387E+02
 11
-1.00883991E+02
 21
2.02869393E+02
  0
LINE
  8
0
 62
7
 10
-1.00884026E+02
 20
2.02869480E+02
 11
-1.02616096E+02
 21
2.02869480E+02
  0
LINE
  8
0
 62
7
 10
-1.03481931E+02
 20
2.01369329E+02
 11
-1.02615911E+02
 21
2.02869328E+02
  0
LINE
  8
0
 62
7
 10
-1.02615988E+02
 20
1.99869428E+02
 11
-1.03482027E+02
 21
2.01369461E+02
  0
LINE
  8
0
 62
7
 10
-1.00884026E+02
 20
1.99869449E+02
 11
-1.02616096E+02
 21
1.99869449E+02
  0
LINE
  8
0
 62
7
 10
-1.00017944E+02
 20
2.01369383E+02
 11
-1.00883979E+02
 21
1.99869357E+02
  0
LINE
  8
0
  6
CENTER
 62
2
 10
-1.08415764E+02
 20
2.01369465E+02
 11
-9.55870132E+01
 21
2.01369465E+02
  0
LINE
  8
0
  6
CENTER
 62
2
 10
-1.01750038E+02
 20
2.07780613E+02
 11
-1.01750038E+02
 21
1.94303867E+02
  0
LINE
  8
0
  6
CENTER
 62
2
 10
4.84792404E+01
 20
2.41369495E+02
 11
-1.29998085E+02
 21
2.41369495E+02
  0
LINE
  8
0
 62
7
 10
1.22499924E+01
 20
2.37769459E+02
 11
-5.37499924E+01
 21
2.37769459E+02
  0
LINE
  8
0
 62
7
 10
1.22499924E+01
 20
2.44969471E+02
 11
-5.37499924E+01
 21
2.44969471E+02
  0
LINE
  8
0
 62
7
 10
1.22499924E+01
 20
2.47369434E+02
 11
-5.37499924E+01
 21
2.47369434E+02
  0
LINE
  8
0
 62
7
 10
-1.48749962E+02
 20
2.21869480E+02
 11
-1.48749962E+02
 21
2.04869480E+02
  0
LINE
  8
0
 62
7
 10
-1.43250008E+02
 20
2.03369510E+02
 11
-1.41750038E+02
 21
2.03369510E+02
  0
LINE
  8
0
 62
7
 10
-1.43249977E+02
 20
2.23369510E+02
 11
-1.41749992E+02
 21
2.23369510E+02
  0
LINE
  8
0
 62
7
 10
-1.54749947E+02
 20
2.04369480E+02
 11
-1.54749947E+02
 21
2.22369480E+02
  0
LINE
  8
0
 62
7
 10
-1.83749977E+02
 20
2.05869510E+02
 11
-1.83749977E+02
 21
2.20869312E+02
  0
LINE
  8
0
 62
7
 10
-1.82249947E+02
 20
2.04369480E+02
 11
-1.82249947E+02
 21
2.22369480E+02
  0
LINE
  8
0
 62
7
 10
-1.82249916E+02
 20
2.22369480E+02
 11
-1.74749962E+02
 21
2.22369480E+02
  0
LINE
  8
0
 62
2
 10
-1.83069923E+02
 20
2.21549473E+02
 11
-1.74749962E+02
 21
2.21549473E+02
  0
LINE
  8
0
 62
7
 10
-1.83749817E+02
 20
2.20869301E+02
 11
-1.82249784E+02
 21
2.22369287E+02
  0
LINE
  8
0
 62
7
 10
-1.82249916E+02
 20
2.04369495E+02
 11
-1.74749962E+02
 21
2.04369495E+02
  0
LINE
  8
0
 62
2
 10
-1.83069923E+02
 20
2.05189503E+02
 11
-1.74749962E+02
 21
2.05189503E+02
  0
LINE
  8
0
 62
7
 10
-1.83750014E+02
 20
2.05869615E+02
 11
-1.82249979E+02
 21
2.04369626E+02
  0
LINE
  8
0
 62
7
 10
-1.51749962E+02
 20
2.13369434E+02
 11
-1.51749962E+02
 21
2.21869480E+02
  0
LINE
  8
0
 62
7
 10
-1.51749962E+02
 20
2.13369434E+02
 11
-1.51749962E+02
 21
2.04869480E+02
  0
LINE
  8
0
 62
7
 10
-1.51749962E+02
 20
2.04869480E+02
 11
-1.44750023E+02
 21
2.04869480E+02
  0
LINE
  8
0
 62
7
 10
-1.51749962E+02
 20
2.21869495E+02
 11
-1.44750023E+02
 21
2.21869495E+02
  0
LINE
  8
0
 62
7
 10
-1.44750084E+02
 20
2.04869556E+02
 11
-1.43250115E+02
 21
2.03369587E+02
  0
LINE
  8
0
 62
7
 10
-1.44750141E+02
 20
2.21869625E+02
 11
-1.43250118E+02
 21
2.23369648E+02
  0
LINE
  8
0
 62
7
 10
-1.54749947E+02
 20
2.21549473E+02
 11
-1.51749962E+02
 21
2.21549473E+02
  0
LINE
  8
0
 62
7
 10
-1.54749947E+02
 20
2.05189503E+02
 11
-1.51749962E+02
 21
2.05189503E+02
  0
LINE
  8
0
 62
7
 10
1.16249950E+02
 20
2.21869480E+02
 11
1.16249950E+02
 21
2.04869480E+02
  0
LINE
  8
0
 62
7
 10
1.10749996E+02
 20
2.03369510E+02
 11
5.92500267E+01
 21
2.03369510E+02
  0
LINE
  8
0
 62
7
 10
1.10749966E+02
 20
2.23369510E+02
 11
5.92499809E+01
 21
2.23369510E+02
  0
LINE
  8
0
 62
7
 10
1.22249935E+02
 20
2.04369480E+02
 11
1.22249935E+02
 21
2.22369480E+02
  0
LINE
  8
0
 62
7
 10
1.51249966E+02
 20
2.05869510E+02
 11
1.51249966E+02
 21
2.20869312E+02
  0
LINE
  8
0
 62
7
 10
1.49749935E+02
 20
2.04369480E+02
 11
1.49749935E+02
 21
2.22369480E+02
  0
LINE
  8
0
 62
7
 10
1.49749905E+02
 20
2.22369480E+02
 11
1.42249950E+02
 21
2.22369480E+02
  0
LINE
  8
0
 62
2
 10
1.50569912E+02
 20
2.21549473E+02
 11
1.42249950E+02
 21
2.21549473E+02
  0
LINE
  8
0
 62
7
 10
1.51249809E+02
 20
2.20869293E+02
 11
1.49749773E+02
 21
2.22369282E+02
  0
LINE
  8
0
 62
7
 10
1.49749905E+02
 20
2.04369495E+02
 11
1.42249950E+02
 21
2.04369495E+02
  0
LINE
  8
0
 62
2
 10
1.50569912E+02
 20
2.05189503E+02
 11
1.42249950E+02
 21
2.05189503E+02
  0
LINE
  8
0
 62
7
 10
1.51250008E+02
 20
2.05869609E+02
 11
1.49749972E+02
 21
2.04369620E+02
  0
LINE
  8
0
 62
7
 10
1.22249935E+02
 20
2.05189503E+02
 11
1.19249950E+02
 21
2.05189503E+02
  0
LINE
  8
0
 62
7
 10
1.22249935E+02
 20
2.21549473E+02
 11
1.19249950E+02
 21
2.21549473E+02
  0
LINE
  8
0
 62
7
 10
1.19249950E+02
 20
2.04869480E+02
 11
1.19249950E+02
 21
2.21869480E+02
  0
LINE
  8
0
 62
7
 10
1.19249950E+02
 20
2.04869480E+02
 11
1.12250011E+02
 21
2.04869480E+02
  0
LINE
  8
0
 62
7
 10
1.19249950E+02
 20
2.21869495E+02
 11
1.12250011E+02
 21
2.21869495E+02
  0
LINE
  8
0
 62
7
 10
1.12250072E+02
 20
2.04869554E+02
 11
1.10750103E+02
 21
2.03369584E+02
  0
LINE
  8
0
 62
7
 10
1.12250127E+02
 20
2.21869627E+02
 11
1.10750104E+02
 21
2.23369650E+02
  0
LINE
  8
0
 62
7
 10
5.87499962E+01
 20
1.96369465E+02
 11
5.42414360E+01
 21
1.96369465E+02
  0
LINE
  8
0
 62
7
 10
5.42499809E+01
 20
1.96369449E+02
 11
5.42499809E+01
 21
1.96360904E+02
  0
LINE
  8
0
 62
7
 10
5.40087498E+01
 20
1.96110979E+02
 11
4.62500513E+01
 21
1.95840039E+02
  0
LINE
  8
0
 62
7
 10
5.92499809E+01
 20
1.96869480E+02
 11
5.92499809E+01
 21
2.29869434E+02
  0
LINE
  8
0
 62
7
 10
5.87499962E+01
 20
2.30369434E+02
 11
5.42414360E+01
 21
2.30369434E+02
  0
LINE
  8
0
 62
7
 10
5.42499809E+01
 20
2.30369465E+02
 11
5.42499809E+01
 21
2.30378010E+02
  0
LINE
  8
0
 62
7
 10
5.40087209E+01
 20
2.30628088E+02
 11
4.62500337E+01
 21
2.30899027E+02
  0
LINE
  8
0
 62
7
 10
5.42499809E+01
 20
2.30369465E+02
 11
5.42499809E+01
 21
1.96369449E+02
  0
ARC
  8
0
 62
7
 10
-1.41250008E+02
 20
1.96869495E+02
 40
5.00000000E-01
 50
1.79999977E+02
 51
2.69999974E+02
  0
ARC
  8
0
 62
7
 10
-1.36500008E+02
 20
1.96360920E+02
 40
2.50000000E-01
 50
1.79999977E+02
 51
2.68001132E+02
  0
ARC
  8
0
 62
7
 10
-1.26250008E+02
 20
1.76919391E+02
 40
5.00000000E-01
 50
1.79999977E+02
 51
2.68999706E+02
  0
ARC
  8
0
 62
7
 10
-1.28249992E+02
 20
1.94869449E+02
 40
5.00000000E-01
 50
1.79999977E+02
 51
2.69999974E+02
  0
ARC
  8
0
 62
7
 10
-1.41250008E+02
 20
2.29869404E+02
 40
5.00000000E-01
 50
8.99999818E+01
 51
1.79999964E+02
  0
ARC
  8
0
 62
7
 10
-1.36500008E+02
 20
2.30377979E+02
 40
2.50000000E-01
 50
9.19988230E+01
 51
1.79999977E+02
  0
ARC
  8
0
 62
7
 10
-1.26250008E+02
 20
2.49819538E+02
 40
5.00000000E-01
 50
9.10002223E+01
 51
1.79999964E+02
  0
ARC
  8
0
 62
7
 10
-1.28249992E+02
 20
2.31869449E+02
 40
5.00000000E-01
 50
8.99999818E+01
 51
1.79999964E+02
  0
CIRCLE
  8
0
 62
7
 10
-1.08750069E+02
 20
2.21369465E+02
 40
8.71000004E+00
  0
CIRCLE
  8
0
 62
7
 10
-1.08750069E+02
 20
2.21369465E+02
 40
7.44000006E+00
  0
ARC
  8
0
 62
7
 10
-1.20749992E+02
 20
2.36369465E+02
 40
2.00000000E+00
 50
8.99999818E+01
 51
1.79999964E+02
  0
ARC
  8
0
 62
7
 10
-1.20749992E+02
 20
1.90369434E+02
 40
2.00000000E+00
 50
1.79999977E+02
 51
2.70000028E+02
  0
CIRCLE
  8
0
 62
2
 10
-1.08750069E+02
 20
2.21369465E+02
 40
8.32999992E+00
  0
ARC
  8
0
 62
7
 10
4.37499886E+01
 20
2.49819538E+02
 40
5.00000000E-01
 50
5.46415133E-05
 51
8.89997964E+01
  0
ARC
  8
0
 62
7
 10
4.57499962E+01
 20
2.31869449E+02
 40
5.00000000E-01
 50
5.46415133E-05
 51
9.00000369E+01
  0
ARC
  8
0
 62
7
 10
4.37499886E+01
 20
1.76919346E+02
 40
5.00000000E-01
 50
2.71000313E+02
 51
5.46415133E-05
  0
ARC
  8
0
 62
7
 10
4.57499962E+01
 20
1.94869449E+02
 40
5.00000000E-01
 50
2.70000073E+02
 51
5.46415133E-05
  0
CIRCLE
  8
0
 62
7
 10
2.62500458E+01
 20
2.21369465E+02
 40
8.71000004E+00
  0
CIRCLE
  8
0
 62
7
 10
2.62500458E+01
 20
2.21369465E+02
 40
7.44000006E+00
  0
ARC
  8
0
 62
7
 10
3.82500000E+01
 20
1.90369434E+02
 40
2.00000000E+00
 50
2.70000073E+02
 51
5.46415133E-05
  0
ARC
  8
0
 62
7
 10
3.82500000E+01
 20
2.36369465E+02
 40
2.00000000E+00
 50
5.46415133E-05
 51
9.00000913E+01
  0
CIRCLE
  8
0
 62
2
 10
2.62500458E+01
 20
2.21369465E+02
 40
8.32999992E+00
  0
CIRCLE
  8
0
 62
7
 10
1.92500229E+01
 20
2.01369465E+02
 40
5.00000000E+00
  0
CIRCLE
  8
0
 62
7
 10
-1.01750038E+02
 20
2.01369465E+02
 40
5.00000000E+00
  0
CIRCLE
  8
0
 62
7
 10
-1.01750038E+02
 20
2.01369465E+02
 40
2.59999990E+00
  0
CIRCLE
  8
0
 62
7
 10
1.92500229E+01
 20
2.01369465E+02
 40
2.59999990E+00
  0
ARC
  8
0
 62
7
 10
5.87499962E+01
 20
1.96869495E+02
 40
5.00000000E-01
 50
2.70000025E+02
 51
2.23117997E-05
  0
ARC
  8
0
 62
7
 10
5.39999962E+01
 20
1.96360920E+02
 40
2.50000000E-01
 50
2.71998866E+02
 51
2.23117997E-05
  0
ARC
  8
0
 62
7
 10
5.87499962E+01
 20
2.29869404E+02
 40
5.00000000E-01
 50
3.59721781E-05
 51
9.00000162E+01
  0
ARC
  8
0
 62
7
 10
5.39999962E+01
 20
2.30377979E+02
 40
2.50000000E-01
 50
2.23117997E-05
 51
8.80011750E+01
  0
ARC
  8
0
 62
4
 10
-1.83246355E+02
 20
2.06619465E+02
 40
1.94963929E+01
 50
3.39743842E+02
 51
2.02561580E+01
  0
ARC
  8
0
 62
4
 10
-1.83246355E+02
 20
2.20119465E+02
 40
1.94963929E+01
 50
3.39743842E+02
 51
2.02561580E+01
  0
ARC
  8
0
 62
4
 10
-1.55253569E+02
 20
2.20119465E+02
 40
1.94963929E+01
 50
1.59743842E+02
 51
2.00256158E+02
  0
ARC
  8
0
 62
4
 10
-1.55253569E+02
 20
2.06619465E+02
 40
1.94963929E+01
 50
1.59743842E+02
 51
2.00256158E+02
  0
LINE
  8
0
 62
4
 10
-1.64955733E+02
 20
2.13369465E+02
 11
-1.73544190E+02
 21
2.13369465E+02
  0
LINE
  8
0
 62
4
 10
-1.63749962E+02
 20
1.99869465E+02
 11
-1.74749962E+02
 21
1.99869465E+02
  0
LINE
  8
0
 62
4
 10
-1.63749962E+02
 20
2.26869465E+02
 11
-1.74749962E+02
 21
2.26869465E+02
  0
LINE
  8
0
 62
4
 10
-1.74749962E+02
 20
2.26869465E+02
 11
-1.74749962E+02
 21
1.99869465E+02
  0
LINE
  8
0
 62
4
 10
-1.63749962E+02
 20
2.26869465E+02
 11
-1.63749962E+02
 21
1.99869465E+02
  0
ARC
  8
0
 62
4
 10
1.22753558E+02
 20
2.06619465E+02
 40
1.94963929E+01
 50
3.39743842E+02
 51
2.02561580E+01
  0
ARC
  8
0
 62
4
 10
1.22753558E+02
 20
2.20119465E+02
 40
1.94963929E+01
 50
3.39743842E+02
 51
2.02561580E+01
  0
ARC
  8
0
 62
4
 10
1.50746343E+02
 20
2.20119465E+02
 40
1.94963929E+01
 50
1.59743842E+02
 51
2.00256158E+02
  0
ARC
  8
0
 62
4
 10
1.50746343E+02
 20
2.06619465E+02
 40
1.94963929E+01
 50
1.59743842E+02
 51
2.00256158E+02
  0
LINE
  8
0
 62
4
 10
1.41044179E+02
 20
2.13369465E+02
 11
1.32455722E+02
 21
2.13369465E+02
  0
LINE
  8
0
 62
4
 10
1.42249950E+02
 20
1.99869465E+02
 11
1.31249950E+02
 21
1.99869465E+02
  0
LINE
  8
0
 62
4
 10
1.42249950E+02
 20
2.26869465E+02
 11
1.31249950E+02
 21
2.26869465E+02
  0
LINE
  8
0
 62
4
 10
1.31249950E+02
 20
2.26869465E+02
 11
1.31249950E+02
 21
1.99869465E+02
  0
LINE
  8
0
 62
4
 10
1.42249950E+02
 20
2.26869465E+02
 11
1.42249950E+02
 21
1.99869465E+02
  0
LINE
  8
0
 62
7
 10
-1.63749962E+02
 20
2.22369480E+02
 11
-1.54749947E+02
 21
2.22369480E+02
  0
LINE
  8
0
 62
2
 10
-1.63749962E+02
 20
2.21549473E+02
 11
-1.54749947E+02
 21
2.21549473E+02
  0
LINE
  8
0
 62
7
 10
-1.63749962E+02
 20
2.04369495E+02
 11
-1.54749947E+02
 21
2.04369495E+02
  0
LINE
  8
0
 62
2
 10
-1.63749962E+02
 20
2.05189503E+02
 11
-1.54749947E+02
 21
2.05189503E+02
  0
LINE
  8
0
 62
7
 10
1.31249950E+02
 20
2.22369480E+02
 11
1.22249935E+02
 21
2.22369480E+02
  0
LINE
  8
0
 62
2
 10
1.31249950E+02
 20
2.21549473E+02
 11
1.22249935E+02
 21
2.21549473E+02
  0
LINE
  8
0
 62
7
 10
1.31249950E+02
 20
2.04369495E+02
 11
1.22249935E+02
 21
2.04369495E+02
  0
LINE
  8
0
 62
2
 10
1.31249950E+02
 20
2.05189503E+02
 11
1.22249935E+02
 21
2.05189503E+02
  0
LINE
  8
0
  6
CENTER
 62
6
 10
-5.72499923E+01
 20
2.56035074E+02
 11
-5.72499923E+01
 21
2.45769495E+02
  0
LINE
  8
0
  6
CENTER
 62
6
 10
-6.52499923E+01
 20
2.56035074E+02
 11
-6.52499923E+01
 21
2.45769495E+02
  0
LINE
  8
0
  6
CENTER
 62
6
 10
-8.87499924E+01
 20
2.25940775E+02
 11
-4.17499924E+01
 21
2.25940775E+02
  0
LINE
  8
0
 62
6
 10
-4.54820432E+01
 20
2.22940775E+02
 11
-4.20179416E+01
 21
2.28940775E+02
  0
LINE
  8
0
 62
4
 10
-5.37499924E+01
 20
2.24440775E+02
 11
-4.46160178E+01
 21
2.24440775E+02
  0
LINE
  8
0
 62
4
 10
-5.37499924E+01
 20
2.27440775E+02
 11
-4.28839670E+01
 21
2.27440775E+02
  0
LINE
  8
0
 62
4
 10
-6.32499923E+01
 20
2.51477261E+02
 11
-6.32499923E+01
 21
2.50637342E+02
  0
LINE
  8
0
 62
4
 10
-6.72499923E+01
 20
2.51477261E+02
 11
-6.72499923E+01
 21
2.50637342E+02
  0
LINE
  8
0
 62
6
 10
-6.37499923E+01
 20
2.51886052E+02
 11
-6.37499923E+01
 21
2.50637342E+02
  0
LINE
  8
0
 62
6
 10
-6.67499923E+01
 20
2.51886052E+02
 11
-6.67499923E+01
 21
2.50637342E+02
  0
LINE
  8
0
  6
CENTER
 62
6
 10
-7.62499924E+01
 20
2.29324616E+02
 11
-7.62499924E+01
 21
2.24324616E+02
  0
LINE
  8
0
 62
4
 10
-8.37499924E+01
 20
2.38011074E+02
 11
-8.37499924E+01
 21
2.25001415E+02
  0
LINE
  8
0
 62
4
 10
-5.37499924E+01
 20
2.50637342E+02
 11
-5.37499924E+01
 21
2.23270920E+02
  0
LINE
  8
0
 62
4
 10
-6.87499924E+01
 20
2.50637342E+02
 11
-6.87499924E+01
 21
2.38011074E+02
  0
LINE
  8
0
 62
4
 10
-8.52499924E+01
 20
2.27369413E+02
 11
-8.52499924E+01
 21
2.24515346E+02
  0
LINE
  8
0
 62
4
 10
-6.87499924E+01
 20
2.50637342E+02
 11
-5.37499924E+01
 21
2.50637342E+02
  0
LINE
  8
0
 62
4
 10
-6.87499924E+01
 20
2.42290829E+02
 11
-5.37499924E+01
 21
2.42290829E+02
  0
LINE
  8
0
 62
4
 10
-8.37499924E+01
 20
2.38011074E+02
 11
-5.37499924E+01
 21
2.38011074E+02
  0
LINE
  8
0
 62
4
 10
-8.37499924E+01
 20
2.28215192E+02
 11
-5.37499924E+01
 21
2.28215192E+02
  0
LINE
  8
0
 62
4
 10
-8.37499924E+01
 20
2.23270920E+02
 11
-7.26517600E+01
 21
2.23270920E+02
  0
POLYLINE
  8
0
 62
4
 66
1
  0
VERTEX
  8
0
 62
4
 10
-6.32499923E+01
 20
2.51477261E+02
  0
VERTEX
  8
0
 62
4
 10
-6.32580437E+01
 20
2.51532661E+02
  0
VERTEX
  8
0
 62
4
 10
-6.32821331E+01
 20
2.51587615E+02
  0
VERTEX
  8
0
 62
4
 10
-6.33220666E+01
 20
2.51641681E+02
  0
VERTEX
  8
0
 62
4
 10
-6.33775226E+01
 20
2.51694423E+02
  0
VERTEX
  8
0
 62
4
 10
-6.34480546E+01
 20
2.51745416E+02
  0
VERTEX
  8
0
 62
4
 10
-6.35330947E+01
 20
2.51794250E+02
  0
VERTEX
  8
0
 62
4
 10
-6.36319583E+01
 20
2.51840532E+02
  0
VERTEX
  8
0
 62
4
 10
-6.37438494E+01
 20
2.51883889E+02
  0
VERTEX
  8
0
 62
4
 10
-6.38678670E+01
 20
2.51923973E+02
  0
VERTEX
  8
0
 62
4
 10
-6.40030127E+01
 20
2.51960459E+02
  0
VERTEX
  8
0
 62
4
 10
-6.41481983E+01
 20
2.51993056E+02
  0
VERTEX
  8
0
 62
4
 10
-6.43022550E+01
 20
2.52021499E+02
  0
VERTEX
  8
0
 62
4
 10
-6.44639422E+01
 20
2.52045560E+02
  0
VERTEX
  8
0
 62
4
 10
-6.46319583E+01
 20
2.52065046E+02
  0
VERTEX
  8
0
 62
4
 10
-6.48049504E+01
 20
2.52079800E+02
  0
VERTEX
  8
0
 62
4
 10
-6.49815258E+01
 20
2.52089702E+02
  0
VERTEX
  8
0
 62
4
 10
-6.51602626E+01
 20
2.52094673E+02
  0
VERTEX
  8
0
 62
4
 10
-6.53397219E+01
 20
2.52094673E+02
  0
VERTEX
  8
0
 62
4
 10
-6.55184588E+01
 20
2.52089702E+02
  0
VERTEX
  8
0
 62
4
 10
-6.56950342E+01
 20
2.52079800E+02
  0
VERTEX
  8
0
 62
4
 10
-6.58680263E+01
 20
2.52065046E+02
  0
VERTEX
  8
0
 62
4
 10
-6.60360424E+01
 20
2.52045560E+02
  0
VERTEX
  8
0
 62
4
 10
-6.61977296E+01
 20
2.52021499E+02
  0
VERTEX
  8
0
 62
4
 10
-6.63517863E+01
 20
2.51993056E+02
  0
VERTEX
  8
0
 62
4
 10
-6.64969719E+01
 20
2.51960459E+02
  0
VERTEX
  8
0
 62
4
 10
-6.66321176E+01
 20
2.51923973E+02
  0
VERTEX
  8
0
 62
4
 10
-6.67561352E+01
 20
2.51883890E+02
  0
VERTEX
  8
0
 62
4
 10
-6.68680263E+01
 20
2.51840532E+02
  0
VERTEX
  8
0
 62
4
 10
-6.69668899E+01
 20
2.51794250E+02
  0
VERTEX
  8
0
 62
4
 10
-6.70519300E+01
 20
2.51745416E+02
  0
VERTEX
  8
0
 62
4
 10
-6.71224620E+01
 20
2.51694423E+02
  0
VERTEX
  8
0
 62
4
 10
-6.71779180E+01
 20
2.51641681E+02
  0
VERTEX
  8
0
 62
4
 10
-6.72178515E+01
 20
2.51587615E+02
  0
VERTEX
  8
0
 62
4
 10
-6.72419409E+01
 20
2.51532661E+02
  0
VERTEX
  8
0
 62
4
 10
-6.72499923E+01
 20
2.51477261E+02
  0
SEQEND
  8
0
  0
LINE
  8
0
 62
4
 10
-5.52499923E+01
 20
2.51477261E+02
 11
-5.52499923E+01
 21
2.50637342E+02
  0
LINE
  8
0
 62
6
 10
-5.57499923E+01
 20
2.51886052E+02
 11
-5.57499923E+01
 21
2.50637342E+02
  0
POLYLINE
  8
0
 62
4
 66
1
  0
VERTEX
  8
0
 62
4
 10
-5.52499923E+01
 20
2.51477261E+02
  0
VERTEX
  8
0
 62
4
 10
-5.52580437E+01
 20
2.51532661E+02
  0
VERTEX
  8
0
 62
4
 10
-5.52821331E+01
 20
2.51587615E+02
  0
VERTEX
  8
0
 62
4
 10
-5.53220666E+01
 20
2.51641681E+02
  0
VERTEX
  8
0
 62
4
 10
-5.53775226E+01
 20
2.51694423E+02
  0
VERTEX
  8
0
 62
4
 10
-5.54480546E+01
 20
2.51745416E+02
  0
VERTEX
  8
0
 62
4
 10
-5.55330947E+01
 20
2.51794250E+02
  0
VERTEX
  8
0
 62
4
 10
-5.56319583E+01
 20
2.51840532E+02
  0
VERTEX
  8
0
 62
4
 10
-5.57438494E+01
 20
2.51883889E+02
  0
VERTEX
  8
0
 62
4
 10
-5.58678670E+01
 20
2.51923973E+02
  0
VERTEX
  8
0
 62
4
 10
-5.60030127E+01
 20
2.51960459E+02
  0
VERTEX
  8
0
 62
4
 10
-5.61481983E+01
 20
2.51993056E+02
  0
VERTEX
  8
0
 62
4
 10
-5.63022550E+01
 20
2.52021499E+02
  0
VERTEX
  8
0
 62
4
 10
-5.64639422E+01
 20
2.52045560E+02
  0
VERTEX
  8
0
 62
4
 10
-5.66319583E+01
 20
2.52065046E+02
  0
VERTEX
  8
0
 62
4
 10
-5.68049504E+01
 20
2.52079800E+02
  0
VERTEX
  8
0
 62
4
 10
-5.69815258E+01
 20
2.52089702E+02
  0
VERTEX
  8
0
 62
4
 10
-5.71602626E+01
 20
2.52094673E+02
  0
VERTEX
  8
0
 62
4
 10
-5.73397219E+01
 20
2.52094673E+02
  0
VERTEX
  8
0
 62
4
 10
-5.75184588E+01
 20
2.52089702E+02
  0
VERTEX
  8
0
 62
4
 10
-5.76950342E+01
 20
2.52079800E+02
  0
VERTEX
  8
0
 62
4
 10
-5.78680263E+01
 20
2.52065046E+02
  0
VERTEX
  8
0
 62
4
 10
-5.80360424E+01
 20
2.52045560E+02
  0
VERTEX
  8
0
 62
4
 10
-5.81977296E+01
 20
2.52021499E+02
  0
VERTEX
  8
0
 62
4
 10
-5.83517863E+01
 20
2.51993056E+02
  0
VERTEX
  8
0
 62
4
 10
-5.84969719E+01
 20
2.51960459E+02
  0
VERTEX
  8
0
 62
4
 10
-5.86321176E+01
 20
2.51923973E+02
  0
VERTEX
  8
0
 62
4
 10
-5.87561352E+01
 20
2.51883890E+02
  0
VERTEX
  8
0
 62
4
 10
-5.88680263E+01
 20
2.51840532E+02
  0
VERTEX
  8
0
 62
4
 10
-5.89668899E+01
 20
2.51794250E+02
  0
VERTEX
  8
0
 62
4
 10
-5.90519300E+01
 20
2.51745416E+02
  0
VERTEX
  8
0
 62
4
 10
-5.91224620E+01
 20
2.51694423E+02
  0
VERTEX
  8
0
 62
4
 10
-5.91779180E+01
 20
2.51641681E+02
  0
VERTEX
  8
0
 62
4
 10
-5.92178515E+01
 20
2.51587615E+02
  0
VERTEX
  8
0
 62
4
 10
-5.92419409E+01
 20
2.51532661E+02
  0
VERTEX
  8
0
 62
4
 10
-5.92499923E+01
 20
2.51477261E+02
  0
SEQEND
  8
0
  0
LINE
  8
0
 62
4
 10
-5.92499923E+01
 20
2.51477261E+02
 11
-5.92499923E+01
 21
2.50637342E+02
  0
LINE
  8
0
 62
6
 10
-5.87499923E+01
 20
2.51886052E+02
 11
-5.87499923E+01
 21
2.50637342E+02
  0
LINE
  8
0
 62
4
 10
-8.37499924E+01
 20
2.28460922E+02
 11
-8.52499924E+01
 21
2.27369413E+02
  0
LINE
  8
0
 62
4
 10
-8.52499924E+01
 20
2.25215270E+02
 11
-8.37499924E+01
 21
2.24656696E+02
  0
LINE
  8
0
 62
4
 10
-8.37499924E+01
 20
2.23420628E+02
 11
-8.52499924E+01
 21
2.24515346E+02
  0
LINE
  8
0
 62
4
 10
-8.37499924E+01
 20
2.25001415E+02
 11
-7.28999924E+01
 21
2.25001415E+02
  0
LINE
  8
0
 62
4
 10
-5.81843943E+01
 20
2.23579937E+02
 11
-5.37499924E+01
 21
2.23579937E+02
  0
LINE
  8
0
 62
4
 10
-8.37499924E+01
 20
2.24656696E+02
 11
-7.28999924E+01
 21
2.24656696E+02
  0
LINE
  8
0
 62
4
 10
-8.37499924E+01
 20
2.23420628E+02
 11
-7.27946076E+01
 21
2.23420628E+02
  0
LINE
  8
0
 62
4
 10
-8.37499924E+01
 20
2.25001415E+02
 11
-8.37499924E+01
 21
2.23420628E+02
  0
LINE
  8
0
 62
4
 10
-8.37499924E+01
 20
2.23420628E+02
 11
-8.37499924E+01
 21
2.23270920E+02
  0
ARC
  8
0
 62
4
 10
-6.36499927E+01
 20
2.24326248E+02
 40
1.00000000E+00
 50
1.80000000E+02
 51
2.57172490E+02
  0
ARC
  8
0
 62
4
 10
-5.88499920E+01
 20
2.24326248E+02
 40
1.00000000E+00
 50
2.82827510E+02
 51
0.00000000E+00
  0
ARC
  8
0
 62
4
 10
-6.12499924E+01
 20
2.34866461E+02
 40
1.18100000E+01
 50
2.57172490E+02
 51
2.82827510E+02
  0
LINE
  8
0
 62
4
 10
-7.28999924E+01
 20
2.23707795E+02
 11
-7.28999924E+01
 21
2.25381655E+02
  0
LINE
  8
0
 62
4
 10
-6.45999924E+01
 20
2.23707795E+02
 11
-6.45999924E+01
 21
2.24013997E+02
  0
POLYLINE
  8
0
 62
4
 66
1
  0
VERTEX
  8
0
 62
4
 10
-6.50499924E+01
 20
2.25962451E+02
  0
VERTEX
  8
0
 62
4
 10
-6.52318074E+01
 20
2.26061835E+02
  0
VERTEX
  8
0
 62
4
 10
-6.54415046E+01
 20
2.26155828E+02
  0
VERTEX
  8
0
 62
4
 10
-6.56774223E+01
 20
2.26243686E+02
  0
VERTEX
  8
0
 62
4
 10
-6.59376906E+01
 20
2.26324712E+02
  0
VERTEX
  8
0
 62
4
 10
-6.62202469E+01
 20
2.26398264E+02
  0
VERTEX
  8
0
 62
4
 10
-6.65228520E+01
 20
2.26463759E+02
  0
VERTEX
  8
0
 62
4
 10
-6.68431075E+01
 20
2.26520679E+02
  0
VERTEX
  8
0
 62
4
 10
-6.71784755E+01
 20
2.26568571E+02
  0
VERTEX
  8
0
 62
4
 10
-6.75262980E+01
 20
2.26607057E+02
  0
VERTEX
  8
0
 62
4
 10
-6.78838186E+01
 20
2.26635832E+02
  0
VERTEX
  8
0
 62
4
 10
-6.82482037E+01
 20
2.26654667E+02
  0
VERTEX
  8
0
 62
4
 10
-6.86165656E+01
 20
2.26663413E+02
  0
VERTEX
  8
0
 62
4
 10
-6.89859849E+01
 20
2.26662000E+02
  0
VERTEX
  8
0
 62
4
 10
-6.93535340E+01
 20
2.26650441E+02
  0
VERTEX
  8
0
 62
4
 10
-6.97162998E+01
 20
2.26628827E+02
  0
VERTEX
  8
0
 62
4
 10
-7.00714075E+01
 20
2.26597328E+02
  0
VERTEX
  8
0
 62
4
 10
-7.04160428E+01
 20
2.26556195E+02
  0
VERTEX
  8
0
 62
4
 10
-7.07474742E+01
 20
2.26505754E+02
  0
VERTEX
  8
0
 62
4
 10
-7.10630753E+01
 20
2.26446403E+02
  0
VERTEX
  8
0
 62
4
 10
-7.13603447E+01
 20
2.26378615E+02
  0
VERTEX
  8
0
 62
4
 10
-7.16369267E+01
 20
2.26302925E+02
  0
VERTEX
  8
0
 62
4
 10
-7.18906291E+01
 20
2.26219935E+02
  0
VERTEX
  8
0
 62
4
 10
-7.21194414E+01
 20
2.26130300E+02
  0
VERTEX
  8
0
 62
4
 10
-7.23215502E+01
 20
2.26034733E+02
  0
VERTEX
  8
0
 62
4
 10
-7.24953537E+01
 20
2.25933989E+02
  0
VERTEX
  8
0
 62
4
 10
-7.26394745E+01
 20
2.25828869E+02
  0
VERTEX
  8
0
 62
4
 10
-7.27527705E+01
 20
2.25720204E+02
  0
VERTEX
  8
0
 62
4
 10
-7.28343437E+01
 20
2.25608856E+02
  0
VERTEX
  8
0
 62
4
 10
-7.28835476E+01
 20
2.25495707E+02
  0
VERTEX
  8
0
 62
4
 10
-7.28999924E+01
 20
2.25381655E+02
  0
SEQEND
  8
0
  0
POLYLINE
  8
0
 62
4
 66
1
  0
VERTEX
  8
0
 62
4
 10
-7.28999924E+01
 20
2.23707795E+02
  0
VERTEX
  8
0
 62
4
 10
-7.28842004E+01
 20
2.23596025E+02
  0
VERTEX
  8
0
 62
4
 10
-7.28369446E+01
 20
2.23485105E+02
  0
VERTEX
  8
0
 62
4
 10
-7.27585846E+01
 20
2.23375880E+02
  0
VERTEX
  8
0
 62
4
 10
-7.26497168E+01
 20
2.23269181E+02
  0
VERTEX
  8
0
 62
4
 10
-7.25111697E+01
 20
2.23165821E+02
  0
VERTEX
  8
0
 62
4
 10
-7.23439978E+01
 20
2.23066585E+02
  0
VERTEX
  8
0
 62
4
 10
-7.21494734E+01
 20
2.22972229E+02
  0
VERTEX
  8
0
 62
4
 10
-7.19290768E+01
 20
2.22883471E+02
  0
VERTEX
  8
0
 62
4
 10
-7.16844856E+01
 20
2.22800987E+02
  0
VERTEX
  8
0
 62
4
 10
-7.14175610E+01
 20
2.22725404E+02
  0
VERTEX
  8
0
 62
4
 10
-7.11303346E+01
 20
2.22657298E+02
  0
VERTEX
  8
0
 62
4
 10
-7.08249924E+01
 20
2.22597186E+02
  0
VERTEX
  8
0
 62
4
 10
-7.05038582E+01
 20
2.22545527E+02
  0
VERTEX
  8
0
 62
4
 10
-7.01693760E+01
 20
2.22502714E+02
  0
VERTEX
  8
0
 62
4
 10
-6.98240914E+01
 20
2.22469072E+02
  0
VERTEX
  8
0
 62
4
 10
-6.94706323E+01
 20
2.22444857E+02
  0
VERTEX
  8
0
 62
4
 10
-6.91116887E+01
 20
2.22430254E+02
  0
VERTEX
  8
0
 62
4
 10
-6.87499924E+01
 20
2.22425375E+02
  0
VERTEX
  8
0
 62
4
 10
-6.83882961E+01
 20
2.22430254E+02
  0
VERTEX
  8
0
 62
4
 10
-6.80293525E+01
 20
2.22444857E+02
  0
VERTEX
  8
0
 62
4
 10
-6.76758934E+01
 20
2.22469072E+02
  0
VERTEX
  8
0
 62
4
 10
-6.73306088E+01
 20
2.22502714E+02
  0
VERTEX
  8
0
 62
4
 10
-6.69961266E+01
 20
2.22545527E+02
  0
VERTEX
  8
0
 62
4
 10
-6.66749924E+01
 20
2.22597186E+02
  0
VERTEX
  8
0
 62
4
 10
-6.63696502E+01
 20
2.22657298E+02
  0
VERTEX
  8
0
 62
4
 10
-6.60824238E+01
 20
2.22725404E+02
  0
VERTEX
  8
0
 62
4
 10
-6.58154993E+01
 20
2.22800987E+02
  0
VERTEX
  8
0
 62
4
 10
-6.55709080E+01
 20
2.22883471E+02
  0
VERTEX
  8
0
 62
4
 10
-6.53505114E+01
 20
2.22972229E+02
  0
VERTEX
  8
0
 62
4
 10
-6.51559870E+01
 20
2.23066585E+02
  0
VERTEX
  8
0
 62
4
 10
-6.49888151E+01
 20
2.23165821E+02
  0
VERTEX
  8
0
 62
4
 10
-6.48502680E+01
 20
2.23269181E+02
  0
VERTEX
  8
0
 62
4
 10
-6.47414002E+01
 20
2.23375880E+02
  0
VERTEX
  8
0
 62
4
 10
-6.46630402E+01
 20
2.23485105E+02
  0
VERTEX
  8
0
 62
4
 10
-6.46157844E+01
 20
2.23596025E+02
  0
VERTEX
  8
0
 62
4
 10
-6.45999924E+01
 20
2.23707795E+02
  0
VERTEX
  8
0
 62
4
 10
-6.46157844E+01
 20
2.23819565E+02
  0
VERTEX
  8
0
 62
4
 10
-6.46630402E+01
 20
2.23930485E+02
  0
VERTEX
  8
0
 62
4
 10
-6.47414002E+01
 20
2.24039710E+02
  0
VERTEX
  8
0
 62
4
 10
-6.48502680E+01
 20
2.24146409E+02
  0
VERTEX
  8
0
 62
4
 10
-6.49888151E+01
 20
2.24249769E+02
  0
VERTEX
  8
0
 62
4
 10
-6.51559870E+01
 20
2.24349005E+02
  0
VERTEX
  8
0
 62
4
 10
-6.53505114E+01
 20
2.24443361E+02
  0
VERTEX
  8
0
 62
4
 10
-6.55709080E+01
 20
2.24532119E+02
  0
VERTEX
  8
0
 62
4
 10
-6.58154993E+01
 20
2.24614603E+02
  0
VERTEX
  8
0
 62
4
 10
-6.60824238E+01
 20
2.24690186E+02
  0
VERTEX
  8
0
 62
4
 10
-6.63696502E+01
 20
2.24758292E+02
  0
VERTEX
  8
0
 62
4
 10
-6.66749924E+01
 20
2.24818404E+02
  0
VERTEX
  8
0
 62
4
 10
-6.69961266E+01
 20
2.24870063E+02
  0
VERTEX
  8
0
 62
4
 10
-6.73306088E+01
 20
2.24912876E+02
  0
VERTEX
  8
0
 62
4
 10
-6.76758934E+01
 20
2.24946518E+02
  0
VERTEX
  8
0
 62
4
 10
-6.80293525E+01
 20
2.24970733E+02
  0
VERTEX
  8
0
 62
4
 10
-6.83882961E+01
 20
2.24985336E+02
  0
VERTEX
  8
0
 62
4
 10
-6.87499924E+01
 20
2.24990216E+02
  0
VERTEX
  8
0
 62
4
 10
-6.91116887E+01
 20
2.24985336E+02
  0
VERTEX
  8
0
 62
4
 10
-6.94706323E+01
 20
2.24970733E+02
  0
VERTEX
  8
0
 62
4
 10
-6.98240914E+01
 20
2.24946518E+02
  0
VERTEX
  8
0
 62
4
 10
-7.01693760E+01
 20
2.24912876E+02
  0
VERTEX
  8
0
 62
4
 10
-7.05038582E+01
 20
2.24870063E+02
  0
VERTEX
  8
0
 62
4
 10
-7.08249924E+01
 20
2.24818404E+02
  0
VERTEX
  8
0
 62
4
 10
-7.11303346E+01
 20
2.24758292E+02
  0
VERTEX
  8
0
 62
4
 10
-7.14175610E+01
 20
2.24690186E+02
  0
VERTEX
  8
0
 62
4
 10
-7.16844856E+01
 20
2.24614603E+02
  0
VERTEX
  8
0
 62
4
 10
-7.19290769E+01
 20
2.24532119E+02
  0
VERTEX
  8
0
 62
4
 10
-7.21494734E+01
 20
2.24443361E+02
  0
VERTEX
  8
0
 62
4
 10
-7.23439978E+01
 20
2.24349005E+02
  0
VERTEX
  8
0
 62
4
 10
-7.25111697E+01
 20
2.24249769E+02
  0
VERTEX
  8
0
 62
4
 10
-7.26497168E+01
 20
2.24146409E+02
  0
VERTEX
  8
0
 62
4
 10
-7.27585846E+01
 20
2.24039710E+02
  0
VERTEX
  8
0
 62
4
 10
-7.28369446E+01
 20
2.23930485E+02
  0
VERTEX
  8
0
 62
4
 10
-7.28842004E+01
 20
2.23819565E+02
  0
VERTEX
  8
0
 62
4
 10
-7.28999924E+01
 20
2.23707795E+02
  0
SEQEND
  8
0
  0
LINE
  8
0
 62
4
 10
-7.27499924E+01
 20
2.25723325E+02
 11
-7.27499924E+01
 21
2.25743056E+02
  0
POLYLINE
  8
0
 62
4
 66
1
  0
VERTEX
  8
0
 62
4
 10
-6.50499924E+01
 20
2.26212721E+02
  0
VERTEX
  8
0
 62
4
 10
-6.51993004E+01
 20
2.26312234E+02
  0
VERTEX
  8
0
 62
4
 10
-6.53765691E+01
 20
2.26407264E+02
  0
VERTEX
  8
0
 62
4
 10
-6.55804025E+01
 20
2.26497064E+02
  0
VERTEX
  8
0
 62
4
 10
-6.58091956E+01
 20
2.26580926E+02
  0
VERTEX
  8
0
 62
4
 10
-6.60611466E+01
 20
2.26658190E+02
  0
VERTEX
  8
0
 62
4
 10
-6.63342716E+01
 20
2.26728248E+02
  0
VERTEX
  8
0
 62
4
 10
-6.66264197E+01
 20
2.26790548E+02
  0
VERTEX
  8
0
 62
4
 10
-6.69352903E+01
 20
2.26844599E+02
  0
VERTEX
  8
0
 62
4
 10
-6.72584512E+01
 20
2.26889976E+02
  0
VERTEX
  8
0
 62
4
 10
-6.75933576E+01
 20
2.26926321E+02
  0
VERTEX
  8
0
 62
4
 10
-6.79373722E+01
 20
2.26953348E+02
  0
VERTEX
  8
0
 62
4
 10
-6.82877859E+01
 20
2.26970844E+02
  0
VERTEX
  8
0
 62
4
 10
-6.86418393E+01
 20
2.26978672E+02
  0
VERTEX
  8
0
 62
4
 10
-6.89967445E+01
 20
2.26976770E+02
  0
VERTEX
  8
0
 62
4
 10
-6.93497065E+01
 20
2.26965153E+02
  0
VERTEX
  8
0
 62
4
 10
-6.96979460E+01
 20
2.26943911E+02
  0
VERTEX
  8
0
 62
4
 10
-7.00387205E+01
 20
2.26913214E+02
  0
VERTEX
  8
0
 62
4
 10
-7.03693467E+01
 20
2.26873302E+02
  0
VERTEX
  8
0
 62
4
 10
-7.06872210E+01
 20
2.26824489E+02
  0
VERTEX
  8
0
 62
4
 10
-7.09898401E+01
 20
2.26767161E+02
  0
VERTEX
  8
0
 62
4
 10
-7.12748210E+01
 20
2.26701768E+02
  0
VERTEX
  8
0
 62
4
 10
-7.15399196E+01
 20
2.26628825E+02
  0
VERTEX
  8
0
 62
4
 10
-7.17830483E+01
 20
2.26548908E+02
  0
VERTEX
  8
0
 62
4
 10
-7.20022926E+01
 20
2.26462644E+02
  0
VERTEX
  8
0
 62
4
 10
-7.21959258E+01
 20
2.26370714E+02
  0
VERTEX
  8
0
 62
4
 10
-7.23624233E+01
 20
2.26273841E+02
  0
VERTEX
  8
0
 62
4
 10
-7.25004739E+01
 20
2.26172788E+02
  0
VERTEX
  8
0
 62
4
 10
-7.26089906E+01
 20
2.26068352E+02
  0
VERTEX
  8
0
 62
4
 10
-7.26871186E+01
 20
2.25961353E+02
  0
VERTEX
  8
0
 62
4
 10
-7.27342430E+01
 20
2.25852636E+02
  0
VERTEX
  8
0
 62
4
 10
-7.27499924E+01
 20
2.25743056E+02
  0
SEQEND
  8
0
  0
ARC
  8
0
 62
4
 10
-7.29376144E+01
 20
2.36696293E+02
 40
1.43299558E+01
 50
2.79721944E+02
 51
2.94556489E+02
  0
ARC
  8
0
 62
4
 10
-6.45623689E+01
 20
2.36696298E+02
 40
1.43299613E+01
 50
2.45443514E+02
 51
2.60278053E+02
  0
LINE
  8
0
 62
4
 10
-6.50499924E+01
 20
2.25873559E+02
 11
-6.50499924E+01
 21
2.26824616E+02
  0
POLYLINE
  8
0
 62
4
 66
1
  0
VERTEX
  8
0
 62
4
 10
-5.74499924E+01
 20
2.26824616E+02
  0
VERTEX
  8
0
 62
4
 10
-5.74652901E+01
 20
2.26929876E+02
  0
VERTEX
  8
0
 62
4
 10
-5.75110600E+01
 20
2.27034289E+02
  0
VERTEX
  8
0
 62
4
 10
-5.75869335E+01
 20
2.27137014E+02
  0
VERTEX
  8
0
 62
4
 10
-5.76922999E+01
 20
2.27237223E+02
  0
VERTEX
  8
0
 62
4
 10
-5.78263107E+01
 20
2.27334110E+02
  0
VERTEX
  8
0
 62
4
 10
-5.79878870E+01
 20
2.27426895E+02
  0
VERTEX
  8
0
 62
4
 10
-5.81757278E+01
 20
2.27514831E+02
  0
VERTEX
  8
0
 62
4
 10
-5.83883208E+01
 20
2.27597210E+02
  0
VERTEX
  8
0
 62
4
 10
-5.86239543E+01
 20
2.27673368E+02
  0
VERTEX
  8
0
 62
4
 10
-5.88807311E+01
 20
2.27742693E+02
  0
VERTEX
  8
0
 62
4
 10
-5.91565839E+01
 20
2.27804626E+02
  0
VERTEX
  8
0
 62
4
 10
-5.94492915E+01
 20
2.27858668E+02
  0
VERTEX
  8
0
 62
4
 10
-5.97564973E+01
 20
2.27904385E+02
  0
VERTEX
  8
0
 62
4
 10
-6.00757278E+01
 20
2.27941408E+02
  0
VERTEX
  8
0
 62
4
 10
-6.04044128E+01
 20
2.27969439E+02
  0
VERTEX
  8
0
 62
4
 10
-6.07399060E+01
 20
2.27988253E+02
  0
VERTEX
  8
0
 62
4
 10
-6.10795060E+01
 20
2.27997698E+02
  0
VERTEX
  8
0
 62
4
 10
-6.14204787E+01
 20
2.27997698E+02
  0
VERTEX
  8
0
 62
4
 10
-6.17600788E+01
 20
2.27988253E+02
  0
VERTEX
  8
0
 62
4
 10
-6.20955719E+01
 20
2.27969439E+02
  0
VERTEX
  8
0
 62
4
 10
-6.24242570E+01
 20
2.27941408E+02
  0
VERTEX
  8
0
 62
4
 10
-6.27434875E+01
 20
2.27904385E+02
  0
VERTEX
  8
0
 62
4
 10
-6.30506933E+01
 20
2.27858668E+02
  0
VERTEX
  8
0
 62
4
 10
-6.33434009E+01
 20
2.27804626E+02
  0
VERTEX
  8
0
 62
4
 10
-6.36192536E+01
 20
2.27742693E+02
  0
VERTEX
  8
0
 62
4
 10
-6.38760304E+01
 20
2.27673368E+02
  0
VERTEX
  8
0
 62
4
 10
-6.41116640E+01
 20
2.27597210E+02
  0
VERTEX
  8
0
 62
4
 10
-6.43242570E+01
 20
2.27514831E+02
  0
VERTEX
  8
0
 62
4
 10
-6.45120978E+01
 20
2.27426895E+02
  0
VERTEX
  8
0
 62
4
 10
-6.46736741E+01
 20
2.27334110E+02
  0
VERTEX
  8
0
 62
4
 10
-6.48076849E+01
 20
2.27237223E+02
  0
VERTEX
  8
0
 62
4
 10
-6.49130513E+01
 20
2.27137014E+02
  0
VERTEX
  8
0
 62
4
 10
-6.49889248E+01
 20
2.27034289E+02
  0
VERTEX
  8
0
 62
4
 10
-6.50346947E+01
 20
2.26929876E+02
  0
VERTEX
  8
0
 62
4
 10
-6.50499924E+01
 20
2.26824616E+02
  0
SEQEND
  8
0
  0
POLYLINE
  8
0
 62
4
 66
1
  0
VERTEX
  8
0
 62
4
 10
-5.78499924E+01
 20
2.25349140E+02
  0
VERTEX
  8
0
 62
4
 10
-5.77134107E+01
 20
2.25443971E+02
  0
VERTEX
  8
0
 62
4
 10
-5.76044629E+01
 20
2.25542159E+02
  0
VERTEX
  8
0
 62
4
 10
-5.75240001E+01
 20
2.25642936E+02
  0
VERTEX
  8
0
 62
4
 10
-5.74726511E+01
 20
2.25745515E+02
  0
VERTEX
  8
0
 62
4
 10
-5.74508171E+01
 20
2.25849095E+02
  0
VERTEX
  8
0
 62
4
 10
-5.74586688E+01
 20
2.25952866E+02
  0
VERTEX
  8
0
 62
4
 10
-5.74961448E+01
 20
2.26056017E+02
  0
VERTEX
  8
0
 62
4
 10
-5.75629522E+01
 20
2.26157743E+02
  0
VERTEX
  8
0
 62
4
 10
-5.76585690E+01
 20
2.26257248E+02
  0
VERTEX
  8
0
 62
4
 10
-5.77822482E+01
 20
2.26353755E+02
  0
VERTEX
  8
0
 62
4
 10
-5.79330233E+01
 20
2.26446510E+02
  0
VERTEX
  8
0
 62
4
 10
-5.81097162E+01
 20
2.26534788E+02
  0
VERTEX
  8
0
 62
4
 10
-5.83109462E+01
 20
2.26617899E+02
  0
VERTEX
  8
0
 62
4
 10
-5.85351412E+01
 20
2.26695195E+02
  0
VERTEX
  8
0
 62
4
 10
-5.87805491E+01
 20
2.26766070E+02
  0
VERTEX
  8
0
 62
4
 10
-5.90452526E+01
 20
2.26829971E+02
  0
VERTEX
  8
0
 62
4
 10
-5.93271832E+01
 20
2.26886400E+02
  0
VERTEX
  8
0
 62
4
 10
-5.96241381E+01
 20
2.26934914E+02
  0
VERTEX
  8
0
 62
4
 10
-5.99337970E+01
 20
2.26975135E+02
  0
VERTEX
  8
0
 62
4
 10
-6.02537402E+01
 20
2.27006749E+02
  0
VERTEX
  8
0
 62
4
 10
-6.05814678E+01
 20
2.27029509E+02
  0
VERTEX
  8
0
 62
4
 10
-6.09144191E+01
 20
2.27043236E+02
  0
VERTEX
  8
0
 62
4
 10
-6.12499924E+01
 20
2.27047824E+02
  0
VERTEX
  8
0
 62
4
 10
-6.15855658E+01
 20
2.27043236E+02
  0
VERTEX
  8
0
 62
4
 10
-6.19185170E+01
 20
2.27029509E+02
  0
VERTEX
  8
0
 62
4
 10
-6.22462447E+01
 20
2.27006749E+02
  0
VERTEX
  8
0
 62
4
 10
-6.25661879E+01
 20
2.26975135E+02
  0
VERTEX
  8
0
 62
4
 10
-6.28758467E+01
 20
2.26934914E+02
  0
VERTEX
  8
0
 62
4
 10
-6.31728016E+01
 20
2.26886400E+02
  0
VERTEX
  8
0
 62
4
 10
-6.34547322E+01
 20
2.26829971E+02
  0
VERTEX
  8
0
 62
4
 10
-6.37194357E+01
 20
2.26766070E+02
  0
VERTEX
  8
0
 62
4
 10
-6.39648437E+01
 20
2.26695195E+02
  0
VERTEX
  8
0
 62
4
 10
-6.41890386E+01
 20
2.26617899E+02
  0
VERTEX
  8
0
 62
4
 10
-6.43902687E+01
 20
2.26534788E+02
  0
VERTEX
  8
0
 62
4
 10
-6.45669616E+01
 20
2.26446510E+02
  0
VERTEX
  8
0
 62
4
 10
-6.47177366E+01
 20
2.26353755E+02
  0
VERTEX
  8
0
 62
4
 10
-6.48414158E+01
 20
2.26257248E+02
  0
VERTEX
  8
0
 62
4
 10
-6.49370326E+01
 20
2.26157743E+02
  0
VERTEX
  8
0
 62
4
 10
-6.50038400E+01
 20
2.26056017E+02
  0
VERTEX
  8
0
 62
4
 10
-6.50413160E+01
 20
2.25952866E+02
  0
VERTEX
  8
0
 62
4
 10
-6.50491677E+01
 20
2.25849095E+02
  0
VERTEX
  8
0
 62
4
 10
-6.50273337E+01
 20
2.25745515E+02
  0
VERTEX
  8
0
 62
4
 10
-6.49759847E+01
 20
2.25642936E+02
  0
VERTEX
  8
0
 62
4
 10
-6.48955219E+01
 20
2.25542159E+02
  0
VERTEX
  8
0
 62
4
 10
-6.47865741E+01
 20
2.25443971E+02
  0
VERTEX
  8
0
 62
4
 10
-6.46499924E+01
 20
2.25349140E+02
  0
SEQEND
  8
0
  0
LINE
  8
0
 62
4
 10
-5.74499924E+01
 20
2.25873559E+02
 11
-5.74499924E+01
 21
2.26824616E+02
  0
LINE
  8
0
 62
4
 10
-6.46499924E+01
 20
2.24326248E+02
 11
-6.46499924E+01
 21
2.25873559E+02
  0
POLYLINE
  8
0
 62
4
 66
1
  0
VERTEX
  8
0
 62
4
 10
-5.78499924E+01
 20
2.25873559E+02
  0
VERTEX
  8
0
 62
4
 10
-5.78636798E+01
 20
2.25967739E+02
  0
VERTEX
  8
0
 62
4
 10
-5.79046318E+01
 20
2.26061161E+02
  0
VERTEX
  8
0
 62
4
 10
-5.79725187E+01
 20
2.26153073E+02
  0
VERTEX
  8
0
 62
4
 10
-5.80667938E+01
 20
2.26242734E+02
  0
VERTEX
  8
0
 62
4
 10
-5.81866982E+01
 20
2.26329422E+02
  0
VERTEX
  8
0
 62
4
 10
-5.83312665E+01
 20
2.26412441E+02
  0
VERTEX
  8
0
 62
4
 10
-5.84993346E+01
 20
2.26491120E+02
  0
VERTEX
  8
0
 62
4
 10
-5.86895494E+01
 20
2.26564827E+02
  0
VERTEX
  8
0
 62
4
 10
-5.89003794E+01
 20
2.26632969E+02
  0
VERTEX
  8
0
 62
4
 10
-5.91301271E+01
 20
2.26694996E+02
  0
VERTEX
  8
0
 62
4
 10
-5.93769426E+01
 20
2.26750410E+02
  0
VERTEX
  8
0
 62
4
 10
-5.96388389E+01
 20
2.26798764E+02
  0
VERTEX
  8
0
 62
4
 10
-5.99137073E+01
 20
2.26839668E+02
  0
VERTEX
  8
0
 62
4
 10
-6.01993346E+01
 20
2.26872794E+02
  0
VERTEX
  8
0
 62
4
 10
-6.04934212E+01
 20
2.26897875E+02
  0
VERTEX
  8
0
 62
4
 10
-6.07935993E+01
 20
2.26914708E+02
  0
VERTEX
  8
0
 62
4
 10
-6.10974520E+01
 20
2.26923159E+02
  0
VERTEX
  8
0
 62
4
 10
-6.14025328E+01
 20
2.26923159E+02
  0
VERTEX
  8
0
 62
4
 10
-6.17063855E+01
 20
2.26914708E+02
  0
VERTEX
  8
0
 62
4
 10
-6.20065636E+01
 20
2.26897875E+02
  0
VERTEX
  8
0
 62
4
 10
-6.23006502E+01
 20
2.26872794E+02
  0
VERTEX
  8
0
 62
4
 10
-6.25862775E+01
 20
2.26839668E+02
  0
VERTEX
  8
0
 62
4
 10
-6.28611458E+01
 20
2.26798764E+02
  0
VERTEX
  8
0
 62
4
 10
-6.31230421E+01
 20
2.26750410E+02
  0
VERTEX
  8
0
 62
4
 10
-6.33698577E+01
 20
2.26694996E+02
  0
VERTEX
  8
0
 62
4
 10
-6.35996054E+01
 20
2.26632969E+02
  0
VERTEX
  8
0
 62
4
 10
-6.38104354E+01
 20
2.26564827E+02
  0
VERTEX
  8
0
 62
4
 10
-6.40006502E+01
 20
2.26491120E+02
  0
VERTEX
  8
0
 62
4
 10
-6.41687183E+01
 20
2.26412441E+02
  0
VERTEX
  8
0
 62
4
 10
-6.43132865E+01
 20
2.26329422E+02
  0
VERTEX
  8
0
 62
4
 10
-6.44331910E+01
 20
2.26242734E+02
  0
VERTEX
  8
0
 62
4
 10
-6.45274661E+01
 20
2.26153073E+02
  0
VERTEX
  8
0
 62
4
 10
-6.45953530E+01
 20
2.26061161E+02
  0
VERTEX
  8
0
 62
4
 10
-6.46363050E+01
 20
2.25967739E+02
  0
VERTEX
  8
0
 62
4
 10
-6.46499924E+01
 20
2.25873559E+02
  0
SEQEND
  8
0
  0
LINE
  8
0
 62
4
 10
-5.78499924E+01
 20
2.24326248E+02
 11
-5.78499924E+01
 21
2.25873559E+02
  0
POLYLINE
  8
0
 62
4
 66
1
  0
VERTEX
  8
0
 62
4
 10
-5.78499924E+01
 20
2.24326254E+02
  0
VERTEX
  8
0
 62
4
 10
-5.78636816E+01
 20
2.24420434E+02
  0
VERTEX
  8
0
 62
4
 10
-5.79046354E+01
 20
2.24513856E+02
  0
VERTEX
  8
0
 62
4
 10
-5.79725241E+01
 20
2.24605768E+02
  0
VERTEX
  8
0
 62
4
 10
-5.80668010E+01
 20
2.24695429E+02
  0
VERTEX
  8
0
 62
4
 10
-5.81867071E+01
 20
2.24782117E+02
  0
VERTEX
  8
0
 62
4
 10
-5.83312770E+01
 20
2.24865135E+02
  0
VERTEX
  8
0
 62
4
 10
-5.84993466E+01
 20
2.24943814E+02
  0
VERTEX
  8
0
 62
4
 10
-5.86895628E+01
 20
2.25017521E+02
  0
VERTEX
  8
0
 62
4
 10
-5.89003941E+01
 20
2.25085662E+02
  0
VERTEX
  8
0
 62
4
 10
-5.91301430E+01
 20
2.25147689E+02
  0
VERTEX
  8
0
 62
4
 10
-5.93769597E+01
 20
2.25203102E+02
  0
VERTEX
  8
0
 62
4
 10
-5.96388569E+01
 20
2.25251456E+02
  0
VERTEX
  8
0
 62
4
 10
-5.99137260E+01
 20
2.25292359E+02
  0
VERTEX
  8
0
 62
4
 10
-6.01993540E+01
 20
2.25325485E+02
  0
VERTEX
  8
0
 62
4
 10
-6.04934411E+01
 20
2.25350565E+02
  0
VERTEX
  8
0
 62
4
 10
-6.07936195E+01
 20
2.25367398E+02
  0
VERTEX
  8
0
 62
4
 10
-6.10974723E+01
 20
2.25375848E+02
  0
VERTEX
  8
0
 62
4
 10
-6.14025532E+01
 20
2.25375848E+02
  0
VERTEX
  8
0
 62
4
 10
-6.17064057E+01
 20
2.25367396E+02
  0
VERTEX
  8
0
 62
4
 10
-6.20065834E+01
 20
2.25350562E+02
  0
VERTEX
  8
0
 62
4
 10
-6.23006696E+01
 20
2.25325481E+02
  0
VERTEX
  8
0
 62
4
 10
-6.25862962E+01
 20
2.25292355E+02
  0
VERTEX
  8
0
 62
4
 10
-6.28611638E+01
 20
2.25251450E+02
  0
VERTEX
  8
0
 62
4
 10
-6.31230591E+01
 20
2.25203095E+02
  0
VERTEX
  8
0
 62
4
 10
-6.33698737E+01
 20
2.25147681E+02
  0
VERTEX
  8
0
 62
4
 10
-6.35996201E+01
 20
2.25085654E+02
  0
VERTEX
  8
0
 62
4
 10
-6.38104488E+01
 20
2.25017512E+02
  0
VERTEX
  8
0
 62
4
 10
-6.40006622E+01
 20
2.24943804E+02
  0
VERTEX
  8
0
 62
4
 10
-6.41687287E+01
 20
2.24865124E+02
  0
VERTEX
  8
0
 62
4
 10
-6.43132954E+01
 20
2.24782106E+02
  0
VERTEX
  8
0
 62
4
 10
-6.44331981E+01
 20
2.24695417E+02
  0
VERTEX
  8
0
 62
4
 10
-6.45274715E+01
 20
2.24605756E+02
  0
VERTEX
  8
0
 62
4
 10
-6.45953566E+01
 20
2.24513844E+02
  0
VERTEX
  8
0
 62
4
 10
-6.46363068E+01
 20
2.24420422E+02
  0
VERTEX
  8
0
 62
4
 10
-6.46499924E+01
 20
2.24326242E+02
  0
SEQEND
  8
0
  0
ARC
  8
0
 62
4
 10
-6.54104923E+01
 20
2.37180664E+02
 40
1.42127873E+01
 50
2.79930719E+02
 51
2.94652135E+02
  0
ARC
  8
0
 62
4
 10
-5.70894922E+01
 20
2.37180665E+02
 40
1.42127883E+01
 50
2.45347865E+02
 51
2.60069281E+02
  0
LINE
  8
0
  6
CENTER
 62
6
 10
-7.87499924E+01
 20
2.26824616E+02
 11
-7.37499924E+01
 21
2.26824616E+02
  0
LINE
  8
0
  6
CENTER
 62
6
 10
-6.87499924E+01
 20
2.28243056E+02
 11
-6.87499924E+01
 21
2.23243056E+02
  0
LINE
  8
0
  6
CENTER
 62
6
 10
-7.12499924E+01
 20
2.25743056E+02
 11
-6.62499924E+01
 21
2.25743056E+02
  0
LINE
  8
0
  6
CENTER
 62
6
 10
-6.12499924E+01
 20
2.29324616E+02
 11
-6.12499924E+01
 21
2.24324616E+02
  0
LINE
  8
0
  6
CENTER
 62
6
 10
-6.37499924E+01
 20
2.26824616E+02
 11
-5.87499924E+01
 21
2.26824616E+02
  0
LINE
  8
0
 62
4
 10
-6.48482248E+01
 20
2.23270920E+02
 11
-6.34904226E+01
 21
2.23270920E+02
  0
LINE
  8
0
 62
4
 10
-6.47053771E+01
 20
2.23420628E+02
 11
-6.40740822E+01
 21
2.23420628E+02
  0
LINE
  8
0
 62
4
 10
-5.78499924E+01
 20
2.25001415E+02
 11
-5.37499924E+01
 21
2.25001415E+02
  0
LINE
  8
0
 62
4
 10
-5.90095621E+01
 20
2.23270920E+02
 11
-5.37499924E+01
 21
2.23270920E+02
  0
LINE
  8
0
  6
CENTER
 62
6
 10
1.02499924E+01
 20
2.00798155E+02
 11
-3.67500076E+01
 21
2.00798155E+02
  0
LINE
  8
0
 62
6
 10
-3.30179568E+01
 20
2.03798155E+02
 11
-3.64820584E+01
 21
1.97798155E+02
  0
LINE
  8
0
 62
4
 10
-2.47500076E+01
 20
2.02298155E+02
 11
-3.38839822E+01
 21
2.02298155E+02
  0
LINE
  8
0
 62
4
 10
-2.47500076E+01
 20
1.99298155E+02
 11
-3.56160330E+01
 21
1.99298155E+02
  0
LINE
  8
0
 62
4
 10
-1.52500077E+01
 20
1.75261668E+02
 11
-1.52500077E+01
 21
1.76101587E+02
  0
LINE
  8
0
 62
4
 10
-1.12500077E+01
 20
1.75261668E+02
 11
-1.12500077E+01
 21
1.76101587E+02
  0
LINE
  8
0
 62
6
 10
-1.47500077E+01
 20
1.74852877E+02
 11
-1.47500077E+01
 21
1.76101587E+02
  0
LINE
  8
0
 62
6
 10
-1.17500077E+01
 20
1.74852877E+02
 11
-1.17500077E+01
 21
1.76101587E+02
  0
LINE
  8
0
  6
CENTER
 62
6
 10
-2.25000763E+00
 20
1.97414314E+02
 11
-2.25000763E+00
 21
2.02414314E+02
  0
LINE
  8
0
  6
CENTER
 62
6
 10
-1.32500077E+01
 20
1.70703855E+02
 11
-1.32500077E+01
 21
1.80969434E+02
  0
LINE
  8
0
  6
CENTER
 62
6
 10
-2.12500077E+01
 20
1.70703855E+02
 11
-2.12500077E+01
 21
1.80969434E+02
  0
LINE
  8
0
 62
4
 10
5.24999237E+00
 20
1.88727855E+02
 11
5.24999237E+00
 21
2.01737514E+02
  0
LINE
  8
0
 62
4
 10
-2.47500076E+01
 20
1.76101587E+02
 11
-2.47500076E+01
 21
2.03468009E+02
  0
LINE
  8
0
 62
4
 10
-9.75000763E+00
 20
1.76101587E+02
 11
-9.75000763E+00
 21
1.88727855E+02
  0
LINE
  8
0
 62
4
 10
6.74999237E+00
 20
1.99369516E+02
 11
6.74999237E+00
 21
2.02223583E+02
  0
LINE
  8
0
 62
4
 10
-9.75000763E+00
 20
1.76101587E+02
 11
-2.47500076E+01
 21
1.76101587E+02
  0
LINE
  8
0
 62
4
 10
-9.75000763E+00
 20
1.84448101E+02
 11
-2.47500076E+01
 21
1.84448101E+02
  0
LINE
  8
0
 62
4
 10
5.24999238E+00
 20
1.88727855E+02
 11
-2.47500076E+01
 21
1.88727855E+02
  0
LINE
  8
0
 62
4
 10
5.24999238E+00
 20
1.98523737E+02
 11
-2.47500076E+01
 21
1.98523737E+02
  0
LINE
  8
0
 62
4
 10
5.24999238E+00
 20
2.03468009E+02
 11
-5.84824005E+00
 21
2.03468009E+02
  0
POLYLINE
  8
0
 62
4
 66
1
  0
VERTEX
  8
0
 62
4
 10
-1.52500077E+01
 20
1.75261668E+02
  0
VERTEX
  8
0
 62
4
 10
-1.52419563E+01
 20
1.75206268E+02
  0
VERTEX
  8
0
 62
4
 10
-1.52178669E+01
 20
1.75151314E+02
  0
VERTEX
  8
0
 62
4
 10
-1.51779334E+01
 20
1.75097248E+02
  0
VERTEX
  8
0
 62
4
 10
-1.51224774E+01
 20
1.75044506E+02
  0
VERTEX
  8
0
 62
4
 10
-1.50519454E+01
 20
1.74993513E+02
  0
VERTEX
  8
0
 62
4
 10
-1.49669053E+01
 20
1.74944679E+02
  0
VERTEX
  8
0
 62
4
 10
-1.48680417E+01
 20
1.74898397E+02
  0
VERTEX
  8
0
 62
4
 10
-1.47561506E+01
 20
1.74855040E+02
  0
VERTEX
  8
0
 62
4
 10
-1.46321330E+01
 20
1.74814956E+02
  0
VERTEX
  8
0
 62
4
 10
-1.44969873E+01
 20
1.74778470E+02
  0
VERTEX
  8
0
 62
4
 10
-1.43518017E+01
 20
1.74745873E+02
  0
VERTEX
  8
0
 62
4
 10
-1.41977450E+01
 20
1.74717430E+02
  0
VERTEX
  8
0
 62
4
 10
-1.40360578E+01
 20
1.74693369E+02
  0
VERTEX
  8
0
 62
4
 10
-1.38680417E+01
 20
1.74673883E+02
  0
VERTEX
  8
0
 62
4
 10
-1.36950496E+01
 20
1.74659129E+02
  0
VERTEX
  8
0
 62
4
 10
-1.35184742E+01
 20
1.74649227E+02
  0
VERTEX
  8
0
 62
4
 10
-1.33397374E+01
 20
1.74644256E+02
  0
VERTEX
  8
0
 62
4
 10
-1.31602781E+01
 20
1.74644256E+02
  0
VERTEX
  8
0
 62
4
 10
-1.29815412E+01
 20
1.74649227E+02
  0
VERTEX
  8
0
 62
4
 10
-1.28049658E+01
 20
1.74659129E+02
  0
VERTEX
  8
0
 62
4
 10
-1.26319737E+01
 20
1.74673883E+02
  0
VERTEX
  8
0
 62
4
 10
-1.24639576E+01
 20
1.74693369E+02
  0
VERTEX
  8
0
 62
4
 10
-1.23022704E+01
 20
1.74717430E+02
  0
VERTEX
  8
0
 62
4
 10
-1.21482137E+01
 20
1.74745873E+02
  0
VERTEX
  8
0
 62
4
 10
-1.20030281E+01
 20
1.74778470E+02
  0
VERTEX
  8
0
 62
4
 10
-1.18678824E+01
 20
1.74814956E+02
  0
VERTEX
  8
0
 62
4
 10
-1.17438648E+01
 20
1.74855040E+02
  0
VERTEX
  8
0
 62
4
 10
-1.16319737E+01
 20
1.74898397E+02
  0
VERTEX
  8
0
 62
4
 10
-1.15331101E+01
 20
1.74944679E+02
  0
VERTEX
  8
0
 62
4
 10
-1.14480700E+01
 20
1.74993513E+02
  0
VERTEX
  8
0
 62
4
 10
-1.13775380E+01
 20
1.75044506E+02
  0
VERTEX
  8
0
 62
4
 10
-1.13220820E+01
 20
1.75097248E+02
  0
VERTEX
  8
0
 62
4
 10
-1.12821485E+01
 20
1.75151314E+02
  0
VERTEX
  8
0
 62
4
 10
-1.12580591E+01
 20
1.75206268E+02
  0
VERTEX
  8
0
 62
4
 10
-1.12500077E+01
 20
1.75261668E+02
  0
SEQEND
  8
0
  0
LINE
  8
0
 62
4
 10
-2.32500077E+01
 20
1.75261668E+02
 11
-2.32500077E+01
 21
1.76101587E+02
  0
LINE
  8
0
 62
6
 10
-2.27500077E+01
 20
1.74852877E+02
 11
-2.27500077E+01
 21
1.76101587E+02
  0
POLYLINE
  8
0
 62
4
 66
1
  0
VERTEX
  8
0
 62
4
 10
-2.32500077E+01
 20
1.75261668E+02
  0
VERTEX
  8
0
 62
4
 10
-2.32419563E+01
 20
1.75206268E+02
  0
VERTEX
  8
0
 62
4
 10
-2.32178669E+01
 20
1.75151314E+02
  0
VERTEX
  8
0
 62
4
 10
-2.31779334E+01
 20
1.75097248E+02
  0
VERTEX
  8
0
 62
4
 10
-2.31224774E+01
 20
1.75044506E+02
  0
VERTEX
  8
0
 62
4
 10
-2.30519454E+01
 20
1.74993513E+02
  0
VERTEX
  8
0
 62
4
 10
-2.29669053E+01
 20
1.74944679E+02
  0
VERTEX
  8
0
 62
4
 10
-2.28680417E+01
 20
1.74898397E+02
  0
VERTEX
  8
0
 62
4
 10
-2.27561506E+01
 20
1.74855040E+02
  0
VERTEX
  8
0
 62
4
 10
-2.26321330E+01
 20
1.74814956E+02
  0
VERTEX
  8
0
 62
4
 10
-2.24969873E+01
 20
1.74778470E+02
  0
VERTEX
  8
0
 62
4
 10
-2.23518017E+01
 20
1.74745873E+02
  0
VERTEX
  8
0
 62
4
 10
-2.21977450E+01
 20
1.74717430E+02
  0
VERTEX
  8
0
 62
4
 10
-2.20360578E+01
 20
1.74693369E+02
  0
VERTEX
  8
0
 62
4
 10
-2.18680417E+01
 20
1.74673883E+02
  0
VERTEX
  8
0
 62
4
 10
-2.16950496E+01
 20
1.74659129E+02
  0
VERTEX
  8
0
 62
4
 10
-2.15184742E+01
 20
1.74649227E+02
  0
VERTEX
  8
0
 62
4
 10
-2.13397374E+01
 20
1.74644256E+02
  0
VERTEX
  8
0
 62
4
 10
-2.11602781E+01
 20
1.74644256E+02
  0
VERTEX
  8
0
 62
4
 10
-2.09815412E+01
 20
1.74649227E+02
  0
VERTEX
  8
0
 62
4
 10
-2.08049658E+01
 20
1.74659129E+02
  0
VERTEX
  8
0
 62
4
 10
-2.06319737E+01
 20
1.74673883E+02
  0
VERTEX
  8
0
 62
4
 10
-2.04639576E+01
 20
1.74693369E+02
  0
VERTEX
  8
0
 62
4
 10
-2.03022704E+01
 20
1.74717430E+02
  0
VERTEX
  8
0
 62
4
 10
-2.01482137E+01
 20
1.74745873E+02
  0
VERTEX
  8
0
 62
4
 10
-2.00030281E+01
 20
1.74778470E+02
  0
VERTEX
  8
0
 62
4
 10
-1.98678824E+01
 20
1.74814956E+02
  0
VERTEX
  8
0
 62
4
 10
-1.97438648E+01
 20
1.74855040E+02
  0
VERTEX
  8
0
 62
4
 10
-1.96319737E+01
 20
1.74898397E+02
  0
VERTEX
  8
0
 62
4
 10
-1.95331101E+01
 20
1.74944679E+02
  0
VERTEX
  8
0
 62
4
 10
-1.94480700E+01
 20
1.74993513E+02
  0
VERTEX
  8
0
 62
4
 10
-1.93775380E+01
 20
1.75044506E+02
  0
VERTEX
  8
0
 62
4
 10
-1.93220820E+01
 20
1.75097248E+02
  0
VERTEX
  8
0
 62
4
 10
-1.92821485E+01
 20
1.75151314E+02
  0
VERTEX
  8
0
 62
4
 10
-1.92580591E+01
 20
1.75206268E+02
  0
VERTEX
  8
0
 62
4
 10
-1.92500077E+01
 20
1.75261668E+02
  0
SEQEND
  8
0
  0
LINE
  8
0
 62
4
 10
-1.92500077E+01
 20
1.75261668E+02
 11
-1.92500077E+01
 21
1.76101587E+02
  0
LINE
  8
0
 62
6
 10
-1.97500077E+01
 20
1.74852877E+02
 11
-1.97500077E+01
 21
1.76101587E+02
  0
LINE
  8
0
 62
4
 10
5.24999237E+00
 20
1.98278008E+02
 11
6.74999237E+00
 21
1.99369516E+02
  0
LINE
  8
0
 62
4
 10
6.74999237E+00
 20
2.01523659E+02
 11
5.24999237E+00
 21
2.02082234E+02
  0
LINE
  8
0
 62
4
 10
5.24999237E+00
 20
2.03318302E+02
 11
6.74999237E+00
 21
2.02223583E+02
  0
LINE
  8
0
 62
4
 10
5.24999238E+00
 20
2.01737514E+02
 11
-5.60000761E+00
 21
2.01737514E+02
  0
LINE
  8
0
 62
4
 10
-2.03156057E+01
 20
2.03158992E+02
 11
-2.47500076E+01
 21
2.03158992E+02
  0
LINE
  8
0
 62
4
 10
5.24999238E+00
 20
2.02082234E+02
 11
-5.60000761E+00
 21
2.02082234E+02
  0
LINE
  8
0
 62
4
 10
5.24999238E+00
 20
2.03318302E+02
 11
-5.70539236E+00
 21
2.03318302E+02
  0
LINE
  8
0
 62
4
 10
5.24999237E+00
 20
2.01737514E+02
 11
5.24999237E+00
 21
2.03318302E+02
  0
LINE
  8
0
 62
4
 10
5.24999237E+00
 20
2.03318302E+02
 11
5.24999237E+00
 21
2.03468009E+02
  0
ARC
  8
0
 62
4
 10
-1.48500073E+01
 20
2.02412681E+02
 40
1.00000000E+00
 50
3.60000000E+02
 51
7.71724899E+01
  0
ARC
  8
0
 62
4
 10
-1.96500080E+01
 20
2.02412681E+02
 40
1.00000000E+00
 50
1.02827510E+02
 51
1.80000000E+02
  0
ARC
  8
0
 62
4
 10
-1.72500076E+01
 20
1.91872468E+02
 40
1.18100000E+01
 50
7.71724899E+01
 51
1.02827510E+02
  0
LINE
  8
0
 62
4
 10
-5.60000761E+00
 20
2.03031134E+02
 11
-5.60000761E+00
 21
2.01357275E+02
  0
LINE
  8
0
 62
4
 10
-1.39000076E+01
 20
2.03031134E+02
 11
-1.39000076E+01
 21
2.02724932E+02
  0
POLYLINE
  8
0
 62
4
 66
1
  0
VERTEX
  8
0
 62
4
 10
-1.34500076E+01
 20
2.00776479E+02
  0
VERTEX
  8
0
 62
4
 10
-1.32681926E+01
 20
2.00677095E+02
  0
VERTEX
  8
0
 62
4
 10
-1.30584954E+01
 20
2.00583102E+02
  0
VERTEX
  8
0
 62
4
 10
-1.28225778E+01
 20
2.00495244E+02
  0
VERTEX
  8
0
 62
4
 10
-1.25623094E+01
 20
2.00414218E+02
  0
VERTEX
  8
0
 62
4
 10
-1.22797531E+01
 20
2.00340666E+02
  0
VERTEX
  8
0
 62
4
 10
-1.19771480E+01
 20
2.00275171E+02
  0
VERTEX
  8
0
 62
4
 10
-1.16568925E+01
 20
2.00218251E+02
  0
VERTEX
  8
0
 62
4
 10
-1.13215245E+01
 20
2.00170359E+02
  0
VERTEX
  8
0
 62
4
 10
-1.09737020E+01
 20
2.00131873E+02
  0
VERTEX
  8
0
 62
4
 10
-1.06161815E+01
 20
2.00103098E+02
  0
VERTEX
  8
0
 62
4
 10
-1.02517963E+01
 20
2.00084263E+02
  0
VERTEX
  8
0
 62
4
 10
-9.88343443E+00
 20
2.00075517E+02
  0
VERTEX
  8
0
 62
4
 10
-9.51401511E+00
 20
2.00076930E+02
  0
VERTEX
  8
0
 62
4
 10
-9.14646606E+00
 20
2.00088489E+02
  0
VERTEX
  8
0
 62
4
 10
-8.78370020E+00
 20
2.00110103E+02
  0
VERTEX
  8
0
 62
4
 10
-8.42859250E+00
 20
2.00141602E+02
  0
VERTEX
  8
0
 62
4
 10
-8.08395727E+00
 20
2.00182735E+02
  0
VERTEX
  8
0
 62
4
 10
-7.75252579E+00
 20
2.00233176E+02
  0
VERTEX
  8
0
 62
4
 10
-7.43692473E+00
 20
2.00292527E+02
  0
VERTEX
  8
0
 62
4
 10
-7.13965528E+00
 20
2.00360315E+02
  0
VERTEX
  8
0
 62
4
 10
-6.86307337E+00
 20
2.00436005E+02
  0
VERTEX
  8
0
 62
4
 10
-6.60937094E+00
 20
2.00518996E+02
  0
VERTEX
  8
0
 62
4
 10
-6.38055865E+00
 20
2.00608630E+02
  0
VERTEX
  8
0
 62
4
 10
-6.17844986E+00
 20
2.00704197E+02
  0
VERTEX
  8
0
 62
4
 10
-6.00464634E+00
 20
2.00804941E+02
  0
VERTEX
  8
0
 62
4
 10
-5.86052550E+00
 20
2.00910061E+02
  0
VERTEX
  8
0
 62
4
 10
-5.74722954E+00
 20
2.01018726E+02
  0
VERTEX
  8
0
 62
4
 10
-5.66565634E+00
 20
2.01130074E+02
  0
VERTEX
  8
0
 62
4
 10
-5.61645238E+00
 20
2.01243223E+02
  0
VERTEX
  8
0
 62
4
 10
-5.60000762E+00
 20
2.01357275E+02
  0
SEQEND
  8
0
  0
POLYLINE
  8
0
 62
4
 66
1
  0
VERTEX
  8
0
 62
4
 10
-5.60000762E+00
 20
2.03031134E+02
  0
VERTEX
  8
0
 62
4
 10
-5.61579962E+00
 20
2.03142904E+02
  0
VERTEX
  8
0
 62
4
 10
-5.66305545E+00
 20
2.03253824E+02
  0
VERTEX
  8
0
 62
4
 10
-5.74141544E+00
 20
2.03363049E+02
  0
VERTEX
  8
0
 62
4
 10
-5.85028324E+00
 20
2.03469748E+02
  0
VERTEX
  8
0
 62
4
 10
-5.98883031E+00
 20
2.03573108E+02
  0
VERTEX
  8
0
 62
4
 10
-6.15600220E+00
 20
2.03672344E+02
  0
VERTEX
  8
0
 62
4
 10
-6.35052664E+00
 20
2.03766700E+02
  0
VERTEX
  8
0
 62
4
 10
-6.57092318E+00
 20
2.03855458E+02
  0
VERTEX
  8
0
 62
4
 10
-6.81551448E+00
 20
2.03937942E+02
  0
VERTEX
  8
0
 62
4
 10
-7.08243904E+00
 20
2.04013525E+02
  0
VERTEX
  8
0
 62
4
 10
-7.36966541E+00
 20
2.04081631E+02
  0
VERTEX
  8
0
 62
4
 10
-7.67500763E+00
 20
2.04141743E+02
  0
VERTEX
  8
0
 62
4
 10
-7.99614184E+00
 20
2.04193402E+02
  0
VERTEX
  8
0
 62
4
 10
-8.33062403E+00
 20
2.04236215E+02
  0
VERTEX
  8
0
 62
4
 10
-8.67590859E+00
 20
2.04269857E+02
  0
VERTEX
  8
0
 62
4
 10
-9.02936769E+00
 20
2.04294072E+02
  0
VERTEX
  8
0
 62
4
 10
-9.38831130E+00
 20
2.04308675E+02
  0
VERTEX
  8
0
 62
4
 10
-9.75000763E+00
 20
2.04313555E+02
  0
VERTEX
  8
0
 62
4
 10
-1.01117040E+01
 20
2.04308675E+02
  0
VERTEX
  8
0
 62
4
 10
-1.04706476E+01
 20
2.04294072E+02
  0
VERTEX
  8
0
 62
4
 10
-1.08241067E+01
 20
2.04269857E+02
  0
VERTEX
  8
0
 62
4
 10
-1.11693912E+01
 20
2.04236215E+02
  0
VERTEX
  8
0
 62
4
 10
-1.15038734E+01
 20
2.04193402E+02
  0
VERTEX
  8
0
 62
4
 10
-1.18250076E+01
 20
2.04141743E+02
  0
VERTEX
  8
0
 62
4
 10
-1.21303498E+01
 20
2.04081631E+02
  0
VERTEX
  8
0
 62
4
 10
-1.24175762E+01
 20
2.04013525E+02
  0
VERTEX
  8
0
 62
4
 10
-1.26845008E+01
 20
2.03937942E+02
  0
VERTEX
  8
0
 62
4
 10
-1.29290921E+01
 20
2.03855458E+02
  0
VERTEX
  8
0
 62
4
 10
-1.31494886E+01
 20
2.03766700E+02
  0
VERTEX
  8
0
 62
4
 10
-1.33440131E+01
 20
2.03672344E+02
  0
VERTEX
  8
0
 62
4
 10
-1.35111850E+01
 20
2.03573108E+02
  0
VERTEX
  8
0
 62
4
 10
-1.36497320E+01
 20
2.03469748E+02
  0
VERTEX
  8
0
 62
4
 10
-1.37585998E+01
 20
2.03363049E+02
  0
VERTEX
  8
0
 62
4
 10
-1.38369598E+01
 20
2.03253824E+02
  0
VERTEX
  8
0
 62
4
 10
-1.38842156E+01
 20
2.03142904E+02
  0
VERTEX
  8
0
 62
4
 10
-1.39000076E+01
 20
2.03031134E+02
  0
VERTEX
  8
0
 62
4
 10
-1.38842156E+01
 20
2.02919364E+02
  0
VERTEX
  8
0
 62
4
 10
-1.38369598E+01
 20
2.02808444E+02
  0
VERTEX
  8
0
 62
4
 10
-1.37585998E+01
 20
2.02699219E+02
  0
VERTEX
  8
0
 62
4
 10
-1.36497320E+01
 20
2.02592520E+02
  0
VERTEX
  8
0
 62
4
 10
-1.35111850E+01
 20
2.02489160E+02
  0
VERTEX
  8
0
 62
4
 10
-1.33440131E+01
 20
2.02389924E+02
  0
VERTEX
  8
0
 62
4
 10
-1.31494886E+01
 20
2.02295568E+02
  0
VERTEX
  8
0
 62
4
 10
-1.29290921E+01
 20
2.02206810E+02
  0
VERTEX
  8
0
 62
4
 10
-1.26845008E+01
 20
2.02124326E+02
  0
VERTEX
  8
0
 62
4
 10
-1.24175762E+01
 20
2.02048743E+02
  0
VERTEX
  8
0
 62
4
 10
-1.21303498E+01
 20
2.01980637E+02
  0
VERTEX
  8
0
 62
4
 10
-1.18250076E+01
 20
2.01920525E+02
  0
VERTEX
  8
0
 62
4
 10
-1.15038734E+01
 20
2.01868866E+02
  0
VERTEX
  8
0
 62
4
 10
-1.11693912E+01
 20
2.01826053E+02
  0
VERTEX
  8
0
 62
4
 10
-1.08241067E+01
 20
2.01792411E+02
  0
VERTEX
  8
0
 62
4
 10
-1.04706476E+01
 20
2.01768196E+02
  0
VERTEX
  8
0
 62
4
 10
-1.01117040E+01
 20
2.01753593E+02
  0
VERTEX
  8
0
 62
4
 10
-9.75000762E+00
 20
2.01748714E+02
  0
VERTEX
  8
0
 62
4
 10
-9.38831129E+00
 20
2.01753593E+02
  0
VERTEX
  8
0
 62
4
 10
-9.02936768E+00
 20
2.01768196E+02
  0
VERTEX
  8
0
 62
4
 10
-8.67590858E+00
 20
2.01792411E+02
  0
VERTEX
  8
0
 62
4
 10
-8.33062402E+00
 20
2.01826053E+02
  0
VERTEX
  8
0
 62
4
 10
-7.99614183E+00
 20
2.01868866E+02
  0
VERTEX
  8
0
 62
4
 10
-7.67500762E+00
 20
2.01920525E+02
  0
VERTEX
  8
0
 62
4
 10
-7.36966541E+00
 20
2.01980637E+02
  0
VERTEX
  8
0
 62
4
 10
-7.08243904E+00
 20
2.02048743E+02
  0
VERTEX
  8
0
 62
4
 10
-6.81551447E+00
 20
2.02124326E+02
  0
VERTEX
  8
0
 62
4
 10
-6.57092318E+00
 20
2.02206810E+02
  0
VERTEX
  8
0
 62
4
 10
-6.35052663E+00
 20
2.02295568E+02
  0
VERTEX
  8
0
 62
4
 10
-6.15600219E+00
 20
2.02389924E+02
  0
VERTEX
  8
0
 62
4
 10
-5.98883030E+00
 20
2.02489160E+02
  0
VERTEX
  8
0
 62
4
 10
-5.85028324E+00
 20
2.02592520E+02
  0
VERTEX
  8
0
 62
4
 10
-5.74141544E+00
 20
2.02699219E+02
  0
VERTEX
  8
0
 62
4
 10
-5.66305544E+00
 20
2.02808444E+02
  0
VERTEX
  8
0
 62
4
 10
-5.61579962E+00
 20
2.02919364E+02
  0
VERTEX
  8
0
 62
4
 10
-5.60000762E+00
 20
2.03031134E+02
  0
SEQEND
  8
0
  0
LINE
  8
0
 62
4
 10
-5.75000763E+00
 20
2.01015605E+02
 11
-5.75000763E+00
 21
2.00995873E+02
  0
POLYLINE
  8
0
 62
4
 66
1
  0
VERTEX
  8
0
 62
4
 10
-1.34500076E+01
 20
2.00526208E+02
  0
VERTEX
  8
0
 62
4
 10
-1.33006997E+01
 20
2.00426695E+02
  0
VERTEX
  8
0
 62
4
 10
-1.31234310E+01
 20
2.00331665E+02
  0
VERTEX
  8
0
 62
4
 10
-1.29195975E+01
 20
2.00241865E+02
  0
VERTEX
  8
0
 62
4
 10
-1.26908044E+01
 20
2.00158003E+02
  0
VERTEX
  8
0
 62
4
 10
-1.24388534E+01
 20
2.00080739E+02
  0
VERTEX
  8
0
 62
4
 10
-1.21657284E+01
 20
2.00010681E+02
  0
VERTEX
  8
0
 62
4
 10
-1.18735803E+01
 20
1.99948381E+02
  0
VERTEX
  8
0
 62
4
 10
-1.15647097E+01
 20
1.99894330E+02
  0
VERTEX
  8
0
 62
4
 10
-1.12415488E+01
 20
1.99848953E+02
  0
VERTEX
  8
0
 62
4
 10
-1.09066424E+01
 20
1.99812608E+02
  0
VERTEX
  8
0
 62
4
 10
-1.05626279E+01
 20
1.99785581E+02
  0
VERTEX
  8
0
 62
4
 10
-1.02122141E+01
 20
1.99768085E+02
  0
VERTEX
  8
0
 62
4
 10
-9.85816069E+00
 20
1.99760257E+02
  0
VERTEX
  8
0
 62
4
 10
-9.50325555E+00
 20
1.99762159E+02
  0
VERTEX
  8
0
 62
4
 10
-9.15029352E+00
 20
1.99773776E+02
  0
VERTEX
  8
0
 62
4
 10
-8.80205406E+00
 20
1.99795018E+02
  0
VERTEX
  8
0
 62
4
 10
-8.46127948E+00
 20
1.99825715E+02
  0
VERTEX
  8
0
 62
4
 10
-8.13065328E+00
 20
1.99865627E+02
  0
VERTEX
  8
0
 62
4
 10
-7.81277904E+00
 20
1.99914440E+02
  0
VERTEX
  8
0
 62
4
 10
-7.51015994E+00
 20
1.99971768E+02
  0
VERTEX
  8
0
 62
4
 10
-7.22517901E+00
 20
2.00037161E+02
  0
VERTEX
  8
0
 62
4
 10
-6.96008041E+00
 20
2.00110104E+02
  0
VERTEX
  8
0
 62
4
 10
-6.71695170E+00
 20
2.00190021E+02
  0
VERTEX
  8
0
 62
4
 10
-6.49770747E+00
 20
2.00276285E+02
  0
VERTEX
  8
0
 62
4
 10
-6.30407420E+00
 20
2.00368215E+02
  0
VERTEX
  8
0
 62
4
 10
-6.13757670E+00
 20
2.00465088E+02
  0
VERTEX
  8
0
 62
4
 10
-5.99952608E+00
 20
2.00566141E+02
  0
VERTEX
  8
0
 62
4
 10
-5.89100946E+00
 20
2.00670577E+02
  0
VERTEX
  8
0
 62
4
 10
-5.81288138E+00
 20
2.00777576E+02
  0
VERTEX
  8
0
 62
4
 10
-5.76575707E+00
 20
2.00886293E+02
  0
VERTEX
  8
0
 62
4
 10
-5.75000763E+00
 20
2.00995873E+02
  0
SEQEND
  8
0
  0
ARC
  8
0
 62
4
 10
-5.56238558E+00
 20
1.90042637E+02
 40
1.43299558E+01
 50
9.97219440E+01
 51
1.14556488E+02
  0
ARC
  8
0
 62
4
 10
-1.39376311E+01
 20
1.90042631E+02
 40
1.43299613E+01
 50
6.54435144E+01
 51
8.02780535E+01
  0
LINE
  8
0
 62
4
 10
-1.34500076E+01
 20
2.00865370E+02
 11
-1.34500076E+01
 21
1.99914314E+02
  0
POLYLINE
  8
0
 62
4
 66
1
  0
VERTEX
  8
0
 62
4
 10
-2.10500076E+01
 20
1.99914314E+02
  0
VERTEX
  8
0
 62
4
 10
-2.10347099E+01
 20
1.99809054E+02
  0
VERTEX
  8
0
 62
4
 10
-2.09889400E+01
 20
1.99704641E+02
  0
VERTEX
  8
0
 62
4
 10
-2.09130665E+01
 20
1.99601916E+02
  0
VERTEX
  8
0
 62
4
 10
-2.08077001E+01
 20
1.99501707E+02
  0
VERTEX
  8
0
 62
4
 10
-2.06736893E+01
 20
1.99404820E+02
  0
VERTEX
  8
0
 62
4
 10
-2.05121130E+01
 20
1.99312035E+02
  0
VERTEX
  8
0
 62
4
 10
-2.03242722E+01
 20
1.99224099E+02
  0
VERTEX
  8
0
 62
4
 10
-2.01116792E+01
 20
1.99141720E+02
  0
VERTEX
  8
0
 62
4
 10
-1.98760457E+01
 20
1.99065562E+02
  0
VERTEX
  8
0
 62
4
 10
-1.96192689E+01
 20
1.98996237E+02
  0
VERTEX
  8
0
 62
4
 10
-1.93434161E+01
 20
1.98934304E+02
  0
VERTEX
  8
0
 62
4
 10
-1.90507085E+01
 20
1.98880262E+02
  0
VERTEX
  8
0
 62
4
 10
-1.87435027E+01
 20
1.98834545E+02
  0
VERTEX
  8
0
 62
4
 10
-1.84242722E+01
 20
1.98797522E+02
  0
VERTEX
  8
0
 62
4
 10
-1.80955872E+01
 20
1.98769491E+02
  0
VERTEX
  8
0
 62
4
 10
-1.77600940E+01
 20
1.98750677E+02
  0
VERTEX
  8
0
 62
4
 10
-1.74204940E+01
 20
1.98741232E+02
  0
VERTEX
  8
0
 62
4
 10
-1.70795213E+01
 20
1.98741232E+02
  0
VERTEX
  8
0
 62
4
 10
-1.67399212E+01
 20
1.98750677E+02
  0
VERTEX
  8
0
 62
4
 10
-1.64044281E+01
 20
1.98769491E+02
  0
VERTEX
  8
0
 62
4
 10
-1.60757430E+01
 20
1.98797522E+02
  0
VERTEX
  8
0
 62
4
 10
-1.57565125E+01
 20
1.98834545E+02
  0
VERTEX
  8
0
 62
4
 10
-1.54493067E+01
 20
1.98880262E+02
  0
VERTEX
  8
0
 62
4
 10
-1.51565991E+01
 20
1.98934304E+02
  0
VERTEX
  8
0
 62
4
 10
-1.48807464E+01
 20
1.98996237E+02
  0
VERTEX
  8
0
 62
4
 10
-1.46239696E+01
 20
1.99065562E+02
  0
VERTEX
  8
0
 62
4
 10
-1.43883360E+01
 20
1.99141720E+02
  0
VERTEX
  8
0
 62
4
 10
-1.41757430E+01
 20
1.99224099E+02
  0
VERTEX
  8
0
 62
4
 10
-1.39879022E+01
 20
1.99312035E+02
  0
VERTEX
  8
0
 62
4
 10
-1.38263259E+01
 20
1.99404820E+02
  0
VERTEX
  8
0
 62
4
 10
-1.36923151E+01
 20
1.99501707E+02
  0
VERTEX
  8
0
 62
4
 10
-1.35869487E+01
 20
1.99601916E+02
  0
VERTEX
  8
0
 62
4
 10
-1.35110752E+01
 20
1.99704641E+02
  0
VERTEX
  8
0
 62
4
 10
-1.34653053E+01
 20
1.99809054E+02
  0
VERTEX
  8
0
 62
4
 10
-1.34500076E+01
 20
1.99914314E+02
  0
SEQEND
  8
0
  0
POLYLINE
  8
0
 62
4
 66
1
  0
VERTEX
  8
0
 62
4
 10
-2.06500076E+01
 20
2.01389789E+02
  0
VERTEX
  8
0
 62
4
 10
-2.07865893E+01
 20
2.01294958E+02
  0
VERTEX
  8
0
 62
4
 10
-2.08955371E+01
 20
2.01196770E+02
  0
VERTEX
  8
0
 62
4
 10
-2.09759999E+01
 20
2.01095993E+02
  0
VERTEX
  8
0
 62
4
 10
-2.10273489E+01
 20
2.00993414E+02
  0
VERTEX
  8
0
 62
4
 10
-2.10491829E+01
 20
2.00889834E+02
  0
VERTEX
  8
0
 62
4
 10
-2.10413312E+01
 20
2.00786063E+02
  0
VERTEX
  8
0
 62
4
 10
-2.10038552E+01
 20
2.00682912E+02
  0
VERTEX
  8
0
 62
4
 10
-2.09370478E+01
 20
2.00581186E+02
  0
VERTEX
  8
0
 62
4
 10
-2.08414310E+01
 20
2.00481681E+02
  0
VERTEX
  8
0
 62
4
 10
-2.07177518E+01
 20
2.00385174E+02
  0
VERTEX
  8
0
 62
4
 10
-2.05669767E+01
 20
2.00292419E+02
  0
VERTEX
  8
0
 62
4
 10
-2.03902838E+01
 20
2.00204141E+02
  0
VERTEX
  8
0
 62
4
 10
-2.01890538E+01
 20
2.00121030E+02
  0
VERTEX
  8
0
 62
4
 10
-1.99648588E+01
 20
2.00043734E+02
  0
VERTEX
  8
0
 62
4
 10
-1.97194509E+01
 20
1.99972859E+02
  0
VERTEX
  8
0
 62
4
 10
-1.94547474E+01
 20
1.99908958E+02
  0
VERTEX
  8
0
 62
4
 10
-1.91728168E+01
 20
1.99852529E+02
  0
VERTEX
  8
0
 62
4
 10
-1.88758619E+01
 20
1.99804015E+02
  0
VERTEX
  8
0
 62
4
 10
-1.85662030E+01
 20
1.99763794E+02
  0
VERTEX
  8
0
 62
4
 10
-1.82462598E+01
 20
1.99732180E+02
  0
VERTEX
  8
0
 62
4
 10
-1.79185322E+01
 20
1.99709420E+02
  0
VERTEX
  8
0
 62
4
 10
-1.75855809E+01
 20
1.99695693E+02
  0
VERTEX
  8
0
 62
4
 10
-1.72500076E+01
 20
1.99691105E+02
  0
VERTEX
  8
0
 62
4
 10
-1.69144342E+01
 20
1.99695693E+02
  0
VERTEX
  8
0
 62
4
 10
-1.65814830E+01
 20
1.99709420E+02
  0
VERTEX
  8
0
 62
4
 10
-1.62537553E+01
 20
1.99732180E+02
  0
VERTEX
  8
0
 62
4
 10
-1.59338121E+01
 20
1.99763794E+02
  0
VERTEX
  8
0
 62
4
 10
-1.56241533E+01
 20
1.99804015E+02
  0
VERTEX
  8
0
 62
4
 10
-1.53271984E+01
 20
1.99852529E+02
  0
VERTEX
  8
0
 62
4
 10
-1.50452677E+01
 20
1.99908958E+02
  0
VERTEX
  8
0
 62
4
 10
-1.47805643E+01
 20
1.99972859E+02
  0
VERTEX
  8
0
 62
4
 10
-1.45351563E+01
 20
2.00043734E+02
  0
VERTEX
  8
0
 62
4
 10
-1.43109614E+01
 20
2.00121030E+02
  0
VERTEX
  8
0
 62
4
 10
-1.41097313E+01
 20
2.00204141E+02
  0
VERTEX
  8
0
 62
4
 10
-1.39330384E+01
 20
2.00292419E+02
  0
VERTEX
  8
0
 62
4
 10
-1.37822634E+01
 20
2.00385174E+02
  0
VERTEX
  8
0
 62
4
 10
-1.36585842E+01
 20
2.00481681E+02
  0
VERTEX
  8
0
 62
4
 10
-1.35629674E+01
 20
2.00581186E+02
  0
VERTEX
  8
0
 62
4
 10
-1.34961600E+01
 20
2.00682912E+02
  0
VERTEX
  8
0
 62
4
 10
-1.34586840E+01
 20
2.00786063E+02
  0
VERTEX
  8
0
 62
4
 10
-1.34508324E+01
 20
2.00889834E+02
  0
VERTEX
  8
0
 62
4
 10
-1.34726663E+01
 20
2.00993414E+02
  0
VERTEX
  8
0
 62
4
 10
-1.35240153E+01
 20
2.01095993E+02
  0
VERTEX
  8
0
 62
4
 10
-1.36044781E+01
 20
2.01196770E+02
  0
VERTEX
  8
0
 62
4
 10
-1.37134259E+01
 20
2.01294958E+02
  0
VERTEX
  8
0
 62
4
 10
-1.38500076E+01
 20
2.01389789E+02
  0
SEQEND
  8
0
  0
LINE
  8
0
 62
4
 10
-2.10500076E+01
 20
2.00865370E+02
 11
-2.10500076E+01
 21
1.99914314E+02
  0
LINE
  8
0
 62
4
 10
-1.38500076E+01
 20
2.02412681E+02
 11
-1.38500076E+01
 21
2.00865370E+02
  0
POLYLINE
  8
0
 62
4
 66
1
  0
VERTEX
  8
0
 62
4
 10
-2.06500076E+01
 20
2.00865370E+02
  0
VERTEX
  8
0
 62
4
 10
-2.06363202E+01
 20
2.00771190E+02
  0
VERTEX
  8
0
 62
4
 10
-2.05953682E+01
 20
2.00677768E+02
  0
VERTEX
  8
0
 62
4
 10
-2.05274813E+01
 20
2.00585856E+02
  0
VERTEX
  8
0
 62
4
 10
-2.04332062E+01
 20
2.00496195E+02
  0
VERTEX
  8
0
 62
4
 10
-2.03133018E+01
 20
2.00409507E+02
  0
VERTEX
  8
0
 62
4
 10
-2.01687335E+01
 20
2.00326488E+02
  0
VERTEX
  8
0
 62
4
 10
-2.00006654E+01
 20
2.00247809E+02
  0
VERTEX
  8
0
 62
4
 10
-1.98104506E+01
 20
2.00174102E+02
  0
VERTEX
  8
0
 62
4
 10
-1.95996206E+01
 20
2.00105960E+02
  0
VERTEX
  8
0
 62
4
 10
-1.93698729E+01
 20
2.00043933E+02
  0
VERTEX
  8
0
 62
4
 10
-1.91230574E+01
 20
1.99988519E+02
  0
VERTEX
  8
0
 62
4
 10
-1.88611611E+01
 20
1.99940165E+02
  0
VERTEX
  8
0
 62
4
 10
-1.85862927E+01
 20
1.99899261E+02
  0
VERTEX
  8
0
 62
4
 10
-1.83006654E+01
 20
1.99866135E+02
  0
VERTEX
  8
0
 62
4
 10
-1.80065788E+01
 20
1.99841054E+02
  0
VERTEX
  8
0
 62
4
 10
-1.77064007E+01
 20
1.99824221E+02
  0
VERTEX
  8
0
 62
4
 10
-1.74025480E+01
 20
1.99815770E+02
  0
VERTEX
  8
0
 62
4
 10
-1.70974672E+01
 20
1.99815770E+02
  0
VERTEX
  8
0
 62
4
 10
-1.67936145E+01
 20
1.99824221E+02
  0
VERTEX
  8
0
 62
4
 10
-1.64934364E+01
 20
1.99841054E+02
  0
VERTEX
  8
0
 62
4
 10
-1.61993498E+01
 20
1.99866135E+02
  0
VERTEX
  8
0
 62
4
 10
-1.59137225E+01
 20
1.99899261E+02
  0
VERTEX
  8
0
 62
4
 10
-1.56388542E+01
 20
1.99940165E+02
  0
VERTEX
  8
0
 62
4
 10
-1.53769579E+01
 20
1.99988519E+02
  0
VERTEX
  8
0
 62
4
 10
-1.51301423E+01
 20
2.00043933E+02
  0
VERTEX
  8
0
 62
4
 10
-1.49003946E+01
 20
2.00105960E+02
  0
VERTEX
  8
0
 62
4
 10
-1.46895646E+01
 20
2.00174102E+02
  0
VERTEX
  8
0
 62
4
 10
-1.44993498E+01
 20
2.00247809E+02
  0
VERTEX
  8
0
 62
4
 10
-1.43312817E+01
 20
2.00326488E+02
  0
VERTEX
  8
0
 62
4
 10
-1.41867135E+01
 20
2.00409507E+02
  0
VERTEX
  8
0
 62
4
 10
-1.40668090E+01
 20
2.00496195E+02
  0
VERTEX
  8
0
 62
4
 10
-1.39725339E+01
 20
2.00585856E+02
  0
VERTEX
  8
0
 62
4
 10
-1.39046470E+01
 20
2.00677768E+02
  0
VERTEX
  8
0
 62
4
 10
-1.38636950E+01
 20
2.00771190E+02
  0
VERTEX
  8
0
 62
4
 10
-1.38500076E+01
 20
2.00865370E+02
  0
SEQEND
  8
0
  0
LINE
  8
0
 62
4
 10
-2.06500076E+01
 20
2.02412681E+02
 11
-2.06500076E+01
 21
2.00865370E+02
  0
POLYLINE
  8
0
 62
4
 66
1
  0
VERTEX
  8
0
 62
4
 10
-2.06500076E+01
 20
2.02412675E+02
  0
VERTEX
  8
0
 62
4
 10
-2.06363184E+01
 20
2.02318494E+02
  0
VERTEX
  8
0
 62
4
 10
-2.05953646E+01
 20
2.02225073E+02
  0
VERTEX
  8
0
 62
4
 10
-2.05274759E+01
 20
2.02133161E+02
  0
VERTEX
  8
0
 62
4
 10
-2.04331990E+01
 20
2.02043500E+02
  0
VERTEX
  8
0
 62
4
 10
-2.03132929E+01
 20
2.01956812E+02
  0
VERTEX
  8
0
 62
4
 10
-2.01687230E+01
 20
2.01873794E+02
  0
VERTEX
  8
0
 62
4
 10
-2.00006534E+01
 20
2.01795115E+02
  0
VERTEX
  8
0
 62
4
 10
-1.98104372E+01
 20
2.01721408E+02
  0
VERTEX
  8
0
 62
4
 10
-1.95996059E+01
 20
2.01653267E+02
  0
VERTEX
  8
0
 62
4
 10
-1.93698570E+01
 20
2.01591240E+02
  0
VERTEX
  8
0
 62
4
 10
-1.91230403E+01
 20
2.01535827E+02
  0
VERTEX
  8
0
 62
4
 10
-1.88611431E+01
 20
2.01487473E+02
  0
VERTEX
  8
0
 62
4
 10
-1.85862740E+01
 20
2.01446570E+02
  0
VERTEX
  8
0
 62
4
 10
-1.83006460E+01
 20
2.01413444E+02
  0
VERTEX
  8
0
 62
4
 10
-1.80065589E+01
 20
2.01388364E+02
  0
VERTEX
  8
0
 62
4
 10
-1.77063805E+01
 20
2.01371531E+02
  0
VERTEX
  8
0
 62
4
 10
-1.74025277E+01
 20
2.01363081E+02
  0
VERTEX
  8
0
 62
4
 10
-1.70974468E+01
 20
2.01363081E+02
  0
VERTEX
  8
0
 62
4
 10
-1.67935943E+01
 20
2.01371533E+02
  0
VERTEX
  8
0
 62
4
 10
-1.64934166E+01
 20
2.01388367E+02
  0
VERTEX
  8
0
 62
4
 10
-1.61993304E+01
 20
2.01413448E+02
  0
VERTEX
  8
0
 62
4
 10
-1.59137038E+01
 20
2.01446574E+02
  0
VERTEX
  8
0
 62
4
 10
-1.56388362E+01
 20
2.01487479E+02
  0
VERTEX
  8
0
 62
4
 10
-1.53769409E+01
 20
2.01535834E+02
  0
VERTEX
  8
0
 62
4
 10
-1.51301263E+01
 20
2.01591248E+02
  0
VERTEX
  8
0
 62
4
 10
-1.49003799E+01
 20
2.01653275E+02
  0
VERTEX
  8
0
 62
4
 10
-1.46895512E+01
 20
2.01721417E+02
  0
VERTEX
  8
0
 62
4
 10
-1.44993378E+01
 20
2.01795125E+02
  0
VERTEX
  8
0
 62
4
 10
-1.43312713E+01
 20
2.01873805E+02
  0
VERTEX
  8
0
 62
4
 10
-1.41867046E+01
 20
2.01956823E+02
  0
VERTEX
  8
0
 62
4
 10
-1.40668019E+01
 20
2.02043512E+02
  0
VERTEX
  8
0
 62
4
 10
-1.39725285E+01
 20
2.02133173E+02
  0
VERTEX
  8
0
 62
4
 10
-1.39046434E+01
 20
2.02225085E+02
  0
VERTEX
  8
0
 62
4
 10
-1.38636932E+01
 20
2.02318507E+02
  0
VERTEX
  8
0
 62
4
 10
-1.38500076E+01
 20
2.02412687E+02
  0
SEQEND
  8
0
  0
ARC
  8
0
 62
4
 10
-1.30895077E+01
 20
1.89558265E+02
 40
1.42127873E+01
 50
9.99307184E+01
 51
1.14652136E+02
  0
ARC
  8
0
 62
4
 10
-2.14105078E+01
 20
1.89558264E+02
 40
1.42127883E+01
 50
6.53478648E+01
 51
8.00692808E+01
  0
LINE
  8
0
  6
CENTER
 62
6
 10
2.49992371E-01
 20
1.99914314E+02
 11
-4.75000763E+00
 21
1.99914314E+02
  0
LINE
  8
0
  6
CENTER
 62
6
 10
-9.75000763E+00
 20
1.98495873E+02
 11
-9.75000763E+00
 21
2.03495873E+02
  0
LINE
  8
0
  6
CENTER
 62
6
 10
-7.25000763E+00
 20
2.00995873E+02
 11
-1.22500076E+01
 21
2.00995873E+02
  0
LINE
  8
0
  6
CENTER
 62
6
 10
-1.72500076E+01
 20
1.97414314E+02
 11
-1.72500076E+01
 21
2.02414314E+02
  0
LINE
  8
0
  6
CENTER
 62
6
 10
-1.47500076E+01
 20
1.99914314E+02
 11
-1.97500076E+01
 21
1.99914314E+02
  0
LINE
  8
0
 62
4
 10
-1.36517752E+01
 20
2.03468009E+02
 11
-1.50095774E+01
 21
2.03468009E+02
  0
LINE
  8
0
 62
4
 10
-1.37946229E+01
 20
2.03318302E+02
 11
-1.44259178E+01
 21
2.03318302E+02
  0
LINE
  8
0
 62
4
 10
-2.06500076E+01
 20
2.01737514E+02
 11
-2.47500076E+01
 21
2.01737514E+02
  0
LINE
  8
0
 62
4
 10
-1.94904379E+01
 20
2.03468009E+02
 11
-2.47500076E+01
 21
2.03468009E+02
  0
LINE
  8
0
 62
7
 10
-6.87499924E+01
 20
2.44969471E+02
 11
-9.47499924E+01
 21
2.44969471E+02
  0
LINE
  8
0
 62
7
 10
-6.87499924E+01
 20
2.47369434E+02
 11
-9.47499924E+01
 21
2.47369434E+02
  0
LINE
  8
0
 62
7
 10
-8.37499924E+01
 20
2.37769459E+02
 11
-9.47499924E+01
 21
2.37769459E+02
  0
LINE
  8
0
 62
7
 10
-2.47500076E+01
 20
1.81769474E+02
 11
-9.47499924E+01
 21
1.81769474E+02
  0
LINE
  8
0
 62
7
 10
-2.47500076E+01
 20
1.79369495E+02
 11
-9.47499924E+01
 21
1.79369495E+02
  0
LINE
  8
0
 62
7
 10
-2.47500076E+01
 20
1.88969486E+02
 11
-9.47499924E+01
 21
1.88969486E+02
  0
LINE
  8
0
 62
4
 10
-1.05750097E+02
 20
-1.64416523E+02
 11
-1.00750097E+02
 21
-1.64416514E+02
  0
LINE
  8
0
 62
4
 10
-8.77500005E+01
 20
-2.09754695E+02
 11
-5.47500005E+01
 21
-2.09754636E+02
  0
LINE
  8
0
 62
4
 10
-5.47500005E+01
 20
-2.11557736E+02
 11
-5.47500005E+01
 21
-2.08289520E+02
  0
LINE
  8
0
 62
4
 10
-8.77500005E+01
 20
-2.11557736E+02
 11
-8.77500005E+01
 21
-2.08289579E+02
  0
LINE
  8
0
 62
4
 10
-5.17500103E+01
 20
-2.03540186E+02
 11
-5.47500005E+01
 21
-2.08289520E+02
  0
LINE
  8
0
 62
4
 10
-9.07500103E+01
 20
-2.03540256E+02
 11
-8.77500005E+01
 21
-2.08289579E+02
  0
POLYLINE
  8
0
 62
4
 66
1
  0
VERTEX
  8
0
 62
4
 10
-8.27500193E+01
 20
-1.96286021E+02
  0
VERTEX
  8
0
 62
4
 10
-8.27348031E+01
 20
-1.96615651E+02
  0
VERTEX
  8
0
 62
4
 10
-8.26892603E+01
 20
-1.96942773E+02
  0
VERTEX
  8
0
 62
4
 10
-8.26137374E+01
 20
-1.97264896E+02
  0
VERTEX
  8
0
 62
4
 10
-8.25088094E+01
 20
-1.97579571E+02
  0
VERTEX
  8
0
 62
4
 10
-8.23752747E+01
 20
-1.97884401E+02
  0
VERTEX
  8
0
 62
4
 10
-8.22141496E+01
 20
-1.98177067E+02
  0
VERTEX
  8
0
 62
4
 10
-8.20266603E+01
 20
-1.98455341E+02
  0
VERTEX
  8
0
 62
4
 10
-8.18142339E+01
 20
-1.98717106E+02
  0
VERTEX
  8
0
 62
4
 10
-8.15784869E+01
 20
-1.98960370E+02
  0
VERTEX
  8
0
 62
4
 10
-8.13212136E+01
 20
-1.99183280E+02
  0
VERTEX
  8
0
 62
4
 10
-8.10443720E+01
 20
-1.99384141E+02
  0
VERTEX
  8
0
 62
4
 10
-8.07500689E+01
 20
-1.99561424E+02
  0
VERTEX
  8
0
 62
4
 10
-8.04405443E+01
 20
-1.99713780E+02
  0
VERTEX
  8
0
 62
4
 10
-8.01181537E+01
 20
-1.99840049E+02
  0
VERTEX
  8
0
 62
4
 10
-7.97853508E+01
 20
-1.99939270E+02
  0
VERTEX
  8
0
 62
4
 10
-7.94446684E+01
 20
-2.00010688E+02
  0
VERTEX
  8
0
 62
4
 10
-7.90986993E+01
 20
-2.00053759E+02
  0
VERTEX
  8
0
 62
4
 10
-7.87500766E+01
 20
-2.00068156E+02
  0
VERTEX
  8
0
 62
4
 10
-7.84014534E+01
 20
-2.00053770E+02
  0
VERTEX
  8
0
 62
4
 10
-7.80554830E+01
 20
-2.00010709E+02
  0
VERTEX
  8
0
 62
4
 10
-7.77147984E+01
 20
-1.99939301E+02
  0
VERTEX
  8
0
 62
4
 10
-7.73819925E+01
 20
-1.99840090E+02
  0
VERTEX
  8
0
 62
4
 10
-7.70595982E+01
 20
-1.99713831E+02
  0
VERTEX
  8
0
 62
4
 10
-7.67500689E+01
 20
-1.99561485E+02
  0
VERTEX
  8
0
 62
4
 10
-7.64557605E+01
 20
-1.99384211E+02
  0
VERTEX
  8
0
 62
4
 10
-7.61789127E+01
 20
-1.99183358E+02
  0
VERTEX
  8
0
 62
4
 10
-7.59216327E+01
 20
-1.98960455E+02
  0
VERTEX
  8
0
 62
4
 10
-7.56858783E+01
 20
-1.98717199E+02
  0
VERTEX
  8
0
 62
4
 10
-7.54734440E+01
 20
-1.98455440E+02
  0
VERTEX
  8
0
 62
4
 10
-7.52859463E+01
 20
-1.98177172E+02
  0
VERTEX
  8
0
 62
4
 10
-7.51248124E+01
 20
-1.97884511E+02
  0
VERTEX
  8
0
 62
4
 10
-7.49912684E+01
 20
-1.97579685E+02
  0
VERTEX
  8
0
 62
4
 10
-7.48863308E+01
 20
-1.97265013E+02
  0
VERTEX
  8
0
 62
4
 10
-7.48107982E+01
 20
-1.96942892E+02
  0
VERTEX
  8
0
 62
4
 10
-7.47652455E+01
 20
-1.96615772E+02
  0
VERTEX
  8
0
 62
4
 10
-7.47500193E+01
 20
-1.96286143E+02
  0
VERTEX
  8
0
 62
4
 10
-7.47652355E+01
 20
-1.95956513E+02
  0
VERTEX
  8
0
 62
4
 10
-7.48107783E+01
 20
-1.95629391E+02
  0
VERTEX
  8
0
 62
4
 10
-7.48863012E+01
 20
-1.95307268E+02
  0
VERTEX
  8
0
 62
4
 10
-7.49912292E+01
 20
-1.94992593E+02
  0
VERTEX
  8
0
 62
4
 10
-7.51247639E+01
 20
-1.94687763E+02
  0
VERTEX
  8
0
 62
4
 10
-7.52858891E+01
 20
-1.94395097E+02
  0
VERTEX
  8
0
 62
4
 10
-7.54733783E+01
 20
-1.94116823E+02
  0
VERTEX
  8
0
 62
4
 10
-7.56858047E+01
 20
-1.93855058E+02
  0
VERTEX
  8
0
 62
4
 10
-7.59215517E+01
 20
-1.93611794E+02
  0
VERTEX
  8
0
 62
4
 10
-7.61788250E+01
 20
-1.93388884E+02
  0
VERTEX
  8
0
 62
4
 10
-7.64556666E+01
 20
-1.93188023E+02
  0
VERTEX
  8
0
 62
4
 10
-7.67499697E+01
 20
-1.93010740E+02
  0
VERTEX
  8
0
 62
4
 10
-7.70594944E+01
 20
-1.92858384E+02
  0
VERTEX
  8
0
 62
4
 10
-7.73818849E+01
 20
-1.92732115E+02
  0
VERTEX
  8
0
 62
4
 10
-7.77146878E+01
 20
-1.92632894E+02
  0
VERTEX
  8
0
 62
4
 10
-7.80553702E+01
 20
-1.92561476E+02
  0
VERTEX
  8
0
 62
4
 10
-7.84013393E+01
 20
-1.92518405E+02
  0
VERTEX
  8
0
 62
4
 10
-7.87499620E+01
 20
-1.92504008E+02
  0
VERTEX
  8
0
 62
4
 10
-7.90985852E+01
 20
-1.92518394E+02
  0
VERTEX
  8
0
 62
4
 10
-7.94445556E+01
 20
-1.92561455E+02
  0
VERTEX
  8
0
 62
4
 10
-7.97852402E+01
 20
-1.92632863E+02
  0
VERTEX
  8
0
 62
4
 10
-8.01180461E+01
 20
-1.92732074E+02
  0
VERTEX
  8
0
 62
4
 10
-8.04404404E+01
 20
-1.92858333E+02
  0
VERTEX
  8
0
 62
4
 10
-8.07499697E+01
 20
-1.93010679E+02
  0
VERTEX
  8
0
 62
4
 10
-8.10442781E+01
 20
-1.93187953E+02
  0
VERTEX
  8
0
 62
4
 10
-8.13211259E+01
 20
-1.93388806E+02
  0
VERTEX
  8
0
 62
4
 10
-8.15784059E+01
 20
-1.93611709E+02
  0
VERTEX
  8
0
 62
4
 10
-8.18141603E+01
 20
-1.93854965E+02
  0
VERTEX
  8
0
 62
4
 10
-8.20265946E+01
 20
-1.94116724E+02
  0
VERTEX
  8
0
 62
4
 10
-8.22140923E+01
 20
-1.94394992E+02
  0
VERTEX
  8
0
 62
4
 10
-8.23752262E+01
 20
-1.94687653E+02
  0
VERTEX
  8
0
 62
4
 10
-8.25087702E+01
 20
-1.94992479E+02
  0
VERTEX
  8
0
 62
4
 10
-8.26137078E+01
 20
-1.95307151E+02
  0
VERTEX
  8
0
 62
4
 10
-8.26892404E+01
 20
-1.95629272E+02
  0
VERTEX
  8
0
 62
4
 10
-8.27347931E+01
 20
-1.95956392E+02
  0
VERTEX
  8
0
 62
4
 10
-8.27500193E+01
 20
-1.96286021E+02
  0
SEQEND
  8
0
  0
POLYLINE
  8
0
 62
4
 66
1
  0
VERTEX
  8
0
 62
4
 10
-8.21500204E+01
 20
-1.95694453E+02
  0
VERTEX
  8
0
 62
4
 10
-8.21370875E+01
 20
-1.95977108E+02
  0
VERTEX
  8
0
 62
4
 10
-8.20983770E+01
 20
-1.96257612E+02
  0
VERTEX
  8
0
 62
4
 10
-8.20341834E+01
 20
-1.96533831E+02
  0
VERTEX
  8
0
 62
4
 10
-8.19449954E+01
 20
-1.96803662E+02
  0
VERTEX
  8
0
 62
4
 10
-8.18314917E+01
 20
-1.97065051E+02
  0
VERTEX
  8
0
 62
4
 10
-8.16945361E+01
 20
-1.97316010E+02
  0
VERTEX
  8
0
 62
4
 10
-8.15351710E+01
 20
-1.97554629E+02
  0
VERTEX
  8
0
 62
4
 10
-8.13546093E+01
 20
-1.97779091E+02
  0
VERTEX
  8
0
 62
4
 10
-8.11542250E+01
 20
-1.97987688E+02
  0
VERTEX
  8
0
 62
4
 10
-8.09355433E+01
 20
-1.98178832E+02
  0
VERTEX
  8
0
 62
4
 10
-8.07002284E+01
 20
-1.98351070E+02
  0
VERTEX
  8
0
 62
4
 10
-8.04500713E+01
 20
-1.98503089E+02
  0
VERTEX
  8
0
 62
4
 10
-8.01869757E+01
 20
-1.98633733E+02
  0
VERTEX
  8
0
 62
4
 10
-7.99129441E+01
 20
-1.98742009E+02
  0
VERTEX
  8
0
 62
4
 10
-7.96300619E+01
 20
-1.98827091E+02
  0
VERTEX
  8
0
 62
4
 10
-7.93404821E+01
 20
-1.98888332E+02
  0
VERTEX
  8
0
 62
4
 10
-7.90464084E+01
 20
-1.98925266E+02
  0
VERTEX
  8
0
 62
4
 10
-7.87500791E+01
 20
-1.98937612E+02
  0
VERTEX
  8
0
 62
4
 10
-7.84537494E+01
 20
-1.98925277E+02
  0
VERTEX
  8
0
 62
4
 10
-7.81596744E+01
 20
-1.98888353E+02
  0
VERTEX
  8
0
 62
4
 10
-7.78700924E+01
 20
-1.98827122E+02
  0
VERTEX
  8
0
 62
4
 10
-7.75872071E+01
 20
-1.98742051E+02
  0
VERTEX
  8
0
 62
4
 10
-7.73131715E+01
 20
-1.98633785E+02
  0
VERTEX
  8
0
 62
4
 10
-7.70500713E+01
 20
-1.98503151E+02
  0
VERTEX
  8
0
 62
4
 10
-7.67999086E+01
 20
-1.98351140E+02
  0
VERTEX
  8
0
 62
4
 10
-7.65645875E+01
 20
-1.98178911E+02
  0
VERTEX
  8
0
 62
4
 10
-7.63458989E+01
 20
-1.97987775E+02
  0
VERTEX
  8
0
 62
4
 10
-7.61455071E+01
 20
-1.97779185E+02
  0
VERTEX
  8
0
 62
4
 10
-7.59649371E+01
 20
-1.97554730E+02
  0
VERTEX
  8
0
 62
4
 10
-7.58055634E+01
 20
-1.97316117E+02
  0
VERTEX
  8
0
 62
4
 10
-7.56685987E+01
 20
-1.97065163E+02
  0
VERTEX
  8
0
 62
4
 10
-7.55550856E+01
 20
-1.96803778E+02
  0
VERTEX
  8
0
 62
4
 10
-7.54658878E+01
 20
-1.96533950E+02
  0
VERTEX
  8
0
 62
4
 10
-7.54016842E+01
 20
-1.96257734E+02
  0
VERTEX
  8
0
 62
4
 10
-7.53629635E+01
 20
-1.95977231E+02
  0
VERTEX
  8
0
 62
4
 10
-7.53500204E+01
 20
-1.95694577E+02
  0
VERTEX
  8
0
 62
4
 10
-7.53629533E+01
 20
-1.95411922E+02
  0
VERTEX
  8
0
 62
4
 10
-7.54016638E+01
 20
-1.95131418E+02
  0
VERTEX
  8
0
 62
4
 10
-7.54658574E+01
 20
-1.94855199E+02
  0
VERTEX
  8
0
 62
4
 10
-7.55550454E+01
 20
-1.94585368E+02
  0
VERTEX
  8
0
 62
4
 10
-7.56685491E+01
 20
-1.94323979E+02
  0
VERTEX
  8
0
 62
4
 10
-7.58055047E+01
 20
-1.94073020E+02
  0
VERTEX
  8
0
 62
4
 10
-7.59648698E+01
 20
-1.93834401E+02
  0
VERTEX
  8
0
 62
4
 10
-7.61454315E+01
 20
-1.93609939E+02
  0
VERTEX
  8
0
 62
4
 10
-7.63458158E+01
 20
-1.93401342E+02
  0
VERTEX
  8
0
 62
4
 10
-7.65644975E+01
 20
-1.93210198E+02
  0
VERTEX
  8
0
 62
4
 10
-7.67998124E+01
 20
-1.93037960E+02
  0
VERTEX
  8
0
 62
4
 10
-7.70499695E+01
 20
-1.92885941E+02
  0
VERTEX
  8
0
 62
4
 10
-7.73130651E+01
 20
-1.92755297E+02
  0
VERTEX
  8
0
 62
4
 10
-7.75870967E+01
 20
-1.92647021E+02
  0
VERTEX
  8
0
 62
4
 10
-7.78699789E+01
 20
-1.92561939E+02
  0
VERTEX
  8
0
 62
4
 10
-7.81595588E+01
 20
-1.92500698E+02
  0
VERTEX
  8
0
 62
4
 10
-7.84536324E+01
 20
-1.92463764E+02
  0
VERTEX
  8
0
 62
4
 10
-7.87499617E+01
 20
-1.92451418E+02
  0
VERTEX
  8
0
 62
4
 10
-7.90462914E+01
 20
-1.92463753E+02
  0
VERTEX
  8
0
 62
4
 10
-7.93403664E+01
 20
-1.92500677E+02
  0
VERTEX
  8
0
 62
4
 10
-7.96299484E+01
 20
-1.92561908E+02
  0
VERTEX
  8
0
 62
4
 10
-7.99128337E+01
 20
-1.92646979E+02
  0
VERTEX
  8
0
 62
4
 10
-8.01868693E+01
 20
-1.92755245E+02
  0
VERTEX
  8
0
 62
4
 10
-8.04499695E+01
 20
-1.92885879E+02
  0
VERTEX
  8
0
 62
4
 10
-8.07001322E+01
 20
-1.93037890E+02
  0
VERTEX
  8
0
 62
4
 10
-8.09354533E+01
 20
-1.93210119E+02
  0
VERTEX
  8
0
 62
4
 10
-8.11541419E+01
 20
-1.93401255E+02
  0
VERTEX
  8
0
 62
4
 10
-8.13545338E+01
 20
-1.93609845E+02
  0
VERTEX
  8
0
 62
4
 10
-8.15351037E+01
 20
-1.93834300E+02
  0
VERTEX
  8
0
 62
4
 10
-8.16944774E+01
 20
-1.94072913E+02
  0
VERTEX
  8
0
 62
4
 10
-8.18314421E+01
 20
-1.94323867E+02
  0
VERTEX
  8
0
 62
4
 10
-8.19449552E+01
 20
-1.94585252E+02
  0
VERTEX
  8
0
 62
4
 10
-8.20341530E+01
 20
-1.94855080E+02
  0
VERTEX
  8
0
 62
4
 10
-8.20983566E+01
 20
-1.95131296E+02
  0
VERTEX
  8
0
 62
4
 10
-8.21370773E+01
 20
-1.95411799E+02
  0
VERTEX
  8
0
 62
4
 10
-8.21500204E+01
 20
-1.95694453E+02
  0
SEQEND
  8
0
  0
POLYLINE
  8
0
 62
4
 66
1
  0
VERTEX
  8
0
 62
4
 10
-8.21500193E+01
 20
-1.96286031E+02
  0
VERTEX
  8
0
 62
4
 10
-8.21370496E+01
 20
-1.96566604E+02
  0
VERTEX
  8
0
 62
4
 10
-8.20982310E+01
 20
-1.96845036E+02
  0
VERTEX
  8
0
 62
4
 10
-8.20338597E+01
 20
-1.97119203E+02
  0
VERTEX
  8
0
 62
4
 10
-8.19444270E+01
 20
-1.97387011E+02
  0
VERTEX
  8
0
 62
4
 10
-8.18306154E+01
 20
-1.97646418E+02
  0
VERTEX
  8
0
 62
4
 10
-8.16932936E+01
 20
-1.97895442E+02
  0
VERTEX
  8
0
 62
4
 10
-8.15335094E+01
 20
-1.98132185E+02
  0
VERTEX
  8
0
 62
4
 10
-8.13524824E+01
 20
-1.98354838E+02
  0
VERTEX
  8
0
 62
4
 10
-8.11515941E+01
 20
-1.98561704E+02
  0
VERTEX
  8
0
 62
4
 10
-8.09323776E+01
 20
-1.98751202E+02
  0
VERTEX
  8
0
 62
4
 10
-8.06965059E+01
 20
-1.98921887E+02
  0
VERTEX
  8
0
 62
4
 10
-8.04457792E+01
 20
-1.99072457E+02
  0
VERTEX
  8
0
 62
4
 10
-8.01821109E+01
 20
-1.99201761E+02
  0
VERTEX
  8
0
 62
4
 10
-7.99075132E+01
 20
-1.99308814E+02
  0
VERTEX
  8
0
 62
4
 10
-7.96240818E+01
 20
-1.99392798E+02
  0
VERTEX
  8
0
 62
4
 10
-7.93339798E+01
 20
-1.99453073E+02
  0
VERTEX
  8
0
 62
4
 10
-7.90394212E+01
 20
-1.99489178E+02
  0
VERTEX
  8
0
 62
4
 10
-7.87426539E+01
 20
-1.99500838E+02
  0
VERTEX
  8
0
 62
4
 10
-7.84459429E+01
 20
-1.99487963E+02
  0
VERTEX
  8
0
 62
4
 10
-7.81515525E+01
 20
-1.99450653E+02
  0
VERTEX
  8
0
 62
4
 10
-7.78617294E+01
 20
-1.99389191E+02
  0
VERTEX
  8
0
 62
4
 10
-7.75786855E+01
 20
-1.99304048E+02
  0
VERTEX
  8
0
 62
4
 10
-7.73045809E+01
 20
-1.99195872E+02
  0
VERTEX
  8
0
 62
4
 10
-7.70415076E+01
 20
-1.99065489E+02
  0
VERTEX
  8
0
 62
4
 10
-7.67914731E+01
 20
-1.98913895E+02
  0
VERTEX
  8
0
 62
4
 10
-7.65563858E+01
 20
-1.98742246E+02
  0
VERTEX
  8
0
 62
4
 10
-7.63380396E+01
 20
-1.98551852E+02
  0
VERTEX
  8
0
 62
4
 10
-7.61381011E+01
 20
-1.98344166E+02
  0
VERTEX
  8
0
 62
4
 10
-7.59580960E+01
 20
-1.98120774E+02
  0
VERTEX
  8
0
 62
4
 10
-7.57993982E+01
 20
-1.97883379E+02
  0
VERTEX
  8
0
 62
4
 10
-7.56632187E+01
 20
-1.97633795E+02
  0
VERTEX
  8
0
 62
4
 10
-7.55505969E+01
 20
-1.97373925E+02
  0
VERTEX
  8
0
 62
4
 10
-7.54623922E+01
 20
-1.97105753E+02
  0
VERTEX
  8
0
 62
4
 10
-7.53992778E+01
 20
-1.96831326E+02
  0
VERTEX
  8
0
 62
4
 10
-7.53617354E+01
 20
-1.96552737E+02
  0
VERTEX
  8
0
 62
4
 10
-7.53500514E+01
 20
-1.96272113E+02
  0
VERTEX
  8
0
 62
4
 10
-7.53643151E+01
 20
-1.95991596E+02
  0
SEQEND
  8
0
  0
LINE
  8
0
  6
CENTER
 62
6
 10
-7.87500096E+01
 20
-2.01709467E+02
 11
-7.87500326E+01
 21
-1.88909467E+02
  0
LINE
  8
0
  6
CENTER
 62
6
 10
-8.51500211E+01
 20
-1.95309478E+02
 11
-7.23500211E+01
 21
-1.95309455E+02
  0
LINE
  8
0
 62
4
 10
-8.62500984E+01
 20
-1.63402522E+02
 11
-7.12500984E+01
 21
-1.63402495E+02
  0
LINE
  8
0
 62
4
 10
-8.82500571E+01
 20
-1.86389354E+02
 11
-6.92500571E+01
 21
-1.86389320E+02
  0
LINE
  8
0
 62
4
 10
-9.07500319E+01
 20
-1.91533862E+02
 11
-9.07500103E+01
 21
-2.03540256E+02
  0
LINE
  8
0
 62
4
 10
-8.82500571E+01
 20
-1.86389354E+02
 11
-8.82500506E+01
 21
-1.90033838E+02
  0
LINE
  8
0
 62
4
 10
-7.12500984E+01
 20
-1.63402495E+02
 11
-7.12500571E+01
 21
-1.86389323E+02
  0
LINE
  8
0
 62
4
 10
-8.62500984E+01
 20
-1.63402495E+02
 11
-8.62500571E+01
 21
-1.86389350E+02
  0
LINE
  8
0
 62
4
 10
-6.92500571E+01
 20
-1.86389320E+02
 11
-6.92500506E+01
 21
-1.90033824E+02
  0
LINE
  8
0
 62
4
 10
-8.62500576E+01
 20
-1.86094968E+02
 11
-7.12500576E+01
 21
-1.86094941E+02
  0
LINE
  8
0
 62
4
 10
-5.17500319E+01
 20
-1.91533792E+02
 11
-5.17500103E+01
 21
-2.03540186E+02
  0
LINE
  8
0
 62
4
 10
-8.77500005E+01
 20
-2.08289579E+02
 11
-5.47500005E+01
 21
-2.08289520E+02
  0
LINE
  8
0
 62
4
 10
-9.07500103E+01
 20
-2.03540256E+02
 11
-5.17500103E+01
 21
-2.03540186E+02
  0
LINE
  8
0
 62
4
 10
-9.07500129E+01
 20
-2.02121978E+02
 11
-5.17500129E+01
 21
-2.02121908E+02
  0
LINE
  8
0
 62
4
 10
-8.92500346E+01
 20
-1.90033860E+02
 11
-5.32500346E+01
 21
-1.90033795E+02
  0
LINE
  8
0
 62
4
 10
-1.05750094E+02
 20
-1.65855480E+02
 11
-1.00750094E+02
 21
-1.65855471E+02
  0
LINE
  8
0
 62
4
 10
-1.05750081E+02
 20
-1.72946869E+02
 11
-1.00750081E+02
 21
-1.72946860E+02
  0
LINE
  8
0
 62
4
 10
-1.05750071E+02
 20
-1.78618212E+02
 11
-1.00750071E+02
 21
-1.78618203E+02
  0
LINE
  8
0
 62
4
 10
-9.52500633E+01
 20
-1.78511046E+02
 11
-8.67500633E+01
 21
-1.78511031E+02
  0
LINE
  8
0
 62
4
 10
-8.62500964E+01
 20
-1.64511036E+02
 11
-9.52500964E+01
 21
-1.64511052E+02
  0
LINE
  8
0
 62
4
 10
-9.57500955E+01
 20
-1.65011053E+02
 11
-9.57500722E+01
 21
-1.78011053E+02
  0
LINE
  8
0
 62
4
 10
-1.05750097E+02
 20
-1.64416523E+02
 11
-1.05750071E+02
 21
-1.78618212E+02
  0
LINE
  8
0
 62
4
 10
-1.00750097E+02
 20
-1.64416523E+02
 11
-1.00750071E+02
 21
-1.78618212E+02
  0
LINE
  8
0
 62
4
 10
-1.00750095E+02
 20
-1.65261045E+02
 11
-9.57500950E+01
 21
-1.65261036E+02
  0
LINE
  8
0
 62
4
 10
-1.00750073E+02
 20
-1.77761045E+02
 11
-9.57500726E+01
 21
-1.77761036E+02
  0
LINE
  8
0
 62
4
 10
-9.92500950E+01
 20
-1.65261042E+02
 11
-9.92500726E+01
 21
-1.77761042E+02
  0
LINE
  8
0
 62
4
 10
-9.92500941E+01
 20
-1.65761042E+02
 11
-9.57500941E+01
 21
-1.65761036E+02
  0
LINE
  8
0
 62
4
 10
-9.92500735E+01
 20
-1.77261042E+02
 11
-9.57500735E+01
 21
-1.77261036E+02
  0
ARC
  8
0
 62
4
 10
-9.52525704E+01
 20
-1.65008577E+02
 40
4.97531232E-01
 50
8.97150889E+01
 51
1.80285117E+02
  0
ARC
  8
0
 62
4
 10
-8.67475875E+01
 20
-1.79008556E+02
 40
4.97531232E-01
 50
3.59715089E+02
 51
9.02851166E+01
  0
ARC
  8
0
 62
4
 10
-5.32475528E+01
 20
-1.91531316E+02
 40
1.49752302E+00
 50
3.59905254E+02
 51
9.00949513E+01
  0
ARC
  8
0
 62
4
 10
-9.52475769E+01
 20
-1.78008559E+02
 40
5.02493390E-01
 50
1.80283706E+02
 51
2.69716500E+02
  0
ARC
  8
0
 62
4
 10
-8.92525109E+01
 20
-1.91531381E+02
 40
1.49752302E+00
 50
8.99052542E+01
 51
1.80094952E+02
  0
LINE
  8
0
 62
6
 10
-7.70350831E+01
 20
-1.97409450E+02
 11
-8.04649577E+01
 21
-1.93979580E+02
  0
LINE
  8
0
 62
6
 10
-8.04649553E+01
 20
-1.97409453E+02
 11
-7.70350856E+01
 21
-1.93979578E+02
  0
ARC
  8
0
 62
4
 10
-3.11312891E+02
 20
-1.71511036E+02
 40
7.00000000E+00
 50
7.79182752E+01
 51
1.00872928E+02
  0
ARC
  8
0
 62
4
 10
-3.11312891E+02
 20
-1.71511036E+02
 40
7.00000000E+00
 50
1.17236957E+02
 51
1.40081725E+02
  0
ARC
  8
0
 62
4
 10
-2.94028486E+02
 20
-1.92528858E+02
 40
2.49501993E+00
 50
1.88855230E+01
 51
1.09114477E+02
  0
ARC
  8
0
 62
4
 10
-3.11996408E+02
 20
-1.98720999E+02
 40
2.50001642E+00
 50
1.09000376E+02
 51
1.98999623E+02
  0
CIRCLE
  8
0
 62
4
 10
-3.11312891E+02
 20
-1.71511036E+02
 40
3.75000000E+00
  0
ARC
  8
0
 62
4
 10
-2.88707092E+02
 20
-1.93448027E+02
 40
9.96609194E-01
 50
3.15516728E+01
 51
1.09414475E+02
  0
ARC
  8
0
 62
4
 10
-2.97901045E+02
 20
-1.99134097E+02
 40
1.18067922E+01
 50
6.08754926E+00
 51
3.17195580E+01
  0
ARC
  8
0
 62
4
 10
-2.87148749E+02
 20
-1.97988770E+02
 40
1.00271607E+00
 50
2.88866852E+02
 51
6.16700057E+00
  0
LINE
  8
0
 62
4
 10
-2.90869452E+02
 20
-1.92504008E+02
 11
-2.88264907E+02
 21
-2.00068157E+02
  0
LINE
  8
0
  6
CENTER
 62
6
 10
-3.19757588E+02
 20
-2.06681474E+02
 11
-2.83894068E+02
 21
-1.94332673E+02
  0
LINE
  8
0
 62
4
 10
-2.86824501E+02
 20
-1.98937613E+02
 11
-2.88460248E+02
 21
-1.99500846E+02
  0
LINE
  8
0
 62
4
 10
-2.90674112E+02
 20
-1.93071319E+02
 11
-2.89038364E+02
 21
-1.92508086E+02
  0
LINE
  8
0
 62
4
 10
-2.88737666E+02
 20
-2.00230941E+02
 11
-2.88264907E+02
 21
-2.00068157E+02
  0
LINE
  8
0
 62
4
 10
-2.91342212E+02
 20
-1.92666792E+02
 11
-2.90869452E+02
 21
-1.92504008E+02
  0
LINE
  8
0
 62
4
 10
-3.10801596E+02
 20
-1.64994523E+02
 11
-3.06178010E+02
 21
-1.63402495E+02
  0
LINE
  8
0
 62
4
 10
-3.13761008E+02
 20
-1.64416523E+02
 11
-3.06391001E+02
 21
-1.65855480E+02
  0
LINE
  8
0
 62
4
 10
-3.16240981E+02
 20
-1.77179255E+02
 11
-3.08870974E+02
 21
-1.78618212E+02
  0
LINE
  8
0
 62
4
 10
-3.06391001E+02
 20
-1.65855480E+02
 11
-3.03949239E+02
 21
-1.72946869E+02
  0
LINE
  8
0
 62
4
 10
-3.18682742E+02
 20
-1.70087866E+02
 11
-3.16240981E+02
 21
-1.77179255E+02
  0
LINE
  8
0
 62
4
 10
-3.18682742E+02
 20
-1.70087866E+02
 11
-3.13761008E+02
 21
-1.64416523E+02
  0
LINE
  8
0
 62
4
 10
-3.08870974E+02
 20
-1.78618212E+02
 11
-3.03949239E+02
 21
-1.72946869E+02
  0
LINE
  8
0
 62
4
 10
-2.99332341E+02
 20
-2.00177307E+02
 11
-2.98518420E+02
 21
-2.02541104E+02
  0
LINE
  8
0
 62
4
 10
-3.03114415E+02
 20
-2.01479580E+02
 11
-3.02300495E+02
 21
-2.03843376E+02
  0
LINE
  8
0
 62
4
 10
-3.02300495E+02
 20
-2.03843376E+02
 11
-2.98518420E+02
 21
-2.02541104E+02
  0
LINE
  8
0
 62
4
 10
-3.03114415E+02
 20
-2.01479580E+02
 11
-2.99332341E+02
 21
-2.00177307E+02
  0
LINE
  8
0
 62
4
 10
-3.05325046E+02
 20
-2.08057675E+02
 11
-2.88086530E+02
 21
-2.02121978E+02
  0
LINE
  8
0
 62
4
 10
-2.87598178E+02
 20
-2.03540256E+02
 11
-2.89060640E+02
 21
-2.08057675E+02
  0
LINE
  8
0
 62
4
 10
-3.14360226E+02
 20
-1.99534909E+02
 11
-3.11425602E+02
 21
-2.08057675E+02
  0
LINE
  8
0
 62
4
 10
-2.91667780E+02
 20
-1.91721274E+02
 11
-2.87598178E+02
 21
-2.03540256E+02
  0
LINE
  8
0
 62
4
 10
-3.00717716E+02
 20
-2.08057675E+02
 11
-2.87598178E+02
 21
-2.03540256E+02
  0
LINE
  8
0
 62
4
 10
-3.12810350E+02
 20
-1.96357192E+02
 11
-2.94845497E+02
 21
-1.90171398E+02
  0
LINE
  8
0
 62
4
 10
-3.14112622E+02
 20
-1.92575118E+02
 11
-3.12810350E+02
 21
-1.96357192E+02
  0
LINE
  8
0
 62
4
 10
-2.96147769E+02
 20
-1.86389323E+02
 11
-2.94845497E+02
 21
-1.90171398E+02
  0
LINE
  8
0
 62
4
 10
-3.12547153E+02
 20
-1.90978463E+02
 11
-2.98364375E+02
 21
-1.86094941E+02
  0
LINE
  8
0
 62
4
 10
-3.14112622E+02
 20
-1.92575118E+02
 11
-2.96147769E+02
 21
-1.86389323E+02
  0
LINE
  8
0
 62
4
 10
-3.20360789E+02
 20
-1.68286017E+02
 11
-3.12221585E+02
 21
-1.91923982E+02
  0
LINE
  8
0
 62
4
 10
-3.06178010E+02
 20
-1.63402495E+02
 11
-2.98038806E+02
 21
-1.87040460E+02
  0
LINE
  8
0
 62
4
 10
-3.20360789E+02
 20
-1.68286017E+02
 11
-3.15737203E+02
 21
-1.66693989E+02
  0
LINE
  8
0
 62
4
 10
-3.19398040E+02
 20
-2.01798378E+02
 11
-3.22447419E+02
 21
-2.08057675E+02
  0
LINE
  8
0
 62
4
 10
-3.19398040E+02
 20
-2.01798378E+02
 11
-3.14197442E+02
 21
-2.00007669E+02
  0
LINE
  8
0
  6
CENTER
 62
6
 10
1.12516621E+02
 20
-2.06681474E+02
 11
7.66531014E+01
 21
-1.94332673E+02
  0
LINE
  8
0
 62
4
 10
9.20913738E+01
 20
-2.00177307E+02
 11
9.12774534E+01
 21
-2.02541104E+02
  0
LINE
  8
0
 62
4
 10
9.58734481E+01
 20
-2.01479580E+02
 11
9.20913738E+01
 21
-2.00177307E+02
  0
LINE
  8
0
 62
4
 10
1.07119259E+02
 20
-1.99534909E+02
 11
1.04184635E+02
 21
-2.08057675E+02
  0
LINE
  8
0
 62
4
 10
8.44268129E+01
 20
-1.91721274E+02
 11
8.03572109E+01
 21
-2.03540256E+02
  0
LINE
  8
0
 62
4
 10
1.11769164E+02
 20
-2.01664811E+02
 11
1.06956475E+02
 21
-2.00007669E+02
  0
LINE
  8
0
 62
4
 10
9.39435960E+01
 20
-1.91296492E+02
 11
9.98814527E+01
 21
-1.93341060E+02
  0
LINE
  8
0
 62
4
 10
9.98814527E+01
 20
-1.93341060E+02
 11
9.98962712E+01
 21
-1.94403784E+02
  0
LINE
  8
0
 62
4
 10
9.32776412E+01
 20
-1.92124806E+02
 11
9.39435960E+01
 21
-1.91296492E+02
  0
LINE
  8
0
  6
CENTER
 62
6
 10
9.76093967E+01
 20
-1.90294912E+02
 11
9.61018596E+01
 21
-1.94673118E+02
  0
ARC
  8
0
 62
4
 10
1.04076644E+02
 20
-1.71512662E+02
 40
7.00000000E+00
 50
3.99182754E+01
 51
1.02081725E+02
  0
LINE
  8
0
 62
4
 10
9.89370433E+01
 20
-1.63402495E+02
 11
1.13119822E+02
 21
-1.68286017E+02
  0
LINE
  8
0
 62
4
 10
9.89370433E+01
 20
-1.63402495E+02
 11
9.07978395E+01
 21
-1.87040460E+02
  0
LINE
  8
0
 62
4
 10
1.13119822E+02
 20
-1.68286017E+02
 11
1.04980618E+02
 21
-1.91923982E+02
  0
LINE
  8
0
 62
4
 10
1.06871655E+02
 20
-1.92575118E+02
 11
8.89068023E+01
 21
-1.86389323E+02
  0
LINE
  8
0
 62
4
 10
1.05306186E+02
 20
-1.90978463E+02
 11
9.11234076E+01
 21
-1.86094941E+02
  0
LINE
  8
0
 62
4
 10
8.89068023E+01
 20
-1.86389323E+02
 11
8.76045297E+01
 21
-1.90171398E+02
  0
LINE
  8
0
 62
4
 10
1.06871655E+02
 20
-1.92575118E+02
 11
1.05569383E+02
 21
-1.96357192E+02
  0
LINE
  8
0
 62
4
 10
1.05569383E+02
 20
-1.96357192E+02
 11
8.76045297E+01
 21
-1.90171398E+02
  0
LINE
  8
0
 62
4
 10
1.07274368E+02
 20
-1.65285739E+02
 11
1.06520041E+02
 21
-1.64416523E+02
  0
LINE
  8
0
 62
4
 10
1.06520041E+02
 20
-1.64416523E+02
 11
1.05390480E+02
 21
-1.64637064E+02
  0
LINE
  8
0
 62
4
 10
8.41012447E+01
 20
-1.92666792E+02
 11
8.36284854E+01
 21
-1.92504008E+02
  0
LINE
  8
0
 62
4
 10
8.14966995E+01
 20
-2.00230941E+02
 11
8.10239402E+01
 21
-2.00068157E+02
  0
LINE
  8
0
 62
4
 10
8.34331445E+01
 20
-1.93071319E+02
 11
8.17973974E+01
 21
-1.92508086E+02
  0
LINE
  8
0
 62
4
 10
7.95835340E+01
 20
-1.98937613E+02
 11
8.12192811E+01
 21
-1.99500846E+02
  0
LINE
  8
0
 62
4
 10
8.36284854E+01
 20
-1.92504008E+02
 11
8.10239402E+01
 21
-2.00068157E+02
  0
ARC
  8
0
 62
4
 10
7.99077823E+01
 20
-1.97988770E+02
 40
1.00271607E+00
 50
1.73833000E+02
 51
2.51133148E+02
  0
ARC
  8
0
 62
4
 10
8.14661251E+01
 20
-1.93448027E+02
 40
9.96609194E-01
 50
7.05855253E+01
 51
1.48448327E+02
  0
ARC
  8
0
 62
4
 10
9.06481025E+01
 20
-1.99172920E+02
 40
1.18081149E+01
 50
1.48089798E+02
 51
1.73718975E+02
  0
ARC
  8
0
 62
4
 10
1.04755441E+02
 20
-1.98720999E+02
 40
2.50001642E+00
 50
3.41000376E+02
 51
7.09996236E+01
  0
ARC
  8
0
 62
4
 10
8.67875188E+01
 20
-1.92528858E+02
 40
2.49501993E+00
 50
7.08855231E+01
 51
1.61114477E+02
  0
LINE
  8
0
 62
4
 10
9.80840792E+01
 20
-2.08057675E+02
 11
8.08455632E+01
 21
-2.02121978E+02
  0
LINE
  8
0
 62
4
 10
9.34767490E+01
 20
-2.08057675E+02
 11
8.03572109E+01
 21
-2.03540256E+02
  0
LINE
  8
0
 62
4
 10
8.03572109E+01
 20
-2.03540256E+02
 11
8.18196734E+01
 21
-2.08057675E+02
  0
LINE
  8
0
 62
4
 10
1.12336612E+02
 20
-2.02166909E+02
 11
1.15206452E+02
 21
-2.08057675E+02
  0
ARC
  8
0
 62
4
 10
1.11441391E+02
 20
-2.02606945E+02
 40
9.97523260E-01
 50
2.61759467E+01
 51
7.08169962E+01
  0
LINE
  8
0
 62
4
 10
9.58734481E+01
 20
-2.01479580E+02
 11
9.50595277E+01
 21
-2.03843376E+02
  0
LINE
  8
0
 62
4
 10
9.50595277E+01
 20
-2.03843376E+02
 11
9.12774534E+01
 21
-2.02541104E+02
  0
LINE
  8
0
  6
CENTER
 62
6
 10
-7.87499860E+01
 20
-6.16705764E+01
 11
-7.87499860E+01
 21
-1.11657675E+02
  0
LINE
  8
0
 62
4
 10
-7.12499860E+01
 20
-7.53112274E+01
 11
-5.32499860E+01
 21
-7.53112274E+01
  0
LINE
  8
0
 62
4
 10
-8.92499860E+01
 20
-9.73259519E+01
 11
-5.32499860E+01
 21
-9.73259519E+01
  0
LINE
  8
0
  6
CENTER
 62
6
 10
-6.84942369E+01
 20
-8.56541859E+01
 11
-5.70057350E+01
 21
-8.56541859E+01
  0
LINE
  8
0
 62
4
 10
-7.53499860E+01
 20
-1.02209474E+02
 11
-5.32499860E+01
 21
-1.02209474E+02
  0
LINE
  8
0
 62
4
 10
-8.82499860E+01
 20
-9.49621555E+01
 11
-6.92499860E+01
 21
-9.49621555E+01
  0
LINE
  8
0
 62
4
 10
-8.62499860E+01
 20
-9.17688457E+01
 11
-7.12499860E+01
 21
-9.17688457E+01
  0
LINE
  8
0
  6
CENTER
 62
6
 10
-8.34260838E+01
 20
-7.65382525E+01
 11
-7.40738882E+01
 21
-7.65382525E+01
  0
POLYLINE
  8
0
 62
4
 66
1
  0
VERTEX
  8
0
 62
4
 10
-7.53499860E+01
 20
-1.00240472E+02
  0
VERTEX
  8
0
 62
4
 10
-7.53636734E+01
 20
-1.00141247E+02
  0
VERTEX
  8
0
 62
4
 10
-7.54046254E+01
 20
-1.00042822E+02
  0
VERTEX
  8
0
 62
4
 10
-7.54725123E+01
 20
-9.99459874E+01
  0
VERTEX
  8
0
 62
4
 10
-7.55667874E+01
 20
-9.98515241E+01
  0
VERTEX
  8
0
 62
4
 10
-7.56866918E+01
 20
-9.97601923E+01
  0
VERTEX
  8
0
 62
4
 10
-7.58312601E+01
 20
-9.96727275E+01
  0
VERTEX
  8
0
 62
4
 10
-7.59993282E+01
 20
-9.95898339E+01
  0
VERTEX
  8
0
 62
4
 10
-7.61895430E+01
 20
-9.95121787E+01
  0
VERTEX
  8
0
 62
4
 10
-7.64003730E+01
 20
-9.94403874E+01
  0
VERTEX
  8
0
 62
4
 10
-7.66301207E+01
 20
-9.93750379E+01
  0
VERTEX
  8
0
 62
4
 10
-7.68769363E+01
 20
-9.93166564E+01
  0
VERTEX
  8
0
 62
4
 10
-7.71388325E+01
 20
-9.92657129E+01
  0
VERTEX
  8
0
 62
4
 10
-7.74137009E+01
 20
-9.92226175E+01
  0
VERTEX
  8
0
 62
4
 10
-7.76993282E+01
 20
-9.91877174E+01
  0
VERTEX
  8
0
 62
4
 10
-7.79934148E+01
 20
-9.91612934E+01
  0
VERTEX
  8
0
 62
4
 10
-7.82935929E+01
 20
-9.91435583E+01
  0
VERTEX
  8
0
 62
4
 10
-7.85974456E+01
 20
-9.91346549E+01
  0
VERTEX
  8
0
 62
4
 10
-7.89025264E+01
 20
-9.91346549E+01
  0
VERTEX
  8
0
 62
4
 10
-7.92063791E+01
 20
-9.91435583E+01
  0
VERTEX
  8
0
 62
4
 10
-7.95065572E+01
 20
-9.91612934E+01
  0
VERTEX
  8
0
 62
4
 10
-7.98006438E+01
 20
-9.91877174E+01
  0
VERTEX
  8
0
 62
4
 10
-8.00862711E+01
 20
-9.92226175E+01
  0
VERTEX
  8
0
 62
4
 10
-8.03611394E+01
 20
-9.92657129E+01
  0
VERTEX
  8
0
 62
4
 10
-8.06230357E+01
 20
-9.93166564E+01
  0
VERTEX
  8
0
 62
4
 10
-8.08698513E+01
 20
-9.93750379E+01
  0
VERTEX
  8
0
 62
4
 10
-8.10995990E+01
 20
-9.94403874E+01
  0
VERTEX
  8
0
 62
4
 10
-8.13104290E+01
 20
-9.95121787E+01
  0
VERTEX
  8
0
 62
4
 10
-8.15006438E+01
 20
-9.95898339E+01
  0
VERTEX
  8
0
 62
4
 10
-8.16687119E+01
 20
-9.96727275E+01
  0
VERTEX
  8
0
 62
4
 10
-8.18132801E+01
 20
-9.97601923E+01
  0
VERTEX
  8
0
 62
4
 10
-8.19331846E+01
 20
-9.98515241E+01
  0
VERTEX
  8
0
 62
4
 10
-8.20274597E+01
 20
-9.99459874E+01
  0
VERTEX
  8
0
 62
4
 10
-8.20953466E+01
 20
-1.00042822E+02
  0
VERTEX
  8
0
 62
4
 10
-8.21362986E+01
 20
-1.00141247E+02
  0
VERTEX
  8
0
 62
4
 10
-8.21499860E+01
 20
-1.00240472E+02
  0
SEQEND
  8
0
  0
LINE
  8
0
 62
4
 10
-8.27499860E+01
 20
-9.97677130E+01
 11
-8.27499860E+01
 21
-1.00240472E+02
  0
LINE
  8
0
 62
4
 10
-7.47499860E+01
 20
-9.97677130E+01
 11
-7.47499860E+01
 21
-1.00240472E+02
  0
POLYLINE
  8
0
 62
4
 66
1
  0
VERTEX
  8
0
 62
4
 10
-7.53499860E+01
 20
-1.00926487E+02
  0
VERTEX
  8
0
 62
4
 10
-7.51769340E+01
 20
-1.00825888E+02
  0
VERTEX
  8
0
 62
4
 10
-7.50318910E+01
 20
-1.00720701E+02
  0
VERTEX
  8
0
 62
4
 10
-7.49159942E+01
 20
-1.00611749E+02
  0
VERTEX
  8
0
 62
4
 10
-7.48301519E+01
 20
-1.00499887E+02
  0
VERTEX
  8
0
 62
4
 10
-7.47750371E+01
 20
-1.00385991E+02
  0
VERTEX
  8
0
 62
4
 10
-7.47510819E+01
 20
-1.00270954E+02
  0
VERTEX
  8
0
 62
4
 10
-7.47584741E+01
 20
-1.00155679E+02
  0
VERTEX
  8
0
 62
4
 10
-7.47971556E+01
 20
-1.00041068E+02
  0
VERTEX
  8
0
 62
4
 10
-7.48668233E+01
 20
-9.99280203E+01
  0
VERTEX
  8
0
 62
4
 10
-7.49669310E+01
 20
-9.98174219E+01
  0
VERTEX
  8
0
 62
4
 10
-7.50966941E+01
 20
-9.97101397E+01
  0
VERTEX
  8
0
 62
4
 10
-7.52550952E+01
 20
-9.96070149E+01
  0
VERTEX
  8
0
 62
4
 10
-7.54408927E+01
 20
-9.95088557E+01
  0
VERTEX
  8
0
 62
4
 10
-7.56526302E+01
 20
-9.94164316E+01
  0
VERTEX
  8
0
 62
4
 10
-7.58886478E+01
 20
-9.93304672E+01
  0
VERTEX
  8
0
 62
4
 10
-7.61470953E+01
 20
-9.92516362E+01
  0
VERTEX
  8
0
 62
4
 10
-7.64259469E+01
 20
-9.91805568E+01
  0
VERTEX
  8
0
 62
4
 10
-7.67230165E+01
 20
-9.91177860E+01
  0
VERTEX
  8
0
 62
4
 10
-7.70359756E+01
 20
-9.90638159E+01
  0
VERTEX
  8
0
 62
4
 10
-7.73623707E+01
 20
-9.90190696E+01
  0
VERTEX
  8
0
 62
4
 10
-7.76996434E+01
 20
-9.89838978E+01
  0
VERTEX
  8
0
 62
4
 10
-7.80451496E+01
 20
-9.89585764E+01
  0
VERTEX
  8
0
 62
4
 10
-7.83961811E+01
 20
-9.89433036E+01
  0
VERTEX
  8
0
 62
4
 10
-7.87499860E+01
 20
-9.89381994E+01
  0
VERTEX
  8
0
 62
4
 10
-7.91037909E+01
 20
-9.89433036E+01
  0
VERTEX
  8
0
 62
4
 10
-7.94548224E+01
 20
-9.89585764E+01
  0
VERTEX
  8
0
 62
4
 10
-7.98003286E+01
 20
-9.89838978E+01
  0
VERTEX
  8
0
 62
4
 10
-8.01376012E+01
 20
-9.90190696E+01
  0
VERTEX
  8
0
 62
4
 10
-8.04639964E+01
 20
-9.90638159E+01
  0
VERTEX
  8
0
 62
4
 10
-8.07769554E+01
 20
-9.91177860E+01
  0
VERTEX
  8
0
 62
4
 10
-8.10740251E+01
 20
-9.91805568E+01
  0
VERTEX
  8
0
 62
4
 10
-8.13528767E+01
 20
-9.92516362E+01
  0
VERTEX
  8
0
 62
4
 10
-8.16113242E+01
 20
-9.93304672E+01
  0
VERTEX
  8
0
 62
4
 10
-8.18473418E+01
 20
-9.94164316E+01
  0
VERTEX
  8
0
 62
4
 10
-8.20590792E+01
 20
-9.95088557E+01
  0
VERTEX
  8
0
 62
4
 10
-8.22448768E+01
 20
-9.96070149E+01
  0
VERTEX
  8
0
 62
4
 10
-8.24032779E+01
 20
-9.97101397E+01
  0
VERTEX
  8
0
 62
4
 10
-8.25330410E+01
 20
-9.98174219E+01
  0
VERTEX
  8
0
 62
4
 10
-8.26331487E+01
 20
-9.99280203E+01
  0
VERTEX
  8
0
 62
4
 10
-8.27028164E+01
 20
-1.00041068E+02
  0
VERTEX
  8
0
 62
4
 10
-8.27414979E+01
 20
-1.00155679E+02
  0
VERTEX
  8
0
 62
4
 10
-8.27488901E+01
 20
-1.00270954E+02
  0
VERTEX
  8
0
 62
4
 10
-8.27249349E+01
 20
-1.00385991E+02
  0
VERTEX
  8
0
 62
4
 10
-8.26698201E+01
 20
-1.00499887E+02
  0
VERTEX
  8
0
 62
4
 10
-8.25839778E+01
 20
-1.00611749E+02
  0
VERTEX
  8
0
 62
4
 10
-8.24680810E+01
 20
-1.00720701E+02
  0
VERTEX
  8
0
 62
4
 10
-8.23230380E+01
 20
-1.00825888E+02
  0
VERTEX
  8
0
 62
4
 10
-8.21499860E+01
 20
-1.00926487E+02
  0
SEQEND
  8
0
  0
POLYLINE
  8
0
 62
4
 66
1
  0
VERTEX
  8
0
 62
4
 10
-7.47499860E+01
 20
-9.97677131E+01
  0
VERTEX
  8
0
 62
4
 10
-7.47660888E+01
 20
-9.96509783E+01
  0
VERTEX
  8
0
 62
4
 10
-7.48142676E+01
 20
-9.95351833E+01
  0
VERTEX
  8
0
 62
4
 10
-7.48941346E+01
 20
-9.94212606E+01
  0
VERTEX
  8
0
 62
4
 10
-7.50050465E+01
 20
-9.93101273E+01
  0
VERTEX
  8
0
 62
4
 10
-7.51461105E+01
 20
-9.92026782E+01
  0
VERTEX
  8
0
 62
4
 10
-7.53161908E+01
 20
-9.90997784E+01
  0
VERTEX
  8
0
 62
4
 10
-7.55139180E+01
 20
-9.90022565E+01
  0
VERTEX
  8
0
 62
4
 10
-7.57377001E+01
 20
-9.89108975E+01
  0
VERTEX
  8
0
 62
4
 10
-7.59857354E+01
 20
-9.88264371E+01
  0
VERTEX
  8
0
 62
4
 10
-7.62560268E+01
 20
-9.87495554E+01
  0
VERTEX
  8
0
 62
4
 10
-7.65463981E+01
 20
-9.86808712E+01
  0
VERTEX
  8
0
 62
4
 10
-7.68545113E+01
 20
-9.86209377E+01
  0
VERTEX
  8
0
 62
4
 10
-7.71778859E+01
 20
-9.85702373E+01
  0
VERTEX
  8
0
 62
4
 10
-7.75139180E+01
 20
-9.85291782E+01
  0
VERTEX
  8
0
 62
4
 10
-7.78599023E+01
 20
-9.84980912E+01
  0
VERTEX
  8
0
 62
4
 10
-7.82130529E+01
 20
-9.84772264E+01
  0
VERTEX
  8
0
 62
4
 10
-7.85705267E+01
 20
-9.84667518E+01
  0
VERTEX
  8
0
 62
4
 10
-7.89294453E+01
 20
-9.84667518E+01
  0
VERTEX
  8
0
 62
4
 10
-7.92869191E+01
 20
-9.84772264E+01
  0
VERTEX
  8
0
 62
4
 10
-7.96400697E+01
 20
-9.84980912E+01
  0
VERTEX
  8
0
 62
4
 10
-7.99860540E+01
 20
-9.85291782E+01
  0
VERTEX
  8
0
 62
4
 10
-8.03220861E+01
 20
-9.85702373E+01
  0
VERTEX
  8
0
 62
4
 10
-8.06454606E+01
 20
-9.86209376E+01
  0
VERTEX
  8
0
 62
4
 10
-8.09535739E+01
 20
-9.86808712E+01
  0
VERTEX
  8
0
 62
4
 10
-8.12439452E+01
 20
-9.87495554E+01
  0
VERTEX
  8
0
 62
4
 10
-8.15142366E+01
 20
-9.88264371E+01
  0
VERTEX
  8
0
 62
4
 10
-8.17622719E+01
 20
-9.89108975E+01
  0
VERTEX
  8
0
 62
4
 10
-8.19860540E+01
 20
-9.90022565E+01
  0
VERTEX
  8
0
 62
4
 10
-8.21837812E+01
 20
-9.90997784E+01
  0
VERTEX
  8
0
 62
4
 10
-8.23538615E+01
 20
-9.92026782E+01
  0
VERTEX
  8
0
 62
4
 10
-8.24949255E+01
 20
-9.93101273E+01
  0
VERTEX
  8
0
 62
4
 10
-8.26058374E+01
 20
-9.94212606E+01
  0
VERTEX
  8
0
 62
4
 10
-8.26857044E+01
 20
-9.95351833E+01
  0
VERTEX
  8
0
 62
4
 10
-8.27338832E+01
 20
-9.96509783E+01
  0
VERTEX
  8
0
 62
4
 10
-8.27499860E+01
 20
-9.97677131E+01
  0
SEQEND
  8
0
  0
LINE
  8
0
 62
4
 10
-9.57499860E+01
 20
-7.19947616E+01
 11
-9.57499860E+01
 21
-8.49947616E+01
  0
ARC
  8
0
 62
4
 10
-9.52474834E+01
 20
-7.19972642E+01
 40
5.02508801E-01
 50
9.02853429E+01
 51
1.79714657E+02
  0
LINE
  8
0
 62
4
 10
-8.62499860E+01
 20
-7.14947616E+01
 11
-9.52499860E+01
 21
-7.14947616E+01
  0
LINE
  8
0
 62
4
 10
-1.05749986E+02
 20
-8.58584128E+01
 11
-1.00749986E+02
 21
-8.58584128E+01
  0
LINE
  8
0
 62
4
 10
-1.05749986E+02
 20
-8.34166516E+01
 11
-1.00749986E+02
 21
-8.34166516E+01
  0
LINE
  8
0
 62
4
 10
-1.05749986E+02
 20
-7.60466446E+01
 11
-1.00749986E+02
 21
-7.60466446E+01
  0
ARC
  8
0
 62
4
 10
-8.92524841E+01
 20
-1.00711972E+02
 40
1.49750400E+00
 50
1.79904421E+02
 51
2.70095579E+02
  0
LINE
  8
0
 62
4
 10
-8.92499860E+01
 20
-1.02209474E+02
 11
-8.21499860E+01
 21
-1.02209474E+02
  0
POLYLINE
  8
0
 62
4
 66
1
  0
VERTEX
  8
0
 62
4
 10
-7.57499860E+01
 20
-7.65382525E+01
  0
VERTEX
  8
0
 62
4
 10
-7.57614019E+01
 20
-7.62910304E+01
  0
VERTEX
  8
0
 62
4
 10
-7.57955627E+01
 20
-7.60456898E+01
  0
VERTEX
  8
0
 62
4
 10
-7.58522085E+01
 20
-7.58040979E+01
  0
VERTEX
  8
0
 62
4
 10
-7.59309081E+01
 20
-7.55680933E+01
  0
VERTEX
  8
0
 62
4
 10
-7.60310626E+01
 20
-7.53394722E+01
  0
VERTEX
  8
0
 62
4
 10
-7.61519098E+01
 20
-7.51199746E+01
  0
VERTEX
  8
0
 62
4
 10
-7.62925299E+01
 20
-7.49112710E+01
  0
VERTEX
  8
0
 62
4
 10
-7.64518527E+01
 20
-7.47149496E+01
  0
VERTEX
  8
0
 62
4
 10
-7.66286657E+01
 20
-7.45325047E+01
  0
VERTEX
  8
0
 62
4
 10
-7.68216232E+01
 20
-7.43653247E+01
  0
VERTEX
  8
0
 62
4
 10
-7.70292567E+01
 20
-7.42146821E+01
  0
VERTEX
  8
0
 62
4
 10
-7.72499860E+01
 20
-7.40817232E+01
  0
VERTEX
  8
0
 62
4
 10
-7.74821312E+01
 20
-7.39674600E+01
  0
VERTEX
  8
0
 62
4
 10
-7.77239256E+01
 20
-7.38727620E+01
  0
VERTEX
  8
0
 62
4
 10
-7.79735289E+01
 20
-7.37983501E+01
  0
VERTEX
  8
0
 62
4
 10
-7.82290415E+01
 20
-7.37447904E+01
  0
VERTEX
  8
0
 62
4
 10
-7.84885188E+01
 20
-7.37124907E+01
  0
VERTEX
  8
0
 62
4
 10
-7.87499860E+01
 20
-7.37016968E+01
  0
VERTEX
  8
0
 62
4
 10
-7.90114532E+01
 20
-7.37124907E+01
  0
VERTEX
  8
0
 62
4
 10
-7.92709305E+01
 20
-7.37447904E+01
  0
VERTEX
  8
0
 62
4
 10
-7.95264431E+01
 20
-7.37983501E+01
  0
VERTEX
  8
0
 62
4
 10
-7.97760464E+01
 20
-7.38727620E+01
  0
VERTEX
  8
0
 62
4
 10
-8.00178408E+01
 20
-7.39674600E+01
  0
VERTEX
  8
0
 62
4
 10
-8.02499860E+01
 20
-7.40817232E+01
  0
VERTEX
  8
0
 62
4
 10
-8.04707153E+01
 20
-7.42146821E+01
  0
VERTEX
  8
0
 62
4
 10
-8.06783488E+01
 20
-7.43653247E+01
  0
VERTEX
  8
0
 62
4
 10
-8.08713063E+01
 20
-7.45325047E+01
  0
VERTEX
  8
0
 62
4
 10
-8.10481193E+01
 20
-7.47149496E+01
  0
VERTEX
  8
0
 62
4
 10
-8.12074421E+01
 20
-7.49112710E+01
  0
VERTEX
  8
0
 62
4
 10
-8.13480622E+01
 20
-7.51199746E+01
  0
VERTEX
  8
0
 62
4
 10
-8.14689094E+01
 20
-7.53394723E+01
  0
VERTEX
  8
0
 62
4
 10
-8.15690639E+01
 20
-7.55680933E+01
  0
VERTEX
  8
0
 62
4
 10
-8.16477635E+01
 20
-7.58040979E+01
  0
VERTEX
  8
0
 62
4
 10
-8.17044093E+01
 20
-7.60456898E+01
  0
VERTEX
  8
0
 62
4
 10
-8.17385701E+01
 20
-7.62910304E+01
  0
VERTEX
  8
0
 62
4
 10
-8.17499860E+01
 20
-7.65382525E+01
  0
VERTEX
  8
0
 62
4
 10
-8.17385701E+01
 20
-7.67854746E+01
  0
VERTEX
  8
0
 62
4
 10
-8.17044093E+01
 20
-7.70308152E+01
  0
VERTEX
  8
0
 62
4
 10
-8.16477635E+01
 20
-7.72724071E+01
  0
VERTEX
  8
0
 62
4
 10
-8.15690639E+01
 20
-7.75084117E+01
  0
VERTEX
  8
0
 62
4
 10
-8.14689094E+01
 20
-7.77370328E+01
  0
VERTEX
  8
0
 62
4
 10
-8.13480622E+01
 20
-7.79565304E+01
  0
VERTEX
  8
0
 62
4
 10
-8.12074421E+01
 20
-7.81652340E+01
  0
VERTEX
  8
0
 62
4
 10
-8.10481193E+01
 20
-7.83615554E+01
  0
VERTEX
  8
0
 62
4
 10
-8.08713063E+01
 20
-7.85440003E+01
  0
VERTEX
  8
0
 62
4
 10
-8.06783488E+01
 20
-7.87111803E+01
  0
VERTEX
  8
0
 62
4
 10
-8.04707153E+01
 20
-7.88618229E+01
  0
VERTEX
  8
0
 62
4
 10
-8.02499860E+01
 20
-7.89947818E+01
  0
VERTEX
  8
0
 62
4
 10
-8.00178408E+01
 20
-7.91090450E+01
  0
VERTEX
  8
0
 62
4
 10
-7.97760464E+01
 20
-7.92037430E+01
  0
VERTEX
  8
0
 62
4
 10
-7.95264431E+01
 20
-7.92781549E+01
  0
VERTEX
  8
0
 62
4
 10
-7.92709305E+01
 20
-7.93317146E+01
  0
VERTEX
  8
0
 62
4
 10
-7.90114532E+01
 20
-7.93640143E+01
  0
VERTEX
  8
0
 62
4
 10
-7.87499860E+01
 20
-7.93748082E+01
  0
VERTEX
  8
0
 62
4
 10
-7.84885188E+01
 20
-7.93640143E+01
  0
VERTEX
  8
0
 62
4
 10
-7.82290415E+01
 20
-7.93317146E+01
  0
VERTEX
  8
0
 62
4
 10
-7.79735289E+01
 20
-7.92781549E+01
  0
VERTEX
  8
0
 62
4
 10
-7.77239256E+01
 20
-7.92037430E+01
  0
VERTEX
  8
0
 62
4
 10
-7.74821312E+01
 20
-7.91090450E+01
  0
VERTEX
  8
0
 62
4
 10
-7.72499860E+01
 20
-7.89947818E+01
  0
VERTEX
  8
0
 62
4
 10
-7.70292567E+01
 20
-7.88618229E+01
  0
VERTEX
  8
0
 62
4
 10
-7.68216232E+01
 20
-7.87111803E+01
  0
VERTEX
  8
0
 62
4
 10
-7.66286657E+01
 20
-7.85440003E+01
  0
VERTEX
  8
0
 62
4
 10
-7.64518527E+01
 20
-7.83615554E+01
  0
VERTEX
  8
0
 62
4
 10
-7.62925299E+01
 20
-7.81652340E+01
  0
VERTEX
  8
0
 62
4
 10
-7.61519098E+01
 20
-7.79565304E+01
  0
VERTEX
  8
0
 62
4
 10
-7.60310626E+01
 20
-7.77370327E+01
  0
VERTEX
  8
0
 62
4
 10
-7.59309081E+01
 20
-7.75084117E+01
  0
VERTEX
  8
0
 62
4
 10
-7.58522085E+01
 20
-7.72724071E+01
  0
VERTEX
  8
0
 62
4
 10
-7.57955627E+01
 20
-7.70308152E+01
  0
VERTEX
  8
0
 62
4
 10
-7.57614019E+01
 20
-7.67854746E+01
  0
VERTEX
  8
0
 62
4
 10
-7.57499860E+01
 20
-7.65382525E+01
  0
SEQEND
  8
0
  0
LINE
  8
0
 62
4
 10
-7.12499860E+01
 20
-7.56950299E+01
 11
-6.92499860E+01
 21
-7.56950299E+01
  0
LINE
  8
0
 62
4
 10
-8.82499860E+01
 20
-9.36598828E+01
 11
-6.92499860E+01
 21
-9.36598828E+01
  0
LINE
  8
0
 62
4
 10
-8.62499860E+01
 20
-6.94468632E+01
 11
-7.12499860E+01
 21
-6.94468632E+01
  0
ARC
  8
0
 62
4
 10
-9.52524761E+01
 20
-8.49972517E+01
 40
4.97516125E-01
 50
1.79713229E+02
 51
2.70286771E+02
  0
LINE
  8
0
 62
4
 10
-9.07499860E+01
 20
-8.54947616E+01
 11
-9.07499860E+01
 21
-1.00557706E+02
  0
LINE
  8
0
 62
4
 10
-6.92499860E+01
 20
-7.56950299E+01
 11
-6.92499860E+01
 21
-9.49621555E+01
  0
LINE
  8
0
 62
4
 10
-8.82499860E+01
 20
-9.49621555E+01
 11
-8.82499860E+01
 21
-8.54947616E+01
  0
LINE
  8
0
 62
4
 10
-1.05749986E+02
 20
-7.11249101E+01
 11
-1.00749986E+02
 21
-7.11249101E+01
  0
LINE
  8
0
 62
4
 10
-8.62499860E+01
 20
-8.36296418E+01
 11
-7.12499860E+01
 21
-8.36296418E+01
  0
LINE
  8
0
 62
4
 10
-9.92499860E+01
 20
-8.42447616E+01
 11
-9.57499860E+01
 21
-8.42447616E+01
  0
LINE
  8
0
 62
4
 10
-9.92499860E+01
 20
-7.27447616E+01
 11
-9.57499860E+01
 21
-7.27447616E+01
  0
LINE
  8
0
 62
4
 10
-9.92499860E+01
 20
-7.22447616E+01
 11
-9.92499860E+01
 21
-8.47447616E+01
  0
LINE
  8
0
 62
4
 10
-1.00749986E+02
 20
-8.47447616E+01
 11
-9.57499860E+01
 21
-8.47447616E+01
  0
LINE
  8
0
 62
4
 10
-1.00749986E+02
 20
-7.22447616E+01
 11
-9.57499860E+01
 21
-7.22447616E+01
  0
LINE
  8
0
 62
4
 10
-1.00749986E+02
 20
-7.11249101E+01
 11
-1.00749986E+02
 21
-8.58584128E+01
  0
LINE
  8
0
 62
4
 10
-1.05749986E+02
 20
-8.58584128E+01
 11
-1.05749986E+02
 21
-7.11249101E+01
  0
LINE
  8
0
 62
4
 10
-9.52499860E+01
 20
-8.54947616E+01
 11
-8.62499860E+01
 21
-8.54947616E+01
  0
LINE
  8
0
 62
4
 10
-8.21499860E+01
 20
-1.02437988E+02
 11
-8.21499860E+01
 21
-1.00240472E+02
  0
LINE
  8
0
 62
4
 10
-7.53499860E+01
 20
-1.00240472E+02
 11
-7.53499860E+01
 21
-1.02437988E+02
  0
LINE
  8
0
 62
6
 10
-8.12499860E+01
 20
-6.18100814E+01
 11
-8.12499860E+01
 21
-6.29800814E+01
  0
LINE
  8
0
 62
4
 10
-8.47499860E+01
 20
-6.28100814E+01
 11
-8.44899860E+01
 21
-6.18100814E+01
  0
LINE
  8
0
 62
4
 10
-8.07499860E+01
 20
-6.28100814E+01
 11
-8.10199860E+01
 21
-6.18100814E+01
  0
LINE
  8
0
 62
4
 10
-8.10199860E+01
 20
-6.18100814E+01
 11
-8.44899860E+01
 21
-6.18100814E+01
  0
LINE
  8
0
 62
4
 10
-8.47499860E+01
 20
-6.28100814E+01
 11
-8.47499860E+01
 21
-6.29800814E+01
  0
LINE
  8
0
 62
4
 10
-8.07499860E+01
 20
-6.28100814E+01
 11
-8.07499860E+01
 21
-6.29800814E+01
  0
LINE
  8
0
 62
6
 10
-8.42499860E+01
 20
-6.18100814E+01
 11
-8.42499860E+01
 21
-6.29800814E+01
  0
LINE
  8
0
  6
CENTER
 62
6
 10
-8.27499860E+01
 20
-5.99800814E+01
 11
-8.27499860E+01
 21
-7.04800814E+01
  0
LINE
  8
0
 62
4
 10
-7.12499860E+01
 20
-6.29800814E+01
 11
-8.62499860E+01
 21
-6.29800814E+01
  0
LINE
  8
0
 62
4
 10
-7.12499860E+01
 20
-6.29800814E+01
 11
-7.12499860E+01
 21
-9.17688457E+01
  0
LINE
  8
0
 62
4
 10
-8.62499860E+01
 20
-6.29800814E+01
 11
-8.62499860E+01
 21
-9.17688457E+01
  0
LINE
  8
0
 62
6
 10
-7.62499860E+01
 20
-6.18100814E+01
 11
-7.62499860E+01
 21
-6.29800814E+01
  0
LINE
  8
0
 62
6
 10
-7.32499860E+01
 20
-6.18100814E+01
 11
-7.32499860E+01
 21
-6.29800814E+01
  0
LINE
  8
0
 62
4
 10
-7.67499860E+01
 20
-6.28100814E+01
 11
-7.64899860E+01
 21
-6.18100814E+01
  0
LINE
  8
0
 62
4
 10
-7.27499860E+01
 20
-6.28100814E+01
 11
-7.30199860E+01
 21
-6.18100814E+01
  0
LINE
  8
0
 62
4
 10
-7.30199860E+01
 20
-6.18100814E+01
 11
-7.64899860E+01
 21
-6.18100814E+01
  0
LINE
  8
0
 62
4
 10
-7.67499860E+01
 20
-6.28100814E+01
 11
-7.67499860E+01
 21
-6.29800814E+01
  0
LINE
  8
0
 62
4
 10
-7.27499860E+01
 20
-6.28100814E+01
 11
-7.27499860E+01
 21
-6.29800814E+01
  0
LINE
  8
0
  6
CENTER
 62
6
 10
-7.47499860E+01
 20
-5.99800814E+01
 11
-7.47499860E+01
 21
-7.04800814E+01
  0
ARC
  8
0
 62
4
 10
-8.92524841E+01
 20
-9.58284500E+01
 40
1.49750400E+00
 50
1.79904421E+02
 51
2.70095579E+02
  0
ARC
  8
0
 62
4
 10
-8.29855810E+01
 20
-9.16601848E+01
 40
1.21769740E+01
 50
2.83121604E+02
 51
2.99537899E+02
  0
ARC
  8
0
 62
4
 10
-7.45143910E+01
 20
-9.16601848E+01
 40
1.21769740E+01
 50
2.40462101E+02
 51
2.56878396E+02
  0
POLYLINE
  8
0
 62
4
 66
1
  0
VERTEX
  8
0
 62
4
 10
-7.53499860E+01
 20
-1.02215453E+02
  0
VERTEX
  8
0
 62
4
 10
-7.53629240E+01
 20
-1.02089411E+02
  0
VERTEX
  8
0
 62
4
 10
-7.54016396E+01
 20
-1.01964329E+02
  0
VERTEX
  8
0
 62
4
 10
-7.54658382E+01
 20
-1.01841158E+02
  0
VERTEX
  8
0
 62
4
 10
-7.55550311E+01
 20
-1.01720835E+02
  0
VERTEX
  8
0
 62
4
 10
-7.56685395E+01
 20
-1.01604277E+02
  0
VERTEX
  8
0
 62
4
 10
-7.58054996E+01
 20
-1.01492370E+02
  0
VERTEX
  8
0
 62
4
 10
-7.59648690E+01
 20
-1.01385966E+02
  0
VERTEX
  8
0
 62
4
 10
-7.61454349E+01
 20
-1.01285876E+02
  0
VERTEX
  8
0
 62
4
 10
-7.63458229E+01
 20
-1.01192859E+02
  0
VERTEX
  8
0
 62
4
 10
-7.65645081E+01
 20
-1.01107626E+02
  0
VERTEX
  8
0
 62
4
 10
-7.67998261E+01
 20
-1.01030823E+02
  0
VERTEX
  8
0
 62
4
 10
-7.70499860E+01
 20
-1.00963037E+02
  0
VERTEX
  8
0
 62
4
 10
-7.73130839E+01
 20
-1.00904782E+02
  0
VERTEX
  8
0
 62
4
 10
-7.75871175E+01
 20
-1.00856502E+02
  0
VERTEX
  8
0
 62
4
 10
-7.78700012E+01
 20
-1.00818564E+02
  0
VERTEX
  8
0
 62
4
 10
-7.81595822E+01
 20
-1.00791258E+02
  0
VERTEX
  8
0
 62
4
 10
-7.84536565E+01
 20
-1.00774790E+02
  0
VERTEX
  8
0
 62
4
 10
-7.87499860E+01
 20
-1.00769287E+02
  0
VERTEX
  8
0
 62
4
 10
-7.90463155E+01
 20
-1.00774790E+02
  0
VERTEX
  8
0
 62
4
 10
-7.93403898E+01
 20
-1.00791258E+02
  0
VERTEX
  8
0
 62
4
 10
-7.96299708E+01
 20
-1.00818564E+02
  0
VERTEX
  8
0
 62
4
 10
-7.99128545E+01
 20
-1.00856502E+02
  0
VERTEX
  8
0
 62
4
 10
-8.01868881E+01
 20
-1.00904782E+02
  0
VERTEX
  8
0
 62
4
 10
-8.04499860E+01
 20
-1.00963037E+02
  0
VERTEX
  8
0
 62
4
 10
-8.07001459E+01
 20
-1.01030823E+02
  0
VERTEX
  8
0
 62
4
 10
-8.09354639E+01
 20
-1.01107626E+02
  0
VERTEX
  8
0
 62
4
 10
-8.11541491E+01
 20
-1.01192859E+02
  0
VERTEX
  8
0
 62
4
 10
-8.13545371E+01
 20
-1.01285876E+02
  0
VERTEX
  8
0
 62
4
 10
-8.15351030E+01
 20
-1.01385966E+02
  0
VERTEX
  8
0
 62
4
 10
-8.16944724E+01
 20
-1.01492370E+02
  0
VERTEX
  8
0
 62
4
 10
-8.18314325E+01
 20
-1.01604277E+02
  0
VERTEX
  8
0
 62
4
 10
-8.19449409E+01
 20
-1.01720835E+02
  0
VERTEX
  8
0
 62
4
 10
-8.20341338E+01
 20
-1.01841158E+02
  0
VERTEX
  8
0
 62
4
 10
-8.20983324E+01
 20
-1.01964329E+02
  0
VERTEX
  8
0
 62
4
 10
-8.21370480E+01
 20
-1.02089411E+02
  0
VERTEX
  8
0
 62
4
 10
-8.21499860E+01
 20
-1.02215453E+02
  0
VERTEX
  8
0
 62
4
 10
-8.21370480E+01
 20
-1.02341495E+02
  0
VERTEX
  8
0
 62
4
 10
-8.20983324E+01
 20
-1.02466577E+02
  0
VERTEX
  8
0
 62
4
 10
-8.20341338E+01
 20
-1.02589748E+02
  0
VERTEX
  8
0
 62
4
 10
-8.19449409E+01
 20
-1.02710071E+02
  0
VERTEX
  8
0
 62
4
 10
-8.18314325E+01
 20
-1.02826629E+02
  0
VERTEX
  8
0
 62
4
 10
-8.16944724E+01
 20
-1.02938536E+02
  0
VERTEX
  8
0
 62
4
 10
-8.15351029E+01
 20
-1.03044940E+02
  0
VERTEX
  8
0
 62
4
 10
-8.13545371E+01
 20
-1.03145030E+02
  0
VERTEX
  8
0
 62
4
 10
-8.11541491E+01
 20
-1.03238047E+02
  0
VERTEX
  8
0
 62
4
 10
-8.09354639E+01
 20
-1.03323280E+02
  0
VERTEX
  8
0
 62
4
 10
-8.07001459E+01
 20
-1.03400083E+02
  0
VERTEX
  8
0
 62
4
 10
-8.04499860E+01
 20
-1.03467869E+02
  0
VERTEX
  8
0
 62
4
 10
-8.01868881E+01
 20
-1.03526124E+02
  0
VERTEX
  8
0
 62
4
 10
-7.99128545E+01
 20
-1.03574404E+02
  0
VERTEX
  8
0
 62
4
 10
-7.96299707E+01
 20
-1.03612342E+02
  0
VERTEX
  8
0
 62
4
 10
-7.93403898E+01
 20
-1.03639648E+02
  0
VERTEX
  8
0
 62
4
 10
-7.90463155E+01
 20
-1.03656116E+02
  0
VERTEX
  8
0
 62
4
 10
-7.87499860E+01
 20
-1.03661619E+02
  0
VERTEX
  8
0
 62
4
 10
-7.84536565E+01
 20
-1.03656116E+02
  0
VERTEX
  8
0
 62
4
 10
-7.81595822E+01
 20
-1.03639648E+02
  0
VERTEX
  8
0
 62
4
 10
-7.78700012E+01
 20
-1.03612342E+02
  0
VERTEX
  8
0
 62
4
 10
-7.75871175E+01
 20
-1.03574404E+02
  0
VERTEX
  8
0
 62
4
 10
-7.73130839E+01
 20
-1.03526124E+02
  0
VERTEX
  8
0
 62
4
 10
-7.70499860E+01
 20
-1.03467869E+02
  0
VERTEX
  8
0
 62
4
 10
-7.67998261E+01
 20
-1.03400083E+02
  0
VERTEX
  8
0
 62
4
 10
-7.65645081E+01
 20
-1.03323280E+02
  0
VERTEX
  8
0
 62
4
 10
-7.63458229E+01
 20
-1.03238047E+02
  0
VERTEX
  8
0
 62
4
 10
-7.61454349E+01
 20
-1.03145030E+02
  0
VERTEX
  8
0
 62
4
 10
-7.59648690E+01
 20
-1.03044940E+02
  0
VERTEX
  8
0
 62
4
 10
-7.58054996E+01
 20
-1.02938536E+02
  0
VERTEX
  8
0
 62
4
 10
-7.56685395E+01
 20
-1.02826629E+02
  0
VERTEX
  8
0
 62
4
 10
-7.55550311E+01
 20
-1.02710071E+02
  0
VERTEX
  8
0
 62
4
 10
-7.54658382E+01
 20
-1.02589748E+02
  0
VERTEX
  8
0
 62
4
 10
-7.54016396E+01
 20
-1.02466577E+02
  0
VERTEX
  8
0
 62
4
 10
-7.53629240E+01
 20
-1.02341495E+02
  0
VERTEX
  8
0
 62
4
 10
-7.53499860E+01
 20
-1.02215453E+02
  0
SEQEND
  8
0
  0
POLYLINE
  8
0
 62
4
 66
1
  0
VERTEX
  8
0
 62
4
 10
-5.96099860E+01
 20
-8.56541859E+01
  0
VERTEX
  8
0
 62
4
 10
-5.96219346E+01
 20
-8.53954267E+01
  0
VERTEX
  8
0
 62
4
 10
-5.96576897E+01
 20
-8.51386369E+01
  0
VERTEX
  8
0
 62
4
 10
-5.97169789E+01
 20
-8.48857707E+01
  0
VERTEX
  8
0
 62
4
 10
-5.97993512E+01
 20
-8.46387526E+01
  0
VERTEX
  8
0
 62
4
 10
-5.99041795E+01
 20
-8.43994626E+01
  0
VERTEX
  8
0
 62
4
 10
-6.00306662E+01
 20
-8.41697217E+01
  0
VERTEX
  8
0
 62
4
 10
-6.01778486E+01
 20
-8.39512786E+01
  0
VERTEX
  8
0
 62
4
 10
-6.03446064E+01
 20
-8.37457956E+01
  0
VERTEX
  8
0
 62
4
 10
-6.05296707E+01
 20
-8.35548365E+01
  0
VERTEX
  8
0
 62
4
 10
-6.07316329E+01
 20
-8.33798549E+01
  0
VERTEX
  8
0
 62
4
 10
-6.09489560E+01
 20
-8.32221822E+01
  0
VERTEX
  8
0
 62
4
 10
-6.11799860E+01
 20
-8.30830185E+01
  0
VERTEX
  8
0
 62
4
 10
-6.14229647E+01
 20
-8.29634230E+01
  0
VERTEX
  8
0
 62
4
 10
-6.16760428E+01
 20
-8.28643059E+01
  0
VERTEX
  8
0
 62
4
 10
-6.19372942E+01
 20
-8.27864213E+01
  0
VERTEX
  8
0
 62
4
 10
-6.22047307E+01
 20
-8.27303623E+01
  0
VERTEX
  8
0
 62
4
 10
-6.24763170E+01
 20
-8.26965552E+01
  0
VERTEX
  8
0
 62
4
 10
-6.27499860E+01
 20
-8.26852576E+01
  0
VERTEX
  8
0
 62
4
 10
-6.30236550E+01
 20
-8.26965552E+01
  0
VERTEX
  8
0
 62
4
 10
-6.32952413E+01
 20
-8.27303623E+01
  0
VERTEX
  8
0
 62
4
 10
-6.35626778E+01
 20
-8.27864214E+01
  0
VERTEX
  8
0
 62
4
 10
-6.38239293E+01
 20
-8.28643059E+01
  0
VERTEX
  8
0
 62
4
 10
-6.40770073E+01
 20
-8.29634230E+01
  0
VERTEX
  8
0
 62
4
 10
-6.43199860E+01
 20
-8.30830185E+01
  0
VERTEX
  8
0
 62
4
 10
-6.45510160E+01
 20
-8.32221822E+01
  0
VERTEX
  8
0
 62
4
 10
-6.47683391E+01
 20
-8.33798549E+01
  0
VERTEX
  8
0
 62
4
 10
-6.49703013E+01
 20
-8.35548365E+01
  0
VERTEX
  8
0
 62
4
 10
-6.51553656E+01
 20
-8.37457956E+01
  0
VERTEX
  8
0
 62
4
 10
-6.53221234E+01
 20
-8.39512786E+01
  0
VERTEX
  8
0
 62
4
 10
-6.54693058E+01
 20
-8.41697217E+01
  0
VERTEX
  8
0
 62
4
 10
-6.55957925E+01
 20
-8.43994626E+01
  0
VERTEX
  8
0
 62
4
 10
-6.57006208E+01
 20
-8.46387526E+01
  0
VERTEX
  8
0
 62
4
 10
-6.57829931E+01
 20
-8.48857707E+01
  0
VERTEX
  8
0
 62
4
 10
-6.58422823E+01
 20
-8.51386369E+01
  0
VERTEX
  8
0
 62
4
 10
-6.58780374E+01
 20
-8.53954268E+01
  0
VERTEX
  8
0
 62
4
 10
-6.58899860E+01
 20
-8.56541859E+01
  0
VERTEX
  8
0
 62
4
 10
-6.58780374E+01
 20
-8.59129451E+01
  0
VERTEX
  8
0
 62
4
 10
-6.58422823E+01
 20
-8.61697349E+01
  0
VERTEX
  8
0
 62
4
 10
-6.57829931E+01
 20
-8.64226011E+01
  0
VERTEX
  8
0
 62
4
 10
-6.57006208E+01
 20
-8.66696192E+01
  0
VERTEX
  8
0
 62
4
 10
-6.55957924E+01
 20
-8.69089092E+01
  0
VERTEX
  8
0
 62
4
 10
-6.54693058E+01
 20
-8.71386501E+01
  0
VERTEX
  8
0
 62
4
 10
-6.53221234E+01
 20
-8.73570932E+01
  0
VERTEX
  8
0
 62
4
 10
-6.51553655E+01
 20
-8.75625762E+01
  0
VERTEX
  8
0
 62
4
 10
-6.49703013E+01
 20
-8.77535353E+01
  0
VERTEX
  8
0
 62
4
 10
-6.47683391E+01
 20
-8.79285170E+01
  0
VERTEX
  8
0
 62
4
 10
-6.45510160E+01
 20
-8.80861896E+01
  0
VERTEX
  8
0
 62
4
 10
-6.43199860E+01
 20
-8.82253533E+01
  0
VERTEX
  8
0
 62
4
 10
-6.40770073E+01
 20
-8.83449488E+01
  0
VERTEX
  8
0
 62
4
 10
-6.38239292E+01
 20
-8.84440659E+01
  0
VERTEX
  8
0
 62
4
 10
-6.35626778E+01
 20
-8.85219505E+01
  0
VERTEX
  8
0
 62
4
 10
-6.32952413E+01
 20
-8.85780095E+01
  0
VERTEX
  8
0
 62
4
 10
-6.30236550E+01
 20
-8.86118166E+01
  0
VERTEX
  8
0
 62
4
 10
-6.27499860E+01
 20
-8.86231142E+01
  0
VERTEX
  8
0
 62
4
 10
-6.24763170E+01
 20
-8.86118166E+01
  0
VERTEX
  8
0
 62
4
 10
-6.22047307E+01
 20
-8.85780095E+01
  0
VERTEX
  8
0
 62
4
 10
-6.19372942E+01
 20
-8.85219504E+01
  0
VERTEX
  8
0
 62
4
 10
-6.16760427E+01
 20
-8.84440659E+01
  0
VERTEX
  8
0
 62
4
 10
-6.14229647E+01
 20
-8.83449488E+01
  0
VERTEX
  8
0
 62
4
 10
-6.11799860E+01
 20
-8.82253533E+01
  0
VERTEX
  8
0
 62
4
 10
-6.09489560E+01
 20
-8.80861896E+01
  0
VERTEX
  8
0
 62
4
 10
-6.07316329E+01
 20
-8.79285169E+01
  0
VERTEX
  8
0
 62
4
 10
-6.05296707E+01
 20
-8.77535352E+01
  0
VERTEX
  8
0
 62
4
 10
-6.03446064E+01
 20
-8.75625762E+01
  0
VERTEX
  8
0
 62
4
 10
-6.01778486E+01
 20
-8.73570932E+01
  0
VERTEX
  8
0
 62
4
 10
-6.00306662E+01
 20
-8.71386501E+01
  0
VERTEX
  8
0
 62
4
 10
-5.99041795E+01
 20
-8.69089092E+01
  0
VERTEX
  8
0
 62
4
 10
-5.97993512E+01
 20
-8.66696192E+01
  0
VERTEX
  8
0
 62
4
 10
-5.97169789E+01
 20
-8.64226011E+01
  0
VERTEX
  8
0
 62
4
 10
-5.96576897E+01
 20
-8.61697349E+01
  0
VERTEX
  8
0
 62
4
 10
-5.96219346E+01
 20
-8.59129450E+01
  0
VERTEX
  8
0
 62
4
 10
-5.96099860E+01
 20
-8.56541859E+01
  0
SEQEND
  8
0
  0
POLYLINE
  8
0
 62
4
 66
1
  0
VERTEX
  8
0
 62
4
 10
-5.92499860E+01
 20
-8.59797540E+01
  0
VERTEX
  8
0
 62
4
 10
-5.92633046E+01
 20
-8.56913282E+01
  0
VERTEX
  8
0
 62
4
 10
-5.93031589E+01
 20
-8.54050975E+01
  0
VERTEX
  8
0
 62
4
 10
-5.93692456E+01
 20
-8.51232402E+01
  0
VERTEX
  8
0
 62
4
 10
-5.94610618E+01
 20
-8.48479016E+01
  0
VERTEX
  8
0
 62
4
 10
-5.95779087E+01
 20
-8.45811770E+01
  0
VERTEX
  8
0
 62
4
 10
-5.97188971E+01
 20
-8.43250965E+01
  0
VERTEX
  8
0
 62
4
 10
-5.98829538E+01
 20
-8.40816089E+01
  0
VERTEX
  8
0
 62
4
 10
-6.00688304E+01
 20
-8.38525673E+01
  0
VERTEX
  8
0
 62
4
 10
-6.02751123E+01
 20
-8.36397149E+01
  0
VERTEX
  8
0
 62
4
 10
-6.05002294E+01
 20
-8.34446716E+01
  0
VERTEX
  8
0
 62
4
 10
-6.07424685E+01
 20
-8.32689218E+01
  0
VERTEX
  8
0
 62
4
 10
-6.09999860E+01
 20
-8.31138031E+01
  0
VERTEX
  8
0
 62
4
 10
-6.12708221E+01
 20
-8.29804960E+01
  0
VERTEX
  8
0
 62
4
 10
-6.15529155E+01
 20
-8.28700151E+01
  0
VERTEX
  8
0
 62
4
 10
-6.18441193E+01
 20
-8.27832012E+01
  0
VERTEX
  8
0
 62
4
 10
-6.21422174E+01
 20
-8.27207149E+01
  0
VERTEX
  8
0
 62
4
 10
-6.24449409E+01
 20
-8.26830319E+01
  0
VERTEX
  8
0
 62
4
 10
-6.27499860E+01
 20
-8.26704390E+01
  0
VERTEX
  8
0
 62
4
 10
-6.30550311E+01
 20
-8.26830319E+01
  0
VERTEX
  8
0
 62
4
 10
-6.33577546E+01
 20
-8.27207149E+01
  0
VERTEX
  8
0
 62
4
 10
-6.36558527E+01
 20
-8.27832012E+01
  0
VERTEX
  8
0
 62
4
 10
-6.39470565E+01
 20
-8.28700151E+01
  0
VERTEX
  8
0
 62
4
 10
-6.42291499E+01
 20
-8.29804960E+01
  0
VERTEX
  8
0
 62
4
 10
-6.44999860E+01
 20
-8.31138031E+01
  0
VERTEX
  8
0
 62
4
 10
-6.47575035E+01
 20
-8.32689218E+01
  0
VERTEX
  8
0
 62
4
 10
-6.49997426E+01
 20
-8.34446716E+01
  0
VERTEX
  8
0
 62
4
 10
-6.52248597E+01
 20
-8.36397149E+01
  0
VERTEX
  8
0
 62
4
 10
-6.54311416E+01
 20
-8.38525673E+01
  0
VERTEX
  8
0
 62
4
 10
-6.56170182E+01
 20
-8.40816089E+01
  0
VERTEX
  8
0
 62
4
 10
-6.57810749E+01
 20
-8.43250965E+01
  0
VERTEX
  8
0
 62
4
 10
-6.59220633E+01
 20
-8.45811770E+01
  0
VERTEX
  8
0
 62
4
 10
-6.60389102E+01
 20
-8.48479016E+01
  0
VERTEX
  8
0
 62
4
 10
-6.61307264E+01
 20
-8.51232403E+01
  0
VERTEX
  8
0
 62
4
 10
-6.61968131E+01
 20
-8.54050975E+01
  0
VERTEX
  8
0
 62
4
 10
-6.62366674E+01
 20
-8.56913282E+01
  0
VERTEX
  8
0
 62
4
 10
-6.62499860E+01
 20
-8.59797540E+01
  0
VERTEX
  8
0
 62
4
 10
-6.62366674E+01
 20
-8.62681798E+01
  0
VERTEX
  8
0
 62
4
 10
-6.61968131E+01
 20
-8.65544105E+01
  0
VERTEX
  8
0
 62
4
 10
-6.61307264E+01
 20
-8.68362678E+01
  0
VERTEX
  8
0
 62
4
 10
-6.60389102E+01
 20
-8.71116064E+01
  0
VERTEX
  8
0
 62
4
 10
-6.59220633E+01
 20
-8.73783310E+01
  0
VERTEX
  8
0
 62
4
 10
-6.57810749E+01
 20
-8.76344115E+01
  0
VERTEX
  8
0
 62
4
 10
-6.56170182E+01
 20
-8.78778991E+01
  0
VERTEX
  8
0
 62
4
 10
-6.54311415E+01
 20
-8.81069407E+01
  0
VERTEX
  8
0
 62
4
 10
-6.52248597E+01
 20
-8.83197931E+01
  0
VERTEX
  8
0
 62
4
 10
-6.49997426E+01
 20
-8.85148364E+01
  0
VERTEX
  8
0
 62
4
 10
-6.47575035E+01
 20
-8.86905862E+01
  0
VERTEX
  8
0
 62
4
 10
-6.44999860E+01
 20
-8.88457049E+01
  0
VERTEX
  8
0
 62
4
 10
-6.42291499E+01
 20
-8.89790120E+01
  0
VERTEX
  8
0
 62
4
 10
-6.39470565E+01
 20
-8.90894929E+01
  0
VERTEX
  8
0
 62
4
 10
-6.36558527E+01
 20
-8.91763068E+01
  0
VERTEX
  8
0
 62
4
 10
-6.33577546E+01
 20
-8.92387931E+01
  0
VERTEX
  8
0
 62
4
 10
-6.30550311E+01
 20
-8.92764761E+01
  0
VERTEX
  8
0
 62
4
 10
-6.27499860E+01
 20
-8.92890690E+01
  0
VERTEX
  8
0
 62
4
 10
-6.24449409E+01
 20
-8.92764761E+01
  0
VERTEX
  8
0
 62
4
 10
-6.21422174E+01
 20
-8.92387931E+01
  0
VERTEX
  8
0
 62
4
 10
-6.18441193E+01
 20
-8.91763068E+01
  0
VERTEX
  8
0
 62
4
 10
-6.15529155E+01
 20
-8.90894929E+01
  0
VERTEX
  8
0
 62
4
 10
-6.12708221E+01
 20
-8.89790120E+01
  0
VERTEX
  8
0
 62
4
 10
-6.09999860E+01
 20
-8.88457049E+01
  0
VERTEX
  8
0
 62
4
 10
-6.07424685E+01
 20
-8.86905862E+01
  0
VERTEX
  8
0
 62
4
 10
-6.05002294E+01
 20
-8.85148364E+01
  0
VERTEX
  8
0
 62
4
 10
-6.02751123E+01
 20
-8.83197931E+01
  0
VERTEX
  8
0
 62
4
 10
-6.00688304E+01
 20
-8.81069407E+01
  0
VERTEX
  8
0
 62
4
 10
-5.98829538E+01
 20
-8.78778991E+01
  0
VERTEX
  8
0
 62
4
 10
-5.97188971E+01
 20
-8.76344115E+01
  0
VERTEX
  8
0
 62
4
 10
-5.95779087E+01
 20
-8.73783309E+01
  0
VERTEX
  8
0
 62
4
 10
-5.94610618E+01
 20
-8.71116064E+01
  0
VERTEX
  8
0
 62
4
 10
-5.93692456E+01
 20
-8.68362677E+01
  0
VERTEX
  8
0
 62
4
 10
-5.93031589E+01
 20
-8.65544105E+01
  0
VERTEX
  8
0
 62
4
 10
-5.92633046E+01
 20
-8.62681798E+01
  0
VERTEX
  8
0
 62
4
 10
-5.92499860E+01
 20
-8.59797540E+01
  0
SEQEND
  8
0
  0
LINE
  8
0
  6
CENTER
 62
6
 10
-6.27499860E+01
 20
-7.99099349E+01
 11
-6.27499860E+01
 21
-9.13984368E+01
  0
ARC
  8
0
 62
4
 10
-5.32474841E+01
 20
-1.00711976E+02
 40
1.49750021E+00
 50
2.69904276E+02
 51
9.57242462E-02
  0
ARC
  8
0
 62
4
 10
-5.32524921E+01
 20
-7.68137334E+01
 40
1.50250815E+00
 50
9.55645858E-02
 51
8.99044354E+01
  0
LINE
  8
0
 62
4
 10
-5.17499860E+01
 20
-7.68112274E+01
 11
-5.17499860E+01
 21
-1.00709474E+02
  0
ARC
  8
0
 62
4
 10
-5.32474841E+01
 20
-9.58284538E+01
 40
1.49750021E+00
 50
2.69904276E+02
 51
9.57242462E-02
  0
LINE
  8
0
 62
4
 10
2.37749736E+02
 20
-1.91533838E+02
 11
2.37749736E+02
 21
-2.11353892E+02
  0
LINE
  8
0
 62
4
 10
2.76749736E+02
 20
-1.91533838E+02
 11
2.76749736E+02
 21
-2.11353892E+02
  0
LINE
  8
0
 62
4
 10
2.85249736E+02
 20
-1.65762662E+02
 11
2.81749736E+02
 21
-1.65762662E+02
  0
LINE
  8
0
 62
4
 10
2.75249736E+02
 20
-1.96357192E+02
 11
2.39249736E+02
 21
-1.96357192E+02
  0
LINE
  8
0
 62
4
 10
2.91749736E+02
 20
-1.64416523E+02
 11
2.86749736E+02
 21
-1.64416523E+02
  0
LINE
  8
0
 62
4
 10
2.91749736E+02
 20
-1.70087866E+02
 11
2.86749736E+02
 21
-1.70087866E+02
  0
LINE
  8
0
 62
4
 10
2.91749736E+02
 20
-1.77179255E+02
 11
2.86749736E+02
 21
-1.77179255E+02
  0
LINE
  8
0
 62
4
 10
2.72249736E+02
 20
-1.64512662E+02
 11
2.81249736E+02
 21
-1.64512662E+02
  0
LINE
  8
0
 62
4
 10
2.81749736E+02
 20
-1.65012662E+02
 11
2.81749736E+02
 21
-1.78012662E+02
  0
LINE
  8
0
 62
4
 10
2.91749736E+02
 20
-1.64416523E+02
 11
2.91749736E+02
 21
-1.78618212E+02
  0
LINE
  8
0
 62
4
 10
2.86749736E+02
 20
-1.64416523E+02
 11
2.86749736E+02
 21
-1.78618212E+02
  0
LINE
  8
0
 62
4
 10
2.86749736E+02
 20
-1.65262662E+02
 11
2.81749736E+02
 21
-1.65262662E+02
  0
LINE
  8
0
 62
4
 10
2.86749736E+02
 20
-1.77762662E+02
 11
2.81749736E+02
 21
-1.77762662E+02
  0
LINE
  8
0
 62
4
 10
2.85249736E+02
 20
-1.65262662E+02
 11
2.85249736E+02
 21
-1.77762662E+02
  0
LINE
  8
0
 62
4
 10
2.85249736E+02
 20
-1.77262662E+02
 11
2.81749736E+02
 21
-1.77262662E+02
  0
LINE
  8
0
 62
4
 10
2.81249736E+02
 20
-1.78512662E+02
 11
2.72749736E+02
 21
-1.78512662E+02
  0
LINE
  8
0
 62
4
 10
2.91749736E+02
 20
-1.78618212E+02
 11
2.86749736E+02
 21
-1.78618212E+02
  0
LINE
  8
0
 62
4
 10
2.72249736E+02
 20
-1.68286017E+02
 11
2.57249736E+02
 21
-1.68286017E+02
  0
LINE
  8
0
 62
4
 10
2.74249736E+02
 20
-1.92575118E+02
 11
2.55249736E+02
 21
-1.92575118E+02
  0
LINE
  8
0
 62
4
 10
2.74249736E+02
 20
-1.92575118E+02
 11
2.74249736E+02
 21
-1.96357192E+02
  0
LINE
  8
0
 62
4
 10
2.57249736E+02
 20
-1.63402495E+02
 11
2.57249736E+02
 21
-1.92575118E+02
  0
LINE
  8
0
 62
4
 10
2.72249736E+02
 20
-1.63402495E+02
 11
2.72249736E+02
 21
-1.92575118E+02
  0
LINE
  8
0
 62
4
 10
2.55249736E+02
 20
-1.92575118E+02
 11
2.55249736E+02
 21
-1.96357192E+02
  0
ARC
  8
0
 62
4
 10
2.75252222E+02
 20
-1.97854706E+02
 40
1.49751542E+00
 50
3.59904859E+02
 51
9.00951404E+01
  0
ARC
  8
0
 62
4
 10
2.81247241E+02
 20
-1.78010167E+02
 40
5.02501096E-01
 50
2.70284473E+02
 51
3.59715527E+02
  0
ARC
  8
0
 62
4
 10
2.81252218E+02
 20
-1.65010179E+02
 40
4.97523679E-01
 50
3.59714107E+02
 51
9.02858924E+01
  0
ARC
  8
0
 62
4
 10
2.72747253E+02
 20
-1.79010179E+02
 40
4.97523679E-01
 50
8.97141074E+01
 51
1.80285893E+02
  0
ARC
  8
0
 62
4
 10
2.39247249E+02
 20
-1.97854706E+02
 40
1.49751542E+00
 50
8.99048594E+01
 51
1.80095141E+02
  0
LINE
  8
0
 62
4
 10
2.72249736E+02
 20
-1.63402495E+02
 11
2.57249736E+02
 21
-1.63402495E+02
  0
LINE
  8
0
 62
4
 10
2.72249736E+02
 20
-1.90978463E+02
 11
2.57249736E+02
 21
-1.90978463E+02
  0
ARC
  8
0
 62
4
 10
2.39247249E+02
 20
-1.91531351E+02
 40
1.49751542E+00
 50
8.99048594E+01
 51
1.80095141E+02
  0
LINE
  8
0
 62
4
 10
2.75249736E+02
 20
-1.90033838E+02
 11
2.72249736E+02
 21
-1.90033838E+02
  0
ARC
  8
0
 62
4
 10
2.75252222E+02
 20
-1.91531351E+02
 40
1.49751542E+00
 50
3.59904859E+02
 51
9.00951404E+01
  0
LINE
  8
0
 62
4
 10
2.39249736E+02
 20
-1.94760456E+02
 11
2.39249736E+02
 21
-1.91133670E+02
  0
LINE
  8
0
 62
4
 10
2.57249736E+02
 20
-1.90033838E+02
 11
2.39249736E+02
 21
-1.90033838E+02
  0
LINE
  8
0
 62
4
 10
2.75249736E+02
 20
-1.94760456E+02
 11
2.75249736E+02
 21
-1.91133670E+02
  0
LINE
  8
0
 62
4
 10
2.57249736E+02
 20
-2.02166909E+02
 11
2.57249736E+02
 21
-2.28452339E+02
  0
LINE
  8
0
 62
4
 10
2.72249736E+02
 20
-2.02166909E+02
 11
2.72249736E+02
 21
-2.28452339E+02
  0
LINE
  8
0
 62
4
 10
2.57249736E+02
 20
-2.02166909E+02
 11
2.72249736E+02
 21
-2.02166909E+02
  0
LINE
  8
0
 62
4
 10
2.76749736E+02
 20
-2.09935614E+02
 11
2.72249736E+02
 21
-2.09935614E+02
  0
LINE
  8
0
 62
4
 10
2.76749736E+02
 20
-2.11353892E+02
 11
2.72249736E+02
 21
-2.11353892E+02
  0
LINE
  8
0
 62
4
 10
2.57249736E+02
 20
-2.09935614E+02
 11
2.37749736E+02
 21
-2.09935614E+02
  0
LINE
  8
0
 62
4
 10
2.57249736E+02
 20
-2.11353892E+02
 11
2.37749736E+02
 21
-2.11353892E+02
  0
LINE
  8
0
  6
CENTER
 62
6
 10
2.55749736E+02
 20
-2.24082282E+02
 11
2.73749736E+02
 21
-2.24082282E+02
  0
LINE
  8
0
 62
4
 10
2.58249736E+02
 20
-2.17048541E+02
 11
2.71249736E+02
 21
-2.17048541E+02
  0
LINE
  8
0
 62
4
 10
2.57249736E+02
 20
-2.28452339E+02
 11
2.72249736E+02
 21
-2.28452339E+02
  0
LINE
  8
0
  6
CENTER
 62
6
 10
2.68749736E+02
 20
-2.19092282E+02
 11
2.68749736E+02
 21
-2.29082282E+02
  0
LINE
  8
0
  6
CENTER
 62
6
 10
2.60749736E+02
 20
-2.19092282E+02
 11
2.60749736E+02
 21
-2.29082282E+02
  0
POLYLINE
  8
0
 62
4
 66
1
  0
VERTEX
  8
0
 62
4
 10
2.62242813E+02
 20
-2.24915440E+02
  0
VERTEX
  8
0
 62
4
 10
2.62354478E+02
 20
-2.24785872E+02
  0
VERTEX
  8
0
 62
4
 10
2.62453608E+02
 20
-2.24647488E+02
  0
VERTEX
  8
0
 62
4
 10
2.62539426E+02
 20
-2.24501368E+02
  0
VERTEX
  8
0
 62
4
 10
2.62611265E+02
 20
-2.24348654E+02
  0
VERTEX
  8
0
 62
4
 10
2.62668561E+02
 20
-2.24190538E+02
  0
VERTEX
  8
0
 62
4
 10
2.62710867E+02
 20
-2.24028257E+02
  0
VERTEX
  8
0
 62
4
 10
2.62737854E+02
 20
-2.23863078E+02
  0
VERTEX
  8
0
 62
4
 10
2.62749310E+02
 20
-2.23696291E+02
  0
VERTEX
  8
0
 62
4
 10
2.62745145E+02
 20
-2.23529198E+02
  0
VERTEX
  8
0
 62
4
 10
2.62725393E+02
 20
-2.23363107E+02
  0
VERTEX
  8
0
 62
4
 10
2.62690207E+02
 20
-2.23199313E+02
  0
VERTEX
  8
0
 62
4
 10
2.62639862E+02
 20
-2.23039096E+02
  0
VERTEX
  8
0
 62
4
 10
2.62574752E+02
 20
-2.22883708E+02
  0
VERTEX
  8
0
 62
4
 10
2.62495386E+02
 20
-2.22734363E+02
  0
VERTEX
  8
0
 62
4
 10
2.62402382E+02
 20
-2.22592228E+02
  0
VERTEX
  8
0
 62
4
 10
2.62296469E+02
 20
-2.22458412E+02
  0
VERTEX
  8
0
 62
4
 10
2.62178472E+02
 20
-2.22333962E+02
  0
VERTEX
  8
0
 62
4
 10
2.62049315E+02
 20
-2.22219849E+02
  0
VERTEX
  8
0
 62
4
 10
2.61910005E+02
 20
-2.22116964E+02
  0
VERTEX
  8
0
 62
4
 10
2.61761632E+02
 20
-2.22026112E+02
  0
VERTEX
  8
0
 62
4
 10
2.61605353E+02
 20
-2.21948003E+02
  0
VERTEX
  8
0
 62
4
 10
2.61442391E+02
 20
-2.21883245E+02
  0
VERTEX
  8
0
 62
4
 10
2.61274018E+02
 20
-2.21832346E+02
  0
VERTEX
  8
0
 62
4
 10
2.61101549E+02
 20
-2.21795703E+02
  0
VERTEX
  8
0
 62
4
 10
2.60926333E+02
 20
-2.21773602E+02
  0
VERTEX
  8
0
 62
4
 10
2.60749736E+02
 20
-2.21766216E+02
  0
VERTEX
  8
0
 62
4
 10
2.60573139E+02
 20
-2.21773602E+02
  0
VERTEX
  8
0
 62
4
 10
2.60397922E+02
 20
-2.21795703E+02
  0
VERTEX
  8
0
 62
4
 10
2.60225454E+02
 20
-2.21832346E+02
  0
VERTEX
  8
0
 62
4
 10
2.60057081E+02
 20
-2.21883245E+02
  0
VERTEX
  8
0
 62
4
 10
2.59894119E+02
 20
-2.21948003E+02
  0
VERTEX
  8
0
 62
4
 10
2.59737840E+02
 20
-2.22026112E+02
  0
VERTEX
  8
0
 62
4
 10
2.59589467E+02
 20
-2.22116964E+02
  0
VERTEX
  8
0
 62
4
 10
2.59450157E+02
 20
-2.22219849E+02
  0
VERTEX
  8
0
 62
4
 10
2.59321000E+02
 20
-2.22333962E+02
  0
VERTEX
  8
0
 62
4
 10
2.59203003E+02
 20
-2.22458412E+02
  0
VERTEX
  8
0
 62
4
 10
2.59097090E+02
 20
-2.22592228E+02
  0
VERTEX
  8
0
 62
4
 10
2.59004086E+02
 20
-2.22734363E+02
  0
VERTEX
  8
0
 62
4
 10
2.58924720E+02
 20
-2.22883708E+02
  0
VERTEX
  8
0
 62
4
 10
2.58859610E+02
 20
-2.23039096E+02
  0
VERTEX
  8
0
 62
4
 10
2.58809265E+02
 20
-2.23199313E+02
  0
VERTEX
  8
0
 62
4
 10
2.58774079E+02
 20
-2.23363107E+02
  0
VERTEX
  8
0
 62
4
 10
2.58754327E+02
 20
-2.23529198E+02
  0
VERTEX
  8
0
 62
4
 10
2.58750162E+02
 20
-2.23696291E+02
  0
VERTEX
  8
0
 62
4
 10
2.58761618E+02
 20
-2.23863078E+02
  0
VERTEX
  8
0
 62
4
 10
2.58788605E+02
 20
-2.24028257E+02
  0
VERTEX
  8
0
 62
4
 10
2.58830911E+02
 20
-2.24190538E+02
  0
VERTEX
  8
0
 62
4
 10
2.58888207E+02
 20
-2.24348654E+02
  0
VERTEX
  8
0
 62
4
 10
2.58960046E+02
 20
-2.24501368E+02
  0
VERTEX
  8
0
 62
4
 10
2.59045864E+02
 20
-2.24647488E+02
  0
VERTEX
  8
0
 62
4
 10
2.59144994E+02
 20
-2.24785872E+02
  0
VERTEX
  8
0
 62
4
 10
2.59256659E+02
 20
-2.24915440E+02
  0
SEQEND
  8
0
  0
POLYLINE
  8
0
 62
4
 66
1
  0
VERTEX
  8
0
 62
4
 10
2.62484736E+02
 20
-2.24082282E+02
  0
VERTEX
  8
0
 62
4
 10
2.62478134E+02
 20
-2.23939717E+02
  0
VERTEX
  8
0
 62
4
 10
2.62458377E+02
 20
-2.23798237E+02
  0
VERTEX
  8
0
 62
4
 10
2.62425617E+02
 20
-2.23658919E+02
  0
VERTEX
  8
0
 62
4
 10
2.62380103E+02
 20
-2.23522824E+02
  0
VERTEX
  8
0
 62
4
 10
2.62322180E+02
 20
-2.23390985E+02
  0
VERTEX
  8
0
 62
4
 10
2.62252290E+02
 20
-2.23264408E+02
  0
VERTEX
  8
0
 62
4
 10
2.62170965E+02
 20
-2.23144056E+02
  0
VERTEX
  8
0
 62
4
 10
2.62078823E+02
 20
-2.23030844E+02
  0
VERTEX
  8
0
 62
4
 10
2.61976566E+02
 20
-2.22925634E+02
  0
VERTEX
  8
0
 62
4
 10
2.61864973E+02
 20
-2.22829227E+02
  0
VERTEX
  8
0
 62
4
 10
2.61744891E+02
 20
-2.22742356E+02
  0
VERTEX
  8
0
 62
4
 10
2.61617236E+02
 20
-2.22665683E+02
  0
VERTEX
  8
0
 62
4
 10
2.61482979E+02
 20
-2.22599792E+02
  0
VERTEX
  8
0
 62
4
 10
2.61343141E+02
 20
-2.22545182E+02
  0
VERTEX
  8
0
 62
4
 10
2.61198787E+02
 20
-2.22502272E+02
  0
VERTEX
  8
0
 62
4
 10
2.61051016E+02
 20
-2.22471386E+02
  0
VERTEX
  8
0
 62
4
 10
2.60900951E+02
 20
-2.22452759E+02
  0
VERTEX
  8
0
 62
4
 10
2.60749736E+02
 20
-2.22446535E+02
  0
VERTEX
  8
0
 62
4
 10
2.60598521E+02
 20
-2.22452759E+02
  0
VERTEX
  8
0
 62
4
 10
2.60448456E+02
 20
-2.22471386E+02
  0
VERTEX
  8
0
 62
4
 10
2.60300685E+02
 20
-2.22502272E+02
  0
VERTEX
  8
0
 62
4
 10
2.60156331E+02
 20
-2.22545182E+02
  0
VERTEX
  8
0
 62
4
 10
2.60016493E+02
 20
-2.22599792E+02
  0
VERTEX
  8
0
 62
4
 10
2.59882236E+02
 20
-2.22665683E+02
  0
VERTEX
  8
0
 62
4
 10
2.59754581E+02
 20
-2.22742356E+02
  0
VERTEX
  8
0
 62
4
 10
2.59634499E+02
 20
-2.22829227E+02
  0
VERTEX
  8
0
 62
4
 10
2.59522906E+02
 20
-2.22925634E+02
  0
VERTEX
  8
0
 62
4
 10
2.59420649E+02
 20
-2.23030844E+02
  0
VERTEX
  8
0
 62
4
 10
2.59328507E+02
 20
-2.23144056E+02
  0
VERTEX
  8
0
 62
4
 10
2.59247182E+02
 20
-2.23264408E+02
  0
VERTEX
  8
0
 62
4
 10
2.59177292E+02
 20
-2.23390985E+02
  0
VERTEX
  8
0
 62
4
 10
2.59119369E+02
 20
-2.23522824E+02
  0
VERTEX
  8
0
 62
4
 10
2.59073855E+02
 20
-2.23658919E+02
  0
VERTEX
  8
0
 62
4
 10
2.59041095E+02
 20
-2.23798237E+02
  0
VERTEX
  8
0
 62
4
 10
2.59021338E+02
 20
-2.23939717E+02
  0
VERTEX
  8
0
 62
4
 10
2.59014736E+02
 20
-2.24082282E+02
  0
VERTEX
  8
0
 62
4
 10
2.59021338E+02
 20
-2.24224847E+02
  0
VERTEX
  8
0
 62
4
 10
2.59041095E+02
 20
-2.24366327E+02
  0
VERTEX
  8
0
 62
4
 10
2.59073855E+02
 20
-2.24505645E+02
  0
VERTEX
  8
0
 62
4
 10
2.59119369E+02
 20
-2.24641740E+02
  0
VERTEX
  8
0
 62
4
 10
2.59177292E+02
 20
-2.24773579E+02
  0
VERTEX
  8
0
 62
4
 10
2.59247182E+02
 20
-2.24900156E+02
  0
VERTEX
  8
0
 62
4
 10
2.59328507E+02
 20
-2.25020508E+02
  0
VERTEX
  8
0
 62
4
 10
2.59420649E+02
 20
-2.25133720E+02
  0
VERTEX
  8
0
 62
4
 10
2.59522906E+02
 20
-2.25238930E+02
  0
VERTEX
  8
0
 62
4
 10
2.59634499E+02
 20
-2.25335337E+02
  0
VERTEX
  8
0
 62
4
 10
2.59754581E+02
 20
-2.25422208E+02
  0
VERTEX
  8
0
 62
4
 10
2.59882236E+02
 20
-2.25498881E+02
  0
VERTEX
  8
0
 62
4
 10
2.60016493E+02
 20
-2.25564772E+02
  0
VERTEX
  8
0
 62
4
 10
2.60156331E+02
 20
-2.25619382E+02
  0
VERTEX
  8
0
 62
4
 10
2.60300685E+02
 20
-2.25662292E+02
  0
VERTEX
  8
0
 62
4
 10
2.60448456E+02
 20
-2.25693178E+02
  0
VERTEX
  8
0
 62
4
 10
2.60598521E+02
 20
-2.25711805E+02
  0
VERTEX
  8
0
 62
4
 10
2.60749736E+02
 20
-2.25718029E+02
  0
VERTEX
  8
0
 62
4
 10
2.60900951E+02
 20
-2.25711805E+02
  0
VERTEX
  8
0
 62
4
 10
2.61051016E+02
 20
-2.25693178E+02
  0
VERTEX
  8
0
 62
4
 10
2.61198787E+02
 20
-2.25662292E+02
  0
VERTEX
  8
0
 62
4
 10
2.61343141E+02
 20
-2.25619382E+02
  0
VERTEX
  8
0
 62
4
 10
2.61482979E+02
 20
-2.25564772E+02
  0
VERTEX
  8
0
 62
4
 10
2.61617236E+02
 20
-2.25498881E+02
  0
VERTEX
  8
0
 62
4
 10
2.61744891E+02
 20
-2.25422208E+02
  0
VERTEX
  8
0
 62
4
 10
2.61864973E+02
 20
-2.25335337E+02
  0
VERTEX
  8
0
 62
4
 10
2.61976566E+02
 20
-2.25238930E+02
  0
VERTEX
  8
0
 62
4
 10
2.62078823E+02
 20
-2.25133720E+02
  0
VERTEX
  8
0
 62
4
 10
2.62170965E+02
 20
-2.25020508E+02
  0
VERTEX
  8
0
 62
4
 10
2.62252290E+02
 20
-2.24900156E+02
  0
VERTEX
  8
0
 62
4
 10
2.62322180E+02
 20
-2.24773579E+02
  0
VERTEX
  8
0
 62
4
 10
2.62380103E+02
 20
-2.24641740E+02
  0
VERTEX
  8
0
 62
4
 10
2.62425617E+02
 20
-2.24505645E+02
  0
VERTEX
  8
0
 62
4
 10
2.62458377E+02
 20
-2.24366327E+02
  0
VERTEX
  8
0
 62
4
 10
2.62478134E+02
 20
-2.24224847E+02
  0
VERTEX
  8
0
 62
4
 10
2.62484736E+02
 20
-2.24082282E+02
  0
SEQEND
  8
0
  0
POLYLINE
  8
0
 62
6
 66
1
  0
VERTEX
  8
0
 62
6
 10
2.62249736E+02
 20
-2.24082282E+02
  0
VERTEX
  8
0
 62
6
 10
2.62244028E+02
 20
-2.23958671E+02
  0
VERTEX
  8
0
 62
6
 10
2.62226948E+02
 20
-2.23836001E+02
  0
VERTEX
  8
0
 62
6
 10
2.62198625E+02
 20
-2.23715205E+02
  0
VERTEX
  8
0
 62
6
 10
2.62159275E+02
 20
-2.23597202E+02
  0
VERTEX
  8
0
 62
6
 10
2.62109198E+02
 20
-2.23482892E+02
  0
VERTEX
  8
0
 62
6
 10
2.62048774E+02
 20
-2.23373143E+02
  0
VERTEX
  8
0
 62
6
 10
2.61978464E+02
 20
-2.23268791E+02
  0
VERTEX
  8
0
 62
6
 10
2.61898803E+02
 20
-2.23170631E+02
  0
VERTEX
  8
0
 62
6
 10
2.61810396E+02
 20
-2.23079408E+02
  0
VERTEX
  8
0
 62
6
 10
2.61713917E+02
 20
-2.22995818E+02
  0
VERTEX
  8
0
 62
6
 10
2.61610101E+02
 20
-2.22920497E+02
  0
VERTEX
  8
0
 62
6
 10
2.61499736E+02
 20
-2.22854017E+02
  0
VERTEX
  8
0
 62
6
 10
2.61383663E+02
 20
-2.22796886E+02
  0
VERTEX
  8
0
 62
6
 10
2.61262766E+02
 20
-2.22749537E+02
  0
VERTEX
  8
0
 62
6
 10
2.61137965E+02
 20
-2.22712331E+02
  0
VERTEX
  8
0
 62
6
 10
2.61010208E+02
 20
-2.22685551E+02
  0
VERTEX
  8
0
 62
6
 10
2.60880470E+02
 20
-2.22669401E+02
  0
VERTEX
  8
0
 62
6
 10
2.60749736E+02
 20
-2.22664004E+02
  0
VERTEX
  8
0
 62
6
 10
2.60619002E+02
 20
-2.22669401E+02
  0
VERTEX
  8
0
 62
6
 10
2.60489264E+02
 20
-2.22685551E+02
  0
VERTEX
  8
0
 62
6
 10
2.60361507E+02
 20
-2.22712331E+02
  0
VERTEX
  8
0
 62
6
 10
2.60236706E+02
 20
-2.22749537E+02
  0
VERTEX
  8
0
 62
6
 10
2.60115809E+02
 20
-2.22796886E+02
  0
VERTEX
  8
0
 62
6
 10
2.59999736E+02
 20
-2.22854017E+02
  0
VERTEX
  8
0
 62
6
 10
2.59889371E+02
 20
-2.22920497E+02
  0
VERTEX
  8
0
 62
6
 10
2.59785555E+02
 20
-2.22995818E+02
  0
VERTEX
  8
0
 62
6
 10
2.59689076E+02
 20
-2.23079408E+02
  0
VERTEX
  8
0
 62
6
 10
2.59600669E+02
 20
-2.23170631E+02
  0
VERTEX
  8
0
 62
6
 10
2.59521008E+02
 20
-2.23268791E+02
  0
VERTEX
  8
0
 62
6
 10
2.59450698E+02
 20
-2.23373143E+02
  0
VERTEX
  8
0
 62
6
 10
2.59390274E+02
 20
-2.23482892E+02
  0
VERTEX
  8
0
 62
6
 10
2.59340197E+02
 20
-2.23597202E+02
  0
VERTEX
  8
0
 62
6
 10
2.59300847E+02
 20
-2.23715205E+02
  0
VERTEX
  8
0
 62
6
 10
2.59272524E+02
 20
-2.23836001E+02
  0
VERTEX
  8
0
 62
6
 10
2.59255444E+02
 20
-2.23958671E+02
  0
VERTEX
  8
0
 62
6
 10
2.59249736E+02
 20
-2.24082282E+02
  0
VERTEX
  8
0
 62
6
 10
2.59255444E+02
 20
-2.24205893E+02
  0
VERTEX
  8
0
 62
6
 10
2.59272524E+02
 20
-2.24328563E+02
  0
VERTEX
  8
0
 62
6
 10
2.59300847E+02
 20
-2.24449359E+02
  0
VERTEX
  8
0
 62
6
 10
2.59340197E+02
 20
-2.24567362E+02
  0
VERTEX
  8
0
 62
6
 10
2.59390274E+02
 20
-2.24681672E+02
  0
VERTEX
  8
0
 62
6
 10
2.59450698E+02
 20
-2.24791421E+02
  0
VERTEX
  8
0
 62
6
 10
2.59521008E+02
 20
-2.24895773E+02
  0
VERTEX
  8
0
 62
6
 10
2.59600669E+02
 20
-2.24993933E+02
  0
VERTEX
  8
0
 62
6
 10
2.59689076E+02
 20
-2.25085156E+02
  0
VERTEX
  8
0
 62
6
 10
2.59785555E+02
 20
-2.25168746E+02
  0
VERTEX
  8
0
 62
6
 10
2.59889371E+02
 20
-2.25244067E+02
  0
VERTEX
  8
0
 62
6
 10
2.59999736E+02
 20
-2.25310547E+02
  0
VERTEX
  8
0
 62
6
 10
2.60115809E+02
 20
-2.25367678E+02
  0
VERTEX
  8
0
 62
6
 10
2.60236706E+02
 20
-2.25415027E+02
  0
VERTEX
  8
0
 62
6
 10
2.60361507E+02
 20
-2.25452233E+02
  0
VERTEX
  8
0
 62
6
 10
2.60489264E+02
 20
-2.25479013E+02
  0
VERTEX
  8
0
 62
6
 10
2.60619002E+02
 20
-2.25495163E+02
  0
VERTEX
  8
0
 62
6
 10
2.60749736E+02
 20
-2.25500560E+02
  0
VERTEX
  8
0
 62
6
 10
2.60880470E+02
 20
-2.25495163E+02
  0
VERTEX
  8
0
 62
6
 10
2.61010208E+02
 20
-2.25479013E+02
  0
VERTEX
  8
0
 62
6
 10
2.61137965E+02
 20
-2.25452233E+02
  0
VERTEX
  8
0
 62
6
 10
2.61262766E+02
 20
-2.25415027E+02
  0
VERTEX
  8
0
 62
6
 10
2.61383663E+02
 20
-2.25367678E+02
  0
VERTEX
  8
0
 62
6
 10
2.61499736E+02
 20
-2.25310547E+02
  0
VERTEX
  8
0
 62
6
 10
2.61610101E+02
 20
-2.25244067E+02
  0
VERTEX
  8
0
 62
6
 10
2.61713917E+02
 20
-2.25168746E+02
  0
VERTEX
  8
0
 62
6
 10
2.61810396E+02
 20
-2.25085156E+02
  0
VERTEX
  8
0
 62
6
 10
2.61898803E+02
 20
-2.24993933E+02
  0
VERTEX
  8
0
 62
6
 10
2.61978464E+02
 20
-2.24895773E+02
  0
VERTEX
  8
0
 62
6
 10
2.62048774E+02
 20
-2.24791421E+02
  0
VERTEX
  8
0
 62
6
 10
2.62109198E+02
 20
-2.24681672E+02
  0
VERTEX
  8
0
 62
6
 10
2.62159275E+02
 20
-2.24567362E+02
  0
VERTEX
  8
0
 62
6
 10
2.62198625E+02
 20
-2.24449359E+02
  0
VERTEX
  8
0
 62
6
 10
2.62226948E+02
 20
-2.24328563E+02
  0
VERTEX
  8
0
 62
6
 10
2.62244028E+02
 20
-2.24205893E+02
  0
VERTEX
  8
0
 62
6
 10
2.62249736E+02
 20
-2.24082282E+02
  0
SEQEND
  8
0
  0
POLYLINE
  8
0
 62
4
 66
1
  0
VERTEX
  8
0
 62
4
 10
2.70242813E+02
 20
-2.24915440E+02
  0
VERTEX
  8
0
 62
4
 10
2.70354478E+02
 20
-2.24785872E+02
  0
VERTEX
  8
0
 62
4
 10
2.70453608E+02
 20
-2.24647488E+02
  0
VERTEX
  8
0
 62
4
 10
2.70539426E+02
 20
-2.24501368E+02
  0
VERTEX
  8
0
 62
4
 10
2.70611265E+02
 20
-2.24348654E+02
  0
VERTEX
  8
0
 62
4
 10
2.70668561E+02
 20
-2.24190538E+02
  0
VERTEX
  8
0
 62
4
 10
2.70710867E+02
 20
-2.24028257E+02
  0
VERTEX
  8
0
 62
4
 10
2.70737854E+02
 20
-2.23863078E+02
  0
VERTEX
  8
0
 62
4
 10
2.70749310E+02
 20
-2.23696291E+02
  0
VERTEX
  8
0
 62
4
 10
2.70745145E+02
 20
-2.23529198E+02
  0
VERTEX
  8
0
 62
4
 10
2.70725393E+02
 20
-2.23363107E+02
  0
VERTEX
  8
0
 62
4
 10
2.70690207E+02
 20
-2.23199313E+02
  0
VERTEX
  8
0
 62
4
 10
2.70639862E+02
 20
-2.23039096E+02
  0
VERTEX
  8
0
 62
4
 10
2.70574752E+02
 20
-2.22883708E+02
  0
VERTEX
  8
0
 62
4
 10
2.70495386E+02
 20
-2.22734363E+02
  0
VERTEX
  8
0
 62
4
 10
2.70402382E+02
 20
-2.22592228E+02
  0
VERTEX
  8
0
 62
4
 10
2.70296469E+02
 20
-2.22458412E+02
  0
VERTEX
  8
0
 62
4
 10
2.70178472E+02
 20
-2.22333962E+02
  0
VERTEX
  8
0
 62
4
 10
2.70049315E+02
 20
-2.22219849E+02
  0
VERTEX
  8
0
 62
4
 10
2.69910005E+02
 20
-2.22116964E+02
  0
VERTEX
  8
0
 62
4
 10
2.69761632E+02
 20
-2.22026112E+02
  0
VERTEX
  8
0
 62
4
 10
2.69605353E+02
 20
-2.21948003E+02
  0
VERTEX
  8
0
 62
4
 10
2.69442391E+02
 20
-2.21883245E+02
  0
VERTEX
  8
0
 62
4
 10
2.69274018E+02
 20
-2.21832346E+02
  0
VERTEX
  8
0
 62
4
 10
2.69101549E+02
 20
-2.21795703E+02
  0
VERTEX
  8
0
 62
4
 10
2.68926333E+02
 20
-2.21773602E+02
  0
VERTEX
  8
0
 62
4
 10
2.68749736E+02
 20
-2.21766216E+02
  0
VERTEX
  8
0
 62
4
 10
2.68573139E+02
 20
-2.21773602E+02
  0
VERTEX
  8
0
 62
4
 10
2.68397922E+02
 20
-2.21795703E+02
  0
VERTEX
  8
0
 62
4
 10
2.68225454E+02
 20
-2.21832346E+02
  0
VERTEX
  8
0
 62
4
 10
2.68057081E+02
 20
-2.21883245E+02
  0
VERTEX
  8
0
 62
4
 10
2.67894119E+02
 20
-2.21948003E+02
  0
VERTEX
  8
0
 62
4
 10
2.67737840E+02
 20
-2.22026112E+02
  0
VERTEX
  8
0
 62
4
 10
2.67589467E+02
 20
-2.22116964E+02
  0
VERTEX
  8
0
 62
4
 10
2.67450157E+02
 20
-2.22219849E+02
  0
VERTEX
  8
0
 62
4
 10
2.67321000E+02
 20
-2.22333962E+02
  0
VERTEX
  8
0
 62
4
 10
2.67203003E+02
 20
-2.22458412E+02
  0
VERTEX
  8
0
 62
4
 10
2.67097090E+02
 20
-2.22592228E+02
  0
VERTEX
  8
0
 62
4
 10
2.67004086E+02
 20
-2.22734363E+02
  0
VERTEX
  8
0
 62
4
 10
2.66924720E+02
 20
-2.22883708E+02
  0
VERTEX
  8
0
 62
4
 10
2.66859610E+02
 20
-2.23039096E+02
  0
VERTEX
  8
0
 62
4
 10
2.66809265E+02
 20
-2.23199313E+02
  0
VERTEX
  8
0
 62
4
 10
2.66774079E+02
 20
-2.23363107E+02
  0
VERTEX
  8
0
 62
4
 10
2.66754327E+02
 20
-2.23529198E+02
  0
VERTEX
  8
0
 62
4
 10
2.66750162E+02
 20
-2.23696291E+02
  0
VERTEX
  8
0
 62
4
 10
2.66761618E+02
 20
-2.23863078E+02
  0
VERTEX
  8
0
 62
4
 10
2.66788605E+02
 20
-2.24028257E+02
  0
VERTEX
  8
0
 62
4
 10
2.66830911E+02
 20
-2.24190538E+02
  0
VERTEX
  8
0
 62
4
 10
2.66888207E+02
 20
-2.24348654E+02
  0
VERTEX
  8
0
 62
4
 10
2.66960046E+02
 20
-2.24501368E+02
  0
VERTEX
  8
0
 62
4
 10
2.67045864E+02
 20
-2.24647488E+02
  0
VERTEX
  8
0
 62
4
 10
2.67144994E+02
 20
-2.24785872E+02
  0
VERTEX
  8
0
 62
4
 10
2.67256659E+02
 20
-2.24915440E+02
  0
SEQEND
  8
0
  0
POLYLINE
  8
0
 62
4
 66
1
  0
VERTEX
  8
0
 62
4
 10
2.70484736E+02
 20
-2.24082282E+02
  0
VERTEX
  8
0
 62
4
 10
2.70478134E+02
 20
-2.23939717E+02
  0
VERTEX
  8
0
 62
4
 10
2.70458377E+02
 20
-2.23798237E+02
  0
VERTEX
  8
0
 62
4
 10
2.70425617E+02
 20
-2.23658919E+02
  0
VERTEX
  8
0
 62
4
 10
2.70380103E+02
 20
-2.23522824E+02
  0
VERTEX
  8
0
 62
4
 10
2.70322180E+02
 20
-2.23390985E+02
  0
VERTEX
  8
0
 62
4
 10
2.70252290E+02
 20
-2.23264408E+02
  0
VERTEX
  8
0
 62
4
 10
2.70170965E+02
 20
-2.23144056E+02
  0
VERTEX
  8
0
 62
4
 10
2.70078823E+02
 20
-2.23030844E+02
  0
VERTEX
  8
0
 62
4
 10
2.69976566E+02
 20
-2.22925634E+02
  0
VERTEX
  8
0
 62
4
 10
2.69864973E+02
 20
-2.22829227E+02
  0
VERTEX
  8
0
 62
4
 10
2.69744891E+02
 20
-2.22742356E+02
  0
VERTEX
  8
0
 62
4
 10
2.69617236E+02
 20
-2.22665683E+02
  0
VERTEX
  8
0
 62
4
 10
2.69482979E+02
 20
-2.22599792E+02
  0
VERTEX
  8
0
 62
4
 10
2.69343141E+02
 20
-2.22545182E+02
  0
VERTEX
  8
0
 62
4
 10
2.69198787E+02
 20
-2.22502272E+02
  0
VERTEX
  8
0
 62
4
 10
2.69051016E+02
 20
-2.22471386E+02
  0
VERTEX
  8
0
 62
4
 10
2.68900951E+02
 20
-2.22452759E+02
  0
VERTEX
  8
0
 62
4
 10
2.68749736E+02
 20
-2.22446535E+02
  0
VERTEX
  8
0
 62
4
 10
2.68598521E+02
 20
-2.22452759E+02
  0
VERTEX
  8
0
 62
4
 10
2.68448456E+02
 20
-2.22471386E+02
  0
VERTEX
  8
0
 62
4
 10
2.68300685E+02
 20
-2.22502272E+02
  0
VERTEX
  8
0
 62
4
 10
2.68156331E+02
 20
-2.22545182E+02
  0
VERTEX
  8
0
 62
4
 10
2.68016493E+02
 20
-2.22599792E+02
  0
VERTEX
  8
0
 62
4
 10
2.67882236E+02
 20
-2.22665683E+02
  0
VERTEX
  8
0
 62
4
 10
2.67754581E+02
 20
-2.22742356E+02
  0
VERTEX
  8
0
 62
4
 10
2.67634499E+02
 20
-2.22829227E+02
  0
VERTEX
  8
0
 62
4
 10
2.67522906E+02
 20
-2.22925634E+02
  0
VERTEX
  8
0
 62
4
 10
2.67420649E+02
 20
-2.23030844E+02
  0
VERTEX
  8
0
 62
4
 10
2.67328507E+02
 20
-2.23144056E+02
  0
VERTEX
  8
0
 62
4
 10
2.67247182E+02
 20
-2.23264408E+02
  0
VERTEX
  8
0
 62
4
 10
2.67177292E+02
 20
-2.23390985E+02
  0
VERTEX
  8
0
 62
4
 10
2.67119369E+02
 20
-2.23522824E+02
  0
VERTEX
  8
0
 62
4
 10
2.67073855E+02
 20
-2.23658919E+02
  0
VERTEX
  8
0
 62
4
 10
2.67041095E+02
 20
-2.23798237E+02
  0
VERTEX
  8
0
 62
4
 10
2.67021338E+02
 20
-2.23939717E+02
  0
VERTEX
  8
0
 62
4
 10
2.67014736E+02
 20
-2.24082282E+02
  0
VERTEX
  8
0
 62
4
 10
2.67021338E+02
 20
-2.24224847E+02
  0
VERTEX
  8
0
 62
4
 10
2.67041095E+02
 20
-2.24366327E+02
  0
VERTEX
  8
0
 62
4
 10
2.67073855E+02
 20
-2.24505645E+02
  0
VERTEX
  8
0
 62
4
 10
2.67119369E+02
 20
-2.24641740E+02
  0
VERTEX
  8
0
 62
4
 10
2.67177292E+02
 20
-2.24773579E+02
  0
VERTEX
  8
0
 62
4
 10
2.67247182E+02
 20
-2.24900156E+02
  0
VERTEX
  8
0
 62
4
 10
2.67328507E+02
 20
-2.25020508E+02
  0
VERTEX
  8
0
 62
4
 10
2.67420649E+02
 20
-2.25133720E+02
  0
VERTEX
  8
0
 62
4
 10
2.67522906E+02
 20
-2.25238930E+02
  0
VERTEX
  8
0
 62
4
 10
2.67634499E+02
 20
-2.25335337E+02
  0
VERTEX
  8
0
 62
4
 10
2.67754581E+02
 20
-2.25422208E+02
  0
VERTEX
  8
0
 62
4
 10
2.67882236E+02
 20
-2.25498881E+02
  0
VERTEX
  8
0
 62
4
 10
2.68016493E+02
 20
-2.25564772E+02
  0
VERTEX
  8
0
 62
4
 10
2.68156331E+02
 20
-2.25619382E+02
  0
VERTEX
  8
0
 62
4
 10
2.68300685E+02
 20
-2.25662292E+02
  0
VERTEX
  8
0
 62
4
 10
2.68448456E+02
 20
-2.25693178E+02
  0
VERTEX
  8
0
 62
4
 10
2.68598521E+02
 20
-2.25711805E+02
  0
VERTEX
  8
0
 62
4
 10
2.68749736E+02
 20
-2.25718029E+02
  0
VERTEX
  8
0
 62
4
 10
2.68900951E+02
 20
-2.25711805E+02
  0
VERTEX
  8
0
 62
4
 10
2.69051016E+02
 20
-2.25693178E+02
  0
VERTEX
  8
0
 62
4
 10
2.69198787E+02
 20
-2.25662292E+02
  0
VERTEX
  8
0
 62
4
 10
2.69343141E+02
 20
-2.25619382E+02
  0
VERTEX
  8
0
 62
4
 10
2.69482979E+02
 20
-2.25564772E+02
  0
VERTEX
  8
0
 62
4
 10
2.69617236E+02
 20
-2.25498881E+02
  0
VERTEX
  8
0
 62
4
 10
2.69744891E+02
 20
-2.25422208E+02
  0
VERTEX
  8
0
 62
4
 10
2.69864973E+02
 20
-2.25335337E+02
  0
VERTEX
  8
0
 62
4
 10
2.69976566E+02
 20
-2.25238930E+02
  0
VERTEX
  8
0
 62
4
 10
2.70078823E+02
 20
-2.25133720E+02
  0
VERTEX
  8
0
 62
4
 10
2.70170965E+02
 20
-2.25020508E+02
  0
VERTEX
  8
0
 62
4
 10
2.70252290E+02
 20
-2.24900156E+02
  0
VERTEX
  8
0
 62
4
 10
2.70322180E+02
 20
-2.24773579E+02
  0
VERTEX
  8
0
 62
4
 10
2.70380103E+02
 20
-2.24641740E+02
  0
VERTEX
  8
0
 62
4
 10
2.70425617E+02
 20
-2.24505645E+02
  0
VERTEX
  8
0
 62
4
 10
2.70458377E+02
 20
-2.24366327E+02
  0
VERTEX
  8
0
 62
4
 10
2.70478134E+02
 20
-2.24224847E+02
  0
VERTEX
  8
0
 62
4
 10
2.70484736E+02
 20
-2.24082282E+02
  0
SEQEND
  8
0
  0
POLYLINE
  8
0
 62
6
 66
1
  0
VERTEX
  8
0
 62
6
 10
2.70249736E+02
 20
-2.24082282E+02
  0
VERTEX
  8
0
 62
6
 10
2.70244028E+02
 20
-2.23958671E+02
  0
VERTEX
  8
0
 62
6
 10
2.70226948E+02
 20
-2.23836001E+02
  0
VERTEX
  8
0
 62
6
 10
2.70198625E+02
 20
-2.23715205E+02
  0
VERTEX
  8
0
 62
6
 10
2.70159275E+02
 20
-2.23597202E+02
  0
VERTEX
  8
0
 62
6
 10
2.70109198E+02
 20
-2.23482892E+02
  0
VERTEX
  8
0
 62
6
 10
2.70048774E+02
 20
-2.23373143E+02
  0
VERTEX
  8
0
 62
6
 10
2.69978464E+02
 20
-2.23268791E+02
  0
VERTEX
  8
0
 62
6
 10
2.69898803E+02
 20
-2.23170631E+02
  0
VERTEX
  8
0
 62
6
 10
2.69810396E+02
 20
-2.23079408E+02
  0
VERTEX
  8
0
 62
6
 10
2.69713917E+02
 20
-2.22995818E+02
  0
VERTEX
  8
0
 62
6
 10
2.69610101E+02
 20
-2.22920497E+02
  0
VERTEX
  8
0
 62
6
 10
2.69499736E+02
 20
-2.22854017E+02
  0
VERTEX
  8
0
 62
6
 10
2.69383663E+02
 20
-2.22796886E+02
  0
VERTEX
  8
0
 62
6
 10
2.69262766E+02
 20
-2.22749537E+02
  0
VERTEX
  8
0
 62
6
 10
2.69137965E+02
 20
-2.22712331E+02
  0
VERTEX
  8
0
 62
6
 10
2.69010208E+02
 20
-2.22685551E+02
  0
VERTEX
  8
0
 62
6
 10
2.68880470E+02
 20
-2.22669401E+02
  0
VERTEX
  8
0
 62
6
 10
2.68749736E+02
 20
-2.22664004E+02
  0
VERTEX
  8
0
 62
6
 10
2.68619002E+02
 20
-2.22669401E+02
  0
VERTEX
  8
0
 62
6
 10
2.68489264E+02
 20
-2.22685551E+02
  0
VERTEX
  8
0
 62
6
 10
2.68361507E+02
 20
-2.22712331E+02
  0
VERTEX
  8
0
 62
6
 10
2.68236706E+02
 20
-2.22749537E+02
  0
VERTEX
  8
0
 62
6
 10
2.68115809E+02
 20
-2.22796886E+02
  0
VERTEX
  8
0
 62
6
 10
2.67999736E+02
 20
-2.22854017E+02
  0
VERTEX
  8
0
 62
6
 10
2.67889371E+02
 20
-2.22920497E+02
  0
VERTEX
  8
0
 62
6
 10
2.67785555E+02
 20
-2.22995818E+02
  0
VERTEX
  8
0
 62
6
 10
2.67689076E+02
 20
-2.23079408E+02
  0
VERTEX
  8
0
 62
6
 10
2.67600669E+02
 20
-2.23170631E+02
  0
VERTEX
  8
0
 62
6
 10
2.67521008E+02
 20
-2.23268791E+02
  0
VERTEX
  8
0
 62
6
 10
2.67450698E+02
 20
-2.23373143E+02
  0
VERTEX
  8
0
 62
6
 10
2.67390274E+02
 20
-2.23482892E+02
  0
VERTEX
  8
0
 62
6
 10
2.67340197E+02
 20
-2.23597202E+02
  0
VERTEX
  8
0
 62
6
 10
2.67300847E+02
 20
-2.23715205E+02
  0
VERTEX
  8
0
 62
6
 10
2.67272524E+02
 20
-2.23836001E+02
  0
VERTEX
  8
0
 62
6
 10
2.67255444E+02
 20
-2.23958671E+02
  0
VERTEX
  8
0
 62
6
 10
2.67249736E+02
 20
-2.24082282E+02
  0
VERTEX
  8
0
 62
6
 10
2.67255444E+02
 20
-2.24205893E+02
  0
VERTEX
  8
0
 62
6
 10
2.67272524E+02
 20
-2.24328563E+02
  0
VERTEX
  8
0
 62
6
 10
2.67300847E+02
 20
-2.24449359E+02
  0
VERTEX
  8
0
 62
6
 10
2.67340197E+02
 20
-2.24567362E+02
  0
VERTEX
  8
0
 62
6
 10
2.67390274E+02
 20
-2.24681672E+02
  0
VERTEX
  8
0
 62
6
 10
2.67450698E+02
 20
-2.24791421E+02
  0
VERTEX
  8
0
 62
6
 10
2.67521008E+02
 20
-2.24895773E+02
  0
VERTEX
  8
0
 62
6
 10
2.67600669E+02
 20
-2.24993933E+02
  0
VERTEX
  8
0
 62
6
 10
2.67689076E+02
 20
-2.25085156E+02
  0
VERTEX
  8
0
 62
6
 10
2.67785555E+02
 20
-2.25168746E+02
  0
VERTEX
  8
0
 62
6
 10
2.67889371E+02
 20
-2.25244067E+02
  0
VERTEX
  8
0
 62
6
 10
2.67999736E+02
 20
-2.25310547E+02
  0
VERTEX
  8
0
 62
6
 10
2.68115809E+02
 20
-2.25367678E+02
  0
VERTEX
  8
0
 62
6
 10
2.68236706E+02
 20
-2.25415027E+02
  0
VERTEX
  8
0
 62
6
 10
2.68361507E+02
 20
-2.25452233E+02
  0
VERTEX
  8
0
 62
6
 10
2.68489264E+02
 20
-2.25479013E+02
  0
VERTEX
  8
0
 62
6
 10
2.68619002E+02
 20
-2.25495163E+02
  0
VERTEX
  8
0
 62
6
 10
2.68749736E+02
 20
-2.25500560E+02
  0
VERTEX
  8
0
 62
6
 10
2.68880470E+02
 20
-2.25495163E+02
  0
VERTEX
  8
0
 62
6
 10
2.69010208E+02
 20
-2.25479013E+02
  0
VERTEX
  8
0
 62
6
 10
2.69137965E+02
 20
-2.25452233E+02
  0
VERTEX
  8
0
 62
6
 10
2.69262766E+02
 20
-2.25415027E+02
  0
VERTEX
  8
0
 62
6
 10
2.69383663E+02
 20
-2.25367678E+02
  0
VERTEX
  8
0
 62
6
 10
2.69499736E+02
 20
-2.25310547E+02
  0
VERTEX
  8
0
 62
6
 10
2.69610101E+02
 20
-2.25244067E+02
  0
VERTEX
  8
0
 62
6
 10
2.69713917E+02
 20
-2.25168746E+02
  0
VERTEX
  8
0
 62
6
 10
2.69810396E+02
 20
-2.25085156E+02
  0
VERTEX
  8
0
 62
6
 10
2.69898803E+02
 20
-2.24993933E+02
  0
VERTEX
  8
0
 62
6
 10
2.69978464E+02
 20
-2.24895773E+02
  0
VERTEX
  8
0
 62
6
 10
2.70048774E+02
 20
-2.24791421E+02
  0
VERTEX
  8
0
 62
6
 10
2.70109198E+02
 20
-2.24681672E+02
  0
VERTEX
  8
0
 62
6
 10
2.70159275E+02
 20
-2.24567362E+02
  0
VERTEX
  8
0
 62
6
 10
2.70198625E+02
 20
-2.24449359E+02
  0
VERTEX
  8
0
 62
6
 10
2.70226948E+02
 20
-2.24328563E+02
  0
VERTEX
  8
0
 62
6
 10
2.70244028E+02
 20
-2.24205893E+02
  0
VERTEX
  8
0
 62
6
 10
2.70249736E+02
 20
-2.24082282E+02
  0
SEQEND
  8
0
  0
LINE
  8
0
 62
4
 10
2.40543639E+02
 20
-2.13957730E+02
 11
2.37749736E+02
 21
-2.11353892E+02
  0
LINE
  8
0
 62
4
 10
2.73955832E+02
 20
-2.13957730E+02
 11
2.76749736E+02
 21
-2.11353892E+02
  0
LINE
  8
0
  6
CENTER
 62
6
 10
2.48749736E+02
 20
-1.89659251E+02
 11
2.48749736E+02
 21
-1.92318776E+02
  0
POLYLINE
  8
0
 62
4
 66
1
  0
VERTEX
  8
0
 62
4
 10
2.51889736E+02
 20
-1.92318776E+02
  0
VERTEX
  8
0
 62
4
 10
2.51877787E+02
 20
-1.92229678E+02
  0
VERTEX
  8
0
 62
4
 10
2.51842032E+02
 20
-1.92141258E+02
  0
VERTEX
  8
0
 62
4
 10
2.51782743E+02
 20
-1.92054189E+02
  0
VERTEX
  8
0
 62
4
 10
2.51700371E+02
 20
-1.91969134E+02
  0
VERTEX
  8
0
 62
4
 10
2.51595542E+02
 20
-1.91886740E+02
  0
VERTEX
  8
0
 62
4
 10
2.51469056E+02
 20
-1.91807634E+02
  0
VERTEX
  8
0
 62
4
 10
2.51321873E+02
 20
-1.91732418E+02
  0
VERTEX
  8
0
 62
4
 10
2.51155116E+02
 20
-1.91661665E+02
  0
VERTEX
  8
0
 62
4
 10
2.50970051E+02
 20
-1.91595912E+02
  0
VERTEX
  8
0
 62
4
 10
2.50768089E+02
 20
-1.91535661E+02
  0
VERTEX
  8
0
 62
4
 10
2.50550766E+02
 20
-1.91481370E+02
  0
VERTEX
  8
0
 62
4
 10
2.50319736E+02
 20
-1.91433452E+02
  0
VERTEX
  8
0
 62
4
 10
2.50076757E+02
 20
-1.91392272E+02
  0
VERTEX
  8
0
 62
4
 10
2.49823679E+02
 20
-1.91358143E+02
  0
VERTEX
  8
0
 62
4
 10
2.49562428E+02
 20
-1.91331325E+02
  0
VERTEX
  8
0
 62
4
 10
2.49294991E+02
 20
-1.91312023E+02
  0
VERTEX
  8
0
 62
4
 10
2.49023405E+02
 20
-1.91300382E+02
  0
VERTEX
  8
0
 62
4
 10
2.48749736E+02
 20
-1.91296492E+02
  0
VERTEX
  8
0
 62
4
 10
2.48476067E+02
 20
-1.91300382E+02
  0
VERTEX
  8
0
 62
4
 10
2.48204481E+02
 20
-1.91312023E+02
  0
VERTEX
  8
0
 62
4
 10
2.47937044E+02
 20
-1.91331325E+02
  0
VERTEX
  8
0
 62
4
 10
2.47675793E+02
 20
-1.91358143E+02
  0
VERTEX
  8
0
 62
4
 10
2.47422715E+02
 20
-1.91392272E+02
  0
VERTEX
  8
0
 62
4
 10
2.47179736E+02
 20
-1.91433452E+02
  0
VERTEX
  8
0
 62
4
 10
2.46948706E+02
 20
-1.91481370E+02
  0
VERTEX
  8
0
 62
4
 10
2.46731383E+02
 20
-1.91535661E+02
  0
VERTEX
  8
0
 62
4
 10
2.46529421E+02
 20
-1.91595912E+02
  0
VERTEX
  8
0
 62
4
 10
2.46344356E+02
 20
-1.91661665E+02
  0
VERTEX
  8
0
 62
4
 10
2.46177599E+02
 20
-1.91732418E+02
  0
VERTEX
  8
0
 62
4
 10
2.46030416E+02
 20
-1.91807634E+02
  0
VERTEX
  8
0
 62
4
 10
2.45903930E+02
 20
-1.91886740E+02
  0
VERTEX
  8
0
 62
4
 10
2.45799101E+02
 20
-1.91969134E+02
  0
VERTEX
  8
0
 62
4
 10
2.45716729E+02
 20
-1.92054189E+02
  0
VERTEX
  8
0
 62
4
 10
2.45657440E+02
 20
-1.92141258E+02
  0
VERTEX
  8
0
 62
4
 10
2.45621685E+02
 20
-1.92229678E+02
  0
VERTEX
  8
0
 62
4
 10
2.45609736E+02
 20
-1.92318776E+02
  0
VERTEX
  8
0
 62
4
 10
2.45621685E+02
 20
-1.92407874E+02
  0
VERTEX
  8
0
 62
4
 10
2.45657440E+02
 20
-1.92496294E+02
  0
VERTEX
  8
0
 62
4
 10
2.45716729E+02
 20
-1.92583363E+02
  0
VERTEX
  8
0
 62
4
 10
2.45799101E+02
 20
-1.92668418E+02
  0
VERTEX
  8
0
 62
4
 10
2.45903930E+02
 20
-1.92750812E+02
  0
VERTEX
  8
0
 62
4
 10
2.46030416E+02
 20
-1.92829918E+02
  0
VERTEX
  8
0
 62
4
 10
2.46177599E+02
 20
-1.92905134E+02
  0
VERTEX
  8
0
 62
4
 10
2.46344356E+02
 20
-1.92975887E+02
  0
VERTEX
  8
0
 62
4
 10
2.46529421E+02
 20
-1.93041640E+02
  0
VERTEX
  8
0
 62
4
 10
2.46731383E+02
 20
-1.93101891E+02
  0
VERTEX
  8
0
 62
4
 10
2.46948706E+02
 20
-1.93156182E+02
  0
VERTEX
  8
0
 62
4
 10
2.47179736E+02
 20
-1.93204100E+02
  0
VERTEX
  8
0
 62
4
 10
2.47422715E+02
 20
-1.93245280E+02
  0
VERTEX
  8
0
 62
4
 10
2.47675793E+02
 20
-1.93279409E+02
  0
VERTEX
  8
0
 62
4
 10
2.47937044E+02
 20
-1.93306227E+02
  0
VERTEX
  8
0
 62
4
 10
2.48204481E+02
 20
-1.93325529E+02
  0
VERTEX
  8
0
 62
4
 10
2.48476067E+02
 20
-1.93337170E+02
  0
VERTEX
  8
0
 62
4
 10
2.48749736E+02
 20
-1.93341060E+02
  0
VERTEX
  8
0
 62
4
 10
2.49023405E+02
 20
-1.93337170E+02
  0
VERTEX
  8
0
 62
4
 10
2.49294991E+02
 20
-1.93325529E+02
  0
VERTEX
  8
0
 62
4
 10
2.49562428E+02
 20
-1.93306227E+02
  0
VERTEX
  8
0
 62
4
 10
2.49823679E+02
 20
-1.93279409E+02
  0
VERTEX
  8
0
 62
4
 10
2.50076757E+02
 20
-1.93245280E+02
  0
VERTEX
  8
0
 62
4
 10
2.50319736E+02
 20
-1.93204100E+02
  0
VERTEX
  8
0
 62
4
 10
2.50550766E+02
 20
-1.93156182E+02
  0
VERTEX
  8
0
 62
4
 10
2.50768089E+02
 20
-1.93101891E+02
  0
VERTEX
  8
0
 62
4
 10
2.50970051E+02
 20
-1.93041640E+02
  0
VERTEX
  8
0
 62
4
 10
2.51155116E+02
 20
-1.92975887E+02
  0
VERTEX
  8
0
 62
4
 10
2.51321873E+02
 20
-1.92905134E+02
  0
VERTEX
  8
0
 62
4
 10
2.51469056E+02
 20
-1.92829918E+02
  0
VERTEX
  8
0
 62
4
 10
2.51595542E+02
 20
-1.92750812E+02
  0
VERTEX
  8
0
 62
4
 10
2.51700371E+02
 20
-1.92668418E+02
  0
VERTEX
  8
0
 62
4
 10
2.51782743E+02
 20
-1.92583363E+02
  0
VERTEX
  8
0
 62
4
 10
2.51842032E+02
 20
-1.92496294E+02
  0
VERTEX
  8
0
 62
4
 10
2.51877787E+02
 20
-1.92407874E+02
  0
VERTEX
  8
0
 62
4
 10
2.51889736E+02
 20
-1.92318776E+02
  0
SEQEND
  8
0
  0
POLYLINE
  8
0
 62
4
 66
1
  0
VERTEX
  8
0
 62
4
 10
2.45281140E+02
 20
-1.93111992E+02
  0
VERTEX
  8
0
 62
4
 10
2.45253363E+02
 20
-1.93212433E+02
  0
VERTEX
  8
0
 62
4
 10
2.45252972E+02
 20
-1.93313280E+02
  0
VERTEX
  8
0
 62
4
 10
2.45279969E+02
 20
-1.93413744E+02
  0
VERTEX
  8
0
 62
4
 10
2.45334144E+02
 20
-1.93513037E+02
  0
VERTEX
  8
0
 62
4
 10
2.45415072E+02
 20
-1.93610381E+02
  0
VERTEX
  8
0
 62
4
 10
2.45522120E+02
 20
-1.93705015E+02
  0
VERTEX
  8
0
 62
4
 10
2.45654448E+02
 20
-1.93796197E+02
  0
VERTEX
  8
0
 62
4
 10
2.45811020E+02
 20
-1.93883213E+02
  0
VERTEX
  8
0
 62
4
 10
2.45990611E+02
 20
-1.93965381E+02
  0
VERTEX
  8
0
 62
4
 10
2.46191812E+02
 20
-1.94042057E+02
  0
VERTEX
  8
0
 62
4
 10
2.46413049E+02
 20
-1.94112642E+02
  0
VERTEX
  8
0
 62
4
 10
2.46652589E+02
 20
-1.94176582E+02
  0
VERTEX
  8
0
 62
4
 10
2.46908554E+02
 20
-1.94233376E+02
  0
VERTEX
  8
0
 62
4
 10
2.47178941E+02
 20
-1.94282580E+02
  0
VERTEX
  8
0
 62
4
 10
2.47461632E+02
 20
-1.94323807E+02
  0
VERTEX
  8
0
 62
4
 10
2.47754412E+02
 20
-1.94356736E+02
  0
VERTEX
  8
0
 62
4
 10
2.48054987E+02
 20
-1.94381109E+02
  0
VERTEX
  8
0
 62
4
 10
2.48361005E+02
 20
-1.94396734E+02
  0
VERTEX
  8
0
 62
4
 10
2.48670067E+02
 20
-1.94403488E+02
  0
VERTEX
  8
0
 62
4
 10
2.48979753E+02
 20
-1.94401320E+02
  0
VERTEX
  8
0
 62
4
 10
2.49287638E+02
 20
-1.94390246E+02
  0
VERTEX
  8
0
 62
4
 10
2.49591309E+02
 20
-1.94370353E+02
  0
VERTEX
  8
0
 62
4
 10
2.49888389E+02
 20
-1.94341796E+02
  0
VERTEX
  8
0
 62
4
 10
2.50176550E+02
 20
-1.94304800E+02
  0
VERTEX
  8
0
 62
4
 10
2.50453535E+02
 20
-1.94259654E+02
  0
VERTEX
  8
0
 62
4
 10
2.50717175E+02
 20
-1.94206711E+02
  0
VERTEX
  8
0
 62
4
 10
2.50965405E+02
 20
-1.94146387E+02
  0
VERTEX
  8
0
 62
4
 10
2.51196280E+02
 20
-1.94079154E+02
  0
VERTEX
  8
0
 62
4
 10
2.51407993E+02
 20
-1.94005538E+02
  0
VERTEX
  8
0
 62
4
 10
2.51598884E+02
 20
-1.93926116E+02
  0
VERTEX
  8
0
 62
4
 10
2.51767458E+02
 20
-1.93841511E+02
  0
VERTEX
  8
0
 62
4
 10
2.51912396E+02
 20
-1.93752384E+02
  0
VERTEX
  8
0
 62
4
 10
2.52032562E+02
 20
-1.93659435E+02
  0
VERTEX
  8
0
 62
4
 10
2.52127015E+02
 20
-1.93563390E+02
  0
VERTEX
  8
0
 62
4
 10
2.52195015E+02
 20
-1.93465003E+02
  0
VERTEX
  8
0
 62
4
 10
2.52236029E+02
 20
-1.93365044E+02
  0
VERTEX
  8
0
 62
4
 10
2.52249736E+02
 20
-1.93264295E+02
  0
SEQEND
  8
0
  0
LINE
  8
0
 62
4
 10
2.51889736E+02
 20
-1.92318776E+02
 11
2.52249736E+02
 21
-1.93264295E+02
  0
LINE
  8
0
 62
4
 10
2.45609736E+02
 20
-1.92318776E+02
 11
2.45281140E+02
 21
-1.93111992E+02
  0
TEXT
  8
0
 10
4.68390346E+01
 20
2.64478397E+02
 40
6.30000019E+00
  1
STRETCH LINE B
 41
1.09375000E+00
  7
MONOTXT
  0
TEXT
  8
0
 62
7
 10
-2.34697546E+02
 20
-1.87961480E+01
 40
6.30000019E+00
  1
-25
 41
1.00000000E+00
  7
MONOTXT
  0
TEXT
  8
0
 62
7
 10
-1.96897546E+02
 20
-1.87961480E+01
 40
6.30000019E+00
  1
0
 41
1.00000000E+00
  7
MONOTXT
  0
TEXT
  8
0
 62
7
 10
-1.68547546E+02
 20
-1.87961480E+01
 40
6.30000019E+00
  1
25
 41
1.00000000E+00
  7
MONOTXT
  0
TEXT
  8
0
 62
7
 10
-1.37047546E+02
 20
-1.87961480E+01
 40
6.30000019E+00
  1
75
 41
1.00000000E+00
  7
MONOTXT
  0
TEXT
  8
0
 62
7
 10
-1.08697546E+02
 20
-1.87961480E+01
 40
6.30000019E+00
  1
125
 41
1.00000000E+00
  7
MONOTXT
  0
TEXT
  8
0
 62
7
 10
-7.71975469E+01
 20
-1.87961480E+01
 40
6.30000019E+00
  1
175
 41
1.00000000E+00
  7
MONOTXT
  0
TEXT
  8
0
 62
7
 10
-4.56975469E+01
 20
-1.87961480E+01
 40
6.30000019E+00
  1
225
 41
1.00000000E+00
  7
MONOTXT
  0
TEXT
  8
0
 62
7
 10
-1.41975469E+01
 20
-1.87961480E+01
 40
6.30000019E+00
  1
275
 41
1.00000000E+00
  7
MONOTXT
  0
TEXT
  8
0
 62
7
 10
1.73024531E+01
 20
-1.87961480E+01
 40
6.30000019E+00
  1
325
 41
1.00000000E+00
  7
MONOTXT
  0
TEXT
  8
0
 62
7
 10
4.88024531E+01
 20
-1.87961480E+01
 40
6.30000019E+00
  1
375
 41
1.00000000E+00
  7
MONOTXT
  0
TEXT
  8
0
 62
7
 10
8.03024531E+01
 20
-1.87961480E+01
 40
6.30000019E+00
  1
425
 41
1.00000000E+00
  7
MONOTXT
  0
TEXT
  8
0
 62
7
 10
1.11802454E+02
 20
-1.87961480E+01
 40
6.30000019E+00
  1
525
 41
1.00000000E+00
  7
MONOTXT
  0
TEXT
  8
0
 62
7
 10
1.43302454E+02
 20
-1.87961480E+01
 40
6.30000019E+00
  1
625
 41
1.00000000E+00
  7
MONOTXT
  0
TEXT
  8
0
 62
7
 10
1.74802454E+02
 20
-1.87961480E+01
 40
6.30000019E+00
  1
725
 41
1.00000000E+00
  7
MONOTXT
  0
TEXT
  8
0
 62
7
 10
1.74802454E+02
 20
-8.79614800E+00
 40
6.30000019E+00
  1
725
 41
1.00000000E+00
  7
MONOTXT
  0
TEXT
  8
0
 62
7
 10
1.43302454E+02
 20
-8.79614800E+00
 40
6.30000019E+00
  1
625
 41
1.00000000E+00
  7
MONOTXT
  0
TEXT
  8
0
 62
7
 10
1.11802454E+02
 20
-8.79614800E+00
 40
6.30000019E+00
  1
525
 41
1.00000000E+00
  7
MONOTXT
  0
TEXT
  8
0
 62
7
 10
8.03024531E+01
 20
-8.79614800E+00
 40
6.30000019E+00
  1
425
 41
1.00000000E+00
  7
MONOTXT
  0
TEXT
  8
0
 62
7
 10
4.88024531E+01
 20
-8.79614800E+00
 40
6.30000019E+00
  1
375
 41
1.00000000E+00
  7
MONOTXT
  0
TEXT
  8
0
 62
7
 10
1.73024531E+01
 20
-8.79614800E+00
 40
6.30000019E+00
  1
325
 41
1.00000000E+00
  7
MONOTXT
  0
TEXT
  8
0
 62
7
 10
-1.41975469E+01
 20
-8.79614800E+00
 40
6.30000019E+00
  1
275
 41
1.00000000E+00
  7
MONOTXT
  0
TEXT
  8
0
 62
7
 10
-4.56975469E+01
 20
-8.79614800E+00
 40
6.30000019E+00
  1
225
 41
1.00000000E+00
  7
MONOTXT
  0
TEXT
  8
0
 62
7
 10
-7.71975469E+01
 20
-8.79614800E+00
 40
6.30000019E+00
  1
175
 41
1.00000000E+00
  7
MONOTXT
  0
TEXT
  8
0
 62
7
 10
-1.08697546E+02
 20
-8.79614800E+00
 40
6.30000019E+00
  1
125
 41
1.00000000E+00
  7
MONOTXT
  0
TEXT
  8
0
 62
7
 10
-1.37047546E+02
 20
-8.79614800E+00
 40
6.30000019E+00
  1
75
 41
1.00000000E+00
  7
MONOTXT
  0
TEXT
  8
0
 62
7
 10
-1.68547546E+02
 20
-8.79614800E+00
 40
6.30000019E+00
  1
25
 41
1.00000000E+00
  7
MONOTXT
  0
TEXT
  8
0
 62
7
 10
-1.96897546E+02
 20
-8.79614800E+00
 40
6.30000019E+00
  1
0
 41
1.00000000E+00
  7
MONOTXT
  0
TEXT
  8
0
 62
7
 10
-2.34697546E+02
 20
-8.79614800E+00
 40
6.30000019E+00
  1
-25
 41
1.00000000E+00
  7
MONOTXT
  0
TEXT
  8
0
 62
7
 10
1.74802454E+02
 20
1.12038520E+01
 40
6.30000019E+00
  1
800
 41
1.00000000E+00
  7
MONOTXT
  0
TEXT
  8
0
 62
7
 10
1.43302454E+02
 20
1.12038520E+01
 40
6.30000019E+00
  1
700
 41
1.00000000E+00
  7
MONOTXT
  0
TEXT
  8
0
 62
7
 10
1.11802454E+02
 20
1.12038520E+01
 40
6.30000019E+00
  1
600
 41
1.00000000E+00
  7
MONOTXT
  0
TEXT
  8
0
 62
7
 10
8.03024531E+01
 20
1.12038520E+01
 40
6.30000019E+00
  1
500
 41
1.00000000E+00
  7
MONOTXT
  0
TEXT
  8
0
 62
7
 10
4.88024531E+01
 20
1.12038520E+01
 40
6.30000019E+00
  1
450
 41
1.00000000E+00
  7
MONOTXT
  0
TEXT
  8
0
 62
7
 10
1.73024531E+01
 20
1.12038520E+01
 40
6.30000019E+00
  1
400
 41
1.00000000E+00
  7
MONOTXT
  0
TEXT
  8
0
 62
7
 10
-1.41975469E+01
 20
1.12038520E+01
 40
6.30000019E+00
  1
350
 41
1.00000000E+00
  7
MONOTXT
  0
TEXT
  8
0
 62
7
 10
-4.56975469E+01
 20
1.12038520E+01
 40
6.30000019E+00
  1
300
 41
1.00000000E+00
  7
MONOTXT
  0
TEXT
  8
0
 62
7
 10
-7.71975469E+01
 20
1.12038520E+01
 40
6.30000019E+00
  1
250
 41
1.00000000E+00
  7
MONOTXT
  0
TEXT
  8
0
 62
7
 10
-1.08697546E+02
 20
1.12038520E+01
 40
6.30000019E+00
  1
200
 41
1.00000000E+00
  7
MONOTXT
  0
TEXT
  8
0
 62
7
 10
-1.40197546E+02
 20
1.12038520E+01
 40
6.30000019E+00
  1
150
 41
1.00000000E+00
  7
MONOTXT
  0
TEXT
  8
0
 62
7
 10
-1.71697546E+02
 20
1.12038520E+01
 40
6.30000019E+00
  1
100
 41
1.00000000E+00
  7
MONOTXT
  0
TEXT
  8
0
 62
7
 10
-2.00047546E+02
 20
1.12038520E+01
 40
6.30000019E+00
  1
75
 41
1.00000000E+00
  7
MONOTXT
  0
TEXT
  8
0
 62
7
 10
-2.31547546E+02
 20
1.12038520E+01
 40
6.30000019E+00
  1
50
 41
1.00000000E+00
  7
MONOTXT
  0
LINE
  8
0
 62
7
 10
1.99313391E+02
 20
-2.06461479E+01
 11
1.99313391E+02
 21
2.93538521E+01
  0
LINE
  8
0
 62
7
 10
1.67813391E+02
 20
-2.06461479E+01
 11
1.67813391E+02
 21
2.93538521E+01
  0
LINE
  8
0
 62
7
 10
1.36313391E+02
 20
-2.06461479E+01
 11
1.36313391E+02
 21
2.93538521E+01
  0
LINE
  8
0
 62
7
 10
1.04813391E+02
 20
-2.06461479E+01
 11
1.04813391E+02
 21
2.93538521E+01
  0
LINE
  8
0
 62
7
 10
7.33133908E+01
 20
-2.06461479E+01
 11
7.33133908E+01
 21
2.93538521E+01
  0
LINE
  8
0
 62
7
 10
4.18133908E+01
 20
-2.06461479E+01
 11
4.18133908E+01
 21
2.93538521E+01
  0
LINE
  8
0
 62
7
 10
1.03133908E+01
 20
-2.06461479E+01
 11
1.03133908E+01
 21
2.93538521E+01
  0
LINE
  8
0
 62
7
 10
-2.11866092E+01
 20
-2.06461479E+01
 11
-2.11866092E+01
 21
2.93538521E+01
  0
LINE
  8
0
 62
7
 10
-5.26866092E+01
 20
-2.06461479E+01
 11
-5.26866092E+01
 21
2.93538521E+01
  0
LINE
  8
0
 62
7
 10
-8.41866092E+01
 20
-2.06461479E+01
 11
-8.41866092E+01
 21
2.93538521E+01
  0
LINE
  8
0
 62
7
 10
-1.15686609E+02
 20
-2.06461479E+01
 11
-1.15686609E+02
 21
2.93538521E+01
  0
LINE
  8
0
 62
7
 10
-1.47186609E+02
 20
-2.06461479E+01
 11
-1.47186609E+02
 21
2.93538521E+01
  0
LINE
  8
0
 62
7
 10
-1.78686609E+02
 20
-2.06461479E+01
 11
-1.78686609E+02
 21
2.93538521E+01
  0
LINE
  8
0
 62
7
 10
-2.10186609E+02
 20
-2.06461479E+01
 11
-2.10186609E+02
 21
2.93538521E+01
  0
TEXT
  8
0
 62
7
 10
-2.98247547E+02
 20
1.12038520E+01
 40
6.30000019E+00
  1
STRETCH
 41
1.00000000E+00
  7
MONOTXT
  0
TEXT
  8
0
 62
7
 10
-2.95097547E+02
 20
2.12038520E+01
 40
6.30000019E+00
  1
STROKE
 41
1.00000000E+00
  7
MONOTXT
  0
LINE
  8
0
 62
7
 10
-2.41686609E+02
 20
-2.06461479E+01
 11
-2.41686609E+02
 21
2.93538521E+01
  0
LINE
  8
0
 62
7
 10
-3.02086609E+02
 20
-6.46147898E-01
 11
1.99313391E+02
 21
-6.46147898E-01
  0
LINE
  8
0
 62
7
 10
-3.02086609E+02
 20
1.93538521E+01
 11
-2.53486609E+02
 21
1.93538521E+01
  0
LINE
  8
0
 62
7
 10
-3.02086609E+02
 20
-2.06461479E+01
 11
-3.02086609E+02
 21
2.93538521E+01
  0
LINE
  8
0
 62
7
 10
-3.02086609E+02
 20
-1.06461479E+01
 11
1.99313391E+02
 21
-1.06461479E+01
  0
LINE
  8
0
 62
7
 10
-3.02086609E+02
 20
-2.06461479E+01
 11
1.99313391E+02
 21
-2.06461479E+01
  0
LINE
  8
0
 62
7
 10
-3.02086609E+02
 20
2.93538521E+01
 11
1.99313391E+02
 21
2.93538521E+01
  0
TEXT
  8
0
 62
7
 10
-2.98247547E+02
 20
1.20385200E+00
 40
6.30000019E+00
  1
  PLACE
 41
1.20689655E+00
  7
MONOTXT
  0
LINE
  8
0
 62
7
 10
-2.53486609E+02
 20
1.93538521E+01
 11
-2.41686609E+02
 21
-6.46147898E-01
  0
TEXT
  8
0
 62
7
 10
-2.74347546E+02
 20
-8.79614800E+00
 40
6.30000019E+00
  1
A
 41
1.00000000E+00
  7
MONOTXT
  0
TEXT
  8
0
 62
7
 10
-2.74347546E+02
 20
-1.87961480E+01
 40
6.30000019E+00
  1
B
 41
1.00000000E+00
  7
MONOTXT
  0
TEXT
  8
0
 62
7
 10
-8.97975477E+01
 20
3.32038520E+01
 40
6.30000019E+00
  1
STRETCH LIST
 41
1.05263158E+00
  7
MONOTXT
  0
TEXT
  8
0
 62
7
 10
1.72202453E+02
 20
3.32038520E+01
 40
6.30000019E+00
  1
(mm)
 41
1.00000000E+00
  7
MONOTXT
  0
LINE
  8
0
 62
2
 10
1.90467779E+02
 20
-2.49633314E+02
 11
2.16214048E+02
 21
-2.05039467E+02
  0
LINE
  8
0
 62
7
 10
-3.19935623E+01
 20
-2.21157742E+02
 11
-9.47500076E+01
 21
-2.21157742E+02
  0
LINE
  8
0
 62
7
 10
-2.78366333E+01
 20
-2.13957730E+02
 11
-9.47500076E+01
 21
-2.13957730E+02
  0
LINE
  8
0
 62
7
 10
-2.64509961E+01
 20
-2.11557736E+02
 11
-9.47500076E+01
 21
-2.11557736E+02
  0
LINE
  8
0
 62
7
 10
-6.01682219E+01
 20
-1.24957684E+02
 11
-9.47499924E+01
 21
-1.24957684E+02
  0
LINE
  8
0
 62
7
 10
-6.57107792E+01
 20
-1.34557675E+02
 11
-9.47499924E+01
 21
-1.34557675E+02
  0
LINE
  8
0
 62
7
 10
-6.43251509E+01
 20
-1.32157696E+02
 11
-9.47499924E+01
 21
-1.32157696E+02
  0
LINE
  8
0
 62
7
 10
-8.62499860E+01
 20
-6.65577361E+01
 11
-9.47499924E+01
 21
-6.65577361E+01
  0
LINE
  8
0
 62
7
 10
-8.62499860E+01
 20
-6.89576995E+01
 11
-9.47499924E+01
 21
-6.89576995E+01
  0
LINE
  8
0
 62
2
 10
-1.63749962E+02
 20
-2.37377713E+02
 11
-1.54749947E+02
 21
-2.37377713E+02
  0
LINE
  8
0
 62
7
 10
-1.63749962E+02
 20
-2.36557706E+02
 11
-1.54749947E+02
 21
-2.36557706E+02
  0
LINE
  8
0
 62
2
 10
-1.63749962E+02
 20
-1.08737668E+02
 11
-1.54749947E+02
 21
-1.08737668E+02
  0
LINE
  8
0
 62
7
 10
-1.63749962E+02
 20
-1.09557675E+02
 11
-1.54749947E+02
 21
-1.09557675E+02
  0
LINE
  8
0
 62
2
 10
-1.63749962E+02
 20
-9.23776976E+01
 11
-1.54749947E+02
 21
-9.23776976E+01
  0
LINE
  8
0
 62
7
 10
-1.63749962E+02
 20
-9.15576903E+01
 11
-1.54749947E+02
 21
-9.15576903E+01
  0
LINE
  8
0
 62
4
 10
-1.63749962E+02
 20
-8.70577056E+01
 11
-1.63749962E+02
 21
-1.14057706E+02
  0
LINE
  8
0
 62
4
 10
-1.74749962E+02
 20
-8.70577056E+01
 11
-1.74749962E+02
 21
-1.14057706E+02
  0
LINE
  8
0
 62
4
 10
-1.63749962E+02
 20
-8.70577056E+01
 11
-1.74749962E+02
 21
-8.70577056E+01
  0
LINE
  8
0
 62
4
 10
-1.63749962E+02
 20
-1.14057706E+02
 11
-1.74749962E+02
 21
-1.14057706E+02
  0
LINE
  8
0
 62
4
 10
-1.64955733E+02
 20
-1.00557706E+02
 11
-1.73544190E+02
 21
-1.00557706E+02
  0
ARC
  8
0
 62
4
 10
-1.55253569E+02
 20
-1.07307706E+02
 40
1.94963929E+01
 50
1.59743842E+02
 51
2.00256158E+02
  0
ARC
  8
0
 62
4
 10
-1.55253569E+02
 20
-9.38077056E+01
 40
1.94963929E+01
 50
1.59743842E+02
 51
2.00256158E+02
  0
ARC
  8
0
 62
4
 10
-1.83246355E+02
 20
-9.38077056E+01
 40
1.94963929E+01
 50
3.39743842E+02
 51
2.02561580E+01
  0
ARC
  8
0
 62
4
 10
-1.83246355E+02
 20
-1.07307706E+02
 40
1.94963929E+01
 50
3.39743842E+02
 51
2.02561580E+01
  0
LINE
  8
0
 62
4
 10
-1.73544190E+02
 20
-2.29969248E+02
 11
-1.64955733E+02
 21
-2.29969248E+02
  0
LINE
  8
0
 62
4
 10
-1.73544190E+02
 20
-2.37763477E+02
 11
-1.64955733E+02
 21
-2.37763477E+02
  0
LINE
  8
0
 62
4
 10
-1.73544190E+02
 20
-2.29969248E+02
 11
-1.74749962E+02
 21
-2.32057706E+02
  0
LINE
  8
0
 62
4
 10
-1.64955733E+02
 20
-2.29969248E+02
 11
-1.63749962E+02
 21
-2.32057706E+02
  0
ARC
  8
0
 62
4
 10
-1.67849241E+02
 20
-2.33866363E+02
 40
6.90072132E+00
 50
1.45615752E+02
 51
2.14384248E+02
  0
ARC
  8
0
 62
4
 10
-1.70650683E+02
 20
-2.33866363E+02
 40
6.90072132E+00
 50
3.25615752E+02
 51
3.43842480E+01
  0
ARC
  8
0
 62
4
 10
-1.89544190E+02
 20
-2.45557706E+02
 40
2.57942282E+01
 50
2.54444375E-13
 51
1.75879541E+01
  0
ARC
  8
0
 62
4
 10
-1.48955734E+02
 20
-2.45557706E+02
 40
2.57942282E+01
 50
1.62412046E+02
 51
1.80000000E+02
  0
LINE
  8
0
 62
4
 10
-1.74749962E+02
 20
-2.45557706E+02
 11
-1.74749962E+02
 21
-2.32057706E+02
  0
LINE
  8
0
 62
4
 10
-1.63749962E+02
 20
-2.45557706E+02
 11
-1.63749962E+02
 21
-2.32057706E+02
  0
ARC
  8
0
 62
7
 10
-2.89249947E+02
 20
-2.45557706E+02
 40
7.50000000E+00
 50
0.00000000E+00
 51
1.80000000E+02
  0
ARC
  8
0
 62
4
 10
-2.89249947E+02
 20
-2.45557706E+02
 40
1.35000000E+01
 50
0.00000000E+00
 51
1.80000000E+02
  0
LINE
  8
0
 62
4
 10
-2.89249947E+02
 20
-2.29969248E+02
 11
-3.02749947E+02
 21
-2.37763477E+02
  0
LINE
  8
0
 62
4
 10
-3.02749947E+02
 20
-2.37763477E+02
 11
-3.02749947E+02
 21
-2.45557706E+02
  0
LINE
  8
0
 62
4
 10
-2.75749947E+02
 20
-2.45557706E+02
 11
-2.75749947E+02
 21
-2.37763477E+02
  0
LINE
  8
0
 62
4
 10
-2.75749947E+02
 20
-2.37763477E+02
 11
-2.89249947E+02
 21
-2.29969248E+02
  0
ARC
  8
0
 62
2
 10
-2.89249947E+02
 20
-2.45557706E+02
 40
8.18000031E+00
 50
0.00000000E+00
 51
1.80000000E+02
  0
ARC
  8
0
 62
7
 10
-2.89249947E+02
 20
-2.45557706E+02
 40
8.99999237E+00
 50
0.00000000E+00
 51
1.80000000E+02
  0
CIRCLE
  8
0
 62
7
 10
-1.01750038E+02
 20
-1.12557706E+02
 40
2.59999990E+00
  0
ARC
  8
0
 62
7
 10
-1.36500008E+02
 20
-2.28549145E+02
 40
2.50000000E-01
 50
9.19988230E+01
 51
1.79999977E+02
  0
ARC
  8
0
 62
7
 10
-1.26250008E+02
 20
-2.09107632E+02
 40
5.00000000E-01
 50
9.10002768E+01
 51
1.80000019E+02
  0
ARC
  8
0
 62
7
 10
-1.41250008E+02
 20
-2.29057721E+02
 40
5.00000000E-01
 50
8.99999818E+01
 51
1.79999964E+02
  0
ARC
  8
0
 62
7
 10
-1.28249992E+02
 20
-2.27057706E+02
 40
5.00000000E-01
 50
8.99999818E+01
 51
1.79999964E+02
  0
ARC
  8
0
 62
7
 10
-1.53249977E+02
 20
-2.45557706E+02
 40
9.99998474E+00
 50
0.00000000E+00
 51
3.17883527E+01
  0
CIRCLE
  8
0
 62
7
 10
-2.61249886E+02
 20
-2.17557645E+02
 40
3.32000017E+00
  0
CIRCLE
  8
0
 62
7
 10
-3.17250038E+02
 20
-2.17557645E+02
 40
3.32000017E+00
  0
CIRCLE
  8
0
 62
2
 10
-2.61249886E+02
 20
-2.17557645E+02
 40
4.00000000E+00
  0
CIRCLE
  8
0
 62
2
 10
-3.17250038E+02
 20
-2.17557645E+02
 40
4.00000000E+00
  0
CIRCLE
  8
0
 62
7
 10
-1.01750038E+02
 20
-1.12557706E+02
 40
5.00000000E+00
  0
ARC
  8
0
 62
2
 10
-1.08750069E+02
 20
-9.25577056E+01
 40
8.32999992E+00
 50
6.88903471E+01
 51
5.35366168E+01
  0
ARC
  8
0
 62
7
 10
-2.89249947E+02
 20
-2.45557706E+02
 40
1.70000000E+01
 50
0.00000000E+00
 51
1.80000000E+02
  0
ARC
  8
0
 62
7
 10
-2.89249947E+02
 20
-2.45557706E+02
 40
1.90000000E+01
 50
0.00000000E+00
 51
1.80000000E+02
  0
ARC
  8
0
 62
7
 10
-2.89249947E+02
 20
-2.45557706E+02
 40
1.75294495E+01
 50
0.00000000E+00
 51
1.80000000E+02
  0
ARC
  8
0
 62
7
 10
-3.22750008E+02
 20
-2.32557629E+02
 40
1.00000000E+00
 50
9.00017305E+01
 51
1.80000005E+02
  0
ARC
  8
0
 62
7
 10
-3.22750099E+02
 20
-2.28057645E+02
 40
3.50000000E+00
 50
2.70001002E+02
 51
0.00000000E+00
  0
ARC
  8
0
 62
7
 10
-3.18272163E+02
 20
-2.27002515E+02
 40
1.00000000E+00
 50
8.38236876E+01
 51
1.74325470E+02
  0
ARC
  8
0
 62
7
 10
-3.17250038E+02
 20
-2.17557675E+02
 40
8.50000000E+00
 50
2.63823553E+02
 51
6.17667669E+00
  0
ARC
  8
0
 62
7
 10
-3.02250038E+02
 20
-2.12057690E+02
 40
1.00000000E+00
 50
8.99999818E+01
 51
1.79998270E+02
  0
ARC
  8
0
 62
7
 10
-3.06750038E+02
 20
-2.12057583E+02
 40
3.50000000E+00
 50
2.70000018E+02
 51
3.59999001E+02
  0
ARC
  8
0
 62
7
 10
-3.07805153E+02
 20
-2.16535535E+02
 40
1.00000000E+00
 50
9.56745100E+01
 51
1.86176313E+02
  0
ARC
  8
0
 62
7
 10
-2.55749977E+02
 20
-2.32557629E+02
 40
1.00000000E+00
 50
3.59999986E+02
 51
8.99982469E+01
  0
ARC
  8
0
 62
7
 10
-2.60227821E+02
 20
-2.27002515E+02
 40
1.00000000E+00
 50
5.67452116E+00
 51
9.61763036E+01
  0
ARC
  8
0
 62
7
 10
-2.55749825E+02
 20
-2.28057645E+02
 40
3.50000000E+00
 50
1.79999977E+02
 51
2.69999017E+02
  0
ARC
  8
0
 62
7
 10
-2.70694771E+02
 20
-2.16535535E+02
 40
1.00000000E+00
 50
3.53822790E+02
 51
8.43256382E+01
  0
ARC
  8
0
 62
7
 10
-2.76249855E+02
 20
-2.12057690E+02
 40
1.00000000E+00
 50
1.77584919E-03
 51
8.99999549E+01
  0
ARC
  8
0
 62
7
 10
-2.71749855E+02
 20
-2.12057553E+02
 40
3.50000000E+00
 50
1.80001511E+02
 51
2.70000018E+02
  0
CIRCLE
  8
0
 62
7
 10
-2.61249886E+02
 20
-2.17557675E+02
 40
6.00000000E+00
  0
ARC
  8
0
 62
7
 10
-2.55749977E+02
 20
-2.12057690E+02
 40
4.00000000E+00
 50
0.00000000E+00
 51
8.99999818E+01
  0
ARC
  8
0
 62
7
 10
-2.69350258E+02
 20
-2.43557713E+02
 40
1.00000000E+00
 50
1.85739458E+02
 51
2.69999963E+02
  0
ARC
  8
0
 62
7
 10
-2.55749977E+02
 20
-2.43557713E+02
 40
1.00000000E+00
 50
2.69999963E+02
 51
0.00000000E+00
  0
ARC
  8
0
 62
7
 10
-2.55749977E+02
 20
-2.12057690E+02
 40
3.50000000E+00
 50
0.00000000E+00
 51
8.99999818E+01
  0
ARC
  8
0
 62
7
 10
-2.66402657E+02
 20
-2.25538815E+02
 40
1.00000000E+00
 50
5.71532472E+01
 51
1.34999959E+02
  0
ARC
  8
0
 62
7
 10
-2.69231117E+02
 20
-2.22710400E+02
 40
1.00000000E+00
 50
3.14999995E+02
 51
3.28461612E+01
  0
ARC
  8
0
 62
7
 10
-2.76592903E+02
 20
-2.30072232E+02
 40
1.00000000E+00
 50
2.30738998E+02
 51
3.14999995E+02
  0
ARC
  8
0
 62
7
 10
-2.73764503E+02
 20
-2.32900647E+02
 40
1.00000000E+00
 50
1.34999959E+02
 51
2.19260957E+02
  0
CIRCLE
  8
0
 62
7
 10
-2.61249886E+02
 20
-2.17557675E+02
 40
6.50000048E+00
  0
ARC
  8
0
 62
7
 10
-1.20749992E+02
 20
-1.23557736E+02
 40
2.00000000E+00
 50
1.79999977E+02
 51
2.70000028E+02
  0
ARC
  8
0
 62
7
 10
-1.20749992E+02
 20
-7.75577056E+01
 40
2.00000000E+00
 50
8.99999818E+01
 51
1.79999964E+02
  0
CIRCLE
  8
0
 62
7
 10
-1.08750069E+02
 20
-9.25577056E+01
 40
7.44000006E+00
  0
ARC
  8
0
 62
7
 10
-1.08750069E+02
 20
-9.25577056E+01
 40
8.71000004E+00
 50
6.98523129E+01
 51
5.02775825E+01
  0
ARC
  8
0
 62
7
 10
-1.28249992E+02
 20
-8.20577208E+01
 40
5.00000000E-01
 50
8.99999818E+01
 51
1.79999964E+02
  0
ARC
  8
0
 62
7
 10
-1.26250008E+02
 20
-6.41076323E+01
 40
5.00000000E-01
 50
9.10002223E+01
 51
1.79999964E+02
  0
ARC
  8
0
 62
7
 10
-1.36500008E+02
 20
-8.35491912E+01
 40
2.50000000E-01
 50
9.19988230E+01
 51
1.79999977E+02
  0
ARC
  8
0
 62
7
 10
-1.41250008E+02
 20
-8.40577666E+01
 40
5.00000000E-01
 50
8.99999818E+01
 51
1.79999964E+02
  0
ARC
  8
0
 62
7
 10
-1.28249992E+02
 20
-1.19057721E+02
 40
5.00000000E-01
 50
1.79999977E+02
 51
2.69999974E+02
  0
ARC
  8
0
 62
7
 10
-1.26250008E+02
 20
-1.37007779E+02
 40
5.00000000E-01
 50
1.79999977E+02
 51
2.68999706E+02
  0
ARC
  8
0
 62
7
 10
-1.36500008E+02
 20
-1.17566250E+02
 40
2.50000000E-01
 50
1.79999977E+02
 51
2.68001132E+02
  0
ARC
  8
0
 62
7
 10
-1.41250008E+02
 20
-1.17057675E+02
 40
5.00000000E-01
 50
1.79999977E+02
 51
2.69999974E+02
  0
CIRCLE
  8
0
 62
7
 10
-3.17250038E+02
 20
-2.17557645E+02
 40
6.00000000E+00
  0
ARC
  8
0
 62
7
 10
-3.22750008E+02
 20
-2.12057706E+02
 40
4.00000000E+00
 50
9.00000231E+01
 51
1.79999977E+02
  0
ARC
  8
0
 62
7
 10
-3.09149757E+02
 20
-2.43557706E+02
 40
1.00000000E+00
 50
2.70000045E+02
 51
3.54260551E+02
  0
ARC
  8
0
 62
7
 10
-3.22749977E+02
 20
-2.43557706E+02
 40
1.00000000E+00
 50
1.80000008E+02
 51
2.70000045E+02
  0
ARC
  8
0
 62
7
 10
-2.87249947E+02
 20
-2.12057690E+02
 40
1.00000000E+00
 50
8.99999818E+01
 51
1.79999964E+02
  0
ARC
  8
0
 62
7
 10
-2.87249947E+02
 20
-2.25657956E+02
 40
1.00000000E+00
 50
1.79999964E+02
 51
2.64260484E+02
  0
ARC
  8
0
 62
7
 10
-2.91249977E+02
 20
-2.12057706E+02
 40
1.00000000E+00
 50
3.59999959E+02
 51
8.99999956E+01
  0
ARC
  8
0
 62
7
 10
-3.22750008E+02
 20
-2.12057706E+02
 40
3.50000000E+00
 50
9.00000231E+01
 51
1.79999977E+02
  0
ARC
  8
0
 62
7
 10
-2.61249886E+02
 20
-2.17557675E+02
 40
8.50000000E+00
 50
1.73823315E+02
 51
2.76176459E+02
  0
ARC
  8
0
 62
7
 10
-2.91249977E+02
 20
-2.25657956E+02
 40
1.00000000E+00
 50
2.75739453E+02
 51
3.59999959E+02
  0
ARC
  8
0
 62
7
 10
-3.01907021E+02
 20
-2.30072247E+02
 40
1.00000000E+00
 50
2.24999972E+02
 51
3.09260983E+02
  0
ARC
  8
0
 62
7
 10
-3.04735451E+02
 20
-2.32900677E+02
 40
1.00000000E+00
 50
3.20738994E+02
 51
4.49999910E+01
  0
ARC
  8
0
 62
7
 10
-3.09268837E+02
 20
-2.22710416E+02
 40
1.00000000E+00
 50
1.47153243E+02
 51
2.24999955E+02
  0
ARC
  8
0
 62
7
 10
-3.12097237E+02
 20
-2.25538846E+02
 40
1.00000000E+00
 50
4.49999910E+01
 51
1.22846171E+02
  0
CIRCLE
  8
0
 62
7
 10
-3.17250038E+02
 20
-2.17557645E+02
 40
6.50000048E+00
  0
LINE
  8
0
 62
7
 10
-1.54749947E+02
 20
-2.37377713E+02
 11
-1.51749962E+02
 21
-2.37377713E+02
  0
LINE
  8
0
 62
7
 10
-1.54749947E+02
 20
-1.08737668E+02
 11
-1.51749962E+02
 21
-1.08737668E+02
  0
LINE
  8
0
 62
7
 10
-1.54749947E+02
 20
-9.23776976E+01
 11
-1.51749962E+02
 21
-9.23776976E+01
  0
LINE
  8
0
 62
7
 10
-1.51749936E+02
 20
-2.36557723E+02
 11
-1.48749947E+02
 21
-2.35557739E+02
  0
LINE
  8
0
 62
7
 10
-1.51749961E+02
 20
-2.42435264E+02
 11
-1.48749972E+02
 21
-2.40290167E+02
  0
LINE
  8
0
  6
CENTER
 62
2
 10
-1.08750069E+02
 20
-2.05872647E+02
 11
-1.08750069E+02
 21
-2.17757931E+02
  0
LINE
  8
0
  6
CENTER
 62
2
 10
-2.99150713E+01
 20
-2.17557690E+02
 11
-1.29998100E+02
 21
-2.17557690E+02
  0
LINE
  8
0
 62
7
 10
-1.22750008E+02
 20
-2.08546490E+02
 11
-1.22750008E+02
 21
-2.08057706E+02
  0
LINE
  8
0
 62
7
 10
-1.22750008E+02
 20
-2.08057706E+02
 11
-9.47500076E+01
 21
-2.08057706E+02
  0
LINE
  8
0
 62
7
 10
-1.26258741E+02
 20
-2.08607750E+02
 11
-9.47500364E+01
 21
-2.08057763E+02
  0
LINE
  8
0
 62
7
 10
-1.36508667E+02
 20
-2.28299225E+02
 11
-1.28749954E+02
 21
-2.28028285E+02
  0
LINE
  8
0
 62
7
 10
-1.36749992E+02
 20
-2.28557690E+02
 11
-1.36749992E+02
 21
-2.28549145E+02
  0
LINE
  8
0
 62
7
 10
-1.41250008E+02
 20
-2.28557690E+02
 11
-1.36741447E+02
 21
-2.28557690E+02
  0
LINE
  8
0
 62
7
 10
-1.28249992E+02
 20
-2.26557706E+02
 11
-1.26749992E+02
 21
-2.26557706E+02
  0
LINE
  8
0
 62
7
 10
-1.44750141E+02
 20
-9.20575455E+01
 11
-1.43250118E+02
 21
-9.05575224E+01
  0
LINE
  8
0
 62
7
 10
-1.44750084E+02
 20
-1.09057614E+02
 11
-1.43250115E+02
 21
-1.10557584E+02
  0
LINE
  8
0
 62
7
 10
-1.51749962E+02
 20
-9.20576750E+01
 11
-1.44750023E+02
 21
-9.20576750E+01
  0
LINE
  8
0
 62
7
 10
-1.51749962E+02
 20
-1.09057690E+02
 11
-1.44750023E+02
 21
-1.09057690E+02
  0
LINE
  8
0
 62
7
 10
-1.51749962E+02
 20
-1.00557736E+02
 11
-1.51749962E+02
 21
-1.09057690E+02
  0
LINE
  8
0
 62
7
 10
-1.51749962E+02
 20
-1.00557736E+02
 11
-1.51749962E+02
 21
-9.20576903E+01
  0
LINE
  8
0
 62
7
 10
-1.83750014E+02
 20
-1.08057555E+02
 11
-1.82249979E+02
 21
-1.09557544E+02
  0
LINE
  8
0
 62
2
 10
-1.83069923E+02
 20
-1.08737668E+02
 11
-1.74749962E+02
 21
-1.08737668E+02
  0
LINE
  8
0
 62
7
 10
-1.82249916E+02
 20
-1.09557675E+02
 11
-1.74749962E+02
 21
-1.09557675E+02
  0
LINE
  8
0
 62
7
 10
-1.83749817E+02
 20
-9.30578697E+01
 11
-1.82249784E+02
 21
-9.15578829E+01
  0
LINE
  8
0
 62
2
 10
-1.83069923E+02
 20
-9.23776976E+01
 11
-1.74749962E+02
 21
-9.23776976E+01
  0
LINE
  8
0
 62
7
 10
-1.82249916E+02
 20
-9.15576903E+01
 11
-1.74749962E+02
 21
-9.15576903E+01
  0
LINE
  8
0
 62
7
 10
-1.82249947E+02
 20
-1.09557690E+02
 11
-1.82249947E+02
 21
-9.15576903E+01
  0
LINE
  8
0
 62
7
 10
-1.83749977E+02
 20
-1.08057660E+02
 11
-1.83749977E+02
 21
-9.30578581E+01
  0
LINE
  8
0
 62
7
 10
-1.54749947E+02
 20
-1.09557690E+02
 11
-1.54749947E+02
 21
-9.15576903E+01
  0
LINE
  8
0
 62
7
 10
-1.43249977E+02
 20
-9.05576598E+01
 11
-1.41749992E+02
 21
-9.05576598E+01
  0
LINE
  8
0
 62
7
 10
-1.43250008E+02
 20
-1.10557660E+02
 11
-1.41750038E+02
 21
-1.10557660E+02
  0
LINE
  8
0
 62
7
 10
-1.48749962E+02
 20
-9.20576903E+01
 11
-1.48749962E+02
 21
-1.09057690E+02
  0
LINE
  8
0
 62
7
 10
-1.48750084E+02
 20
-2.35557721E+02
 11
-1.41750038E+02
 21
-2.35557721E+02
  0
LINE
  8
0
 62
7
 10
-1.83749867E+02
 20
-2.38057897E+02
 11
-1.82249820E+02
 21
-2.36557897E+02
  0
LINE
  8
0
 62
2
 10
-1.83069923E+02
 20
-2.37377713E+02
 11
-1.74749962E+02
 21
-2.37377713E+02
  0
LINE
  8
0
 62
7
 10
-1.82249916E+02
 20
-2.36557706E+02
 11
-1.74749962E+02
 21
-2.36557706E+02
  0
LINE
  8
0
 62
7
 10
-1.82249947E+02
 20
-2.45557706E+02
 11
-1.82249947E+02
 21
-2.36557690E+02
  0
LINE
  8
0
 62
7
 10
-1.83749977E+02
 20
-2.45557706E+02
 11
-1.83749977E+02
 21
-2.38057858E+02
  0
LINE
  8
0
 62
7
 10
-1.54749947E+02
 20
-2.45557706E+02
 11
-1.54749947E+02
 21
-2.36557690E+02
  0
LINE
  8
0
 62
7
 10
-1.44750023E+02
 20
-2.45557706E+02
 11
-1.44750023E+02
 21
-2.40289838E+02
  0
LINE
  8
0
 62
7
 10
-1.48749962E+02
 20
-2.35557660E+02
 11
-1.48749962E+02
 21
-2.40289838E+02
  0
LINE
  8
0
 62
2
 10
-1.48249788E+02
 20
-2.45557706E+02
 11
-1.44749829E+02
 21
-2.40289902E+02
  0
LINE
  8
0
 62
2
 10
-1.50783577E+02
 20
-2.41744287E+02
 11
-1.48249919E+02
 21
-2.45557706E+02
  0
LINE
  8
0
 62
7
 10
-1.48750084E+02
 20
-2.40289853E+02
 11
-1.44750023E+02
 21
-2.40289853E+02
  0
LINE
  8
0
 62
7
 10
-1.51749962E+02
 20
-2.36557706E+02
 11
-1.51749962E+02
 21
-2.45557706E+02
  0
LINE
  8
0
 62
7
 10
-2.64509961E+01
 20
-6.65577361E+01
 11
-7.12499860E+01
 21
-6.65577361E+01
  0
LINE
  8
0
 62
7
 10
-2.78366156E+01
 20
-6.89576995E+01
 11
-7.12499860E+01
 21
-6.89576995E+01
  0
LINE
  8
0
 62
7
 10
-3.19935446E+01
 20
-7.61577117E+01
 11
-5.19007649E+01
 21
-7.61577117E+01
  0
LINE
  8
0
  6
CENTER
 62
2
 10
-2.99150625E+01
 20
-7.25576750E+01
 11
-7.12499860E+01
 21
-7.25576750E+01
  0
LINE
  8
0
  6
CENTER
 62
2
 10
-1.01750038E+02
 20
-1.06146557E+02
 11
-1.01750038E+02
 21
-1.19623303E+02
  0
LINE
  8
0
  6
CENTER
 62
2
 10
-1.08415764E+02
 20
-1.12557706E+02
 11
-9.55870132E+01
 21
-1.12557706E+02
  0
LINE
  8
0
 62
7
 10
-1.00017944E+02
 20
-1.12557787E+02
 11
-1.00883979E+02
 21
-1.14057813E+02
  0
LINE
  8
0
 62
7
 10
-1.00884026E+02
 20
-1.14057721E+02
 11
-1.02616096E+02
 21
-1.14057721E+02
  0
LINE
  8
0
 62
7
 10
-1.02615988E+02
 20
-1.14057742E+02
 11
-1.03482027E+02
 21
-1.12557709E+02
  0
LINE
  8
0
 62
7
 10
-1.03481931E+02
 20
-1.12557842E+02
 11
-1.02615911E+02
 21
-1.11057842E+02
  0
LINE
  8
0
 62
7
 10
-1.00884026E+02
 20
-1.11057690E+02
 11
-1.02616096E+02
 21
-1.11057690E+02
  0
LINE
  8
0
 62
7
 10
-1.00017968E+02
 20
-1.12557783E+02
 11
-1.00883991E+02
 21
-1.11057777E+02
  0
LINE
  8
0
  6
CENTER
 62
2
 10
-6.22467128E+01
 20
-1.28557736E+02
 11
-1.29998085E+02
 21
-1.28557736E+02
  0
LINE
  8
0
 62
7
 10
-9.47500076E+01
 20
-2.08057706E+02
 11
-9.47500076E+01
 21
-2.45557706E+02
  0
LINE
  8
0
 62
7
 10
-1.26749992E+02
 20
-2.09107632E+02
 11
-1.26749992E+02
 21
-2.45557706E+02
  0
LINE
  8
0
 62
7
 10
-1.36749992E+02
 20
-2.45557706E+02
 11
-1.36749992E+02
 21
-2.28557690E+02
  0
LINE
  8
0
  6
CENTER
 62
2
 10
-2.71880501E+02
 20
-2.17557645E+02
 11
-2.49347542E+02
 21
-2.17557645E+02
  0
LINE
  8
0
 62
7
 10
-2.59249763E+02
 20
-2.28057645E+02
 11
-2.59249763E+02
 21
-2.26793912E+02
  0
LINE
  8
0
 62
7
 10
-2.71749855E+02
 20
-2.15557461E+02
 11
-2.70486427E+02
 21
-2.15557461E+02
  0
LINE
  8
0
 62
7
 10
-3.19250221E+02
 20
-2.28057645E+02
 11
-3.19250221E+02
 21
-2.26794049E+02
  0
LINE
  8
0
 62
7
 10
-3.06750038E+02
 20
-2.15557492E+02
 11
-3.08013588E+02
 21
-2.15557492E+02
  0
LINE
  8
0
 62
7
 10
-3.22750008E+02
 20
-2.08057675E+02
 11
-2.55749977E+02
 21
-2.08057675E+02
  0
LINE
  8
0
 62
7
 10
-3.02250038E+02
 20
-2.11057675E+02
 11
-2.76249855E+02
 21
-2.11057675E+02
  0
LINE
  8
0
 62
7
 10
-1.28750008E+02
 20
-2.27057706E+02
 11
-1.28750008E+02
 21
-2.45557706E+02
  0
LINE
  8
0
 62
7
 10
-2.64249947E+02
 20
-2.08057675E+02
 11
-2.64249947E+02
 21
-2.08557675E+02
  0
LINE
  8
0
 62
7
 10
-3.14249947E+02
 20
-2.08057675E+02
 11
-3.14249947E+02
 21
-2.08557675E+02
  0
LINE
  8
0
 62
7
 10
-2.52249947E+02
 20
-2.45557706E+02
 11
-2.52249947E+02
 21
-2.12057690E+02
  0
LINE
  8
0
  6
CENTER
 62
2
 10
-3.29295052E+02
 20
-2.17557645E+02
 11
-3.07143990E+02
 21
-2.17557645E+02
  0
LINE
  8
0
  6
CENTER
 62
2
 10
-2.97249947E+02
 20
-2.05872418E+02
 11
-2.97249947E+02
 21
-2.17757687E+02
  0
LINE
  8
0
  6
CENTER
 62
2
 10
-2.48482246E+02
 20
-2.45557706E+02
 11
-3.31727669E+02
 21
-2.45557706E+02
  0
LINE
  8
0
  6
CENTER
 62
2
 10
-2.61249886E+02
 20
-2.05872418E+02
 11
-2.61249886E+02
 21
-2.28787305E+02
  0
LINE
  8
0
 62
7
 10
-2.51749947E+02
 20
-2.45557706E+02
 11
-2.51749947E+02
 21
-2.12057690E+02
  0
LINE
  8
0
 62
7
 10
-2.55749977E+02
 20
-2.44557721E+02
 11
-2.69350258E+02
 21
-2.44557721E+02
  0
LINE
  8
0
 62
7
 10
-2.54749947E+02
 20
-2.45557706E+02
 11
-2.54749947E+02
 21
-2.32557629E+02
  0
LINE
  8
0
 62
7
 10
-2.74471840E+02
 20
-2.32193300E+02
 11
-2.67109991E+02
 21
-2.24831454E+02
  0
LINE
  8
0
 62
7
 10
-2.75886054E+02
 20
-2.30779086E+02
 11
-2.68524237E+02
 21
-2.23417273E+02
  0
LINE
  8
0
 62
7
 10
-1.41749992E+02
 20
-2.45557706E+02
 11
-1.41749992E+02
 21
-2.29057721E+02
  0
LINE
  8
0
 62
7
 10
-1.22750008E+02
 20
-7.75577056E+01
 11
-1.22750008E+02
 21
-1.23557706E+02
  0
LINE
  8
0
 62
7
 10
-1.20749992E+02
 20
-1.25557721E+02
 11
-9.47499924E+01
 21
-1.25557721E+02
  0
LINE
  8
0
 62
7
 10
-1.20749992E+02
 20
-7.55577056E+01
 11
-1.05749986E+02
 21
-7.55577056E+01
  0
LINE
  8
0
 62
7
 10
-1.36749992E+02
 20
-8.35577056E+01
 11
-1.36749992E+02
 21
-1.17557721E+02
  0
LINE
  8
0
 62
7
 10
-1.28750008E+02
 20
-1.19057721E+02
 11
-1.28750008E+02
 21
-8.20576903E+01
  0
LINE
  8
0
 62
7
 10
-1.26258731E+02
 20
-6.36077045E+01
 11
-9.47500108E+01
 21
-6.30577178E+01
  0
LINE
  8
0
 62
7
 10
-9.47499924E+01
 20
-1.38057675E+02
 11
-9.47499924E+01
 21
-8.54947616E+01
  0
LINE
  8
0
 62
7
 10
-1.26749992E+02
 20
-1.37007794E+02
 11
-1.26749992E+02
 21
-6.41076323E+01
  0
LINE
  8
0
 62
7
 10
-1.36508735E+02
 20
-8.32990878E+01
 11
-1.28750052E+02
 21
-8.30281486E+01
  0
LINE
  8
0
 62
7
 10
-1.36749992E+02
 20
-8.35577056E+01
 11
-1.36749992E+02
 21
-8.35491606E+01
  0
LINE
  8
0
 62
7
 10
-1.41250008E+02
 20
-8.35577361E+01
 11
-1.36741447E+02
 21
-8.35577361E+01
  0
LINE
  8
0
 62
7
 10
-1.28249992E+02
 20
-8.15577056E+01
 11
-1.26749992E+02
 21
-8.15577056E+01
  0
LINE
  8
0
 62
7
 10
-1.41749992E+02
 20
-1.17057690E+02
 11
-1.41749992E+02
 21
-8.40577361E+01
  0
LINE
  8
0
 62
7
 10
-1.26258758E+02
 20
-1.37507634E+02
 11
-9.47500536E+01
 21
-1.38057621E+02
  0
LINE
  8
0
 62
7
 10
-1.36508764E+02
 20
-1.17816186E+02
 11
-1.28750066E+02
 21
-1.18087125E+02
  0
LINE
  8
0
 62
7
 10
-1.36749992E+02
 20
-1.17557721E+02
 11
-1.36749992E+02
 21
-1.17566266E+02
  0
LINE
  8
0
 62
7
 10
-1.41250008E+02
 20
-1.17557706E+02
 11
-1.36741447E+02
 21
-1.17557706E+02
  0
LINE
  8
0
 62
7
 10
-1.28249992E+02
 20
-1.19557721E+02
 11
-1.26749992E+02
 21
-1.19557721E+02
  0
LINE
  8
0
  6
CENTER
 62
2
 10
-1.08750069E+02
 20
-1.02557721E+02
 11
-1.08750069E+02
 21
-8.20114409E+01
  0
LINE
  8
0
  6
CENTER
 62
2
 10
-1.19114861E+02
 20
-9.25577056E+01
 11
-9.75106888E+01
 21
-9.25577056E+01
  0
LINE
  8
0
  6
CENTER
 62
2
 10
-2.89249947E+02
 20
-2.04090161E+02
 11
-2.89249947E+02
 21
-2.45557706E+02
  0
LINE
  8
0
  6
CENTER
 62
2
 10
-3.17250038E+02
 20
-2.28787305E+02
 11
-3.17250038E+02
 21
-2.05999722E+02
  0
LINE
  8
0
 62
7
 10
-3.26750038E+02
 20
-2.45557706E+02
 11
-3.26750038E+02
 21
-2.12057706E+02
  0
LINE
  8
0
 62
7
 10
-3.22749947E+02
 20
-2.44557736E+02
 11
-3.09149757E+02
 21
-2.44557736E+02
  0
LINE
  8
0
 62
7
 10
-3.23750038E+02
 20
-2.45557706E+02
 11
-3.23750038E+02
 21
-2.32557629E+02
  0
LINE
  8
0
 62
7
 10
-3.26250038E+02
 20
-2.45557706E+02
 11
-3.26250038E+02
 21
-2.12057706E+02
  0
LINE
  8
0
 62
7
 10
-2.88249977E+02
 20
-2.12057690E+02
 11
-2.88249977E+02
 21
-2.25657956E+02
  0
LINE
  8
0
 62
7
 10
-3.04028422E+02
 20
-2.32193745E+02
 11
-3.11390270E+02
 21
-2.24831898E+02
  0
LINE
  8
0
 62
7
 10
-2.90249977E+02
 20
-2.12057706E+02
 11
-2.90249977E+02
 21
-2.25657956E+02
  0
LINE
  8
0
 62
7
 10
-3.02614220E+02
 20
-2.30779585E+02
 11
-3.09976068E+02
 21
-2.23417738E+02
  0
LINE
  8
0
 62
7
 10
-3.22750008E+02
 20
-2.08557675E+02
 11
-2.55749977E+02
 21
-2.08557675E+02
  0
LINE
  8
0
  6
CENTER
 62
2
 10
-1.87523201E+02
 20
-2.45557706E+02
 11
-4.60808877E+01
 21
-2.45557706E+02
  0
LINE
  8
0
  6
CENTER
 62
2
 10
-1.86783272E+02
 20
-1.00557706E+02
 11
-9.07499860E+01
 21
-1.00557706E+02
  0
LINE
  8
0
 62
2
 10
-6.99154072E+01
 20
-1.41840304E+02
 11
-2.41364212E+01
 21
-6.25487746E+01
  0
LINE
  8
0
 62
7
 10
-9.47499924E+01
 20
-7.14947616E+01
 11
-9.47499924E+01
 21
-6.30577056E+01
  0
LINE
  8
0
  6
CENTER
 62
2
 10
-1.05749986E+02
 20
-7.25576750E+01
 11
-1.29998085E+02
 21
-7.25576750E+01
  0
LINE
  8
0
  6
CENTER
 62
2
 10
-5.17499860E+01
 20
-1.00557706E+02
 11
-4.60808877E+01
 21
-1.00557706E+02
  0
LINE
  8
0
  6
CENTER
 62
2
 10
2.08986649E+02
 20
-2.17557690E+02
 11
3.15997828E+02
 21
-2.17557690E+02
  0
LINE
  8
0
 62
7
 10
3.08749736E+02
 20
-2.08057706E+02
 11
2.80749736E+02
 21
-2.08057706E+02
  0
LINE
  8
0
 62
7
 10
3.12258469E+02
 20
-2.08607750E+02
 11
2.80749764E+02
 21
-2.08057763E+02
  0
LINE
  8
0
  6
CENTER
 62
2
 10
3.73522929E+02
 20
-2.45557706E+02
 11
1.92820832E+02
 21
-2.45557706E+02
  0
LINE
  8
0
 62
7
 10
3.27749720E+02
 20
-2.45557706E+02
 11
3.27749720E+02
 21
-2.29057721E+02
  0
LINE
  8
0
 62
7
 10
3.14749736E+02
 20
-2.27057706E+02
 11
3.14749736E+02
 21
-2.45557706E+02
  0
LINE
  8
0
 62
7
 10
3.22749720E+02
 20
-2.45557706E+02
 11
3.22749720E+02
 21
-2.28557690E+02
  0
LINE
  8
0
 62
7
 10
3.12749720E+02
 20
-2.09107632E+02
 11
3.12749720E+02
 21
-2.45557706E+02
  0
LINE
  8
0
 62
7
 10
3.37749690E+02
 20
-2.36557706E+02
 11
3.37749690E+02
 21
-2.45557706E+02
  0
LINE
  8
0
 62
7
 10
3.34749812E+02
 20
-2.40289853E+02
 11
3.30749751E+02
 21
-2.40289853E+02
  0
LINE
  8
0
 62
2
 10
3.36783305E+02
 20
-2.41744287E+02
 11
3.34249647E+02
 21
-2.45557706E+02
  0
LINE
  8
0
 62
2
 10
3.34249516E+02
 20
-2.45557706E+02
 11
3.30749556E+02
 21
-2.40289902E+02
  0
LINE
  8
0
 62
7
 10
3.34749690E+02
 20
-2.35557660E+02
 11
3.34749690E+02
 21
-2.40289838E+02
  0
LINE
  8
0
 62
7
 10
3.30749751E+02
 20
-2.45557706E+02
 11
3.30749751E+02
 21
-2.40289838E+02
  0
LINE
  8
0
 62
7
 10
3.40749674E+02
 20
-2.45557706E+02
 11
3.40749674E+02
 21
-2.36557690E+02
  0
LINE
  8
0
 62
7
 10
3.69749705E+02
 20
-2.45557706E+02
 11
3.69749705E+02
 21
-2.38057858E+02
  0
LINE
  8
0
 62
7
 10
3.68249674E+02
 20
-2.45557706E+02
 11
3.68249674E+02
 21
-2.36557690E+02
  0
LINE
  8
0
 62
7
 10
3.68249644E+02
 20
-2.36557706E+02
 11
3.60749690E+02
 21
-2.36557706E+02
  0
LINE
  8
0
 62
2
 10
3.69069651E+02
 20
-2.37377713E+02
 11
3.60749690E+02
 21
-2.37377713E+02
  0
LINE
  8
0
 62
7
 10
3.69749594E+02
 20
-2.38057897E+02
 11
3.68249548E+02
 21
-2.36557897E+02
  0
LINE
  8
0
 62
7
 10
3.34749812E+02
 20
-2.35557721E+02
 11
3.27749766E+02
 21
-2.35557721E+02
  0
LINE
  8
0
 62
7
 10
3.14249720E+02
 20
-2.26557706E+02
 11
3.12749720E+02
 21
-2.26557706E+02
  0
LINE
  8
0
 62
7
 10
3.27249736E+02
 20
-2.28557690E+02
 11
3.22741175E+02
 21
-2.28557690E+02
  0
LINE
  8
0
 62
7
 10
3.22749720E+02
 20
-2.28557690E+02
 11
3.22749720E+02
 21
-2.28549145E+02
  0
LINE
  8
0
 62
7
 10
3.22508395E+02
 20
-2.28299225E+02
 11
3.14749681E+02
 21
-2.28028285E+02
  0
LINE
  8
0
 62
7
 10
3.08749736E+02
 20
-2.08546490E+02
 11
3.08749736E+02
 21
-2.08057706E+02
  0
LINE
  8
0
  6
CENTER
 62
2
 10
2.94749797E+02
 20
-2.05872647E+02
 11
2.94749797E+02
 21
-2.17757931E+02
  0
LINE
  8
0
 62
7
 10
3.37749689E+02
 20
-2.42435264E+02
 11
3.34749700E+02
 21
-2.40290167E+02
  0
LINE
  8
0
 62
7
 10
3.37749664E+02
 20
-2.36557723E+02
 11
3.34749675E+02
 21
-2.35557739E+02
  0
LINE
  8
0
 62
7
 10
3.40749674E+02
 20
-2.37377713E+02
 11
3.37749690E+02
 21
-2.37377713E+02
  0
ARC
  8
0
 62
7
 10
3.39249705E+02
 20
-2.45557706E+02
 40
9.99998474E+00
 50
1.48211648E+02
 51
1.80000000E+02
  0
ARC
  8
0
 62
7
 10
3.14249720E+02
 20
-2.27057706E+02
 40
5.00000000E-01
 50
3.59721787E-05
 51
9.00000179E+01
  0
ARC
  8
0
 62
7
 10
3.27249736E+02
 20
-2.29057721E+02
 40
5.00000000E-01
 50
3.59721787E-05
 51
9.00000179E+01
  0
ARC
  8
0
 62
7
 10
3.12249736E+02
 20
-2.09107632E+02
 40
5.00000000E-01
 50
3.59999981E+02
 51
8.89997230E+01
  0
ARC
  8
0
 62
7
 10
3.22499736E+02
 20
-2.28549145E+02
 40
2.50000000E-01
 50
2.23118003E-05
 51
8.80011768E+01
  0
LINE
  8
0
 62
4
 10
3.49749690E+02
 20
-2.45557706E+02
 11
3.49749690E+02
 21
-2.32057706E+02
  0
LINE
  8
0
 62
4
 10
3.60749690E+02
 20
-2.45557706E+02
 11
3.60749690E+02
 21
-2.32057706E+02
  0
ARC
  8
0
 62
4
 10
3.34955462E+02
 20
-2.45557706E+02
 40
2.57942282E+01
 50
2.54444375E-13
 51
1.75879541E+01
  0
ARC
  8
0
 62
4
 10
3.75543918E+02
 20
-2.45557706E+02
 40
2.57942282E+01
 50
1.62412046E+02
 51
1.80000000E+02
  0
ARC
  8
0
 62
4
 10
3.56650411E+02
 20
-2.33866363E+02
 40
6.90072132E+00
 50
1.45615752E+02
 51
2.14384248E+02
  0
ARC
  8
0
 62
4
 10
3.53848968E+02
 20
-2.33866363E+02
 40
6.90072132E+00
 50
3.25615752E+02
 51
3.43842480E+01
  0
LINE
  8
0
 62
4
 10
3.50955461E+02
 20
-2.29969248E+02
 11
3.49749690E+02
 21
-2.32057706E+02
  0
LINE
  8
0
 62
4
 10
3.59543918E+02
 20
-2.29969248E+02
 11
3.60749690E+02
 21
-2.32057706E+02
  0
LINE
  8
0
 62
4
 10
3.59543918E+02
 20
-2.37763477E+02
 11
3.50955461E+02
 21
-2.37763477E+02
  0
LINE
  8
0
 62
4
 10
3.59543918E+02
 20
-2.29969248E+02
 11
3.50955461E+02
 21
-2.29969248E+02
  0
LINE
  8
0
 62
7
 10
3.49749690E+02
 20
-2.36557706E+02
 11
3.40749674E+02
 21
-2.36557706E+02
  0
LINE
  8
0
 62
2
 10
3.49749690E+02
 20
-2.37377713E+02
 11
3.40749674E+02
 21
-2.37377713E+02
  0
LINE
  8
0
 62
7
 10
2.80749736E+02
 20
-2.08057706E+02
 11
2.80749736E+02
 21
-2.45557706E+02
  0
LINE
  8
0
 62
7
 10
2.11065087E+02
 20
-2.13957730E+02
 11
2.57249736E+02
 21
-2.13957730E+02
  0
LINE
  8
0
 62
7
 10
2.06908158E+02
 20
-2.21157742E+02
 11
2.57249736E+02
 21
-2.21157742E+02
  0
LINE
  8
0
 62
7
 10
2.12450724E+02
 20
-2.11557736E+02
 11
2.37968460E+02
 21
-2.11557736E+02
  0
LINE
  8
0
 62
7
 10
2.76531011E+02
 20
-2.11557736E+02
 11
2.80749736E+02
 21
-2.11557736E+02
  0
LINE
  8
0
 62
7
 10
2.72249736E+02
 20
-2.13957730E+02
 11
2.80749736E+02
 21
-2.13957730E+02
  0
LINE
  8
0
 62
7
 10
2.72249736E+02
 20
-2.21157742E+02
 11
2.80749736E+02
 21
-2.21157742E+02
  0
ARC
  8
0
 62
7
 10
8.20089796E+01
 20
-2.45557706E+02
 40
7.50000000E+00
 50
0.00000000E+00
 51
1.80000000E+02
  0
ARC
  8
0
 62
4
 10
8.20089796E+01
 20
-2.45557706E+02
 40
1.35000000E+01
 50
0.00000000E+00
 51
1.80000000E+02
  0
LINE
  8
0
 62
4
 10
6.85089796E+01
 20
-2.37763477E+02
 11
8.20089796E+01
 21
-2.29969248E+02
  0
ARC
  8
0
 62
2
 10
8.20089796E+01
 20
-2.45557706E+02
 40
8.18000031E+00
 50
0.00000000E+00
 51
1.80000000E+02
  0
ARC
  8
0
 62
7
 10
8.20089796E+01
 20
-2.45557706E+02
 40
8.99999237E+00
 50
0.00000000E+00
 51
1.80000000E+02
  0
ARC
  8
0
 62
7
 10
8.20089796E+01
 20
-2.45557706E+02
 40
1.70000000E+01
 50
0.00000000E+00
 51
1.80000000E+02
  0
ARC
  8
0
 62
7
 10
8.20089796E+01
 20
-2.45557706E+02
 40
1.90000000E+01
 50
0.00000000E+00
 51
1.80000000E+02
  0
ARC
  8
0
 62
7
 10
8.20089796E+01
 20
-2.45557706E+02
 40
1.75294495E+01
 50
0.00000000E+00
 51
1.80000000E+02
  0
LINE
  8
0
 62
7
 10
1.15509041E+02
 20
-2.08057675E+02
 11
4.85090101E+01
 21
-2.08057675E+02
  0
LINE
  8
0
 62
7
 10
9.50090712E+01
 20
-2.11057675E+02
 11
6.90088880E+01
 21
-2.11057675E+02
  0
LINE
  8
0
  6
CENTER
 62
2
 10
4.12412794E+01
 20
-2.45557706E+02
 11
1.24486702E+02
 21
-2.45557706E+02
  0
LINE
  8
0
 62
7
 10
1.15509041E+02
 20
-2.08557675E+02
 11
4.85090101E+01
 21
-2.08557675E+02
  0
LINE
  8
0
 62
7
 10
6.86450866E+01
 20
-2.30779086E+02
 11
6.12832699E+01
 21
-2.23417273E+02
  0
LINE
  8
0
 62
7
 10
6.72308733E+01
 20
-2.32193300E+02
 11
5.98690242E+01
 21
-2.24831454E+02
  0
LINE
  8
0
 62
7
 10
4.75089796E+01
 20
-2.45557706E+02
 11
4.75089796E+01
 21
-2.32557629E+02
  0
LINE
  8
0
 62
7
 10
4.85090101E+01
 20
-2.44557721E+02
 11
6.21092909E+01
 21
-2.44557721E+02
  0
LINE
  8
0
 62
7
 10
4.45089796E+01
 20
-2.45557706E+02
 11
4.45089796E+01
 21
-2.12057690E+02
  0
LINE
  8
0
  6
CENTER
 62
2
 10
5.40089186E+01
 20
-2.05872418E+02
 11
5.40089186E+01
 21
-2.28787305E+02
  0
LINE
  8
0
 62
7
 10
4.50089796E+01
 20
-2.45557706E+02
 11
4.50089796E+01
 21
-2.12057690E+02
  0
LINE
  8
0
 62
7
 10
5.70089796E+01
 20
-2.08057675E+02
 11
5.70089796E+01
 21
-2.08557675E+02
  0
LINE
  8
0
 62
7
 10
6.45088880E+01
 20
-2.15557461E+02
 11
6.32454603E+01
 21
-2.15557461E+02
  0
LINE
  8
0
 62
7
 10
5.20087965E+01
 20
-2.28057645E+02
 11
5.20087965E+01
 21
-2.26793912E+02
  0
LINE
  8
0
  6
CENTER
 62
2
 10
6.46395338E+01
 20
-2.17557645E+02
 11
4.21065748E+01
 21
-2.17557645E+02
  0
ARC
  8
0
 62
7
 10
5.40089186E+01
 20
-2.17557675E+02
 40
8.50000000E+00
 50
2.63823541E+02
 51
6.17668534E+00
  0
CIRCLE
  8
0
 62
7
 10
5.40089186E+01
 20
-2.17557675E+02
 40
6.50000048E+00
  0
ARC
  8
0
 62
7
 10
6.65235365E+01
 20
-2.32900647E+02
 40
1.00000000E+00
 50
3.20739043E+02
 51
4.50000407E+01
  0
ARC
  8
0
 62
7
 10
6.93519361E+01
 20
-2.30072232E+02
 40
1.00000000E+00
 50
2.25000005E+02
 51
3.09261002E+02
  0
ARC
  8
0
 62
7
 10
6.19901503E+01
 20
-2.22710400E+02
 40
1.00000000E+00
 50
1.47153839E+02
 51
2.25000005E+02
  0
ARC
  8
0
 62
7
 10
5.91616896E+01
 20
-2.25538815E+02
 40
1.00000000E+00
 50
4.50000407E+01
 51
1.22846753E+02
  0
ARC
  8
0
 62
7
 10
4.85090101E+01
 20
-2.12057690E+02
 40
3.50000000E+00
 50
9.00000179E+01
 51
1.80000000E+02
  0
ARC
  8
0
 62
7
 10
4.85090101E+01
 20
-2.43557713E+02
 40
1.00000000E+00
 50
1.80000000E+02
 51
2.70000037E+02
  0
ARC
  8
0
 62
7
 10
6.21092909E+01
 20
-2.43557713E+02
 40
1.00000000E+00
 50
2.70000037E+02
 51
3.54260542E+02
  0
ARC
  8
0
 62
7
 10
4.85090101E+01
 20
-2.12057690E+02
 40
4.00000000E+00
 50
9.00000179E+01
 51
1.80000000E+02
  0
CIRCLE
  8
0
 62
7
 10
5.40089186E+01
 20
-2.17557675E+02
 40
6.00000000E+00
  0
ARC
  8
0
 62
7
 10
6.45088880E+01
 20
-2.12057553E+02
 40
3.50000000E+00
 50
2.69999982E+02
 51
3.59998489E+02
  0
ARC
  8
0
 62
7
 10
6.90088880E+01
 20
-2.12057690E+02
 40
1.00000000E+00
 50
9.00000454E+01
 51
1.79998224E+02
  0
ARC
  8
0
 62
7
 10
6.34538038E+01
 20
-2.16535535E+02
 40
1.00000000E+00
 50
9.56743616E+01
 51
1.86177210E+02
  0
ARC
  8
0
 62
7
 10
4.85088575E+01
 20
-2.28057645E+02
 40
3.50000000E+00
 50
2.70000983E+02
 51
2.23118003E-05
  0
ARC
  8
0
 62
7
 10
5.29868544E+01
 20
-2.27002515E+02
 40
1.00000000E+00
 50
8.38236962E+01
 51
1.74325479E+02
  0
ARC
  8
0
 62
7
 10
4.85090101E+01
 20
-2.32557629E+02
 40
1.00000000E+00
 50
9.00017529E+01
 51
1.80000014E+02
  0
CIRCLE
  8
0
 62
2
 10
5.40089186E+01
 20
-2.17557645E+02
 40
4.00000000E+00
  0
CIRCLE
  8
0
 62
7
 10
5.40089186E+01
 20
-2.17557645E+02
 40
3.32000017E+00
  0
LINE
  8
0
 62
4
 10
6.85089796E+01
 20
-2.45557706E+02
 11
6.85089796E+01
 21
-2.37763477E+02
  0
ARC
  8
0
 62
7
 10
1.15509041E+02
 20
-2.12057706E+02
 40
4.00000000E+00
 50
2.23118003E-05
 51
8.99999773E+01
  0
LINE
  8
0
 62
7
 10
1.07008980E+02
 20
-2.08057675E+02
 11
1.07008980E+02
 21
-2.08557675E+02
  0
LINE
  8
0
  6
CENTER
 62
2
 10
9.00089796E+01
 20
-2.05872418E+02
 11
9.00089796E+01
 21
-2.17757687E+02
  0
LINE
  8
0
  6
CENTER
 62
2
 10
8.20089796E+01
 20
-2.04090161E+02
 11
8.20089796E+01
 21
-2.45557706E+02
  0
LINE
  8
0
  6
CENTER
 62
2
 10
1.10009071E+02
 20
-2.28787305E+02
 11
1.10009071E+02
 21
-2.05999722E+02
  0
LINE
  8
0
 62
7
 10
9.53732527E+01
 20
-2.30779585E+02
 11
1.02735101E+02
 21
-2.23417738E+02
  0
LINE
  8
0
 62
7
 10
8.30090101E+01
 20
-2.12057706E+02
 11
8.30090101E+01
 21
-2.25657956E+02
  0
LINE
  8
0
 62
7
 10
9.67874555E+01
 20
-2.32193745E+02
 11
1.04149303E+02
 21
-2.24831898E+02
  0
LINE
  8
0
 62
7
 10
8.10090101E+01
 20
-2.12057690E+02
 11
8.10090101E+01
 21
-2.25657956E+02
  0
LINE
  8
0
 62
7
 10
1.19009071E+02
 20
-2.45557706E+02
 11
1.19009071E+02
 21
-2.12057706E+02
  0
LINE
  8
0
 62
7
 10
1.16509071E+02
 20
-2.45557706E+02
 11
1.16509071E+02
 21
-2.32557629E+02
  0
LINE
  8
0
 62
7
 10
1.15508980E+02
 20
-2.44557736E+02
 11
1.01908790E+02
 21
-2.44557736E+02
  0
LINE
  8
0
 62
7
 10
1.19509071E+02
 20
-2.45557706E+02
 11
1.19509071E+02
 21
-2.12057706E+02
  0
LINE
  8
0
  6
CENTER
 62
2
 10
1.22054085E+02
 20
-2.17557645E+02
 11
9.99030226E+01
 21
-2.17557645E+02
  0
LINE
  8
0
 62
7
 10
9.95090712E+01
 20
-2.15557492E+02
 11
1.00772621E+02
 21
-2.15557492E+02
  0
LINE
  8
0
 62
7
 10
1.12009254E+02
 20
-2.28057645E+02
 11
1.12009254E+02
 21
-2.26794049E+02
  0
CIRCLE
  8
0
 62
7
 10
1.10009071E+02
 20
-2.17557645E+02
 40
6.50000048E+00
  0
ARC
  8
0
 62
7
 10
1.04856270E+02
 20
-2.25538846E+02
 40
1.00000000E+00
 50
5.71538295E+01
 51
1.35000009E+02
  0
ARC
  8
0
 62
7
 10
1.02027870E+02
 20
-2.22710416E+02
 40
1.00000000E+00
 50
3.15000045E+02
 51
3.28467572E+01
  0
ARC
  8
0
 62
7
 10
9.74944838E+01
 20
-2.32900677E+02
 40
1.00000000E+00
 50
1.35000009E+02
 51
2.19261006E+02
  0
ARC
  8
0
 62
7
 10
9.46660536E+01
 20
-2.30072247E+02
 40
1.00000000E+00
 50
2.30739016E+02
 51
3.15000028E+02
  0
ARC
  8
0
 62
7
 10
8.40090101E+01
 20
-2.25657956E+02
 40
1.00000000E+00
 50
1.80000041E+02
 51
2.64260547E+02
  0
ARC
  8
0
 62
7
 10
1.15509041E+02
 20
-2.12057706E+02
 40
3.50000000E+00
 50
2.23118003E-05
 51
8.99999773E+01
  0
ARC
  8
0
 62
7
 10
8.40090101E+01
 20
-2.12057706E+02
 40
1.00000000E+00
 50
9.00000042E+01
 51
1.80000041E+02
  0
ARC
  8
0
 62
7
 10
8.00089796E+01
 20
-2.25657956E+02
 40
1.00000000E+00
 50
2.75739516E+02
 51
3.59721787E-05
  0
ARC
  8
0
 62
7
 10
8.00089796E+01
 20
-2.12057690E+02
 40
1.00000000E+00
 50
3.59721787E-05
 51
9.00000179E+01
  0
ARC
  8
0
 62
7
 10
1.15509010E+02
 20
-2.43557706E+02
 40
1.00000000E+00
 50
2.69999955E+02
 51
3.59999992E+02
  0
ARC
  8
0
 62
7
 10
1.01908790E+02
 20
-2.43557706E+02
 40
1.00000000E+00
 50
1.85739449E+02
 51
2.69999955E+02
  0
CIRCLE
  8
0
 62
7
 10
1.10009071E+02
 20
-2.17557645E+02
 40
6.00000000E+00
  0
ARC
  8
0
 62
7
 10
1.00564186E+02
 20
-2.16535535E+02
 40
1.00000000E+00
 50
3.53823687E+02
 51
8.43254898E+01
  0
ARC
  8
0
 62
7
 10
9.95090712E+01
 20
-2.12057583E+02
 40
3.50000000E+00
 50
1.80000999E+02
 51
2.69999982E+02
  0
ARC
  8
0
 62
7
 10
9.50090712E+01
 20
-2.12057690E+02
 40
1.00000000E+00
 50
1.72985909E-03
 51
9.00000179E+01
  0
ARC
  8
0
 62
7
 10
1.10009071E+02
 20
-2.17557675E+02
 40
8.50000000E+00
 50
1.73823323E+02
 51
2.76176447E+02
  0
ARC
  8
0
 62
7
 10
1.11031196E+02
 20
-2.27002515E+02
 40
1.00000000E+00
 50
5.67452982E+00
 51
9.61763122E+01
  0
ARC
  8
0
 62
7
 10
1.15509132E+02
 20
-2.28057645E+02
 40
3.50000000E+00
 50
1.80000000E+02
 51
2.69998998E+02
  0
ARC
  8
0
 62
7
 10
1.15509041E+02
 20
-2.32557629E+02
 40
1.00000000E+00
 50
3.59999995E+02
 51
8.99982693E+01
  0
CIRCLE
  8
0
 62
2
 10
1.10009071E+02
 20
-2.17557645E+02
 40
4.00000000E+00
  0
CIRCLE
  8
0
 62
7
 10
1.10009071E+02
 20
-2.17557645E+02
 40
3.32000017E+00
  0
LINE
  8
0
 62
4
 10
9.55089796E+01
 20
-2.37763477E+02
 11
9.55089796E+01
 21
-2.45557706E+02
  0
LINE
  8
0
 62
4
 10
8.20089796E+01
 20
-2.29969248E+02
 11
9.55089796E+01
 21
-2.37763477E+02
  0
LINE
  8
0
 62
2
 10
-5.13567878E+01
 20
-2.54695833E+02
 11
-2.41364212E+01
 21
-2.07548775E+02
  0
TEXT
  8
0
 10
-8.26609387E+01
 20
2.64478397E+02
 40
6.30000019E+00
  1
STRETCH LINE A
 41
1.09375000E+00
  7
MONOTXT
  0
LINE
  8
0
 62
7
 10
2.79799927E+02
 20
-2.56750000E+02
 11
3.99799805E+02
 21
-2.56750000E+02
  0
LINE
  8
0
 62
7
 10
2.79799927E+02
 20
-2.56750000E+02
 11
2.79799927E+02
 21
-2.76750000E+02
  0
TEXT
  8
0
 62
7
 10
2.87585240E+02
 20
-2.71250000E+02
 40
9.00000000E+00
  1
KOGANEI CORP.
 41
1.04838710E+00
  7
MONOTXT
  0
TEXT
  8
0
 62
7
 10
3.15499641E+02
 20
2.63100000E+02
 40
6.30000019E+00
  1
Ver. 1.0
 41
1.08108124E+00
  7
MONOTXT
  0
LINE
  8
0
 62
7
 10
2.79799927E+02
 20
2.56250000E+02
 11
3.99799805E+02
 21
2.56250000E+02
  0
LINE
  8
0
 62
7
 10
2.79799927E+02
 20
2.76250000E+02
 11
2.79799927E+02
 21
2.56250000E+02
  0
TEXT
  8
0
 62
7
 10
-3.85600562E+02
 20
2.38100000E+02
 40
6.30000019E+00
  1
MODEL:DDAD63*75
 41
1.00000015E+00
  7
MONOTXT
  0
LINE
  8
0
 62
7
 10
-3.99250000E+02
 20
2.56250000E+02
 11
-2.79250000E+02
 21
2.56250000E+02
  0
LINE
  8
0
 62
7
 10
-2.79250000E+02
 20
2.76250000E+02
 11
-2.79250000E+02
 21
2.56250000E+02
  0
TEXT
  8
0
 62
7
 10
-3.91900291E+02
 20
2.63100000E+02
 40
6.30000019E+00
  1
NEW DYNA CYLINDER
 41
1.07594953E+00
  7
MONOTXT
  0
LINE
  8
0
 62
7
 10
-3.99250000E+02
 20
-2.76750000E+02
 11
3.99799805E+02
 21
-2.76750000E+02
  0
LINE
  8
0
 62
7
 10
-3.99250000E+02
 20
2.76250000E+02
 11
3.99799805E+02
 21
2.76250000E+02
  0
LINE
  8
0
 62
7
 10
-3.99250000E+02
 20
2.76250000E+02
 11
-3.99250000E+02
 21
-2.76750000E+02
  0
LINE
  8
0
 62
7
 10
3.99799805E+02
 20
2.76250000E+02
 11
3.99799805E+02
 21
-2.76750000E+02
  0
ENDSEC
  0
EOF
