  0
SECTION
  2
HEADER
  9
$ACADVER
  1
AC1003
  9
$EXTMIN
 10
-4.09780226E+02
 20
-2.76750000E+02
  9
$EXTMAX
 10
3.99799805E+02
 20
2.76250000E+02
  9
$LIMMIN
 10
-4.09781226E+02
 20
-2.76751000E+02
  9
$LIMMAX
 10
3.99800805E+02
 20
2.76251000E+02
  9
$SNAPUNIT
 10
1
 20
1
  9
$SNAPBASE
 10
0
 20
0
  9
$GRIDMODE
 70
0
  9
$GRIDUNIT
 10
0
 20
0
  9
$LTSCALE
 40
1.34930005E+01
  9
$TEXTSIZE
 40
3.2
  9
$DIMTAD
 70
0
  9
$LUNITS
 70
2
  9
$LUPREC
 70
4
  9
$FILLETRAD
 40
0
  9
$AUNITS
 70
0
  9
$AUPREC
 70
0
  0
ENDSEC
  0
SECTION
  2
TABLES
  0
TABLE
  2
LTYPE
 70
2
  0
LTYPE
  2
CONTINUOUS
 70
64
  3
Solid-Line
 72
65
 73
0
 40
0
  0
LTYPE
  2
DASHED
 70
64
  3
DASHED
 72
65
 73
2
 40
.75
 49
.5
 49
-.25
  0
LTYPE
  2
HIDDEN
 70
64
  3
HIDDEN
 72
65
 73
2
 40
.375
 49
.25
 49
-.125
  0
LTYPE
  2
CENTER
 70
64
  3
CENTER
 72
65
 73
4
 40
2
 49
1.25
 49
-.25
 49
.25
 49
-.25
  0
LTYPE
  2
PHANTOM
 70
64
  3
PHANTOM
 72
65
 73
6
 40
2.5
 49
1.25
 49
-.25
 49
.25
 49
-.25
 49
.25
 49
-.25
  0
ENDTAB
  0
TABLE
  2
LAYER
 70
1
  0
LAYER
  2
1
 70
0
 62
7
  6
CONTINUOUS
 0
ENDTAB
  0
TABLE
  2
STYLE
 70
2
  0
STYLE
  2
MONOTXT
 70
0
 40
0
 41
1
 50
0
 71
0
 42
.2
  3
monotxt
  0
STYLE
  2
BIGFONT
 70
0
 40
0
 41
1
 50
0
 71
0
 42
.2
  3
txt
  4
bigfont
  0
ENDTAB
  0
ENDSEC
  0
SECTION
  2
ENTITIES
  0
LINE
  8
0
  6
PHANTOM
 10
-5.92500000E+01
 20
1.48945348E+02
 11
-5.92500000E+01
 21
4.71367846E+01
  0
LINE
  8
0
  6
PHANTOM
 10
6.52499847E+01
 20
1.48945348E+02
 11
6.52499847E+01
 21
4.71367846E+01
  0
LINE
  8
0
  6
CENTER
 62
2
 10
-2.06523193E+02
 20
8.83694647E+01
 11
1.32799263E+02
 21
8.83694647E+01
  0
LINE
  8
0
 62
7
 10
-1.60750000E+02
 20
1.04869434E+02
 11
-1.60750000E+02
 21
7.18694952E+01
  0
LINE
  8
0
 62
7
 10
-1.47250000E+02
 20
6.93694647E+01
 11
-1.45750000E+02
 21
6.93694647E+01
  0
LINE
  8
0
 62
7
 10
-1.60250000E+02
 20
7.13694647E+01
 11
-1.55741455E+02
 21
7.13694647E+01
  0
LINE
  8
0
 62
7
 10
-1.55750000E+02
 20
7.13694647E+01
 11
-1.55750000E+02
 21
7.13609198E+01
  0
LINE
  8
0
 62
7
 10
-1.55508742E+02
 20
7.11109856E+01
 11
-1.47750044E+02
 21
7.08400459E+01
  0
LINE
  8
0
 62
7
 10
-1.47750000E+02
 20
1.06869465E+02
 11
-1.47750000E+02
 21
6.98694647E+01
  0
LINE
  8
0
 62
7
 10
-1.45750000E+02
 20
1.18583973E+02
 11
-1.45750000E+02
 21
5.81550482E+01
  0
LINE
  8
0
 62
7
 10
-1.14750000E+02
 20
1.19369465E+02
 11
-1.14750000E+02
 21
5.73432043E+01
  0
LINE
  8
0
 62
7
 10
-1.40750000E+02
 20
5.73694647E+01
 11
-1.14750000E+02
 21
5.73694647E+01
  0
LINE
  8
0
 62
7
 10
-1.45750023E+02
 20
5.81549702E+01
 11
-1.14749999E+02
 21
5.73432060E+01
  0
LINE
  8
0
 62
7
 10
-1.40750000E+02
 20
5.80240667E+01
 11
-1.40750000E+02
 21
5.73694647E+01
  0
LINE
  8
0
 62
7
 10
-1.55750000E+02
 20
1.05369465E+02
 11
-1.55750000E+02
 21
7.13694647E+01
  0
LINE
  8
0
 62
7
 10
2.37500000E+01
 20
6.93694647E+01
 11
2.22500000E+01
 21
6.93694647E+01
  0
LINE
  8
0
 62
7
 10
2.42500000E+01
 20
1.06869465E+02
 11
2.42500000E+01
 21
6.98694647E+01
  0
LINE
  8
0
 62
7
 10
2.22500000E+01
 20
1.18583973E+02
 11
2.22500000E+01
 21
5.81550482E+01
  0
LINE
  8
0
 62
7
 10
-8.75000000E+00
 20
1.19369465E+02
 11
-8.75000000E+00
 21
5.73432043E+01
  0
LINE
  8
0
 62
7
 10
1.72500000E+01
 20
5.73694647E+01
 11
-8.75000000E+00
 21
5.73694647E+01
  0
LINE
  8
0
 62
7
 10
2.22500211E+01
 20
5.81549703E+01
 11
-8.74998035E+00
 21
5.73432067E+01
  0
LINE
  8
0
 62
7
 10
1.72500000E+01
 20
5.80240667E+01
 11
1.72500000E+01
 21
5.73694647E+01
  0
LINE
  8
0
 62
7
 10
-1.70749969E+02
 20
9.73694647E+01
 11
-1.70749969E+02
 21
7.93694723E+01
  0
LINE
  8
0
 62
7
 10
-1.67750076E+02
 20
9.36373175E+01
 11
-1.63750015E+02
 21
9.36373175E+01
  0
LINE
  8
0
 62
7
 10
-1.67750076E+02
 20
8.31016577E+01
 11
-1.63750015E+02
 21
8.31016577E+01
  0
LINE
  8
0
 62
7
 10
-1.67749985E+02
 20
7.83694799E+01
 11
-1.67749985E+02
 21
8.31016577E+01
  0
LINE
  8
0
 62
2
 10
-1.69783655E+02
 20
9.21829487E+01
 11
-1.63750006E+02
 21
8.31016782E+01
  0
LINE
  8
0
 62
2
 10
-1.69783667E+02
 20
8.45559939E+01
 11
-1.63749985E+02
 21
9.36373136E+01
  0
LINE
  8
0
  6
CENTER
 62
2
 10
2.44769897E+01
 20
6.48694799E+01
 11
-1.47853455E+02
 21
6.48694799E+01
  0
LINE
  8
0
 62
7
 10
-8.75000000E+00
 20
6.75194738E+01
 11
-1.14750000E+02
 21
6.75194738E+01
  0
LINE
  8
0
 62
7
 10
-8.75000000E+00
 20
6.22194860E+01
 11
-1.14750000E+02
 21
6.22194860E+01
  0
LINE
  8
0
 62
7
 10
-8.75000000E+00
 20
6.13694876E+01
 11
-1.14750000E+02
 21
6.13694876E+01
  0
LINE
  8
0
 62
7
 10
-1.67750076E+02
 20
7.83694799E+01
 11
-1.60750046E+02
 21
7.83694799E+01
  0
LINE
  8
0
 62
7
 10
-1.67749985E+02
 20
9.83694952E+01
 11
-1.67749985E+02
 21
9.36373175E+01
  0
LINE
  8
0
 62
7
 10
-1.63750015E+02
 20
8.31016577E+01
 11
-1.63750015E+02
 21
9.36373175E+01
  0
LINE
  8
0
  6
CENTER
 62
2
 10
4.24992371E+00
 20
1.21554523E+02
 11
4.24992371E+00
 21
1.09669254E+02
  0
LINE
  8
0
 62
7
 10
-1.73749969E+02
 20
7.93694723E+01
 11
-1.73749969E+02
 21
9.73694647E+01
  0
LINE
  8
0
 62
7
 10
-2.02749969E+02
 20
8.08694952E+01
 11
-2.02749969E+02
 21
9.58693121E+01
  0
LINE
  8
0
 62
7
 10
-2.01249969E+02
 20
7.93694723E+01
 11
-2.01249969E+02
 21
9.73694647E+01
  0
LINE
  8
0
 62
7
 10
-2.01249908E+02
 20
9.73694647E+01
 11
-1.93749969E+02
 21
9.73694647E+01
  0
LINE
  8
0
 62
2
 10
-2.02069916E+02
 20
9.65494573E+01
 11
-1.93749969E+02
 21
9.65494573E+01
  0
LINE
  8
0
 62
7
 10
-2.02749915E+02
 20
9.58693340E+01
 11
-2.01249869E+02
 21
9.73693343E+01
  0
LINE
  8
0
 62
7
 10
-2.01249908E+02
 20
7.93694723E+01
 11
-1.93749969E+02
 21
7.93694723E+01
  0
LINE
  8
0
 62
2
 10
-2.02069916E+02
 20
8.01894644E+01
 11
-1.93749969E+02
 21
8.01894644E+01
  0
LINE
  8
0
 62
7
 10
-2.02750000E+02
 20
8.08695437E+01
 11
-2.01249965E+02
 21
7.93695542E+01
  0
LINE
  8
0
 62
7
 10
-8.75000000E+00
 20
1.09219456E+02
 11
-2.97500000E+01
 21
1.09219456E+02
  0
LINE
  8
0
  6
CENTER
 62
2
 10
2.44769897E+01
 20
1.11869449E+02
 11
-1.47853455E+02
 21
1.11869449E+02
  0
LINE
  8
0
 62
7
 10
-8.75000000E+00
 20
1.14519443E+02
 11
-1.47500000E+01
 21
1.14519443E+02
  0
LINE
  8
0
 62
7
 10
-1.47250000E+02
 20
1.07369465E+02
 11
-1.45750000E+02
 21
1.07369465E+02
  0
LINE
  8
0
 62
7
 10
-1.60250000E+02
 20
1.05369465E+02
 11
-1.55741455E+02
 21
1.05369465E+02
  0
LINE
  8
0
 62
7
 10
-1.55750000E+02
 20
1.05369465E+02
 11
-1.55750000E+02
 21
1.05378010E+02
  0
LINE
  8
0
 62
7
 10
-1.55508737E+02
 20
1.05627962E+02
 11
-1.47750023E+02
 21
1.05898903E+02
  0
LINE
  8
0
 62
7
 10
-1.40750000E+02
 20
1.19369465E+02
 11
-1.14750000E+02
 21
1.19369465E+02
  0
LINE
  8
0
 62
7
 10
-1.45750039E+02
 20
1.18583969E+02
 11
-1.14749999E+02
 21
1.19395734E+02
  0
LINE
  8
0
 62
7
 10
-1.40750000E+02
 20
1.18714863E+02
 11
-1.40750000E+02
 21
1.19369465E+02
  0
LINE
  8
0
 62
7
 10
2.37500000E+01
 20
1.07369465E+02
 11
2.22500000E+01
 21
1.07369465E+02
  0
LINE
  8
0
 62
7
 10
-8.75000000E+00
 20
1.15369434E+02
 11
-1.47500000E+01
 21
1.15369434E+02
  0
LINE
  8
0
 62
7
 10
-1.67750076E+02
 20
9.83694494E+01
 11
-1.60750046E+02
 21
9.83694494E+01
  0
LINE
  8
0
 62
7
 10
1.72500000E+01
 20
1.19369465E+02
 11
-8.75000000E+00
 21
1.19369465E+02
  0
LINE
  8
0
 62
7
 10
2.22500215E+01
 20
1.18583985E+02
 11
-8.74997997E+00
 21
1.19395748E+02
  0
LINE
  8
0
 62
7
 10
1.72500000E+01
 20
1.18714863E+02
 11
1.72500000E+01
 21
1.19369465E+02
  0
LINE
  8
0
  6
CENTER
 62
2
 10
-1.27750168E+02
 20
1.21554523E+02
 11
-1.27750168E+02
 21
1.09669254E+02
  0
LINE
  8
0
 62
7
 10
-1.70749980E+02
 20
9.73694619E+01
 11
-1.67749992E+02
 21
9.83694478E+01
  0
LINE
  8
0
 62
7
 10
-1.70749955E+02
 20
9.14919058E+01
 11
-1.67749963E+02
 21
9.36373120E+01
  0
LINE
  8
0
 62
7
 10
-1.70749970E+02
 20
8.52470106E+01
 11
-1.67749994E+02
 21
8.31016612E+01
  0
LINE
  8
0
 62
7
 10
-1.70749980E+02
 20
7.93694774E+01
 11
-1.67749994E+02
 21
7.83694846E+01
  0
LINE
  8
0
 62
7
 10
-1.73749969E+02
 20
9.65494573E+01
 11
-1.70749969E+02
 21
9.65494573E+01
  0
LINE
  8
0
 62
7
 10
-1.73749969E+02
 20
8.01894644E+01
 11
-1.70749969E+02
 21
8.01894644E+01
  0
LINE
  8
0
 62
7
 10
3.72500000E+01
 20
1.04869434E+02
 11
3.72500000E+01
 21
7.18694952E+01
  0
LINE
  8
0
 62
7
 10
3.67500000E+01
 20
7.13694647E+01
 11
3.22414551E+01
 21
7.13694647E+01
  0
LINE
  8
0
 62
7
 10
3.22500000E+01
 20
7.13694647E+01
 11
3.22500000E+01
 21
7.13609198E+01
  0
LINE
  8
0
 62
7
 10
3.20087356E+01
 20
7.11109882E+01
 11
2.42500370E+01
 21
7.08400485E+01
  0
LINE
  8
0
 62
7
 10
3.22500000E+01
 20
1.05369465E+02
 11
3.22500000E+01
 21
7.13694647E+01
  0
LINE
  8
0
 62
7
 10
9.42500763E+01
 20
9.83694494E+01
 11
3.72500458E+01
 21
9.83694494E+01
  0
LINE
  8
0
 62
7
 10
3.67500000E+01
 20
1.05369465E+02
 11
3.22414551E+01
 21
1.05369465E+02
  0
LINE
  8
0
 62
7
 10
3.22500000E+01
 20
1.05369465E+02
 11
3.22500000E+01
 21
1.05378010E+02
  0
LINE
  8
0
 62
7
 10
3.20087305E+01
 20
1.05627960E+02
 11
2.42500167E+01
 21
1.05898900E+02
  0
LINE
  8
0
 62
2
 10
9.62836736E+01
 20
8.45559931E+01
 11
9.02499901E+01
 21
9.36373145E+01
  0
LINE
  8
0
 62
7
 10
9.72499695E+01
 20
9.73694647E+01
 11
9.72499695E+01
 21
7.93694723E+01
  0
LINE
  8
0
 62
7
 10
9.42500763E+01
 20
9.36373175E+01
 11
9.02500153E+01
 21
9.36373175E+01
  0
LINE
  8
0
 62
2
 10
9.62836585E+01
 20
9.21829515E+01
 11
9.02500087E+01
 21
8.31016810E+01
  0
LINE
  8
0
 62
7
 10
9.42500763E+01
 20
8.31016577E+01
 11
9.02500153E+01
 21
8.31016577E+01
  0
LINE
  8
0
 62
7
 10
9.42499847E+01
 20
7.83694799E+01
 11
9.42499847E+01
 21
8.31016577E+01
  0
LINE
  8
0
 62
7
 10
1.00249969E+02
 20
7.93694723E+01
 11
1.00249969E+02
 21
9.73694647E+01
  0
LINE
  8
0
 62
7
 10
1.29249969E+02
 20
8.08694952E+01
 11
1.29249969E+02
 21
9.58693121E+01
  0
LINE
  8
0
 62
7
 10
1.27749969E+02
 20
7.93694723E+01
 11
1.27749969E+02
 21
9.73694647E+01
  0
LINE
  8
0
 62
7
 10
9.42500763E+01
 20
7.83694799E+01
 11
3.72500458E+01
 21
7.83694799E+01
  0
LINE
  8
0
 62
7
 10
9.42499847E+01
 20
9.83694952E+01
 11
9.42499847E+01
 21
9.36373175E+01
  0
LINE
  8
0
 62
7
 10
9.02500153E+01
 20
8.31016577E+01
 11
9.02500153E+01
 21
9.36373175E+01
  0
LINE
  8
0
 62
7
 10
1.27749908E+02
 20
9.73694647E+01
 11
1.20249969E+02
 21
9.73694647E+01
  0
LINE
  8
0
 62
2
 10
1.28569916E+02
 20
9.65494573E+01
 11
1.20249969E+02
 21
9.65494573E+01
  0
LINE
  8
0
 62
7
 10
1.29249924E+02
 20
9.58693343E+01
 11
1.27749878E+02
 21
9.73693346E+01
  0
LINE
  8
0
 62
7
 10
1.00249969E+02
 20
9.65494573E+01
 11
9.72499695E+01
 21
9.65494573E+01
  0
LINE
  8
0
 62
7
 10
1.00249969E+02
 20
8.01894644E+01
 11
9.72499695E+01
 21
8.01894644E+01
  0
LINE
  8
0
 62
7
 10
1.27749908E+02
 20
7.93694723E+01
 11
1.20249969E+02
 21
7.93694723E+01
  0
LINE
  8
0
 62
2
 10
1.28569916E+02
 20
8.01894644E+01
 11
1.20249969E+02
 21
8.01894644E+01
  0
LINE
  8
0
 62
7
 10
1.29250009E+02
 20
8.08695434E+01
 11
1.27749974E+02
 21
7.93695539E+01
  0
LINE
  8
0
 62
7
 10
9.72499780E+01
 20
9.73694607E+01
 11
9.42499898E+01
 21
9.83694465E+01
  0
LINE
  8
0
 62
7
 10
9.72499609E+01
 20
9.14919059E+01
 11
9.42499689E+01
 21
9.36373121E+01
  0
LINE
  8
0
 62
7
 10
9.72499676E+01
 20
8.52470115E+01
 11
9.42499911E+01
 21
8.31016620E+01
  0
LINE
  8
0
 62
7
 10
9.72499740E+01
 20
7.93694786E+01
 11
9.42499880E+01
 21
7.83694858E+01
  0
ARC
  8
0
 62
7
 10
-1.60250000E+02
 20
7.18694952E+01
 40
5.00000000E-01
 50
1.79999981E+02
 51
2.69999963E+02
  0
ARC
  8
0
 62
7
 10
-1.55500000E+02
 20
7.13609198E+01
 40
2.50000000E-01
 50
1.79999981E+02
 51
2.68001136E+02
  0
ARC
  8
0
 62
7
 10
-1.47250000E+02
 20
6.98694647E+01
 40
5.00000000E-01
 50
1.79999981E+02
 51
2.69999963E+02
  0
ARC
  8
0
 62
7
 10
2.37500000E+01
 20
6.98694647E+01
 40
5.00000000E-01
 50
2.70000073E+02
 51
5.46415133E-05
  0
ARC
  8
0
 62
7
 10
2.37500000E+01
 20
1.06869465E+02
 40
5.00000000E-01
 50
5.46415133E-05
 51
9.00000369E+01
  0
ARC
  8
0
 62
7
 10
-1.72249969E+02
 20
8.83694647E+01
 40
9.99998474E+00
 50
0.00000000E+00
 51
3.17883527E+01
  0
ARC
  8
0
 62
7
 10
-1.72249969E+02
 20
8.83694647E+01
 40
9.99998474E+00
 50
3.28211647E+02
 51
0.00000000E+00
  0
ARC
  8
0
 62
7
 10
-1.47250000E+02
 20
1.06869465E+02
 40
5.00000000E-01
 50
8.99999818E+01
 51
1.79999964E+02
  0
ARC
  8
0
 62
7
 10
-1.55500000E+02
 20
1.05378010E+02
 40
2.50000000E-01
 50
9.19988230E+01
 51
1.79999977E+02
  0
ARC
  8
0
 62
7
 10
-1.60250000E+02
 20
1.04869434E+02
 40
5.00000000E-01
 50
8.99999818E+01
 51
1.79999964E+02
  0
ARC
  8
0
 62
7
 10
3.67500000E+01
 20
7.18694952E+01
 40
5.00000000E-01
 50
2.70000038E+02
 51
1.86693353E-05
  0
ARC
  8
0
 62
7
 10
3.20000000E+01
 20
7.13609198E+01
 40
2.50000000E-01
 50
2.71998866E+02
 51
1.86693353E-05
  0
ARC
  8
0
 62
7
 10
3.20000000E+01
 20
1.05378010E+02
 40
2.50000000E-01
 50
2.23117997E-05
 51
8.80011750E+01
  0
ARC
  8
0
 62
7
 10
9.87499695E+01
 20
8.83694647E+01
 40
9.99998474E+00
 50
1.48211649E+02
 51
1.80000005E+02
  0
ARC
  8
0
 62
7
 10
9.87499695E+01
 20
8.83694647E+01
 40
9.99998474E+00
 50
1.79999995E+02
 51
2.11788351E+02
  0
ARC
  8
0
 62
7
 10
3.67500000E+01
 20
1.04869434E+02
 40
5.00000000E-01
 50
3.59721781E-05
 51
9.00000162E+01
  0
LINE
  8
0
 62
4
 10
-1.92544198E+02
 20
7.27810074E+01
 11
-1.83955741E+02
 21
7.27810074E+01
  0
LINE
  8
0
 62
4
 10
-1.92544198E+02
 20
8.05752360E+01
 11
-1.83955741E+02
 21
8.05752360E+01
  0
LINE
  8
0
 62
4
 10
-1.82749969E+02
 20
7.48694647E+01
 11
-1.83955741E+02
 21
7.27810074E+01
  0
LINE
  8
0
 62
4
 10
-1.93749969E+02
 20
7.48694647E+01
 11
-1.92544198E+02
 21
7.27810074E+01
  0
ARC
  8
0
 62
4
 10
-1.86849248E+02
 20
7.66781217E+01
 40
6.90072132E+00
 50
1.45615752E+02
 51
2.14384248E+02
  0
ARC
  8
0
 62
4
 10
-1.89650691E+02
 20
7.66781217E+01
 40
6.90072132E+00
 50
3.25615752E+02
 51
3.43842480E+01
  0
LINE
  8
0
 62
4
 10
-1.92544198E+02
 20
1.03957922E+02
 11
-1.83955741E+02
 21
1.03957922E+02
  0
LINE
  8
0
 62
4
 10
-1.92544198E+02
 20
9.61636933E+01
 11
-1.83955741E+02
 21
9.61636933E+01
  0
LINE
  8
0
 62
4
 10
-1.92544198E+02
 20
1.03957922E+02
 11
-1.93749969E+02
 21
1.01869465E+02
  0
LINE
  8
0
 62
4
 10
-1.83955741E+02
 20
1.03957922E+02
 11
-1.82749969E+02
 21
1.01869465E+02
  0
ARC
  8
0
 62
4
 10
-1.86849248E+02
 20
1.00060808E+02
 40
6.90072132E+00
 50
1.45615752E+02
 51
2.14384248E+02
  0
ARC
  8
0
 62
4
 10
-1.89650691E+02
 20
1.00060808E+02
 40
6.90072132E+00
 50
3.25615752E+02
 51
3.43842480E+01
  0
ARC
  8
0
 62
4
 10
-2.08544198E+02
 20
8.83694647E+01
 40
2.57942282E+01
 50
3.42412046E+02
 51
1.75879541E+01
  0
ARC
  8
0
 62
4
 10
-1.67955741E+02
 20
8.83694647E+01
 40
2.57942282E+01
 50
1.62412046E+02
 51
1.97587954E+02
  0
LINE
  8
0
 62
4
 10
-1.93749969E+02
 20
7.48694647E+01
 11
-1.93749969E+02
 21
1.01869465E+02
  0
LINE
  8
0
 62
4
 10
-1.82749969E+02
 20
7.48694647E+01
 11
-1.82749969E+02
 21
1.01869465E+02
  0
LINE
  8
0
 62
4
 10
1.10455741E+02
 20
7.27810074E+01
 11
1.19044198E+02
 21
7.27810074E+01
  0
LINE
  8
0
 62
4
 10
1.10455741E+02
 20
8.05752360E+01
 11
1.19044198E+02
 21
8.05752360E+01
  0
LINE
  8
0
 62
4
 10
1.20249969E+02
 20
7.48694647E+01
 11
1.19044198E+02
 21
7.27810074E+01
  0
LINE
  8
0
 62
4
 10
1.09249969E+02
 20
7.48694647E+01
 11
1.10455741E+02
 21
7.27810074E+01
  0
ARC
  8
0
 62
4
 10
1.16150691E+02
 20
7.66781217E+01
 40
6.90072132E+00
 50
1.45615752E+02
 51
2.14384248E+02
  0
ARC
  8
0
 62
4
 10
1.13349248E+02
 20
7.66781217E+01
 40
6.90072132E+00
 50
3.25615752E+02
 51
3.43842480E+01
  0
LINE
  8
0
 62
4
 10
1.10455741E+02
 20
1.03957922E+02
 11
1.19044198E+02
 21
1.03957922E+02
  0
LINE
  8
0
 62
4
 10
1.10455741E+02
 20
9.61636933E+01
 11
1.19044198E+02
 21
9.61636933E+01
  0
LINE
  8
0
 62
4
 10
1.10455741E+02
 20
1.03957922E+02
 11
1.09249969E+02
 21
1.01869465E+02
  0
LINE
  8
0
 62
4
 10
1.19044198E+02
 20
1.03957922E+02
 11
1.20249969E+02
 21
1.01869465E+02
  0
ARC
  8
0
 62
4
 10
1.16150691E+02
 20
1.00060808E+02
 40
6.90072132E+00
 50
1.45615752E+02
 51
2.14384248E+02
  0
ARC
  8
0
 62
4
 10
1.13349248E+02
 20
1.00060808E+02
 40
6.90072132E+00
 50
3.25615752E+02
 51
3.43842480E+01
  0
ARC
  8
0
 62
4
 10
9.44557413E+01
 20
8.83694647E+01
 40
2.57942282E+01
 50
3.42412046E+02
 51
1.75879541E+01
  0
ARC
  8
0
 62
4
 10
1.35044198E+02
 20
8.83694647E+01
 40
2.57942282E+01
 50
1.62412046E+02
 51
1.97587954E+02
  0
LINE
  8
0
 62
4
 10
1.09249969E+02
 20
7.48694647E+01
 11
1.09249969E+02
 21
1.01869465E+02
  0
LINE
  8
0
 62
4
 10
1.20249969E+02
 20
7.48694647E+01
 11
1.20249969E+02
 21
1.01869465E+02
  0
LINE
  8
0
 62
7
 10
-1.82749969E+02
 20
9.73694647E+01
 11
-1.73749969E+02
 21
9.73694647E+01
  0
LINE
  8
0
 62
2
 10
-1.82749969E+02
 20
9.65494573E+01
 11
-1.73749969E+02
 21
9.65494573E+01
  0
LINE
  8
0
 62
7
 10
-1.82749969E+02
 20
7.93694723E+01
 11
-1.73749969E+02
 21
7.93694723E+01
  0
LINE
  8
0
 62
2
 10
-1.82749969E+02
 20
8.01894644E+01
 11
-1.73749969E+02
 21
8.01894644E+01
  0
LINE
  8
0
 62
7
 10
1.09249969E+02
 20
9.73694647E+01
 11
1.00249969E+02
 21
9.73694647E+01
  0
LINE
  8
0
 62
2
 10
1.09249969E+02
 20
9.65494573E+01
 11
1.00249969E+02
 21
9.65494573E+01
  0
LINE
  8
0
 62
7
 10
1.09249969E+02
 20
7.93694723E+01
 11
1.00249969E+02
 21
7.93694723E+01
  0
LINE
  8
0
 62
2
 10
1.09249969E+02
 20
8.01894644E+01
 11
1.00249969E+02
 21
8.01894644E+01
  0
LINE
  8
0
  6
CENTER
 62
6
 10
-9.74993896E+00
 20
1.18859300E+02
 11
-5.67499390E+01
 21
1.18859300E+02
  0
LINE
  8
0
 62
4
 10
-7.37500000E+01
 20
1.20359300E+02
 11
-7.37500000E+01
 21
1.31875887E+02
  0
LINE
  8
0
 62
6
 10
-6.54820508E+01
 20
1.15859300E+02
 11
-6.20179492E+01
 21
1.21859300E+02
  0
LINE
  8
0
 62
6
 10
-5.30178881E+01
 20
1.21859300E+02
 11
-5.64819897E+01
 21
1.15859300E+02
  0
LINE
  8
0
 62
4
 10
-4.47499390E+01
 20
1.20359300E+02
 11
-5.38839136E+01
 21
1.20359300E+02
  0
LINE
  8
0
 62
4
 10
-4.47499390E+01
 20
1.17359300E+02
 11
-5.56159644E+01
 21
1.17359300E+02
  0
LINE
  8
0
 62
4
 10
-8.02500000E+01
 20
1.17359300E+02
 11
-6.46160254E+01
 21
1.17359300E+02
  0
LINE
  8
0
  6
CENTER
 62
6
 10
-1.08750000E+02
 20
1.18859300E+02
 11
-6.17500000E+01
 21
1.18859300E+02
  0
LINE
  8
0
 62
4
 10
-8.02500000E+01
 20
1.20359300E+02
 11
-6.28839746E+01
 21
1.20359300E+02
  0
LINE
  8
0
 62
4
 10
-7.37500000E+01
 20
1.15369434E+02
 11
-7.37500000E+01
 21
1.17359300E+02
  0
LINE
  8
0
 62
4
 10
-1.03750000E+02
 20
1.31875887E+02
 11
-1.03750000E+02
 21
1.21176212E+02
  0
LINE
  8
0
 62
4
 10
-8.02500000E+01
 20
1.21176212E+02
 11
-8.02500000E+01
 21
1.17103771E+02
  0
LINE
  8
0
  6
CENTER
 62
6
 10
-3.87500000E+01
 20
1.07699609E+02
 11
-4.37500000E+01
 21
1.07699609E+02
  0
LINE
  8
0
  6
CENTER
 62
6
 10
-4.12500000E+01
 20
1.10199609E+02
 11
-4.12500000E+01
 21
1.05199609E+02
  0
LINE
  8
0
  6
CENTER
 62
6
 10
-3.32500000E+01
 20
1.10199609E+02
 11
-3.32500000E+01
 21
1.05199609E+02
  0
LINE
  8
0
  6
CENTER
 62
6
 10
-3.07500000E+01
 20
1.07699609E+02
 11
-3.57500000E+01
 21
1.07699609E+02
  0
LINE
  8
0
 62
4
 10
-2.97500000E+01
 20
1.30087311E+02
 11
-2.97500000E+01
 21
1.02520850E+02
  0
LINE
  8
0
 62
4
 10
-4.47500000E+01
 20
1.31875887E+02
 11
-4.47500000E+01
 21
1.02520850E+02
  0
LINE
  8
0
 62
4
 10
-1.47500000E+01
 20
1.31875887E+02
 11
-1.47500000E+01
 21
1.14260928E+02
  0
LINE
  8
0
  6
CENTER
 62
6
 10
-2.22500000E+01
 20
1.29230273E+02
 11
-2.22500000E+01
 21
1.22081079E+02
  0
LINE
  8
0
  6
CENTER
 62
6
 10
-1.86754031E+01
 20
1.25655676E+02
 11
-2.58245969E+01
 21
1.25655676E+02
  0
LINE
  8
0
 62
4
 10
-4.47500000E+01
 20
1.31875887E+02
 11
-1.47500000E+01
 21
1.31875887E+02
  0
LINE
  8
0
 62
4
 10
-4.47500000E+01
 20
1.30087311E+02
 11
-1.47500000E+01
 21
1.30087311E+02
  0
LINE
  8
0
 62
4
 10
-4.47500000E+01
 20
1.28871774E+02
 11
-2.97500000E+01
 21
1.28871774E+02
  0
LINE
  8
0
 62
4
 10
-4.35884360E+01
 20
1.12896999E+02
 11
-3.10092527E+01
 21
1.12896999E+02
  0
LINE
  8
0
 62
4
 10
-4.47500000E+01
 20
1.02520850E+02
 11
-2.97500000E+01
 21
1.02520850E+02
  0
LINE
  8
0
 62
4
 10
-2.97500000E+01
 20
1.14260928E+02
 11
-1.47500000E+01
 21
1.14260928E+02
  0
LINE
  8
0
 62
4
 10
-2.97500000E+01
 20
1.21716445E+02
 11
-1.47500000E+01
 21
1.21716445E+02
  0
LINE
  8
0
 62
4
 10
-2.97500000E+01
 20
1.21646986E+02
 11
-1.47500000E+01
 21
1.21646986E+02
  0
POLYLINE
  8
0
 62
4
 66
1
  0
VERTEX
  8
0
 62
4
 10
-2.45000000E+01
 20
1.25655676E+02
  0
VERTEX
  8
0
 62
4
 10
-2.44914381E+01
 20
1.25462555E+02
  0
VERTEX
  8
0
 62
4
 10
-2.44658174E+01
 20
1.25270903E+02
  0
VERTEX
  8
0
 62
4
 10
-2.44233331E+01
 20
1.25082180E+02
  0
VERTEX
  8
0
 62
4
 10
-2.43643084E+01
 20
1.24897822E+02
  0
VERTEX
  8
0
 62
4
 10
-2.42891925E+01
 20
1.24719231E+02
  0
VERTEX
  8
0
 62
4
 10
-2.41985572E+01
 20
1.24547767E+02
  0
VERTEX
  8
0
 62
4
 10
-2.40930921E+01
 20
1.24384735E+02
  0
VERTEX
  8
0
 62
4
 10
-2.39736000E+01
 20
1.24231376E+02
  0
VERTEX
  8
0
 62
4
 10
-2.38409903E+01
 20
1.24088856E+02
  0
VERTEX
  8
0
 62
4
 10
-2.36962721E+01
 20
1.23958261E+02
  0
VERTEX
  8
0
 62
4
 10
-2.35405470E+01
 20
1.23840585E+02
  0
VERTEX
  8
0
 62
4
 10
-2.33750000E+01
 20
1.23736722E+02
  0
VERTEX
  8
0
 62
4
 10
-2.32008911E+01
 20
1.23647463E+02
  0
VERTEX
  8
0
 62
4
 10
-2.30195453E+01
 20
1.23573489E+02
  0
VERTEX
  8
0
 62
4
 10
-2.28323429E+01
 20
1.23515361E+02
  0
VERTEX
  8
0
 62
4
 10
-2.26407084E+01
 20
1.23473522E+02
  0
VERTEX
  8
0
 62
4
 10
-2.24461004E+01
 20
1.23448290E+02
  0
VERTEX
  8
0
 62
4
 10
-2.22500000E+01
 20
1.23439859E+02
  0
VERTEX
  8
0
 62
4
 10
-2.20538996E+01
 20
1.23448290E+02
  0
VERTEX
  8
0
 62
4
 10
-2.18592916E+01
 20
1.23473522E+02
  0
VERTEX
  8
0
 62
4
 10
-2.16676572E+01
 20
1.23515361E+02
  0
VERTEX
  8
0
 62
4
 10
-2.14804547E+01
 20
1.23573489E+02
  0
VERTEX
  8
0
 62
4
 10
-2.12991089E+01
 20
1.23647463E+02
  0
VERTEX
  8
0
 62
4
 10
-2.11250000E+01
 20
1.23736722E+02
  0
VERTEX
  8
0
 62
4
 10
-2.09594530E+01
 20
1.23840585E+02
  0
VERTEX
  8
0
 62
4
 10
-2.08037279E+01
 20
1.23958261E+02
  0
VERTEX
  8
0
 62
4
 10
-2.06590097E+01
 20
1.24088856E+02
  0
VERTEX
  8
0
 62
4
 10
-2.05264000E+01
 20
1.24231376E+02
  0
VERTEX
  8
0
 62
4
 10
-2.04069079E+01
 20
1.24384735E+02
  0
VERTEX
  8
0
 62
4
 10
-2.03014428E+01
 20
1.24547767E+02
  0
VERTEX
  8
0
 62
4
 10
-2.02108075E+01
 20
1.24719231E+02
  0
VERTEX
  8
0
 62
4
 10
-2.01356916E+01
 20
1.24897822E+02
  0
VERTEX
  8
0
 62
4
 10
-2.00766669E+01
 20
1.25082180E+02
  0
VERTEX
  8
0
 62
4
 10
-2.00341826E+01
 20
1.25270903E+02
  0
VERTEX
  8
0
 62
4
 10
-2.00085619E+01
 20
1.25462555E+02
  0
VERTEX
  8
0
 62
4
 10
-2.00000000E+01
 20
1.25655676E+02
  0
VERTEX
  8
0
 62
4
 10
-2.00085619E+01
 20
1.25848797E+02
  0
VERTEX
  8
0
 62
4
 10
-2.00341826E+01
 20
1.26040449E+02
  0
VERTEX
  8
0
 62
4
 10
-2.00766669E+01
 20
1.26229172E+02
  0
VERTEX
  8
0
 62
4
 10
-2.01356916E+01
 20
1.26413530E+02
  0
VERTEX
  8
0
 62
4
 10
-2.02108075E+01
 20
1.26592121E+02
  0
VERTEX
  8
0
 62
4
 10
-2.03014428E+01
 20
1.26763585E+02
  0
VERTEX
  8
0
 62
4
 10
-2.04069079E+01
 20
1.26926617E+02
  0
VERTEX
  8
0
 62
4
 10
-2.05264000E+01
 20
1.27079976E+02
  0
VERTEX
  8
0
 62
4
 10
-2.06590097E+01
 20
1.27222496E+02
  0
VERTEX
  8
0
 62
4
 10
-2.08037279E+01
 20
1.27353091E+02
  0
VERTEX
  8
0
 62
4
 10
-2.09594530E+01
 20
1.27470767E+02
  0
VERTEX
  8
0
 62
4
 10
-2.11250000E+01
 20
1.27574630E+02
  0
VERTEX
  8
0
 62
4
 10
-2.12991089E+01
 20
1.27663889E+02
  0
VERTEX
  8
0
 62
4
 10
-2.14804547E+01
 20
1.27737863E+02
  0
VERTEX
  8
0
 62
4
 10
-2.16676571E+01
 20
1.27795991E+02
  0
VERTEX
  8
0
 62
4
 10
-2.18592916E+01
 20
1.27837830E+02
  0
VERTEX
  8
0
 62
4
 10
-2.20538996E+01
 20
1.27863062E+02
  0
VERTEX
  8
0
 62
4
 10
-2.22500000E+01
 20
1.27871493E+02
  0
VERTEX
  8
0
 62
4
 10
-2.24461004E+01
 20
1.27863062E+02
  0
VERTEX
  8
0
 62
4
 10
-2.26407084E+01
 20
1.27837830E+02
  0
VERTEX
  8
0
 62
4
 10
-2.28323428E+01
 20
1.27795991E+02
  0
VERTEX
  8
0
 62
4
 10
-2.30195453E+01
 20
1.27737863E+02
  0
VERTEX
  8
0
 62
4
 10
-2.32008911E+01
 20
1.27663889E+02
  0
VERTEX
  8
0
 62
4
 10
-2.33750000E+01
 20
1.27574630E+02
  0
VERTEX
  8
0
 62
4
 10
-2.35405470E+01
 20
1.27470767E+02
  0
VERTEX
  8
0
 62
4
 10
-2.36962721E+01
 20
1.27353091E+02
  0
VERTEX
  8
0
 62
4
 10
-2.38409903E+01
 20
1.27222496E+02
  0
VERTEX
  8
0
 62
4
 10
-2.39736000E+01
 20
1.27079976E+02
  0
VERTEX
  8
0
 62
4
 10
-2.40930921E+01
 20
1.26926617E+02
  0
VERTEX
  8
0
 62
4
 10
-2.41985572E+01
 20
1.26763585E+02
  0
VERTEX
  8
0
 62
4
 10
-2.42891925E+01
 20
1.26592121E+02
  0
VERTEX
  8
0
 62
4
 10
-2.43643084E+01
 20
1.26413530E+02
  0
VERTEX
  8
0
 62
4
 10
-2.44233331E+01
 20
1.26229172E+02
  0
VERTEX
  8
0
 62
4
 10
-2.44658174E+01
 20
1.26040449E+02
  0
VERTEX
  8
0
 62
4
 10
-2.44914381E+01
 20
1.25848797E+02
  0
VERTEX
  8
0
 62
4
 10
-2.45000000E+01
 20
1.25655676E+02
  0
SEQEND
  8
0
  0
POLYLINE
  8
0
 62
4
 66
1
  0
VERTEX
  8
0
 62
4
 10
-3.12500000E+01
 20
1.07699609E+02
  0
VERTEX
  8
0
 62
4
 10
-3.12580514E+01
 20
1.07876164E+02
  0
VERTEX
  8
0
 62
4
 10
-3.12821408E+01
 20
1.08051297E+02
  0
VERTEX
  8
0
 62
4
 10
-3.13220743E+01
 20
1.08223599E+02
  0
VERTEX
  8
0
 62
4
 10
-3.13775303E+01
 20
1.08391682E+02
  0
VERTEX
  8
0
 62
4
 10
-3.14480623E+01
 20
1.08554193E+02
  0
VERTEX
  8
0
 62
4
 10
-3.15331024E+01
 20
1.08709823E+02
  0
VERTEX
  8
0
 62
4
 10
-3.16319660E+01
 20
1.08857320E+02
  0
VERTEX
  8
0
 62
4
 10
-3.17438571E+01
 20
1.08995495E+02
  0
VERTEX
  8
0
 62
4
 10
-3.18678747E+01
 20
1.09123237E+02
  0
VERTEX
  8
0
 62
4
 10
-3.20030204E+01
 20
1.09239516E+02
  0
VERTEX
  8
0
 62
4
 10
-3.21482060E+01
 20
1.09343397E+02
  0
VERTEX
  8
0
 62
4
 10
-3.23022627E+01
 20
1.09434044E+02
  0
VERTEX
  8
0
 62
4
 10
-3.24639499E+01
 20
1.09510725E+02
  0
VERTEX
  8
0
 62
4
 10
-3.26319660E+01
 20
1.09572825E+02
  0
VERTEX
  8
0
 62
4
 10
-3.28049581E+01
 20
1.09619842E+02
  0
VERTEX
  8
0
 62
4
 10
-3.29815335E+01
 20
1.09651399E+02
  0
VERTEX
  8
0
 62
4
 10
-3.31602703E+01
 20
1.09667241E+02
  0
VERTEX
  8
0
 62
4
 10
-3.33397296E+01
 20
1.09667241E+02
  0
VERTEX
  8
0
 62
4
 10
-3.35184665E+01
 20
1.09651399E+02
  0
VERTEX
  8
0
 62
4
 10
-3.36950419E+01
 20
1.09619842E+02
  0
VERTEX
  8
0
 62
4
 10
-3.38680340E+01
 20
1.09572825E+02
  0
VERTEX
  8
0
 62
4
 10
-3.40360500E+01
 20
1.09510725E+02
  0
VERTEX
  8
0
 62
4
 10
-3.41977373E+01
 20
1.09434044E+02
  0
VERTEX
  8
0
 62
4
 10
-3.43517939E+01
 20
1.09343397E+02
  0
VERTEX
  8
0
 62
4
 10
-3.44969796E+01
 20
1.09239516E+02
  0
VERTEX
  8
0
 62
4
 10
-3.46321253E+01
 20
1.09123237E+02
  0
VERTEX
  8
0
 62
4
 10
-3.47561429E+01
 20
1.08995495E+02
  0
VERTEX
  8
0
 62
4
 10
-3.48680340E+01
 20
1.08857320E+02
  0
VERTEX
  8
0
 62
4
 10
-3.49668976E+01
 20
1.08709823E+02
  0
VERTEX
  8
0
 62
4
 10
-3.50519377E+01
 20
1.08554193E+02
  0
VERTEX
  8
0
 62
4
 10
-3.51224697E+01
 20
1.08391682E+02
  0
VERTEX
  8
0
 62
4
 10
-3.51779257E+01
 20
1.08223599E+02
  0
VERTEX
  8
0
 62
4
 10
-3.52178592E+01
 20
1.08051297E+02
  0
VERTEX
  8
0
 62
4
 10
-3.52419486E+01
 20
1.07876164E+02
  0
VERTEX
  8
0
 62
4
 10
-3.52500000E+01
 20
1.07699609E+02
  0
SEQEND
  8
0
  0
POLYLINE
  8
0
 62
4
 66
1
  0
VERTEX
  8
0
 62
4
 10
-3.52500000E+01
 20
1.07163970E+02
  0
VERTEX
  8
0
 62
4
 10
-3.52423894E+01
 20
1.06992307E+02
  0
VERTEX
  8
0
 62
4
 10
-3.52196155E+01
 20
1.06821950E+02
  0
VERTEX
  8
0
 62
4
 10
-3.51818517E+01
 20
1.06654196E+02
  0
VERTEX
  8
0
 62
4
 10
-3.51293852E+01
 20
1.06490322E+02
  0
VERTEX
  8
0
 62
4
 10
-3.50626156E+01
 20
1.06331575E+02
  0
VERTEX
  8
0
 62
4
 10
-3.49820508E+01
 20
1.06179162E+02
  0
VERTEX
  8
0
 62
4
 10
-3.48883041E+01
 20
1.06034245E+02
  0
VERTEX
  8
0
 62
4
 10
-3.47820889E+01
 20
1.05897926E+02
  0
VERTEX
  8
0
 62
4
 10
-3.46642136E+01
 20
1.05771242E+02
  0
VERTEX
  8
0
 62
4
 10
-3.45355752E+01
 20
1.05655157E+02
  0
VERTEX
  8
0
 62
4
 10
-3.43971529E+01
 20
1.05550555E+02
  0
VERTEX
  8
0
 62
4
 10
-3.42500000E+01
 20
1.05458233E+02
  0
VERTEX
  8
0
 62
4
 10
-3.40952365E+01
 20
1.05378892E+02
  0
VERTEX
  8
0
 62
4
 10
-3.39340403E+01
 20
1.05313137E+02
  0
VERTEX
  8
0
 62
4
 10
-3.37676381E+01
 20
1.05261468E+02
  0
VERTEX
  8
0
 62
4
 10
-3.35972964E+01
 20
1.05224277E+02
  0
VERTEX
  8
0
 62
4
 10
-3.34243115E+01
 20
1.05201849E+02
  0
VERTEX
  8
0
 62
4
 10
-3.32500000E+01
 20
1.05194354E+02
  0
VERTEX
  8
0
 62
4
 10
-3.30756885E+01
 20
1.05201849E+02
  0
VERTEX
  8
0
 62
4
 10
-3.29027037E+01
 20
1.05224277E+02
  0
VERTEX
  8
0
 62
4
 10
-3.27323619E+01
 20
1.05261468E+02
  0
VERTEX
  8
0
 62
4
 10
-3.25659597E+01
 20
1.05313137E+02
  0
VERTEX
  8
0
 62
4
 10
-3.24047635E+01
 20
1.05378892E+02
  0
VERTEX
  8
0
 62
4
 10
-3.22500000E+01
 20
1.05458233E+02
  0
VERTEX
  8
0
 62
4
 10
-3.21028471E+01
 20
1.05550555E+02
  0
VERTEX
  8
0
 62
4
 10
-3.19644248E+01
 20
1.05655157E+02
  0
VERTEX
  8
0
 62
4
 10
-3.18357864E+01
 20
1.05771242E+02
  0
VERTEX
  8
0
 62
4
 10
-3.17179111E+01
 20
1.05897926E+02
  0
VERTEX
  8
0
 62
4
 10
-3.16116959E+01
 20
1.06034245E+02
  0
VERTEX
  8
0
 62
4
 10
-3.15179492E+01
 20
1.06179162E+02
  0
VERTEX
  8
0
 62
4
 10
-3.14373844E+01
 20
1.06331575E+02
  0
VERTEX
  8
0
 62
4
 10
-3.13706148E+01
 20
1.06490322E+02
  0
VERTEX
  8
0
 62
4
 10
-3.13181483E+01
 20
1.06654196E+02
  0
VERTEX
  8
0
 62
4
 10
-3.12803845E+01
 20
1.06821950E+02
  0
VERTEX
  8
0
 62
4
 10
-3.12576106E+01
 20
1.06992307E+02
  0
VERTEX
  8
0
 62
4
 10
-3.12500000E+01
 20
1.07163970E+02
  0
VERTEX
  8
0
 62
4
 10
-3.12576106E+01
 20
1.07335633E+02
  0
VERTEX
  8
0
 62
4
 10
-3.12803845E+01
 20
1.07505990E+02
  0
VERTEX
  8
0
 62
4
 10
-3.13181483E+01
 20
1.07673744E+02
  0
VERTEX
  8
0
 62
4
 10
-3.13706148E+01
 20
1.07837618E+02
  0
VERTEX
  8
0
 62
4
 10
-3.14373844E+01
 20
1.07996365E+02
  0
VERTEX
  8
0
 62
4
 10
-3.15179492E+01
 20
1.08148778E+02
  0
VERTEX
  8
0
 62
4
 10
-3.16116959E+01
 20
1.08293695E+02
  0
VERTEX
  8
0
 62
4
 10
-3.17179111E+01
 20
1.08430014E+02
  0
VERTEX
  8
0
 62
4
 10
-3.18357864E+01
 20
1.08556698E+02
  0
VERTEX
  8
0
 62
4
 10
-3.19644248E+01
 20
1.08672783E+02
  0
VERTEX
  8
0
 62
4
 10
-3.21028471E+01
 20
1.08777385E+02
  0
VERTEX
  8
0
 62
4
 10
-3.22500000E+01
 20
1.08869707E+02
  0
VERTEX
  8
0
 62
4
 10
-3.24047635E+01
 20
1.08949048E+02
  0
VERTEX
  8
0
 62
4
 10
-3.25659597E+01
 20
1.09014803E+02
  0
VERTEX
  8
0
 62
4
 10
-3.27323619E+01
 20
1.09066472E+02
  0
VERTEX
  8
0
 62
4
 10
-3.29027036E+01
 20
1.09103663E+02
  0
VERTEX
  8
0
 62
4
 10
-3.30756885E+01
 20
1.09126091E+02
  0
VERTEX
  8
0
 62
4
 10
-3.32500000E+01
 20
1.09133586E+02
  0
VERTEX
  8
0
 62
4
 10
-3.34243115E+01
 20
1.09126091E+02
  0
VERTEX
  8
0
 62
4
 10
-3.35972964E+01
 20
1.09103663E+02
  0
VERTEX
  8
0
 62
4
 10
-3.37676381E+01
 20
1.09066472E+02
  0
VERTEX
  8
0
 62
4
 10
-3.39340403E+01
 20
1.09014803E+02
  0
VERTEX
  8
0
 62
4
 10
-3.40952365E+01
 20
1.08949048E+02
  0
VERTEX
  8
0
 62
4
 10
-3.42500000E+01
 20
1.08869707E+02
  0
VERTEX
  8
0
 62
4
 10
-3.43971529E+01
 20
1.08777385E+02
  0
VERTEX
  8
0
 62
4
 10
-3.45355752E+01
 20
1.08672783E+02
  0
VERTEX
  8
0
 62
4
 10
-3.46642136E+01
 20
1.08556698E+02
  0
VERTEX
  8
0
 62
4
 10
-3.47820889E+01
 20
1.08430014E+02
  0
VERTEX
  8
0
 62
4
 10
-3.48883041E+01
 20
1.08293695E+02
  0
VERTEX
  8
0
 62
4
 10
-3.49820508E+01
 20
1.08148778E+02
  0
VERTEX
  8
0
 62
4
 10
-3.50626156E+01
 20
1.07996365E+02
  0
VERTEX
  8
0
 62
4
 10
-3.51293852E+01
 20
1.07837618E+02
  0
VERTEX
  8
0
 62
4
 10
-3.51818517E+01
 20
1.07673744E+02
  0
VERTEX
  8
0
 62
4
 10
-3.52196155E+01
 20
1.07505990E+02
  0
VERTEX
  8
0
 62
4
 10
-3.52423894E+01
 20
1.07335633E+02
  0
VERTEX
  8
0
 62
4
 10
-3.52500000E+01
 20
1.07163970E+02
  0
SEQEND
  8
0
  0
LINE
  8
0
 62
4
 10
-3.52500000E+01
 20
1.07163970E+02
 11
-3.52500000E+01
 21
1.07699609E+02
  0
LINE
  8
0
 62
4
 10
-3.12500000E+01
 20
1.07163970E+02
 11
-3.12500000E+01
 21
1.07699609E+02
  0
POLYLINE
  8
0
 62
6
 66
1
  0
VERTEX
  8
0
 62
6
 10
-3.17500000E+01
 20
1.07163970E+02
  0
VERTEX
  8
0
 62
6
 10
-3.17557080E+01
 20
1.07292717E+02
  0
VERTEX
  8
0
 62
6
 10
-3.17727884E+01
 20
1.07420485E+02
  0
VERTEX
  8
0
 62
6
 10
-3.18011113E+01
 20
1.07546301E+02
  0
VERTEX
  8
0
 62
6
 10
-3.18404611E+01
 20
1.07669206E+02
  0
VERTEX
  8
0
 62
6
 10
-3.18905383E+01
 20
1.07788267E+02
  0
VERTEX
  8
0
 62
6
 10
-3.19509619E+01
 20
1.07902576E+02
  0
VERTEX
  8
0
 62
6
 10
-3.20212719E+01
 20
1.08011264E+02
  0
VERTEX
  8
0
 62
6
 10
-3.21009333E+01
 20
1.08113503E+02
  0
VERTEX
  8
0
 62
6
 10
-3.21893398E+01
 20
1.08208516E+02
  0
VERTEX
  8
0
 62
6
 10
-3.22858186E+01
 20
1.08295580E+02
  0
VERTEX
  8
0
 62
6
 10
-3.23896353E+01
 20
1.08374031E+02
  0
VERTEX
  8
0
 62
6
 10
-3.25000000E+01
 20
1.08443273E+02
  0
VERTEX
  8
0
 62
6
 10
-3.26160726E+01
 20
1.08502778E+02
  0
VERTEX
  8
0
 62
6
 10
-3.27369698E+01
 20
1.08552095E+02
  0
VERTEX
  8
0
 62
6
 10
-3.28617714E+01
 20
1.08590847E+02
  0
VERTEX
  8
0
 62
6
 10
-3.29895277E+01
 20
1.08618739E+02
  0
VERTEX
  8
0
 62
6
 10
-3.31192664E+01
 20
1.08635560E+02
  0
VERTEX
  8
0
 62
6
 10
-3.32500000E+01
 20
1.08641182E+02
  0
VERTEX
  8
0
 62
6
 10
-3.33807336E+01
 20
1.08635560E+02
  0
VERTEX
  8
0
 62
6
 10
-3.35104723E+01
 20
1.08618739E+02
  0
VERTEX
  8
0
 62
6
 10
-3.36382286E+01
 20
1.08590847E+02
  0
VERTEX
  8
0
 62
6
 10
-3.37630302E+01
 20
1.08552095E+02
  0
VERTEX
  8
0
 62
6
 10
-3.38839274E+01
 20
1.08502778E+02
  0
VERTEX
  8
0
 62
6
 10
-3.40000000E+01
 20
1.08443273E+02
  0
VERTEX
  8
0
 62
6
 10
-3.41103647E+01
 20
1.08374031E+02
  0
VERTEX
  8
0
 62
6
 10
-3.42141814E+01
 20
1.08295580E+02
  0
VERTEX
  8
0
 62
6
 10
-3.43106602E+01
 20
1.08208516E+02
  0
VERTEX
  8
0
 62
6
 10
-3.43990667E+01
 20
1.08113503E+02
  0
VERTEX
  8
0
 62
6
 10
-3.44787281E+01
 20
1.08011264E+02
  0
VERTEX
  8
0
 62
6
 10
-3.45490381E+01
 20
1.07902576E+02
  0
VERTEX
  8
0
 62
6
 10
-3.46094617E+01
 20
1.07788267E+02
  0
VERTEX
  8
0
 62
6
 10
-3.46595389E+01
 20
1.07669206E+02
  0
VERTEX
  8
0
 62
6
 10
-3.46988887E+01
 20
1.07546301E+02
  0
VERTEX
  8
0
 62
6
 10
-3.47272116E+01
 20
1.07420485E+02
  0
VERTEX
  8
0
 62
6
 10
-3.47442920E+01
 20
1.07292717E+02
  0
VERTEX
  8
0
 62
6
 10
-3.47500000E+01
 20
1.07163970E+02
  0
VERTEX
  8
0
 62
6
 10
-3.47442920E+01
 20
1.07035223E+02
  0
VERTEX
  8
0
 62
6
 10
-3.47272116E+01
 20
1.06907455E+02
  0
VERTEX
  8
0
 62
6
 10
-3.46988887E+01
 20
1.06781639E+02
  0
VERTEX
  8
0
 62
6
 10
-3.46595389E+01
 20
1.06658734E+02
  0
VERTEX
  8
0
 62
6
 10
-3.46094617E+01
 20
1.06539673E+02
  0
VERTEX
  8
0
 62
6
 10
-3.45490381E+01
 20
1.06425364E+02
  0
VERTEX
  8
0
 62
6
 10
-3.44787281E+01
 20
1.06316676E+02
  0
VERTEX
  8
0
 62
6
 10
-3.43990667E+01
 20
1.06214437E+02
  0
VERTEX
  8
0
 62
6
 10
-3.43106602E+01
 20
1.06119424E+02
  0
VERTEX
  8
0
 62
6
 10
-3.42141814E+01
 20
1.06032360E+02
  0
VERTEX
  8
0
 62
6
 10
-3.41103647E+01
 20
1.05953909E+02
  0
VERTEX
  8
0
 62
6
 10
-3.40000000E+01
 20
1.05884667E+02
  0
VERTEX
  8
0
 62
6
 10
-3.38839274E+01
 20
1.05825162E+02
  0
VERTEX
  8
0
 62
6
 10
-3.37630302E+01
 20
1.05775845E+02
  0
VERTEX
  8
0
 62
6
 10
-3.36382286E+01
 20
1.05737093E+02
  0
VERTEX
  8
0
 62
6
 10
-3.35104723E+01
 20
1.05709201E+02
  0
VERTEX
  8
0
 62
6
 10
-3.33807336E+01
 20
1.05692380E+02
  0
VERTEX
  8
0
 62
6
 10
-3.32500000E+01
 20
1.05686758E+02
  0
VERTEX
  8
0
 62
6
 10
-3.31192664E+01
 20
1.05692380E+02
  0
VERTEX
  8
0
 62
6
 10
-3.29895277E+01
 20
1.05709201E+02
  0
VERTEX
  8
0
 62
6
 10
-3.28617714E+01
 20
1.05737093E+02
  0
VERTEX
  8
0
 62
6
 10
-3.27369698E+01
 20
1.05775845E+02
  0
VERTEX
  8
0
 62
6
 10
-3.26160726E+01
 20
1.05825162E+02
  0
VERTEX
  8
0
 62
6
 10
-3.25000000E+01
 20
1.05884667E+02
  0
VERTEX
  8
0
 62
6
 10
-3.23896353E+01
 20
1.05953909E+02
  0
VERTEX
  8
0
 62
6
 10
-3.22858186E+01
 20
1.06032360E+02
  0
VERTEX
  8
0
 62
6
 10
-3.21893398E+01
 20
1.06119424E+02
  0
VERTEX
  8
0
 62
6
 10
-3.21009333E+01
 20
1.06214437E+02
  0
VERTEX
  8
0
 62
6
 10
-3.20212719E+01
 20
1.06316676E+02
  0
VERTEX
  8
0
 62
6
 10
-3.19509619E+01
 20
1.06425364E+02
  0
VERTEX
  8
0
 62
6
 10
-3.18905383E+01
 20
1.06539673E+02
  0
VERTEX
  8
0
 62
6
 10
-3.18404611E+01
 20
1.06658734E+02
  0
VERTEX
  8
0
 62
6
 10
-3.18011113E+01
 20
1.06781640E+02
  0
VERTEX
  8
0
 62
6
 10
-3.17727884E+01
 20
1.06907455E+02
  0
VERTEX
  8
0
 62
6
 10
-3.17557080E+01
 20
1.07035223E+02
  0
VERTEX
  8
0
 62
6
 10
-3.17500000E+01
 20
1.07163970E+02
  0
SEQEND
  8
0
  0
LINE
  8
0
 62
4
 10
-3.42500000E+01
 20
1.07735158E+02
 11
-3.42500000E+01
 21
1.06592781E+02
  0
LINE
  8
0
 62
4
 10
-3.22500000E+01
 20
1.07735158E+02
 11
-3.22500000E+01
 21
1.06592781E+02
  0
LINE
  8
0
 62
4
 10
-3.32500000E+01
 20
1.08296499E+02
 11
-3.42500000E+01
 21
1.07735158E+02
  0
LINE
  8
0
 62
4
 10
-3.32500000E+01
 20
1.08296499E+02
 11
-3.22500000E+01
 21
1.07735158E+02
  0
LINE
  8
0
 62
4
 10
-3.22500000E+01
 20
1.06592781E+02
 11
-3.32500000E+01
 21
1.06021593E+02
  0
LINE
  8
0
 62
4
 10
-3.42500000E+01
 20
1.06592781E+02
 11
-3.32500000E+01
 21
1.06021593E+02
  0
LINE
  8
0
 62
4
 10
-4.22500000E+01
 20
1.06592781E+02
 11
-4.12500000E+01
 21
1.06021593E+02
  0
LINE
  8
0
 62
4
 10
-4.02500000E+01
 20
1.06592781E+02
 11
-4.12500000E+01
 21
1.06021593E+02
  0
LINE
  8
0
 62
4
 10
-4.12500000E+01
 20
1.08296499E+02
 11
-4.02500000E+01
 21
1.07735158E+02
  0
LINE
  8
0
 62
4
 10
-4.12500000E+01
 20
1.08296499E+02
 11
-4.22500000E+01
 21
1.07735158E+02
  0
LINE
  8
0
 62
4
 10
-4.02500000E+01
 20
1.07735158E+02
 11
-4.02500000E+01
 21
1.06592781E+02
  0
LINE
  8
0
 62
4
 10
-4.22500000E+01
 20
1.07735158E+02
 11
-4.22500000E+01
 21
1.06592781E+02
  0
POLYLINE
  8
0
 62
6
 66
1
  0
VERTEX
  8
0
 62
6
 10
-3.97500000E+01
 20
1.07163970E+02
  0
VERTEX
  8
0
 62
6
 10
-3.97557080E+01
 20
1.07292717E+02
  0
VERTEX
  8
0
 62
6
 10
-3.97727884E+01
 20
1.07420485E+02
  0
VERTEX
  8
0
 62
6
 10
-3.98011113E+01
 20
1.07546301E+02
  0
VERTEX
  8
0
 62
6
 10
-3.98404611E+01
 20
1.07669206E+02
  0
VERTEX
  8
0
 62
6
 10
-3.98905383E+01
 20
1.07788267E+02
  0
VERTEX
  8
0
 62
6
 10
-3.99509619E+01
 20
1.07902576E+02
  0
VERTEX
  8
0
 62
6
 10
-4.00212719E+01
 20
1.08011264E+02
  0
VERTEX
  8
0
 62
6
 10
-4.01009333E+01
 20
1.08113503E+02
  0
VERTEX
  8
0
 62
6
 10
-4.01893398E+01
 20
1.08208516E+02
  0
VERTEX
  8
0
 62
6
 10
-4.02858186E+01
 20
1.08295580E+02
  0
VERTEX
  8
0
 62
6
 10
-4.03896353E+01
 20
1.08374031E+02
  0
VERTEX
  8
0
 62
6
 10
-4.05000000E+01
 20
1.08443273E+02
  0
VERTEX
  8
0
 62
6
 10
-4.06160726E+01
 20
1.08502778E+02
  0
VERTEX
  8
0
 62
6
 10
-4.07369698E+01
 20
1.08552095E+02
  0
VERTEX
  8
0
 62
6
 10
-4.08617714E+01
 20
1.08590847E+02
  0
VERTEX
  8
0
 62
6
 10
-4.09895277E+01
 20
1.08618739E+02
  0
VERTEX
  8
0
 62
6
 10
-4.11192664E+01
 20
1.08635560E+02
  0
VERTEX
  8
0
 62
6
 10
-4.12500000E+01
 20
1.08641182E+02
  0
VERTEX
  8
0
 62
6
 10
-4.13807336E+01
 20
1.08635560E+02
  0
VERTEX
  8
0
 62
6
 10
-4.15104723E+01
 20
1.08618739E+02
  0
VERTEX
  8
0
 62
6
 10
-4.16382286E+01
 20
1.08590847E+02
  0
VERTEX
  8
0
 62
6
 10
-4.17630302E+01
 20
1.08552095E+02
  0
VERTEX
  8
0
 62
6
 10
-4.18839274E+01
 20
1.08502778E+02
  0
VERTEX
  8
0
 62
6
 10
-4.20000000E+01
 20
1.08443273E+02
  0
VERTEX
  8
0
 62
6
 10
-4.21103647E+01
 20
1.08374031E+02
  0
VERTEX
  8
0
 62
6
 10
-4.22141814E+01
 20
1.08295580E+02
  0
VERTEX
  8
0
 62
6
 10
-4.23106602E+01
 20
1.08208516E+02
  0
VERTEX
  8
0
 62
6
 10
-4.23990667E+01
 20
1.08113503E+02
  0
VERTEX
  8
0
 62
6
 10
-4.24787281E+01
 20
1.08011264E+02
  0
VERTEX
  8
0
 62
6
 10
-4.25490381E+01
 20
1.07902576E+02
  0
VERTEX
  8
0
 62
6
 10
-4.26094617E+01
 20
1.07788267E+02
  0
VERTEX
  8
0
 62
6
 10
-4.26595389E+01
 20
1.07669206E+02
  0
VERTEX
  8
0
 62
6
 10
-4.26988887E+01
 20
1.07546301E+02
  0
VERTEX
  8
0
 62
6
 10
-4.27272116E+01
 20
1.07420485E+02
  0
VERTEX
  8
0
 62
6
 10
-4.27442920E+01
 20
1.07292717E+02
  0
VERTEX
  8
0
 62
6
 10
-4.27500000E+01
 20
1.07163970E+02
  0
VERTEX
  8
0
 62
6
 10
-4.27442920E+01
 20
1.07035223E+02
  0
VERTEX
  8
0
 62
6
 10
-4.27272116E+01
 20
1.06907455E+02
  0
VERTEX
  8
0
 62
6
 10
-4.26988887E+01
 20
1.06781639E+02
  0
VERTEX
  8
0
 62
6
 10
-4.26595389E+01
 20
1.06658734E+02
  0
VERTEX
  8
0
 62
6
 10
-4.26094617E+01
 20
1.06539673E+02
  0
VERTEX
  8
0
 62
6
 10
-4.25490381E+01
 20
1.06425364E+02
  0
VERTEX
  8
0
 62
6
 10
-4.24787281E+01
 20
1.06316676E+02
  0
VERTEX
  8
0
 62
6
 10
-4.23990667E+01
 20
1.06214437E+02
  0
VERTEX
  8
0
 62
6
 10
-4.23106602E+01
 20
1.06119424E+02
  0
VERTEX
  8
0
 62
6
 10
-4.22141814E+01
 20
1.06032360E+02
  0
VERTEX
  8
0
 62
6
 10
-4.21103647E+01
 20
1.05953909E+02
  0
VERTEX
  8
0
 62
6
 10
-4.20000000E+01
 20
1.05884667E+02
  0
VERTEX
  8
0
 62
6
 10
-4.18839274E+01
 20
1.05825162E+02
  0
VERTEX
  8
0
 62
6
 10
-4.17630302E+01
 20
1.05775845E+02
  0
VERTEX
  8
0
 62
6
 10
-4.16382286E+01
 20
1.05737093E+02
  0
VERTEX
  8
0
 62
6
 10
-4.15104723E+01
 20
1.05709201E+02
  0
VERTEX
  8
0
 62
6
 10
-4.13807336E+01
 20
1.05692380E+02
  0
VERTEX
  8
0
 62
6
 10
-4.12500000E+01
 20
1.05686758E+02
  0
VERTEX
  8
0
 62
6
 10
-4.11192664E+01
 20
1.05692380E+02
  0
VERTEX
  8
0
 62
6
 10
-4.09895277E+01
 20
1.05709201E+02
  0
VERTEX
  8
0
 62
6
 10
-4.08617714E+01
 20
1.05737093E+02
  0
VERTEX
  8
0
 62
6
 10
-4.07369698E+01
 20
1.05775845E+02
  0
VERTEX
  8
0
 62
6
 10
-4.06160726E+01
 20
1.05825162E+02
  0
VERTEX
  8
0
 62
6
 10
-4.05000000E+01
 20
1.05884667E+02
  0
VERTEX
  8
0
 62
6
 10
-4.03896353E+01
 20
1.05953909E+02
  0
VERTEX
  8
0
 62
6
 10
-4.02858186E+01
 20
1.06032360E+02
  0
VERTEX
  8
0
 62
6
 10
-4.01893398E+01
 20
1.06119424E+02
  0
VERTEX
  8
0
 62
6
 10
-4.01009333E+01
 20
1.06214437E+02
  0
VERTEX
  8
0
 62
6
 10
-4.00212719E+01
 20
1.06316676E+02
  0
VERTEX
  8
0
 62
6
 10
-3.99509619E+01
 20
1.06425364E+02
  0
VERTEX
  8
0
 62
6
 10
-3.98905383E+01
 20
1.06539673E+02
  0
VERTEX
  8
0
 62
6
 10
-3.98404611E+01
 20
1.06658734E+02
  0
VERTEX
  8
0
 62
6
 10
-3.98011113E+01
 20
1.06781640E+02
  0
VERTEX
  8
0
 62
6
 10
-3.97727884E+01
 20
1.06907455E+02
  0
VERTEX
  8
0
 62
6
 10
-3.97557080E+01
 20
1.07035223E+02
  0
VERTEX
  8
0
 62
6
 10
-3.97500000E+01
 20
1.07163970E+02
  0
SEQEND
  8
0
  0
LINE
  8
0
 62
4
 10
-3.92500000E+01
 20
1.07163970E+02
 11
-3.92500000E+01
 21
1.07699609E+02
  0
LINE
  8
0
 62
4
 10
-4.32500000E+01
 20
1.07163970E+02
 11
-4.32500000E+01
 21
1.07699609E+02
  0
POLYLINE
  8
0
 62
4
 66
1
  0
VERTEX
  8
0
 62
4
 10
-4.32500000E+01
 20
1.07163970E+02
  0
VERTEX
  8
0
 62
4
 10
-4.32423894E+01
 20
1.06992307E+02
  0
VERTEX
  8
0
 62
4
 10
-4.32196155E+01
 20
1.06821950E+02
  0
VERTEX
  8
0
 62
4
 10
-4.31818517E+01
 20
1.06654196E+02
  0
VERTEX
  8
0
 62
4
 10
-4.31293852E+01
 20
1.06490322E+02
  0
VERTEX
  8
0
 62
4
 10
-4.30626156E+01
 20
1.06331575E+02
  0
VERTEX
  8
0
 62
4
 10
-4.29820508E+01
 20
1.06179162E+02
  0
VERTEX
  8
0
 62
4
 10
-4.28883041E+01
 20
1.06034245E+02
  0
VERTEX
  8
0
 62
4
 10
-4.27820889E+01
 20
1.05897926E+02
  0
VERTEX
  8
0
 62
4
 10
-4.26642136E+01
 20
1.05771242E+02
  0
VERTEX
  8
0
 62
4
 10
-4.25355752E+01
 20
1.05655157E+02
  0
VERTEX
  8
0
 62
4
 10
-4.23971529E+01
 20
1.05550555E+02
  0
VERTEX
  8
0
 62
4
 10
-4.22500000E+01
 20
1.05458233E+02
  0
VERTEX
  8
0
 62
4
 10
-4.20952365E+01
 20
1.05378892E+02
  0
VERTEX
  8
0
 62
4
 10
-4.19340403E+01
 20
1.05313137E+02
  0
VERTEX
  8
0
 62
4
 10
-4.17676381E+01
 20
1.05261468E+02
  0
VERTEX
  8
0
 62
4
 10
-4.15972964E+01
 20
1.05224277E+02
  0
VERTEX
  8
0
 62
4
 10
-4.14243115E+01
 20
1.05201849E+02
  0
VERTEX
  8
0
 62
4
 10
-4.12500000E+01
 20
1.05194354E+02
  0
VERTEX
  8
0
 62
4
 10
-4.10756885E+01
 20
1.05201849E+02
  0
VERTEX
  8
0
 62
4
 10
-4.09027037E+01
 20
1.05224277E+02
  0
VERTEX
  8
0
 62
4
 10
-4.07323619E+01
 20
1.05261468E+02
  0
VERTEX
  8
0
 62
4
 10
-4.05659597E+01
 20
1.05313137E+02
  0
VERTEX
  8
0
 62
4
 10
-4.04047635E+01
 20
1.05378892E+02
  0
VERTEX
  8
0
 62
4
 10
-4.02500000E+01
 20
1.05458233E+02
  0
VERTEX
  8
0
 62
4
 10
-4.01028471E+01
 20
1.05550555E+02
  0
VERTEX
  8
0
 62
4
 10
-3.99644248E+01
 20
1.05655157E+02
  0
VERTEX
  8
0
 62
4
 10
-3.98357864E+01
 20
1.05771242E+02
  0
VERTEX
  8
0
 62
4
 10
-3.97179111E+01
 20
1.05897926E+02
  0
VERTEX
  8
0
 62
4
 10
-3.96116959E+01
 20
1.06034245E+02
  0
VERTEX
  8
0
 62
4
 10
-3.95179492E+01
 20
1.06179162E+02
  0
VERTEX
  8
0
 62
4
 10
-3.94373844E+01
 20
1.06331575E+02
  0
VERTEX
  8
0
 62
4
 10
-3.93706148E+01
 20
1.06490322E+02
  0
VERTEX
  8
0
 62
4
 10
-3.93181483E+01
 20
1.06654196E+02
  0
VERTEX
  8
0
 62
4
 10
-3.92803845E+01
 20
1.06821950E+02
  0
VERTEX
  8
0
 62
4
 10
-3.92576106E+01
 20
1.06992307E+02
  0
VERTEX
  8
0
 62
4
 10
-3.92500000E+01
 20
1.07163970E+02
  0
VERTEX
  8
0
 62
4
 10
-3.92576106E+01
 20
1.07335633E+02
  0
VERTEX
  8
0
 62
4
 10
-3.92803845E+01
 20
1.07505990E+02
  0
VERTEX
  8
0
 62
4
 10
-3.93181483E+01
 20
1.07673744E+02
  0
VERTEX
  8
0
 62
4
 10
-3.93706148E+01
 20
1.07837618E+02
  0
VERTEX
  8
0
 62
4
 10
-3.94373844E+01
 20
1.07996365E+02
  0
VERTEX
  8
0
 62
4
 10
-3.95179492E+01
 20
1.08148778E+02
  0
VERTEX
  8
0
 62
4
 10
-3.96116959E+01
 20
1.08293695E+02
  0
VERTEX
  8
0
 62
4
 10
-3.97179111E+01
 20
1.08430014E+02
  0
VERTEX
  8
0
 62
4
 10
-3.98357864E+01
 20
1.08556698E+02
  0
VERTEX
  8
0
 62
4
 10
-3.99644248E+01
 20
1.08672783E+02
  0
VERTEX
  8
0
 62
4
 10
-4.01028471E+01
 20
1.08777385E+02
  0
VERTEX
  8
0
 62
4
 10
-4.02500000E+01
 20
1.08869707E+02
  0
VERTEX
  8
0
 62
4
 10
-4.04047635E+01
 20
1.08949048E+02
  0
VERTEX
  8
0
 62
4
 10
-4.05659597E+01
 20
1.09014803E+02
  0
VERTEX
  8
0
 62
4
 10
-4.07323619E+01
 20
1.09066472E+02
  0
VERTEX
  8
0
 62
4
 10
-4.09027036E+01
 20
1.09103663E+02
  0
VERTEX
  8
0
 62
4
 10
-4.10756885E+01
 20
1.09126091E+02
  0
VERTEX
  8
0
 62
4
 10
-4.12500000E+01
 20
1.09133586E+02
  0
VERTEX
  8
0
 62
4
 10
-4.14243115E+01
 20
1.09126091E+02
  0
VERTEX
  8
0
 62
4
 10
-4.15972964E+01
 20
1.09103663E+02
  0
VERTEX
  8
0
 62
4
 10
-4.17676381E+01
 20
1.09066472E+02
  0
VERTEX
  8
0
 62
4
 10
-4.19340403E+01
 20
1.09014803E+02
  0
VERTEX
  8
0
 62
4
 10
-4.20952365E+01
 20
1.08949048E+02
  0
VERTEX
  8
0
 62
4
 10
-4.22500000E+01
 20
1.08869707E+02
  0
VERTEX
  8
0
 62
4
 10
-4.23971529E+01
 20
1.08777385E+02
  0
VERTEX
  8
0
 62
4
 10
-4.25355752E+01
 20
1.08672783E+02
  0
VERTEX
  8
0
 62
4
 10
-4.26642136E+01
 20
1.08556698E+02
  0
VERTEX
  8
0
 62
4
 10
-4.27820889E+01
 20
1.08430014E+02
  0
VERTEX
  8
0
 62
4
 10
-4.28883041E+01
 20
1.08293695E+02
  0
VERTEX
  8
0
 62
4
 10
-4.29820508E+01
 20
1.08148778E+02
  0
VERTEX
  8
0
 62
4
 10
-4.30626156E+01
 20
1.07996365E+02
  0
VERTEX
  8
0
 62
4
 10
-4.31293852E+01
 20
1.07837618E+02
  0
VERTEX
  8
0
 62
4
 10
-4.31818517E+01
 20
1.07673744E+02
  0
VERTEX
  8
0
 62
4
 10
-4.32196155E+01
 20
1.07505990E+02
  0
VERTEX
  8
0
 62
4
 10
-4.32423894E+01
 20
1.07335633E+02
  0
VERTEX
  8
0
 62
4
 10
-4.32500000E+01
 20
1.07163970E+02
  0
SEQEND
  8
0
  0
POLYLINE
  8
0
 62
4
 66
1
  0
VERTEX
  8
0
 62
4
 10
-3.92500000E+01
 20
1.07699609E+02
  0
VERTEX
  8
0
 62
4
 10
-3.92580514E+01
 20
1.07876164E+02
  0
VERTEX
  8
0
 62
4
 10
-3.92821408E+01
 20
1.08051297E+02
  0
VERTEX
  8
0
 62
4
 10
-3.93220743E+01
 20
1.08223599E+02
  0
VERTEX
  8
0
 62
4
 10
-3.93775303E+01
 20
1.08391682E+02
  0
VERTEX
  8
0
 62
4
 10
-3.94480623E+01
 20
1.08554193E+02
  0
VERTEX
  8
0
 62
4
 10
-3.95331024E+01
 20
1.08709823E+02
  0
VERTEX
  8
0
 62
4
 10
-3.96319660E+01
 20
1.08857320E+02
  0
VERTEX
  8
0
 62
4
 10
-3.97438571E+01
 20
1.08995495E+02
  0
VERTEX
  8
0
 62
4
 10
-3.98678747E+01
 20
1.09123237E+02
  0
VERTEX
  8
0
 62
4
 10
-4.00030204E+01
 20
1.09239516E+02
  0
VERTEX
  8
0
 62
4
 10
-4.01482060E+01
 20
1.09343397E+02
  0
VERTEX
  8
0
 62
4
 10
-4.03022627E+01
 20
1.09434044E+02
  0
VERTEX
  8
0
 62
4
 10
-4.04639499E+01
 20
1.09510725E+02
  0
VERTEX
  8
0
 62
4
 10
-4.06319660E+01
 20
1.09572825E+02
  0
VERTEX
  8
0
 62
4
 10
-4.08049581E+01
 20
1.09619842E+02
  0
VERTEX
  8
0
 62
4
 10
-4.09815335E+01
 20
1.09651399E+02
  0
VERTEX
  8
0
 62
4
 10
-4.11602703E+01
 20
1.09667241E+02
  0
VERTEX
  8
0
 62
4
 10
-4.13397296E+01
 20
1.09667241E+02
  0
VERTEX
  8
0
 62
4
 10
-4.15184665E+01
 20
1.09651399E+02
  0
VERTEX
  8
0
 62
4
 10
-4.16950419E+01
 20
1.09619842E+02
  0
VERTEX
  8
0
 62
4
 10
-4.18680340E+01
 20
1.09572825E+02
  0
VERTEX
  8
0
 62
4
 10
-4.20360500E+01
 20
1.09510725E+02
  0
VERTEX
  8
0
 62
4
 10
-4.21977373E+01
 20
1.09434044E+02
  0
VERTEX
  8
0
 62
4
 10
-4.23517939E+01
 20
1.09343397E+02
  0
VERTEX
  8
0
 62
4
 10
-4.24969796E+01
 20
1.09239516E+02
  0
VERTEX
  8
0
 62
4
 10
-4.26321253E+01
 20
1.09123237E+02
  0
VERTEX
  8
0
 62
4
 10
-4.27561429E+01
 20
1.08995495E+02
  0
VERTEX
  8
0
 62
4
 10
-4.28680340E+01
 20
1.08857320E+02
  0
VERTEX
  8
0
 62
4
 10
-4.29668976E+01
 20
1.08709823E+02
  0
VERTEX
  8
0
 62
4
 10
-4.30519377E+01
 20
1.08554193E+02
  0
VERTEX
  8
0
 62
4
 10
-4.31224697E+01
 20
1.08391682E+02
  0
VERTEX
  8
0
 62
4
 10
-4.31779257E+01
 20
1.08223599E+02
  0
VERTEX
  8
0
 62
4
 10
-4.32178592E+01
 20
1.08051297E+02
  0
VERTEX
  8
0
 62
4
 10
-4.32419486E+01
 20
1.07876164E+02
  0
VERTEX
  8
0
 62
4
 10
-4.32500000E+01
 20
1.07699609E+02
  0
SEQEND
  8
0
  0
LINE
  8
0
 62
4
 10
-1.03750000E+02
 20
1.31875887E+02
 11
-7.37500000E+01
 21
1.31875887E+02
  0
LINE
  8
0
 62
4
 10
-1.03750000E+02
 20
1.16118963E+02
 11
-7.37500000E+01
 21
1.16118963E+02
  0
LINE
  8
0
 62
4
 10
-1.03750000E+02
 20
1.17103771E+02
 11
-7.37500000E+01
 21
1.17103771E+02
  0
LINE
  8
0
 62
4
 10
-1.03750000E+02
 20
1.21176212E+02
 11
-1.05250000E+02
 21
1.20168356E+02
  0
LINE
  8
0
 62
4
 10
-1.05250000E+02
 20
1.20168356E+02
 11
-1.05250000E+02
 21
1.17544453E+02
  0
LINE
  8
0
 62
4
 10
-1.05250000E+02
 20
1.17937766E+02
 11
-1.03750000E+02
 21
1.17236981E+02
  0
LINE
  8
0
 62
4
 10
-1.05250000E+02
 20
1.17544453E+02
 11
-1.03750000E+02
 21
1.16542389E+02
  0
LINE
  8
0
 62
4
 10
-1.03750000E+02
 20
1.21176212E+02
 11
-9.16872448E+01
 21
1.21176212E+02
  0
LINE
  8
0
 62
4
 10
-1.03750000E+02
 20
1.17236981E+02
 11
-8.02500000E+01
 21
1.17236981E+02
  0
LINE
  8
0
 62
4
 10
-1.03750000E+02
 20
1.21633887E+02
 11
-9.20871230E+01
 21
1.21633887E+02
  0
LINE
  8
0
 62
4
 10
-1.03750000E+02
 20
1.21176212E+02
 11
-1.03750000E+02
 21
1.17103771E+02
  0
LINE
  8
0
 62
4
 10
-1.03750000E+02
 20
1.17103771E+02
 11
-1.03750000E+02
 21
1.15369434E+02
  0
ARC
  8
0
 62
4
 10
-2.12431469E+02
 20
-5.19350029E+00
 40
1.86971513E+02
 50
4.46782203E+01
 51
4.61988768E+01
  0
ARC
  8
0
 62
4
 10
4.99314687E+01
 20
-5.19350029E+00
 40
1.86971513E+02
 50
1.33801123E+02
 51
1.35321779E+02
  0
LINE
  8
0
 62
4
 10
-7.78500000E+01
 20
1.27617900E+02
 11
-7.78500000E+01
 21
1.27814262E+02
  0
POLYLINE
  8
0
 62
4
 66
1
  0
VERTEX
  8
0
 62
4
 10
-8.46500000E+01
 20
1.27814262E+02
  0
VERTEX
  8
0
 62
4
 10
-8.46370620E+01
 20
1.27522434E+02
  0
VERTEX
  8
0
 62
4
 10
-8.45983464E+01
 20
1.27232828E+02
  0
VERTEX
  8
0
 62
4
 10
-8.45341478E+01
 20
1.26947646E+02
  0
VERTEX
  8
0
 62
4
 10
-8.44449549E+01
 20
1.26669060E+02
  0
VERTEX
  8
0
 62
4
 10
-8.43314465E+01
 20
1.26399190E+02
  0
VERTEX
  8
0
 62
4
 10
-8.41944864E+01
 20
1.26140089E+02
  0
VERTEX
  8
0
 62
4
 10
-8.40351170E+01
 20
1.25893729E+02
  0
VERTEX
  8
0
 62
4
 10
-8.38545511E+01
 20
1.25661986E+02
  0
VERTEX
  8
0
 62
4
 10
-8.36541631E+01
 20
1.25446623E+02
  0
VERTEX
  8
0
 62
4
 10
-8.34354779E+01
 20
1.25249280E+02
  0
VERTEX
  8
0
 62
4
 10
-8.32001599E+01
 20
1.25071457E+02
  0
VERTEX
  8
0
 62
4
 10
-8.29500000E+01
 20
1.24914509E+02
  0
VERTEX
  8
0
 62
4
 10
-8.26869021E+01
 20
1.24779629E+02
  0
VERTEX
  8
0
 62
4
 10
-8.24128685E+01
 20
1.24667845E+02
  0
VERTEX
  8
0
 62
4
 10
-8.21299848E+01
 20
1.24580007E+02
  0
VERTEX
  8
0
 62
4
 10
-8.18404038E+01
 20
1.24516784E+02
  0
VERTEX
  8
0
 62
4
 10
-8.15463295E+01
 20
1.24478657E+02
  0
VERTEX
  8
0
 62
4
 10
-8.12500000E+01
 20
1.24465915E+02
  0
VERTEX
  8
0
 62
4
 10
-8.09536705E+01
 20
1.24478657E+02
  0
VERTEX
  8
0
 62
4
 10
-8.06595962E+01
 20
1.24516784E+02
  0
VERTEX
  8
0
 62
4
 10
-8.03700152E+01
 20
1.24580007E+02
  0
VERTEX
  8
0
 62
4
 10
-8.00871315E+01
 20
1.24667845E+02
  0
VERTEX
  8
0
 62
4
 10
-7.98130979E+01
 20
1.24779629E+02
  0
VERTEX
  8
0
 62
4
 10
-7.95500000E+01
 20
1.24914509E+02
  0
VERTEX
  8
0
 62
4
 10
-7.92998401E+01
 20
1.25071457E+02
  0
VERTEX
  8
0
 62
4
 10
-7.90645221E+01
 20
1.25249280E+02
  0
VERTEX
  8
0
 62
4
 10
-7.88458369E+01
 20
1.25446623E+02
  0
VERTEX
  8
0
 62
4
 10
-7.86454489E+01
 20
1.25661986E+02
  0
VERTEX
  8
0
 62
4
 10
-7.84648830E+01
 20
1.25893729E+02
  0
VERTEX
  8
0
 62
4
 10
-7.83055136E+01
 20
1.26140089E+02
  0
VERTEX
  8
0
 62
4
 10
-7.81685535E+01
 20
1.26399190E+02
  0
VERTEX
  8
0
 62
4
 10
-7.80550451E+01
 20
1.26669060E+02
  0
VERTEX
  8
0
 62
4
 10
-7.79658522E+01
 20
1.26947646E+02
  0
VERTEX
  8
0
 62
4
 10
-7.79016536E+01
 20
1.27232828E+02
  0
VERTEX
  8
0
 62
4
 10
-7.78629380E+01
 20
1.27522434E+02
  0
VERTEX
  8
0
 62
4
 10
-7.78500000E+01
 20
1.27814262E+02
  0
VERTEX
  8
0
 62
4
 10
-7.78629380E+01
 20
1.28106090E+02
  0
VERTEX
  8
0
 62
4
 10
-7.79016536E+01
 20
1.28395696E+02
  0
VERTEX
  8
0
 62
4
 10
-7.79658522E+01
 20
1.28680878E+02
  0
VERTEX
  8
0
 62
4
 10
-7.80550451E+01
 20
1.28959464E+02
  0
VERTEX
  8
0
 62
4
 10
-7.81685535E+01
 20
1.29229334E+02
  0
VERTEX
  8
0
 62
4
 10
-7.83055136E+01
 20
1.29488435E+02
  0
VERTEX
  8
0
 62
4
 10
-7.84648830E+01
 20
1.29734795E+02
  0
VERTEX
  8
0
 62
4
 10
-7.86454489E+01
 20
1.29966538E+02
  0
VERTEX
  8
0
 62
4
 10
-7.88458369E+01
 20
1.30181901E+02
  0
VERTEX
  8
0
 62
4
 10
-7.90645221E+01
 20
1.30379244E+02
  0
VERTEX
  8
0
 62
4
 10
-7.92998401E+01
 20
1.30557067E+02
  0
VERTEX
  8
0
 62
4
 10
-7.95500000E+01
 20
1.30714015E+02
  0
VERTEX
  8
0
 62
4
 10
-7.98130979E+01
 20
1.30848895E+02
  0
VERTEX
  8
0
 62
4
 10
-8.00871315E+01
 20
1.30960679E+02
  0
VERTEX
  8
0
 62
4
 10
-8.03700152E+01
 20
1.31048517E+02
  0
VERTEX
  8
0
 62
4
 10
-8.06595962E+01
 20
1.31111740E+02
  0
VERTEX
  8
0
 62
4
 10
-8.09536705E+01
 20
1.31149867E+02
  0
VERTEX
  8
0
 62
4
 10
-8.12500000E+01
 20
1.31162609E+02
  0
VERTEX
  8
0
 62
4
 10
-8.15463295E+01
 20
1.31149867E+02
  0
VERTEX
  8
0
 62
4
 10
-8.18404038E+01
 20
1.31111740E+02
  0
VERTEX
  8
0
 62
4
 10
-8.21299848E+01
 20
1.31048517E+02
  0
VERTEX
  8
0
 62
4
 10
-8.24128685E+01
 20
1.30960679E+02
  0
VERTEX
  8
0
 62
4
 10
-8.26869021E+01
 20
1.30848895E+02
  0
VERTEX
  8
0
 62
4
 10
-8.29500000E+01
 20
1.30714015E+02
  0
VERTEX
  8
0
 62
4
 10
-8.32001599E+01
 20
1.30557067E+02
  0
VERTEX
  8
0
 62
4
 10
-8.34354779E+01
 20
1.30379244E+02
  0
VERTEX
  8
0
 62
4
 10
-8.36541631E+01
 20
1.30181901E+02
  0
VERTEX
  8
0
 62
4
 10
-8.38545511E+01
 20
1.29966538E+02
  0
VERTEX
  8
0
 62
4
 10
-8.40351170E+01
 20
1.29734795E+02
  0
VERTEX
  8
0
 62
4
 10
-8.41944864E+01
 20
1.29488435E+02
  0
VERTEX
  8
0
 62
4
 10
-8.43314465E+01
 20
1.29229334E+02
  0
VERTEX
  8
0
 62
4
 10
-8.44449549E+01
 20
1.28959464E+02
  0
VERTEX
  8
0
 62
4
 10
-8.45341478E+01
 20
1.28680878E+02
  0
VERTEX
  8
0
 62
4
 10
-8.45983464E+01
 20
1.28395696E+02
  0
VERTEX
  8
0
 62
4
 10
-8.46370620E+01
 20
1.28106090E+02
  0
VERTEX
  8
0
 62
4
 10
-8.46500000E+01
 20
1.27814262E+02
  0
SEQEND
  8
0
  0
POLYLINE
  8
0
 62
4
 66
1
  0
VERTEX
  8
0
 62
4
 10
-8.46500000E+01
 20
1.27617900E+02
  0
VERTEX
  8
0
 62
4
 10
-8.46363126E+01
 20
1.27317757E+02
  0
VERTEX
  8
0
 62
4
 10
-8.45953606E+01
 20
1.27020030E+02
  0
VERTEX
  8
0
 62
4
 10
-8.45274738E+01
 20
1.26727117E+02
  0
VERTEX
  8
0
 62
4
 10
-8.44331986E+01
 20
1.26441375E+02
  0
VERTEX
  8
0
 62
4
 10
-8.43132942E+01
 20
1.26165107E+02
  0
VERTEX
  8
0
 62
4
 10
-8.41687259E+01
 20
1.25900536E+02
  0
VERTEX
  8
0
 62
4
 10
-8.40006578E+01
 20
1.25649791E+02
  0
VERTEX
  8
0
 62
4
 10
-8.38104430E+01
 20
1.25414893E+02
  0
VERTEX
  8
0
 62
4
 10
-8.35996130E+01
 20
1.25197732E+02
  0
VERTEX
  8
0
 62
4
 10
-8.33698654E+01
 20
1.25000057E+02
  0
VERTEX
  8
0
 62
4
 10
-8.31230498E+01
 20
1.24823460E+02
  0
VERTEX
  8
0
 62
4
 10
-8.28611535E+01
 20
1.24669361E+02
  0
VERTEX
  8
0
 62
4
 10
-8.25862851E+01
 20
1.24539003E+02
  0
VERTEX
  8
0
 62
4
 10
-8.23006578E+01
 20
1.24433433E+02
  0
VERTEX
  8
0
 62
4
 10
-8.20065712E+01
 20
1.24353504E+02
  0
VERTEX
  8
0
 62
4
 10
-8.17063931E+01
 20
1.24299857E+02
  0
VERTEX
  8
0
 62
4
 10
-8.14025404E+01
 20
1.24272925E+02
  0
VERTEX
  8
0
 62
4
 10
-8.10974596E+01
 20
1.24272925E+02
  0
VERTEX
  8
0
 62
4
 10
-8.07936069E+01
 20
1.24299857E+02
  0
VERTEX
  8
0
 62
4
 10
-8.04934288E+01
 20
1.24353504E+02
  0
VERTEX
  8
0
 62
4
 10
-8.01993422E+01
 20
1.24433433E+02
  0
VERTEX
  8
0
 62
4
 10
-7.99137149E+01
 20
1.24539003E+02
  0
VERTEX
  8
0
 62
4
 10
-7.96388466E+01
 20
1.24669361E+02
  0
VERTEX
  8
0
 62
4
 10
-7.93769503E+01
 20
1.24823460E+02
  0
VERTEX
  8
0
 62
4
 10
-7.91301347E+01
 20
1.25000057E+02
  0
VERTEX
  8
0
 62
4
 10
-7.89003870E+01
 20
1.25197732E+02
  0
VERTEX
  8
0
 62
4
 10
-7.86895570E+01
 20
1.25414893E+02
  0
VERTEX
  8
0
 62
4
 10
-7.84993422E+01
 20
1.25649791E+02
  0
VERTEX
  8
0
 62
4
 10
-7.83312741E+01
 20
1.25900536E+02
  0
VERTEX
  8
0
 62
4
 10
-7.81867058E+01
 20
1.26165107E+02
  0
VERTEX
  8
0
 62
4
 10
-7.80668014E+01
 20
1.26441375E+02
  0
VERTEX
  8
0
 62
4
 10
-7.79725263E+01
 20
1.26727116E+02
  0
VERTEX
  8
0
 62
4
 10
-7.79046394E+01
 20
1.27020030E+02
  0
VERTEX
  8
0
 62
4
 10
-7.78636874E+01
 20
1.27317757E+02
  0
VERTEX
  8
0
 62
4
 10
-7.78500000E+01
 20
1.27617900E+02
  0
SEQEND
  8
0
  0
LINE
  8
0
 62
4
 10
-8.46500000E+01
 20
1.27617900E+02
 11
-8.46500000E+01
 21
1.27814262E+02
  0
LINE
  8
0
 62
4
 10
-7.74500000E+01
 20
1.27444252E+02
 11
-7.74500000E+01
 21
1.27617900E+02
  0
POLYLINE
  8
0
 62
4
 66
1
  0
VERTEX
  8
0
 62
4
 10
-8.50500000E+01
 20
1.27617900E+02
  0
VERTEX
  8
0
 62
4
 10
-8.50355399E+01
 20
1.27291740E+02
  0
VERTEX
  8
0
 62
4
 10
-8.49922695E+01
 20
1.26968062E+02
  0
VERTEX
  8
0
 62
4
 10
-8.49205182E+01
 20
1.26649329E+02
  0
VERTEX
  8
0
 62
4
 10
-8.48208320E+01
 20
1.26337968E+02
  0
VERTEX
  8
0
 62
4
 10
-8.46939696E+01
 20
1.26036349E+02
  0
VERTEX
  8
0
 62
4
 10
-8.45408966E+01
 20
1.25746765E+02
  0
VERTEX
  8
0
 62
4
 10
-8.43627778E+01
 20
1.25471422E+02
  0
VERTEX
  8
0
 62
4
 10
-8.41609689E+01
 20
1.25212416E+02
  0
VERTEX
  8
0
 62
4
 10
-8.39370058E+01
 20
1.24971716E+02
  0
VERTEX
  8
0
 62
4
 10
-8.36925929E+01
 20
1.24751155E+02
  0
VERTEX
  8
0
 62
4
 10
-8.34295905E+01
 20
1.24552412E+02
  0
VERTEX
  8
0
 62
4
 10
-8.31500000E+01
 20
1.24377000E+02
  0
VERTEX
  8
0
 62
4
 10
-8.28559494E+01
 20
1.24226252E+02
  0
VERTEX
  8
0
 62
4
 10
-8.25496766E+01
 20
1.24101317E+02
  0
VERTEX
  8
0
 62
4
 10
-8.22335124E+01
 20
1.24003145E+02
  0
VERTEX
  8
0
 62
4
 10
-8.19098631E+01
 20
1.23932484E+02
  0
VERTEX
  8
0
 62
4
 10
-8.15811918E+01
 20
1.23889871E+02
  0
VERTEX
  8
0
 62
4
 10
-8.12500000E+01
 20
1.23875631E+02
  0
VERTEX
  8
0
 62
4
 10
-8.09188082E+01
 20
1.23889871E+02
  0
VERTEX
  8
0
 62
4
 10
-8.05901369E+01
 20
1.23932484E+02
  0
VERTEX
  8
0
 62
4
 10
-8.02664876E+01
 20
1.24003145E+02
  0
VERTEX
  8
0
 62
4
 10
-7.99503235E+01
 20
1.24101317E+02
  0
VERTEX
  8
0
 62
4
 10
-7.96440506E+01
 20
1.24226252E+02
  0
VERTEX
  8
0
 62
4
 10
-7.93500000E+01
 20
1.24377000E+02
  0
VERTEX
  8
0
 62
4
 10
-7.90704095E+01
 20
1.24552412E+02
  0
VERTEX
  8
0
 62
4
 10
-7.88074071E+01
 20
1.24751155E+02
  0
VERTEX
  8
0
 62
4
 10
-7.85629942E+01
 20
1.24971716E+02
  0
VERTEX
  8
0
 62
4
 10
-7.83390311E+01
 20
1.25212416E+02
  0
VERTEX
  8
0
 62
4
 10
-7.81372222E+01
 20
1.25471422E+02
  0
VERTEX
  8
0
 62
4
 10
-7.79591034E+01
 20
1.25746765E+02
  0
VERTEX
  8
0
 62
4
 10
-7.78060304E+01
 20
1.26036349E+02
  0
VERTEX
  8
0
 62
4
 10
-7.76791680E+01
 20
1.26337968E+02
  0
VERTEX
  8
0
 62
4
 10
-7.75794818E+01
 20
1.26649329E+02
  0
VERTEX
  8
0
 62
4
 10
-7.75077305E+01
 20
1.26968062E+02
  0
VERTEX
  8
0
 62
4
 10
-7.74644601E+01
 20
1.27291740E+02
  0
VERTEX
  8
0
 62
4
 10
-7.74500000E+01
 20
1.27617900E+02
  0
VERTEX
  8
0
 62
4
 10
-7.74644601E+01
 20
1.27944060E+02
  0
VERTEX
  8
0
 62
4
 10
-7.75077305E+01
 20
1.28267738E+02
  0
VERTEX
  8
0
 62
4
 10
-7.75794818E+01
 20
1.28586471E+02
  0
VERTEX
  8
0
 62
4
 10
-7.76791680E+01
 20
1.28897832E+02
  0
VERTEX
  8
0
 62
4
 10
-7.78060304E+01
 20
1.29199451E+02
  0
VERTEX
  8
0
 62
4
 10
-7.79591034E+01
 20
1.29489035E+02
  0
VERTEX
  8
0
 62
4
 10
-7.81372222E+01
 20
1.29764378E+02
  0
VERTEX
  8
0
 62
4
 10
-7.83390311E+01
 20
1.30023384E+02
  0
VERTEX
  8
0
 62
4
 10
-7.85629942E+01
 20
1.30264084E+02
  0
VERTEX
  8
0
 62
4
 10
-7.88074071E+01
 20
1.30484645E+02
  0
VERTEX
  8
0
 62
4
 10
-7.90704095E+01
 20
1.30683388E+02
  0
VERTEX
  8
0
 62
4
 10
-7.93500000E+01
 20
1.30858800E+02
  0
VERTEX
  8
0
 62
4
 10
-7.96440506E+01
 20
1.31009548E+02
  0
VERTEX
  8
0
 62
4
 10
-7.99503234E+01
 20
1.31134483E+02
  0
VERTEX
  8
0
 62
4
 10
-8.02664876E+01
 20
1.31232655E+02
  0
VERTEX
  8
0
 62
4
 10
-8.05901369E+01
 20
1.31303316E+02
  0
VERTEX
  8
0
 62
4
 10
-8.09188082E+01
 20
1.31345929E+02
  0
VERTEX
  8
0
 62
4
 10
-8.12500000E+01
 20
1.31360169E+02
  0
VERTEX
  8
0
 62
4
 10
-8.15811918E+01
 20
1.31345929E+02
  0
VERTEX
  8
0
 62
4
 10
-8.19098631E+01
 20
1.31303316E+02
  0
VERTEX
  8
0
 62
4
 10
-8.22335124E+01
 20
1.31232655E+02
  0
VERTEX
  8
0
 62
4
 10
-8.25496766E+01
 20
1.31134483E+02
  0
VERTEX
  8
0
 62
4
 10
-8.28559494E+01
 20
1.31009548E+02
  0
VERTEX
  8
0
 62
4
 10
-8.31500000E+01
 20
1.30858800E+02
  0
VERTEX
  8
0
 62
4
 10
-8.34295905E+01
 20
1.30683388E+02
  0
VERTEX
  8
0
 62
4
 10
-8.36925929E+01
 20
1.30484645E+02
  0
VERTEX
  8
0
 62
4
 10
-8.39370058E+01
 20
1.30264084E+02
  0
VERTEX
  8
0
 62
4
 10
-8.41609689E+01
 20
1.30023384E+02
  0
VERTEX
  8
0
 62
4
 10
-8.43627778E+01
 20
1.29764378E+02
  0
VERTEX
  8
0
 62
4
 10
-8.45408966E+01
 20
1.29489035E+02
  0
VERTEX
  8
0
 62
4
 10
-8.46939696E+01
 20
1.29199451E+02
  0
VERTEX
  8
0
 62
4
 10
-8.48208320E+01
 20
1.28897832E+02
  0
VERTEX
  8
0
 62
4
 10
-8.49205182E+01
 20
1.28586471E+02
  0
VERTEX
  8
0
 62
4
 10
-8.49922695E+01
 20
1.28267738E+02
  0
VERTEX
  8
0
 62
4
 10
-8.50355399E+01
 20
1.27944060E+02
  0
VERTEX
  8
0
 62
4
 10
-8.50500000E+01
 20
1.27617900E+02
  0
SEQEND
  8
0
  0
POLYLINE
  8
0
 62
4
 66
1
  0
VERTEX
  8
0
 62
4
 10
-8.50500000E+01
 20
1.27444252E+02
  0
VERTEX
  8
0
 62
4
 10
-8.50347023E+01
 20
1.27108798E+02
  0
VERTEX
  8
0
 62
4
 10
-8.49889325E+01
 20
1.26776044E+02
  0
VERTEX
  8
0
 62
4
 10
-8.49130589E+01
 20
1.26448670E+02
  0
VERTEX
  8
0
 62
4
 10
-8.48076925E+01
 20
1.26129313E+02
  0
VERTEX
  8
0
 62
4
 10
-8.46736817E+01
 20
1.25820542E+02
  0
VERTEX
  8
0
 62
4
 10
-8.45121054E+01
 20
1.25524845E+02
  0
VERTEX
  8
0
 62
4
 10
-8.43242646E+01
 20
1.25244601E+02
  0
VERTEX
  8
0
 62
4
 10
-8.41116716E+01
 20
1.24982068E+02
  0
VERTEX
  8
0
 62
4
 10
-8.38760381E+01
 20
1.24739359E+02
  0
VERTEX
  8
0
 62
4
 10
-8.36192613E+01
 20
1.24518428E+02
  0
VERTEX
  8
0
 62
4
 10
-8.33434086E+01
 20
1.24321054E+02
  0
VERTEX
  8
0
 62
4
 10
-8.30507009E+01
 20
1.24148826E+02
  0
VERTEX
  8
0
 62
4
 10
-8.27434951E+01
 20
1.24003131E+02
  0
VERTEX
  8
0
 62
4
 10
-8.24242646E+01
 20
1.23885142E+02
  0
VERTEX
  8
0
 62
4
 10
-8.20955796E+01
 20
1.23795809E+02
  0
VERTEX
  8
0
 62
4
 10
-8.17600864E+01
 20
1.23735851E+02
  0
VERTEX
  8
0
 62
4
 10
-8.14204864E+01
 20
1.23705751E+02
  0
VERTEX
  8
0
 62
4
 10
-8.10795137E+01
 20
1.23705751E+02
  0
VERTEX
  8
0
 62
4
 10
-8.07399136E+01
 20
1.23735851E+02
  0
VERTEX
  8
0
 62
4
 10
-8.04044205E+01
 20
1.23795809E+02
  0
VERTEX
  8
0
 62
4
 10
-8.00757354E+01
 20
1.23885142E+02
  0
VERTEX
  8
0
 62
4
 10
-7.97565049E+01
 20
1.24003131E+02
  0
VERTEX
  8
0
 62
4
 10
-7.94492991E+01
 20
1.24148826E+02
  0
VERTEX
  8
0
 62
4
 10
-7.91565915E+01
 20
1.24321054E+02
  0
VERTEX
  8
0
 62
4
 10
-7.88807388E+01
 20
1.24518428E+02
  0
VERTEX
  8
0
 62
4
 10
-7.86239619E+01
 20
1.24739359E+02
  0
VERTEX
  8
0
 62
4
 10
-7.83883284E+01
 20
1.24982068E+02
  0
VERTEX
  8
0
 62
4
 10
-7.81757354E+01
 20
1.25244601E+02
  0
VERTEX
  8
0
 62
4
 10
-7.79878946E+01
 20
1.25524845E+02
  0
VERTEX
  8
0
 62
4
 10
-7.78263183E+01
 20
1.25820542E+02
  0
VERTEX
  8
0
 62
4
 10
-7.76923075E+01
 20
1.26129313E+02
  0
VERTEX
  8
0
 62
4
 10
-7.75869411E+01
 20
1.26448670E+02
  0
VERTEX
  8
0
 62
4
 10
-7.75110675E+01
 20
1.26776044E+02
  0
VERTEX
  8
0
 62
4
 10
-7.74652977E+01
 20
1.27108798E+02
  0
VERTEX
  8
0
 62
4
 10
-7.74500000E+01
 20
1.27444252E+02
  0
SEQEND
  8
0
  0
LINE
  8
0
 62
4
 10
-8.50500000E+01
 20
1.27444252E+02
 11
-8.50500000E+01
 21
1.27617900E+02
  0
ARC
  8
0
 62
4
 10
-2.21122535E+02
 20
-9.93016770E+00
 40
1.88657692E+02
 50
4.46816411E+01
 51
4.61887918E+01
  0
ARC
  8
0
 62
4
 10
4.36228232E+01
 20
-9.93046072E+00
 40
1.88658103E+02
 50
1.33811210E+02
 51
1.35318357E+02
  0
LINE
  8
0
 62
4
 10
-8.46000000E+01
 20
1.24063411E+02
 11
-8.46000000E+01
 21
1.24369032E+02
  0
LINE
  8
0
 62
4
 10
-9.29000000E+01
 20
1.24063411E+02
 11
-9.29000000E+01
 21
1.24369032E+02
  0
POLYLINE
  8
0
 62
4
 66
1
  0
VERTEX
  8
0
 62
4
 10
-8.46000000E+01
 20
1.24369032E+02
  0
VERTEX
  8
0
 62
4
 10
-8.46157920E+01
 20
1.24725233E+02
  0
VERTEX
  8
0
 62
4
 10
-8.46630478E+01
 20
1.25078724E+02
  0
VERTEX
  8
0
 62
4
 10
-8.47414078E+01
 20
1.25426813E+02
  0
VERTEX
  8
0
 62
4
 10
-8.48502756E+01
 20
1.25766852E+02
  0
VERTEX
  8
0
 62
4
 10
-8.49888227E+01
 20
1.26096253E+02
  0
VERTEX
  8
0
 62
4
 10
-8.51559946E+01
 20
1.26412508E+02
  0
VERTEX
  8
0
 62
4
 10
-8.53505190E+01
 20
1.26713211E+02
  0
VERTEX
  8
0
 62
4
 10
-8.55709156E+01
 20
1.26996074E+02
  0
VERTEX
  8
0
 62
4
 10
-8.58155069E+01
 20
1.27258944E+02
  0
VERTEX
  8
0
 62
4
 10
-8.60824314E+01
 20
1.27499819E+02
  0
VERTEX
  8
0
 62
4
 10
-8.63696578E+01
 20
1.27716867E+02
  0
VERTEX
  8
0
 62
4
 10
-8.66750000E+01
 20
1.27908436E+02
  0
VERTEX
  8
0
 62
4
 10
-8.69961342E+01
 20
1.28073069E+02
  0
VERTEX
  8
0
 62
4
 10
-8.73306164E+01
 20
1.28209511E+02
  0
VERTEX
  8
0
 62
4
 10
-8.76759010E+01
 20
1.28316725E+02
  0
VERTEX
  8
0
 62
4
 10
-8.80293601E+01
 20
1.28393894E+02
  0
VERTEX
  8
0
 62
4
 10
-8.83883037E+01
 20
1.28440432E+02
  0
VERTEX
  8
0
 62
4
 10
-8.87500000E+01
 20
1.28455984E+02
  0
VERTEX
  8
0
 62
4
 10
-8.91116963E+01
 20
1.28440432E+02
  0
VERTEX
  8
0
 62
4
 10
-8.94706399E+01
 20
1.28393894E+02
  0
VERTEX
  8
0
 62
4
 10
-8.98240990E+01
 20
1.28316725E+02
  0
VERTEX
  8
0
 62
4
 10
-9.01693836E+01
 20
1.28209511E+02
  0
VERTEX
  8
0
 62
4
 10
-9.05038658E+01
 20
1.28073069E+02
  0
VERTEX
  8
0
 62
4
 10
-9.08250000E+01
 20
1.27908436E+02
  0
VERTEX
  8
0
 62
4
 10
-9.11303422E+01
 20
1.27716867E+02
  0
VERTEX
  8
0
 62
4
 10
-9.14175686E+01
 20
1.27499819E+02
  0
VERTEX
  8
0
 62
4
 10
-9.16844931E+01
 20
1.27258944E+02
  0
VERTEX
  8
0
 62
4
 10
-9.19290844E+01
 20
1.26996074E+02
  0
VERTEX
  8
0
 62
4
 10
-9.21494810E+01
 20
1.26713211E+02
  0
VERTEX
  8
0
 62
4
 10
-9.23440054E+01
 20
1.26412508E+02
  0
VERTEX
  8
0
 62
4
 10
-9.25111773E+01
 20
1.26096253E+02
  0
VERTEX
  8
0
 62
4
 10
-9.26497244E+01
 20
1.25766852E+02
  0
VERTEX
  8
0
 62
4
 10
-9.27585922E+01
 20
1.25426813E+02
  0
VERTEX
  8
0
 62
4
 10
-9.28369522E+01
 20
1.25078724E+02
  0
VERTEX
  8
0
 62
4
 10
-9.28842080E+01
 20
1.24725233E+02
  0
VERTEX
  8
0
 62
4
 10
-9.29000000E+01
 20
1.24369032E+02
  0
VERTEX
  8
0
 62
4
 10
-9.28842080E+01
 20
1.24012831E+02
  0
VERTEX
  8
0
 62
4
 10
-9.28369522E+01
 20
1.23659340E+02
  0
VERTEX
  8
0
 62
4
 10
-9.27585922E+01
 20
1.23311251E+02
  0
VERTEX
  8
0
 62
4
 10
-9.26497244E+01
 20
1.22971212E+02
  0
VERTEX
  8
0
 62
4
 10
-9.25111773E+01
 20
1.22641811E+02
  0
VERTEX
  8
0
 62
4
 10
-9.23440054E+01
 20
1.22325556E+02
  0
VERTEX
  8
0
 62
4
 10
-9.21494810E+01
 20
1.22024853E+02
  0
VERTEX
  8
0
 62
4
 10
-9.19290844E+01
 20
1.21741990E+02
  0
VERTEX
  8
0
 62
4
 10
-9.16844931E+01
 20
1.21479120E+02
  0
VERTEX
  8
0
 62
4
 10
-9.14175686E+01
 20
1.21238245E+02
  0
VERTEX
  8
0
 62
4
 10
-9.11303422E+01
 20
1.21021197E+02
  0
VERTEX
  8
0
 62
4
 10
-9.08250000E+01
 20
1.20829628E+02
  0
VERTEX
  8
0
 62
4
 10
-9.05038658E+01
 20
1.20664995E+02
  0
VERTEX
  8
0
 62
4
 10
-9.01693836E+01
 20
1.20528553E+02
  0
VERTEX
  8
0
 62
4
 10
-8.98240990E+01
 20
1.20421339E+02
  0
VERTEX
  8
0
 62
4
 10
-8.94706399E+01
 20
1.20344170E+02
  0
VERTEX
  8
0
 62
4
 10
-8.91116963E+01
 20
1.20297632E+02
  0
VERTEX
  8
0
 62
4
 10
-8.87500000E+01
 20
1.20282080E+02
  0
VERTEX
  8
0
 62
4
 10
-8.83883037E+01
 20
1.20297632E+02
  0
VERTEX
  8
0
 62
4
 10
-8.80293601E+01
 20
1.20344170E+02
  0
VERTEX
  8
0
 62
4
 10
-8.76759010E+01
 20
1.20421339E+02
  0
VERTEX
  8
0
 62
4
 10
-8.73306164E+01
 20
1.20528553E+02
  0
VERTEX
  8
0
 62
4
 10
-8.69961342E+01
 20
1.20664995E+02
  0
VERTEX
  8
0
 62
4
 10
-8.66750000E+01
 20
1.20829628E+02
  0
VERTEX
  8
0
 62
4
 10
-8.63696578E+01
 20
1.21021197E+02
  0
VERTEX
  8
0
 62
4
 10
-8.60824314E+01
 20
1.21238245E+02
  0
VERTEX
  8
0
 62
4
 10
-8.58155069E+01
 20
1.21479120E+02
  0
VERTEX
  8
0
 62
4
 10
-8.55709156E+01
 20
1.21741990E+02
  0
VERTEX
  8
0
 62
4
 10
-8.53505190E+01
 20
1.22024853E+02
  0
VERTEX
  8
0
 62
4
 10
-8.51559946E+01
 20
1.22325556E+02
  0
VERTEX
  8
0
 62
4
 10
-8.49888227E+01
 20
1.22641811E+02
  0
VERTEX
  8
0
 62
4
 10
-8.48502756E+01
 20
1.22971212E+02
  0
VERTEX
  8
0
 62
4
 10
-8.47414078E+01
 20
1.23311251E+02
  0
VERTEX
  8
0
 62
4
 10
-8.46630478E+01
 20
1.23659340E+02
  0
VERTEX
  8
0
 62
4
 10
-8.46157920E+01
 20
1.24012831E+02
  0
VERTEX
  8
0
 62
4
 10
-8.46000000E+01
 20
1.24369032E+02
  0
SEQEND
  8
0
  0
POLYLINE
  8
0
 62
4
 66
1
  0
VERTEX
  8
0
 62
4
 10
-9.29000000E+01
 20
1.24063411E+02
  0
VERTEX
  8
0
 62
4
 10
-9.28832933E+01
 20
1.23697059E+02
  0
VERTEX
  8
0
 62
4
 10
-9.28333078E+01
 20
1.23333658E+02
  0
VERTEX
  8
0
 62
4
 10
-9.27504459E+01
 20
1.22976131E+02
  0
VERTEX
  8
0
 62
4
 10
-9.26353747E+01
 20
1.22627359E+02
  0
VERTEX
  8
0
 62
4
 10
-9.24890208E+01
 20
1.22290149E+02
  0
VERTEX
  8
0
 62
4
 10
-9.23125625E+01
 20
1.21967216E+02
  0
VERTEX
  8
0
 62
4
 10
-9.21074205E+01
 20
1.21661161E+02
  0
VERTEX
  8
0
 62
4
 10
-9.18752466E+01
 20
1.21374447E+02
  0
VERTEX
  8
0
 62
4
 10
-9.16179100E+01
 20
1.21109383E+02
  0
VERTEX
  8
0
 62
4
 10
-9.13374827E+01
 20
1.20868103E+02
  0
VERTEX
  8
0
 62
4
 10
-9.10362225E+01
 20
1.20652550E+02
  0
VERTEX
  8
0
 62
4
 10
-9.07165550E+01
 20
1.20464459E+02
  0
VERTEX
  8
0
 62
4
 10
-9.03810539E+01
 20
1.20305345E+02
  0
VERTEX
  8
0
 62
4
 10
-9.00324205E+01
 20
1.20176489E+02
  0
VERTEX
  8
0
 62
4
 10
-8.96734619E+01
 20
1.20078927E+02
  0
VERTEX
  8
0
 62
4
 10
-8.93070681E+01
 20
1.20013447E+02
  0
VERTEX
  8
0
 62
4
 10
-8.89361891E+01
 20
1.19980574E+02
  0
VERTEX
  8
0
 62
4
 10
-8.85638110E+01
 20
1.19980574E+02
  0
VERTEX
  8
0
 62
4
 10
-8.81929320E+01
 20
1.20013447E+02
  0
VERTEX
  8
0
 62
4
 10
-8.78265381E+01
 20
1.20078927E+02
  0
VERTEX
  8
0
 62
4
 10
-8.74675795E+01
 20
1.20176488E+02
  0
VERTEX
  8
0
 62
4
 10
-8.71189461E+01
 20
1.20305345E+02
  0
VERTEX
  8
0
 62
4
 10
-8.67834451E+01
 20
1.20464459E+02
  0
VERTEX
  8
0
 62
4
 10
-8.64637775E+01
 20
1.20652550E+02
  0
VERTEX
  8
0
 62
4
 10
-8.61625173E+01
 20
1.20868103E+02
  0
VERTEX
  8
0
 62
4
 10
-8.58820900E+01
 20
1.21109383E+02
  0
VERTEX
  8
0
 62
4
 10
-8.56247534E+01
 20
1.21374447E+02
  0
VERTEX
  8
0
 62
4
 10
-8.53925795E+01
 20
1.21661161E+02
  0
VERTEX
  8
0
 62
4
 10
-8.51874375E+01
 20
1.21967216E+02
  0
VERTEX
  8
0
 62
4
 10
-8.50109792E+01
 20
1.22290149E+02
  0
VERTEX
  8
0
 62
4
 10
-8.48646253E+01
 20
1.22627359E+02
  0
VERTEX
  8
0
 62
4
 10
-8.47495541E+01
 20
1.22976131E+02
  0
VERTEX
  8
0
 62
4
 10
-8.46666922E+01
 20
1.23333657E+02
  0
VERTEX
  8
0
 62
4
 10
-8.46167067E+01
 20
1.23697059E+02
  0
VERTEX
  8
0
 62
4
 10
-8.46000000E+01
 20
1.24063411E+02
  0
SEQEND
  8
0
  0
LINE
  8
0
  6
CENTER
 62
6
 10
-9.62500000E+01
 20
1.29944252E+02
 11
-9.62500000E+01
 21
1.24944252E+02
  0
LINE
  8
0
  6
CENTER
 62
6
 10
-9.37500000E+01
 20
1.27444252E+02
 11
-9.87500000E+01
 21
1.27444252E+02
  0
LINE
  8
0
  6
CENTER
 62
6
 10
-8.87500000E+01
 20
1.26497425E+02
 11
-8.87500000E+01
 21
1.21497425E+02
  0
LINE
  8
0
  6
CENTER
 62
6
 10
-8.62500000E+01
 20
1.23997425E+02
 11
-9.12500000E+01
 21
1.23997425E+02
  0
LINE
  8
0
  6
CENTER
 62
6
 10
-8.12500000E+01
 20
1.29944252E+02
 11
-8.12500000E+01
 21
1.24944252E+02
  0
LINE
  8
0
  6
CENTER
 62
6
 10
-7.87500000E+01
 20
1.27444252E+02
 11
-8.37500000E+01
 21
1.27444252E+02
  0
LINE
  8
0
 62
4
 10
-8.54128770E+01
 20
1.21633887E+02
 11
-7.37500000E+01
 21
1.21633887E+02
  0
LINE
  8
0
 62
4
 10
-8.58127552E+01
 20
1.21176212E+02
 11
-8.02500000E+01
 21
1.21176212E+02
  0
LINE
  8
0
 62
4
 10
-1.47500000E+01
 20
1.21176212E+02
 11
-1.32500000E+01
 21
1.20168356E+02
  0
LINE
  8
0
 62
4
 10
-1.32500000E+01
 20
1.17937766E+02
 11
-1.47500000E+01
 21
1.17236981E+02
  0
LINE
  8
0
 62
4
 10
-1.32500000E+01
 20
1.17544453E+02
 11
-1.47500000E+01
 21
1.16542389E+02
  0
LINE
  8
0
 62
4
 10
-1.32500000E+01
 20
1.20168356E+02
 11
-1.32500000E+01
 21
1.17544453E+02
  0
LINE
  8
0
 62
7
 10
-4.47500000E+01
 20
1.14519443E+02
 11
-1.14750000E+02
 21
1.14519443E+02
  0
LINE
  8
0
 62
7
 10
-4.47500000E+01
 20
1.15369434E+02
 11
-1.14750000E+02
 21
1.15369434E+02
  0
LINE
  8
0
 62
7
 10
-4.47500000E+01
 20
1.09219456E+02
 11
-1.14750000E+02
 21
1.09219456E+02
  0
CIRCLE
  8
0
 62
7
 10
-2.74750000E+02
 20
1.11869465E+02
 40
2.45850000E+00
  0
CIRCLE
  8
0
 62
7
 10
-2.74749969E+02
 20
6.48694952E+01
 40
2.45850000E+00
  0
CIRCLE
  8
0
 62
7
 10
-3.21749939E+02
 20
6.48694647E+01
 40
2.45850000E+00
  0
CIRCLE
  8
0
 62
7
 10
-3.21749969E+02
 20
1.11869434E+02
 40
2.45850000E+00
  0
LINE
  8
0
 62
7
 10
-3.11614212E+02
 20
7.35912390E+01
 11
-3.15565772E+02
 21
6.96396801E+01
  0
LINE
  8
0
 62
7
 10
-3.13028437E+02
 20
7.50054419E+01
 11
-3.16979996E+02
 21
7.10538829E+01
  0
LINE
  8
0
 62
7
 10
-2.99250031E+02
 20
6.13694952E+01
 11
-2.99250031E+02
 21
6.84697149E+01
  0
LINE
  8
0
 62
7
 10
-2.84886002E+02
 20
1.03147994E+02
 11
-2.80934485E+02
 21
1.07099509E+02
  0
LINE
  8
0
 62
7
 10
-2.83471767E+02
 20
1.01733759E+02
 11
-2.79520250E+02
 21
1.05685274E+02
  0
LINE
  8
0
 62
7
 10
-2.71250031E+02
 20
8.93694494E+01
 11
-2.78350250E+02
 21
8.93694494E+01
  0
LINE
  8
0
 62
7
 10
-2.99249969E+02
 20
1.15369434E+02
 11
-2.99249969E+02
 21
1.08269184E+02
  0
LINE
  8
0
 62
7
 10
-2.97249969E+02
 20
1.15369434E+02
 11
-2.97249969E+02
 21
1.08269184E+02
  0
LINE
  8
0
 62
7
 10
-3.25749969E+02
 20
1.19369465E+02
 11
-2.70750031E+02
 21
1.19369465E+02
  0
LINE
  8
0
  6
CENTER
 62
2
 10
-3.21750031E+02
 20
5.52785070E+01
 11
-3.21750031E+02
 21
7.41650427E+01
  0
LINE
  8
0
  6
CENTER
 62
2
 10
-2.74749969E+02
 20
1.21847706E+02
 11
-2.74749969E+02
 21
1.02145084E+02
  0
LINE
  8
0
  6
CENTER
 62
2
 10
-2.64796844E+02
 20
1.11869434E+02
 11
-2.84499420E+02
 21
1.11869434E+02
  0
LINE
  8
0
 62
7
 10
-3.11614201E+02
 20
1.03147724E+02
 11
-3.15565782E+02
 21
1.07099305E+02
  0
LINE
  8
0
 62
7
 10
-3.13028415E+02
 20
1.01733511E+02
 11
-3.16979952E+02
 21
1.05685048E+02
  0
LINE
  8
0
 62
7
 10
-3.25249969E+02
 20
8.93694952E+01
 11
-3.18149750E+02
 21
8.93694952E+01
  0
LINE
  8
0
 62
7
 10
-3.25249969E+02
 20
8.73694952E+01
 11
-3.18149750E+02
 21
8.73694952E+01
  0
LINE
  8
0
 62
7
 10
-3.28749969E+02
 20
6.08694952E+01
 11
-3.28749969E+02
 21
1.15869434E+02
  0
LINE
  8
0
 62
7
 10
-3.25749969E+02
 20
1.18869465E+02
 11
-2.70750031E+02
 21
1.18869434E+02
  0
LINE
  8
0
 62
7
 10
-3.08781342E+02
 20
1.16369449E+02
 11
-2.87718597E+02
 21
1.16369449E+02
  0
LINE
  8
0
 62
7
 10
-3.26249969E+02
 20
7.78381079E+01
 11
-3.26249969E+02
 21
9.89008215E+01
  0
LINE
  8
0
 62
7
 10
-3.29249969E+02
 20
6.08694647E+01
 11
-3.29249969E+02
 21
1.15869434E+02
  0
LINE
  8
0
  6
CENTER
 62
2
 10
-3.21749969E+02
 20
1.21423145E+02
 11
-3.21749969E+02
 21
1.03985096E+02
  0
LINE
  8
0
 62
7
 10
-2.97250031E+02
 20
6.13694952E+01
 11
-2.97250031E+02
 21
6.84697149E+01
  0
LINE
  8
0
 62
7
 10
-2.83471663E+02
 20
7.50053934E+01
 11
-2.79520148E+02
 21
7.10538769E+01
  0
LINE
  8
0
 62
7
 10
-2.84885877E+02
 20
7.35911368E+01
 11
-2.80934340E+02
 21
6.96395988E+01
  0
LINE
  8
0
 62
7
 10
-2.71250031E+02
 20
8.73694647E+01
 11
-2.78350250E+02
 21
8.73694647E+01
  0
LINE
  8
0
 62
7
 10
-3.25749969E+02
 20
5.78695104E+01
 11
-2.70750031E+02
 21
5.78694799E+01
  0
LINE
  8
0
 62
7
 10
-2.67250031E+02
 20
6.08694952E+01
 11
-2.67250031E+02
 21
1.15869465E+02
  0
LINE
  8
0
 62
7
 10
-3.25749969E+02
 20
5.73694799E+01
 11
-2.70749969E+02
 21
5.73694799E+01
  0
LINE
  8
0
  6
CENTER
 62
2
 10
-2.98249969E+02
 20
1.23130115E+02
 11
-2.98249969E+02
 21
5.50425909E+01
  0
LINE
  8
0
  6
CENTER
 62
2
 10
-2.64563629E+02
 20
6.48694189E+01
 11
-2.84266266E+02
 21
6.48694189E+01
  0
LINE
  8
0
 62
7
 10
-2.70250031E+02
 20
7.78381079E+01
 11
-2.70250031E+02
 21
9.89008215E+01
  0
LINE
  8
0
 62
7
 10
-3.08781342E+02
 20
6.03694799E+01
 11
-2.87718597E+02
 21
6.03694799E+01
  0
LINE
  8
0
 62
7
 10
-2.76249969E+02
 20
1.19369465E+02
 11
-2.76249969E+02
 21
1.18869434E+02
  0
LINE
  8
0
 62
7
 10
-3.20249969E+02
 20
1.19369465E+02
 11
-3.20249969E+02
 21
1.18869465E+02
  0
LINE
  8
0
 62
7
 10
-3.20249969E+02
 20
5.78695104E+01
 11
-3.20249969E+02
 21
5.73694799E+01
  0
LINE
  8
0
 62
7
 10
-2.76249969E+02
 20
5.78694799E+01
 11
-2.76249969E+02
 21
5.73694799E+01
  0
LINE
  8
0
  6
CENTER
 62
2
 10
-2.74750031E+02
 20
5.52083929E+01
 11
-2.74750031E+02
 21
7.40654562E+01
  0
LINE
  8
0
 62
7
 10
-2.67750031E+02
 20
6.08694952E+01
 11
-2.67750031E+02
 21
1.15869434E+02
  0
LINE
  8
0
 62
7
 10
-3.22749969E+02
 20
1.04118061E+02
 11
-3.22749969E+02
 21
1.02869449E+02
  0
LINE
  8
0
 62
7
 10
-3.13998383E+02
 20
1.12869510E+02
 11
-3.12749969E+02
 21
1.12869510E+02
  0
LINE
  8
0
 62
7
 10
-2.82501251E+02
 20
1.12869434E+02
 11
-2.83749969E+02
 21
1.12869434E+02
  0
LINE
  8
0
 62
7
 10
-2.73749969E+02
 20
1.04117817E+02
 11
-2.73749969E+02
 21
1.02869449E+02
  0
LINE
  8
0
 62
7
 10
-3.22750031E+02
 20
7.26212347E+01
 11
-3.22750031E+02
 21
7.38694799E+01
  0
LINE
  8
0
 62
7
 10
-3.13998749E+02
 20
6.38695104E+01
 11
-3.12749969E+02
 21
6.38695104E+01
  0
LINE
  8
0
 62
7
 10
-2.82501556E+02
 20
6.38694189E+01
 11
-2.83749969E+02
 21
6.38694189E+01
  0
LINE
  8
0
 62
7
 10
-2.73750031E+02
 20
7.26207464E+01
 11
-2.73750031E+02
 21
7.38694799E+01
  0
LINE
  8
0
  6
CENTER
 62
2
 10
-2.63602081E+02
 20
8.83694647E+01
 11
-3.32765045E+02
 21
8.83694647E+01
  0
LINE
  8
0
  6
CENTER
 62
2
 10
-3.12362885E+02
 20
1.11869434E+02
 11
-3.31482574E+02
 21
1.11869434E+02
  0
LINE
  8
0
  6
CENTER
 62
2
 10
-3.12712677E+02
 20
6.48694189E+01
 11
-3.31482574E+02
 21
6.48694189E+01
  0
LINE
  8
0
  6
CENTER
 62
2
 10
-3.05250092E+02
 20
1.21554523E+02
 11
-3.05250092E+02
 21
1.09669254E+02
  0
ARC
  8
0
 62
7
 10
-3.13735443E+02
 20
7.57124212E+01
 40
1.00000000E+00
 50
3.14999968E+02
 51
3.92609655E+01
  0
ARC
  8
0
 62
7
 10
-3.10907013E+02
 20
7.28839910E+01
 40
1.00000000E+00
 50
5.07389892E+01
 51
1.34999987E+02
  0
ARC
  8
0
 62
7
 10
-2.82764496E+02
 20
1.01026508E+02
 40
1.00000000E+00
 50
1.34999959E+02
 51
2.19260957E+02
  0
ARC
  8
0
 62
7
 10
-2.85592926E+02
 20
1.03854938E+02
 40
1.00000000E+00
 50
2.30738998E+02
 51
3.14999995E+02
  0
ARC
  8
0
 62
7
 10
-2.78350250E+02
 20
9.03694494E+01
 40
1.00000000E+00
 50
1.85739458E+02
 51
2.69999963E+02
  0
ARC
  8
0
 62
7
 10
-2.71250031E+02
 20
9.03694647E+01
 40
1.00000000E+00
 50
2.69999963E+02
 51
0.00000000E+00
  0
ARC
  8
0
 62
7
 10
-2.70750031E+02
 20
1.15869434E+02
 40
3.00000000E+00
 50
0.00000000E+00
 51
8.99999818E+01
  0
ARC
  8
0
 62
7
 10
-2.96249969E+02
 20
1.15369434E+02
 40
1.00000000E+00
 50
8.99999818E+01
 51
1.79999964E+02
  0
ARC
  8
0
 62
7
 10
-2.96249969E+02
 20
1.08269184E+02
 40
1.00000000E+00
 50
1.79999964E+02
 51
2.64260484E+02
  0
CIRCLE
  8
0
 62
7
 10
-2.74749969E+02
 20
1.11869434E+02
 40
5.00000000E+00
  0
ARC
  8
0
 62
7
 10
-2.78812958E+02
 20
1.04978016E+02
 40
1.00000000E+00
 50
5.94777518E+01
 51
1.34999345E+02
  0
ARC
  8
0
 62
7
 10
-2.81641388E+02
 20
1.07806415E+02
 40
1.00000000E+00
 50
3.15000624E+02
 51
3.05224488E+01
  0
ARC
  8
0
 62
7
 10
-3.25749969E+02
 20
6.08694952E+01
 40
3.00000000E+00
 50
1.80000036E+02
 51
2.69999991E+02
  0
ARC
  8
0
 62
7
 10
-3.00249969E+02
 20
6.13694952E+01
 40
1.00000000E+00
 50
2.69999991E+02
 51
3.59999973E+02
  0
ARC
  8
0
 62
7
 10
-3.00249969E+02
 20
6.84697454E+01
 40
1.00000000E+00
 50
3.59999973E+02
 51
8.42604992E+01
  0
CIRCLE
  8
0
 62
7
 10
-3.21750031E+02
 20
6.48694952E+01
 40
5.00000000E+00
  0
ARC
  8
0
 62
7
 10
-3.17686981E+02
 20
7.17609136E+01
 40
1.00000000E+00
 50
2.39477760E+02
 51
3.14999353E+02
  0
ARC
  8
0
 62
7
 10
-3.14858551E+02
 20
6.89325140E+01
 40
1.00000000E+00
 50
1.35000615E+02
 51
2.10522426E+02
  0
ARC
  8
0
 62
7
 10
-2.70750031E+02
 20
1.15869465E+02
 40
3.50000000E+00
 50
0.00000000E+00
 51
8.99999818E+01
  0
CIRCLE
  8
0
 62
7
 10
-2.74749969E+02
 20
1.11869434E+02
 40
4.50000000E+00
  0
ARC
  8
0
 62
7
 10
-3.25749969E+02
 20
6.08694647E+01
 40
3.50000000E+00
 50
1.80000036E+02
 51
2.69999991E+02
  0
CIRCLE
  8
0
 62
7
 10
-3.21750031E+02
 20
6.48694952E+01
 40
4.50000000E+00
  0
ARC
  8
0
 62
7
 10
-2.71250031E+02
 20
9.89008215E+01
 40
1.00000000E+00
 50
0.00000000E+00
 51
8.28191923E+01
  0
ARC
  8
0
 62
7
 10
-2.70750031E+02
 20
1.02869449E+02
 40
3.00000000E+00
 50
1.79999981E+02
 51
2.62819221E+02
  0
ARC
  8
0
 62
7
 10
-2.74718658E+02
 20
1.03869541E+02
 40
1.00000000E+00
 50
7.17896597E+00
 51
9.02255215E+01
  0
ARC
  8
0
 62
7
 10
-2.74750031E+02
 20
1.11869480E+02
 40
7.00000000E+00
 50
1.79775278E+02
 51
2.70224550E+02
  0
ARC
  8
0
 62
7
 10
-2.82749969E+02
 20
1.11900852E+02
 40
1.00000000E+00
 50
3.59775314E+02
 51
8.28191923E+01
  0
ARC
  8
0
 62
7
 10
-2.83749969E+02
 20
1.15869480E+02
 40
3.00000000E+00
 50
1.87181024E+02
 51
2.70000018E+02
  0
ARC
  8
0
 62
7
 10
-2.87718597E+02
 20
1.15369449E+02
 40
1.00000000E+00
 50
7.18156141E+00
 51
8.99999818E+01
  0
ARC
  8
0
 62
7
 10
-3.25249969E+02
 20
7.78381079E+01
 40
1.00000000E+00
 50
1.80000036E+02
 51
2.62819228E+02
  0
ARC
  8
0
 62
7
 10
-3.25749969E+02
 20
7.38694799E+01
 40
3.00000000E+00
 50
0.00000000E+00
 51
8.28192405E+01
  0
ARC
  8
0
 62
7
 10
-3.21781342E+02
 20
7.28693884E+01
 40
1.00000000E+00
 50
1.87179002E+02
 51
2.70225557E+02
  0
ARC
  8
0
 62
7
 10
-3.21749969E+02
 20
6.48694494E+01
 40
7.00000000E+00
 50
3.59775313E+02
 51
9.02245790E+01
  0
ARC
  8
0
 62
7
 10
-3.13750031E+02
 20
6.48380773E+01
 40
1.00000000E+00
 50
1.79775333E+02
 51
2.62819204E+02
  0
ARC
  8
0
 62
7
 10
-3.12749969E+02
 20
6.08694494E+01
 40
3.00000000E+00
 50
7.18104317E+00
 51
8.99999818E+01
  0
ARC
  8
0
 62
7
 10
-3.08781342E+02
 20
6.13694799E+01
 40
1.00000000E+00
 50
1.87181597E+02
 51
2.70000018E+02
  0
ARC
  8
0
 62
7
 10
-3.13735443E+02
 20
1.01026493E+02
 40
1.00000000E+00
 50
3.20738994E+02
 51
4.49999910E+01
  0
ARC
  8
0
 62
7
 10
-3.10907013E+02
 20
1.03854923E+02
 40
1.00000000E+00
 50
2.24999972E+02
 51
3.09260983E+02
  0
ARC
  8
0
 62
7
 10
-3.18149750E+02
 20
9.03694647E+01
 40
1.00000000E+00
 50
2.69999963E+02
 51
3.54260510E+02
  0
ARC
  8
0
 62
7
 10
-3.18149750E+02
 20
8.63694647E+01
 40
1.00000000E+00
 50
5.73944893E+00
 51
8.99999549E+01
  0
CIRCLE
  8
0
 62
7
 10
-3.21749969E+02
 20
1.11869480E+02
 40
5.00000000E+00
  0
ARC
  8
0
 62
7
 10
-3.14858551E+02
 20
1.07806461E+02
 40
1.00000000E+00
 50
1.49477747E+02
 51
2.24999340E+02
  0
ARC
  8
0
 62
7
 10
-3.00249969E+02
 20
1.15369434E+02
 40
1.00000000E+00
 50
3.59999959E+02
 51
8.99999956E+01
  0
ARC
  8
0
 62
7
 10
-3.00249969E+02
 20
1.08269184E+02
 40
1.00000000E+00
 50
2.75739617E+02
 51
3.59999959E+02
  0
ARC
  8
0
 62
7
 10
-3.25249969E+02
 20
9.03694647E+01
 40
1.00000000E+00
 50
1.79999964E+02
 51
2.69999946E+02
  0
ARC
  8
0
 62
7
 10
-3.21749969E+02
 20
1.11869480E+02
 40
7.00000000E+00
 50
2.69775421E+02
 51
2.24686703E-01
  0
ARC
  8
0
 62
7
 10
-3.17686920E+02
 20
1.04978031E+02
 40
1.00000000E+00
 50
4.50006194E+01
 51
1.20522431E+02
  0
ARC
  8
0
 62
7
 10
-3.25749969E+02
 20
1.15869419E+02
 40
3.00000000E+00
 50
9.00000231E+01
 51
1.79999977E+02
  0
ARC
  8
0
 62
7
 10
-3.25249969E+02
 20
8.63694647E+01
 40
1.00000000E+00
 50
8.99999549E+01
 51
1.79999991E+02
  0
ARC
  8
0
 62
7
 10
-3.25749969E+02
 20
1.15869419E+02
 40
3.50000000E+00
 50
9.00000231E+01
 51
1.79999977E+02
  0
CIRCLE
  8
0
 62
7
 10
-3.21749969E+02
 20
1.11869480E+02
 40
4.50000000E+00
  0
ARC
  8
0
 62
7
 10
-3.25749969E+02
 20
1.02869449E+02
 40
3.00000000E+00
 50
2.77180753E+02
 51
0.00000000E+00
  0
ARC
  8
0
 62
7
 10
-3.12749969E+02
 20
1.15869480E+02
 40
3.00000000E+00
 50
2.70000018E+02
 51
3.52818957E+02
  0
ARC
  8
0
 62
7
 10
-3.08781342E+02
 20
1.15369449E+02
 40
1.00000000E+00
 50
8.99999818E+01
 51
1.72818402E+02
  0
ARC
  8
0
 62
7
 10
-3.13750031E+02
 20
1.11900852E+02
 40
1.00000000E+00
 50
9.71807714E+01
 51
1.80224650E+02
  0
ARC
  8
0
 62
7
 10
-3.21781342E+02
 20
1.03869541E+02
 40
1.00000000E+00
 50
8.97744422E+01
 51
1.72820998E+02
  0
ARC
  8
0
 62
7
 10
-3.25249969E+02
 20
9.89008215E+01
 40
1.00000000E+00
 50
9.71807714E+01
 51
1.79999964E+02
  0
ARC
  8
0
 62
7
 10
-2.96249969E+02
 20
6.84697149E+01
 40
1.00000000E+00
 50
9.57394445E+01
 51
1.79999951E+02
  0
ARC
  8
0
 62
7
 10
-2.85592926E+02
 20
7.28840063E+01
 40
1.00000000E+00
 50
4.49999637E+01
 51
1.29260961E+02
  0
ARC
  8
0
 62
7
 10
-2.82764496E+02
 20
7.57124365E+01
 40
1.00000000E+00
 50
1.40738985E+02
 51
2.24999982E+02
  0
ARC
  8
0
 62
7
 10
-2.78350250E+02
 20
8.63694647E+01
 40
1.00000000E+00
 50
8.99999681E+01
 51
1.74260502E+02
  0
ARC
  8
0
 62
7
 10
-2.96249969E+02
 20
6.13694952E+01
 40
1.00000000E+00
 50
1.79999951E+02
 51
2.70000001E+02
  0
ARC
  8
0
 62
7
 10
-2.70750031E+02
 20
6.08694952E+01
 40
3.00000000E+00
 50
2.70000018E+02
 51
3.59999986E+02
  0
ARC
  8
0
 62
7
 10
-2.71250031E+02
 20
8.63694647E+01
 40
1.00000000E+00
 50
3.59999986E+02
 51
8.99999681E+01
  0
CIRCLE
  8
0
 62
7
 10
-2.74750031E+02
 20
6.48694342E+01
 40
5.00000000E+00
  0
ARC
  8
0
 62
7
 10
-2.81641449E+02
 20
6.89324530E+01
 40
1.00000000E+00
 50
3.29477756E+02
 51
4.49993490E+01
  0
ARC
  8
0
 62
7
 10
-2.78813019E+02
 20
7.17608831E+01
 40
1.00000000E+00
 50
2.25000628E+02
 51
3.00522440E+02
  0
ARC
  8
0
 62
7
 10
-2.70749969E+02
 20
6.08694952E+01
 40
3.50000000E+00
 50
2.70000018E+02
 51
3.59999986E+02
  0
CIRCLE
  8
0
 62
7
 10
-2.74750031E+02
 20
6.48694342E+01
 40
4.50000000E+00
  0
ARC
  8
0
 62
7
 10
-2.87718597E+02
 20
6.13694799E+01
 40
1.00000000E+00
 50
2.70000018E+02
 51
3.52818438E+02
  0
ARC
  8
0
 62
7
 10
-2.83749969E+02
 20
6.08694494E+01
 40
3.00000000E+00
 50
8.99999818E+01
 51
1.72818977E+02
  0
ARC
  8
0
 62
7
 10
-2.82749969E+02
 20
6.48380773E+01
 40
1.00000000E+00
 50
2.77180808E+02
 51
2.24685903E-01
  0
ARC
  8
0
 62
7
 10
-2.74750031E+02
 20
6.48694494E+01
 40
7.00000000E+00
 50
8.97754328E+01
 51
1.80224705E+02
  0
ARC
  8
0
 62
7
 10
-2.74718658E+02
 20
7.28693884E+01
 40
1.00000000E+00
 50
2.69774478E+02
 51
3.52821034E+02
  0
ARC
  8
0
 62
7
 10
-2.70750031E+02
 20
7.38694799E+01
 40
3.00000000E+00
 50
9.71807782E+01
 51
1.79999964E+02
  0
ARC
  8
0
 62
7
 10
-2.71250031E+02
 20
7.78381079E+01
 40
1.00000000E+00
 50
2.77180808E+02
 51
0.00000000E+00
  0
CIRCLE
  8
0
 62
7
 10
-2.98249969E+02
 20
8.83694647E+01
 40
1.75294495E+01
  0
CIRCLE
  8
0
 62
7
 10
-2.98249969E+02
 20
8.83694647E+01
 40
1.90000000E+01
  0
CIRCLE
  8
0
 62
7
 10
-2.98249969E+02
 20
8.83694647E+01
 40
1.70000000E+01
  0
CIRCLE
  8
0
 62
2
 10
-3.21749969E+02
 20
1.11869434E+02
 40
3.00000000E+00
  0
CIRCLE
  8
0
 62
2
 10
-3.21750031E+02
 20
6.48694189E+01
 40
3.00000000E+00
  0
CIRCLE
  8
0
 62
2
 10
-2.74750031E+02
 20
6.48694189E+01
 40
3.00000000E+00
  0
CIRCLE
  8
0
 62
2
 10
-2.74749969E+02
 20
1.11869434E+02
 40
3.00000000E+00
  0
CIRCLE
  8
0
 62
7
 10
-2.98249969E+02
 20
8.83694647E+01
 40
8.99999237E+00
  0
CIRCLE
  8
0
 62
2
 10
-2.98249969E+02
 20
8.83694647E+01
 40
8.18000031E+00
  0
CIRCLE
  8
0
 62
7
 10
-2.98249969E+02
 20
8.83694647E+01
 40
7.49999237E+00
  0
CIRCLE
  8
0
 62
4
 10
-2.98249969E+02
 20
8.83694647E+01
 40
1.35000000E+01
  0
LINE
  8
0
 62
4
 10
-2.98249969E+02
 20
1.03957922E+02
 11
-3.11749969E+02
 21
9.61636933E+01
  0
LINE
  8
0
 62
4
 10
-3.11749969E+02
 20
9.61636933E+01
 11
-3.11749969E+02
 21
8.05752360E+01
  0
LINE
  8
0
 62
4
 10
-3.11749969E+02
 20
8.05752360E+01
 11
-2.98249969E+02
 21
7.27810074E+01
  0
LINE
  8
0
 62
4
 10
-2.98249969E+02
 20
7.27810074E+01
 11
-2.84749969E+02
 21
8.05752360E+01
  0
LINE
  8
0
 62
4
 10
-2.84749969E+02
 20
8.05752360E+01
 11
-2.84749969E+02
 21
9.61636933E+01
  0
LINE
  8
0
 62
4
 10
-2.84749969E+02
 20
9.61636933E+01
 11
-2.98249969E+02
 21
1.03957922E+02
  0
LINE
  8
0
  6
CENTER
 62
6
 10
-3.30783922E+02
 20
1.07382539E+02
 11
-3.23317918E+02
 21
1.08698997E+02
  0
LINE
  8
0
  6
CENTER
 62
6
 10
-3.06673287E+02
 20
1.19369465E+02
 11
-3.06062384E+02
 21
1.15904862E+02
  0
LINE
  8
0
 62
4
 10
-3.07825797E+02
 20
1.19369465E+02
 11
-3.07897308E+02
 21
1.19775027E+02
  0
LINE
  8
0
  6
CENTER
 62
6
 10
-2.89826652E+02
 20
1.19369465E+02
 11
-2.90437554E+02
 21
1.15904862E+02
  0
LINE
  8
0
  6
CENTER
 62
6
 10
-2.92809982E+02
 20
1.19369465E+02
 11
-2.92871033E+02
 21
1.19380230E+02
  0
LINE
  8
0
 62
4
 10
-2.67250031E+02
 20
1.14689286E+02
 11
-2.66597686E+02
 21
1.12896984E+02
  0
LINE
  8
0
 62
4
 10
-3.29249969E+02
 20
1.14689118E+02
 11
-3.29902253E+02
 21
1.12896984E+02
  0
LINE
  8
0
 62
4
 10
-2.91532981E+02
 20
1.20058179E+02
 11
-2.89449202E+02
 21
1.31875872E+02
  0
ARC
  8
0
 62
4
 10
-2.82055506E+02
 20
1.22440893E+02
 40
1.18100000E+01
 50
1.70000000E+02
 51
1.90532699E+02
  0
ARC
  8
0
 62
4
 10
-2.82052819E+02
 20
1.22456135E+02
 40
1.18100000E+01
 50
1.67900933E+02
 51
1.70000000E+02
  0
LINE
  8
0
 62
4
 10
-2.91933255E+02
 20
1.19976444E+02
 11
-2.93666516E+02
 21
1.20282065E+02
  0
LINE
  8
0
 62
4
 10
-2.91532981E+02
 20
1.20058179E+02
 11
-2.91907207E+02
 21
1.20124165E+02
  0
LINE
  8
0
 62
4
 10
-2.91933255E+02
 20
1.19976444E+02
 11
-2.91264709E+02
 21
1.23767954E+02
  0
LINE
  8
0
 62
4
 10
-2.91875290E+02
 20
1.23875616E+02
 11
-2.90555564E+02
 21
1.31360155E+02
  0
LINE
  8
0
 62
4
 10
-2.90625023E+02
 20
1.30966232E+02
 11
-2.91737856E+02
 21
1.31162454E+02
  0
LINE
  8
0
 62
4
 10
-2.91805831E+02
 20
1.24269539E+02
 11
-2.92918664E+02
 21
1.24465761E+02
  0
ARC
  8
0
 62
4
 10
-2.81948966E+02
 20
1.25983958E+02
 40
1.18100000E+01
 50
1.57172490E+02
 51
1.82827510E+02
  0
ARC
  8
0
 62
4
 10
-2.91912294E+02
 20
1.30177786E+02
 40
1.00000000E+00
 50
7.99999999E+01
 51
1.57172490E+02
  0
ARC
  8
0
 62
4
 10
-2.92745806E+02
 20
1.25450708E+02
 40
1.00000000E+00
 50
1.82827510E+02
 51
2.60000000E+02
  0
LINE
  8
0
 62
4
 10
-2.89570756E+02
 20
1.31186506E+02
 11
-2.90555564E+02
 21
1.31360155E+02
  0
LINE
  8
0
 62
4
 10
-2.90890482E+02
 20
1.23701968E+02
 11
-2.91875290E+02
 21
1.23875616E+02
  0
ARC
  8
0
 62
4
 10
-2.89786374E+02
 20
1.19597891E+02
 40
5.00000000E-01
 50
3.32815800E+02
 51
2.07184200E+02
  0
ARC
  8
0
 62
4
 10
-2.89786374E+02
 20
1.19597891E+02
 40
3.00000000E-01
 50
3.10410364E+02
 51
2.29589636E+02
  0
ARC
  8
0
 62
4
 10
-2.89916610E+02
 20
1.18859285E+02
 40
1.50000000E+00
 50
1.98841649E+01
 51
1.60115835E+02
  0
LINE
  8
0
 62
4
 10
-2.66597686E+02
 20
1.12896984E+02
 11
-2.67250031E+02
 21
1.09197353E+02
  0
LINE
  8
0
 62
4
 10
-2.79305683E+02
 20
1.30087296E+02
 11
-2.72412028E+02
 21
1.28871758E+02
  0
LINE
  8
0
 62
4
 10
-2.72412028E+02
 20
1.28871758E+02
 11
-2.68716366E+02
 21
1.18718010E+02
  0
LINE
  8
0
 62
4
 10
-2.80781692E+02
 20
1.21716430E+02
 11
-2.80289288E+02
 21
1.21629606E+02
  0
LINE
  8
0
 62
4
 10
-2.79883708E+02
 20
1.21050378E+02
 11
-2.80180099E+02
 21
1.19369465E+02
  0
ARC
  8
0
 62
4
 10
-2.80376112E+02
 20
1.21137202E+02
 40
5.00000000E-01
 50
3.50000000E+02
 51
7.99999999E+01
  0
LINE
  8
0
  6
CENTER
 62
6
 10
-2.73182021E+02
 20
1.08698997E+02
 11
-2.65716017E+02
 21
1.07382539E+02
  0
LINE
  8
0
  6
CENTER
 62
6
 10
-2.79156429E+02
 20
1.21937565E+02
 11
-2.92006934E+02
 21
1.24203456E+02
  0
LINE
  8
0
  6
CENTER
 62
6
 10
-2.69314793E+02
 20
1.23756213E+02
 11
-2.91399166E+02
 21
1.27650283E+02
  0
LINE
  8
0
 62
4
 10
-2.88074737E+02
 20
1.20666909E+02
 11
-2.88399201E+02
 21
1.21130292E+02
  0
LINE
  8
0
 62
4
 10
-2.88399201E+02
 20
1.21130292E+02
 11
-2.91255143E+02
 21
1.21633871E+02
  0
LINE
  8
0
 62
4
 10
-2.87582333E+02
 20
1.20580085E+02
 11
-2.87795798E+02
 21
1.19369465E+02
  0
LINE
  8
0
 62
4
 10
-2.87582333E+02
 20
1.20580085E+02
 11
-2.88074737E+02
 21
1.20666909E+02
  0
LINE
  8
0
 62
4
 10
-2.79305683E+02
 20
1.30087296E+02
 11
-2.80781692E+02
 21
1.21716430E+02
  0
LINE
  8
0
 62
4
 10
-2.89449202E+02
 20
1.31875872E+02
 11
-2.79305683E+02
 21
1.30087296E+02
  0
LINE
  8
0
 62
4
 10
-2.80387769E+02
 20
1.21646971E+02
 11
-2.80789355E+02
 21
1.19369465E+02
  0
LINE
  8
0
 62
4
 10
-2.87599698E+02
 20
1.20481604E+02
 11
-2.91538929E+02
 21
1.21176197E+02
  0
LINE
  8
0
 62
4
 10
-2.91538929E+02
 20
1.21176197E+02
 11
-2.91857505E+02
 21
1.19369465E+02
  0
LINE
  8
0
  6
CENTER
 62
6
 10
-2.89395665E+02
 20
1.21813708E+02
 11
-2.89826652E+02
 21
1.19369465E+02
  0
LINE
  8
0
  6
CENTER
 62
6
 10
-2.86962187E+02
 20
1.18338341E+02
 11
-2.92809982E+02
 21
1.19369465E+02
  0
LINE
  8
0
 62
4
 10
-2.64129068E+02
 20
1.09133570E+02
 11
-2.67166830E+02
 21
1.09669209E+02
  0
LINE
  8
0
 62
4
 10
-2.64823661E+02
 20
1.05194339E+02
 11
-2.67250031E+02
 21
1.05622173E+02
  0
LINE
  8
0
 62
6
 10
-2.64215892E+02
 20
1.08641166E+02
 11
-2.67253654E+02
 21
1.09176805E+02
  0
LINE
  8
0
 62
6
 10
-2.64736836E+02
 20
1.05686743E+02
 11
-2.67250031E+02
 21
1.06129887E+02
  0
LINE
  8
0
 62
4
 10
-2.64823661E+02
 20
1.05194339E+02
 11
-2.64129068E+02
 21
1.09133570E+02
  0
LINE
  8
0
 62
4
 10
-3.05157971E+02
 20
1.21141467E+02
 11
-3.07050737E+02
 21
1.31875872E+02
  0
ARC
  8
0
 62
4
 10
-3.14444433E+02
 20
1.22440893E+02
 40
1.18100000E+01
 50
3.49467301E+02
 51
9.99999999E+00
  0
ARC
  8
0
 62
4
 10
-3.14447120E+02
 20
1.22456135E+02
 40
1.18100000E+01
 50
9.99999999E+00
 51
3.05326991E+01
  0
LINE
  8
0
 62
4
 10
-3.04566684E+02
 20
1.19976444E+02
 11
-3.02833423E+02
 21
1.20282065E+02
  0
LINE
  8
0
 62
4
 10
-3.06007964E+02
 20
1.28150348E+02
 11
-3.04274702E+02
 21
1.28455969E+02
  0
LINE
  8
0
 62
4
 10
-3.04769997E+02
 20
1.20092909E+02
 11
-3.04592731E+02
 21
1.20124165E+02
  0
LINE
  8
0
 62
4
 10
-3.06356144E+02
 20
1.27936641E+02
 11
-3.05981917E+02
 21
1.28002627E+02
  0
LINE
  8
0
 62
4
 10
-3.04566684E+02
 20
1.19976444E+02
 11
-3.06007964E+02
 21
1.28150348E+02
  0
LINE
  8
0
 62
4
 10
-3.05397383E+02
 20
1.28258010E+02
 11
-3.05944375E+02
 21
1.31360155E+02
  0
LINE
  8
0
 62
4
 10
-3.05874916E+02
 20
1.30966232E+02
 11
-3.04762083E+02
 21
1.31162454E+02
  0
ARC
  8
0
 62
4
 10
-3.14550973E+02
 20
1.25983958E+02
 40
1.18100000E+01
 50
3.57172490E+02
 51
2.28275100E+01
  0
ARC
  8
0
 62
4
 10
-3.04587645E+02
 20
1.30177786E+02
 40
1.00000000E+00
 50
2.28275100E+01
 51
9.99999999E+01
  0
ARC
  8
0
 62
4
 10
-3.03754133E+02
 20
1.25450708E+02
 40
1.00000000E+00
 50
3.28723662E+02
 51
3.57172490E+02
  0
LINE
  8
0
 62
4
 10
-3.06929183E+02
 20
1.31186506E+02
 11
-3.05944375E+02
 21
1.31360155E+02
  0
LINE
  8
0
  6
CENTER
 62
6
 10
-3.09537752E+02
 20
1.18338341E+02
 11
-3.03628906E+02
 21
1.19380230E+02
  0
LINE
  8
0
  6
CENTER
 62
6
 10
-3.07104274E+02
 20
1.21813708E+02
 11
-3.06673287E+02
 21
1.19369465E+02
  0
LINE
  8
0
 62
4
 10
-3.04961010E+02
 20
1.21176197E+02
 11
-3.04642434E+02
 21
1.19369465E+02
  0
LINE
  8
0
 62
4
 10
-3.08900241E+02
 20
1.20481604E+02
 11
-3.04961010E+02
 21
1.21176197E+02
  0
LINE
  8
0
 62
4
 10
-3.07897308E+02
 20
1.19775027E+02
 11
-3.05666719E+02
 21
1.20168340E+02
  0
LINE
  8
0
 62
4
 10
-3.08900241E+02
 20
1.20481604E+02
 11
-3.07897308E+02
 21
1.19775027E+02
  0
LINE
  8
0
 62
4
 10
-3.04961010E+02
 20
1.21176197E+02
 11
-3.05666719E+02
 21
1.20168340E+02
  0
LINE
  8
0
 62
4
 10
-3.05666719E+02
 20
1.20168340E+02
 11
-3.05525855E+02
 21
1.19369465E+02
  0
LINE
  8
0
 62
4
 10
-3.16112170E+02
 20
1.21646971E+02
 11
-3.15710584E+02
 21
1.19369465E+02
  0
LINE
  8
0
 62
4
 10
-3.07050737E+02
 20
1.31875872E+02
 11
-3.17194256E+02
 21
1.30087296E+02
  0
LINE
  8
0
 62
4
 10
-3.17194256E+02
 20
1.30087296E+02
 11
-3.15718247E+02
 21
1.21716430E+02
  0
LINE
  8
0
 62
4
 10
-3.08917606E+02
 20
1.20580085E+02
 11
-3.08425202E+02
 21
1.20666909E+02
  0
LINE
  8
0
 62
4
 10
-3.08917606E+02
 20
1.20580085E+02
 11
-3.08704141E+02
 21
1.19369465E+02
  0
LINE
  8
0
 62
4
 10
-3.08100738E+02
 20
1.21130292E+02
 11
-3.05244796E+02
 21
1.21633871E+02
  0
LINE
  8
0
 62
4
 10
-3.08425202E+02
 20
1.20666909E+02
 11
-3.08100738E+02
 21
1.21130292E+02
  0
LINE
  8
0
  6
CENTER
 62
6
 10
-3.27185146E+02
 20
1.23756213E+02
 11
-3.05100773E+02
 21
1.27650283E+02
  0
LINE
  8
0
  6
CENTER
 62
6
 10
-3.17343510E+02
 20
1.21937565E+02
 11
-3.04493005E+02
 21
1.24203456E+02
  0
ARC
  8
0
 62
4
 10
-3.16123827E+02
 20
1.21137202E+02
 40
5.00000000E-01
 50
9.99999999E+01
 51
1.90000000E+02
  0
LINE
  8
0
 62
4
 10
-3.16616231E+02
 20
1.21050378E+02
 11
-3.16319840E+02
 21
1.19369465E+02
  0
LINE
  8
0
 62
4
 10
-3.15718247E+02
 20
1.21716430E+02
 11
-3.16210651E+02
 21
1.21629606E+02
  0
LINE
  8
0
 62
4
 10
-3.24087911E+02
 20
1.28871758E+02
 11
-3.27783574E+02
 21
1.18718007E+02
  0
LINE
  8
0
 62
4
 10
-3.17194256E+02
 20
1.30087296E+02
 11
-3.24087911E+02
 21
1.28871758E+02
  0
LINE
  8
0
 62
4
 10
-3.29902253E+02
 20
1.12896984E+02
 11
-3.29249969E+02
 21
1.09197700E+02
  0
LINE
  8
0
 62
4
 10
-3.32370871E+02
 20
1.09133570E+02
 11
-3.29333109E+02
 21
1.09669209E+02
  0
LINE
  8
0
 62
4
 10
-3.31676278E+02
 20
1.05194339E+02
 11
-3.29249969E+02
 21
1.05622163E+02
  0
LINE
  8
0
 62
4
 10
-3.31676278E+02
 20
1.05194339E+02
 11
-3.32370871E+02
 21
1.09133570E+02
  0
LINE
  8
0
 62
6
 10
-3.32284047E+02
 20
1.08641166E+02
 11
-3.29246285E+02
 21
1.09176805E+02
  0
LINE
  8
0
 62
6
 10
-3.31763102E+02
 20
1.05686743E+02
 11
-3.29249969E+02
 21
1.06129876E+02
  0
LINE
  8
0
  6
PHANTOM
 10
-5.92500000E+01
 20
2.47628397E+02
 11
-5.92500000E+01
 21
1.48945348E+02
  0
LINE
  8
0
  6
PHANTOM
 10
6.52499847E+01
 20
2.47628397E+02
 11
6.52499847E+01
 21
1.48945348E+02
  0
LINE
  8
0
  6
CENTER
 62
2
 10
-2.05783264E+02
 20
2.08369465E+02
 11
1.32303320E+02
 21
2.08369465E+02
  0
LINE
  8
0
 62
7
 10
-1.47749985E+02
 20
2.26869465E+02
 11
-1.47749985E+02
 21
1.89869495E+02
  0
LINE
  8
0
 62
7
 10
-1.55749985E+02
 20
2.25369495E+02
 11
-1.55749985E+02
 21
1.91369495E+02
  0
LINE
  8
0
 62
7
 10
-1.47250000E+02
 20
2.27369465E+02
 11
-1.45750000E+02
 21
2.27369465E+02
  0
LINE
  8
0
 62
7
 10
-1.60250000E+02
 20
2.25369465E+02
 11
-1.55741455E+02
 21
2.25369465E+02
  0
LINE
  8
0
 62
7
 10
-1.55750000E+02
 20
2.25369465E+02
 11
-1.55750000E+02
 21
2.25378010E+02
  0
LINE
  8
0
 62
7
 10
-1.55508727E+02
 20
2.25628053E+02
 11
-1.47750028E+02
 21
2.25898993E+02
  0
LINE
  8
0
 62
7
 10
-1.60750000E+02
 20
2.24869434E+02
 11
-1.60750000E+02
 21
1.91869495E+02
  0
LINE
  8
0
 62
7
 10
-1.47250000E+02
 20
1.89369465E+02
 11
-1.45750000E+02
 21
1.89369465E+02
  0
LINE
  8
0
 62
7
 10
-1.60250000E+02
 20
1.91369465E+02
 11
-1.55741455E+02
 21
1.91369465E+02
  0
LINE
  8
0
 62
7
 10
-1.55750000E+02
 20
1.91369465E+02
 11
-1.55750000E+02
 21
1.91360920E+02
  0
LINE
  8
0
 62
7
 10
-1.55508754E+02
 20
1.91111046E+02
 11
-1.47750055E+02
 21
1.90840106E+02
  0
LINE
  8
0
 62
7
 10
-1.45750000E+02
 20
2.38583957E+02
 11
-1.45750000E+02
 21
1.78155048E+02
  0
LINE
  8
0
  6
CENTER
 62
2
 10
-1.21750015E+02
 20
1.88898304E+02
 11
-1.21750015E+02
 21
2.05487308E+02
  0
LINE
  8
0
  6
CENTER
 62
2
 10
-1.30595276E+02
 20
1.96369434E+02
 11
-1.13120758E+02
 21
1.96369434E+02
  0
LINE
  8
0
 62
7
 10
-1.45750003E+02
 20
2.38584071E+02
 11
-1.14749979E+02
 21
2.39395835E+02
  0
LINE
  8
0
 62
7
 10
-1.40750000E+02
 20
1.88369434E+02
 11
-1.40750000E+02
 21
2.28369434E+02
  0
LINE
  8
0
  6
CENTER
 62
2
 10
-1.27750046E+02
 20
2.04127338E+02
 11
-1.27750046E+02
 21
2.27713749E+02
  0
LINE
  8
0
  6
CENTER
 62
2
 10
-1.37160172E+02
 20
2.15369373E+02
 11
-1.17801544E+02
 21
2.15369373E+02
  0
LINE
  8
0
 62
7
 10
-1.14750000E+02
 20
2.39395725E+02
 11
-1.14750000E+02
 21
1.77369465E+02
  0
LINE
  8
0
 62
7
 10
-1.45750030E+02
 20
1.78155010E+02
 11
-1.14750005E+02
 21
1.77343246E+02
  0
LINE
  8
0
 62
7
 10
-1.38750000E+02
 20
2.30369434E+02
 11
-1.14750000E+02
 21
2.30369434E+02
  0
LINE
  8
0
 62
7
 10
-1.38750000E+02
 20
1.86369434E+02
 11
-1.14750000E+02
 21
1.86369434E+02
  0
LINE
  8
0
 62
7
 10
-1.34558395E+02
 20
2.18369373E+02
 11
-1.20941696E+02
 21
2.18369373E+02
  0
LINE
  8
0
 62
7
 10
2.42499847E+01
 20
1.89869404E+02
 11
2.42499847E+01
 21
2.26869373E+02
  0
LINE
  8
0
 62
7
 10
2.37500000E+01
 20
1.89369404E+02
 11
2.22500000E+01
 21
1.89369404E+02
  0
LINE
  8
0
 62
7
 10
2.37500000E+01
 20
2.27369404E+02
 11
2.22500000E+01
 21
2.27369404E+02
  0
LINE
  8
0
 62
7
 10
2.22500000E+01
 20
1.78154911E+02
 11
2.22500000E+01
 21
2.38583835E+02
  0
LINE
  8
0
 62
7
 10
2.22500077E+01
 20
1.78154887E+02
 11
-8.75003185E+00
 21
1.77343123E+02
  0
LINE
  8
0
 62
7
 10
1.72500000E+01
 20
2.28369434E+02
 11
1.72500000E+01
 21
1.88369434E+02
  0
LINE
  8
0
 62
7
 10
-8.75000000E+00
 20
1.77343143E+02
 11
-8.75000000E+00
 21
2.39369419E+02
  0
LINE
  8
0
 62
7
 10
2.22500043E+01
 20
2.38583903E+02
 11
-8.75001237E+00
 21
2.39395667E+02
  0
LINE
  8
0
 62
7
 10
1.52500000E+01
 20
1.86369434E+02
 11
-8.75000000E+00
 21
1.86369434E+02
  0
LINE
  8
0
 62
7
 10
1.52500000E+01
 20
2.30369434E+02
 11
-8.75000000E+00
 21
2.30369434E+02
  0
LINE
  8
0
  6
CENTER
 62
2
 10
2.44769897E+01
 20
1.84869480E+02
 11
-1.47853455E+02
 21
1.84869480E+02
  0
LINE
  8
0
 62
7
 10
-8.75000000E+00
 20
1.87519474E+02
 11
-2.97500000E+01
 21
1.87519474E+02
  0
LINE
  8
0
 62
7
 10
-8.75000000E+00
 20
1.82219486E+02
 11
-2.97500000E+01
 21
1.82219486E+02
  0
LINE
  8
0
 62
7
 10
-1.67749985E+02
 20
2.16869465E+02
 11
-1.67749985E+02
 21
1.99869465E+02
  0
LINE
  8
0
 62
7
 10
-1.62250031E+02
 20
1.98369480E+02
 11
-1.60750046E+02
 21
1.98369480E+02
  0
LINE
  8
0
 62
7
 10
-1.62249969E+02
 20
2.18369495E+02
 11
-1.60750000E+02
 21
2.18369495E+02
  0
LINE
  8
0
 62
7
 10
-8.75000000E+00
 20
1.81369495E+02
 11
-2.97500000E+01
 21
1.81369495E+02
  0
LINE
  8
0
 62
7
 10
-1.73749969E+02
 20
1.99369465E+02
 11
-1.73749969E+02
 21
2.17369465E+02
  0
LINE
  8
0
 62
7
 10
-2.02749969E+02
 20
2.00869495E+02
 11
-2.02749969E+02
 21
2.15869312E+02
  0
LINE
  8
0
 62
7
 10
-2.01249969E+02
 20
1.99369465E+02
 11
-2.01249969E+02
 21
2.17369465E+02
  0
LINE
  8
0
 62
7
 10
-2.01249908E+02
 20
2.17369465E+02
 11
-1.93749969E+02
 21
2.17369465E+02
  0
LINE
  8
0
 62
2
 10
-2.02069916E+02
 20
2.16549457E+02
 11
-1.93749969E+02
 21
2.16549457E+02
  0
LINE
  8
0
 62
7
 10
-2.02749923E+02
 20
2.15869322E+02
 11
-2.01249877E+02
 21
2.17369322E+02
  0
LINE
  8
0
 62
7
 10
-2.01249908E+02
 20
1.99369465E+02
 11
-1.93749969E+02
 21
1.99369465E+02
  0
LINE
  8
0
 62
2
 10
-2.02069916E+02
 20
2.00189472E+02
 11
-1.93749969E+02
 21
2.00189472E+02
  0
LINE
  8
0
 62
7
 10
-2.02749995E+02
 20
2.00869535E+02
 11
-2.01249960E+02
 21
1.99369545E+02
  0
LINE
  8
0
 62
7
 10
-1.70749969E+02
 20
1.99869465E+02
 11
-1.70749969E+02
 21
2.16869465E+02
  0
LINE
  8
0
 62
7
 10
-1.20017929E+02
 20
1.96369434E+02
 11
-1.20883953E+02
 21
1.97869440E+02
  0
LINE
  8
0
 62
7
 10
-1.20883987E+02
 20
1.97869434E+02
 11
-1.22615982E+02
 21
1.97869434E+02
  0
LINE
  8
0
 62
7
 10
-1.23481965E+02
 20
1.96369396E+02
 11
-1.22615957E+02
 21
1.97869376E+02
  0
LINE
  8
0
 62
7
 10
-1.22615957E+02
 20
1.94869365E+02
 11
-1.23481996E+02
 21
1.96369398E+02
  0
LINE
  8
0
 62
7
 10
-1.20883987E+02
 20
1.94869404E+02
 11
-1.22615982E+02
 21
1.94869404E+02
  0
LINE
  8
0
 62
7
 10
-1.20017945E+02
 20
1.96369387E+02
 11
-1.20883968E+02
 21
1.94869380E+02
  0
LINE
  8
0
 62
7
 10
-8.75000000E+00
 20
2.35369434E+02
 11
-7.37500000E+01
 21
2.35369434E+02
  0
LINE
  8
0
  6
CENTER
 62
2
 10
2.44769897E+01
 20
2.31869449E+02
 11
-1.47853455E+02
 21
2.31869449E+02
  0
LINE
  8
0
 62
7
 10
-8.75000000E+00
 20
2.29219456E+02
 11
-7.37500000E+01
 21
2.29219456E+02
  0
LINE
  8
0
 62
7
 10
-8.75000000E+00
 20
2.34519443E+02
 11
-7.37500000E+01
 21
2.34519443E+02
  0
LINE
  8
0
 62
7
 10
-1.70749969E+02
 20
1.99869465E+02
 11
-1.63750015E+02
 21
1.99869465E+02
  0
LINE
  8
0
 62
7
 10
-1.70749969E+02
 20
2.16869465E+02
 11
-1.63750015E+02
 21
2.16869465E+02
  0
LINE
  8
0
 62
7
 10
-1.63750028E+02
 20
1.99869473E+02
 11
-1.62250059E+02
 21
1.98369504E+02
  0
LINE
  8
0
 62
7
 10
-1.63750062E+02
 20
2.16869525E+02
 11
-1.62250032E+02
 21
2.18369555E+02
  0
LINE
  8
0
  6
CENTER
 62
2
 10
-1.74998474E+00
 20
1.88898304E+02
 11
-1.74998474E+00
 21
2.05487308E+02
  0
LINE
  8
0
  6
CENTER
 62
2
 10
7.09527588E+00
 20
1.96369434E+02
 11
-1.03792419E+01
 21
1.96369434E+02
  0
LINE
  8
0
  6
CENTER
 62
2
 10
4.25004578E+00
 20
2.04127338E+02
 11
4.25004578E+00
 21
2.27713749E+02
  0
LINE
  8
0
  6
CENTER
 62
2
 10
1.36601715E+01
 20
2.15369373E+02
 11
-5.69845581E+00
 21
2.15369373E+02
  0
LINE
  8
0
 62
7
 10
1.10583954E+01
 20
2.18369373E+02
 11
-2.55830383E+00
 21
2.18369373E+02
  0
LINE
  8
0
 62
7
 10
-3.48206789E+00
 20
1.96369403E+02
 11
-2.61603635E+00
 21
1.97869422E+02
  0
LINE
  8
0
 62
7
 10
-2.61601257E+00
 20
1.97869434E+02
 11
-8.84017944E-01
 21
1.97869434E+02
  0
LINE
  8
0
 62
7
 10
-1.80450393E-02
 20
1.96369401E+02
 11
-8.84053690E-01
 21
1.97869381E+02
  0
LINE
  8
0
 62
7
 10
-8.84023892E-01
 20
1.94869378E+02
 11
-1.79847240E-02
 21
1.96369410E+02
  0
LINE
  8
0
 62
7
 10
-2.61601257E+00
 20
1.94869404E+02
 11
-8.84017944E-01
 21
1.94869404E+02
  0
LINE
  8
0
 62
7
 10
-3.48206237E+00
 20
1.96369394E+02
 11
-2.61603083E+00
 21
1.94869374E+02
  0
LINE
  8
0
 62
7
 10
-1.73749969E+02
 20
2.16549457E+02
 11
-1.70749969E+02
 21
2.16549457E+02
  0
LINE
  8
0
 62
7
 10
-1.73749969E+02
 20
2.00189472E+02
 11
-1.70749969E+02
 21
2.00189472E+02
  0
LINE
  8
0
 62
7
 10
3.72500000E+01
 20
2.24869434E+02
 11
3.72500000E+01
 21
1.91869495E+02
  0
LINE
  8
0
 62
7
 10
3.67500000E+01
 20
2.25369465E+02
 11
3.22414551E+01
 21
2.25369465E+02
  0
LINE
  8
0
 62
7
 10
3.22500000E+01
 20
2.25369465E+02
 11
3.22500000E+01
 21
2.25378010E+02
  0
LINE
  8
0
 62
7
 10
3.67500000E+01
 20
1.91369465E+02
 11
3.22414551E+01
 21
1.91369465E+02
  0
LINE
  8
0
 62
7
 10
3.22500000E+01
 20
1.91369465E+02
 11
3.22500000E+01
 21
1.91360920E+02
  0
LINE
  8
0
 62
7
 10
3.20087470E+01
 20
1.91111048E+02
 11
2.42500484E+01
 21
1.90840108E+02
  0
LINE
  8
0
 62
7
 10
3.20087202E+01
 20
2.25628050E+02
 11
2.42500216E+01
 21
2.25898990E+02
  0
LINE
  8
0
 62
7
 10
3.22499847E+01
 20
2.25369495E+02
 11
3.22499847E+01
 21
1.91369495E+02
  0
LINE
  8
0
 62
7
 10
9.42499847E+01
 20
2.16869465E+02
 11
9.42499847E+01
 21
1.99869465E+02
  0
LINE
  8
0
 62
7
 10
8.87500305E+01
 20
1.98369480E+02
 11
3.72500458E+01
 21
1.98369480E+02
  0
LINE
  8
0
 62
7
 10
8.87499695E+01
 20
2.18369495E+02
 11
3.72500000E+01
 21
2.18369495E+02
  0
LINE
  8
0
 62
7
 10
1.00249969E+02
 20
1.99369465E+02
 11
1.00249969E+02
 21
2.17369465E+02
  0
LINE
  8
0
 62
7
 10
1.29249969E+02
 20
2.00869495E+02
 11
1.29249969E+02
 21
2.15869312E+02
  0
LINE
  8
0
 62
7
 10
1.27749969E+02
 20
1.99369465E+02
 11
1.27749969E+02
 21
2.17369465E+02
  0
LINE
  8
0
 62
7
 10
1.27749908E+02
 20
2.17369465E+02
 11
1.20249969E+02
 21
2.17369465E+02
  0
LINE
  8
0
 62
2
 10
1.28569916E+02
 20
2.16549457E+02
 11
1.20249969E+02
 21
2.16549457E+02
  0
LINE
  8
0
 62
7
 10
1.29249935E+02
 20
2.15869320E+02
 11
1.27749889E+02
 21
2.17369320E+02
  0
LINE
  8
0
 62
7
 10
1.27749908E+02
 20
1.99369465E+02
 11
1.20249969E+02
 21
1.99369465E+02
  0
LINE
  8
0
 62
2
 10
1.28569916E+02
 20
2.00189472E+02
 11
1.20249969E+02
 21
2.00189472E+02
  0
LINE
  8
0
 62
7
 10
1.29249998E+02
 20
2.00869540E+02
 11
1.27749963E+02
 21
1.99369550E+02
  0
LINE
  8
0
 62
7
 10
1.00249969E+02
 20
2.00189472E+02
 11
9.72499695E+01
 21
2.00189472E+02
  0
LINE
  8
0
 62
7
 10
9.72499695E+01
 20
1.99869465E+02
 11
9.72499695E+01
 21
2.16869465E+02
  0
LINE
  8
0
 62
7
 10
9.72499695E+01
 20
1.99869465E+02
 11
9.02500153E+01
 21
1.99869465E+02
  0
LINE
  8
0
 62
7
 10
9.72499695E+01
 20
2.16869465E+02
 11
9.02500153E+01
 21
2.16869465E+02
  0
LINE
  8
0
 62
7
 10
9.02500209E+01
 20
1.99869479E+02
 11
8.87500515E+01
 21
1.98369509E+02
  0
LINE
  8
0
 62
7
 10
9.02500566E+01
 20
2.16869528E+02
 11
8.87500225E+01
 21
2.18369562E+02
  0
LINE
  8
0
 62
7
 10
1.00249969E+02
 20
2.16549457E+02
 11
9.72499695E+01
 21
2.16549457E+02
  0
ARC
  8
0
 62
7
 10
-1.60250000E+02
 20
2.24869434E+02
 40
5.00000000E-01
 50
8.99999818E+01
 51
1.79999964E+02
  0
ARC
  8
0
 62
7
 10
-1.55500000E+02
 20
2.25378010E+02
 40
2.50000000E-01
 50
9.19988093E+01
 51
1.79999964E+02
  0
ARC
  8
0
 62
7
 10
-1.47250000E+02
 20
2.26869465E+02
 40
5.00000000E-01
 50
8.99999818E+01
 51
1.79999964E+02
  0
ARC
  8
0
 62
7
 10
-1.47250000E+02
 20
1.89869465E+02
 40
5.00000000E-01
 50
1.79999981E+02
 51
2.69999963E+02
  0
ARC
  8
0
 62
7
 10
-1.55500000E+02
 20
1.91360920E+02
 40
2.50000000E-01
 50
1.79999981E+02
 51
2.68001136E+02
  0
ARC
  8
0
 62
7
 10
-1.60250000E+02
 20
1.91869495E+02
 40
5.00000000E-01
 50
1.79999981E+02
 51
2.69999963E+02
  0
ARC
  8
0
 62
7
 10
-1.38750000E+02
 20
2.28369434E+02
 40
2.00000000E+00
 50
8.99999818E+01
 51
1.79999964E+02
  0
ARC
  8
0
 62
7
 10
-1.38750000E+02
 20
1.88369434E+02
 40
2.00000000E+00
 50
1.79999981E+02
 51
2.70000018E+02
  0
ARC
  8
0
 62
7
 10
2.37500000E+01
 20
1.89869404E+02
 40
5.00000000E-01
 50
2.70000073E+02
 51
5.46415133E-05
  0
ARC
  8
0
 62
7
 10
2.37500000E+01
 20
2.26869404E+02
 40
5.00000000E-01
 50
5.46415133E-05
 51
9.00000369E+01
  0
ARC
  8
0
 62
7
 10
1.52500000E+01
 20
1.88369434E+02
 40
2.00000000E+00
 50
2.70000073E+02
 51
5.46415133E-05
  0
ARC
  8
0
 62
7
 10
1.52500000E+01
 20
2.28369434E+02
 40
2.00000000E+00
 50
5.46415133E-05
 51
9.00000913E+01
  0
CIRCLE
  8
0
 62
7
 10
-1.21750015E+02
 20
1.96369434E+02
 40
5.00000000E+00
  0
CIRCLE
  8
0
 62
7
 10
-1.27750046E+02
 20
2.15369373E+02
 40
8.71000004E+00
  0
CIRCLE
  8
0
 62
7
 10
-1.27750046E+02
 20
2.15369373E+02
 40
7.44000006E+00
  0
CIRCLE
  8
0
 62
2
 10
-1.27750046E+02
 20
2.15369373E+02
 40
8.32999992E+00
  0
CIRCLE
  8
0
 62
7
 10
-1.21750015E+02
 20
1.96369434E+02
 40
2.59999990E+00
  0
CIRCLE
  8
0
 62
2
 10
4.25004578E+00
 20
2.15369373E+02
 40
8.32999992E+00
  0
CIRCLE
  8
0
 62
7
 10
-1.74998474E+00
 20
1.96369434E+02
 40
2.59999990E+00
  0
CIRCLE
  8
0
 62
7
 10
-1.74998474E+00
 20
1.96369434E+02
 40
5.00000000E+00
  0
CIRCLE
  8
0
 62
7
 10
4.25004578E+00
 20
2.15369373E+02
 40
8.71000004E+00
  0
CIRCLE
  8
0
 62
7
 10
4.25004578E+00
 20
2.15369373E+02
 40
7.44000006E+00
  0
ARC
  8
0
 62
7
 10
3.67500000E+01
 20
2.24869434E+02
 40
5.00000000E-01
 50
3.59721781E-05
 51
9.00000162E+01
  0
ARC
  8
0
 62
7
 10
3.20000000E+01
 20
2.25378010E+02
 40
2.50000000E-01
 50
3.59721781E-05
 51
8.80011888E+01
  0
ARC
  8
0
 62
7
 10
3.20000000E+01
 20
1.91360920E+02
 40
2.50000000E-01
 50
2.71998866E+02
 51
1.86693353E-05
  0
ARC
  8
0
 62
7
 10
3.67500000E+01
 20
1.91869495E+02
 40
5.00000000E-01
 50
2.70000038E+02
 51
1.86693353E-05
  0
LINE
  8
0
 62
4
 10
-1.82749969E+02
 20
2.21869465E+02
 11
-1.82749969E+02
 21
1.94869465E+02
  0
LINE
  8
0
 62
4
 10
-1.93749969E+02
 20
2.21869465E+02
 11
-1.93749969E+02
 21
1.94869465E+02
  0
LINE
  8
0
 62
4
 10
-1.82749969E+02
 20
2.21869465E+02
 11
-1.93749969E+02
 21
2.21869465E+02
  0
LINE
  8
0
 62
4
 10
-1.82749969E+02
 20
1.94869465E+02
 11
-1.93749969E+02
 21
1.94869465E+02
  0
LINE
  8
0
 62
4
 10
-1.83955741E+02
 20
2.08369465E+02
 11
-1.92544198E+02
 21
2.08369465E+02
  0
ARC
  8
0
 62
4
 10
-1.74253577E+02
 20
2.01619465E+02
 40
1.94963929E+01
 50
1.59743842E+02
 51
2.00256158E+02
  0
ARC
  8
0
 62
4
 10
-1.74253577E+02
 20
2.15119465E+02
 40
1.94963929E+01
 50
1.59743842E+02
 51
2.00256158E+02
  0
ARC
  8
0
 62
4
 10
-2.02246362E+02
 20
2.15119465E+02
 40
1.94963929E+01
 50
3.39743842E+02
 51
2.02561580E+01
  0
ARC
  8
0
 62
4
 10
-2.02246362E+02
 20
2.01619465E+02
 40
1.94963929E+01
 50
3.39743842E+02
 51
2.02561580E+01
  0
LINE
  8
0
 62
4
 10
1.20249969E+02
 20
2.21869465E+02
 11
1.20249969E+02
 21
1.94869465E+02
  0
LINE
  8
0
 62
4
 10
1.09249969E+02
 20
2.21869465E+02
 11
1.09249969E+02
 21
1.94869465E+02
  0
LINE
  8
0
 62
4
 10
1.20249969E+02
 20
2.21869465E+02
 11
1.09249969E+02
 21
2.21869465E+02
  0
LINE
  8
0
 62
4
 10
1.20249969E+02
 20
1.94869465E+02
 11
1.09249969E+02
 21
1.94869465E+02
  0
LINE
  8
0
 62
4
 10
1.19044198E+02
 20
2.08369465E+02
 11
1.10455741E+02
 21
2.08369465E+02
  0
ARC
  8
0
 62
4
 10
1.28746362E+02
 20
2.01619465E+02
 40
1.94963929E+01
 50
1.59743842E+02
 51
2.00256158E+02
  0
ARC
  8
0
 62
4
 10
1.28746362E+02
 20
2.15119465E+02
 40
1.94963929E+01
 50
1.59743842E+02
 51
2.00256158E+02
  0
ARC
  8
0
 62
4
 10
1.00753577E+02
 20
2.15119465E+02
 40
1.94963929E+01
 50
3.39743842E+02
 51
2.02561580E+01
  0
ARC
  8
0
 62
4
 10
1.00753577E+02
 20
2.01619465E+02
 40
1.94963929E+01
 50
3.39743842E+02
 51
2.02561580E+01
  0
LINE
  8
0
 62
7
 10
-1.82749969E+02
 20
2.17369465E+02
 11
-1.73749969E+02
 21
2.17369465E+02
  0
LINE
  8
0
 62
2
 10
-1.82749969E+02
 20
2.16549457E+02
 11
-1.73749969E+02
 21
2.16549457E+02
  0
LINE
  8
0
 62
7
 10
-1.82749969E+02
 20
1.99369465E+02
 11
-1.73749969E+02
 21
1.99369465E+02
  0
LINE
  8
0
 62
2
 10
-1.82749969E+02
 20
2.00189472E+02
 11
-1.73749969E+02
 21
2.00189472E+02
  0
LINE
  8
0
 62
7
 10
1.09249969E+02
 20
2.17369465E+02
 11
1.00249969E+02
 21
2.17369465E+02
  0
LINE
  8
0
 62
2
 10
1.09249969E+02
 20
2.16549457E+02
 11
1.00249969E+02
 21
2.16549457E+02
  0
LINE
  8
0
 62
7
 10
1.09249969E+02
 20
1.99369465E+02
 11
1.00249969E+02
 21
1.99369465E+02
  0
LINE
  8
0
 62
2
 10
1.09249969E+02
 20
2.00189472E+02
 11
1.00249969E+02
 21
2.00189472E+02
  0
LINE
  8
0
 62
4
 10
-4.47500000E+01
 20
1.98536120E+02
 11
-5.56160254E+01
 21
1.98536120E+02
  0
LINE
  8
0
  6
CENTER
 62
6
 10
-9.75000000E+00
 20
2.00036120E+02
 11
-5.67500000E+01
 21
2.00036120E+02
  0
LINE
  8
0
 62
4
 10
-4.47500000E+01
 20
2.01536120E+02
 11
-5.38839746E+01
 21
2.01536120E+02
  0
LINE
  8
0
 62
6
 10
-5.30179492E+01
 20
2.03036120E+02
 11
-5.64820508E+01
 21
1.97036120E+02
  0
LINE
  8
0
 62
6
 10
-6.54820508E+01
 20
2.13702809E+02
 11
-6.20179492E+01
 21
2.19702809E+02
  0
LINE
  8
0
 62
4
 10
-7.37500000E+01
 20
2.15202809E+02
 11
-6.46160254E+01
 21
2.15202809E+02
  0
LINE
  8
0
  6
CENTER
 62
6
 10
-1.08750000E+02
 20
2.16702809E+02
 11
-6.17500000E+01
 21
2.16702809E+02
  0
LINE
  8
0
 62
4
 10
-7.37500000E+01
 20
2.18202809E+02
 11
-6.28839746E+01
 21
2.18202809E+02
  0
LINE
  8
0
 62
6
 10
-7.87500000E+01
 20
2.42372770E+02
 11
-7.87500000E+01
 21
2.40021733E+02
  0
LINE
  8
0
 62
6
 10
-7.57500000E+01
 20
2.42372770E+02
 11
-7.57500000E+01
 21
2.40021733E+02
  0
LINE
  8
0
 62
4
 10
-7.92500000E+01
 20
2.42143055E+02
 11
-7.92500000E+01
 21
2.40021733E+02
  0
LINE
  8
0
 62
4
 10
-7.52500000E+01
 20
2.42143055E+02
 11
-7.52500000E+01
 21
2.40021733E+02
  0
LINE
  8
0
 62
4
 10
-8.87500000E+01
 20
2.40021733E+02
 11
-8.87500000E+01
 21
2.27313736E+02
  0
LINE
  8
0
 62
4
 10
-7.37500000E+01
 20
2.40021733E+02
 11
-7.37500000E+01
 21
2.14391846E+02
  0
LINE
  8
0
 62
4
 10
-1.03750000E+02
 20
2.27313736E+02
 11
-1.03750000E+02
 21
2.15364275E+02
  0
LINE
  8
0
  6
CENTER
 62
6
 10
-7.72500000E+01
 20
2.45485028E+02
 11
-7.72500000E+01
 21
2.35219449E+02
  0
LINE
  8
0
  6
CENTER
 62
6
 10
-8.52500000E+01
 20
2.45485028E+02
 11
-8.52500000E+01
 21
2.35219449E+02
  0
LINE
  8
0
  6
CENTER
 62
6
 10
-8.87500000E+01
 20
2.18281031E+02
 11
-8.87500000E+01
 21
2.13281031E+02
  0
LINE
  8
0
 62
4
 10
-8.87500000E+01
 20
2.40021733E+02
 11
-7.37500000E+01
 21
2.40021733E+02
  0
LINE
  8
0
 62
4
 10
-8.87500000E+01
 20
2.34207391E+02
 11
-7.37500000E+01
 21
2.34207391E+02
  0
LINE
  8
0
 62
4
 10
-1.03750000E+02
 20
2.27313736E+02
 11
-7.37500000E+01
 21
2.27313736E+02
  0
LINE
  8
0
 62
4
 10
-1.03750000E+02
 20
2.17170216E+02
 11
-7.37500000E+01
 21
2.17170216E+02
  0
LINE
  8
0
 62
4
 10
-7.78500000E+01
 20
2.14391846E+02
 11
-7.37500000E+01
 21
2.14391846E+02
  0
LINE
  8
0
 62
4
 10
-7.78500000E+01
 20
2.14565494E+02
 11
-7.37500000E+01
 21
2.14565494E+02
  0
LINE
  8
0
 62
4
 10
-1.03750000E+02
 20
2.15364275E+02
 11
-9.29000000E+01
 21
2.15364275E+02
  0
POLYLINE
  8
0
 62
4
 66
1
  0
VERTEX
  8
0
 62
4
 10
-7.52500000E+01
 20
2.42143055E+02
  0
VERTEX
  8
0
 62
4
 10
-7.52580514E+01
 20
2.42174186E+02
  0
VERTEX
  8
0
 62
4
 10
-7.52821408E+01
 20
2.42205067E+02
  0
VERTEX
  8
0
 62
4
 10
-7.53220743E+01
 20
2.42235449E+02
  0
VERTEX
  8
0
 62
4
 10
-7.53775303E+01
 20
2.42265086E+02
  0
VERTEX
  8
0
 62
4
 10
-7.54480623E+01
 20
2.42293741E+02
  0
VERTEX
  8
0
 62
4
 10
-7.55331024E+01
 20
2.42321183E+02
  0
VERTEX
  8
0
 62
4
 10
-7.56319660E+01
 20
2.42347191E+02
  0
VERTEX
  8
0
 62
4
 10
-7.57438571E+01
 20
2.42371555E+02
  0
VERTEX
  8
0
 62
4
 10
-7.58678747E+01
 20
2.42394079E+02
  0
VERTEX
  8
0
 62
4
 10
-7.60030204E+01
 20
2.42414582E+02
  0
VERTEX
  8
0
 62
4
 10
-7.61482060E+01
 20
2.42432899E+02
  0
VERTEX
  8
0
 62
4
 10
-7.63022627E+01
 20
2.42448883E+02
  0
VERTEX
  8
0
 62
4
 10
-7.64639499E+01
 20
2.42462404E+02
  0
VERTEX
  8
0
 62
4
 10
-7.66319660E+01
 20
2.42473353E+02
  0
VERTEX
  8
0
 62
4
 10
-7.68049581E+01
 20
2.42481644E+02
  0
VERTEX
  8
0
 62
4
 10
-7.69815335E+01
 20
2.42487208E+02
  0
VERTEX
  8
0
 62
4
 10
-7.71602703E+01
 20
2.42490002E+02
  0
VERTEX
  8
0
 62
4
 10
-7.73397296E+01
 20
2.42490002E+02
  0
VERTEX
  8
0
 62
4
 10
-7.75184665E+01
 20
2.42487208E+02
  0
VERTEX
  8
0
 62
4
 10
-7.76950419E+01
 20
2.42481644E+02
  0
VERTEX
  8
0
 62
4
 10
-7.78680340E+01
 20
2.42473353E+02
  0
VERTEX
  8
0
 62
4
 10
-7.80360501E+01
 20
2.42462404E+02
  0
VERTEX
  8
0
 62
4
 10
-7.81977373E+01
 20
2.42448883E+02
  0
VERTEX
  8
0
 62
4
 10
-7.83517940E+01
 20
2.42432899E+02
  0
VERTEX
  8
0
 62
4
 10
-7.84969796E+01
 20
2.42414582E+02
  0
VERTEX
  8
0
 62
4
 10
-7.86321253E+01
 20
2.42394079E+02
  0
VERTEX
  8
0
 62
4
 10
-7.87561429E+01
 20
2.42371555E+02
  0
VERTEX
  8
0
 62
4
 10
-7.88680340E+01
 20
2.42347191E+02
  0
VERTEX
  8
0
 62
4
 10
-7.89668976E+01
 20
2.42321183E+02
  0
VERTEX
  8
0
 62
4
 10
-7.90519377E+01
 20
2.42293741E+02
  0
VERTEX
  8
0
 62
4
 10
-7.91224697E+01
 20
2.42265086E+02
  0
VERTEX
  8
0
 62
4
 10
-7.91779257E+01
 20
2.42235449E+02
  0
VERTEX
  8
0
 62
4
 10
-7.92178592E+01
 20
2.42205067E+02
  0
VERTEX
  8
0
 62
4
 10
-7.92419486E+01
 20
2.42174186E+02
  0
VERTEX
  8
0
 62
4
 10
-7.92500000E+01
 20
2.42143055E+02
  0
SEQEND
  8
0
  0
LINE
  8
0
 62
6
 10
-8.67500000E+01
 20
2.42372770E+02
 11
-8.67500000E+01
 21
2.40021733E+02
  0
LINE
  8
0
 62
6
 10
-8.37500000E+01
 20
2.42372770E+02
 11
-8.37500000E+01
 21
2.40021733E+02
  0
LINE
  8
0
 62
4
 10
-8.72500000E+01
 20
2.42143055E+02
 11
-8.72500000E+01
 21
2.40021733E+02
  0
LINE
  8
0
 62
4
 10
-8.32500000E+01
 20
2.42143055E+02
 11
-8.32500000E+01
 21
2.40021733E+02
  0
POLYLINE
  8
0
 62
4
 66
1
  0
VERTEX
  8
0
 62
4
 10
-8.32500000E+01
 20
2.42143055E+02
  0
VERTEX
  8
0
 62
4
 10
-8.32580514E+01
 20
2.42174186E+02
  0
VERTEX
  8
0
 62
4
 10
-8.32821408E+01
 20
2.42205067E+02
  0
VERTEX
  8
0
 62
4
 10
-8.33220743E+01
 20
2.42235449E+02
  0
VERTEX
  8
0
 62
4
 10
-8.33775303E+01
 20
2.42265086E+02
  0
VERTEX
  8
0
 62
4
 10
-8.34480623E+01
 20
2.42293741E+02
  0
VERTEX
  8
0
 62
4
 10
-8.35331024E+01
 20
2.42321183E+02
  0
VERTEX
  8
0
 62
4
 10
-8.36319660E+01
 20
2.42347191E+02
  0
VERTEX
  8
0
 62
4
 10
-8.37438571E+01
 20
2.42371555E+02
  0
VERTEX
  8
0
 62
4
 10
-8.38678747E+01
 20
2.42394079E+02
  0
VERTEX
  8
0
 62
4
 10
-8.40030204E+01
 20
2.42414582E+02
  0
VERTEX
  8
0
 62
4
 10
-8.41482060E+01
 20
2.42432899E+02
  0
VERTEX
  8
0
 62
4
 10
-8.43022627E+01
 20
2.42448883E+02
  0
VERTEX
  8
0
 62
4
 10
-8.44639499E+01
 20
2.42462404E+02
  0
VERTEX
  8
0
 62
4
 10
-8.46319660E+01
 20
2.42473353E+02
  0
VERTEX
  8
0
 62
4
 10
-8.48049581E+01
 20
2.42481644E+02
  0
VERTEX
  8
0
 62
4
 10
-8.49815335E+01
 20
2.42487208E+02
  0
VERTEX
  8
0
 62
4
 10
-8.51602703E+01
 20
2.42490002E+02
  0
VERTEX
  8
0
 62
4
 10
-8.53397296E+01
 20
2.42490002E+02
  0
VERTEX
  8
0
 62
4
 10
-8.55184665E+01
 20
2.42487208E+02
  0
VERTEX
  8
0
 62
4
 10
-8.56950419E+01
 20
2.42481644E+02
  0
VERTEX
  8
0
 62
4
 10
-8.58680340E+01
 20
2.42473353E+02
  0
VERTEX
  8
0
 62
4
 10
-8.60360501E+01
 20
2.42462404E+02
  0
VERTEX
  8
0
 62
4
 10
-8.61977373E+01
 20
2.42448883E+02
  0
VERTEX
  8
0
 62
4
 10
-8.63517940E+01
 20
2.42432899E+02
  0
VERTEX
  8
0
 62
4
 10
-8.64969796E+01
 20
2.42414582E+02
  0
VERTEX
  8
0
 62
4
 10
-8.66321253E+01
 20
2.42394079E+02
  0
VERTEX
  8
0
 62
4
 10
-8.67561429E+01
 20
2.42371555E+02
  0
VERTEX
  8
0
 62
4
 10
-8.68680340E+01
 20
2.42347191E+02
  0
VERTEX
  8
0
 62
4
 10
-8.69668976E+01
 20
2.42321183E+02
  0
VERTEX
  8
0
 62
4
 10
-8.70519377E+01
 20
2.42293741E+02
  0
VERTEX
  8
0
 62
4
 10
-8.71224697E+01
 20
2.42265086E+02
  0
VERTEX
  8
0
 62
4
 10
-8.71779257E+01
 20
2.42235449E+02
  0
VERTEX
  8
0
 62
4
 10
-8.72178592E+01
 20
2.42205067E+02
  0
VERTEX
  8
0
 62
4
 10
-8.72419486E+01
 20
2.42174186E+02
  0
VERTEX
  8
0
 62
4
 10
-8.72500000E+01
 20
2.42143055E+02
  0
SEQEND
  8
0
  0
LINE
  8
0
 62
4
 10
-1.03750000E+02
 20
2.19019721E+02
 11
-1.05250000E+02
 21
2.18016788E+02
  0
LINE
  8
0
 62
4
 10
-1.05250000E+02
 20
2.18016788E+02
 11
-1.05250000E+02
 21
2.15392886E+02
  0
LINE
  8
0
 62
4
 10
-1.05250000E+02
 20
2.15786199E+02
 11
-1.03750000E+02
 21
2.15080490E+02
  0
LINE
  8
0
 62
4
 10
-1.05250000E+02
 20
2.15392886E+02
 11
-1.03750000E+02
 21
2.14385897E+02
  0
LINE
  8
0
 62
4
 10
-1.03750000E+02
 20
2.14385897E+02
 11
-9.29000000E+01
 21
2.14385897E+02
  0
LINE
  8
0
 62
4
 10
-1.03750000E+02
 20
2.15080490E+02
 11
-9.29000000E+01
 21
2.15080490E+02
  0
LINE
  8
0
 62
4
 10
-1.03750000E+02
 20
2.15364275E+02
 11
-1.03750000E+02
 21
2.14391846E+02
  0
POLYLINE
  8
0
 62
4
 66
1
  0
VERTEX
  8
0
 62
4
 10
-8.50500000E+01
 20
2.15733175E+02
  0
VERTEX
  8
0
 62
4
 10
-8.52318150E+01
 20
2.15789022E+02
  0
VERTEX
  8
0
 62
4
 10
-8.54415122E+01
 20
2.15841841E+02
  0
VERTEX
  8
0
 62
4
 10
-8.56774299E+01
 20
2.15891211E+02
  0
VERTEX
  8
0
 62
4
 10
-8.59376982E+01
 20
2.15936743E+02
  0
VERTEX
  8
0
 62
4
 10
-8.62202545E+01
 20
2.15978074E+02
  0
VERTEX
  8
0
 62
4
 10
-8.65228596E+01
 20
2.16014879E+02
  0
VERTEX
  8
0
 62
4
 10
-8.68431151E+01
 20
2.16046864E+02
  0
VERTEX
  8
0
 62
4
 10
-8.71784831E+01
 20
2.16073777E+02
  0
VERTEX
  8
0
 62
4
 10
-8.75263056E+01
 20
2.16095403E+02
  0
VERTEX
  8
0
 62
4
 10
-8.78838262E+01
 20
2.16111573E+02
  0
VERTEX
  8
0
 62
4
 10
-8.82482113E+01
 20
2.16122157E+02
  0
VERTEX
  8
0
 62
4
 10
-8.86165732E+01
 20
2.16127071E+02
  0
VERTEX
  8
0
 62
4
 10
-8.89859925E+01
 20
2.16126278E+02
  0
VERTEX
  8
0
 62
4
 10
-8.93535416E+01
 20
2.16119782E+02
  0
VERTEX
  8
0
 62
4
 10
-8.97163074E+01
 20
2.16107636E+02
  0
VERTEX
  8
0
 62
4
 10
-9.00714151E+01
 20
2.16089936E+02
  0
VERTEX
  8
0
 62
4
 10
-9.04160504E+01
 20
2.16066822E+02
  0
VERTEX
  8
0
 62
4
 10
-9.07474818E+01
 20
2.16038477E+02
  0
VERTEX
  8
0
 62
4
 10
-9.10630829E+01
 20
2.16005126E+02
  0
VERTEX
  8
0
 62
4
 10
-9.13603523E+01
 20
2.15967033E+02
  0
VERTEX
  8
0
 62
4
 10
-9.16369343E+01
 20
2.15924500E+02
  0
VERTEX
  8
0
 62
4
 10
-9.18906367E+01
 20
2.15877865E+02
  0
VERTEX
  8
0
 62
4
 10
-9.21194490E+01
 20
2.15827496E+02
  0
VERTEX
  8
0
 62
4
 10
-9.23215578E+01
 20
2.15773793E+02
  0
VERTEX
  8
0
 62
4
 10
-9.24953613E+01
 20
2.15717181E+02
  0
VERTEX
  8
0
 62
4
 10
-9.26394821E+01
 20
2.15658110E+02
  0
VERTEX
  8
0
 62
4
 10
-9.27527781E+01
 20
2.15597047E+02
  0
VERTEX
  8
0
 62
4
 10
-9.28343513E+01
 20
2.15534477E+02
  0
VERTEX
  8
0
 62
4
 10
-9.28835552E+01
 20
2.15470894E+02
  0
VERTEX
  8
0
 62
4
 10
-9.29000000E+01
 20
2.15406804E+02
  0
SEQEND
  8
0
  0
ARC
  8
0
 62
4
 10
-8.87422617E+01
 20
2.24563910E+02
 40
1.18100000E+01
 50
2.69962458E+02
 51
2.89675999E+02
  0
ARC
  8
0
 62
4
 10
-8.87577383E+01
 20
2.24563910E+02
 40
1.18100000E+01
 50
2.50324001E+02
 51
2.70037542E+02
  0
LINE
  8
0
 62
4
 10
-9.29000000E+01
 20
2.13678879E+02
 11
-9.29000000E+01
 21
2.15406804E+02
  0
LINE
  8
0
 62
4
 10
-8.46000000E+01
 20
2.13678879E+02
 11
-8.46000000E+01
 21
2.13817989E+02
  0
LINE
  8
0
 62
4
 10
-9.27500000E+01
 20
2.15781031E+02
 11
-9.27500000E+01
 21
2.15598801E+02
  0
POLYLINE
  8
0
 62
4
 66
1
  0
VERTEX
  8
0
 62
4
 10
-8.50500000E+01
 20
2.16044953E+02
  0
VERTEX
  8
0
 62
4
 10
-8.51993080E+01
 20
2.16100873E+02
  0
VERTEX
  8
0
 62
4
 10
-8.53765767E+01
 20
2.16154274E+02
  0
VERTEX
  8
0
 62
4
 10
-8.55804101E+01
 20
2.16204736E+02
  0
VERTEX
  8
0
 62
4
 10
-8.58092032E+01
 20
2.16251861E+02
  0
VERTEX
  8
0
 62
4
 10
-8.60611542E+01
 20
2.16295279E+02
  0
VERTEX
  8
0
 62
4
 10
-8.63342792E+01
 20
2.16334647E+02
  0
VERTEX
  8
0
 62
4
 10
-8.66264273E+01
 20
2.16369656E+02
  0
VERTEX
  8
0
 62
4
 10
-8.69352979E+01
 20
2.16400029E+02
  0
VERTEX
  8
0
 62
4
 10
-8.72584588E+01
 20
2.16425528E+02
  0
VERTEX
  8
0
 62
4
 10
-8.75933652E+01
 20
2.16445952E+02
  0
VERTEX
  8
0
 62
4
 10
-8.79373798E+01
 20
2.16461139E+02
  0
VERTEX
  8
0
 62
4
 10
-8.82877935E+01
 20
2.16470971E+02
  0
VERTEX
  8
0
 62
4
 10
-8.86418469E+01
 20
2.16475370E+02
  0
VERTEX
  8
0
 62
4
 10
-8.89967521E+01
 20
2.16474301E+02
  0
VERTEX
  8
0
 62
4
 10
-8.93497141E+01
 20
2.16467773E+02
  0
VERTEX
  8
0
 62
4
 10
-8.96979536E+01
 20
2.16455837E+02
  0
VERTEX
  8
0
 62
4
 10
-9.00387281E+01
 20
2.16438586E+02
  0
VERTEX
  8
0
 62
4
 10
-9.03693543E+01
 20
2.16416158E+02
  0
VERTEX
  8
0
 62
4
 10
-9.06872286E+01
 20
2.16388729E+02
  0
VERTEX
  8
0
 62
4
 10
-9.09898477E+01
 20
2.16356514E+02
  0
VERTEX
  8
0
 62
4
 10
-9.12748286E+01
 20
2.16319767E+02
  0
VERTEX
  8
0
 62
4
 10
-9.15399272E+01
 20
2.16278778E+02
  0
VERTEX
  8
0
 62
4
 10
-9.17830559E+01
 20
2.16233869E+02
  0
VERTEX
  8
0
 62
4
 10
-9.20023002E+01
 20
2.16185394E+02
  0
VERTEX
  8
0
 62
4
 10
-9.21959334E+01
 20
2.16133735E+02
  0
VERTEX
  8
0
 62
4
 10
-9.23624309E+01
 20
2.16079299E+02
  0
VERTEX
  8
0
 62
4
 10
-9.25004816E+01
 20
2.16022514E+02
  0
VERTEX
  8
0
 62
4
 10
-9.26089982E+01
 20
2.15963827E+02
  0
VERTEX
  8
0
 62
4
 10
-9.26871262E+01
 20
2.15903701E+02
  0
VERTEX
  8
0
 62
4
 10
-9.27342506E+01
 20
2.15842608E+02
  0
VERTEX
  8
0
 62
4
 10
-9.27500000E+01
 20
2.15781031E+02
  0
SEQEND
  8
0
  0
ARC
  8
0
 62
4
 10
-9.08686056E+01
 20
2.25265120E+02
 40
1.25124521E+01
 50
2.74941635E+02
 51
2.88095416E+02
  0
ARC
  8
0
 62
4
 10
-8.66313942E+01
 20
2.25265123E+02
 40
1.25124547E+01
 50
2.51904586E+02
 51
2.65058365E+02
  0
POLYLINE
  8
0
 62
4
 66
1
  0
VERTEX
  8
0
 62
4
 10
-8.46000000E+01
 20
2.13673542E+02
  0
VERTEX
  8
0
 62
4
 10
-8.46167067E+01
 20
2.13738140E+02
  0
VERTEX
  8
0
 62
4
 10
-8.46666922E+01
 20
2.13802217E+02
  0
VERTEX
  8
0
 62
4
 10
-8.47495541E+01
 20
2.13865259E+02
  0
VERTEX
  8
0
 62
4
 10
-8.48646253E+01
 20
2.13926757E+02
  0
VERTEX
  8
0
 62
4
 10
-8.50109792E+01
 20
2.13986216E+02
  0
VERTEX
  8
0
 62
4
 10
-8.51874375E+01
 20
2.14043158E+02
  0
VERTEX
  8
0
 62
4
 10
-8.53925795E+01
 20
2.14097124E+02
  0
VERTEX
  8
0
 62
4
 10
-8.56247534E+01
 20
2.14147679E+02
  0
VERTEX
  8
0
 62
4
 10
-8.58820900E+01
 20
2.14194417E+02
  0
VERTEX
  8
0
 62
4
 10
-8.61625173E+01
 20
2.14236961E+02
  0
VERTEX
  8
0
 62
4
 10
-8.64637775E+01
 20
2.14274969E+02
  0
VERTEX
  8
0
 62
4
 10
-8.67834450E+01
 20
2.14308134E+02
  0
VERTEX
  8
0
 62
4
 10
-8.71189461E+01
 20
2.14336190E+02
  0
VERTEX
  8
0
 62
4
 10
-8.74675794E+01
 20
2.14358911E+02
  0
VERTEX
  8
0
 62
4
 10
-8.78265381E+01
 20
2.14376114E+02
  0
VERTEX
  8
0
 62
4
 10
-8.81929319E+01
 20
2.14387660E+02
  0
VERTEX
  8
0
 62
4
 10
-8.85638109E+01
 20
2.14393456E+02
  0
VERTEX
  8
0
 62
4
 10
-8.89361890E+01
 20
2.14393456E+02
  0
VERTEX
  8
0
 62
4
 10
-8.93070680E+01
 20
2.14387660E+02
  0
VERTEX
  8
0
 62
4
 10
-8.96734619E+01
 20
2.14376114E+02
  0
VERTEX
  8
0
 62
4
 10
-9.00324205E+01
 20
2.14358911E+02
  0
VERTEX
  8
0
 62
4
 10
-9.03810539E+01
 20
2.14336190E+02
  0
VERTEX
  8
0
 62
4
 10
-9.07165549E+01
 20
2.14308134E+02
  0
VERTEX
  8
0
 62
4
 10
-9.10362225E+01
 20
2.14274969E+02
  0
VERTEX
  8
0
 62
4
 10
-9.13374827E+01
 20
2.14236961E+02
  0
VERTEX
  8
0
 62
4
 10
-9.16179100E+01
 20
2.14194417E+02
  0
VERTEX
  8
0
 62
4
 10
-9.18752466E+01
 20
2.14147679E+02
  0
VERTEX
  8
0
 62
4
 10
-9.21074205E+01
 20
2.14097124E+02
  0
VERTEX
  8
0
 62
4
 10
-9.23125625E+01
 20
2.14043158E+02
  0
VERTEX
  8
0
 62
4
 10
-9.24890208E+01
 20
2.13986216E+02
  0
VERTEX
  8
0
 62
4
 10
-9.26353747E+01
 20
2.13926757E+02
  0
VERTEX
  8
0
 62
4
 10
-9.27504459E+01
 20
2.13865259E+02
  0
VERTEX
  8
0
 62
4
 10
-9.28333078E+01
 20
2.13802217E+02
  0
VERTEX
  8
0
 62
4
 10
-9.28832933E+01
 20
2.13738140E+02
  0
VERTEX
  8
0
 62
4
 10
-9.29000000E+01
 20
2.13673542E+02
  0
SEQEND
  8
0
  0
ARC
  8
0
 62
4
 10
-9.26500000E+01
 20
2.13678879E+02
 40
2.50000000E-01
 50
1.80000000E+02
 51
2.50324001E+02
  0
ARC
  8
0
 62
4
 10
-8.48500000E+01
 20
2.13678879E+02
 40
2.50000000E-01
 50
2.89675999E+02
 51
0.00000000E+00
  0
LINE
  8
0
 62
4
 10
-8.50500000E+01
 20
2.15403992E+02
 11
-8.50500000E+01
 21
2.16388800E+02
  0
LINE
  8
0
 62
4
 10
-7.74500000E+01
 20
2.15403992E+02
 11
-7.74500000E+01
 21
2.16388800E+02
  0
POLYLINE
  8
0
 62
4
 66
1
  0
VERTEX
  8
0
 62
4
 10
-7.74500000E+01
 20
2.16388800E+02
  0
VERTEX
  8
0
 62
4
 10
-7.74652977E+01
 20
2.16447950E+02
  0
VERTEX
  8
0
 62
4
 10
-7.75110676E+01
 20
2.16506623E+02
  0
VERTEX
  8
0
 62
4
 10
-7.75869411E+01
 20
2.16564348E+02
  0
VERTEX
  8
0
 62
4
 10
-7.76923075E+01
 20
2.16620659E+02
  0
VERTEX
  8
0
 62
4
 10
-7.78263183E+01
 20
2.16675104E+02
  0
VERTEX
  8
0
 62
4
 10
-7.79878946E+01
 20
2.16727243E+02
  0
VERTEX
  8
0
 62
4
 10
-7.81757354E+01
 20
2.16776658E+02
  0
VERTEX
  8
0
 62
4
 10
-7.83883284E+01
 20
2.16822949E+02
  0
VERTEX
  8
0
 62
4
 10
-7.86239619E+01
 20
2.16865746E+02
  0
VERTEX
  8
0
 62
4
 10
-7.88807387E+01
 20
2.16904702E+02
  0
VERTEX
  8
0
 62
4
 10
-7.91565915E+01
 20
2.16939504E+02
  0
VERTEX
  8
0
 62
4
 10
-7.94492991E+01
 20
2.16969872E+02
  0
VERTEX
  8
0
 62
4
 10
-7.97565049E+01
 20
2.16995562E+02
  0
VERTEX
  8
0
 62
4
 10
-8.00757354E+01
 20
2.17016367E+02
  0
VERTEX
  8
0
 62
4
 10
-8.04044204E+01
 20
2.17032119E+02
  0
VERTEX
  8
0
 62
4
 10
-8.07399136E+01
 20
2.17042691E+02
  0
VERTEX
  8
0
 62
4
 10
-8.10795136E+01
 20
2.17047999E+02
  0
VERTEX
  8
0
 62
4
 10
-8.14204863E+01
 20
2.17047999E+02
  0
VERTEX
  8
0
 62
4
 10
-8.17600864E+01
 20
2.17042691E+02
  0
VERTEX
  8
0
 62
4
 10
-8.20955795E+01
 20
2.17032119E+02
  0
VERTEX
  8
0
 62
4
 10
-8.24242646E+01
 20
2.17016367E+02
  0
VERTEX
  8
0
 62
4
 10
-8.27434951E+01
 20
2.16995562E+02
  0
VERTEX
  8
0
 62
4
 10
-8.30507009E+01
 20
2.16969872E+02
  0
VERTEX
  8
0
 62
4
 10
-8.33434085E+01
 20
2.16939504E+02
  0
VERTEX
  8
0
 62
4
 10
-8.36192612E+01
 20
2.16904702E+02
  0
VERTEX
  8
0
 62
4
 10
-8.38760380E+01
 20
2.16865746E+02
  0
VERTEX
  8
0
 62
4
 10
-8.41116716E+01
 20
2.16822949E+02
  0
VERTEX
  8
0
 62
4
 10
-8.43242646E+01
 20
2.16776658E+02
  0
VERTEX
  8
0
 62
4
 10
-8.45121054E+01
 20
2.16727243E+02
  0
VERTEX
  8
0
 62
4
 10
-8.46736817E+01
 20
2.16675104E+02
  0
VERTEX
  8
0
 62
4
 10
-8.48076925E+01
 20
2.16620659E+02
  0
VERTEX
  8
0
 62
4
 10
-8.49130589E+01
 20
2.16564348E+02
  0
VERTEX
  8
0
 62
4
 10
-8.49889324E+01
 20
2.16506623E+02
  0
VERTEX
  8
0
 62
4
 10
-8.50347023E+01
 20
2.16447950E+02
  0
VERTEX
  8
0
 62
4
 10
-8.50500000E+01
 20
2.16388800E+02
  0
SEQEND
  8
0
  0
POLYLINE
  8
0
 62
4
 66
1
  0
VERTEX
  8
0
 62
4
 10
-7.78500000E+01
 20
2.15109301E+02
  0
VERTEX
  8
0
 62
4
 10
-7.77134183E+01
 20
2.15162590E+02
  0
VERTEX
  8
0
 62
4
 10
-7.76044705E+01
 20
2.15217766E+02
  0
VERTEX
  8
0
 62
4
 10
-7.75240077E+01
 20
2.15274396E+02
  0
VERTEX
  8
0
 62
4
 10
-7.74726587E+01
 20
2.15332039E+02
  0
VERTEX
  8
0
 62
4
 10
-7.74508247E+01
 20
2.15390245E+02
  0
VERTEX
  8
0
 62
4
 10
-7.74586764E+01
 20
2.15448558E+02
  0
VERTEX
  8
0
 62
4
 10
-7.74961524E+01
 20
2.15506522E+02
  0
VERTEX
  8
0
 62
4
 10
-7.75629598E+01
 20
2.15563685E+02
  0
VERTEX
  8
0
 62
4
 10
-7.76585766E+01
 20
2.15619601E+02
  0
VERTEX
  8
0
 62
4
 10
-7.77822558E+01
 20
2.15673832E+02
  0
VERTEX
  8
0
 62
4
 10
-7.79330309E+01
 20
2.15725954E+02
  0
VERTEX
  8
0
 62
4
 10
-7.81097238E+01
 20
2.15775561E+02
  0
VERTEX
  8
0
 62
4
 10
-7.83109538E+01
 20
2.15822265E+02
  0
VERTEX
  8
0
 62
4
 10
-7.85351488E+01
 20
2.15865700E+02
  0
VERTEX
  8
0
 62
4
 10
-7.87805567E+01
 20
2.15905527E+02
  0
VERTEX
  8
0
 62
4
 10
-7.90452602E+01
 20
2.15941436E+02
  0
VERTEX
  8
0
 62
4
 10
-7.93271908E+01
 20
2.15973145E+02
  0
VERTEX
  8
0
 62
4
 10
-7.96241457E+01
 20
2.16000407E+02
  0
VERTEX
  8
0
 62
4
 10
-7.99338046E+01
 20
2.16023009E+02
  0
VERTEX
  8
0
 62
4
 10
-8.02537478E+01
 20
2.16040774E+02
  0
VERTEX
  8
0
 62
4
 10
-8.05814754E+01
 20
2.16053563E+02
  0
VERTEX
  8
0
 62
4
 10
-8.09144267E+01
 20
2.16061277E+02
  0
VERTEX
  8
0
 62
4
 10
-8.12500000E+01
 20
2.16063855E+02
  0
VERTEX
  8
0
 62
4
 10
-8.15855734E+01
 20
2.16061277E+02
  0
VERTEX
  8
0
 62
4
 10
-8.19185246E+01
 20
2.16053563E+02
  0
VERTEX
  8
0
 62
4
 10
-8.22462523E+01
 20
2.16040774E+02
  0
VERTEX
  8
0
 62
4
 10
-8.25661955E+01
 20
2.16023009E+02
  0
VERTEX
  8
0
 62
4
 10
-8.28758543E+01
 20
2.16000407E+02
  0
VERTEX
  8
0
 62
4
 10
-8.31728092E+01
 20
2.15973145E+02
  0
VERTEX
  8
0
 62
4
 10
-8.34547399E+01
 20
2.15941436E+02
  0
VERTEX
  8
0
 62
4
 10
-8.37194433E+01
 20
2.15905527E+02
  0
VERTEX
  8
0
 62
4
 10
-8.39648513E+01
 20
2.15865700E+02
  0
VERTEX
  8
0
 62
4
 10
-8.41890462E+01
 20
2.15822265E+02
  0
VERTEX
  8
0
 62
4
 10
-8.43902763E+01
 20
2.15775561E+02
  0
VERTEX
  8
0
 62
4
 10
-8.45669692E+01
 20
2.15725954E+02
  0
VERTEX
  8
0
 62
4
 10
-8.47177442E+01
 20
2.15673832E+02
  0
VERTEX
  8
0
 62
4
 10
-8.48414234E+01
 20
2.15619601E+02
  0
VERTEX
  8
0
 62
4
 10
-8.49370402E+01
 20
2.15563686E+02
  0
VERTEX
  8
0
 62
4
 10
-8.50038476E+01
 20
2.15506522E+02
  0
VERTEX
  8
0
 62
4
 10
-8.50413236E+01
 20
2.15448558E+02
  0
VERTEX
  8
0
 62
4
 10
-8.50491753E+01
 20
2.15390245E+02
  0
VERTEX
  8
0
 62
4
 10
-8.50273413E+01
 20
2.15332039E+02
  0
VERTEX
  8
0
 62
4
 10
-8.49759923E+01
 20
2.15274396E+02
  0
VERTEX
  8
0
 62
4
 10
-8.48955295E+01
 20
2.15217766E+02
  0
VERTEX
  8
0
 62
4
 10
-8.47865817E+01
 20
2.15162590E+02
  0
VERTEX
  8
0
 62
4
 10
-8.46500000E+01
 20
2.15109301E+02
  0
SEQEND
  8
0
  0
LINE
  8
0
 62
4
 10
-8.46500000E+01
 20
2.14130239E+02
 11
-8.46500000E+01
 21
2.15403992E+02
  0
LINE
  8
0
 62
4
 10
-7.78500000E+01
 20
2.14130239E+02
 11
-7.78500000E+01
 21
2.15403992E+02
  0
POLYLINE
  8
0
 62
4
 66
1
  0
VERTEX
  8
0
 62
4
 10
-7.78500000E+01
 20
2.15403992E+02
  0
VERTEX
  8
0
 62
4
 10
-7.78636874E+01
 20
2.15456915E+02
  0
VERTEX
  8
0
 62
4
 10
-7.79046394E+01
 20
2.15509413E+02
  0
VERTEX
  8
0
 62
4
 10
-7.79725263E+01
 20
2.15561061E+02
  0
VERTEX
  8
0
 62
4
 10
-7.80668014E+01
 20
2.15611445E+02
  0
VERTEX
  8
0
 62
4
 10
-7.81867058E+01
 20
2.15660159E+02
  0
VERTEX
  8
0
 62
4
 10
-7.83312741E+01
 20
2.15706810E+02
  0
VERTEX
  8
0
 62
4
 10
-7.84993422E+01
 20
2.15751023E+02
  0
VERTEX
  8
0
 62
4
 10
-7.86895570E+01
 20
2.15792442E+02
  0
VERTEX
  8
0
 62
4
 10
-7.89003870E+01
 20
2.15830733E+02
  0
VERTEX
  8
0
 62
4
 10
-7.91301347E+01
 20
2.15865588E+02
  0
VERTEX
  8
0
 62
4
 10
-7.93769502E+01
 20
2.15896727E+02
  0
VERTEX
  8
0
 62
4
 10
-7.96388465E+01
 20
2.15923899E+02
  0
VERTEX
  8
0
 62
4
 10
-7.99137149E+01
 20
2.15946885E+02
  0
VERTEX
  8
0
 62
4
 10
-8.01993422E+01
 20
2.15965499E+02
  0
VERTEX
  8
0
 62
4
 10
-8.04934288E+01
 20
2.15979593E+02
  0
VERTEX
  8
0
 62
4
 10
-8.07936069E+01
 20
2.15989053E+02
  0
VERTEX
  8
0
 62
4
 10
-8.10974596E+01
 20
2.15993801E+02
  0
VERTEX
  8
0
 62
4
 10
-8.14025404E+01
 20
2.15993801E+02
  0
VERTEX
  8
0
 62
4
 10
-8.17063931E+01
 20
2.15989053E+02
  0
VERTEX
  8
0
 62
4
 10
-8.20065712E+01
 20
2.15979593E+02
  0
VERTEX
  8
0
 62
4
 10
-8.23006578E+01
 20
2.15965499E+02
  0
VERTEX
  8
0
 62
4
 10
-8.25862851E+01
 20
2.15946885E+02
  0
VERTEX
  8
0
 62
4
 10
-8.28611534E+01
 20
2.15923899E+02
  0
VERTEX
  8
0
 62
4
 10
-8.31230497E+01
 20
2.15896727E+02
  0
VERTEX
  8
0
 62
4
 10
-8.33698653E+01
 20
2.15865588E+02
  0
VERTEX
  8
0
 62
4
 10
-8.35996130E+01
 20
2.15830733E+02
  0
VERTEX
  8
0
 62
4
 10
-8.38104430E+01
 20
2.15792442E+02
  0
VERTEX
  8
0
 62
4
 10
-8.40006578E+01
 20
2.15751023E+02
  0
VERTEX
  8
0
 62
4
 10
-8.41687259E+01
 20
2.15706810E+02
  0
VERTEX
  8
0
 62
4
 10
-8.43132941E+01
 20
2.15660159E+02
  0
VERTEX
  8
0
 62
4
 10
-8.44331986E+01
 20
2.15611445E+02
  0
VERTEX
  8
0
 62
4
 10
-8.45274737E+01
 20
2.15561061E+02
  0
VERTEX
  8
0
 62
4
 10
-8.45953606E+01
 20
2.15509413E+02
  0
VERTEX
  8
0
 62
4
 10
-8.46363126E+01
 20
2.15456915E+02
  0
VERTEX
  8
0
 62
4
 10
-8.46500000E+01
 20
2.15403992E+02
  0
SEQEND
  8
0
  0
ARC
  8
0
 62
4
 10
-8.12500000E+01
 20
2.24670453E+02
 40
1.18100000E+01
 50
2.57172490E+02
 51
2.82827510E+02
  0
ARC
  8
0
 62
4
 10
-7.88499997E+01
 20
2.14130239E+02
 40
1.00000000E+00
 50
2.82827510E+02
 51
5.08888749E-14
  0
ARC
  8
0
 62
4
 10
-8.36500003E+01
 20
2.14130239E+02
 40
1.00000000E+00
 50
1.80000000E+02
 51
2.57172490E+02
  0
ARC
  8
0
 62
4
 10
-8.33717535E+01
 20
2.25389596E+02
 40
1.25306621E+01
 50
2.74968660E+02
 51
2.88083352E+02
  0
ARC
  8
0
 62
4
 10
-7.91282464E+01
 20
2.25389597E+02
 40
1.25306626E+01
 50
2.51916648E+02
 51
2.65031340E+02
  0
LINE
  8
0
  6
CENTER
 62
6
 10
-9.12500000E+01
 20
2.15781031E+02
 11
-8.62500000E+01
 21
2.15781031E+02
  0
LINE
  8
0
  6
CENTER
 62
6
 10
-8.12500000E+01
 20
2.18888800E+02
 11
-8.12500000E+01
 21
2.13888800E+02
  0
LINE
  8
0
  6
CENTER
 62
6
 10
-8.37500000E+01
 20
2.16388800E+02
 11
-7.87500000E+01
 21
2.16388800E+02
  0
LINE
  8
0
  6
CENTER
 62
6
 10
-9.62500000E+01
 20
2.18888800E+02
 11
-9.62500000E+01
 21
2.13888800E+02
  0
LINE
  8
0
  6
CENTER
 62
6
 10
-9.87500000E+01
 20
2.16388800E+02
 11
-9.37500000E+01
 21
2.16388800E+02
  0
LINE
  8
0
 62
4
 10
-7.74568894E+01
 20
2.15364275E+02
 11
-7.37500000E+01
 21
2.15364275E+02
  0
LINE
  8
0
 62
6
 10
-3.97500000E+01
 20
1.74366160E+02
 11
-3.97500000E+01
 21
1.76717196E+02
  0
LINE
  8
0
 62
6
 10
-4.27500000E+01
 20
1.74366160E+02
 11
-4.27500000E+01
 21
1.76717196E+02
  0
LINE
  8
0
 62
4
 10
-3.92500000E+01
 20
1.74595875E+02
 11
-3.92500000E+01
 21
1.76717196E+02
  0
LINE
  8
0
 62
4
 10
-4.32500000E+01
 20
1.74595875E+02
 11
-4.32500000E+01
 21
1.76717196E+02
  0
LINE
  8
0
 62
4
 10
-2.97500000E+01
 20
1.76717196E+02
 11
-2.97500000E+01
 21
1.89425193E+02
  0
LINE
  8
0
 62
4
 10
-4.47500000E+01
 20
1.76717196E+02
 11
-4.47500000E+01
 21
2.02347084E+02
  0
LINE
  8
0
 62
4
 10
-1.47500000E+01
 20
1.89425193E+02
 11
-1.47500000E+01
 21
2.01374654E+02
  0
LINE
  8
0
  6
CENTER
 62
6
 10
-4.12500000E+01
 20
1.71253901E+02
 11
-4.12500000E+01
 21
1.81519480E+02
  0
LINE
  8
0
  6
CENTER
 62
6
 10
-3.32500000E+01
 20
1.71253901E+02
 11
-3.32500000E+01
 21
1.81519480E+02
  0
LINE
  8
0
  6
CENTER
 62
6
 10
-2.97500000E+01
 20
1.98457898E+02
 11
-2.97500000E+01
 21
2.03457898E+02
  0
LINE
  8
0
 62
4
 10
-2.97500000E+01
 20
1.76717196E+02
 11
-4.47500000E+01
 21
1.76717196E+02
  0
LINE
  8
0
 62
4
 10
-2.97500000E+01
 20
1.82531539E+02
 11
-4.47500000E+01
 21
1.82531539E+02
  0
LINE
  8
0
 62
4
 10
-1.47500000E+01
 20
1.89425193E+02
 11
-4.47500000E+01
 21
1.89425193E+02
  0
LINE
  8
0
 62
4
 10
-1.47500000E+01
 20
1.99568713E+02
 11
-4.47500000E+01
 21
1.99568713E+02
  0
LINE
  8
0
 62
4
 10
-4.06500000E+01
 20
2.02347084E+02
 11
-4.47500000E+01
 21
2.02347084E+02
  0
LINE
  8
0
 62
4
 10
-4.06500000E+01
 20
2.02173436E+02
 11
-4.47500000E+01
 21
2.02173436E+02
  0
LINE
  8
0
 62
4
 10
-1.47500000E+01
 20
2.01374654E+02
 11
-2.56000000E+01
 21
2.01374654E+02
  0
POLYLINE
  8
0
 62
4
 66
1
  0
VERTEX
  8
0
 62
4
 10
-4.32500000E+01
 20
1.74595875E+02
  0
VERTEX
  8
0
 62
4
 10
-4.32419486E+01
 20
1.74564744E+02
  0
VERTEX
  8
0
 62
4
 10
-4.32178592E+01
 20
1.74533863E+02
  0
VERTEX
  8
0
 62
4
 10
-4.31779257E+01
 20
1.74503481E+02
  0
VERTEX
  8
0
 62
4
 10
-4.31224697E+01
 20
1.74473844E+02
  0
VERTEX
  8
0
 62
4
 10
-4.30519377E+01
 20
1.74445189E+02
  0
VERTEX
  8
0
 62
4
 10
-4.29668976E+01
 20
1.74417747E+02
  0
VERTEX
  8
0
 62
4
 10
-4.28680340E+01
 20
1.74391739E+02
  0
VERTEX
  8
0
 62
4
 10
-4.27561429E+01
 20
1.74367375E+02
  0
VERTEX
  8
0
 62
4
 10
-4.26321253E+01
 20
1.74344851E+02
  0
VERTEX
  8
0
 62
4
 10
-4.24969796E+01
 20
1.74324348E+02
  0
VERTEX
  8
0
 62
4
 10
-4.23517940E+01
 20
1.74306031E+02
  0
VERTEX
  8
0
 62
4
 10
-4.21977373E+01
 20
1.74290047E+02
  0
VERTEX
  8
0
 62
4
 10
-4.20360501E+01
 20
1.74276526E+02
  0
VERTEX
  8
0
 62
4
 10
-4.18680340E+01
 20
1.74265577E+02
  0
VERTEX
  8
0
 62
4
 10
-4.16950419E+01
 20
1.74257286E+02
  0
VERTEX
  8
0
 62
4
 10
-4.15184665E+01
 20
1.74251722E+02
  0
VERTEX
  8
0
 62
4
 10
-4.13397297E+01
 20
1.74248928E+02
  0
VERTEX
  8
0
 62
4
 10
-4.11602704E+01
 20
1.74248928E+02
  0
VERTEX
  8
0
 62
4
 10
-4.09815335E+01
 20
1.74251722E+02
  0
VERTEX
  8
0
 62
4
 10
-4.08049581E+01
 20
1.74257286E+02
  0
VERTEX
  8
0
 62
4
 10
-4.06319660E+01
 20
1.74265577E+02
  0
VERTEX
  8
0
 62
4
 10
-4.04639499E+01
 20
1.74276526E+02
  0
VERTEX
  8
0
 62
4
 10
-4.03022627E+01
 20
1.74290047E+02
  0
VERTEX
  8
0
 62
4
 10
-4.01482060E+01
 20
1.74306031E+02
  0
VERTEX
  8
0
 62
4
 10
-4.00030204E+01
 20
1.74324348E+02
  0
VERTEX
  8
0
 62
4
 10
-3.98678747E+01
 20
1.74344851E+02
  0
VERTEX
  8
0
 62
4
 10
-3.97438571E+01
 20
1.74367375E+02
  0
VERTEX
  8
0
 62
4
 10
-3.96319660E+01
 20
1.74391739E+02
  0
VERTEX
  8
0
 62
4
 10
-3.95331024E+01
 20
1.74417747E+02
  0
VERTEX
  8
0
 62
4
 10
-3.94480623E+01
 20
1.74445189E+02
  0
VERTEX
  8
0
 62
4
 10
-3.93775303E+01
 20
1.74473844E+02
  0
VERTEX
  8
0
 62
4
 10
-3.93220743E+01
 20
1.74503481E+02
  0
VERTEX
  8
0
 62
4
 10
-3.92821408E+01
 20
1.74533863E+02
  0
VERTEX
  8
0
 62
4
 10
-3.92580514E+01
 20
1.74564744E+02
  0
VERTEX
  8
0
 62
4
 10
-3.92500000E+01
 20
1.74595875E+02
  0
SEQEND
  8
0
  0
LINE
  8
0
 62
6
 10
-3.17500000E+01
 20
1.74366160E+02
 11
-3.17500000E+01
 21
1.76717196E+02
  0
LINE
  8
0
 62
6
 10
-3.47500000E+01
 20
1.74366160E+02
 11
-3.47500000E+01
 21
1.76717196E+02
  0
LINE
  8
0
 62
4
 10
-3.12500000E+01
 20
1.74595875E+02
 11
-3.12500000E+01
 21
1.76717196E+02
  0
LINE
  8
0
 62
4
 10
-3.52500000E+01
 20
1.74595875E+02
 11
-3.52500000E+01
 21
1.76717196E+02
  0
POLYLINE
  8
0
 62
4
 66
1
  0
VERTEX
  8
0
 62
4
 10
-3.52500000E+01
 20
1.74595875E+02
  0
VERTEX
  8
0
 62
4
 10
-3.52419486E+01
 20
1.74564744E+02
  0
VERTEX
  8
0
 62
4
 10
-3.52178592E+01
 20
1.74533863E+02
  0
VERTEX
  8
0
 62
4
 10
-3.51779257E+01
 20
1.74503481E+02
  0
VERTEX
  8
0
 62
4
 10
-3.51224697E+01
 20
1.74473844E+02
  0
VERTEX
  8
0
 62
4
 10
-3.50519377E+01
 20
1.74445189E+02
  0
VERTEX
  8
0
 62
4
 10
-3.49668976E+01
 20
1.74417747E+02
  0
VERTEX
  8
0
 62
4
 10
-3.48680340E+01
 20
1.74391739E+02
  0
VERTEX
  8
0
 62
4
 10
-3.47561429E+01
 20
1.74367375E+02
  0
VERTEX
  8
0
 62
4
 10
-3.46321253E+01
 20
1.74344851E+02
  0
VERTEX
  8
0
 62
4
 10
-3.44969796E+01
 20
1.74324348E+02
  0
VERTEX
  8
0
 62
4
 10
-3.43517940E+01
 20
1.74306031E+02
  0
VERTEX
  8
0
 62
4
 10
-3.41977373E+01
 20
1.74290047E+02
  0
VERTEX
  8
0
 62
4
 10
-3.40360501E+01
 20
1.74276526E+02
  0
VERTEX
  8
0
 62
4
 10
-3.38680340E+01
 20
1.74265577E+02
  0
VERTEX
  8
0
 62
4
 10
-3.36950419E+01
 20
1.74257286E+02
  0
VERTEX
  8
0
 62
4
 10
-3.35184665E+01
 20
1.74251722E+02
  0
VERTEX
  8
0
 62
4
 10
-3.33397297E+01
 20
1.74248928E+02
  0
VERTEX
  8
0
 62
4
 10
-3.31602704E+01
 20
1.74248928E+02
  0
VERTEX
  8
0
 62
4
 10
-3.29815335E+01
 20
1.74251722E+02
  0
VERTEX
  8
0
 62
4
 10
-3.28049581E+01
 20
1.74257286E+02
  0
VERTEX
  8
0
 62
4
 10
-3.26319660E+01
 20
1.74265577E+02
  0
VERTEX
  8
0
 62
4
 10
-3.24639499E+01
 20
1.74276526E+02
  0
VERTEX
  8
0
 62
4
 10
-3.23022627E+01
 20
1.74290047E+02
  0
VERTEX
  8
0
 62
4
 10
-3.21482060E+01
 20
1.74306031E+02
  0
VERTEX
  8
0
 62
4
 10
-3.20030204E+01
 20
1.74324348E+02
  0
VERTEX
  8
0
 62
4
 10
-3.18678747E+01
 20
1.74344851E+02
  0
VERTEX
  8
0
 62
4
 10
-3.17438571E+01
 20
1.74367375E+02
  0
VERTEX
  8
0
 62
4
 10
-3.16319660E+01
 20
1.74391739E+02
  0
VERTEX
  8
0
 62
4
 10
-3.15331024E+01
 20
1.74417747E+02
  0
VERTEX
  8
0
 62
4
 10
-3.14480623E+01
 20
1.74445189E+02
  0
VERTEX
  8
0
 62
4
 10
-3.13775303E+01
 20
1.74473844E+02
  0
VERTEX
  8
0
 62
4
 10
-3.13220743E+01
 20
1.74503481E+02
  0
VERTEX
  8
0
 62
4
 10
-3.12821408E+01
 20
1.74533863E+02
  0
VERTEX
  8
0
 62
4
 10
-3.12580514E+01
 20
1.74564744E+02
  0
VERTEX
  8
0
 62
4
 10
-3.12500000E+01
 20
1.74595875E+02
  0
SEQEND
  8
0
  0
LINE
  8
0
 62
4
 10
-1.47500000E+01
 20
1.97719209E+02
 11
-1.32500000E+01
 21
1.98722141E+02
  0
LINE
  8
0
 62
4
 10
-1.32500000E+01
 20
1.98722141E+02
 11
-1.32500000E+01
 21
2.01346044E+02
  0
LINE
  8
0
 62
4
 10
-1.32500000E+01
 20
2.00952731E+02
 11
-1.47500000E+01
 21
2.01658440E+02
  0
LINE
  8
0
 62
4
 10
-1.32500000E+01
 20
2.01346044E+02
 11
-1.47500000E+01
 21
2.02353032E+02
  0
LINE
  8
0
 62
4
 10
-1.47500000E+01
 20
2.02353032E+02
 11
-2.56000000E+01
 21
2.02353032E+02
  0
LINE
  8
0
 62
4
 10
-1.47500000E+01
 20
2.01658440E+02
 11
-2.56000000E+01
 21
2.01658440E+02
  0
LINE
  8
0
 62
4
 10
-1.47500000E+01
 20
2.01374654E+02
 11
-1.47500000E+01
 21
2.02347084E+02
  0
POLYLINE
  8
0
 62
4
 66
1
  0
VERTEX
  8
0
 62
4
 10
-3.34500000E+01
 20
2.01005754E+02
  0
VERTEX
  8
0
 62
4
 10
-3.32681850E+01
 20
2.00949907E+02
  0
VERTEX
  8
0
 62
4
 10
-3.30584878E+01
 20
2.00897088E+02
  0
VERTEX
  8
0
 62
4
 10
-3.28225701E+01
 20
2.00847718E+02
  0
VERTEX
  8
0
 62
4
 10
-3.25623018E+01
 20
2.00802186E+02
  0
VERTEX
  8
0
 62
4
 10
-3.22797455E+01
 20
2.00760855E+02
  0
VERTEX
  8
0
 62
4
 10
-3.19771404E+01
 20
2.00724050E+02
  0
VERTEX
  8
0
 62
4
 10
-3.16568849E+01
 20
2.00692065E+02
  0
VERTEX
  8
0
 62
4
 10
-3.13215169E+01
 20
2.00665152E+02
  0
VERTEX
  8
0
 62
4
 10
-3.09736944E+01
 20
2.00643526E+02
  0
VERTEX
  8
0
 62
4
 10
-3.06161738E+01
 20
2.00627356E+02
  0
VERTEX
  8
0
 62
4
 10
-3.02517887E+01
 20
2.00616772E+02
  0
VERTEX
  8
0
 62
4
 10
-2.98834268E+01
 20
2.00611858E+02
  0
VERTEX
  8
0
 62
4
 10
-2.95140075E+01
 20
2.00612651E+02
  0
VERTEX
  8
0
 62
4
 10
-2.91464584E+01
 20
2.00619147E+02
  0
VERTEX
  8
0
 62
4
 10
-2.87836926E+01
 20
2.00631293E+02
  0
VERTEX
  8
0
 62
4
 10
-2.84285849E+01
 20
2.00648993E+02
  0
VERTEX
  8
0
 62
4
 10
-2.80839496E+01
 20
2.00672107E+02
  0
VERTEX
  8
0
 62
4
 10
-2.77525182E+01
 20
2.00700452E+02
  0
VERTEX
  8
0
 62
4
 10
-2.74369171E+01
 20
2.00733803E+02
  0
VERTEX
  8
0
 62
4
 10
-2.71396477E+01
 20
2.00771896E+02
  0
VERTEX
  8
0
 62
4
 10
-2.68630657E+01
 20
2.00814429E+02
  0
VERTEX
  8
0
 62
4
 10
-2.66093633E+01
 20
2.00861064E+02
  0
VERTEX
  8
0
 62
4
 10
-2.63805510E+01
 20
2.00911433E+02
  0
VERTEX
  8
0
 62
4
 10
-2.61784422E+01
 20
2.00965136E+02
  0
VERTEX
  8
0
 62
4
 10
-2.60046387E+01
 20
2.01021748E+02
  0
VERTEX
  8
0
 62
4
 10
-2.58605179E+01
 20
2.01080819E+02
  0
VERTEX
  8
0
 62
4
 10
-2.57472219E+01
 20
2.01141882E+02
  0
VERTEX
  8
0
 62
4
 10
-2.56656487E+01
 20
2.01204452E+02
  0
VERTEX
  8
0
 62
4
 10
-2.56164448E+01
 20
2.01268035E+02
  0
VERTEX
  8
0
 62
4
 10
-2.56000000E+01
 20
2.01332125E+02
  0
SEQEND
  8
0
  0
ARC
  8
0
 62
4
 10
-2.97577383E+01
 20
1.92175019E+02
 40
1.18100000E+01
 50
8.99624577E+01
 51
1.09675998E+02
  0
ARC
  8
0
 62
4
 10
-2.97422617E+01
 20
1.92175019E+02
 40
1.18100000E+01
 50
7.03240015E+01
 51
9.00375421E+01
  0
LINE
  8
0
 62
4
 10
-2.56000000E+01
 20
2.03060050E+02
 11
-2.56000000E+01
 21
2.01332125E+02
  0
LINE
  8
0
 62
4
 10
-3.39000000E+01
 20
2.03060050E+02
 11
-3.39000000E+01
 21
2.02920941E+02
  0
LINE
  8
0
 62
4
 10
-2.57500000E+01
 20
2.00957898E+02
 11
-2.57500000E+01
 21
2.01140128E+02
  0
POLYLINE
  8
0
 62
4
 66
1
  0
VERTEX
  8
0
 62
4
 10
-3.34500000E+01
 20
2.00693976E+02
  0
VERTEX
  8
0
 62
4
 10
-3.33006920E+01
 20
2.00638056E+02
  0
VERTEX
  8
0
 62
4
 10
-3.31234233E+01
 20
2.00584655E+02
  0
VERTEX
  8
0
 62
4
 10
-3.29195899E+01
 20
2.00534193E+02
  0
VERTEX
  8
0
 62
4
 10
-3.26907968E+01
 20
2.00487068E+02
  0
VERTEX
  8
0
 62
4
 10
-3.24388458E+01
 20
2.00443650E+02
  0
VERTEX
  8
0
 62
4
 10
-3.21657208E+01
 20
2.00404282E+02
  0
VERTEX
  8
0
 62
4
 10
-3.18735727E+01
 20
2.00369273E+02
  0
VERTEX
  8
0
 62
4
 10
-3.15647021E+01
 20
2.00338900E+02
  0
VERTEX
  8
0
 62
4
 10
-3.12415412E+01
 20
2.00313401E+02
  0
VERTEX
  8
0
 62
4
 10
-3.09066348E+01
 20
2.00292977E+02
  0
VERTEX
  8
0
 62
4
 10
-3.05626202E+01
 20
2.00277790E+02
  0
VERTEX
  8
0
 62
4
 10
-3.02122065E+01
 20
2.00267958E+02
  0
VERTEX
  8
0
 62
4
 10
-2.98581531E+01
 20
2.00263559E+02
  0
VERTEX
  8
0
 62
4
 10
-2.95032479E+01
 20
2.00264628E+02
  0
VERTEX
  8
0
 62
4
 10
-2.91502859E+01
 20
2.00271156E+02
  0
VERTEX
  8
0
 62
4
 10
-2.88020464E+01
 20
2.00283092E+02
  0
VERTEX
  8
0
 62
4
 10
-2.84612719E+01
 20
2.00300343E+02
  0
VERTEX
  8
0
 62
4
 10
-2.81306456E+01
 20
2.00322771E+02
  0
VERTEX
  8
0
 62
4
 10
-2.78127714E+01
 20
2.00350200E+02
  0
VERTEX
  8
0
 62
4
 10
-2.75101523E+01
 20
2.00382415E+02
  0
VERTEX
  8
0
 62
4
 10
-2.72251714E+01
 20
2.00419162E+02
  0
VERTEX
  8
0
 62
4
 10
-2.69600728E+01
 20
2.00460151E+02
  0
VERTEX
  8
0
 62
4
 10
-2.67169441E+01
 20
2.00505060E+02
  0
VERTEX
  8
0
 62
4
 10
-2.64976998E+01
 20
2.00553535E+02
  0
VERTEX
  8
0
 62
4
 10
-2.63040666E+01
 20
2.00605194E+02
  0
VERTEX
  8
0
 62
4
 10
-2.61375691E+01
 20
2.00659630E+02
  0
VERTEX
  8
0
 62
4
 10
-2.59995184E+01
 20
2.00716415E+02
  0
VERTEX
  8
0
 62
4
 10
-2.58910018E+01
 20
2.00775102E+02
  0
VERTEX
  8
0
 62
4
 10
-2.58128737E+01
 20
2.00835229E+02
  0
VERTEX
  8
0
 62
4
 10
-2.57657494E+01
 20
2.00896321E+02
  0
VERTEX
  8
0
 62
4
 10
-2.57500000E+01
 20
2.00957898E+02
  0
SEQEND
  8
0
  0
ARC
  8
0
 62
4
 10
-2.76313944E+01
 20
1.91473809E+02
 40
1.25124521E+01
 50
9.49416351E+01
 51
1.08095416E+02
  0
ARC
  8
0
 62
4
 10
-3.18686058E+01
 20
1.91473807E+02
 40
1.25124547E+01
 50
7.19045858E+01
 51
8.50583647E+01
  0
POLYLINE
  8
0
 62
4
 66
1
  0
VERTEX
  8
0
 62
4
 10
-3.39000000E+01
 20
2.03065387E+02
  0
VERTEX
  8
0
 62
4
 10
-3.38832933E+01
 20
2.03000789E+02
  0
VERTEX
  8
0
 62
4
 10
-3.38333078E+01
 20
2.02936712E+02
  0
VERTEX
  8
0
 62
4
 10
-3.37504459E+01
 20
2.02873670E+02
  0
VERTEX
  8
0
 62
4
 10
-3.36353747E+01
 20
2.02812172E+02
  0
VERTEX
  8
0
 62
4
 10
-3.34890208E+01
 20
2.02752713E+02
  0
VERTEX
  8
0
 62
4
 10
-3.33125625E+01
 20
2.02695771E+02
  0
VERTEX
  8
0
 62
4
 10
-3.31074205E+01
 20
2.02641805E+02
  0
VERTEX
  8
0
 62
4
 10
-3.28752466E+01
 20
2.02591250E+02
  0
VERTEX
  8
0
 62
4
 10
-3.26179100E+01
 20
2.02544512E+02
  0
VERTEX
  8
0
 62
4
 10
-3.23374827E+01
 20
2.02501968E+02
  0
VERTEX
  8
0
 62
4
 10
-3.20362225E+01
 20
2.02463960E+02
  0
VERTEX
  8
0
 62
4
 10
-3.17165550E+01
 20
2.02430795E+02
  0
VERTEX
  8
0
 62
4
 10
-3.13810539E+01
 20
2.02402739E+02
  0
VERTEX
  8
0
 62
4
 10
-3.10324205E+01
 20
2.02380018E+02
  0
VERTEX
  8
0
 62
4
 10
-3.06734619E+01
 20
2.02362815E+02
  0
VERTEX
  8
0
 62
4
 10
-3.03070681E+01
 20
2.02351269E+02
  0
VERTEX
  8
0
 62
4
 10
-2.99361891E+01
 20
2.02345473E+02
  0
VERTEX
  8
0
 62
4
 10
-2.95638110E+01
 20
2.02345473E+02
  0
VERTEX
  8
0
 62
4
 10
-2.91929320E+01
 20
2.02351269E+02
  0
VERTEX
  8
0
 62
4
 10
-2.88265381E+01
 20
2.02362815E+02
  0
VERTEX
  8
0
 62
4
 10
-2.84675795E+01
 20
2.02380018E+02
  0
VERTEX
  8
0
 62
4
 10
-2.81189461E+01
 20
2.02402739E+02
  0
VERTEX
  8
0
 62
4
 10
-2.77834451E+01
 20
2.02430795E+02
  0
VERTEX
  8
0
 62
4
 10
-2.74637775E+01
 20
2.02463960E+02
  0
VERTEX
  8
0
 62
4
 10
-2.71625173E+01
 20
2.02501968E+02
  0
VERTEX
  8
0
 62
4
 10
-2.68820900E+01
 20
2.02544512E+02
  0
VERTEX
  8
0
 62
4
 10
-2.66247534E+01
 20
2.02591250E+02
  0
VERTEX
  8
0
 62
4
 10
-2.63925795E+01
 20
2.02641805E+02
  0
VERTEX
  8
0
 62
4
 10
-2.61874375E+01
 20
2.02695771E+02
  0
VERTEX
  8
0
 62
4
 10
-2.60109792E+01
 20
2.02752713E+02
  0
VERTEX
  8
0
 62
4
 10
-2.58646253E+01
 20
2.02812172E+02
  0
VERTEX
  8
0
 62
4
 10
-2.57495541E+01
 20
2.02873670E+02
  0
VERTEX
  8
0
 62
4
 10
-2.56666922E+01
 20
2.02936712E+02
  0
VERTEX
  8
0
 62
4
 10
-2.56167067E+01
 20
2.03000789E+02
  0
VERTEX
  8
0
 62
4
 10
-2.56000000E+01
 20
2.03065387E+02
  0
SEQEND
  8
0
  0
ARC
  8
0
 62
4
 10
-2.58500000E+01
 20
2.03060050E+02
 40
2.50000000E-01
 50
0.00000000E+00
 51
7.03240015E+01
  0
ARC
  8
0
 62
4
 10
-3.36500000E+01
 20
2.03060050E+02
 40
2.50000000E-01
 50
1.09675998E+02
 51
1.80000000E+02
  0
LINE
  8
0
 62
4
 10
-3.34500000E+01
 20
2.01334937E+02
 11
-3.34500000E+01
 21
2.00350130E+02
  0
LINE
  8
0
 62
4
 10
-4.10500000E+01
 20
2.01334937E+02
 11
-4.10500000E+01
 21
2.00350130E+02
  0
POLYLINE
  8
0
 62
4
 66
1
  0
VERTEX
  8
0
 62
4
 10
-4.10500000E+01
 20
2.00350130E+02
  0
VERTEX
  8
0
 62
4
 10
-4.10347023E+01
 20
2.00290980E+02
  0
VERTEX
  8
0
 62
4
 10
-4.09889324E+01
 20
2.00232307E+02
  0
VERTEX
  8
0
 62
4
 10
-4.09130589E+01
 20
2.00174582E+02
  0
VERTEX
  8
0
 62
4
 10
-4.08076925E+01
 20
2.00118271E+02
  0
VERTEX
  8
0
 62
4
 10
-4.06736817E+01
 20
2.00063826E+02
  0
VERTEX
  8
0
 62
4
 10
-4.05121054E+01
 20
2.00011687E+02
  0
VERTEX
  8
0
 62
4
 10
-4.03242646E+01
 20
1.99962272E+02
  0
VERTEX
  8
0
 62
4
 10
-4.01116716E+01
 20
1.99915981E+02
  0
VERTEX
  8
0
 62
4
 10
-3.98760381E+01
 20
1.99873184E+02
  0
VERTEX
  8
0
 62
4
 10
-3.96192613E+01
 20
1.99834228E+02
  0
VERTEX
  8
0
 62
4
 10
-3.93434085E+01
 20
1.99799426E+02
  0
VERTEX
  8
0
 62
4
 10
-3.90507009E+01
 20
1.99769058E+02
  0
VERTEX
  8
0
 62
4
 10
-3.87434951E+01
 20
1.99743368E+02
  0
VERTEX
  8
0
 62
4
 10
-3.84242646E+01
 20
1.99722563E+02
  0
VERTEX
  8
0
 62
4
 10
-3.80955796E+01
 20
1.99706811E+02
  0
VERTEX
  8
0
 62
4
 10
-3.77600864E+01
 20
1.99696239E+02
  0
VERTEX
  8
0
 62
4
 10
-3.74204864E+01
 20
1.99690931E+02
  0
VERTEX
  8
0
 62
4
 10
-3.70795137E+01
 20
1.99690931E+02
  0
VERTEX
  8
0
 62
4
 10
-3.67399136E+01
 20
1.99696239E+02
  0
VERTEX
  8
0
 62
4
 10
-3.64044205E+01
 20
1.99706811E+02
  0
VERTEX
  8
0
 62
4
 10
-3.60757354E+01
 20
1.99722563E+02
  0
VERTEX
  8
0
 62
4
 10
-3.57565049E+01
 20
1.99743368E+02
  0
VERTEX
  8
0
 62
4
 10
-3.54492991E+01
 20
1.99769058E+02
  0
VERTEX
  8
0
 62
4
 10
-3.51565915E+01
 20
1.99799426E+02
  0
VERTEX
  8
0
 62
4
 10
-3.48807388E+01
 20
1.99834228E+02
  0
VERTEX
  8
0
 62
4
 10
-3.46239620E+01
 20
1.99873184E+02
  0
VERTEX
  8
0
 62
4
 10
-3.43883284E+01
 20
1.99915981E+02
  0
VERTEX
  8
0
 62
4
 10
-3.41757354E+01
 20
1.99962272E+02
  0
VERTEX
  8
0
 62
4
 10
-3.39878946E+01
 20
2.00011687E+02
  0
VERTEX
  8
0
 62
4
 10
-3.38263183E+01
 20
2.00063826E+02
  0
VERTEX
  8
0
 62
4
 10
-3.36923075E+01
 20
2.00118271E+02
  0
VERTEX
  8
0
 62
4
 10
-3.35869411E+01
 20
2.00174582E+02
  0
VERTEX
  8
0
 62
4
 10
-3.35110676E+01
 20
2.00232307E+02
  0
VERTEX
  8
0
 62
4
 10
-3.34652977E+01
 20
2.00290980E+02
  0
VERTEX
  8
0
 62
4
 10
-3.34500000E+01
 20
2.00350130E+02
  0
SEQEND
  8
0
  0
POLYLINE
  8
0
 62
4
 66
1
  0
VERTEX
  8
0
 62
4
 10
-4.06500000E+01
 20
2.01629628E+02
  0
VERTEX
  8
0
 62
4
 10
-4.07865817E+01
 20
2.01576339E+02
  0
VERTEX
  8
0
 62
4
 10
-4.08955295E+01
 20
2.01521163E+02
  0
VERTEX
  8
0
 62
4
 10
-4.09759923E+01
 20
2.01464533E+02
  0
VERTEX
  8
0
 62
4
 10
-4.10273413E+01
 20
2.01406890E+02
  0
VERTEX
  8
0
 62
4
 10
-4.10491753E+01
 20
2.01348684E+02
  0
VERTEX
  8
0
 62
4
 10
-4.10413236E+01
 20
2.01290371E+02
  0
VERTEX
  8
0
 62
4
 10
-4.10038476E+01
 20
2.01232407E+02
  0
VERTEX
  8
0
 62
4
 10
-4.09370402E+01
 20
2.01175244E+02
  0
VERTEX
  8
0
 62
4
 10
-4.08414234E+01
 20
2.01119328E+02
  0
VERTEX
  8
0
 62
4
 10
-4.07177442E+01
 20
2.01065097E+02
  0
VERTEX
  8
0
 62
4
 10
-4.05669691E+01
 20
2.01012975E+02
  0
VERTEX
  8
0
 62
4
 10
-4.03902762E+01
 20
2.00963368E+02
  0
VERTEX
  8
0
 62
4
 10
-4.01890462E+01
 20
2.00916664E+02
  0
VERTEX
  8
0
 62
4
 10
-3.99648512E+01
 20
2.00873229E+02
  0
VERTEX
  8
0
 62
4
 10
-3.97194433E+01
 20
2.00833402E+02
  0
VERTEX
  8
0
 62
4
 10
-3.94547398E+01
 20
2.00797493E+02
  0
VERTEX
  8
0
 62
4
 10
-3.91728092E+01
 20
2.00765784E+02
  0
VERTEX
  8
0
 62
4
 10
-3.88758543E+01
 20
2.00738522E+02
  0
VERTEX
  8
0
 62
4
 10
-3.85661954E+01
 20
2.00715920E+02
  0
VERTEX
  8
0
 62
4
 10
-3.82462522E+01
 20
2.00698155E+02
  0
VERTEX
  8
0
 62
4
 10
-3.79185246E+01
 20
2.00685366E+02
  0
VERTEX
  8
0
 62
4
 10
-3.75855733E+01
 20
2.00677652E+02
  0
VERTEX
  8
0
 62
4
 10
-3.72500000E+01
 20
2.00675074E+02
  0
VERTEX
  8
0
 62
4
 10
-3.69144266E+01
 20
2.00677652E+02
  0
VERTEX
  8
0
 62
4
 10
-3.65814754E+01
 20
2.00685366E+02
  0
VERTEX
  8
0
 62
4
 10
-3.62537477E+01
 20
2.00698155E+02
  0
VERTEX
  8
0
 62
4
 10
-3.59338045E+01
 20
2.00715920E+02
  0
VERTEX
  8
0
 62
4
 10
-3.56241457E+01
 20
2.00738522E+02
  0
VERTEX
  8
0
 62
4
 10
-3.53271908E+01
 20
2.00765784E+02
  0
VERTEX
  8
0
 62
4
 10
-3.50452601E+01
 20
2.00797493E+02
  0
VERTEX
  8
0
 62
4
 10
-3.47805567E+01
 20
2.00833402E+02
  0
VERTEX
  8
0
 62
4
 10
-3.45351487E+01
 20
2.00873229E+02
  0
VERTEX
  8
0
 62
4
 10
-3.43109538E+01
 20
2.00916664E+02
  0
VERTEX
  8
0
 62
4
 10
-3.41097237E+01
 20
2.00963368E+02
  0
VERTEX
  8
0
 62
4
 10
-3.39330308E+01
 20
2.01012975E+02
  0
VERTEX
  8
0
 62
4
 10
-3.37822558E+01
 20
2.01065097E+02
  0
VERTEX
  8
0
 62
4
 10
-3.36585766E+01
 20
2.01119328E+02
  0
VERTEX
  8
0
 62
4
 10
-3.35629598E+01
 20
2.01175244E+02
  0
VERTEX
  8
0
 62
4
 10
-3.34961524E+01
 20
2.01232407E+02
  0
VERTEX
  8
0
 62
4
 10
-3.34586764E+01
 20
2.01290371E+02
  0
VERTEX
  8
0
 62
4
 10
-3.34508248E+01
 20
2.01348684E+02
  0
VERTEX
  8
0
 62
4
 10
-3.34726587E+01
 20
2.01406890E+02
  0
VERTEX
  8
0
 62
4
 10
-3.35240077E+01
 20
2.01464533E+02
  0
VERTEX
  8
0
 62
4
 10
-3.36044705E+01
 20
2.01521163E+02
  0
VERTEX
  8
0
 62
4
 10
-3.37134183E+01
 20
2.01576339E+02
  0
VERTEX
  8
0
 62
4
 10
-3.38500000E+01
 20
2.01629628E+02
  0
SEQEND
  8
0
  0
LINE
  8
0
 62
4
 10
-3.38500000E+01
 20
2.02608690E+02
 11
-3.38500000E+01
 21
2.01334937E+02
  0
LINE
  8
0
 62
4
 10
-4.06500000E+01
 20
2.02608690E+02
 11
-4.06500000E+01
 21
2.01334937E+02
  0
POLYLINE
  8
0
 62
4
 66
1
  0
VERTEX
  8
0
 62
4
 10
-4.06500000E+01
 20
2.01334937E+02
  0
VERTEX
  8
0
 62
4
 10
-4.06363126E+01
 20
2.01282014E+02
  0
VERTEX
  8
0
 62
4
 10
-4.05953606E+01
 20
2.01229516E+02
  0
VERTEX
  8
0
 62
4
 10
-4.05274737E+01
 20
2.01177868E+02
  0
VERTEX
  8
0
 62
4
 10
-4.04331986E+01
 20
2.01127484E+02
  0
VERTEX
  8
0
 62
4
 10
-4.03132942E+01
 20
2.01078770E+02
  0
VERTEX
  8
0
 62
4
 10
-4.01687259E+01
 20
2.01032119E+02
  0
VERTEX
  8
0
 62
4
 10
-4.00006578E+01
 20
2.00987906E+02
  0
VERTEX
  8
0
 62
4
 10
-3.98104430E+01
 20
2.00946487E+02
  0
VERTEX
  8
0
 62
4
 10
-3.95996130E+01
 20
2.00908196E+02
  0
VERTEX
  8
0
 62
4
 10
-3.93698653E+01
 20
2.00873341E+02
  0
VERTEX
  8
0
 62
4
 10
-3.91230498E+01
 20
2.00842202E+02
  0
VERTEX
  8
0
 62
4
 10
-3.88611535E+01
 20
2.00815030E+02
  0
VERTEX
  8
0
 62
4
 10
-3.85862851E+01
 20
2.00792044E+02
  0
VERTEX
  8
0
 62
4
 10
-3.83006578E+01
 20
2.00773430E+02
  0
VERTEX
  8
0
 62
4
 10
-3.80065712E+01
 20
2.00759336E+02
  0
VERTEX
  8
0
 62
4
 10
-3.77063931E+01
 20
2.00749876E+02
  0
VERTEX
  8
0
 62
4
 10
-3.74025404E+01
 20
2.00745128E+02
  0
VERTEX
  8
0
 62
4
 10
-3.70974596E+01
 20
2.00745128E+02
  0
VERTEX
  8
0
 62
4
 10
-3.67936069E+01
 20
2.00749876E+02
  0
VERTEX
  8
0
 62
4
 10
-3.64934288E+01
 20
2.00759336E+02
  0
VERTEX
  8
0
 62
4
 10
-3.61993422E+01
 20
2.00773430E+02
  0
VERTEX
  8
0
 62
4
 10
-3.59137149E+01
 20
2.00792044E+02
  0
VERTEX
  8
0
 62
4
 10
-3.56388466E+01
 20
2.00815030E+02
  0
VERTEX
  8
0
 62
4
 10
-3.53769503E+01
 20
2.00842202E+02
  0
VERTEX
  8
0
 62
4
 10
-3.51301347E+01
 20
2.00873341E+02
  0
VERTEX
  8
0
 62
4
 10
-3.49003870E+01
 20
2.00908196E+02
  0
VERTEX
  8
0
 62
4
 10
-3.46895570E+01
 20
2.00946487E+02
  0
VERTEX
  8
0
 62
4
 10
-3.44993422E+01
 20
2.00987906E+02
  0
VERTEX
  8
0
 62
4
 10
-3.43312741E+01
 20
2.01032119E+02
  0
VERTEX
  8
0
 62
4
 10
-3.41867059E+01
 20
2.01078770E+02
  0
VERTEX
  8
0
 62
4
 10
-3.40668014E+01
 20
2.01127484E+02
  0
VERTEX
  8
0
 62
4
 10
-3.39725263E+01
 20
2.01177868E+02
  0
VERTEX
  8
0
 62
4
 10
-3.39046394E+01
 20
2.01229516E+02
  0
VERTEX
  8
0
 62
4
 10
-3.38636874E+01
 20
2.01282014E+02
  0
VERTEX
  8
0
 62
4
 10
-3.38500000E+01
 20
2.01334937E+02
  0
SEQEND
  8
0
  0
ARC
  8
0
 62
4
 10
-3.72500000E+01
 20
1.92068476E+02
 40
1.18100000E+01
 50
7.71724899E+01
 51
1.02827510E+02
  0
ARC
  8
0
 62
4
 10
-3.96500003E+01
 20
2.02608690E+02
 40
1.00000000E+00
 50
1.02827510E+02
 51
1.80000000E+02
  0
ARC
  8
0
 62
4
 10
-3.48499997E+01
 20
2.02608690E+02
 40
1.00000000E+00
 50
3.60000000E+02
 51
7.71724899E+01
  0
ARC
  8
0
 62
4
 10
-3.51282465E+01
 20
1.91349333E+02
 40
1.25306621E+01
 50
9.49686598E+01
 51
1.08083352E+02
  0
ARC
  8
0
 62
4
 10
-3.93717536E+01
 20
1.91349333E+02
 40
1.25306626E+01
 50
7.19166483E+01
 51
8.50313400E+01
  0
LINE
  8
0
  6
CENTER
 62
6
 10
-2.72500000E+01
 20
2.00957898E+02
 11
-3.22500000E+01
 21
2.00957898E+02
  0
LINE
  8
0
  6
CENTER
 62
6
 10
-3.72500000E+01
 20
1.97850130E+02
 11
-3.72500000E+01
 21
2.02850130E+02
  0
LINE
  8
0
  6
CENTER
 62
6
 10
-3.47500000E+01
 20
2.00350130E+02
 11
-3.97500000E+01
 21
2.00350130E+02
  0
LINE
  8
0
  6
CENTER
 62
6
 10
-2.22500000E+01
 20
1.97850130E+02
 11
-2.22500000E+01
 21
2.02850130E+02
  0
LINE
  8
0
  6
CENTER
 62
6
 10
-1.97500000E+01
 20
2.00350130E+02
 11
-2.47500000E+01
 21
2.00350130E+02
  0
LINE
  8
0
 62
4
 10
-4.10431106E+01
 20
2.01374654E+02
 11
-4.47500000E+01
 21
2.01374654E+02
  0
LINE
  8
0
 62
7
 10
-8.87500000E+01
 20
2.35369434E+02
 11
-1.14750000E+02
 21
2.35369434E+02
  0
LINE
  8
0
 62
7
 10
-8.87500000E+01
 20
2.34519443E+02
 11
-1.14750000E+02
 21
2.34519443E+02
  0
LINE
  8
0
 62
7
 10
-8.87500000E+01
 20
2.29219456E+02
 11
-1.14750000E+02
 21
2.29219456E+02
  0
LINE
  8
0
 62
7
 10
-4.47500000E+01
 20
1.87519474E+02
 11
-1.14750000E+02
 21
1.87519474E+02
  0
LINE
  8
0
 62
7
 10
-4.47500000E+01
 20
1.82219486E+02
 11
-1.14750000E+02
 21
1.82219486E+02
  0
LINE
  8
0
 62
7
 10
-4.47500000E+01
 20
1.81369495E+02
 11
-1.14750000E+02
 21
1.81369495E+02
  0
POLYLINE
  8
0
 62
4
 66
1
  0
VERTEX
  8
0
 62
4
 10
-1.02146585E+02
 20
-2.02882114E+02
  0
VERTEX
  8
0
 62
4
 10
-1.02146944E+02
 20
-2.03174444E+02
  0
VERTEX
  8
0
 62
4
 10
-1.02121410E+02
 20
-2.03465691E+02
  0
VERTEX
  8
0
 62
4
 10
-1.02070179E+02
 20
-2.03753634E+02
  0
VERTEX
  8
0
 62
4
 10
-1.01993640E+02
 20
-2.04036079E+02
  0
VERTEX
  8
0
 62
4
 10
-1.01892377E+02
 20
-2.04310874E+02
  0
VERTEX
  8
0
 62
4
 10
-1.01767162E+02
 20
-2.04575922E+02
  0
VERTEX
  8
0
 62
4
 10
-1.01618949E+02
 20
-2.04829205E+02
  0
VERTEX
  8
0
 62
4
 10
-1.01448868E+02
 20
-2.05068792E+02
  0
VERTEX
  8
0
 62
4
 10
-1.01258216E+02
 20
-2.05292856E+02
  0
VERTEX
  8
0
 62
4
 10
-1.01048445E+02
 20
-2.05499689E+02
  0
VERTEX
  8
0
 62
4
 10
-1.00821155E+02
 20
-2.05687716E+02
  0
VERTEX
  8
0
 62
4
 10
-1.00578079E+02
 20
-2.05855502E+02
  0
VERTEX
  8
0
 62
4
 10
-1.00321068E+02
 20
-2.06001769E+02
  0
VERTEX
  8
0
 62
4
 10
-1.00052082E+02
 20
-2.06125402E+02
  0
VERTEX
  8
0
 62
4
 10
-9.97731707E+01
 20
-2.06225459E+02
  0
VERTEX
  8
0
 62
4
 10
-9.94864610E+01
 20
-2.06301176E+02
  0
VERTEX
  8
0
 62
4
 10
-9.91941379E+01
 20
-2.06351978E+02
  0
VERTEX
  8
0
 62
4
 10
-9.88984294E+01
 20
-2.06377476E+02
  0
VERTEX
  8
0
 62
4
 10
-9.86015896E+01
 20
-2.06377476E+02
  0
VERTEX
  8
0
 62
4
 10
-9.83058811E+01
 20
-2.06351978E+02
  0
VERTEX
  8
0
 62
4
 10
-9.80135579E+01
 20
-2.06301177E+02
  0
VERTEX
  8
0
 62
4
 10
-9.77268481E+01
 20
-2.06225459E+02
  0
VERTEX
  8
0
 62
4
 10
-9.74479372E+01
 20
-2.06125403E+02
  0
VERTEX
  8
0
 62
4
 10
-9.71789511E+01
 20
-2.06001770E+02
  0
VERTEX
  8
0
 62
4
 10
-9.69219400E+01
 20
-2.05855503E+02
  0
VERTEX
  8
0
 62
4
 10
-9.66788630E+01
 20
-2.05687717E+02
  0
VERTEX
  8
0
 62
4
 10
-9.64515730E+01
 20
-2.05499691E+02
  0
VERTEX
  8
0
 62
4
 10
-9.62418023E+01
 20
-2.05292858E+02
  0
VERTEX
  8
0
 62
4
 10
-9.60511499E+01
 20
-2.05068794E+02
  0
VERTEX
  8
0
 62
4
 10
-9.58810691E+01
 20
-2.04829207E+02
  0
VERTEX
  8
0
 62
4
 10
-9.57328561E+01
 20
-2.04575924E+02
  0
VERTEX
  8
0
 62
4
 10
-9.56076409E+01
 20
-2.04310876E+02
  0
VERTEX
  8
0
 62
4
 10
-9.55063777E+01
 20
-2.04036081E+02
  0
VERTEX
  8
0
 62
4
 10
-9.54298385E+01
 20
-2.03753636E+02
  0
VERTEX
  8
0
 62
4
 10
-9.53786066E+01
 20
-2.03465693E+02
  0
VERTEX
  8
0
 62
4
 10
-9.53530726E+01
 20
-2.03174446E+02
  0
VERTEX
  8
0
 62
4
 10
-9.53534310E+01
 20
-2.02882117E+02
  0
SEQEND
  8
0
  0
POLYLINE
  8
0
 62
4
 66
1
  0
VERTEX
  8
0
 62
4
 10
-1.02750008E+02
 20
-2.03032229E+02
  0
VERTEX
  8
0
 62
4
 10
-1.02734795E+02
 20
-2.03375556E+02
  0
VERTEX
  8
0
 62
4
 10
-1.02689255E+02
 20
-2.03716271E+02
  0
VERTEX
  8
0
 62
4
 10
-1.02613735E+02
 20
-2.04051780E+02
  0
VERTEX
  8
0
 62
4
 10
-1.02508810E+02
 20
-2.04379531E+02
  0
VERTEX
  8
0
 62
4
 10
-1.02375277E+02
 20
-2.04697029E+02
  0
VERTEX
  8
0
 62
4
 10
-1.02214155E+02
 20
-2.05001857E+02
  0
VERTEX
  8
0
 62
4
 10
-1.02026668E+02
 20
-2.05291696E+02
  0
VERTEX
  8
0
 62
4
 10
-1.01814244E+02
 20
-2.05564339E+02
  0
VERTEX
  8
0
 62
4
 10
-1.01578499E+02
 20
-2.05817713E+02
  0
VERTEX
  8
0
 62
4
 10
-1.01321228E+02
 20
-2.06049888E+02
  0
VERTEX
  8
0
 62
4
 10
-1.01044388E+02
 20
-2.06259097E+02
  0
VERTEX
  8
0
 62
4
 10
-1.00750086E+02
 20
-2.06443749E+02
  0
VERTEX
  8
0
 62
4
 10
-1.00440563E+02
 20
-2.06602438E+02
  0
VERTEX
  8
0
 62
4
 10
-1.00118174E+02
 20
-2.06733956E+02
  0
VERTEX
  8
0
 62
4
 10
-9.97853717E+01
 20
-2.06837302E+02
  0
VERTEX
  8
0
 62
4
 10
-9.94446899E+01
 20
-2.06911690E+02
  0
VERTEX
  8
0
 62
4
 10
-9.90987212E+01
 20
-2.06956554E+02
  0
VERTEX
  8
0
 62
4
 10
-9.87500986E+01
 20
-2.06971552E+02
  0
VERTEX
  8
0
 62
4
 10
-9.84014753E+01
 20
-2.06956570E+02
  0
VERTEX
  8
0
 62
4
 10
-9.80555045E+01
 20
-2.06911722E+02
  0
VERTEX
  8
0
 62
4
 10
-9.77148193E+01
 20
-2.06837350E+02
  0
VERTEX
  8
0
 62
4
 10
-9.73820126E+01
 20
-2.06734019E+02
  0
VERTEX
  8
0
 62
4
 10
-9.70596171E+01
 20
-2.06602516E+02
  0
VERTEX
  8
0
 62
4
 10
-9.67500865E+01
 20
-2.06443841E+02
  0
VERTEX
  8
0
 62
4
 10
-9.64557765E+01
 20
-2.06259203E+02
  0
VERTEX
  8
0
 62
4
 10
-9.61789270E+01
 20
-2.06050006E+02
  0
VERTEX
  8
0
 62
4
 10
-9.59216450E+01
 20
-2.05817843E+02
  0
VERTEX
  8
0
 62
4
 10
-9.56858885E+01
 20
-2.05564480E+02
  0
VERTEX
  8
0
 62
4
 10
-9.54734518E+01
 20
-2.05291846E+02
  0
VERTEX
  8
0
 62
4
 10
-9.52859517E+01
 20
-2.05002016E+02
  0
VERTEX
  8
0
 62
4
 10
-9.51248152E+01
 20
-2.04697195E+02
  0
VERTEX
  8
0
 62
4
 10
-9.49912686E+01
 20
-2.04379704E+02
  0
VERTEX
  8
0
 62
4
 10
-9.48863282E+01
 20
-2.04051958E+02
  0
VERTEX
  8
0
 62
4
 10
-9.48107928E+01
 20
-2.03716452E+02
  0
VERTEX
  8
0
 62
4
 10
-9.47652372E+01
 20
-2.03375739E+02
  0
VERTEX
  8
0
 62
4
 10
-9.47500081E+01
 20
-2.03032413E+02
  0
VERTEX
  8
0
 62
4
 10
-9.47652214E+01
 20
-2.02689086E+02
  0
VERTEX
  8
0
 62
4
 10
-9.48107614E+01
 20
-2.02348371E+02
  0
VERTEX
  8
0
 62
4
 10
-9.48862814E+01
 20
-2.02012862E+02
  0
VERTEX
  8
0
 62
4
 10
-9.49912067E+01
 20
-2.01685111E+02
  0
VERTEX
  8
0
 62
4
 10
-9.51247387E+01
 20
-2.01367613E+02
  0
VERTEX
  8
0
 62
4
 10
-9.52858612E+01
 20
-2.01062785E+02
  0
VERTEX
  8
0
 62
4
 10
-9.54733480E+01
 20
-2.00772946E+02
  0
VERTEX
  8
0
 62
4
 10
-9.56857722E+01
 20
-2.00500303E+02
  0
VERTEX
  8
0
 62
4
 10
-9.59215170E+01
 20
-2.00246929E+02
  0
VERTEX
  8
0
 62
4
 10
-9.61787883E+01
 20
-2.00014754E+02
  0
VERTEX
  8
0
 62
4
 10
-9.64556282E+01
 20
-1.99805545E+02
  0
VERTEX
  8
0
 62
4
 10
-9.67499297E+01
 20
-1.99620893E+02
  0
VERTEX
  8
0
 62
4
 10
-9.70594530E+01
 20
-1.99462204E+02
  0
VERTEX
  8
0
 62
4
 10
-9.73818425E+01
 20
-1.99330686E+02
  0
VERTEX
  8
0
 62
4
 10
-9.77146445E+01
 20
-1.99227340E+02
  0
VERTEX
  8
0
 62
4
 10
-9.80553263E+01
 20
-1.99152952E+02
  0
VERTEX
  8
0
 62
4
 10
-9.84012950E+01
 20
-1.99108088E+02
  0
VERTEX
  8
0
 62
4
 10
-9.87499176E+01
 20
-1.99093090E+02
  0
VERTEX
  8
0
 62
4
 10
-9.90985409E+01
 20
-1.99108072E+02
  0
VERTEX
  8
0
 62
4
 10
-9.94445117E+01
 20
-1.99152920E+02
  0
VERTEX
  8
0
 62
4
 10
-9.97851969E+01
 20
-1.99227292E+02
  0
VERTEX
  8
0
 62
4
 10
-1.00118004E+02
 20
-1.99330623E+02
  0
VERTEX
  8
0
 62
4
 10
-1.00440399E+02
 20
-1.99462126E+02
  0
VERTEX
  8
0
 62
4
 10
-1.00749930E+02
 20
-1.99620801E+02
  0
VERTEX
  8
0
 62
4
 10
-1.01044240E+02
 20
-1.99805439E+02
  0
VERTEX
  8
0
 62
4
 10
-1.01321089E+02
 20
-2.00014636E+02
  0
VERTEX
  8
0
 62
4
 10
-1.01578371E+02
 20
-2.00246799E+02
  0
VERTEX
  8
0
 62
4
 10
-1.01814128E+02
 20
-2.00500162E+02
  0
VERTEX
  8
0
 62
4
 10
-1.02026564E+02
 20
-2.00772796E+02
  0
VERTEX
  8
0
 62
4
 10
-1.02214064E+02
 20
-2.01062626E+02
  0
VERTEX
  8
0
 62
4
 10
-1.02375201E+02
 20
-2.01367447E+02
  0
VERTEX
  8
0
 62
4
 10
-1.02508748E+02
 20
-2.01684938E+02
  0
VERTEX
  8
0
 62
4
 10
-1.02613688E+02
 20
-2.02012684E+02
  0
VERTEX
  8
0
 62
4
 10
-1.02689223E+02
 20
-2.02348190E+02
  0
VERTEX
  8
0
 62
4
 10
-1.02734779E+02
 20
-2.02688903E+02
  0
VERTEX
  8
0
 62
4
 10
-1.02750008E+02
 20
-2.03032229E+02
  0
SEQEND
  8
0
  0
POLYLINE
  8
0
 62
4
 66
1
  0
VERTEX
  8
0
 62
4
 10
-1.02150008E+02
 20
-2.02731832E+02
  0
VERTEX
  8
0
 62
4
 10
-1.02137077E+02
 20
-2.03023660E+02
  0
VERTEX
  8
0
 62
4
 10
-1.02098368E+02
 20
-2.03313267E+02
  0
VERTEX
  8
0
 62
4
 10
-1.02034176E+02
 20
-2.03598450E+02
  0
VERTEX
  8
0
 62
4
 10
-1.01944990E+02
 20
-2.03877039E+02
  0
VERTEX
  8
0
 62
4
 10
-1.01831487E+02
 20
-2.04146912E+02
  0
VERTEX
  8
0
 62
4
 10
-1.01694533E+02
 20
-2.04406016E+02
  0
VERTEX
  8
0
 62
4
 10
-1.01535169E+02
 20
-2.04652379E+02
  0
VERTEX
  8
0
 62
4
 10
-1.01354609E+02
 20
-2.04884126E+02
  0
VERTEX
  8
0
 62
4
 10
-1.01154226E+02
 20
-2.05099493E+02
  0
VERTEX
  8
0
 62
4
 10
-1.00935545E+02
 20
-2.05296842E+02
  0
VERTEX
  8
0
 62
4
 10
-1.00700231E+02
 20
-2.05474670E+02
  0
VERTEX
  8
0
 62
4
 10
-1.00450075E+02
 20
-2.05631624E+02
  0
VERTEX
  8
0
 62
4
 10
-1.00186980E+02
 20
-2.05766509E+02
  0
VERTEX
  8
0
 62
4
 10
-9.99129491E+01
 20
-2.05878300E+02
  0
VERTEX
  8
0
 62
4
 10
-9.96300674E+01
 20
-2.05966144E+02
  0
VERTEX
  8
0
 62
4
 10
-9.93404879E+01
 20
-2.06029374E+02
  0
VERTEX
  8
0
 62
4
 10
-9.90464145E+01
 20
-2.06067508E+02
  0
VERTEX
  8
0
 62
4
 10
-9.87500852E+01
 20
-2.06080256E+02
  0
VERTEX
  8
0
 62
4
 10
-9.84537554E+01
 20
-2.06067522E+02
  0
VERTEX
  8
0
 62
4
 10
-9.81596802E+01
 20
-2.06029401E+02
  0
VERTEX
  8
0
 62
4
 10
-9.78700978E+01
 20
-2.05966184E+02
  0
VERTEX
  8
0
 62
4
 10
-9.75872121E+01
 20
-2.05878353E+02
  0
VERTEX
  8
0
 62
4
 10
-9.73131759E+01
 20
-2.05766575E+02
  0
VERTEX
  8
0
 62
4
 10
-9.70500749E+01
 20
-2.05631702E+02
  0
VERTEX
  8
0
 62
4
 10
-9.67999114E+01
 20
-2.05474760E+02
  0
VERTEX
  8
0
 62
4
 10
-9.65645894E+01
 20
-2.05296942E+02
  0
VERTEX
  8
0
 62
4
 10
-9.63458996E+01
 20
-2.05099604E+02
  0
VERTEX
  8
0
 62
4
 10
-9.61455066E+01
 20
-2.04884245E+02
  0
VERTEX
  8
0
 62
4
 10
-9.59649355E+01
 20
-2.04652507E+02
  0
VERTEX
  8
0
 62
4
 10
-9.58055604E+01
 20
-2.04406151E+02
  0
VERTEX
  8
0
 62
4
 10
-9.56685943E+01
 20
-2.04147053E+02
  0
VERTEX
  8
0
 62
4
 10
-9.55550797E+01
 20
-2.03877185E+02
  0
VERTEX
  8
0
 62
4
 10
-9.54658804E+01
 20
-2.03598601E+02
  0
VERTEX
  8
0
 62
4
 10
-9.54016753E+01
 20
-2.03313421E+02
  0
VERTEX
  8
0
 62
4
 10
-9.53629530E+01
 20
-2.03023815E+02
  0
VERTEX
  8
0
 62
4
 10
-9.53500083E+01
 20
-2.02731988E+02
  0
VERTEX
  8
0
 62
4
 10
-9.53629396E+01
 20
-2.02440160E+02
  0
VERTEX
  8
0
 62
4
 10
-9.54016486E+01
 20
-2.02150553E+02
  0
VERTEX
  8
0
 62
4
 10
-9.54658406E+01
 20
-2.01865370E+02
  0
VERTEX
  8
0
 62
4
 10
-9.55550271E+01
 20
-2.01586781E+02
  0
VERTEX
  8
0
 62
4
 10
-9.56685293E+01
 20
-2.01316908E+02
  0
VERTEX
  8
0
 62
4
 10
-9.58054835E+01
 20
-2.01057804E+02
  0
VERTEX
  8
0
 62
4
 10
-9.59648472E+01
 20
-2.00811441E+02
  0
VERTEX
  8
0
 62
4
 10
-9.61454078E+01
 20
-2.00579694E+02
  0
VERTEX
  8
0
 62
4
 10
-9.63457909E+01
 20
-2.00364327E+02
  0
VERTEX
  8
0
 62
4
 10
-9.65644715E+01
 20
-2.00166978E+02
  0
VERTEX
  8
0
 62
4
 10
-9.67997854E+01
 20
-1.99989150E+02
  0
VERTEX
  8
0
 62
4
 10
-9.70499417E+01
 20
-1.99832196E+02
  0
VERTEX
  8
0
 62
4
 10
-9.73130365E+01
 20
-1.99697311E+02
  0
VERTEX
  8
0
 62
4
 10
-9.75870675E+01
 20
-1.99585520E+02
  0
VERTEX
  8
0
 62
4
 10
-9.78699493E+01
 20
-1.99497676E+02
  0
VERTEX
  8
0
 62
4
 10
-9.81595287E+01
 20
-1.99434446E+02
  0
VERTEX
  8
0
 62
4
 10
-9.84536022E+01
 20
-1.99396312E+02
  0
VERTEX
  8
0
 62
4
 10
-9.87499314E+01
 20
-1.99383564E+02
  0
VERTEX
  8
0
 62
4
 10
-9.90462612E+01
 20
-1.99396298E+02
  0
VERTEX
  8
0
 62
4
 10
-9.93403364E+01
 20
-1.99434419E+02
  0
VERTEX
  8
0
 62
4
 10
-9.96299188E+01
 20
-1.99497636E+02
  0
VERTEX
  8
0
 62
4
 10
-9.99128045E+01
 20
-1.99585467E+02
  0
VERTEX
  8
0
 62
4
 10
-1.00186841E+02
 20
-1.99697245E+02
  0
VERTEX
  8
0
 62
4
 10
-1.00449942E+02
 20
-1.99832118E+02
  0
VERTEX
  8
0
 62
4
 10
-1.00700105E+02
 20
-1.99989060E+02
  0
VERTEX
  8
0
 62
4
 10
-1.00935427E+02
 20
-2.00166878E+02
  0
VERTEX
  8
0
 62
4
 10
-1.01154117E+02
 20
-2.00364216E+02
  0
VERTEX
  8
0
 62
4
 10
-1.01354510E+02
 20
-2.00579575E+02
  0
VERTEX
  8
0
 62
4
 10
-1.01535081E+02
 20
-2.00811313E+02
  0
VERTEX
  8
0
 62
4
 10
-1.01694456E+02
 20
-2.01057669E+02
  0
VERTEX
  8
0
 62
4
 10
-1.01831422E+02
 20
-2.01316767E+02
  0
VERTEX
  8
0
 62
4
 10
-1.01944937E+02
 20
-2.01586635E+02
  0
VERTEX
  8
0
 62
4
 10
-1.02034136E+02
 20
-2.01865219E+02
  0
VERTEX
  8
0
 62
4
 10
-1.02098341E+02
 20
-2.02150399E+02
  0
VERTEX
  8
0
 62
4
 10
-1.02137064E+02
 20
-2.02440005E+02
  0
VERTEX
  8
0
 62
4
 10
-1.02150008E+02
 20
-2.02731832E+02
  0
SEQEND
  8
0
  0
LINE
  8
0
 62
4
 10
-1.07749995E+02
 20
-2.15746796E+02
 11
-7.47499951E+01
 21
-2.15746772E+02
  0
LINE
  8
0
 62
4
 10
-7.17499994E+01
 20
-2.10505176E+02
 11
-7.47499951E+01
 21
-2.14965356E+02
  0
LINE
  8
0
 62
4
 10
-1.07749995E+02
 20
-2.14965379E+02
 11
-1.10749999E+02
 21
-2.10505204E+02
  0
LINE
  8
0
 62
4
 10
-7.47499951E+01
 20
-2.18557736E+02
 11
-7.47499951E+01
 21
-2.14965356E+02
  0
LINE
  8
0
 62
4
 10
-1.07749995E+02
 20
-2.18557736E+02
 11
-1.07749995E+02
 21
-2.14965379E+02
  0
LINE
  8
0
 62
4
 10
-1.07749995E+02
 20
-2.14965379E+02
 11
-7.47499951E+01
 21
-2.14965356E+02
  0
LINE
  8
0
 62
4
 10
-1.06250033E+02
 20
-1.67955090E+02
 11
-9.12500332E+01
 21
-1.67955079E+02
  0
LINE
  8
0
  6
CENTER
 62
6
 10
-9.87500039E+01
 20
-2.08911117E+02
 11
-9.87500131E+01
 21
-1.96111117E+02
  0
LINE
  8
0
  6
CENTER
 62
6
 10
-1.05150008E+02
 20
-2.02511122E+02
 11
-9.23500085E+01
 21
-2.02511113E+02
  0
LINE
  8
0
 62
4
 10
-1.08250016E+02
 20
-1.92227977E+02
 11
-8.92500158E+01
 21
-1.92227963E+02
  0
LINE
  8
0
 62
4
 10
-1.10750009E+02
 20
-1.97629088E+02
 11
-1.10749999E+02
 21
-2.10505204E+02
  0
LINE
  8
0
 62
4
 10
-1.08250016E+02
 20
-1.92227977E+02
 11
-1.08250013E+02
 21
-1.96129071E+02
  0
LINE
  8
0
 62
4
 10
-9.12500332E+01
 20
-1.67955079E+02
 11
-9.12500158E+01
 21
-1.92227977E+02
  0
LINE
  8
0
 62
4
 10
-1.06250033E+02
 20
-1.67955079E+02
 11
-1.06250016E+02
 21
-1.92227975E+02
  0
LINE
  8
0
 62
4
 10
-8.92500158E+01
 20
-1.92227977E+02
 11
-8.92500131E+01
 21
-1.96129072E+02
  0
LINE
  8
0
 62
4
 10
-1.06250016E+02
 20
-1.91590465E+02
 11
-9.12500163E+01
 21
-1.91590455E+02
  0
LINE
  8
0
 62
4
 10
-7.17500086E+01
 20
-1.97629060E+02
 11
-7.17499994E+01
 21
-2.10505176E+02
  0
LINE
  8
0
 62
4
 10
-1.10749999E+02
 20
-2.10505204E+02
 11
-7.17499994E+01
 21
-2.10505176E+02
  0
LINE
  8
0
 62
4
 10
-1.10750000E+02
 20
-2.09027992E+02
 11
-7.17500004E+01
 21
-2.09027964E+02
  0
LINE
  8
0
 62
4
 10
-1.09250010E+02
 20
-1.96129087E+02
 11
-7.32500096E+01
 21
-1.96129061E+02
  0
LINE
  8
0
 62
4
 10
-1.25750033E+02
 20
-1.67780229E+02
 11
-1.20750033E+02
 21
-1.67780225E+02
  0
LINE
  8
0
 62
4
 10
-1.25750031E+02
 20
-1.70344545E+02
 11
-1.20750031E+02
 21
-1.70344541E+02
  0
LINE
  8
0
 62
4
 10
-1.25750026E+02
 20
-1.77740451E+02
 11
-1.20750026E+02
 21
-1.77740448E+02
  0
LINE
  8
0
 62
4
 10
-1.25750023E+02
 20
-1.82562193E+02
 11
-1.20750023E+02
 21
-1.82562190E+02
  0
LINE
  8
0
 62
4
 10
-1.15250023E+02
 20
-1.82165149E+02
 11
-1.06750023E+02
 21
-1.82165143E+02
  0
LINE
  8
0
 62
4
 10
-1.06250033E+02
 20
-1.68165144E+02
 11
-1.15250033E+02
 21
-1.68165150E+02
  0
LINE
  8
0
 62
4
 10
-1.15750033E+02
 20
-1.68665151E+02
 11
-1.15750023E+02
 21
-1.81664641E+02
  0
LINE
  8
0
 62
4
 10
-1.25750033E+02
 20
-1.67780229E+02
 11
-1.25750023E+02
 21
-1.82562193E+02
  0
LINE
  8
0
 62
4
 10
-1.20750033E+02
 20
-1.67780225E+02
 11
-1.20750023E+02
 21
-1.82562193E+02
  0
LINE
  8
0
 62
4
 10
-1.20750032E+02
 20
-1.68915148E+02
 11
-1.15750032E+02
 21
-1.68915144E+02
  0
LINE
  8
0
 62
4
 10
-1.20750024E+02
 20
-1.81415148E+02
 11
-1.15750024E+02
 21
-1.81415144E+02
  0
LINE
  8
0
 62
4
 10
-1.19250032E+02
 20
-1.68915146E+02
 11
-1.19250024E+02
 21
-1.81415146E+02
  0
LINE
  8
0
 62
4
 10
-1.19250032E+02
 20
-1.69415146E+02
 11
-1.15750032E+02
 21
-1.69415144E+02
  0
LINE
  8
0
 62
4
 10
-1.19250024E+02
 20
-1.80915146E+02
 11
-1.15750024E+02
 21
-1.80915144E+02
  0
ARC
  8
0
 62
4
 10
-1.15250525E+02
 20
-1.68664658E+02
 40
4.99508251E-01
 50
8.99436074E+01
 51
1.80056475E+02
  0
ARC
  8
0
 62
4
 10
-1.06749515E+02
 20
-1.82664635E+02
 40
4.99492993E-01
 50
3.59941854E+02
 51
9.00582282E+01
  0
ARC
  8
0
 62
4
 10
-7.32495011E+01
 20
-1.97628553E+02
 40
1.49949266E+00
 50
3.59980652E+02
 51
9.00194298E+01
  0
ARC
  8
0
 62
4
 10
-1.15249516E+02
 20
-1.81664641E+02
 40
5.00508007E-01
 50
1.80058166E+02
 51
2.69941916E+02
  0
ARC
  8
0
 62
4
 10
-1.09250501E+02
 20
-1.97628594E+02
 40
1.49950792E+00
 50
8.99812358E+01
 51
1.80018846E+02
  0
LINE
  8
0
 62
6
 10
-1.00464943E+02
 20
-2.04446847E+02
 11
-9.70350735E+01
 21
-2.01016973E+02
  0
LINE
  8
0
 62
6
 10
-9.70350710E+01
 20
-2.04446845E+02
 11
-1.00464946E+02
 21
-2.01016975E+02
  0
LINE
  8
0
 62
4
 10
-2.93153291E+02
 20
-1.99093090E+02
 11
-2.91764105E+02
 21
-2.06971552E+02
  0
LINE
  8
0
  6
CENTER
 62
6
 10
-3.23903609E+02
 20
-2.08576908E+02
 11
-2.86549851E+02
 21
-2.01990432E+02
  0
LINE
  8
0
 62
4
 10
-2.93049102E+02
 20
-1.99683975E+02
 11
-2.91345384E+02
 21
-1.99383564E+02
  0
LINE
  8
0
 62
4
 10
-3.15544599E+02
 20
-2.13195548E+02
 11
-2.91909213E+02
 21
-2.09027992E+02
  0
LINE
  8
0
 62
4
 10
-2.91648740E+02
 20
-2.10505204E+02
 11
-2.93702016E+02
 21
-2.14557706E+02
  0
LINE
  8
0
 62
4
 10
-2.93819343E+02
 20
-1.98195107E+02
 11
-2.91648740E+02
 21
-2.10505204E+02
  0
LINE
  8
0
 62
4
 10
-3.14631621E+02
 20
-2.14557706E+02
 11
-2.91648740E+02
 21
-2.10505204E+02
  0
LINE
  8
0
 62
4
 10
-3.24263019E+02
 20
-2.04070861E+02
 11
-3.17367905E+02
 21
-2.02855067E+02
  0
LINE
  8
0
 62
4
 10
-3.16384299E+02
 20
-2.11312757E+02
 11
-3.15891895E+02
 21
-2.11225933E+02
  0
LINE
  8
0
 62
4
 10
-3.16789879E+02
 20
-2.11891985E+02
 11
-3.16319840E+02
 21
-2.14557706E+02
  0
LINE
  8
0
 62
4
 10
-3.24263019E+02
 20
-2.04070861E+02
 11
-3.28623147E+02
 21
-2.16059040E+02
  0
LINE
  8
0
 62
4
 10
-3.18493011E+02
 20
-1.70559802E+02
 11
-3.13677301E+02
 21
-1.69710662E+02
  0
LINE
  8
0
 62
4
 10
-3.03720895E+02
 20
-1.67955079E+02
 11
-2.99379691E+02
 21
-1.92575273E+02
  0
LINE
  8
0
 62
4
 10
-3.18493011E+02
 20
-1.70559802E+02
 11
-3.14151807E+02
 21
-1.95179996E+02
  0
LINE
  8
0
 62
4
 10
-3.16121422E+02
 20
-1.95527292E+02
 11
-2.97410075E+02
 21
-1.92227977E+02
  0
LINE
  8
0
 62
4
 10
-3.14325455E+02
 20
-1.94195188E+02
 11
-2.99553339E+02
 21
-1.91590465E+02
  0
LINE
  8
0
 62
4
 10
-2.97410075E+02
 20
-1.92227977E+02
 11
-2.96715482E+02
 21
-1.96167208E+02
  0
LINE
  8
0
 62
4
 10
-3.16121422E+02
 20
-1.95527292E+02
 11
-3.15426830E+02
 21
-1.99466523E+02
  0
LINE
  8
0
 62
4
 10
-3.15426830E+02
 20
-1.99466523E+02
 11
-2.96715482E+02
 21
-1.96167208E+02
  0
LINE
  8
0
 62
4
 10
-3.17454729E+02
 20
-2.02362663E+02
 11
-3.15304414E+02
 21
-2.14557706E+02
  0
LINE
  8
0
 62
4
 10
-3.06651586E+02
 20
-2.06042624E+02
 11
-3.02712355E+02
 21
-2.05348031E+02
  0
LINE
  8
0
 62
4
 10
-3.06217466E+02
 20
-2.08504643E+02
 11
-3.02278235E+02
 21
-2.07810050E+02
  0
LINE
  8
0
 62
4
 10
-3.06651586E+02
 20
-2.06042624E+02
 11
-3.06217466E+02
 21
-2.08504643E+02
  0
LINE
  8
0
 62
4
 10
-3.02712355E+02
 20
-2.05348031E+02
 11
-3.02278235E+02
 21
-2.07810050E+02
  0
LINE
  8
0
 62
4
 10
-3.08760966E+02
 20
-1.82562193E+02
 11
-3.03010897E+02
 21
-1.77740451E+02
  0
LINE
  8
0
 62
4
 10
-3.17117495E+02
 20
-1.72601971E+02
 11
-3.11367426E+02
 21
-1.67780229E+02
  0
LINE
  8
0
 62
4
 10
-3.17117495E+02
 20
-1.72601971E+02
 11
-3.15813397E+02
 21
-1.79997877E+02
  0
LINE
  8
0
 62
4
 10
-3.04314994E+02
 20
-1.70344545E+02
 11
-3.03010897E+02
 21
-1.77740451E+02
  0
LINE
  8
0
 62
4
 10
-3.15813397E+02
 20
-1.79997877E+02
 11
-3.08760966E+02
 21
-1.82562193E+02
  0
LINE
  8
0
 62
4
 10
-3.11367426E+02
 20
-1.67780229E+02
 11
-3.04314994E+02
 21
-1.70344545E+02
  0
LINE
  8
0
 62
4
 10
-3.08546453E+02
 20
-1.68805955E+02
 11
-3.03720895E+02
 21
-1.67955079E+02
  0
LINE
  8
0
 62
4
 10
-2.93645694E+02
 20
-1.99179914E+02
 11
-2.93153291E+02
 21
-1.99093090E+02
  0
ARC
  8
0
 62
4
 10
-3.16297474E+02
 20
-2.11805161E+02
 40
5.00000533E-01
 50
1.00000061E+02
 51
1.89999939E+02
  0
ARC
  8
0
 62
4
 10
-3.14992688E+02
 20
-2.01928557E+02
 40
2.50001831E+00
 50
1.00000420E+02
 51
1.89999580E+02
  0
ARC
  8
0
 62
4
 10
-2.96280563E+02
 20
-1.98628087E+02
 40
2.49901570E+00
 50
9.97742809E+00
 51
1.00022572E+02
  0
CIRCLE
  8
0
 62
4
 10
-3.10064251E+02
 20
-1.75165144E+02
 40
3.75000000E+00
  0
ARC
  8
0
 62
4
 10
-3.10064251E+02
 20
-1.75165144E+02
 40
7.00000000E+00
 50
6.89816399E+01
 51
9.19142837E+01
  0
ARC
  8
0
 62
4
 10
-3.10064251E+02
 20
-1.75165144E+02
 40
7.00000000E+00
 50
1.08107658E+02
 51
1.31018360E+02
  0
LINE
  8
0
 62
4
 10
-2.92256509E+02
 20
-2.07058376E+02
 11
-2.91764105E+02
 21
-2.06971552E+02
  0
LINE
  8
0
 62
4
 10
-2.90164577E+02
 20
-2.06080256E+02
 11
-2.91868294E+02
 21
-2.06380668E+02
  0
ARC
  8
0
 62
4
 10
-3.01134864E+02
 20
-2.04540514E+02
 40
1.18077645E+01
 50
3.57024145E+02
 51
2.27266957E+01
  0
ARC
  8
0
 62
4
 10
-2.90339919E+02
 20
-2.05097291E+02
 40
9.98481423E-01
 50
2.80114125E+02
 51
3.56771982E+02
  0
ARC
  8
0
 62
4
 10
-2.91174763E+02
 20
-2.00364955E+02
 40
9.96112687E-01
 50
2.25301420E+01
 51
9.98626848E+01
  0
LINE
  8
0
 62
4
 10
-3.29249969E+02
 20
-2.17782488E+02
 11
-3.30068111E+02
 21
-2.20031970E+02
  0
LINE
  8
0
 62
4
 10
-3.30068111E+02
 20
-2.20031970E+02
 11
-3.29249969E+02
 21
-2.24671883E+02
  0
LINE
  8
0
  6
CENTER
 62
6
 10
-3.32489848E+02
 20
-2.25819851E+02
 11
-3.29249969E+02
 21
-2.25248573E+02
  0
LINE
  8
0
 62
6
 10
-3.31015457E+02
 20
-2.27083016E+02
 11
-3.29249969E+02
 21
-2.26771713E+02
  0
LINE
  8
0
 62
4
 10
-3.30636681E+02
 20
-2.23472389E+02
 11
-3.29496909E+02
 21
-2.23271417E+02
  0
LINE
  8
0
 62
4
 10
-3.29943825E+02
 20
-2.27401772E+02
 11
-3.29249969E+02
 21
-2.27279427E+02
  0
LINE
  8
0
 62
4
 10
-3.31576340E+02
 20
-2.23902087E+02
 11
-3.30973781E+02
 21
-2.27319370E+02
  0
LINE
  8
0
 62
4
 10
-3.30636681E+02
 20
-2.23472389E+02
 11
-3.31576340E+02
 21
-2.23902087E+02
  0
LINE
  8
0
 62
4
 10
-3.29943825E+02
 20
-2.27401772E+02
 11
-3.30973781E+02
 21
-2.27319370E+02
  0
LINE
  8
0
 62
6
 10
-3.31536401E+02
 20
-2.24128593E+02
 11
-3.29411822E+02
 21
-2.23753972E+02
  0
LINE
  8
0
 62
4
 10
7.24959264E+01
 20
-2.04070861E+02
 11
7.68560549E+01
 21
-2.16059040E+02
  0
LINE
  8
0
 62
4
 10
4.20522501E+01
 20
-1.98195107E+02
 11
3.98816478E+01
 21
-2.10505204E+02
  0
LINE
  8
0
 62
4
 10
6.56876361E+01
 20
-2.02362663E+02
 11
6.35373211E+01
 21
-2.14557706E+02
  0
LINE
  8
0
 62
4
 10
6.37775062E+01
 20
-2.13195548E+02
 11
4.01421201E+01
 21
-2.09027992E+02
  0
LINE
  8
0
 62
4
 10
5.13854157E+01
 20
-1.96286802E+02
 11
5.75700084E+01
 21
-1.97377313E+02
  0
LINE
  8
0
 62
4
 10
5.75700084E+01
 20
-1.97377313E+02
 11
5.77508910E+01
 21
-1.98424634E+02
  0
LINE
  8
0
 62
4
 10
5.08572368E+01
 20
-1.97209097E+02
 11
5.13854157E+01
 21
-1.96286802E+02
  0
LINE
  8
0
  6
CENTER
 62
6
 10
5.48661125E+01
 20
-1.94629329E+02
 11
5.40453281E+01
 21
-1.99284229E+02
  0
ARC
  8
0
 62
4
 10
3.94076701E+01
 20
-2.00364955E+02
 40
9.96112687E-01
 50
8.01373150E+01
 51
1.57469858E+02
  0
ARC
  8
0
 62
4
 10
3.85728268E+01
 20
-2.05097291E+02
 40
9.98481423E-01
 50
1.83228018E+02
 51
2.59885875E+02
  0
ARC
  8
0
 62
4
 10
4.45134709E+01
 20
-1.98628087E+02
 40
2.49901570E+00
 50
7.99774282E+01
 51
1.70022572E+02
  0
ARC
  8
0
 62
4
 10
6.32255955E+01
 20
-2.01928557E+02
 40
2.50001831E+00
 50
3.50000420E+02
 51
7.99995805E+01
  0
ARC
  8
0
 62
4
 10
4.93677714E+01
 20
-2.04540514E+02
 40
1.18077645E+01
 50
1.57273305E+02
 51
1.82975855E+02
  0
LINE
  8
0
 62
4
 10
4.13861980E+01
 20
-1.99093090E+02
 11
3.99970126E+01
 21
-2.06971552E+02
  0
LINE
  8
0
  6
CENTER
 62
6
 10
7.21365169E+01
 20
-2.08576908E+02
 11
3.47827588E+01
 21
-2.01990432E+02
  0
LINE
  8
0
 62
4
 10
3.83974841E+01
 20
-2.06080256E+02
 11
4.01012015E+01
 21
-2.06380668E+02
  0
LINE
  8
0
 62
4
 10
4.12820091E+01
 20
-1.99683975E+02
 11
3.95782917E+01
 21
-1.99383564E+02
  0
LINE
  8
0
 62
4
 10
4.04894165E+01
 20
-2.07058376E+02
 11
3.99970126E+01
 21
-2.06971552E+02
  0
LINE
  8
0
 62
4
 10
4.18786019E+01
 20
-1.99179914E+02
 11
4.13861980E+01
 21
-1.99093090E+02
  0
LINE
  8
0
 62
4
 10
5.96003330E+01
 20
-1.67780229E+02
 11
5.85310127E+01
 21
-1.68169042E+02
  0
LINE
  8
0
 62
4
 10
6.04722201E+01
 20
-1.68511353E+02
 11
5.96003330E+01
 21
-1.67780229E+02
  0
LINE
  8
0
 62
4
 10
5.09452626E+01
 20
-2.05348031E+02
 11
5.05111422E+01
 21
-2.07810050E+02
  0
LINE
  8
0
 62
4
 10
5.48844936E+01
 20
-2.06042624E+02
 11
5.44503732E+01
 21
-2.08504643E+02
  0
LINE
  8
0
 62
4
 10
5.44503732E+01
 20
-2.08504643E+02
 11
5.05111422E+01
 21
-2.07810050E+02
  0
LINE
  8
0
 62
4
 10
5.48844936E+01
 20
-2.06042624E+02
 11
5.09452626E+01
 21
-2.05348031E+02
  0
LINE
  8
0
 62
4
 10
6.36597372E+01
 20
-1.99466523E+02
 11
4.49483899E+01
 21
-1.96167208E+02
  0
LINE
  8
0
 62
4
 10
6.43543299E+01
 20
-1.95527292E+02
 11
6.36597372E+01
 21
-1.99466523E+02
  0
LINE
  8
0
 62
4
 10
4.56429826E+01
 20
-1.92227977E+02
 11
4.49483899E+01
 21
-1.96167208E+02
  0
LINE
  8
0
 62
4
 10
6.25583626E+01
 20
-1.94195188E+02
 11
4.77862463E+01
 21
-1.91590465E+02
  0
LINE
  8
0
 62
4
 10
6.43543299E+01
 20
-1.95527292E+02
 11
4.56429826E+01
 21
-1.92227977E+02
  0
LINE
  8
0
 62
4
 10
6.67259188E+01
 20
-1.70559802E+02
 11
6.23847144E+01
 21
-1.95179996E+02
  0
LINE
  8
0
 62
4
 10
5.19538026E+01
 20
-1.67955079E+02
 11
4.76125981E+01
 21
-1.92575273E+02
  0
LINE
  8
0
 62
4
 10
5.19538026E+01
 20
-1.67955079E+02
 11
6.67259188E+01
 21
-1.70559802E+02
  0
LINE
  8
0
 62
4
 10
7.24959264E+01
 20
-2.04070861E+02
 11
6.56008121E+01
 21
-2.02855067E+02
  0
ARC
  8
0
 62
4
 10
5.82981052E+01
 20
-1.75165166E+02
 40
7.00000000E+00
 50
4.89793705E+01
 51
1.11020629E+02
  0
LINE
  8
0
 62
4
 10
6.50227862E+01
 20
-2.11891985E+02
 11
6.45527477E+01
 21
-2.14557706E+02
  0
LINE
  8
0
 62
4
 10
6.28645287E+01
 20
-2.14557706E+02
 11
3.98816478E+01
 21
-2.10505204E+02
  0
ARC
  8
0
 62
4
 10
6.45303817E+01
 20
-2.11805161E+02
 40
5.00000533E-01
 50
3.50000061E+02
 51
7.99999392E+01
  0
LINE
  8
0
 62
4
 10
6.46172064E+01
 20
-2.11312757E+02
 11
6.41248025E+01
 21
-2.11225933E+02
  0
LINE
  8
0
 62
4
 10
3.98816478E+01
 20
-2.10505204E+02
 11
4.19349230E+01
 21
-2.14557706E+02
  0
LINE
  8
0
 62
4
 10
7.83010188E+01
 20
-2.20031970E+02
 11
7.74828769E+01
 21
-2.24671883E+02
  0
LINE
  8
0
  6
CENTER
 62
6
 10
8.07227554E+01
 20
-2.25819851E+02
 11
7.74828769E+01
 21
-2.25248573E+02
  0
LINE
  8
0
 62
6
 10
7.92483642E+01
 20
-2.27083016E+02
 11
7.74828769E+01
 21
-2.26771713E+02
  0
LINE
  8
0
 62
4
 10
7.81767324E+01
 20
-2.27401772E+02
 11
7.74828769E+01
 21
-2.27279427E+02
  0
LINE
  8
0
 62
6
 10
7.97693088E+01
 20
-2.24128593E+02
 11
7.76447293E+01
 21
-2.23753972E+02
  0
LINE
  8
0
 62
4
 10
7.81767324E+01
 20
-2.27401772E+02
 11
7.92066887E+01
 21
-2.27319370E+02
  0
LINE
  8
0
 62
4
 10
7.88695886E+01
 20
-2.23472389E+02
 11
7.98092479E+01
 21
-2.23902087E+02
  0
LINE
  8
0
 62
4
 10
7.98092479E+01
 20
-2.23902087E+02
 11
7.92066887E+01
 21
-2.27319370E+02
  0
LINE
  8
0
 62
4
 10
7.88695886E+01
 20
-2.23472389E+02
 11
7.77298169E+01
 21
-2.23271417E+02
  0
LINE
  8
0
 62
4
 10
7.74687551E+01
 20
-2.17743659E+02
 11
7.83010188E+01
 21
-2.20031970E+02
  0
LINE
  8
0
 62
4
 10
-9.53499945E+01
 20
-1.12158935E+02
 11
-7.32499945E+01
 21
-1.12158935E+02
  0
LINE
  8
0
  6
CENTER
 62
6
 10
-1.04236560E+02
 20
-9.27007218E+01
 11
-9.32634286E+01
 21
-9.27007218E+01
  0
LINE
  8
0
 62
4
 10
-9.30199911E+01
 20
-7.22314481E+01
 11
-9.64899911E+01
 21
-7.22314481E+01
  0
LINE
  8
0
 62
4
 10
-9.22499945E+01
 20
-7.95446561E+01
 11
-1.05249995E+02
 21
-7.95446561E+01
  0
LINE
  8
0
 62
4
 10
-9.12499911E+01
 20
-7.37396771E+01
 11
-1.06249991E+02
 21
-7.37396771E+01
  0
LINE
  8
0
 62
4
 10
-1.06249995E+02
 20
-8.53146636E+01
 11
-9.12499945E+01
 21
-8.53146636E+01
  0
LINE
  8
0
 62
4
 10
-1.06249995E+02
 20
-1.00086780E+02
 11
-9.12499945E+01
 21
-1.00086780E+02
  0
LINE
  8
0
 62
4
 10
-1.08249995E+02
 20
-1.06397600E+02
 11
-8.92499945E+01
 21
-1.06397600E+02
  0
LINE
  8
0
 62
4
 10
-1.09249995E+02
 20
-1.09554212E+02
 11
-7.32499945E+01
 21
-1.09554212E+02
  0
LINE
  8
0
 62
4
 10
-1.08249995E+02
 20
-1.07092193E+02
 11
-8.92499945E+01
 21
-1.07092193E+02
  0
LINE
  8
0
 62
4
 10
-1.06249995E+02
 20
-1.04427984E+02
 11
-9.12499945E+01
 21
-1.04427984E+02
  0
ARC
  8
0
 62
4
 10
-9.45143995E+01
 20
-1.02888287E+02
 40
1.21769740E+01
 50
2.40462101E+02
 51
2.52020214E+02
  0
ARC
  8
0
 62
4
 10
-1.02985590E+02
 20
-1.02888287E+02
 40
1.21769740E+01
 50
2.87979786E+02
 51
2.99537899E+02
  0
POLYLINE
  8
0
 62
4
 66
1
  0
VERTEX
  8
0
 62
4
 10
-9.53499945E+01
 20
-1.13471433E+02
  0
VERTEX
  8
0
 62
4
 10
-9.53629325E+01
 20
-1.13383480E+02
  0
VERTEX
  8
0
 62
4
 10
-9.54016481E+01
 20
-1.13296197E+02
  0
VERTEX
  8
0
 62
4
 10
-9.54658467E+01
 20
-1.13210248E+02
  0
VERTEX
  8
0
 62
4
 10
-9.55550396E+01
 20
-1.13126286E+02
  0
VERTEX
  8
0
 62
4
 10
-9.56685480E+01
 20
-1.13044951E+02
  0
VERTEX
  8
0
 62
4
 10
-9.58055081E+01
 20
-1.12966862E+02
  0
VERTEX
  8
0
 62
4
 10
-9.59648775E+01
 20
-1.12892613E+02
  0
VERTEX
  8
0
 62
4
 10
-9.61454434E+01
 20
-1.12822769E+02
  0
VERTEX
  8
0
 62
4
 10
-9.63458314E+01
 20
-1.12757862E+02
  0
VERTEX
  8
0
 62
4
 10
-9.65645166E+01
 20
-1.12698385E+02
  0
VERTEX
  8
0
 62
4
 10
-9.67998346E+01
 20
-1.12644792E+02
  0
VERTEX
  8
0
 62
4
 10
-9.70499945E+01
 20
-1.12597490E+02
  0
VERTEX
  8
0
 62
4
 10
-9.73130924E+01
 20
-1.12556839E+02
  0
VERTEX
  8
0
 62
4
 10
-9.75871260E+01
 20
-1.12523149E+02
  0
VERTEX
  8
0
 62
4
 10
-9.78700097E+01
 20
-1.12496676E+02
  0
VERTEX
  8
0
 62
4
 10
-9.81595907E+01
 20
-1.12477622E+02
  0
VERTEX
  8
0
 62
4
 10
-9.84536650E+01
 20
-1.12466131E+02
  0
VERTEX
  8
0
 62
4
 10
-9.87499945E+01
 20
-1.12462291E+02
  0
VERTEX
  8
0
 62
4
 10
-9.90463240E+01
 20
-1.12466131E+02
  0
VERTEX
  8
0
 62
4
 10
-9.93403983E+01
 20
-1.12477622E+02
  0
VERTEX
  8
0
 62
4
 10
-9.96299793E+01
 20
-1.12496676E+02
  0
VERTEX
  8
0
 62
4
 10
-9.99128630E+01
 20
-1.12523149E+02
  0
VERTEX
  8
0
 62
4
 10
-1.00186897E+02
 20
-1.12556839E+02
  0
VERTEX
  8
0
 62
4
 10
-1.00449995E+02
 20
-1.12597490E+02
  0
VERTEX
  8
0
 62
4
 10
-1.00700154E+02
 20
-1.12644792E+02
  0
VERTEX
  8
0
 62
4
 10
-1.00935472E+02
 20
-1.12698385E+02
  0
VERTEX
  8
0
 62
4
 10
-1.01154158E+02
 20
-1.12757862E+02
  0
VERTEX
  8
0
 62
4
 10
-1.01354546E+02
 20
-1.12822769E+02
  0
VERTEX
  8
0
 62
4
 10
-1.01535111E+02
 20
-1.12892613E+02
  0
VERTEX
  8
0
 62
4
 10
-1.01694481E+02
 20
-1.12966862E+02
  0
VERTEX
  8
0
 62
4
 10
-1.01831441E+02
 20
-1.13044951E+02
  0
VERTEX
  8
0
 62
4
 10
-1.01944949E+02
 20
-1.13126286E+02
  0
VERTEX
  8
0
 62
4
 10
-1.02034142E+02
 20
-1.13210248E+02
  0
VERTEX
  8
0
 62
4
 10
-1.02098341E+02
 20
-1.13296197E+02
  0
VERTEX
  8
0
 62
4
 10
-1.02137056E+02
 20
-1.13383480E+02
  0
VERTEX
  8
0
 62
4
 10
-1.02149995E+02
 20
-1.13471433E+02
  0
VERTEX
  8
0
 62
4
 10
-1.02137056E+02
 20
-1.13559386E+02
  0
VERTEX
  8
0
 62
4
 10
-1.02098341E+02
 20
-1.13646669E+02
  0
VERTEX
  8
0
 62
4
 10
-1.02034142E+02
 20
-1.13732618E+02
  0
VERTEX
  8
0
 62
4
 10
-1.01944949E+02
 20
-1.13816580E+02
  0
VERTEX
  8
0
 62
4
 10
-1.01831441E+02
 20
-1.13897915E+02
  0
VERTEX
  8
0
 62
4
 10
-1.01694481E+02
 20
-1.13976004E+02
  0
VERTEX
  8
0
 62
4
 10
-1.01535111E+02
 20
-1.14050253E+02
  0
VERTEX
  8
0
 62
4
 10
-1.01354546E+02
 20
-1.14120097E+02
  0
VERTEX
  8
0
 62
4
 10
-1.01154158E+02
 20
-1.14185004E+02
  0
VERTEX
  8
0
 62
4
 10
-1.00935472E+02
 20
-1.14244481E+02
  0
VERTEX
  8
0
 62
4
 10
-1.00700154E+02
 20
-1.14298074E+02
  0
VERTEX
  8
0
 62
4
 10
-1.00449994E+02
 20
-1.14345376E+02
  0
VERTEX
  8
0
 62
4
 10
-1.00186897E+02
 20
-1.14386027E+02
  0
VERTEX
  8
0
 62
4
 10
-9.99128630E+01
 20
-1.14419717E+02
  0
VERTEX
  8
0
 62
4
 10
-9.96299792E+01
 20
-1.14446190E+02
  0
VERTEX
  8
0
 62
4
 10
-9.93403983E+01
 20
-1.14465244E+02
  0
VERTEX
  8
0
 62
4
 10
-9.90463240E+01
 20
-1.14476735E+02
  0
VERTEX
  8
0
 62
4
 10
-9.87499945E+01
 20
-1.14480575E+02
  0
VERTEX
  8
0
 62
4
 10
-9.84536650E+01
 20
-1.14476735E+02
  0
VERTEX
  8
0
 62
4
 10
-9.81595907E+01
 20
-1.14465244E+02
  0
VERTEX
  8
0
 62
4
 10
-9.78700097E+01
 20
-1.14446190E+02
  0
VERTEX
  8
0
 62
4
 10
-9.75871260E+01
 20
-1.14419717E+02
  0
VERTEX
  8
0
 62
4
 10
-9.73130924E+01
 20
-1.14386027E+02
  0
VERTEX
  8
0
 62
4
 10
-9.70499945E+01
 20
-1.14345376E+02
  0
VERTEX
  8
0
 62
4
 10
-9.67998346E+01
 20
-1.14298074E+02
  0
VERTEX
  8
0
 62
4
 10
-9.65645166E+01
 20
-1.14244481E+02
  0
VERTEX
  8
0
 62
4
 10
-9.63458314E+01
 20
-1.14185004E+02
  0
VERTEX
  8
0
 62
4
 10
-9.61454434E+01
 20
-1.14120097E+02
  0
VERTEX
  8
0
 62
4
 10
-9.59648775E+01
 20
-1.14050253E+02
  0
VERTEX
  8
0
 62
4
 10
-9.58055081E+01
 20
-1.13976004E+02
  0
VERTEX
  8
0
 62
4
 10
-9.56685480E+01
 20
-1.13897915E+02
  0
VERTEX
  8
0
 62
4
 10
-9.55550396E+01
 20
-1.13816580E+02
  0
VERTEX
  8
0
 62
4
 10
-9.54658467E+01
 20
-1.13732618E+02
  0
VERTEX
  8
0
 62
4
 10
-9.54016481E+01
 20
-1.13646669E+02
  0
VERTEX
  8
0
 62
4
 10
-9.53629325E+01
 20
-1.13559386E+02
  0
VERTEX
  8
0
 62
4
 10
-9.53499945E+01
 20
-1.13471433E+02
  0
SEQEND
  8
0
  0
ARC
  8
0
 62
4
 10
-1.09249495E+02
 20
-8.78154686E+01
 40
1.50050004E+00
 50
9.00190906E+01
 51
1.34401209E+02
  0
ARC
  8
0
 62
4
 10
-1.15249494E+02
 20
-8.72439246E+01
 40
5.00500378E-01
 50
9.00572530E+01
 51
1.79942747E+02
  0
ARC
  8
0
 62
4
 10
-1.15250494E+02
 20
-1.00243924E+02
 40
4.99500622E-01
 50
1.79942690E+02
 51
2.70057311E+02
  0
LINE
  8
0
 62
4
 10
-1.09249995E+02
 20
-8.63149686E+01
 11
-1.06249995E+02
 21
-8.63149686E+01
  0
LINE
  8
0
 62
4
 10
-1.08249995E+02
 20
-1.00727777E+02
 11
-1.08249995E+02
 21
-1.07092193E+02
  0
LINE
  8
0
 62
4
 10
-1.10749995E+02
 20
-1.00727777E+02
 11
-1.10749995E+02
 21
-1.10658935E+02
  0
LINE
  8
0
 62
4
 10
-1.25749995E+02
 20
-8.66901798E+01
 11
-1.20749995E+02
 21
-8.66901798E+01
  0
LINE
  8
0
 62
4
 10
-1.19249995E+02
 20
-9.94934245E+01
 11
-1.15749995E+02
 21
-9.94934245E+01
  0
LINE
  8
0
 62
4
 10
-1.19249995E+02
 20
-8.79934245E+01
 11
-1.15749995E+02
 21
-8.79934245E+01
  0
LINE
  8
0
 62
4
 10
-1.19249995E+02
 20
-8.74934245E+01
 11
-1.19249995E+02
 21
-9.99934245E+01
  0
LINE
  8
0
 62
4
 10
-1.20749995E+02
 20
-9.99934245E+01
 11
-1.15749995E+02
 21
-9.99934245E+01
  0
LINE
  8
0
 62
4
 10
-1.20749995E+02
 20
-8.74934245E+01
 11
-1.15749995E+02
 21
-8.74934245E+01
  0
LINE
  8
0
 62
4
 10
-1.20749995E+02
 20
-8.66901798E+01
 11
-1.20749995E+02
 21
-1.00796778E+02
  0
LINE
  8
0
 62
4
 10
-1.25749995E+02
 20
-8.66901798E+01
 11
-1.25749995E+02
 21
-1.00796778E+02
  0
LINE
  8
0
 62
4
 10
-1.15749995E+02
 20
-8.72277765E+01
 11
-1.15749995E+02
 21
-1.00227777E+02
  0
LINE
  8
0
 62
4
 10
-1.06249995E+02
 20
-8.67434245E+01
 11
-1.15249995E+02
 21
-8.67434245E+01
  0
LINE
  8
0
 62
4
 10
-1.15249995E+02
 20
-1.00743424E+02
 11
-1.06249995E+02
 21
-1.00743424E+02
  0
LINE
  8
0
  6
CENTER
 62
6
 10
-9.87499945E+01
 20
-7.20899052E+01
 11
-9.87499945E+01
 21
-1.15664721E+02
  0
LINE
  8
0
 62
4
 10
-1.02149995E+02
 20
-1.13471433E+02
 11
-1.02149995E+02
 21
-1.11348977E+02
  0
LINE
  8
0
 62
4
 10
-9.53499945E+01
 20
-1.11348977E+02
 11
-9.53499945E+01
 21
-1.13471433E+02
  0
LINE
  8
0
 62
4
 10
-1.02749995E+02
 20
-1.10856573E+02
 11
-1.02749995E+02
 21
-1.11348977E+02
  0
LINE
  8
0
 62
4
 10
-9.47499945E+01
 20
-1.11348977E+02
 11
-9.47499945E+01
 21
-1.10856573E+02
  0
LINE
  8
0
 62
6
 10
-1.01249991E+02
 20
-7.22314481E+01
 11
-1.01249991E+02
 21
-7.37396771E+01
  0
LINE
  8
0
 62
4
 10
-1.04749991E+02
 20
-7.32314481E+01
 11
-1.04489991E+02
 21
-7.22314481E+01
  0
LINE
  8
0
 62
4
 10
-1.00749991E+02
 20
-7.32314481E+01
 11
-1.01019991E+02
 21
-7.22314481E+01
  0
LINE
  8
0
 62
4
 10
-1.01019991E+02
 20
-7.22314481E+01
 11
-1.04489991E+02
 21
-7.22314481E+01
  0
LINE
  8
0
 62
4
 10
-1.04749991E+02
 20
-7.32314481E+01
 11
-1.04749991E+02
 21
-7.37396771E+01
  0
LINE
  8
0
 62
4
 10
-1.00749991E+02
 20
-7.32314481E+01
 11
-1.00749991E+02
 21
-7.37396771E+01
  0
LINE
  8
0
 62
6
 10
-1.04249991E+02
 20
-7.22314481E+01
 11
-1.04249991E+02
 21
-7.37396771E+01
  0
LINE
  8
0
  6
CENTER
 62
6
 10
-1.02749995E+02
 20
-7.09713346E+01
 11
-1.02749995E+02
 21
-8.14713346E+01
  0
LINE
  8
0
 62
4
 10
-1.06249995E+02
 20
-7.37395636E+01
 11
-1.06249995E+02
 21
-1.04427984E+02
  0
LINE
  8
0
 62
6
 10
-9.62499911E+01
 20
-7.22314481E+01
 11
-9.62499911E+01
 21
-7.37396771E+01
  0
LINE
  8
0
 62
4
 10
-9.67499911E+01
 20
-7.32314481E+01
 11
-9.64899911E+01
 21
-7.22314481E+01
  0
LINE
  8
0
 62
4
 10
-9.67499911E+01
 20
-7.32314481E+01
 11
-9.67499911E+01
 21
-7.37396771E+01
  0
LINE
  8
0
  6
CENTER
 62
6
 10
-9.47499945E+01
 20
-7.09713346E+01
 11
-9.47499945E+01
 21
-8.14713346E+01
  0
LINE
  8
0
 62
4
 10
-1.25749995E+02
 20
-9.24402495E+01
 11
-1.20749995E+02
 21
-9.24402495E+01
  0
LINE
  8
0
 62
4
 10
-1.25749995E+02
 20
-1.00796778E+02
 11
-1.20749995E+02
 21
-1.00796778E+02
  0
LINE
  8
0
 62
4
 10
-1.09249995E+02
 20
-1.12158935E+02
 11
-1.02149995E+02
 21
-1.12158935E+02
  0
ARC
  8
0
 62
4
 10
-1.09250498E+02
 20
-1.10659438E+02
 40
1.49949647E+00
 50
1.79980757E+02
 51
2.70019243E+02
  0
LINE
  8
0
 62
4
 10
-1.25749995E+02
 20
-9.94926806E+01
 11
-1.20749995E+02
 21
-9.94926806E+01
  0
POLYLINE
  8
0
 62
4
 66
1
  0
VERTEX
  8
0
 62
4
 10
-9.57499945E+01
 20
-9.27007218E+01
  0
VERTEX
  8
0
 62
4
 10
-9.57614104E+01
 20
-9.24432268E+01
  0
VERTEX
  8
0
 62
4
 10
-9.57955712E+01
 20
-9.21876916E+01
  0
VERTEX
  8
0
 62
4
 10
-9.58522170E+01
 20
-9.19360608E+01
  0
VERTEX
  8
0
 62
4
 10
-9.59309166E+01
 20
-9.16902495E+01
  0
VERTEX
  8
0
 62
4
 10
-9.60310711E+01
 20
-9.14521286E+01
  0
VERTEX
  8
0
 62
4
 10
-9.61519183E+01
 20
-9.12235102E+01
  0
VERTEX
  8
0
 62
4
 10
-9.62925384E+01
 20
-9.10061342E+01
  0
VERTEX
  8
0
 62
4
 10
-9.64518612E+01
 20
-9.08016551E+01
  0
VERTEX
  8
0
 62
4
 10
-9.66286742E+01
 20
-9.06116291E+01
  0
VERTEX
  8
0
 62
4
 10
-9.68216317E+01
 20
-9.04375023E+01
  0
VERTEX
  8
0
 62
4
 10
-9.70292652E+01
 20
-9.02805999E+01
  0
VERTEX
  8
0
 62
4
 10
-9.72499945E+01
 20
-9.01421162E+01
  0
VERTEX
  8
0
 62
4
 10
-9.74821397E+01
 20
-9.00231050E+01
  0
VERTEX
  8
0
 62
4
 10
-9.77239341E+01
 20
-8.99244721E+01
  0
VERTEX
  8
0
 62
4
 10
-9.79735374E+01
 20
-8.98469681E+01
  0
VERTEX
  8
0
 62
4
 10
-9.82290500E+01
 20
-8.97911829E+01
  0
VERTEX
  8
0
 62
4
 10
-9.84885273E+01
 20
-8.97575410E+01
  0
VERTEX
  8
0
 62
4
 10
-9.87499945E+01
 20
-8.97462985E+01
  0
VERTEX
  8
0
 62
4
 10
-9.90114617E+01
 20
-8.97575410E+01
  0
VERTEX
  8
0
 62
4
 10
-9.92709390E+01
 20
-8.97911829E+01
  0
VERTEX
  8
0
 62
4
 10
-9.95264516E+01
 20
-8.98469681E+01
  0
VERTEX
  8
0
 62
4
 10
-9.97760549E+01
 20
-8.99244721E+01
  0
VERTEX
  8
0
 62
4
 10
-1.00017849E+02
 20
-9.00231050E+01
  0
VERTEX
  8
0
 62
4
 10
-1.00249995E+02
 20
-9.01421162E+01
  0
VERTEX
  8
0
 62
4
 10
-1.00470724E+02
 20
-9.02805999E+01
  0
VERTEX
  8
0
 62
4
 10
-1.00678357E+02
 20
-9.04375023E+01
  0
VERTEX
  8
0
 62
4
 10
-1.00871315E+02
 20
-9.06116291E+01
  0
VERTEX
  8
0
 62
4
 10
-1.01048128E+02
 20
-9.08016551E+01
  0
VERTEX
  8
0
 62
4
 10
-1.01207451E+02
 20
-9.10061342E+01
  0
VERTEX
  8
0
 62
4
 10
-1.01348071E+02
 20
-9.12235102E+01
  0
VERTEX
  8
0
 62
4
 10
-1.01468918E+02
 20
-9.14521286E+01
  0
VERTEX
  8
0
 62
4
 10
-1.01569072E+02
 20
-9.16902495E+01
  0
VERTEX
  8
0
 62
4
 10
-1.01647772E+02
 20
-9.19360608E+01
  0
VERTEX
  8
0
 62
4
 10
-1.01704418E+02
 20
-9.21876916E+01
  0
VERTEX
  8
0
 62
4
 10
-1.01738579E+02
 20
-9.24432269E+01
  0
VERTEX
  8
0
 62
4
 10
-1.01749994E+02
 20
-9.27007218E+01
  0
VERTEX
  8
0
 62
4
 10
-1.01738579E+02
 20
-9.29582168E+01
  0
VERTEX
  8
0
 62
4
 10
-1.01704418E+02
 20
-9.32137520E+01
  0
VERTEX
  8
0
 62
4
 10
-1.01647772E+02
 20
-9.34653828E+01
  0
VERTEX
  8
0
 62
4
 10
-1.01569072E+02
 20
-9.37111941E+01
  0
VERTEX
  8
0
 62
4
 10
-1.01468918E+02
 20
-9.39493150E+01
  0
VERTEX
  8
0
 62
4
 10
-1.01348071E+02
 20
-9.41779334E+01
  0
VERTEX
  8
0
 62
4
 10
-1.01207451E+02
 20
-9.43953094E+01
  0
VERTEX
  8
0
 62
4
 10
-1.01048128E+02
 20
-9.45997885E+01
  0
VERTEX
  8
0
 62
4
 10
-1.00871315E+02
 20
-9.47898145E+01
  0
VERTEX
  8
0
 62
4
 10
-1.00678357E+02
 20
-9.49639413E+01
  0
VERTEX
  8
0
 62
4
 10
-1.00470724E+02
 20
-9.51208437E+01
  0
VERTEX
  8
0
 62
4
 10
-1.00249994E+02
 20
-9.52593274E+01
  0
VERTEX
  8
0
 62
4
 10
-1.00017849E+02
 20
-9.53783386E+01
  0
VERTEX
  8
0
 62
4
 10
-9.97760549E+01
 20
-9.54769715E+01
  0
VERTEX
  8
0
 62
4
 10
-9.95264516E+01
 20
-9.55544755E+01
  0
VERTEX
  8
0
 62
4
 10
-9.92709390E+01
 20
-9.56102607E+01
  0
VERTEX
  8
0
 62
4
 10
-9.90114617E+01
 20
-9.56439026E+01
  0
VERTEX
  8
0
 62
4
 10
-9.87499945E+01
 20
-9.56551451E+01
  0
VERTEX
  8
0
 62
4
 10
-9.84885273E+01
 20
-9.56439026E+01
  0
VERTEX
  8
0
 62
4
 10
-9.82290500E+01
 20
-9.56102607E+01
  0
VERTEX
  8
0
 62
4
 10
-9.79735374E+01
 20
-9.55544755E+01
  0
VERTEX
  8
0
 62
4
 10
-9.77239341E+01
 20
-9.54769715E+01
  0
VERTEX
  8
0
 62
4
 10
-9.74821397E+01
 20
-9.53783386E+01
  0
VERTEX
  8
0
 62
4
 10
-9.72499945E+01
 20
-9.52593274E+01
  0
VERTEX
  8
0
 62
4
 10
-9.70292652E+01
 20
-9.51208436E+01
  0
VERTEX
  8
0
 62
4
 10
-9.68216317E+01
 20
-9.49639413E+01
  0
VERTEX
  8
0
 62
4
 10
-9.66286742E+01
 20
-9.47898145E+01
  0
VERTEX
  8
0
 62
4
 10
-9.64518612E+01
 20
-9.45997885E+01
  0
VERTEX
  8
0
 62
4
 10
-9.62925384E+01
 20
-9.43953094E+01
  0
VERTEX
  8
0
 62
4
 10
-9.61519183E+01
 20
-9.41779334E+01
  0
VERTEX
  8
0
 62
4
 10
-9.60310711E+01
 20
-9.39493150E+01
  0
VERTEX
  8
0
 62
4
 10
-9.59309166E+01
 20
-9.37111941E+01
  0
VERTEX
  8
0
 62
4
 10
-9.58522170E+01
 20
-9.34653828E+01
  0
VERTEX
  8
0
 62
4
 10
-9.57955712E+01
 20
-9.32137520E+01
  0
VERTEX
  8
0
 62
4
 10
-9.57614104E+01
 20
-9.29582167E+01
  0
VERTEX
  8
0
 62
4
 10
-9.57499945E+01
 20
-9.27007218E+01
  0
SEQEND
  8
0
  0
POLYLINE
  8
0
 62
4
 66
1
  0
VERTEX
  8
0
 62
4
 10
-9.47499945E+01
 20
-1.10856573E+02
  0
VERTEX
  8
0
 62
4
 10
-9.47660973E+01
 20
-1.10794310E+02
  0
VERTEX
  8
0
 62
4
 10
-9.48142761E+01
 20
-1.10732549E+02
  0
VERTEX
  8
0
 62
4
 10
-9.48941431E+01
 20
-1.10671786E+02
  0
VERTEX
  8
0
 62
4
 10
-9.50050550E+01
 20
-1.10612511E+02
  0
VERTEX
  8
0
 62
4
 10
-9.51461190E+01
 20
-1.10555201E+02
  0
VERTEX
  8
0
 62
4
 10
-9.53161993E+01
 20
-1.10500317E+02
  0
VERTEX
  8
0
 62
4
 10
-9.55139265E+01
 20
-1.10448302E+02
  0
VERTEX
  8
0
 62
4
 10
-9.57377086E+01
 20
-1.10399574E+02
  0
VERTEX
  8
0
 62
4
 10
-9.59857439E+01
 20
-1.10354525E+02
  0
VERTEX
  8
0
 62
4
 10
-9.62560353E+01
 20
-1.10313519E+02
  0
VERTEX
  8
0
 62
4
 10
-9.65464066E+01
 20
-1.10276885E+02
  0
VERTEX
  8
0
 62
4
 10
-9.68545198E+01
 20
-1.10244918E+02
  0
VERTEX
  8
0
 62
4
 10
-9.71778944E+01
 20
-1.10217876E+02
  0
VERTEX
  8
0
 62
4
 10
-9.75139265E+01
 20
-1.10195976E+02
  0
VERTEX
  8
0
 62
4
 10
-9.78599108E+01
 20
-1.10179395E+02
  0
VERTEX
  8
0
 62
4
 10
-9.82130614E+01
 20
-1.10168267E+02
  0
VERTEX
  8
0
 62
4
 10
-9.85705352E+01
 20
-1.10162680E+02
  0
VERTEX
  8
0
 62
4
 10
-9.89294538E+01
 20
-1.10162680E+02
  0
VERTEX
  8
0
 62
4
 10
-9.92869276E+01
 20
-1.10168267E+02
  0
VERTEX
  8
0
 62
4
 10
-9.96400782E+01
 20
-1.10179395E+02
  0
VERTEX
  8
0
 62
4
 10
-9.99860625E+01
 20
-1.10195976E+02
  0
VERTEX
  8
0
 62
4
 10
-1.00322095E+02
 20
-1.10217876E+02
  0
VERTEX
  8
0
 62
4
 10
-1.00645469E+02
 20
-1.10244918E+02
  0
VERTEX
  8
0
 62
4
 10
-1.00953582E+02
 20
-1.10276885E+02
  0
VERTEX
  8
0
 62
4
 10
-1.01243954E+02
 20
-1.10313519E+02
  0
VERTEX
  8
0
 62
4
 10
-1.01514245E+02
 20
-1.10354525E+02
  0
VERTEX
  8
0
 62
4
 10
-1.01762280E+02
 20
-1.10399574E+02
  0
VERTEX
  8
0
 62
4
 10
-1.01986062E+02
 20
-1.10448302E+02
  0
VERTEX
  8
0
 62
4
 10
-1.02183790E+02
 20
-1.10500317E+02
  0
VERTEX
  8
0
 62
4
 10
-1.02353870E+02
 20
-1.10555201E+02
  0
VERTEX
  8
0
 62
4
 10
-1.02494934E+02
 20
-1.10612511E+02
  0
VERTEX
  8
0
 62
4
 10
-1.02605846E+02
 20
-1.10671786E+02
  0
VERTEX
  8
0
 62
4
 10
-1.02685713E+02
 20
-1.10732549E+02
  0
VERTEX
  8
0
 62
4
 10
-1.02733892E+02
 20
-1.10794310E+02
  0
VERTEX
  8
0
 62
4
 10
-1.02749994E+02
 20
-1.10856573E+02
  0
SEQEND
  8
0
  0
POLYLINE
  8
0
 62
4
 66
1
  0
VERTEX
  8
0
 62
4
 10
-9.53499945E+01
 20
-1.11714876E+02
  0
VERTEX
  8
0
 62
4
 10
-9.51769425E+01
 20
-1.11661220E+02
  0
VERTEX
  8
0
 62
4
 10
-9.50318995E+01
 20
-1.11605117E+02
  0
VERTEX
  8
0
 62
4
 10
-9.49160027E+01
 20
-1.11547005E+02
  0
VERTEX
  8
0
 62
4
 10
-9.48301604E+01
 20
-1.11487341E+02
  0
VERTEX
  8
0
 62
4
 10
-9.47750456E+01
 20
-1.11426592E+02
  0
VERTEX
  8
0
 62
4
 10
-9.47510904E+01
 20
-1.11365235E+02
  0
VERTEX
  8
0
 62
4
 10
-9.47584826E+01
 20
-1.11303751E+02
  0
VERTEX
  8
0
 62
4
 10
-9.47971641E+01
 20
-1.11242621E+02
  0
VERTEX
  8
0
 62
4
 10
-9.48668318E+01
 20
-1.11182325E+02
  0
VERTEX
  8
0
 62
4
 10
-9.49669395E+01
 20
-1.11123335E+02
  0
VERTEX
  8
0
 62
4
 10
-9.50967026E+01
 20
-1.11066114E+02
  0
VERTEX
  8
0
 62
4
 10
-9.52551037E+01
 20
-1.11011110E+02
  0
VERTEX
  8
0
 62
4
 10
-9.54409012E+01
 20
-1.10958755E+02
  0
VERTEX
  8
0
 62
4
 10
-9.56526387E+01
 20
-1.10909459E+02
  0
VERTEX
  8
0
 62
4
 10
-9.58886563E+01
 20
-1.10863608E+02
  0
VERTEX
  8
0
 62
4
 10
-9.61471038E+01
 20
-1.10821562E+02
  0
VERTEX
  8
0
 62
4
 10
-9.64259554E+01
 20
-1.10783650E+02
  0
VERTEX
  8
0
 62
4
 10
-9.67230250E+01
 20
-1.10750170E+02
  0
VERTEX
  8
0
 62
4
 10
-9.70359841E+01
 20
-1.10721384E+02
  0
VERTEX
  8
0
 62
4
 10
-9.73623792E+01
 20
-1.10697518E+02
  0
VERTEX
  8
0
 62
4
 10
-9.76996519E+01
 20
-1.10678758E+02
  0
VERTEX
  8
0
 62
4
 10
-9.80451581E+01
 20
-1.10665253E+02
  0
VERTEX
  8
0
 62
4
 10
-9.83961896E+01
 20
-1.10657107E+02
  0
VERTEX
  8
0
 62
4
 10
-9.87499945E+01
 20
-1.10654384E+02
  0
VERTEX
  8
0
 62
4
 10
-9.91037994E+01
 20
-1.10657107E+02
  0
VERTEX
  8
0
 62
4
 10
-9.94548309E+01
 20
-1.10665253E+02
  0
VERTEX
  8
0
 62
4
 10
-9.98003371E+01
 20
-1.10678758E+02
  0
VERTEX
  8
0
 62
4
 10
-1.00137610E+02
 20
-1.10697518E+02
  0
VERTEX
  8
0
 62
4
 10
-1.00464005E+02
 20
-1.10721384E+02
  0
VERTEX
  8
0
 62
4
 10
-1.00776964E+02
 20
-1.10750170E+02
  0
VERTEX
  8
0
 62
4
 10
-1.01074034E+02
 20
-1.10783650E+02
  0
VERTEX
  8
0
 62
4
 10
-1.01352885E+02
 20
-1.10821562E+02
  0
VERTEX
  8
0
 62
4
 10
-1.01611333E+02
 20
-1.10863608E+02
  0
VERTEX
  8
0
 62
4
 10
-1.01847350E+02
 20
-1.10909459E+02
  0
VERTEX
  8
0
 62
4
 10
-1.02059088E+02
 20
-1.10958755E+02
  0
VERTEX
  8
0
 62
4
 10
-1.02244885E+02
 20
-1.11011110E+02
  0
VERTEX
  8
0
 62
4
 10
-1.02403286E+02
 20
-1.11066114E+02
  0
VERTEX
  8
0
 62
4
 10
-1.02533049E+02
 20
-1.11123335E+02
  0
VERTEX
  8
0
 62
4
 10
-1.02633157E+02
 20
-1.11182325E+02
  0
VERTEX
  8
0
 62
4
 10
-1.02702825E+02
 20
-1.11242621E+02
  0
VERTEX
  8
0
 62
4
 10
-1.02741506E+02
 20
-1.11303751E+02
  0
VERTEX
  8
0
 62
4
 10
-1.02748899E+02
 20
-1.11365235E+02
  0
VERTEX
  8
0
 62
4
 10
-1.02724943E+02
 20
-1.11426592E+02
  0
VERTEX
  8
0
 62
4
 10
-1.02669829E+02
 20
-1.11487341E+02
  0
VERTEX
  8
0
 62
4
 10
-1.02583986E+02
 20
-1.11547005E+02
  0
VERTEX
  8
0
 62
4
 10
-1.02468089E+02
 20
-1.11605117E+02
  0
VERTEX
  8
0
 62
4
 10
-1.02323047E+02
 20
-1.11661220E+02
  0
VERTEX
  8
0
 62
4
 10
-1.02149995E+02
 20
-1.11714876E+02
  0
SEQEND
  8
0
  0
POLYLINE
  8
0
 62
4
 66
1
  0
VERTEX
  8
0
 62
4
 10
-9.53499945E+01
 20
-1.11348977E+02
  0
VERTEX
  8
0
 62
4
 10
-9.53636819E+01
 20
-1.11296054E+02
  0
VERTEX
  8
0
 62
4
 10
-9.54046339E+01
 20
-1.11243556E+02
  0
VERTEX
  8
0
 62
4
 10
-9.54725208E+01
 20
-1.11191908E+02
  0
VERTEX
  8
0
 62
4
 10
-9.55667959E+01
 20
-1.11141524E+02
  0
VERTEX
  8
0
 62
4
 10
-9.56867003E+01
 20
-1.11092810E+02
  0
VERTEX
  8
0
 62
4
 10
-9.58312686E+01
 20
-1.11046159E+02
  0
VERTEX
  8
0
 62
4
 10
-9.59993367E+01
 20
-1.11001946E+02
  0
VERTEX
  8
0
 62
4
 10
-9.61895515E+01
 20
-1.10960527E+02
  0
VERTEX
  8
0
 62
4
 10
-9.64003815E+01
 20
-1.10922236E+02
  0
VERTEX
  8
0
 62
4
 10
-9.66301292E+01
 20
-1.10887381E+02
  0
VERTEX
  8
0
 62
4
 10
-9.68769448E+01
 20
-1.10856242E+02
  0
VERTEX
  8
0
 62
4
 10
-9.71388410E+01
 20
-1.10829070E+02
  0
VERTEX
  8
0
 62
4
 10
-9.74137094E+01
 20
-1.10806084E+02
  0
VERTEX
  8
0
 62
4
 10
-9.76993367E+01
 20
-1.10787470E+02
  0
VERTEX
  8
0
 62
4
 10
-9.79934233E+01
 20
-1.10773376E+02
  0
VERTEX
  8
0
 62
4
 10
-9.82936014E+01
 20
-1.10763916E+02
  0
VERTEX
  8
0
 62
4
 10
-9.85974541E+01
 20
-1.10759168E+02
  0
VERTEX
  8
0
 62
4
 10
-9.89025349E+01
 20
-1.10759168E+02
  0
VERTEX
  8
0
 62
4
 10
-9.92063876E+01
 20
-1.10763916E+02
  0
VERTEX
  8
0
 62
4
 10
-9.95065657E+01
 20
-1.10773376E+02
  0
VERTEX
  8
0
 62
4
 10
-9.98006523E+01
 20
-1.10787470E+02
  0
VERTEX
  8
0
 62
4
 10
-1.00086280E+02
 20
-1.10806084E+02
  0
VERTEX
  8
0
 62
4
 10
-1.00361148E+02
 20
-1.10829070E+02
  0
VERTEX
  8
0
 62
4
 10
-1.00623044E+02
 20
-1.10856242E+02
  0
VERTEX
  8
0
 62
4
 10
-1.00869860E+02
 20
-1.10887381E+02
  0
VERTEX
  8
0
 62
4
 10
-1.01099608E+02
 20
-1.10922236E+02
  0
VERTEX
  8
0
 62
4
 10
-1.01310437E+02
 20
-1.10960527E+02
  0
VERTEX
  8
0
 62
4
 10
-1.01500652E+02
 20
-1.11001946E+02
  0
VERTEX
  8
0
 62
4
 10
-1.01668720E+02
 20
-1.11046159E+02
  0
VERTEX
  8
0
 62
4
 10
-1.01813289E+02
 20
-1.11092810E+02
  0
VERTEX
  8
0
 62
4
 10
-1.01933193E+02
 20
-1.11141524E+02
  0
VERTEX
  8
0
 62
4
 10
-1.02027468E+02
 20
-1.11191908E+02
  0
VERTEX
  8
0
 62
4
 10
-1.02095355E+02
 20
-1.11243556E+02
  0
VERTEX
  8
0
 62
4
 10
-1.02136307E+02
 20
-1.11296054E+02
  0
VERTEX
  8
0
 62
4
 10
-1.02149995E+02
 20
-1.11348977E+02
  0
SEQEND
  8
0
  0
ARC
  8
0
 62
4
 10
-1.09250498E+02
 20
-1.08054716E+02
 40
1.49949647E+00
 50
1.79980757E+02
 51
2.70019243E+02
  0
ARC
  8
0
 62
4
 10
-7.32494947E+01
 20
-1.08054712E+02
 40
1.49950029E+00
 50
2.69980903E+02
 51
1.90971113E-02
  0
LINE
  8
0
 62
4
 10
-9.12499945E+01
 20
-7.37395636E+01
 11
-9.12499945E+01
 21
-1.04427984E+02
  0
LINE
  8
0
 62
4
 10
-7.17499945E+01
 20
-8.78149686E+01
 11
-7.17499945E+01
 21
-1.10659434E+02
  0
POLYLINE
  8
0
 62
4
 66
1
  0
VERTEX
  8
0
 62
4
 10
-7.92499945E+01
 20
-9.77365186E+01
  0
VERTEX
  8
0
 62
4
 10
-7.92633131E+01
 20
-9.74361078E+01
  0
VERTEX
  8
0
 62
4
 10
-7.93031674E+01
 20
-9.71379833E+01
  0
VERTEX
  8
0
 62
4
 10
-7.93692541E+01
 20
-9.68444141E+01
  0
VERTEX
  8
0
 62
4
 10
-7.94610703E+01
 20
-9.65576343E+01
  0
VERTEX
  8
0
 62
4
 10
-7.95779172E+01
 20
-9.62798265E+01
  0
VERTEX
  8
0
 62
4
 10
-7.97189056E+01
 20
-9.60131050E+01
  0
VERTEX
  8
0
 62
4
 10
-7.98829623E+01
 20
-9.57594998E+01
  0
VERTEX
  8
0
 62
4
 10
-8.00688389E+01
 20
-9.55209408E+01
  0
VERTEX
  8
0
 62
4
 10
-8.02751208E+01
 20
-9.52992438E+01
  0
VERTEX
  8
0
 62
4
 10
-8.05002379E+01
 20
-9.50960958E+01
  0
VERTEX
  8
0
 62
4
 10
-8.07424770E+01
 20
-9.49130431E+01
  0
VERTEX
  8
0
 62
4
 10
-8.09999945E+01
 20
-9.47514787E+01
  0
VERTEX
  8
0
 62
4
 10
-8.12708306E+01
 20
-9.46126323E+01
  0
VERTEX
  8
0
 62
4
 10
-8.15529240E+01
 20
-9.44975606E+01
  0
VERTEX
  8
0
 62
4
 10
-8.18441278E+01
 20
-9.44071392E+01
  0
VERTEX
  8
0
 62
4
 10
-8.21422259E+01
 20
-9.43420565E+01
  0
VERTEX
  8
0
 62
4
 10
-8.24449494E+01
 20
-9.43028077E+01
  0
VERTEX
  8
0
 62
4
 10
-8.27499945E+01
 20
-9.42896915E+01
  0
VERTEX
  8
0
 62
4
 10
-8.30550396E+01
 20
-9.43028077E+01
  0
VERTEX
  8
0
 62
4
 10
-8.33577631E+01
 20
-9.43420565E+01
  0
VERTEX
  8
0
 62
4
 10
-8.36558612E+01
 20
-9.44071392E+01
  0
VERTEX
  8
0
 62
4
 10
-8.39470650E+01
 20
-9.44975606E+01
  0
VERTEX
  8
0
 62
4
 10
-8.42291584E+01
 20
-9.46126323E+01
  0
VERTEX
  8
0
 62
4
 10
-8.44999945E+01
 20
-9.47514787E+01
  0
VERTEX
  8
0
 62
4
 10
-8.47575120E+01
 20
-9.49130431E+01
  0
VERTEX
  8
0
 62
4
 10
-8.49997511E+01
 20
-9.50960958E+01
  0
VERTEX
  8
0
 62
4
 10
-8.52248682E+01
 20
-9.52992438E+01
  0
VERTEX
  8
0
 62
4
 10
-8.54311501E+01
 20
-9.55209408E+01
  0
VERTEX
  8
0
 62
4
 10
-8.56170267E+01
 20
-9.57594998E+01
  0
VERTEX
  8
0
 62
4
 10
-8.57810834E+01
 20
-9.60131050E+01
  0
VERTEX
  8
0
 62
4
 10
-8.59220718E+01
 20
-9.62798265E+01
  0
VERTEX
  8
0
 62
4
 10
-8.60389187E+01
 20
-9.65576343E+01
  0
VERTEX
  8
0
 62
4
 10
-8.61307349E+01
 20
-9.68444141E+01
  0
VERTEX
  8
0
 62
4
 10
-8.61968216E+01
 20
-9.71379834E+01
  0
VERTEX
  8
0
 62
4
 10
-8.62366759E+01
 20
-9.74361078E+01
  0
VERTEX
  8
0
 62
4
 10
-8.62499945E+01
 20
-9.77365186E+01
  0
VERTEX
  8
0
 62
4
 10
-8.62366759E+01
 20
-9.80369294E+01
  0
VERTEX
  8
0
 62
4
 10
-8.61968216E+01
 20
-9.83350539E+01
  0
VERTEX
  8
0
 62
4
 10
-8.61307349E+01
 20
-9.86286231E+01
  0
VERTEX
  8
0
 62
4
 10
-8.60389187E+01
 20
-9.89154029E+01
  0
VERTEX
  8
0
 62
4
 10
-8.59220718E+01
 20
-9.91932107E+01
  0
VERTEX
  8
0
 62
4
 10
-8.57810834E+01
 20
-9.94599322E+01
  0
VERTEX
  8
0
 62
4
 10
-8.56170267E+01
 20
-9.97135374E+01
  0
VERTEX
  8
0
 62
4
 10
-8.54311500E+01
 20
-9.99520964E+01
  0
VERTEX
  8
0
 62
4
 10
-8.52248682E+01
 20
-1.00173793E+02
  0
VERTEX
  8
0
 62
4
 10
-8.49997511E+01
 20
-1.00376941E+02
  0
VERTEX
  8
0
 62
4
 10
-8.47575120E+01
 20
-1.00559994E+02
  0
VERTEX
  8
0
 62
4
 10
-8.44999945E+01
 20
-1.00721558E+02
  0
VERTEX
  8
0
 62
4
 10
-8.42291584E+01
 20
-1.00860405E+02
  0
VERTEX
  8
0
 62
4
 10
-8.39470650E+01
 20
-1.00975477E+02
  0
VERTEX
  8
0
 62
4
 10
-8.36558612E+01
 20
-1.01065898E+02
  0
VERTEX
  8
0
 62
4
 10
-8.33577631E+01
 20
-1.01130981E+02
  0
VERTEX
  8
0
 62
4
 10
-8.30550396E+01
 20
-1.01170230E+02
  0
VERTEX
  8
0
 62
4
 10
-8.27499945E+01
 20
-1.01183346E+02
  0
VERTEX
  8
0
 62
4
 10
-8.24449494E+01
 20
-1.01170230E+02
  0
VERTEX
  8
0
 62
4
 10
-8.21422259E+01
 20
-1.01130981E+02
  0
VERTEX
  8
0
 62
4
 10
-8.18441278E+01
 20
-1.01065898E+02
  0
VERTEX
  8
0
 62
4
 10
-8.15529240E+01
 20
-1.00975477E+02
  0
VERTEX
  8
0
 62
4
 10
-8.12708306E+01
 20
-1.00860405E+02
  0
VERTEX
  8
0
 62
4
 10
-8.09999945E+01
 20
-1.00721558E+02
  0
VERTEX
  8
0
 62
4
 10
-8.07424770E+01
 20
-1.00559994E+02
  0
VERTEX
  8
0
 62
4
 10
-8.05002379E+01
 20
-1.00376941E+02
  0
VERTEX
  8
0
 62
4
 10
-8.02751208E+01
 20
-1.00173793E+02
  0
VERTEX
  8
0
 62
4
 10
-8.00688389E+01
 20
-9.99520964E+01
  0
VERTEX
  8
0
 62
4
 10
-7.98829623E+01
 20
-9.97135374E+01
  0
VERTEX
  8
0
 62
4
 10
-7.97189056E+01
 20
-9.94599322E+01
  0
VERTEX
  8
0
 62
4
 10
-7.95779172E+01
 20
-9.91932107E+01
  0
VERTEX
  8
0
 62
4
 10
-7.94610703E+01
 20
-9.89154029E+01
  0
VERTEX
  8
0
 62
4
 10
-7.93692541E+01
 20
-9.86286231E+01
  0
VERTEX
  8
0
 62
4
 10
-7.93031674E+01
 20
-9.83350538E+01
  0
VERTEX
  8
0
 62
4
 10
-7.92633131E+01
 20
-9.80369294E+01
  0
VERTEX
  8
0
 62
4
 10
-7.92499945E+01
 20
-9.77365186E+01
  0
SEQEND
  8
0
  0
POLYLINE
  8
0
 62
4
 66
1
  0
VERTEX
  8
0
 62
4
 10
-7.96099945E+01
 20
-9.75628704E+01
  0
VERTEX
  8
0
 62
4
 10
-7.96219431E+01
 20
-9.72933590E+01
  0
VERTEX
  8
0
 62
4
 10
-7.96576982E+01
 20
-9.70258988E+01
  0
VERTEX
  8
0
 62
4
 10
-7.97169874E+01
 20
-9.67625252E+01
  0
VERTEX
  8
0
 62
4
 10
-7.97993597E+01
 20
-9.65052428E+01
  0
VERTEX
  8
0
 62
4
 10
-7.99041880E+01
 20
-9.62560095E+01
  0
VERTEX
  8
0
 62
4
 10
-8.00306747E+01
 20
-9.60167222E+01
  0
VERTEX
  8
0
 62
4
 10
-8.01778571E+01
 20
-9.57892021E+01
  0
VERTEX
  8
0
 62
4
 10
-8.03446149E+01
 20
-9.55751806E+01
  0
VERTEX
  8
0
 62
4
 10
-8.05296792E+01
 20
-9.53762867E+01
  0
VERTEX
  8
0
 62
4
 10
-8.07316414E+01
 20
-9.51940340E+01
  0
VERTEX
  8
0
 62
4
 10
-8.09489645E+01
 20
-9.50298095E+01
  0
VERTEX
  8
0
 62
4
 10
-8.11799945E+01
 20
-9.48848632E+01
  0
VERTEX
  8
0
 62
4
 10
-8.14229732E+01
 20
-9.47602981E+01
  0
VERTEX
  8
0
 62
4
 10
-8.16760513E+01
 20
-9.46570623E+01
  0
VERTEX
  8
0
 62
4
 10
-8.19373027E+01
 20
-9.45759415E+01
  0
VERTEX
  8
0
 62
4
 10
-8.22047392E+01
 20
-9.45175530E+01
  0
VERTEX
  8
0
 62
4
 10
-8.24763255E+01
 20
-9.44823412E+01
  0
VERTEX
  8
0
 62
4
 10
-8.27499945E+01
 20
-9.44705741E+01
  0
VERTEX
  8
0
 62
4
 10
-8.30236635E+01
 20
-9.44823412E+01
  0
VERTEX
  8
0
 62
4
 10
-8.32952498E+01
 20
-9.45175530E+01
  0
VERTEX
  8
0
 62
4
 10
-8.35626863E+01
 20
-9.45759415E+01
  0
VERTEX
  8
0
 62
4
 10
-8.38239378E+01
 20
-9.46570623E+01
  0
VERTEX
  8
0
 62
4
 10
-8.40770158E+01
 20
-9.47602981E+01
  0
VERTEX
  8
0
 62
4
 10
-8.43199945E+01
 20
-9.48848632E+01
  0
VERTEX
  8
0
 62
4
 10
-8.45510245E+01
 20
-9.50298095E+01
  0
VERTEX
  8
0
 62
4
 10
-8.47683476E+01
 20
-9.51940340E+01
  0
VERTEX
  8
0
 62
4
 10
-8.49703098E+01
 20
-9.53762867E+01
  0
VERTEX
  8
0
 62
4
 10
-8.51553741E+01
 20
-9.55751806E+01
  0
VERTEX
  8
0
 62
4
 10
-8.53221319E+01
 20
-9.57892021E+01
  0
VERTEX
  8
0
 62
4
 10
-8.54693143E+01
 20
-9.60167222E+01
  0
VERTEX
  8
0
 62
4
 10
-8.55958010E+01
 20
-9.62560095E+01
  0
VERTEX
  8
0
 62
4
 10
-8.57006293E+01
 20
-9.65052428E+01
  0
VERTEX
  8
0
 62
4
 10
-8.57830016E+01
 20
-9.67625252E+01
  0
VERTEX
  8
0
 62
4
 10
-8.58422908E+01
 20
-9.70258988E+01
  0
VERTEX
  8
0
 62
4
 10
-8.58780459E+01
 20
-9.72933590E+01
  0
VERTEX
  8
0
 62
4
 10
-8.58899945E+01
 20
-9.75628704E+01
  0
VERTEX
  8
0
 62
4
 10
-8.58780459E+01
 20
-9.78323818E+01
  0
VERTEX
  8
0
 62
4
 10
-8.58422908E+01
 20
-9.80998420E+01
  0
VERTEX
  8
0
 62
4
 10
-8.57830016E+01
 20
-9.83632156E+01
  0
VERTEX
  8
0
 62
4
 10
-8.57006293E+01
 20
-9.86204980E+01
  0
VERTEX
  8
0
 62
4
 10
-8.55958009E+01
 20
-9.88697313E+01
  0
VERTEX
  8
0
 62
4
 10
-8.54693143E+01
 20
-9.91090186E+01
  0
VERTEX
  8
0
 62
4
 10
-8.53221319E+01
 20
-9.93365387E+01
  0
VERTEX
  8
0
 62
4
 10
-8.51553740E+01
 20
-9.95505602E+01
  0
VERTEX
  8
0
 62
4
 10
-8.49703098E+01
 20
-9.97494541E+01
  0
VERTEX
  8
0
 62
4
 10
-8.47683476E+01
 20
-9.99317068E+01
  0
VERTEX
  8
0
 62
4
 10
-8.45510245E+01
 20
-1.00095931E+02
  0
VERTEX
  8
0
 62
4
 10
-8.43199945E+01
 20
-1.00240878E+02
  0
VERTEX
  8
0
 62
4
 10
-8.40770158E+01
 20
-1.00365443E+02
  0
VERTEX
  8
0
 62
4
 10
-8.38239377E+01
 20
-1.00468678E+02
  0
VERTEX
  8
0
 62
4
 10
-8.35626863E+01
 20
-1.00549799E+02
  0
VERTEX
  8
0
 62
4
 10
-8.32952498E+01
 20
-1.00608188E+02
  0
VERTEX
  8
0
 62
4
 10
-8.30236635E+01
 20
-1.00643400E+02
  0
VERTEX
  8
0
 62
4
 10
-8.27499945E+01
 20
-1.00655167E+02
  0
VERTEX
  8
0
 62
4
 10
-8.24763255E+01
 20
-1.00643400E+02
  0
VERTEX
  8
0
 62
4
 10
-8.22047392E+01
 20
-1.00608188E+02
  0
VERTEX
  8
0
 62
4
 10
-8.19373027E+01
 20
-1.00549799E+02
  0
VERTEX
  8
0
 62
4
 10
-8.16760512E+01
 20
-1.00468678E+02
  0
VERTEX
  8
0
 62
4
 10
-8.14229732E+01
 20
-1.00365443E+02
  0
VERTEX
  8
0
 62
4
 10
-8.11799945E+01
 20
-1.00240878E+02
  0
VERTEX
  8
0
 62
4
 10
-8.09489645E+01
 20
-1.00095931E+02
  0
VERTEX
  8
0
 62
4
 10
-8.07316414E+01
 20
-9.99317068E+01
  0
VERTEX
  8
0
 62
4
 10
-8.05296792E+01
 20
-9.97494541E+01
  0
VERTEX
  8
0
 62
4
 10
-8.03446149E+01
 20
-9.95505602E+01
  0
VERTEX
  8
0
 62
4
 10
-8.01778571E+01
 20
-9.93365387E+01
  0
VERTEX
  8
0
 62
4
 10
-8.00306747E+01
 20
-9.91090186E+01
  0
VERTEX
  8
0
 62
4
 10
-7.99041880E+01
 20
-9.88697313E+01
  0
VERTEX
  8
0
 62
4
 10
-7.97993597E+01
 20
-9.86204980E+01
  0
VERTEX
  8
0
 62
4
 10
-7.97169874E+01
 20
-9.83632156E+01
  0
VERTEX
  8
0
 62
4
 10
-7.96576982E+01
 20
-9.80998420E+01
  0
VERTEX
  8
0
 62
4
 10
-7.96219431E+01
 20
-9.78323818E+01
  0
VERTEX
  8
0
 62
4
 10
-7.96099945E+01
 20
-9.75628704E+01
  0
SEQEND
  8
0
  0
ARC
  8
0
 62
4
 10
-7.32504983E+01
 20
-8.78154724E+01
 40
1.50050386E+00
 50
1.92364101E-02
 51
8.99807637E+01
  0
LINE
  8
0
 62
4
 10
-8.92499945E+01
 20
-8.76862526E+01
 11
-9.12499945E+01
 21
-8.76862526E+01
  0
LINE
  8
0
 62
4
 10
-8.92499945E+01
 20
-8.76862526E+01
 11
-8.92499945E+01
 21
-1.07092193E+02
  0
LINE
  8
0
 62
4
 10
-9.12499945E+01
 20
-8.63149686E+01
 11
-7.32499945E+01
 21
-8.63149686E+01
  0
LINE
  8
0
  6
CENTER
 62
6
 10
-8.27499945E+01
 20
-9.20408186E+01
 11
-8.27499945E+01
 21
-1.03084922E+02
  0
LINE
  8
0
  6
CENTER
 62
6
 10
-8.82720464E+01
 20
-9.75628704E+01
 11
-7.72279427E+01
 21
-9.75628704E+01
  0
ARC
  8
0
 62
4
 10
-7.32494947E+01
 20
-1.10659434E+02
 40
1.49950029E+00
 50
2.69980903E+02
 51
1.90971113E-02
  0
LINE
  8
0
 62
6
 10
-9.32499911E+01
 20
-7.22314481E+01
 11
-9.32499911E+01
 21
-7.37396771E+01
  0
LINE
  8
0
 62
4
 10
-9.27499911E+01
 20
-7.32314481E+01
 11
-9.30199911E+01
 21
-7.22314481E+01
  0
LINE
  8
0
 62
4
 10
-9.27499911E+01
 20
-7.32314481E+01
 11
-9.27499911E+01
 21
-7.37396771E+01
  0
LINE
  8
0
 62
4
 10
2.40184837E+02
 20
-1.67780229E+02
 11
2.35184837E+02
 21
-1.67780229E+02
  0
LINE
  8
0
 62
4
 10
2.23684837E+02
 20
-1.98914042E+02
 11
2.23684837E+02
 21
-1.96809944E+02
  0
LINE
  8
0
 62
4
 10
1.87684837E+02
 20
-1.98914042E+02
 11
1.87684837E+02
 21
-1.96809944E+02
  0
LINE
  8
0
 62
4
 10
2.03684837E+02
 20
-1.96129071E+02
 11
1.87684837E+02
 21
-1.96129071E+02
  0
ARC
  8
0
 62
4
 10
2.23685337E+02
 20
-1.97628571E+02
 40
1.49950029E+00
 50
3.59980903E+02
 51
9.00190969E+01
  0
LINE
  8
0
 62
4
 10
2.23684837E+02
 20
-1.96129071E+02
 11
2.22684837E+02
 21
-1.96129071E+02
  0
ARC
  8
0
 62
4
 10
1.87684338E+02
 20
-1.97628571E+02
 40
1.49950029E+00
 50
8.99809029E+01
 51
1.80019097E+02
  0
POLYLINE
  8
0
 62
4
 66
1
  0
VERTEX
  8
0
 62
4
 10
2.19184837E+02
 20
-2.25236108E+02
  0
VERTEX
  8
0
 62
4
 10
2.19176977E+02
 20
-2.25062092E+02
  0
VERTEX
  8
0
 62
4
 10
2.19153457E+02
 20
-2.24889444E+02
  0
VERTEX
  8
0
 62
4
 10
2.19114464E+02
 20
-2.24719521E+02
  0
VERTEX
  8
0
 62
4
 10
2.19060303E+02
 20
-2.24553658E+02
  0
VERTEX
  8
0
 62
4
 10
2.18991400E+02
 20
-2.24393160E+02
  0
VERTEX
  8
0
 62
4
 10
2.18908297E+02
 20
-2.24239288E+02
  0
VERTEX
  8
0
 62
4
 10
2.18811647E+02
 20
-2.24093251E+02
  0
VERTEX
  8
0
 62
4
 10
2.18702209E+02
 20
-2.23956197E+02
  0
VERTEX
  8
0
 62
4
 10
2.18580845E+02
 20
-2.23829204E+02
  0
VERTEX
  8
0
 62
4
 10
2.18448507E+02
 20
-2.23713270E+02
  0
VERTEX
  8
0
 62
4
 10
2.18306236E+02
 20
-2.23609306E+02
  0
VERTEX
  8
0
 62
4
 10
2.18155151E+02
 20
-2.23518129E+02
  0
VERTEX
  8
0
 62
4
 10
2.17996439E+02
 20
-2.23440456E+02
  0
VERTEX
  8
0
 62
4
 10
2.17831347E+02
 20
-2.23376897E+02
  0
VERTEX
  8
0
 62
4
 10
2.17661173E+02
 20
-2.23327953E+02
  0
VERTEX
  8
0
 62
4
 10
2.17487255E+02
 20
-2.23294007E+02
  0
VERTEX
  8
0
 62
4
 10
2.17310960E+02
 20
-2.23275327E+02
  0
VERTEX
  8
0
 62
4
 10
2.17133674E+02
 20
-2.23272059E+02
  0
VERTEX
  8
0
 62
4
 10
2.16956790E+02
 20
-2.23284230E+02
  0
VERTEX
  8
0
 62
4
 10
2.16781698E+02
 20
-2.23311743E+02
  0
VERTEX
  8
0
 62
4
 10
2.16609776E+02
 20
-2.23354383E+02
  0
VERTEX
  8
0
 62
4
 10
2.16442373E+02
 20
-2.23411813E+02
  0
VERTEX
  8
0
 62
4
 10
2.16280807E+02
 20
-2.23483583E+02
  0
VERTEX
  8
0
 62
4
 10
2.16126346E+02
 20
-2.23569129E+02
  0
VERTEX
  8
0
 62
4
 10
2.15980206E+02
 20
-2.23667777E+02
  0
VERTEX
  8
0
 62
4
 10
2.15843534E+02
 20
-2.23778754E+02
  0
VERTEX
  8
0
 62
4
 10
2.15717406E+02
 20
-2.23901185E+02
  0
VERTEX
  8
0
 62
4
 10
2.15602812E+02
 20
-2.24034110E+02
  0
VERTEX
  8
0
 62
4
 10
2.15500653E+02
 20
-2.24176483E+02
  0
VERTEX
  8
0
 62
4
 10
2.15411733E+02
 20
-2.24327185E+02
  0
VERTEX
  8
0
 62
4
 10
2.15336750E+02
 20
-2.24485031E+02
  0
VERTEX
  8
0
 62
4
 10
2.15276294E+02
 20
-2.24648781E+02
  0
VERTEX
  8
0
 62
4
 10
2.15230839E+02
 20
-2.24817148E+02
  0
VERTEX
  8
0
 62
4
 10
2.15200744E+02
 20
-2.24988807E+02
  0
VERTEX
  8
0
 62
4
 10
2.15186245E+02
 20
-2.25162411E+02
  0
VERTEX
  8
0
 62
4
 10
2.15187455E+02
 20
-2.25336594E+02
  0
SEQEND
  8
0
  0
POLYLINE
  8
0
 62
4
 66
1
  0
VERTEX
  8
0
 62
4
 10
2.18919837E+02
 20
-2.25610729E+02
  0
VERTEX
  8
0
 62
4
 10
2.18913235E+02
 20
-2.25461811E+02
  0
VERTEX
  8
0
 62
4
 10
2.18893478E+02
 20
-2.25314027E+02
  0
VERTEX
  8
0
 62
4
 10
2.18860718E+02
 20
-2.25168500E+02
  0
VERTEX
  8
0
 62
4
 10
2.18815204E+02
 20
-2.25026339E+02
  0
VERTEX
  8
0
 62
4
 10
2.18757281E+02
 20
-2.24888626E+02
  0
VERTEX
  8
0
 62
4
 10
2.18687391E+02
 20
-2.24756408E+02
  0
VERTEX
  8
0
 62
4
 10
2.18606066E+02
 20
-2.24630693E+02
  0
VERTEX
  8
0
 62
4
 10
2.18513924E+02
 20
-2.24512435E+02
  0
VERTEX
  8
0
 62
4
 10
2.18411667E+02
 20
-2.24402537E+02
  0
VERTEX
  8
0
 62
4
 10
2.18300074E+02
 20
-2.24301834E+02
  0
VERTEX
  8
0
 62
4
 10
2.18179992E+02
 20
-2.24211092E+02
  0
VERTEX
  8
0
 62
4
 10
2.18052337E+02
 20
-2.24131002E+02
  0
VERTEX
  8
0
 62
4
 10
2.17918080E+02
 20
-2.24062174E+02
  0
VERTEX
  8
0
 62
4
 10
2.17778242E+02
 20
-2.24005131E+02
  0
VERTEX
  8
0
 62
4
 10
2.17633888E+02
 20
-2.23960308E+02
  0
VERTEX
  8
0
 62
4
 10
2.17486117E+02
 20
-2.23928046E+02
  0
VERTEX
  8
0
 62
4
 10
2.17336052E+02
 20
-2.23908589E+02
  0
VERTEX
  8
0
 62
4
 10
2.17184837E+02
 20
-2.23902088E+02
  0
VERTEX
  8
0
 62
4
 10
2.17033622E+02
 20
-2.23908589E+02
  0
VERTEX
  8
0
 62
4
 10
2.16883557E+02
 20
-2.23928046E+02
  0
VERTEX
  8
0
 62
4
 10
2.16735786E+02
 20
-2.23960308E+02
  0
VERTEX
  8
0
 62
4
 10
2.16591432E+02
 20
-2.24005131E+02
  0
VERTEX
  8
0
 62
4
 10
2.16451594E+02
 20
-2.24062174E+02
  0
VERTEX
  8
0
 62
4
 10
2.16317337E+02
 20
-2.24131002E+02
  0
VERTEX
  8
0
 62
4
 10
2.16189682E+02
 20
-2.24211092E+02
  0
VERTEX
  8
0
 62
4
 10
2.16069600E+02
 20
-2.24301834E+02
  0
VERTEX
  8
0
 62
4
 10
2.15958007E+02
 20
-2.24402537E+02
  0
VERTEX
  8
0
 62
4
 10
2.15855750E+02
 20
-2.24512435E+02
  0
VERTEX
  8
0
 62
4
 10
2.15763608E+02
 20
-2.24630693E+02
  0
VERTEX
  8
0
 62
4
 10
2.15682283E+02
 20
-2.24756408E+02
  0
VERTEX
  8
0
 62
4
 10
2.15612393E+02
 20
-2.24888626E+02
  0
VERTEX
  8
0
 62
4
 10
2.15554470E+02
 20
-2.25026339E+02
  0
VERTEX
  8
0
 62
4
 10
2.15508956E+02
 20
-2.25168500E+02
  0
VERTEX
  8
0
 62
4
 10
2.15476196E+02
 20
-2.25314027E+02
  0
VERTEX
  8
0
 62
4
 10
2.15456439E+02
 20
-2.25461811E+02
  0
VERTEX
  8
0
 62
4
 10
2.15449837E+02
 20
-2.25610729E+02
  0
VERTEX
  8
0
 62
4
 10
2.15456439E+02
 20
-2.25759647E+02
  0
VERTEX
  8
0
 62
4
 10
2.15476196E+02
 20
-2.25907431E+02
  0
VERTEX
  8
0
 62
4
 10
2.15508956E+02
 20
-2.26052958E+02
  0
VERTEX
  8
0
 62
4
 10
2.15554470E+02
 20
-2.26195119E+02
  0
VERTEX
  8
0
 62
4
 10
2.15612393E+02
 20
-2.26332832E+02
  0
VERTEX
  8
0
 62
4
 10
2.15682283E+02
 20
-2.26465050E+02
  0
VERTEX
  8
0
 62
4
 10
2.15763608E+02
 20
-2.26590765E+02
  0
VERTEX
  8
0
 62
4
 10
2.15855750E+02
 20
-2.26709023E+02
  0
VERTEX
  8
0
 62
4
 10
2.15958007E+02
 20
-2.26818921E+02
  0
VERTEX
  8
0
 62
4
 10
2.16069600E+02
 20
-2.26919624E+02
  0
VERTEX
  8
0
 62
4
 10
2.16189682E+02
 20
-2.27010366E+02
  0
VERTEX
  8
0
 62
4
 10
2.16317337E+02
 20
-2.27090456E+02
  0
VERTEX
  8
0
 62
4
 10
2.16451594E+02
 20
-2.27159284E+02
  0
VERTEX
  8
0
 62
4
 10
2.16591432E+02
 20
-2.27216327E+02
  0
VERTEX
  8
0
 62
4
 10
2.16735786E+02
 20
-2.27261150E+02
  0
VERTEX
  8
0
 62
4
 10
2.16883557E+02
 20
-2.27293412E+02
  0
VERTEX
  8
0
 62
4
 10
2.17033622E+02
 20
-2.27312869E+02
  0
VERTEX
  8
0
 62
4
 10
2.17184837E+02
 20
-2.27319370E+02
  0
VERTEX
  8
0
 62
4
 10
2.17336052E+02
 20
-2.27312869E+02
  0
VERTEX
  8
0
 62
4
 10
2.17486117E+02
 20
-2.27293412E+02
  0
VERTEX
  8
0
 62
4
 10
2.17633888E+02
 20
-2.27261150E+02
  0
VERTEX
  8
0
 62
4
 10
2.17778242E+02
 20
-2.27216327E+02
  0
VERTEX
  8
0
 62
4
 10
2.17918080E+02
 20
-2.27159284E+02
  0
VERTEX
  8
0
 62
4
 10
2.18052337E+02
 20
-2.27090456E+02
  0
VERTEX
  8
0
 62
4
 10
2.18179992E+02
 20
-2.27010366E+02
  0
VERTEX
  8
0
 62
4
 10
2.18300074E+02
 20
-2.26919624E+02
  0
VERTEX
  8
0
 62
4
 10
2.18411667E+02
 20
-2.26818921E+02
  0
VERTEX
  8
0
 62
4
 10
2.18513924E+02
 20
-2.26709023E+02
  0
VERTEX
  8
0
 62
4
 10
2.18606066E+02
 20
-2.26590765E+02
  0
VERTEX
  8
0
 62
4
 10
2.18687391E+02
 20
-2.26465050E+02
  0
VERTEX
  8
0
 62
4
 10
2.18757281E+02
 20
-2.26332832E+02
  0
VERTEX
  8
0
 62
4
 10
2.18815204E+02
 20
-2.26195119E+02
  0
VERTEX
  8
0
 62
4
 10
2.18860718E+02
 20
-2.26052958E+02
  0
VERTEX
  8
0
 62
4
 10
2.18893478E+02
 20
-2.25907431E+02
  0
VERTEX
  8
0
 62
4
 10
2.18913235E+02
 20
-2.25759647E+02
  0
VERTEX
  8
0
 62
4
 10
2.18919837E+02
 20
-2.25610729E+02
  0
SEQEND
  8
0
  0
POLYLINE
  8
0
 62
4
 66
1
  0
VERTEX
  8
0
 62
4
 10
2.19184837E+02
 20
-2.25437081E+02
  0
VERTEX
  8
0
 62
4
 10
2.19177226E+02
 20
-2.25265847E+02
  0
VERTEX
  8
0
 62
4
 10
2.19154453E+02
 20
-2.25095916E+02
  0
VERTEX
  8
0
 62
4
 10
2.19116689E+02
 20
-2.24928581E+02
  0
VERTEX
  8
0
 62
4
 10
2.19064222E+02
 20
-2.24765117E+02
  0
VERTEX
  8
0
 62
4
 10
2.18997453E+02
 20
-2.24606767E+02
  0
VERTEX
  8
0
 62
4
 10
2.18916888E+02
 20
-2.24454735E+02
  0
VERTEX
  8
0
 62
4
 10
2.18823141E+02
 20
-2.24310180E+02
  0
VERTEX
  8
0
 62
4
 10
2.18716926E+02
 20
-2.24174202E+02
  0
VERTEX
  8
0
 62
4
 10
2.18599051E+02
 20
-2.24047834E+02
  0
VERTEX
  8
0
 62
4
 10
2.18470412E+02
 20
-2.23932040E+02
  0
VERTEX
  8
0
 62
4
 10
2.18331990E+02
 20
-2.23827700E+02
  0
VERTEX
  8
0
 62
4
 10
2.18184837E+02
 20
-2.23735608E+02
  0
VERTEX
  8
0
 62
4
 10
2.18030074E+02
 20
-2.23656466E+02
  0
VERTEX
  8
0
 62
4
 10
2.17868877E+02
 20
-2.23590875E+02
  0
VERTEX
  8
0
 62
4
 10
2.17702475E+02
 20
-2.23539335E+02
  0
VERTEX
  8
0
 62
4
 10
2.17532133E+02
 20
-2.23502238E+02
  0
VERTEX
  8
0
 62
4
 10
2.17359148E+02
 20
-2.23479866E+02
  0
VERTEX
  8
0
 62
4
 10
2.17184837E+02
 20
-2.23472390E+02
  0
VERTEX
  8
0
 62
4
 10
2.17010526E+02
 20
-2.23479866E+02
  0
VERTEX
  8
0
 62
4
 10
2.16837541E+02
 20
-2.23502238E+02
  0
VERTEX
  8
0
 62
4
 10
2.16667199E+02
 20
-2.23539335E+02
  0
VERTEX
  8
0
 62
4
 10
2.16500797E+02
 20
-2.23590875E+02
  0
VERTEX
  8
0
 62
4
 10
2.16339600E+02
 20
-2.23656466E+02
  0
VERTEX
  8
0
 62
4
 10
2.16184837E+02
 20
-2.23735608E+02
  0
VERTEX
  8
0
 62
4
 10
2.16037684E+02
 20
-2.23827700E+02
  0
VERTEX
  8
0
 62
4
 10
2.15899262E+02
 20
-2.23932040E+02
  0
VERTEX
  8
0
 62
4
 10
2.15770623E+02
 20
-2.24047834E+02
  0
VERTEX
  8
0
 62
4
 10
2.15652748E+02
 20
-2.24174202E+02
  0
VERTEX
  8
0
 62
4
 10
2.15546533E+02
 20
-2.24310180E+02
  0
VERTEX
  8
0
 62
4
 10
2.15452786E+02
 20
-2.24454735E+02
  0
VERTEX
  8
0
 62
4
 10
2.15372221E+02
 20
-2.24606767E+02
  0
VERTEX
  8
0
 62
4
 10
2.15305452E+02
 20
-2.24765117E+02
  0
VERTEX
  8
0
 62
4
 10
2.15252985E+02
 20
-2.24928581E+02
  0
VERTEX
  8
0
 62
4
 10
2.15215221E+02
 20
-2.25095916E+02
  0
VERTEX
  8
0
 62
4
 10
2.15192448E+02
 20
-2.25265847E+02
  0
VERTEX
  8
0
 62
4
 10
2.15184837E+02
 20
-2.25437081E+02
  0
VERTEX
  8
0
 62
4
 10
2.15192448E+02
 20
-2.25608315E+02
  0
VERTEX
  8
0
 62
4
 10
2.15215221E+02
 20
-2.25778246E+02
  0
VERTEX
  8
0
 62
4
 10
2.15252985E+02
 20
-2.25945581E+02
  0
VERTEX
  8
0
 62
4
 10
2.15305452E+02
 20
-2.26109045E+02
  0
VERTEX
  8
0
 62
4
 10
2.15372221E+02
 20
-2.26267395E+02
  0
VERTEX
  8
0
 62
4
 10
2.15452786E+02
 20
-2.26419427E+02
  0
VERTEX
  8
0
 62
4
 10
2.15546533E+02
 20
-2.26563982E+02
  0
VERTEX
  8
0
 62
4
 10
2.15652748E+02
 20
-2.26699960E+02
  0
VERTEX
  8
0
 62
4
 10
2.15770623E+02
 20
-2.26826328E+02
  0
VERTEX
  8
0
 62
4
 10
2.15899262E+02
 20
-2.26942122E+02
  0
VERTEX
  8
0
 62
4
 10
2.16037684E+02
 20
-2.27046462E+02
  0
VERTEX
  8
0
 62
4
 10
2.16184837E+02
 20
-2.27138554E+02
  0
VERTEX
  8
0
 62
4
 10
2.16339600E+02
 20
-2.27217696E+02
  0
VERTEX
  8
0
 62
4
 10
2.16500797E+02
 20
-2.27283287E+02
  0
VERTEX
  8
0
 62
4
 10
2.16667199E+02
 20
-2.27334827E+02
  0
VERTEX
  8
0
 62
4
 10
2.16837541E+02
 20
-2.27371924E+02
  0
VERTEX
  8
0
 62
4
 10
2.17010526E+02
 20
-2.27394296E+02
  0
VERTEX
  8
0
 62
4
 10
2.17184837E+02
 20
-2.27401772E+02
  0
VERTEX
  8
0
 62
4
 10
2.17359148E+02
 20
-2.27394296E+02
  0
VERTEX
  8
0
 62
4
 10
2.17532133E+02
 20
-2.27371924E+02
  0
VERTEX
  8
0
 62
4
 10
2.17702475E+02
 20
-2.27334827E+02
  0
VERTEX
  8
0
 62
4
 10
2.17868877E+02
 20
-2.27283287E+02
  0
VERTEX
  8
0
 62
4
 10
2.18030074E+02
 20
-2.27217696E+02
  0
VERTEX
  8
0
 62
4
 10
2.18184837E+02
 20
-2.27138554E+02
  0
VERTEX
  8
0
 62
4
 10
2.18331990E+02
 20
-2.27046462E+02
  0
VERTEX
  8
0
 62
4
 10
2.18470412E+02
 20
-2.26942122E+02
  0
VERTEX
  8
0
 62
4
 10
2.18599051E+02
 20
-2.26826328E+02
  0
VERTEX
  8
0
 62
4
 10
2.18716926E+02
 20
-2.26699960E+02
  0
VERTEX
  8
0
 62
4
 10
2.18823141E+02
 20
-2.26563982E+02
  0
VERTEX
  8
0
 62
4
 10
2.18916888E+02
 20
-2.26419427E+02
  0
VERTEX
  8
0
 62
4
 10
2.18997453E+02
 20
-2.26267395E+02
  0
VERTEX
  8
0
 62
4
 10
2.19064222E+02
 20
-2.26109045E+02
  0
VERTEX
  8
0
 62
4
 10
2.19116689E+02
 20
-2.25945581E+02
  0
VERTEX
  8
0
 62
4
 10
2.19154453E+02
 20
-2.25778246E+02
  0
VERTEX
  8
0
 62
4
 10
2.19177226E+02
 20
-2.25608315E+02
  0
VERTEX
  8
0
 62
4
 10
2.19184837E+02
 20
-2.25437081E+02
  0
SEQEND
  8
0
  0
POLYLINE
  8
0
 62
6
 66
1
  0
VERTEX
  8
0
 62
6
 10
2.18684837E+02
 20
-2.25605805E+02
  0
VERTEX
  8
0
 62
6
 10
2.18679129E+02
 20
-2.25477058E+02
  0
VERTEX
  8
0
 62
6
 10
2.18662049E+02
 20
-2.25349290E+02
  0
VERTEX
  8
0
 62
6
 10
2.18633726E+02
 20
-2.25223474E+02
  0
VERTEX
  8
0
 62
6
 10
2.18594376E+02
 20
-2.25100569E+02
  0
VERTEX
  8
0
 62
6
 10
2.18544299E+02
 20
-2.24981508E+02
  0
VERTEX
  8
0
 62
6
 10
2.18483875E+02
 20
-2.24867199E+02
  0
VERTEX
  8
0
 62
6
 10
2.18413565E+02
 20
-2.24758511E+02
  0
VERTEX
  8
0
 62
6
 10
2.18333904E+02
 20
-2.24656272E+02
  0
VERTEX
  8
0
 62
6
 10
2.18245497E+02
 20
-2.24561259E+02
  0
VERTEX
  8
0
 62
6
 10
2.18149018E+02
 20
-2.24474195E+02
  0
VERTEX
  8
0
 62
6
 10
2.18045202E+02
 20
-2.24395744E+02
  0
VERTEX
  8
0
 62
6
 10
2.17934837E+02
 20
-2.24326502E+02
  0
VERTEX
  8
0
 62
6
 10
2.17818764E+02
 20
-2.24266997E+02
  0
VERTEX
  8
0
 62
6
 10
2.17697867E+02
 20
-2.24217680E+02
  0
VERTEX
  8
0
 62
6
 10
2.17573066E+02
 20
-2.24178928E+02
  0
VERTEX
  8
0
 62
6
 10
2.17445309E+02
 20
-2.24151036E+02
  0
VERTEX
  8
0
 62
6
 10
2.17315571E+02
 20
-2.24134215E+02
  0
VERTEX
  8
0
 62
6
 10
2.17184837E+02
 20
-2.24128593E+02
  0
VERTEX
  8
0
 62
6
 10
2.17054103E+02
 20
-2.24134215E+02
  0
VERTEX
  8
0
 62
6
 10
2.16924365E+02
 20
-2.24151036E+02
  0
VERTEX
  8
0
 62
6
 10
2.16796608E+02
 20
-2.24178928E+02
  0
VERTEX
  8
0
 62
6
 10
2.16671807E+02
 20
-2.24217680E+02
  0
VERTEX
  8
0
 62
6
 10
2.16550910E+02
 20
-2.24266997E+02
  0
VERTEX
  8
0
 62
6
 10
2.16434837E+02
 20
-2.24326502E+02
  0
VERTEX
  8
0
 62
6
 10
2.16324472E+02
 20
-2.24395744E+02
  0
VERTEX
  8
0
 62
6
 10
2.16220656E+02
 20
-2.24474195E+02
  0
VERTEX
  8
0
 62
6
 10
2.16124177E+02
 20
-2.24561259E+02
  0
VERTEX
  8
0
 62
6
 10
2.16035770E+02
 20
-2.24656272E+02
  0
VERTEX
  8
0
 62
6
 10
2.15956109E+02
 20
-2.24758511E+02
  0
VERTEX
  8
0
 62
6
 10
2.15885799E+02
 20
-2.24867199E+02
  0
VERTEX
  8
0
 62
6
 10
2.15825375E+02
 20
-2.24981508E+02
  0
VERTEX
  8
0
 62
6
 10
2.15775298E+02
 20
-2.25100569E+02
  0
VERTEX
  8
0
 62
6
 10
2.15735948E+02
 20
-2.25223474E+02
  0
VERTEX
  8
0
 62
6
 10
2.15707625E+02
 20
-2.25349290E+02
  0
VERTEX
  8
0
 62
6
 10
2.15690545E+02
 20
-2.25477058E+02
  0
VERTEX
  8
0
 62
6
 10
2.15684837E+02
 20
-2.25605805E+02
  0
VERTEX
  8
0
 62
6
 10
2.15690545E+02
 20
-2.25734552E+02
  0
VERTEX
  8
0
 62
6
 10
2.15707625E+02
 20
-2.25862320E+02
  0
VERTEX
  8
0
 62
6
 10
2.15735948E+02
 20
-2.25988136E+02
  0
VERTEX
  8
0
 62
6
 10
2.15775298E+02
 20
-2.26111041E+02
  0
VERTEX
  8
0
 62
6
 10
2.15825375E+02
 20
-2.26230102E+02
  0
VERTEX
  8
0
 62
6
 10
2.15885799E+02
 20
-2.26344411E+02
  0
VERTEX
  8
0
 62
6
 10
2.15956109E+02
 20
-2.26453099E+02
  0
VERTEX
  8
0
 62
6
 10
2.16035770E+02
 20
-2.26555338E+02
  0
VERTEX
  8
0
 62
6
 10
2.16124177E+02
 20
-2.26650351E+02
  0
VERTEX
  8
0
 62
6
 10
2.16220656E+02
 20
-2.26737415E+02
  0
VERTEX
  8
0
 62
6
 10
2.16324472E+02
 20
-2.26815866E+02
  0
VERTEX
  8
0
 62
6
 10
2.16434837E+02
 20
-2.26885108E+02
  0
VERTEX
  8
0
 62
6
 10
2.16550910E+02
 20
-2.26944613E+02
  0
VERTEX
  8
0
 62
6
 10
2.16671807E+02
 20
-2.26993930E+02
  0
VERTEX
  8
0
 62
6
 10
2.16796608E+02
 20
-2.27032682E+02
  0
VERTEX
  8
0
 62
6
 10
2.16924365E+02
 20
-2.27060574E+02
  0
VERTEX
  8
0
 62
6
 10
2.17054103E+02
 20
-2.27077395E+02
  0
VERTEX
  8
0
 62
6
 10
2.17184837E+02
 20
-2.27083017E+02
  0
VERTEX
  8
0
 62
6
 10
2.17315571E+02
 20
-2.27077395E+02
  0
VERTEX
  8
0
 62
6
 10
2.17445309E+02
 20
-2.27060574E+02
  0
VERTEX
  8
0
 62
6
 10
2.17573066E+02
 20
-2.27032682E+02
  0
VERTEX
  8
0
 62
6
 10
2.17697867E+02
 20
-2.26993930E+02
  0
VERTEX
  8
0
 62
6
 10
2.17818764E+02
 20
-2.26944613E+02
  0
VERTEX
  8
0
 62
6
 10
2.17934837E+02
 20
-2.26885108E+02
  0
VERTEX
  8
0
 62
6
 10
2.18045202E+02
 20
-2.26815866E+02
  0
VERTEX
  8
0
 62
6
 10
2.18149018E+02
 20
-2.26737415E+02
  0
VERTEX
  8
0
 62
6
 10
2.18245497E+02
 20
-2.26650351E+02
  0
VERTEX
  8
0
 62
6
 10
2.18333904E+02
 20
-2.26555338E+02
  0
VERTEX
  8
0
 62
6
 10
2.18413565E+02
 20
-2.26453099E+02
  0
VERTEX
  8
0
 62
6
 10
2.18483875E+02
 20
-2.26344411E+02
  0
VERTEX
  8
0
 62
6
 10
2.18544299E+02
 20
-2.26230102E+02
  0
VERTEX
  8
0
 62
6
 10
2.18594376E+02
 20
-2.26111041E+02
  0
VERTEX
  8
0
 62
6
 10
2.18633726E+02
 20
-2.25988135E+02
  0
VERTEX
  8
0
 62
6
 10
2.18662049E+02
 20
-2.25862320E+02
  0
VERTEX
  8
0
 62
6
 10
2.18679129E+02
 20
-2.25734552E+02
  0
VERTEX
  8
0
 62
6
 10
2.18684837E+02
 20
-2.25605805E+02
  0
SEQEND
  8
0
  0
POLYLINE
  8
0
 62
4
 66
1
  0
VERTEX
  8
0
 62
4
 10
2.11184837E+02
 20
-2.25236108E+02
  0
VERTEX
  8
0
 62
4
 10
2.11176977E+02
 20
-2.25062092E+02
  0
VERTEX
  8
0
 62
4
 10
2.11153457E+02
 20
-2.24889444E+02
  0
VERTEX
  8
0
 62
4
 10
2.11114464E+02
 20
-2.24719521E+02
  0
VERTEX
  8
0
 62
4
 10
2.11060303E+02
 20
-2.24553658E+02
  0
VERTEX
  8
0
 62
4
 10
2.10991400E+02
 20
-2.24393160E+02
  0
VERTEX
  8
0
 62
4
 10
2.10908297E+02
 20
-2.24239288E+02
  0
VERTEX
  8
0
 62
4
 10
2.10811647E+02
 20
-2.24093251E+02
  0
VERTEX
  8
0
 62
4
 10
2.10702209E+02
 20
-2.23956197E+02
  0
VERTEX
  8
0
 62
4
 10
2.10580845E+02
 20
-2.23829204E+02
  0
VERTEX
  8
0
 62
4
 10
2.10448507E+02
 20
-2.23713270E+02
  0
VERTEX
  8
0
 62
4
 10
2.10306236E+02
 20
-2.23609306E+02
  0
VERTEX
  8
0
 62
4
 10
2.10155151E+02
 20
-2.23518129E+02
  0
VERTEX
  8
0
 62
4
 10
2.09996439E+02
 20
-2.23440456E+02
  0
VERTEX
  8
0
 62
4
 10
2.09831347E+02
 20
-2.23376897E+02
  0
VERTEX
  8
0
 62
4
 10
2.09661173E+02
 20
-2.23327953E+02
  0
VERTEX
  8
0
 62
4
 10
2.09487255E+02
 20
-2.23294007E+02
  0
VERTEX
  8
0
 62
4
 10
2.09310960E+02
 20
-2.23275327E+02
  0
VERTEX
  8
0
 62
4
 10
2.09133674E+02
 20
-2.23272059E+02
  0
VERTEX
  8
0
 62
4
 10
2.08956790E+02
 20
-2.23284230E+02
  0
VERTEX
  8
0
 62
4
 10
2.08781698E+02
 20
-2.23311743E+02
  0
VERTEX
  8
0
 62
4
 10
2.08609776E+02
 20
-2.23354383E+02
  0
VERTEX
  8
0
 62
4
 10
2.08442373E+02
 20
-2.23411813E+02
  0
VERTEX
  8
0
 62
4
 10
2.08280807E+02
 20
-2.23483583E+02
  0
VERTEX
  8
0
 62
4
 10
2.08126346E+02
 20
-2.23569129E+02
  0
VERTEX
  8
0
 62
4
 10
2.07980206E+02
 20
-2.23667777E+02
  0
VERTEX
  8
0
 62
4
 10
2.07843534E+02
 20
-2.23778754E+02
  0
VERTEX
  8
0
 62
4
 10
2.07717406E+02
 20
-2.23901185E+02
  0
VERTEX
  8
0
 62
4
 10
2.07602812E+02
 20
-2.24034110E+02
  0
VERTEX
  8
0
 62
4
 10
2.07500653E+02
 20
-2.24176483E+02
  0
VERTEX
  8
0
 62
4
 10
2.07411733E+02
 20
-2.24327185E+02
  0
VERTEX
  8
0
 62
4
 10
2.07336750E+02
 20
-2.24485031E+02
  0
VERTEX
  8
0
 62
4
 10
2.07276294E+02
 20
-2.24648781E+02
  0
VERTEX
  8
0
 62
4
 10
2.07230839E+02
 20
-2.24817148E+02
  0
VERTEX
  8
0
 62
4
 10
2.07200744E+02
 20
-2.24988807E+02
  0
VERTEX
  8
0
 62
4
 10
2.07186245E+02
 20
-2.25162411E+02
  0
VERTEX
  8
0
 62
4
 10
2.07187455E+02
 20
-2.25336594E+02
  0
SEQEND
  8
0
  0
POLYLINE
  8
0
 62
4
 66
1
  0
VERTEX
  8
0
 62
4
 10
2.10919837E+02
 20
-2.25610729E+02
  0
VERTEX
  8
0
 62
4
 10
2.10913235E+02
 20
-2.25461811E+02
  0
VERTEX
  8
0
 62
4
 10
2.10893478E+02
 20
-2.25314027E+02
  0
VERTEX
  8
0
 62
4
 10
2.10860718E+02
 20
-2.25168500E+02
  0
VERTEX
  8
0
 62
4
 10
2.10815204E+02
 20
-2.25026339E+02
  0
VERTEX
  8
0
 62
4
 10
2.10757281E+02
 20
-2.24888626E+02
  0
VERTEX
  8
0
 62
4
 10
2.10687391E+02
 20
-2.24756408E+02
  0
VERTEX
  8
0
 62
4
 10
2.10606066E+02
 20
-2.24630693E+02
  0
VERTEX
  8
0
 62
4
 10
2.10513924E+02
 20
-2.24512435E+02
  0
VERTEX
  8
0
 62
4
 10
2.10411667E+02
 20
-2.24402537E+02
  0
VERTEX
  8
0
 62
4
 10
2.10300074E+02
 20
-2.24301834E+02
  0
VERTEX
  8
0
 62
4
 10
2.10179992E+02
 20
-2.24211092E+02
  0
VERTEX
  8
0
 62
4
 10
2.10052337E+02
 20
-2.24131002E+02
  0
VERTEX
  8
0
 62
4
 10
2.09918080E+02
 20
-2.24062174E+02
  0
VERTEX
  8
0
 62
4
 10
2.09778242E+02
 20
-2.24005131E+02
  0
VERTEX
  8
0
 62
4
 10
2.09633888E+02
 20
-2.23960308E+02
  0
VERTEX
  8
0
 62
4
 10
2.09486117E+02
 20
-2.23928046E+02
  0
VERTEX
  8
0
 62
4
 10
2.09336052E+02
 20
-2.23908589E+02
  0
VERTEX
  8
0
 62
4
 10
2.09184837E+02
 20
-2.23902088E+02
  0
VERTEX
  8
0
 62
4
 10
2.09033622E+02
 20
-2.23908589E+02
  0
VERTEX
  8
0
 62
4
 10
2.08883557E+02
 20
-2.23928046E+02
  0
VERTEX
  8
0
 62
4
 10
2.08735786E+02
 20
-2.23960308E+02
  0
VERTEX
  8
0
 62
4
 10
2.08591432E+02
 20
-2.24005131E+02
  0
VERTEX
  8
0
 62
4
 10
2.08451594E+02
 20
-2.24062174E+02
  0
VERTEX
  8
0
 62
4
 10
2.08317337E+02
 20
-2.24131002E+02
  0
VERTEX
  8
0
 62
4
 10
2.08189682E+02
 20
-2.24211092E+02
  0
VERTEX
  8
0
 62
4
 10
2.08069600E+02
 20
-2.24301834E+02
  0
VERTEX
  8
0
 62
4
 10
2.07958007E+02
 20
-2.24402537E+02
  0
VERTEX
  8
0
 62
4
 10
2.07855750E+02
 20
-2.24512435E+02
  0
VERTEX
  8
0
 62
4
 10
2.07763608E+02
 20
-2.24630693E+02
  0
VERTEX
  8
0
 62
4
 10
2.07682283E+02
 20
-2.24756408E+02
  0
VERTEX
  8
0
 62
4
 10
2.07612393E+02
 20
-2.24888626E+02
  0
VERTEX
  8
0
 62
4
 10
2.07554470E+02
 20
-2.25026339E+02
  0
VERTEX
  8
0
 62
4
 10
2.07508956E+02
 20
-2.25168500E+02
  0
VERTEX
  8
0
 62
4
 10
2.07476196E+02
 20
-2.25314027E+02
  0
VERTEX
  8
0
 62
4
 10
2.07456439E+02
 20
-2.25461811E+02
  0
VERTEX
  8
0
 62
4
 10
2.07449837E+02
 20
-2.25610729E+02
  0
VERTEX
  8
0
 62
4
 10
2.07456439E+02
 20
-2.25759647E+02
  0
VERTEX
  8
0
 62
4
 10
2.07476196E+02
 20
-2.25907431E+02
  0
VERTEX
  8
0
 62
4
 10
2.07508956E+02
 20
-2.26052958E+02
  0
VERTEX
  8
0
 62
4
 10
2.07554470E+02
 20
-2.26195119E+02
  0
VERTEX
  8
0
 62
4
 10
2.07612393E+02
 20
-2.26332832E+02
  0
VERTEX
  8
0
 62
4
 10
2.07682283E+02
 20
-2.26465050E+02
  0
VERTEX
  8
0
 62
4
 10
2.07763608E+02
 20
-2.26590765E+02
  0
VERTEX
  8
0
 62
4
 10
2.07855750E+02
 20
-2.26709023E+02
  0
VERTEX
  8
0
 62
4
 10
2.07958007E+02
 20
-2.26818921E+02
  0
VERTEX
  8
0
 62
4
 10
2.08069600E+02
 20
-2.26919624E+02
  0
VERTEX
  8
0
 62
4
 10
2.08189682E+02
 20
-2.27010366E+02
  0
VERTEX
  8
0
 62
4
 10
2.08317337E+02
 20
-2.27090456E+02
  0
VERTEX
  8
0
 62
4
 10
2.08451594E+02
 20
-2.27159284E+02
  0
VERTEX
  8
0
 62
4
 10
2.08591432E+02
 20
-2.27216327E+02
  0
VERTEX
  8
0
 62
4
 10
2.08735786E+02
 20
-2.27261150E+02
  0
VERTEX
  8
0
 62
4
 10
2.08883557E+02
 20
-2.27293412E+02
  0
VERTEX
  8
0
 62
4
 10
2.09033622E+02
 20
-2.27312869E+02
  0
VERTEX
  8
0
 62
4
 10
2.09184837E+02
 20
-2.27319370E+02
  0
VERTEX
  8
0
 62
4
 10
2.09336052E+02
 20
-2.27312869E+02
  0
VERTEX
  8
0
 62
4
 10
2.09486117E+02
 20
-2.27293412E+02
  0
VERTEX
  8
0
 62
4
 10
2.09633888E+02
 20
-2.27261150E+02
  0
VERTEX
  8
0
 62
4
 10
2.09778242E+02
 20
-2.27216327E+02
  0
VERTEX
  8
0
 62
4
 10
2.09918080E+02
 20
-2.27159284E+02
  0
VERTEX
  8
0
 62
4
 10
2.10052337E+02
 20
-2.27090456E+02
  0
VERTEX
  8
0
 62
4
 10
2.10179992E+02
 20
-2.27010366E+02
  0
VERTEX
  8
0
 62
4
 10
2.10300074E+02
 20
-2.26919624E+02
  0
VERTEX
  8
0
 62
4
 10
2.10411667E+02
 20
-2.26818921E+02
  0
VERTEX
  8
0
 62
4
 10
2.10513924E+02
 20
-2.26709023E+02
  0
VERTEX
  8
0
 62
4
 10
2.10606066E+02
 20
-2.26590765E+02
  0
VERTEX
  8
0
 62
4
 10
2.10687391E+02
 20
-2.26465050E+02
  0
VERTEX
  8
0
 62
4
 10
2.10757281E+02
 20
-2.26332832E+02
  0
VERTEX
  8
0
 62
4
 10
2.10815204E+02
 20
-2.26195119E+02
  0
VERTEX
  8
0
 62
4
 10
2.10860718E+02
 20
-2.26052958E+02
  0
VERTEX
  8
0
 62
4
 10
2.10893478E+02
 20
-2.25907431E+02
  0
VERTEX
  8
0
 62
4
 10
2.10913235E+02
 20
-2.25759647E+02
  0
VERTEX
  8
0
 62
4
 10
2.10919837E+02
 20
-2.25610729E+02
  0
SEQEND
  8
0
  0
POLYLINE
  8
0
 62
4
 66
1
  0
VERTEX
  8
0
 62
4
 10
2.11184837E+02
 20
-2.25437081E+02
  0
VERTEX
  8
0
 62
4
 10
2.11177226E+02
 20
-2.25265847E+02
  0
VERTEX
  8
0
 62
4
 10
2.11154453E+02
 20
-2.25095916E+02
  0
VERTEX
  8
0
 62
4
 10
2.11116689E+02
 20
-2.24928581E+02
  0
VERTEX
  8
0
 62
4
 10
2.11064222E+02
 20
-2.24765117E+02
  0
VERTEX
  8
0
 62
4
 10
2.10997453E+02
 20
-2.24606767E+02
  0
VERTEX
  8
0
 62
4
 10
2.10916888E+02
 20
-2.24454735E+02
  0
VERTEX
  8
0
 62
4
 10
2.10823141E+02
 20
-2.24310180E+02
  0
VERTEX
  8
0
 62
4
 10
2.10716926E+02
 20
-2.24174202E+02
  0
VERTEX
  8
0
 62
4
 10
2.10599051E+02
 20
-2.24047834E+02
  0
VERTEX
  8
0
 62
4
 10
2.10470412E+02
 20
-2.23932040E+02
  0
VERTEX
  8
0
 62
4
 10
2.10331990E+02
 20
-2.23827700E+02
  0
VERTEX
  8
0
 62
4
 10
2.10184837E+02
 20
-2.23735608E+02
  0
VERTEX
  8
0
 62
4
 10
2.10030074E+02
 20
-2.23656466E+02
  0
VERTEX
  8
0
 62
4
 10
2.09868877E+02
 20
-2.23590875E+02
  0
VERTEX
  8
0
 62
4
 10
2.09702475E+02
 20
-2.23539335E+02
  0
VERTEX
  8
0
 62
4
 10
2.09532133E+02
 20
-2.23502238E+02
  0
VERTEX
  8
0
 62
4
 10
2.09359148E+02
 20
-2.23479866E+02
  0
VERTEX
  8
0
 62
4
 10
2.09184837E+02
 20
-2.23472390E+02
  0
VERTEX
  8
0
 62
4
 10
2.09010526E+02
 20
-2.23479866E+02
  0
VERTEX
  8
0
 62
4
 10
2.08837541E+02
 20
-2.23502238E+02
  0
VERTEX
  8
0
 62
4
 10
2.08667199E+02
 20
-2.23539335E+02
  0
VERTEX
  8
0
 62
4
 10
2.08500797E+02
 20
-2.23590875E+02
  0
VERTEX
  8
0
 62
4
 10
2.08339600E+02
 20
-2.23656466E+02
  0
VERTEX
  8
0
 62
4
 10
2.08184837E+02
 20
-2.23735608E+02
  0
VERTEX
  8
0
 62
4
 10
2.08037684E+02
 20
-2.23827700E+02
  0
VERTEX
  8
0
 62
4
 10
2.07899262E+02
 20
-2.23932040E+02
  0
VERTEX
  8
0
 62
4
 10
2.07770623E+02
 20
-2.24047834E+02
  0
VERTEX
  8
0
 62
4
 10
2.07652748E+02
 20
-2.24174202E+02
  0
VERTEX
  8
0
 62
4
 10
2.07546533E+02
 20
-2.24310180E+02
  0
VERTEX
  8
0
 62
4
 10
2.07452786E+02
 20
-2.24454735E+02
  0
VERTEX
  8
0
 62
4
 10
2.07372221E+02
 20
-2.24606767E+02
  0
VERTEX
  8
0
 62
4
 10
2.07305452E+02
 20
-2.24765117E+02
  0
VERTEX
  8
0
 62
4
 10
2.07252985E+02
 20
-2.24928581E+02
  0
VERTEX
  8
0
 62
4
 10
2.07215221E+02
 20
-2.25095916E+02
  0
VERTEX
  8
0
 62
4
 10
2.07192448E+02
 20
-2.25265847E+02
  0
VERTEX
  8
0
 62
4
 10
2.07184837E+02
 20
-2.25437081E+02
  0
VERTEX
  8
0
 62
4
 10
2.07192448E+02
 20
-2.25608315E+02
  0
VERTEX
  8
0
 62
4
 10
2.07215221E+02
 20
-2.25778246E+02
  0
VERTEX
  8
0
 62
4
 10
2.07252985E+02
 20
-2.25945581E+02
  0
VERTEX
  8
0
 62
4
 10
2.07305452E+02
 20
-2.26109045E+02
  0
VERTEX
  8
0
 62
4
 10
2.07372221E+02
 20
-2.26267395E+02
  0
VERTEX
  8
0
 62
4
 10
2.07452786E+02
 20
-2.26419427E+02
  0
VERTEX
  8
0
 62
4
 10
2.07546533E+02
 20
-2.26563982E+02
  0
VERTEX
  8
0
 62
4
 10
2.07652748E+02
 20
-2.26699960E+02
  0
VERTEX
  8
0
 62
4
 10
2.07770623E+02
 20
-2.26826328E+02
  0
VERTEX
  8
0
 62
4
 10
2.07899262E+02
 20
-2.26942122E+02
  0
VERTEX
  8
0
 62
4
 10
2.08037684E+02
 20
-2.27046462E+02
  0
VERTEX
  8
0
 62
4
 10
2.08184837E+02
 20
-2.27138554E+02
  0
VERTEX
  8
0
 62
4
 10
2.08339600E+02
 20
-2.27217696E+02
  0
VERTEX
  8
0
 62
4
 10
2.08500797E+02
 20
-2.27283287E+02
  0
VERTEX
  8
0
 62
4
 10
2.08667199E+02
 20
-2.27334827E+02
  0
VERTEX
  8
0
 62
4
 10
2.08837541E+02
 20
-2.27371924E+02
  0
VERTEX
  8
0
 62
4
 10
2.09010526E+02
 20
-2.27394296E+02
  0
VERTEX
  8
0
 62
4
 10
2.09184837E+02
 20
-2.27401772E+02
  0
VERTEX
  8
0
 62
4
 10
2.09359148E+02
 20
-2.27394296E+02
  0
VERTEX
  8
0
 62
4
 10
2.09532133E+02
 20
-2.27371924E+02
  0
VERTEX
  8
0
 62
4
 10
2.09702475E+02
 20
-2.27334827E+02
  0
VERTEX
  8
0
 62
4
 10
2.09868877E+02
 20
-2.27283287E+02
  0
VERTEX
  8
0
 62
4
 10
2.10030074E+02
 20
-2.27217696E+02
  0
VERTEX
  8
0
 62
4
 10
2.10184837E+02
 20
-2.27138554E+02
  0
VERTEX
  8
0
 62
4
 10
2.10331990E+02
 20
-2.27046462E+02
  0
VERTEX
  8
0
 62
4
 10
2.10470412E+02
 20
-2.26942122E+02
  0
VERTEX
  8
0
 62
4
 10
2.10599051E+02
 20
-2.26826328E+02
  0
VERTEX
  8
0
 62
4
 10
2.10716926E+02
 20
-2.26699960E+02
  0
VERTEX
  8
0
 62
4
 10
2.10823141E+02
 20
-2.26563982E+02
  0
VERTEX
  8
0
 62
4
 10
2.10916888E+02
 20
-2.26419427E+02
  0
VERTEX
  8
0
 62
4
 10
2.10997453E+02
 20
-2.26267395E+02
  0
VERTEX
  8
0
 62
4
 10
2.11064222E+02
 20
-2.26109045E+02
  0
VERTEX
  8
0
 62
4
 10
2.11116689E+02
 20
-2.25945581E+02
  0
VERTEX
  8
0
 62
4
 10
2.11154453E+02
 20
-2.25778246E+02
  0
VERTEX
  8
0
 62
4
 10
2.11177226E+02
 20
-2.25608315E+02
  0
VERTEX
  8
0
 62
4
 10
2.11184837E+02
 20
-2.25437081E+02
  0
SEQEND
  8
0
  0
POLYLINE
  8
0
 62
6
 66
1
  0
VERTEX
  8
0
 62
6
 10
2.10684837E+02
 20
-2.25605805E+02
  0
VERTEX
  8
0
 62
6
 10
2.10679129E+02
 20
-2.25477058E+02
  0
VERTEX
  8
0
 62
6
 10
2.10662049E+02
 20
-2.25349290E+02
  0
VERTEX
  8
0
 62
6
 10
2.10633726E+02
 20
-2.25223474E+02
  0
VERTEX
  8
0
 62
6
 10
2.10594376E+02
 20
-2.25100569E+02
  0
VERTEX
  8
0
 62
6
 10
2.10544299E+02
 20
-2.24981508E+02
  0
VERTEX
  8
0
 62
6
 10
2.10483875E+02
 20
-2.24867199E+02
  0
VERTEX
  8
0
 62
6
 10
2.10413565E+02
 20
-2.24758511E+02
  0
VERTEX
  8
0
 62
6
 10
2.10333904E+02
 20
-2.24656272E+02
  0
VERTEX
  8
0
 62
6
 10
2.10245497E+02
 20
-2.24561259E+02
  0
VERTEX
  8
0
 62
6
 10
2.10149018E+02
 20
-2.24474195E+02
  0
VERTEX
  8
0
 62
6
 10
2.10045202E+02
 20
-2.24395744E+02
  0
VERTEX
  8
0
 62
6
 10
2.09934837E+02
 20
-2.24326502E+02
  0
VERTEX
  8
0
 62
6
 10
2.09818764E+02
 20
-2.24266997E+02
  0
VERTEX
  8
0
 62
6
 10
2.09697867E+02
 20
-2.24217680E+02
  0
VERTEX
  8
0
 62
6
 10
2.09573066E+02
 20
-2.24178928E+02
  0
VERTEX
  8
0
 62
6
 10
2.09445309E+02
 20
-2.24151036E+02
  0
VERTEX
  8
0
 62
6
 10
2.09315571E+02
 20
-2.24134215E+02
  0
VERTEX
  8
0
 62
6
 10
2.09184837E+02
 20
-2.24128593E+02
  0
VERTEX
  8
0
 62
6
 10
2.09054103E+02
 20
-2.24134215E+02
  0
VERTEX
  8
0
 62
6
 10
2.08924365E+02
 20
-2.24151036E+02
  0
VERTEX
  8
0
 62
6
 10
2.08796608E+02
 20
-2.24178928E+02
  0
VERTEX
  8
0
 62
6
 10
2.08671807E+02
 20
-2.24217680E+02
  0
VERTEX
  8
0
 62
6
 10
2.08550910E+02
 20
-2.24266997E+02
  0
VERTEX
  8
0
 62
6
 10
2.08434837E+02
 20
-2.24326502E+02
  0
VERTEX
  8
0
 62
6
 10
2.08324472E+02
 20
-2.24395744E+02
  0
VERTEX
  8
0
 62
6
 10
2.08220656E+02
 20
-2.24474195E+02
  0
VERTEX
  8
0
 62
6
 10
2.08124177E+02
 20
-2.24561259E+02
  0
VERTEX
  8
0
 62
6
 10
2.08035770E+02
 20
-2.24656272E+02
  0
VERTEX
  8
0
 62
6
 10
2.07956109E+02
 20
-2.24758511E+02
  0
VERTEX
  8
0
 62
6
 10
2.07885799E+02
 20
-2.24867199E+02
  0
VERTEX
  8
0
 62
6
 10
2.07825375E+02
 20
-2.24981508E+02
  0
VERTEX
  8
0
 62
6
 10
2.07775298E+02
 20
-2.25100569E+02
  0
VERTEX
  8
0
 62
6
 10
2.07735948E+02
 20
-2.25223474E+02
  0
VERTEX
  8
0
 62
6
 10
2.07707625E+02
 20
-2.25349290E+02
  0
VERTEX
  8
0
 62
6
 10
2.07690545E+02
 20
-2.25477058E+02
  0
VERTEX
  8
0
 62
6
 10
2.07684837E+02
 20
-2.25605805E+02
  0
VERTEX
  8
0
 62
6
 10
2.07690545E+02
 20
-2.25734552E+02
  0
VERTEX
  8
0
 62
6
 10
2.07707625E+02
 20
-2.25862320E+02
  0
VERTEX
  8
0
 62
6
 10
2.07735948E+02
 20
-2.25988136E+02
  0
VERTEX
  8
0
 62
6
 10
2.07775298E+02
 20
-2.26111041E+02
  0
VERTEX
  8
0
 62
6
 10
2.07825375E+02
 20
-2.26230102E+02
  0
VERTEX
  8
0
 62
6
 10
2.07885799E+02
 20
-2.26344411E+02
  0
VERTEX
  8
0
 62
6
 10
2.07956109E+02
 20
-2.26453099E+02
  0
VERTEX
  8
0
 62
6
 10
2.08035770E+02
 20
-2.26555338E+02
  0
VERTEX
  8
0
 62
6
 10
2.08124177E+02
 20
-2.26650351E+02
  0
VERTEX
  8
0
 62
6
 10
2.08220656E+02
 20
-2.26737415E+02
  0
VERTEX
  8
0
 62
6
 10
2.08324472E+02
 20
-2.26815866E+02
  0
VERTEX
  8
0
 62
6
 10
2.08434837E+02
 20
-2.26885108E+02
  0
VERTEX
  8
0
 62
6
 10
2.08550910E+02
 20
-2.26944613E+02
  0
VERTEX
  8
0
 62
6
 10
2.08671807E+02
 20
-2.26993930E+02
  0
VERTEX
  8
0
 62
6
 10
2.08796608E+02
 20
-2.27032682E+02
  0
VERTEX
  8
0
 62
6
 10
2.08924365E+02
 20
-2.27060574E+02
  0
VERTEX
  8
0
 62
6
 10
2.09054103E+02
 20
-2.27077395E+02
  0
VERTEX
  8
0
 62
6
 10
2.09184837E+02
 20
-2.27083017E+02
  0
VERTEX
  8
0
 62
6
 10
2.09315571E+02
 20
-2.27077395E+02
  0
VERTEX
  8
0
 62
6
 10
2.09445309E+02
 20
-2.27060574E+02
  0
VERTEX
  8
0
 62
6
 10
2.09573066E+02
 20
-2.27032682E+02
  0
VERTEX
  8
0
 62
6
 10
2.09697867E+02
 20
-2.26993930E+02
  0
VERTEX
  8
0
 62
6
 10
2.09818764E+02
 20
-2.26944613E+02
  0
VERTEX
  8
0
 62
6
 10
2.09934837E+02
 20
-2.26885108E+02
  0
VERTEX
  8
0
 62
6
 10
2.10045202E+02
 20
-2.26815866E+02
  0
VERTEX
  8
0
 62
6
 10
2.10149018E+02
 20
-2.26737415E+02
  0
VERTEX
  8
0
 62
6
 10
2.10245497E+02
 20
-2.26650351E+02
  0
VERTEX
  8
0
 62
6
 10
2.10333904E+02
 20
-2.26555338E+02
  0
VERTEX
  8
0
 62
6
 10
2.10413565E+02
 20
-2.26453099E+02
  0
VERTEX
  8
0
 62
6
 10
2.10483875E+02
 20
-2.26344411E+02
  0
VERTEX
  8
0
 62
6
 10
2.10544299E+02
 20
-2.26230102E+02
  0
VERTEX
  8
0
 62
6
 10
2.10594376E+02
 20
-2.26111041E+02
  0
VERTEX
  8
0
 62
6
 10
2.10633726E+02
 20
-2.25988135E+02
  0
VERTEX
  8
0
 62
6
 10
2.10662049E+02
 20
-2.25862320E+02
  0
VERTEX
  8
0
 62
6
 10
2.10679129E+02
 20
-2.25734552E+02
  0
VERTEX
  8
0
 62
6
 10
2.10684837E+02
 20
-2.25605805E+02
  0
SEQEND
  8
0
  0
LINE
  8
0
 62
4
 10
1.89184837E+02
 20
-2.18091046E+02
 11
1.89184837E+02
 21
-2.19407727E+02
  0
LINE
  8
0
 62
4
 10
2.22184837E+02
 20
-2.18091046E+02
 11
2.22184837E+02
 21
-2.19407727E+02
  0
LINE
  8
0
 62
4
 10
2.22184837E+02
 20
-2.18094210E+02
 11
2.25184837E+02
 21
-2.14675924E+02
  0
LINE
  8
0
 62
4
 10
1.89184837E+02
 20
-2.18094210E+02
 11
1.86184837E+02
 21
-2.14675924E+02
  0
LINE
  8
0
  6
CENTER
 62
6
 10
2.17184837E+02
 20
-2.20612482E+02
 11
2.17184837E+02
 21
-2.30602482E+02
  0
LINE
  8
0
 62
4
 10
2.20684837E+02
 20
-1.94195188E+02
 11
2.05684837E+02
 21
-1.94195188E+02
  0
LINE
  8
0
 62
4
 10
2.19674912E+02
 20
-2.20035134E+02
 11
2.06776191E+02
 21
-2.20035134E+02
  0
LINE
  8
0
 62
4
 10
2.20684837E+02
 20
-1.67955079E+02
 11
2.05684837E+02
 21
-1.67955079E+02
  0
LINE
  8
0
 62
4
 10
2.05684837E+02
 20
-2.04070861E+02
 11
2.20684837E+02
 21
-2.04070861E+02
  0
LINE
  8
0
 62
4
 10
2.05684837E+02
 20
-2.30411395E+02
 11
2.20684837E+02
 21
-2.30411395E+02
  0
LINE
  8
0
 62
4
 10
2.20684837E+02
 20
-2.04070861E+02
 11
2.20684837E+02
 21
-2.30411395E+02
  0
LINE
  8
0
 62
4
 10
2.05684837E+02
 20
-2.04070861E+02
 11
2.05684837E+02
 21
-2.30411395E+02
  0
LINE
  8
0
  6
CENTER
 62
6
 10
2.09184837E+02
 20
-2.20612482E+02
 11
2.09184837E+02
 21
-2.30602482E+02
  0
LINE
  8
0
  6
CENTER
 62
6
 10
2.04184837E+02
 20
-2.25605805E+02
 11
2.22184837E+02
 21
-2.25605805E+02
  0
LINE
  8
0
 62
4
 10
2.33684837E+02
 20
-1.69415166E+02
 11
2.30184837E+02
 21
-1.69415166E+02
  0
LINE
  8
0
 62
4
 10
2.23684837E+02
 20
-1.99466523E+02
 11
1.87684837E+02
 21
-1.99466523E+02
  0
LINE
  8
0
 62
4
 10
2.40184837E+02
 20
-1.72601971E+02
 11
2.35184837E+02
 21
-1.72601971E+02
  0
LINE
  8
0
 62
4
 10
2.40184837E+02
 20
-1.79997877E+02
 11
2.35184837E+02
 21
-1.79997877E+02
  0
LINE
  8
0
 62
4
 10
2.20684837E+02
 20
-1.68165166E+02
 11
2.29684837E+02
 21
-1.68165166E+02
  0
LINE
  8
0
 62
4
 10
2.30184837E+02
 20
-1.68668308E+02
 11
2.30184837E+02
 21
-1.81668308E+02
  0
LINE
  8
0
 62
4
 10
2.40184837E+02
 20
-1.67780229E+02
 11
2.40184837E+02
 21
-1.82562193E+02
  0
LINE
  8
0
 62
4
 10
2.35184837E+02
 20
-1.67780229E+02
 11
2.35184837E+02
 21
-1.82562193E+02
  0
LINE
  8
0
 62
4
 10
2.35184837E+02
 20
-1.68915166E+02
 11
2.30184837E+02
 21
-1.68915166E+02
  0
LINE
  8
0
 62
4
 10
2.35184837E+02
 20
-1.81415166E+02
 11
2.30184837E+02
 21
-1.81415166E+02
  0
LINE
  8
0
 62
4
 10
2.33684837E+02
 20
-1.68915166E+02
 11
2.33684837E+02
 21
-1.81415166E+02
  0
LINE
  8
0
 62
4
 10
2.33684837E+02
 20
-1.80915166E+02
 11
2.30184837E+02
 21
-1.80915166E+02
  0
LINE
  8
0
 62
4
 10
2.29684837E+02
 20
-1.82165166E+02
 11
2.21184837E+02
 21
-1.82165166E+02
  0
LINE
  8
0
 62
4
 10
2.05684837E+02
 20
-2.18091046E+02
 11
1.89184837E+02
 21
-2.18091046E+02
  0
LINE
  8
0
 62
4
 10
2.40184837E+02
 20
-1.82562193E+02
 11
2.35184837E+02
 21
-1.82562193E+02
  0
LINE
  8
0
 62
4
 10
2.05684837E+02
 20
-2.14672760E+02
 11
1.86184837E+02
 21
-2.14672760E+02
  0
LINE
  8
0
 62
4
 10
2.05684837E+02
 20
-2.13195548E+02
 11
1.86184837E+02
 21
-2.13195548E+02
  0
LINE
  8
0
 62
4
 10
2.20684837E+02
 20
-1.70559802E+02
 11
2.05684837E+02
 21
-1.70559802E+02
  0
LINE
  8
0
 62
4
 10
2.22684837E+02
 20
-1.95527292E+02
 11
2.03684837E+02
 21
-1.95527292E+02
  0
LINE
  8
0
 62
4
 10
2.25184837E+02
 20
-1.97629071E+02
 11
2.25184837E+02
 21
-2.14672760E+02
  0
LINE
  8
0
 62
4
 10
2.25184837E+02
 20
-2.14672760E+02
 11
2.20684837E+02
 21
-2.14672760E+02
  0
LINE
  8
0
 62
4
 10
2.25184837E+02
 20
-2.13195548E+02
 11
2.20684837E+02
 21
-2.13195548E+02
  0
LINE
  8
0
 62
4
 10
2.22684837E+02
 20
-1.95527292E+02
 11
2.22684837E+02
 21
-1.99466523E+02
  0
LINE
  8
0
 62
4
 10
2.05684837E+02
 20
-1.67955079E+02
 11
2.05684837E+02
 21
-1.95527292E+02
  0
LINE
  8
0
 62
4
 10
2.20684837E+02
 20
-1.67955079E+02
 11
2.20684837E+02
 21
-1.95527292E+02
  0
LINE
  8
0
 62
4
 10
2.03684837E+02
 20
-1.95527292E+02
 11
2.03684837E+02
 21
-1.99466523E+02
  0
LINE
  8
0
 62
4
 10
1.86184837E+02
 20
-1.97629071E+02
 11
1.86184837E+02
 21
-2.14672760E+02
  0
LINE
  8
0
 62
4
 10
2.22184837E+02
 20
-2.18091046E+02
 11
2.20684837E+02
 21
-2.18091046E+02
  0
ARC
  8
0
 62
4
 10
2.29685337E+02
 20
-1.68664666E+02
 40
4.99500622E-01
 50
3.59942689E+02
 51
9.00573103E+01
  0
ARC
  8
0
 62
4
 10
2.21184338E+02
 20
-1.82664666E+02
 40
4.99500622E-01
 50
8.99426895E+01
 51
1.80057310E+02
  0
ARC
  8
0
 62
4
 10
1.87684338E+02
 20
-2.00966023E+02
 40
1.49950029E+00
 50
8.99809029E+01
 51
1.80019097E+02
  0
ARC
  8
0
 62
4
 10
2.29684337E+02
 20
-1.81664666E+02
 40
5.00500378E-01
 50
2.70057253E+02
 51
3.59942747E+02
  0
ARC
  8
0
 62
4
 10
2.23685337E+02
 20
-2.00966023E+02
 40
1.49950029E+00
 50
3.59980903E+02
 51
9.00190969E+01
  0
LINE
  8
0
 62
4
 10
2.00324837E+02
 20
-1.96832058E+02
 11
2.00677519E+02
 21
-1.97777582E+02
  0
LINE
  8
0
 62
4
 10
1.94044837E+02
 20
-1.96832058E+02
 11
1.93692156E+02
 21
-1.97777582E+02
  0
POLYLINE
  8
0
 62
4
 66
1
  0
VERTEX
  8
0
 62
4
 10
1.93692156E+02
 20
-1.97777582E+02
  0
VERTEX
  8
0
 62
4
 10
1.93685822E+02
 20
-1.97831282E+02
  0
VERTEX
  8
0
 62
4
 10
1.93706816E+02
 20
-1.97884870E+02
  0
VERTEX
  8
0
 62
4
 10
1.93754974E+02
 20
-1.97937927E+02
  0
VERTEX
  8
0
 62
4
 10
1.93829921E+02
 20
-1.97990038E+02
  0
VERTEX
  8
0
 62
4
 10
1.93931069E+02
 20
-1.98040797E+02
  0
VERTEX
  8
0
 62
4
 10
1.94057631E+02
 20
-1.98089807E+02
  0
VERTEX
  8
0
 62
4
 10
1.94208616E+02
 20
-1.98136685E+02
  0
VERTEX
  8
0
 62
4
 10
1.94382847E+02
 20
-1.98181065E+02
  0
VERTEX
  8
0
 62
4
 10
1.94578961E+02
 20
-1.98222601E+02
  0
VERTEX
  8
0
 62
4
 10
1.94795428E+02
 20
-1.98260967E+02
  0
VERTEX
  8
0
 62
4
 10
1.95030557E+02
 20
-1.98295866E+02
  0
VERTEX
  8
0
 62
4
 10
1.95282511E+02
 20
-1.98327023E+02
  0
VERTEX
  8
0
 62
4
 10
1.95549323E+02
 20
-1.98354196E+02
  0
VERTEX
  8
0
 62
4
 10
1.95828908E+02
 20
-1.98377172E+02
  0
VERTEX
  8
0
 62
4
 10
1.96119083E+02
 20
-1.98395772E+02
  0
VERTEX
  8
0
 62
4
 10
1.96417583E+02
 20
-1.98409851E+02
  0
VERTEX
  8
0
 62
4
 10
1.96722074E+02
 20
-1.98419298E+02
  0
VERTEX
  8
0
 62
4
 10
1.97030180E+02
 20
-1.98424040E+02
  0
VERTEX
  8
0
 62
4
 10
1.97339494E+02
 20
-1.98424040E+02
  0
VERTEX
  8
0
 62
4
 10
1.97647600E+02
 20
-1.98419298E+02
  0
VERTEX
  8
0
 62
4
 10
1.97952091E+02
 20
-1.98409851E+02
  0
VERTEX
  8
0
 62
4
 10
1.98250591E+02
 20
-1.98395772E+02
  0
VERTEX
  8
0
 62
4
 10
1.98540766E+02
 20
-1.98377172E+02
  0
VERTEX
  8
0
 62
4
 10
1.98820351E+02
 20
-1.98354196E+02
  0
VERTEX
  8
0
 62
4
 10
1.99087163E+02
 20
-1.98327023E+02
  0
VERTEX
  8
0
 62
4
 10
1.99339117E+02
 20
-1.98295866E+02
  0
VERTEX
  8
0
 62
4
 10
1.99574246E+02
 20
-1.98260967E+02
  0
VERTEX
  8
0
 62
4
 10
1.99790713E+02
 20
-1.98222601E+02
  0
VERTEX
  8
0
 62
4
 10
1.99986827E+02
 20
-1.98181065E+02
  0
VERTEX
  8
0
 62
4
 10
2.00161058E+02
 20
-1.98136685E+02
  0
VERTEX
  8
0
 62
4
 10
2.00312043E+02
 20
-1.98089807E+02
  0
VERTEX
  8
0
 62
4
 10
2.00438605E+02
 20
-1.98040797E+02
  0
VERTEX
  8
0
 62
4
 10
2.00539753E+02
 20
-1.97990038E+02
  0
VERTEX
  8
0
 62
4
 10
2.00614700E+02
 20
-1.97937927E+02
  0
VERTEX
  8
0
 62
4
 10
2.00662858E+02
 20
-1.97884870E+02
  0
VERTEX
  8
0
 62
4
 10
2.00683852E+02
 20
-1.97831282E+02
  0
VERTEX
  8
0
 62
4
 10
2.00677518E+02
 20
-1.97777582E+02
  0
SEQEND
  8
0
  0
POLYLINE
  8
0
 62
4
 66
1
  0
VERTEX
  8
0
 62
4
 10
2.00324837E+02
 20
-1.96832058E+02
  0
VERTEX
  8
0
 62
4
 10
2.00312888E+02
 20
-1.96784536E+02
  0
VERTEX
  8
0
 62
4
 10
2.00277133E+02
 20
-1.96737375E+02
  0
VERTEX
  8
0
 62
4
 10
2.00217844E+02
 20
-1.96690936E+02
  0
VERTEX
  8
0
 62
4
 10
2.00135472E+02
 20
-1.96645570E+02
  0
VERTEX
  8
0
 62
4
 10
2.00030643E+02
 20
-1.96601623E+02
  0
VERTEX
  8
0
 62
4
 10
1.99904157E+02
 20
-1.96559430E+02
  0
VERTEX
  8
0
 62
4
 10
1.99756974E+02
 20
-1.96519312E+02
  0
VERTEX
  8
0
 62
4
 10
1.99590217E+02
 20
-1.96481575E+02
  0
VERTEX
  8
0
 62
4
 10
1.99405152E+02
 20
-1.96446504E+02
  0
VERTEX
  8
0
 62
4
 10
1.99203190E+02
 20
-1.96414368E+02
  0
VERTEX
  8
0
 62
4
 10
1.98985867E+02
 20
-1.96385411E+02
  0
VERTEX
  8
0
 62
4
 10
1.98754837E+02
 20
-1.96359853E+02
  0
VERTEX
  8
0
 62
4
 10
1.98511858E+02
 20
-1.96337889E+02
  0
VERTEX
  8
0
 62
4
 10
1.98258780E+02
 20
-1.96319686E+02
  0
VERTEX
  8
0
 62
4
 10
1.97997529E+02
 20
-1.96305382E+02
  0
VERTEX
  8
0
 62
4
 10
1.97730092E+02
 20
-1.96295086E+02
  0
VERTEX
  8
0
 62
4
 10
1.97458506E+02
 20
-1.96288878E+02
  0
VERTEX
  8
0
 62
4
 10
1.97184837E+02
 20
-1.96286803E+02
  0
VERTEX
  8
0
 62
4
 10
1.96911168E+02
 20
-1.96288878E+02
  0
VERTEX
  8
0
 62
4
 10
1.96639582E+02
 20
-1.96295086E+02
  0
VERTEX
  8
0
 62
4
 10
1.96372145E+02
 20
-1.96305382E+02
  0
VERTEX
  8
0
 62
4
 10
1.96110894E+02
 20
-1.96319686E+02
  0
VERTEX
  8
0
 62
4
 10
1.95857816E+02
 20
-1.96337889E+02
  0
VERTEX
  8
0
 62
4
 10
1.95614837E+02
 20
-1.96359853E+02
  0
VERTEX
  8
0
 62
4
 10
1.95383807E+02
 20
-1.96385411E+02
  0
VERTEX
  8
0
 62
4
 10
1.95166484E+02
 20
-1.96414368E+02
  0
VERTEX
  8
0
 62
4
 10
1.94964522E+02
 20
-1.96446504E+02
  0
VERTEX
  8
0
 62
4
 10
1.94779457E+02
 20
-1.96481575E+02
  0
VERTEX
  8
0
 62
4
 10
1.94612700E+02
 20
-1.96519312E+02
  0
VERTEX
  8
0
 62
4
 10
1.94465517E+02
 20
-1.96559430E+02
  0
VERTEX
  8
0
 62
4
 10
1.94339031E+02
 20
-1.96601623E+02
  0
VERTEX
  8
0
 62
4
 10
1.94234202E+02
 20
-1.96645570E+02
  0
VERTEX
  8
0
 62
4
 10
1.94151830E+02
 20
-1.96690936E+02
  0
VERTEX
  8
0
 62
4
 10
1.94092541E+02
 20
-1.96737375E+02
  0
VERTEX
  8
0
 62
4
 10
1.94056786E+02
 20
-1.96784536E+02
  0
VERTEX
  8
0
 62
4
 10
1.94044837E+02
 20
-1.96832058E+02
  0
VERTEX
  8
0
 62
4
 10
1.94056786E+02
 20
-1.96879580E+02
  0
VERTEX
  8
0
 62
4
 10
1.94092541E+02
 20
-1.96926741E+02
  0
VERTEX
  8
0
 62
4
 10
1.94151830E+02
 20
-1.96973180E+02
  0
VERTEX
  8
0
 62
4
 10
1.94234202E+02
 20
-1.97018546E+02
  0
VERTEX
  8
0
 62
4
 10
1.94339031E+02
 20
-1.97062493E+02
  0
VERTEX
  8
0
 62
4
 10
1.94465517E+02
 20
-1.97104686E+02
  0
VERTEX
  8
0
 62
4
 10
1.94612700E+02
 20
-1.97144804E+02
  0
VERTEX
  8
0
 62
4
 10
1.94779457E+02
 20
-1.97182541E+02
  0
VERTEX
  8
0
 62
4
 10
1.94964522E+02
 20
-1.97217612E+02
  0
VERTEX
  8
0
 62
4
 10
1.95166484E+02
 20
-1.97249748E+02
  0
VERTEX
  8
0
 62
4
 10
1.95383807E+02
 20
-1.97278705E+02
  0
VERTEX
  8
0
 62
4
 10
1.95614837E+02
 20
-1.97304263E+02
  0
VERTEX
  8
0
 62
4
 10
1.95857816E+02
 20
-1.97326227E+02
  0
VERTEX
  8
0
 62
4
 10
1.96110894E+02
 20
-1.97344430E+02
  0
VERTEX
  8
0
 62
4
 10
1.96372145E+02
 20
-1.97358734E+02
  0
VERTEX
  8
0
 62
4
 10
1.96639582E+02
 20
-1.97369030E+02
  0
VERTEX
  8
0
 62
4
 10
1.96911168E+02
 20
-1.97375238E+02
  0
VERTEX
  8
0
 62
4
 10
1.97184837E+02
 20
-1.97377313E+02
  0
VERTEX
  8
0
 62
4
 10
1.97458506E+02
 20
-1.97375238E+02
  0
VERTEX
  8
0
 62
4
 10
1.97730092E+02
 20
-1.97369030E+02
  0
VERTEX
  8
0
 62
4
 10
1.97997529E+02
 20
-1.97358734E+02
  0
VERTEX
  8
0
 62
4
 10
1.98258780E+02
 20
-1.97344430E+02
  0
VERTEX
  8
0
 62
4
 10
1.98511858E+02
 20
-1.97326227E+02
  0
VERTEX
  8
0
 62
4
 10
1.98754837E+02
 20
-1.97304263E+02
  0
VERTEX
  8
0
 62
4
 10
1.98985867E+02
 20
-1.97278705E+02
  0
VERTEX
  8
0
 62
4
 10
1.99203190E+02
 20
-1.97249748E+02
  0
VERTEX
  8
0
 62
4
 10
1.99405152E+02
 20
-1.97217612E+02
  0
VERTEX
  8
0
 62
4
 10
1.99590217E+02
 20
-1.97182541E+02
  0
VERTEX
  8
0
 62
4
 10
1.99756974E+02
 20
-1.97144804E+02
  0
VERTEX
  8
0
 62
4
 10
1.99904157E+02
 20
-1.97104686E+02
  0
VERTEX
  8
0
 62
4
 10
2.00030643E+02
 20
-1.97062493E+02
  0
VERTEX
  8
0
 62
4
 10
2.00135472E+02
 20
-1.97018546E+02
  0
VERTEX
  8
0
 62
4
 10
2.00217844E+02
 20
-1.96973180E+02
  0
VERTEX
  8
0
 62
4
 10
2.00277133E+02
 20
-1.96926741E+02
  0
VERTEX
  8
0
 62
4
 10
2.00312888E+02
 20
-1.96879580E+02
  0
VERTEX
  8
0
 62
4
 10
2.00324837E+02
 20
-1.96832058E+02
  0
SEQEND
  8
0
  0
LINE
  8
0
  6
CENTER
 62
6
 10
1.97184837E+02
 20
-1.94677926E+02
 11
1.97184837E+02
 21
-1.96832058E+02
  0
CIRCLE
  8
0
 62
7
 10
-2.74749969E+02
 20
-2.22057736E+02
 40
2.45850000E+00
  0
CIRCLE
  8
0
 62
7
 10
-3.21749969E+02
 20
-2.22057736E+02
 40
2.45850000E+00
  0
CIRCLE
  8
0
 62
7
 10
6.99828769E+01
 20
-2.22057736E+02
 40
2.45850000E+00
  0
CIRCLE
  8
0
 62
7
 10
2.29828769E+01
 20
-2.22057736E+02
 40
2.45850000E+00
  0
TEXT
  8
0
 10
2.20496959E+01
 20
2.49478397E+02
 40
6.30000019E+00
  1
STRETCH LINE B
 41
1.09375016E+00
  7
MONOTXT
  0
TEXT
  8
0
 62
7
 10
1.18617090E+02
 20
1.99593150E+01
 40
6.30000019E+00
  1
(mm)
 41
1.00000000E+00
  7
MONOTXT
  0
TEXT
  8
0
 62
7
 10
-1.11782911E+02
 20
1.99593150E+01
 40
6.30000019E+00
  1
STRETCH LIST
 41
1.05263158E+00
  7
MONOTXT
  0
TEXT
  8
0
 62
7
 10
-2.40932910E+02
 20
-3.20406850E+01
 40
6.30000019E+00
  1
B
 41
1.00000000E+00
  7
MONOTXT
  0
TEXT
  8
0
 62
7
 10
-2.40932910E+02
 20
-2.20406850E+01
 40
6.30000019E+00
  1
A
 41
1.00000000E+00
  7
MONOTXT
  0
LINE
  8
0
 62
7
 10
-2.20071973E+02
 20
6.10931511E+00
 11
-2.08271973E+02
 21
-1.38906849E+01
  0
TEXT
  8
0
 62
7
 10
-2.64832911E+02
 20
-1.20406850E+01
 40
6.30000019E+00
  1
  PLACE
 41
1.20689655E+00
  7
MONOTXT
  0
LINE
  8
0
 62
7
 10
-2.68671973E+02
 20
1.61093151E+01
 11
1.44528027E+02
 21
1.61093151E+01
  0
TEXT
  8
0
 62
7
 10
-2.04432910E+02
 20
-3.20406850E+01
 40
6.30000019E+00
  1
-25
 41
1.00000000E+00
  7
MONOTXT
  0
TEXT
  8
0
 62
7
 10
-1.72932910E+02
 20
-3.20406850E+01
 40
6.30000019E+00
  1
0
 41
1.00000000E+00
  7
MONOTXT
  0
TEXT
  8
0
 62
7
 10
-1.50882910E+02
 20
-3.20406850E+01
 40
6.30000019E+00
  1
25
 41
1.00000000E+00
  7
MONOTXT
  0
LINE
  8
0
 62
7
 10
-2.68671973E+02
 20
-3.38906849E+01
 11
1.44528027E+02
 21
-3.38906849E+01
  0
LINE
  8
0
 62
7
 10
-2.68671973E+02
 20
-2.38906849E+01
 11
1.44528027E+02
 21
-2.38906849E+01
  0
LINE
  8
0
 62
7
 10
-2.68671973E+02
 20
-3.38906849E+01
 11
-2.68671973E+02
 21
1.61093151E+01
  0
LINE
  8
0
 62
7
 10
-2.68671973E+02
 20
6.10931511E+00
 11
-2.20071973E+02
 21
6.10931511E+00
  0
LINE
  8
0
 62
7
 10
-2.68671973E+02
 20
-1.38906849E+01
 11
1.44528027E+02
 21
-1.38906849E+01
  0
LINE
  8
0
 62
7
 10
-2.08271973E+02
 20
-3.38906849E+01
 11
-2.08271973E+02
 21
1.61093151E+01
  0
LINE
  8
0
 62
7
 10
-1.83071973E+02
 20
-3.38906849E+01
 11
-1.83071973E+02
 21
1.61093151E+01
  0
LINE
  8
0
 62
7
 10
-1.57871973E+02
 20
-3.38906849E+01
 11
-1.57871973E+02
 21
1.61093151E+01
  0
LINE
  8
0
 62
7
 10
-1.32671973E+02
 20
-3.38906849E+01
 11
-1.32671973E+02
 21
1.61093151E+01
  0
LINE
  8
0
 62
7
 10
-1.07471973E+02
 20
-3.38906849E+01
 11
-1.07471973E+02
 21
1.61093151E+01
  0
LINE
  8
0
 62
7
 10
-8.22719729E+01
 20
-3.38906849E+01
 11
-8.22719729E+01
 21
1.61093151E+01
  0
LINE
  8
0
 62
7
 10
-5.70719729E+01
 20
-3.38906849E+01
 11
-5.70719729E+01
 21
1.61093151E+01
  0
LINE
  8
0
 62
7
 10
-3.18719729E+01
 20
-3.38906849E+01
 11
-3.18719729E+01
 21
1.61093151E+01
  0
LINE
  8
0
 62
7
 10
-6.67197288E+00
 20
-3.38906849E+01
 11
-6.67197288E+00
 21
1.61093151E+01
  0
LINE
  8
0
 62
7
 10
1.85280271E+01
 20
-3.38906849E+01
 11
1.85280271E+01
 21
1.61093151E+01
  0
LINE
  8
0
 62
7
 10
4.37280271E+01
 20
-3.38906849E+01
 11
4.37280271E+01
 21
1.61093151E+01
  0
LINE
  8
0
 62
7
 10
6.89280271E+01
 20
-3.38906849E+01
 11
6.89280271E+01
 21
1.61093151E+01
  0
LINE
  8
0
 62
7
 10
9.41280271E+01
 20
-3.38906849E+01
 11
9.41280271E+01
 21
1.61093151E+01
  0
LINE
  8
0
 62
7
 10
1.19328027E+02
 20
-3.38906849E+01
 11
1.19328027E+02
 21
1.61093151E+01
  0
TEXT
  8
0
 62
7
 10
-2.01282910E+02
 20
-2.04068499E+00
 40
6.30000019E+00
  1
50
 41
1.00000000E+00
  7
MONOTXT
  0
TEXT
  8
0
 62
7
 10
-2.04432910E+02
 20
-2.20406850E+01
 40
6.30000019E+00
  1
-25
 41
1.00000000E+00
  7
MONOTXT
  0
TEXT
  8
0
 62
7
 10
-2.61682910E+02
 20
7.95931500E+00
 40
6.30000019E+00
  1
STROKE
 41
1.00000000E+00
  7
MONOTXT
  0
TEXT
  8
0
 62
7
 10
-2.64832911E+02
 20
-2.04068499E+00
 40
6.30000019E+00
  1
STRETCH
 41
1.00000000E+00
  7
MONOTXT
  0
TEXT
  8
0
 62
7
 10
-1.76082910E+02
 20
-2.04068499E+00
 40
6.30000019E+00
  1
75
 41
1.00000000E+00
  7
MONOTXT
  0
TEXT
  8
0
 62
7
 10
-1.72932910E+02
 20
-2.20406850E+01
 40
6.30000019E+00
  1
0
 41
1.00000000E+00
  7
MONOTXT
  0
TEXT
  8
0
 62
7
 10
-1.54032910E+02
 20
-2.04068499E+00
 40
6.30000019E+00
  1
100
 41
1.00000000E+00
  7
MONOTXT
  0
TEXT
  8
0
 62
7
 10
-1.50882910E+02
 20
-2.20406850E+01
 40
6.30000019E+00
  1
25
 41
1.00000000E+00
  7
MONOTXT
  0
TEXT
  8
0
 62
7
 10
-1.28832910E+02
 20
-2.04068499E+00
 40
6.30000019E+00
  1
150
 41
1.00000000E+00
  7
MONOTXT
  0
TEXT
  8
0
 62
7
 10
-1.25682910E+02
 20
-2.20406850E+01
 40
6.30000019E+00
  1
75
 41
1.00000000E+00
  7
MONOTXT
  0
TEXT
  8
0
 62
7
 10
-1.03632910E+02
 20
-2.04068499E+00
 40
6.30000019E+00
  1
200
 41
1.00000000E+00
  7
MONOTXT
  0
TEXT
  8
0
 62
7
 10
-1.03632910E+02
 20
-2.20406850E+01
 40
6.30000019E+00
  1
125
 41
1.00000000E+00
  7
MONOTXT
  0
TEXT
  8
0
 62
7
 10
-7.84329106E+01
 20
-2.04068499E+00
 40
6.30000019E+00
  1
250
 41
1.00000000E+00
  7
MONOTXT
  0
TEXT
  8
0
 62
7
 10
-7.84329106E+01
 20
-2.20406850E+01
 40
6.30000019E+00
  1
175
 41
1.00000000E+00
  7
MONOTXT
  0
TEXT
  8
0
 62
7
 10
-5.32329106E+01
 20
-2.04068499E+00
 40
6.30000019E+00
  1
300
 41
1.00000000E+00
  7
MONOTXT
  0
TEXT
  8
0
 62
7
 10
-5.32329106E+01
 20
-2.20406850E+01
 40
6.30000019E+00
  1
225
 41
1.00000000E+00
  7
MONOTXT
  0
TEXT
  8
0
 62
7
 10
-2.80329106E+01
 20
-2.04068499E+00
 40
6.30000019E+00
  1
350
 41
1.00000000E+00
  7
MONOTXT
  0
TEXT
  8
0
 62
7
 10
-2.80329106E+01
 20
-2.20406850E+01
 40
6.30000019E+00
  1
275
 41
1.00000000E+00
  7
MONOTXT
  0
TEXT
  8
0
 62
7
 10
-2.83291056E+00
 20
-2.04068499E+00
 40
6.30000019E+00
  1
400
 41
1.00000000E+00
  7
MONOTXT
  0
TEXT
  8
0
 62
7
 10
-2.83291056E+00
 20
-2.20406850E+01
 40
6.30000019E+00
  1
325
 41
1.00000000E+00
  7
MONOTXT
  0
TEXT
  8
0
 62
7
 10
2.23670894E+01
 20
-2.04068499E+00
 40
6.30000019E+00
  1
450
 41
1.00000000E+00
  7
MONOTXT
  0
TEXT
  8
0
 62
7
 10
2.23670894E+01
 20
-2.20406850E+01
 40
6.30000019E+00
  1
375
 41
1.00000000E+00
  7
MONOTXT
  0
TEXT
  8
0
 62
7
 10
4.75670894E+01
 20
-2.04068499E+00
 40
6.30000019E+00
  1
500
 41
1.00000000E+00
  7
MONOTXT
  0
TEXT
  8
0
 62
7
 10
4.75670894E+01
 20
-2.20406850E+01
 40
6.30000019E+00
  1
425
 41
1.00000000E+00
  7
MONOTXT
  0
TEXT
  8
0
 62
7
 10
7.27670894E+01
 20
-2.04068499E+00
 40
6.30000019E+00
  1
600
 41
1.00000000E+00
  7
MONOTXT
  0
TEXT
  8
0
 62
7
 10
7.27670894E+01
 20
-2.20406850E+01
 40
6.30000019E+00
  1
525
 41
1.00000000E+00
  7
MONOTXT
  0
TEXT
  8
0
 62
7
 10
9.79670894E+01
 20
-2.04068499E+00
 40
6.30000019E+00
  1
700
 41
1.00000000E+00
  7
MONOTXT
  0
TEXT
  8
0
 62
7
 10
9.79670894E+01
 20
-2.20406850E+01
 40
6.30000019E+00
  1
625
 41
1.00000000E+00
  7
MONOTXT
  0
LINE
  8
0
 62
7
 10
1.44528027E+02
 20
-3.38906849E+01
 11
1.44528027E+02
 21
1.61093151E+01
  0
TEXT
  8
0
 62
7
 10
1.23167090E+02
 20
-2.04068499E+00
 40
6.30000019E+00
  1
800
 41
1.00000000E+00
  7
MONOTXT
  0
TEXT
  8
0
 62
7
 10
1.23167090E+02
 20
-2.20406850E+01
 40
6.30000019E+00
  1
725
 41
1.00000000E+00
  7
MONOTXT
  0
TEXT
  8
0
 62
7
 10
1.23167090E+02
 20
-3.20406850E+01
 40
6.30000019E+00
  1
725
 41
1.00000000E+00
  7
MONOTXT
  0
TEXT
  8
0
 62
7
 10
9.79670894E+01
 20
-3.20406850E+01
 40
6.30000019E+00
  1
625
 41
1.00000000E+00
  7
MONOTXT
  0
TEXT
  8
0
 62
7
 10
7.27670894E+01
 20
-3.20406850E+01
 40
6.30000019E+00
  1
525
 41
1.00000000E+00
  7
MONOTXT
  0
TEXT
  8
0
 62
7
 10
4.75670894E+01
 20
-3.20406850E+01
 40
6.30000019E+00
  1
425
 41
1.00000000E+00
  7
MONOTXT
  0
TEXT
  8
0
 62
7
 10
2.23670894E+01
 20
-3.20406850E+01
 40
6.30000019E+00
  1
375
 41
1.00000000E+00
  7
MONOTXT
  0
TEXT
  8
0
 62
7
 10
-2.83291056E+00
 20
-3.20406850E+01
 40
6.30000019E+00
  1
325
 41
1.00000000E+00
  7
MONOTXT
  0
TEXT
  8
0
 62
7
 10
-2.80329106E+01
 20
-3.20406850E+01
 40
6.30000019E+00
  1
275
 41
1.00000000E+00
  7
MONOTXT
  0
TEXT
  8
0
 62
7
 10
-5.32329106E+01
 20
-3.20406850E+01
 40
6.30000019E+00
  1
225
 41
1.00000000E+00
  7
MONOTXT
  0
TEXT
  8
0
 62
7
 10
-7.84329106E+01
 20
-3.20406850E+01
 40
6.30000019E+00
  1
175
 41
1.00000000E+00
  7
MONOTXT
  0
TEXT
  8
0
 62
7
 10
-1.03632910E+02
 20
-3.20406850E+01
 40
6.30000019E+00
  1
125
 41
1.00000000E+00
  7
MONOTXT
  0
TEXT
  8
0
 62
7
 10
-1.25682910E+02
 20
-3.20406850E+01
 40
6.30000019E+00
  1
75
 41
1.00000000E+00
  7
MONOTXT
  0
LINE
  8
0
 62
7
 10
-5.18321484E+01
 20
-2.24707715E+02
 11
-1.14750000E+02
 21
-2.24707715E+02
  0
LINE
  8
0
 62
7
 10
-4.82814566E+01
 20
-2.18557736E+02
 11
-1.14750000E+02
 21
-2.18557736E+02
  0
LINE
  8
0
 62
7
 10
-4.87721990E+01
 20
-2.19407727E+02
 11
-1.14750000E+02
 21
-2.19407727E+02
  0
LINE
  8
0
 62
7
 10
-7.94583359E+01
 20
-1.32557675E+02
 11
-1.14750000E+02
 21
-1.32557675E+02
  0
LINE
  8
0
 62
7
 10
-7.89675935E+01
 20
-1.31707684E+02
 11
-1.14750000E+02
 21
-1.31707684E+02
  0
LINE
  8
0
 62
7
 10
-7.59076441E+01
 20
-1.26407696E+02
 11
-1.14750000E+02
 21
-1.26407696E+02
  0
LINE
  8
0
 62
7
 10
-1.06249995E+02
 20
-8.47077147E+01
 11
-1.14750000E+02
 21
-8.47077147E+01
  0
LINE
  8
0
 62
7
 10
-1.06249995E+02
 20
-7.94077269E+01
 11
-1.14750000E+02
 21
-7.94077269E+01
  0
LINE
  8
0
 62
7
 10
-1.06249995E+02
 20
-7.85577361E+01
 11
-1.14750000E+02
 21
-7.85577361E+01
  0
LINE
  8
0
 62
2
 10
-1.82749969E+02
 20
-2.37377713E+02
 11
-1.73749969E+02
 21
-2.37377713E+02
  0
LINE
  8
0
 62
7
 10
-1.82749969E+02
 20
-2.36557706E+02
 11
-1.73749969E+02
 21
-2.36557706E+02
  0
LINE
  8
0
 62
2
 10
-1.82749969E+02
 20
-1.13737698E+02
 11
-1.73749969E+02
 21
-1.13737698E+02
  0
LINE
  8
0
 62
7
 10
-1.82749969E+02
 20
-1.14557706E+02
 11
-1.73749969E+02
 21
-1.14557706E+02
  0
LINE
  8
0
 62
2
 10
-1.82749969E+02
 20
-9.73777129E+01
 11
-1.73749969E+02
 21
-9.73777129E+01
  0
LINE
  8
0
 62
7
 10
-1.82749969E+02
 20
-9.65577056E+01
 11
-1.73749969E+02
 21
-9.65577056E+01
  0
ARC
  8
0
 62
4
 10
-2.02246362E+02
 20
-1.12307706E+02
 40
1.94963929E+01
 50
3.39743842E+02
 51
2.02561580E+01
  0
ARC
  8
0
 62
4
 10
-2.02246362E+02
 20
-9.88077056E+01
 40
1.94963929E+01
 50
3.39743842E+02
 51
2.02561580E+01
  0
ARC
  8
0
 62
4
 10
-1.74253577E+02
 20
-9.88077056E+01
 40
1.94963929E+01
 50
1.59743842E+02
 51
2.00256158E+02
  0
ARC
  8
0
 62
4
 10
-1.74253577E+02
 20
-1.12307706E+02
 40
1.94963929E+01
 50
1.59743842E+02
 51
2.00256158E+02
  0
LINE
  8
0
 62
4
 10
-1.83955741E+02
 20
-1.05557706E+02
 11
-1.92544198E+02
 21
-1.05557706E+02
  0
LINE
  8
0
 62
4
 10
-1.82749969E+02
 20
-1.19057706E+02
 11
-1.93749969E+02
 21
-1.19057706E+02
  0
LINE
  8
0
 62
4
 10
-1.82749969E+02
 20
-9.20577056E+01
 11
-1.93749969E+02
 21
-9.20577056E+01
  0
LINE
  8
0
 62
4
 10
-1.93749969E+02
 20
-9.20577056E+01
 11
-1.93749969E+02
 21
-1.19057706E+02
  0
LINE
  8
0
 62
4
 10
-1.82749969E+02
 20
-9.20577056E+01
 11
-1.82749969E+02
 21
-1.19057706E+02
  0
LINE
  8
0
 62
4
 10
-1.82749969E+02
 20
-2.45557706E+02
 11
-1.82749969E+02
 21
-2.32057706E+02
  0
LINE
  8
0
 62
4
 10
-1.93749969E+02
 20
-2.45557706E+02
 11
-1.93749969E+02
 21
-2.32057706E+02
  0
ARC
  8
0
 62
4
 10
-1.67955741E+02
 20
-2.45557706E+02
 40
2.57942282E+01
 50
1.62412046E+02
 51
1.80000000E+02
  0
ARC
  8
0
 62
4
 10
-2.08544198E+02
 20
-2.45557706E+02
 40
2.57942282E+01
 50
2.54444375E-13
 51
1.75879541E+01
  0
ARC
  8
0
 62
4
 10
-1.89650691E+02
 20
-2.33866363E+02
 40
6.90072132E+00
 50
3.25615752E+02
 51
3.43842480E+01
  0
ARC
  8
0
 62
4
 10
-1.86849248E+02
 20
-2.33866363E+02
 40
6.90072132E+00
 50
1.45615752E+02
 51
2.14384248E+02
  0
LINE
  8
0
 62
4
 10
-1.83955741E+02
 20
-2.29969248E+02
 11
-1.82749969E+02
 21
-2.32057706E+02
  0
LINE
  8
0
 62
4
 10
-1.92544198E+02
 20
-2.29969248E+02
 11
-1.93749969E+02
 21
-2.32057706E+02
  0
LINE
  8
0
 62
4
 10
-1.92544198E+02
 20
-2.37763477E+02
 11
-1.83955741E+02
 21
-2.37763477E+02
  0
LINE
  8
0
 62
4
 10
-1.92544198E+02
 20
-2.29969248E+02
 11
-1.83955741E+02
 21
-2.29969248E+02
  0
LINE
  8
0
 62
4
 10
-2.84749969E+02
 20
-2.37763477E+02
 11
-2.98249969E+02
 21
-2.29969248E+02
  0
LINE
  8
0
 62
4
 10
-2.84749969E+02
 20
-2.45557706E+02
 11
-2.84749969E+02
 21
-2.37763477E+02
  0
LINE
  8
0
 62
4
 10
-3.11749969E+02
 20
-2.37763477E+02
 11
-3.11749969E+02
 21
-2.45557706E+02
  0
LINE
  8
0
 62
4
 10
-2.98249969E+02
 20
-2.29969248E+02
 11
-3.11749969E+02
 21
-2.37763477E+02
  0
ARC
  8
0
 62
4
 10
-2.98249969E+02
 20
-2.45557706E+02
 40
1.35000000E+01
 50
0.00000000E+00
 51
1.80000000E+02
  0
ARC
  8
0
 62
7
 10
-1.60250000E+02
 20
-2.29057736E+02
 40
5.00000000E-01
 50
8.99999818E+01
 51
1.79999964E+02
  0
ARC
  8
0
 62
7
 10
-1.55500000E+02
 20
-2.28549161E+02
 40
2.50000000E-01
 50
9.19988230E+01
 51
1.79999977E+02
  0
ARC
  8
0
 62
7
 10
-1.47250000E+02
 20
-2.27057706E+02
 40
5.00000000E-01
 50
8.99999818E+01
 51
1.79999964E+02
  0
ARC
  8
0
 62
7
 10
-2.98249969E+02
 20
-2.45557706E+02
 40
7.49999237E+00
 50
0.00000000E+00
 51
1.80000000E+02
  0
ARC
  8
0
 62
2
 10
-2.98249969E+02
 20
-2.45557706E+02
 40
8.18000031E+00
 50
0.00000000E+00
 51
1.80000000E+02
  0
ARC
  8
0
 62
7
 10
-2.98249969E+02
 20
-2.45557706E+02
 40
8.99999237E+00
 50
0.00000000E+00
 51
1.80000000E+02
  0
CIRCLE
  8
0
 62
7
 10
-1.21750015E+02
 20
-1.17557736E+02
 40
2.59999990E+00
  0
ARC
  8
0
 62
2
 10
-1.27750046E+02
 20
-9.85577971E+01
 40
8.32999992E+00
 50
7.61074278E+01
 51
3.50075855E+02
  0
ARC
  8
0
 62
7
 10
-1.27750046E+02
 20
-9.85577971E+01
 40
7.44000006E+00
 50
7.44056944E+01
 51
3.48874384E+02
  0
ARC
  8
0
 62
7
 10
-1.27750046E+02
 20
-9.85577971E+01
 40
8.71000004E+00
 50
7.67248866E+01
 51
3.50512921E+02
  0
CIRCLE
  8
0
 62
2
 10
-2.74749969E+02
 20
-2.22057736E+02
 40
3.00000000E+00
  0
CIRCLE
  8
0
 62
2
 10
-3.21749969E+02
 20
-2.22057736E+02
 40
3.00000000E+00
  0
CIRCLE
  8
0
 62
7
 10
-1.21750015E+02
 20
-1.17557736E+02
 40
5.00000000E+00
  0
ARC
  8
0
 62
7
 10
-1.72249969E+02
 20
-2.45557706E+02
 40
9.99998474E+00
 50
0.00000000E+00
 51
3.17883527E+01
  0
ARC
  8
0
 62
7
 10
-2.98249969E+02
 20
-2.45557706E+02
 40
1.70000000E+01
 50
0.00000000E+00
 51
1.80000000E+02
  0
ARC
  8
0
 62
7
 10
-2.98249969E+02
 20
-2.45557706E+02
 40
1.90000000E+01
 50
0.00000000E+00
 51
1.80000000E+02
  0
ARC
  8
0
 62
7
 10
-2.98249969E+02
 20
-2.45557706E+02
 40
1.75294495E+01
 50
0.00000000E+00
 51
1.80000000E+02
  0
ARC
  8
0
 62
7
 10
-3.25249969E+02
 20
-2.35026349E+02
 40
1.00000000E+00
 50
9.71807714E+01
 51
1.79999964E+02
  0
ARC
  8
0
 62
7
 10
-3.21781342E+02
 20
-2.30057629E+02
 40
1.00000000E+00
 50
8.97744422E+01
 51
1.72820998E+02
  0
ARC
  8
0
 62
7
 10
-3.13750031E+02
 20
-2.22026318E+02
 40
1.00000000E+00
 50
9.71807714E+01
 51
1.80224650E+02
  0
ARC
  8
0
 62
7
 10
-3.08781342E+02
 20
-2.18557721E+02
 40
1.00000000E+00
 50
8.99999818E+01
 51
1.72818402E+02
  0
ARC
  8
0
 62
7
 10
-3.12749969E+02
 20
-2.18057690E+02
 40
3.00000000E+00
 50
2.70000018E+02
 51
3.52818957E+02
  0
ARC
  8
0
 62
7
 10
-3.25749969E+02
 20
-2.31057721E+02
 40
3.00000000E+00
 50
2.77180753E+02
 51
0.00000000E+00
  0
CIRCLE
  8
0
 62
7
 10
-3.21749969E+02
 20
-2.22057690E+02
 40
4.50000000E+00
  0
ARC
  8
0
 62
7
 10
-3.25749969E+02
 20
-2.18057751E+02
 40
3.50000000E+00
 50
9.00000231E+01
 51
1.79999977E+02
  0
ARC
  8
0
 62
7
 10
-3.25749969E+02
 20
-2.18057751E+02
 40
3.00000000E+00
 50
9.00000231E+01
 51
1.79999977E+02
  0
ARC
  8
0
 62
7
 10
-3.17686920E+02
 20
-2.28949139E+02
 40
1.00000000E+00
 50
4.50006194E+01
 51
1.20522431E+02
  0
ARC
  8
0
 62
7
 10
-3.21749969E+02
 20
-2.22057690E+02
 40
7.00000000E+00
 50
2.69775421E+02
 51
2.24686703E-01
  0
ARC
  8
0
 62
7
 10
-3.25249969E+02
 20
-2.43557706E+02
 40
1.00000000E+00
 50
1.79999964E+02
 51
2.69999946E+02
  0
ARC
  8
0
 62
7
 10
-3.00249969E+02
 20
-2.25657986E+02
 40
1.00000000E+00
 50
2.75739617E+02
 51
3.59999959E+02
  0
ARC
  8
0
 62
7
 10
-3.00249969E+02
 20
-2.18557736E+02
 40
1.00000000E+00
 50
3.59999959E+02
 51
8.99999956E+01
  0
ARC
  8
0
 62
7
 10
-3.14858551E+02
 20
-2.26120709E+02
 40
1.00000000E+00
 50
1.49477747E+02
 51
2.24999340E+02
  0
CIRCLE
  8
0
 62
7
 10
-3.21749969E+02
 20
-2.22057690E+02
 40
5.00000000E+00
  0
ARC
  8
0
 62
7
 10
-3.18149750E+02
 20
-2.43557706E+02
 40
1.00000000E+00
 50
2.69999963E+02
 51
3.54260510E+02
  0
ARC
  8
0
 62
7
 10
-3.10907013E+02
 20
-2.30072247E+02
 40
1.00000000E+00
 50
2.24999972E+02
 51
3.09260983E+02
  0
ARC
  8
0
 62
7
 10
-3.13735443E+02
 20
-2.32900677E+02
 40
1.00000000E+00
 50
3.20738994E+02
 51
4.49999910E+01
  0
ARC
  8
0
 62
7
 10
-1.38750000E+02
 20
-1.25557736E+02
 40
2.00000000E+00
 50
1.79999981E+02
 51
2.70000018E+02
  0
ARC
  8
0
 62
7
 10
-1.38750000E+02
 20
-8.55577361E+01
 40
2.00000000E+00
 50
8.99999818E+01
 51
1.79999964E+02
  0
ARC
  8
0
 62
7
 10
-2.87718597E+02
 20
-2.18557721E+02
 40
1.00000000E+00
 50
7.18156141E+00
 51
8.99999818E+01
  0
ARC
  8
0
 62
7
 10
-2.83749969E+02
 20
-2.18057690E+02
 40
3.00000000E+00
 50
1.87181024E+02
 51
2.70000018E+02
  0
ARC
  8
0
 62
7
 10
-2.82749969E+02
 20
-2.22026318E+02
 40
1.00000000E+00
 50
3.59775314E+02
 51
8.28191923E+01
  0
ARC
  8
0
 62
7
 10
-2.74750031E+02
 20
-2.22057690E+02
 40
7.00000000E+00
 50
1.79775278E+02
 51
2.70224550E+02
  0
ARC
  8
0
 62
7
 10
-2.74718658E+02
 20
-2.30057629E+02
 40
1.00000000E+00
 50
7.17896597E+00
 51
9.02255215E+01
  0
ARC
  8
0
 62
7
 10
-2.70750031E+02
 20
-2.31057721E+02
 40
3.00000000E+00
 50
1.79999981E+02
 51
2.62819221E+02
  0
ARC
  8
0
 62
7
 10
-2.71250031E+02
 20
-2.35026349E+02
 40
1.00000000E+00
 50
0.00000000E+00
 51
8.28191923E+01
  0
CIRCLE
  8
0
 62
7
 10
-2.74749969E+02
 20
-2.22057736E+02
 40
4.50000000E+00
  0
ARC
  8
0
 62
7
 10
-2.70750031E+02
 20
-2.18057706E+02
 40
3.50000000E+00
 50
0.00000000E+00
 51
8.99999818E+01
  0
ARC
  8
0
 62
7
 10
-2.81641388E+02
 20
-2.26120755E+02
 40
1.00000000E+00
 50
3.15000624E+02
 51
3.05224488E+01
  0
ARC
  8
0
 62
7
 10
-2.78812958E+02
 20
-2.28949155E+02
 40
1.00000000E+00
 50
5.94777518E+01
 51
1.34999345E+02
  0
CIRCLE
  8
0
 62
7
 10
-2.74749969E+02
 20
-2.22057736E+02
 40
5.00000000E+00
  0
ARC
  8
0
 62
7
 10
-2.96249969E+02
 20
-2.25657986E+02
 40
1.00000000E+00
 50
1.79999964E+02
 51
2.64260484E+02
  0
ARC
  8
0
 62
7
 10
-2.96249969E+02
 20
-2.18557736E+02
 40
1.00000000E+00
 50
8.99999818E+01
 51
1.79999964E+02
  0
ARC
  8
0
 62
7
 10
-2.70750031E+02
 20
-2.18057736E+02
 40
3.00000000E+00
 50
0.00000000E+00
 51
8.99999818E+01
  0
ARC
  8
0
 62
7
 10
-2.71250031E+02
 20
-2.43557706E+02
 40
1.00000000E+00
 50
2.69999963E+02
 51
0.00000000E+00
  0
ARC
  8
0
 62
7
 10
-1.60250000E+02
 20
-1.22057675E+02
 40
5.00000000E-01
 50
1.79999981E+02
 51
2.69999963E+02
  0
ARC
  8
0
 62
7
 10
-1.55500000E+02
 20
-1.22566250E+02
 40
2.50000000E-01
 50
1.79999981E+02
 51
2.68001136E+02
  0
ARC
  8
0
 62
7
 10
-1.47250000E+02
 20
-1.24057706E+02
 40
5.00000000E-01
 50
1.79999981E+02
 51
2.69999963E+02
  0
ARC
  8
0
 62
7
 10
-2.78350250E+02
 20
-2.43557721E+02
 40
1.00000000E+00
 50
1.85739458E+02
 51
2.69999963E+02
  0
ARC
  8
0
 62
7
 10
-2.85592926E+02
 20
-2.30072232E+02
 40
1.00000000E+00
 50
2.30738998E+02
 51
3.14999995E+02
  0
ARC
  8
0
 62
7
 10
-2.82764496E+02
 20
-2.32900662E+02
 40
1.00000000E+00
 50
1.34999959E+02
 51
2.19260957E+02
  0
ARC
  8
0
 62
7
 10
-1.47250000E+02
 20
-8.70577056E+01
 40
5.00000000E-01
 50
8.99999818E+01
 51
1.79999964E+02
  0
ARC
  8
0
 62
7
 10
-1.55500000E+02
 20
-8.85491606E+01
 40
2.50000000E-01
 50
9.19988093E+01
 51
1.79999964E+02
  0
ARC
  8
0
 62
7
 10
-1.60250000E+02
 20
-8.90577361E+01
 40
5.00000000E-01
 50
8.99999818E+01
 51
1.79999964E+02
  0
LINE
  8
0
 62
7
 10
-1.73749969E+02
 20
-1.13737698E+02
 11
-1.70749969E+02
 21
-1.13737698E+02
  0
LINE
  8
0
 62
7
 10
-1.73749969E+02
 20
-9.73777129E+01
 11
-1.70749969E+02
 21
-9.73777129E+01
  0
LINE
  8
0
 62
7
 10
-1.73749969E+02
 20
-2.37377713E+02
 11
-1.70749969E+02
 21
-2.37377713E+02
  0
LINE
  8
0
 62
7
 10
-1.70749955E+02
 20
-2.42435264E+02
 11
-1.67749963E+02
 21
-2.40289858E+02
  0
LINE
  8
0
 62
7
 10
-1.70749980E+02
 20
-2.36557708E+02
 11
-1.67749992E+02
 21
-2.35557722E+02
  0
LINE
  8
0
  6
CENTER
 62
2
 10
-1.27750168E+02
 20
-2.12372647E+02
 11
-1.27750168E+02
 21
-2.24257916E+02
  0
LINE
  8
0
 62
7
 10
-1.67750076E+02
 20
-2.35557721E+02
 11
-1.60750046E+02
 21
-2.35557721E+02
  0
LINE
  8
0
 62
7
 10
-1.40750000E+02
 20
-2.15212308E+02
 11
-1.40750000E+02
 21
-2.14557706E+02
  0
LINE
  8
0
 62
7
 10
-1.45750039E+02
 20
-2.15343201E+02
 11
-1.14749999E+02
 21
-2.14531436E+02
  0
LINE
  8
0
 62
7
 10
-1.40750000E+02
 20
-2.14557706E+02
 11
-1.14750000E+02
 21
-2.14557706E+02
  0
LINE
  8
0
 62
7
 10
-1.55508737E+02
 20
-2.28299208E+02
 11
-1.47750023E+02
 21
-2.28028268E+02
  0
LINE
  8
0
 62
7
 10
-1.55750000E+02
 20
-2.28557706E+02
 11
-1.55750000E+02
 21
-2.28549161E+02
  0
LINE
  8
0
 62
7
 10
-1.60250000E+02
 20
-2.28557706E+02
 11
-1.55741455E+02
 21
-2.28557706E+02
  0
LINE
  8
0
 62
7
 10
-1.47250000E+02
 20
-2.26557706E+02
 11
-1.45750000E+02
 21
-2.26557706E+02
  0
LINE
  8
0
  6
CENTER
 62
2
 10
-5.03021737E+01
 20
-2.22057721E+02
 11
-1.47853455E+02
 21
-2.22057721E+02
  0
LINE
  8
0
 62
7
 10
-2.02749915E+02
 20
-2.38057836E+02
 11
-2.01249869E+02
 21
-2.36557836E+02
  0
LINE
  8
0
 62
2
 10
-2.02069916E+02
 20
-2.37377713E+02
 11
-1.93749969E+02
 21
-2.37377713E+02
  0
LINE
  8
0
 62
7
 10
-2.01249908E+02
 20
-2.36557706E+02
 11
-1.93749969E+02
 21
-2.36557706E+02
  0
LINE
  8
0
 62
7
 10
-2.01249969E+02
 20
-2.45557706E+02
 11
-2.01249969E+02
 21
-2.36557706E+02
  0
LINE
  8
0
 62
7
 10
-2.02749969E+02
 20
-2.45557706E+02
 11
-2.02749969E+02
 21
-2.38057858E+02
  0
LINE
  8
0
 62
7
 10
-1.73749969E+02
 20
-2.45557706E+02
 11
-1.73749969E+02
 21
-2.36557706E+02
  0
LINE
  8
0
  6
CENTER
 62
2
 10
-3.05250092E+02
 20
-2.12372647E+02
 11
-3.05250092E+02
 21
-2.24257916E+02
  0
LINE
  8
0
 62
7
 10
-1.63750062E+02
 20
-9.70576450E+01
 11
-1.62250032E+02
 21
-9.55576151E+01
  0
LINE
  8
0
 62
7
 10
-1.63750028E+02
 20
-1.14057697E+02
 11
-1.62250059E+02
 21
-1.15557667E+02
  0
LINE
  8
0
 62
7
 10
-1.70749969E+02
 20
-9.70577056E+01
 11
-1.63750015E+02
 21
-9.70577056E+01
  0
LINE
  8
0
 62
7
 10
-1.70749969E+02
 20
-1.14057706E+02
 11
-1.63750015E+02
 21
-1.14057706E+02
  0
LINE
  8
0
 62
7
 10
-1.63750015E+02
 20
-2.45557706E+02
 11
-1.63750015E+02
 21
-2.40289853E+02
  0
LINE
  8
0
 62
7
 10
-1.67749985E+02
 20
-2.35557675E+02
 11
-1.67749985E+02
 21
-2.40289853E+02
  0
LINE
  8
0
 62
7
 10
-4.87721990E+01
 20
-7.94077269E+01
 11
-9.12499945E+01
 21
-7.94077269E+01
  0
LINE
  8
0
 62
7
 10
-5.18321484E+01
 20
-8.47077147E+01
 11
-9.12499945E+01
 21
-8.47077147E+01
  0
LINE
  8
0
  6
CENTER
 62
2
 10
-5.03021737E+01
 20
-8.20577208E+01
 11
-9.12499945E+01
 21
-8.20577208E+01
  0
LINE
  8
0
 62
7
 10
-4.82814566E+01
 20
-7.85577361E+01
 11
-9.12499945E+01
 21
-7.85577361E+01
  0
LINE
  8
0
 62
2
 10
-1.67249975E+02
 20
-2.45557706E+02
 11
-1.63749985E+02
 21
-2.40289857E+02
  0
LINE
  8
0
 62
2
 10
-1.69783655E+02
 20
-2.41744222E+02
 11
-1.67249954E+02
 21
-2.45557706E+02
  0
LINE
  8
0
 62
7
 10
-1.20017945E+02
 20
-1.17557784E+02
 11
-1.20883968E+02
 21
-1.19057790E+02
  0
LINE
  8
0
 62
7
 10
-1.20883987E+02
 20
-1.19057767E+02
 11
-1.22615982E+02
 21
-1.19057767E+02
  0
LINE
  8
0
 62
7
 10
-1.22615957E+02
 20
-1.19057805E+02
 11
-1.23481996E+02
 21
-1.17557773E+02
  0
LINE
  8
0
 62
7
 10
-1.23481965E+02
 20
-1.17557775E+02
 11
-1.22615957E+02
 21
-1.16057794E+02
  0
LINE
  8
0
 62
7
 10
-1.20883987E+02
 20
-1.16057736E+02
 11
-1.22615982E+02
 21
-1.16057736E+02
  0
LINE
  8
0
 62
7
 10
-1.20017929E+02
 20
-1.17557737E+02
 11
-1.20883953E+02
 21
-1.16057730E+02
  0
LINE
  8
0
 62
7
 10
-1.70749969E+02
 20
-1.14057706E+02
 11
-1.70749969E+02
 21
-9.70577056E+01
  0
LINE
  8
0
 62
7
 10
-2.02749995E+02
 20
-1.13057636E+02
 11
-2.01249960E+02
 21
-1.14557625E+02
  0
LINE
  8
0
 62
2
 10
-2.02069916E+02
 20
-1.13737698E+02
 11
-1.93749969E+02
 21
-1.13737698E+02
  0
LINE
  8
0
 62
7
 10
-2.01249908E+02
 20
-1.14557706E+02
 11
-1.93749969E+02
 21
-1.14557706E+02
  0
LINE
  8
0
 62
7
 10
-2.02749923E+02
 20
-9.80578481E+01
 11
-2.01249877E+02
 21
-9.65578478E+01
  0
LINE
  8
0
 62
2
 10
-2.02069916E+02
 20
-9.73777129E+01
 11
-1.93749969E+02
 21
-9.73777129E+01
  0
LINE
  8
0
 62
7
 10
-2.01249908E+02
 20
-9.65577056E+01
 11
-1.93749969E+02
 21
-9.65577056E+01
  0
LINE
  8
0
 62
7
 10
-2.01249969E+02
 20
-1.14557706E+02
 11
-2.01249969E+02
 21
-9.65577056E+01
  0
LINE
  8
0
 62
7
 10
-2.02749969E+02
 20
-1.13057675E+02
 11
-2.02749969E+02
 21
-9.80578581E+01
  0
LINE
  8
0
 62
7
 10
-1.73749969E+02
 20
-1.14557706E+02
 11
-1.73749969E+02
 21
-9.65577056E+01
  0
LINE
  8
0
 62
7
 10
-1.62249969E+02
 20
-9.55576750E+01
 11
-1.60750000E+02
 21
-9.55576750E+01
  0
LINE
  8
0
 62
7
 10
-1.62250031E+02
 20
-1.15557690E+02
 11
-1.60750046E+02
 21
-1.15557690E+02
  0
LINE
  8
0
 62
7
 10
-1.67749985E+02
 20
-9.70577056E+01
 11
-1.67749985E+02
 21
-1.14057706E+02
  0
LINE
  8
0
 62
7
 10
-1.67750076E+02
 20
-2.40289853E+02
 11
-1.63750015E+02
 21
-2.40289853E+02
  0
LINE
  8
0
 62
7
 10
-1.70749969E+02
 20
-2.36557706E+02
 11
-1.70749969E+02
 21
-2.45557706E+02
  0
LINE
  8
0
  6
CENTER
 62
2
 10
-7.74376188E+01
 20
-1.29057690E+02
 11
-1.47853455E+02
 21
-1.29057690E+02
  0
LINE
  8
0
 62
7
 10
-1.55750000E+02
 20
-2.28557706E+02
 11
-1.55750000E+02
 21
-2.45557706E+02
  0
LINE
  8
0
  6
CENTER
 62
2
 10
-3.12362885E+02
 20
-2.22057736E+02
 11
-3.31482574E+02
 21
-2.22057736E+02
  0
LINE
  8
0
  6
CENTER
 62
2
 10
-2.63602081E+02
 20
-2.45557706E+02
 11
-3.32765045E+02
 21
-2.45557706E+02
  0
LINE
  8
0
 62
7
 10
-2.73749969E+02
 20
-2.29809354E+02
 11
-2.73749969E+02
 21
-2.31057721E+02
  0
LINE
  8
0
 62
7
 10
-2.82501251E+02
 20
-2.21057736E+02
 11
-2.83749969E+02
 21
-2.21057736E+02
  0
LINE
  8
0
 62
7
 10
-3.13998383E+02
 20
-2.21057660E+02
 11
-3.12749969E+02
 21
-2.21057660E+02
  0
LINE
  8
0
 62
7
 10
-3.22749969E+02
 20
-2.29809109E+02
 11
-3.22749969E+02
 21
-2.31057721E+02
  0
LINE
  8
0
 62
7
 10
-1.34558395E+02
 20
-9.55577971E+01
 11
-1.25749995E+02
 21
-9.55577971E+01
  0
LINE
  8
0
 62
7
 10
-2.67750031E+02
 20
-2.45557706E+02
 11
-2.67750031E+02
 21
-2.18057736E+02
  0
LINE
  8
0
 62
7
 10
-3.20249969E+02
 20
-2.14557706E+02
 11
-3.20249969E+02
 21
-2.15057706E+02
  0
LINE
  8
0
 62
7
 10
-2.76249969E+02
 20
-2.14557706E+02
 11
-2.76249969E+02
 21
-2.15057736E+02
  0
LINE
  8
0
 62
7
 10
-2.70250031E+02
 20
-2.45557706E+02
 11
-2.70250031E+02
 21
-2.35026349E+02
  0
LINE
  8
0
  6
CENTER
 62
2
 10
-2.98249969E+02
 20
-2.10797055E+02
 11
-2.98249969E+02
 21
-2.45557706E+02
  0
LINE
  8
0
 62
7
 10
-2.67250031E+02
 20
-2.45557706E+02
 11
-2.67250031E+02
 21
-2.18057706E+02
  0
LINE
  8
0
 62
7
 10
-1.14750000E+02
 20
-2.14557706E+02
 11
-1.14750000E+02
 21
-2.45557706E+02
  0
LINE
  8
0
  6
CENTER
 62
2
 10
-3.21749969E+02
 20
-2.12504025E+02
 11
-3.21749969E+02
 21
-2.29942074E+02
  0
LINE
  8
0
 62
7
 10
-3.29249969E+02
 20
-2.45557706E+02
 11
-3.29249969E+02
 21
-2.18057736E+02
  0
LINE
  8
0
 62
7
 10
-3.26249969E+02
 20
-2.45557706E+02
 11
-3.26249969E+02
 21
-2.35026349E+02
  0
LINE
  8
0
 62
7
 10
-3.08781342E+02
 20
-2.17557721E+02
 11
-2.87718597E+02
 21
-2.17557721E+02
  0
LINE
  8
0
 62
7
 10
-3.25749969E+02
 20
-2.15057706E+02
 11
-2.70750031E+02
 21
-2.15057736E+02
  0
LINE
  8
0
 62
7
 10
-3.28749969E+02
 20
-2.45557706E+02
 11
-3.28749969E+02
 21
-2.18057736E+02
  0
LINE
  8
0
 62
7
 10
-3.25249969E+02
 20
-2.44557675E+02
 11
-3.18149750E+02
 21
-2.44557675E+02
  0
LINE
  8
0
 62
7
 10
-3.13028415E+02
 20
-2.32193659E+02
 11
-3.16979952E+02
 21
-2.28242122E+02
  0
LINE
  8
0
 62
7
 10
-3.11614201E+02
 20
-2.30779446E+02
 11
-3.15565782E+02
 21
-2.26827865E+02
  0
LINE
  8
0
 62
7
 10
-1.45750000E+02
 20
-2.15343197E+02
 11
-1.45750000E+02
 21
-2.45557706E+02
  0
LINE
  8
0
 62
7
 10
-1.47750000E+02
 20
-2.27057706E+02
 11
-1.47750000E+02
 21
-2.45557706E+02
  0
LINE
  8
0
 62
7
 10
-1.60750000E+02
 20
-2.29057736E+02
 11
-1.60750000E+02
 21
-2.45557706E+02
  0
LINE
  8
0
 62
7
 10
-1.38750000E+02
 20
-1.27557736E+02
 11
-1.14750000E+02
 21
-1.27557736E+02
  0
LINE
  8
0
 62
7
 10
-1.38750000E+02
 20
-8.35577361E+01
 11
-1.14750000E+02
 21
-8.35577361E+01
  0
LINE
  8
0
 62
7
 10
-1.45750030E+02
 20
-1.35772160E+02
 11
-1.14750005E+02
 21
-1.36583924E+02
  0
LINE
  8
0
 62
7
 10
-1.14750000E+02
 20
-7.45314452E+01
 11
-1.14750000E+02
 21
-8.67434245E+01
  0
LINE
  8
0
  6
CENTER
 62
2
 10
-1.37160172E+02
 20
-9.85577971E+01
 11
-1.25749995E+02
 21
-9.85577971E+01
  0
LINE
  8
0
  6
CENTER
 62
2
 10
-1.27750046E+02
 20
-1.09799832E+02
 11
-1.27750046E+02
 21
-8.62134215E+01
  0
LINE
  8
0
 62
7
 10
-1.40750000E+02
 20
-1.25557736E+02
 11
-1.40750000E+02
 21
-8.55577361E+01
  0
LINE
  8
0
 62
7
 10
-1.45750000E+02
 20
-7.53432128E+01
 11
-1.14749976E+02
 21
-7.45314486E+01
  0
LINE
  8
0
  6
CENTER
 62
2
 10
-1.30595276E+02
 20
-1.17557736E+02
 11
-1.13120758E+02
 21
-1.17557736E+02
  0
LINE
  8
0
  6
CENTER
 62
2
 10
-1.21750015E+02
 20
-1.25028866E+02
 11
-1.21750015E+02
 21
-1.08439862E+02
  0
LINE
  8
0
 62
7
 10
-1.45750000E+02
 20
-7.53432128E+01
 11
-1.45750000E+02
 21
-1.35772122E+02
  0
LINE
  8
0
  6
CENTER
 62
2
 10
-2.64796844E+02
 20
-2.22057736E+02
 11
-2.84499420E+02
 21
-2.22057736E+02
  0
LINE
  8
0
  6
CENTER
 62
2
 10
-2.74749969E+02
 20
-2.12079465E+02
 11
-2.74749969E+02
 21
-2.31782086E+02
  0
LINE
  8
0
 62
7
 10
-3.25749969E+02
 20
-2.14557706E+02
 11
-2.70750031E+02
 21
-2.14557706E+02
  0
LINE
  8
0
 62
7
 10
-2.97249969E+02
 20
-2.18557736E+02
 11
-2.97249969E+02
 21
-2.25657986E+02
  0
LINE
  8
0
 62
7
 10
-2.99249969E+02
 20
-2.18557736E+02
 11
-2.99249969E+02
 21
-2.25657986E+02
  0
LINE
  8
0
 62
7
 10
-1.55508754E+02
 20
-1.22816125E+02
 11
-1.47750055E+02
 21
-1.23087064E+02
  0
LINE
  8
0
 62
7
 10
-1.55750000E+02
 20
-1.22557706E+02
 11
-1.55750000E+02
 21
-1.22566250E+02
  0
LINE
  8
0
 62
7
 10
-1.60250000E+02
 20
-1.22557706E+02
 11
-1.55741455E+02
 21
-1.22557706E+02
  0
LINE
  8
0
 62
7
 10
-1.47250000E+02
 20
-1.24557706E+02
 11
-1.45750000E+02
 21
-1.24557706E+02
  0
LINE
  8
0
 62
7
 10
-1.60750000E+02
 20
-8.90577361E+01
 11
-1.60750000E+02
 21
-1.22057675E+02
  0
LINE
  8
0
 62
7
 10
-2.71250031E+02
 20
-2.44557721E+02
 11
-2.78350250E+02
 21
-2.44557721E+02
  0
LINE
  8
0
 62
7
 10
-2.83471767E+02
 20
-2.32193412E+02
 11
-2.79520250E+02
 21
-2.28241896E+02
  0
LINE
  8
0
 62
7
 10
-2.84886002E+02
 20
-2.30779176E+02
 11
-2.80934485E+02
 21
-2.26827661E+02
  0
LINE
  8
0
 62
7
 10
-1.55508727E+02
 20
-8.82991174E+01
 11
-1.47750028E+02
 21
-8.80281776E+01
  0
LINE
  8
0
 62
7
 10
-1.55750000E+02
 20
-8.85577056E+01
 11
-1.55750000E+02
 21
-8.85491606E+01
  0
LINE
  8
0
 62
7
 10
-1.60250000E+02
 20
-8.85577056E+01
 11
-1.55741455E+02
 21
-8.85577056E+01
  0
LINE
  8
0
 62
7
 10
-1.47250000E+02
 20
-8.65577056E+01
 11
-1.45750000E+02
 21
-8.65577056E+01
  0
LINE
  8
0
 62
7
 10
-1.55749985E+02
 20
-8.85576750E+01
 11
-1.55749985E+02
 21
-1.22557675E+02
  0
LINE
  8
0
 62
7
 10
-1.47749985E+02
 20
-8.70577056E+01
 11
-1.47749985E+02
 21
-1.24057675E+02
  0
LINE
  8
0
  6
CENTER
 62
2
 10
-2.06523193E+02
 20
-2.45557706E+02
 11
-6.38698962E+01
 21
-2.45557706E+02
  0
LINE
  8
0
  6
CENTER
 62
2
 10
-2.05783264E+02
 20
-1.05557706E+02
 11
-1.10749995E+02
 21
-1.05557706E+02
  0
LINE
  8
0
  6
CENTER
 62
2
 10
-1.06249995E+02
 20
-8.20577208E+01
 11
-1.47853455E+02
 21
-8.20577208E+01
  0
LINE
  8
0
 62
7
 10
-1.14750000E+02
 20
-1.00743424E+02
 11
-1.14750000E+02
 21
-1.36557706E+02
  0
LINE
  8
0
  6
CENTER
 62
2
 10
-7.17499945E+01
 20
-1.05557706E+02
 11
-6.38698963E+01
 21
-1.05557706E+02
  0
LINE
  8
0
 62
2
 10
-8.39965078E+01
 20
-1.40418019E+02
 11
-4.70169723E+01
 21
-7.63675851E+01
  0
LINE
  8
0
 62
7
 10
2.60184876E+02
 20
-2.15343201E+02
 11
2.29184837E+02
 21
-2.14531436E+02
  0
LINE
  8
0
 62
7
 10
2.55184837E+02
 20
-2.14557706E+02
 11
2.29184837E+02
 21
-2.14557706E+02
  0
LINE
  8
0
  6
CENTER
 62
2
 10
1.60695577E+02
 20
-2.22057721E+02
 11
2.62288292E+02
 21
-2.22057721E+02
  0
LINE
  8
0
  6
CENTER
 62
2
 10
3.20958031E+02
 20
-2.45557706E+02
 11
1.47127854E+02
 21
-2.45557706E+02
  0
LINE
  8
0
 62
7
 10
2.75184837E+02
 20
-2.29057736E+02
 11
2.75184837E+02
 21
-2.45557706E+02
  0
LINE
  8
0
 62
7
 10
2.62184837E+02
 20
-2.27057706E+02
 11
2.62184837E+02
 21
-2.45557706E+02
  0
LINE
  8
0
 62
7
 10
2.60184837E+02
 20
-2.15343197E+02
 11
2.60184837E+02
 21
-2.45557706E+02
  0
LINE
  8
0
 62
7
 10
2.70184837E+02
 20
-2.28557706E+02
 11
2.70184837E+02
 21
-2.45557706E+02
  0
LINE
  8
0
 62
7
 10
2.85184807E+02
 20
-2.36557706E+02
 11
2.85184807E+02
 21
-2.45557706E+02
  0
LINE
  8
0
 62
7
 10
2.82184914E+02
 20
-2.40289853E+02
 11
2.78184853E+02
 21
-2.40289853E+02
  0
LINE
  8
0
 62
2
 10
2.84218493E+02
 20
-2.41744222E+02
 11
2.81684792E+02
 21
-2.45557706E+02
  0
LINE
  8
0
 62
2
 10
2.81684812E+02
 20
-2.45557706E+02
 11
2.78184822E+02
 21
-2.40289857E+02
  0
LINE
  8
0
 62
7
 10
2.82184822E+02
 20
-2.35557675E+02
 11
2.82184822E+02
 21
-2.40289853E+02
  0
LINE
  8
0
 62
7
 10
2.78184853E+02
 20
-2.45557706E+02
 11
2.78184853E+02
 21
-2.40289853E+02
  0
LINE
  8
0
 62
7
 10
2.88184807E+02
 20
-2.45557706E+02
 11
2.88184807E+02
 21
-2.36557706E+02
  0
LINE
  8
0
 62
7
 10
3.17184807E+02
 20
-2.45557706E+02
 11
3.17184807E+02
 21
-2.38057858E+02
  0
LINE
  8
0
 62
7
 10
3.15684807E+02
 20
-2.45557706E+02
 11
3.15684807E+02
 21
-2.36557706E+02
  0
LINE
  8
0
 62
7
 10
3.15684746E+02
 20
-2.36557706E+02
 11
3.08184807E+02
 21
-2.36557706E+02
  0
LINE
  8
0
 62
2
 10
3.16504753E+02
 20
-2.37377713E+02
 11
3.08184807E+02
 21
-2.37377713E+02
  0
LINE
  8
0
 62
7
 10
3.17184753E+02
 20
-2.38057836E+02
 11
3.15684707E+02
 21
-2.36557836E+02
  0
LINE
  8
0
 62
7
 10
2.61684837E+02
 20
-2.26557706E+02
 11
2.60184837E+02
 21
-2.26557706E+02
  0
LINE
  8
0
 62
7
 10
2.74684837E+02
 20
-2.28557706E+02
 11
2.70176293E+02
 21
-2.28557706E+02
  0
LINE
  8
0
 62
7
 10
2.70184837E+02
 20
-2.28557706E+02
 11
2.70184837E+02
 21
-2.28549161E+02
  0
LINE
  8
0
 62
7
 10
2.69943575E+02
 20
-2.28299208E+02
 11
2.62184861E+02
 21
-2.28028268E+02
  0
LINE
  8
0
 62
7
 10
2.55184837E+02
 20
-2.15212308E+02
 11
2.55184837E+02
 21
-2.14557706E+02
  0
LINE
  8
0
 62
7
 10
2.82184914E+02
 20
-2.35557721E+02
 11
2.75184883E+02
 21
-2.35557721E+02
  0
LINE
  8
0
  6
CENTER
 62
2
 10
2.42185005E+02
 20
-2.12372647E+02
 11
2.42185005E+02
 21
-2.24257916E+02
  0
LINE
  8
0
 62
7
 10
2.85184818E+02
 20
-2.36557708E+02
 11
2.82184829E+02
 21
-2.35557722E+02
  0
LINE
  8
0
 62
7
 10
2.85184792E+02
 20
-2.42435264E+02
 11
2.82184800E+02
 21
-2.40289858E+02
  0
LINE
  8
0
 62
7
 10
2.88184807E+02
 20
-2.37377713E+02
 11
2.85184807E+02
 21
-2.37377713E+02
  0
ARC
  8
0
 62
7
 10
2.86684807E+02
 20
-2.45557706E+02
 40
9.99998474E+00
 50
1.48211648E+02
 51
1.80000000E+02
  0
ARC
  8
0
 62
7
 10
2.61684837E+02
 20
-2.27057706E+02
 40
5.00000000E-01
 50
3.59721787E-05
 51
9.00000179E+01
  0
ARC
  8
0
 62
7
 10
2.69934837E+02
 20
-2.28549161E+02
 40
2.50000000E-01
 50
2.23118003E-05
 51
8.80011768E+01
  0
ARC
  8
0
 62
7
 10
2.74684837E+02
 20
-2.29057736E+02
 40
5.00000000E-01
 50
3.59721787E-05
 51
9.00000179E+01
  0
LINE
  8
0
 62
4
 10
3.06979036E+02
 20
-2.29969248E+02
 11
2.98390578E+02
 21
-2.29969248E+02
  0
LINE
  8
0
 62
4
 10
3.06979036E+02
 20
-2.37763477E+02
 11
2.98390578E+02
 21
-2.37763477E+02
  0
LINE
  8
0
 62
4
 10
3.06979036E+02
 20
-2.29969248E+02
 11
3.08184807E+02
 21
-2.32057706E+02
  0
LINE
  8
0
 62
4
 10
2.98390578E+02
 20
-2.29969248E+02
 11
2.97184807E+02
 21
-2.32057706E+02
  0
ARC
  8
0
 62
4
 10
3.01284086E+02
 20
-2.33866363E+02
 40
6.90072132E+00
 50
3.25615752E+02
 51
3.43842480E+01
  0
ARC
  8
0
 62
4
 10
3.04085528E+02
 20
-2.33866363E+02
 40
6.90072132E+00
 50
1.45615752E+02
 51
2.14384248E+02
  0
ARC
  8
0
 62
4
 10
3.22979035E+02
 20
-2.45557706E+02
 40
2.57942282E+01
 50
1.62412046E+02
 51
1.80000000E+02
  0
ARC
  8
0
 62
4
 10
2.82390579E+02
 20
-2.45557706E+02
 40
2.57942282E+01
 50
2.54444375E-13
 51
1.75879541E+01
  0
LINE
  8
0
 62
4
 10
3.08184807E+02
 20
-2.45557706E+02
 11
3.08184807E+02
 21
-2.32057706E+02
  0
LINE
  8
0
 62
4
 10
2.97184807E+02
 20
-2.45557706E+02
 11
2.97184807E+02
 21
-2.32057706E+02
  0
LINE
  8
0
 62
7
 10
2.97184807E+02
 20
-2.36557706E+02
 11
2.88184807E+02
 21
-2.36557706E+02
  0
LINE
  8
0
 62
2
 10
2.97184807E+02
 20
-2.37377713E+02
 11
2.88184807E+02
 21
-2.37377713E+02
  0
LINE
  8
0
 62
7
 10
2.29184837E+02
 20
-2.14557706E+02
 11
2.29184837E+02
 21
-2.45557706E+02
  0
LINE
  8
0
 62
7
 10
1.59165602E+02
 20
-2.24707715E+02
 11
2.05684837E+02
 21
-2.24707715E+02
  0
LINE
  8
0
 62
7
 10
1.62716294E+02
 20
-2.18557736E+02
 11
1.89184837E+02
 21
-2.18557736E+02
  0
LINE
  8
0
 62
7
 10
1.62225552E+02
 20
-2.19407727E+02
 11
2.05684837E+02
 21
-2.19407727E+02
  0
LINE
  8
0
 62
7
 10
2.22184837E+02
 20
-2.18557736E+02
 11
2.29184837E+02
 21
-2.18557736E+02
  0
LINE
  8
0
 62
7
 10
2.20684837E+02
 20
-2.19407727E+02
 11
2.29184837E+02
 21
-2.19407727E+02
  0
LINE
  8
0
 62
7
 10
2.20684837E+02
 20
-2.24707715E+02
 11
2.29184837E+02
 21
-2.24707715E+02
  0
LINE
  8
0
 62
4
 10
3.29828769E+01
 20
-2.37763477E+02
 11
4.64828769E+01
 21
-2.29969248E+02
  0
ARC
  8
0
 62
4
 10
4.64828769E+01
 20
-2.45557706E+02
 40
1.35000000E+01
 50
0.00000000E+00
 51
1.80000000E+02
  0
ARC
  8
0
 62
7
 10
4.64828769E+01
 20
-2.45557706E+02
 40
1.70000000E+01
 50
0.00000000E+00
 51
1.80000000E+02
  0
ARC
  8
0
 62
7
 10
4.64828769E+01
 20
-2.45557706E+02
 40
1.90000000E+01
 50
0.00000000E+00
 51
1.80000000E+02
  0
ARC
  8
0
 62
7
 10
4.64828769E+01
 20
-2.45557706E+02
 40
1.75294495E+01
 50
0.00000000E+00
 51
1.80000000E+02
  0
LINE
  8
0
  6
CENTER
 62
2
 10
1.18349888E+01
 20
-2.45557706E+02
 11
8.09979526E+01
 21
-2.45557706E+02
  0
LINE
  8
0
 62
7
 10
5.70142490E+01
 20
-2.17557721E+02
 11
3.59515049E+01
 21
-2.17557721E+02
  0
LINE
  8
0
 62
7
 10
7.39828769E+01
 20
-2.15057706E+02
 11
1.89829380E+01
 21
-2.15057736E+02
  0
LINE
  8
0
 62
7
 10
7.39828769E+01
 20
-2.14557706E+02
 11
1.89829380E+01
 21
-2.14557706E+02
  0
LINE
  8
0
 62
7
 10
3.31189094E+01
 20
-2.30779176E+02
 11
2.91673926E+01
 21
-2.26827661E+02
  0
LINE
  8
0
 62
7
 10
3.17046745E+01
 20
-2.32193412E+02
 11
2.77531577E+01
 21
-2.28241896E+02
  0
LINE
  8
0
 62
7
 10
1.94829380E+01
 20
-2.44557721E+02
 11
2.65831577E+01
 21
-2.44557721E+02
  0
LINE
  8
0
  6
CENTER
 62
2
 10
2.29828769E+01
 20
-2.12079465E+02
 11
2.29828769E+01
 21
-2.31782086E+02
  0
LINE
  8
0
  6
CENTER
 62
2
 10
1.30297519E+01
 20
-2.22057736E+02
 11
3.27323276E+01
 21
-2.22057736E+02
  0
LINE
  8
0
 62
7
 10
1.54829380E+01
 20
-2.45557706E+02
 11
1.54829380E+01
 21
-2.18057706E+02
  0
LINE
  8
0
 62
7
 10
1.84829380E+01
 20
-2.45557706E+02
 11
1.84829380E+01
 21
-2.35026349E+02
  0
LINE
  8
0
 62
7
 10
2.44828769E+01
 20
-2.14557706E+02
 11
2.44828769E+01
 21
-2.15057736E+02
  0
LINE
  8
0
 62
7
 10
1.59829380E+01
 20
-2.45557706E+02
 11
1.59829380E+01
 21
-2.18057736E+02
  0
LINE
  8
0
 62
7
 10
3.07341587E+01
 20
-2.21057736E+02
 11
3.19828769E+01
 21
-2.21057736E+02
  0
LINE
  8
0
 62
7
 10
2.19828769E+01
 20
-2.29809354E+02
 11
2.19828769E+01
 21
-2.31057721E+02
  0
ARC
  8
0
 62
7
 10
3.09974033E+01
 20
-2.32900662E+02
 40
1.00000000E+00
 50
3.20739043E+02
 51
4.50000407E+01
  0
ARC
  8
0
 62
7
 10
3.38258335E+01
 20
-2.30072232E+02
 40
1.00000000E+00
 50
2.25000005E+02
 51
3.09261002E+02
  0
ARC
  8
0
 62
7
 10
2.65831577E+01
 20
-2.43557721E+02
 40
1.00000000E+00
 50
2.70000037E+02
 51
3.54260542E+02
  0
ARC
  8
0
 62
7
 10
1.94829380E+01
 20
-2.43557706E+02
 40
1.00000000E+00
 50
1.80000000E+02
 51
2.70000037E+02
  0
ARC
  8
0
 62
7
 10
1.89829380E+01
 20
-2.18057736E+02
 40
3.00000000E+00
 50
9.00000179E+01
 51
1.80000000E+02
  0
CIRCLE
  8
0
 62
7
 10
2.29828769E+01
 20
-2.22057736E+02
 40
5.00000000E+00
  0
ARC
  8
0
 62
7
 10
2.70458652E+01
 20
-2.28949155E+02
 40
1.00000000E+00
 50
4.50006554E+01
 51
1.20522248E+02
  0
ARC
  8
0
 62
7
 10
2.98742954E+01
 20
-2.26120755E+02
 40
1.00000000E+00
 50
1.49477551E+02
 51
2.24999376E+02
  0
ARC
  8
0
 62
7
 10
1.89829380E+01
 20
-2.18057706E+02
 40
3.50000000E+00
 50
9.00000179E+01
 51
1.80000000E+02
  0
CIRCLE
  8
0
 62
7
 10
2.29828769E+01
 20
-2.22057736E+02
 40
4.50000000E+00
  0
ARC
  8
0
 62
7
 10
1.94829380E+01
 20
-2.35026349E+02
 40
1.00000000E+00
 50
9.71808075E+01
 51
1.80000000E+02
  0
ARC
  8
0
 62
7
 10
1.89829380E+01
 20
-2.31057721E+02
 40
3.00000000E+00
 50
2.77180779E+02
 51
1.86693347E-05
  0
ARC
  8
0
 62
7
 10
2.29515659E+01
 20
-2.30057629E+02
 40
1.00000000E+00
 50
8.97744783E+01
 51
1.72821034E+02
  0
ARC
  8
0
 62
7
 10
2.29829380E+01
 20
-2.22057690E+02
 40
7.00000000E+00
 50
2.69775450E+02
 51
2.24721875E-01
  0
ARC
  8
0
 62
7
 10
3.09828769E+01
 20
-2.22026318E+02
 40
1.00000000E+00
 50
9.71808075E+01
 51
1.80224686E+02
  0
ARC
  8
0
 62
7
 10
3.19828769E+01
 20
-2.18057690E+02
 40
3.00000000E+00
 50
2.69999982E+02
 51
3.52818976E+02
  0
ARC
  8
0
 62
7
 10
3.59515049E+01
 20
-2.18557721E+02
 40
1.00000000E+00
 50
9.00000179E+01
 51
1.72818439E+02
  0
CIRCLE
  8
0
 62
2
 10
2.29828769E+01
 20
-2.22057736E+02
 40
3.00000000E+00
  0
LINE
  8
0
 62
4
 10
3.29828769E+01
 20
-2.45557706E+02
 11
3.29828769E+01
 21
-2.37763477E+02
  0
ARC
  8
0
 62
7
 10
6.99828769E+01
 20
-2.22057690E+02
 40
7.00000000E+00
 50
1.79775313E+02
 51
2.70224579E+02
  0
LINE
  8
0
  6
CENTER
 62
2
 10
4.64828769E+01
 20
-2.10797055E+02
 11
4.64828769E+01
 21
-2.45557706E+02
  0
LINE
  8
0
  6
CENTER
 62
2
 10
6.99828769E+01
 20
-2.12504025E+02
 11
6.99828769E+01
 21
-2.29942074E+02
  0
LINE
  8
0
 62
7
 10
7.74828769E+01
 20
-2.45557706E+02
 11
7.74828769E+01
 21
-2.18057736E+02
  0
LINE
  8
0
 62
7
 10
7.69828769E+01
 20
-2.45557706E+02
 11
7.69828769E+01
 21
-2.18057736E+02
  0
LINE
  8
0
 62
7
 10
6.12613222E+01
 20
-2.32193659E+02
 11
6.52128599E+01
 21
-2.28242122E+02
  0
LINE
  8
0
 62
7
 10
5.98471086E+01
 20
-2.30779446E+02
 11
6.37986895E+01
 21
-2.26827865E+02
  0
LINE
  8
0
 62
7
 10
7.34828769E+01
 20
-2.44557675E+02
 11
6.63826572E+01
 21
-2.44557675E+02
  0
LINE
  8
0
 62
7
 10
7.44828769E+01
 20
-2.45557706E+02
 11
7.44828769E+01
 21
-2.35026349E+02
  0
LINE
  8
0
 62
7
 10
7.09828769E+01
 20
-2.29809109E+02
 11
7.09828769E+01
 21
-2.31057721E+02
  0
ARC
  8
0
 62
7
 10
6.19683506E+01
 20
-2.32900677E+02
 40
1.00000000E+00
 50
1.35000009E+02
 51
2.19261006E+02
  0
ARC
  8
0
 62
7
 10
5.91399204E+01
 20
-2.30072247E+02
 40
1.00000000E+00
 50
2.30739016E+02
 51
3.15000028E+02
  0
ARC
  8
0
 62
7
 10
6.63826572E+01
 20
-2.43557706E+02
 40
1.00000000E+00
 50
1.85739490E+02
 51
2.70000037E+02
  0
ARC
  8
0
 62
7
 10
7.34828769E+01
 20
-2.43557706E+02
 40
1.00000000E+00
 50
2.70000054E+02
 51
3.59721787E-05
  0
ARC
  8
0
 62
7
 10
7.39828769E+01
 20
-2.31057721E+02
 40
3.00000000E+00
 50
1.80000000E+02
 51
2.62819247E+02
  0
ARC
  8
0
 62
7
 10
7.00142490E+01
 20
-2.30057629E+02
 40
1.00000000E+00
 50
7.17900195E+00
 51
9.02255576E+01
  0
ARC
  8
0
 62
7
 10
7.34828769E+01
 20
-2.35026349E+02
 40
1.00000000E+00
 50
3.59721787E-05
 51
8.28192284E+01
  0
ARC
  8
0
 62
7
 10
4.64828769E+01
 20
-2.45557706E+02
 40
8.99999237E+00
 50
0.00000000E+00
 51
1.80000000E+02
  0
ARC
  8
0
 62
2
 10
4.64828769E+01
 20
-2.45557706E+02
 40
8.18000031E+00
 50
0.00000000E+00
 51
1.80000000E+02
  0
ARC
  8
0
 62
7
 10
4.64828769E+01
 20
-2.45557706E+02
 40
7.49999237E+00
 50
0.00000000E+00
 51
1.80000000E+02
  0
LINE
  8
0
 62
4
 10
4.64828769E+01
 20
-2.29969248E+02
 11
5.99828769E+01
 21
-2.37763477E+02
  0
LINE
  8
0
 62
4
 10
5.99828769E+01
 20
-2.37763477E+02
 11
5.99828769E+01
 21
-2.45557706E+02
  0
LINE
  8
0
 62
7
 10
4.54828769E+01
 20
-2.18557736E+02
 11
4.54828769E+01
 21
-2.25657986E+02
  0
LINE
  8
0
 62
7
 10
4.74828769E+01
 20
-2.18557736E+02
 11
4.74828769E+01
 21
-2.25657986E+02
  0
ARC
  8
0
 62
7
 10
4.44828769E+01
 20
-2.25657986E+02
 40
1.00000000E+00
 50
2.75739516E+02
 51
3.59721787E-05
  0
ARC
  8
0
 62
7
 10
4.84828769E+01
 20
-2.25657986E+02
 40
1.00000000E+00
 50
1.80000041E+02
 51
2.64260383E+02
  0
LINE
  8
0
  6
CENTER
 62
2
 10
5.34829990E+01
 20
-2.12372647E+02
 11
5.34829990E+01
 21
-2.24257916E+02
  0
LINE
  8
0
  6
CENTER
 62
2
 10
6.05957920E+01
 20
-2.22057736E+02
 11
7.97154819E+01
 21
-2.22057736E+02
  0
LINE
  8
0
 62
7
 10
6.22312900E+01
 20
-2.21057660E+02
 11
6.09828769E+01
 21
-2.21057660E+02
  0
ARC
  8
0
 62
7
 10
4.44828769E+01
 20
-2.18557736E+02
 40
1.00000000E+00
 50
3.59721787E-05
 51
9.00000179E+01
  0
CIRCLE
  8
0
 62
7
 10
6.99828769E+01
 20
-2.22057690E+02
 40
5.00000000E+00
  0
ARC
  8
0
 62
7
 10
6.30914585E+01
 20
-2.26120709E+02
 40
1.00000000E+00
 50
3.15000660E+02
 51
3.05222526E+01
  0
ARC
  8
0
 62
7
 10
4.84828769E+01
 20
-2.18557736E+02
 40
1.00000000E+00
 50
9.00000042E+01
 51
1.80000041E+02
  0
ARC
  8
0
 62
7
 10
6.59198276E+01
 20
-2.28949139E+02
 40
1.00000000E+00
 50
5.94775690E+01
 51
1.34999381E+02
  0
CIRCLE
  8
0
 62
7
 10
6.99828769E+01
 20
-2.22057690E+02
 40
4.50000000E+00
  0
ARC
  8
0
 62
7
 10
6.09828769E+01
 20
-2.18057690E+02
 40
3.00000000E+00
 50
1.87181043E+02
 51
2.69999982E+02
  0
ARC
  8
0
 62
7
 10
5.70142490E+01
 20
-2.18557721E+02
 40
1.00000000E+00
 50
7.18159739E+00
 51
9.00000179E+01
  0
ARC
  8
0
 62
7
 10
6.19829380E+01
 20
-2.22026318E+02
 40
1.00000000E+00
 50
3.59775350E+02
 51
8.28192284E+01
  0
CIRCLE
  8
0
 62
2
 10
6.99828769E+01
 20
-2.22057736E+02
 40
3.00000000E+00
  0
ARC
  8
0
 62
7
 10
7.39828769E+01
 20
-2.18057751E+02
 40
3.50000000E+00
 50
2.23118003E-05
 51
8.99999773E+01
  0
ARC
  8
0
 62
7
 10
7.39828769E+01
 20
-2.18057751E+02
 40
3.00000000E+00
 50
2.23118003E-05
 51
8.99999773E+01
  0
LINE
  8
0
 62
7
 10
6.84828769E+01
 20
-2.14557706E+02
 11
6.84828769E+01
 21
-2.15057706E+02
  0
LINE
  8
0
 62
2
 10
-6.86810959E+01
 20
-2.53890948E+02
 11
-4.70169723E+01
 21
-2.16367585E+02
  0
LINE
  8
0
 62
2
 10
1.43729659E+02
 20
-2.51443553E+02
 11
1.64224741E+02
 21
-2.15945029E+02
  0
TEXT
  8
0
 10
-1.02450289E+02
 20
2.49478397E+02
 40
6.30000019E+00
  1
STRETCH LINE A
 41
1.09375016E+00
  7
MONOTXT
  0
LINE
  8
0
 62
7
 10
2.79799927E+02
 20
-2.56750000E+02
 11
3.99799805E+02
 21
-2.56750000E+02
  0
LINE
  8
0
 62
7
 10
2.79799927E+02
 20
-2.56750000E+02
 11
2.79799927E+02
 21
-2.76750000E+02
  0
TEXT
  8
0
 62
7
 10
2.87585240E+02
 20
-2.71250000E+02
 40
9.00000000E+00
  1
KOGANEI CORP.
 41
1.04838710E+00
  7
MONOTXT
  0
TEXT
  8
0
 62
7
 10
3.15499641E+02
 20
2.63100000E+02
 40
6.30000019E+00
  1
Ver. 1.0
 41
1.08108124E+00
  7
MONOTXT
  0
LINE
  8
0
 62
7
 10
2.79799927E+02
 20
2.56250000E+02
 11
3.99799805E+02
 21
2.56250000E+02
  0
LINE
  8
0
 62
7
 10
2.79799927E+02
 20
2.76250000E+02
 11
2.79799927E+02
 21
2.56250000E+02
  0
TEXT
  8
0
 62
7
 10
-3.85600562E+02
 20
2.38100000E+02
 40
6.30000019E+00
  1
MODEL:DDAD50*75
 41
1.00000015E+00
  7
MONOTXT
  0
LINE
  8
0
 62
7
 10
-3.99250000E+02
 20
2.56250000E+02
 11
-2.79250000E+02
 21
2.56250000E+02
  0
LINE
  8
0
 62
7
 10
-2.79250000E+02
 20
2.76250000E+02
 11
-2.79250000E+02
 21
2.56250000E+02
  0
TEXT
  8
0
 62
7
 10
-3.91900291E+02
 20
2.63100000E+02
 40
6.30000019E+00
  1
NEW DYNA CYLINDER
 41
1.07594953E+00
  7
MONOTXT
  0
LINE
  8
0
 62
7
 10
-3.99250000E+02
 20
-2.76750000E+02
 11
3.99799805E+02
 21
-2.76750000E+02
  0
LINE
  8
0
 62
7
 10
-3.99250000E+02
 20
2.76250000E+02
 11
3.99799805E+02
 21
2.76250000E+02
  0
LINE
  8
0
 62
7
 10
-3.99250000E+02
 20
2.76250000E+02
 11
-3.99250000E+02
 21
-2.76750000E+02
  0
LINE
  8
0
 62
7
 10
3.99799805E+02
 20
2.76250000E+02
 11
3.99799805E+02
 21
-2.76750000E+02
  0
ENDSEC
  0
EOF
