  0
SECTION
  2
HEADER
  9
$ACADVER
  1
AC1003
  9
$EXTMIN
 10
-5.69500000E+02
 20
-4.00500000E+02
  9
$EXTMAX
 10
5.69500000E+02
 20
4.00500000E+02
  9
$LIMMIN
 10
-5.69501000E+02
 20
-4.00501000E+02
  9
$LIMMAX
 10
5.69501000E+02
 20
4.00501000E+02
  9
$SNAPUNIT
 10
1
 20
1
  9
$SNAPBASE
 10
0
 20
0
  9
$GRIDMODE
 70
0
  9
$GRIDUNIT
 10
0
 20
0
  9
$LTSCALE
 40
1.89833333E+01
  9
$TEXTSIZE
 40
3.2
  9
$DIMTAD
 70
0
  9
$LUNITS
 70
2
  9
$LUPREC
 70
4
  9
$FILLETRAD
 40
0
  9
$AUNITS
 70
0
  9
$AUPREC
 70
0
  0
ENDSEC
  0
SECTION
  2
TABLES
  0
TABLE
  2
LTYPE
 70
2
  0
LTYPE
  2
CONTINUOUS
 70
64
  3
Solid-Line
 72
65
 73
0
 40
0
  0
LTYPE
  2
DASHED
 70
64
  3
DASHED
 72
65
 73
2
 40
.75
 49
.5
 49
-.25
  0
LTYPE
  2
HIDDEN
 70
64
  3
HIDDEN
 72
65
 73
2
 40
.375
 49
.25
 49
-.125
  0
LTYPE
  2
CENTER
 70
64
  3
CENTER
 72
65
 73
4
 40
2
 49
1.25
 49
-.25
 49
.25
 49
-.25
  0
LTYPE
  2
PHANTOM
 70
64
  3
PHANTOM
 72
65
 73
6
 40
2.5
 49
1.25
 49
-.25
 49
.25
 49
-.25
 49
.25
 49
-.25
  0
ENDTAB
  0
TABLE
  2
LAYER
 70
1
  0
LAYER
  2
1
 70
0
 62
7
  6
CONTINUOUS
 0
ENDTAB
  0
TABLE
  2
STYLE
 70
2
  0
STYLE
  2
MONOTXT
 70
0
 40
0
 41
1
 50
0
 71
0
 42
.2
  3
monotxt
  0
STYLE
  2
BIGFONT
 70
0
 40
0
 41
1
 50
0
 71
0
 42
.2
  3
txt
  4
bigfont
  0
ENDTAB
  0
ENDSEC
  0
SECTION
  2
ENTITIES
  0
LINE
  8
0
  6
PHANTOM
 10
1.12000017E+02
 20
1.95947213E+02
 11
1.12000017E+02
 21
2.93151313E+01
  0
LINE
  8
0
  6
PHANTOM
 10
-2.95000000E+01
 20
1.94632131E+02
 11
-2.95000000E+01
 21
2.93151313E+01
  0
LINE
  8
0
  6
CENTER
 62
2
 10
-2.07243361E+02
 20
1.00500000E+02
 11
1.89926912E+02
 21
1.00500000E+02
  0
LINE
  8
0
 62
7
 10
-1.23999983E+02
 20
1.55380280E+02
 11
-1.23999983E+02
 21
4.56197205E+01
  0
LINE
  8
0
 62
7
 10
-8.79999981E+01
 20
1.56500000E+02
 11
-8.79999981E+01
 21
4.45000153E+01
  0
LINE
  8
0
 62
7
 10
5.90000172E+01
 20
1.55380249E+02
 11
5.90000172E+01
 21
4.56197433E+01
  0
LINE
  8
0
 62
7
 10
2.30000210E+01
 20
1.56500000E+02
 11
2.30000210E+01
 21
4.45000038E+01
  0
LINE
  8
0
 62
7
 10
-1.58999983E+02
 20
8.74999847E+01
 11
-1.58999983E+02
 21
1.13499992E+02
  0
LINE
  8
0
 62
7
 10
-1.25499968E+02
 20
7.55000000E+01
 11
-1.23999983E+02
 21
7.55000000E+01
  0
LINE
  8
0
 62
7
 10
-1.19999983E+02
 20
4.45000038E+01
 11
-8.79999676E+01
 21
4.45000038E+01
  0
LINE
  8
0
 62
7
 10
-1.19999983E+02
 20
4.50585632E+01
 11
-1.19999983E+02
 21
4.45000038E+01
  0
LINE
  8
0
 62
7
 10
-1.23508678E+02
 20
4.51198316E+01
 11
-8.79999415E+01
 21
4.45000243E+01
  0
LINE
  8
0
 62
7
 10
-1.39517477E+02
 20
7.64720500E+01
 11
-1.26000021E+02
 21
7.60000101E+01
  0
LINE
  8
0
 62
7
 10
-1.44999983E+02
 20
7.80000000E+01
 11
-1.44999983E+02
 21
1.23000015E+02
  0
LINE
  8
0
 62
7
 10
-1.44499983E+02
 20
7.74999847E+01
 11
-1.39999983E+02
 21
7.74999847E+01
  0
LINE
  8
0
  6
CENTER
 62
2
 10
3.89999676E+01
 20
1.43800049E+02
 11
3.89999676E+01
 21
1.58763657E+02
  0
LINE
  8
0
 62
7
 10
-1.25999968E+02
 20
1.24999954E+02
 11
-1.25999968E+02
 21
7.60000076E+01
  0
LINE
  8
0
 62
7
 10
6.05000134E+01
 20
7.55000000E+01
 11
5.90000134E+01
 21
7.55000000E+01
  0
LINE
  8
0
 62
7
 10
5.50000153E+01
 20
4.45000038E+01
 11
2.30000095E+01
 21
4.45000038E+01
  0
LINE
  8
0
 62
7
 10
5.50000019E+01
 20
4.50585632E+01
 11
5.50000019E+01
 21
4.45000038E+01
  0
LINE
  8
0
 62
7
 10
5.85087561E+01
 20
4.51198244E+01
 11
2.30000148E+01
 21
4.45000170E+01
  0
LINE
  8
0
 62
7
 10
6.10000134E+01
 20
1.24999985E+02
 11
6.10000134E+01
 21
7.60000076E+01
  0
LINE
  8
0
 62
7
 10
-1.54999968E+02
 20
8.54999619E+01
 11
-1.44999983E+02
 21
8.54999619E+01
  0
LINE
  8
0
  6
CENTER
 62
2
 10
6.17792034E+01
 20
5.84999924E+01
 11
-1.26524473E+02
 21
5.84999924E+01
  0
LINE
  8
0
 62
7
 10
2.30000210E+01
 20
6.29999847E+01
 11
-8.79999981E+01
 21
6.29999847E+01
  0
LINE
  8
0
 62
7
 10
2.30000210E+01
 20
5.39999733E+01
 11
-8.79999981E+01
 21
5.39999733E+01
  0
LINE
  8
0
 62
7
 10
-8.79999981E+01
 20
4.69999771E+01
 11
2.30000210E+01
 21
4.69999771E+01
  0
LINE
  8
0
 62
7
 10
-1.98999998E+02
 20
8.89999237E+01
 11
-1.98999998E+02
 21
1.11999695E+02
  0
LINE
  8
0
 62
7
 10
-1.61999983E+02
 20
8.74999847E+01
 11
-1.61999983E+02
 21
1.13499992E+02
  0
LINE
  8
0
 62
7
 10
-1.97500044E+02
 20
1.13499992E+02
 11
-1.87499990E+02
 21
1.13499992E+02
  0
LINE
  8
0
 62
7
 10
-1.97499983E+02
 20
8.74999847E+01
 11
-1.97499983E+02
 21
1.13499992E+02
  0
LINE
  8
0
 62
7
 10
-1.98999862E+02
 20
1.11999813E+02
 11
-1.97499844E+02
 21
1.13499830E+02
  0
LINE
  8
0
 62
2
 10
-1.98320051E+02
 20
1.12679985E+02
 11
-1.87499990E+02
 21
1.12679985E+02
  0
LINE
  8
0
 62
7
 10
-1.97500044E+02
 20
8.74999847E+01
 11
-1.87499990E+02
 21
8.74999847E+01
  0
LINE
  8
0
 62
7
 10
-1.99000046E+02
 20
8.89999715E+01
 11
-1.97500044E+02
 21
8.74999699E+01
  0
LINE
  8
0
 62
2
 10
-1.98320051E+02
 20
8.83199921E+01
 11
-1.87499990E+02
 21
8.83199921E+01
  0
LINE
  8
0
 62
7
 10
-1.25499968E+02
 20
1.25500015E+02
 11
-1.23999983E+02
 21
1.25500015E+02
  0
LINE
  8
0
 62
7
 10
-1.19999983E+02
 20
1.56500000E+02
 11
-8.79999676E+01
 21
1.56500000E+02
  0
LINE
  8
0
 62
7
 10
-1.19999983E+02
 20
1.55941452E+02
 11
-1.19999983E+02
 21
1.56500000E+02
  0
LINE
  8
0
 62
7
 10
-1.23508698E+02
 20
1.55880189E+02
 11
-8.79999612E+01
 21
1.56499996E+02
  0
LINE
  8
0
 62
7
 10
-1.39517488E+02
 20
1.24527921E+02
 11
-1.26000031E+02
 21
1.24999961E+02
  0
LINE
  8
0
 62
7
 10
-1.44499983E+02
 20
1.23500015E+02
 11
-1.39999983E+02
 21
1.23500015E+02
  0
LINE
  8
0
 62
7
 10
6.05000134E+01
 20
1.25500015E+02
 11
5.90000134E+01
 21
1.25500015E+02
  0
LINE
  8
0
 62
7
 10
5.50000153E+01
 20
1.56500000E+02
 11
2.30000095E+01
 21
1.56500000E+02
  0
LINE
  8
0
 62
7
 10
5.50000019E+01
 20
1.55941452E+02
 11
5.50000019E+01
 21
1.56500000E+02
  0
LINE
  8
0
 62
7
 10
5.85087534E+01
 20
1.55880174E+02
 11
2.30000113E+01
 21
1.56499981E+02
  0
LINE
  8
0
 62
7
 10
-1.54999968E+02
 20
1.15500038E+02
 11
-1.44999983E+02
 21
1.15500038E+02
  0
LINE
  8
0
  6
CENTER
 62
2
 10
6.17792034E+01
 20
1.42500000E+02
 11
-1.26524473E+02
 21
1.42500000E+02
  0
LINE
  8
0
 62
7
 10
2.30000210E+01
 20
1.38000015E+02
 11
2.09808350E-05
 21
1.38000015E+02
  0
LINE
  8
0
 62
7
 10
2.30000210E+01
 20
1.47000031E+02
 11
1.50000210E+01
 21
1.47000031E+02
  0
LINE
  8
0
 62
7
 10
-8.79999981E+01
 20
1.54000015E+02
 11
-1.49999790E+01
 21
1.54000015E+02
  0
LINE
  8
0
  6
CENTER
 62
2
 10
-1.03999983E+02
 20
1.43800034E+02
 11
-1.03999983E+02
 21
1.58763641E+02
  0
LINE
  8
0
 62
7
 10
-1.54999968E+02
 20
9.30166550E+01
 11
-1.54999968E+02
 21
8.54999619E+01
  0
LINE
  8
0
 62
7
 10
-1.54999968E+02
 20
1.07983376E+02
 11
-1.54999968E+02
 21
1.15500038E+02
  0
LINE
  8
0
 62
7
 10
-1.58999970E+02
 20
8.74999782E+01
 11
-1.54999960E+02
 21
8.54999606E+01
  0
LINE
  8
0
 62
7
 10
-1.58999955E+02
 20
1.13499984E+02
 11
-1.54999942E+02
 21
1.15500029E+02
  0
LINE
  8
0
 62
7
 10
-1.48999983E+02
 20
9.30166550E+01
 11
-1.48999983E+02
 21
1.07983376E+02
  0
LINE
  8
0
 62
7
 10
-1.54999968E+02
 20
9.30166550E+01
 11
-1.48999983E+02
 21
9.30166550E+01
  0
LINE
  8
0
 62
7
 10
-1.54999968E+02
 20
1.07983376E+02
 11
-1.48999983E+02
 21
1.07983376E+02
  0
LINE
  8
0
 62
7
 10
-1.54999975E+02
 20
9.30166611E+01
 11
-1.58999982E+02
 21
1.00500000E+02
  0
LINE
  8
0
 62
7
 10
-1.58999961E+02
 20
1.00500001E+02
 11
-1.54999945E+02
 21
1.07983369E+02
  0
LINE
  8
0
 62
2
 10
-1.48999972E+02
 20
1.07983366E+02
 11
-1.56777748E+02
 21
9.63425831E+01
  0
LINE
  8
0
 62
2
 10
-1.48999948E+02
 20
9.30166410E+01
 11
-1.56777734E+02
 21
1.04657439E+02
  0
LINE
  8
0
 62
7
 10
-1.61999983E+02
 20
1.12679985E+02
 11
-1.58999983E+02
 21
1.12679985E+02
  0
LINE
  8
0
 62
7
 10
-1.61999983E+02
 20
8.83199921E+01
 11
-1.58999983E+02
 21
8.83199921E+01
  0
LINE
  8
0
 62
7
 10
1.40000002E+02
 20
1.15500038E+02
 11
8.00000172E+01
 21
1.15500038E+02
  0
LINE
  8
0
 62
7
 10
7.45175177E+01
 20
1.24527909E+02
 11
6.10000609E+01
 21
1.24999949E+02
  0
LINE
  8
0
 62
7
 10
7.95000172E+01
 20
1.23500015E+02
 11
7.50000172E+01
 21
1.23500015E+02
  0
LINE
  8
0
 62
7
 10
1.44000017E+02
 20
8.74999847E+01
 11
1.44000017E+02
 21
1.13499992E+02
  0
LINE
  8
0
 62
7
 10
1.84000032E+02
 20
8.89999237E+01
 11
1.84000032E+02
 21
1.11999695E+02
  0
LINE
  8
0
 62
7
 10
1.47000017E+02
 20
8.74999847E+01
 11
1.47000017E+02
 21
1.13499992E+02
  0
LINE
  8
0
 62
7
 10
1.82500078E+02
 20
1.13499992E+02
 11
1.72500025E+02
 21
1.13499992E+02
  0
LINE
  8
0
 62
7
 10
1.82500017E+02
 20
8.74999847E+01
 11
1.82500017E+02
 21
1.13499992E+02
  0
LINE
  8
0
 62
7
 10
1.83999900E+02
 20
1.11999815E+02
 11
1.82499882E+02
 21
1.13499833E+02
  0
LINE
  8
0
 62
2
 10
1.83320086E+02
 20
1.12679985E+02
 11
1.72500025E+02
 21
1.12679985E+02
  0
LINE
  8
0
 62
7
 10
1.47000017E+02
 20
1.12679985E+02
 11
1.44000017E+02
 21
1.12679985E+02
  0
LINE
  8
0
 62
7
 10
1.47000017E+02
 20
8.83199921E+01
 11
1.44000017E+02
 21
8.83199921E+01
  0
LINE
  8
0
 62
7
 10
1.82500078E+02
 20
8.74999847E+01
 11
1.72500025E+02
 21
8.74999847E+01
  0
LINE
  8
0
 62
7
 10
1.84000086E+02
 20
8.89999715E+01
 11
1.82500085E+02
 21
8.74999699E+01
  0
LINE
  8
0
 62
2
 10
1.83320086E+02
 20
8.83199921E+01
 11
1.72500025E+02
 21
8.83199921E+01
  0
LINE
  8
0
 62
7
 10
7.45175074E+01
 20
7.64720463E+01
 11
6.10000509E+01
 21
7.60000064E+01
  0
LINE
  8
0
 62
7
 10
8.00000172E+01
 20
7.80000000E+01
 11
8.00000172E+01
 21
1.23000015E+02
  0
LINE
  8
0
 62
7
 10
7.95000172E+01
 20
7.74999847E+01
 11
7.50000172E+01
 21
7.74999847E+01
  0
LINE
  8
0
 62
7
 10
1.40000002E+02
 20
1.07983376E+02
 11
1.34000017E+02
 21
1.07983376E+02
  0
LINE
  8
0
 62
7
 10
1.40000002E+02
 20
9.30166550E+01
 11
1.34000017E+02
 21
9.30166550E+01
  0
LINE
  8
0
 62
7
 10
1.44000008E+02
 20
8.74999817E+01
 11
1.39999998E+02
 21
8.54999641E+01
  0
LINE
  8
0
 62
7
 10
1.40000002E+02
 20
8.54999619E+01
 11
8.00000172E+01
 21
8.54999619E+01
  0
LINE
  8
0
 62
7
 10
1.40000002E+02
 20
9.30166550E+01
 11
1.40000002E+02
 21
8.54999619E+01
  0
LINE
  8
0
 62
7
 10
1.40000002E+02
 20
1.07983376E+02
 11
1.40000002E+02
 21
1.15500038E+02
  0
LINE
  8
0
 62
7
 10
1.34000017E+02
 20
9.30166550E+01
 11
1.34000017E+02
 21
1.07983376E+02
  0
LINE
  8
0
 62
7
 10
1.43999994E+02
 20
1.13499985E+02
 11
1.39999981E+02
 21
1.15500030E+02
  0
LINE
  8
0
 62
2
 10
1.34000009E+02
 20
1.07983369E+02
 11
1.41777785E+02
 21
9.63425871E+01
  0
LINE
  8
0
 62
7
 10
1.40000009E+02
 20
9.30166531E+01
 11
1.44000016E+02
 21
1.00499992E+02
  0
LINE
  8
0
 62
7
 10
1.43999992E+02
 20
1.00500002E+02
 11
1.39999977E+02
 21
1.07983371E+02
  0
LINE
  8
0
 62
2
 10
1.33999990E+02
 20
9.30166476E+01
 11
1.41777776E+02
 21
1.04657446E+02
  0
ARC
  8
0
 62
7
 10
-1.25499968E+02
 20
7.59999924E+01
 40
5.00000000E-01
 50
1.79999977E+02
 51
2.69999974E+02
  0
ARC
  8
0
 62
7
 10
-1.23499968E+02
 20
4.56197205E+01
 40
5.00000000E-01
 50
1.79999977E+02
 51
2.68999679E+02
  0
ARC
  8
0
 62
7
 10
-1.39499983E+02
 20
7.69717255E+01
 40
5.00000000E-01
 50
1.79999977E+02
 51
2.67999192E+02
  0
ARC
  8
0
 62
7
 10
-1.44499983E+02
 20
7.80000000E+01
 40
5.00000000E-01
 50
1.79999977E+02
 51
2.69999974E+02
  0
ARC
  8
0
 62
7
 10
6.05000057E+01
 20
1.25000000E+02
 40
5.00000000E-01
 50
5.46415133E-05
 51
9.00000369E+01
  0
ARC
  8
0
 62
7
 10
6.05000057E+01
 20
7.59999924E+01
 40
5.00000000E-01
 50
2.70000073E+02
 51
5.46415133E-05
  0
ARC
  8
0
 62
7
 10
5.85000134E+01
 20
4.56197205E+01
 40
5.00000000E-01
 50
2.71000347E+02
 51
5.46415133E-05
  0
ARC
  8
0
 62
7
 10
-1.39499983E+02
 20
1.24028275E+02
 40
5.00000000E-01
 50
9.20007356E+01
 51
1.79999964E+02
  0
ARC
  8
0
 62
7
 10
5.85000134E+01
 20
1.55380280E+02
 40
5.00000000E-01
 50
3.59999891E+02
 51
8.89995981E+01
  0
ARC
  8
0
 62
7
 10
-1.25499968E+02
 20
1.25000000E+02
 40
5.00000000E-01
 50
8.99999818E+01
 51
1.79999964E+02
  0
ARC
  8
0
 62
7
 10
-1.23499968E+02
 20
1.55380280E+02
 40
5.00000000E-01
 50
9.10002493E+01
 51
1.79999964E+02
  0
ARC
  8
0
 62
7
 10
-1.44499983E+02
 20
1.23000015E+02
 40
5.00000000E-01
 50
8.99999818E+01
 51
1.79999964E+02
  0
ARC
  8
0
 62
7
 10
-1.61999983E+02
 20
1.00500015E+02
 40
1.50000248E+01
 50
3.30073440E+02
 51
2.99266002E+01
  0
ARC
  8
0
 62
7
 10
7.45000172E+01
 20
1.24028275E+02
 40
5.00000000E-01
 50
3.59721781E-05
 51
8.79992625E+01
  0
ARC
  8
0
 62
7
 10
7.95000172E+01
 20
1.23000015E+02
 40
5.00000000E-01
 50
3.59721781E-05
 51
9.00000162E+01
  0
ARC
  8
0
 62
7
 10
7.45000172E+01
 20
7.69717255E+01
 40
5.00000000E-01
 50
2.72000806E+02
 51
2.23117997E-05
  0
ARC
  8
0
 62
7
 10
7.95000172E+01
 20
7.80000000E+01
 40
5.00000000E-01
 50
2.70000025E+02
 51
2.23117997E-05
  0
ARC
  8
0
 62
7
 10
1.47000017E+02
 20
1.00500015E+02
 40
1.50000248E+01
 50
1.50073394E+02
 51
2.09926561E+02
  0
LINE
  8
0
 62
7
 10
7.50000172E+01
 20
1.24063248E+02
 11
7.50000172E+01
 21
7.69367447E+01
  0
LINE
  8
0
 62
7
 10
-1.39999983E+02
 20
7.69367447E+01
 11
-1.39999983E+02
 21
1.24063248E+02
  0
ARC
  8
0
 62
4
 10
-1.78299036E+02
 20
1.16088455E+02
 40
9.20095253E+00
 50
1.45615726E+02
 51
2.14384256E+02
  0
ARC
  8
0
 62
4
 10
-1.53107725E+02
 20
1.00500000E+02
 40
3.43922653E+01
 50
1.62412050E+02
 51
1.97587933E+02
  0
ARC
  8
0
 62
4
 10
-1.78299036E+02
 20
8.49115448E+01
 40
9.20095253E+00
 50
1.45615726E+02
 51
2.14384256E+02
  0
ARC
  8
0
 62
4
 10
-1.82700945E+02
 20
1.16088455E+02
 40
9.20095253E+00
 50
3.25615707E+02
 51
3.43842378E+01
  0
ARC
  8
0
 62
4
 10
-2.07892256E+02
 20
1.00500000E+02
 40
3.43922653E+01
 50
3.42412030E+02
 51
1.75879147E+01
  0
ARC
  8
0
 62
4
 10
-1.82700945E+02
 20
8.49115448E+01
 40
9.20095253E+00
 50
3.25615707E+02
 51
3.43842378E+01
  0
LINE
  8
0
 62
4
 10
-1.73500021E+02
 20
8.24999970E+01
 11
-1.75107713E+02
 21
7.97154066E+01
  0
LINE
  8
0
 62
4
 10
-1.73499990E+02
 20
1.18500000E+02
 11
-1.73499990E+02
 21
8.25000000E+01
  0
LINE
  8
0
 62
4
 10
-1.73499990E+02
 20
1.18500012E+02
 11
-1.75107671E+02
 21
1.21284634E+02
  0
LINE
  8
0
 62
4
 10
-1.87500013E+02
 20
8.25000896E+01
 11
-1.85892309E+02
 21
7.97154821E+01
  0
LINE
  8
0
 62
4
 10
-1.87500000E+02
 20
1.18499999E+02
 11
-1.85892321E+02
 21
1.21284608E+02
  0
LINE
  8
0
 62
4
 10
-1.85892294E+02
 20
1.21284607E+02
 11
-1.75107687E+02
 21
1.21284607E+02
  0
LINE
  8
0
 62
4
 10
-1.85892294E+02
 20
1.10892303E+02
 11
-1.75107687E+02
 21
1.10892303E+02
  0
LINE
  8
0
 62
4
 10
-1.85892294E+02
 20
9.01076965E+01
 11
-1.75107687E+02
 21
9.01076965E+01
  0
LINE
  8
0
 62
4
 10
-1.85892294E+02
 20
7.97153931E+01
 11
-1.75107687E+02
 21
7.97153931E+01
  0
LINE
  8
0
 62
4
 10
-1.87499990E+02
 20
1.18500000E+02
 11
-1.87499990E+02
 21
8.25000000E+01
  0
ARC
  8
0
 62
4
 10
1.67700979E+02
 20
1.16088455E+02
 40
9.20095253E+00
 50
1.45615726E+02
 51
2.14384256E+02
  0
ARC
  8
0
 62
4
 10
1.92892290E+02
 20
1.00500000E+02
 40
3.43922653E+01
 50
1.62412050E+02
 51
1.97587933E+02
  0
ARC
  8
0
 62
4
 10
1.67700979E+02
 20
8.49115448E+01
 40
9.20095253E+00
 50
1.45615726E+02
 51
2.14384256E+02
  0
ARC
  8
0
 62
4
 10
1.63299070E+02
 20
1.16088455E+02
 40
9.20095253E+00
 50
3.25615707E+02
 51
3.43842378E+01
  0
ARC
  8
0
 62
4
 10
1.38107759E+02
 20
1.00500000E+02
 40
3.43922653E+01
 50
3.42412030E+02
 51
1.75879147E+01
  0
ARC
  8
0
 62
4
 10
1.63299070E+02
 20
8.49115448E+01
 40
9.20095253E+00
 50
3.25615707E+02
 51
3.43842378E+01
  0
LINE
  8
0
 62
4
 10
1.72499994E+02
 20
8.24999970E+01
 11
1.70892302E+02
 21
7.97154066E+01
  0
LINE
  8
0
 62
4
 10
1.72500025E+02
 20
1.18500000E+02
 11
1.72500025E+02
 21
8.25000000E+01
  0
LINE
  8
0
 62
4
 10
1.72500025E+02
 20
1.18500012E+02
 11
1.70892345E+02
 21
1.21284634E+02
  0
LINE
  8
0
 62
4
 10
1.58500002E+02
 20
8.25000896E+01
 11
1.60107707E+02
 21
7.97154821E+01
  0
LINE
  8
0
 62
4
 10
1.58500016E+02
 20
1.18499999E+02
 11
1.60107694E+02
 21
1.21284608E+02
  0
LINE
  8
0
 62
4
 10
1.60107721E+02
 20
1.21284607E+02
 11
1.70892328E+02
 21
1.21284607E+02
  0
LINE
  8
0
 62
4
 10
1.60107721E+02
 20
1.10892303E+02
 11
1.70892328E+02
 21
1.10892303E+02
  0
LINE
  8
0
 62
4
 10
1.60107721E+02
 20
9.01076965E+01
 11
1.70892328E+02
 21
9.01076965E+01
  0
LINE
  8
0
 62
4
 10
1.60107721E+02
 20
7.97153931E+01
 11
1.70892328E+02
 21
7.97153931E+01
  0
LINE
  8
0
 62
4
 10
1.58500025E+02
 20
1.18500000E+02
 11
1.58500025E+02
 21
8.25000000E+01
  0
LINE
  8
0
 62
7
 10
-1.73499990E+02
 20
1.13499992E+02
 11
-1.61999983E+02
 21
1.13499992E+02
  0
LINE
  8
0
 62
2
 10
-1.73499990E+02
 20
1.12679985E+02
 11
-1.61999983E+02
 21
1.12679985E+02
  0
LINE
  8
0
 62
7
 10
-1.73499990E+02
 20
8.74999847E+01
 11
-1.61999983E+02
 21
8.74999847E+01
  0
LINE
  8
0
 62
2
 10
-1.73499990E+02
 20
8.83199921E+01
 11
-1.61999983E+02
 21
8.83199921E+01
  0
LINE
  8
0
 62
7
 10
1.58500025E+02
 20
1.13499992E+02
 11
1.47000017E+02
 21
1.13499992E+02
  0
LINE
  8
0
 62
2
 10
1.58500025E+02
 20
1.12679985E+02
 11
1.47000017E+02
 21
1.12679985E+02
  0
LINE
  8
0
 62
7
 10
1.58500025E+02
 20
8.74999847E+01
 11
1.47000017E+02
 21
8.74999847E+01
  0
LINE
  8
0
 62
2
 10
1.58500025E+02
 20
8.83199921E+01
 11
1.47000017E+02
 21
8.83199921E+01
  0
LINE
  8
0
 62
4
 10
-1.49999790E+01
 20
1.52920416E+02
 11
-2.41339536E+01
 21
1.52920416E+02
  0
LINE
  8
0
 62
4
 10
-1.49999790E+01
 20
1.49920416E+02
 11
-2.58660044E+01
 21
1.49920416E+02
  0
LINE
  8
0
 62
6
 10
-2.32679282E+01
 20
1.54420416E+02
 11
-2.67320298E+01
 21
1.48420416E+02
  0
LINE
  8
0
  6
CENTER
 62
6
 10
-2.95000000E+01
 20
1.51420416E+02
 11
2.00000210E+01
 21
1.51420416E+02
  0
POLYLINE
  8
0
 62
4
 66
1
  0
VERTEX
  8
0
 62
4
 10
-5.74777176E+01
 20
1.54000012E+02
  0
VERTEX
  8
0
 62
4
 10
-5.71450090E+01
 20
1.54135027E+02
  0
VERTEX
  8
0
 62
4
 10
-5.68265942E+01
 20
1.54296071E+02
  0
VERTEX
  8
0
 62
4
 10
-5.65249269E+01
 20
1.54481906E+02
  0
VERTEX
  8
0
 62
4
 10
-5.62423315E+01
 20
1.54691097E+02
  0
VERTEX
  8
0
 62
4
 10
-5.59809856E+01
 20
1.54922034E+02
  0
VERTEX
  8
0
 62
4
 10
-5.57429030E+01
 20
1.55172937E+02
  0
VERTEX
  8
0
 62
4
 10
-5.55299183E+01
 20
1.55441872E+02
  0
VERTEX
  8
0
 62
4
 10
-5.53436727E+01
 20
1.55726768E+02
  0
VERTEX
  8
0
 62
4
 10
-5.51856013E+01
 20
1.56025428E+02
  0
VERTEX
  8
0
 62
4
 10
-5.50569222E+01
 20
1.56335552E+02
  0
VERTEX
  8
0
 62
4
 10
-5.49586268E+01
 20
1.56654750E+02
  0
VERTEX
  8
0
 62
4
 10
-5.48914727E+01
 20
1.56980562E+02
  0
VERTEX
  8
0
 62
4
 10
-5.48559773E+01
 20
1.57310478E+02
  0
VERTEX
  8
0
 62
4
 10
-5.48524140E+01
 20
1.57641955E+02
  0
VERTEX
  8
0
 62
4
 10
-5.48808105E+01
 20
1.57972440E+02
  0
VERTEX
  8
0
 62
4
 10
-5.49409477E+01
 20
1.58299385E+02
  0
VERTEX
  8
0
 62
4
 10
-5.50323625E+01
 20
1.58620271E+02
  0
VERTEX
  8
0
 62
4
 10
-5.51543503E+01
 20
1.58932626E+02
  0
VERTEX
  8
0
 62
4
 10
-5.53059711E+01
 20
1.59234043E+02
  0
VERTEX
  8
0
 62
4
 10
-5.54860567E+01
 20
1.59522199E+02
  0
VERTEX
  8
0
 62
4
 10
-5.56932193E+01
 20
1.59794874E+02
  0
VERTEX
  8
0
 62
4
 10
-5.59258627E+01
 20
1.60049967E+02
  0
VERTEX
  8
0
 62
4
 10
-5.61821941E+01
 20
1.60285512E+02
  0
VERTEX
  8
0
 62
4
 10
-5.64602385E+01
 20
1.60499694E+02
  0
VERTEX
  8
0
 62
4
 10
-5.67578532E+01
 20
1.60690862E+02
  0
VERTEX
  8
0
 62
4
 10
-5.70727450E+01
 20
1.60857544E+02
  0
VERTEX
  8
0
 62
4
 10
-5.74024875E+01
 20
1.60998455E+02
  0
VERTEX
  8
0
 62
4
 10
-5.77445398E+01
 20
1.61112509E+02
  0
VERTEX
  8
0
 62
4
 10
-5.80962661E+01
 20
1.61198828E+02
  0
VERTEX
  8
0
 62
4
 10
-5.84549563E+01
 20
1.61256747E+02
  0
VERTEX
  8
0
 62
4
 10
-5.88178463E+01
 20
1.61285818E+02
  0
VERTEX
  8
0
 62
4
 10
-5.91821400E+01
 20
1.61285818E+02
  0
VERTEX
  8
0
 62
4
 10
-5.95450301E+01
 20
1.61256748E+02
  0
VERTEX
  8
0
 62
4
 10
-5.99037204E+01
 20
1.61198830E+02
  0
VERTEX
  8
0
 62
4
 10
-6.02554470E+01
 20
1.61112512E+02
  0
VERTEX
  8
0
 62
4
 10
-6.05974995E+01
 20
1.60998458E+02
  0
VERTEX
  8
0
 62
4
 10
-6.09272424E+01
 20
1.60857548E+02
  0
VERTEX
  8
0
 62
4
 10
-6.12421347E+01
 20
1.60690867E+02
  0
VERTEX
  8
0
 62
4
 10
-6.15397499E+01
 20
1.60499699E+02
  0
VERTEX
  8
0
 62
4
 10
-6.18177948E+01
 20
1.60285518E+02
  0
VERTEX
  8
0
 62
4
 10
-6.20741269E+01
 20
1.60049974E+02
  0
VERTEX
  8
0
 62
4
 10
-6.23067709E+01
 20
1.59794882E+02
  0
VERTEX
  8
0
 62
4
 10
-6.25139343E+01
 20
1.59522207E+02
  0
VERTEX
  8
0
 62
4
 10
-6.26940206E+01
 20
1.59234051E+02
  0
VERTEX
  8
0
 62
4
 10
-6.28456422E+01
 20
1.58932635E+02
  0
VERTEX
  8
0
 62
4
 10
-6.29676308E+01
 20
1.58620280E+02
  0
VERTEX
  8
0
 62
4
 10
-6.30590464E+01
 20
1.58299393E+02
  0
VERTEX
  8
0
 62
4
 10
-6.31191845E+01
 20
1.57972449E+02
  0
VERTEX
  8
0
 62
4
 10
-6.31475818E+01
 20
1.57641964E+02
  0
VERTEX
  8
0
 62
4
 10
-6.31440195E+01
 20
1.57310487E+02
  0
VERTEX
  8
0
 62
4
 10
-6.31085249E+01
 20
1.56980571E+02
  0
VERTEX
  8
0
 62
4
 10
-6.30413716E+01
 20
1.56654759E+02
  0
VERTEX
  8
0
 62
4
 10
-6.29430771E+01
 20
1.56335561E+02
  0
VERTEX
  8
0
 62
4
 10
-6.28143988E+01
 20
1.56025436E+02
  0
VERTEX
  8
0
 62
4
 10
-6.26563282E+01
 20
1.55726776E+02
  0
VERTEX
  8
0
 62
4
 10
-6.24700833E+01
 20
1.55441880E+02
  0
VERTEX
  8
0
 62
4
 10
-6.22570994E+01
 20
1.55172944E+02
  0
VERTEX
  8
0
 62
4
 10
-6.20190174E+01
 20
1.54922041E+02
  0
VERTEX
  8
0
 62
4
 10
-6.17576721E+01
 20
1.54691103E+02
  0
VERTEX
  8
0
 62
4
 10
-6.14750773E+01
 20
1.54481911E+02
  0
VERTEX
  8
0
 62
4
 10
-6.11734104E+01
 20
1.54296076E+02
  0
VERTEX
  8
0
 62
4
 10
-6.08549961E+01
 20
1.54135031E+02
  0
VERTEX
  8
0
 62
4
 10
-6.05222879E+01
 20
1.54000015E+02
  0
SEQEND
  8
0
  0
POLYLINE
  8
0
 62
4
 66
1
  0
VERTEX
  8
0
 62
4
 10
-5.61951388E+01
 20
1.54000016E+02
  0
VERTEX
  8
0
 62
4
 10
-5.59258007E+01
 20
1.54246471E+02
  0
VERTEX
  8
0
 62
4
 10
-5.56825052E+01
 20
1.54514416E+02
  0
VERTEX
  8
0
 62
4
 10
-5.54673133E+01
 20
1.54801581E+02
  0
VERTEX
  8
0
 62
4
 10
-5.52820481E+01
 20
1.55105533E+02
  0
VERTEX
  8
0
 62
4
 10
-5.51282789E+01
 20
1.55423698E+02
  0
VERTEX
  8
0
 62
4
 10
-5.50073084E+01
 20
1.55753381E+02
  0
VERTEX
  8
0
 62
4
 10
-5.49201614E+01
 20
1.56091788E+02
  0
VERTEX
  8
0
 62
4
 10
-5.48675762E+01
 20
1.56436052E+02
  0
VERTEX
  8
0
 62
4
 10
-5.48499981E+01
 20
1.56783258E+02
  0
SEQEND
  8
0
  0
LINE
  8
0
 62
4
 10
-4.39999981E+01
 20
1.54000015E+02
 11
-4.39999981E+01
 21
1.63905365E+02
  0
LINE
  8
0
 62
4
 10
-5.04999981E+01
 20
1.54069725E+02
 11
-5.04999981E+01
 21
1.54000015E+02
  0
LINE
  8
0
 62
4
 10
-7.39999981E+01
 20
1.63905365E+02
 11
-7.39999981E+01
 21
1.54069725E+02
  0
LINE
  8
0
  6
CENTER
 62
6
 10
-5.43499981E+01
 20
1.56625674E+02
 11
-6.36499981E+01
 21
1.56625674E+02
  0
LINE
  8
0
  6
CENTER
 62
6
 10
-5.89999981E+01
 20
1.61275674E+02
 11
-5.89999981E+01
 21
1.51975674E+02
  0
LINE
  8
0
  6
CENTER
 62
6
 10
-6.29254012E+01
 20
1.59810539E+02
 11
-7.00745950E+01
 21
1.59810539E+02
  0
LINE
  8
0
  6
CENTER
 62
6
 10
-6.64999981E+01
 20
1.63385136E+02
 11
-6.64999981E+01
 21
1.56235942E+02
  0
LINE
  8
0
  6
CENTER
 62
6
 10
-4.66999981E+01
 20
1.59810539E+02
 11
-5.62999981E+01
 21
1.59810539E+02
  0
LINE
  8
0
  6
CENTER
 62
6
 10
-5.14999981E+01
 20
1.64610539E+02
 11
-5.14999981E+01
 21
1.55010539E+02
  0
LINE
  8
0
 62
4
 10
2.09808350E-05
 20
1.31767706E+02
 11
2.09808350E-05
 21
1.59634024E+02
  0
LINE
  8
0
 62
4
 10
-1.49999790E+01
 20
1.31767706E+02
 11
-1.49999790E+01
 21
1.63905365E+02
  0
LINE
  8
0
 62
4
 10
1.50000210E+01
 20
1.63905365E+02
 11
1.50000210E+01
 21
1.44908767E+02
  0
LINE
  8
0
  6
CENTER
 62
6
 10
-3.49997902E+00
 20
1.32330530E+02
 11
-3.49997902E+00
 21
1.39330530E+02
  0
LINE
  8
0
  6
CENTER
 62
6
 10
-1.49999790E+01
 20
1.35830530E+02
 11
-7.99997902E+00
 21
1.35830530E+02
  0
LINE
  8
0
  6
CENTER
 62
6
 10
-1.14999790E+01
 20
1.32330530E+02
 11
-1.14999790E+01
 21
1.39330530E+02
  0
LINE
  8
0
  6
CENTER
 62
6
 10
-6.99997902E+00
 20
1.35830530E+02
 11
2.09808350E-05
 21
1.35830530E+02
  0
LINE
  8
0
 62
4
 10
-7.39999981E+01
 20
1.63905365E+02
 11
-4.39999981E+01
 21
1.63905365E+02
  0
LINE
  8
0
 62
4
 10
-1.49999790E+01
 20
1.63905365E+02
 11
1.50000210E+01
 21
1.63905365E+02
  0
LINE
  8
0
 62
4
 10
-1.49999790E+01
 20
1.59634024E+02
 11
1.50000210E+01
 21
1.59634024E+02
  0
LINE
  8
0
 62
4
 10
-1.49999790E+01
 20
1.56731172E+02
 11
2.09629500E-05
 21
1.56731172E+02
  0
LINE
  8
0
 62
4
 10
-1.39999790E+01
 20
1.42592275E+02
 11
-9.99979002E-01
 21
1.42592275E+02
  0
LINE
  8
0
 62
4
 10
2.09629500E-05
 20
1.44908767E+02
 11
1.50000210E+01
 21
1.44908767E+02
  0
LINE
  8
0
 62
4
 10
-1.49999790E+01
 20
1.31767706E+02
 11
2.09629500E-05
 21
1.31767706E+02
  0
LINE
  8
0
 62
4
 10
2.09629500E-05
 20
1.51899353E+02
 11
1.50000210E+01
 21
1.51899353E+02
  0
LINE
  8
0
 62
4
 10
2.09629500E-05
 20
1.51733476E+02
 11
1.50000210E+01
 21
1.51733476E+02
  0
LINE
  8
0
  6
CENTER
 62
6
 10
1.10746179E+01
 20
1.55539199E+02
 11
3.92542409E+00
 21
1.55539199E+02
  0
LINE
  8
0
  6
CENTER
 62
6
 10
7.50002098E+00
 20
1.59113795E+02
 11
7.50002098E+00
 21
1.51964602E+02
  0
POLYLINE
  8
0
 62
4
 66
1
  0
VERTEX
  8
0
 62
4
 10
9.75002098E+00
 20
1.55539199E+02
  0
VERTEX
  8
0
 62
4
 10
9.74145905E+00
 20
1.55717643E+02
  0
VERTEX
  8
0
 62
4
 10
9.71583842E+00
 20
1.55894729E+02
  0
VERTEX
  8
0
 62
4
 10
9.67335409E+00
 20
1.56069108E+02
  0
VERTEX
  8
0
 62
4
 10
9.61432938E+00
 20
1.56239455E+02
  0
VERTEX
  8
0
 62
4
 10
9.53921350E+00
 20
1.56404473E+02
  0
VERTEX
  8
0
 62
4
 10
9.44857814E+00
 20
1.56562905E+02
  0
VERTEX
  8
0
 62
4
 10
9.34311308E+00
 20
1.56713547E+02
  0
VERTEX
  8
0
 62
4
 10
9.22362098E+00
 20
1.56855251E+02
  0
VERTEX
  8
0
 62
4
 10
9.09101124E+00
 20
1.56986939E+02
  0
VERTEX
  8
0
 62
4
 10
8.94629310E+00
 20
1.57107608E+02
  0
VERTEX
  8
0
 62
4
 10
8.79056796E+00
 20
1.57216341E+02
  0
VERTEX
  8
0
 62
4
 10
8.62502098E+00
 20
1.57312311E+02
  0
VERTEX
  8
0
 62
4
 10
8.45091207E+00
 20
1.57394785E+02
  0
VERTEX
  8
0
 62
4
 10
8.26956630E+00
 20
1.57463138E+02
  0
VERTEX
  8
0
 62
4
 10
8.08236383E+00
 20
1.57516848E+02
  0
VERTEX
  8
0
 62
4
 10
7.89072938E+00
 20
1.57555507E+02
  0
VERTEX
  8
0
 62
4
 10
7.69612140E+00
 20
1.57578821E+02
  0
VERTEX
  8
0
 62
4
 10
7.50002098E+00
 20
1.57586612E+02
  0
VERTEX
  8
0
 62
4
 10
7.30392056E+00
 20
1.57578821E+02
  0
VERTEX
  8
0
 62
4
 10
7.10931258E+00
 20
1.57555507E+02
  0
VERTEX
  8
0
 62
4
 10
6.91767813E+00
 20
1.57516848E+02
  0
VERTEX
  8
0
 62
4
 10
6.73047566E+00
 20
1.57463138E+02
  0
VERTEX
  8
0
 62
4
 10
6.54912989E+00
 20
1.57394785E+02
  0
VERTEX
  8
0
 62
4
 10
6.37502098E+00
 20
1.57312311E+02
  0
VERTEX
  8
0
 62
4
 10
6.20947400E+00
 20
1.57216341E+02
  0
VERTEX
  8
0
 62
4
 10
6.05374886E+00
 20
1.57107608E+02
  0
VERTEX
  8
0
 62
4
 10
5.90903072E+00
 20
1.56986939E+02
  0
VERTEX
  8
0
 62
4
 10
5.77642098E+00
 20
1.56855251E+02
  0
VERTEX
  8
0
 62
4
 10
5.65692888E+00
 20
1.56713547E+02
  0
VERTEX
  8
0
 62
4
 10
5.55146382E+00
 20
1.56562905E+02
  0
VERTEX
  8
0
 62
4
 10
5.46082846E+00
 20
1.56404473E+02
  0
VERTEX
  8
0
 62
4
 10
5.38571258E+00
 20
1.56239455E+02
  0
VERTEX
  8
0
 62
4
 10
5.32668787E+00
 20
1.56069108E+02
  0
VERTEX
  8
0
 62
4
 10
5.28420354E+00
 20
1.55894729E+02
  0
VERTEX
  8
0
 62
4
 10
5.25858291E+00
 20
1.55717643E+02
  0
VERTEX
  8
0
 62
4
 10
5.25002098E+00
 20
1.55539199E+02
  0
VERTEX
  8
0
 62
4
 10
5.25858291E+00
 20
1.55360755E+02
  0
VERTEX
  8
0
 62
4
 10
5.28420354E+00
 20
1.55183669E+02
  0
VERTEX
  8
0
 62
4
 10
5.32668787E+00
 20
1.55009290E+02
  0
VERTEX
  8
0
 62
4
 10
5.38571258E+00
 20
1.54838943E+02
  0
VERTEX
  8
0
 62
4
 10
5.46082846E+00
 20
1.54673925E+02
  0
VERTEX
  8
0
 62
4
 10
5.55146382E+00
 20
1.54515493E+02
  0
VERTEX
  8
0
 62
4
 10
5.65692888E+00
 20
1.54364851E+02
  0
VERTEX
  8
0
 62
4
 10
5.77642099E+00
 20
1.54223147E+02
  0
VERTEX
  8
0
 62
4
 10
5.90903073E+00
 20
1.54091459E+02
  0
VERTEX
  8
0
 62
4
 10
6.05374886E+00
 20
1.53970790E+02
  0
VERTEX
  8
0
 62
4
 10
6.20947400E+00
 20
1.53862057E+02
  0
VERTEX
  8
0
 62
4
 10
6.37502098E+00
 20
1.53766087E+02
  0
VERTEX
  8
0
 62
4
 10
6.54912989E+00
 20
1.53683613E+02
  0
VERTEX
  8
0
 62
4
 10
6.73047566E+00
 20
1.53615260E+02
  0
VERTEX
  8
0
 62
4
 10
6.91767813E+00
 20
1.53561550E+02
  0
VERTEX
  8
0
 62
4
 10
7.10931258E+00
 20
1.53522891E+02
  0
VERTEX
  8
0
 62
4
 10
7.30392056E+00
 20
1.53499577E+02
  0
VERTEX
  8
0
 62
4
 10
7.50002098E+00
 20
1.53491786E+02
  0
VERTEX
  8
0
 62
4
 10
7.69612141E+00
 20
1.53499577E+02
  0
VERTEX
  8
0
 62
4
 10
7.89072938E+00
 20
1.53522891E+02
  0
VERTEX
  8
0
 62
4
 10
8.08236384E+00
 20
1.53561550E+02
  0
VERTEX
  8
0
 62
4
 10
8.26956631E+00
 20
1.53615260E+02
  0
VERTEX
  8
0
 62
4
 10
8.45091207E+00
 20
1.53683613E+02
  0
VERTEX
  8
0
 62
4
 10
8.62502098E+00
 20
1.53766087E+02
  0
VERTEX
  8
0
 62
4
 10
8.79056797E+00
 20
1.53862057E+02
  0
VERTEX
  8
0
 62
4
 10
8.94629311E+00
 20
1.53970790E+02
  0
VERTEX
  8
0
 62
4
 10
9.09101124E+00
 20
1.54091459E+02
  0
VERTEX
  8
0
 62
4
 10
9.22362098E+00
 20
1.54223147E+02
  0
VERTEX
  8
0
 62
4
 10
9.34311308E+00
 20
1.54364851E+02
  0
VERTEX
  8
0
 62
4
 10
9.44857814E+00
 20
1.54515493E+02
  0
VERTEX
  8
0
 62
4
 10
9.53921350E+00
 20
1.54673925E+02
  0
VERTEX
  8
0
 62
4
 10
9.61432938E+00
 20
1.54838943E+02
  0
VERTEX
  8
0
 62
4
 10
9.67335409E+00
 20
1.55009290E+02
  0
VERTEX
  8
0
 62
4
 10
9.71583843E+00
 20
1.55183669E+02
  0
VERTEX
  8
0
 62
4
 10
9.74145905E+00
 20
1.55360755E+02
  0
VERTEX
  8
0
 62
4
 10
9.75002098E+00
 20
1.55539199E+02
  0
SEQEND
  8
0
  0
POLYLINE
  8
0
 62
4
 66
1
  0
VERTEX
  8
0
 62
4
 10
-1.49997902E+00
 20
1.35830530E+02
  0
VERTEX
  8
0
 62
4
 10
-1.50803043E+00
 20
1.35993667E+02
  0
VERTEX
  8
0
 62
4
 10
-1.53211984E+00
 20
1.36155490E+02
  0
VERTEX
  8
0
 62
4
 10
-1.57205329E+00
 20
1.36314696E+02
  0
VERTEX
  8
0
 62
4
 10
-1.62750927E+00
 20
1.36470005E+02
  0
VERTEX
  8
0
 62
4
 10
-1.69804128E+00
 20
1.36620165E+02
  0
VERTEX
  8
0
 62
4
 10
-1.78308143E+00
 20
1.36763967E+02
  0
VERTEX
  8
0
 62
4
 10
-1.88194502E+00
 20
1.36900254E+02
  0
VERTEX
  8
0
 62
4
 10
-1.99383608E+00
 20
1.37027927E+02
  0
VERTEX
  8
0
 62
4
 10
-2.11785371E+00
 20
1.37145961E+02
  0
VERTEX
  8
0
 62
4
 10
-2.25299940E+00
 20
1.37253403E+02
  0
VERTEX
  8
0
 62
4
 10
-2.39818504E+00
 20
1.37349389E+02
  0
VERTEX
  8
0
 62
4
 10
-2.55224168E+00
 20
1.37433146E+02
  0
VERTEX
  8
0
 62
4
 10
-2.71392894E+00
 20
1.37503999E+02
  0
VERTEX
  8
0
 62
4
 10
-2.88194502E+00
 20
1.37561379E+02
  0
VERTEX
  8
0
 62
4
 10
-3.05493714E+00
 20
1.37604823E+02
  0
VERTEX
  8
0
 62
4
 10
-3.23151247E+00
 20
1.37633982E+02
  0
VERTEX
  8
0
 62
4
 10
-3.41024934E+00
 20
1.37648620E+02
  0
VERTEX
  8
0
 62
4
 10
-3.58970866E+00
 20
1.37648620E+02
  0
VERTEX
  8
0
 62
4
 10
-3.76844553E+00
 20
1.37633982E+02
  0
VERTEX
  8
0
 62
4
 10
-3.94502087E+00
 20
1.37604823E+02
  0
VERTEX
  8
0
 62
4
 10
-4.11801299E+00
 20
1.37561379E+02
  0
VERTEX
  8
0
 62
4
 10
-4.28602907E+00
 20
1.37503999E+02
  0
VERTEX
  8
0
 62
4
 10
-4.44771633E+00
 20
1.37433146E+02
  0
VERTEX
  8
0
 62
4
 10
-4.60177297E+00
 20
1.37349389E+02
  0
VERTEX
  8
0
 62
4
 10
-4.74695861E+00
 20
1.37253403E+02
  0
VERTEX
  8
0
 62
4
 10
-4.88210430E+00
 20
1.37145961E+02
  0
VERTEX
  8
0
 62
4
 10
-5.00612194E+00
 20
1.37027927E+02
  0
VERTEX
  8
0
 62
4
 10
-5.11801300E+00
 20
1.36900254E+02
  0
VERTEX
  8
0
 62
4
 10
-5.21687660E+00
 20
1.36763967E+02
  0
VERTEX
  8
0
 62
4
 10
-5.30191675E+00
 20
1.36620165E+02
  0
VERTEX
  8
0
 62
4
 10
-5.37244875E+00
 20
1.36470005E+02
  0
VERTEX
  8
0
 62
4
 10
-5.42790474E+00
 20
1.36314696E+02
  0
VERTEX
  8
0
 62
4
 10
-5.46783819E+00
 20
1.36155490E+02
  0
VERTEX
  8
0
 62
4
 10
-5.49192761E+00
 20
1.35993667E+02
  0
VERTEX
  8
0
 62
4
 10
-5.49997902E+00
 20
1.35830530E+02
  0
SEQEND
  8
0
  0
LINE
  8
0
 62
4
 10
-5.49997902E+00
 20
1.34195613E+02
 11
-5.49997902E+00
 21
1.35830530E+02
  0
POLYLINE
  8
0
 62
4
 66
1
  0
VERTEX
  8
0
 62
4
 10
-5.49997902E+00
 20
1.34195613E+02
  0
VERTEX
  8
0
 62
4
 10
-5.49236842E+00
 20
1.34036996E+02
  0
VERTEX
  8
0
 62
4
 10
-5.46959453E+00
 20
1.33879587E+02
  0
VERTEX
  8
0
 62
4
 10
-5.43183067E+00
 20
1.33724582E+02
  0
VERTEX
  8
0
 62
4
 10
-5.37936426E+00
 20
1.33573163E+02
  0
VERTEX
  8
0
 62
4
 10
-5.31259460E+00
 20
1.33426481E+02
  0
VERTEX
  8
0
 62
4
 10
-5.23202983E+00
 20
1.33285652E+02
  0
VERTEX
  8
0
 62
4
 10
-5.13828311E+00
 20
1.33151748E+02
  0
VERTEX
  8
0
 62
4
 10
-5.03206791E+00
 20
1.33025789E+02
  0
VERTEX
  8
0
 62
4
 10
-4.91419259E+00
 20
1.32908733E+02
  0
VERTEX
  8
0
 62
4
 10
-4.78555424E+00
 20
1.32801472E+02
  0
VERTEX
  8
0
 62
4
 10
-4.64713190E+00
 20
1.32704820E+02
  0
VERTEX
  8
0
 62
4
 10
-4.49997902E+00
 20
1.32619514E+02
  0
VERTEX
  8
0
 62
4
 10
-4.34521555E+00
 20
1.32546203E+02
  0
VERTEX
  8
0
 62
4
 10
-4.18401931E+00
 20
1.32485445E+02
  0
VERTEX
  8
0
 62
4
 10
-4.01761712E+00
 20
1.32437703E+02
  0
VERTEX
  8
0
 62
4
 10
-3.84727538E+00
 20
1.32403339E+02
  0
VERTEX
  8
0
 62
4
 10
-3.67429051E+00
 20
1.32382616E+02
  0
VERTEX
  8
0
 62
4
 10
-3.49997903E+00
 20
1.32375691E+02
  0
VERTEX
  8
0
 62
4
 10
-3.32566754E+00
 20
1.32382616E+02
  0
VERTEX
  8
0
 62
4
 10
-3.15268267E+00
 20
1.32403339E+02
  0
VERTEX
  8
0
 62
4
 10
-2.98234093E+00
 20
1.32437703E+02
  0
VERTEX
  8
0
 62
4
 10
-2.81593874E+00
 20
1.32485445E+02
  0
VERTEX
  8
0
 62
4
 10
-2.65474250E+00
 20
1.32546203E+02
  0
VERTEX
  8
0
 62
4
 10
-2.49997902E+00
 20
1.32619514E+02
  0
VERTEX
  8
0
 62
4
 10
-2.35282615E+00
 20
1.32704820E+02
  0
VERTEX
  8
0
 62
4
 10
-2.21440380E+00
 20
1.32801471E+02
  0
VERTEX
  8
0
 62
4
 10
-2.08576546E+00
 20
1.32908733E+02
  0
VERTEX
  8
0
 62
4
 10
-1.96789014E+00
 20
1.33025789E+02
  0
VERTEX
  8
0
 62
4
 10
-1.86167493E+00
 20
1.33151748E+02
  0
VERTEX
  8
0
 62
4
 10
-1.76792821E+00
 20
1.33285652E+02
  0
VERTEX
  8
0
 62
4
 10
-1.68736345E+00
 20
1.33426481E+02
  0
VERTEX
  8
0
 62
4
 10
-1.62059378E+00
 20
1.33573163E+02
  0
VERTEX
  8
0
 62
4
 10
-1.56812737E+00
 20
1.33724582E+02
  0
VERTEX
  8
0
 62
4
 10
-1.53036351E+00
 20
1.33879587E+02
  0
VERTEX
  8
0
 62
4
 10
-1.50758962E+00
 20
1.34036996E+02
  0
VERTEX
  8
0
 62
4
 10
-1.49997902E+00
 20
1.34195613E+02
  0
VERTEX
  8
0
 62
4
 10
-1.50758962E+00
 20
1.34354230E+02
  0
VERTEX
  8
0
 62
4
 10
-1.53036351E+00
 20
1.34511639E+02
  0
VERTEX
  8
0
 62
4
 10
-1.56812737E+00
 20
1.34666644E+02
  0
VERTEX
  8
0
 62
4
 10
-1.62059378E+00
 20
1.34818063E+02
  0
VERTEX
  8
0
 62
4
 10
-1.68736344E+00
 20
1.34964745E+02
  0
VERTEX
  8
0
 62
4
 10
-1.76792821E+00
 20
1.35105574E+02
  0
VERTEX
  8
0
 62
4
 10
-1.86167493E+00
 20
1.35239478E+02
  0
VERTEX
  8
0
 62
4
 10
-1.96789013E+00
 20
1.35365437E+02
  0
VERTEX
  8
0
 62
4
 10
-2.08576546E+00
 20
1.35482493E+02
  0
VERTEX
  8
0
 62
4
 10
-2.21440380E+00
 20
1.35589755E+02
  0
VERTEX
  8
0
 62
4
 10
-2.35282614E+00
 20
1.35686406E+02
  0
VERTEX
  8
0
 62
4
 10
-2.49997902E+00
 20
1.35771712E+02
  0
VERTEX
  8
0
 62
4
 10
-2.65474249E+00
 20
1.35845023E+02
  0
VERTEX
  8
0
 62
4
 10
-2.81593873E+00
 20
1.35905781E+02
  0
VERTEX
  8
0
 62
4
 10
-2.98234093E+00
 20
1.35953523E+02
  0
VERTEX
  8
0
 62
4
 10
-3.15268266E+00
 20
1.35987887E+02
  0
VERTEX
  8
0
 62
4
 10
-3.32566753E+00
 20
1.36008610E+02
  0
VERTEX
  8
0
 62
4
 10
-3.49997902E+00
 20
1.36015535E+02
  0
VERTEX
  8
0
 62
4
 10
-3.67429050E+00
 20
1.36008610E+02
  0
VERTEX
  8
0
 62
4
 10
-3.84727537E+00
 20
1.35987887E+02
  0
VERTEX
  8
0
 62
4
 10
-4.01761711E+00
 20
1.35953523E+02
  0
VERTEX
  8
0
 62
4
 10
-4.18401930E+00
 20
1.35905781E+02
  0
VERTEX
  8
0
 62
4
 10
-4.34521554E+00
 20
1.35845023E+02
  0
VERTEX
  8
0
 62
4
 10
-4.49997902E+00
 20
1.35771712E+02
  0
VERTEX
  8
0
 62
4
 10
-4.64713189E+00
 20
1.35686406E+02
  0
VERTEX
  8
0
 62
4
 10
-4.78555424E+00
 20
1.35589755E+02
  0
VERTEX
  8
0
 62
4
 10
-4.91419258E+00
 20
1.35482493E+02
  0
VERTEX
  8
0
 62
4
 10
-5.03206791E+00
 20
1.35365437E+02
  0
VERTEX
  8
0
 62
4
 10
-5.13828311E+00
 20
1.35239478E+02
  0
VERTEX
  8
0
 62
4
 10
-5.23202983E+00
 20
1.35105574E+02
  0
VERTEX
  8
0
 62
4
 10
-5.31259459E+00
 20
1.34964745E+02
  0
VERTEX
  8
0
 62
4
 10
-5.37936426E+00
 20
1.34818063E+02
  0
VERTEX
  8
0
 62
4
 10
-5.43183067E+00
 20
1.34666644E+02
  0
VERTEX
  8
0
 62
4
 10
-5.46959453E+00
 20
1.34511639E+02
  0
VERTEX
  8
0
 62
4
 10
-5.49236842E+00
 20
1.34354230E+02
  0
VERTEX
  8
0
 62
4
 10
-5.49997902E+00
 20
1.34195613E+02
  0
SEQEND
  8
0
  0
LINE
  8
0
 62
4
 10
-1.49997902E+00
 20
1.34195613E+02
 11
-1.49997902E+00
 21
1.35830530E+02
  0
POLYLINE
  8
0
 62
6
 66
1
  0
VERTEX
  8
0
 62
6
 10
-4.99997904E+00
 20
1.34195613E+02
  0
VERTEX
  8
0
 62
6
 10
-4.99427109E+00
 20
1.34076650E+02
  0
VERTEX
  8
0
 62
6
 10
-4.97719067E+00
 20
1.33958593E+02
  0
VERTEX
  8
0
 62
6
 10
-4.94886778E+00
 20
1.33842340E+02
  0
VERTEX
  8
0
 62
6
 10
-4.90951797E+00
 20
1.33728775E+02
  0
VERTEX
  8
0
 62
6
 10
-4.85944072E+00
 20
1.33618764E+02
  0
VERTEX
  8
0
 62
6
 10
-4.79901715E+00
 20
1.33513142E+02
  0
VERTEX
  8
0
 62
6
 10
-4.72870711E+00
 20
1.33412714E+02
  0
VERTEX
  8
0
 62
6
 10
-4.64904570E+00
 20
1.33318245E+02
  0
VERTEX
  8
0
 62
6
 10
-4.56063921E+00
 20
1.33230453E+02
  0
VERTEX
  8
0
 62
6
 10
-4.46416045E+00
 20
1.33150007E+02
  0
VERTEX
  8
0
 62
6
 10
-4.36034369E+00
 20
1.33077518E+02
  0
VERTEX
  8
0
 62
6
 10
-4.24997903E+00
 20
1.33013539E+02
  0
VERTEX
  8
0
 62
6
 10
-4.13390642E+00
 20
1.32958556E+02
  0
VERTEX
  8
0
 62
6
 10
-4.01300925E+00
 20
1.32912987E+02
  0
VERTEX
  8
0
 62
6
 10
-3.88820760E+00
 20
1.32877180E+02
  0
VERTEX
  8
0
 62
6
 10
-3.76045129E+00
 20
1.32851408E+02
  0
VERTEX
  8
0
 62
6
 10
-3.63071264E+00
 20
1.32835865E+02
  0
VERTEX
  8
0
 62
6
 10
-3.49997902E+00
 20
1.32830671E+02
  0
VERTEX
  8
0
 62
6
 10
-3.36924541E+00
 20
1.32835865E+02
  0
VERTEX
  8
0
 62
6
 10
-3.23950675E+00
 20
1.32851408E+02
  0
VERTEX
  8
0
 62
6
 10
-3.11175045E+00
 20
1.32877180E+02
  0
VERTEX
  8
0
 62
6
 10
-2.98694880E+00
 20
1.32912987E+02
  0
VERTEX
  8
0
 62
6
 10
-2.86605162E+00
 20
1.32958556E+02
  0
VERTEX
  8
0
 62
6
 10
-2.74997901E+00
 20
1.33013539E+02
  0
VERTEX
  8
0
 62
6
 10
-2.63961436E+00
 20
1.33077518E+02
  0
VERTEX
  8
0
 62
6
 10
-2.53579760E+00
 20
1.33150007E+02
  0
VERTEX
  8
0
 62
6
 10
-2.43931884E+00
 20
1.33230453E+02
  0
VERTEX
  8
0
 62
6
 10
-2.35091234E+00
 20
1.33318245E+02
  0
VERTEX
  8
0
 62
6
 10
-2.27125094E+00
 20
1.33412714E+02
  0
VERTEX
  8
0
 62
6
 10
-2.20094090E+00
 20
1.33513142E+02
  0
VERTEX
  8
0
 62
6
 10
-2.14051732E+00
 20
1.33618764E+02
  0
VERTEX
  8
0
 62
6
 10
-2.09044007E+00
 20
1.33728775E+02
  0
VERTEX
  8
0
 62
6
 10
-2.05109026E+00
 20
1.33842340E+02
  0
VERTEX
  8
0
 62
6
 10
-2.02276737E+00
 20
1.33958593E+02
  0
VERTEX
  8
0
 62
6
 10
-2.00568695E+00
 20
1.34076650E+02
  0
VERTEX
  8
0
 62
6
 10
-1.99997900E+00
 20
1.34195613E+02
  0
VERTEX
  8
0
 62
6
 10
-2.00568695E+00
 20
1.34314576E+02
  0
VERTEX
  8
0
 62
6
 10
-2.02276737E+00
 20
1.34432633E+02
  0
VERTEX
  8
0
 62
6
 10
-2.05109026E+00
 20
1.34548886E+02
  0
VERTEX
  8
0
 62
6
 10
-2.09044007E+00
 20
1.34662451E+02
  0
VERTEX
  8
0
 62
6
 10
-2.14051732E+00
 20
1.34772462E+02
  0
VERTEX
  8
0
 62
6
 10
-2.20094090E+00
 20
1.34878084E+02
  0
VERTEX
  8
0
 62
6
 10
-2.27125094E+00
 20
1.34978512E+02
  0
VERTEX
  8
0
 62
6
 10
-2.35091234E+00
 20
1.35072981E+02
  0
VERTEX
  8
0
 62
6
 10
-2.43931883E+00
 20
1.35160773E+02
  0
VERTEX
  8
0
 62
6
 10
-2.53579759E+00
 20
1.35241219E+02
  0
VERTEX
  8
0
 62
6
 10
-2.63961435E+00
 20
1.35313708E+02
  0
VERTEX
  8
0
 62
6
 10
-2.74997901E+00
 20
1.35377687E+02
  0
VERTEX
  8
0
 62
6
 10
-2.86605162E+00
 20
1.35432670E+02
  0
VERTEX
  8
0
 62
6
 10
-2.98694880E+00
 20
1.35478239E+02
  0
VERTEX
  8
0
 62
6
 10
-3.11175045E+00
 20
1.35514046E+02
  0
VERTEX
  8
0
 62
6
 10
-3.23950675E+00
 20
1.35539818E+02
  0
VERTEX
  8
0
 62
6
 10
-3.36924540E+00
 20
1.35555361E+02
  0
VERTEX
  8
0
 62
6
 10
-3.49997902E+00
 20
1.35560555E+02
  0
VERTEX
  8
0
 62
6
 10
-3.63071263E+00
 20
1.35555361E+02
  0
VERTEX
  8
0
 62
6
 10
-3.76045129E+00
 20
1.35539818E+02
  0
VERTEX
  8
0
 62
6
 10
-3.88820759E+00
 20
1.35514046E+02
  0
VERTEX
  8
0
 62
6
 10
-4.01300924E+00
 20
1.35478239E+02
  0
VERTEX
  8
0
 62
6
 10
-4.13390642E+00
 20
1.35432670E+02
  0
VERTEX
  8
0
 62
6
 10
-4.24997903E+00
 20
1.35377687E+02
  0
VERTEX
  8
0
 62
6
 10
-4.36034368E+00
 20
1.35313708E+02
  0
VERTEX
  8
0
 62
6
 10
-4.46416045E+00
 20
1.35241219E+02
  0
VERTEX
  8
0
 62
6
 10
-4.56063921E+00
 20
1.35160773E+02
  0
VERTEX
  8
0
 62
6
 10
-4.64904570E+00
 20
1.35072981E+02
  0
VERTEX
  8
0
 62
6
 10
-4.72870710E+00
 20
1.34978512E+02
  0
VERTEX
  8
0
 62
6
 10
-4.79901714E+00
 20
1.34878084E+02
  0
VERTEX
  8
0
 62
6
 10
-4.85944072E+00
 20
1.34772462E+02
  0
VERTEX
  8
0
 62
6
 10
-4.90951797E+00
 20
1.34662451E+02
  0
VERTEX
  8
0
 62
6
 10
-4.94886778E+00
 20
1.34548886E+02
  0
VERTEX
  8
0
 62
6
 10
-4.97719067E+00
 20
1.34432633E+02
  0
VERTEX
  8
0
 62
6
 10
-4.99427109E+00
 20
1.34314576E+02
  0
VERTEX
  8
0
 62
6
 10
-4.99997904E+00
 20
1.34195613E+02
  0
SEQEND
  8
0
  0
LINE
  8
0
 62
4
 10
-4.49997902E+00
 20
1.33667835E+02
 11
-4.49997902E+00
 21
1.34723391E+02
  0
LINE
  8
0
 62
4
 10
-3.49997902E+00
 20
1.35242068E+02
 11
-4.49997902E+00
 21
1.34723391E+02
  0
LINE
  8
0
 62
4
 10
-3.49997902E+00
 20
1.33140058E+02
 11
-4.49997902E+00
 21
1.33667835E+02
  0
LINE
  8
0
 62
4
 10
-3.49997902E+00
 20
1.35242068E+02
 11
-2.49997902E+00
 21
1.34723391E+02
  0
LINE
  8
0
 62
4
 10
-2.49997902E+00
 20
1.33667835E+02
 11
-2.49997902E+00
 21
1.34723391E+02
  0
LINE
  8
0
 62
4
 10
-3.49997902E+00
 20
1.33140058E+02
 11
-2.49997902E+00
 21
1.33667835E+02
  0
LINE
  8
0
 62
4
 10
-1.14999790E+01
 20
1.33140058E+02
 11
-1.04999790E+01
 21
1.33667835E+02
  0
LINE
  8
0
 62
4
 10
-1.04999790E+01
 20
1.33667835E+02
 11
-1.04999790E+01
 21
1.34723391E+02
  0
LINE
  8
0
 62
4
 10
-1.14999790E+01
 20
1.35242068E+02
 11
-1.04999790E+01
 21
1.34723391E+02
  0
LINE
  8
0
 62
4
 10
-1.14999790E+01
 20
1.33140058E+02
 11
-1.24999790E+01
 21
1.33667835E+02
  0
LINE
  8
0
 62
4
 10
-1.14999790E+01
 20
1.35242068E+02
 11
-1.24999790E+01
 21
1.34723391E+02
  0
LINE
  8
0
 62
4
 10
-1.24999790E+01
 20
1.33667835E+02
 11
-1.24999790E+01
 21
1.34723391E+02
  0
POLYLINE
  8
0
 62
6
 66
1
  0
VERTEX
  8
0
 62
6
 10
-1.29999790E+01
 20
1.34195613E+02
  0
VERTEX
  8
0
 62
6
 10
-1.29942711E+01
 20
1.34076650E+02
  0
VERTEX
  8
0
 62
6
 10
-1.29771907E+01
 20
1.33958593E+02
  0
VERTEX
  8
0
 62
6
 10
-1.29488678E+01
 20
1.33842340E+02
  0
VERTEX
  8
0
 62
6
 10
-1.29095180E+01
 20
1.33728775E+02
  0
VERTEX
  8
0
 62
6
 10
-1.28594407E+01
 20
1.33618764E+02
  0
VERTEX
  8
0
 62
6
 10
-1.27990171E+01
 20
1.33513142E+02
  0
VERTEX
  8
0
 62
6
 10
-1.27287071E+01
 20
1.33412714E+02
  0
VERTEX
  8
0
 62
6
 10
-1.26490457E+01
 20
1.33318245E+02
  0
VERTEX
  8
0
 62
6
 10
-1.25606392E+01
 20
1.33230453E+02
  0
VERTEX
  8
0
 62
6
 10
-1.24641604E+01
 20
1.33150007E+02
  0
VERTEX
  8
0
 62
6
 10
-1.23603437E+01
 20
1.33077518E+02
  0
VERTEX
  8
0
 62
6
 10
-1.22499790E+01
 20
1.33013539E+02
  0
VERTEX
  8
0
 62
6
 10
-1.21339064E+01
 20
1.32958556E+02
  0
VERTEX
  8
0
 62
6
 10
-1.20130092E+01
 20
1.32912987E+02
  0
VERTEX
  8
0
 62
6
 10
-1.18882076E+01
 20
1.32877180E+02
  0
VERTEX
  8
0
 62
6
 10
-1.17604513E+01
 20
1.32851408E+02
  0
VERTEX
  8
0
 62
6
 10
-1.16307126E+01
 20
1.32835865E+02
  0
VERTEX
  8
0
 62
6
 10
-1.14999790E+01
 20
1.32830671E+02
  0
VERTEX
  8
0
 62
6
 10
-1.13692454E+01
 20
1.32835865E+02
  0
VERTEX
  8
0
 62
6
 10
-1.12395067E+01
 20
1.32851408E+02
  0
VERTEX
  8
0
 62
6
 10
-1.11117504E+01
 20
1.32877180E+02
  0
VERTEX
  8
0
 62
6
 10
-1.09869488E+01
 20
1.32912987E+02
  0
VERTEX
  8
0
 62
6
 10
-1.08660516E+01
 20
1.32958556E+02
  0
VERTEX
  8
0
 62
6
 10
-1.07499790E+01
 20
1.33013539E+02
  0
VERTEX
  8
0
 62
6
 10
-1.06396143E+01
 20
1.33077518E+02
  0
VERTEX
  8
0
 62
6
 10
-1.05357976E+01
 20
1.33150007E+02
  0
VERTEX
  8
0
 62
6
 10
-1.04393188E+01
 20
1.33230453E+02
  0
VERTEX
  8
0
 62
6
 10
-1.03509123E+01
 20
1.33318245E+02
  0
VERTEX
  8
0
 62
6
 10
-1.02712509E+01
 20
1.33412714E+02
  0
VERTEX
  8
0
 62
6
 10
-1.02009409E+01
 20
1.33513142E+02
  0
VERTEX
  8
0
 62
6
 10
-1.01405173E+01
 20
1.33618764E+02
  0
VERTEX
  8
0
 62
6
 10
-1.00904401E+01
 20
1.33728775E+02
  0
VERTEX
  8
0
 62
6
 10
-1.00510902E+01
 20
1.33842340E+02
  0
VERTEX
  8
0
 62
6
 10
-1.00227674E+01
 20
1.33958593E+02
  0
VERTEX
  8
0
 62
6
 10
-1.00056869E+01
 20
1.34076650E+02
  0
VERTEX
  8
0
 62
6
 10
-9.99997898E+00
 20
1.34195613E+02
  0
VERTEX
  8
0
 62
6
 10
-1.00056869E+01
 20
1.34314576E+02
  0
VERTEX
  8
0
 62
6
 10
-1.00227674E+01
 20
1.34432633E+02
  0
VERTEX
  8
0
 62
6
 10
-1.00510902E+01
 20
1.34548886E+02
  0
VERTEX
  8
0
 62
6
 10
-1.00904400E+01
 20
1.34662451E+02
  0
VERTEX
  8
0
 62
6
 10
-1.01405173E+01
 20
1.34772462E+02
  0
VERTEX
  8
0
 62
6
 10
-1.02009409E+01
 20
1.34878084E+02
  0
VERTEX
  8
0
 62
6
 10
-1.02712509E+01
 20
1.34978512E+02
  0
VERTEX
  8
0
 62
6
 10
-1.03509123E+01
 20
1.35072981E+02
  0
VERTEX
  8
0
 62
6
 10
-1.04393188E+01
 20
1.35160773E+02
  0
VERTEX
  8
0
 62
6
 10
-1.05357976E+01
 20
1.35241219E+02
  0
VERTEX
  8
0
 62
6
 10
-1.06396143E+01
 20
1.35313708E+02
  0
VERTEX
  8
0
 62
6
 10
-1.07499790E+01
 20
1.35377687E+02
  0
VERTEX
  8
0
 62
6
 10
-1.08660516E+01
 20
1.35432670E+02
  0
VERTEX
  8
0
 62
6
 10
-1.09869488E+01
 20
1.35478239E+02
  0
VERTEX
  8
0
 62
6
 10
-1.11117504E+01
 20
1.35514046E+02
  0
VERTEX
  8
0
 62
6
 10
-1.12395067E+01
 20
1.35539818E+02
  0
VERTEX
  8
0
 62
6
 10
-1.13692454E+01
 20
1.35555361E+02
  0
VERTEX
  8
0
 62
6
 10
-1.14999790E+01
 20
1.35560555E+02
  0
VERTEX
  8
0
 62
6
 10
-1.16307126E+01
 20
1.35555361E+02
  0
VERTEX
  8
0
 62
6
 10
-1.17604513E+01
 20
1.35539818E+02
  0
VERTEX
  8
0
 62
6
 10
-1.18882076E+01
 20
1.35514046E+02
  0
VERTEX
  8
0
 62
6
 10
-1.20130092E+01
 20
1.35478239E+02
  0
VERTEX
  8
0
 62
6
 10
-1.21339064E+01
 20
1.35432670E+02
  0
VERTEX
  8
0
 62
6
 10
-1.22499790E+01
 20
1.35377687E+02
  0
VERTEX
  8
0
 62
6
 10
-1.23603437E+01
 20
1.35313708E+02
  0
VERTEX
  8
0
 62
6
 10
-1.24641604E+01
 20
1.35241219E+02
  0
VERTEX
  8
0
 62
6
 10
-1.25606392E+01
 20
1.35160773E+02
  0
VERTEX
  8
0
 62
6
 10
-1.26490457E+01
 20
1.35072981E+02
  0
VERTEX
  8
0
 62
6
 10
-1.27287071E+01
 20
1.34978512E+02
  0
VERTEX
  8
0
 62
6
 10
-1.27990171E+01
 20
1.34878084E+02
  0
VERTEX
  8
0
 62
6
 10
-1.28594407E+01
 20
1.34772462E+02
  0
VERTEX
  8
0
 62
6
 10
-1.29095179E+01
 20
1.34662451E+02
  0
VERTEX
  8
0
 62
6
 10
-1.29488678E+01
 20
1.34548886E+02
  0
VERTEX
  8
0
 62
6
 10
-1.29771906E+01
 20
1.34432633E+02
  0
VERTEX
  8
0
 62
6
 10
-1.29942711E+01
 20
1.34314576E+02
  0
VERTEX
  8
0
 62
6
 10
-1.29999790E+01
 20
1.34195613E+02
  0
SEQEND
  8
0
  0
LINE
  8
0
 62
4
 10
-9.49997902E+00
 20
1.34195613E+02
 11
-9.49997902E+00
 21
1.35830530E+02
  0
POLYLINE
  8
0
 62
4
 66
1
  0
VERTEX
  8
0
 62
4
 10
-1.34999790E+01
 20
1.34195613E+02
  0
VERTEX
  8
0
 62
4
 10
-1.34923684E+01
 20
1.34036996E+02
  0
VERTEX
  8
0
 62
4
 10
-1.34695945E+01
 20
1.33879587E+02
  0
VERTEX
  8
0
 62
4
 10
-1.34318307E+01
 20
1.33724582E+02
  0
VERTEX
  8
0
 62
4
 10
-1.33793642E+01
 20
1.33573163E+02
  0
VERTEX
  8
0
 62
4
 10
-1.33125946E+01
 20
1.33426481E+02
  0
VERTEX
  8
0
 62
4
 10
-1.32320298E+01
 20
1.33285652E+02
  0
VERTEX
  8
0
 62
4
 10
-1.31382831E+01
 20
1.33151748E+02
  0
VERTEX
  8
0
 62
4
 10
-1.30320679E+01
 20
1.33025789E+02
  0
VERTEX
  8
0
 62
4
 10
-1.29141926E+01
 20
1.32908733E+02
  0
VERTEX
  8
0
 62
4
 10
-1.27855542E+01
 20
1.32801472E+02
  0
VERTEX
  8
0
 62
4
 10
-1.26471319E+01
 20
1.32704820E+02
  0
VERTEX
  8
0
 62
4
 10
-1.24999790E+01
 20
1.32619514E+02
  0
VERTEX
  8
0
 62
4
 10
-1.23452155E+01
 20
1.32546203E+02
  0
VERTEX
  8
0
 62
4
 10
-1.21840193E+01
 20
1.32485445E+02
  0
VERTEX
  8
0
 62
4
 10
-1.20176171E+01
 20
1.32437703E+02
  0
VERTEX
  8
0
 62
4
 10
-1.18472754E+01
 20
1.32403339E+02
  0
VERTEX
  8
0
 62
4
 10
-1.16742905E+01
 20
1.32382616E+02
  0
VERTEX
  8
0
 62
4
 10
-1.14999790E+01
 20
1.32375691E+02
  0
VERTEX
  8
0
 62
4
 10
-1.13256675E+01
 20
1.32382616E+02
  0
VERTEX
  8
0
 62
4
 10
-1.11526826E+01
 20
1.32403339E+02
  0
VERTEX
  8
0
 62
4
 10
-1.09823409E+01
 20
1.32437703E+02
  0
VERTEX
  8
0
 62
4
 10
-1.08159387E+01
 20
1.32485445E+02
  0
VERTEX
  8
0
 62
4
 10
-1.06547425E+01
 20
1.32546203E+02
  0
VERTEX
  8
0
 62
4
 10
-1.04999790E+01
 20
1.32619514E+02
  0
VERTEX
  8
0
 62
4
 10
-1.03528261E+01
 20
1.32704820E+02
  0
VERTEX
  8
0
 62
4
 10
-1.02144038E+01
 20
1.32801471E+02
  0
VERTEX
  8
0
 62
4
 10
-1.00857654E+01
 20
1.32908733E+02
  0
VERTEX
  8
0
 62
4
 10
-9.96789012E+00
 20
1.33025789E+02
  0
VERTEX
  8
0
 62
4
 10
-9.86167491E+00
 20
1.33151748E+02
  0
VERTEX
  8
0
 62
4
 10
-9.76792819E+00
 20
1.33285652E+02
  0
VERTEX
  8
0
 62
4
 10
-9.68736343E+00
 20
1.33426481E+02
  0
VERTEX
  8
0
 62
4
 10
-9.62059376E+00
 20
1.33573163E+02
  0
VERTEX
  8
0
 62
4
 10
-9.56812735E+00
 20
1.33724582E+02
  0
VERTEX
  8
0
 62
4
 10
-9.53036349E+00
 20
1.33879587E+02
  0
VERTEX
  8
0
 62
4
 10
-9.50758960E+00
 20
1.34036996E+02
  0
VERTEX
  8
0
 62
4
 10
-9.49997900E+00
 20
1.34195613E+02
  0
VERTEX
  8
0
 62
4
 10
-9.50758960E+00
 20
1.34354230E+02
  0
VERTEX
  8
0
 62
4
 10
-9.53036349E+00
 20
1.34511639E+02
  0
VERTEX
  8
0
 62
4
 10
-9.56812735E+00
 20
1.34666644E+02
  0
VERTEX
  8
0
 62
4
 10
-9.62059376E+00
 20
1.34818063E+02
  0
VERTEX
  8
0
 62
4
 10
-9.68736342E+00
 20
1.34964745E+02
  0
VERTEX
  8
0
 62
4
 10
-9.76792819E+00
 20
1.35105574E+02
  0
VERTEX
  8
0
 62
4
 10
-9.86167491E+00
 20
1.35239478E+02
  0
VERTEX
  8
0
 62
4
 10
-9.96789011E+00
 20
1.35365437E+02
  0
VERTEX
  8
0
 62
4
 10
-1.00857654E+01
 20
1.35482493E+02
  0
VERTEX
  8
0
 62
4
 10
-1.02144038E+01
 20
1.35589755E+02
  0
VERTEX
  8
0
 62
4
 10
-1.03528261E+01
 20
1.35686406E+02
  0
VERTEX
  8
0
 62
4
 10
-1.04999790E+01
 20
1.35771712E+02
  0
VERTEX
  8
0
 62
4
 10
-1.06547425E+01
 20
1.35845023E+02
  0
VERTEX
  8
0
 62
4
 10
-1.08159387E+01
 20
1.35905781E+02
  0
VERTEX
  8
0
 62
4
 10
-1.09823409E+01
 20
1.35953523E+02
  0
VERTEX
  8
0
 62
4
 10
-1.11526826E+01
 20
1.35987887E+02
  0
VERTEX
  8
0
 62
4
 10
-1.13256675E+01
 20
1.36008610E+02
  0
VERTEX
  8
0
 62
4
 10
-1.14999790E+01
 20
1.36015535E+02
  0
VERTEX
  8
0
 62
4
 10
-1.16742905E+01
 20
1.36008610E+02
  0
VERTEX
  8
0
 62
4
 10
-1.18472754E+01
 20
1.35987887E+02
  0
VERTEX
  8
0
 62
4
 10
-1.20176171E+01
 20
1.35953523E+02
  0
VERTEX
  8
0
 62
4
 10
-1.21840193E+01
 20
1.35905781E+02
  0
VERTEX
  8
0
 62
4
 10
-1.23452155E+01
 20
1.35845023E+02
  0
VERTEX
  8
0
 62
4
 10
-1.24999790E+01
 20
1.35771712E+02
  0
VERTEX
  8
0
 62
4
 10
-1.26471319E+01
 20
1.35686406E+02
  0
VERTEX
  8
0
 62
4
 10
-1.27855542E+01
 20
1.35589755E+02
  0
VERTEX
  8
0
 62
4
 10
-1.29141926E+01
 20
1.35482493E+02
  0
VERTEX
  8
0
 62
4
 10
-1.30320679E+01
 20
1.35365437E+02
  0
VERTEX
  8
0
 62
4
 10
-1.31382831E+01
 20
1.35239478E+02
  0
VERTEX
  8
0
 62
4
 10
-1.32320298E+01
 20
1.35105574E+02
  0
VERTEX
  8
0
 62
4
 10
-1.33125946E+01
 20
1.34964745E+02
  0
VERTEX
  8
0
 62
4
 10
-1.33793642E+01
 20
1.34818063E+02
  0
VERTEX
  8
0
 62
4
 10
-1.34318307E+01
 20
1.34666644E+02
  0
VERTEX
  8
0
 62
4
 10
-1.34695945E+01
 20
1.34511639E+02
  0
VERTEX
  8
0
 62
4
 10
-1.34923684E+01
 20
1.34354230E+02
  0
VERTEX
  8
0
 62
4
 10
-1.34999790E+01
 20
1.34195613E+02
  0
SEQEND
  8
0
  0
LINE
  8
0
 62
4
 10
-1.34999790E+01
 20
1.34195613E+02
 11
-1.34999790E+01
 21
1.35830530E+02
  0
POLYLINE
  8
0
 62
4
 66
1
  0
VERTEX
  8
0
 62
4
 10
-9.49997900E+00
 20
1.35830530E+02
  0
VERTEX
  8
0
 62
4
 10
-9.50803041E+00
 20
1.35993667E+02
  0
VERTEX
  8
0
 62
4
 10
-9.53211982E+00
 20
1.36155490E+02
  0
VERTEX
  8
0
 62
4
 10
-9.57205327E+00
 20
1.36314696E+02
  0
VERTEX
  8
0
 62
4
 10
-9.62750925E+00
 20
1.36470005E+02
  0
VERTEX
  8
0
 62
4
 10
-9.69804126E+00
 20
1.36620165E+02
  0
VERTEX
  8
0
 62
4
 10
-9.78308141E+00
 20
1.36763967E+02
  0
VERTEX
  8
0
 62
4
 10
-9.88194500E+00
 20
1.36900254E+02
  0
VERTEX
  8
0
 62
4
 10
-9.99383606E+00
 20
1.37027927E+02
  0
VERTEX
  8
0
 62
4
 10
-1.01178537E+01
 20
1.37145961E+02
  0
VERTEX
  8
0
 62
4
 10
-1.02529994E+01
 20
1.37253403E+02
  0
VERTEX
  8
0
 62
4
 10
-1.03981850E+01
 20
1.37349389E+02
  0
VERTEX
  8
0
 62
4
 10
-1.05522417E+01
 20
1.37433146E+02
  0
VERTEX
  8
0
 62
4
 10
-1.07139289E+01
 20
1.37503999E+02
  0
VERTEX
  8
0
 62
4
 10
-1.08819450E+01
 20
1.37561379E+02
  0
VERTEX
  8
0
 62
4
 10
-1.10549371E+01
 20
1.37604823E+02
  0
VERTEX
  8
0
 62
4
 10
-1.12315125E+01
 20
1.37633982E+02
  0
VERTEX
  8
0
 62
4
 10
-1.14102493E+01
 20
1.37648620E+02
  0
VERTEX
  8
0
 62
4
 10
-1.15897086E+01
 20
1.37648620E+02
  0
VERTEX
  8
0
 62
4
 10
-1.17684455E+01
 20
1.37633982E+02
  0
VERTEX
  8
0
 62
4
 10
-1.19450209E+01
 20
1.37604823E+02
  0
VERTEX
  8
0
 62
4
 10
-1.21180130E+01
 20
1.37561379E+02
  0
VERTEX
  8
0
 62
4
 10
-1.22860290E+01
 20
1.37503999E+02
  0
VERTEX
  8
0
 62
4
 10
-1.24477163E+01
 20
1.37433146E+02
  0
VERTEX
  8
0
 62
4
 10
-1.26017729E+01
 20
1.37349389E+02
  0
VERTEX
  8
0
 62
4
 10
-1.27469586E+01
 20
1.37253403E+02
  0
VERTEX
  8
0
 62
4
 10
-1.28821043E+01
 20
1.37145961E+02
  0
VERTEX
  8
0
 62
4
 10
-1.30061219E+01
 20
1.37027927E+02
  0
VERTEX
  8
0
 62
4
 10
-1.31180130E+01
 20
1.36900254E+02
  0
VERTEX
  8
0
 62
4
 10
-1.32168766E+01
 20
1.36763967E+02
  0
VERTEX
  8
0
 62
4
 10
-1.33019167E+01
 20
1.36620165E+02
  0
VERTEX
  8
0
 62
4
 10
-1.33724487E+01
 20
1.36470005E+02
  0
VERTEX
  8
0
 62
4
 10
-1.34279047E+01
 20
1.36314696E+02
  0
VERTEX
  8
0
 62
4
 10
-1.34678382E+01
 20
1.36155490E+02
  0
VERTEX
  8
0
 62
4
 10
-1.34919276E+01
 20
1.35993667E+02
  0
VERTEX
  8
0
 62
4
 10
-1.34999790E+01
 20
1.35830530E+02
  0
SEQEND
  8
0
  0
LINE
  8
0
 62
4
 10
-7.39999981E+01
 20
1.54069725E+02
 11
-7.40907311E+01
 21
1.54000015E+02
  0
LINE
  8
0
 62
4
 10
-7.39999981E+01
 20
1.54069725E+02
 11
-6.18861708E+01
 21
1.54069725E+02
  0
LINE
  8
0
 62
4
 10
-7.39999981E+01
 20
1.54069725E+02
 11
-7.39999981E+01
 21
1.54000015E+02
  0
POLYLINE
  8
0
 62
4
 66
1
  0
VERTEX
  8
0
 62
4
 10
-5.37639664E+01
 20
1.63002396E+02
  0
VERTEX
  8
0
 62
4
 10
-5.40229686E+01
 20
1.62810967E+02
  0
VERTEX
  8
0
 62
4
 10
-5.42625178E+01
 20
1.62599601E+02
  0
VERTEX
  8
0
 62
4
 10
-5.44807669E+01
 20
1.62369927E+02
  0
VERTEX
  8
0
 62
4
 10
-5.46760332E+01
 20
1.62123718E+02
  0
VERTEX
  8
0
 62
4
 10
-5.48468110E+01
 20
1.61862870E+02
  0
VERTEX
  8
0
 62
4
 10
-5.49917836E+01
 20
1.61589395E+02
  0
VERTEX
  8
0
 62
4
 10
-5.51098332E+01
 20
1.61305403E+02
  0
VERTEX
  8
0
 62
4
 10
-5.52000496E+01
 20
1.61013081E+02
  0
VERTEX
  8
0
 62
4
 10
-5.52617372E+01
 20
1.60714685E+02
  0
VERTEX
  8
0
 62
4
 10
-5.52944204E+01
 20
1.60412516E+02
  0
VERTEX
  8
0
 62
4
 10
-5.52978471E+01
 20
1.60108902E+02
  0
VERTEX
  8
0
 62
4
 10
-5.52719909E+01
 20
1.59806185E+02
  0
VERTEX
  8
0
 62
4
 10
-5.52170513E+01
 20
1.59506699E+02
  0
VERTEX
  8
0
 62
4
 10
-5.51334518E+01
 20
1.59212753E+02
  0
VERTEX
  8
0
 62
4
 10
-5.50218369E+01
 20
1.58926614E+02
  0
VERTEX
  8
0
 62
4
 10
-5.48830673E+01
 20
1.58650488E+02
  0
VERTEX
  8
0
 62
4
 10
-5.47182130E+01
 20
1.58386504E+02
  0
VERTEX
  8
0
 62
4
 10
-5.45285450E+01
 20
1.58136697E+02
  0
VERTEX
  8
0
 62
4
 10
-5.43155258E+01
 20
1.57902993E+02
  0
VERTEX
  8
0
 62
4
 10
-5.40807977E+01
 20
1.57687195E+02
  0
VERTEX
  8
0
 62
4
 10
-5.38261708E+01
 20
1.57490966E+02
  0
VERTEX
  8
0
 62
4
 10
-5.35536081E+01
 20
1.57315819E+02
  0
VERTEX
  8
0
 62
4
 10
-5.32652113E+01
 20
1.57163105E+02
  0
VERTEX
  8
0
 62
4
 10
-5.29632041E+01
 20
1.57034001E+02
  0
VERTEX
  8
0
 62
4
 10
-5.26499150E+01
 20
1.56929502E+02
  0
VERTEX
  8
0
 62
4
 10
-5.23277595E+01
 20
1.56850415E+02
  0
VERTEX
  8
0
 62
4
 10
-5.19992218E+01
 20
1.56797349E+02
  0
VERTEX
  8
0
 62
4
 10
-5.16668348E+01
 20
1.56770713E+02
  0
VERTEX
  8
0
 62
4
 10
-5.13331615E+01
 20
1.56770713E+02
  0
VERTEX
  8
0
 62
4
 10
-5.10007745E+01
 20
1.56797349E+02
  0
VERTEX
  8
0
 62
4
 10
-5.06722367E+01
 20
1.56850415E+02
  0
VERTEX
  8
0
 62
4
 10
-5.03500813E+01
 20
1.56929502E+02
  0
VERTEX
  8
0
 62
4
 10
-5.00367922E+01
 20
1.57034000E+02
  0
VERTEX
  8
0
 62
4
 10
-4.97347849E+01
 20
1.57163104E+02
  0
VERTEX
  8
0
 62
4
 10
-4.94463882E+01
 20
1.57315819E+02
  0
VERTEX
  8
0
 62
4
 10
-4.91738255E+01
 20
1.57490966E+02
  0
VERTEX
  8
0
 62
4
 10
-4.89191985E+01
 20
1.57687195E+02
  0
VERTEX
  8
0
 62
4
 10
-4.86844705E+01
 20
1.57902993E+02
  0
VERTEX
  8
0
 62
4
 10
-4.84714512E+01
 20
1.58136697E+02
  0
VERTEX
  8
0
 62
4
 10
-4.82817832E+01
 20
1.58386504E+02
  0
VERTEX
  8
0
 62
4
 10
-4.81169289E+01
 20
1.58650488E+02
  0
VERTEX
  8
0
 62
4
 10
-4.79781593E+01
 20
1.58926614E+02
  0
VERTEX
  8
0
 62
4
 10
-4.78665445E+01
 20
1.59212753E+02
  0
VERTEX
  8
0
 62
4
 10
-4.77829449E+01
 20
1.59506699E+02
  0
VERTEX
  8
0
 62
4
 10
-4.77280053E+01
 20
1.59806185E+02
  0
VERTEX
  8
0
 62
4
 10
-4.77021491E+01
 20
1.60108902E+02
  0
VERTEX
  8
0
 62
4
 10
-4.77055758E+01
 20
1.60412516E+02
  0
VERTEX
  8
0
 62
4
 10
-4.77382590E+01
 20
1.60714685E+02
  0
VERTEX
  8
0
 62
4
 10
-4.77999466E+01
 20
1.61013081E+02
  0
VERTEX
  8
0
 62
4
 10
-4.78901630E+01
 20
1.61305403E+02
  0
VERTEX
  8
0
 62
4
 10
-4.80082126E+01
 20
1.61589395E+02
  0
VERTEX
  8
0
 62
4
 10
-4.81531852E+01
 20
1.61862870E+02
  0
VERTEX
  8
0
 62
4
 10
-4.83239630E+01
 20
1.62123718E+02
  0
VERTEX
  8
0
 62
4
 10
-4.85192292E+01
 20
1.62369927E+02
  0
VERTEX
  8
0
 62
4
 10
-4.87374784E+01
 20
1.62599601E+02
  0
VERTEX
  8
0
 62
4
 10
-4.89770275E+01
 20
1.62810967E+02
  0
VERTEX
  8
0
 62
4
 10
-4.92360298E+01
 20
1.63002396E+02
  0
SEQEND
  8
0
  0
POLYLINE
  8
0
 62
4
 66
1
  0
VERTEX
  8
0
 62
4
 10
-5.48999981E+01
 20
1.60225232E+02
  0
VERTEX
  8
0
 62
4
 10
-5.48863107E+01
 20
1.59947900E+02
  0
VERTEX
  8
0
 62
4
 10
-5.48453587E+01
 20
1.59672800E+02
  0
VERTEX
  8
0
 62
4
 10
-5.47774719E+01
 20
1.59402149E+02
  0
VERTEX
  8
0
 62
4
 10
-5.46831967E+01
 20
1.59138125E+02
  0
VERTEX
  8
0
 62
4
 10
-5.45632923E+01
 20
1.58882853E+02
  0
VERTEX
  8
0
 62
4
 10
-5.44187240E+01
 20
1.58638389E+02
  0
VERTEX
  8
0
 62
4
 10
-5.42506559E+01
 20
1.58406702E+02
  0
VERTEX
  8
0
 62
4
 10
-5.40604411E+01
 20
1.58189656E+02
  0
VERTEX
  8
0
 62
4
 10
-5.38496111E+01
 20
1.57989000E+02
  0
VERTEX
  8
0
 62
4
 10
-5.36198635E+01
 20
1.57806348E+02
  0
VERTEX
  8
0
 62
4
 10
-5.33730479E+01
 20
1.57643172E+02
  0
VERTEX
  8
0
 62
4
 10
-5.31111516E+01
 20
1.57500785E+02
  0
VERTEX
  8
0
 62
4
 10
-5.28362832E+01
 20
1.57380334E+02
  0
VERTEX
  8
0
 62
4
 10
-5.25506559E+01
 20
1.57282788E+02
  0
VERTEX
  8
0
 62
4
 10
-5.22565693E+01
 20
1.57208933E+02
  0
VERTEX
  8
0
 62
4
 10
-5.19563912E+01
 20
1.57159364E+02
  0
VERTEX
  8
0
 62
4
 10
-5.16525385E+01
 20
1.57134479E+02
  0
VERTEX
  8
0
 62
4
 10
-5.13474577E+01
 20
1.57134479E+02
  0
VERTEX
  8
0
 62
4
 10
-5.10436050E+01
 20
1.57159364E+02
  0
VERTEX
  8
0
 62
4
 10
-5.07434269E+01
 20
1.57208933E+02
  0
VERTEX
  8
0
 62
4
 10
-5.04493403E+01
 20
1.57282788E+02
  0
VERTEX
  8
0
 62
4
 10
-5.01637130E+01
 20
1.57380334E+02
  0
VERTEX
  8
0
 62
4
 10
-4.98888447E+01
 20
1.57500785E+02
  0
VERTEX
  8
0
 62
4
 10
-4.96269484E+01
 20
1.57643172E+02
  0
VERTEX
  8
0
 62
4
 10
-4.93801328E+01
 20
1.57806348E+02
  0
VERTEX
  8
0
 62
4
 10
-4.91503851E+01
 20
1.57989000E+02
  0
VERTEX
  8
0
 62
4
 10
-4.89395551E+01
 20
1.58189656E+02
  0
VERTEX
  8
0
 62
4
 10
-4.87493403E+01
 20
1.58406702E+02
  0
VERTEX
  8
0
 62
4
 10
-4.85812722E+01
 20
1.58638389E+02
  0
VERTEX
  8
0
 62
4
 10
-4.84367039E+01
 20
1.58882853E+02
  0
VERTEX
  8
0
 62
4
 10
-4.83167995E+01
 20
1.59138125E+02
  0
VERTEX
  8
0
 62
4
 10
-4.82225244E+01
 20
1.59402149E+02
  0
VERTEX
  8
0
 62
4
 10
-4.81546375E+01
 20
1.59672800E+02
  0
VERTEX
  8
0
 62
4
 10
-4.81136855E+01
 20
1.59947900E+02
  0
VERTEX
  8
0
 62
4
 10
-4.80999981E+01
 20
1.60225232E+02
  0
SEQEND
  8
0
  0
POLYLINE
  8
0
 62
4
 66
1
  0
VERTEX
  8
0
 62
4
 10
-5.48999981E+01
 20
1.60694169E+02
  0
VERTEX
  8
0
 62
4
 10
-5.48870601E+01
 20
1.60424521E+02
  0
VERTEX
  8
0
 62
4
 10
-5.48483445E+01
 20
1.60156924E+02
  0
VERTEX
  8
0
 62
4
 10
-5.47841459E+01
 20
1.59893417E+02
  0
VERTEX
  8
0
 62
4
 10
-5.46949530E+01
 20
1.59636004E+02
  0
VERTEX
  8
0
 62
4
 10
-5.45814446E+01
 20
1.59386644E+02
  0
VERTEX
  8
0
 62
4
 10
-5.44444845E+01
 20
1.59147235E+02
  0
VERTEX
  8
0
 62
4
 10
-5.42851151E+01
 20
1.58919599E+02
  0
VERTEX
  8
0
 62
4
 10
-5.41045492E+01
 20
1.58705469E+02
  0
VERTEX
  8
0
 62
4
 10
-5.39041612E+01
 20
1.58506474E+02
  0
VERTEX
  8
0
 62
4
 10
-5.36854760E+01
 20
1.58324128E+02
  0
VERTEX
  8
0
 62
4
 10
-5.34501580E+01
 20
1.58159820E+02
  0
VERTEX
  8
0
 62
4
 10
-5.31999981E+01
 20
1.58014800E+02
  0
VERTEX
  8
0
 62
4
 10
-5.29369002E+01
 20
1.57890172E+02
  0
VERTEX
  8
0
 62
4
 10
-5.26628666E+01
 20
1.57786884E+02
  0
VERTEX
  8
0
 62
4
 10
-5.23799829E+01
 20
1.57705722E+02
  0
VERTEX
  8
0
 62
4
 10
-5.20904019E+01
 20
1.57647303E+02
  0
VERTEX
  8
0
 62
4
 10
-5.17963276E+01
 20
1.57612074E+02
  0
VERTEX
  8
0
 62
4
 10
-5.14999981E+01
 20
1.57600301E+02
  0
VERTEX
  8
0
 62
4
 10
-5.12036686E+01
 20
1.57612074E+02
  0
VERTEX
  8
0
 62
4
 10
-5.09095943E+01
 20
1.57647303E+02
  0
VERTEX
  8
0
 62
4
 10
-5.06200133E+01
 20
1.57705722E+02
  0
VERTEX
  8
0
 62
4
 10
-5.03371296E+01
 20
1.57786884E+02
  0
VERTEX
  8
0
 62
4
 10
-5.00630960E+01
 20
1.57890172E+02
  0
VERTEX
  8
0
 62
4
 10
-4.97999981E+01
 20
1.58014800E+02
  0
VERTEX
  8
0
 62
4
 10
-4.95498382E+01
 20
1.58159820E+02
  0
VERTEX
  8
0
 62
4
 10
-4.93145202E+01
 20
1.58324128E+02
  0
VERTEX
  8
0
 62
4
 10
-4.90958350E+01
 20
1.58506474E+02
  0
VERTEX
  8
0
 62
4
 10
-4.88954470E+01
 20
1.58705469E+02
  0
VERTEX
  8
0
 62
4
 10
-4.87148811E+01
 20
1.58919599E+02
  0
VERTEX
  8
0
 62
4
 10
-4.85555117E+01
 20
1.59147235E+02
  0
VERTEX
  8
0
 62
4
 10
-4.84185516E+01
 20
1.59386644E+02
  0
VERTEX
  8
0
 62
4
 10
-4.83050432E+01
 20
1.59636004E+02
  0
VERTEX
  8
0
 62
4
 10
-4.82158503E+01
 20
1.59893417E+02
  0
VERTEX
  8
0
 62
4
 10
-4.81516517E+01
 20
1.60156924E+02
  0
VERTEX
  8
0
 62
4
 10
-4.81129361E+01
 20
1.60424521E+02
  0
VERTEX
  8
0
 62
4
 10
-4.80999981E+01
 20
1.60694169E+02
  0
VERTEX
  8
0
 62
4
 10
-4.81129361E+01
 20
1.60963817E+02
  0
VERTEX
  8
0
 62
4
 10
-4.81516517E+01
 20
1.61231414E+02
  0
VERTEX
  8
0
 62
4
 10
-4.82158503E+01
 20
1.61494921E+02
  0
VERTEX
  8
0
 62
4
 10
-4.83050432E+01
 20
1.61752334E+02
  0
VERTEX
  8
0
 62
4
 10
-4.84185516E+01
 20
1.62001694E+02
  0
VERTEX
  8
0
 62
4
 10
-4.85555117E+01
 20
1.62241103E+02
  0
VERTEX
  8
0
 62
4
 10
-4.87148811E+01
 20
1.62468739E+02
  0
VERTEX
  8
0
 62
4
 10
-4.88954470E+01
 20
1.62682869E+02
  0
VERTEX
  8
0
 62
4
 10
-4.90958350E+01
 20
1.62881864E+02
  0
VERTEX
  8
0
 62
4
 10
-4.93145202E+01
 20
1.63064210E+02
  0
VERTEX
  8
0
 62
4
 10
-4.95498382E+01
 20
1.63228518E+02
  0
VERTEX
  8
0
 62
4
 10
-4.97999981E+01
 20
1.63373538E+02
  0
VERTEX
  8
0
 62
4
 10
-5.00630960E+01
 20
1.63498166E+02
  0
VERTEX
  8
0
 62
4
 10
-5.03371296E+01
 20
1.63601454E+02
  0
VERTEX
  8
0
 62
4
 10
-5.06200133E+01
 20
1.63682616E+02
  0
VERTEX
  8
0
 62
4
 10
-5.09095943E+01
 20
1.63741035E+02
  0
VERTEX
  8
0
 62
4
 10
-5.12036686E+01
 20
1.63776264E+02
  0
VERTEX
  8
0
 62
4
 10
-5.14999981E+01
 20
1.63788037E+02
  0
VERTEX
  8
0
 62
4
 10
-5.17963276E+01
 20
1.63776264E+02
  0
VERTEX
  8
0
 62
4
 10
-5.20904019E+01
 20
1.63741035E+02
  0
VERTEX
  8
0
 62
4
 10
-5.23799829E+01
 20
1.63682616E+02
  0
VERTEX
  8
0
 62
4
 10
-5.26628666E+01
 20
1.63601454E+02
  0
VERTEX
  8
0
 62
4
 10
-5.29369002E+01
 20
1.63498166E+02
  0
VERTEX
  8
0
 62
4
 10
-5.31999981E+01
 20
1.63373538E+02
  0
VERTEX
  8
0
 62
4
 10
-5.34501580E+01
 20
1.63228518E+02
  0
VERTEX
  8
0
 62
4
 10
-5.36854760E+01
 20
1.63064210E+02
  0
VERTEX
  8
0
 62
4
 10
-5.39041612E+01
 20
1.62881864E+02
  0
VERTEX
  8
0
 62
4
 10
-5.41045492E+01
 20
1.62682869E+02
  0
VERTEX
  8
0
 62
4
 10
-5.42851151E+01
 20
1.62468739E+02
  0
VERTEX
  8
0
 62
4
 10
-5.44444845E+01
 20
1.62241103E+02
  0
VERTEX
  8
0
 62
4
 10
-5.45814446E+01
 20
1.62001694E+02
  0
VERTEX
  8
0
 62
4
 10
-5.46949530E+01
 20
1.61752334E+02
  0
VERTEX
  8
0
 62
4
 10
-5.47841459E+01
 20
1.61494921E+02
  0
VERTEX
  8
0
 62
4
 10
-5.48483445E+01
 20
1.61231414E+02
  0
VERTEX
  8
0
 62
4
 10
-5.48870601E+01
 20
1.60963817E+02
  0
VERTEX
  8
0
 62
4
 10
-5.48999981E+01
 20
1.60694169E+02
  0
SEQEND
  8
0
  0
POLYLINE
  8
0
 62
4
 66
1
  0
VERTEX
  8
0
 62
4
 10
-5.49622041E+01
 20
1.58385315E+02
  0
VERTEX
  8
0
 62
4
 10
-5.48118311E+01
 20
1.58115039E+02
  0
VERTEX
  8
0
 62
4
 10
-5.46360385E+01
 20
1.57857776E+02
  0
VERTEX
  8
0
 62
4
 10
-5.44361756E+01
 20
1.57615502E+02
  0
VERTEX
  8
0
 62
4
 10
-5.42137763E+01
 20
1.57390075E+02
  0
VERTEX
  8
0
 62
4
 10
-5.39705478E+01
 20
1.57183226E+02
  0
VERTEX
  8
0
 62
4
 10
-5.37083568E+01
 20
1.56996543E+02
  0
VERTEX
  8
0
 62
4
 10
-5.34292158E+01
 20
1.56831459E+02
  0
VERTEX
  8
0
 62
4
 10
-5.31352673E+01
 20
1.56689240E+02
  0
VERTEX
  8
0
 62
4
 10
-5.28287674E+01
 20
1.56570978E+02
  0
VERTEX
  8
0
 62
4
 10
-5.25120688E+01
 20
1.56477581E+02
  0
VERTEX
  8
0
 62
4
 10
-5.21876021E+01
 20
1.56409766E+02
  0
VERTEX
  8
0
 62
4
 10
-5.18578577E+01
 20
1.56368054E+02
  0
VERTEX
  8
0
 62
4
 10
-5.15253667E+01
 20
1.56352763E+02
  0
VERTEX
  8
0
 62
4
 10
-5.11926809E+01
 20
1.56364013E+02
  0
VERTEX
  8
0
 62
4
 10
-5.08623539E+01
 20
1.56401716E+02
  0
VERTEX
  8
0
 62
4
 10
-5.05369211E+01
 20
1.56465582E+02
  0
VERTEX
  8
0
 62
4
 10
-5.02188803E+01
 20
1.56555123E+02
  0
VERTEX
  8
0
 62
4
 10
-4.99106726E+01
 20
1.56669651E+02
  0
VERTEX
  8
0
 62
4
 10
-4.96146635E+01
 20
1.56808285E+02
  0
VERTEX
  8
0
 62
4
 10
-4.93331252E+01
 20
1.56969964E+02
  0
VERTEX
  8
0
 62
4
 10
-4.90682184E+01
 20
1.57153445E+02
  0
VERTEX
  8
0
 62
4
 10
-4.88219765E+01
 20
1.57357320E+02
  0
VERTEX
  8
0
 62
4
 10
-4.85962894E+01
 20
1.57580024E+02
  0
VERTEX
  8
0
 62
4
 10
-4.83928895E+01
 20
1.57819849E+02
  0
VERTEX
  8
0
 62
4
 10
-4.82133378E+01
 20
1.58074953E+02
  0
VERTEX
  8
0
 62
4
 10
-4.80590125E+01
 20
1.58343378E+02
  0
VERTEX
  8
0
 62
4
 10
-4.79310982E+01
 20
1.58623064E+02
  0
VERTEX
  8
0
 62
4
 10
-4.78305765E+01
 20
1.58911865E+02
  0
VERTEX
  8
0
 62
4
 10
-4.77582191E+01
 20
1.59207563E+02
  0
VERTEX
  8
0
 62
4
 10
-4.77145813E+01
 20
1.59507890E+02
  0
VERTEX
  8
0
 62
4
 10
-4.76999981E+01
 20
1.59810539E+02
  0
SEQEND
  8
0
  0
ARC
  8
0
 62
4
 10
-9.85808403E+01
 20
1.09426173E+02
 40
6.99948777E+01
 50
4.57421700E+01
 51
4.96558689E+01
  0
ARC
  8
0
 62
4
 10
-4.41915585E+00
 20
1.09426173E+02
 40
6.99948777E+01
 50
1.30344131E+02
 51
1.34257830E+02
  0
LINE
  8
0
 62
4
 10
-4.80999981E+01
 20
1.60225232E+02
 11
-4.80999981E+01
 21
1.60694169E+02
  0
LINE
  8
0
 62
4
 10
-4.76999981E+01
 20
1.59810539E+02
 11
-4.76999981E+01
 21
1.60225232E+02
  0
LINE
  8
0
 62
4
 10
-5.48999981E+01
 20
1.60225232E+02
 11
-5.48999981E+01
 21
1.60694169E+02
  0
LINE
  8
0
 62
4
 10
-5.52999981E+01
 20
1.59810539E+02
 11
-5.52999981E+01
 21
1.60225232E+02
  0
POLYLINE
  8
0
 62
4
 66
1
  0
VERTEX
  8
0
 62
4
 10
-5.52999981E+01
 20
1.59810539E+02
  0
VERTEX
  8
0
 62
4
 10
-5.52940094E+01
 20
1.59616483E+02
  0
VERTEX
  8
0
 62
4
 10
-5.52760620E+01
 20
1.59423039E+02
  0
VERTEX
  8
0
 62
4
 10
-5.52462125E+01
 20
1.59230816E+02
  0
VERTEX
  8
0
 62
4
 10
-5.52045551E+01
 20
1.59040421E+02
  0
SEQEND
  8
0
  0
ARC
  8
0
 62
4
 10
-9.67816884E+01
 20
1.16254885E+02
 40
5.61787639E+01
 50
4.52517517E+01
 51
5.01291401E+01
  0
ARC
  8
0
 62
4
 10
-2.12182435E+01
 20
1.16254814E+02
 40
5.61788594E+01
 50
1.29870864E+02
 51
1.34748244E+02
  0
LINE
  8
0
 62
4
 10
-5.48499981E+01
 20
1.56783258E+02
 11
-5.48499981E+01
 21
1.57513118E+02
  0
POLYLINE
  8
0
 62
4
 66
1
  0
VERTEX
  8
0
 62
4
 10
-6.31499981E+01
 20
1.56783258E+02
  0
VERTEX
  8
0
 62
4
 10
-6.31324200E+01
 20
1.56436052E+02
  0
VERTEX
  8
0
 62
4
 10
-6.30798348E+01
 20
1.56091788E+02
  0
VERTEX
  8
0
 62
4
 10
-6.29926878E+01
 20
1.55753381E+02
  0
VERTEX
  8
0
 62
4
 10
-6.28717173E+01
 20
1.55423698E+02
  0
VERTEX
  8
0
 62
4
 10
-6.27179481E+01
 20
1.55105533E+02
  0
VERTEX
  8
0
 62
4
 10
-6.25326829E+01
 20
1.54801581E+02
  0
VERTEX
  8
0
 62
4
 10
-6.23174910E+01
 20
1.54514416E+02
  0
VERTEX
  8
0
 62
4
 10
-6.20741955E+01
 20
1.54246471E+02
  0
VERTEX
  8
0
 62
4
 10
-6.18048574E+01
 20
1.54000016E+02
  0
SEQEND
  8
0
  0
LINE
  8
0
 62
4
 10
-6.31499981E+01
 20
1.56783258E+02
 11
-6.31499981E+01
 21
1.57513118E+02
  0
LINE
  8
0
 62
4
 10
-7.39999981E+01
 20
1.54441767E+02
 11
-6.22559565E+01
 21
1.54441767E+02
  0
LINE
  8
0
 62
4
 10
-5.57440396E+01
 20
1.54441767E+02
 11
-4.39999981E+01
 21
1.54441767E+02
  0
LINE
  8
0
 62
4
 10
-5.61138254E+01
 20
1.54069725E+02
 11
-5.04999981E+01
 21
1.54069725E+02
  0
LINE
  8
0
 62
4
 10
1.50000210E+01
 20
1.54069725E+02
 11
1.65000210E+01
 21
1.52917276E+02
  0
LINE
  8
0
 62
4
 10
1.65000210E+01
 20
1.50856214E+02
 11
1.50000210E+01
 21
1.50429880E+02
  0
LINE
  8
0
 62
4
 10
1.65000210E+01
 20
1.49916934E+02
 11
1.50000210E+01
 21
1.48771107E+02
  0
LINE
  8
0
 62
4
 10
1.65000210E+01
 20
1.52917276E+02
 11
1.65000210E+01
 21
1.49916934E+02
  0
LINE
  8
0
 62
7
 10
1.50907540E+01
 20
1.54000015E+02
 11
2.30000210E+01
 21
1.54000015E+02
  0
LINE
  8
0
 62
7
 10
-1.49999790E+01
 20
1.47000031E+02
 11
-8.79999981E+01
 21
1.47000031E+02
  0
LINE
  8
0
 62
7
 10
-1.49999790E+01
 20
1.38000015E+02
 11
-8.79999981E+01
 21
1.38000015E+02
  0
LINE
  8
0
 62
7
 10
-3.08599928E+02
 20
1.51500000E+02
 11
-3.08599928E+02
 21
4.94999657E+01
  0
LINE
  8
0
 62
7
 10
-4.14999922E+02
 20
4.51000061E+01
 11
-3.12999952E+02
 21
4.51000061E+01
  0
LINE
  8
0
 62
7
 10
-3.11599928E+02
 20
1.25516159E+02
 11
-3.11599928E+02
 21
7.54840393E+01
  0
LINE
  8
0
 62
7
 10
-3.12599928E+02
 20
1.01750000E+02
 11
-3.38097425E+02
 21
1.01750000E+02
  0
LINE
  8
0
 62
7
 10
-3.44800158E+02
 20
8.30681039E+01
 11
-3.29810501E+02
 21
6.80784435E+01
  0
LINE
  8
0
 62
7
 10
-3.46568076E+02
 20
8.13002724E+01
 11
-3.31578419E+02
 21
6.63106120E+01
  0
LINE
  8
0
 62
7
 10
-3.12599928E+02
 20
9.92500000E+01
 11
-3.38097425E+02
 21
9.92500000E+01
  0
LINE
  8
0
 62
7
 10
-3.81432087E+02
 20
8.13003502E+01
 11
-3.96421757E+02
 21
6.63106815E+01
  0
LINE
  8
0
 62
7
 10
-3.83199811E+02
 20
8.30681604E+01
 11
-3.98189492E+02
 21
6.80784809E+01
  0
LINE
  8
0
 62
7
 10
-3.89015882E+02
 20
4.81000099E+01
 11
-3.38983747E+02
 21
4.81000099E+01
  0
LINE
  8
0
 62
7
 10
-3.65249983E+02
 20
4.90999680E+01
 11
-3.65249983E+02
 21
7.45974579E+01
  0
LINE
  8
0
 62
7
 10
-4.15399977E+02
 20
9.92500000E+01
 11
-3.89902479E+02
 21
9.92500000E+01
  0
LINE
  8
0
 62
7
 10
-3.07999952E+02
 20
1.51500000E+02
 11
-3.07999952E+02
 21
4.95000038E+01
  0
LINE
  8
0
  6
CENTER
 62
2
 10
-3.21999952E+02
 20
1.59392731E+02
 11
-3.21999952E+02
 21
1.27642197E+02
  0
LINE
  8
0
 62
7
 10
-4.14999922E+02
 20
4.45000038E+01
 11
-3.12999952E+02
 21
4.45000038E+01
  0
LINE
  8
0
  6
CENTER
 62
2
 10
-4.05999952E+02
 20
4.28217163E+01
 11
-4.05999952E+02
 21
7.28636475E+01
  0
LINE
  8
0
  6
CENTER
 62
2
 10
-4.22068525E+02
 20
5.84999924E+01
 11
-3.90503767E+02
 21
5.84999924E+01
  0
LINE
  8
0
 62
7
 10
-3.62749983E+02
 20
4.90999680E+01
 11
-3.62749983E+02
 21
7.45974579E+01
  0
LINE
  8
0
 62
7
 10
-3.62749983E+02
 20
1.51900009E+02
 11
-3.62749983E+02
 21
1.26402573E+02
  0
LINE
  8
0
 62
7
 10
-3.46568050E+02
 20
1.19699874E+02
 11
-3.31578388E+02
 21
1.34689529E+02
  0
LINE
  8
0
 62
7
 10
-3.44800272E+02
 20
1.17932117E+02
 11
-3.29810600E+02
 21
1.32921783E+02
  0
LINE
  8
0
 62
7
 10
-3.28999983E+02
 20
1.56500000E+02
 11
-3.28999983E+02
 21
1.55900024E+02
  0
LINE
  8
0
 62
7
 10
-3.98999983E+02
 20
4.51000061E+01
 11
-3.98999983E+02
 21
4.45000038E+01
  0
LINE
  8
0
 62
7
 10
-3.28999983E+02
 20
4.51000061E+01
 11
-3.28999983E+02
 21
4.45000038E+01
  0
LINE
  8
0
 62
7
 10
-4.14999922E+02
 20
1.55900024E+02
 11
-3.12999952E+02
 21
1.55900024E+02
  0
LINE
  8
0
 62
7
 10
-4.19399946E+02
 20
1.51500015E+02
 11
-4.19399946E+02
 21
4.95000038E+01
  0
LINE
  8
0
 62
7
 10
-3.83199766E+02
 20
1.17932032E+02
 11
-3.98189425E+02
 21
1.32921690E+02
  0
LINE
  8
0
 62
7
 10
-3.81431978E+02
 20
1.19699734E+02
 11
-3.96421637E+02
 21
1.34689392E+02
  0
LINE
  8
0
 62
7
 10
-3.89016096E+02
 20
1.52900009E+02
 11
-3.38983961E+02
 21
1.52900009E+02
  0
LINE
  8
0
 62
7
 10
-4.16399977E+02
 20
1.25515961E+02
 11
-4.16399977E+02
 21
7.56844635E+01
  0
LINE
  8
0
 62
7
 10
-4.15399977E+02
 20
1.01750000E+02
 11
-3.89902479E+02
 21
1.01750000E+02
  0
LINE
  8
0
 62
7
 10
-3.65249983E+02
 20
1.51900009E+02
 11
-3.65249983E+02
 21
1.26402512E+02
  0
LINE
  8
0
 62
7
 10
-4.14999922E+02
 20
1.56500000E+02
 11
-3.12999952E+02
 21
1.56500000E+02
  0
LINE
  8
0
 62
7
 10
-4.19999922E+02
 20
1.51500000E+02
 11
-4.19999922E+02
 21
4.95000038E+01
  0
LINE
  8
0
  6
CENTER
 62
2
 10
-4.21963850E+02
 20
1.42500000E+02
 11
-3.90108931E+02
 21
1.42500000E+02
  0
LINE
  8
0
  6
CENTER
 62
2
 10
-4.05999952E+02
 20
1.58980774E+02
 11
-4.05999952E+02
 21
1.28073807E+02
  0
LINE
  8
0
 62
7
 10
-3.98999983E+02
 20
1.56500000E+02
 11
-3.98999983E+02
 21
1.55900024E+02
  0
LINE
  8
0
  6
CENTER
 62
2
 10
-3.63999983E+02
 20
1.59166321E+02
 11
-3.63999983E+02
 21
4.30072632E+01
  0
LINE
  8
0
  6
CENTER
 62
2
 10
-3.36806166E+02
 20
5.84999924E+01
 11
-3.05624281E+02
 21
5.84999924E+01
  0
LINE
  8
0
  6
CENTER
 62
2
 10
-3.36806166E+02
 20
1.42500000E+02
 11
-3.05716749E+02
 21
1.42500000E+02
  0
LINE
  8
0
  6
CENTER
 62
2
 10
-3.21999952E+02
 20
4.29277000E+01
 11
-3.21999952E+02
 21
7.34962006E+01
  0
LINE
  8
0
  6
CENTER
 62
2
 10
-3.06138990E+02
 20
1.00500000E+02
 11
-4.21904951E+02
 21
1.00500000E+02
  0
LINE
  8
0
  6
CENTER
 62
2
 10
-3.75999952E+02
 20
1.43800003E+02
 11
-3.75999952E+02
 21
1.58763611E+02
  0
CIRCLE
  8
0
 62
7
 10
-3.21999952E+02
 20
1.42500000E+02
 40
8.00000000E+00
  0
CIRCLE
  8
0
 62
7
 10
-3.21999952E+02
 20
1.42500000E+02
 40
8.69999981E+00
  0
CIRCLE
  8
0
 62
7
 10
-3.21999952E+02
 20
5.84999924E+01
 40
8.00000000E+00
  0
CIRCLE
  8
0
 62
7
 10
-3.21999952E+02
 20
5.84999924E+01
 40
8.69999981E+00
  0
CIRCLE
  8
0
 62
7
 10
-4.05999952E+02
 20
5.84999695E+01
 40
8.00000000E+00
  0
CIRCLE
  8
0
 62
7
 10
-4.05999952E+02
 20
5.84999695E+01
 40
8.69999981E+00
  0
ARC
  8
0
 62
7
 10
-3.29103437E+02
 20
1.32214539E+02
 40
1.00000000E+00
 50
5.53696252E+01
 51
1.34999959E+02
  0
ARC
  8
0
 62
7
 10
-3.32285383E+02
 20
1.35396561E+02
 40
1.00000000E+00
 50
3.14999995E+02
 51
3.46303842E+01
  0
ARC
  8
0
 62
7
 10
-3.44093092E+02
 20
1.17224892E+02
 40
1.00000000E+00
 50
1.34999959E+02
 51
2.20035227E+02
  0
ARC
  8
0
 62
7
 10
-3.47275129E+02
 20
1.20406906E+02
 40
1.00000000E+00
 50
2.29964427E+02
 51
3.14999988E+02
  0
ARC
  8
0
 62
7
 10
-3.61749922E+02
 20
1.51900009E+02
 40
1.00000000E+00
 50
8.99999818E+01
 51
1.79999964E+02
  0
ARC
  8
0
 62
7
 10
-3.61749922E+02
 20
1.26402573E+02
 40
1.00000000E+00
 50
1.79999964E+02
 51
2.65035792E+02
  0
ARC
  8
0
 62
7
 10
-3.38097425E+02
 20
1.02749992E+02
 40
1.00000000E+00
 50
1.84964149E+02
 51
2.69999956E+02
  0
ARC
  8
0
 62
7
 10
-3.12599928E+02
 20
1.02749992E+02
 40
1.00000000E+00
 50
2.69999963E+02
 51
0.00000000E+00
  0
ARC
  8
0
 62
7
 10
-3.32285383E+02
 20
6.56034927E+01
 40
1.00000000E+00
 50
3.25369629E+02
 51
4.49999637E+01
  0
ARC
  8
0
 62
7
 10
-3.29103437E+02
 20
6.87854614E+01
 40
1.00000000E+00
 50
2.25000000E+02
 51
3.04630388E+02
  0
ARC
  8
0
 62
7
 10
-3.47275007E+02
 20
8.05931168E+01
 40
1.00000000E+00
 50
4.49999637E+01
 51
1.30035231E+02
  0
ARC
  8
0
 62
7
 10
-3.44093061E+02
 20
8.37751465E+01
 40
1.00000000E+00
 50
1.39964428E+02
 51
2.24999982E+02
  0
ARC
  8
0
 62
7
 10
-3.12599928E+02
 20
9.82500000E+01
 40
1.00000000E+00
 50
3.59999986E+02
 51
8.99999681E+01
  0
ARC
  8
0
 62
7
 10
-3.38097425E+02
 20
9.82500000E+01
 40
1.00000000E+00
 50
8.99999681E+01
 51
1.75035796E+02
  0
ARC
  8
0
 62
7
 10
-3.61749922E+02
 20
7.45974579E+01
 40
1.00000000E+00
 50
9.49641432E+01
 51
1.79999951E+02
  0
ARC
  8
0
 62
7
 10
-3.61749922E+02
 20
4.90999947E+01
 40
1.00000000E+00
 50
1.79999951E+02
 51
2.70000001E+02
  0
ARC
  8
0
 62
7
 10
-3.98896406E+02
 20
6.87854462E+01
 40
1.00000000E+00
 50
2.35369648E+02
 51
3.14999968E+02
  0
ARC
  8
0
 62
7
 10
-3.95714460E+02
 20
6.56034164E+01
 40
1.00000000E+00
 50
1.34999987E+02
 51
2.14630376E+02
  0
ARC
  8
0
 62
7
 10
-3.83906782E+02
 20
8.37750854E+01
 40
1.00000000E+00
 50
3.14999968E+02
 51
4.00352358E+01
  0
ARC
  8
0
 62
7
 10
-3.80724836E+02
 20
8.05930939E+01
 40
1.00000000E+00
 50
4.99644184E+01
 51
1.34999987E+02
  0
ARC
  8
0
 62
7
 10
-3.66249922E+02
 20
4.90999947E+01
 40
1.00000000E+00
 50
2.69999991E+02
 51
3.59999973E+02
  0
ARC
  8
0
 62
7
 10
-3.66249922E+02
 20
7.45974579E+01
 40
1.00000000E+00
 50
3.59999973E+02
 51
8.50358005E+01
  0
ARC
  8
0
 62
7
 10
-3.89902479E+02
 20
9.82500000E+01
 40
1.00000000E+00
 50
4.96415417E+00
 51
8.99999549E+01
  0
ARC
  8
0
 62
7
 10
-4.15399977E+02
 20
9.82500000E+01
 40
1.00000000E+00
 50
8.99999549E+01
 51
1.79999991E+02
  0
ARC
  8
0
 62
7
 10
-3.12999952E+02
 20
1.51500000E+02
 40
4.40000010E+00
 50
0.00000000E+00
 51
8.99999818E+01
  0
ARC
  8
0
 62
7
 10
-3.21999952E+02
 20
5.84999924E+01
 40
1.15000000E+01
 50
7.13249336E+01
 51
1.98674411E+02
  0
ARC
  8
0
 62
7
 10
-4.05999952E+02
 20
5.84999924E+01
 40
1.15000000E+01
 50
3.41325006E+02
 51
1.07701394E+02
  0
ARC
  8
0
 62
7
 10
-4.14999922E+02
 20
4.95000038E+01
 40
4.40000010E+00
 50
1.79999964E+02
 51
2.69999946E+02
  0
ARC
  8
0
 62
7
 10
-3.12999952E+02
 20
4.94999657E+01
 40
4.40000010E+00
 50
2.69999963E+02
 51
0.00000000E+00
  0
ARC
  8
0
 62
7
 10
-3.12999952E+02
 20
1.51500000E+02
 40
5.00000000E+00
 50
0.00000000E+00
 51
8.99999818E+01
  0
ARC
  8
0
 62
7
 10
-4.14999922E+02
 20
4.95000038E+01
 40
5.00000000E+00
 50
1.79999964E+02
 51
2.69999946E+02
  0
ARC
  8
0
 62
7
 10
-3.12999952E+02
 20
4.95000038E+01
 40
5.00000000E+00
 50
2.69999963E+02
 51
0.00000000E+00
  0
ARC
  8
0
 62
7
 10
-3.12599928E+02
 20
1.25516159E+02
 40
1.00000000E+00
 50
0.00000000E+00
 51
9.45895548E+01
  0
ARC
  8
0
 62
7
 10
-3.38983961E+02
 20
1.51900009E+02
 40
1.00000000E+00
 50
3.55412204E+02
 51
8.99999818E+01
  0
ARC
  8
0
 62
7
 10
-4.14999830E+02
 20
7.04998627E+01
 40
4.19999981E+00
 50
3.58989755E+02
 51
9.44131721E+01
  0
ARC
  8
0
 62
7
 10
-3.93999861E+02
 20
4.95000038E+01
 40
4.00000000E+00
 50
3.55411551E+02
 51
9.18126662E+01
  0
ARC
  8
0
 62
7
 10
-3.33999830E+02
 20
4.95001183E+01
 40
4.00000000E+00
 50
8.81895309E+01
 51
1.84590151E+02
  0
ARC
  8
0
 62
7
 10
-3.12999952E+02
 20
7.05000610E+01
 40
4.00000000E+00
 50
8.54113313E+01
 51
1.81813065E+02
  0
ARC
  8
0
 62
7
 10
-4.15399977E+02
 20
7.56844635E+01
 40
1.00000000E+00
 50
1.79999977E+02
 51
2.74414133E+02
  0
ARC
  8
0
 62
7
 10
-3.89015852E+02
 20
4.91000061E+01
 40
1.00000000E+00
 50
1.75411348E+02
 51
2.70000001E+02
  0
ARC
  8
0
 62
7
 10
-3.38983809E+02
 20
4.90999680E+01
 40
1.00000000E+00
 50
2.70000018E+02
 51
4.59054965E+00
  0
ARC
  8
0
 62
7
 10
-3.12599928E+02
 20
7.54840393E+01
 40
1.00000000E+00
 50
2.65412187E+02
 51
0.00000000E+00
  0
ARC
  8
0
 62
7
 10
-3.33841780E+02
 20
1.46502518E+02
 40
1.00000000E+00
 50
3.41324803E+02
 51
9.18135474E+01
  0
ARC
  8
0
 62
7
 10
-3.17997572E+02
 20
1.30658096E+02
 40
1.00000000E+00
 50
3.58189936E+02
 51
1.08674388E+02
  0
ARC
  8
0
 62
7
 10
-4.09800611E+02
 20
7.04081802E+01
 40
1.00000000E+00
 50
1.78989315E+02
 51
2.87700627E+02
  0
ARC
  8
0
 62
7
 10
-3.94158064E+02
 20
5.44974976E+01
 40
1.00000000E+00
 50
1.61324820E+02
 51
2.71813498E+02
  0
ARC
  8
0
 62
7
 10
-3.33841902E+02
 20
5.44976120E+01
 40
1.00000000E+00
 50
2.68189943E+02
 51
1.86743690E+01
  0
ARC
  8
0
 62
7
 10
-3.17997480E+02
 20
7.03418579E+01
 40
1.00000000E+00
 50
2.51325332E+02
 51
1.81263018E+00
  0
ARC
  8
0
 62
7
 10
-3.21999952E+02
 20
1.42500000E+02
 40
1.15000000E+01
 50
1.61325025E+02
 51
2.88674421E+02
  0
ARC
  8
0
 62
7
 10
-3.34000013E+02
 20
1.51500000E+02
 40
4.00000000E+00
 50
1.75411348E+02
 51
2.71812624E+02
  0
ARC
  8
0
 62
7
 10
-3.13000074E+02
 20
1.30500107E+02
 40
4.00000000E+00
 50
1.78189554E+02
 51
2.74590407E+02
  0
CIRCLE
  8
0
 62
7
 10
-4.05999952E+02
 20
1.42499985E+02
 40
8.00000000E+00
  0
CIRCLE
  8
0
 62
7
 10
-4.05999952E+02
 20
1.42499985E+02
 40
8.69999981E+00
  0
ARC
  8
0
 62
7
 10
-3.95714460E+02
 20
1.35396500E+02
 40
1.00000000E+00
 50
1.45369634E+02
 51
2.24999955E+02
  0
ARC
  8
0
 62
7
 10
-3.98896528E+02
 20
1.32214508E+02
 40
1.00000000E+00
 50
4.49999910E+01
 51
1.24630380E+02
  0
ARC
  8
0
 62
7
 10
-4.15399977E+02
 20
1.02749969E+02
 40
1.00000000E+00
 50
1.79999964E+02
 51
2.69999946E+02
  0
ARC
  8
0
 62
7
 10
-3.66249922E+02
 20
1.51900009E+02
 40
1.00000000E+00
 50
3.59999959E+02
 51
8.99999956E+01
  0
ARC
  8
0
 62
7
 10
-3.89902479E+02
 20
1.02749992E+02
 40
1.00000000E+00
 50
2.69999963E+02
 51
3.55035805E+02
  0
ARC
  8
0
 62
7
 10
-3.83906904E+02
 20
1.17224861E+02
 40
1.00000000E+00
 50
3.19964423E+02
 51
4.49999910E+01
  0
ARC
  8
0
 62
7
 10
-3.80724836E+02
 20
1.20406876E+02
 40
1.00000000E+00
 50
2.24999972E+02
 51
3.10035254E+02
  0
ARC
  8
0
 62
7
 10
-3.66249922E+02
 20
1.26402512E+02
 40
1.00000000E+00
 50
2.74964145E+02
 51
3.59999959E+02
  0
ARC
  8
0
 62
7
 10
-4.05999952E+02
 20
1.42500000E+02
 40
1.15000000E+01
 50
2.51324914E+02
 51
1.86744424E+01
  0
ARC
  8
0
 62
7
 10
-4.14999922E+02
 20
1.51500015E+02
 40
4.40000010E+00
 50
8.99999818E+01
 51
1.79999964E+02
  0
ARC
  8
0
 62
7
 10
-4.14999922E+02
 20
1.51500000E+02
 40
5.00000000E+00
 50
8.99999818E+01
 51
1.79999964E+02
  0
ARC
  8
0
 62
7
 10
-4.14999922E+02
 20
1.30499939E+02
 40
4.00000000E+00
 50
2.65411312E+02
 51
1.81309463E+00
  0
ARC
  8
0
 62
7
 10
-3.94000074E+02
 20
1.51499863E+02
 40
4.00000000E+00
 50
2.68189512E+02
 51
4.59040963E+00
  0
ARC
  8
0
 62
7
 10
-4.15399977E+02
 20
1.25515961E+02
 40
1.00000000E+00
 50
8.54104639E+01
 51
1.79999964E+02
  0
ARC
  8
0
 62
7
 10
-3.89016157E+02
 20
1.51900024E+02
 40
1.00000000E+00
 50
8.99999818E+01
 51
1.84589646E+02
  0
ARC
  8
0
 62
7
 10
-4.10002424E+02
 20
1.30658142E+02
 40
1.00000000E+00
 50
7.13253501E+01
 51
1.81812600E+02
  0
ARC
  8
0
 62
7
 10
-3.94158064E+02
 20
1.46502380E+02
 40
1.00000000E+00
 50
8.81899612E+01
 51
1.98674330E+02
  0
CIRCLE
  8
0
 62
7
 10
-3.63999861E+02
 20
1.00500061E+02
 40
2.50000153E+01
  0
CIRCLE
  8
0
 62
7
 10
-3.63999861E+02
 20
1.00500061E+02
 40
2.35000153E+01
  0
CIRCLE
  8
0
 62
7
 10
-3.63999983E+02
 20
1.00500000E+02
 40
2.40000000E+01
  0
CIRCLE
  8
0
 62
2
 10
-4.05999952E+02
 20
5.84999924E+01
 40
5.00000000E+00
  0
CIRCLE
  8
0
 62
2
 10
-4.05999952E+02
 20
1.42500000E+02
 40
5.00000000E+00
  0
CIRCLE
  8
0
 62
2
 10
-3.21999952E+02
 20
1.42500000E+02
 40
5.00000000E+00
  0
CIRCLE
  8
0
 62
2
 10
-3.21999952E+02
 20
5.84999924E+01
 40
5.00000000E+00
  0
CIRCLE
  8
0
 62
7
 10
-4.05999952E+02
 20
5.84999924E+01
 40
4.17999983E+00
  0
CIRCLE
  8
0
 62
7
 10
-4.05999952E+02
 20
1.42500000E+02
 40
4.17999983E+00
  0
CIRCLE
  8
0
 62
7
 10
-3.21999952E+02
 20
1.42500000E+02
 40
4.17999983E+00
  0
CIRCLE
  8
0
 62
7
 10
-3.21999952E+02
 20
5.84999924E+01
 40
4.17999983E+00
  0
CIRCLE
  8
0
 62
7
 10
-3.63999983E+02
 20
1.00500000E+02
 40
1.29999914E+01
  0
CIRCLE
  8
0
 62
2
 10
-3.63999983E+02
 20
1.00500000E+02
 40
1.21799841E+01
  0
CIRCLE
  8
0
 62
7
 10
-3.63999983E+02
 20
1.00500000E+02
 40
1.14999914E+01
  0
CIRCLE
  8
0
 62
4
 10
-3.63999983E+02
 20
1.00500000E+02
 40
1.80000000E+01
  0
LINE
  8
0
 62
4
 10
-3.81999990E+02
 20
1.10892303E+02
 11
-3.81999990E+02
 21
9.01076965E+01
  0
LINE
  8
0
 62
4
 10
-3.45999983E+02
 20
1.10892303E+02
 11
-3.45999983E+02
 21
9.01076965E+01
  0
LINE
  8
0
 62
4
 10
-3.82000048E+02
 20
1.10892269E+02
 11
-3.64000046E+02
 21
1.21284573E+02
  0
LINE
  8
0
 62
4
 10
-3.64000061E+02
 20
7.97153727E+01
 11
-3.46000060E+02
 21
9.01076769E+01
  0
LINE
  8
0
 62
4
 10
-3.64000125E+02
 20
1.21284608E+02
 11
-3.46000120E+02
 21
1.10892302E+02
  0
LINE
  8
0
 62
4
 10
-3.82000070E+02
 20
9.01077224E+01
 11
-3.64000079E+02
 21
7.97154240E+01
  0
LINE
  8
0
  6
CENTER
 62
6
 10
-3.30626388E+02
 20
1.57420744E+02
 11
-3.39855186E+02
 21
1.61626550E+02
  0
LINE
  8
0
 62
4
 10
-3.37378953E+02
 20
1.56500000E+02
 11
-3.34004133E+02
 21
1.63905365E+02
  0
ARC
  8
0
 62
4
 10
-3.28218015E+02
 20
1.56323213E+02
 40
1.18100000E+01
 50
1.42672490E+02
 51
1.68327510E+02
  0
LINE
  8
0
 62
4
 10
-3.38356049E+02
 20
1.56767379E+02
 11
-3.35204380E+02
 21
1.63683085E+02
  0
LINE
  8
0
 62
4
 10
-3.34004133E+02
 20
1.63905365E+02
 11
-3.24631532E+02
 21
1.59634024E+02
  0
LINE
  8
0
 62
4
 10
-3.34294419E+02
 20
1.63268392E+02
 11
-3.35204380E+02
 21
1.63683085E+02
  0
ARC
  8
0
 62
4
 10
-3.36813937E+02
 20
1.62878076E+02
 40
1.00000000E+00
 50
6.55000000E+01
 51
1.42672490E+02
  0
LINE
  8
0
 62
4
 10
-3.35370257E+02
 20
1.63319100E+02
 11
-3.36398514E+02
 21
1.63787704E+02
  0
LINE
  8
0
  6
CENTER
 62
6
 10
-3.32077814E+02
 20
1.54235880E+02
 11
-3.41306612E+02
 21
1.58441685E+02
  0
ARC
  8
0
 62
4
 10
-3.38804465E+02
 20
1.58510261E+02
 40
1.00000000E+00
 50
1.68327510E+02
 51
2.45500000E+02
  0
LINE
  8
0
 62
4
 10
-3.38190171E+02
 20
1.57131364E+02
 11
-3.39218428E+02
 21
1.57599967E+02
  0
ARC
  8
0
 62
4
 10
-3.29201856E+02
 20
1.52933762E+02
 40
1.18100000E+01
 50
1.53400933E+02
 51
1.55500000E+02
  0
ARC
  8
0
 62
4
 10
-3.29208274E+02
 20
1.52919679E+02
 40
1.18100000E+01
 50
1.55500000E+02
 51
1.62352491E+02
  0
LINE
  8
0
 62
4
 10
-3.37769338E+02
 20
1.56500000E+02
 11
-3.38356049E+02
 21
1.56767379E+02
  0
LINE
  8
0
 62
4
 10
-3.37796553E+02
 20
1.56500000E+02
 11
-3.37791873E+02
 21
1.56510270E+02
  0
LINE
  8
0
 62
4
 10
-3.18261803E+02
 20
1.56731172E+02
 11
-3.24631532E+02
 21
1.59634024E+02
  0
LINE
  8
0
 62
4
 10
-3.26059789E+02
 20
1.56500000E+02
 11
-3.24631532E+02
 21
1.59634024E+02
  0
LINE
  8
0
 62
4
 10
-3.18151540E+02
 20
1.56500000E+02
 11
-3.18261803E+02
 21
1.56731172E+02
  0
LINE
  8
0
  6
CENTER
 62
6
 10
-3.95922152E+02
 20
1.54235880E+02
 11
-3.86693353E+02
 21
1.58441685E+02
  0
LINE
  8
0
 62
4
 10
-3.93995771E+02
 20
1.63905365E+02
 11
-4.03368372E+02
 21
1.59634024E+02
  0
LINE
  8
0
  6
CENTER
 62
6
 10
-3.97373578E+02
 20
1.57420744E+02
 11
-3.88144780E+02
 21
1.61626550E+02
  0
LINE
  8
0
 62
4
 10
-4.09738101E+02
 20
1.56731172E+02
 11
-4.03368372E+02
 21
1.59634024E+02
  0
LINE
  8
0
 62
4
 10
-3.93705486E+02
 20
1.63268392E+02
 11
-3.92795525E+02
 21
1.63683085E+02
  0
ARC
  8
0
 62
4
 10
-3.89195440E+02
 20
1.58510261E+02
 40
1.00000000E+00
 50
3.43223662E+02
 51
1.16724900E+01
  0
ARC
  8
0
 62
4
 10
-3.91185968E+02
 20
1.62878076E+02
 40
1.00000000E+00
 50
3.73275101E+01
 51
1.14500000E+02
  0
ARC
  8
0
 62
4
 10
-3.99781890E+02
 20
1.56323213E+02
 40
1.18100000E+01
 50
1.16724900E+01
 51
3.73275101E+01
  0
LINE
  8
0
 62
4
 10
-3.92629647E+02
 20
1.63319100E+02
 11
-3.91601391E+02
 21
1.63787704E+02
  0
LINE
  8
0
 62
4
 10
-3.91489241E+02
 20
1.60816707E+02
 11
-3.92795525E+02
 21
1.63683085E+02
  0
LINE
  8
0
 62
4
 10
-3.92336998E+02
 20
1.60265520E+02
 11
-3.91991213E+02
 21
1.60423103E+02
  0
LINE
  8
0
 62
4
 10
-3.92053417E+02
 20
1.60559597E+02
 11
-3.90451885E+02
 21
1.61289457E+02
  0
ARC
  8
0
 62
4
 10
-3.98798049E+02
 20
1.52933762E+02
 40
1.18100000E+01
 50
2.45000000E+01
 51
4.50326991E+01
  0
ARC
  8
0
 62
4
 10
-3.98791631E+02
 20
1.52919679E+02
 40
1.18100000E+01
 50
1.76475088E+01
 51
2.45000000E+01
  0
LINE
  8
0
 62
4
 10
-4.09848364E+02
 20
1.56500000E+02
 11
-4.09738101E+02
 21
1.56731172E+02
  0
LINE
  8
0
 62
4
 10
-4.01940115E+02
 20
1.56500000E+02
 11
-4.03368372E+02
 21
1.59634024E+02
  0
LINE
  8
0
 62
4
 10
-3.90620952E+02
 20
1.56500000E+02
 11
-3.93995771E+02
 21
1.63905365E+02
  0
LINE
  8
0
 62
4
 10
-3.90203352E+02
 20
1.56500000E+02
 11
-3.92053417E+02
 21
1.60559597E+02
  0
LINE
  8
0
  6
PHANTOM
 10
-2.95000000E+01
 20
3.46114332E+02
 11
-2.95000000E+01
 21
1.94632131E+02
  0
LINE
  8
0
  6
PHANTOM
 10
1.12000017E+02
 20
3.46114332E+02
 11
1.12000017E+02
 21
1.95947213E+02
  0
LINE
  8
0
  6
CENTER
 62
2
 10
-2.07798323E+02
 20
2.80500000E+02
 11
1.87582232E+02
 21
2.80500000E+02
  0
LINE
  8
0
  6
CENTER
 62
2
 10
2.99999638E+01
 20
2.70047729E+02
 11
2.99999638E+01
 21
2.55434341E+02
  0
LINE
  8
0
  6
CENTER
 62
2
 10
2.18053989E+01
 20
2.62500000E+02
 11
3.80744076E+01
 21
2.62500000E+02
  0
LINE
  8
0
 62
7
 10
-1.98999998E+02
 20
2.68999939E+02
 11
-1.98999998E+02
 21
2.91999695E+02
  0
LINE
  8
0
 62
7
 10
-1.61999983E+02
 20
2.67500000E+02
 11
-1.61999983E+02
 21
2.93500000E+02
  0
LINE
  8
0
 62
7
 10
-1.97500013E+02
 20
2.93499969E+02
 11
-1.87499990E+02
 21
2.93499969E+02
  0
LINE
  8
0
 62
7
 10
-1.97499983E+02
 20
2.67500000E+02
 11
-1.97499983E+02
 21
2.93500000E+02
  0
LINE
  8
0
 62
7
 10
-1.98999842E+02
 20
2.91999805E+02
 11
-1.97499828E+02
 21
2.93499819E+02
  0
LINE
  8
0
 62
2
 10
-1.98320021E+02
 20
2.92679962E+02
 11
-1.87499990E+02
 21
2.92679962E+02
  0
LINE
  8
0
 62
7
 10
-1.97500013E+02
 20
2.67500000E+02
 11
-1.87499990E+02
 21
2.67500000E+02
  0
LINE
  8
0
 62
7
 10
-1.99000029E+02
 20
2.68999961E+02
 11
-1.97500016E+02
 21
2.67499948E+02
  0
LINE
  8
0
 62
2
 10
-1.98320021E+02
 20
2.68320007E+02
 11
-1.87499990E+02
 21
2.68320007E+02
  0
LINE
  8
0
 62
7
 10
3.17321255E+01
 20
2.62499859E+02
 11
3.08661016E+01
 21
2.63999866E+02
  0
LINE
  8
0
 62
7
 10
3.08660030E+01
 20
2.63999985E+02
 11
2.91339130E+01
 21
2.63999985E+02
  0
LINE
  8
0
 62
7
 10
2.82682668E+01
 20
2.62499763E+02
 11
2.91342754E+01
 21
2.63999743E+02
  0
LINE
  8
0
 62
7
 10
2.91339523E+01
 20
2.60999936E+02
 11
2.82678826E+01
 21
2.62500021E+02
  0
LINE
  8
0
 62
7
 10
3.08660030E+01
 20
2.60999954E+02
 11
2.91339130E+01
 21
2.60999954E+02
  0
LINE
  8
0
 62
7
 10
3.17322727E+01
 20
2.62499851E+02
 11
3.08662412E+01
 21
2.60999831E+02
  0
LINE
  8
0
 62
7
 10
-1.58999983E+02
 20
2.67500000E+02
 11
-1.58999983E+02
 21
2.93500000E+02
  0
LINE
  8
0
  6
CENTER
 62
2
 10
-9.49999676E+01
 20
2.70047729E+02
 11
-9.49999676E+01
 21
2.55434341E+02
  0
LINE
  8
0
  6
CENTER
 62
2
 10
-1.03194548E+02
 20
2.62499969E+02
 11
-8.69255505E+01
 21
2.62499969E+02
  0
LINE
  8
0
 62
7
 10
-9.32678671E+01
 20
2.62499877E+02
 11
-9.41338910E+01
 21
2.63999884E+02
  0
LINE
  8
0
 62
7
 10
-9.41339550E+01
 20
2.63999954E+02
 11
-9.58660259E+01
 21
2.63999954E+02
  0
LINE
  8
0
 62
7
 10
-9.67317452E+01
 20
2.62499721E+02
 11
-9.58657366E+01
 21
2.63999701E+02
  0
LINE
  8
0
 62
7
 10
-9.58658952E+01
 20
2.60999949E+02
 11
-9.67319649E+01
 21
2.62500035E+02
  0
LINE
  8
0
 62
7
 10
-9.41339550E+01
 20
2.60999954E+02
 11
-9.58660259E+01
 21
2.60999954E+02
  0
LINE
  8
0
 62
7
 10
-9.32677088E+01
 20
2.62499862E+02
 11
-9.41337556E+01
 21
2.60999816E+02
  0
LINE
  8
0
  6
CENTER
 62
2
 10
6.17792034E+01
 20
2.38499985E+02
 11
-1.26524473E+02
 21
2.38499985E+02
  0
LINE
  8
0
 62
7
 10
2.29999981E+01
 20
2.43000000E+02
 11
1.49999981E+01
 21
2.43000000E+02
  0
LINE
  8
0
 62
7
 10
2.29999981E+01
 20
2.33999954E+02
 11
-1.90734856E-06
 21
2.33999954E+02
  0
LINE
  8
0
 62
7
 10
-1.19999968E+02
 20
3.13500061E+02
 11
-1.19999968E+02
 21
2.47500046E+02
  0
LINE
  8
0
  6
CENTER
 62
2
 10
-9.02976360E+01
 20
2.92499969E+02
 11
-1.18094908E+02
 21
2.92499969E+02
  0
LINE
  8
0
 62
7
 10
-1.25499937E+02
 20
3.05499939E+02
 11
-1.23999922E+02
 21
3.05499939E+02
  0
LINE
  8
0
 62
7
 10
-1.23999983E+02
 20
2.25619736E+02
 11
-1.23999983E+02
 21
3.35380280E+02
  0
LINE
  8
0
 62
7
 10
-1.44999968E+02
 20
2.58000046E+02
 11
-1.44999968E+02
 21
3.03000061E+02
  0
LINE
  8
0
 62
7
 10
-1.23508648E+02
 20
3.35880468E+02
 11
-8.79999119E+01
 21
3.36500275E+02
  0
LINE
  8
0
 62
7
 10
-1.44499937E+02
 20
3.03499969E+02
 11
-1.39999937E+02
 21
3.03499969E+02
  0
LINE
  8
0
 62
7
 10
-1.39517424E+02
 20
3.04528198E+02
 11
-1.25999968E+02
 21
3.05000238E+02
  0
LINE
  8
0
 62
7
 10
-1.25499937E+02
 20
2.55499954E+02
 11
-1.23999922E+02
 21
2.55499954E+02
  0
LINE
  8
0
 62
7
 10
-1.23508638E+02
 20
2.25119980E+02
 11
-8.79999320E+01
 21
2.24500173E+02
  0
LINE
  8
0
 62
7
 10
-1.44499937E+02
 20
2.57499969E+02
 11
-1.39999937E+02
 21
2.57499969E+02
  0
LINE
  8
0
 62
7
 10
-1.39517403E+02
 20
2.56472353E+02
 11
-1.25999946E+02
 21
2.56000313E+02
  0
LINE
  8
0
 62
7
 10
-8.79999981E+01
 20
3.36500183E+02
 11
-8.79999981E+01
 21
2.24499985E+02
  0
LINE
  8
0
  6
CENTER
 62
2
 10
-1.03999983E+02
 20
2.78394165E+02
 11
-1.03999983E+02
 21
3.06323273E+02
  0
LINE
  8
0
 62
7
 10
-1.17999937E+02
 20
2.45499954E+02
 11
-8.79999523E+01
 21
2.45499954E+02
  0
LINE
  8
0
 62
7
 10
-1.17999937E+02
 20
3.15499939E+02
 11
-8.79999523E+01
 21
3.15499939E+02
  0
LINE
  8
0
 62
7
 10
-1.25999968E+02
 20
2.56000107E+02
 11
-1.25999968E+02
 21
3.05000031E+02
  0
LINE
  8
0
 62
7
 10
5.49999523E+01
 20
2.47499893E+02
 11
5.49999523E+01
 21
3.13499908E+02
  0
LINE
  8
0
  6
CENTER
 62
2
 10
2.52976627E+01
 20
2.92500000E+02
 11
5.30949116E+01
 21
2.92500000E+02
  0
LINE
  8
0
 62
7
 10
6.04999371E+01
 20
2.55500000E+02
 11
5.89999371E+01
 21
2.55500000E+02
  0
LINE
  8
0
 62
7
 10
5.89999676E+01
 20
3.35380219E+02
 11
5.89999676E+01
 21
2.25619629E+02
  0
LINE
  8
0
 62
7
 10
5.85086483E+01
 20
2.25119596E+02
 11
2.29999528E+01
 21
2.24499784E+02
  0
LINE
  8
0
 62
7
 10
6.04999371E+01
 20
3.05500000E+02
 11
5.89999371E+01
 21
3.05500000E+02
  0
LINE
  8
0
 62
7
 10
5.85087030E+01
 20
3.35880144E+02
 11
2.29999799E+01
 21
3.36499945E+02
  0
LINE
  8
0
 62
7
 10
2.29999981E+01
 20
2.24499756E+02
 11
2.29999981E+01
 21
3.36499969E+02
  0
LINE
  8
0
  6
CENTER
 62
2
 10
3.89999676E+01
 20
2.78394135E+02
 11
3.89999676E+01
 21
3.06323273E+02
  0
LINE
  8
0
 62
7
 10
5.29999371E+01
 20
3.15500000E+02
 11
2.29999332E+01
 21
3.15500000E+02
  0
LINE
  8
0
 62
7
 10
5.29999371E+01
 20
2.45500000E+02
 11
2.29999332E+01
 21
2.45500000E+02
  0
LINE
  8
0
 62
7
 10
6.09999599E+01
 20
3.04999847E+02
 11
6.09999599E+01
 21
2.55999908E+02
  0
LINE
  8
0
 62
7
 10
-1.47000013E+02
 20
2.95500061E+02
 11
-1.44999968E+02
 21
2.95500061E+02
  0
LINE
  8
0
 62
7
 10
-1.55999968E+02
 20
2.67500000E+02
 11
-1.55999968E+02
 21
2.93500000E+02
  0
LINE
  8
0
 62
7
 10
-1.46999907E+02
 20
2.65499954E+02
 11
-1.44999983E+02
 21
2.65499954E+02
  0
LINE
  8
0
 62
7
 10
-8.79999981E+01
 20
2.26999985E+02
 11
-1.30735169E+01
 21
2.26999985E+02
  0
LINE
  8
0
 62
7
 10
-1.58999983E+02
 20
2.93500000E+02
 11
-1.49000059E+02
 21
2.93500000E+02
  0
LINE
  8
0
 62
7
 10
-1.58999983E+02
 20
2.67500000E+02
 11
-1.48999952E+02
 21
2.67500000E+02
  0
LINE
  8
0
 62
7
 10
-1.48999974E+02
 20
2.67500015E+02
 11
-1.46999907E+02
 21
2.65499948E+02
  0
LINE
  8
0
 62
7
 10
-1.49000040E+02
 20
2.93500058E+02
 11
-1.47000016E+02
 21
2.95500081E+02
  0
LINE
  8
0
  6
CENTER
 62
2
 10
6.17792034E+01
 20
3.22500031E+02
 11
-1.26524473E+02
 21
3.22500031E+02
  0
LINE
  8
0
 62
7
 10
2.29999981E+01
 20
3.18000000E+02
 11
-4.39999981E+01
 21
3.18000000E+02
  0
LINE
  8
0
 62
7
 10
2.29999981E+01
 20
3.27000031E+02
 11
-4.39999981E+01
 21
3.27000031E+02
  0
LINE
  8
0
 62
7
 10
-8.79999981E+01
 20
3.34000000E+02
 11
-5.70735708E+01
 21
3.34000000E+02
  0
LINE
  8
0
 62
7
 10
-1.61999983E+02
 20
2.92679962E+02
 11
-1.58999983E+02
 21
2.92679962E+02
  0
LINE
  8
0
 62
7
 10
-1.61999983E+02
 20
2.68320007E+02
 11
-1.58999983E+02
 21
2.68320007E+02
  0
LINE
  8
0
 62
7
 10
1.44000017E+02
 20
2.67500000E+02
 11
1.33999987E+02
 21
2.67500000E+02
  0
LINE
  8
0
 62
7
 10
1.84000032E+02
 20
2.68999939E+02
 11
1.84000032E+02
 21
2.91999695E+02
  0
LINE
  8
0
 62
7
 10
1.47000017E+02
 20
2.67500000E+02
 11
1.47000017E+02
 21
2.93500000E+02
  0
LINE
  8
0
 62
7
 10
1.82500048E+02
 20
2.93499969E+02
 11
1.72500025E+02
 21
2.93499969E+02
  0
LINE
  8
0
 62
7
 10
1.82500017E+02
 20
2.67500000E+02
 11
1.82500017E+02
 21
2.93500000E+02
  0
LINE
  8
0
 62
7
 10
1.83999871E+02
 20
2.91999796E+02
 11
1.82499858E+02
 21
2.93499808E+02
  0
LINE
  8
0
 62
2
 10
1.83320055E+02
 20
2.92679962E+02
 11
1.72500025E+02
 21
2.92679962E+02
  0
LINE
  8
0
 62
7
 10
1.82500048E+02
 20
2.67500000E+02
 11
1.72500025E+02
 21
2.67500000E+02
  0
LINE
  8
0
 62
7
 10
1.84000054E+02
 20
2.68999955E+02
 11
1.82500042E+02
 21
2.67499942E+02
  0
LINE
  8
0
 62
2
 10
1.83320055E+02
 20
2.68320007E+02
 11
1.72500025E+02
 21
2.68320007E+02
  0
LINE
  8
0
 62
7
 10
1.47000017E+02
 20
2.92679962E+02
 11
1.44000017E+02
 21
2.92679962E+02
  0
LINE
  8
0
 62
7
 10
1.47000017E+02
 20
2.68320007E+02
 11
1.44000017E+02
 21
2.68320007E+02
  0
LINE
  8
0
 62
7
 10
1.44000017E+02
 20
2.67500000E+02
 11
1.44000017E+02
 21
2.93500000E+02
  0
LINE
  8
0
 62
7
 10
8.00000019E+01
 20
2.58000046E+02
 11
8.00000019E+01
 21
3.03000061E+02
  0
LINE
  8
0
 62
7
 10
7.94999714E+01
 20
3.03499969E+02
 11
7.49999714E+01
 21
3.03499969E+02
  0
LINE
  8
0
 62
7
 10
7.45174550E+01
 20
3.04528217E+02
 11
6.10000004E+01
 21
3.05000257E+02
  0
LINE
  8
0
 62
7
 10
7.94999714E+01
 20
2.57499969E+02
 11
7.49999714E+01
 21
2.57499969E+02
  0
LINE
  8
0
 62
7
 10
7.45174320E+01
 20
2.56472365E+02
 11
6.09999758E+01
 21
2.56000325E+02
  0
LINE
  8
0
 62
7
 10
1.32000048E+02
 20
2.95500061E+02
 11
8.00000019E+01
 21
2.95500061E+02
  0
LINE
  8
0
 62
7
 10
1.41000002E+02
 20
2.67500000E+02
 11
1.41000002E+02
 21
2.93500000E+02
  0
LINE
  8
0
 62
7
 10
1.34000073E+02
 20
2.93500054E+02
 11
1.32000049E+02
 21
2.95500078E+02
  0
LINE
  8
0
 62
7
 10
1.31999941E+02
 20
2.65499954E+02
 11
8.00000172E+01
 21
2.65499954E+02
  0
LINE
  8
0
 62
7
 10
1.34000009E+02
 20
2.67500021E+02
 11
1.31999942E+02
 21
2.65499954E+02
  0
LINE
  8
0
 62
7
 10
1.44000017E+02
 20
2.93500000E+02
 11
1.34000093E+02
 21
2.93500000E+02
  0
CIRCLE
  8
0
 62
7
 10
2.99999638E+01
 20
2.62500000E+02
 40
5.00000000E+00
  0
CIRCLE
  8
0
 62
7
 10
-9.49999676E+01
 20
2.62499969E+02
 40
5.00000000E+00
  0
ARC
  8
0
 62
7
 10
-1.23499952E+02
 20
3.35380310E+02
 40
5.00000000E-01
 50
9.10002493E+01
 51
1.79999951E+02
  0
ARC
  8
0
 62
7
 10
-1.44499952E+02
 20
3.03000061E+02
 40
5.00000000E-01
 50
8.99999818E+01
 51
1.79999951E+02
  0
ARC
  8
0
 62
7
 10
-1.39499952E+02
 20
3.04028320E+02
 40
5.00000000E-01
 50
9.20007356E+01
 51
1.79999951E+02
  0
ARC
  8
0
 62
7
 10
-1.25499937E+02
 20
3.05000061E+02
 40
5.00000000E-01
 50
8.99999818E+01
 51
1.79999951E+02
  0
ARC
  8
0
 62
7
 10
-1.39499952E+02
 20
2.56971817E+02
 40
5.00000000E-01
 50
1.79999977E+02
 51
2.67999192E+02
  0
ARC
  8
0
 62
7
 10
-1.25499937E+02
 20
2.56000061E+02
 40
5.00000000E-01
 50
1.79999977E+02
 51
2.69999974E+02
  0
ARC
  8
0
 62
7
 10
-1.44499952E+02
 20
2.58000046E+02
 40
5.00000000E-01
 50
1.79999977E+02
 51
2.69999974E+02
  0
ARC
  8
0
 62
7
 10
-1.23499952E+02
 20
2.25619736E+02
 40
5.00000000E-01
 50
1.79999977E+02
 51
2.68999679E+02
  0
CIRCLE
  8
0
 62
7
 10
-1.03999952E+02
 20
2.92500061E+02
 40
9.25000000E+00
  0
ARC
  8
0
 62
7
 10
-1.17999937E+02
 20
3.13500061E+02
 40
2.00000000E+00
 50
8.99999818E+01
 51
1.79999951E+02
  0
ARC
  8
0
 62
7
 10
-1.17999937E+02
 20
2.47500076E+02
 40
2.00000000E+00
 50
1.79999977E+02
 51
2.70000028E+02
  0
CIRCLE
  8
0
 62
7
 10
-1.03999952E+02
 20
2.92500000E+02
 40
1.10000000E+01
  0
CIRCLE
  8
0
 62
2
 10
-1.03999983E+02
 20
2.92500000E+02
 40
1.04775000E+01
  0
ARC
  8
0
 62
7
 10
5.84999638E+01
 20
2.25619675E+02
 40
5.00000000E-01
 50
2.71000258E+02
 51
3.59999959E+02
  0
ARC
  8
0
 62
7
 10
6.04999561E+01
 20
2.55999924E+02
 40
5.00000000E-01
 50
2.69999991E+02
 51
3.59999959E+02
  0
ARC
  8
0
 62
7
 10
6.04999561E+01
 20
3.04999908E+02
 40
5.00000000E-01
 50
3.59999986E+02
 51
8.99999549E+01
  0
ARC
  8
0
 62
7
 10
5.84999638E+01
 20
3.35380280E+02
 40
5.00000000E-01
 50
3.59999986E+02
 51
8.89996737E+01
  0
CIRCLE
  8
0
 62
7
 10
3.89999409E+01
 20
2.92500061E+02
 40
9.25000000E+00
  0
ARC
  8
0
 62
7
 10
5.29999561E+01
 20
2.47499924E+02
 40
2.00000000E+00
 50
2.69999991E+02
 51
3.59999959E+02
  0
ARC
  8
0
 62
7
 10
5.29999561E+01
 20
3.13499939E+02
 40
2.00000000E+00
 50
3.59999986E+02
 51
9.00000094E+01
  0
CIRCLE
  8
0
 62
7
 10
3.89999409E+01
 20
2.92500000E+02
 40
1.10000000E+01
  0
CIRCLE
  8
0
 62
2
 10
3.89999943E+01
 20
2.92500000E+02
 40
1.04775000E+01
  0
CIRCLE
  8
0
 62
7
 10
-9.49999676E+01
 20
2.62499969E+02
 40
2.59999990E+00
  0
CIRCLE
  8
0
 62
7
 10
2.99999638E+01
 20
2.62500000E+02
 40
2.59999990E+00
  0
ARC
  8
0
 62
7
 10
7.94999866E+01
 20
3.03000061E+02
 40
5.00000000E-01
 50
4.96325564E-05
 51
9.00000162E+01
  0
ARC
  8
0
 62
7
 10
7.44999866E+01
 20
3.04028320E+02
 40
5.00000000E-01
 50
4.96325564E-05
 51
8.79992625E+01
  0
ARC
  8
0
 62
7
 10
7.44999866E+01
 20
2.56971817E+02
 40
5.00000000E-01
 50
2.72000806E+02
 51
2.23117997E-05
  0
ARC
  8
0
 62
7
 10
7.94999866E+01
 20
2.58000046E+02
 40
5.00000000E-01
 50
2.70000025E+02
 51
2.23117997E-05
  0
LINE
  8
0
 62
7
 10
7.50000019E+01
 20
3.04063293E+02
 11
7.50000019E+01
 21
2.56936768E+02
  0
LINE
  8
0
 62
7
 10
-1.39999968E+02
 20
3.04063293E+02
 11
-1.39999968E+02
 21
2.56936768E+02
  0
ARC
  8
0
 62
4
 10
-1.99498021E+02
 20
2.71499924E+02
 40
2.59980309E+01
 50
3.39746143E+02
 51
2.02538569E+01
  0
ARC
  8
0
 62
4
 10
-1.99498021E+02
 20
2.89499931E+02
 40
2.59980309E+01
 50
3.39746143E+02
 51
2.02538569E+01
  0
ARC
  8
0
 62
4
 10
-1.61501960E+02
 20
2.89499931E+02
 40
2.59980309E+01
 50
1.59746143E+02
 51
2.00253857E+02
  0
ARC
  8
0
 62
4
 10
-1.61501960E+02
 20
2.71499924E+02
 40
2.59980309E+01
 50
1.59746143E+02
 51
2.00253857E+02
  0
LINE
  8
0
 62
4
 10
-1.85892481E+02
 20
2.80499928E+02
 11
-1.75107500E+02
 21
2.80499928E+02
  0
LINE
  8
0
 62
4
 10
-1.73499990E+02
 20
2.98499935E+02
 11
-1.73499990E+02
 21
2.62500065E+02
  0
LINE
  8
0
 62
4
 10
-1.87499990E+02
 20
2.98499935E+02
 11
-1.87499990E+02
 21
2.62500065E+02
  0
LINE
  8
0
 62
4
 10
-1.87499990E+02
 20
2.98499935E+02
 11
-1.73499990E+02
 21
2.98499935E+02
  0
LINE
  8
0
 62
4
 10
-1.87499990E+02
 20
2.62500065E+02
 11
-1.73499990E+02
 21
2.62500065E+02
  0
ARC
  8
0
 62
4
 10
1.46501994E+02
 20
2.71499924E+02
 40
2.59980309E+01
 50
3.39746143E+02
 51
2.02538569E+01
  0
ARC
  8
0
 62
4
 10
1.46501994E+02
 20
2.89499931E+02
 40
2.59980309E+01
 50
3.39746143E+02
 51
2.02538569E+01
  0
ARC
  8
0
 62
4
 10
1.84498056E+02
 20
2.89499931E+02
 40
2.59980309E+01
 50
1.59746143E+02
 51
2.00253857E+02
  0
ARC
  8
0
 62
4
 10
1.84498056E+02
 20
2.71499924E+02
 40
2.59980309E+01
 50
1.59746143E+02
 51
2.00253857E+02
  0
LINE
  8
0
 62
4
 10
1.60107534E+02
 20
2.80499928E+02
 11
1.70892515E+02
 21
2.80499928E+02
  0
LINE
  8
0
 62
4
 10
1.72500025E+02
 20
2.98499935E+02
 11
1.72500025E+02
 21
2.62500065E+02
  0
LINE
  8
0
 62
4
 10
1.58500025E+02
 20
2.98499935E+02
 11
1.58500025E+02
 21
2.62500065E+02
  0
LINE
  8
0
 62
4
 10
1.58500025E+02
 20
2.98499935E+02
 11
1.72500025E+02
 21
2.98499935E+02
  0
LINE
  8
0
 62
4
 10
1.58500025E+02
 20
2.62500065E+02
 11
1.72500025E+02
 21
2.62500065E+02
  0
LINE
  8
0
 62
7
 10
-1.73499990E+02
 20
2.93499969E+02
 11
-1.61999983E+02
 21
2.93499969E+02
  0
LINE
  8
0
 62
2
 10
-1.73499990E+02
 20
2.92679962E+02
 11
-1.61999983E+02
 21
2.92679962E+02
  0
LINE
  8
0
 62
7
 10
-1.73499990E+02
 20
2.67500000E+02
 11
-1.61999983E+02
 21
2.67500000E+02
  0
LINE
  8
0
 62
2
 10
-1.73499990E+02
 20
2.68320007E+02
 11
-1.61999983E+02
 21
2.68320007E+02
  0
LINE
  8
0
 62
7
 10
1.58500025E+02
 20
2.93499969E+02
 11
1.47000017E+02
 21
2.93499969E+02
  0
LINE
  8
0
 62
2
 10
1.58500025E+02
 20
2.92679962E+02
 11
1.47000017E+02
 21
2.92679962E+02
  0
LINE
  8
0
 62
7
 10
1.58500025E+02
 20
2.67500000E+02
 11
1.47000017E+02
 21
2.67500000E+02
  0
LINE
  8
0
 62
2
 10
1.58500025E+02
 20
2.68320007E+02
 11
1.47000017E+02
 21
2.68320007E+02
  0
LINE
  8
0
  6
CENTER
 62
6
 10
1.99999981E+01
 20
2.54215778E+02
 11
-3.00000019E+01
 21
2.54215778E+02
  0
LINE
  8
0
 62
4
 10
-1.50000019E+01
 20
2.55715778E+02
 11
-2.41339765E+01
 21
2.55715778E+02
  0
LINE
  8
0
 62
4
 10
-1.50000019E+01
 20
2.52715778E+02
 11
-2.58660273E+01
 21
2.52715778E+02
  0
LINE
  8
0
 62
6
 10
-2.32679511E+01
 20
2.57215778E+02
 11
-2.67320527E+01
 21
2.51215778E+02
  0
LINE
  8
0
 62
4
 10
-4.39999981E+01
 20
3.05284237E+02
 11
-3.48660235E+01
 21
3.05284237E+02
  0
LINE
  8
0
 62
4
 10
-4.39999981E+01
 20
3.08284237E+02
 11
-3.31339727E+01
 21
3.08284237E+02
  0
LINE
  8
0
 62
6
 10
-3.57320489E+01
 20
3.03784237E+02
 11
-3.22679473E+01
 21
3.09784237E+02
  0
LINE
  8
0
  6
CENTER
 62
6
 10
-7.89999981E+01
 20
3.06784237E+02
 11
-2.89999981E+01
 21
3.06784237E+02
  0
LINE
  8
0
 62
7
 10
-9.92648695E+00
 20
2.26999985E+02
 11
-5.07351693E+00
 21
2.26999985E+02
  0
LINE
  8
0
 62
7
 10
-5.39264253E+01
 20
3.34000000E+02
 11
-4.90735708E+01
 21
3.34000000E+02
  0
LINE
  8
0
 62
6
 10
-2.00000187E+00
 20
2.26963346E+02
 11
-2.00000187E+00
 21
2.28017928E+02
  0
LINE
  8
0
 62
6
 10
-5.00000187E+00
 20
2.26963346E+02
 11
-5.00000187E+00
 21
2.28017928E+02
  0
LINE
  8
0
 62
4
 10
-1.50000187E+00
 20
2.27511934E+02
 11
-1.50000187E+00
 21
2.28017928E+02
  0
LINE
  8
0
 62
4
 10
-5.50000187E+00
 20
2.27511934E+02
 11
-5.50000187E+00
 21
2.28017928E+02
  0
LINE
  8
0
 62
4
 10
-1.90734856E-06
 20
2.28017928E+02
 11
-1.90734856E-06
 21
2.41131565E+02
  0
LINE
  8
0
 62
4
 10
-1.50000019E+01
 20
2.28017928E+02
 11
-1.50000019E+01
 21
2.57139258E+02
  0
LINE
  8
0
 62
4
 10
1.49999981E+01
 20
2.41131565E+02
 11
1.49999981E+01
 21
2.54816976E+02
  0
LINE
  8
0
  6
CENTER
 62
6
 10
-1.15000019E+01
 20
2.23234406E+02
 11
-1.15000019E+01
 21
2.33499985E+02
  0
LINE
  8
0
  6
CENTER
 62
6
 10
-3.50000194E+00
 20
2.23234406E+02
 11
-3.50000194E+00
 21
2.33499985E+02
  0
LINE
  8
0
  6
CENTER
 62
6
 10
7.49999809E+00
 20
2.49870285E+02
 11
7.49999809E+00
 21
2.54870285E+02
  0
LINE
  8
0
 62
4
 10
-1.00000019E+01
 20
2.55264829E+02
 11
-1.00000019E+01
 21
2.56865087E+02
  0
LINE
  8
0
 62
4
 10
-8.50000191E+00
 20
2.55656827E+02
 11
-8.50000191E+00
 21
2.56865087E+02
  0
LINE
  8
0
 62
4
 10
1.64999981E+01
 20
2.52714369E+02
 11
1.64999981E+01
 21
2.55714711E+02
  0
POLYLINE
  8
0
 62
4
 66
1
  0
VERTEX
  8
0
 62
4
 10
-5.50000200E+00
 20
2.27511934E+02
  0
VERTEX
  8
0
 62
4
 10
-5.49195059E+00
 20
2.27437588E+02
  0
VERTEX
  8
0
 62
4
 10
-5.46786118E+00
 20
2.27363841E+02
  0
VERTEX
  8
0
 62
4
 10
-5.42792772E+00
 20
2.27291287E+02
  0
VERTEX
  8
0
 62
4
 10
-5.37247174E+00
 20
2.27220508E+02
  0
VERTEX
  8
0
 62
4
 10
-5.30193973E+00
 20
2.27152077E+02
  0
VERTEX
  8
0
 62
4
 10
-5.21689958E+00
 20
2.27086542E+02
  0
VERTEX
  8
0
 62
4
 10
-5.11803598E+00
 20
2.27024433E+02
  0
VERTEX
  8
0
 62
4
 10
-5.00614492E+00
 20
2.26966249E+02
  0
VERTEX
  8
0
 62
4
 10
-4.88212728E+00
 20
2.26912458E+02
  0
VERTEX
  8
0
 62
4
 10
-4.74698158E+00
 20
2.26863494E+02
  0
VERTEX
  8
0
 62
4
 10
-4.60179594E+00
 20
2.26819750E+02
  0
VERTEX
  8
0
 62
4
 10
-4.44773930E+00
 20
2.26781580E+02
  0
VERTEX
  8
0
 62
4
 10
-4.28605203E+00
 20
2.26749290E+02
  0
VERTEX
  8
0
 62
4
 10
-4.11803595E+00
 20
2.26723141E+02
  0
VERTEX
  8
0
 62
4
 10
-3.94504383E+00
 20
2.26703342E+02
  0
VERTEX
  8
0
 62
4
 10
-3.76846848E+00
 20
2.26690054E+02
  0
VERTEX
  8
0
 62
4
 10
-3.58973161E+00
 20
2.26683383E+02
  0
VERTEX
  8
0
 62
4
 10
-3.41027228E+00
 20
2.26683383E+02
  0
VERTEX
  8
0
 62
4
 10
-3.23153541E+00
 20
2.26690054E+02
  0
VERTEX
  8
0
 62
4
 10
-3.05496006E+00
 20
2.26703342E+02
  0
VERTEX
  8
0
 62
4
 10
-2.88196794E+00
 20
2.26723141E+02
  0
VERTEX
  8
0
 62
4
 10
-2.71395186E+00
 20
2.26749290E+02
  0
VERTEX
  8
0
 62
4
 10
-2.55226459E+00
 20
2.26781580E+02
  0
VERTEX
  8
0
 62
4
 10
-2.39820795E+00
 20
2.26819750E+02
  0
VERTEX
  8
0
 62
4
 10
-2.25302230E+00
 20
2.26863494E+02
  0
VERTEX
  8
0
 62
4
 10
-2.11787661E+00
 20
2.26912458E+02
  0
VERTEX
  8
0
 62
4
 10
-1.99385897E+00
 20
2.26966249E+02
  0
VERTEX
  8
0
 62
4
 10
-1.88196791E+00
 20
2.27024433E+02
  0
VERTEX
  8
0
 62
4
 10
-1.78310430E+00
 20
2.27086542E+02
  0
VERTEX
  8
0
 62
4
 10
-1.69806415E+00
 20
2.27152077E+02
  0
VERTEX
  8
0
 62
4
 10
-1.62753215E+00
 20
2.27220508E+02
  0
VERTEX
  8
0
 62
4
 10
-1.57207616E+00
 20
2.27291287E+02
  0
VERTEX
  8
0
 62
4
 10
-1.53214271E+00
 20
2.27363841E+02
  0
VERTEX
  8
0
 62
4
 10
-1.50805329E+00
 20
2.27437588E+02
  0
VERTEX
  8
0
 62
4
 10
-1.50000188E+00
 20
2.27511934E+02
  0
SEQEND
  8
0
  0
LINE
  8
0
 62
6
 10
-1.30000019E+01
 20
2.26963346E+02
 11
-1.30000019E+01
 21
2.28017928E+02
  0
LINE
  8
0
 62
4
 10
-1.35000019E+01
 20
2.27511934E+02
 11
-1.35000019E+01
 21
2.28017928E+02
  0
POLYLINE
  8
0
 62
4
 66
1
  0
VERTEX
  8
0
 62
4
 10
-1.35000020E+01
 20
2.27511934E+02
  0
VERTEX
  8
0
 62
4
 10
-1.34919505E+01
 20
2.27437588E+02
  0
VERTEX
  8
0
 62
4
 10
-1.34678611E+01
 20
2.27363841E+02
  0
VERTEX
  8
0
 62
4
 10
-1.34279277E+01
 20
2.27291287E+02
  0
VERTEX
  8
0
 62
4
 10
-1.33724717E+01
 20
2.27220508E+02
  0
VERTEX
  8
0
 62
4
 10
-1.33019397E+01
 20
2.27152077E+02
  0
VERTEX
  8
0
 62
4
 10
-1.32168995E+01
 20
2.27086542E+02
  0
VERTEX
  8
0
 62
4
 10
-1.31180359E+01
 20
2.27024433E+02
  0
VERTEX
  8
0
 62
4
 10
-1.30061449E+01
 20
2.26966249E+02
  0
VERTEX
  8
0
 62
4
 10
-1.28821272E+01
 20
2.26912458E+02
  0
VERTEX
  8
0
 62
4
 10
-1.27469815E+01
 20
2.26863494E+02
  0
VERTEX
  8
0
 62
4
 10
-1.26017959E+01
 20
2.26819750E+02
  0
VERTEX
  8
0
 62
4
 10
-1.24477393E+01
 20
2.26781580E+02
  0
VERTEX
  8
0
 62
4
 10
-1.22860520E+01
 20
2.26749290E+02
  0
VERTEX
  8
0
 62
4
 10
-1.21180359E+01
 20
2.26723141E+02
  0
VERTEX
  8
0
 62
4
 10
-1.19450438E+01
 20
2.26703342E+02
  0
VERTEX
  8
0
 62
4
 10
-1.17684684E+01
 20
2.26690054E+02
  0
VERTEX
  8
0
 62
4
 10
-1.15897316E+01
 20
2.26683383E+02
  0
VERTEX
  8
0
 62
4
 10
-1.14102722E+01
 20
2.26683383E+02
  0
VERTEX
  8
0
 62
4
 10
-1.12315354E+01
 20
2.26690054E+02
  0
VERTEX
  8
0
 62
4
 10
-1.10549600E+01
 20
2.26703342E+02
  0
VERTEX
  8
0
 62
4
 10
-1.08819679E+01
 20
2.26723141E+02
  0
VERTEX
  8
0
 62
4
 10
-1.07139518E+01
 20
2.26749290E+02
  0
VERTEX
  8
0
 62
4
 10
-1.05522646E+01
 20
2.26781580E+02
  0
VERTEX
  8
0
 62
4
 10
-1.03982079E+01
 20
2.26819750E+02
  0
VERTEX
  8
0
 62
4
 10
-1.02530223E+01
 20
2.26863494E+02
  0
VERTEX
  8
0
 62
4
 10
-1.01178766E+01
 20
2.26912458E+02
  0
VERTEX
  8
0
 62
4
 10
-9.99385893E+00
 20
2.26966249E+02
  0
VERTEX
  8
0
 62
4
 10
-9.88196787E+00
 20
2.27024433E+02
  0
VERTEX
  8
0
 62
4
 10
-9.78310426E+00
 20
2.27086542E+02
  0
VERTEX
  8
0
 62
4
 10
-9.69806411E+00
 20
2.27152077E+02
  0
VERTEX
  8
0
 62
4
 10
-9.62753211E+00
 20
2.27220508E+02
  0
VERTEX
  8
0
 62
4
 10
-9.57207612E+00
 20
2.27291287E+02
  0
VERTEX
  8
0
 62
4
 10
-9.53214267E+00
 20
2.27363841E+02
  0
VERTEX
  8
0
 62
4
 10
-9.50805325E+00
 20
2.27437588E+02
  0
VERTEX
  8
0
 62
4
 10
-9.50000184E+00
 20
2.27511934E+02
  0
SEQEND
  8
0
  0
LINE
  8
0
 62
6
 10
-1.00000019E+01
 20
2.26963346E+02
 11
-1.00000019E+01
 21
2.28017928E+02
  0
LINE
  8
0
 62
4
 10
-9.50000187E+00
 20
2.27511934E+02
 11
-9.50000187E+00
 21
2.28017928E+02
  0
LINE
  8
0
 62
4
 10
-1.88946352E-06
 20
2.28017928E+02
 11
-1.50000019E+01
 21
2.28017928E+02
  0
LINE
  8
0
 62
4
 10
-1.88946352E-06
 20
2.34761836E+02
 11
-1.50000019E+01
 21
2.34761836E+02
  0
LINE
  8
0
 62
4
 10
1.49999981E+01
 20
2.41131565E+02
 11
-1.50000019E+01
 21
2.41131565E+02
  0
LINE
  8
0
 62
4
 10
1.49999981E+01
 20
2.50504166E+02
 11
-1.50000019E+01
 21
2.50504166E+02
  0
LINE
  8
0
 62
4
 10
1.49999981E+01
 20
2.57139258E+02
 11
2.51092849E+00
 21
2.57139258E+02
  0
LINE
  8
0
 62
4
 10
1.49999981E+01
 20
2.51566469E+02
 11
1.64999981E+01
 21
2.52714369E+02
  0
LINE
  8
0
 62
4
 10
1.49999981E+01
 20
2.55206314E+02
 11
4.14999809E+00
 21
2.55206314E+02
  0
LINE
  8
0
 62
4
 10
1.64999981E+01
 20
2.54775431E+02
 11
1.49999981E+01
 21
2.55206314E+02
  0
LINE
  8
0
 62
4
 10
1.49999981E+01
 20
2.56865087E+02
 11
3.19948890E+00
 21
2.56865087E+02
  0
LINE
  8
0
 62
4
 10
1.64999981E+01
 20
2.55714711E+02
 11
1.49999981E+01
 21
2.56865087E+02
  0
LINE
  8
0
 62
4
 10
1.49999981E+01
 20
2.54816976E+02
 11
4.14999809E+00
 21
2.54816976E+02
  0
LINE
  8
0
 62
4
 10
1.49999981E+01
 20
2.54816976E+02
 11
1.49999981E+01
 21
2.56865087E+02
  0
LINE
  8
0
 62
4
 10
1.49999981E+01
 20
2.56865087E+02
 11
1.49999981E+01
 21
2.57139258E+02
  0
LINE
  8
0
 62
4
 10
-3.70000191E+00
 20
2.52370285E+02
 11
-3.70000191E+00
 21
2.53280247E+02
  0
LINE
  8
0
 62
4
 10
-1.13000019E+01
 20
2.53280247E+02
 11
-1.13000019E+01
 21
2.52370285E+02
  0
LINE
  8
0
 62
4
 10
-4.10000191E+00
 20
2.53280247E+02
 11
-4.10000191E+00
 21
2.54309233E+02
  0
LINE
  8
0
 62
4
 10
-1.09000019E+01
 20
2.53280247E+02
 11
-1.09000019E+01
 21
2.54309233E+02
  0
LINE
  8
0
 62
4
 10
-4.15000191E+00
 20
2.54550148E+02
 11
-4.15000191E+00
 21
2.55769029E+02
  0
LINE
  8
0
 62
4
 10
4.14999809E+00
 20
2.55769029E+02
 11
4.14999809E+00
 21
2.54167497E+02
  0
POLYLINE
  8
0
 62
4
 66
1
  0
VERTEX
  8
0
 62
4
 10
-3.70000190E+00
 20
2.53191433E+02
  0
VERTEX
  8
0
 62
4
 10
-3.55010124E+00
 20
2.53057416E+02
  0
VERTEX
  8
0
 62
4
 10
-3.37204167E+00
 20
2.52929461E+02
  0
VERTEX
  8
0
 62
4
 10
-3.16723556E+00
 20
2.52808584E+02
  0
VERTEX
  8
0
 62
4
 10
-2.93730739E+00
 20
2.52695743E+02
  0
VERTEX
  8
0
 62
4
 10
-2.68408092E+00
 20
2.52591832E+02
  0
VERTEX
  8
0
 62
4
 10
-2.40956471E+00
 20
2.52497677E+02
  0
VERTEX
  8
0
 62
4
 10
-2.11593618E+00
 20
2.52414024E+02
  0
VERTEX
  8
0
 62
4
 10
-1.80552435E+00
 20
2.52341537E+02
  0
VERTEX
  8
0
 62
4
 10
-1.48079137E+00
 20
2.52280790E+02
  0
VERTEX
  8
0
 62
4
 10
-1.14431297E+00
 20
2.52232265E+02
  0
VERTEX
  8
0
 62
4
 10
-7.98758056E-01
 20
2.52196348E+02
  0
VERTEX
  8
0
 62
4
 10
-4.46867520E-01
 20
2.52173323E+02
  0
VERTEX
  8
0
 62
4
 10
-9.14325067E-02
 20
2.52163372E+02
  0
VERTEX
  8
0
 62
4
 10
2.64727721E-01
 20
2.52166576E+02
  0
VERTEX
  8
0
 62
4
 10
6.18788150E-01
 20
2.52182908E+02
  0
VERTEX
  8
0
 62
4
 10
9.67940422E-01
 20
2.52212238E+02
  0
VERTEX
  8
0
 62
4
 10
1.30941511E+00
 20
2.52254335E+02
  0
VERTEX
  8
0
 62
4
 10
1.64050368E+00
 20
2.52308863E+02
  0
VERTEX
  8
0
 62
4
 10
1.95858000E+00
 20
2.52375392E+02
  0
VERTEX
  8
0
 62
4
 10
2.26112111E+00
 20
2.52453393E+02
  0
VERTEX
  8
0
 62
4
 10
2.54572730E+00
 20
2.52542246E+02
  0
VERTEX
  8
0
 62
4
 10
2.81014113E+00
 20
2.52641249E+02
  0
VERTEX
  8
0
 62
4
 10
3.05226529E+00
 20
2.52749614E+02
  0
VERTEX
  8
0
 62
4
 10
3.27017929E+00
 20
2.52866484E+02
  0
VERTEX
  8
0
 62
4
 10
3.46215467E+00
 20
2.52990930E+02
  0
VERTEX
  8
0
 62
4
 10
3.62666871E+00
 20
2.53121966E+02
  0
VERTEX
  8
0
 62
4
 10
3.76241649E+00
 20
2.53258552E+02
  0
VERTEX
  8
0
 62
4
 10
3.86832130E+00
 20
2.53399605E+02
  0
VERTEX
  8
0
 62
4
 10
3.94354310E+00
 20
2.53544006E+02
  0
VERTEX
  8
0
 62
4
 10
3.98748525E+00
 20
2.53690610E+02
  0
SEQEND
  8
0
  0
POLYLINE
  8
0
 62
4
 66
1
  0
VERTEX
  8
0
 62
4
 10
-3.71037642E+00
 20
2.53396611E+02
  0
VERTEX
  8
0
 62
4
 10
-3.52994558E+00
 20
2.53262553E+02
  0
VERTEX
  8
0
 62
4
 10
-3.32142301E+00
 20
2.53135697E+02
  0
VERTEX
  8
0
 62
4
 10
-3.08646814E+00
 20
2.53017052E+02
  0
VERTEX
  8
0
 62
4
 10
-2.82695077E+00
 20
2.52907562E+02
  0
VERTEX
  8
0
 62
4
 10
-2.54493619E+00
 20
2.52808099E+02
  0
VERTEX
  8
0
 62
4
 10
-2.24266870E+00
 20
2.52719455E+02
  0
VERTEX
  8
0
 62
4
 10
-1.92255377E+00
 20
2.52642334E+02
  0
VERTEX
  8
0
 62
4
 10
-1.58713893E+00
 20
2.52577350E+02
  0
VERTEX
  8
0
 62
4
 10
-1.23909346E+00
 20
2.52525021E+02
  0
VERTEX
  8
0
 62
4
 10
-8.81187132E-01
 20
2.52485763E+02
  0
VERTEX
  8
0
 62
4
 10
-5.16268221E-01
 20
2.52459889E+02
  0
VERTEX
  8
0
 62
4
 10
-1.47240798E-01
 20
2.52447604E+02
  0
VERTEX
  8
0
 62
4
 10
2.22958371E-01
 20
2.52449006E+02
  0
VERTEX
  8
0
 62
4
 10
5.91383194E-01
 20
2.52464084E+02
  0
VERTEX
  8
0
 62
4
 10
9.55101699E-01
 20
2.52492718E+02
  0
VERTEX
  8
0
 62
4
 10
1.31121937E+00
 20
2.52534680E+02
  0
VERTEX
  8
0
 62
4
 10
1.65690217E+00
 20
2.52589636E+02
  0
VERTEX
  8
0
 62
4
 10
1.98939912E+00
 20
2.52657149E+02
  0
VERTEX
  8
0
 62
4
 10
2.30606416E+00
 20
2.52736682E+02
  0
VERTEX
  8
0
 62
4
 10
2.60437723E+00
 20
2.52827601E+02
  0
VERTEX
  8
0
 62
4
 10
2.88196432E+00
 20
2.52929183E+02
  0
VERTEX
  8
0
 62
4
 10
3.13661635E+00
 20
2.53040620E+02
  0
VERTEX
  8
0
 62
4
 10
3.36630678E+00
 20
2.53161025E+02
  0
VERTEX
  8
0
 62
4
 10
3.56920769E+00
 20
2.53289439E+02
  0
VERTEX
  8
0
 62
4
 10
3.74370437E+00
 20
2.53424841E+02
  0
VERTEX
  8
0
 62
4
 10
3.88840817E+00
 20
2.53566154E+02
  0
VERTEX
  8
0
 62
4
 10
4.00216750E+00
 20
2.53712251E+02
  0
VERTEX
  8
0
 62
4
 10
4.08407705E+00
 20
2.53861972E+02
  0
VERTEX
  8
0
 62
4
 10
4.13348498E+00
 20
2.54014124E+02
  0
VERTEX
  8
0
 62
4
 10
4.14999809E+00
 20
2.54167497E+02
  0
SEQEND
  8
0
  0
POLYLINE
  8
0
 62
4
 66
1
  0
VERTEX
  8
0
 62
4
 10
4.14999809E+00
 20
2.55769029E+02
  0
VERTEX
  8
0
 62
4
 10
4.13420609E+00
 20
2.55919022E+02
  0
VERTEX
  8
0
 62
4
 10
4.08695027E+00
 20
2.56067874E+02
  0
VERTEX
  8
0
 62
4
 10
4.00859027E+00
 20
2.56214451E+02
  0
VERTEX
  8
0
 62
4
 10
3.89972247E+00
 20
2.56357638E+02
  0
VERTEX
  8
0
 62
4
 10
3.76117541E+00
 20
2.56496345E+02
  0
VERTEX
  8
0
 62
4
 10
3.59400352E+00
 20
2.56629517E+02
  0
VERTEX
  8
0
 62
4
 10
3.39947908E+00
 20
2.56756141E+02
  0
VERTEX
  8
0
 62
4
 10
3.17908253E+00
 20
2.56875252E+02
  0
VERTEX
  8
0
 62
4
 10
2.93449123E+00
 20
2.56985943E+02
  0
VERTEX
  8
0
 62
4
 10
2.66756667E+00
 20
2.57087374E+02
  0
VERTEX
  8
0
 62
4
 10
2.38034030E+00
 20
2.57178771E+02
  0
VERTEX
  8
0
 62
4
 10
2.07499809E+00
 20
2.57259439E+02
  0
VERTEX
  8
0
 62
4
 10
1.75386388E+00
 20
2.57328764E+02
  0
VERTEX
  8
0
 62
4
 10
1.41938169E+00
 20
2.57386218E+02
  0
VERTEX
  8
0
 62
4
 10
1.07409713E+00
 20
2.57431365E+02
  0
VERTEX
  8
0
 62
4
 10
7.20638027E-01
 20
2.57463860E+02
  0
VERTEX
  8
0
 62
4
 10
3.61694422E-01
 20
2.57483457E+02
  0
VERTEX
  8
0
 62
4
 10
-1.91027474E-06
 20
2.57490006E+02
  0
VERTEX
  8
0
 62
4
 10
-3.61698243E-01
 20
2.57483457E+02
  0
VERTEX
  8
0
 62
4
 10
-7.20641848E-01
 20
2.57463860E+02
  0
VERTEX
  8
0
 62
4
 10
-1.07410095E+00
 20
2.57431365E+02
  0
VERTEX
  8
0
 62
4
 10
-1.41938551E+00
 20
2.57386218E+02
  0
VERTEX
  8
0
 62
4
 10
-1.75386770E+00
 20
2.57328764E+02
  0
VERTEX
  8
0
 62
4
 10
-2.07500191E+00
 20
2.57259439E+02
  0
VERTEX
  8
0
 62
4
 10
-2.38034412E+00
 20
2.57178771E+02
  0
VERTEX
  8
0
 62
4
 10
-2.66757049E+00
 20
2.57087374E+02
  0
VERTEX
  8
0
 62
4
 10
-2.93449505E+00
 20
2.56985943E+02
  0
VERTEX
  8
0
 62
4
 10
-3.17908635E+00
 20
2.56875252E+02
  0
VERTEX
  8
0
 62
4
 10
-3.39948289E+00
 20
2.56756141E+02
  0
VERTEX
  8
0
 62
4
 10
-3.59400734E+00
 20
2.56629517E+02
  0
VERTEX
  8
0
 62
4
 10
-3.76117923E+00
 20
2.56496345E+02
  0
VERTEX
  8
0
 62
4
 10
-3.89972629E+00
 20
2.56357638E+02
  0
VERTEX
  8
0
 62
4
 10
-4.00859409E+00
 20
2.56214451E+02
  0
VERTEX
  8
0
 62
4
 10
-4.08695408E+00
 20
2.56067874E+02
  0
VERTEX
  8
0
 62
4
 10
-4.13420990E+00
 20
2.55919022E+02
  0
VERTEX
  8
0
 62
4
 10
-4.15000191E+00
 20
2.55769029E+02
  0
VERTEX
  8
0
 62
4
 10
-4.13420990E+00
 20
2.55619036E+02
  0
VERTEX
  8
0
 62
4
 10
-4.08695408E+00
 20
2.55470184E+02
  0
VERTEX
  8
0
 62
4
 10
-4.00859408E+00
 20
2.55323607E+02
  0
VERTEX
  8
0
 62
4
 10
-3.89972628E+00
 20
2.55180420E+02
  0
VERTEX
  8
0
 62
4
 10
-3.76117922E+00
 20
2.55041713E+02
  0
VERTEX
  8
0
 62
4
 10
-3.59400733E+00
 20
2.54908541E+02
  0
VERTEX
  8
0
 62
4
 10
-3.39948289E+00
 20
2.54781917E+02
  0
VERTEX
  8
0
 62
4
 10
-3.17908634E+00
 20
2.54662806E+02
  0
VERTEX
  8
0
 62
4
 10
-2.93449504E+00
 20
2.54552115E+02
  0
VERTEX
  8
0
 62
4
 10
-2.66757048E+00
 20
2.54450684E+02
  0
VERTEX
  8
0
 62
4
 10
-2.38034411E+00
 20
2.54359287E+02
  0
VERTEX
  8
0
 62
4
 10
-2.07500190E+00
 20
2.54278619E+02
  0
VERTEX
  8
0
 62
4
 10
-1.75386769E+00
 20
2.54209294E+02
  0
VERTEX
  8
0
 62
4
 10
-1.41938549E+00
 20
2.54151840E+02
  0
VERTEX
  8
0
 62
4
 10
-1.07410094E+00
 20
2.54106693E+02
  0
VERTEX
  8
0
 62
4
 10
-7.20641836E-01
 20
2.54074198E+02
  0
VERTEX
  8
0
 62
4
 10
-3.61698231E-01
 20
2.54054601E+02
  0
VERTEX
  8
0
 62
4
 10
-1.89857002E-06
 20
2.54048052E+02
  0
VERTEX
  8
0
 62
4
 10
3.61694434E-01
 20
2.54054601E+02
  0
VERTEX
  8
0
 62
4
 10
7.20638039E-01
 20
2.54074198E+02
  0
VERTEX
  8
0
 62
4
 10
1.07409714E+00
 20
2.54106693E+02
  0
VERTEX
  8
0
 62
4
 10
1.41938170E+00
 20
2.54151840E+02
  0
VERTEX
  8
0
 62
4
 10
1.75386389E+00
 20
2.54209294E+02
  0
VERTEX
  8
0
 62
4
 10
2.07499810E+00
 20
2.54278619E+02
  0
VERTEX
  8
0
 62
4
 10
2.38034031E+00
 20
2.54359287E+02
  0
VERTEX
  8
0
 62
4
 10
2.66756668E+00
 20
2.54450684E+02
  0
VERTEX
  8
0
 62
4
 10
2.93449124E+00
 20
2.54552115E+02
  0
VERTEX
  8
0
 62
4
 10
3.17908254E+00
 20
2.54662806E+02
  0
VERTEX
  8
0
 62
4
 10
3.39947908E+00
 20
2.54781917E+02
  0
VERTEX
  8
0
 62
4
 10
3.59400352E+00
 20
2.54908541E+02
  0
VERTEX
  8
0
 62
4
 10
3.76117541E+00
 20
2.55041713E+02
  0
VERTEX
  8
0
 62
4
 10
3.89972247E+00
 20
2.55180420E+02
  0
VERTEX
  8
0
 62
4
 10
4.00859027E+00
 20
2.55323607E+02
  0
VERTEX
  8
0
 62
4
 10
4.08695027E+00
 20
2.55470184E+02
  0
VERTEX
  8
0
 62
4
 10
4.13420609E+00
 20
2.55619036E+02
  0
VERTEX
  8
0
 62
4
 10
4.14999809E+00
 20
2.55769029E+02
  0
SEQEND
  8
0
  0
ARC
  8
0
 62
4
 10
6.36959878E+00
 20
2.40984410E+02
 40
1.67245585E+01
 50
1.05971208E+02
 51
1.19114206E+02
  0
ARC
  8
0
 62
4
 10
-6.36960596E+00
 20
2.40984401E+02
 40
1.67245676E+01
 50
6.08857978E+01
 51
7.40287885E+01
  0
POLYLINE
  8
0
 62
4
 66
1
  0
VERTEX
  8
0
 62
4
 10
-1.13000019E+01
 20
2.52370285E+02
  0
VERTEX
  8
0
 62
4
 10
-1.12847042E+01
 20
2.52229028E+02
  0
VERTEX
  8
0
 62
4
 10
-1.12389343E+01
 20
2.52088909E+02
  0
VERTEX
  8
0
 62
4
 10
-1.11630608E+01
 20
2.51951055E+02
  0
VERTEX
  8
0
 62
4
 10
-1.10576944E+01
 20
2.51816576E+02
  0
VERTEX
  8
0
 62
4
 10
-1.09236836E+01
 20
2.51686556E+02
  0
VERTEX
  8
0
 62
4
 10
-1.07621073E+01
 20
2.51562041E+02
  0
VERTEX
  8
0
 62
4
 10
-1.05742665E+01
 20
2.51444033E+02
  0
VERTEX
  8
0
 62
4
 10
-1.03616735E+01
 20
2.51333483E+02
  0
VERTEX
  8
0
 62
4
 10
-1.01260400E+01
 20
2.51231280E+02
  0
VERTEX
  8
0
 62
4
 10
-9.86926317E+00
 20
2.51138248E+02
  0
VERTEX
  8
0
 62
4
 10
-9.59341045E+00
 20
2.51055136E+02
  0
VERTEX
  8
0
 62
4
 10
-9.30070284E+00
 20
2.50982612E+02
  0
VERTEX
  8
0
 62
4
 10
-8.99349705E+00
 20
2.50921262E+02
  0
VERTEX
  8
0
 62
4
 10
-8.67426651E+00
 20
2.50871578E+02
  0
VERTEX
  8
0
 62
4
 10
-8.34558148E+00
 20
2.50833960E+02
  0
VERTEX
  8
0
 62
4
 10
-8.01008834E+00
 20
2.50808712E+02
  0
VERTEX
  8
0
 62
4
 10
-7.67048829E+00
 20
2.50796037E+02
  0
VERTEX
  8
0
 62
4
 10
-7.32951558E+00
 20
2.50796037E+02
  0
VERTEX
  8
0
 62
4
 10
-6.98991552E+00
 20
2.50808712E+02
  0
VERTEX
  8
0
 62
4
 10
-6.65442238E+00
 20
2.50833960E+02
  0
VERTEX
  8
0
 62
4
 10
-6.32573735E+00
 20
2.50871577E+02
  0
VERTEX
  8
0
 62
4
 10
-6.00650681E+00
 20
2.50921262E+02
  0
VERTEX
  8
0
 62
4
 10
-5.69930101E+00
 20
2.50982612E+02
  0
VERTEX
  8
0
 62
4
 10
-5.40659340E+00
 20
2.51055136E+02
  0
VERTEX
  8
0
 62
4
 10
-5.13074068E+00
 20
2.51138248E+02
  0
VERTEX
  8
0
 62
4
 10
-4.87396386E+00
 20
2.51231280E+02
  0
VERTEX
  8
0
 62
4
 10
-4.63833036E+00
 20
2.51333483E+02
  0
VERTEX
  8
0
 62
4
 10
-4.42573735E+00
 20
2.51444033E+02
  0
VERTEX
  8
0
 62
4
 10
-4.23789651E+00
 20
2.51562041E+02
  0
VERTEX
  8
0
 62
4
 10
-4.07632022E+00
 20
2.51686556E+02
  0
VERTEX
  8
0
 62
4
 10
-3.94230941E+00
 20
2.51816576E+02
  0
VERTEX
  8
0
 62
4
 10
-3.83694305E+00
 20
2.51951055E+02
  0
VERTEX
  8
0
 62
4
 10
-3.76106948E+00
 20
2.52088909E+02
  0
VERTEX
  8
0
 62
4
 10
-3.71529960E+00
 20
2.52229028E+02
  0
VERTEX
  8
0
 62
4
 10
-3.70000191E+00
 20
2.52370285E+02
  0
SEQEND
  8
0
  0
POLYLINE
  8
0
 62
4
 66
1
  0
VERTEX
  8
0
 62
4
 10
-1.09000019E+01
 20
2.53984005E+02
  0
VERTEX
  8
0
 62
4
 10
-1.10365836E+01
 20
2.53856744E+02
  0
VERTEX
  8
0
 62
4
 10
-1.11455314E+01
 20
2.53724978E+02
  0
VERTEX
  8
0
 62
4
 10
-1.12259942E+01
 20
2.53589737E+02
  0
VERTEX
  8
0
 62
4
 10
-1.12773432E+01
 20
2.53452079E+02
  0
VERTEX
  8
0
 62
4
 10
-1.12991772E+01
 20
2.53313077E+02
  0
VERTEX
  8
0
 62
4
 10
-1.12913255E+01
 20
2.53173819E+02
  0
VERTEX
  8
0
 62
4
 10
-1.12538495E+01
 20
2.53035393E+02
  0
VERTEX
  8
0
 62
4
 10
-1.11870421E+01
 20
2.52898879E+02
  0
VERTEX
  8
0
 62
4
 10
-1.10914253E+01
 20
2.52765346E+02
  0
VERTEX
  8
0
 62
4
 10
-1.09677461E+01
 20
2.52635836E+02
  0
VERTEX
  8
0
 62
4
 10
-1.08169711E+01
 20
2.52511361E+02
  0
VERTEX
  8
0
 62
4
 10
-1.06402782E+01
 20
2.52392894E+02
  0
VERTEX
  8
0
 62
4
 10
-1.04390481E+01
 20
2.52281361E+02
  0
VERTEX
  8
0
 62
4
 10
-1.02148532E+01
 20
2.52177632E+02
  0
VERTEX
  8
0
 62
4
 10
-9.96944519E+00
 20
2.52082519E+02
  0
VERTEX
  8
0
 62
4
 10
-9.70474173E+00
 20
2.51996765E+02
  0
VERTEX
  8
0
 62
4
 10
-9.42281109E+00
 20
2.51921039E+02
  0
VERTEX
  8
0
 62
4
 10
-9.12585619E+00
 20
2.51855934E+02
  0
VERTEX
  8
0
 62
4
 10
-8.81619735E+00
 20
2.51801958E+02
  0
VERTEX
  8
0
 62
4
 10
-8.49625414E+00
 20
2.51759533E+02
  0
VERTEX
  8
0
 62
4
 10
-8.16852652E+00
 20
2.51728991E+02
  0
VERTEX
  8
0
 62
4
 10
-7.83557524E+00
 20
2.51710569E+02
  0
VERTEX
  8
0
 62
4
 10
-7.50000189E+00
 20
2.51704413E+02
  0
VERTEX
  8
0
 62
4
 10
-7.16442854E+00
 20
2.51710569E+02
  0
VERTEX
  8
0
 62
4
 10
-6.83147727E+00
 20
2.51728991E+02
  0
VERTEX
  8
0
 62
4
 10
-6.50374964E+00
 20
2.51759533E+02
  0
VERTEX
  8
0
 62
4
 10
-6.18380644E+00
 20
2.51801958E+02
  0
VERTEX
  8
0
 62
4
 10
-5.87414760E+00
 20
2.51855934E+02
  0
VERTEX
  8
0
 62
4
 10
-5.57719270E+00
 20
2.51921039E+02
  0
VERTEX
  8
0
 62
4
 10
-5.29526206E+00
 20
2.51996765E+02
  0
VERTEX
  8
0
 62
4
 10
-5.03055860E+00
 20
2.52082519E+02
  0
VERTEX
  8
0
 62
4
 10
-4.78515064E+00
 20
2.52177632E+02
  0
VERTEX
  8
0
 62
4
 10
-4.56095573E+00
 20
2.52281361E+02
  0
VERTEX
  8
0
 62
4
 10
-4.35972565E+00
 20
2.52392894E+02
  0
VERTEX
  8
0
 62
4
 10
-4.18303275E+00
 20
2.52511361E+02
  0
VERTEX
  8
0
 62
4
 10
-4.03225767E+00
 20
2.52635836E+02
  0
VERTEX
  8
0
 62
4
 10
-3.90857852E+00
 20
2.52765346E+02
  0
VERTEX
  8
0
 62
4
 10
-3.81296168E+00
 20
2.52898879E+02
  0
VERTEX
  8
0
 62
4
 10
-3.74615428E+00
 20
2.53035393E+02
  0
VERTEX
  8
0
 62
4
 10
-3.70867833E+00
 20
2.53173819E+02
  0
VERTEX
  8
0
 62
4
 10
-3.70082666E+00
 20
2.53313077E+02
  0
VERTEX
  8
0
 62
4
 10
-3.72266062E+00
 20
2.53452079E+02
  0
VERTEX
  8
0
 62
4
 10
-3.77400960E+00
 20
2.53589737E+02
  0
VERTEX
  8
0
 62
4
 10
-3.85447238E+00
 20
2.53724978E+02
  0
VERTEX
  8
0
 62
4
 10
-3.96342025E+00
 20
2.53856744E+02
  0
VERTEX
  8
0
 62
4
 10
-4.10000192E+00
 20
2.53984005E+02
  0
SEQEND
  8
0
  0
POLYLINE
  8
0
 62
4
 66
1
  0
VERTEX
  8
0
 62
4
 10
-1.09000019E+01
 20
2.53280247E+02
  0
VERTEX
  8
0
 62
4
 10
-1.08863145E+01
 20
2.53153859E+02
  0
VERTEX
  8
0
 62
4
 10
-1.08453625E+01
 20
2.53028489E+02
  0
VERTEX
  8
0
 62
4
 10
-1.07774756E+01
 20
2.52905146E+02
  0
VERTEX
  8
0
 62
4
 10
-1.06832005E+01
 20
2.52784824E+02
  0
VERTEX
  8
0
 62
4
 10
-1.05632961E+01
 20
2.52668490E+02
  0
VERTEX
  8
0
 62
4
 10
-1.04187278E+01
 20
2.52557081E+02
  0
VERTEX
  8
0
 62
4
 10
-1.02506597E+01
 20
2.52451495E+02
  0
VERTEX
  8
0
 62
4
 10
-1.00604449E+01
 20
2.52352582E+02
  0
VERTEX
  8
0
 62
4
 10
-9.84961493E+00
 20
2.52261137E+02
  0
VERTEX
  8
0
 62
4
 10
-9.61986725E+00
 20
2.52177898E+02
  0
VERTEX
  8
0
 62
4
 10
-9.37305166E+00
 20
2.52103535E+02
  0
VERTEX
  8
0
 62
4
 10
-9.11115538E+00
 20
2.52038645E+02
  0
VERTEX
  8
0
 62
4
 10
-8.83628703E+00
 20
2.51983752E+02
  0
VERTEX
  8
0
 62
4
 10
-8.55065971E+00
 20
2.51939298E+02
  0
VERTEX
  8
0
 62
4
 10
-8.25657310E+00
 20
2.51905641E+02
  0
VERTEX
  8
0
 62
4
 10
-7.95639503E+00
 20
2.51883050E+02
  0
VERTEX
  8
0
 62
4
 10
-7.65254235E+00
 20
2.51871710E+02
  0
VERTEX
  8
0
 62
4
 10
-7.34746151E+00
 20
2.51871710E+02
  0
VERTEX
  8
0
 62
4
 10
-7.04360882E+00
 20
2.51883050E+02
  0
VERTEX
  8
0
 62
4
 10
-6.74343075E+00
 20
2.51905641E+02
  0
VERTEX
  8
0
 62
4
 10
-6.44934415E+00
 20
2.51939298E+02
  0
VERTEX
  8
0
 62
4
 10
-6.16371682E+00
 20
2.51983752E+02
  0
VERTEX
  8
0
 62
4
 10
-5.88884848E+00
 20
2.52038645E+02
  0
VERTEX
  8
0
 62
4
 10
-5.62695219E+00
 20
2.52103535E+02
  0
VERTEX
  8
0
 62
4
 10
-5.38013660E+00
 20
2.52177898E+02
  0
VERTEX
  8
0
 62
4
 10
-5.15038892E+00
 20
2.52261137E+02
  0
VERTEX
  8
0
 62
4
 10
-4.93955894E+00
 20
2.52352582E+02
  0
VERTEX
  8
0
 62
4
 10
-4.74934414E+00
 20
2.52451495E+02
  0
VERTEX
  8
0
 62
4
 10
-4.58127602E+00
 20
2.52557081E+02
  0
VERTEX
  8
0
 62
4
 10
-4.43670777E+00
 20
2.52668490E+02
  0
VERTEX
  8
0
 62
4
 10
-4.31680336E+00
 20
2.52784824E+02
  0
VERTEX
  8
0
 62
4
 10
-4.22252819E+00
 20
2.52905146E+02
  0
VERTEX
  8
0
 62
4
 10
-4.15464131E+00
 20
2.53028489E+02
  0
VERTEX
  8
0
 62
4
 10
-4.11368931E+00
 20
2.53153859E+02
  0
VERTEX
  8
0
 62
4
 10
-4.10000191E+00
 20
2.53280247E+02
  0
SEQEND
  8
0
  0
POLYLINE
  8
0
 62
4
 66
1
  0
VERTEX
  8
0
 62
4
 10
-4.10000191E+00
 20
2.54309233E+02
  0
VERTEX
  8
0
 62
4
 10
-4.11293994E+00
 20
2.54432119E+02
  0
VERTEX
  8
0
 62
4
 10
-4.15165555E+00
 20
2.54554069E+02
  0
VERTEX
  8
0
 62
4
 10
-4.21585410E+00
 20
2.54674157E+02
  0
VERTEX
  8
0
 62
4
 10
-4.30504700E+00
 20
2.54791467E+02
  0
VERTEX
  8
0
 62
4
 10
-4.41855543E+00
 20
2.54905107E+02
  0
VERTEX
  8
0
 62
4
 10
-4.55551554E+00
 20
2.55014212E+02
  0
VERTEX
  8
0
 62
4
 10
-4.71488496E+00
 20
2.55117951E+02
  0
VERTEX
  8
0
 62
4
 10
-4.89545080E+00
 20
2.55215536E+02
  0
VERTEX
  8
0
 62
4
 10
-5.09583885E+00
 20
2.55306223E+02
  0
VERTEX
  8
0
 62
4
 10
-5.31452404E+00
 20
2.55389323E+02
  0
VERTEX
  8
0
 62
4
 10
-5.54984203E+00
 20
2.55464202E+02
  0
VERTEX
  8
0
 62
4
 10
-5.80000191E+00
 20
2.55530292E+02
  0
VERTEX
  8
0
 62
4
 10
-6.06309982E+00
 20
2.55587088E+02
  0
VERTEX
  8
0
 62
4
 10
-6.33713342E+00
 20
2.55634159E+02
  0
VERTEX
  8
0
 62
4
 10
-6.62001716E+00
 20
2.55671147E+02
  0
VERTEX
  8
0
 62
4
 10
-6.90959811E+00
 20
2.55697770E+02
  0
VERTEX
  8
0
 62
4
 10
-7.20367239E+00
 20
2.55713825E+02
  0
VERTEX
  8
0
 62
4
 10
-7.50000191E+00
 20
2.55719190E+02
  0
VERTEX
  8
0
 62
4
 10
-7.79633144E+00
 20
2.55713825E+02
  0
VERTEX
  8
0
 62
4
 10
-8.09040572E+00
 20
2.55697770E+02
  0
VERTEX
  8
0
 62
4
 10
-8.37998667E+00
 20
2.55671147E+02
  0
VERTEX
  8
0
 62
4
 10
-8.66287040E+00
 20
2.55634159E+02
  0
VERTEX
  8
0
 62
4
 10
-8.93690400E+00
 20
2.55587088E+02
  0
VERTEX
  8
0
 62
4
 10
-9.20000191E+00
 20
2.55530292E+02
  0
VERTEX
  8
0
 62
4
 10
-9.45016180E+00
 20
2.55464202E+02
  0
VERTEX
  8
0
 62
4
 10
-9.68547979E+00
 20
2.55389323E+02
  0
VERTEX
  8
0
 62
4
 10
-9.90416497E+00
 20
2.55306223E+02
  0
VERTEX
  8
0
 62
4
 10
-1.01045530E+01
 20
2.55215536E+02
  0
VERTEX
  8
0
 62
4
 10
-1.02851189E+01
 20
2.55117951E+02
  0
VERTEX
  8
0
 62
4
 10
-1.04444883E+01
 20
2.55014212E+02
  0
VERTEX
  8
0
 62
4
 10
-1.05814484E+01
 20
2.54905107E+02
  0
VERTEX
  8
0
 62
4
 10
-1.06949568E+01
 20
2.54791467E+02
  0
VERTEX
  8
0
 62
4
 10
-1.07841497E+01
 20
2.54674157E+02
  0
VERTEX
  8
0
 62
4
 10
-1.08483483E+01
 20
2.54554069E+02
  0
VERTEX
  8
0
 62
4
 10
-1.08870639E+01
 20
2.54432119E+02
  0
VERTEX
  8
0
 62
4
 10
-1.09000019E+01
 20
2.54309233E+02
  0
VERTEX
  8
0
 62
4
 10
-1.08870639E+01
 20
2.54186347E+02
  0
VERTEX
  8
0
 62
4
 10
-1.08483483E+01
 20
2.54064397E+02
  0
VERTEX
  8
0
 62
4
 10
-1.07841497E+01
 20
2.53944309E+02
  0
VERTEX
  8
0
 62
4
 10
-1.06949568E+01
 20
2.53826999E+02
  0
VERTEX
  8
0
 62
4
 10
-1.05814484E+01
 20
2.53713359E+02
  0
VERTEX
  8
0
 62
4
 10
-1.04444883E+01
 20
2.53604254E+02
  0
VERTEX
  8
0
 62
4
 10
-1.02851189E+01
 20
2.53500515E+02
  0
VERTEX
  8
0
 62
4
 10
-1.01045530E+01
 20
2.53402930E+02
  0
VERTEX
  8
0
 62
4
 10
-9.90416496E+00
 20
2.53312243E+02
  0
VERTEX
  8
0
 62
4
 10
-9.68547978E+00
 20
2.53229143E+02
  0
VERTEX
  8
0
 62
4
 10
-9.45016179E+00
 20
2.53154264E+02
  0
VERTEX
  8
0
 62
4
 10
-9.20000190E+00
 20
2.53088174E+02
  0
VERTEX
  8
0
 62
4
 10
-8.93690399E+00
 20
2.53031378E+02
  0
VERTEX
  8
0
 62
4
 10
-8.66287039E+00
 20
2.52984307E+02
  0
VERTEX
  8
0
 62
4
 10
-8.37998666E+00
 20
2.52947319E+02
  0
VERTEX
  8
0
 62
4
 10
-8.09040571E+00
 20
2.52920696E+02
  0
VERTEX
  8
0
 62
4
 10
-7.79633143E+00
 20
2.52904641E+02
  0
VERTEX
  8
0
 62
4
 10
-7.50000190E+00
 20
2.52899276E+02
  0
VERTEX
  8
0
 62
4
 10
-7.20367238E+00
 20
2.52904641E+02
  0
VERTEX
  8
0
 62
4
 10
-6.90959810E+00
 20
2.52920696E+02
  0
VERTEX
  8
0
 62
4
 10
-6.62001715E+00
 20
2.52947319E+02
  0
VERTEX
  8
0
 62
4
 10
-6.33713342E+00
 20
2.52984307E+02
  0
VERTEX
  8
0
 62
4
 10
-6.06309981E+00
 20
2.53031378E+02
  0
VERTEX
  8
0
 62
4
 10
-5.80000190E+00
 20
2.53088174E+02
  0
VERTEX
  8
0
 62
4
 10
-5.54984202E+00
 20
2.53154264E+02
  0
VERTEX
  8
0
 62
4
 10
-5.31452403E+00
 20
2.53229143E+02
  0
VERTEX
  8
0
 62
4
 10
-5.09583885E+00
 20
2.53312243E+02
  0
VERTEX
  8
0
 62
4
 10
-4.89545080E+00
 20
2.53402930E+02
  0
VERTEX
  8
0
 62
4
 10
-4.71488495E+00
 20
2.53500515E+02
  0
VERTEX
  8
0
 62
4
 10
-4.55551553E+00
 20
2.53604254E+02
  0
VERTEX
  8
0
 62
4
 10
-4.41855543E+00
 20
2.53713359E+02
  0
VERTEX
  8
0
 62
4
 10
-4.30504700E+00
 20
2.53826999E+02
  0
VERTEX
  8
0
 62
4
 10
-4.21585410E+00
 20
2.53944309E+02
  0
VERTEX
  8
0
 62
4
 10
-4.15165555E+00
 20
2.54064397E+02
  0
VERTEX
  8
0
 62
4
 10
-4.11293994E+00
 20
2.54186347E+02
  0
VERTEX
  8
0
 62
4
 10
-4.10000191E+00
 20
2.54309233E+02
  0
SEQEND
  8
0
  0
ARC
  8
0
 62
4
 10
-1.25294370E+00
 20
2.40279330E+02
 40
1.64201370E+01
 50
1.10122188E+02
 51
1.19216401E+02
  0
ARC
  8
0
 62
4
 10
-1.37470607E+01
 20
2.40279328E+02
 40
1.64201386E+01
 50
6.07835994E+01
 51
6.98778124E+01
  0
LINE
  8
0
  6
CENTER
 62
6
 10
9.99999809E+00
 20
2.52370285E+02
 11
4.99999809E+00
 21
2.52370285E+02
  0
LINE
  8
0
 62
4
 10
-1.06718926E+01
 20
2.54816976E+02
 11
-1.50000019E+01
 21
2.54816976E+02
  0
LINE
  8
0
 62
4
 10
-4.15000191E+00
 20
2.54816976E+02
 11
-4.32811120E+00
 21
2.54816976E+02
  0
LINE
  8
0
 62
4
 10
-4.15000191E+00
 20
2.55206314E+02
 11
-4.87695259E+00
 21
2.55206314E+02
  0
LINE
  8
0
 62
4
 10
-3.19949272E+00
 20
2.56865087E+02
 11
-1.00000019E+01
 21
2.56865087E+02
  0
LINE
  8
0
 62
4
 10
-2.51093230E+00
 20
2.57139258E+02
 11
-1.50000019E+01
 21
2.57139258E+02
  0
LINE
  8
0
  6
CENTER
 62
6
 10
-1.90734856E-06
 20
2.51321712E+02
 11
-1.90734856E-06
 21
2.56321712E+02
  0
LINE
  8
0
  6
CENTER
 62
6
 10
2.49999809E+00
 20
2.53821712E+02
 11
-2.50000191E+00
 21
2.53821712E+02
  0
LINE
  8
0
  6
CENTER
 62
6
 10
-7.50000191E+00
 20
2.49870285E+02
 11
-7.50000191E+00
 21
2.54870285E+02
  0
LINE
  8
0
  6
CENTER
 62
6
 10
-5.00000191E+00
 20
2.52370285E+02
 11
-1.00000019E+01
 21
2.52370285E+02
  0
LINE
  8
0
 62
4
 10
-1.00000019E+01
 20
2.55715778E+02
 11
-1.50000019E+01
 21
2.55715778E+02
  0
LINE
  8
0
 62
6
 10
-5.69999981E+01
 20
3.34036669E+02
 11
-5.69999981E+01
 21
3.32982087E+02
  0
LINE
  8
0
 62
6
 10
-5.39999981E+01
 20
3.34036669E+02
 11
-5.39999981E+01
 21
3.32982087E+02
  0
LINE
  8
0
 62
4
 10
-5.74999981E+01
 20
3.33488082E+02
 11
-5.74999981E+01
 21
3.32982087E+02
  0
LINE
  8
0
 62
4
 10
-5.34999981E+01
 20
3.33488082E+02
 11
-5.34999981E+01
 21
3.32982087E+02
  0
LINE
  8
0
 62
4
 10
-5.89999981E+01
 20
3.32982087E+02
 11
-5.89999981E+01
 21
3.19868450E+02
  0
LINE
  8
0
 62
4
 10
-4.39999981E+01
 20
3.32982087E+02
 11
-4.39999981E+01
 21
3.03860757E+02
  0
LINE
  8
0
 62
4
 10
-7.39999981E+01
 20
3.19868450E+02
 11
-7.39999981E+01
 21
3.06183040E+02
  0
LINE
  8
0
  6
CENTER
 62
6
 10
-4.74999981E+01
 20
3.37765609E+02
 11
-4.74999981E+01
 21
3.27500031E+02
  0
LINE
  8
0
  6
CENTER
 62
6
 10
-5.54999981E+01
 20
3.37765609E+02
 11
-5.54999981E+01
 21
3.27500031E+02
  0
LINE
  8
0
  6
CENTER
 62
6
 10
-6.64999981E+01
 20
3.11129730E+02
 11
-6.64999981E+01
 21
3.06129730E+02
  0
LINE
  8
0
 62
4
 10
-4.89999981E+01
 20
3.05735186E+02
 11
-4.89999981E+01
 21
3.04134928E+02
  0
LINE
  8
0
 62
4
 10
-5.04999981E+01
 20
3.05343189E+02
 11
-5.04999981E+01
 21
3.04134928E+02
  0
LINE
  8
0
 62
4
 10
-7.54999981E+01
 20
3.08285646E+02
 11
-7.54999981E+01
 21
3.05285304E+02
  0
POLYLINE
  8
0
 62
4
 66
1
  0
VERTEX
  8
0
 62
4
 10
-5.34999980E+01
 20
3.33488082E+02
  0
VERTEX
  8
0
 62
4
 10
-5.35080495E+01
 20
3.33562428E+02
  0
VERTEX
  8
0
 62
4
 10
-5.35321389E+01
 20
3.33636175E+02
  0
VERTEX
  8
0
 62
4
 10
-5.35720723E+01
 20
3.33708729E+02
  0
VERTEX
  8
0
 62
4
 10
-5.36275283E+01
 20
3.33779508E+02
  0
VERTEX
  8
0
 62
4
 10
-5.36980603E+01
 20
3.33847939E+02
  0
VERTEX
  8
0
 62
4
 10
-5.37831005E+01
 20
3.33913474E+02
  0
VERTEX
  8
0
 62
4
 10
-5.38819641E+01
 20
3.33975583E+02
  0
VERTEX
  8
0
 62
4
 10
-5.39938551E+01
 20
3.34033767E+02
  0
VERTEX
  8
0
 62
4
 10
-5.41178728E+01
 20
3.34087558E+02
  0
VERTEX
  8
0
 62
4
 10
-5.42530185E+01
 20
3.34136522E+02
  0
VERTEX
  8
0
 62
4
 10
-5.43982041E+01
 20
3.34180266E+02
  0
VERTEX
  8
0
 62
4
 10
-5.45522607E+01
 20
3.34218436E+02
  0
VERTEX
  8
0
 62
4
 10
-5.47139480E+01
 20
3.34250726E+02
  0
VERTEX
  8
0
 62
4
 10
-5.48819641E+01
 20
3.34276875E+02
  0
VERTEX
  8
0
 62
4
 10
-5.50549562E+01
 20
3.34296674E+02
  0
VERTEX
  8
0
 62
4
 10
-5.52315316E+01
 20
3.34309962E+02
  0
VERTEX
  8
0
 62
4
 10
-5.54102684E+01
 20
3.34316633E+02
  0
VERTEX
  8
0
 62
4
 10
-5.55897278E+01
 20
3.34316633E+02
  0
VERTEX
  8
0
 62
4
 10
-5.57684646E+01
 20
3.34309962E+02
  0
VERTEX
  8
0
 62
4
 10
-5.59450400E+01
 20
3.34296674E+02
  0
VERTEX
  8
0
 62
4
 10
-5.61180321E+01
 20
3.34276875E+02
  0
VERTEX
  8
0
 62
4
 10
-5.62860482E+01
 20
3.34250726E+02
  0
VERTEX
  8
0
 62
4
 10
-5.64477355E+01
 20
3.34218436E+02
  0
VERTEX
  8
0
 62
4
 10
-5.66017921E+01
 20
3.34180266E+02
  0
VERTEX
  8
0
 62
4
 10
-5.67469777E+01
 20
3.34136522E+02
  0
VERTEX
  8
0
 62
4
 10
-5.68821234E+01
 20
3.34087558E+02
  0
VERTEX
  8
0
 62
4
 10
-5.70061411E+01
 20
3.34033767E+02
  0
VERTEX
  8
0
 62
4
 10
-5.71180321E+01
 20
3.33975583E+02
  0
VERTEX
  8
0
 62
4
 10
-5.72168957E+01
 20
3.33913474E+02
  0
VERTEX
  8
0
 62
4
 10
-5.73019359E+01
 20
3.33847939E+02
  0
VERTEX
  8
0
 62
4
 10
-5.73724679E+01
 20
3.33779508E+02
  0
VERTEX
  8
0
 62
4
 10
-5.74279239E+01
 20
3.33708729E+02
  0
VERTEX
  8
0
 62
4
 10
-5.74678573E+01
 20
3.33636175E+02
  0
VERTEX
  8
0
 62
4
 10
-5.74919467E+01
 20
3.33562428E+02
  0
VERTEX
  8
0
 62
4
 10
-5.74999982E+01
 20
3.33488082E+02
  0
SEQEND
  8
0
  0
LINE
  8
0
 62
6
 10
-4.59999981E+01
 20
3.34036669E+02
 11
-4.59999981E+01
 21
3.32982087E+02
  0
LINE
  8
0
 62
4
 10
-4.54999981E+01
 20
3.33488082E+02
 11
-4.54999981E+01
 21
3.32982087E+02
  0
POLYLINE
  8
0
 62
4
 66
1
  0
VERTEX
  8
0
 62
4
 10
-4.54999980E+01
 20
3.33488082E+02
  0
VERTEX
  8
0
 62
4
 10
-4.55080495E+01
 20
3.33562428E+02
  0
VERTEX
  8
0
 62
4
 10
-4.55321389E+01
 20
3.33636175E+02
  0
VERTEX
  8
0
 62
4
 10
-4.55720723E+01
 20
3.33708729E+02
  0
VERTEX
  8
0
 62
4
 10
-4.56275283E+01
 20
3.33779508E+02
  0
VERTEX
  8
0
 62
4
 10
-4.56980603E+01
 20
3.33847939E+02
  0
VERTEX
  8
0
 62
4
 10
-4.57831005E+01
 20
3.33913474E+02
  0
VERTEX
  8
0
 62
4
 10
-4.58819641E+01
 20
3.33975583E+02
  0
VERTEX
  8
0
 62
4
 10
-4.59938551E+01
 20
3.34033767E+02
  0
VERTEX
  8
0
 62
4
 10
-4.61178728E+01
 20
3.34087558E+02
  0
VERTEX
  8
0
 62
4
 10
-4.62530185E+01
 20
3.34136522E+02
  0
VERTEX
  8
0
 62
4
 10
-4.63982041E+01
 20
3.34180266E+02
  0
VERTEX
  8
0
 62
4
 10
-4.65522607E+01
 20
3.34218436E+02
  0
VERTEX
  8
0
 62
4
 10
-4.67139480E+01
 20
3.34250726E+02
  0
VERTEX
  8
0
 62
4
 10
-4.68819641E+01
 20
3.34276875E+02
  0
VERTEX
  8
0
 62
4
 10
-4.70549562E+01
 20
3.34296674E+02
  0
VERTEX
  8
0
 62
4
 10
-4.72315316E+01
 20
3.34309962E+02
  0
VERTEX
  8
0
 62
4
 10
-4.74102684E+01
 20
3.34316633E+02
  0
VERTEX
  8
0
 62
4
 10
-4.75897278E+01
 20
3.34316633E+02
  0
VERTEX
  8
0
 62
4
 10
-4.77684646E+01
 20
3.34309962E+02
  0
VERTEX
  8
0
 62
4
 10
-4.79450400E+01
 20
3.34296674E+02
  0
VERTEX
  8
0
 62
4
 10
-4.81180321E+01
 20
3.34276875E+02
  0
VERTEX
  8
0
 62
4
 10
-4.82860482E+01
 20
3.34250726E+02
  0
VERTEX
  8
0
 62
4
 10
-4.84477355E+01
 20
3.34218436E+02
  0
VERTEX
  8
0
 62
4
 10
-4.86017921E+01
 20
3.34180266E+02
  0
VERTEX
  8
0
 62
4
 10
-4.87469777E+01
 20
3.34136522E+02
  0
VERTEX
  8
0
 62
4
 10
-4.88821234E+01
 20
3.34087558E+02
  0
VERTEX
  8
0
 62
4
 10
-4.90061411E+01
 20
3.34033767E+02
  0
VERTEX
  8
0
 62
4
 10
-4.91180321E+01
 20
3.33975583E+02
  0
VERTEX
  8
0
 62
4
 10
-4.92168957E+01
 20
3.33913474E+02
  0
VERTEX
  8
0
 62
4
 10
-4.93019359E+01
 20
3.33847939E+02
  0
VERTEX
  8
0
 62
4
 10
-4.93724679E+01
 20
3.33779508E+02
  0
VERTEX
  8
0
 62
4
 10
-4.94279239E+01
 20
3.33708729E+02
  0
VERTEX
  8
0
 62
4
 10
-4.94678573E+01
 20
3.33636175E+02
  0
VERTEX
  8
0
 62
4
 10
-4.94919467E+01
 20
3.33562428E+02
  0
VERTEX
  8
0
 62
4
 10
-4.94999982E+01
 20
3.33488082E+02
  0
SEQEND
  8
0
  0
LINE
  8
0
 62
6
 10
-4.89999981E+01
 20
3.34036669E+02
 11
-4.89999981E+01
 21
3.32982087E+02
  0
LINE
  8
0
 62
4
 10
-4.94999981E+01
 20
3.33488082E+02
 11
-4.94999981E+01
 21
3.32982087E+02
  0
LINE
  8
0
 62
4
 10
-5.89999981E+01
 20
3.32982087E+02
 11
-4.39999981E+01
 21
3.32982087E+02
  0
LINE
  8
0
 62
4
 10
-5.89999981E+01
 20
3.26238179E+02
 11
-4.39999981E+01
 21
3.26238179E+02
  0
LINE
  8
0
 62
4
 10
-7.39999981E+01
 20
3.19868450E+02
 11
-4.39999981E+01
 21
3.19868450E+02
  0
LINE
  8
0
 62
4
 10
-7.39999981E+01
 20
3.10495849E+02
 11
-4.39999981E+01
 21
3.10495849E+02
  0
LINE
  8
0
 62
4
 10
-7.39999981E+01
 20
3.03860757E+02
 11
-6.15109285E+01
 21
3.03860757E+02
  0
LINE
  8
0
 62
4
 10
-7.39999981E+01
 20
3.09433546E+02
 11
-7.54999981E+01
 21
3.08285646E+02
  0
LINE
  8
0
 62
4
 10
-7.39999981E+01
 20
3.05793701E+02
 11
-6.31499981E+01
 21
3.05793701E+02
  0
LINE
  8
0
 62
4
 10
-7.54999981E+01
 20
3.06224584E+02
 11
-7.39999981E+01
 21
3.05793701E+02
  0
LINE
  8
0
 62
4
 10
-7.39999981E+01
 20
3.04134928E+02
 11
-6.21994889E+01
 21
3.04134928E+02
  0
LINE
  8
0
 62
4
 10
-7.54999981E+01
 20
3.05285304E+02
 11
-7.39999981E+01
 21
3.04134928E+02
  0
LINE
  8
0
 62
4
 10
-7.39999981E+01
 20
3.06183040E+02
 11
-6.31499981E+01
 21
3.06183040E+02
  0
LINE
  8
0
 62
4
 10
-7.39999981E+01
 20
3.06183040E+02
 11
-7.39999981E+01
 21
3.04134928E+02
  0
LINE
  8
0
 62
4
 10
-7.39999981E+01
 20
3.04134928E+02
 11
-7.39999981E+01
 21
3.03860757E+02
  0
LINE
  8
0
 62
4
 10
-5.52999981E+01
 20
3.08629730E+02
 11
-5.52999981E+01
 21
3.07719769E+02
  0
LINE
  8
0
 62
4
 10
-4.76999981E+01
 20
3.07719769E+02
 11
-4.76999981E+01
 21
3.08629730E+02
  0
LINE
  8
0
 62
4
 10
-5.48999981E+01
 20
3.07719769E+02
 11
-5.48999981E+01
 21
3.06690782E+02
  0
LINE
  8
0
 62
4
 10
-4.80999981E+01
 20
3.07719769E+02
 11
-4.80999981E+01
 21
3.06690782E+02
  0
LINE
  8
0
 62
4
 10
-5.48499981E+01
 20
3.06449867E+02
 11
-5.48499981E+01
 21
3.05230986E+02
  0
LINE
  8
0
 62
4
 10
-6.31499981E+01
 20
3.05230986E+02
 11
-6.31499981E+01
 21
3.06832518E+02
  0
POLYLINE
  8
0
 62
4
 66
1
  0
VERTEX
  8
0
 62
4
 10
-5.52999981E+01
 20
3.07808582E+02
  0
VERTEX
  8
0
 62
4
 10
-5.54498988E+01
 20
3.07942599E+02
  0
VERTEX
  8
0
 62
4
 10
-5.56279583E+01
 20
3.08070554E+02
  0
VERTEX
  8
0
 62
4
 10
-5.58327644E+01
 20
3.08191431E+02
  0
VERTEX
  8
0
 62
4
 10
-5.60626926E+01
 20
3.08304272E+02
  0
VERTEX
  8
0
 62
4
 10
-5.63159191E+01
 20
3.08408183E+02
  0
VERTEX
  8
0
 62
4
 10
-5.65904353E+01
 20
3.08502338E+02
  0
VERTEX
  8
0
 62
4
 10
-5.68840638E+01
 20
3.08585991E+02
  0
VERTEX
  8
0
 62
4
 10
-5.71944757E+01
 20
3.08658478E+02
  0
VERTEX
  8
0
 62
4
 10
-5.75192086E+01
 20
3.08719225E+02
  0
VERTEX
  8
0
 62
4
 10
-5.78556870E+01
 20
3.08767750E+02
  0
VERTEX
  8
0
 62
4
 10
-5.82012419E+01
 20
3.08803667E+02
  0
VERTEX
  8
0
 62
4
 10
-5.85531325E+01
 20
3.08826692E+02
  0
VERTEX
  8
0
 62
4
 10
-5.89085675E+01
 20
3.08836643E+02
  0
VERTEX
  8
0
 62
4
 10
-5.92647277E+01
 20
3.08833439E+02
  0
VERTEX
  8
0
 62
4
 10
-5.96187882E+01
 20
3.08817107E+02
  0
VERTEX
  8
0
 62
4
 10
-5.99679404E+01
 20
3.08787777E+02
  0
VERTEX
  8
0
 62
4
 10
-6.03094151E+01
 20
3.08745680E+02
  0
VERTEX
  8
0
 62
4
 10
-6.06405037E+01
 20
3.08691152E+02
  0
VERTEX
  8
0
 62
4
 10
-6.09585800E+01
 20
3.08624623E+02
  0
VERTEX
  8
0
 62
4
 10
-6.12611211E+01
 20
3.08546622E+02
  0
VERTEX
  8
0
 62
4
 10
-6.15457273E+01
 20
3.08457769E+02
  0
VERTEX
  8
0
 62
4
 10
-6.18101411E+01
 20
3.08358766E+02
  0
VERTEX
  8
0
 62
4
 10
-6.20522653E+01
 20
3.08250401E+02
  0
VERTEX
  8
0
 62
4
 10
-6.22701793E+01
 20
3.08133531E+02
  0
VERTEX
  8
0
 62
4
 10
-6.24621547E+01
 20
3.08009085E+02
  0
VERTEX
  8
0
 62
4
 10
-6.26266687E+01
 20
3.07878049E+02
  0
VERTEX
  8
0
 62
4
 10
-6.27624165E+01
 20
3.07741463E+02
  0
VERTEX
  8
0
 62
4
 10
-6.28683213E+01
 20
3.07600410E+02
  0
VERTEX
  8
0
 62
4
 10
-6.29435431E+01
 20
3.07456009E+02
  0
VERTEX
  8
0
 62
4
 10
-6.29874853E+01
 20
3.07309405E+02
  0
SEQEND
  8
0
  0
POLYLINE
  8
0
 62
4
 66
1
  0
VERTEX
  8
0
 62
4
 10
-5.52896236E+01
 20
3.07603404E+02
  0
VERTEX
  8
0
 62
4
 10
-5.54700544E+01
 20
3.07737462E+02
  0
VERTEX
  8
0
 62
4
 10
-5.56785770E+01
 20
3.07864318E+02
  0
VERTEX
  8
0
 62
4
 10
-5.59135319E+01
 20
3.07982963E+02
  0
VERTEX
  8
0
 62
4
 10
-5.61730492E+01
 20
3.08092453E+02
  0
VERTEX
  8
0
 62
4
 10
-5.64550638E+01
 20
3.08191916E+02
  0
VERTEX
  8
0
 62
4
 10
-5.67573313E+01
 20
3.08280560E+02
  0
VERTEX
  8
0
 62
4
 10
-5.70774462E+01
 20
3.08357681E+02
  0
VERTEX
  8
0
 62
4
 10
-5.74128611E+01
 20
3.08422665E+02
  0
VERTEX
  8
0
 62
4
 10
-5.77609065E+01
 20
3.08474994E+02
  0
VERTEX
  8
0
 62
4
 10
-5.81188129E+01
 20
3.08514252E+02
  0
VERTEX
  8
0
 62
4
 10
-5.84837318E+01
 20
3.08540126E+02
  0
VERTEX
  8
0
 62
4
 10
-5.88527592E+01
 20
3.08552411E+02
  0
VERTEX
  8
0
 62
4
 10
-5.92229584E+01
 20
3.08551009E+02
  0
VERTEX
  8
0
 62
4
 10
-5.95913832E+01
 20
3.08535931E+02
  0
VERTEX
  8
0
 62
4
 10
-5.99551017E+01
 20
3.08507297E+02
  0
VERTEX
  8
0
 62
4
 10
-6.03112194E+01
 20
3.08465335E+02
  0
VERTEX
  8
0
 62
4
 10
-6.06569022E+01
 20
3.08410379E+02
  0
VERTEX
  8
0
 62
4
 10
-6.09893991E+01
 20
3.08342866E+02
  0
VERTEX
  8
0
 62
4
 10
-6.13060642E+01
 20
3.08263333E+02
  0
VERTEX
  8
0
 62
4
 10
-6.16043772E+01
 20
3.08172414E+02
  0
VERTEX
  8
0
 62
4
 10
-6.18819643E+01
 20
3.08070832E+02
  0
VERTEX
  8
0
 62
4
 10
-6.21366164E+01
 20
3.07959395E+02
  0
VERTEX
  8
0
 62
4
 10
-6.23663068E+01
 20
3.07838990E+02
  0
VERTEX
  8
0
 62
4
 10
-6.25692077E+01
 20
3.07710576E+02
  0
VERTEX
  8
0
 62
4
 10
-6.27437044E+01
 20
3.07575174E+02
  0
VERTEX
  8
0
 62
4
 10
-6.28884082E+01
 20
3.07433861E+02
  0
VERTEX
  8
0
 62
4
 10
-6.30021675E+01
 20
3.07287764E+02
  0
VERTEX
  8
0
 62
4
 10
-6.30840771E+01
 20
3.07138043E+02
  0
VERTEX
  8
0
 62
4
 10
-6.31334850E+01
 20
3.06985891E+02
  0
VERTEX
  8
0
 62
4
 10
-6.31499981E+01
 20
3.06832518E+02
  0
SEQEND
  8
0
  0
POLYLINE
  8
0
 62
4
 66
1
  0
VERTEX
  8
0
 62
4
 10
-6.31499981E+01
 20
3.05230986E+02
  0
VERTEX
  8
0
 62
4
 10
-6.31342061E+01
 20
3.05080993E+02
  0
VERTEX
  8
0
 62
4
 10
-6.30869503E+01
 20
3.04932142E+02
  0
VERTEX
  8
0
 62
4
 10
-6.30085903E+01
 20
3.04785564E+02
  0
VERTEX
  8
0
 62
4
 10
-6.28997225E+01
 20
3.04642377E+02
  0
VERTEX
  8
0
 62
4
 10
-6.27611754E+01
 20
3.04503670E+02
  0
VERTEX
  8
0
 62
4
 10
-6.25940035E+01
 20
3.04370498E+02
  0
VERTEX
  8
0
 62
4
 10
-6.23994791E+01
 20
3.04243874E+02
  0
VERTEX
  8
0
 62
4
 10
-6.21790825E+01
 20
3.04124763E+02
  0
VERTEX
  8
0
 62
4
 10
-6.19344912E+01
 20
3.04014072E+02
  0
VERTEX
  8
0
 62
4
 10
-6.16675667E+01
 20
3.03912641E+02
  0
VERTEX
  8
0
 62
4
 10
-6.13803403E+01
 20
3.03821244E+02
  0
VERTEX
  8
0
 62
4
 10
-6.10749981E+01
 20
3.03740576E+02
  0
VERTEX
  8
0
 62
4
 10
-6.07538639E+01
 20
3.03671251E+02
  0
VERTEX
  8
0
 62
4
 10
-6.04193817E+01
 20
3.03613797E+02
  0
VERTEX
  8
0
 62
4
 10
-6.00740971E+01
 20
3.03568650E+02
  0
VERTEX
  8
0
 62
4
 10
-5.97206380E+01
 20
3.03536155E+02
  0
VERTEX
  8
0
 62
4
 10
-5.93616944E+01
 20
3.03516558E+02
  0
VERTEX
  8
0
 62
4
 10
-5.89999981E+01
 20
3.03510009E+02
  0
VERTEX
  8
0
 62
4
 10
-5.86383018E+01
 20
3.03516558E+02
  0
VERTEX
  8
0
 62
4
 10
-5.82793582E+01
 20
3.03536155E+02
  0
VERTEX
  8
0
 62
4
 10
-5.79258991E+01
 20
3.03568650E+02
  0
VERTEX
  8
0
 62
4
 10
-5.75806145E+01
 20
3.03613797E+02
  0
VERTEX
  8
0
 62
4
 10
-5.72461323E+01
 20
3.03671251E+02
  0
VERTEX
  8
0
 62
4
 10
-5.69249981E+01
 20
3.03740576E+02
  0
VERTEX
  8
0
 62
4
 10
-5.66196559E+01
 20
3.03821244E+02
  0
VERTEX
  8
0
 62
4
 10
-5.63324295E+01
 20
3.03912641E+02
  0
VERTEX
  8
0
 62
4
 10
-5.60655050E+01
 20
3.04014072E+02
  0
VERTEX
  8
0
 62
4
 10
-5.58209137E+01
 20
3.04124763E+02
  0
VERTEX
  8
0
 62
4
 10
-5.56005171E+01
 20
3.04243874E+02
  0
VERTEX
  8
0
 62
4
 10
-5.54059927E+01
 20
3.04370498E+02
  0
VERTEX
  8
0
 62
4
 10
-5.52388208E+01
 20
3.04503670E+02
  0
VERTEX
  8
0
 62
4
 10
-5.51002737E+01
 20
3.04642377E+02
  0
VERTEX
  8
0
 62
4
 10
-5.49914059E+01
 20
3.04785564E+02
  0
VERTEX
  8
0
 62
4
 10
-5.49130459E+01
 20
3.04932141E+02
  0
VERTEX
  8
0
 62
4
 10
-5.48657901E+01
 20
3.05080993E+02
  0
VERTEX
  8
0
 62
4
 10
-5.48499981E+01
 20
3.05230986E+02
  0
VERTEX
  8
0
 62
4
 10
-5.48657901E+01
 20
3.05380979E+02
  0
VERTEX
  8
0
 62
4
 10
-5.49130459E+01
 20
3.05529830E+02
  0
VERTEX
  8
0
 62
4
 10
-5.49914059E+01
 20
3.05676408E+02
  0
VERTEX
  8
0
 62
4
 10
-5.51002737E+01
 20
3.05819595E+02
  0
VERTEX
  8
0
 62
4
 10
-5.52388208E+01
 20
3.05958302E+02
  0
VERTEX
  8
0
 62
4
 10
-5.54059927E+01
 20
3.06091474E+02
  0
VERTEX
  8
0
 62
4
 10
-5.56005171E+01
 20
3.06218098E+02
  0
VERTEX
  8
0
 62
4
 10
-5.58209137E+01
 20
3.06337209E+02
  0
VERTEX
  8
0
 62
4
 10
-5.60655050E+01
 20
3.06447900E+02
  0
VERTEX
  8
0
 62
4
 10
-5.63324295E+01
 20
3.06549331E+02
  0
VERTEX
  8
0
 62
4
 10
-5.66196559E+01
 20
3.06640728E+02
  0
VERTEX
  8
0
 62
4
 10
-5.69249981E+01
 20
3.06721396E+02
  0
VERTEX
  8
0
 62
4
 10
-5.72461323E+01
 20
3.06790721E+02
  0
VERTEX
  8
0
 62
4
 10
-5.75806145E+01
 20
3.06848175E+02
  0
VERTEX
  8
0
 62
4
 10
-5.79258991E+01
 20
3.06893322E+02
  0
VERTEX
  8
0
 62
4
 10
-5.82793582E+01
 20
3.06925817E+02
  0
VERTEX
  8
0
 62
4
 10
-5.86383018E+01
 20
3.06945414E+02
  0
VERTEX
  8
0
 62
4
 10
-5.89999981E+01
 20
3.06951963E+02
  0
VERTEX
  8
0
 62
4
 10
-5.93616944E+01
 20
3.06945414E+02
  0
VERTEX
  8
0
 62
4
 10
-5.97206380E+01
 20
3.06925817E+02
  0
VERTEX
  8
0
 62
4
 10
-6.00740971E+01
 20
3.06893322E+02
  0
VERTEX
  8
0
 62
4
 10
-6.04193817E+01
 20
3.06848175E+02
  0
VERTEX
  8
0
 62
4
 10
-6.07538639E+01
 20
3.06790721E+02
  0
VERTEX
  8
0
 62
4
 10
-6.10749981E+01
 20
3.06721396E+02
  0
VERTEX
  8
0
 62
4
 10
-6.13803403E+01
 20
3.06640728E+02
  0
VERTEX
  8
0
 62
4
 10
-6.16675667E+01
 20
3.06549331E+02
  0
VERTEX
  8
0
 62
4
 10
-6.19344912E+01
 20
3.06447900E+02
  0
VERTEX
  8
0
 62
4
 10
-6.21790825E+01
 20
3.06337209E+02
  0
VERTEX
  8
0
 62
4
 10
-6.23994791E+01
 20
3.06218098E+02
  0
VERTEX
  8
0
 62
4
 10
-6.25940035E+01
 20
3.06091474E+02
  0
VERTEX
  8
0
 62
4
 10
-6.27611754E+01
 20
3.05958302E+02
  0
VERTEX
  8
0
 62
4
 10
-6.28997225E+01
 20
3.05819595E+02
  0
VERTEX
  8
0
 62
4
 10
-6.30085903E+01
 20
3.05676408E+02
  0
VERTEX
  8
0
 62
4
 10
-6.30869503E+01
 20
3.05529831E+02
  0
VERTEX
  8
0
 62
4
 10
-6.31342061E+01
 20
3.05380979E+02
  0
VERTEX
  8
0
 62
4
 10
-6.31499981E+01
 20
3.05230986E+02
  0
SEQEND
  8
0
  0
ARC
  8
0
 62
4
 10
-6.53695988E+01
 20
3.20015606E+02
 40
1.67245585E+01
 50
2.85971208E+02
 51
2.99114206E+02
  0
ARC
  8
0
 62
4
 10
-5.26303940E+01
 20
3.20015614E+02
 40
1.67245676E+01
 50
2.40885798E+02
 51
2.54028789E+02
  0
POLYLINE
  8
0
 62
4
 66
1
  0
VERTEX
  8
0
 62
4
 10
-4.76999981E+01
 20
3.08629730E+02
  0
VERTEX
  8
0
 62
4
 10
-4.77152958E+01
 20
3.08770987E+02
  0
VERTEX
  8
0
 62
4
 10
-4.77610657E+01
 20
3.08911106E+02
  0
VERTEX
  8
0
 62
4
 10
-4.78369392E+01
 20
3.09048960E+02
  0
VERTEX
  8
0
 62
4
 10
-4.79423056E+01
 20
3.09183438E+02
  0
VERTEX
  8
0
 62
4
 10
-4.80763164E+01
 20
3.09313459E+02
  0
VERTEX
  8
0
 62
4
 10
-4.82378927E+01
 20
3.09437974E+02
  0
VERTEX
  8
0
 62
4
 10
-4.84257335E+01
 20
3.09555982E+02
  0
VERTEX
  8
0
 62
4
 10
-4.86383265E+01
 20
3.09666532E+02
  0
VERTEX
  8
0
 62
4
 10
-4.88739600E+01
 20
3.09768735E+02
  0
VERTEX
  8
0
 62
4
 10
-4.91307368E+01
 20
3.09861767E+02
  0
VERTEX
  8
0
 62
4
 10
-4.94065896E+01
 20
3.09944879E+02
  0
VERTEX
  8
0
 62
4
 10
-4.96992972E+01
 20
3.10017403E+02
  0
VERTEX
  8
0
 62
4
 10
-5.00065030E+01
 20
3.10078753E+02
  0
VERTEX
  8
0
 62
4
 10
-5.03257335E+01
 20
3.10128437E+02
  0
VERTEX
  8
0
 62
4
 10
-5.06544185E+01
 20
3.10166055E+02
  0
VERTEX
  8
0
 62
4
 10
-5.09899117E+01
 20
3.10191303E+02
  0
VERTEX
  8
0
 62
4
 10
-5.13295117E+01
 20
3.10203978E+02
  0
VERTEX
  8
0
 62
4
 10
-5.16704844E+01
 20
3.10203978E+02
  0
VERTEX
  8
0
 62
4
 10
-5.20100845E+01
 20
3.10191303E+02
  0
VERTEX
  8
0
 62
4
 10
-5.23455776E+01
 20
3.10166055E+02
  0
VERTEX
  8
0
 62
4
 10
-5.26742627E+01
 20
3.10128438E+02
  0
VERTEX
  8
0
 62
4
 10
-5.29934932E+01
 20
3.10078753E+02
  0
VERTEX
  8
0
 62
4
 10
-5.33006990E+01
 20
3.10017403E+02
  0
VERTEX
  8
0
 62
4
 10
-5.35934066E+01
 20
3.09944879E+02
  0
VERTEX
  8
0
 62
4
 10
-5.38692593E+01
 20
3.09861767E+02
  0
VERTEX
  8
0
 62
4
 10
-5.41260361E+01
 20
3.09768735E+02
  0
VERTEX
  8
0
 62
4
 10
-5.43616697E+01
 20
3.09666532E+02
  0
VERTEX
  8
0
 62
4
 10
-5.45742627E+01
 20
3.09555982E+02
  0
VERTEX
  8
0
 62
4
 10
-5.47621035E+01
 20
3.09437974E+02
  0
VERTEX
  8
0
 62
4
 10
-5.49236798E+01
 20
3.09313459E+02
  0
VERTEX
  8
0
 62
4
 10
-5.50576906E+01
 20
3.09183439E+02
  0
VERTEX
  8
0
 62
4
 10
-5.51630570E+01
 20
3.09048960E+02
  0
VERTEX
  8
0
 62
4
 10
-5.52389305E+01
 20
3.08911106E+02
  0
VERTEX
  8
0
 62
4
 10
-5.52847004E+01
 20
3.08770987E+02
  0
VERTEX
  8
0
 62
4
 10
-5.52999981E+01
 20
3.08629730E+02
  0
SEQEND
  8
0
  0
POLYLINE
  8
0
 62
4
 66
1
  0
VERTEX
  8
0
 62
4
 10
-4.80999981E+01
 20
3.07016011E+02
  0
VERTEX
  8
0
 62
4
 10
-4.79634164E+01
 20
3.07143272E+02
  0
VERTEX
  8
0
 62
4
 10
-4.78544686E+01
 20
3.07275038E+02
  0
VERTEX
  8
0
 62
4
 10
-4.77740058E+01
 20
3.07410279E+02
  0
VERTEX
  8
0
 62
4
 10
-4.77226568E+01
 20
3.07547937E+02
  0
VERTEX
  8
0
 62
4
 10
-4.77008228E+01
 20
3.07686939E+02
  0
VERTEX
  8
0
 62
4
 10
-4.77086745E+01
 20
3.07826197E+02
  0
VERTEX
  8
0
 62
4
 10
-4.77461505E+01
 20
3.07964623E+02
  0
VERTEX
  8
0
 62
4
 10
-4.78129579E+01
 20
3.08101137E+02
  0
VERTEX
  8
0
 62
4
 10
-4.79085747E+01
 20
3.08234670E+02
  0
VERTEX
  8
0
 62
4
 10
-4.80322539E+01
 20
3.08364180E+02
  0
VERTEX
  8
0
 62
4
 10
-4.81830290E+01
 20
3.08488655E+02
  0
VERTEX
  8
0
 62
4
 10
-4.83597219E+01
 20
3.08607122E+02
  0
VERTEX
  8
0
 62
4
 10
-4.85609519E+01
 20
3.08718655E+02
  0
VERTEX
  8
0
 62
4
 10
-4.87851469E+01
 20
3.08822384E+02
  0
VERTEX
  8
0
 62
4
 10
-4.90305548E+01
 20
3.08917497E+02
  0
VERTEX
  8
0
 62
4
 10
-4.92952583E+01
 20
3.09003251E+02
  0
VERTEX
  8
0
 62
4
 10
-4.95771889E+01
 20
3.09078977E+02
  0
VERTEX
  8
0
 62
4
 10
-4.98741438E+01
 20
3.09144082E+02
  0
VERTEX
  8
0
 62
4
 10
-5.01838027E+01
 20
3.09198058E+02
  0
VERTEX
  8
0
 62
4
 10
-5.05037459E+01
 20
3.09240483E+02
  0
VERTEX
  8
0
 62
4
 10
-5.08314735E+01
 20
3.09271025E+02
  0
VERTEX
  8
0
 62
4
 10
-5.11644248E+01
 20
3.09289447E+02
  0
VERTEX
  8
0
 62
4
 10
-5.14999981E+01
 20
3.09295603E+02
  0
VERTEX
  8
0
 62
4
 10
-5.18355715E+01
 20
3.09289447E+02
  0
VERTEX
  8
0
 62
4
 10
-5.21685227E+01
 20
3.09271025E+02
  0
VERTEX
  8
0
 62
4
 10
-5.24962504E+01
 20
3.09240483E+02
  0
VERTEX
  8
0
 62
4
 10
-5.28161936E+01
 20
3.09198058E+02
  0
VERTEX
  8
0
 62
4
 10
-5.31258524E+01
 20
3.09144082E+02
  0
VERTEX
  8
0
 62
4
 10
-5.34228073E+01
 20
3.09078977E+02
  0
VERTEX
  8
0
 62
4
 10
-5.37047379E+01
 20
3.09003251E+02
  0
VERTEX
  8
0
 62
4
 10
-5.39694414E+01
 20
3.08917497E+02
  0
VERTEX
  8
0
 62
4
 10
-5.42148494E+01
 20
3.08822384E+02
  0
VERTEX
  8
0
 62
4
 10
-5.44390443E+01
 20
3.08718655E+02
  0
VERTEX
  8
0
 62
4
 10
-5.46402744E+01
 20
3.08607122E+02
  0
VERTEX
  8
0
 62
4
 10
-5.48169673E+01
 20
3.08488655E+02
  0
VERTEX
  8
0
 62
4
 10
-5.49677423E+01
 20
3.08364180E+02
  0
VERTEX
  8
0
 62
4
 10
-5.50914215E+01
 20
3.08234670E+02
  0
VERTEX
  8
0
 62
4
 10
-5.51870383E+01
 20
3.08101137E+02
  0
VERTEX
  8
0
 62
4
 10
-5.52538457E+01
 20
3.07964623E+02
  0
VERTEX
  8
0
 62
4
 10
-5.52913217E+01
 20
3.07826197E+02
  0
VERTEX
  8
0
 62
4
 10
-5.52991734E+01
 20
3.07686939E+02
  0
VERTEX
  8
0
 62
4
 10
-5.52773394E+01
 20
3.07547937E+02
  0
VERTEX
  8
0
 62
4
 10
-5.52259904E+01
 20
3.07410279E+02
  0
VERTEX
  8
0
 62
4
 10
-5.51455276E+01
 20
3.07275038E+02
  0
VERTEX
  8
0
 62
4
 10
-5.50365798E+01
 20
3.07143272E+02
  0
VERTEX
  8
0
 62
4
 10
-5.48999981E+01
 20
3.07016011E+02
  0
SEQEND
  8
0
  0
POLYLINE
  8
0
 62
4
 66
1
  0
VERTEX
  8
0
 62
4
 10
-4.80999981E+01
 20
3.07719769E+02
  0
VERTEX
  8
0
 62
4
 10
-4.81136855E+01
 20
3.07846157E+02
  0
VERTEX
  8
0
 62
4
 10
-4.81546375E+01
 20
3.07971527E+02
  0
VERTEX
  8
0
 62
4
 10
-4.82225244E+01
 20
3.08094870E+02
  0
VERTEX
  8
0
 62
4
 10
-4.83167995E+01
 20
3.08215192E+02
  0
VERTEX
  8
0
 62
4
 10
-4.84367039E+01
 20
3.08331526E+02
  0
VERTEX
  8
0
 62
4
 10
-4.85812722E+01
 20
3.08442935E+02
  0
VERTEX
  8
0
 62
4
 10
-4.87493403E+01
 20
3.08548521E+02
  0
VERTEX
  8
0
 62
4
 10
-4.89395551E+01
 20
3.08647434E+02
  0
VERTEX
  8
0
 62
4
 10
-4.91503851E+01
 20
3.08738879E+02
  0
VERTEX
  8
0
 62
4
 10
-4.93801328E+01
 20
3.08822118E+02
  0
VERTEX
  8
0
 62
4
 10
-4.96269483E+01
 20
3.08896481E+02
  0
VERTEX
  8
0
 62
4
 10
-4.98888446E+01
 20
3.08961371E+02
  0
VERTEX
  8
0
 62
4
 10
-5.01637130E+01
 20
3.09016264E+02
  0
VERTEX
  8
0
 62
4
 10
-5.04493403E+01
 20
3.09060718E+02
  0
VERTEX
  8
0
 62
4
 10
-5.07434269E+01
 20
3.09094375E+02
  0
VERTEX
  8
0
 62
4
 10
-5.10436050E+01
 20
3.09116966E+02
  0
VERTEX
  8
0
 62
4
 10
-5.13474577E+01
 20
3.09128306E+02
  0
VERTEX
  8
0
 62
4
 10
-5.16525385E+01
 20
3.09128306E+02
  0
VERTEX
  8
0
 62
4
 10
-5.19563912E+01
 20
3.09116966E+02
  0
VERTEX
  8
0
 62
4
 10
-5.22565693E+01
 20
3.09094375E+02
  0
VERTEX
  8
0
 62
4
 10
-5.25506559E+01
 20
3.09060718E+02
  0
VERTEX
  8
0
 62
4
 10
-5.28362832E+01
 20
3.09016264E+02
  0
VERTEX
  8
0
 62
4
 10
-5.31111515E+01
 20
3.08961371E+02
  0
VERTEX
  8
0
 62
4
 10
-5.33730478E+01
 20
3.08896481E+02
  0
VERTEX
  8
0
 62
4
 10
-5.36198634E+01
 20
3.08822118E+02
  0
VERTEX
  8
0
 62
4
 10
-5.38496111E+01
 20
3.08738879E+02
  0
VERTEX
  8
0
 62
4
 10
-5.40604411E+01
 20
3.08647434E+02
  0
VERTEX
  8
0
 62
4
 10
-5.42506559E+01
 20
3.08548521E+02
  0
VERTEX
  8
0
 62
4
 10
-5.44187240E+01
 20
3.08442935E+02
  0
VERTEX
  8
0
 62
4
 10
-5.45632922E+01
 20
3.08331526E+02
  0
VERTEX
  8
0
 62
4
 10
-5.46831967E+01
 20
3.08215192E+02
  0
VERTEX
  8
0
 62
4
 10
-5.47774718E+01
 20
3.08094870E+02
  0
VERTEX
  8
0
 62
4
 10
-5.48453587E+01
 20
3.07971527E+02
  0
VERTEX
  8
0
 62
4
 10
-5.48863107E+01
 20
3.07846157E+02
  0
VERTEX
  8
0
 62
4
 10
-5.48999981E+01
 20
3.07719769E+02
  0
SEQEND
  8
0
  0
POLYLINE
  8
0
 62
4
 66
1
  0
VERTEX
  8
0
 62
4
 10
-5.48999981E+01
 20
3.06690782E+02
  0
VERTEX
  8
0
 62
4
 10
-5.48870601E+01
 20
3.06567896E+02
  0
VERTEX
  8
0
 62
4
 10
-5.48483445E+01
 20
3.06445946E+02
  0
VERTEX
  8
0
 62
4
 10
-5.47841459E+01
 20
3.06325858E+02
  0
VERTEX
  8
0
 62
4
 10
-5.46949530E+01
 20
3.06208548E+02
  0
VERTEX
  8
0
 62
4
 10
-5.45814446E+01
 20
3.06094908E+02
  0
VERTEX
  8
0
 62
4
 10
-5.44444845E+01
 20
3.05985803E+02
  0
VERTEX
  8
0
 62
4
 10
-5.42851151E+01
 20
3.05882064E+02
  0
VERTEX
  8
0
 62
4
 10
-5.41045492E+01
 20
3.05784479E+02
  0
VERTEX
  8
0
 62
4
 10
-5.39041612E+01
 20
3.05693792E+02
  0
VERTEX
  8
0
 62
4
 10
-5.36854760E+01
 20
3.05610692E+02
  0
VERTEX
  8
0
 62
4
 10
-5.34501580E+01
 20
3.05535813E+02
  0
VERTEX
  8
0
 62
4
 10
-5.31999981E+01
 20
3.05469723E+02
  0
VERTEX
  8
0
 62
4
 10
-5.29369002E+01
 20
3.05412927E+02
  0
VERTEX
  8
0
 62
4
 10
-5.26628666E+01
 20
3.05365856E+02
  0
VERTEX
  8
0
 62
4
 10
-5.23799829E+01
 20
3.05328868E+02
  0
VERTEX
  8
0
 62
4
 10
-5.20904019E+01
 20
3.05302245E+02
  0
VERTEX
  8
0
 62
4
 10
-5.17963276E+01
 20
3.05286190E+02
  0
VERTEX
  8
0
 62
4
 10
-5.14999981E+01
 20
3.05280825E+02
  0
VERTEX
  8
0
 62
4
 10
-5.12036686E+01
 20
3.05286190E+02
  0
VERTEX
  8
0
 62
4
 10
-5.09095943E+01
 20
3.05302245E+02
  0
VERTEX
  8
0
 62
4
 10
-5.06200133E+01
 20
3.05328868E+02
  0
VERTEX
  8
0
 62
4
 10
-5.03371296E+01
 20
3.05365856E+02
  0
VERTEX
  8
0
 62
4
 10
-5.00630960E+01
 20
3.05412927E+02
  0
VERTEX
  8
0
 62
4
 10
-4.97999981E+01
 20
3.05469723E+02
  0
VERTEX
  8
0
 62
4
 10
-4.95498382E+01
 20
3.05535813E+02
  0
VERTEX
  8
0
 62
4
 10
-4.93145202E+01
 20
3.05610692E+02
  0
VERTEX
  8
0
 62
4
 10
-4.90958350E+01
 20
3.05693792E+02
  0
VERTEX
  8
0
 62
4
 10
-4.88954470E+01
 20
3.05784479E+02
  0
VERTEX
  8
0
 62
4
 10
-4.87148812E+01
 20
3.05882064E+02
  0
VERTEX
  8
0
 62
4
 10
-4.85555117E+01
 20
3.05985803E+02
  0
VERTEX
  8
0
 62
4
 10
-4.84185516E+01
 20
3.06094908E+02
  0
VERTEX
  8
0
 62
4
 10
-4.83050432E+01
 20
3.06208548E+02
  0
VERTEX
  8
0
 62
4
 10
-4.82158503E+01
 20
3.06325858E+02
  0
VERTEX
  8
0
 62
4
 10
-4.81516517E+01
 20
3.06445946E+02
  0
VERTEX
  8
0
 62
4
 10
-4.81129361E+01
 20
3.06567896E+02
  0
VERTEX
  8
0
 62
4
 10
-4.80999981E+01
 20
3.06690782E+02
  0
VERTEX
  8
0
 62
4
 10
-4.81129361E+01
 20
3.06813668E+02
  0
VERTEX
  8
0
 62
4
 10
-4.81516517E+01
 20
3.06935618E+02
  0
VERTEX
  8
0
 62
4
 10
-4.82158503E+01
 20
3.07055706E+02
  0
VERTEX
  8
0
 62
4
 10
-4.83050432E+01
 20
3.07173016E+02
  0
VERTEX
  8
0
 62
4
 10
-4.84185516E+01
 20
3.07286656E+02
  0
VERTEX
  8
0
 62
4
 10
-4.85555117E+01
 20
3.07395761E+02
  0
VERTEX
  8
0
 62
4
 10
-4.87148811E+01
 20
3.07499500E+02
  0
VERTEX
  8
0
 62
4
 10
-4.88954470E+01
 20
3.07597085E+02
  0
VERTEX
  8
0
 62
4
 10
-4.90958350E+01
 20
3.07687772E+02
  0
VERTEX
  8
0
 62
4
 10
-4.93145202E+01
 20
3.07770872E+02
  0
VERTEX
  8
0
 62
4
 10
-4.95498382E+01
 20
3.07845751E+02
  0
VERTEX
  8
0
 62
4
 10
-4.97999981E+01
 20
3.07911841E+02
  0
VERTEX
  8
0
 62
4
 10
-5.00630960E+01
 20
3.07968637E+02
  0
VERTEX
  8
0
 62
4
 10
-5.03371296E+01
 20
3.08015708E+02
  0
VERTEX
  8
0
 62
4
 10
-5.06200133E+01
 20
3.08052696E+02
  0
VERTEX
  8
0
 62
4
 10
-5.09095943E+01
 20
3.08079319E+02
  0
VERTEX
  8
0
 62
4
 10
-5.12036686E+01
 20
3.08095374E+02
  0
VERTEX
  8
0
 62
4
 10
-5.14999981E+01
 20
3.08100739E+02
  0
VERTEX
  8
0
 62
4
 10
-5.17963276E+01
 20
3.08095374E+02
  0
VERTEX
  8
0
 62
4
 10
-5.20904019E+01
 20
3.08079319E+02
  0
VERTEX
  8
0
 62
4
 10
-5.23799829E+01
 20
3.08052696E+02
  0
VERTEX
  8
0
 62
4
 10
-5.26628666E+01
 20
3.08015708E+02
  0
VERTEX
  8
0
 62
4
 10
-5.29369002E+01
 20
3.07968637E+02
  0
VERTEX
  8
0
 62
4
 10
-5.31999981E+01
 20
3.07911841E+02
  0
VERTEX
  8
0
 62
4
 10
-5.34501580E+01
 20
3.07845751E+02
  0
VERTEX
  8
0
 62
4
 10
-5.36854760E+01
 20
3.07770872E+02
  0
VERTEX
  8
0
 62
4
 10
-5.39041612E+01
 20
3.07687772E+02
  0
VERTEX
  8
0
 62
4
 10
-5.41045492E+01
 20
3.07597085E+02
  0
VERTEX
  8
0
 62
4
 10
-5.42851151E+01
 20
3.07499500E+02
  0
VERTEX
  8
0
 62
4
 10
-5.44444845E+01
 20
3.07395761E+02
  0
VERTEX
  8
0
 62
4
 10
-5.45814446E+01
 20
3.07286656E+02
  0
VERTEX
  8
0
 62
4
 10
-5.46949530E+01
 20
3.07173016E+02
  0
VERTEX
  8
0
 62
4
 10
-5.47841459E+01
 20
3.07055706E+02
  0
VERTEX
  8
0
 62
4
 10
-5.48483445E+01
 20
3.06935618E+02
  0
VERTEX
  8
0
 62
4
 10
-5.48870601E+01
 20
3.06813668E+02
  0
VERTEX
  8
0
 62
4
 10
-5.48999981E+01
 20
3.06690782E+02
  0
SEQEND
  8
0
  0
ARC
  8
0
 62
4
 10
-5.77470563E+01
 20
3.20720686E+02
 40
1.64201370E+01
 50
2.90122188E+02
 51
2.99216401E+02
  0
ARC
  8
0
 62
4
 10
-4.52529393E+01
 20
3.20720687E+02
 40
1.64201386E+01
 50
2.40783600E+02
 51
2.49877812E+02
  0
LINE
  8
0
  6
CENTER
 62
6
 10
-6.89999981E+01
 20
3.08629730E+02
 11
-6.39999981E+01
 21
3.08629730E+02
  0
LINE
  8
0
 62
4
 10
-4.83281074E+01
 20
3.06183040E+02
 11
-4.39999981E+01
 21
3.06183040E+02
  0
LINE
  8
0
 62
4
 10
-5.48499981E+01
 20
3.06183040E+02
 11
-5.46718888E+01
 21
3.06183040E+02
  0
LINE
  8
0
 62
4
 10
-5.48499981E+01
 20
3.05793701E+02
 11
-5.41230474E+01
 21
3.05793701E+02
  0
LINE
  8
0
 62
4
 10
-5.58005073E+01
 20
3.04134928E+02
 11
-4.89999981E+01
 21
3.04134928E+02
  0
LINE
  8
0
 62
4
 10
-5.64890677E+01
 20
3.03860757E+02
 11
-4.39999981E+01
 21
3.03860757E+02
  0
LINE
  8
0
  6
CENTER
 62
6
 10
-5.89999981E+01
 20
3.09678303E+02
 11
-5.89999981E+01
 21
3.04678303E+02
  0
LINE
  8
0
  6
CENTER
 62
6
 10
-6.14999981E+01
 20
3.07178303E+02
 11
-5.64999981E+01
 21
3.07178303E+02
  0
LINE
  8
0
  6
CENTER
 62
6
 10
-5.14999981E+01
 20
3.11129730E+02
 11
-5.14999981E+01
 21
3.06129730E+02
  0
LINE
  8
0
  6
CENTER
 62
6
 10
-5.39999981E+01
 20
3.08629730E+02
 11
-4.89999981E+01
 21
3.08629730E+02
  0
LINE
  8
0
 62
4
 10
-4.89999981E+01
 20
3.05284237E+02
 11
-4.39999981E+01
 21
3.05284237E+02
  0
LINE
  8
0
 62
7
 10
-7.39999981E+01
 20
3.18000000E+02
 11
-8.79999981E+01
 21
3.18000000E+02
  0
LINE
  8
0
 62
7
 10
-5.89999981E+01
 20
3.27000031E+02
 11
-8.79999981E+01
 21
3.27000031E+02
  0
LINE
  8
0
 62
7
 10
-4.59264253E+01
 20
3.34000000E+02
 11
2.29999981E+01
 21
3.34000000E+02
  0
LINE
  8
0
 62
7
 10
-1.50000019E+01
 20
2.43000000E+02
 11
-8.79999981E+01
 21
2.43000000E+02
  0
LINE
  8
0
 62
7
 10
-1.50000019E+01
 20
2.33999954E+02
 11
-8.79999981E+01
 21
2.33999954E+02
  0
LINE
  8
0
 62
7
 10
-1.92648695E+00
 20
2.26999985E+02
 11
2.29999981E+01
 21
2.26999985E+02
  0
LINE
  8
0
 62
4
 10
-9.59999820E+01
 20
-2.68514613E+02
 11
-9.09999820E+01
 21
-2.68514613E+02
  0
LINE
  8
0
 62
4
 10
-9.59999820E+01
 20
-2.62368941E+02
 11
-9.09999820E+01
 21
-2.62368941E+02
  0
LINE
  8
0
 62
4
 10
-9.59999820E+01
 20
-2.55562569E+02
 11
-9.09999820E+01
 21
-2.55562569E+02
  0
LINE
  8
0
 62
6
 10
-7.07149168E+01
 20
-2.84519549E+02
 11
-6.72850471E+01
 21
-2.81089675E+02
  0
LINE
  8
0
 62
6
 10
-6.72850447E+01
 20
-2.84519547E+02
 11
-7.07149193E+01
 21
-2.81089677E+02
  0
POLYLINE
  8
0
 62
4
 66
1
  0
VERTEX
  8
0
 62
4
 10
-7.23767566E+01
 20
-2.83708343E+02
  0
VERTEX
  8
0
 62
4
 10
-7.23986376E+01
 20
-2.83981255E+02
  0
VERTEX
  8
0
 62
4
 10
-7.23937190E+01
 20
-2.84254850E+02
  0
VERTEX
  8
0
 62
4
 10
-7.23620394E+01
 20
-2.84526971E+02
  0
VERTEX
  8
0
 62
4
 10
-7.23038488E+01
 20
-2.84795471E+02
  0
VERTEX
  8
0
 62
4
 10
-7.22196060E+01
 20
-2.85058235E+02
  0
VERTEX
  8
0
 62
4
 10
-7.21099753E+01
 20
-2.85313190E+02
  0
VERTEX
  8
0
 62
4
 10
-7.19758211E+01
 20
-2.85558325E+02
  0
VERTEX
  8
0
 62
4
 10
-7.18182013E+01
 20
-2.85791707E+02
  0
VERTEX
  8
0
 62
4
 10
-7.16383588E+01
 20
-2.86011497E+02
  0
VERTEX
  8
0
 62
4
 10
-7.14377117E+01
 20
-2.86215960E+02
  0
VERTEX
  8
0
 62
4
 10
-7.12178422E+01
 20
-2.86403486E+02
  0
VERTEX
  8
0
 62
4
 10
-7.09804840E+01
 20
-2.86572594E+02
  0
VERTEX
  8
0
 62
4
 10
-7.07275089E+01
 20
-2.86721952E+02
  0
VERTEX
  8
0
 62
4
 10
-7.04609116E+01
 20
-2.86850382E+02
  0
VERTEX
  8
0
 62
4
 10
-7.01827943E+01
 20
-2.86956871E+02
  0
VERTEX
  8
0
 62
4
 10
-6.98953500E+01
 20
-2.87040579E+02
  0
VERTEX
  8
0
 62
4
 10
-6.96008455E+01
 20
-2.87100847E+02
  0
VERTEX
  8
0
 62
4
 10
-6.93016030E+01
 20
-2.87137198E+02
  0
VERTEX
  8
0
 62
4
 10
-6.89999820E+01
 20
-2.87149347E+02
  0
VERTEX
  8
0
 62
4
 10
-6.86983610E+01
 20
-2.87137198E+02
  0
VERTEX
  8
0
 62
4
 10
-6.83991185E+01
 20
-2.87100847E+02
  0
VERTEX
  8
0
 62
4
 10
-6.81046140E+01
 20
-2.87040579E+02
  0
VERTEX
  8
0
 62
4
 10
-6.78171697E+01
 20
-2.86956871E+02
  0
VERTEX
  8
0
 62
4
 10
-6.75390524E+01
 20
-2.86850382E+02
  0
VERTEX
  8
0
 62
4
 10
-6.72724551E+01
 20
-2.86721952E+02
  0
VERTEX
  8
0
 62
4
 10
-6.70194800E+01
 20
-2.86572594E+02
  0
VERTEX
  8
0
 62
4
 10
-6.67821218E+01
 20
-2.86403486E+02
  0
VERTEX
  8
0
 62
4
 10
-6.65622523E+01
 20
-2.86215960E+02
  0
VERTEX
  8
0
 62
4
 10
-6.63616052E+01
 20
-2.86011497E+02
  0
VERTEX
  8
0
 62
4
 10
-6.61817627E+01
 20
-2.85791707E+02
  0
VERTEX
  8
0
 62
4
 10
-6.60241429E+01
 20
-2.85558325E+02
  0
VERTEX
  8
0
 62
4
 10
-6.58899887E+01
 20
-2.85313190E+02
  0
VERTEX
  8
0
 62
4
 10
-6.57803580E+01
 20
-2.85058235E+02
  0
VERTEX
  8
0
 62
4
 10
-6.56961152E+01
 20
-2.84795471E+02
  0
VERTEX
  8
0
 62
4
 10
-6.56379246E+01
 20
-2.84526971E+02
  0
VERTEX
  8
0
 62
4
 10
-6.56062450E+01
 20
-2.84254850E+02
  0
VERTEX
  8
0
 62
4
 10
-6.56013264E+01
 20
-2.83981255E+02
  0
VERTEX
  8
0
 62
4
 10
-6.56232074E+01
 20
-2.83708343E+02
  0
SEQEND
  8
0
  0
POLYLINE
  8
0
 62
4
 66
1
  0
VERTEX
  8
0
 62
4
 10
-6.55999820E+01
 20
-2.83337911E+02
  0
VERTEX
  8
0
 62
4
 10
-6.56129200E+01
 20
-2.83061223E+02
  0
VERTEX
  8
0
 62
4
 10
-6.56516356E+01
 20
-2.82786640E+02
  0
VERTEX
  8
0
 62
4
 10
-6.57158342E+01
 20
-2.82516254E+02
  0
VERTEX
  8
0
 62
4
 10
-6.58050271E+01
 20
-2.82252120E+02
  0
VERTEX
  8
0
 62
4
 10
-6.59185355E+01
 20
-2.81996250E+02
  0
VERTEX
  8
0
 62
4
 10
-6.60554956E+01
 20
-2.81750591E+02
  0
VERTEX
  8
0
 62
4
 10
-6.62148650E+01
 20
-2.81517012E+02
  0
VERTEX
  8
0
 62
4
 10
-6.63954309E+01
 20
-2.81297291E+02
  0
VERTEX
  8
0
 62
4
 10
-6.65958189E+01
 20
-2.81093101E+02
  0
VERTEX
  8
0
 62
4
 10
-6.68145041E+01
 20
-2.80905995E+02
  0
VERTEX
  8
0
 62
4
 10
-6.70498221E+01
 20
-2.80737398E+02
  0
VERTEX
  8
0
 62
4
 10
-6.72999820E+01
 20
-2.80588591E+02
  0
VERTEX
  8
0
 62
4
 10
-6.75630799E+01
 20
-2.80460709E+02
  0
VERTEX
  8
0
 62
4
 10
-6.78371135E+01
 20
-2.80354725E+02
  0
VERTEX
  8
0
 62
4
 10
-6.81199972E+01
 20
-2.80271444E+02
  0
VERTEX
  8
0
 62
4
 10
-6.84095782E+01
 20
-2.80211500E+02
  0
VERTEX
  8
0
 62
4
 10
-6.87036525E+01
 20
-2.80175351E+02
  0
VERTEX
  8
0
 62
4
 10
-6.89999820E+01
 20
-2.80163270E+02
  0
VERTEX
  8
0
 62
4
 10
-6.92963115E+01
 20
-2.80175351E+02
  0
VERTEX
  8
0
 62
4
 10
-6.95903858E+01
 20
-2.80211500E+02
  0
VERTEX
  8
0
 62
4
 10
-6.98799668E+01
 20
-2.80271444E+02
  0
VERTEX
  8
0
 62
4
 10
-7.01628505E+01
 20
-2.80354725E+02
  0
VERTEX
  8
0
 62
4
 10
-7.04368841E+01
 20
-2.80460709E+02
  0
VERTEX
  8
0
 62
4
 10
-7.06999820E+01
 20
-2.80588591E+02
  0
VERTEX
  8
0
 62
4
 10
-7.09501419E+01
 20
-2.80737398E+02
  0
VERTEX
  8
0
 62
4
 10
-7.11854599E+01
 20
-2.80905995E+02
  0
VERTEX
  8
0
 62
4
 10
-7.14041451E+01
 20
-2.81093101E+02
  0
VERTEX
  8
0
 62
4
 10
-7.16045331E+01
 20
-2.81297291E+02
  0
VERTEX
  8
0
 62
4
 10
-7.17850990E+01
 20
-2.81517012E+02
  0
VERTEX
  8
0
 62
4
 10
-7.19444684E+01
 20
-2.81750591E+02
  0
VERTEX
  8
0
 62
4
 10
-7.20814285E+01
 20
-2.81996250E+02
  0
VERTEX
  8
0
 62
4
 10
-7.21949369E+01
 20
-2.82252120E+02
  0
VERTEX
  8
0
 62
4
 10
-7.22841298E+01
 20
-2.82516254E+02
  0
VERTEX
  8
0
 62
4
 10
-7.23483284E+01
 20
-2.82786640E+02
  0
VERTEX
  8
0
 62
4
 10
-7.23870440E+01
 20
-2.83061223E+02
  0
VERTEX
  8
0
 62
4
 10
-7.23999820E+01
 20
-2.83337911E+02
  0
VERTEX
  8
0
 62
4
 10
-7.23870440E+01
 20
-2.83614599E+02
  0
VERTEX
  8
0
 62
4
 10
-7.23483284E+01
 20
-2.83889182E+02
  0
VERTEX
  8
0
 62
4
 10
-7.22841298E+01
 20
-2.84159568E+02
  0
VERTEX
  8
0
 62
4
 10
-7.21949369E+01
 20
-2.84423702E+02
  0
VERTEX
  8
0
 62
4
 10
-7.20814285E+01
 20
-2.84679572E+02
  0
VERTEX
  8
0
 62
4
 10
-7.19444684E+01
 20
-2.84925231E+02
  0
VERTEX
  8
0
 62
4
 10
-7.17850989E+01
 20
-2.85158810E+02
  0
VERTEX
  8
0
 62
4
 10
-7.16045331E+01
 20
-2.85378531E+02
  0
VERTEX
  8
0
 62
4
 10
-7.14041451E+01
 20
-2.85582721E+02
  0
VERTEX
  8
0
 62
4
 10
-7.11854599E+01
 20
-2.85769827E+02
  0
VERTEX
  8
0
 62
4
 10
-7.09501419E+01
 20
-2.85938424E+02
  0
VERTEX
  8
0
 62
4
 10
-7.06999820E+01
 20
-2.86087231E+02
  0
VERTEX
  8
0
 62
4
 10
-7.04368841E+01
 20
-2.86215113E+02
  0
VERTEX
  8
0
 62
4
 10
-7.01628505E+01
 20
-2.86321097E+02
  0
VERTEX
  8
0
 62
4
 10
-6.98799667E+01
 20
-2.86404378E+02
  0
VERTEX
  8
0
 62
4
 10
-6.95903858E+01
 20
-2.86464322E+02
  0
VERTEX
  8
0
 62
4
 10
-6.92963115E+01
 20
-2.86500471E+02
  0
VERTEX
  8
0
 62
4
 10
-6.89999820E+01
 20
-2.86512552E+02
  0
VERTEX
  8
0
 62
4
 10
-6.87036525E+01
 20
-2.86500471E+02
  0
VERTEX
  8
0
 62
4
 10
-6.84095782E+01
 20
-2.86464322E+02
  0
VERTEX
  8
0
 62
4
 10
-6.81199972E+01
 20
-2.86404378E+02
  0
VERTEX
  8
0
 62
4
 10
-6.78371135E+01
 20
-2.86321097E+02
  0
VERTEX
  8
0
 62
4
 10
-6.75630799E+01
 20
-2.86215113E+02
  0
VERTEX
  8
0
 62
4
 10
-6.72999820E+01
 20
-2.86087231E+02
  0
VERTEX
  8
0
 62
4
 10
-6.70498221E+01
 20
-2.85938424E+02
  0
VERTEX
  8
0
 62
4
 10
-6.68145041E+01
 20
-2.85769827E+02
  0
VERTEX
  8
0
 62
4
 10
-6.65958189E+01
 20
-2.85582721E+02
  0
VERTEX
  8
0
 62
4
 10
-6.63954309E+01
 20
-2.85378531E+02
  0
VERTEX
  8
0
 62
4
 10
-6.62148650E+01
 20
-2.85158810E+02
  0
VERTEX
  8
0
 62
4
 10
-6.60554956E+01
 20
-2.84925231E+02
  0
VERTEX
  8
0
 62
4
 10
-6.59185355E+01
 20
-2.84679572E+02
  0
VERTEX
  8
0
 62
4
 10
-6.58050271E+01
 20
-2.84423702E+02
  0
VERTEX
  8
0
 62
4
 10
-6.57158342E+01
 20
-2.84159568E+02
  0
VERTEX
  8
0
 62
4
 10
-6.56516356E+01
 20
-2.83889182E+02
  0
VERTEX
  8
0
 62
4
 10
-6.56129200E+01
 20
-2.83614599E+02
  0
VERTEX
  8
0
 62
4
 10
-6.55999820E+01
 20
-2.83337911E+02
  0
SEQEND
  8
0
  0
POLYLINE
  8
0
 62
4
 66
1
  0
VERTEX
  8
0
 62
4
 10
-7.29999820E+01
 20
-2.84173556E+02
  0
VERTEX
  8
0
 62
4
 10
-7.29847608E+01
 20
-2.84480308E+02
  0
VERTEX
  8
0
 62
4
 10
-7.29392129E+01
 20
-2.84784725E+02
  0
VERTEX
  8
0
 62
4
 10
-7.28636851E+01
 20
-2.85084490E+02
  0
VERTEX
  8
0
 62
4
 10
-7.27587520E+01
 20
-2.85377323E+02
  0
VERTEX
  8
0
 62
4
 10
-7.26252125E+01
 20
-2.85660995E+02
  0
VERTEX
  8
0
 62
4
 10
-7.24640826E+01
 20
-2.85933346E+02
  0
VERTEX
  8
0
 62
4
 10
-7.22765888E+01
 20
-2.86192304E+02
  0
VERTEX
  8
0
 62
4
 10
-7.20641581E+01
 20
-2.86435898E+02
  0
VERTEX
  8
0
 62
4
 10
-7.18284070E+01
 20
-2.86662274E+02
  0
VERTEX
  8
0
 62
4
 10
-7.15711299E+01
 20
-2.86869710E+02
  0
VERTEX
  8
0
 62
4
 10
-7.12942848E+01
 20
-2.87056626E+02
  0
VERTEX
  8
0
 62
4
 10
-7.09999786E+01
 20
-2.87221600E+02
  0
VERTEX
  8
0
 62
4
 10
-7.06904511E+01
 20
-2.87363377E+02
  0
VERTEX
  8
0
 62
4
 10
-7.03680582E+01
 20
-2.87480878E+02
  0
VERTEX
  8
0
 62
4
 10
-7.00352534E+01
 20
-2.87573207E+02
  0
VERTEX
  8
0
 62
4
 10
-6.96945695E+01
 20
-2.87639663E+02
  0
VERTEX
  8
0
 62
4
 10
-6.93485993E+01
 20
-2.87679740E+02
  0
VERTEX
  8
0
 62
4
 10
-6.89999760E+01
 20
-2.87693133E+02
  0
VERTEX
  8
0
 62
4
 10
-6.86513527E+01
 20
-2.87679739E+02
  0
VERTEX
  8
0
 62
4
 10
-6.83053827E+01
 20
-2.87639661E+02
  0
VERTEX
  8
0
 62
4
 10
-6.79646991E+01
 20
-2.87573204E+02
  0
VERTEX
  8
0
 62
4
 10
-6.76318946E+01
 20
-2.87480874E+02
  0
VERTEX
  8
0
 62
4
 10
-6.73095020E+01
 20
-2.87363373E+02
  0
VERTEX
  8
0
 62
4
 10
-6.69999751E+01
 20
-2.87221595E+02
  0
VERTEX
  8
0
 62
4
 10
-6.67056694E+01
 20
-2.87056620E+02
  0
VERTEX
  8
0
 62
4
 10
-6.64288249E+01
 20
-2.86869703E+02
  0
VERTEX
  8
0
 62
4
 10
-6.61715485E+01
 20
-2.86662267E+02
  0
VERTEX
  8
0
 62
4
 10
-6.59357982E+01
 20
-2.86435890E+02
  0
VERTEX
  8
0
 62
4
 10
-6.57233683E+01
 20
-2.86192295E+02
  0
VERTEX
  8
0
 62
4
 10
-6.55358754E+01
 20
-2.85933337E+02
  0
VERTEX
  8
0
 62
4
 10
-6.53747465E+01
 20
-2.85660985E+02
  0
VERTEX
  8
0
 62
4
 10
-6.52412079E+01
 20
-2.85377313E+02
  0
VERTEX
  8
0
 62
4
 10
-6.51362759E+01
 20
-2.85084480E+02
  0
VERTEX
  8
0
 62
4
 10
-6.50607490E+01
 20
-2.84784714E+02
  0
VERTEX
  8
0
 62
4
 10
-6.50152022E+01
 20
-2.84480297E+02
  0
VERTEX
  8
0
 62
4
 10
-6.49999820E+01
 20
-2.84173545E+02
  0
SEQEND
  8
0
  0
POLYLINE
  8
0
 62
4
 66
1
  0
VERTEX
  8
0
 62
4
 10
-7.17327297E+01
 20
-2.81449101E+02
  0
VERTEX
  8
0
 62
4
 10
-7.19802013E+01
 20
-2.81685043E+02
  0
VERTEX
  8
0
 62
4
 10
-7.22043468E+01
 20
-2.81940463E+02
  0
VERTEX
  8
0
 62
4
 10
-7.24034118E+01
 20
-2.82213361E+02
  0
VERTEX
  8
0
 62
4
 10
-7.25758383E+01
 20
-2.82501602E+02
  0
VERTEX
  8
0
 62
4
 10
-7.27202766E+01
 20
-2.82802929E+02
  0
VERTEX
  8
0
 62
4
 10
-7.28355963E+01
 20
-2.83114984E+02
  0
VERTEX
  8
0
 62
4
 10
-7.29208947E+01
 20
-2.83435324E+02
  0
VERTEX
  8
0
 62
4
 10
-7.29755043E+01
 20
-2.83761442E+02
  0
VERTEX
  8
0
 62
4
 10
-7.29989975E+01
 20
-2.84090786E+02
  0
VERTEX
  8
0
 62
4
 10
-7.29911906E+01
 20
-2.84420778E+02
  0
VERTEX
  8
0
 62
4
 10
-7.29521446E+01
 20
-2.84748835E+02
  0
VERTEX
  8
0
 62
4
 10
-7.28821651E+01
 20
-2.85072389E+02
  0
VERTEX
  8
0
 62
4
 10
-7.27817998E+01
 20
-2.85388908E+02
  0
VERTEX
  8
0
 62
4
 10
-7.26518344E+01
 20
-2.85695915E+02
  0
VERTEX
  8
0
 62
4
 10
-7.24932860E+01
 20
-2.85991006E+02
  0
VERTEX
  8
0
 62
4
 10
-7.23073956E+01
 20
-2.86271871E+02
  0
VERTEX
  8
0
 62
4
 10
-7.20956182E+01
 20
-2.86536314E+02
  0
VERTEX
  8
0
 62
4
 10
-7.18596113E+01
 20
-2.86782263E+02
  0
VERTEX
  8
0
 62
4
 10
-7.16012222E+01
 20
-2.87007794E+02
  0
VERTEX
  8
0
 62
4
 10
-7.13224732E+01
 20
-2.87211141E+02
  0
VERTEX
  8
0
 62
4
 10
-7.10255462E+01
 20
-2.87390714E+02
  0
VERTEX
  8
0
 62
4
 10
-7.07127651E+01
 20
-2.87545105E+02
  0
VERTEX
  8
0
 62
4
 10
-7.03865781E+01
 20
-2.87673108E+02
  0
VERTEX
  8
0
 62
4
 10
-7.00495383E+01
 20
-2.87773720E+02
  0
VERTEX
  8
0
 62
4
 10
-6.97042836E+01
 20
-2.87846153E+02
  0
VERTEX
  8
0
 62
4
 10
-6.93535163E+01
 20
-2.87889841E+02
  0
VERTEX
  8
0
 62
4
 10
-6.89999820E+01
 20
-2.87904442E+02
  0
VERTEX
  8
0
 62
4
 10
-6.86464476E+01
 20
-2.87889841E+02
  0
VERTEX
  8
0
 62
4
 10
-6.82956804E+01
 20
-2.87846153E+02
  0
VERTEX
  8
0
 62
4
 10
-6.79504257E+01
 20
-2.87773720E+02
  0
VERTEX
  8
0
 62
4
 10
-6.76133859E+01
 20
-2.87673108E+02
  0
VERTEX
  8
0
 62
4
 10
-6.72871989E+01
 20
-2.87545105E+02
  0
VERTEX
  8
0
 62
4
 10
-6.69744178E+01
 20
-2.87390713E+02
  0
VERTEX
  8
0
 62
4
 10
-6.66774908E+01
 20
-2.87211141E+02
  0
VERTEX
  8
0
 62
4
 10
-6.63987418E+01
 20
-2.87007794E+02
  0
VERTEX
  8
0
 62
4
 10
-6.61403527E+01
 20
-2.86782263E+02
  0
VERTEX
  8
0
 62
4
 10
-6.59043458E+01
 20
-2.86536314E+02
  0
VERTEX
  8
0
 62
4
 10
-6.56925684E+01
 20
-2.86271871E+02
  0
VERTEX
  8
0
 62
4
 10
-6.55066780E+01
 20
-2.85991006E+02
  0
VERTEX
  8
0
 62
4
 10
-6.53481296E+01
 20
-2.85695915E+02
  0
VERTEX
  8
0
 62
4
 10
-6.52181642E+01
 20
-2.85388908E+02
  0
VERTEX
  8
0
 62
4
 10
-6.51177989E+01
 20
-2.85072389E+02
  0
VERTEX
  8
0
 62
4
 10
-6.50478194E+01
 20
-2.84748835E+02
  0
VERTEX
  8
0
 62
4
 10
-6.50087734E+01
 20
-2.84420778E+02
  0
VERTEX
  8
0
 62
4
 10
-6.50009665E+01
 20
-2.84090786E+02
  0
VERTEX
  8
0
 62
4
 10
-6.50244597E+01
 20
-2.83761442E+02
  0
VERTEX
  8
0
 62
4
 10
-6.50790693E+01
 20
-2.83435324E+02
  0
VERTEX
  8
0
 62
4
 10
-6.51643677E+01
 20
-2.83114984E+02
  0
VERTEX
  8
0
 62
4
 10
-6.52796874E+01
 20
-2.82802929E+02
  0
VERTEX
  8
0
 62
4
 10
-6.54241257E+01
 20
-2.82501602E+02
  0
VERTEX
  8
0
 62
4
 10
-6.55965522E+01
 20
-2.82213361E+02
  0
VERTEX
  8
0
 62
4
 10
-6.57956172E+01
 20
-2.81940463E+02
  0
VERTEX
  8
0
 62
4
 10
-6.60197627E+01
 20
-2.81685043E+02
  0
VERTEX
  8
0
 62
4
 10
-6.62672343E+01
 20
-2.81449101E+02
  0
SEQEND
  8
0
  0
LINE
  8
0
  6
CENTER
 62
6
 10
-6.89999820E+01
 20
-2.78201077E+02
 11
-6.89999820E+01
 21
-2.89168484E+02
  0
LINE
  8
0
  6
CENTER
 62
6
 10
-7.50639873E+01
 20
-2.82804612E+02
 11
-6.31176984E+01
 21
-2.82804612E+02
  0
LINE
  8
0
 62
4
 10
-8.09999820E+01
 20
-2.91076519E+02
 11
-7.79999820E+01
 21
-2.95969605E+02
  0
LINE
  8
0
 62
4
 10
-4.19999820E+01
 20
-2.91076519E+02
 11
-4.49999820E+01
 21
-2.95969605E+02
  0
ARC
  8
0
 62
4
 10
-7.94999791E+01
 20
-2.79804225E+02
 40
1.50000284E+00
 50
9.00001085E+01
 51
1.79999892E+02
  0
ARC
  8
0
 62
4
 10
-8.54999863E+01
 20
-2.68208271E+02
 40
4.99995728E-01
 50
1.79999510E+02
 51
2.70000490E+02
  0
ARC
  8
0
 62
4
 10
-4.34999848E+01
 20
-2.79804225E+02
 40
1.50000284E+00
 50
1.08554370E-04
 51
8.99998913E+01
  0
ARC
  8
0
 62
4
 10
-7.69999863E+01
 20
-2.69208271E+02
 40
5.00004272E-01
 50
4.89585868E-04
 51
8.99995103E+01
  0
ARC
  8
0
 62
4
 10
-8.54999777E+01
 20
-2.55208271E+02
 40
5.00004272E-01
 50
9.00004895E+01
 51
1.79999510E+02
  0
LINE
  8
0
 62
4
 10
-8.94999820E+01
 20
-2.67458267E+02
 11
-8.59999820E+01
 21
-2.67458267E+02
  0
LINE
  8
0
 62
4
 10
-8.94999820E+01
 20
-2.55958267E+02
 11
-8.59999820E+01
 21
-2.55958267E+02
  0
LINE
  8
0
 62
4
 10
-8.94999820E+01
 20
-2.55458267E+02
 11
-8.94999820E+01
 21
-2.67958267E+02
  0
LINE
  8
0
 62
4
 10
-9.09999820E+01
 20
-2.67958267E+02
 11
-8.59999820E+01
 21
-2.67958267E+02
  0
LINE
  8
0
 62
4
 10
-9.09999820E+01
 20
-2.55458267E+02
 11
-8.59999820E+01
 21
-2.55458267E+02
  0
LINE
  8
0
 62
4
 10
-9.09999820E+01
 20
-2.54910934E+02
 11
-9.09999820E+01
 21
-2.68514613E+02
  0
LINE
  8
0
 62
4
 10
-9.59999820E+01
 20
-2.54910934E+02
 11
-9.59999820E+01
 21
-2.68514613E+02
  0
LINE
  8
0
 62
4
 10
-8.59999820E+01
 20
-2.55208267E+02
 11
-8.59999820E+01
 21
-2.68208267E+02
  0
LINE
  8
0
 62
4
 10
-7.64999820E+01
 20
-2.54708267E+02
 11
-8.54999820E+01
 21
-2.54708267E+02
  0
LINE
  8
0
 62
4
 10
-8.54999820E+01
 20
-2.68708267E+02
 11
-7.69999820E+01
 21
-2.68708267E+02
  0
LINE
  8
0
 62
4
 10
-9.59999820E+01
 20
-2.54910934E+02
 11
-9.09999820E+01
 21
-2.54910934E+02
  0
LINE
  8
0
 62
4
 10
-7.94999820E+01
 20
-2.78304222E+02
 11
-4.34999820E+01
 21
-2.78304222E+02
  0
LINE
  8
0
 62
4
 10
-8.09999820E+01
 20
-2.89717057E+02
 11
-4.19999820E+01
 21
-2.89717057E+02
  0
LINE
  8
0
 62
4
 10
-8.09999820E+01
 20
-2.91076519E+02
 11
-4.19999820E+01
 21
-2.91076519E+02
  0
LINE
  8
0
 62
4
 10
-4.19999820E+01
 20
-2.79804222E+02
 11
-4.19999820E+01
 21
-2.91076519E+02
  0
LINE
  8
0
 62
4
 10
-7.64999820E+01
 20
-2.74852145E+02
 11
-6.14999820E+01
 21
-2.74852145E+02
  0
LINE
  8
0
 62
4
 10
-5.94999820E+01
 20
-2.74913216E+02
 11
-5.94999820E+01
 21
-2.78304222E+02
  0
LINE
  8
0
 62
4
 10
-7.64999820E+01
 20
-2.53100758E+02
 11
-7.64999820E+01
 21
-2.74913216E+02
  0
LINE
  8
0
 62
4
 10
-6.14999820E+01
 20
-2.53100758E+02
 11
-6.14999820E+01
 21
-2.74913216E+02
  0
LINE
  8
0
 62
4
 10
-7.84999820E+01
 20
-2.74913216E+02
 11
-7.84999820E+01
 21
-2.78304222E+02
  0
LINE
  8
0
 62
4
 10
-8.09999820E+01
 20
-2.79804222E+02
 11
-8.09999820E+01
 21
-2.91076519E+02
  0
LINE
  8
0
 62
4
 10
-7.84999820E+01
 20
-2.74913216E+02
 11
-5.94999820E+01
 21
-2.74913216E+02
  0
LINE
  8
0
 62
4
 10
-7.64999820E+01
 20
-2.53100758E+02
 11
-6.14999820E+01
 21
-2.53100758E+02
  0
ARC
  8
0
 62
4
 10
-4.03630356E+02
 20
-2.61708267E+02
 40
7.00000000E+00
 50
1.23115777E+02
 51
1.46002341E+02
  0
ARC
  8
0
 62
4
 10
-4.03630356E+02
 20
-2.61708267E+02
 40
7.00000000E+00
 50
8.39976594E+01
 51
1.06884035E+02
  0
ARC
  8
0
 62
4
 10
-3.84243676E+02
 20
-2.80804238E+02
 40
2.50001570E+00
 50
2.50003598E+01
 51
1.14999640E+02
  0
ARC
  8
0
 62
4
 10
-4.01463501E+02
 20
-2.88833970E+02
 40
2.50001192E+00
 50
1.15000273E+02
 51
2.04999727E+02
  0
ARC
  8
0
 62
4
 10
-3.87386270E+02
 20
-2.87822901E+02
 40
1.18036308E+01
 50
1.22898056E+01
 51
3.79747793E+01
  0
CIRCLE
  8
0
 62
4
 10
-4.03630356E+02
 20
-2.61708267E+02
 40
3.75000000E+00
  0
ARC
  8
0
 62
4
 10
-3.78862168E+02
 20
-2.81160479E+02
 40
9.97209177E-01
 50
3.75805360E+01
 51
1.14812291E+02
  0
ARC
  8
0
 62
4
 10
-3.76830462E+02
 20
-2.85514207E+02
 40
9.98345090E-01
 50
2.95107939E+02
 51
1.17781676E+01
  0
LINE
  8
0
 62
4
 10
-3.81102127E+02
 20
-2.80442670E+02
 11
-3.77721181E+02
 21
-2.87693132E+02
  0
LINE
  8
0
  6
CENTER
 62
6
 10
-3.99638855E+02
 20
-2.93500000E+02
 11
-3.73973807E+02
 21
-2.81532192E+02
  0
LINE
  8
0
 62
4
 10
-3.76406840E+02
 20
-2.86418218E+02
 11
-3.77974752E+02
 21
-2.87149348E+02
  0
LINE
  8
0
 62
4
 10
-3.80848556E+02
 20
-2.80986455E+02
 11
-3.79280644E+02
 21
-2.80255325E+02
  0
LINE
  8
0
 62
4
 10
-3.78174335E+02
 20
-2.87904442E+02
 11
-3.77721181E+02
 21
-2.87693132E+02
  0
LINE
  8
0
 62
4
 10
-3.81555281E+02
 20
-2.80653979E+02
 11
-3.81102127E+02
 21
-2.80442670E+02
  0
LINE
  8
0
 62
4
 10
-4.03809668E+02
 20
-2.55171588E+02
 11
-3.99368760E+02
 21
-2.53100758E+02
  0
LINE
  8
0
 62
4
 10
-4.06799995E+02
 20
-2.54910934E+02
 11
-3.99324176E+02
 21
-2.55562569E+02
  0
LINE
  8
0
 62
4
 10
-4.07932314E+02
 20
-2.67862978E+02
 11
-4.00456495E+02
 21
-2.68514613E+02
  0
LINE
  8
0
 62
4
 10
-3.99324176E+02
 20
-2.55562569E+02
 11
-3.96150313E+02
 21
-2.62368941E+02
  0
LINE
  8
0
 62
4
 10
-4.11106177E+02
 20
-2.61056606E+02
 11
-4.07932314E+02
 21
-2.67862978E+02
  0
LINE
  8
0
 62
4
 10
-4.11106177E+02
 20
-2.61056606E+02
 11
-4.06799995E+02
 21
-2.54910934E+02
  0
LINE
  8
0
 62
4
 10
-4.00456495E+02
 20
-2.68514613E+02
 11
-3.96150313E+02
 21
-2.62368941E+02
  0
LINE
  8
0
 62
4
 10
-3.88716577E+02
 20
-2.88958547E+02
 11
-3.87660031E+02
 21
-2.91224316E+02
  0
LINE
  8
0
 62
4
 10
-3.92341808E+02
 20
-2.90649020E+02
 11
-3.91285262E+02
 21
-2.92914789E+02
  0
LINE
  8
0
 62
4
 10
-3.91285262E+02
 20
-2.92914789E+02
 11
-3.87660031E+02
 21
-2.91224316E+02
  0
LINE
  8
0
 62
4
 10
-3.92341808E+02
 20
-2.90649020E+02
 11
-3.88716577E+02
 21
-2.88958547E+02
  0
LINE
  8
0
 62
4
 10
-3.85441646E+02
 20
-2.93500000E+02
 11
-3.77329098E+02
 21
-2.89717057E+02
  0
LINE
  8
0
 62
4
 10
-3.76695171E+02
 20
-2.91076519E+02
 11
-3.77204549E+02
 21
-2.93500000E+02
  0
LINE
  8
0
 62
4
 10
-4.03729286E+02
 20
-2.89890510E+02
 11
-4.02046153E+02
 21
-2.93500000E+02
  0
LINE
  8
0
 62
4
 10
-3.81977899E+02
 20
-2.79747671E+02
 11
-3.76695171E+02
 21
-2.91076519E+02
  0
LINE
  8
0
 62
4
 10
-3.81892343E+02
 20
-2.93500000E+02
 11
-3.76695171E+02
 21
-2.91076519E+02
  0
LINE
  8
0
 62
4
 10
-4.02520062E+02
 20
-2.86568195E+02
 11
-3.85300214E+02
 21
-2.78538448E+02
  0
LINE
  8
0
 62
4
 10
-4.04210535E+02
 20
-2.82942963E+02
 11
-4.02520062E+02
 21
-2.86568195E+02
  0
LINE
  8
0
 62
4
 10
-3.86990687E+02
 20
-2.74913216E+02
 11
-3.85300214E+02
 21
-2.78538448E+02
  0
LINE
  8
0
 62
4
 10
-4.02820538E+02
 20
-2.81191419E+02
 11
-3.89225921E+02
 21
-2.74852145E+02
  0
LINE
  8
0
 62
4
 10
-4.04210535E+02
 20
-2.82942963E+02
 11
-3.86990687E+02
 21
-2.74913216E+02
  0
LINE
  8
0
 62
4
 10
-4.12963376E+02
 20
-2.59440032E+02
 11
-4.02397920E+02
 21
-2.82097727E+02
  0
LINE
  8
0
 62
4
 10
-3.99368760E+02
 20
-2.53100758E+02
 11
-3.88803303E+02
 21
-2.75758453E+02
  0
LINE
  8
0
 62
4
 10
-4.12963376E+02
 20
-2.59440032E+02
 11
-4.08531531E+02
 21
-2.57373429E+02
  0
LINE
  8
0
 62
4
 10
-4.09856672E+02
 20
-2.93299446E+02
 11
-4.03517977E+02
 21
-2.90343664E+02
  0
ARC
  8
0
 62
4
 10
1.53463567E+02
 20
-2.88833970E+02
 40
2.50001192E+00
 50
3.35000273E+02
 51
6.49997271E+01
  0
LINE
  8
0
  6
CENTER
 62
6
 10
1.51638922E+02
 20
-2.93500000E+02
 11
1.25973874E+02
 21
-2.81532192E+02
  0
LINE
  8
0
 62
4
 10
1.30174401E+02
 20
-2.87904442E+02
 11
1.29721248E+02
 21
-2.87693132E+02
  0
LINE
  8
0
 62
4
 10
1.33977966E+02
 20
-2.79747671E+02
 11
1.28695238E+02
 21
-2.91076519E+02
  0
LINE
  8
0
 62
4
 10
1.51368826E+02
 20
-2.53100758E+02
 11
1.40803370E+02
 21
-2.75758453E+02
  0
LINE
  8
0
 62
4
 10
1.51368826E+02
 20
-2.53100758E+02
 11
1.64963443E+02
 21
-2.59440032E+02
  0
LINE
  8
0
 62
4
 10
1.43487017E+02
 20
-2.80319992E+02
 11
1.49178630E+02
 21
-2.82974035E+02
  0
LINE
  8
0
 62
4
 10
1.49178630E+02
 20
-2.82974035E+02
 11
1.49082282E+02
 21
-2.84032485E+02
  0
LINE
  8
0
 62
4
 10
1.42738128E+02
 20
-2.81074157E+02
 11
1.43487017E+02
 21
-2.80319992E+02
  0
LINE
  8
0
  6
CENTER
 62
6
 10
1.47281903E+02
 20
-2.79611705E+02
 11
1.45280504E+02
 21
-2.83903720E+02
  0
ARC
  8
0
 62
4
 10
1.55630415E+02
 20
-2.61708264E+02
 40
7.00000000E+00
 50
3.39976591E+01
 51
9.60023410E+01
  0
LINE
  8
0
 62
4
 10
1.64963443E+02
 20
-2.59440032E+02
 11
1.54397986E+02
 21
-2.82097727E+02
  0
LINE
  8
0
 62
4
 10
1.56210602E+02
 20
-2.82942963E+02
 11
1.38990754E+02
 21
-2.74913216E+02
  0
LINE
  8
0
 62
4
 10
1.54820605E+02
 20
-2.81191419E+02
 11
1.41225988E+02
 21
-2.74852145E+02
  0
LINE
  8
0
 62
4
 10
1.38990754E+02
 20
-2.74913216E+02
 11
1.37300281E+02
 21
-2.78538448E+02
  0
LINE
  8
0
 62
4
 10
1.56210602E+02
 20
-2.82942963E+02
 11
1.54520129E+02
 21
-2.86568195E+02
  0
LINE
  8
0
 62
4
 10
1.54520129E+02
 20
-2.86568195E+02
 11
1.37300281E+02
 21
-2.78538448E+02
  0
LINE
  8
0
 62
4
 10
1.59454753E+02
 20
-2.55845292E+02
 11
1.58800062E+02
 21
-2.54910934E+02
  0
LINE
  8
0
 62
4
 10
1.58800062E+02
 20
-2.54910934E+02
 11
1.57663475E+02
 21
-2.55010005E+02
  0
LINE
  8
0
 62
4
 10
1.33555348E+02
 20
-2.80653979E+02
 11
1.33102194E+02
 21
-2.80442670E+02
  0
LINE
  8
0
 62
4
 10
1.32848623E+02
 20
-2.80986455E+02
 11
1.31280710E+02
 21
-2.80255325E+02
  0
LINE
  8
0
 62
4
 10
1.28406906E+02
 20
-2.86418218E+02
 11
1.29974819E+02
 21
-2.87149348E+02
  0
LINE
  8
0
 62
4
 10
1.33102194E+02
 20
-2.80442670E+02
 11
1.29721248E+02
 21
-2.87693132E+02
  0
ARC
  8
0
 62
4
 10
1.28830529E+02
 20
-2.85514207E+02
 40
9.98345090E-01
 50
1.68221832E+02
 51
2.44892061E+02
  0
ARC
  8
0
 62
4
 10
1.30862235E+02
 20
-2.81160479E+02
 40
9.97209177E-01
 50
6.51877094E+01
 51
1.42419464E+02
  0
ARC
  8
0
 62
4
 10
1.39386336E+02
 20
-2.87822901E+02
 40
1.18036308E+01
 50
1.42025221E+02
 51
1.67710194E+02
  0
ARC
  8
0
 62
4
 10
1.36243743E+02
 20
-2.80804238E+02
 40
2.50001570E+00
 50
6.50003596E+01
 51
1.54999640E+02
  0
LINE
  8
0
 62
4
 10
1.40716643E+02
 20
-2.88958547E+02
 11
1.39660098E+02
 21
-2.91224316E+02
  0
LINE
  8
0
 62
4
 10
1.44341874E+02
 20
-2.90649020E+02
 11
1.43285329E+02
 21
-2.92914789E+02
  0
LINE
  8
0
 62
4
 10
1.43285329E+02
 20
-2.92914789E+02
 11
1.39660098E+02
 21
-2.91224316E+02
  0
LINE
  8
0
 62
4
 10
1.44341874E+02
 20
-2.90649020E+02
 11
1.40716643E+02
 21
-2.88958547E+02
  0
LINE
  8
0
 62
4
 10
1.37441712E+02
 20
-2.93500000E+02
 11
1.29329165E+02
 21
-2.89717057E+02
  0
LINE
  8
0
 62
4
 10
1.28695238E+02
 20
-2.91076519E+02
 11
1.29204615E+02
 21
-2.93500000E+02
  0
LINE
  8
0
 62
4
 10
1.55729353E+02
 20
-2.89890510E+02
 11
1.54046220E+02
 21
-2.93500000E+02
  0
LINE
  8
0
 62
4
 10
1.33892410E+02
 20
-2.93500000E+02
 11
1.28695238E+02
 21
-2.91076519E+02
  0
LINE
  8
0
 62
4
 10
1.61856739E+02
 20
-2.93299446E+02
 11
1.55518044E+02
 21
-2.90343664E+02
  0
LINE
  8
0
  6
CENTER
 62
6
 10
-6.89999820E+01
 20
-1.14931875E+02
 11
-6.89999820E+01
 21
-1.67499969E+02
  0
LINE
  8
0
 62
4
 10
-7.84999820E+01
 20
-1.46509279E+02
 11
-5.94999820E+01
 21
-1.46509279E+02
  0
LINE
  8
0
 62
4
 10
-5.94999820E+01
 20
-1.29289431E+02
 11
-6.14999820E+01
 21
-1.29289431E+02
  0
LINE
  8
0
 62
4
 10
-7.94999820E+01
 20
-1.50465522E+02
 11
-4.34999820E+01
 21
-1.50465522E+02
  0
LINE
  8
0
 62
4
 10
-6.59910215E+01
 20
-1.56804796E+02
 11
-4.34999820E+01
 21
-1.56804796E+02
  0
LINE
  8
0
 62
4
 10
-7.84999820E+01
 20
-1.48199738E+02
 11
-5.94999820E+01
 21
-1.48199738E+02
  0
ARC
  8
0
 62
4
 10
-6.47643870E+01
 20
-1.45380859E+02
 40
1.21769740E+01
 50
2.40462101E+02
 51
2.58262147E+02
  0
ARC
  8
0
 62
4
 10
-7.32355770E+01
 20
-1.45380859E+02
 40
1.21769740E+01
 50
2.81737853E+02
 51
2.99537899E+02
  0
POLYLINE
  8
0
 62
4
 66
1
  0
VERTEX
  8
0
 62
4
 10
-6.55999820E+01
 20
-1.56052814E+02
  0
VERTEX
  8
0
 62
4
 10
-6.56129200E+01
 20
-1.55912054E+02
  0
VERTEX
  8
0
 62
4
 10
-6.56516356E+01
 20
-1.55772366E+02
  0
VERTEX
  8
0
 62
4
 10
-6.57158342E+01
 20
-1.55634812E+02
  0
VERTEX
  8
0
 62
4
 10
-6.58050271E+01
 20
-1.55500439E+02
  0
VERTEX
  8
0
 62
4
 10
-6.59185355E+01
 20
-1.55370270E+02
  0
VERTEX
  8
0
 62
4
 10
-6.60554956E+01
 20
-1.55245296E+02
  0
VERTEX
  8
0
 62
4
 10
-6.62148650E+01
 20
-1.55126468E+02
  0
VERTEX
  8
0
 62
4
 10
-6.63954309E+01
 20
-1.55014689E+02
  0
VERTEX
  8
0
 62
4
 10
-6.65958189E+01
 20
-1.54910811E+02
  0
VERTEX
  8
0
 62
4
 10
-6.68145041E+01
 20
-1.54815625E+02
  0
VERTEX
  8
0
 62
4
 10
-6.70498221E+01
 20
-1.54729854E+02
  0
VERTEX
  8
0
 62
4
 10
-6.72999820E+01
 20
-1.54654152E+02
  0
VERTEX
  8
0
 62
4
 10
-6.75630799E+01
 20
-1.54589095E+02
  0
VERTEX
  8
0
 62
4
 10
-6.78371135E+01
 20
-1.54535177E+02
  0
VERTEX
  8
0
 62
4
 10
-6.81199972E+01
 20
-1.54492809E+02
  0
VERTEX
  8
0
 62
4
 10
-6.84095782E+01
 20
-1.54462314E+02
  0
VERTEX
  8
0
 62
4
 10
-6.87036525E+01
 20
-1.54443924E+02
  0
VERTEX
  8
0
 62
4
 10
-6.89999820E+01
 20
-1.54437778E+02
  0
VERTEX
  8
0
 62
4
 10
-6.92963115E+01
 20
-1.54443924E+02
  0
VERTEX
  8
0
 62
4
 10
-6.95903858E+01
 20
-1.54462314E+02
  0
VERTEX
  8
0
 62
4
 10
-6.98799668E+01
 20
-1.54492809E+02
  0
VERTEX
  8
0
 62
4
 10
-7.01628505E+01
 20
-1.54535177E+02
  0
VERTEX
  8
0
 62
4
 10
-7.04368841E+01
 20
-1.54589095E+02
  0
VERTEX
  8
0
 62
4
 10
-7.06999820E+01
 20
-1.54654152E+02
  0
VERTEX
  8
0
 62
4
 10
-7.09501419E+01
 20
-1.54729854E+02
  0
VERTEX
  8
0
 62
4
 10
-7.11854599E+01
 20
-1.54815625E+02
  0
VERTEX
  8
0
 62
4
 10
-7.14041451E+01
 20
-1.54910811E+02
  0
VERTEX
  8
0
 62
4
 10
-7.16045331E+01
 20
-1.55014689E+02
  0
VERTEX
  8
0
 62
4
 10
-7.17850990E+01
 20
-1.55126468E+02
  0
VERTEX
  8
0
 62
4
 10
-7.19444684E+01
 20
-1.55245296E+02
  0
VERTEX
  8
0
 62
4
 10
-7.20814285E+01
 20
-1.55370270E+02
  0
VERTEX
  8
0
 62
4
 10
-7.21949369E+01
 20
-1.55500439E+02
  0
VERTEX
  8
0
 62
4
 10
-7.22841298E+01
 20
-1.55634812E+02
  0
VERTEX
  8
0
 62
4
 10
-7.23483284E+01
 20
-1.55772366E+02
  0
VERTEX
  8
0
 62
4
 10
-7.23870440E+01
 20
-1.55912054E+02
  0
VERTEX
  8
0
 62
4
 10
-7.23999820E+01
 20
-1.56052814E+02
  0
VERTEX
  8
0
 62
4
 10
-7.23870440E+01
 20
-1.56193574E+02
  0
VERTEX
  8
0
 62
4
 10
-7.23483284E+01
 20
-1.56333262E+02
  0
VERTEX
  8
0
 62
4
 10
-7.22841298E+01
 20
-1.56470816E+02
  0
VERTEX
  8
0
 62
4
 10
-7.21949369E+01
 20
-1.56605189E+02
  0
VERTEX
  8
0
 62
4
 10
-7.20814285E+01
 20
-1.56735358E+02
  0
VERTEX
  8
0
 62
4
 10
-7.19444684E+01
 20
-1.56860332E+02
  0
VERTEX
  8
0
 62
4
 10
-7.17850989E+01
 20
-1.56979160E+02
  0
VERTEX
  8
0
 62
4
 10
-7.16045331E+01
 20
-1.57090939E+02
  0
VERTEX
  8
0
 62
4
 10
-7.14041451E+01
 20
-1.57194817E+02
  0
VERTEX
  8
0
 62
4
 10
-7.11854599E+01
 20
-1.57290003E+02
  0
VERTEX
  8
0
 62
4
 10
-7.09501419E+01
 20
-1.57375774E+02
  0
VERTEX
  8
0
 62
4
 10
-7.06999820E+01
 20
-1.57451476E+02
  0
VERTEX
  8
0
 62
4
 10
-7.04368841E+01
 20
-1.57516533E+02
  0
VERTEX
  8
0
 62
4
 10
-7.01628505E+01
 20
-1.57570451E+02
  0
VERTEX
  8
0
 62
4
 10
-6.98799667E+01
 20
-1.57612819E+02
  0
VERTEX
  8
0
 62
4
 10
-6.95903858E+01
 20
-1.57643314E+02
  0
VERTEX
  8
0
 62
4
 10
-6.92963115E+01
 20
-1.57661704E+02
  0
VERTEX
  8
0
 62
4
 10
-6.89999820E+01
 20
-1.57667850E+02
  0
VERTEX
  8
0
 62
4
 10
-6.87036525E+01
 20
-1.57661704E+02
  0
VERTEX
  8
0
 62
4
 10
-6.84095782E+01
 20
-1.57643314E+02
  0
VERTEX
  8
0
 62
4
 10
-6.81199972E+01
 20
-1.57612819E+02
  0
VERTEX
  8
0
 62
4
 10
-6.78371135E+01
 20
-1.57570451E+02
  0
VERTEX
  8
0
 62
4
 10
-6.75630799E+01
 20
-1.57516533E+02
  0
VERTEX
  8
0
 62
4
 10
-6.72999820E+01
 20
-1.57451476E+02
  0
VERTEX
  8
0
 62
4
 10
-6.70498221E+01
 20
-1.57375774E+02
  0
VERTEX
  8
0
 62
4
 10
-6.68145041E+01
 20
-1.57290003E+02
  0
VERTEX
  8
0
 62
4
 10
-6.65958189E+01
 20
-1.57194817E+02
  0
VERTEX
  8
0
 62
4
 10
-6.63954309E+01
 20
-1.57090939E+02
  0
VERTEX
  8
0
 62
4
 10
-6.62148650E+01
 20
-1.56979160E+02
  0
VERTEX
  8
0
 62
4
 10
-6.60554956E+01
 20
-1.56860332E+02
  0
VERTEX
  8
0
 62
4
 10
-6.59185355E+01
 20
-1.56735358E+02
  0
VERTEX
  8
0
 62
4
 10
-6.58050271E+01
 20
-1.56605189E+02
  0
VERTEX
  8
0
 62
4
 10
-6.57158342E+01
 20
-1.56470816E+02
  0
VERTEX
  8
0
 62
4
 10
-6.56516356E+01
 20
-1.56333262E+02
  0
VERTEX
  8
0
 62
4
 10
-6.56129200E+01
 20
-1.56193574E+02
  0
VERTEX
  8
0
 62
4
 10
-6.55999820E+01
 20
-1.56052814E+02
  0
SEQEND
  8
0
  0
POLYLINE
  8
0
 62
4
 66
1
  0
VERTEX
  8
0
 62
4
 10
-6.55999820E+01
 20
-1.54088313E+02
  0
VERTEX
  8
0
 62
4
 10
-6.56136694E+01
 20
-1.53959510E+02
  0
VERTEX
  8
0
 62
4
 10
-6.56546214E+01
 20
-1.53831744E+02
  0
VERTEX
  8
0
 62
4
 10
-6.57225083E+01
 20
-1.53706044E+02
  0
VERTEX
  8
0
 62
4
 10
-6.58167834E+01
 20
-1.53583422E+02
  0
VERTEX
  8
0
 62
4
 10
-6.59366878E+01
 20
-1.53464865E+02
  0
VERTEX
  8
0
 62
4
 10
-6.60812561E+01
 20
-1.53351327E+02
  0
VERTEX
  8
0
 62
4
 10
-6.62493242E+01
 20
-1.53243723E+02
  0
VERTEX
  8
0
 62
4
 10
-6.64395390E+01
 20
-1.53142919E+02
  0
VERTEX
  8
0
 62
4
 10
-6.66503690E+01
 20
-1.53049728E+02
  0
VERTEX
  8
0
 62
4
 10
-6.68801167E+01
 20
-1.52964898E+02
  0
VERTEX
  8
0
 62
4
 10
-6.71269323E+01
 20
-1.52889113E+02
  0
VERTEX
  8
0
 62
4
 10
-6.73888285E+01
 20
-1.52822983E+02
  0
VERTEX
  8
0
 62
4
 10
-6.76636969E+01
 20
-1.52767042E+02
  0
VERTEX
  8
0
 62
4
 10
-6.79493242E+01
 20
-1.52721738E+02
  0
VERTEX
  8
0
 62
4
 10
-6.82434108E+01
 20
-1.52687437E+02
  0
VERTEX
  8
0
 62
4
 10
-6.85435889E+01
 20
-1.52664415E+02
  0
VERTEX
  8
0
 62
4
 10
-6.88474416E+01
 20
-1.52652858E+02
  0
VERTEX
  8
0
 62
4
 10
-6.91525224E+01
 20
-1.52652858E+02
  0
VERTEX
  8
0
 62
4
 10
-6.94563751E+01
 20
-1.52664415E+02
  0
VERTEX
  8
0
 62
4
 10
-6.97565532E+01
 20
-1.52687437E+02
  0
VERTEX
  8
0
 62
4
 10
-7.00506398E+01
 20
-1.52721738E+02
  0
VERTEX
  8
0
 62
4
 10
-7.03362671E+01
 20
-1.52767042E+02
  0
VERTEX
  8
0
 62
4
 10
-7.06111354E+01
 20
-1.52822983E+02
  0
VERTEX
  8
0
 62
4
 10
-7.08730317E+01
 20
-1.52889113E+02
  0
VERTEX
  8
0
 62
4
 10
-7.11198473E+01
 20
-1.52964898E+02
  0
VERTEX
  8
0
 62
4
 10
-7.13495950E+01
 20
-1.53049728E+02
  0
VERTEX
  8
0
 62
4
 10
-7.15604250E+01
 20
-1.53142919E+02
  0
VERTEX
  8
0
 62
4
 10
-7.17506398E+01
 20
-1.53243723E+02
  0
VERTEX
  8
0
 62
4
 10
-7.19187079E+01
 20
-1.53351327E+02
  0
VERTEX
  8
0
 62
4
 10
-7.20632761E+01
 20
-1.53464865E+02
  0
VERTEX
  8
0
 62
4
 10
-7.21831806E+01
 20
-1.53583422E+02
  0
VERTEX
  8
0
 62
4
 10
-7.22774557E+01
 20
-1.53706044E+02
  0
VERTEX
  8
0
 62
4
 10
-7.23453426E+01
 20
-1.53831744E+02
  0
VERTEX
  8
0
 62
4
 10
-7.23862946E+01
 20
-1.53959510E+02
  0
VERTEX
  8
0
 62
4
 10
-7.23999820E+01
 20
-1.54088313E+02
  0
SEQEND
  8
0
  0
LINE
  8
0
 62
4
 10
-7.23999820E+01
 20
-1.54088313E+02
 11
-7.23999820E+01
 21
-1.56052814E+02
  0
LINE
  8
0
 62
4
 10
-6.55999820E+01
 20
-1.54088313E+02
 11
-6.55999820E+01
 21
-1.56052814E+02
  0
LINE
  8
0
 62
4
 10
-7.29999820E+01
 20
-1.53635159E+02
 11
-7.29999820E+01
 21
-1.54088313E+02
  0
LINE
  8
0
 62
4
 10
-6.49999820E+01
 20
-1.53635159E+02
 11
-6.49999820E+01
 21
-1.54088313E+02
  0
POLYLINE
  8
0
 62
4
 66
1
  0
VERTEX
  8
0
 62
4
 10
-6.49999820E+01
 20
-1.53635159E+02
  0
VERTEX
  8
0
 62
4
 10
-6.50160848E+01
 20
-1.53483626E+02
  0
VERTEX
  8
0
 62
4
 10
-6.50642636E+01
 20
-1.53333313E+02
  0
VERTEX
  8
0
 62
4
 10
-6.51441306E+01
 20
-1.53185431E+02
  0
VERTEX
  8
0
 62
4
 10
-6.52550425E+01
 20
-1.53041169E+02
  0
VERTEX
  8
0
 62
4
 10
-6.53961065E+01
 20
-1.52901690E+02
  0
VERTEX
  8
0
 62
4
 10
-6.55661868E+01
 20
-1.52768117E+02
  0
VERTEX
  8
0
 62
4
 10
-6.57639140E+01
 20
-1.52641524E+02
  0
VERTEX
  8
0
 62
4
 10
-6.59876961E+01
 20
-1.52522931E+02
  0
VERTEX
  8
0
 62
4
 10
-6.62357314E+01
 20
-1.52413294E+02
  0
VERTEX
  8
0
 62
4
 10
-6.65060228E+01
 20
-1.52313494E+02
  0
VERTEX
  8
0
 62
4
 10
-6.67963941E+01
 20
-1.52224335E+02
  0
VERTEX
  8
0
 62
4
 10
-6.71045073E+01
 20
-1.52146536E+02
  0
VERTEX
  8
0
 62
4
 10
-6.74278819E+01
 20
-1.52080722E+02
  0
VERTEX
  8
0
 62
4
 10
-6.77639140E+01
 20
-1.52027424E+02
  0
VERTEX
  8
0
 62
4
 10
-6.81098983E+01
 20
-1.51987070E+02
  0
VERTEX
  8
0
 62
4
 10
-6.84630489E+01
 20
-1.51959985E+02
  0
VERTEX
  8
0
 62
4
 10
-6.88205227E+01
 20
-1.51946388E+02
  0
VERTEX
  8
0
 62
4
 10
-6.91794413E+01
 20
-1.51946388E+02
  0
VERTEX
  8
0
 62
4
 10
-6.95369151E+01
 20
-1.51959985E+02
  0
VERTEX
  8
0
 62
4
 10
-6.98900657E+01
 20
-1.51987070E+02
  0
VERTEX
  8
0
 62
4
 10
-7.02360500E+01
 20
-1.52027424E+02
  0
VERTEX
  8
0
 62
4
 10
-7.05720821E+01
 20
-1.52080722E+02
  0
VERTEX
  8
0
 62
4
 10
-7.08954566E+01
 20
-1.52146536E+02
  0
VERTEX
  8
0
 62
4
 10
-7.12035699E+01
 20
-1.52224335E+02
  0
VERTEX
  8
0
 62
4
 10
-7.14939412E+01
 20
-1.52313494E+02
  0
VERTEX
  8
0
 62
4
 10
-7.17642326E+01
 20
-1.52413294E+02
  0
VERTEX
  8
0
 62
4
 10
-7.20122679E+01
 20
-1.52522931E+02
  0
VERTEX
  8
0
 62
4
 10
-7.22360500E+01
 20
-1.52641524E+02
  0
VERTEX
  8
0
 62
4
 10
-7.24337772E+01
 20
-1.52768117E+02
  0
VERTEX
  8
0
 62
4
 10
-7.26038575E+01
 20
-1.52901690E+02
  0
VERTEX
  8
0
 62
4
 10
-7.27449215E+01
 20
-1.53041169E+02
  0
VERTEX
  8
0
 62
4
 10
-7.28558334E+01
 20
-1.53185431E+02
  0
VERTEX
  8
0
 62
4
 10
-7.29357004E+01
 20
-1.53333313E+02
  0
VERTEX
  8
0
 62
4
 10
-7.29838792E+01
 20
-1.53483626E+02
  0
VERTEX
  8
0
 62
4
 10
-7.29999820E+01
 20
-1.53635159E+02
  0
SEQEND
  8
0
  0
POLYLINE
  8
0
 62
4
 66
1
  0
VERTEX
  8
0
 62
4
 10
-6.55999820E+01
 20
-1.54978825E+02
  0
VERTEX
  8
0
 62
4
 10
-6.54269300E+01
 20
-1.54848239E+02
  0
VERTEX
  8
0
 62
4
 10
-6.52818870E+01
 20
-1.54711696E+02
  0
VERTEX
  8
0
 62
4
 10
-6.51659902E+01
 20
-1.54570266E+02
  0
VERTEX
  8
0
 62
4
 10
-6.50801479E+01
 20
-1.54425058E+02
  0
VERTEX
  8
0
 62
4
 10
-6.50250331E+01
 20
-1.54277210E+02
  0
VERTEX
  8
0
 62
4
 10
-6.50010779E+01
 20
-1.54127882E+02
  0
VERTEX
  8
0
 62
4
 10
-6.50084701E+01
 20
-1.53978243E+02
  0
VERTEX
  8
0
 62
4
 10
-6.50471516E+01
 20
-1.53829468E+02
  0
VERTEX
  8
0
 62
4
 10
-6.51168193E+01
 20
-1.53682721E+02
  0
VERTEX
  8
0
 62
4
 10
-6.52169270E+01
 20
-1.53539154E+02
  0
VERTEX
  8
0
 62
4
 10
-6.53466901E+01
 20
-1.53399892E+02
  0
VERTEX
  8
0
 62
4
 10
-6.55050912E+01
 20
-1.53266026E+02
  0
VERTEX
  8
0
 62
4
 10
-6.56908887E+01
 20
-1.53138606E+02
  0
VERTEX
  8
0
 62
4
 10
-6.59026262E+01
 20
-1.53018631E+02
  0
VERTEX
  8
0
 62
4
 10
-6.61386438E+01
 20
-1.52907041E+02
  0
VERTEX
  8
0
 62
4
 10
-6.63970913E+01
 20
-1.52804711E+02
  0
VERTEX
  8
0
 62
4
 10
-6.66759429E+01
 20
-1.52712443E+02
  0
VERTEX
  8
0
 62
4
 10
-6.69730125E+01
 20
-1.52630960E+02
  0
VERTEX
  8
0
 62
4
 10
-6.72859716E+01
 20
-1.52560902E+02
  0
VERTEX
  8
0
 62
4
 10
-6.76123667E+01
 20
-1.52502817E+02
  0
VERTEX
  8
0
 62
4
 10
-6.79496394E+01
 20
-1.52457161E+02
  0
VERTEX
  8
0
 62
4
 10
-6.82951456E+01
 20
-1.52424291E+02
  0
VERTEX
  8
0
 62
4
 10
-6.86461771E+01
 20
-1.52404466E+02
  0
VERTEX
  8
0
 62
4
 10
-6.89999820E+01
 20
-1.52397840E+02
  0
VERTEX
  8
0
 62
4
 10
-6.93537869E+01
 20
-1.52404466E+02
  0
VERTEX
  8
0
 62
4
 10
-6.97048184E+01
 20
-1.52424291E+02
  0
VERTEX
  8
0
 62
4
 10
-7.00503246E+01
 20
-1.52457161E+02
  0
VERTEX
  8
0
 62
4
 10
-7.03875972E+01
 20
-1.52502817E+02
  0
VERTEX
  8
0
 62
4
 10
-7.07139924E+01
 20
-1.52560902E+02
  0
VERTEX
  8
0
 62
4
 10
-7.10269514E+01
 20
-1.52630960E+02
  0
VERTEX
  8
0
 62
4
 10
-7.13240211E+01
 20
-1.52712443E+02
  0
VERTEX
  8
0
 62
4
 10
-7.16028727E+01
 20
-1.52804711E+02
  0
VERTEX
  8
0
 62
4
 10
-7.18613202E+01
 20
-1.52907041E+02
  0
VERTEX
  8
0
 62
4
 10
-7.20973378E+01
 20
-1.53018631E+02
  0
VERTEX
  8
0
 62
4
 10
-7.23090752E+01
 20
-1.53138606E+02
  0
VERTEX
  8
0
 62
4
 10
-7.24948728E+01
 20
-1.53266026E+02
  0
VERTEX
  8
0
 62
4
 10
-7.26532739E+01
 20
-1.53399892E+02
  0
VERTEX
  8
0
 62
4
 10
-7.27830370E+01
 20
-1.53539154E+02
  0
VERTEX
  8
0
 62
4
 10
-7.28831447E+01
 20
-1.53682721E+02
  0
VERTEX
  8
0
 62
4
 10
-7.29528124E+01
 20
-1.53829468E+02
  0
VERTEX
  8
0
 62
4
 10
-7.29914939E+01
 20
-1.53978243E+02
  0
VERTEX
  8
0
 62
4
 10
-7.29988861E+01
 20
-1.54127882E+02
  0
VERTEX
  8
0
 62
4
 10
-7.29749309E+01
 20
-1.54277210E+02
  0
VERTEX
  8
0
 62
4
 10
-7.29198161E+01
 20
-1.54425058E+02
  0
VERTEX
  8
0
 62
4
 10
-7.28339738E+01
 20
-1.54570266E+02
  0
VERTEX
  8
0
 62
4
 10
-7.27180770E+01
 20
-1.54711696E+02
  0
VERTEX
  8
0
 62
4
 10
-7.25730340E+01
 20
-1.54848239E+02
  0
VERTEX
  8
0
 62
4
 10
-7.23999820E+01
 20
-1.54978825E+02
  0
SEQEND
  8
0
  0
POLYLINE
  8
0
 62
4
 66
1
  0
VERTEX
  8
0
 62
4
 10
-6.59999820E+01
 20
-1.27333899E+02
  0
VERTEX
  8
0
 62
4
 10
-6.60113979E+01
 20
-1.27096929E+02
  0
VERTEX
  8
0
 62
4
 10
-6.60455587E+01
 20
-1.26861763E+02
  0
VERTEX
  8
0
 62
4
 10
-6.61022045E+01
 20
-1.26630190E+02
  0
VERTEX
  8
0
 62
4
 10
-6.61809041E+01
 20
-1.26403972E+02
  0
VERTEX
  8
0
 62
4
 10
-6.62810586E+01
 20
-1.26184832E+02
  0
VERTEX
  8
0
 62
4
 10
-6.64019058E+01
 20
-1.25974437E+02
  0
VERTEX
  8
0
 62
4
 10
-6.65425259E+01
 20
-1.25774389E+02
  0
VERTEX
  8
0
 62
4
 10
-6.67018487E+01
 20
-1.25586209E+02
  0
VERTEX
  8
0
 62
4
 10
-6.68786617E+01
 20
-1.25411330E+02
  0
VERTEX
  8
0
 62
4
 10
-6.70716192E+01
 20
-1.25251083E+02
  0
VERTEX
  8
0
 62
4
 10
-6.72792527E+01
 20
-1.25106687E+02
  0
VERTEX
  8
0
 62
4
 10
-6.74999820E+01
 20
-1.24979242E+02
  0
VERTEX
  8
0
 62
4
 10
-6.77321272E+01
 20
-1.24869718E+02
  0
VERTEX
  8
0
 62
4
 10
-6.79739216E+01
 20
-1.24778947E+02
  0
VERTEX
  8
0
 62
4
 10
-6.82235249E+01
 20
-1.24707621E+02
  0
VERTEX
  8
0
 62
4
 10
-6.84790375E+01
 20
-1.24656282E+02
  0
VERTEX
  8
0
 62
4
 10
-6.87385148E+01
 20
-1.24625322E+02
  0
VERTEX
  8
0
 62
4
 10
-6.89999820E+01
 20
-1.24614976E+02
  0
VERTEX
  8
0
 62
4
 10
-6.92614492E+01
 20
-1.24625322E+02
  0
VERTEX
  8
0
 62
4
 10
-6.95209265E+01
 20
-1.24656282E+02
  0
VERTEX
  8
0
 62
4
 10
-6.97764391E+01
 20
-1.24707621E+02
  0
VERTEX
  8
0
 62
4
 10
-7.00260424E+01
 20
-1.24778947E+02
  0
VERTEX
  8
0
 62
4
 10
-7.02678368E+01
 20
-1.24869718E+02
  0
VERTEX
  8
0
 62
4
 10
-7.04999820E+01
 20
-1.24979242E+02
  0
VERTEX
  8
0
 62
4
 10
-7.07207113E+01
 20
-1.25106687E+02
  0
VERTEX
  8
0
 62
4
 10
-7.09283448E+01
 20
-1.25251083E+02
  0
VERTEX
  8
0
 62
4
 10
-7.11213023E+01
 20
-1.25411330E+02
  0
VERTEX
  8
0
 62
4
 10
-7.12981153E+01
 20
-1.25586209E+02
  0
VERTEX
  8
0
 62
4
 10
-7.14574381E+01
 20
-1.25774389E+02
  0
VERTEX
  8
0
 62
4
 10
-7.15980582E+01
 20
-1.25974437E+02
  0
VERTEX
  8
0
 62
4
 10
-7.17189054E+01
 20
-1.26184832E+02
  0
VERTEX
  8
0
 62
4
 10
-7.18190599E+01
 20
-1.26403972E+02
  0
VERTEX
  8
0
 62
4
 10
-7.18977595E+01
 20
-1.26630190E+02
  0
VERTEX
  8
0
 62
4
 10
-7.19544053E+01
 20
-1.26861763E+02
  0
VERTEX
  8
0
 62
4
 10
-7.19885661E+01
 20
-1.27096929E+02
  0
VERTEX
  8
0
 62
4
 10
-7.19999820E+01
 20
-1.27333899E+02
  0
VERTEX
  8
0
 62
4
 10
-7.19885661E+01
 20
-1.27570869E+02
  0
VERTEX
  8
0
 62
4
 10
-7.19544053E+01
 20
-1.27806035E+02
  0
VERTEX
  8
0
 62
4
 10
-7.18977595E+01
 20
-1.28037608E+02
  0
VERTEX
  8
0
 62
4
 10
-7.18190599E+01
 20
-1.28263826E+02
  0
VERTEX
  8
0
 62
4
 10
-7.17189054E+01
 20
-1.28482966E+02
  0
VERTEX
  8
0
 62
4
 10
-7.15980582E+01
 20
-1.28693361E+02
  0
VERTEX
  8
0
 62
4
 10
-7.14574381E+01
 20
-1.28893409E+02
  0
VERTEX
  8
0
 62
4
 10
-7.12981153E+01
 20
-1.29081589E+02
  0
VERTEX
  8
0
 62
4
 10
-7.11213023E+01
 20
-1.29256468E+02
  0
VERTEX
  8
0
 62
4
 10
-7.09283448E+01
 20
-1.29416715E+02
  0
VERTEX
  8
0
 62
4
 10
-7.07207113E+01
 20
-1.29561111E+02
  0
VERTEX
  8
0
 62
4
 10
-7.04999820E+01
 20
-1.29688556E+02
  0
VERTEX
  8
0
 62
4
 10
-7.02678368E+01
 20
-1.29798080E+02
  0
VERTEX
  8
0
 62
4
 10
-7.00260424E+01
 20
-1.29888851E+02
  0
VERTEX
  8
0
 62
4
 10
-6.97764391E+01
 20
-1.29960177E+02
  0
VERTEX
  8
0
 62
4
 10
-6.95209265E+01
 20
-1.30011516E+02
  0
VERTEX
  8
0
 62
4
 10
-6.92614492E+01
 20
-1.30042476E+02
  0
VERTEX
  8
0
 62
4
 10
-6.89999820E+01
 20
-1.30052822E+02
  0
VERTEX
  8
0
 62
4
 10
-6.87385148E+01
 20
-1.30042476E+02
  0
VERTEX
  8
0
 62
4
 10
-6.84790375E+01
 20
-1.30011516E+02
  0
VERTEX
  8
0
 62
4
 10
-6.82235249E+01
 20
-1.29960177E+02
  0
VERTEX
  8
0
 62
4
 10
-6.79739216E+01
 20
-1.29888851E+02
  0
VERTEX
  8
0
 62
4
 10
-6.77321272E+01
 20
-1.29798080E+02
  0
VERTEX
  8
0
 62
4
 10
-6.74999820E+01
 20
-1.29688556E+02
  0
VERTEX
  8
0
 62
4
 10
-6.72792527E+01
 20
-1.29561111E+02
  0
VERTEX
  8
0
 62
4
 10
-6.70716192E+01
 20
-1.29416715E+02
  0
VERTEX
  8
0
 62
4
 10
-6.68786617E+01
 20
-1.29256468E+02
  0
VERTEX
  8
0
 62
4
 10
-6.67018487E+01
 20
-1.29081589E+02
  0
VERTEX
  8
0
 62
4
 10
-6.65425259E+01
 20
-1.28893409E+02
  0
VERTEX
  8
0
 62
4
 10
-6.64019058E+01
 20
-1.28693361E+02
  0
VERTEX
  8
0
 62
4
 10
-6.62810586E+01
 20
-1.28482966E+02
  0
VERTEX
  8
0
 62
4
 10
-6.61809041E+01
 20
-1.28263826E+02
  0
VERTEX
  8
0
 62
4
 10
-6.61022045E+01
 20
-1.28037608E+02
  0
VERTEX
  8
0
 62
4
 10
-6.60455587E+01
 20
-1.27806035E+02
  0
VERTEX
  8
0
 62
4
 10
-6.60113979E+01
 20
-1.27570869E+02
  0
VERTEX
  8
0
 62
4
 10
-6.59999820E+01
 20
-1.27333899E+02
  0
SEQEND
  8
0
  0
LINE
  8
0
  6
CENTER
 62
6
 10
-7.45009895E+01
 20
-1.27333899E+02
 11
-6.34989745E+01
 21
-1.27333899E+02
  0
LINE
  8
0
 62
4
 10
-9.59999820E+01
 20
-1.37349654E+02
 11
-9.09999820E+01
 21
-1.37349654E+02
  0
LINE
  8
0
 62
4
 10
-9.59999820E+01
 20
-1.34175790E+02
 11
-9.09999820E+01
 21
-1.34175790E+02
  0
LINE
  8
0
 62
4
 10
-9.59999820E+01
 20
-1.26699971E+02
 11
-9.09999820E+01
 21
-1.26699971E+02
  0
ARC
  8
0
 62
4
 10
-7.94999815E+01
 20
-1.55304795E+02
 40
1.50000046E+00
 50
1.80000018E+02
 51
2.69999983E+02
  0
ARC
  8
0
 62
4
 10
-8.54999824E+01
 20
-1.23369610E+02
 40
4.99999542E-01
 50
8.99999475E+01
 51
1.80000053E+02
  0
ARC
  8
0
 62
4
 10
-8.54999777E+01
 20
-1.36369606E+02
 40
5.00004272E-01
 50
1.80000490E+02
 51
2.69999511E+02
  0
LINE
  8
0
 62
4
 10
-7.94999820E+01
 20
-1.56804796E+02
 11
-7.20089425E+01
 21
-1.56804796E+02
  0
LINE
  8
0
 62
4
 10
-8.09999820E+01
 20
-1.36869611E+02
 11
-8.09999820E+01
 21
-1.55304796E+02
  0
LINE
  8
0
 62
4
 10
-7.84999820E+01
 20
-1.36869611E+02
 11
-7.84999820E+01
 21
-1.48199738E+02
  0
LINE
  8
0
 62
4
 10
-9.59999820E+01
 20
-1.22393789E+02
 11
-9.09999820E+01
 21
-1.22393789E+02
  0
LINE
  8
0
 62
4
 10
-7.64999820E+01
 20
-1.44696664E+02
 11
-6.14999820E+01
 21
-1.44696664E+02
  0
LINE
  8
0
 62
4
 10
-7.64999820E+01
 20
-1.34131207E+02
 11
-6.14999820E+01
 21
-1.34131207E+02
  0
LINE
  8
0
 62
4
 10
-8.94999820E+01
 20
-1.35619611E+02
 11
-8.59999820E+01
 21
-1.35619611E+02
  0
LINE
  8
0
 62
4
 10
-8.94999820E+01
 20
-1.24119611E+02
 11
-8.59999820E+01
 21
-1.24119611E+02
  0
LINE
  8
0
 62
4
 10
-8.94999820E+01
 20
-1.23619611E+02
 11
-8.94999820E+01
 21
-1.36119611E+02
  0
LINE
  8
0
 62
4
 10
-9.09999820E+01
 20
-1.36119611E+02
 11
-8.59999820E+01
 21
-1.36119611E+02
  0
LINE
  8
0
 62
4
 10
-9.09999820E+01
 20
-1.23619611E+02
 11
-8.59999820E+01
 21
-1.23619611E+02
  0
LINE
  8
0
 62
4
 10
-9.09999820E+01
 20
-1.22393789E+02
 11
-9.09999820E+01
 21
-1.37349654E+02
  0
LINE
  8
0
 62
4
 10
-9.59999820E+01
 20
-1.22393789E+02
 11
-9.59999820E+01
 21
-1.37349654E+02
  0
LINE
  8
0
 62
4
 10
-8.59999820E+01
 20
-1.23369611E+02
 11
-8.59999820E+01
 21
-1.36369611E+02
  0
LINE
  8
0
 62
4
 10
-7.64999820E+01
 20
-1.22869611E+02
 11
-8.54999820E+01
 21
-1.22869611E+02
  0
LINE
  8
0
 62
4
 10
-8.54999820E+01
 20
-1.36869611E+02
 11
-7.64999820E+01
 21
-1.36869611E+02
  0
LINE
  8
0
  6
CENTER
 62
6
 10
-7.29999820E+01
 20
-1.14319969E+02
 11
-7.29999820E+01
 21
-1.24819969E+02
  0
LINE
  8
0
 62
4
 10
-6.14999820E+01
 20
-1.17019660E+02
 11
-7.64999820E+01
 21
-1.17019660E+02
  0
LINE
  8
0
 62
4
 10
-6.14999820E+01
 20
-1.20536590E+02
 11
-7.64999820E+01
 21
-1.20536590E+02
  0
LINE
  8
0
 62
4
 10
-6.14999820E+01
 20
-1.17019660E+02
 11
-6.14999820E+01
 21
-1.44696664E+02
  0
LINE
  8
0
 62
4
 10
-7.64999820E+01
 20
-1.17019660E+02
 11
-7.64999820E+01
 21
-1.44696664E+02
  0
LINE
  8
0
  6
CENTER
 62
6
 10
-6.49999820E+01
 20
-1.14319969E+02
 11
-6.49999820E+01
 21
-1.24819969E+02
  0
ARC
  8
0
 62
4
 10
-7.94999820E+01
 20
-1.48965521E+02
 40
1.50000046E+00
 50
1.80000018E+02
 51
2.69999983E+02
  0
POLYLINE
  8
0
 62
4
 66
1
  0
VERTEX
  8
0
 62
4
 10
-4.98599820E+01
 20
-1.39167241E+02
  0
VERTEX
  8
0
 62
4
 10
-4.98719306E+01
 20
-1.38919213E+02
  0
VERTEX
  8
0
 62
4
 10
-4.99076857E+01
 20
-1.38673072E+02
  0
VERTEX
  8
0
 62
4
 10
-4.99669749E+01
 20
-1.38430692E+02
  0
VERTEX
  8
0
 62
4
 10
-5.00493472E+01
 20
-1.38193918E+02
  0
VERTEX
  8
0
 62
4
 10
-5.01541755E+01
 20
-1.37964551E+02
  0
VERTEX
  8
0
 62
4
 10
-5.02806622E+01
 20
-1.37744338E+02
  0
VERTEX
  8
0
 62
4
 10
-5.04278446E+01
 20
-1.37534953E+02
  0
VERTEX
  8
0
 62
4
 10
-5.05946024E+01
 20
-1.37337992E+02
  0
VERTEX
  8
0
 62
4
 10
-5.07796667E+01
 20
-1.37154952E+02
  0
VERTEX
  8
0
 62
4
 10
-5.09816289E+01
 20
-1.36987227E+02
  0
VERTEX
  8
0
 62
4
 10
-5.11989520E+01
 20
-1.36836093E+02
  0
VERTEX
  8
0
 62
4
 10
-5.14299820E+01
 20
-1.36702700E+02
  0
VERTEX
  8
0
 62
4
 10
-5.16729607E+01
 20
-1.36588064E+02
  0
VERTEX
  8
0
 62
4
 10
-5.19260388E+01
 20
-1.36493058E+02
  0
VERTEX
  8
0
 62
4
 10
-5.21872902E+01
 20
-1.36418403E+02
  0
VERTEX
  8
0
 62
4
 10
-5.24547267E+01
 20
-1.36364669E+02
  0
VERTEX
  8
0
 62
4
 10
-5.27263130E+01
 20
-1.36332264E+02
  0
VERTEX
  8
0
 62
4
 10
-5.29999820E+01
 20
-1.36321435E+02
  0
VERTEX
  8
0
 62
4
 10
-5.32736510E+01
 20
-1.36332264E+02
  0
VERTEX
  8
0
 62
4
 10
-5.35452373E+01
 20
-1.36364669E+02
  0
VERTEX
  8
0
 62
4
 10
-5.38126738E+01
 20
-1.36418403E+02
  0
VERTEX
  8
0
 62
4
 10
-5.40739253E+01
 20
-1.36493058E+02
  0
VERTEX
  8
0
 62
4
 10
-5.43270033E+01
 20
-1.36588064E+02
  0
VERTEX
  8
0
 62
4
 10
-5.45699820E+01
 20
-1.36702700E+02
  0
VERTEX
  8
0
 62
4
 10
-5.48010120E+01
 20
-1.36836093E+02
  0
VERTEX
  8
0
 62
4
 10
-5.50183351E+01
 20
-1.36987227E+02
  0
VERTEX
  8
0
 62
4
 10
-5.52202973E+01
 20
-1.37154952E+02
  0
VERTEX
  8
0
 62
4
 10
-5.54053616E+01
 20
-1.37337992E+02
  0
VERTEX
  8
0
 62
4
 10
-5.55721194E+01
 20
-1.37534953E+02
  0
VERTEX
  8
0
 62
4
 10
-5.57193018E+01
 20
-1.37744338E+02
  0
VERTEX
  8
0
 62
4
 10
-5.58457885E+01
 20
-1.37964551E+02
  0
VERTEX
  8
0
 62
4
 10
-5.59506168E+01
 20
-1.38193918E+02
  0
VERTEX
  8
0
 62
4
 10
-5.60329891E+01
 20
-1.38430692E+02
  0
VERTEX
  8
0
 62
4
 10
-5.60922783E+01
 20
-1.38673072E+02
  0
VERTEX
  8
0
 62
4
 10
-5.61280334E+01
 20
-1.38919213E+02
  0
VERTEX
  8
0
 62
4
 10
-5.61399820E+01
 20
-1.39167241E+02
  0
VERTEX
  8
0
 62
4
 10
-5.61280334E+01
 20
-1.39415269E+02
  0
VERTEX
  8
0
 62
4
 10
-5.60922783E+01
 20
-1.39661410E+02
  0
VERTEX
  8
0
 62
4
 10
-5.60329891E+01
 20
-1.39903790E+02
  0
VERTEX
  8
0
 62
4
 10
-5.59506168E+01
 20
-1.40140564E+02
  0
VERTEX
  8
0
 62
4
 10
-5.58457884E+01
 20
-1.40369931E+02
  0
VERTEX
  8
0
 62
4
 10
-5.57193018E+01
 20
-1.40590144E+02
  0
VERTEX
  8
0
 62
4
 10
-5.55721194E+01
 20
-1.40799529E+02
  0
VERTEX
  8
0
 62
4
 10
-5.54053615E+01
 20
-1.40996490E+02
  0
VERTEX
  8
0
 62
4
 10
-5.52202973E+01
 20
-1.41179530E+02
  0
VERTEX
  8
0
 62
4
 10
-5.50183351E+01
 20
-1.41347255E+02
  0
VERTEX
  8
0
 62
4
 10
-5.48010120E+01
 20
-1.41498389E+02
  0
VERTEX
  8
0
 62
4
 10
-5.45699820E+01
 20
-1.41631782E+02
  0
VERTEX
  8
0
 62
4
 10
-5.43270033E+01
 20
-1.41746418E+02
  0
VERTEX
  8
0
 62
4
 10
-5.40739252E+01
 20
-1.41841424E+02
  0
VERTEX
  8
0
 62
4
 10
-5.38126738E+01
 20
-1.41916079E+02
  0
VERTEX
  8
0
 62
4
 10
-5.35452373E+01
 20
-1.41969813E+02
  0
VERTEX
  8
0
 62
4
 10
-5.32736510E+01
 20
-1.42002218E+02
  0
VERTEX
  8
0
 62
4
 10
-5.29999820E+01
 20
-1.42013047E+02
  0
VERTEX
  8
0
 62
4
 10
-5.27263130E+01
 20
-1.42002218E+02
  0
VERTEX
  8
0
 62
4
 10
-5.24547267E+01
 20
-1.41969813E+02
  0
VERTEX
  8
0
 62
4
 10
-5.21872902E+01
 20
-1.41916079E+02
  0
VERTEX
  8
0
 62
4
 10
-5.19260387E+01
 20
-1.41841424E+02
  0
VERTEX
  8
0
 62
4
 10
-5.16729607E+01
 20
-1.41746418E+02
  0
VERTEX
  8
0
 62
4
 10
-5.14299820E+01
 20
-1.41631782E+02
  0
VERTEX
  8
0
 62
4
 10
-5.11989520E+01
 20
-1.41498389E+02
  0
VERTEX
  8
0
 62
4
 10
-5.09816289E+01
 20
-1.41347255E+02
  0
VERTEX
  8
0
 62
4
 10
-5.07796667E+01
 20
-1.41179530E+02
  0
VERTEX
  8
0
 62
4
 10
-5.05946024E+01
 20
-1.40996490E+02
  0
VERTEX
  8
0
 62
4
 10
-5.04278446E+01
 20
-1.40799529E+02
  0
VERTEX
  8
0
 62
4
 10
-5.02806622E+01
 20
-1.40590144E+02
  0
VERTEX
  8
0
 62
4
 10
-5.01541755E+01
 20
-1.40369931E+02
  0
VERTEX
  8
0
 62
4
 10
-5.00493472E+01
 20
-1.40140564E+02
  0
VERTEX
  8
0
 62
4
 10
-4.99669749E+01
 20
-1.39903790E+02
  0
VERTEX
  8
0
 62
4
 10
-4.99076857E+01
 20
-1.39661410E+02
  0
VERTEX
  8
0
 62
4
 10
-4.98719306E+01
 20
-1.39415269E+02
  0
VERTEX
  8
0
 62
4
 10
-4.98599820E+01
 20
-1.39167241E+02
  0
SEQEND
  8
0
  0
POLYLINE
  8
0
 62
4
 66
1
  0
VERTEX
  8
0
 62
4
 10
-5.51049399E+01
 20
-1.37055572E+02
  0
VERTEX
  8
0
 62
4
 10
-5.53414835E+01
 20
-1.37232173E+02
  0
VERTEX
  8
0
 62
4
 10
-5.55600745E+01
 20
-1.37426851E+02
  0
VERTEX
  8
0
 62
4
 10
-5.57590370E+01
 20
-1.37638113E+02
  0
VERTEX
  8
0
 62
4
 10
-5.59368454E+01
 20
-1.37864339E+02
  0
VERTEX
  8
0
 62
4
 10
-5.60921364E+01
 20
-1.38103795E+02
  0
VERTEX
  8
0
 62
4
 10
-5.62237195E+01
 20
-1.38354644E+02
  0
VERTEX
  8
0
 62
4
 10
-5.63305858E+01
 20
-1.38614964E+02
  0
VERTEX
  8
0
 62
4
 10
-5.64119159E+01
 20
-1.38882759E+02
  0
VERTEX
  8
0
 62
4
 10
-5.64670862E+01
 20
-1.39155976E+02
  0
VERTEX
  8
0
 62
4
 10
-5.64956738E+01
 20
-1.39432519E+02
  0
VERTEX
  8
0
 62
4
 10
-5.64974595E+01
 20
-1.39710268E+02
  0
VERTEX
  8
0
 62
4
 10
-5.64724295E+01
 20
-1.39987094E+02
  0
VERTEX
  8
0
 62
4
 10
-5.64207759E+01
 20
-1.40260875E+02
  0
VERTEX
  8
0
 62
4
 10
-5.63428945E+01
 20
-1.40529510E+02
  0
VERTEX
  8
0
 62
4
 10
-5.62393826E+01
 20
-1.40790941E+02
  0
VERTEX
  8
0
 62
4
 10
-5.61110337E+01
 20
-1.41043164E+02
  0
VERTEX
  8
0
 62
4
 10
-5.59588321E+01
 20
-1.41284243E+02
  0
VERTEX
  8
0
 62
4
 10
-5.57839445E+01
 20
-1.41512332E+02
  0
VERTEX
  8
0
 62
4
 10
-5.55877119E+01
 20
-1.41725681E+02
  0
VERTEX
  8
0
 62
4
 10
-5.53716388E+01
 20
-1.41922654E+02
  0
VERTEX
  8
0
 62
4
 10
-5.51373820E+01
 20
-1.42101741E+02
  0
VERTEX
  8
0
 62
4
 10
-5.48867374E+01
 20
-1.42261569E+02
  0
VERTEX
  8
0
 62
4
 10
-5.46216268E+01
 20
-1.42400913E+02
  0
VERTEX
  8
0
 62
4
 10
-5.43440828E+01
 20
-1.42518704E+02
  0
VERTEX
  8
0
 62
4
 10
-5.40562335E+01
 20
-1.42614040E+02
  0
VERTEX
  8
0
 62
4
 10
-5.37602857E+01
 20
-1.42686188E+02
  0
VERTEX
  8
0
 62
4
 10
-5.34585085E+01
 20
-1.42734597E+02
  0
VERTEX
  8
0
 62
4
 10
-5.31532158E+01
 20
-1.42758894E+02
  0
VERTEX
  8
0
 62
4
 10
-5.28467482E+01
 20
-1.42758894E+02
  0
VERTEX
  8
0
 62
4
 10
-5.25414555E+01
 20
-1.42734597E+02
  0
VERTEX
  8
0
 62
4
 10
-5.22396784E+01
 20
-1.42686188E+02
  0
VERTEX
  8
0
 62
4
 10
-5.19437306E+01
 20
-1.42614040E+02
  0
VERTEX
  8
0
 62
4
 10
-5.16558812E+01
 20
-1.42518704E+02
  0
VERTEX
  8
0
 62
4
 10
-5.13783373E+01
 20
-1.42400913E+02
  0
VERTEX
  8
0
 62
4
 10
-5.11132267E+01
 20
-1.42261569E+02
  0
VERTEX
  8
0
 62
4
 10
-5.08625821E+01
 20
-1.42101741E+02
  0
VERTEX
  8
0
 62
4
 10
-5.06283252E+01
 20
-1.41922654E+02
  0
VERTEX
  8
0
 62
4
 10
-5.04122521E+01
 20
-1.41725681E+02
  0
VERTEX
  8
0
 62
4
 10
-5.02160195E+01
 20
-1.41512332E+02
  0
VERTEX
  8
0
 62
4
 10
-5.00411320E+01
 20
-1.41284243E+02
  0
VERTEX
  8
0
 62
4
 10
-4.98889303E+01
 20
-1.41043164E+02
  0
VERTEX
  8
0
 62
4
 10
-4.97605814E+01
 20
-1.40790941E+02
  0
VERTEX
  8
0
 62
4
 10
-4.96570695E+01
 20
-1.40529510E+02
  0
VERTEX
  8
0
 62
4
 10
-4.95791882E+01
 20
-1.40260875E+02
  0
VERTEX
  8
0
 62
4
 10
-4.95275345E+01
 20
-1.39987094E+02
  0
VERTEX
  8
0
 62
4
 10
-4.95025045E+01
 20
-1.39710268E+02
  0
VERTEX
  8
0
 62
4
 10
-4.95042902E+01
 20
-1.39432519E+02
  0
VERTEX
  8
0
 62
4
 10
-4.95328778E+01
 20
-1.39155976E+02
  0
VERTEX
  8
0
 62
4
 10
-4.95880481E+01
 20
-1.38882759E+02
  0
VERTEX
  8
0
 62
4
 10
-4.96693782E+01
 20
-1.38614965E+02
  0
VERTEX
  8
0
 62
4
 10
-4.97762445E+01
 20
-1.38354644E+02
  0
VERTEX
  8
0
 62
4
 10
-4.99078276E+01
 20
-1.38103795E+02
  0
VERTEX
  8
0
 62
4
 10
-5.00631186E+01
 20
-1.37864339E+02
  0
VERTEX
  8
0
 62
4
 10
-5.02409270E+01
 20
-1.37638113E+02
  0
VERTEX
  8
0
 62
4
 10
-5.04398894E+01
 20
-1.37426851E+02
  0
VERTEX
  8
0
 62
4
 10
-5.06584804E+01
 20
-1.37232173E+02
  0
VERTEX
  8
0
 62
4
 10
-5.08950240E+01
 20
-1.37055572E+02
  0
SEQEND
  8
0
  0
LINE
  8
0
  6
CENTER
 62
6
 10
-5.29999820E+01
 20
-1.33558224E+02
 11
-5.29999820E+01
 21
-1.44776257E+02
  0
LINE
  8
0
  6
CENTER
 62
6
 10
-5.86089987E+01
 20
-1.39167241E+02
 11
-4.73909652E+01
 21
-1.39167241E+02
  0
LINE
  8
0
 62
4
 10
-5.94999820E+01
 20
-1.29536454E+02
 11
-4.34999820E+01
 21
-1.29536454E+02
  0
ARC
  8
0
 62
4
 10
-4.34999786E+01
 20
-1.55304799E+02
 40
1.49999664E+00
 50
2.69999872E+02
 51
1.28225561E-04
  0
ARC
  8
0
 62
4
 10
-4.34999853E+01
 20
-1.31036457E+02
 40
1.50000336E+00
 50
1.28225275E-04
 51
8.99998718E+01
  0
LINE
  8
0
 62
4
 10
-5.94999820E+01
 20
-1.29289431E+02
 11
-5.94999820E+01
 21
-1.48199738E+02
  0
LINE
  8
0
 62
4
 10
-4.19999820E+01
 20
-1.31036454E+02
 11
-4.19999820E+01
 21
-1.55304796E+02
  0
ARC
  8
0
 62
4
 10
-4.34999791E+01
 20
-1.48965525E+02
 40
1.49999664E+00
 50
2.69999872E+02
 51
1.28225561E-04
  0
LINE
  8
0
 62
4
 10
3.18140049E+02
 20
-2.81647013E+02
 11
3.18431894E+02
 21
-2.82262839E+02
  0
LINE
  8
0
 62
4
 10
3.11860049E+02
 20
-2.81647013E+02
 11
3.11568203E+02
 21
-2.82262839E+02
  0
POLYLINE
  8
0
 62
4
 66
1
  0
VERTEX
  8
0
 62
4
 10
3.11568203E+02
 20
-2.82262839E+02
  0
VERTEX
  8
0
 62
4
 10
3.11520913E+02
 20
-2.82392052E+02
  0
VERTEX
  8
0
 62
4
 10
3.11500808E+02
 20
-2.82522525E+02
  0
VERTEX
  8
0
 62
4
 10
3.11508044E+02
 20
-2.82653239E+02
  0
VERTEX
  8
0
 62
4
 10
3.11542564E+02
 20
-2.82783173E+02
  0
VERTEX
  8
0
 62
4
 10
3.11604101E+02
 20
-2.82911310E+02
  0
VERTEX
  8
0
 62
4
 10
3.11692171E+02
 20
-2.83036650E+02
  0
VERTEX
  8
0
 62
4
 10
3.11806088E+02
 20
-2.83158214E+02
  0
VERTEX
  8
0
 62
4
 10
3.11944962E+02
 20
-2.83275051E+02
  0
VERTEX
  8
0
 62
4
 10
3.12107706E+02
 20
-2.83386249E+02
  0
VERTEX
  8
0
 62
4
 10
3.12293050E+02
 20
-2.83490939E+02
  0
VERTEX
  8
0
 62
4
 10
3.12499545E+02
 20
-2.83588303E+02
  0
VERTEX
  8
0
 62
4
 10
3.12725578E+02
 20
-2.83677579E+02
  0
VERTEX
  8
0
 62
4
 10
3.12969383E+02
 20
-2.83758072E+02
  0
VERTEX
  8
0
 62
4
 10
3.13229054E+02
 20
-2.83829151E+02
  0
VERTEX
  8
0
 62
4
 10
3.13502564E+02
 20
-2.83890261E+02
  0
VERTEX
  8
0
 62
4
 10
3.13787774E+02
 20
-2.83940925E+02
  0
VERTEX
  8
0
 62
4
 10
3.14082456E+02
 20
-2.83980747E+02
  0
VERTEX
  8
0
 62
4
 10
3.14384308E+02
 20
-2.84009415E+02
  0
VERTEX
  8
0
 62
4
 10
3.14690971E+02
 20
-2.84026706E+02
  0
VERTEX
  8
0
 62
4
 10
3.15000049E+02
 20
-2.84032485E+02
  0
VERTEX
  8
0
 62
4
 10
3.15309127E+02
 20
-2.84026706E+02
  0
VERTEX
  8
0
 62
4
 10
3.15615790E+02
 20
-2.84009415E+02
  0
VERTEX
  8
0
 62
4
 10
3.15917642E+02
 20
-2.83980747E+02
  0
VERTEX
  8
0
 62
4
 10
3.16212324E+02
 20
-2.83940925E+02
  0
VERTEX
  8
0
 62
4
 10
3.16497534E+02
 20
-2.83890261E+02
  0
VERTEX
  8
0
 62
4
 10
3.16771044E+02
 20
-2.83829151E+02
  0
VERTEX
  8
0
 62
4
 10
3.17030715E+02
 20
-2.83758072E+02
  0
VERTEX
  8
0
 62
4
 10
3.17274520E+02
 20
-2.83677579E+02
  0
VERTEX
  8
0
 62
4
 10
3.17500553E+02
 20
-2.83588303E+02
  0
VERTEX
  8
0
 62
4
 10
3.17707048E+02
 20
-2.83490939E+02
  0
VERTEX
  8
0
 62
4
 10
3.17892392E+02
 20
-2.83386249E+02
  0
VERTEX
  8
0
 62
4
 10
3.18055136E+02
 20
-2.83275051E+02
  0
VERTEX
  8
0
 62
4
 10
3.18194010E+02
 20
-2.83158214E+02
  0
VERTEX
  8
0
 62
4
 10
3.18307927E+02
 20
-2.83036650E+02
  0
VERTEX
  8
0
 62
4
 10
3.18395997E+02
 20
-2.82911310E+02
  0
VERTEX
  8
0
 62
4
 10
3.18457534E+02
 20
-2.82783173E+02
  0
VERTEX
  8
0
 62
4
 10
3.18492054E+02
 20
-2.82653239E+02
  0
VERTEX
  8
0
 62
4
 10
3.18499290E+02
 20
-2.82522525E+02
  0
VERTEX
  8
0
 62
4
 10
3.18479185E+02
 20
-2.82392052E+02
  0
VERTEX
  8
0
 62
4
 10
3.18431895E+02
 20
-2.82262839E+02
  0
SEQEND
  8
0
  0
POLYLINE
  8
0
 62
4
 66
1
  0
VERTEX
  8
0
 62
4
 10
3.18140049E+02
 20
-2.81647013E+02
  0
VERTEX
  8
0
 62
4
 10
3.18128100E+02
 20
-2.81531355E+02
  0
VERTEX
  8
0
 62
4
 10
3.18092345E+02
 20
-2.81416578E+02
  0
VERTEX
  8
0
 62
4
 10
3.18033056E+02
 20
-2.81303555E+02
  0
VERTEX
  8
0
 62
4
 10
3.17950684E+02
 20
-2.81193145E+02
  0
VERTEX
  8
0
 62
4
 10
3.17845855E+02
 20
-2.81086190E+02
  0
VERTEX
  8
0
 62
4
 10
3.17719369E+02
 20
-2.80983502E+02
  0
VERTEX
  8
0
 62
4
 10
3.17572186E+02
 20
-2.80885865E+02
  0
VERTEX
  8
0
 62
4
 10
3.17405429E+02
 20
-2.80794020E+02
  0
VERTEX
  8
0
 62
4
 10
3.17220364E+02
 20
-2.80708667E+02
  0
VERTEX
  8
0
 62
4
 10
3.17018402E+02
 20
-2.80630456E+02
  0
VERTEX
  8
0
 62
4
 10
3.16801079E+02
 20
-2.80559981E+02
  0
VERTEX
  8
0
 62
4
 10
3.16570049E+02
 20
-2.80497779E+02
  0
VERTEX
  8
0
 62
4
 10
3.16327070E+02
 20
-2.80444323E+02
  0
VERTEX
  8
0
 62
4
 10
3.16073992E+02
 20
-2.80400021E+02
  0
VERTEX
  8
0
 62
4
 10
3.15812741E+02
 20
-2.80365209E+02
  0
VERTEX
  8
0
 62
4
 10
3.15545304E+02
 20
-2.80340152E+02
  0
VERTEX
  8
0
 62
4
 10
3.15273718E+02
 20
-2.80325041E+02
  0
VERTEX
  8
0
 62
4
 10
3.15000049E+02
 20
-2.80319992E+02
  0
VERTEX
  8
0
 62
4
 10
3.14726380E+02
 20
-2.80325041E+02
  0
VERTEX
  8
0
 62
4
 10
3.14454794E+02
 20
-2.80340152E+02
  0
VERTEX
  8
0
 62
4
 10
3.14187357E+02
 20
-2.80365209E+02
  0
VERTEX
  8
0
 62
4
 10
3.13926106E+02
 20
-2.80400021E+02
  0
VERTEX
  8
0
 62
4
 10
3.13673028E+02
 20
-2.80444323E+02
  0
VERTEX
  8
0
 62
4
 10
3.13430049E+02
 20
-2.80497779E+02
  0
VERTEX
  8
0
 62
4
 10
3.13199019E+02
 20
-2.80559981E+02
  0
VERTEX
  8
0
 62
4
 10
3.12981696E+02
 20
-2.80630456E+02
  0
VERTEX
  8
0
 62
4
 10
3.12779734E+02
 20
-2.80708667E+02
  0
VERTEX
  8
0
 62
4
 10
3.12594669E+02
 20
-2.80794020E+02
  0
VERTEX
  8
0
 62
4
 10
3.12427912E+02
 20
-2.80885865E+02
  0
VERTEX
  8
0
 62
4
 10
3.12280729E+02
 20
-2.80983502E+02
  0
VERTEX
  8
0
 62
4
 10
3.12154243E+02
 20
-2.81086190E+02
  0
VERTEX
  8
0
 62
4
 10
3.12049414E+02
 20
-2.81193145E+02
  0
VERTEX
  8
0
 62
4
 10
3.11967042E+02
 20
-2.81303555E+02
  0
VERTEX
  8
0
 62
4
 10
3.11907753E+02
 20
-2.81416578E+02
  0
VERTEX
  8
0
 62
4
 10
3.11871998E+02
 20
-2.81531355E+02
  0
VERTEX
  8
0
 62
4
 10
3.11860049E+02
 20
-2.81647013E+02
  0
VERTEX
  8
0
 62
4
 10
3.11871998E+02
 20
-2.81762671E+02
  0
VERTEX
  8
0
 62
4
 10
3.11907753E+02
 20
-2.81877448E+02
  0
VERTEX
  8
0
 62
4
 10
3.11967042E+02
 20
-2.81990471E+02
  0
VERTEX
  8
0
 62
4
 10
3.12049414E+02
 20
-2.82100881E+02
  0
VERTEX
  8
0
 62
4
 10
3.12154243E+02
 20
-2.82207836E+02
  0
VERTEX
  8
0
 62
4
 10
3.12280729E+02
 20
-2.82310524E+02
  0
VERTEX
  8
0
 62
4
 10
3.12427912E+02
 20
-2.82408161E+02
  0
VERTEX
  8
0
 62
4
 10
3.12594669E+02
 20
-2.82500006E+02
  0
VERTEX
  8
0
 62
4
 10
3.12779734E+02
 20
-2.82585359E+02
  0
VERTEX
  8
0
 62
4
 10
3.12981696E+02
 20
-2.82663570E+02
  0
VERTEX
  8
0
 62
4
 10
3.13199019E+02
 20
-2.82734045E+02
  0
VERTEX
  8
0
 62
4
 10
3.13430049E+02
 20
-2.82796247E+02
  0
VERTEX
  8
0
 62
4
 10
3.13673028E+02
 20
-2.82849703E+02
  0
VERTEX
  8
0
 62
4
 10
3.13926106E+02
 20
-2.82894005E+02
  0
VERTEX
  8
0
 62
4
 10
3.14187357E+02
 20
-2.82928817E+02
  0
VERTEX
  8
0
 62
4
 10
3.14454794E+02
 20
-2.82953874E+02
  0
VERTEX
  8
0
 62
4
 10
3.14726380E+02
 20
-2.82968985E+02
  0
VERTEX
  8
0
 62
4
 10
3.15000049E+02
 20
-2.82974034E+02
  0
VERTEX
  8
0
 62
4
 10
3.15273718E+02
 20
-2.82968985E+02
  0
VERTEX
  8
0
 62
4
 10
3.15545304E+02
 20
-2.82953874E+02
  0
VERTEX
  8
0
 62
4
 10
3.15812741E+02
 20
-2.82928817E+02
  0
VERTEX
  8
0
 62
4
 10
3.16073992E+02
 20
-2.82894005E+02
  0
VERTEX
  8
0
 62
4
 10
3.16327070E+02
 20
-2.82849703E+02
  0
VERTEX
  8
0
 62
4
 10
3.16570049E+02
 20
-2.82796247E+02
  0
VERTEX
  8
0
 62
4
 10
3.16801079E+02
 20
-2.82734045E+02
  0
VERTEX
  8
0
 62
4
 10
3.17018402E+02
 20
-2.82663570E+02
  0
VERTEX
  8
0
 62
4
 10
3.17220364E+02
 20
-2.82585359E+02
  0
VERTEX
  8
0
 62
4
 10
3.17405429E+02
 20
-2.82500006E+02
  0
VERTEX
  8
0
 62
4
 10
3.17572186E+02
 20
-2.82408161E+02
  0
VERTEX
  8
0
 62
4
 10
3.17719369E+02
 20
-2.82310524E+02
  0
VERTEX
  8
0
 62
4
 10
3.17845855E+02
 20
-2.82207836E+02
  0
VERTEX
  8
0
 62
4
 10
3.17950684E+02
 20
-2.82100881E+02
  0
VERTEX
  8
0
 62
4
 10
3.18033056E+02
 20
-2.81990471E+02
  0
VERTEX
  8
0
 62
4
 10
3.18092345E+02
 20
-2.81877448E+02
  0
VERTEX
  8
0
 62
4
 10
3.18128100E+02
 20
-2.81762671E+02
  0
VERTEX
  8
0
 62
4
 10
3.18140049E+02
 20
-2.81647013E+02
  0
SEQEND
  8
0
  0
LINE
  8
0
  6
CENTER
 62
6
 10
3.15000049E+02
 20
-2.79804222E+02
 11
3.15000049E+02
 21
-2.81647013E+02
  0
LINE
  8
0
 62
4
 10
3.58000049E+02
 20
-2.68514613E+02
 11
3.53000049E+02
 21
-2.68514613E+02
  0
LINE
  8
0
 62
4
 10
3.58000049E+02
 20
-2.67862978E+02
 11
3.53000049E+02
 21
-2.67862978E+02
  0
LINE
  8
0
 62
4
 10
3.58000049E+02
 20
-2.61056606E+02
 11
3.53000049E+02
 21
-2.61056606E+02
  0
LINE
  8
0
 62
4
 10
3.41500040E+02
 20
-2.85148119E+02
 11
3.41500040E+02
 21
-2.79513089E+02
  0
LINE
  8
0
 62
4
 10
3.05500049E+02
 20
-2.85148119E+02
 11
3.05500049E+02
 21
-2.79513089E+02
  0
POLYLINE
  8
0
 62
4
 66
1
  0
VERTEX
  8
0
 62
4
 10
3.36732771E+02
 20
-3.15139051E+02
  0
VERTEX
  8
0
 62
4
 10
3.36814772E+02
 20
-3.14995733E+02
  0
VERTEX
  8
0
 62
4
 10
3.36882377E+02
 20
-3.14846371E+02
  0
VERTEX
  8
0
 62
4
 10
3.36935051E+02
 20
-3.14692150E+02
  0
VERTEX
  8
0
 62
4
 10
3.36972375E+02
 20
-3.14534292E+02
  0
VERTEX
  8
0
 62
4
 10
3.36994053E+02
 20
-3.14374051E+02
  0
VERTEX
  8
0
 62
4
 10
3.36999914E+02
 20
-3.14212698E+02
  0
VERTEX
  8
0
 62
4
 10
3.36989910E+02
 20
-3.14051512E+02
  0
VERTEX
  8
0
 62
4
 10
3.36964122E+02
 20
-3.13891772E+02
  0
VERTEX
  8
0
 62
4
 10
3.36922753E+02
 20
-3.13734745E+02
  0
VERTEX
  8
0
 62
4
 10
3.36866133E+02
 20
-3.13581677E+02
  0
VERTEX
  8
0
 62
4
 10
3.36794709E+02
 20
-3.13433781E+02
  0
VERTEX
  8
0
 62
4
 10
3.36709050E+02
 20
-3.13292232E+02
  0
VERTEX
  8
0
 62
4
 10
3.36609833E+02
 20
-3.13158152E+02
  0
VERTEX
  8
0
 62
4
 10
3.36497847E+02
 20
-3.13032605E+02
  0
VERTEX
  8
0
 62
4
 10
3.36373979E+02
 20
-3.12916587E+02
  0
VERTEX
  8
0
 62
4
 10
3.36239212E+02
 20
-3.12811017E+02
  0
VERTEX
  8
0
 62
4
 10
3.36094616E+02
 20
-3.12716733E+02
  0
VERTEX
  8
0
 62
4
 10
3.35941337E+02
 20
-3.12634484E+02
  0
VERTEX
  8
0
 62
4
 10
3.35780591E+02
 20
-3.12564922E+02
  0
VERTEX
  8
0
 62
4
 10
3.35613653E+02
 20
-3.12508598E+02
  0
VERTEX
  8
0
 62
4
 10
3.35441848E+02
 20
-3.12465959E+02
  0
VERTEX
  8
0
 62
4
 10
3.35266538E+02
 20
-3.12437344E+02
  0
VERTEX
  8
0
 62
4
 10
3.35089114E+02
 20
-3.12422980E+02
  0
VERTEX
  8
0
 62
4
 10
3.34910984E+02
 20
-3.12422980E+02
  0
VERTEX
  8
0
 62
4
 10
3.34733560E+02
 20
-3.12437344E+02
  0
VERTEX
  8
0
 62
4
 10
3.34558250E+02
 20
-3.12465959E+02
  0
VERTEX
  8
0
 62
4
 10
3.34386445E+02
 20
-3.12508598E+02
  0
VERTEX
  8
0
 62
4
 10
3.34219507E+02
 20
-3.12564922E+02
  0
VERTEX
  8
0
 62
4
 10
3.34058761E+02
 20
-3.12634484E+02
  0
VERTEX
  8
0
 62
4
 10
3.33905482E+02
 20
-3.12716733E+02
  0
VERTEX
  8
0
 62
4
 10
3.33760886E+02
 20
-3.12811017E+02
  0
VERTEX
  8
0
 62
4
 10
3.33626119E+02
 20
-3.12916587E+02
  0
VERTEX
  8
0
 62
4
 10
3.33502251E+02
 20
-3.13032605E+02
  0
VERTEX
  8
0
 62
4
 10
3.33390265E+02
 20
-3.13158152E+02
  0
VERTEX
  8
0
 62
4
 10
3.33291048E+02
 20
-3.13292232E+02
  0
VERTEX
  8
0
 62
4
 10
3.33205389E+02
 20
-3.13433781E+02
  0
VERTEX
  8
0
 62
4
 10
3.33133965E+02
 20
-3.13581677E+02
  0
VERTEX
  8
0
 62
4
 10
3.33077345E+02
 20
-3.13734745E+02
  0
VERTEX
  8
0
 62
4
 10
3.33035976E+02
 20
-3.13891772E+02
  0
VERTEX
  8
0
 62
4
 10
3.33010188E+02
 20
-3.14051512E+02
  0
VERTEX
  8
0
 62
4
 10
3.33000184E+02
 20
-3.14212698E+02
  0
VERTEX
  8
0
 62
4
 10
3.33006045E+02
 20
-3.14374052E+02
  0
VERTEX
  8
0
 62
4
 10
3.33027723E+02
 20
-3.14534292E+02
  0
VERTEX
  8
0
 62
4
 10
3.33065047E+02
 20
-3.14692150E+02
  0
VERTEX
  8
0
 62
4
 10
3.33117721E+02
 20
-3.14846371E+02
  0
VERTEX
  8
0
 62
4
 10
3.33185326E+02
 20
-3.14995733E+02
  0
VERTEX
  8
0
 62
4
 10
3.33267327E+02
 20
-3.15139051E+02
  0
SEQEND
  8
0
  0
POLYLINE
  8
0
 62
6
 66
1
  0
VERTEX
  8
0
 62
6
 10
3.36500049E+02
 20
-3.15063027E+02
  0
VERTEX
  8
0
 62
6
 10
3.36494341E+02
 20
-3.14944542E+02
  0
VERTEX
  8
0
 62
6
 10
3.36477261E+02
 20
-3.14826959E+02
  0
VERTEX
  8
0
 62
6
 10
3.36448938E+02
 20
-3.14711172E+02
  0
VERTEX
  8
0
 62
6
 10
3.36409588E+02
 20
-3.14598064E+02
  0
VERTEX
  8
0
 62
6
 10
3.36359511E+02
 20
-3.14488494E+02
  0
VERTEX
  8
0
 62
6
 10
3.36299087E+02
 20
-3.14383296E+02
  0
VERTEX
  8
0
 62
6
 10
3.36228777E+02
 20
-3.14283272E+02
  0
VERTEX
  8
0
 62
6
 10
3.36149116E+02
 20
-3.14189182E+02
  0
VERTEX
  8
0
 62
6
 10
3.36060709E+02
 20
-3.14101742E+02
  0
VERTEX
  8
0
 62
6
 10
3.35964230E+02
 20
-3.14021619E+02
  0
VERTEX
  8
0
 62
6
 10
3.35860414E+02
 20
-3.13949421E+02
  0
VERTEX
  8
0
 62
6
 10
3.35750049E+02
 20
-3.13885699E+02
  0
VERTEX
  8
0
 62
6
 10
3.35633976E+02
 20
-3.13830936E+02
  0
VERTEX
  8
0
 62
6
 10
3.35513079E+02
 20
-3.13785551E+02
  0
VERTEX
  8
0
 62
6
 10
3.35388278E+02
 20
-3.13749888E+02
  0
VERTEX
  8
0
 62
6
 10
3.35260521E+02
 20
-3.13724219E+02
  0
VERTEX
  8
0
 62
6
 10
3.35130783E+02
 20
-3.13708738E+02
  0
VERTEX
  8
0
 62
6
 10
3.35000049E+02
 20
-3.13703565E+02
  0
VERTEX
  8
0
 62
6
 10
3.34869315E+02
 20
-3.13708738E+02
  0
VERTEX
  8
0
 62
6
 10
3.34739577E+02
 20
-3.13724219E+02
  0
VERTEX
  8
0
 62
6
 10
3.34611820E+02
 20
-3.13749888E+02
  0
VERTEX
  8
0
 62
6
 10
3.34487019E+02
 20
-3.13785551E+02
  0
VERTEX
  8
0
 62
6
 10
3.34366122E+02
 20
-3.13830936E+02
  0
VERTEX
  8
0
 62
6
 10
3.34250049E+02
 20
-3.13885699E+02
  0
VERTEX
  8
0
 62
6
 10
3.34139684E+02
 20
-3.13949421E+02
  0
VERTEX
  8
0
 62
6
 10
3.34035868E+02
 20
-3.14021619E+02
  0
VERTEX
  8
0
 62
6
 10
3.33939389E+02
 20
-3.14101742E+02
  0
VERTEX
  8
0
 62
6
 10
3.33850982E+02
 20
-3.14189182E+02
  0
VERTEX
  8
0
 62
6
 10
3.33771321E+02
 20
-3.14283272E+02
  0
VERTEX
  8
0
 62
6
 10
3.33701011E+02
 20
-3.14383296E+02
  0
VERTEX
  8
0
 62
6
 10
3.33640587E+02
 20
-3.14488494E+02
  0
VERTEX
  8
0
 62
6
 10
3.33590510E+02
 20
-3.14598064E+02
  0
VERTEX
  8
0
 62
6
 10
3.33551160E+02
 20
-3.14711172E+02
  0
VERTEX
  8
0
 62
6
 10
3.33522837E+02
 20
-3.14826959E+02
  0
VERTEX
  8
0
 62
6
 10
3.33505757E+02
 20
-3.14944542E+02
  0
VERTEX
  8
0
 62
6
 10
3.33500049E+02
 20
-3.15063027E+02
  0
VERTEX
  8
0
 62
6
 10
3.33505757E+02
 20
-3.15181512E+02
  0
VERTEX
  8
0
 62
6
 10
3.33522837E+02
 20
-3.15299095E+02
  0
VERTEX
  8
0
 62
6
 10
3.33551160E+02
 20
-3.15414882E+02
  0
VERTEX
  8
0
 62
6
 10
3.33590510E+02
 20
-3.15527990E+02
  0
VERTEX
  8
0
 62
6
 10
3.33640587E+02
 20
-3.15637560E+02
  0
VERTEX
  8
0
 62
6
 10
3.33701011E+02
 20
-3.15742758E+02
  0
VERTEX
  8
0
 62
6
 10
3.33771321E+02
 20
-3.15842782E+02
  0
VERTEX
  8
0
 62
6
 10
3.33850982E+02
 20
-3.15936872E+02
  0
VERTEX
  8
0
 62
6
 10
3.33939389E+02
 20
-3.16024312E+02
  0
VERTEX
  8
0
 62
6
 10
3.34035868E+02
 20
-3.16104435E+02
  0
VERTEX
  8
0
 62
6
 10
3.34139684E+02
 20
-3.16176633E+02
  0
VERTEX
  8
0
 62
6
 10
3.34250049E+02
 20
-3.16240355E+02
  0
VERTEX
  8
0
 62
6
 10
3.34366122E+02
 20
-3.16295118E+02
  0
VERTEX
  8
0
 62
6
 10
3.34487019E+02
 20
-3.16340503E+02
  0
VERTEX
  8
0
 62
6
 10
3.34611820E+02
 20
-3.16376166E+02
  0
VERTEX
  8
0
 62
6
 10
3.34739577E+02
 20
-3.16401835E+02
  0
VERTEX
  8
0
 62
6
 10
3.34869315E+02
 20
-3.16417316E+02
  0
VERTEX
  8
0
 62
6
 10
3.35000049E+02
 20
-3.16422489E+02
  0
VERTEX
  8
0
 62
6
 10
3.35130783E+02
 20
-3.16417316E+02
  0
VERTEX
  8
0
 62
6
 10
3.35260521E+02
 20
-3.16401835E+02
  0
VERTEX
  8
0
 62
6
 10
3.35388278E+02
 20
-3.16376166E+02
  0
VERTEX
  8
0
 62
6
 10
3.35513079E+02
 20
-3.16340503E+02
  0
VERTEX
  8
0
 62
6
 10
3.35633976E+02
 20
-3.16295118E+02
  0
VERTEX
  8
0
 62
6
 10
3.35750049E+02
 20
-3.16240355E+02
  0
VERTEX
  8
0
 62
6
 10
3.35860414E+02
 20
-3.16176633E+02
  0
VERTEX
  8
0
 62
6
 10
3.35964230E+02
 20
-3.16104435E+02
  0
VERTEX
  8
0
 62
6
 10
3.36060709E+02
 20
-3.16024312E+02
  0
VERTEX
  8
0
 62
6
 10
3.36149116E+02
 20
-3.15936872E+02
  0
VERTEX
  8
0
 62
6
 10
3.36228777E+02
 20
-3.15842782E+02
  0
VERTEX
  8
0
 62
6
 10
3.36299087E+02
 20
-3.15742758E+02
  0
VERTEX
  8
0
 62
6
 10
3.36359511E+02
 20
-3.15637560E+02
  0
VERTEX
  8
0
 62
6
 10
3.36409588E+02
 20
-3.15527990E+02
  0
VERTEX
  8
0
 62
6
 10
3.36448938E+02
 20
-3.15414882E+02
  0
VERTEX
  8
0
 62
6
 10
3.36477261E+02
 20
-3.15299095E+02
  0
VERTEX
  8
0
 62
6
 10
3.36494341E+02
 20
-3.15181512E+02
  0
VERTEX
  8
0
 62
6
 10
3.36500049E+02
 20
-3.15063027E+02
  0
SEQEND
  8
0
  0
POLYLINE
  8
0
 62
4
 66
1
  0
VERTEX
  8
0
 62
4
 10
3.36735049E+02
 20
-3.15058495E+02
  0
VERTEX
  8
0
 62
4
 10
3.36728447E+02
 20
-3.14921447E+02
  0
VERTEX
  8
0
 62
4
 10
3.36708690E+02
 20
-3.14785443E+02
  0
VERTEX
  8
0
 62
4
 10
3.36675930E+02
 20
-3.14651517E+02
  0
VERTEX
  8
0
 62
4
 10
3.36630416E+02
 20
-3.14520687E+02
  0
VERTEX
  8
0
 62
4
 10
3.36572493E+02
 20
-3.14393951E+02
  0
VERTEX
  8
0
 62
4
 10
3.36502603E+02
 20
-3.14272273E+02
  0
VERTEX
  8
0
 62
4
 10
3.36421278E+02
 20
-3.14156578E+02
  0
VERTEX
  8
0
 62
4
 10
3.36329136E+02
 20
-3.14047747E+02
  0
VERTEX
  8
0
 62
4
 10
3.36226879E+02
 20
-3.13946609E+02
  0
VERTEX
  8
0
 62
4
 10
3.36115286E+02
 20
-3.13853933E+02
  0
VERTEX
  8
0
 62
4
 10
3.35995204E+02
 20
-3.13770424E+02
  0
VERTEX
  8
0
 62
4
 10
3.35867549E+02
 20
-3.13696719E+02
  0
VERTEX
  8
0
 62
4
 10
3.35733292E+02
 20
-3.13633377E+02
  0
VERTEX
  8
0
 62
4
 10
3.35593454E+02
 20
-3.13580881E+02
  0
VERTEX
  8
0
 62
4
 10
3.35449100E+02
 20
-3.13539631E+02
  0
VERTEX
  8
0
 62
4
 10
3.35301329E+02
 20
-3.13509940E+02
  0
VERTEX
  8
0
 62
4
 10
3.35151264E+02
 20
-3.13492035E+02
  0
VERTEX
  8
0
 62
4
 10
3.35000049E+02
 20
-3.13486051E+02
  0
VERTEX
  8
0
 62
4
 10
3.34848834E+02
 20
-3.13492035E+02
  0
VERTEX
  8
0
 62
4
 10
3.34698769E+02
 20
-3.13509940E+02
  0
VERTEX
  8
0
 62
4
 10
3.34550998E+02
 20
-3.13539631E+02
  0
VERTEX
  8
0
 62
4
 10
3.34406644E+02
 20
-3.13580881E+02
  0
VERTEX
  8
0
 62
4
 10
3.34266806E+02
 20
-3.13633377E+02
  0
VERTEX
  8
0
 62
4
 10
3.34132549E+02
 20
-3.13696719E+02
  0
VERTEX
  8
0
 62
4
 10
3.34004894E+02
 20
-3.13770424E+02
  0
VERTEX
  8
0
 62
4
 10
3.33884812E+02
 20
-3.13853933E+02
  0
VERTEX
  8
0
 62
4
 10
3.33773219E+02
 20
-3.13946609E+02
  0
VERTEX
  8
0
 62
4
 10
3.33670962E+02
 20
-3.14047747E+02
  0
VERTEX
  8
0
 62
4
 10
3.33578820E+02
 20
-3.14156578E+02
  0
VERTEX
  8
0
 62
4
 10
3.33497495E+02
 20
-3.14272273E+02
  0
VERTEX
  8
0
 62
4
 10
3.33427605E+02
 20
-3.14393951E+02
  0
VERTEX
  8
0
 62
4
 10
3.33369682E+02
 20
-3.14520687E+02
  0
VERTEX
  8
0
 62
4
 10
3.33324168E+02
 20
-3.14651517E+02
  0
VERTEX
  8
0
 62
4
 10
3.33291408E+02
 20
-3.14785443E+02
  0
VERTEX
  8
0
 62
4
 10
3.33271651E+02
 20
-3.14921447E+02
  0
VERTEX
  8
0
 62
4
 10
3.33265049E+02
 20
-3.15058495E+02
  0
VERTEX
  8
0
 62
4
 10
3.33271651E+02
 20
-3.15195543E+02
  0
VERTEX
  8
0
 62
4
 10
3.33291408E+02
 20
-3.15331547E+02
  0
VERTEX
  8
0
 62
4
 10
3.33324168E+02
 20
-3.15465473E+02
  0
VERTEX
  8
0
 62
4
 10
3.33369682E+02
 20
-3.15596303E+02
  0
VERTEX
  8
0
 62
4
 10
3.33427605E+02
 20
-3.15723039E+02
  0
VERTEX
  8
0
 62
4
 10
3.33497495E+02
 20
-3.15844717E+02
  0
VERTEX
  8
0
 62
4
 10
3.33578820E+02
 20
-3.15960412E+02
  0
VERTEX
  8
0
 62
4
 10
3.33670962E+02
 20
-3.16069243E+02
  0
VERTEX
  8
0
 62
4
 10
3.33773219E+02
 20
-3.16170381E+02
  0
VERTEX
  8
0
 62
4
 10
3.33884812E+02
 20
-3.16263057E+02
  0
VERTEX
  8
0
 62
4
 10
3.34004894E+02
 20
-3.16346566E+02
  0
VERTEX
  8
0
 62
4
 10
3.34132549E+02
 20
-3.16420271E+02
  0
VERTEX
  8
0
 62
4
 10
3.34266806E+02
 20
-3.16483613E+02
  0
VERTEX
  8
0
 62
4
 10
3.34406644E+02
 20
-3.16536109E+02
  0
VERTEX
  8
0
 62
4
 10
3.34550998E+02
 20
-3.16577359E+02
  0
VERTEX
  8
0
 62
4
 10
3.34698769E+02
 20
-3.16607050E+02
  0
VERTEX
  8
0
 62
4
 10
3.34848834E+02
 20
-3.16624955E+02
  0
VERTEX
  8
0
 62
4
 10
3.35000049E+02
 20
-3.16630939E+02
  0
VERTEX
  8
0
 62
4
 10
3.35151264E+02
 20
-3.16624955E+02
  0
VERTEX
  8
0
 62
4
 10
3.35301329E+02
 20
-3.16607050E+02
  0
VERTEX
  8
0
 62
4
 10
3.35449100E+02
 20
-3.16577359E+02
  0
VERTEX
  8
0
 62
4
 10
3.35593454E+02
 20
-3.16536109E+02
  0
VERTEX
  8
0
 62
4
 10
3.35733292E+02
 20
-3.16483613E+02
  0
VERTEX
  8
0
 62
4
 10
3.35867549E+02
 20
-3.16420271E+02
  0
VERTEX
  8
0
 62
4
 10
3.35995204E+02
 20
-3.16346566E+02
  0
VERTEX
  8
0
 62
4
 10
3.36115286E+02
 20
-3.16263057E+02
  0
VERTEX
  8
0
 62
4
 10
3.36226879E+02
 20
-3.16170381E+02
  0
VERTEX
  8
0
 62
4
 10
3.36329136E+02
 20
-3.16069243E+02
  0
VERTEX
  8
0
 62
4
 10
3.36421278E+02
 20
-3.15960412E+02
  0
VERTEX
  8
0
 62
4
 10
3.36502603E+02
 20
-3.15844717E+02
  0
VERTEX
  8
0
 62
4
 10
3.36572493E+02
 20
-3.15723039E+02
  0
VERTEX
  8
0
 62
4
 10
3.36630416E+02
 20
-3.15596303E+02
  0
VERTEX
  8
0
 62
4
 10
3.36675930E+02
 20
-3.15465473E+02
  0
VERTEX
  8
0
 62
4
 10
3.36708690E+02
 20
-3.15331547E+02
  0
VERTEX
  8
0
 62
4
 10
3.36728447E+02
 20
-3.15195543E+02
  0
VERTEX
  8
0
 62
4
 10
3.36735049E+02
 20
-3.15058495E+02
  0
SEQEND
  8
0
  0
POLYLINE
  8
0
 62
4
 66
1
  0
VERTEX
  8
0
 62
4
 10
3.28732771E+02
 20
-3.15139051E+02
  0
VERTEX
  8
0
 62
4
 10
3.28814772E+02
 20
-3.14995733E+02
  0
VERTEX
  8
0
 62
4
 10
3.28882377E+02
 20
-3.14846371E+02
  0
VERTEX
  8
0
 62
4
 10
3.28935051E+02
 20
-3.14692150E+02
  0
VERTEX
  8
0
 62
4
 10
3.28972375E+02
 20
-3.14534292E+02
  0
VERTEX
  8
0
 62
4
 10
3.28994053E+02
 20
-3.14374051E+02
  0
VERTEX
  8
0
 62
4
 10
3.28999914E+02
 20
-3.14212698E+02
  0
VERTEX
  8
0
 62
4
 10
3.28989910E+02
 20
-3.14051512E+02
  0
VERTEX
  8
0
 62
4
 10
3.28964122E+02
 20
-3.13891772E+02
  0
VERTEX
  8
0
 62
4
 10
3.28922753E+02
 20
-3.13734745E+02
  0
VERTEX
  8
0
 62
4
 10
3.28866133E+02
 20
-3.13581677E+02
  0
VERTEX
  8
0
 62
4
 10
3.28794709E+02
 20
-3.13433781E+02
  0
VERTEX
  8
0
 62
4
 10
3.28709050E+02
 20
-3.13292232E+02
  0
VERTEX
  8
0
 62
4
 10
3.28609833E+02
 20
-3.13158152E+02
  0
VERTEX
  8
0
 62
4
 10
3.28497847E+02
 20
-3.13032605E+02
  0
VERTEX
  8
0
 62
4
 10
3.28373979E+02
 20
-3.12916587E+02
  0
VERTEX
  8
0
 62
4
 10
3.28239212E+02
 20
-3.12811017E+02
  0
VERTEX
  8
0
 62
4
 10
3.28094616E+02
 20
-3.12716733E+02
  0
VERTEX
  8
0
 62
4
 10
3.27941337E+02
 20
-3.12634484E+02
  0
VERTEX
  8
0
 62
4
 10
3.27780591E+02
 20
-3.12564922E+02
  0
VERTEX
  8
0
 62
4
 10
3.27613653E+02
 20
-3.12508598E+02
  0
VERTEX
  8
0
 62
4
 10
3.27441848E+02
 20
-3.12465959E+02
  0
VERTEX
  8
0
 62
4
 10
3.27266538E+02
 20
-3.12437344E+02
  0
VERTEX
  8
0
 62
4
 10
3.27089114E+02
 20
-3.12422980E+02
  0
VERTEX
  8
0
 62
4
 10
3.26910984E+02
 20
-3.12422980E+02
  0
VERTEX
  8
0
 62
4
 10
3.26733560E+02
 20
-3.12437344E+02
  0
VERTEX
  8
0
 62
4
 10
3.26558250E+02
 20
-3.12465959E+02
  0
VERTEX
  8
0
 62
4
 10
3.26386445E+02
 20
-3.12508598E+02
  0
VERTEX
  8
0
 62
4
 10
3.26219507E+02
 20
-3.12564922E+02
  0
VERTEX
  8
0
 62
4
 10
3.26058761E+02
 20
-3.12634484E+02
  0
VERTEX
  8
0
 62
4
 10
3.25905482E+02
 20
-3.12716733E+02
  0
VERTEX
  8
0
 62
4
 10
3.25760886E+02
 20
-3.12811017E+02
  0
VERTEX
  8
0
 62
4
 10
3.25626119E+02
 20
-3.12916587E+02
  0
VERTEX
  8
0
 62
4
 10
3.25502251E+02
 20
-3.13032605E+02
  0
VERTEX
  8
0
 62
4
 10
3.25390265E+02
 20
-3.13158152E+02
  0
VERTEX
  8
0
 62
4
 10
3.25291048E+02
 20
-3.13292232E+02
  0
VERTEX
  8
0
 62
4
 10
3.25205389E+02
 20
-3.13433781E+02
  0
VERTEX
  8
0
 62
4
 10
3.25133965E+02
 20
-3.13581677E+02
  0
VERTEX
  8
0
 62
4
 10
3.25077345E+02
 20
-3.13734745E+02
  0
VERTEX
  8
0
 62
4
 10
3.25035976E+02
 20
-3.13891772E+02
  0
VERTEX
  8
0
 62
4
 10
3.25010188E+02
 20
-3.14051512E+02
  0
VERTEX
  8
0
 62
4
 10
3.25000184E+02
 20
-3.14212698E+02
  0
VERTEX
  8
0
 62
4
 10
3.25006045E+02
 20
-3.14374052E+02
  0
VERTEX
  8
0
 62
4
 10
3.25027723E+02
 20
-3.14534292E+02
  0
VERTEX
  8
0
 62
4
 10
3.25065047E+02
 20
-3.14692150E+02
  0
VERTEX
  8
0
 62
4
 10
3.25117721E+02
 20
-3.14846371E+02
  0
VERTEX
  8
0
 62
4
 10
3.25185326E+02
 20
-3.14995733E+02
  0
VERTEX
  8
0
 62
4
 10
3.25267327E+02
 20
-3.15139051E+02
  0
SEQEND
  8
0
  0
POLYLINE
  8
0
 62
6
 66
1
  0
VERTEX
  8
0
 62
6
 10
3.28500049E+02
 20
-3.15063027E+02
  0
VERTEX
  8
0
 62
6
 10
3.28494341E+02
 20
-3.14944542E+02
  0
VERTEX
  8
0
 62
6
 10
3.28477261E+02
 20
-3.14826959E+02
  0
VERTEX
  8
0
 62
6
 10
3.28448938E+02
 20
-3.14711172E+02
  0
VERTEX
  8
0
 62
6
 10
3.28409588E+02
 20
-3.14598064E+02
  0
VERTEX
  8
0
 62
6
 10
3.28359511E+02
 20
-3.14488494E+02
  0
VERTEX
  8
0
 62
6
 10
3.28299087E+02
 20
-3.14383296E+02
  0
VERTEX
  8
0
 62
6
 10
3.28228777E+02
 20
-3.14283272E+02
  0
VERTEX
  8
0
 62
6
 10
3.28149116E+02
 20
-3.14189182E+02
  0
VERTEX
  8
0
 62
6
 10
3.28060709E+02
 20
-3.14101742E+02
  0
VERTEX
  8
0
 62
6
 10
3.27964230E+02
 20
-3.14021619E+02
  0
VERTEX
  8
0
 62
6
 10
3.27860414E+02
 20
-3.13949421E+02
  0
VERTEX
  8
0
 62
6
 10
3.27750049E+02
 20
-3.13885699E+02
  0
VERTEX
  8
0
 62
6
 10
3.27633976E+02
 20
-3.13830936E+02
  0
VERTEX
  8
0
 62
6
 10
3.27513079E+02
 20
-3.13785551E+02
  0
VERTEX
  8
0
 62
6
 10
3.27388278E+02
 20
-3.13749888E+02
  0
VERTEX
  8
0
 62
6
 10
3.27260521E+02
 20
-3.13724219E+02
  0
VERTEX
  8
0
 62
6
 10
3.27130783E+02
 20
-3.13708738E+02
  0
VERTEX
  8
0
 62
6
 10
3.27000049E+02
 20
-3.13703565E+02
  0
VERTEX
  8
0
 62
6
 10
3.26869315E+02
 20
-3.13708738E+02
  0
VERTEX
  8
0
 62
6
 10
3.26739577E+02
 20
-3.13724219E+02
  0
VERTEX
  8
0
 62
6
 10
3.26611820E+02
 20
-3.13749888E+02
  0
VERTEX
  8
0
 62
6
 10
3.26487019E+02
 20
-3.13785551E+02
  0
VERTEX
  8
0
 62
6
 10
3.26366122E+02
 20
-3.13830936E+02
  0
VERTEX
  8
0
 62
6
 10
3.26250049E+02
 20
-3.13885699E+02
  0
VERTEX
  8
0
 62
6
 10
3.26139684E+02
 20
-3.13949421E+02
  0
VERTEX
  8
0
 62
6
 10
3.26035868E+02
 20
-3.14021619E+02
  0
VERTEX
  8
0
 62
6
 10
3.25939389E+02
 20
-3.14101742E+02
  0
VERTEX
  8
0
 62
6
 10
3.25850982E+02
 20
-3.14189182E+02
  0
VERTEX
  8
0
 62
6
 10
3.25771321E+02
 20
-3.14283272E+02
  0
VERTEX
  8
0
 62
6
 10
3.25701011E+02
 20
-3.14383296E+02
  0
VERTEX
  8
0
 62
6
 10
3.25640587E+02
 20
-3.14488494E+02
  0
VERTEX
  8
0
 62
6
 10
3.25590510E+02
 20
-3.14598064E+02
  0
VERTEX
  8
0
 62
6
 10
3.25551160E+02
 20
-3.14711172E+02
  0
VERTEX
  8
0
 62
6
 10
3.25522837E+02
 20
-3.14826959E+02
  0
VERTEX
  8
0
 62
6
 10
3.25505757E+02
 20
-3.14944542E+02
  0
VERTEX
  8
0
 62
6
 10
3.25500049E+02
 20
-3.15063027E+02
  0
VERTEX
  8
0
 62
6
 10
3.25505757E+02
 20
-3.15181512E+02
  0
VERTEX
  8
0
 62
6
 10
3.25522837E+02
 20
-3.15299095E+02
  0
VERTEX
  8
0
 62
6
 10
3.25551160E+02
 20
-3.15414882E+02
  0
VERTEX
  8
0
 62
6
 10
3.25590510E+02
 20
-3.15527990E+02
  0
VERTEX
  8
0
 62
6
 10
3.25640587E+02
 20
-3.15637560E+02
  0
VERTEX
  8
0
 62
6
 10
3.25701011E+02
 20
-3.15742758E+02
  0
VERTEX
  8
0
 62
6
 10
3.25771321E+02
 20
-3.15842782E+02
  0
VERTEX
  8
0
 62
6
 10
3.25850982E+02
 20
-3.15936872E+02
  0
VERTEX
  8
0
 62
6
 10
3.25939389E+02
 20
-3.16024312E+02
  0
VERTEX
  8
0
 62
6
 10
3.26035868E+02
 20
-3.16104435E+02
  0
VERTEX
  8
0
 62
6
 10
3.26139684E+02
 20
-3.16176633E+02
  0
VERTEX
  8
0
 62
6
 10
3.26250049E+02
 20
-3.16240355E+02
  0
VERTEX
  8
0
 62
6
 10
3.26366122E+02
 20
-3.16295118E+02
  0
VERTEX
  8
0
 62
6
 10
3.26487019E+02
 20
-3.16340503E+02
  0
VERTEX
  8
0
 62
6
 10
3.26611820E+02
 20
-3.16376166E+02
  0
VERTEX
  8
0
 62
6
 10
3.26739577E+02
 20
-3.16401835E+02
  0
VERTEX
  8
0
 62
6
 10
3.26869315E+02
 20
-3.16417316E+02
  0
VERTEX
  8
0
 62
6
 10
3.27000049E+02
 20
-3.16422489E+02
  0
VERTEX
  8
0
 62
6
 10
3.27130783E+02
 20
-3.16417316E+02
  0
VERTEX
  8
0
 62
6
 10
3.27260521E+02
 20
-3.16401835E+02
  0
VERTEX
  8
0
 62
6
 10
3.27388278E+02
 20
-3.16376166E+02
  0
VERTEX
  8
0
 62
6
 10
3.27513079E+02
 20
-3.16340503E+02
  0
VERTEX
  8
0
 62
6
 10
3.27633976E+02
 20
-3.16295118E+02
  0
VERTEX
  8
0
 62
6
 10
3.27750049E+02
 20
-3.16240355E+02
  0
VERTEX
  8
0
 62
6
 10
3.27860414E+02
 20
-3.16176633E+02
  0
VERTEX
  8
0
 62
6
 10
3.27964230E+02
 20
-3.16104435E+02
  0
VERTEX
  8
0
 62
6
 10
3.28060709E+02
 20
-3.16024312E+02
  0
VERTEX
  8
0
 62
6
 10
3.28149116E+02
 20
-3.15936872E+02
  0
VERTEX
  8
0
 62
6
 10
3.28228777E+02
 20
-3.15842782E+02
  0
VERTEX
  8
0
 62
6
 10
3.28299087E+02
 20
-3.15742758E+02
  0
VERTEX
  8
0
 62
6
 10
3.28359511E+02
 20
-3.15637560E+02
  0
VERTEX
  8
0
 62
6
 10
3.28409588E+02
 20
-3.15527990E+02
  0
VERTEX
  8
0
 62
6
 10
3.28448938E+02
 20
-3.15414882E+02
  0
VERTEX
  8
0
 62
6
 10
3.28477261E+02
 20
-3.15299095E+02
  0
VERTEX
  8
0
 62
6
 10
3.28494341E+02
 20
-3.15181512E+02
  0
VERTEX
  8
0
 62
6
 10
3.28500049E+02
 20
-3.15063027E+02
  0
SEQEND
  8
0
  0
POLYLINE
  8
0
 62
4
 66
1
  0
VERTEX
  8
0
 62
4
 10
3.28735049E+02
 20
-3.15058495E+02
  0
VERTEX
  8
0
 62
4
 10
3.28728447E+02
 20
-3.14921447E+02
  0
VERTEX
  8
0
 62
4
 10
3.28708690E+02
 20
-3.14785443E+02
  0
VERTEX
  8
0
 62
4
 10
3.28675930E+02
 20
-3.14651517E+02
  0
VERTEX
  8
0
 62
4
 10
3.28630416E+02
 20
-3.14520687E+02
  0
VERTEX
  8
0
 62
4
 10
3.28572493E+02
 20
-3.14393951E+02
  0
VERTEX
  8
0
 62
4
 10
3.28502603E+02
 20
-3.14272273E+02
  0
VERTEX
  8
0
 62
4
 10
3.28421278E+02
 20
-3.14156578E+02
  0
VERTEX
  8
0
 62
4
 10
3.28329136E+02
 20
-3.14047747E+02
  0
VERTEX
  8
0
 62
4
 10
3.28226879E+02
 20
-3.13946609E+02
  0
VERTEX
  8
0
 62
4
 10
3.28115286E+02
 20
-3.13853933E+02
  0
VERTEX
  8
0
 62
4
 10
3.27995204E+02
 20
-3.13770424E+02
  0
VERTEX
  8
0
 62
4
 10
3.27867549E+02
 20
-3.13696719E+02
  0
VERTEX
  8
0
 62
4
 10
3.27733292E+02
 20
-3.13633377E+02
  0
VERTEX
  8
0
 62
4
 10
3.27593454E+02
 20
-3.13580881E+02
  0
VERTEX
  8
0
 62
4
 10
3.27449100E+02
 20
-3.13539631E+02
  0
VERTEX
  8
0
 62
4
 10
3.27301329E+02
 20
-3.13509940E+02
  0
VERTEX
  8
0
 62
4
 10
3.27151264E+02
 20
-3.13492035E+02
  0
VERTEX
  8
0
 62
4
 10
3.27000049E+02
 20
-3.13486051E+02
  0
VERTEX
  8
0
 62
4
 10
3.26848834E+02
 20
-3.13492035E+02
  0
VERTEX
  8
0
 62
4
 10
3.26698769E+02
 20
-3.13509940E+02
  0
VERTEX
  8
0
 62
4
 10
3.26550998E+02
 20
-3.13539631E+02
  0
VERTEX
  8
0
 62
4
 10
3.26406644E+02
 20
-3.13580881E+02
  0
VERTEX
  8
0
 62
4
 10
3.26266806E+02
 20
-3.13633377E+02
  0
VERTEX
  8
0
 62
4
 10
3.26132549E+02
 20
-3.13696719E+02
  0
VERTEX
  8
0
 62
4
 10
3.26004894E+02
 20
-3.13770424E+02
  0
VERTEX
  8
0
 62
4
 10
3.25884812E+02
 20
-3.13853933E+02
  0
VERTEX
  8
0
 62
4
 10
3.25773219E+02
 20
-3.13946609E+02
  0
VERTEX
  8
0
 62
4
 10
3.25670962E+02
 20
-3.14047747E+02
  0
VERTEX
  8
0
 62
4
 10
3.25578820E+02
 20
-3.14156578E+02
  0
VERTEX
  8
0
 62
4
 10
3.25497495E+02
 20
-3.14272273E+02
  0
VERTEX
  8
0
 62
4
 10
3.25427605E+02
 20
-3.14393951E+02
  0
VERTEX
  8
0
 62
4
 10
3.25369682E+02
 20
-3.14520687E+02
  0
VERTEX
  8
0
 62
4
 10
3.25324168E+02
 20
-3.14651517E+02
  0
VERTEX
  8
0
 62
4
 10
3.25291408E+02
 20
-3.14785443E+02
  0
VERTEX
  8
0
 62
4
 10
3.25271651E+02
 20
-3.14921447E+02
  0
VERTEX
  8
0
 62
4
 10
3.25265049E+02
 20
-3.15058495E+02
  0
VERTEX
  8
0
 62
4
 10
3.25271651E+02
 20
-3.15195543E+02
  0
VERTEX
  8
0
 62
4
 10
3.25291408E+02
 20
-3.15331547E+02
  0
VERTEX
  8
0
 62
4
 10
3.25324168E+02
 20
-3.15465473E+02
  0
VERTEX
  8
0
 62
4
 10
3.25369682E+02
 20
-3.15596303E+02
  0
VERTEX
  8
0
 62
4
 10
3.25427605E+02
 20
-3.15723039E+02
  0
VERTEX
  8
0
 62
4
 10
3.25497495E+02
 20
-3.15844717E+02
  0
VERTEX
  8
0
 62
4
 10
3.25578820E+02
 20
-3.15960412E+02
  0
VERTEX
  8
0
 62
4
 10
3.25670962E+02
 20
-3.16069243E+02
  0
VERTEX
  8
0
 62
4
 10
3.25773219E+02
 20
-3.16170381E+02
  0
VERTEX
  8
0
 62
4
 10
3.25884812E+02
 20
-3.16263057E+02
  0
VERTEX
  8
0
 62
4
 10
3.26004894E+02
 20
-3.16346566E+02
  0
VERTEX
  8
0
 62
4
 10
3.26132549E+02
 20
-3.16420271E+02
  0
VERTEX
  8
0
 62
4
 10
3.26266806E+02
 20
-3.16483613E+02
  0
VERTEX
  8
0
 62
4
 10
3.26406644E+02
 20
-3.16536109E+02
  0
VERTEX
  8
0
 62
4
 10
3.26550998E+02
 20
-3.16577359E+02
  0
VERTEX
  8
0
 62
4
 10
3.26698769E+02
 20
-3.16607050E+02
  0
VERTEX
  8
0
 62
4
 10
3.26848834E+02
 20
-3.16624955E+02
  0
VERTEX
  8
0
 62
4
 10
3.27000049E+02
 20
-3.16630939E+02
  0
VERTEX
  8
0
 62
4
 10
3.27151264E+02
 20
-3.16624955E+02
  0
VERTEX
  8
0
 62
4
 10
3.27301329E+02
 20
-3.16607050E+02
  0
VERTEX
  8
0
 62
4
 10
3.27449100E+02
 20
-3.16577359E+02
  0
VERTEX
  8
0
 62
4
 10
3.27593454E+02
 20
-3.16536109E+02
  0
VERTEX
  8
0
 62
4
 10
3.27733292E+02
 20
-3.16483613E+02
  0
VERTEX
  8
0
 62
4
 10
3.27867549E+02
 20
-3.16420271E+02
  0
VERTEX
  8
0
 62
4
 10
3.27995204E+02
 20
-3.16346566E+02
  0
VERTEX
  8
0
 62
4
 10
3.28115286E+02
 20
-3.16263057E+02
  0
VERTEX
  8
0
 62
4
 10
3.28226879E+02
 20
-3.16170381E+02
  0
VERTEX
  8
0
 62
4
 10
3.28329136E+02
 20
-3.16069243E+02
  0
VERTEX
  8
0
 62
4
 10
3.28421278E+02
 20
-3.15960412E+02
  0
VERTEX
  8
0
 62
4
 10
3.28502603E+02
 20
-3.15844717E+02
  0
VERTEX
  8
0
 62
4
 10
3.28572493E+02
 20
-3.15723039E+02
  0
VERTEX
  8
0
 62
4
 10
3.28630416E+02
 20
-3.15596303E+02
  0
VERTEX
  8
0
 62
4
 10
3.28675930E+02
 20
-3.15465473E+02
  0
VERTEX
  8
0
 62
4
 10
3.28708690E+02
 20
-3.15331547E+02
  0
VERTEX
  8
0
 62
4
 10
3.28728447E+02
 20
-3.15195543E+02
  0
VERTEX
  8
0
 62
4
 10
3.28735049E+02
 20
-3.15058495E+02
  0
SEQEND
  8
0
  0
LINE
  8
0
  6
CENTER
 62
6
 10
3.35000049E+02
 20
-3.10063027E+02
 11
3.35000049E+02
 21
-3.20063027E+02
  0
LINE
  8
0
  6
CENTER
 62
6
 10
3.27000049E+02
 20
-3.10063027E+02
 11
3.27000049E+02
 21
-3.20063027E+02
  0
LINE
  8
0
  6
CENTER
 62
6
 10
3.22000049E+02
 20
-3.15063027E+02
 11
3.40000049E+02
 21
-3.15063027E+02
  0
LINE
  8
0
 62
4
 10
3.23500049E+02
 20
-2.90343664E+02
 11
3.38500049E+02
 21
-2.90343664E+02
  0
LINE
  8
0
 62
4
 10
3.23500049E+02
 20
-2.78304222E+02
 11
3.05500049E+02
 21
-2.78304222E+02
  0
ARC
  8
0
 62
4
 10
3.05500057E+02
 20
-2.79804231E+02
 40
1.50000856E+00
 50
9.00003273E+01
 51
1.79999673E+02
  0
LINE
  8
0
 62
4
 10
3.41500049E+02
 20
-2.78304222E+02
 11
3.38500049E+02
 21
-2.78304222E+02
  0
ARC
  8
0
 62
4
 10
3.41500040E+02
 20
-2.79804231E+02
 40
1.50000856E+00
 50
3.27119593E-04
 51
8.99996730E+01
  0
LINE
  8
0
 62
4
 10
3.38500049E+02
 20
-2.81191419E+02
 11
3.23500049E+02
 21
-2.81191419E+02
  0
LINE
  8
0
 62
4
 10
3.38500049E+02
 20
-2.53100758E+02
 11
3.23500049E+02
 21
-2.53100758E+02
  0
ARC
  8
0
 62
4
 10
3.05500057E+02
 20
-2.88068203E+02
 40
1.50000856E+00
 50
9.00003273E+01
 51
1.79999673E+02
  0
ARC
  8
0
 62
4
 10
3.39000062E+02
 20
-2.69208277E+02
 40
5.00013809E-01
 50
9.00015821E+01
 51
1.79998418E+02
  0
ARC
  8
0
 62
4
 10
3.47500037E+02
 20
-2.55208275E+02
 40
5.00011902E-01
 50
1.36383594E-03
 51
8.99986360E+01
  0
ARC
  8
0
 62
4
 10
3.47500060E+02
 20
-2.68208275E+02
 40
4.99988098E-01
 50
2.69998636E+02
 51
1.36386840E-03
  0
ARC
  8
0
 62
4
 10
3.41500040E+02
 20
-2.88068203E+02
 40
1.50000856E+00
 50
3.27119593E-04
 51
8.99996730E+01
  0
LINE
  8
0
 62
4
 10
3.04000049E+02
 20
-2.79804222E+02
 11
3.04000049E+02
 21
-3.02999969E+02
  0
LINE
  8
0
 62
4
 10
3.21500049E+02
 20
-2.82942963E+02
 11
3.21500049E+02
 21
-2.86568195E+02
  0
LINE
  8
0
 62
4
 10
3.38500049E+02
 20
-2.53100758E+02
 11
3.38500049E+02
 21
-2.82942963E+02
  0
LINE
  8
0
 62
4
 10
3.23500049E+02
 20
-2.53100758E+02
 11
3.23500049E+02
 21
-2.82942963E+02
  0
LINE
  8
0
 62
4
 10
3.40500049E+02
 20
-2.82942963E+02
 11
3.40500049E+02
 21
-2.86568195E+02
  0
LINE
  8
0
 62
4
 10
3.43000049E+02
 20
-2.79804222E+02
 11
3.43000049E+02
 21
-3.02999969E+02
  0
LINE
  8
0
 62
4
 10
3.40500049E+02
 20
-2.82942963E+02
 11
3.21500049E+02
 21
-2.82942963E+02
  0
LINE
  8
0
 62
4
 10
3.38500049E+02
 20
-2.59440032E+02
 11
3.23500049E+02
 21
-2.59440032E+02
  0
LINE
  8
0
 62
4
 10
3.47500049E+02
 20
-2.68708264E+02
 11
3.39000049E+02
 21
-2.68708264E+02
  0
LINE
  8
0
 62
4
 10
3.51500049E+02
 20
-2.67458264E+02
 11
3.48000049E+02
 21
-2.67458264E+02
  0
LINE
  8
0
 62
4
 10
3.51500049E+02
 20
-2.55458264E+02
 11
3.51500049E+02
 21
-2.67958264E+02
  0
LINE
  8
0
 62
4
 10
3.53000049E+02
 20
-2.67958264E+02
 11
3.48000049E+02
 21
-2.67958264E+02
  0
LINE
  8
0
 62
4
 10
3.53000049E+02
 20
-2.55458264E+02
 11
3.48000049E+02
 21
-2.55458264E+02
  0
LINE
  8
0
 62
4
 10
3.53000049E+02
 20
-2.54910934E+02
 11
3.53000049E+02
 21
-2.68514613E+02
  0
LINE
  8
0
 62
4
 10
3.58000049E+02
 20
-2.54910934E+02
 11
3.58000049E+02
 21
-2.68514613E+02
  0
LINE
  8
0
 62
4
 10
3.48000049E+02
 20
-2.55208264E+02
 11
3.48000049E+02
 21
-2.68208264E+02
  0
LINE
  8
0
 62
4
 10
3.38500049E+02
 20
-2.54708264E+02
 11
3.47500049E+02
 21
-2.54708264E+02
  0
LINE
  8
0
 62
4
 10
3.58000049E+02
 20
-2.54910934E+02
 11
3.53000049E+02
 21
-2.54910934E+02
  0
LINE
  8
0
 62
4
 10
3.41500049E+02
 20
-2.86568195E+02
 11
3.05500049E+02
 21
-2.86568195E+02
  0
LINE
  8
0
 62
4
 10
3.51500049E+02
 20
-2.55958264E+02
 11
3.48000049E+02
 21
-2.55958264E+02
  0
LINE
  8
0
 62
4
 10
3.23500049E+02
 20
-2.90343664E+02
 11
3.23500049E+02
 21
-3.18271947E+02
  0
LINE
  8
0
 62
4
 10
3.38500049E+02
 20
-2.90343664E+02
 11
3.38500049E+02
 21
-3.18271947E+02
  0
LINE
  8
0
 62
4
 10
3.24500049E+02
 20
-3.07503687E+02
 11
3.37500049E+02
 21
-3.07503687E+02
  0
LINE
  8
0
 62
4
 10
3.23500049E+02
 20
-3.18271947E+02
 11
3.38500049E+02
 21
-3.18271947E+02
  0
LINE
  8
0
 62
4
 10
3.23500049E+02
 20
-2.93299446E+02
 11
3.38500049E+02
 21
-2.93299446E+02
  0
TEXT
  8
0
 10
5.02853299E+01
 20
3.51614332E+02
 40
9.00000000E+00
  1
STRETCH LINE B
 41
1.09375000E+00
  7
MONOTXT
  0
LINE
  8
0
 62
7
 10
-4.00473797E+02
 20
-4.34461520E+01
 11
4.01526203E+02
 21
-4.34461520E+01
  0
LINE
  8
0
 62
7
 10
-4.00473801E+02
 20
8.03848516E-01
 11
4.01526203E+02
 21
8.03848516E-01
  0
TEXT
  8
0
 62
7
 10
-3.90188488E+02
 20
-1.11961515E+01
 40
9.00000000E+00
  1
STROKE
 41
1.00000000E+00
  7
MONOTXT
  0
TEXT
  8
0
 62
7
 10
-3.94688484E+02
 20
-2.74461520E+01
 40
9.00000000E+00
  1
STRETCH
 41
1.00000000E+00
  7
MONOTXT
  0
LINE
  8
0
 62
7
 10
-4.00473797E+02
 20
-5.76961524E+01
 11
4.01526203E+02
 21
-5.76961524E+01
  0
LINE
  8
0
 62
7
 10
-4.00473797E+02
 20
-7.26961524E+01
 11
4.01526203E+02
 21
-7.26961524E+01
  0
LINE
  8
0
 62
7
 10
-4.00473797E+02
 20
-1.34461520E+01
 11
-3.35794305E+02
 21
-1.34461520E+01
  0
TEXT
  8
0
 62
7
 10
-3.94688484E+02
 20
-4.04461520E+01
 40
9.00000000E+00
  1
  PLACE
 41
1.20689655E+00
  7
MONOTXT
  0
LINE
  8
0
 62
7
 10
-3.18473797E+02
 20
-4.34461519E+01
 11
-3.35794305E+02
 21
-1.34461520E+01
  0
TEXT
  8
0
 62
7
 10
-3.62688484E+02
 20
-5.50711522E+01
 40
9.00000000E+00
  1
A
 41
1.00000000E+00
  7
MONOTXT
  0
TEXT
  8
0
 62
7
 10
-3.62688484E+02
 20
-6.96961524E+01
 40
9.00000000E+00
  1
B
 41
1.00000000E+00
  7
MONOTXT
  0
LINE
  8
0
 62
7
 10
-3.18473797E+02
 20
-7.26961524E+01
 11
-3.18473797E+02
 21
8.03848516E-01
  0
LINE
  8
0
 62
7
 10
-4.00473797E+02
 20
-7.26961524E+01
 11
-4.00473797E+02
 21
8.03848516E-01
  0
LINE
  8
0
 62
7
 10
-2.73473797E+02
 20
-7.26961524E+01
 11
-2.73473797E+02
 21
8.03848516E-01
  0
LINE
  8
0
 62
7
 10
-2.28473797E+02
 20
-7.26961524E+01
 11
-2.28473797E+02
 21
8.03848516E-01
  0
LINE
  8
0
 62
7
 10
-1.83473797E+02
 20
-7.26961524E+01
 11
-1.83473797E+02
 21
8.03848516E-01
  0
LINE
  8
0
 62
7
 10
-1.38473797E+02
 20
-7.26961524E+01
 11
-1.38473797E+02
 21
8.03848516E-01
  0
LINE
  8
0
 62
7
 10
-9.34737973E+01
 20
-7.26961524E+01
 11
-9.34737973E+01
 21
8.03848516E-01
  0
LINE
  8
0
 62
7
 10
-4.84737973E+01
 20
-7.26961524E+01
 11
-4.84737973E+01
 21
8.03848516E-01
  0
LINE
  8
0
 62
7
 10
-3.47379734E+00
 20
-7.26961524E+01
 11
-3.47379734E+00
 21
8.03848516E-01
  0
LINE
  8
0
 62
7
 10
4.15262027E+01
 20
-7.26961524E+01
 11
4.15262027E+01
 21
8.03848516E-01
  0
LINE
  8
0
 62
7
 10
8.65262027E+01
 20
-7.26961524E+01
 11
8.65262027E+01
 21
8.03848516E-01
  0
LINE
  8
0
 62
7
 10
1.31526203E+02
 20
-7.26961524E+01
 11
1.31526203E+02
 21
8.03848516E-01
  0
LINE
  8
0
 62
7
 10
1.76526203E+02
 20
-7.26961524E+01
 11
1.76526203E+02
 21
8.03848516E-01
  0
LINE
  8
0
 62
7
 10
2.21526203E+02
 20
-7.26961524E+01
 11
2.21526203E+02
 21
8.03848516E-01
  0
LINE
  8
0
 62
7
 10
2.66526203E+02
 20
-7.26961524E+01
 11
2.66526203E+02
 21
8.03848516E-01
  0
LINE
  8
0
 62
7
 10
3.11526203E+02
 20
-7.26961524E+01
 11
3.11526203E+02
 21
8.03848516E-01
  0
LINE
  8
0
 62
7
 10
3.56526203E+02
 20
-7.26961524E+01
 11
3.56526203E+02
 21
8.03848516E-01
  0
LINE
  8
0
 62
7
 10
4.01526203E+02
 20
-7.26961524E+01
 11
4.01526203E+02
 21
8.03848516E-01
  0
TEXT
  8
0
 62
7
 10
-3.03989422E+02
 20
-2.58211517E+01
 40
9.00000000E+00
  1
50
 41
1.00000000E+00
  7
MONOTXT
  0
TEXT
  8
0
 62
7
 10
-2.58989422E+02
 20
-2.58211517E+01
 40
9.00000000E+00
  1
75
 41
1.00000000E+00
  7
MONOTXT
  0
TEXT
  8
0
 62
7
 10
-2.18489422E+02
 20
-2.58211517E+01
 40
9.00000000E+00
  1
100
 41
1.00000000E+00
  7
MONOTXT
  0
TEXT
  8
0
 62
7
 10
-1.73489422E+02
 20
-2.58211517E+01
 40
9.00000000E+00
  1
150
 41
1.00000000E+00
  7
MONOTXT
  0
TEXT
  8
0
 62
7
 10
-1.28489422E+02
 20
-2.58211517E+01
 40
9.00000000E+00
  1
200
 41
1.00000000E+00
  7
MONOTXT
  0
TEXT
  8
0
 62
7
 10
-8.34894223E+01
 20
-2.58211517E+01
 40
9.00000000E+00
  1
250
 41
1.00000000E+00
  7
MONOTXT
  0
TEXT
  8
0
 62
7
 10
-3.84894223E+01
 20
-2.58211517E+01
 40
9.00000000E+00
  1
300
 41
1.00000000E+00
  7
MONOTXT
  0
TEXT
  8
0
 62
7
 10
6.51057766E+00
 20
-2.58211517E+01
 40
9.00000000E+00
  1
350
 41
1.00000000E+00
  7
MONOTXT
  0
TEXT
  8
0
 62
7
 10
5.15105777E+01
 20
-2.58211517E+01
 40
9.00000000E+00
  1
400
 41
1.00000000E+00
  7
MONOTXT
  0
TEXT
  8
0
 62
7
 10
9.65105777E+01
 20
-2.58211517E+01
 40
9.00000000E+00
  1
450
 41
1.00000000E+00
  7
MONOTXT
  0
TEXT
  8
0
 62
7
 10
1.41510578E+02
 20
-2.58211517E+01
 40
9.00000000E+00
  1
500
 41
1.00000000E+00
  7
MONOTXT
  0
TEXT
  8
0
 62
7
 10
1.86510578E+02
 20
-2.58211517E+01
 40
9.00000000E+00
  1
600
 41
1.00000000E+00
  7
MONOTXT
  0
TEXT
  8
0
 62
7
 10
2.31510578E+02
 20
-2.58211517E+01
 40
9.00000000E+00
  1
700
 41
1.00000000E+00
  7
MONOTXT
  0
TEXT
  8
0
 62
7
 10
2.76510578E+02
 20
-2.58211517E+01
 40
9.00000000E+00
  1
800
 41
1.00000000E+00
  7
MONOTXT
  0
TEXT
  8
0
 62
7
 10
3.21510578E+02
 20
-2.58211517E+01
 40
9.00000000E+00
  1
900
 41
1.00000000E+00
  7
MONOTXT
  0
TEXT
  8
0
 62
7
 10
3.62010578E+02
 20
-2.58211517E+01
 40
9.00000000E+00
  1
1000
 41
1.00000000E+00
  7
MONOTXT
  0
TEXT
  8
0
 62
7
 10
-3.08489422E+02
 20
-5.50711522E+01
 40
9.00000000E+00
  1
-25
 41
1.00000000E+00
  7
MONOTXT
  0
TEXT
  8
0
 62
7
 10
-2.54489422E+02
 20
-5.50711522E+01
 40
9.00000000E+00
  1
0
 41
1.00000000E+00
  7
MONOTXT
  0
TEXT
  8
0
 62
7
 10
-2.13989422E+02
 20
-5.50711522E+01
 40
9.00000000E+00
  1
25
 41
1.00000000E+00
  7
MONOTXT
  0
TEXT
  8
0
 62
7
 10
-1.68989422E+02
 20
-5.50711522E+01
 40
9.00000000E+00
  1
75
 41
1.00000000E+00
  7
MONOTXT
  0
TEXT
  8
0
 62
7
 10
-1.28489422E+02
 20
-5.50711522E+01
 40
9.00000000E+00
  1
125
 41
1.00000000E+00
  7
MONOTXT
  0
TEXT
  8
0
 62
7
 10
-8.34894223E+01
 20
-5.50711522E+01
 40
9.00000000E+00
  1
175
 41
1.00000000E+00
  7
MONOTXT
  0
TEXT
  8
0
 62
7
 10
-3.84894223E+01
 20
-5.50711522E+01
 40
9.00000000E+00
  1
225
 41
1.00000000E+00
  7
MONOTXT
  0
TEXT
  8
0
 62
7
 10
6.51057766E+00
 20
-5.50711522E+01
 40
9.00000000E+00
  1
275
 41
1.00000000E+00
  7
MONOTXT
  0
TEXT
  8
0
 62
7
 10
5.15105777E+01
 20
-5.50711522E+01
 40
9.00000000E+00
  1
325
 41
1.00000000E+00
  7
MONOTXT
  0
TEXT
  8
0
 62
7
 10
9.65105777E+01
 20
-5.50711522E+01
 40
9.00000000E+00
  1
375
 41
1.00000000E+00
  7
MONOTXT
  0
TEXT
  8
0
 62
7
 10
1.41510578E+02
 20
-5.50711522E+01
 40
9.00000000E+00
  1
425
 41
1.00000000E+00
  7
MONOTXT
  0
TEXT
  8
0
 62
7
 10
1.86510578E+02
 20
-5.50711522E+01
 40
9.00000000E+00
  1
525
 41
1.00000000E+00
  7
MONOTXT
  0
TEXT
  8
0
 62
7
 10
2.31510578E+02
 20
-5.50711522E+01
 40
9.00000000E+00
  1
625
 41
1.00000000E+00
  7
MONOTXT
  0
TEXT
  8
0
 62
7
 10
2.76510578E+02
 20
-5.50711522E+01
 40
9.00000000E+00
  1
725
 41
1.00000000E+00
  7
MONOTXT
  0
TEXT
  8
0
 62
7
 10
3.21510578E+02
 20
-5.50711522E+01
 40
9.00000000E+00
  1
825
 41
1.00000000E+00
  7
MONOTXT
  0
TEXT
  8
0
 62
7
 10
3.66510578E+02
 20
-5.50711522E+01
 40
9.00000000E+00
  1
925
 41
1.00000000E+00
  7
MONOTXT
  0
TEXT
  8
0
 62
7
 10
-3.08489422E+02
 20
-7.00711522E+01
 40
9.00000000E+00
  1
-25
 41
1.00000000E+00
  7
MONOTXT
  0
TEXT
  8
0
 62
7
 10
-2.54489422E+02
 20
-7.00711522E+01
 40
9.00000000E+00
  1
0
 41
1.00000000E+00
  7
MONOTXT
  0
TEXT
  8
0
 62
7
 10
-2.13989422E+02
 20
-7.00711522E+01
 40
9.00000000E+00
  1
25
 41
1.00000000E+00
  7
MONOTXT
  0
TEXT
  8
0
 62
7
 10
-1.68989422E+02
 20
-7.00711522E+01
 40
9.00000000E+00
  1
75
 41
1.00000000E+00
  7
MONOTXT
  0
TEXT
  8
0
 62
7
 10
-1.28489422E+02
 20
-7.00711522E+01
 40
9.00000000E+00
  1
125
 41
1.00000000E+00
  7
MONOTXT
  0
TEXT
  8
0
 62
7
 10
-8.34894223E+01
 20
-7.00711522E+01
 40
9.00000000E+00
  1
175
 41
1.00000000E+00
  7
MONOTXT
  0
TEXT
  8
0
 62
7
 10
-3.84894223E+01
 20
-7.00711522E+01
 40
9.00000000E+00
  1
225
 41
1.00000000E+00
  7
MONOTXT
  0
TEXT
  8
0
 62
7
 10
6.51057766E+00
 20
-7.00711522E+01
 40
9.00000000E+00
  1
275
 41
1.00000000E+00
  7
MONOTXT
  0
TEXT
  8
0
 62
7
 10
5.15105777E+01
 20
-7.00711522E+01
 40
9.00000000E+00
  1
325
 41
1.00000000E+00
  7
MONOTXT
  0
TEXT
  8
0
 62
7
 10
9.65105777E+01
 20
-7.00711522E+01
 40
9.00000000E+00
  1
375
 41
1.00000000E+00
  7
MONOTXT
  0
TEXT
  8
0
 62
7
 10
1.41510578E+02
 20
-7.00711522E+01
 40
9.00000000E+00
  1
425
 41
1.00000000E+00
  7
MONOTXT
  0
TEXT
  8
0
 62
7
 10
1.86510578E+02
 20
-7.00711522E+01
 40
9.00000000E+00
  1
525
 41
1.00000000E+00
  7
MONOTXT
  0
TEXT
  8
0
 62
7
 10
2.31510578E+02
 20
-7.00711522E+01
 40
9.00000000E+00
  1
625
 41
1.00000000E+00
  7
MONOTXT
  0
TEXT
  8
0
 62
7
 10
2.76510578E+02
 20
-7.00711522E+01
 40
9.00000000E+00
  1
725
 41
1.00000000E+00
  7
MONOTXT
  0
TEXT
  8
0
 62
7
 10
3.21510578E+02
 20
-7.00711522E+01
 40
9.00000000E+00
  1
825
 41
1.00000000E+00
  7
MONOTXT
  0
TEXT
  8
0
 62
7
 10
3.66510578E+02
 20
-7.00711522E+01
 40
9.00000000E+00
  1
925
 41
1.00000000E+00
  7
MONOTXT
  0
TEXT
  8
0
 62
7
 10
-5.21884866E+01
 20
6.30384850E+00
 40
9.00000000E+00
  1
STRETCH LIST
 41
1.05263158E+00
  7
MONOTXT
  0
TEXT
  8
0
 62
7
 10
3.58811514E+02
 20
6.30384850E+00
 40
9.00000000E+00
  1
(mm)
 41
1.00000000E+00
  7
MONOTXT
  0
TEXT
  8
0
 10
-9.12146873E+01
 20
3.51614332E+02
 40
9.00000000E+00
  1
STRETCH LINE A
 41
1.09375000E+00
  7
MONOTXT
  0
LINE
  8
0
 62
7
 10
-2.26825323E+01
 20
-3.11999985E+02
 11
-8.79999820E+01
 21
-3.11999985E+02
  0
LINE
  8
0
 62
7
 10
-1.74863710E+01
 20
-3.02999969E+02
 11
-8.79999820E+01
 21
-3.02999969E+02
  0
LINE
  8
0
 62
7
 10
-7.11799901E+01
 20
-2.16000046E+02
 11
-8.79999820E+01
 21
-2.16000046E+02
  0
LINE
  8
0
 62
7
 10
-6.59838113E+01
 20
-2.07000000E+02
 11
-8.79999820E+01
 21
-2.07000000E+02
  0
LINE
  8
0
 62
7
 10
-8.79999820E+01
 20
-1.16000000E+02
 11
-1.34449368E+01
 21
-1.16000000E+02
  0
LINE
  8
0
 62
7
 10
-8.59999820E+01
 20
-1.22999969E+02
 11
-8.79999820E+01
 21
-1.22999969E+02
  0
LINE
  8
0
  6
CENTER
 62
2
 10
-4.05999936E+02
 20
-2.91019226E+02
 11
-4.05999936E+02
 21
-3.21926193E+02
  0
LINE
  8
0
  6
CENTER
 62
2
 10
-3.21999936E+02
 20
-2.90607269E+02
 11
-3.21999936E+02
 21
-3.22357803E+02
  0
LINE
  8
0
 62
2
 10
-1.73499974E+02
 20
-3.37320015E+02
 11
-1.61999967E+02
 21
-3.37320015E+02
  0
LINE
  8
0
 62
7
 10
-1.73499974E+02
 20
-3.36500008E+02
 11
-1.61999967E+02
 21
-3.36500008E+02
  0
LINE
  8
0
 62
2
 10
-1.73499974E+02
 20
-1.81679993E+02
 11
-1.61999967E+02
 21
-1.81679993E+02
  0
LINE
  8
0
 62
7
 10
-1.73499974E+02
 20
-1.82500000E+02
 11
-1.61999967E+02
 21
-1.82500000E+02
  0
LINE
  8
0
 62
2
 10
-1.73499974E+02
 20
-1.57320038E+02
 11
-1.61999967E+02
 21
-1.57320038E+02
  0
LINE
  8
0
 62
7
 10
-1.73499974E+02
 20
-1.56500031E+02
 11
-1.61999967E+02
 21
-1.56500031E+02
  0
LINE
  8
0
 62
4
 10
-1.87499974E+02
 20
-1.87499935E+02
 11
-1.73499974E+02
 21
-1.87499935E+02
  0
LINE
  8
0
 62
4
 10
-1.87499974E+02
 20
-1.51500065E+02
 11
-1.73499974E+02
 21
-1.51500065E+02
  0
LINE
  8
0
 62
4
 10
-1.87499974E+02
 20
-1.51500065E+02
 11
-1.87499974E+02
 21
-1.87499935E+02
  0
LINE
  8
0
 62
4
 10
-1.73499974E+02
 20
-1.51500065E+02
 11
-1.73499974E+02
 21
-1.87499935E+02
  0
LINE
  8
0
 62
4
 10
-1.85892465E+02
 20
-1.69500072E+02
 11
-1.75107484E+02
 21
-1.69500072E+02
  0
ARC
  8
0
 62
4
 10
-1.61501943E+02
 20
-1.78500076E+02
 40
2.59980309E+01
 50
1.59746143E+02
 51
2.00253857E+02
  0
ARC
  8
0
 62
4
 10
-1.61501943E+02
 20
-1.60500069E+02
 40
2.59980309E+01
 50
1.59746143E+02
 51
2.00253857E+02
  0
ARC
  8
0
 62
4
 10
-1.99498005E+02
 20
-1.60500069E+02
 40
2.59980309E+01
 50
3.39746143E+02
 51
2.02538569E+01
  0
ARC
  8
0
 62
4
 10
-1.99498005E+02
 20
-1.78500076E+02
 40
2.59980309E+01
 50
3.39746143E+02
 51
2.02538569E+01
  0
LINE
  8
0
 62
4
 10
-1.87499974E+02
 20
-3.31500000E+02
 11
-1.87499974E+02
 21
-3.49500000E+02
  0
LINE
  8
0
 62
4
 10
-1.85892278E+02
 20
-3.39107697E+02
 11
-1.75107671E+02
 21
-3.39107697E+02
  0
LINE
  8
0
 62
4
 10
-1.85892278E+02
 20
-3.28715393E+02
 11
-1.75107671E+02
 21
-3.28715393E+02
  0
LINE
  8
0
 62
4
 10
-1.87499983E+02
 20
-3.31500001E+02
 11
-1.85892305E+02
 21
-3.28715392E+02
  0
LINE
  8
0
 62
4
 10
-1.73499974E+02
 20
-3.31499988E+02
 11
-1.75107655E+02
 21
-3.28715366E+02
  0
LINE
  8
0
 62
4
 10
-1.73499974E+02
 20
-3.31500000E+02
 11
-1.73499974E+02
 21
-3.49500000E+02
  0
ARC
  8
0
 62
4
 10
-2.07892240E+02
 20
-3.49500000E+02
 40
3.43922653E+01
 50
0.00000000E+00
 51
1.75879147E+01
  0
ARC
  8
0
 62
4
 10
-1.82700929E+02
 20
-3.33911545E+02
 40
9.20095253E+00
 50
3.25615707E+02
 51
3.43842378E+01
  0
ARC
  8
0
 62
4
 10
-1.53107709E+02
 20
-3.49500000E+02
 40
3.43922653E+01
 50
1.62412050E+02
 51
1.80000000E+02
  0
ARC
  8
0
 62
4
 10
-1.78299020E+02
 20
-3.33911545E+02
 40
9.20095253E+00
 50
1.45615726E+02
 51
2.14384256E+02
  0
LINE
  8
0
 62
4
 10
-3.64000109E+02
 20
-3.28715392E+02
 11
-3.46000104E+02
 21
-3.39107698E+02
  0
LINE
  8
0
 62
4
 10
-3.82000032E+02
 20
-3.39107731E+02
 11
-3.64000030E+02
 21
-3.28715427E+02
  0
LINE
  8
0
 62
4
 10
-3.45999967E+02
 20
-3.39107697E+02
 11
-3.45999967E+02
 21
-3.49500000E+02
  0
LINE
  8
0
 62
4
 10
-3.81999974E+02
 20
-3.39107697E+02
 11
-3.81999974E+02
 21
-3.49500000E+02
  0
ARC
  8
0
 62
4
 10
-3.63999967E+02
 20
-3.49500000E+02
 40
1.80000000E+01
 50
0.00000000E+00
 51
1.80000000E+02
  0
LINE
  8
0
 62
7
 10
-1.39999951E+02
 20
-1.45936707E+02
 11
-1.39999951E+02
 21
-1.93063232E+02
  0
LINE
  8
0
 62
7
 10
-1.39999967E+02
 20
-3.49500000E+02
 11
-1.39999967E+02
 21
-3.25936752E+02
  0
ARC
  8
0
 62
7
 10
-1.61999967E+02
 20
-3.49499985E+02
 40
1.50000248E+01
 50
3.59999942E+02
 51
2.99266002E+01
  0
CIRCLE
  8
0
 62
7
 10
-9.49999515E+01
 20
-1.87500031E+02
 40
2.59999990E+00
  0
ARC
  8
0
 62
7
 10
-1.44499967E+02
 20
-3.26999985E+02
 40
5.00000000E-01
 50
8.99999818E+01
 51
1.79999964E+02
  0
ARC
  8
0
 62
7
 10
-1.23499951E+02
 20
-2.94619720E+02
 40
5.00000000E-01
 50
9.10002493E+01
 51
1.79999964E+02
  0
ARC
  8
0
 62
7
 10
-1.25499951E+02
 20
-3.25000000E+02
 40
5.00000000E-01
 50
8.99999818E+01
 51
1.79999964E+02
  0
ARC
  8
0
 62
7
 10
-1.39499967E+02
 20
-3.25971725E+02
 40
5.00000000E-01
 50
9.20007356E+01
 51
1.79999964E+02
  0
ARC
  8
0
 62
7
 10
-3.63999967E+02
 20
-3.49500000E+02
 40
1.14999914E+01
 50
0.00000000E+00
 51
1.80000000E+02
  0
ARC
  8
0
 62
2
 10
-3.63999967E+02
 20
-3.49500000E+02
 40
1.21799841E+01
 50
0.00000000E+00
 51
1.80000000E+02
  0
ARC
  8
0
 62
7
 10
-3.63999967E+02
 20
-3.49500000E+02
 40
1.29999914E+01
 50
0.00000000E+00
 51
1.80000000E+02
  0
CIRCLE
  8
0
 62
7
 10
-3.21999936E+02
 20
-3.07500000E+02
 40
4.17999983E+00
  0
CIRCLE
  8
0
 62
7
 10
-4.05999936E+02
 20
-3.07500000E+02
 40
4.17999983E+00
  0
CIRCLE
  8
0
 62
2
 10
-3.21999936E+02
 20
-3.07500000E+02
 40
5.00000000E+00
  0
CIRCLE
  8
0
 62
2
 10
-4.05999936E+02
 20
-3.07500000E+02
 40
5.00000000E+00
  0
CIRCLE
  8
0
 62
2
 10
-1.03999967E+02
 20
-1.57500000E+02
 40
1.04775000E+01
  0
ARC
  8
0
 62
7
 10
-3.63999967E+02
 20
-3.49500000E+02
 40
2.40000000E+01
 50
0.00000000E+00
 51
1.80000000E+02
  0
ARC
  8
0
 62
7
 10
-3.63999845E+02
 20
-3.49499939E+02
 40
2.35000153E+01
 50
0.00000000E+00
 51
1.80000149E+02
  0
ARC
  8
0
 62
7
 10
-3.63999845E+02
 20
-3.49499939E+02
 40
2.50000153E+01
 50
0.00000000E+00
 51
1.80000140E+02
  0
ARC
  8
0
 62
7
 10
-3.94158048E+02
 20
-3.03497620E+02
 40
1.00000000E+00
 50
8.81899612E+01
 51
1.98674330E+02
  0
ARC
  8
0
 62
7
 10
-4.10002408E+02
 20
-3.19341858E+02
 40
1.00000000E+00
 50
7.13253501E+01
 51
1.81812600E+02
  0
ARC
  8
0
 62
7
 10
-3.89016141E+02
 20
-2.98099976E+02
 40
1.00000000E+00
 50
8.99999818E+01
 51
1.84589646E+02
  0
ARC
  8
0
 62
7
 10
-4.15399961E+02
 20
-3.24484039E+02
 40
1.00000000E+00
 50
8.54104639E+01
 51
1.79999964E+02
  0
ARC
  8
0
 62
7
 10
-3.94000058E+02
 20
-2.98500137E+02
 40
4.00000000E+00
 50
2.68189512E+02
 51
4.59040963E+00
  0
ARC
  8
0
 62
7
 10
-4.14999906E+02
 20
-3.19500061E+02
 40
4.00000000E+00
 50
2.65411312E+02
 51
1.81309463E+00
  0
CIRCLE
  8
0
 62
7
 10
-4.05999936E+02
 20
-3.07500015E+02
 40
8.00000000E+00
  0
ARC
  8
0
 62
7
 10
-4.14999906E+02
 20
-2.98500000E+02
 40
5.00000000E+00
 50
8.99999818E+01
 51
1.79999964E+02
  0
ARC
  8
0
 62
7
 10
-4.14999906E+02
 20
-2.98499985E+02
 40
4.40000010E+00
 50
8.99999818E+01
 51
1.79999964E+02
  0
ARC
  8
0
 62
7
 10
-4.05999936E+02
 20
-3.07500000E+02
 40
1.15000000E+01
 50
2.51324914E+02
 51
1.86744424E+01
  0
ARC
  8
0
 62
7
 10
-3.66249906E+02
 20
-3.23597488E+02
 40
1.00000000E+00
 50
2.74964145E+02
 51
3.59999959E+02
  0
ARC
  8
0
 62
7
 10
-3.80724820E+02
 20
-3.29593124E+02
 40
1.00000000E+00
 50
2.24999972E+02
 51
3.10035254E+02
  0
ARC
  8
0
 62
7
 10
-3.83906888E+02
 20
-3.32775139E+02
 40
1.00000000E+00
 50
3.19964423E+02
 51
4.49999910E+01
  0
ARC
  8
0
 62
7
 10
-3.89902463E+02
 20
-3.47250008E+02
 40
1.00000000E+00
 50
2.69999963E+02
 51
3.55035805E+02
  0
ARC
  8
0
 62
7
 10
-3.66249906E+02
 20
-2.98099991E+02
 40
1.00000000E+00
 50
3.59999959E+02
 51
8.99999956E+01
  0
ARC
  8
0
 62
7
 10
-4.15399961E+02
 20
-3.47250031E+02
 40
1.00000000E+00
 50
1.79999964E+02
 51
2.69999946E+02
  0
ARC
  8
0
 62
7
 10
-3.98896512E+02
 20
-3.17785492E+02
 40
1.00000000E+00
 50
4.49999910E+01
 51
1.24630380E+02
  0
ARC
  8
0
 62
7
 10
-3.95714444E+02
 20
-3.14603500E+02
 40
1.00000000E+00
 50
1.45369634E+02
 51
2.24999955E+02
  0
CIRCLE
  8
0
 62
7
 10
-4.05999936E+02
 20
-3.07500015E+02
 40
8.69999981E+00
  0
ARC
  8
0
 62
7
 10
-3.13000058E+02
 20
-3.19499893E+02
 40
4.00000000E+00
 50
1.78189554E+02
 51
2.74590407E+02
  0
ARC
  8
0
 62
7
 10
-3.33999997E+02
 20
-2.98500000E+02
 40
4.00000000E+00
 50
1.75411348E+02
 51
2.71812624E+02
  0
ARC
  8
0
 62
7
 10
-3.21999936E+02
 20
-3.07500000E+02
 40
1.15000000E+01
 50
1.61325025E+02
 51
2.88674421E+02
  0
CIRCLE
  8
0
 62
7
 10
-1.03999936E+02
 20
-1.57500000E+02
 40
1.10000000E+01
  0
ARC
  8
0
 62
7
 10
-1.17999921E+02
 20
-2.02499924E+02
 40
2.00000000E+00
 50
1.79999977E+02
 51
2.70000028E+02
  0
ARC
  8
0
 62
7
 10
-1.17999921E+02
 20
-1.36499939E+02
 40
2.00000000E+00
 50
8.99999818E+01
 51
1.79999951E+02
  0
ARC
  8
0
 62
7
 10
-3.17997556E+02
 20
-3.19341904E+02
 40
1.00000000E+00
 50
3.58189936E+02
 51
1.08674388E+02
  0
ARC
  8
0
 62
7
 10
-3.33841764E+02
 20
-3.03497482E+02
 40
1.00000000E+00
 50
3.41324803E+02
 51
9.18135474E+01
  0
CIRCLE
  8
0
 62
7
 10
-1.03999936E+02
 20
-1.57499939E+02
 40
9.25000000E+00
  0
ARC
  8
0
 62
7
 10
-3.38983945E+02
 20
-2.98099991E+02
 40
1.00000000E+00
 50
3.55412204E+02
 51
8.99999818E+01
  0
ARC
  8
0
 62
7
 10
-3.12599912E+02
 20
-3.24483841E+02
 40
1.00000000E+00
 50
0.00000000E+00
 51
9.45895548E+01
  0
ARC
  8
0
 62
7
 10
-1.23499936E+02
 20
-2.24380264E+02
 40
5.00000000E-01
 50
1.79999977E+02
 51
2.68999679E+02
  0
ARC
  8
0
 62
7
 10
-1.44499936E+02
 20
-1.91999954E+02
 40
5.00000000E-01
 50
1.79999977E+02
 51
2.69999974E+02
  0
ARC
  8
0
 62
7
 10
-1.25499921E+02
 20
-1.93999939E+02
 40
5.00000000E-01
 50
1.79999977E+02
 51
2.69999974E+02
  0
ARC
  8
0
 62
7
 10
-1.39499936E+02
 20
-1.93028183E+02
 40
5.00000000E-01
 50
1.79999977E+02
 51
2.67999192E+02
  0
ARC
  8
0
 62
7
 10
-1.25499921E+02
 20
-1.44999939E+02
 40
5.00000000E-01
 50
8.99999818E+01
 51
1.79999951E+02
  0
ARC
  8
0
 62
7
 10
-1.39499936E+02
 20
-1.45971680E+02
 40
5.00000000E-01
 50
9.20007356E+01
 51
1.79999951E+02
  0
ARC
  8
0
 62
7
 10
-1.44499936E+02
 20
-1.46999939E+02
 40
5.00000000E-01
 50
8.99999818E+01
 51
1.79999951E+02
  0
ARC
  8
0
 62
7
 10
-1.23499936E+02
 20
-1.14619690E+02
 40
5.00000000E-01
 50
9.10002493E+01
 51
1.79999951E+02
  0
CIRCLE
  8
0
 62
7
 10
-3.21999936E+02
 20
-3.07500000E+02
 40
8.00000000E+00
  0
ARC
  8
0
 62
7
 10
-3.12999936E+02
 20
-2.98500000E+02
 40
5.00000000E+00
 50
0.00000000E+00
 51
8.99999818E+01
  0
ARC
  8
0
 62
7
 10
-3.12999936E+02
 20
-2.98500000E+02
 40
4.40000010E+00
 50
0.00000000E+00
 51
8.99999818E+01
  0
ARC
  8
0
 62
7
 10
-3.12599912E+02
 20
-3.47250008E+02
 40
1.00000000E+00
 50
2.69999963E+02
 51
0.00000000E+00
  0
ARC
  8
0
 62
7
 10
-3.38097409E+02
 20
-3.47250008E+02
 40
1.00000000E+00
 50
1.84964149E+02
 51
2.69999956E+02
  0
ARC
  8
0
 62
7
 10
-3.61749906E+02
 20
-3.23597427E+02
 40
1.00000000E+00
 50
1.79999964E+02
 51
2.65035792E+02
  0
ARC
  8
0
 62
7
 10
-3.61749906E+02
 20
-2.98099991E+02
 40
1.00000000E+00
 50
8.99999818E+01
 51
1.79999964E+02
  0
ARC
  8
0
 62
7
 10
-3.47275113E+02
 20
-3.29593094E+02
 40
1.00000000E+00
 50
2.29964427E+02
 51
3.14999988E+02
  0
ARC
  8
0
 62
7
 10
-3.44093076E+02
 20
-3.32775108E+02
 40
1.00000000E+00
 50
1.34999959E+02
 51
2.20035227E+02
  0
ARC
  8
0
 62
7
 10
-3.32285367E+02
 20
-3.14603439E+02
 40
1.00000000E+00
 50
3.14999995E+02
 51
3.46303842E+01
  0
ARC
  8
0
 62
7
 10
-3.29103421E+02
 20
-3.17785461E+02
 40
1.00000000E+00
 50
5.53696252E+01
 51
1.34999959E+02
  0
CIRCLE
  8
0
 62
7
 10
-3.21999936E+02
 20
-3.07500000E+02
 40
8.69999981E+00
  0
CIRCLE
  8
0
 62
7
 10
-9.49999515E+01
 20
-1.87500031E+02
 40
5.00000000E+00
  0
LINE
  8
0
 62
7
 10
-1.61999967E+02
 20
-3.37320015E+02
 11
-1.58999967E+02
 21
-3.37320015E+02
  0
LINE
  8
0
 62
7
 10
-1.61999967E+02
 20
-1.81679993E+02
 11
-1.58999967E+02
 21
-1.81679993E+02
  0
LINE
  8
0
 62
7
 10
-1.61999967E+02
 20
-1.57320038E+02
 11
-1.58999967E+02
 21
-1.57320038E+02
  0
LINE
  8
0
 62
2
 10
-1.53999930E+02
 20
-3.49500000E+02
 11
-1.56777718E+02
 21
-3.45342561E+02
  0
LINE
  8
0
 62
2
 10
-1.48999955E+02
 20
-3.42016634E+02
 11
-1.53999958E+02
 21
-3.49500000E+02
  0
LINE
  8
0
 62
7
 10
-1.58999945E+02
 20
-3.49499999E+02
 11
-1.54999929E+02
 21
-3.42016631E+02
  0
LINE
  8
0
 62
7
 10
-1.54999951E+02
 20
-3.42016624E+02
 11
-1.48999967E+02
 21
-3.42016624E+02
  0
LINE
  8
0
 62
7
 10
-1.48999967E+02
 20
-3.49500000E+02
 11
-1.48999967E+02
 21
-3.42016624E+02
  0
LINE
  8
0
 62
7
 10
-1.58999939E+02
 20
-3.36500016E+02
 11
-1.54999925E+02
 21
-3.34499971E+02
  0
LINE
  8
0
 62
7
 10
-1.54999951E+02
 20
-3.42016624E+02
 11
-1.54999951E+02
 21
-3.34499962E+02
  0
LINE
  8
0
  6
CENTER
 62
2
 10
-1.03999967E+02
 20
-3.06199966E+02
 11
-1.03999967E+02
 21
-2.91236359E+02
  0
LINE
  8
0
  6
CENTER
 62
2
 10
-3.75999936E+02
 20
-3.06199997E+02
 11
-3.75999936E+02
 21
-2.91236389E+02
  0
LINE
  8
0
 62
7
 10
-8.79999820E+01
 20
-2.95999985E+02
 11
-1.34449280E+01
 21
-2.95999985E+02
  0
LINE
  8
0
  6
CENTER
 62
2
 10
-2.00844649E+01
 20
-3.07500000E+02
 11
-1.26524457E+02
 21
-3.07500000E+02
  0
LINE
  8
0
 62
7
 10
-1.54999951E+02
 20
-3.34499962E+02
 11
-1.44999967E+02
 21
-3.34499962E+02
  0
LINE
  8
0
 62
7
 10
-1.44499967E+02
 20
-3.26499985E+02
 11
-1.39999967E+02
 21
-3.26499985E+02
  0
LINE
  8
0
 62
7
 10
-1.39517472E+02
 20
-3.25472079E+02
 11
-1.26000015E+02
 21
-3.25000039E+02
  0
LINE
  8
0
 62
7
 10
-1.23508682E+02
 20
-2.94119811E+02
 11
-8.79999451E+01
 21
-2.93500004E+02
  0
LINE
  8
0
 62
7
 10
-1.19999967E+02
 20
-2.94058548E+02
 11
-1.19999967E+02
 21
-2.93500000E+02
  0
LINE
  8
0
 62
7
 10
-1.19999967E+02
 20
-2.93500000E+02
 11
-8.79999515E+01
 21
-2.93500000E+02
  0
LINE
  8
0
 62
7
 10
-1.25499951E+02
 20
-3.24499985E+02
 11
-1.23999967E+02
 21
-3.24499985E+02
  0
LINE
  8
0
 62
2
 10
-1.98320035E+02
 20
-3.37320015E+02
 11
-1.87499974E+02
 21
-3.37320015E+02
  0
LINE
  8
0
 62
7
 10
-1.98999846E+02
 20
-3.38000187E+02
 11
-1.97499828E+02
 21
-3.36500170E+02
  0
LINE
  8
0
 62
7
 10
-1.97499967E+02
 20
-3.49500000E+02
 11
-1.97499967E+02
 21
-3.36500008E+02
  0
LINE
  8
0
 62
7
 10
-1.97500028E+02
 20
-3.36500008E+02
 11
-1.87499974E+02
 21
-3.36500008E+02
  0
LINE
  8
0
 62
7
 10
-1.61999967E+02
 20
-3.49500000E+02
 11
-1.61999967E+02
 21
-3.36500008E+02
  0
LINE
  8
0
 62
7
 10
-1.98999982E+02
 20
-3.49500000E+02
 11
-1.98999982E+02
 21
-3.38000305E+02
  0
LINE
  8
0
 62
7
 10
-1.74863711E+01
 20
-1.22999969E+02
 11
-6.14999820E+01
 21
-1.22999969E+02
  0
LINE
  8
0
 62
7
 10
-2.26825411E+01
 20
-1.32000000E+02
 11
-4.19999820E+01
 21
-1.32000000E+02
  0
LINE
  8
0
  6
CENTER
 62
2
 10
-2.00844473E+01
 20
-1.27499969E+02
 11
-6.14999820E+01
 21
-1.27499969E+02
  0
LINE
  8
0
 62
7
 10
-1.49000024E+02
 20
-1.56499942E+02
 11
-1.47000000E+02
 21
-1.54499919E+02
  0
LINE
  8
0
 62
7
 10
-1.48999958E+02
 20
-1.82499985E+02
 11
-1.46999891E+02
 21
-1.84500052E+02
  0
LINE
  8
0
 62
7
 10
-1.58999967E+02
 20
-1.82500000E+02
 11
-1.48999936E+02
 21
-1.82500000E+02
  0
LINE
  8
0
 62
7
 10
-1.58999967E+02
 20
-1.56500000E+02
 11
-1.49000043E+02
 21
-1.56500000E+02
  0
LINE
  8
0
 62
7
 10
-8.79999820E+01
 20
-2.23000015E+02
 11
-7.52214244E+01
 21
-2.23000015E+02
  0
LINE
  8
0
 62
7
 10
-1.46999890E+02
 20
-1.84500046E+02
 11
-1.44999967E+02
 21
-1.84500046E+02
  0
LINE
  8
0
 62
7
 10
-1.55999951E+02
 20
-1.82500000E+02
 11
-1.55999951E+02
 21
-1.56500000E+02
  0
LINE
  8
0
 62
7
 10
-1.46999997E+02
 20
-1.54499939E+02
 11
-1.44999951E+02
 21
-1.54499939E+02
  0
LINE
  8
0
 62
7
 10
-1.25999951E+02
 20
-3.25000046E+02
 11
-1.25999951E+02
 21
-3.49500000E+02
  0
LINE
  8
0
  6
CENTER
 62
2
 10
-3.06138974E+02
 20
-3.49500000E+02
 11
-4.21904935E+02
 21
-3.49500000E+02
  0
LINE
  8
0
  6
CENTER
 62
2
 10
-3.36806150E+02
 20
-3.07500000E+02
 11
-3.05716733E+02
 21
-3.07500000E+02
  0
LINE
  8
0
  6
CENTER
 62
2
 10
-3.63999967E+02
 20
-2.90833679E+02
 11
-3.63999967E+02
 21
-3.49500000E+02
  0
LINE
  8
0
 62
7
 10
-3.98999967E+02
 20
-2.93500000E+02
 11
-3.98999967E+02
 21
-2.94099976E+02
  0
LINE
  8
0
  6
CENTER
 62
2
 10
-4.21963834E+02
 20
-3.07500000E+02
 11
-3.90108914E+02
 21
-3.07500000E+02
  0
LINE
  8
0
 62
7
 10
-4.19999906E+02
 20
-2.98500000E+02
 11
-4.19999906E+02
 21
-3.49500000E+02
  0
LINE
  8
0
 62
7
 10
-4.14999906E+02
 20
-2.93500000E+02
 11
-3.12999936E+02
 21
-2.93500000E+02
  0
LINE
  8
0
 62
7
 10
-3.65249967E+02
 20
-2.98099991E+02
 11
-3.65249967E+02
 21
-3.23597488E+02
  0
LINE
  8
0
 62
7
 10
-4.15399961E+02
 20
-3.48250000E+02
 11
-3.89902463E+02
 21
-3.48250000E+02
  0
LINE
  8
0
 62
7
 10
-4.16399961E+02
 20
-3.24484039E+02
 11
-4.16399961E+02
 21
-3.49500000E+02
  0
LINE
  8
0
 62
7
 10
-3.89016080E+02
 20
-2.97099991E+02
 11
-3.38983945E+02
 21
-2.97099991E+02
  0
LINE
  8
0
 62
7
 10
-3.81431962E+02
 20
-3.30300266E+02
 11
-3.96421621E+02
 21
-3.15310608E+02
  0
LINE
  8
0
 62
7
 10
-3.83199750E+02
 20
-3.32067968E+02
 11
-3.98189409E+02
 21
-3.17078310E+02
  0
LINE
  8
0
 62
7
 10
-4.19399930E+02
 20
-2.98499985E+02
 11
-4.19399930E+02
 21
-3.49500000E+02
  0
LINE
  8
0
 62
7
 10
-4.14999906E+02
 20
-2.94099976E+02
 11
-3.12999936E+02
 21
-2.94099976E+02
  0
LINE
  8
0
 62
7
 10
-3.28999967E+02
 20
-2.93500000E+02
 11
-3.28999967E+02
 21
-2.94099976E+02
  0
LINE
  8
0
 62
7
 10
-3.44800256E+02
 20
-3.32067883E+02
 11
-3.29810584E+02
 21
-3.17078217E+02
  0
LINE
  8
0
 62
7
 10
-3.46568033E+02
 20
-3.30300126E+02
 11
-3.31578372E+02
 21
-3.15310471E+02
  0
LINE
  8
0
 62
7
 10
-1.25999951E+02
 20
-1.93999893E+02
 11
-1.25999951E+02
 21
-1.44999969E+02
  0
LINE
  8
0
 62
7
 10
-1.17999921E+02
 20
-1.34500061E+02
 11
-9.59999820E+01
 21
-1.34500061E+02
  0
LINE
  8
0
 62
7
 10
-1.17999921E+02
 20
-2.04500046E+02
 11
-8.79999362E+01
 21
-2.04500046E+02
  0
LINE
  8
0
  6
CENTER
 62
2
 10
-1.03999967E+02
 20
-1.71605835E+02
 11
-1.03999967E+02
 21
-1.43676727E+02
  0
LINE
  8
0
 62
7
 10
-1.44999967E+02
 20
-3.49500000E+02
 11
-1.44999967E+02
 21
-3.26999985E+02
  0
LINE
  8
0
 62
7
 10
-8.79999820E+01
 20
-1.13499817E+02
 11
-8.79999820E+01
 21
-1.23619611E+02
  0
LINE
  8
0
 62
7
 10
-1.39517386E+02
 20
-1.93527647E+02
 11
-1.25999930E+02
 21
-1.93999687E+02
  0
LINE
  8
0
 62
7
 10
-1.44499921E+02
 20
-1.92500031E+02
 11
-1.39999921E+02
 21
-1.92500031E+02
  0
LINE
  8
0
 62
7
 10
-1.23508622E+02
 20
-2.24880020E+02
 11
-8.79999159E+01
 21
-2.25499827E+02
  0
LINE
  8
0
 62
7
 10
-1.25499921E+02
 20
-1.94500046E+02
 11
-1.23999906E+02
 21
-1.94500046E+02
  0
LINE
  8
0
 62
7
 10
-1.39517408E+02
 20
-1.45471802E+02
 11
-1.25999952E+02
 21
-1.44999762E+02
  0
LINE
  8
0
 62
7
 10
-1.44499921E+02
 20
-1.46500031E+02
 11
-1.39999921E+02
 21
-1.46500031E+02
  0
LINE
  8
0
 62
7
 10
-1.23508632E+02
 20
-1.14119532E+02
 11
-8.79998958E+01
 21
-1.13499725E+02
  0
LINE
  8
0
 62
7
 10
-1.44999951E+02
 20
-1.91999954E+02
 11
-1.44999951E+02
 21
-1.46999939E+02
  0
LINE
  8
0
 62
7
 10
-1.23999967E+02
 20
-2.24380264E+02
 11
-1.23999967E+02
 21
-1.14619720E+02
  0
LINE
  8
0
 62
7
 10
-1.25499921E+02
 20
-1.44500061E+02
 11
-1.23999906E+02
 21
-1.44500061E+02
  0
LINE
  8
0
  6
CENTER
 62
2
 10
-9.02976199E+01
 20
-1.57500031E+02
 11
-1.18094892E+02
 21
-1.57500031E+02
  0
LINE
  8
0
 62
7
 10
-3.62749967E+02
 20
-2.98099991E+02
 11
-3.62749967E+02
 21
-3.23597427E+02
  0
LINE
  8
0
 62
7
 10
-3.07999936E+02
 20
-2.98500000E+02
 11
-3.07999936E+02
 21
-3.49500000E+02
  0
LINE
  8
0
 62
7
 10
-3.12599912E+02
 20
-3.48250000E+02
 11
-3.38097409E+02
 21
-3.48250000E+02
  0
LINE
  8
0
 62
7
 10
-3.11599912E+02
 20
-3.24483841E+02
 11
-3.11599912E+02
 21
-3.49500000E+02
  0
LINE
  8
0
 62
7
 10
-3.08599912E+02
 20
-2.98500000E+02
 11
-3.08599912E+02
 21
-3.49500000E+02
  0
LINE
  8
0
 62
7
 10
-1.19999951E+02
 20
-1.36499939E+02
 11
-1.19999951E+02
 21
-2.02499954E+02
  0
LINE
  8
0
  6
CENTER
 62
2
 10
-6.85818963E+01
 20
-2.11500015E+02
 11
-1.26524457E+02
 21
-2.11500015E+02
  0
LINE
  8
0
 62
7
 10
-9.32676927E+01
 20
-1.87500138E+02
 11
-9.41337395E+01
 21
-1.89000184E+02
  0
LINE
  8
0
 62
7
 10
-9.41339389E+01
 20
-1.89000046E+02
 11
-9.58660098E+01
 21
-1.89000046E+02
  0
LINE
  8
0
 62
7
 10
-9.58658791E+01
 20
-1.89000051E+02
 11
-9.67319488E+01
 21
-1.87499965E+02
  0
LINE
  8
0
 62
7
 10
-9.67317291E+01
 20
-1.87500279E+02
 11
-9.58657204E+01
 21
-1.86000299E+02
  0
LINE
  8
0
 62
7
 10
-9.41339389E+01
 20
-1.86000046E+02
 11
-9.58660098E+01
 21
-1.86000046E+02
  0
LINE
  8
0
 62
7
 10
-9.32678510E+01
 20
-1.87500123E+02
 11
-9.41338749E+01
 21
-1.86000116E+02
  0
LINE
  8
0
  6
CENTER
 62
2
 10
-1.03194532E+02
 20
-1.87500031E+02
 11
-8.69255343E+01
 21
-1.87500031E+02
  0
LINE
  8
0
  6
CENTER
 62
2
 10
-9.49999515E+01
 20
-1.79952271E+02
 11
-9.49999515E+01
 21
-1.94565659E+02
  0
LINE
  8
0
 62
7
 10
-1.58999967E+02
 20
-1.82500000E+02
 11
-1.58999967E+02
 21
-1.56500000E+02
  0
LINE
  8
0
 62
2
 10
-1.98320005E+02
 20
-1.81679993E+02
 11
-1.87499974E+02
 21
-1.81679993E+02
  0
LINE
  8
0
 62
7
 10
-1.99000013E+02
 20
-1.81000039E+02
 11
-1.97500000E+02
 21
-1.82500052E+02
  0
LINE
  8
0
 62
7
 10
-1.97499997E+02
 20
-1.82500000E+02
 11
-1.87499974E+02
 21
-1.82500000E+02
  0
LINE
  8
0
 62
2
 10
-1.98320005E+02
 20
-1.57320038E+02
 11
-1.87499974E+02
 21
-1.57320038E+02
  0
LINE
  8
0
 62
7
 10
-1.98999826E+02
 20
-1.58000195E+02
 11
-1.97499812E+02
 21
-1.56500181E+02
  0
LINE
  8
0
 62
7
 10
-1.97499967E+02
 20
-1.82500000E+02
 11
-1.97499967E+02
 21
-1.56500000E+02
  0
LINE
  8
0
 62
7
 10
-1.97499997E+02
 20
-1.56500031E+02
 11
-1.87499974E+02
 21
-1.56500031E+02
  0
LINE
  8
0
 62
7
 10
-1.61999967E+02
 20
-1.82500000E+02
 11
-1.61999967E+02
 21
-1.56500000E+02
  0
LINE
  8
0
 62
7
 10
-1.98999982E+02
 20
-1.81000061E+02
 11
-1.98999982E+02
 21
-1.58000305E+02
  0
LINE
  8
0
 62
7
 10
-1.58999967E+02
 20
-3.49500000E+02
 11
-1.58999967E+02
 21
-3.36500008E+02
  0
LINE
  8
0
 62
7
 10
-8.79999820E+01
 20
-2.93500000E+02
 11
-8.79999820E+01
 21
-3.49500000E+02
  0
LINE
  8
0
 62
7
 10
-1.23999967E+02
 20
-2.94619720E+02
 11
-1.23999967E+02
 21
-3.49500000E+02
  0
LINE
  8
0
  6
CENTER
 62
2
 10
-2.07798307E+02
 20
-1.69500000E+02
 11
-4.43331762E+01
 21
-1.69500000E+02
  0
LINE
  8
0
  6
CENTER
 62
2
 10
-2.07243344E+02
 20
-3.49500000E+02
 11
-4.43331762E+01
 21
-3.49500000E+02
  0
LINE
  8
0
 62
2
 10
-7.89663496E+01
 20
-2.29486416E+02
 11
-9.36454540E+00
 21
-1.08932555E+02
  0
LINE
  8
0
  6
CENTER
 62
2
 10
-9.59999820E+01
 20
-1.27499969E+02
 11
-1.26524457E+02
 21
-1.27499969E+02
  0
LINE
  8
0
 62
7
 10
-8.79999820E+01
 20
-1.36119611E+02
 11
-8.79999820E+01
 21
-2.25500015E+02
  0
LINE
  8
0
  6
CENTER
 62
2
 10
2.68505455E+02
 20
-3.07500000E+02
 11
3.23500049E+02
 21
-3.07500000E+02
  0
LINE
  8
0
 62
7
 10
3.85508748E+02
 20
-2.94119811E+02
 11
3.50000012E+02
 21
-2.93500004E+02
  0
LINE
  8
0
 62
7
 10
3.82000033E+02
 20
-2.93500000E+02
 11
3.50000018E+02
 21
-2.93500000E+02
  0
LINE
  8
0
  6
CENTER
 62
2
 10
4.69243411E+02
 20
-3.49500000E+02
 11
2.44256743E+02
 21
-3.49500000E+02
  0
LINE
  8
0
 62
7
 10
3.86000033E+02
 20
-2.94619720E+02
 11
3.86000033E+02
 21
-3.49500000E+02
  0
LINE
  8
0
 62
7
 10
4.21000033E+02
 20
-3.49500000E+02
 11
4.21000033E+02
 21
-3.36500008E+02
  0
LINE
  8
0
 62
7
 10
4.07000033E+02
 20
-3.49500000E+02
 11
4.07000033E+02
 21
-3.26999985E+02
  0
LINE
  8
0
 62
7
 10
3.88000018E+02
 20
-3.25000046E+02
 11
3.88000018E+02
 21
-3.49500000E+02
  0
LINE
  8
0
 62
7
 10
4.61000049E+02
 20
-3.49500000E+02
 11
4.61000049E+02
 21
-3.38000305E+02
  0
LINE
  8
0
 62
7
 10
4.24000033E+02
 20
-3.49500000E+02
 11
4.24000033E+02
 21
-3.36500008E+02
  0
LINE
  8
0
 62
7
 10
4.59500094E+02
 20
-3.36500008E+02
 11
4.49500041E+02
 21
-3.36500008E+02
  0
LINE
  8
0
 62
7
 10
4.59500033E+02
 20
-3.49500000E+02
 11
4.59500033E+02
 21
-3.36500008E+02
  0
LINE
  8
0
 62
7
 10
4.60999913E+02
 20
-3.38000187E+02
 11
4.59499895E+02
 21
-3.36500170E+02
  0
LINE
  8
0
 62
2
 10
4.60320102E+02
 20
-3.37320015E+02
 11
4.49500041E+02
 21
-3.37320015E+02
  0
LINE
  8
0
 62
7
 10
3.87500018E+02
 20
-3.24499985E+02
 11
3.86000033E+02
 21
-3.24499985E+02
  0
LINE
  8
0
 62
7
 10
3.82000033E+02
 20
-2.94058548E+02
 11
3.82000033E+02
 21
-2.93500000E+02
  0
LINE
  8
0
 62
7
 10
4.01517538E+02
 20
-3.25472079E+02
 11
3.88000082E+02
 21
-3.25000039E+02
  0
LINE
  8
0
 62
7
 10
4.06500033E+02
 20
-3.26499985E+02
 11
4.02000033E+02
 21
-3.26499985E+02
  0
LINE
  8
0
 62
7
 10
4.17000018E+02
 20
-3.34499962E+02
 11
4.07000033E+02
 21
-3.34499962E+02
  0
LINE
  8
0
  6
CENTER
 62
2
 10
3.66000033E+02
 20
-3.06199966E+02
 11
3.66000033E+02
 21
-2.91236359E+02
  0
LINE
  8
0
 62
7
 10
4.17000018E+02
 20
-3.42016624E+02
 11
4.17000018E+02
 21
-3.34499962E+02
  0
LINE
  8
0
 62
7
 10
4.21000005E+02
 20
-3.36500016E+02
 11
4.16999992E+02
 21
-3.34499971E+02
  0
LINE
  8
0
 62
7
 10
4.11000033E+02
 20
-3.49500000E+02
 11
4.11000033E+02
 21
-3.42016624E+02
  0
LINE
  8
0
 62
7
 10
4.17000018E+02
 20
-3.42016624E+02
 11
4.11000033E+02
 21
-3.42016624E+02
  0
LINE
  8
0
 62
7
 10
4.21000011E+02
 20
-3.49499999E+02
 11
4.16999996E+02
 21
-3.42016631E+02
  0
LINE
  8
0
 62
2
 10
4.11000022E+02
 20
-3.42016634E+02
 11
4.16000025E+02
 21
-3.49500000E+02
  0
LINE
  8
0
 62
2
 10
4.15999997E+02
 20
-3.49500000E+02
 11
4.18777785E+02
 21
-3.45342561E+02
  0
LINE
  8
0
 62
7
 10
4.24000033E+02
 20
-3.37320015E+02
 11
4.21000033E+02
 21
-3.37320015E+02
  0
ARC
  8
0
 62
7
 10
4.01500033E+02
 20
-3.25971725E+02
 40
5.00000000E-01
 50
3.59721787E-05
 51
8.79992642E+01
  0
ARC
  8
0
 62
7
 10
3.87500018E+02
 20
-3.25000000E+02
 40
5.00000000E-01
 50
3.59721787E-05
 51
9.00000179E+01
  0
ARC
  8
0
 62
7
 10
3.85500018E+02
 20
-2.94619720E+02
 40
5.00000000E-01
 50
3.59721787E-05
 51
8.89997505E+01
  0
ARC
  8
0
 62
7
 10
4.06500033E+02
 20
-3.26999985E+02
 40
5.00000000E-01
 50
3.59721787E-05
 51
9.00000179E+01
  0
ARC
  8
0
 62
7
 10
4.24000033E+02
 20
-3.49499985E+02
 40
1.50000248E+01
 50
1.50073400E+02
 51
1.80000058E+02
  0
LINE
  8
0
 62
7
 10
4.02000033E+02
 20
-3.49500000E+02
 11
4.02000033E+02
 21
-3.25936752E+02
  0
ARC
  8
0
 62
4
 10
4.40299086E+02
 20
-3.33911545E+02
 40
9.20095253E+00
 50
3.25615743E+02
 51
3.43842738E+01
  0
ARC
  8
0
 62
4
 10
4.15107776E+02
 20
-3.49500000E+02
 40
3.43922653E+01
 50
0.00000000E+00
 51
1.75879507E+01
  0
ARC
  8
0
 62
4
 10
4.44700995E+02
 20
-3.33911545E+02
 40
9.20095253E+00
 50
1.45615762E+02
 51
2.14384293E+02
  0
ARC
  8
0
 62
4
 10
4.69892306E+02
 20
-3.49500000E+02
 40
3.43922653E+01
 50
1.62412085E+02
 51
1.80000000E+02
  0
LINE
  8
0
 62
4
 10
4.35500041E+02
 20
-3.31500000E+02
 11
4.35500041E+02
 21
-3.49500000E+02
  0
LINE
  8
0
 62
4
 10
4.35500040E+02
 20
-3.31499988E+02
 11
4.37107721E+02
 21
-3.28715366E+02
  0
LINE
  8
0
 62
4
 10
4.49500050E+02
 20
-3.31500001E+02
 11
4.47892371E+02
 21
-3.28715392E+02
  0
LINE
  8
0
 62
4
 10
4.47892344E+02
 20
-3.28715393E+02
 11
4.37107737E+02
 21
-3.28715393E+02
  0
LINE
  8
0
 62
4
 10
4.47892344E+02
 20
-3.39107697E+02
 11
4.37107737E+02
 21
-3.39107697E+02
  0
LINE
  8
0
 62
4
 10
4.49500041E+02
 20
-3.31500000E+02
 11
4.49500041E+02
 21
-3.49500000E+02
  0
LINE
  8
0
 62
7
 10
4.35500041E+02
 20
-3.36500008E+02
 11
4.24000033E+02
 21
-3.36500008E+02
  0
LINE
  8
0
 62
2
 10
4.35500041E+02
 20
-3.37320015E+02
 11
4.24000033E+02
 21
-3.37320015E+02
  0
LINE
  8
0
 62
7
 10
3.50000049E+02
 20
-2.93500000E+02
 11
3.50000049E+02
 21
-3.49500000E+02
  0
LINE
  8
0
 62
7
 10
2.71103548E+02
 20
-3.02999969E+02
 11
3.23500049E+02
 21
-3.02999969E+02
  0
LINE
  8
0
 62
7
 10
2.65907387E+02
 20
-3.11999985E+02
 11
3.23500049E+02
 21
-3.11999985E+02
  0
LINE
  8
0
 62
7
 10
3.50000049E+02
 20
-2.95999985E+02
 11
3.43000049E+02
 21
-2.95999985E+02
  0
LINE
  8
0
 62
2
 10
2.39858304E+02
 20
-3.57118320E+02
 11
2.81373392E+02
 21
-2.85212079E+02
  0
LINE
  8
0
 62
7
 10
3.04000049E+02
 20
-2.95999985E+02
 11
2.75144991E+02
 21
-2.95999985E+02
  0
LINE
  8
0
 62
7
 10
3.38500049E+02
 20
-3.11999985E+02
 11
3.50000049E+02
 21
-3.11999985E+02
  0
LINE
  8
0
 62
7
 10
3.38500049E+02
 20
-3.02999969E+02
 11
3.50000049E+02
 21
-3.02999969E+02
  0
LINE
  8
0
  6
CENTER
 62
2
 10
3.38500049E+02
 20
-3.07500000E+02
 11
3.88524524E+02
 21
-3.07500000E+02
  0
LINE
  8
0
  6
CENTER
 62
2
 10
1.58000003E+02
 20
-2.91019226E+02
 11
1.58000003E+02
 21
-3.21926193E+02
  0
LINE
  8
0
  6
CENTER
 62
2
 10
7.40000028E+01
 20
-2.90607269E+02
 11
7.40000028E+01
 21
-3.22357803E+02
  0
ARC
  8
0
 62
7
 10
1.66999972E+02
 20
-2.98500000E+02
 40
5.00000000E+00
 50
3.59721787E-05
 51
9.00000179E+01
  0
ARC
  8
0
 62
7
 10
1.66999972E+02
 20
-2.98499985E+02
 40
4.40000010E+00
 50
3.59721787E-05
 51
9.00000179E+01
  0
ARC
  8
0
 62
7
 10
6.50000028E+01
 20
-2.98500000E+02
 40
5.00000000E+00
 50
9.00000179E+01
 51
1.80000000E+02
  0
ARC
  8
0
 62
7
 10
6.50000028E+01
 20
-2.98500000E+02
 40
4.40000010E+00
 50
9.00000179E+01
 51
1.80000000E+02
  0
LINE
  8
0
  6
CENTER
 62
2
 10
1.28000003E+02
 20
-3.06199997E+02
 11
1.28000003E+02
 21
-2.91236389E+02
  0
LINE
  8
0
  6
CENTER
 62
2
 10
1.16000033E+02
 20
-2.90833679E+02
 11
1.16000033E+02
 21
-3.49500000E+02
  0
LINE
  8
0
 62
7
 10
6.05999783E+01
 20
-2.98500000E+02
 11
6.05999783E+01
 21
-3.49500000E+02
  0
LINE
  8
0
 62
7
 10
6.35999783E+01
 20
-3.24483841E+02
 11
6.35999783E+01
 21
-3.49500000E+02
  0
LINE
  8
0
 62
7
 10
6.45999783E+01
 20
-3.48250000E+02
 11
9.00974759E+01
 21
-3.48250000E+02
  0
LINE
  8
0
 62
7
 10
6.00000028E+01
 20
-2.98500000E+02
 11
6.00000028E+01
 21
-3.49500000E+02
  0
LINE
  8
0
 62
7
 10
1.14750033E+02
 20
-2.98099991E+02
 11
1.14750033E+02
 21
-3.23597427E+02
  0
LINE
  8
0
 62
7
 10
9.85681000E+01
 20
-3.30300126E+02
 11
8.35784383E+01
 21
-3.15310471E+02
  0
LINE
  8
0
 62
7
 10
9.68003226E+01
 20
-3.32067883E+02
 11
8.18106501E+01
 21
-3.17078217E+02
  0
LINE
  8
0
 62
7
 10
1.71399997E+02
 20
-2.98499985E+02
 11
1.71399997E+02
 21
-3.49500000E+02
  0
LINE
  8
0
 62
7
 10
1.35199817E+02
 20
-3.32067968E+02
 11
1.50189476E+02
 21
-3.17078310E+02
  0
LINE
  8
0
 62
7
 10
1.33432028E+02
 20
-3.30300266E+02
 11
1.48421687E+02
 21
-3.15310608E+02
  0
LINE
  8
0
 62
7
 10
1.41016147E+02
 20
-2.97099991E+02
 11
9.09840116E+01
 21
-2.97099991E+02
  0
LINE
  8
0
 62
7
 10
1.68400027E+02
 20
-3.24484039E+02
 11
1.68400027E+02
 21
-3.49500000E+02
  0
LINE
  8
0
 62
7
 10
1.67400027E+02
 20
-3.48250000E+02
 11
1.41902530E+02
 21
-3.48250000E+02
  0
LINE
  8
0
 62
7
 10
1.17250033E+02
 20
-2.98099991E+02
 11
1.17250033E+02
 21
-3.23597488E+02
  0
LINE
  8
0
 62
7
 10
1.71999972E+02
 20
-2.98500000E+02
 11
1.71999972E+02
 21
-3.49500000E+02
  0
LINE
  8
0
  6
CENTER
 62
2
 10
1.73963900E+02
 20
-3.07500000E+02
 11
1.42108981E+02
 21
-3.07500000E+02
  0
LINE
  8
0
  6
CENTER
 62
2
 10
8.88062161E+01
 20
-3.07500000E+02
 11
5.77167996E+01
 21
-3.07500000E+02
  0
LINE
  8
0
  6
CENTER
 62
2
 10
5.81390408E+01
 20
-3.49500000E+02
 11
1.73905002E+02
 21
-3.49500000E+02
  0
CIRCLE
  8
0
 62
7
 10
7.40000028E+01
 20
-3.07500000E+02
 40
8.00000000E+00
  0
CIRCLE
  8
0
 62
7
 10
7.40000028E+01
 20
-3.07500000E+02
 40
8.69999981E+00
  0
ARC
  8
0
 62
7
 10
8.11034879E+01
 20
-3.17785461E+02
 40
1.00000000E+00
 50
4.50000407E+01
 51
1.24630375E+02
  0
ARC
  8
0
 62
7
 10
8.42854337E+01
 20
-3.14603439E+02
 40
1.00000000E+00
 50
1.45369616E+02
 51
2.25000005E+02
  0
ARC
  8
0
 62
7
 10
9.60931424E+01
 20
-3.32775108E+02
 40
1.00000000E+00
 50
3.19964773E+02
 51
4.50000407E+01
  0
ARC
  8
0
 62
7
 10
9.92751798E+01
 20
-3.29593094E+02
 40
1.00000000E+00
 50
2.25000012E+02
 51
3.10035573E+02
  0
ARC
  8
0
 62
7
 10
1.13749972E+02
 20
-2.98099991E+02
 40
1.00000000E+00
 50
3.59721787E-05
 51
9.00000179E+01
  0
ARC
  8
0
 62
7
 10
1.13749972E+02
 20
-3.23597427E+02
 40
1.00000000E+00
 50
2.74964208E+02
 51
3.59721787E-05
  0
ARC
  8
0
 62
7
 10
9.00974759E+01
 20
-3.47250008E+02
 40
1.00000000E+00
 50
2.70000044E+02
 51
3.55035851E+02
  0
ARC
  8
0
 62
7
 10
6.45999783E+01
 20
-3.47250008E+02
 40
1.00000000E+00
 50
1.80000000E+02
 51
2.70000037E+02
  0
ARC
  8
0
 62
7
 10
6.45999783E+01
 20
-3.24483841E+02
 40
1.00000000E+00
 50
8.54104450E+01
 51
1.80000000E+02
  0
ARC
  8
0
 62
7
 10
9.09840116E+01
 20
-2.98099991E+02
 40
1.00000000E+00
 50
9.00000179E+01
 51
1.84587795E+02
  0
ARC
  8
0
 62
7
 10
8.58418302E+01
 20
-3.03497482E+02
 40
1.00000000E+00
 50
8.81864524E+01
 51
1.98675197E+02
  0
ARC
  8
0
 62
7
 10
6.99976224E+01
 20
-3.19341904E+02
 40
1.00000000E+00
 50
7.13256114E+01
 51
1.81810064E+02
  0
ARC
  8
0
 62
7
 10
7.40000028E+01
 20
-3.07500000E+02
 40
1.15000000E+01
 50
2.51325579E+02
 51
1.86749753E+01
  0
ARC
  8
0
 62
7
 10
8.60000638E+01
 20
-2.98500000E+02
 40
4.00000000E+00
 50
2.68187376E+02
 51
4.58865268E+00
  0
ARC
  8
0
 62
7
 10
6.50001248E+01
 20
-3.19499893E+02
 40
4.00000000E+00
 50
2.65409593E+02
 51
1.81044591E+00
  0
CIRCLE
  8
0
 62
7
 10
1.58000003E+02
 20
-3.07500015E+02
 40
8.00000000E+00
  0
CIRCLE
  8
0
 62
7
 10
1.58000003E+02
 20
-3.07500015E+02
 40
8.69999981E+00
  0
ARC
  8
0
 62
7
 10
1.47714511E+02
 20
-3.14603500E+02
 40
1.00000000E+00
 50
3.15000045E+02
 51
3.46303655E+01
  0
ARC
  8
0
 62
7
 10
1.50896579E+02
 20
-3.17785492E+02
 40
1.00000000E+00
 50
5.53696202E+01
 51
1.35000009E+02
  0
ARC
  8
0
 62
7
 10
1.67400027E+02
 20
-3.47250031E+02
 40
1.00000000E+00
 50
2.70000054E+02
 51
3.59721787E-05
  0
ARC
  8
0
 62
7
 10
1.18249972E+02
 20
-2.98099991E+02
 40
1.00000000E+00
 50
9.00000042E+01
 51
1.80000041E+02
  0
ARC
  8
0
 62
7
 10
1.41902530E+02
 20
-3.47250008E+02
 40
1.00000000E+00
 50
1.84964195E+02
 51
2.70000037E+02
  0
ARC
  8
0
 62
7
 10
1.35906955E+02
 20
-3.32775139E+02
 40
1.00000000E+00
 50
1.35000009E+02
 51
2.20035578E+02
  0
ARC
  8
0
 62
7
 10
1.32724887E+02
 20
-3.29593124E+02
 40
1.00000000E+00
 50
2.29964747E+02
 51
3.15000028E+02
  0
ARC
  8
0
 62
7
 10
1.18249972E+02
 20
-3.23597488E+02
 40
1.00000000E+00
 50
1.80000041E+02
 51
2.65035855E+02
  0
ARC
  8
0
 62
7
 10
1.58000003E+02
 20
-3.07500000E+02
 40
1.15000000E+01
 50
1.61325558E+02
 51
2.88675085E+02
  0
ARC
  8
0
 62
7
 10
1.66999972E+02
 20
-3.19500061E+02
 40
4.00000000E+00
 50
1.78186905E+02
 51
2.74588688E+02
  0
ARC
  8
0
 62
7
 10
1.46000125E+02
 20
-2.98500137E+02
 40
4.00000000E+00
 50
1.75409590E+02
 51
2.71810488E+02
  0
ARC
  8
0
 62
7
 10
1.67400027E+02
 20
-3.24484039E+02
 40
1.00000000E+00
 50
3.59721787E-05
 51
9.45895365E+01
  0
ARC
  8
0
 62
7
 10
1.41016208E+02
 20
-2.98099976E+02
 40
1.00000000E+00
 50
3.55410354E+02
 51
9.00000179E+01
  0
ARC
  8
0
 62
7
 10
1.62002475E+02
 20
-3.19341858E+02
 40
1.00000000E+00
 50
3.58187399E+02
 51
1.08674650E+02
  0
ARC
  8
0
 62
7
 10
1.46158114E+02
 20
-3.03497620E+02
 40
1.00000000E+00
 50
3.41325670E+02
 51
9.18100386E+01
  0
ARC
  8
0
 62
7
 10
1.15999911E+02
 20
-3.49499939E+02
 40
2.50000153E+01
 50
3.59999860E+02
 51
1.80000000E+02
  0
ARC
  8
0
 62
7
 10
1.15999911E+02
 20
-3.49499939E+02
 40
2.35000153E+01
 50
3.59999851E+02
 51
1.80000000E+02
  0
ARC
  8
0
 62
7
 10
1.16000033E+02
 20
-3.49500000E+02
 40
2.40000000E+01
 50
0.00000000E+00
 51
1.80000000E+02
  0
CIRCLE
  8
0
 62
2
 10
1.58000003E+02
 20
-3.07500000E+02
 40
5.00000000E+00
  0
CIRCLE
  8
0
 62
2
 10
7.40000028E+01
 20
-3.07500000E+02
 40
5.00000000E+00
  0
CIRCLE
  8
0
 62
7
 10
1.58000003E+02
 20
-3.07500000E+02
 40
4.17999983E+00
  0
CIRCLE
  8
0
 62
7
 10
7.40000028E+01
 20
-3.07500000E+02
 40
4.17999983E+00
  0
ARC
  8
0
 62
7
 10
1.16000033E+02
 20
-3.49500000E+02
 40
1.29999914E+01
 50
0.00000000E+00
 51
1.80000000E+02
  0
ARC
  8
0
 62
2
 10
1.16000033E+02
 20
-3.49500000E+02
 40
1.21799841E+01
 50
0.00000000E+00
 51
1.80000000E+02
  0
ARC
  8
0
 62
7
 10
1.16000033E+02
 20
-3.49500000E+02
 40
1.14999914E+01
 50
0.00000000E+00
 51
1.80000000E+02
  0
ARC
  8
0
 62
4
 10
1.16000033E+02
 20
-3.49500000E+02
 40
1.80000000E+01
 50
0.00000000E+00
 51
1.80000000E+02
  0
LINE
  8
0
 62
4
 10
1.34000041E+02
 20
-3.39107697E+02
 11
1.34000041E+02
 21
-3.49500000E+02
  0
LINE
  8
0
 62
4
 10
9.80000333E+01
 20
-3.39107697E+02
 11
9.80000333E+01
 21
-3.49500000E+02
  0
LINE
  8
0
 62
4
 10
1.34000098E+02
 20
-3.39107731E+02
 11
1.16000096E+02
 21
-3.28715427E+02
  0
LINE
  8
0
 62
4
 10
1.16000176E+02
 20
-3.28715392E+02
 11
9.80001706E+01
 21
-3.39107698E+02
  0
LINE
  8
0
 62
7
 10
1.66999972E+02
 20
-2.93500000E+02
 11
6.50000028E+01
 21
-2.93500000E+02
  0
LINE
  8
0
 62
7
 10
1.66999972E+02
 20
-2.94099976E+02
 11
6.50000028E+01
 21
-2.94099976E+02
  0
LINE
  8
0
 62
7
 10
8.10000333E+01
 20
-2.93500000E+02
 11
8.10000333E+01
 21
-2.94099976E+02
  0
LINE
  8
0
 62
7
 10
1.51000033E+02
 20
-2.93500000E+02
 11
1.51000033E+02
 21
-2.94099976E+02
  0
LINE
  8
0
 62
2
 10
-4.75111809E+01
 20
-3.55004466E+02
 11
-9.09231883E+00
 21
-2.88461045E+02
  0
LINE
  8
0
 62
7
 10
5.69500000E+02
 20
4.00500000E+02
 11
5.69500000E+02
 21
-4.00500000E+02
  0
LINE
  8
0
 62
7
 10
-5.69500000E+02
 20
4.00500000E+02
 11
5.69500000E+02
 21
4.00500000E+02
  0
LINE
  8
0
 62
7
 10
-5.69500000E+02
 20
-4.00500000E+02
 11
5.69500000E+02
 21
-4.00500000E+02
  0
LINE
  8
0
 62
7
 10
-5.69500000E+02
 20
4.00500000E+02
 11
-5.69500000E+02
 21
-4.00500000E+02
  0
LINE
  8
0
 62
7
 10
-5.69500000E+02
 20
3.70500000E+02
 11
-3.39500000E+02
 21
3.70500000E+02
  0
LINE
  8
0
 62
7
 10
3.39500000E+02
 20
3.70500000E+02
 11
5.69500000E+02
 21
3.70500000E+02
  0
LINE
  8
0
 62
7
 10
3.39500000E+02
 20
-3.70500000E+02
 11
5.69500000E+02
 21
-3.70500000E+02
  0
LINE
  8
0
 62
7
 10
3.39500000E+02
 20
-3.70500000E+02
 11
3.39500000E+02
 21
-4.00500000E+02
  0
LINE
  8
0
 62
7
 10
3.39500000E+02
 20
4.00500000E+02
 11
3.39500000E+02
 21
3.70500000E+02
  0
LINE
  8
0
 62
7
 10
-3.39500000E+02
 20
4.00500000E+02
 11
-3.39500000E+02
 21
3.70500000E+02
  0
TEXT
  8
0
 62
7
 10
-5.42179687E+02
 20
3.34250000E+02
 40
1.25000000E+01
  1
MODEL:DDAD100*75
 41
1.00000015E+00
  7
MONOTXT
  0
TEXT
  8
0
 62
7
 10
4.06285149E+02
 20
3.79250000E+02
 40
1.25000000E+01
  1
Ver. 1.0
 41
1.08108125E+00
  7
MONOTXT
  0
TEXT
  8
0
 62
7
 10
3.45070624E+02
 20
-3.94500000E+02
 40
1.80000000E+01
  1
KOGANEI CORP.
 41
1.04838710E+00
  7
MONOTXT
  0
TEXT
  8
0
 62
7
 10
-5.58964859E+02
 20
3.79250000E+02
 40
1.25000000E+01
  1
NEW DYNA CYLINDER
 41
1.07594953E+00
  7
MONOTXT
  0
ENDSEC
  0
EOF
