  0
SECTION
  2
HEADER
  9
$ACADVER
  1
AC1003
  9
$EXTMIN
 10
-1.94250000E+02
 20
-1.33500000E+02
  9
$EXTMAX
 10
1.94800003E+02
 20
1.32600006E+02
  9
$LIMMIN
 10
-1.94251000E+02
 20
-1.33501000E+02
  9
$LIMMAX
 10
1.94801003E+02
 20
1.32601006E+02
  9
$SNAPUNIT
 10
1
 20
1
  9
$SNAPBASE
 10
0
 20
0
  9
$GRIDMODE
 70
0
  9
$GRIDUNIT
 10
0
 20
0
  9
$LTSCALE
 40
6.48416672E+00
  9
$TEXTSIZE
 40
3.2
  9
$DIMTAD
 70
0
  9
$LUNITS
 70
2
  9
$LUPREC
 70
4
  9
$FILLETRAD
 40
0
  9
$AUNITS
 70
0
  9
$AUPREC
 70
0
  0
ENDSEC
  0
SECTION
  2
TABLES
  0
TABLE
  2
LTYPE
 70
2
  0
LTYPE
  2
CONTINUOUS
 70
64
  3
Solid-Line
 72
65
 73
0
 40
0
  0
LTYPE
  2
DASHED
 70
64
  3
DASHED
 72
65
 73
2
 40
.75
 49
.5
 49
-.25
  0
LTYPE
  2
HIDDEN
 70
64
  3
HIDDEN
 72
65
 73
2
 40
.375
 49
.25
 49
-.125
  0
LTYPE
  2
CENTER
 70
64
  3
CENTER
 72
65
 73
4
 40
2
 49
1.25
 49
-.25
 49
.25
 49
-.25
  0
LTYPE
  2
PHANTOM
 70
64
  3
PHANTOM
 72
65
 73
6
 40
2.5
 49
1.25
 49
-.25
 49
.25
 49
-.25
 49
.25
 49
-.25
  0
ENDTAB
  0
TABLE
  2
LAYER
 70
1
  0
LAYER
  2
1
 70
0
 62
7
  6
CONTINUOUS
 0
ENDTAB
  0
TABLE
  2
STYLE
 70
2
  0
STYLE
  2
MONOTXT
 70
0
 40
0
 41
1
 50
0
 71
0
 42
.2
  3
monotxt
  0
STYLE
  2
BIGFONT
 70
0
 40
0
 41
1
 50
0
 71
0
 42
.2
  3
txt
  4
bigfont
  0
ENDTAB
  0
ENDSEC
  0
SECTION
  2
ENTITIES
  0
ARC
  8
0
 62
4
 10
2.75439785E+01
 20
-2.91067373E+01
 40
1.00000000E+00
 50
3.60000000E+02
 51
9.00000094E+01
  0
ARC
  8
0
 62
4
 10
2.75439785E+01
 20
-5.31067373E+01
 40
1.00000000E+00
 50
2.69999998E+02
 51
2.50447807E-06
  0
ARC
  8
0
 62
4
 10
4.50439785E+01
 20
-2.01067373E+01
 40
1.00000000E+00
 50
1.79999991E+02
 51
2.70000001E+02
  0
ARC
  8
0
 62
4
 10
4.50439785E+01
 20
-6.21067373E+01
 40
1.00000000E+00
 50
8.99999956E+01
 51
1.79999991E+02
  0
LINE
  8
0
 62
4
 10
1.09396630E+00
 20
-1.25567343E+01
 11
1.09396630E+00
 21
-9.65674035E+00
  0
LINE
  8
0
 62
4
 10
3.99399071E+00
 20
-1.25567343E+01
 11
3.99399071E+00
 21
-9.65674035E+00
  0
LINE
  8
0
 62
4
 10
2.54397851E+00
 20
-1.25567343E+01
 11
2.54397851E+00
 21
-9.65674035E+00
  0
LINE
  8
0
 62
4
 10
5.44397240E+00
 20
-1.25567343E+01
 11
5.44397240E+00
 21
-9.65674035E+00
  0
LINE
  8
0
 62
4
 10
-3.56015391E-01
 20
-1.25567343E+01
 11
5.44397240E+00
 21
-1.25567343E+01
  0
LINE
  8
0
 62
4
 10
-3.56015391E-01
 20
-1.25567343E+01
 11
-3.56015391E-01
 21
-9.65674035E+00
  0
LINE
  8
0
 62
4
 10
-3.56015391E-01
 20
-9.65674035E+00
 11
5.44397240E+00
 21
-9.65674035E+00
  0
LINE
  8
0
 62
4
 10
1.09396630E+00
 20
-7.25567343E+01
 11
1.09396630E+00
 21
-6.96567404E+01
  0
LINE
  8
0
 62
4
 10
3.99399071E+00
 20
-7.25567343E+01
 11
3.99399071E+00
 21
-6.96567404E+01
  0
LINE
  8
0
 62
4
 10
2.54397851E+00
 20
-7.25567343E+01
 11
2.54397851E+00
 21
-6.96567404E+01
  0
LINE
  8
0
 62
4
 10
5.44397240E+00
 20
-7.25567343E+01
 11
5.44397240E+00
 21
-6.96567404E+01
  0
LINE
  8
0
 62
4
 10
-3.56015391E-01
 20
-7.25567343E+01
 11
5.44397240E+00
 21
-7.25567343E+01
  0
LINE
  8
0
 62
4
 10
-3.56015391E-01
 20
-7.25567343E+01
 11
-3.56015391E-01
 21
-6.96567404E+01
  0
LINE
  8
0
 62
4
 10
-3.56015391E-01
 20
-6.96567404E+01
 11
5.44397240E+00
 21
-6.96567404E+01
  0
LINE
  8
0
  6
CENTER
 62
6
 10
-3.05604927E+01
 20
-4.11067373E+01
 11
8.23636101E+01
 21
-4.11067373E+01
  0
LINE
  8
0
 62
4
 10
1.25439785E+01
 20
-6.91067373E+01
 11
1.25439785E+01
 21
-7.41067373E+01
  0
LINE
  8
0
 62
4
 10
-7.45601387E+00
 20
-6.91067373E+01
 11
-7.45601387E+00
 21
-7.41067373E+01
  0
LINE
  8
0
 62
4
 10
-7.45601387E+00
 20
-2.71067373E+01
 11
-7.45601387E+00
 21
-5.51067373E+01
  0
LINE
  8
0
 62
4
 10
1.25439785E+01
 20
-2.71067373E+01
 11
1.25439785E+01
 21
-5.51067373E+01
  0
LINE
  8
0
  6
CENTER
 62
6
 10
2.54397851E+00
 20
-4.39957635E+00
 11
2.54397851E+00
 21
-7.67734243E+01
  0
LINE
  8
0
 62
4
 10
-7.45601387E+00
 20
-8.10673730E+00
 11
1.25439785E+01
 21
-8.10673730E+00
  0
LINE
  8
0
 62
4
 10
1.15439794E+01
 20
-7.10673112E+00
 11
1.25439805E+01
 21
-8.10673226E+00
  0
LINE
  8
0
 62
4
 10
-7.45601387E+00
 20
-8.10673730E+00
 11
-7.45601387E+00
 21
-1.31067373E+01
  0
LINE
  8
0
 62
4
 10
-6.45601387E+00
 20
-7.10673730E+00
 11
1.15439785E+01
 21
-7.10673730E+00
  0
LINE
  8
0
 62
4
 10
-7.45601387E+00
 20
-7.41067373E+01
 11
1.25439785E+01
 21
-7.41067373E+01
  0
LINE
  8
0
 62
4
 10
-7.45602636E+00
 20
-7.41067370E+01
 11
-6.45602521E+00
 21
-7.51067381E+01
  0
LINE
  8
0
 62
4
 10
1.15439788E+01
 20
-7.51067316E+01
 11
1.25439745E+01
 21
-7.41067359E+01
  0
LINE
  8
0
 62
4
 10
-6.45601965E+00
 20
-7.10673555E+00
 11
-7.45602071E+00
 21
-8.10673669E+00
  0
LINE
  8
0
 62
4
 10
1.25439785E+01
 20
-8.10673730E+00
 11
1.25439785E+01
 21
-1.31067373E+01
  0
LINE
  8
0
 62
4
 10
-6.45601387E+00
 20
-7.51067373E+01
 11
1.15439785E+01
 21
-7.51067373E+01
  0
LINE
  8
0
 62
4
 10
-7.45601778E+00
 20
-1.36067401E+01
 11
-7.95601835E+00
 21
-1.31067395E+01
  0
LINE
  8
0
 62
4
 10
2.75439785E+01
 20
-5.41067373E+01
 11
2.75439785E+01
 21
-5.51067373E+01
  0
LINE
  8
0
 62
4
 10
7.65439803E+01
 20
-6.11067355E+01
 11
7.75439814E+01
 21
-6.01067344E+01
  0
LINE
  8
0
 62
4
 10
7.65439804E+01
 20
-2.11067331E+01
 11
7.75439815E+01
 21
-2.21067343E+01
  0
LINE
  8
0
 62
4
 10
7.75439766E+01
 20
-2.21067373E+01
 11
7.75439766E+01
 21
-6.01067373E+01
  0
LINE
  8
0
 62
4
 10
-1.74560310E+01
 20
-6.91067373E+01
 11
4.40439785E+01
 21
-6.91067373E+01
  0
LINE
  8
0
 62
4
 10
-1.74560310E+01
 20
-1.31067373E+01
 11
4.40439785E+01
 21
-1.31067373E+01
  0
LINE
  8
0
 62
4
 10
-1.74560310E+01
 20
-5.51067373E+01
 11
2.75439785E+01
 21
-5.51067373E+01
  0
LINE
  8
0
 62
4
 10
-1.74560310E+01
 20
-2.71067373E+01
 11
2.75439785E+01
 21
-2.71067373E+01
  0
LINE
  8
0
 62
4
 10
-1.74560310E+01
 20
-1.31067373E+01
 11
-1.74560310E+01
 21
-2.71067373E+01
  0
LINE
  8
0
 62
4
 10
-1.74560310E+01
 20
-5.51067373E+01
 11
-1.74560310E+01
 21
-6.91067373E+01
  0
LINE
  8
0
 62
4
 10
2.75439785E+01
 20
-2.71067373E+01
 11
2.75439785E+01
 21
-2.81067373E+01
  0
LINE
  8
0
 62
4
 10
4.40439785E+01
 20
-4.71177160E+01
 11
4.40439785E+01
 21
-6.91067373E+01
  0
LINE
  8
0
 62
4
 10
4.50439785E+01
 20
-2.11067373E+01
 11
7.65439766E+01
 21
-2.11067373E+01
  0
LINE
  8
0
 62
4
 10
4.40439785E+01
 20
-1.31067373E+01
 11
4.40439785E+01
 21
-3.57252599E+01
  0
LINE
  8
0
 62
4
 10
4.50439785E+01
 20
-6.11067373E+01
 11
7.65439766E+01
 21
-6.11067373E+01
  0
LINE
  8
0
 62
4
 10
2.85439785E+01
 20
-2.91067373E+01
 11
2.85439785E+01
 21
-5.31067373E+01
  0
LINE
  8
0
 62
4
 10
-1.26608787E+02
 20
-6.96567251E+01
 11
-1.26608787E+02
 21
-7.25567495E+01
  0
LINE
  8
0
 62
4
 10
-9.20088112E+01
 20
-6.96567251E+01
 11
-9.20088112E+01
 21
-7.25567495E+01
  0
LINE
  8
0
 62
4
 10
-1.00396827E+02
 20
-7.25567495E+01
 11
-9.20088112E+01
 21
-7.25567495E+01
  0
LINE
  8
0
 62
4
 10
-1.00396827E+02
 20
-6.96567251E+01
 11
-9.20088112E+01
 21
-6.96567251E+01
  0
LINE
  8
0
 62
4
 10
-1.26608787E+02
 20
-7.25567495E+01
 11
-1.20291145E+02
 21
-7.25567495E+01
  0
LINE
  8
0
 62
4
 10
-1.26608787E+02
 20
-6.96567251E+01
 11
-1.20291145E+02
 21
-6.96567251E+01
  0
LINE
  8
0
 62
4
 10
-1.26608787E+02
 20
-9.65672512E+00
 11
-1.26608787E+02
 21
-1.25567495E+01
  0
LINE
  8
0
 62
4
 10
-9.20088112E+01
 20
-9.65672512E+00
 11
-9.20088112E+01
 21
-1.25567495E+01
  0
LINE
  8
0
 62
4
 10
-1.00396827E+02
 20
-1.25567495E+01
 11
-9.20088112E+01
 21
-1.25567495E+01
  0
LINE
  8
0
 62
4
 10
-1.00396827E+02
 20
-9.65672512E+00
 11
-9.20088112E+01
 21
-9.65672512E+00
  0
LINE
  8
0
 62
4
 10
-1.26608787E+02
 20
-1.25567495E+01
 11
-1.20291145E+02
 21
-1.25567495E+01
  0
LINE
  8
0
 62
4
 10
-1.26608787E+02
 20
-9.65672512E+00
 11
-1.20291145E+02
 21
-9.65672512E+00
  0
LINE
  8
0
 62
4
 10
-1.00291145E+02
 20
-5.41067373E+01
 11
-9.02911446E+01
 21
-5.41067373E+01
  0
LINE
  8
0
 62
4
 10
-1.00291145E+02
 20
-2.81067373E+01
 11
-9.02911446E+01
 21
-2.81067373E+01
  0
LINE
  8
0
 62
4
 10
-1.30291145E+02
 20
-2.81067373E+01
 11
-1.20291145E+02
 21
-2.81067373E+01
  0
LINE
  8
0
 62
4
 10
-1.20291145E+02
 20
-6.91067373E+01
 11
-1.20291145E+02
 21
-7.41067373E+01
  0
LINE
  8
0
 62
4
 10
-1.20291145E+02
 20
-2.71067373E+01
 11
-1.20291145E+02
 21
-5.51067373E+01
  0
LINE
  8
0
 62
4
 10
-1.00291145E+02
 20
-6.91067373E+01
 11
-1.00291145E+02
 21
-7.41067373E+01
  0
LINE
  8
0
 62
4
 10
-1.00291145E+02
 20
-2.71067373E+01
 11
-1.00291145E+02
 21
-5.51067373E+01
  0
LINE
  8
0
  6
CENTER
 62
6
 10
-1.10291145E+02
 20
-4.39957637E+00
 11
-1.10291145E+02
 21
-7.67734205E+01
  0
LINE
  8
0
 62
4
 10
-1.20291145E+02
 20
-8.10673732E+00
 11
-1.00291145E+02
 21
-8.10673732E+00
  0
LINE
  8
0
 62
4
 10
-1.01291152E+02
 20
-7.10672781E+00
 11
-1.00291151E+02
 21
-8.10672896E+00
  0
LINE
  8
0
 62
4
 10
-1.20291145E+02
 20
-8.10673732E+00
 11
-1.20291145E+02
 21
-1.31067373E+01
  0
LINE
  8
0
 62
4
 10
-1.19291145E+02
 20
-7.10673732E+00
 11
-1.01291145E+02
 21
-7.10673732E+00
  0
LINE
  8
0
 62
4
 10
-1.20291145E+02
 20
-7.41067373E+01
 11
-1.00291145E+02
 21
-7.41067373E+01
  0
LINE
  8
0
 62
4
 10
-1.20291156E+02
 20
-7.41067465E+01
 11
-1.19291155E+02
 21
-7.51067475E+01
  0
LINE
  8
0
 62
4
 10
-1.01291143E+02
 20
-7.51067333E+01
 11
-1.00291153E+02
 21
-7.41067429E+01
  0
LINE
  8
0
 62
4
 10
-1.19291155E+02
 20
-7.10673451E+00
 11
-1.20291156E+02
 21
-8.10673565E+00
  0
LINE
  8
0
 62
4
 10
-1.00291145E+02
 20
-8.10673732E+00
 11
-1.00291145E+02
 21
-1.31067373E+01
  0
LINE
  8
0
 62
4
 10
-1.19291145E+02
 20
-7.51067373E+01
 11
-1.01291145E+02
 21
-7.51067373E+01
  0
LINE
  8
0
 62
4
 10
-1.30291145E+02
 20
-5.51067373E+01
 11
-9.02911446E+01
 21
-5.51067373E+01
  0
LINE
  8
0
 62
4
 10
-1.30291145E+02
 20
-2.71067373E+01
 11
-9.02911446E+01
 21
-2.71067373E+01
  0
LINE
  8
0
 62
4
 10
-1.30291145E+02
 20
-5.41067373E+01
 11
-1.20291145E+02
 21
-5.41067373E+01
  0
LINE
  8
0
 62
4
 10
-1.30291145E+02
 20
-1.31067373E+01
 11
-1.30291145E+02
 21
-6.91067373E+01
  0
LINE
  8
0
 62
4
 10
-9.02911446E+01
 20
-1.31067373E+01
 11
-9.02911446E+01
 21
-6.91067373E+01
  0
LINE
  8
0
 62
4
 10
-1.30291145E+02
 20
-6.91067373E+01
 11
-9.02911446E+01
 21
-6.91067373E+01
  0
LINE
  8
0
 62
4
 10
-1.30291145E+02
 20
-1.31067373E+01
 11
-9.02911446E+01
 21
-1.31067373E+01
  0
LINE
  8
0
  6
CENTER
 62
6
 10
-1.40756232E+02
 20
-4.11067373E+01
 11
-8.27725899E+01
 21
-4.11067373E+01
  0
ARC
  8
0
 62
4
 10
6.99399071E+00
 20
7.84369715E+01
 40
3.00000000E+00
 50
1.38958724E+02
 51
1.73345775E+02
  0
ARC
  8
0
 62
4
 10
2.54397851E+00
 20
8.23109339E+01
 40
2.89999962E+00
 50
3.18958725E+02
 51
2.21041232E+02
  0
ARC
  8
0
 62
4
 10
2.54397851E+00
 20
8.23109339E+01
 40
1.59999943E+00
 50
3.10705552E+02
 51
2.29294314E+02
  0
ARC
  8
0
 62
4
 10
5.54397851E+00
 20
7.88238123E+01
 40
3.00000000E+00
 50
1.30705779E+02
 51
1.79999964E+02
  0
ARC
  8
0
 62
4
 10
-4.56021495E-01
 20
7.88238123E+01
 40
3.00000000E+00
 50
0.00000000E+00
 51
4.92941583E+01
  0
ARC
  8
0
 62
4
 10
-1.90603370E+00
 20
7.84369715E+01
 40
3.00000000E+00
 50
6.65420595E+00
 51
4.10412714E+01
  0
CIRCLE
  8
0
 62
4
 10
2.54397851E+00
 20
6.88932703E+01
 40
9.00000000E+00
  0
ARC
  8
0
 62
4
 10
2.54397851E+00
 20
6.88932703E+01
 40
2.00000000E+01
 50
8.99999956E+01
 51
2.70000001E+02
  0
CIRCLE
  8
0
 62
4
 10
2.54397851E+00
 20
6.88932703E+01
 40
1.00000000E+01
  0
LINE
  8
0
 62
4
 10
2.54397851E+00
 20
5.88932703E+01
 11
2.54397851E+00
 21
5.18666437E+01
  0
LINE
  8
0
 62
4
 10
3.26906897E+00
 20
5.38109175E+01
 11
3.99405990E+00
 21
5.50666385E+01
  0
LINE
  8
0
 62
4
 10
2.54400854E+00
 20
5.50666696E+01
 11
3.26901473E+00
 21
5.38109222E+01
  0
LINE
  8
0
 62
4
 10
1.81898131E+00
 20
5.06109379E+01
 11
2.54398750E+00
 21
5.18666853E+01
  0
LINE
  8
0
 62
4
 10
1.09400995E+00
 20
5.18666541E+01
 11
1.81900089E+00
 21
5.06109332E+01
  0
LINE
  8
0
 62
4
 10
1.09396630E+00
 20
5.89989527E+01
 11
1.09396630E+00
 21
5.18666437E+01
  0
LINE
  8
0
 62
4
 10
3.99399071E+00
 20
5.89989527E+01
 11
3.99399071E+00
 21
5.50666407E+01
  0
LINE
  8
0
 62
4
 10
7.65439856E+01
 20
4.88932680E+01
 11
7.75439866E+01
 21
4.98932691E+01
  0
LINE
  8
0
 62
4
 10
7.75439796E+01
 20
8.78932733E+01
 11
7.65439893E+01
 21
8.88932636E+01
  0
LINE
  8
0
  6
CENTER
 62
6
 10
-2.29184181E+01
 20
6.88932703E+01
 11
8.23636101E+01
 21
6.88932703E+01
  0
LINE
  8
0
  6
CENTER
 62
6
 10
2.54397851E+00
 20
9.64490412E+01
 11
2.54397851E+00
 21
4.38080195E+01
  0
LINE
  8
0
 62
4
 10
7.75439766E+01
 20
8.78932703E+01
 11
7.75439766E+01
 21
4.98932703E+01
  0
LINE
  8
0
 62
4
 10
2.54397851E+00
 20
4.88932703E+01
 11
7.65439766E+01
 21
4.88932703E+01
  0
LINE
  8
0
 62
4
 10
2.54397851E+00
 20
8.88932703E+01
 11
7.65439766E+01
 21
8.88932703E+01
  0
LINE
  8
0
 62
4
 10
4.40439785E+01
 20
8.88932703E+01
 11
4.40439785E+01
 21
4.88932703E+01
  0
TEXT
  8
0
 62
7
 10
-1.89357136E+02
 20
1.22850006E+02
 40
4.50000000E+00
  1
NEW DYNA CYLINDER
 41
1.07594914E+00
  7
MONOTXT
  0
TEXT
  8
0
 62
7
 10
-1.85214688E+02
 20
1.05350006E+02
 40
4.50000000E+00
  1
MODEL:DDA80-Y
 41
1.00000000E+00
  7
MONOTXT
  0
LINE
  8
0
 62
7
 10
-1.94250000E+02
 20
1.32600006E+02
 11
1.94800003E+02
 21
1.32600006E+02
  0
LINE
  8
0
 62
7
 10
1.94800003E+02
 20
1.32600006E+02
 11
1.94800003E+02
 21
-1.33500000E+02
  0
LINE
  8
0
 62
7
 10
-1.94250000E+02
 20
1.32600006E+02
 11
-1.94250000E+02
 21
-1.33500000E+02
  0
LINE
  8
0
 62
7
 10
-1.94250000E+02
 20
-1.33500000E+02
 11
1.94800003E+02
 21
-1.33500000E+02
  0
LINE
  8
0
 62
7
 10
1.09800003E+02
 20
-1.18500000E+02
 11
1.09800003E+02
 21
-1.33500000E+02
  0
LINE
  8
0
 62
7
 10
1.09800003E+02
 20
-1.18500000E+02
 11
1.94800003E+02
 21
-1.18500000E+02
  0
LINE
  8
0
 62
7
 10
1.09800003E+02
 20
1.32600006E+02
 11
1.09800003E+02
 21
1.17600006E+02
  0
LINE
  8
0
 62
7
 10
1.09800003E+02
 20
1.17600006E+02
 11
1.94800003E+02
 21
1.17600006E+02
  0
LINE
  8
0
 62
7
 10
-1.94250000E+02
 20
1.17600006E+02
 11
-1.09250000E+02
 21
1.17600006E+02
  0
LINE
  8
0
 62
7
 10
-1.09250000E+02
 20
1.32600006E+02
 11
-1.09250000E+02
 21
1.17600006E+02
  0
TEXT
  8
0
 62
7
 10
1.34942863E+02
 20
1.22850006E+02
 40
4.50000000E+00
  1
Ver. 1.0
 41
1.08108085E+00
  7
MONOTXT
  0
TEXT
  8
0
 62
7
 10
1.15249715E+02
 20
-1.29150000E+02
 40
6.30000019E+00
  1
KOGANEI CORP.
 41
1.04838725E+00
  7
MONOTXT
  0
ENDSEC
  0
EOF
