  0
SECTION
  2
HEADER
  9
$ACADVER
  1
AC1003
  9
$EXTMIN
 10
-2.81250000E+02
 20
-1.95000000E+02
  9
$EXTMAX
 10
2.82099854E+02
 20
1.95500000E+02
  9
$LIMMIN
 10
-2.81251000E+02
 20
-1.95001000E+02
  9
$LIMMAX
 10
2.82100854E+02
 20
1.95501000E+02
  9
$SNAPUNIT
 10
1
 20
1
  9
$SNAPBASE
 10
0
 20
0
  9
$GRIDMODE
 70
0
  9
$GRIDUNIT
 10
0
 20
0
  9
$LTSCALE
 40
9.38916423E+00
  9
$TEXTSIZE
 40
3.2
  9
$DIMTAD
 70
0
  9
$LUNITS
 70
2
  9
$LUPREC
 70
4
  9
$FILLETRAD
 40
0
  9
$AUNITS
 70
0
  9
$AUPREC
 70
0
  0
ENDSEC
  0
SECTION
  2
TABLES
  0
TABLE
  2
LTYPE
 70
2
  0
LTYPE
  2
CONTINUOUS
 70
64
  3
Solid-Line
 72
65
 73
0
 40
0
  0
LTYPE
  2
DASHED
 70
64
  3
DASHED
 72
65
 73
2
 40
.75
 49
.5
 49
-.25
  0
LTYPE
  2
HIDDEN
 70
64
  3
HIDDEN
 72
65
 73
2
 40
.375
 49
.25
 49
-.125
  0
LTYPE
  2
CENTER
 70
64
  3
CENTER
 72
65
 73
4
 40
2
 49
1.25
 49
-.25
 49
.25
 49
-.25
  0
LTYPE
  2
PHANTOM
 70
64
  3
PHANTOM
 72
65
 73
6
 40
2.5
 49
1.25
 49
-.25
 49
.25
 49
-.25
 49
.25
 49
-.25
  0
ENDTAB
  0
TABLE
  2
LAYER
 70
1
  0
LAYER
  2
1
 70
0
 62
7
  6
CONTINUOUS
 0
ENDTAB
  0
TABLE
  2
STYLE
 70
2
  0
STYLE
  2
MONOTXT
 70
0
 40
0
 41
1
 50
0
 71
0
 42
.2
  3
monotxt
  0
STYLE
  2
BIGFONT
 70
0
 40
0
 41
1
 50
0
 71
0
 42
.2
  3
txt
  4
bigfont
  0
ENDTAB
  0
ENDSEC
  0
SECTION
  2
ENTITIES
  0
LINE
  8
0
  6
CENTER
 62
6
 10
7.47602038E+01
 20
-1.01951598E+02
 11
4.87676577E+01
 21
-1.01951598E+02
  0
LINE
  8
0
 62
4
 10
5.10794558E+01
 20
-1.13951567E+02
 11
1.03079399E+02
 21
-1.13951567E+02
  0
LINE
  8
0
 62
4
 10
5.10794558E+01
 20
-8.79515979E+01
 11
5.10794558E+01
 21
-1.13951598E+02
  0
LINE
  8
0
 62
4
 10
5.30794558E+01
 20
-1.02951598E+02
 11
7.20794558E+01
 21
-1.02951598E+02
  0
LINE
  8
0
 62
4
 10
6.80794558E+01
 20
-1.01951598E+02
 11
9.89702009E+01
 21
-1.01951598E+02
  0
LINE
  8
0
 62
4
 10
5.20794558E+01
 20
-1.03951598E+02
 11
5.20794558E+01
 21
-1.13951598E+02
  0
LINE
  8
0
 62
4
 10
1.03079399E+02
 20
-1.13951568E+02
 11
9.99332832E+01
 21
-1.02682690E+02
  0
LINE
  8
0
  6
CENTER
 62
6
 10
8.50794539E+01
 20
-9.55496509E+01
 11
8.50794539E+01
 21
-1.20145415E+02
  0
LINE
  8
0
 62
4
 10
5.20794558E+01
 20
-8.69515979E+01
 11
7.00794558E+01
 21
-8.69515979E+01
  0
LINE
  8
0
 62
4
 10
7.10794558E+01
 20
-8.79515979E+01
 11
7.10794558E+01
 21
-9.27015979E+01
  0
LINE
  8
0
 62
4
 10
7.10794558E+01
 20
-9.27015979E+01
 11
7.20794558E+01
 21
-9.27015979E+01
  0
LINE
  8
0
 62
4
 10
7.20794558E+01
 20
-1.01951598E+02
 11
7.20794558E+01
 21
-9.27015979E+01
  0
ARC
  8
0
 62
4
 10
5.30794558E+01
 20
-1.03951598E+02
 40
1.00000000E+00
 50
8.99999818E+01
 51
1.79999964E+02
  0
ARC
  8
0
 62
4
 10
6.80794558E+01
 20
-1.02951598E+02
 40
1.00000000E+00
 50
8.99999818E+01
 51
1.79999964E+02
  0
ARC
  8
0
 62
4
 10
9.89702009E+01
 20
-1.02951598E+02
 40
1.00000000E+00
 50
1.55990251E+01
 51
9.00000913E+01
  0
ARC
  8
0
 62
4
 10
5.20794558E+01
 20
-8.79515979E+01
 40
1.00000000E+00
 50
8.99999818E+01
 51
1.79999964E+02
  0
ARC
  8
0
 62
4
 10
7.00794558E+01
 20
-8.79515979E+01
 40
1.00000000E+00
 50
0.00000000E+00
 51
8.99999818E+01
  0
LINE
  8
0
 62
4
 10
-2.05420544E+02
 20
-1.13951537E+02
 11
-5.84205442E+01
 21
-1.13951537E+02
  0
LINE
  8
0
  6
CENTER
 62
6
 10
-1.78920544E+02
 20
-1.01951598E+02
 11
-1.56920544E+02
 21
-1.01951598E+02
  0
LINE
  8
0
  6
CENTER
 62
6
 10
-1.66920544E+02
 20
-9.19515979E+01
 11
-1.66920544E+02
 21
-1.13451598E+02
  0
LINE
  8
0
  6
CENTER
 62
6
 10
-9.69205442E+01
 20
-9.20892780E+01
 11
-9.69205442E+01
 21
-1.13451598E+02
  0
LINE
  8
0
  6
CENTER
 62
6
 10
-1.06920544E+02
 20
-1.01951598E+02
 11
-8.49205442E+01
 21
-1.01951598E+02
  0
LINE
  8
0
 62
4
 10
-2.04420544E+02
 20
-1.00951598E+02
 11
-1.81583294E+02
 21
-1.00951598E+02
  0
LINE
  8
0
 62
4
 10
-2.05420544E+02
 20
-1.01951598E+02
 11
-2.05420544E+02
 21
-1.13951598E+02
  0
LINE
  8
0
  6
CENTER
 62
6
 10
-1.92420544E+02
 20
-9.08366077E+01
 11
-1.92420544E+02
 21
-1.22951598E+02
  0
LINE
  8
0
 62
4
 10
-1.74080121E+02
 20
-8.69515979E+01
 11
-1.59760937E+02
 21
-8.69515979E+01
  0
LINE
  8
0
 62
4
 10
-1.54836886E+02
 20
-9.10833501E+01
 11
-1.50804600E+02
 21
-1.13951588E+02
  0
LINE
  8
0
 62
4
 10
-1.13036524E+02
 20
-1.13951567E+02
 11
-1.09004240E+02
 21
-9.10833391E+01
  0
LINE
  8
0
 62
4
 10
-1.04080151E+02
 20
-8.69515979E+01
 11
-8.97609983E+01
 21
-8.69515979E+01
  0
LINE
  8
0
 62
4
 10
-8.48369794E+01
 20
-9.10833629E+01
 11
-8.08046960E+01
 21
-1.13951585E+02
  0
LINE
  8
0
  6
CENTER
 62
6
 10
-7.14205442E+01
 20
-9.08366077E+01
 11
-7.14205442E+01
 21
-1.22951598E+02
  0
LINE
  8
0
 62
4
 10
-5.94205442E+01
 20
-1.00951598E+02
 11
-8.22578245E+01
 21
-1.00951598E+02
  0
LINE
  8
0
 62
4
 10
-5.84205442E+01
 20
-1.01951598E+02
 11
-5.84205442E+01
 21
-1.13951598E+02
  0
LINE
  8
0
 62
4
 10
-1.83036448E+02
 20
-1.13951593E+02
 11
-1.79004161E+02
 21
-9.10833492E+01
  0
LINE
  8
0
  6
CENTER
 62
6
 10
-1.31920544E+02
 20
-8.20504596E+01
 11
-1.31920544E+02
 21
-1.22951598E+02
  0
LINE
  8
0
 62
4
 10
-1.55178082E+02
 20
-8.91484287E+01
 11
-1.08220471E+02
 21
-8.91484287E+01
  0
CIRCLE
  8
0
 62
4
 10
-1.66920544E+02
 20
-1.01951598E+02
 40
9.00000000E+00
  0
ARC
  8
0
 62
4
 10
-2.04420544E+02
 20
-1.01951598E+02
 40
1.00000000E+00
 50
8.99999818E+01
 51
1.79999964E+02
  0
ARC
  8
0
 62
4
 10
-1.74080121E+02
 20
-9.19515979E+01
 40
5.00000000E+00
 50
8.99998730E+01
 51
1.69999966E+02
  0
ARC
  8
0
 62
4
 10
-1.59760937E+02
 20
-9.19515979E+01
 40
5.00000000E+00
 50
9.99999117E+00
 51
8.99999274E+01
  0
ARC
  8
0
 62
4
 10
-1.04080151E+02
 20
-9.19515979E+01
 40
5.00000000E+00
 50
8.99999818E+01
 51
1.69999966E+02
  0
ARC
  8
0
 62
4
 10
-8.97609983E+01
 20
-9.19515979E+01
 40
5.00000000E+00
 50
1.00000151E+01
 51
9.00000913E+01
  0
ARC
  8
0
 62
4
 10
-1.81583294E+02
 20
-9.99515979E+01
 40
1.00000000E+00
 50
2.70000455E+02
 51
3.50000084E+02
  0
ARC
  8
0
 62
4
 10
-8.22578245E+01
 20
-9.99515979E+01
 40
1.00000000E+00
 50
1.89999911E+02
 51
2.69999547E+02
  0
ARC
  8
0
 62
4
 10
-5.94205442E+01
 20
-1.01951598E+02
 40
1.00000000E+00
 50
3.59721781E-05
 51
9.00000162E+01
  0
CIRCLE
  8
0
 62
4
 10
-9.69205442E+01
 20
-1.01951598E+02
 40
9.00000000E+00
  0
CIRCLE
  8
0
 62
4
 10
-1.66920544E+02
 20
-1.01951598E+02
 40
4.84999990E+00
  0
CIRCLE
  8
0
 62
4
 10
-9.69205442E+01
 20
-1.01951598E+02
 40
4.84999990E+00
  0
LINE
  8
0
  6
CENTER
 62
6
 10
8.76219382E+01
 20
9.80483945E+01
 11
4.58362765E+01
 21
9.80483945E+01
  0
LINE
  8
0
 62
4
 10
7.20794558E+01
 20
5.10484250E+01
 11
7.20794558E+01
 21
1.45048394E+02
  0
LINE
  8
0
  6
CENTER
 62
6
 10
4.58362765E+01
 20
6.30483945E+01
 11
7.77858271E+01
 21
6.30483945E+01
  0
LINE
  8
0
  6
CENTER
 62
6
 10
4.58362765E+01
 20
1.33048394E+02
 11
7.77858271E+01
 21
1.33048394E+02
  0
LINE
  8
0
 62
4
 10
7.30794558E+01
 20
1.46048394E+02
 11
9.70794539E+01
 21
1.46048394E+02
  0
LINE
  8
0
 62
4
 10
6.66462282E+01
 20
1.71048394E+02
 11
9.30163435E+01
 21
1.71048394E+02
  0
LINE
  8
0
 62
4
 10
5.20794558E+01
 20
1.16932550E+02
 11
5.20794558E+01
 21
1.49164361E+02
  0
LINE
  8
0
 62
4
 10
1.03079479E+02
 20
1.52048376E+02
 11
1.00894930E+02
 21
1.64437575E+02
  0
LINE
  8
0
  6
CENTER
 62
6
 10
8.50794539E+01
 20
1.49548394E+02
 11
8.50794539E+01
 21
1.67548394E+02
  0
LINE
  8
0
  6
CENTER
 62
6
 10
7.60794558E+01
 20
1.58548394E+02
 11
9.40794539E+01
 21
1.58548394E+02
  0
LINE
  8
0
 62
4
 10
5.20794558E+01
 20
1.49164361E+02
 11
7.09041018E+01
 21
1.49164361E+02
  0
LINE
  8
0
 62
4
 10
5.30801449E+01
 20
1.49164064E+02
 11
5.91294160E+01
 21
1.65784305E+02
  0
LINE
  8
0
 62
4
 10
6.42029044E+01
 20
1.21396582E+02
 11
5.46749710E+01
 21
1.17572762E+02
  0
LINE
  8
0
 62
4
 10
6.60943484E+01
 20
1.21748468E+02
 11
7.10794558E+01
 21
1.21748468E+02
  0
LINE
  8
0
 62
4
 10
6.42028067E+01
 20
7.47002751E+01
 11
5.46748732E+01
 21
7.85240944E+01
  0
LINE
  8
0
 62
4
 10
5.30794558E+01
 20
7.91643307E+01
 11
5.30794558E+01
 21
1.16932550E+02
  0
LINE
  8
0
 62
4
 10
5.20794558E+01
 20
1.16932550E+02
 11
5.30794558E+01
 21
1.16932550E+02
  0
LINE
  8
0
 62
4
 10
5.20794558E+01
 20
7.91643307E+01
 11
5.20794558E+01
 21
4.69325192E+01
  0
LINE
  8
0
 62
4
 10
5.20794558E+01
 20
7.91643307E+01
 11
5.30794558E+01
 21
7.91643307E+01
  0
LINE
  8
0
 62
4
 10
6.60943484E+01
 20
7.43484128E+01
 11
7.10794558E+01
 21
7.43484128E+01
  0
LINE
  8
0
 62
4
 10
6.50794558E+01
 20
1.20611261E+02
 11
6.50794558E+01
 21
7.54856198E+01
  0
LINE
  8
0
 62
4
 10
7.30794558E+01
 20
5.00484250E+01
 11
9.70794539E+01
 21
5.00484250E+01
  0
LINE
  8
0
 62
4
 10
1.03079404E+02
 20
4.40485397E+01
 11
1.00894854E+02
 21
3.16593404E+01
  0
LINE
  8
0
  6
CENTER
 62
6
 10
7.60794558E+01
 20
3.75484250E+01
 11
9.40794539E+01
 21
3.75484250E+01
  0
LINE
  8
0
  6
CENTER
 62
6
 10
8.50794539E+01
 20
4.65484250E+01
 11
8.50794539E+01
 21
2.85484250E+01
  0
LINE
  8
0
 62
4
 10
6.66462282E+01
 20
2.50484250E+01
 11
9.30163435E+01
 21
2.50484250E+01
  0
LINE
  8
0
 62
4
 10
5.30801661E+01
 20
4.69327847E+01
 11
5.91294372E+01
 21
3.03125440E+01
  0
LINE
  8
0
 62
4
 10
5.20794558E+01
 20
4.69325192E+01
 11
7.09041628E+01
 21
4.69325192E+01
  0
LINE
  8
0
 62
4
 10
7.10794558E+01
 20
1.45417321E+02
 11
7.10794558E+01
 21
5.06794980E+01
  0
LINE
  8
0
 62
4
 10
7.10794558E+01
 20
5.06794980E+01
 11
7.21500010E+01
 21
5.06794980E+01
  0
LINE
  8
0
 62
4
 10
7.10794558E+01
 20
1.45417321E+02
 11
7.21499895E+01
 21
1.45417321E+02
  0
ARC
  8
0
 62
4
 10
8.50794539E+01
 20
1.58548394E+02
 40
1.70000000E+01
 50
1.32667846E+02
 51
2.27332028E+02
  0
ARC
  8
0
 62
4
 10
9.70794539E+01
 20
1.52048394E+02
 40
6.00000000E+00
 50
2.69999984E+02
 51
3.59999527E+02
  0
ARC
  8
0
 62
4
 10
9.30163435E+01
 20
1.63048394E+02
 40
8.00000000E+00
 50
1.00000339E+01
 51
9.00000707E+01
  0
ARC
  8
0
 62
4
 10
7.30794558E+01
 20
1.45048394E+02
 40
1.00000000E+00
 50
9.00000162E+01
 51
1.79999977E+02
  0
ARC
  8
0
 62
4
 10
8.50794539E+01
 20
1.58548394E+02
 40
1.70000000E+01
 50
3.12667844E+02
 51
3.57512190E+02
  0
CIRCLE
  8
0
 62
4
 10
8.50794539E+01
 20
1.58548394E+02
 40
7.00000000E+00
  0
ARC
  8
0
 62
4
 10
6.66462282E+01
 20
1.63048394E+02
 40
8.00000000E+00
 50
9.00000162E+01
 51
1.59999981E+02
  0
ARC
  8
0
 62
4
 10
7.30794558E+01
 20
5.10484250E+01
 40
1.00000000E+00
 50
1.80000077E+02
 51
2.70000038E+02
  0
ARC
  8
0
 62
4
 10
8.50794539E+01
 20
3.75484250E+01
 40
1.70000000E+01
 50
1.32668023E+02
 51
2.27332205E+02
  0
ARC
  8
0
 62
4
 10
9.70794539E+01
 20
4.40484250E+01
 40
6.00000000E+00
 50
5.27745818E-04
 51
9.00000707E+01
  0
ARC
  8
0
 62
4
 10
8.50794539E+01
 20
3.75484250E+01
 40
1.70000000E+01
 50
2.48786418E+00
 51
4.73322103E+01
  0
CIRCLE
  8
0
 62
4
 10
8.50794539E+01
 20
3.75484250E+01
 40
7.00000000E+00
  0
ARC
  8
0
 62
4
 10
9.30163435E+01
 20
3.30484250E+01
 40
8.00000000E+00
 50
2.69999984E+02
 51
3.50000021E+02
  0
ARC
  8
0
 62
4
 10
6.66462282E+01
 20
3.30484250E+01
 40
8.00000000E+00
 50
2.00000059E+02
 51
2.70000038E+02
  0
LINE
  8
0
 62
7
 10
-2.81250000E+02
 20
1.75500000E+02
 11
-1.61250000E+02
 21
1.75500000E+02
  0
LINE
  8
0
 62
7
 10
-1.61250000E+02
 20
1.95500000E+02
 11
-1.61250000E+02
 21
1.75500000E+02
  0
TEXT
  8
0
 62
7
 10
-2.73900291E+02
 20
1.82350000E+02
 40
6.30000019E+00
  1
NEW DYNA CYLONDER
 41
1.07594953E+00
  7
MONOTXT
  0
LINE
  8
0
 62
7
 10
1.62099976E+02
 20
1.75500000E+02
 11
2.82099854E+02
 21
1.75500000E+02
  0
LINE
  8
0
 62
7
 10
1.62099976E+02
 20
1.95500000E+02
 11
1.62099976E+02
 21
1.75500000E+02
  0
TEXT
  8
0
 62
7
 10
1.97799690E+02
 20
1.82350000E+02
 40
6.30000019E+00
  1
Ver. 1.0
 41
1.08108124E+00
  7
MONOTXT
  0
LINE
  8
0
 62
7
 10
1.62099976E+02
 20
-1.75000000E+02
 11
1.62099976E+02
 21
-1.95000000E+02
  0
LINE
  8
0
 62
7
 10
1.62099976E+02
 20
-1.75000000E+02
 11
2.82099854E+02
 21
-1.75000000E+02
  0
TEXT
  8
0
 62
7
 10
1.69885289E+02
 20
-1.89500000E+02
 40
9.00000000E+00
  1
KOGANEI CORP.
 41
1.04838710E+00
  7
MONOTXT
  0
LINE
  8
0
 62
7
 10
2.82099854E+02
 20
1.95500000E+02
 11
2.82099854E+02
 21
-1.95000000E+02
  0
LINE
  8
0
 62
7
 10
-2.81250000E+02
 20
1.95500000E+02
 11
2.82099854E+02
 21
1.95500000E+02
  0
LINE
  8
0
 62
7
 10
-2.81250000E+02
 20
1.95500000E+02
 11
-2.81250000E+02
 21
-1.95000000E+02
  0
LINE
  8
0
 62
7
 10
-2.81250000E+02
 20
-1.95000000E+02
 11
2.82099854E+02
 21
-1.95000000E+02
  0
TEXT
  8
0
 62
7
 10
-2.67600562E+02
 20
1.57350000E+02
 40
6.30000019E+00
  1
MODEL:DDA80-2
 41
1.00000015E+00
  7
MONOTXT
  0
ENDSEC
  0
EOF
