  0
SECTION
  2
HEADER
  9
$ACADVER
  1
AC1003
  9
$EXTMIN
 10
-1.94250000E+02
 20
-1.33500000E+02
  9
$EXTMAX
 10
1.94800003E+02
 20
1.32600006E+02
  9
$LIMMIN
 10
-1.94251000E+02
 20
-1.33501000E+02
  9
$LIMMAX
 10
1.94801003E+02
 20
1.32601006E+02
  9
$SNAPUNIT
 10
1
 20
1
  9
$SNAPBASE
 10
0
 20
0
  9
$GRIDMODE
 70
0
  9
$GRIDUNIT
 10
0
 20
0
  9
$LTSCALE
 40
6.48416672E+00
  9
$TEXTSIZE
 40
3.2
  9
$DIMTAD
 70
0
  9
$LUNITS
 70
2
  9
$LUPREC
 70
4
  9
$FILLETRAD
 40
0
  9
$AUNITS
 70
0
  9
$AUPREC
 70
0
  0
ENDSEC
  0
SECTION
  2
TABLES
  0
TABLE
  2
LTYPE
 70
2
  0
LTYPE
  2
CONTINUOUS
 70
64
  3
Solid-Line
 72
65
 73
0
 40
0
  0
LTYPE
  2
DASHED
 70
64
  3
DASHED
 72
65
 73
2
 40
.75
 49
.5
 49
-.25
  0
LTYPE
  2
HIDDEN
 70
64
  3
HIDDEN
 72
65
 73
2
 40
.375
 49
.25
 49
-.125
  0
LTYPE
  2
CENTER
 70
64
  3
CENTER
 72
65
 73
4
 40
2
 49
1.25
 49
-.25
 49
.25
 49
-.25
  0
LTYPE
  2
PHANTOM
 70
64
  3
PHANTOM
 72
65
 73
6
 40
2.5
 49
1.25
 49
-.25
 49
.25
 49
-.25
 49
.25
 49
-.25
  0
ENDTAB
  0
TABLE
  2
LAYER
 70
1
  0
LAYER
  2
1
 70
0
 62
7
  6
CONTINUOUS
 0
ENDTAB
  0
TABLE
  2
STYLE
 70
2
  0
STYLE
  2
MONOTXT
 70
0
 40
0
 41
1
 50
0
 71
0
 42
.2
  3
monotxt
  0
STYLE
  2
BIGFONT
 70
0
 40
0
 41
1
 50
0
 71
0
 42
.2
  3
txt
  4
bigfont
  0
ENDTAB
  0
ENDSEC
  0
SECTION
  2
ENTITIES
  0
LINE
  8
0
  6
CENTER
 62
6
 10
-5.58482056E+01
 20
-8.65000343E+01
 11
-7.81633606E+01
 21
-8.65000343E+01
  0
LINE
  8
0
  6
CENTER
 62
6
 10
-7.92677002E+01
 20
-5.85000000E+01
 11
-3.36221619E+01
 21
-5.85000000E+01
  0
LINE
  8
0
 62
4
 10
-7.42500000E+01
 20
-9.57500019E+01
 11
-7.42500000E+01
 21
-2.12500000E+01
  0
LINE
  8
0
  6
CENTER
 62
6
 10
-5.55009155E+01
 20
-3.05000000E+01
 11
-7.69012604E+01
 21
-3.05000000E+01
  0
LINE
  8
0
  6
CENTER
 62
6
 10
-5.52500000E+01
 20
-4.23914032E+01
 11
-5.52500000E+01
 21
-7.46509132E+01
  0
LINE
  8
0
 62
4
 10
-6.12500000E+01
 20
-7.99142189E+01
 11
-6.12500000E+01
 21
-9.37500019E+01
  0
LINE
  8
0
 62
4
 10
-4.28062476E+01
 20
-6.94784191E+01
 11
-6.12499969E+01
 21
-8.69999804E+01
  0
LINE
  8
0
 62
4
 10
-7.06642151E+01
 20
-7.05000038E+01
 11
-7.42500000E+01
 21
-7.05000038E+01
  0
LINE
  8
0
 62
4
 10
-6.99570974E+01
 20
-7.07928781E+01
 11
-6.15428872E+01
 21
-7.92070882E+01
  0
LINE
  8
0
 62
4
 10
-6.12500000E+01
 20
-3.70857849E+01
 11
-6.12500000E+01
 21
-2.32500000E+01
  0
LINE
  8
0
 62
4
 10
-4.28062679E+01
 20
-4.75215478E+01
 11
-6.12500006E+01
 21
-3.00000023E+01
  0
LINE
  8
0
 62
4
 10
-7.06642151E+01
 20
-4.65000000E+01
 11
-7.42500000E+01
 21
-4.65000000E+01
  0
LINE
  8
0
 62
4
 10
-6.99571082E+01
 20
-4.62070964E+01
 11
-6.15429088E+01
 21
-3.77928970E+01
  0
LINE
  8
0
 62
4
 10
-6.32500000E+01
 20
-9.57500019E+01
 11
-7.42500000E+01
 21
-9.57500019E+01
  0
LINE
  8
0
 62
4
 10
-6.32500000E+01
 20
-2.12500000E+01
 11
-7.42500000E+01
 21
-2.12500000E+01
  0
LINE
  8
0
 62
4
 10
-4.12500000E+01
 20
-5.11465607E+01
 11
-4.12500000E+01
 21
-6.58534431E+01
  0
CIRCLE
  8
0
 62
4
 10
-5.52500000E+01
 20
-5.85000000E+01
 40
7.00000000E+00
  0
ARC
  8
0
 62
4
 10
-4.62500000E+01
 20
-6.58534431E+01
 40
5.00000000E+00
 50
3.13531139E+02
 51
3.59999964E+02
  0
ARC
  8
0
 62
4
 10
-6.32500000E+01
 20
-9.37500019E+01
 40
2.00000000E+00
 50
2.69999984E+02
 51
3.59999964E+02
  0
ARC
  8
0
 62
4
 10
-7.06642151E+01
 20
-7.15000038E+01
 40
1.00000000E+00
 50
4.49999876E+01
 51
9.00000162E+01
  0
ARC
  8
0
 62
4
 10
-6.22500000E+01
 20
-7.99142189E+01
 40
1.00000000E+00
 50
3.59999981E+02
 51
4.49999876E+01
  0
CIRCLE
  8
0
 62
4
 10
-5.52500000E+01
 20
-5.85000000E+01
 40
1.32500000E+01
  0
ARC
  8
0
 62
4
 10
-4.62500000E+01
 20
-5.11465607E+01
 40
5.00000000E+00
 50
3.59999981E+02
 51
4.64688061E+01
  0
ARC
  8
0
 62
4
 10
-6.32500000E+01
 20
-2.32500000E+01
 40
2.00000000E+00
 50
3.59999981E+02
 51
8.99999618E+01
  0
ARC
  8
0
 62
4
 10
-6.22500000E+01
 20
-3.70857849E+01
 40
1.00000000E+00
 50
3.14999958E+02
 51
3.59999964E+02
  0
ARC
  8
0
 62
4
 10
-7.06642151E+01
 20
-4.55000000E+01
 40
1.00000000E+00
 50
2.69999929E+02
 51
3.14999958E+02
  0
LINE
  8
0
  6
CENTER
 62
6
 10
7.57500000E+01
 20
-1.70324402E+01
 11
7.57500000E+01
 21
-9.95260639E+01
  0
LINE
  8
0
  6
CENTER
 62
6
 10
3.49822998E+01
 20
-5.85000000E+01
 11
1.18227722E+02
 21
-5.85000000E+01
  0
LINE
  8
0
 62
4
 10
8.57500000E+01
 20
-7.17500038E+01
 11
8.57500000E+01
 21
-4.52500000E+01
  0
LINE
  8
0
 62
4
 10
6.57500000E+01
 20
-7.17500038E+01
 11
6.57500000E+01
 21
-4.52500000E+01
  0
LINE
  8
0
  6
CENTER
 62
6
 10
1.03750000E+02
 20
-4.19046173E+01
 11
1.03750000E+02
 21
-1.83188782E+01
  0
LINE
  8
0
  6
CENTER
 62
6
 10
9.20972900E+01
 20
-3.05000000E+01
 11
1.15840332E+02
 21
-3.05000000E+01
  0
LINE
  8
0
  6
CENTER
 62
6
 10
5.91546631E+01
 20
-3.05000153E+01
 11
3.55688477E+01
 21
-3.05000153E+01
  0
LINE
  8
0
  6
CENTER
 62
6
 10
4.77500000E+01
 20
-4.21526642E+01
 11
4.77500000E+01
 21
-1.84096985E+01
  0
LINE
  8
0
  6
CENTER
 62
6
 10
1.03750000E+02
 20
-7.48473091E+01
 11
1.03750000E+02
 21
-9.85902882E+01
  0
LINE
  8
0
  6
CENTER
 62
6
 10
9.23453369E+01
 20
-8.64999733E+01
 11
1.15931152E+02
 21
-8.64999733E+01
  0
LINE
  8
0
  6
CENTER
 62
6
 10
4.77500000E+01
 20
-7.50953560E+01
 11
4.77500000E+01
 21
-9.86811085E+01
  0
LINE
  8
0
  6
CENTER
 62
6
 10
5.94027100E+01
 20
-8.64999733E+01
 11
3.56596680E+01
 21
-8.64999733E+01
  0
LINE
  8
0
 62
4
 10
1.13000000E+02
 20
-4.08809814E+01
 11
1.13000000E+02
 21
-3.12030487E+01
  0
LINE
  8
0
 62
4
 10
3.85000000E+01
 20
-4.08809814E+01
 11
3.85000000E+01
 21
-3.12030487E+01
  0
LINE
  8
0
 62
4
 10
4.71981343E+01
 20
-2.22080965E+01
 11
7.57499956E+01
 21
-2.12499804E+01
  0
LINE
  8
0
 62
4
 10
7.57499854E+01
 20
-2.12499805E+01
 11
1.04301846E+02
 21
-2.22080966E+01
  0
LINE
  8
0
 62
4
 10
6.67500000E+01
 20
-8.50000038E+01
 11
6.67500000E+01
 21
-3.20000000E+01
  0
LINE
  8
0
 62
4
 10
8.47500000E+01
 20
-8.50000038E+01
 11
8.47500000E+01
 21
-3.20000000E+01
  0
LINE
  8
0
 62
4
 10
8.86438167E+01
 20
-4.63966386E+01
 11
1.08132678E+02
 21
-4.58792353E+01
  0
LINE
  8
0
 62
4
 10
6.28562331E+01
 20
-4.63966269E+01
 11
4.33673758E+01
 21
-4.58792237E+01
  0
LINE
  8
0
 62
4
 10
8.66969464E+01
 20
-3.74451540E+01
 11
1.00164797E+02
 21
-3.70876005E+01
  0
LINE
  8
0
 62
4
 10
6.48031025E+01
 20
-3.74451729E+01
 11
5.13353134E+01
 21
-3.70876210E+01
  0
LINE
  8
0
 62
4
 10
6.87500000E+01
 20
-3.00000000E+01
 11
8.27500000E+01
 21
-3.00000000E+01
  0
LINE
  8
0
 62
4
 10
6.87500000E+01
 20
-2.60000000E+01
 11
8.27500000E+01
 21
-2.60000000E+01
  0
LINE
  8
0
 62
4
 10
6.27500000E+01
 20
-3.73906250E+01
 11
6.27500000E+01
 21
-3.20000000E+01
  0
LINE
  8
0
 62
4
 10
8.87500000E+01
 20
-3.73906403E+01
 11
8.87500000E+01
 21
-3.20000000E+01
  0
LINE
  8
0
 62
4
 10
6.87500000E+01
 20
-4.90000000E+01
 11
8.27500000E+01
 21
-4.90000000E+01
  0
LINE
  8
0
 62
4
 10
4.38203258E+01
 20
-3.68881080E+01
 11
3.85000567E+01
 21
-3.67468620E+01
  0
LINE
  8
0
 62
4
 10
1.07679727E+02
 20
-3.68880891E+01
 11
1.12999996E+02
 21
-3.67468430E+01
  0
LINE
  8
0
 62
4
 10
1.13000000E+02
 20
-7.61190224E+01
 11
1.13000000E+02
 21
-8.57969551E+01
  0
LINE
  8
0
 62
4
 10
3.85000000E+01
 20
-7.61190224E+01
 11
3.85000000E+01
 21
-8.57969551E+01
  0
LINE
  8
0
 62
4
 10
4.71980645E+01
 20
-9.47919062E+01
 11
7.57499868E+01
 21
-9.57500243E+01
  0
LINE
  8
0
 62
4
 10
7.57499327E+01
 20
-9.57500110E+01
 11
1.04301855E+02
 21
-9.47918929E+01
  0
LINE
  8
0
 62
4
 10
8.86438480E+01
 20
-7.06033641E+01
 11
1.08132709E+02
 21
-7.11207674E+01
  0
LINE
  8
0
 62
4
 10
6.28562037E+01
 20
-7.06033757E+01
 11
4.33673426E+01
 21
-7.11207791E+01
  0
LINE
  8
0
 62
4
 10
8.66969777E+01
 20
-7.95548487E+01
 11
1.00164889E+02
 21
-7.99124038E+01
  0
LINE
  8
0
 62
4
 10
6.48031350E+01
 20
-7.95548587E+01
 11
5.13352849E+01
 21
-7.99124122E+01
  0
LINE
  8
0
 62
4
 10
6.87500000E+01
 20
-8.70000038E+01
 11
8.27500000E+01
 21
-8.70000038E+01
  0
LINE
  8
0
 62
4
 10
6.87500000E+01
 20
-9.10000038E+01
 11
8.27500000E+01
 21
-9.10000038E+01
  0
LINE
  8
0
 62
4
 10
6.27500000E+01
 20
-7.96093788E+01
 11
6.27500000E+01
 21
-8.50000038E+01
  0
LINE
  8
0
 62
4
 10
8.87500000E+01
 20
-7.96093636E+01
 11
8.87500000E+01
 21
-8.50000038E+01
  0
LINE
  8
0
 62
4
 10
4.38203545E+01
 20
-8.01119236E+01
 11
3.85000244E+01
 21
-8.02531713E+01
  0
LINE
  8
0
 62
4
 10
1.07679758E+02
 20
-8.01119136E+01
 11
1.13000027E+02
 21
-8.02531597E+01
  0
LINE
  8
0
 62
4
 10
6.87500000E+01
 20
-6.80000038E+01
 11
8.27500000E+01
 21
-6.80000038E+01
  0
ARC
  8
0
 62
4
 10
1.04000000E+02
 20
-3.12030487E+01
 40
9.00000000E+00
 50
0.00000000E+00
 51
8.80780075E+01
  0
ARC
  8
0
 62
4
 10
1.08000000E+02
 20
-4.08809814E+01
 40
5.00000000E+00
 50
2.71520698E+02
 51
0.00000000E+00
  0
ARC
  8
0
 62
4
 10
4.35000000E+01
 20
-4.08809814E+01
 40
5.00000000E+00
 50
1.79999977E+02
 51
2.68479273E+02
  0
ARC
  8
0
 62
4
 10
4.75000000E+01
 20
-3.12030487E+01
 40
9.00000000E+00
 50
9.19220112E+01
 51
1.79999964E+02
  0
ARC
  8
0
 62
4
 10
8.87500000E+01
 20
-5.03952179E+01
 40
4.00000000E+00
 50
9.15209762E+01
 51
1.38590385E+02
  0
ARC
  8
0
 62
4
 10
6.27500000E+01
 20
-5.03952026E+01
 40
4.00000000E+00
 50
4.14095484E+01
 51
8.84790356E+01
  0
ARC
  8
0
 62
4
 10
6.57500000E+01
 20
-4.42500000E+01
 40
1.00000000E+00
 50
2.70000018E+02
 51
0.00000000E+00
  0
ARC
  8
0
 62
4
 10
8.57500000E+01
 20
-4.42500000E+01
 40
1.00000000E+00
 50
1.79999977E+02
 51
2.70000028E+02
  0
ARC
  8
0
 62
4
 10
8.67500000E+01
 20
-3.94444427E+01
 40
2.00000000E+00
 50
9.15205391E+01
 51
1.79999964E+02
  0
ARC
  8
0
 62
4
 10
6.47500000E+01
 20
-3.94444275E+01
 40
2.00000000E+00
 50
0.00000000E+00
 51
8.84794659E+01
  0
ARC
  8
0
 62
4
 10
6.87500000E+01
 20
-3.20000000E+01
 40
2.00000000E+00
 50
8.99999818E+01
 51
1.79999964E+02
  0
ARC
  8
0
 62
4
 10
8.27500000E+01
 20
-3.20000000E+01
 40
2.00000000E+00
 50
0.00000000E+00
 51
8.99999818E+01
  0
ARC
  8
0
 62
4
 10
8.27500000E+01
 20
-3.20000000E+01
 40
6.00000000E+00
 50
0.00000000E+00
 51
8.99999818E+01
  0
ARC
  8
0
 62
4
 10
6.87500000E+01
 20
-3.20000000E+01
 40
6.00000000E+00
 50
8.99999818E+01
 51
1.79999964E+02
  0
CIRCLE
  8
0
 62
4
 10
1.03750000E+02
 20
-3.05000000E+01
 40
7.50000000E+00
  0
CIRCLE
  8
0
 62
4
 10
4.77500000E+01
 20
-3.05000153E+01
 40
7.50000000E+00
  0
ARC
  8
0
 62
4
 10
4.75000000E+01
 20
-8.57969551E+01
 40
9.00000000E+00
 50
1.79999977E+02
 51
2.68077931E+02
  0
ARC
  8
0
 62
4
 10
6.27500000E+01
 20
-6.66048012E+01
 40
4.00000000E+00
 50
2.71520910E+02
 51
3.18590397E+02
  0
ARC
  8
0
 62
4
 10
8.57500000E+01
 20
-7.27500038E+01
 40
1.00000000E+00
 50
8.99999274E+01
 51
1.79999964E+02
  0
ARC
  8
0
 62
4
 10
8.27500000E+01
 20
-8.50000038E+01
 40
2.00000000E+00
 50
2.69999963E+02
 51
3.59999945E+02
  0
CIRCLE
  8
0
 62
4
 10
4.77500000E+01
 20
-8.64999886E+01
 40
7.50000000E+00
  0
ARC
  8
0
 62
4
 10
6.57500000E+01
 20
-7.27500038E+01
 40
1.00000000E+00
 50
3.59999945E+02
 51
8.99999274E+01
  0
ARC
  8
0
 62
4
 10
6.87500000E+01
 20
-8.50000038E+01
 40
6.00000000E+00
 50
1.79999977E+02
 51
2.69999974E+02
  0
ARC
  8
0
 62
4
 10
6.87500000E+01
 20
-8.50000038E+01
 40
2.00000000E+00
 50
1.79999977E+02
 51
2.69999974E+02
  0
ARC
  8
0
 62
4
 10
8.67500000E+01
 20
-7.75555611E+01
 40
2.00000000E+00
 50
1.79999977E+02
 51
2.68479410E+02
  0
ARC
  8
0
 62
4
 10
1.08000000E+02
 20
-7.61190224E+01
 40
5.00000000E+00
 50
3.59999945E+02
 51
8.84792470E+01
  0
ARC
  8
0
 62
4
 10
8.87500000E+01
 20
-6.66047859E+01
 40
4.00000000E+00
 50
2.21409561E+02
 51
2.68478969E+02
  0
CIRCLE
  8
0
 62
4
 10
1.03750000E+02
 20
-8.65000038E+01
 40
7.50000000E+00
  0
ARC
  8
0
 62
4
 10
8.27500000E+01
 20
-8.50000038E+01
 40
6.00000000E+00
 50
2.69999963E+02
 51
3.59999945E+02
  0
ARC
  8
0
 62
4
 10
6.47500000E+01
 20
-7.75555763E+01
 40
2.00000000E+00
 50
2.71520480E+02
 51
3.59999945E+02
  0
ARC
  8
0
 62
4
 10
4.35000000E+01
 20
-7.61190224E+01
 40
5.00000000E+00
 50
9.15206554E+01
 51
1.79999951E+02
  0
ARC
  8
0
 62
4
 10
1.04000000E+02
 20
-8.57969551E+01
 40
9.00000000E+00
 50
2.71921938E+02
 51
3.59999945E+02
  0
CIRCLE
  8
0
 62
4
 10
4.77500000E+01
 20
-8.64999733E+01
 40
3.84999990E+00
  0
CIRCLE
  8
0
 62
4
 10
4.77500000E+01
 20
-3.05000153E+01
 40
3.84999990E+00
  0
CIRCLE
  8
0
 62
4
 10
1.03750000E+02
 20
-3.05000000E+01
 40
3.84999990E+00
  0
CIRCLE
  8
0
 62
4
 10
1.03750000E+02
 20
-8.64999733E+01
 40
3.84999990E+00
  0
LINE
  8
0
  6
CENTER
 62
6
 10
-7.62632294E+01
 20
6.15000000E+01
 11
-3.49042358E+01
 21
6.15000000E+01
  0
LINE
  8
0
 62
4
 10
-7.42500000E+01
 20
9.87500000E+01
 11
-7.42500000E+01
 21
2.42500000E+01
  0
LINE
  8
0
  6
CENTER
 62
6
 10
-5.79125671E+01
 20
3.34999390E+01
 11
-7.78658600E+01
 21
3.34999390E+01
  0
LINE
  8
0
  6
CENTER
 62
6
 10
-5.83374939E+01
 20
8.95000610E+01
 11
-7.57290192E+01
 21
8.95000610E+01
  0
LINE
  8
0
  6
CENTER
 62
6
 10
-5.52500000E+01
 20
7.49869385E+01
 11
-5.52500000E+01
 21
4.81040649E+01
  0
LINE
  8
0
 62
4
 10
-4.20000000E+01
 20
5.15000000E+01
 11
-6.02433167E+01
 21
5.15000000E+01
  0
LINE
  8
0
 62
4
 10
-4.20000000E+01
 20
7.15000000E+01
 11
-6.02433167E+01
 21
7.15000000E+01
  0
LINE
  8
0
 62
4
 10
-6.41970520E+01
 20
2.42500000E+01
 11
-7.42500000E+01
 21
2.42500000E+01
  0
LINE
  8
0
 62
4
 10
-4.12500000E+01
 20
6.88534546E+01
 11
-4.12500000E+01
 21
5.45000000E+01
  0
LINE
  8
0
 62
4
 10
-6.41970215E+01
 20
9.87500000E+01
 11
-7.42500000E+01
 21
9.87500000E+01
  0
LINE
  8
0
 62
4
 10
-6.12499921E+01
 20
6.15000259E+01
 11
-6.21977425E+01
 21
2.61963382E+01
  0
LINE
  8
0
 62
4
 10
-6.12499788E+01
 20
6.15000218E+01
 11
-6.21977271E+01
 21
9.68036484E+01
  0
LINE
  8
0
 62
4
 10
-4.20000000E+01
 20
5.21681519E+01
 11
-4.20000000E+01
 21
5.15000000E+01
  0
LINE
  8
0
 62
4
 10
-4.32500000E+01
 20
7.05000000E+01
 11
-5.75975647E+01
 21
7.05000000E+01
  0
LINE
  8
0
 62
4
 10
-4.32500000E+01
 20
5.25000000E+01
 11
-5.75975647E+01
 21
5.25000000E+01
  0
LINE
  8
0
 62
4
 10
-4.20000000E+01
 20
7.08318481E+01
 11
-4.20000000E+01
 21
7.15000000E+01
  0
ARC
  8
0
 62
4
 10
-6.41970520E+01
 20
2.62500000E+01
 40
2.00000000E+00
 50
2.69999984E+02
 51
3.58462010E+02
  0
ARC
  8
0
 62
4
 10
-6.41970215E+01
 20
9.67500000E+01
 40
2.00000000E+00
 50
1.53756619E+00
 51
9.00000162E+01
  0
ARC
  8
0
 62
4
 10
-5.75975647E+01
 20
7.45000000E+01
 40
4.00000000E+00
 50
1.81537798E+02
 51
2.69999984E+02
  0
ARC
  8
0
 62
4
 10
-5.75975647E+01
 20
4.85000000E+01
 40
4.00000000E+00
 50
9.00000162E+01
 51
1.78462202E+02
  0
ARC
  8
0
 62
4
 10
-4.32500000E+01
 20
5.45000000E+01
 40
2.00000000E+00
 50
2.69999984E+02
 51
3.59999964E+02
  0
ARC
  8
0
 62
4
 10
-4.00000000E+01
 20
5.21681519E+01
 40
2.00000000E+00
 50
1.44340871E+02
 51
1.80000005E+02
  0
ARC
  8
0
 62
4
 10
-4.32500000E+01
 20
6.85000000E+01
 40
2.00000000E+00
 50
3.59999981E+02
 51
8.99999618E+01
  0
ARC
  8
0
 62
4
 10
-4.00000000E+01
 20
7.08318481E+01
 40
2.00000000E+00
 50
1.79999951E+02
 51
2.15659070E+02
  0
LINE
  8
0
 62
7
 10
1.09800003E+02
 20
-1.18500000E+02
 11
1.09800003E+02
 21
-1.33500000E+02
  0
LINE
  8
0
 62
7
 10
1.09800003E+02
 20
-1.18500000E+02
 11
1.94800003E+02
 21
-1.18500000E+02
  0
TEXT
  8
0
 62
7
 10
1.15249715E+02
 20
-1.29150000E+02
 40
6.30000019E+00
  1
KOGANEI CORP.
 41
1.04838725E+00
  7
MONOTXT
  0
TEXT
  8
0
 62
7
 10
1.34942863E+02
 20
1.22850006E+02
 40
4.50000000E+00
  1
Ver. 1.0
 41
1.08108085E+00
  7
MONOTXT
  0
LINE
  8
0
 62
7
 10
1.09800003E+02
 20
1.32600006E+02
 11
1.09800003E+02
 21
1.17600006E+02
  0
LINE
  8
0
 62
7
 10
1.09800003E+02
 20
1.17600006E+02
 11
1.94800003E+02
 21
1.17600006E+02
  0
TEXT
  8
0
 62
7
 10
-1.89357136E+02
 20
1.22850006E+02
 40
4.50000000E+00
  1
NEW DYNA CYLINDER
 41
1.07594914E+00
  7
MONOTXT
  0
LINE
  8
0
 62
7
 10
-1.94250000E+02
 20
1.17600006E+02
 11
-1.09250000E+02
 21
1.17600006E+02
  0
LINE
  8
0
 62
7
 10
-1.09250000E+02
 20
1.32600006E+02
 11
-1.09250000E+02
 21
1.17600006E+02
  0
TEXT
  8
0
 62
7
 10
-1.85214688E+02
 20
1.05350006E+02
 40
4.50000000E+00
  1
MODEL:DDA63-8
 41
1.00000000E+00
  7
MONOTXT
  0
LINE
  8
0
 62
7
 10
-1.94250000E+02
 20
1.32600006E+02
 11
1.94800003E+02
 21
1.32600006E+02
  0
LINE
  8
0
 62
7
 10
1.94800003E+02
 20
1.32600006E+02
 11
1.94800003E+02
 21
-1.33500000E+02
  0
LINE
  8
0
 62
7
 10
-1.94250000E+02
 20
1.32600006E+02
 11
-1.94250000E+02
 21
-1.33500000E+02
  0
LINE
  8
0
 62
7
 10
-1.94250000E+02
 20
-1.33500000E+02
 11
1.94800003E+02
 21
-1.33500000E+02
  0
ENDSEC
  0
EOF
