  0
SECTION
  2
HEADER
  9
$ACADVER
  1
AC1003
  9
$EXTMIN
 10
-1.94250000E+02
 20
-1.33500000E+02
  9
$EXTMAX
 10
1.94800003E+02
 20
1.32600006E+02
  9
$LIMMIN
 10
-1.94251000E+02
 20
-1.33501000E+02
  9
$LIMMAX
 10
1.94801003E+02
 20
1.32601006E+02
  9
$SNAPUNIT
 10
1
 20
1
  9
$SNAPBASE
 10
0
 20
0
  9
$GRIDMODE
 70
0
  9
$GRIDUNIT
 10
0
 20
0
  9
$LTSCALE
 40
6.48416672E+00
  9
$TEXTSIZE
 40
3.2
  9
$DIMTAD
 70
0
  9
$LUNITS
 70
2
  9
$LUPREC
 70
4
  9
$FILLETRAD
 40
0
  9
$AUNITS
 70
0
  9
$AUPREC
 70
0
  0
ENDSEC
  0
SECTION
  2
TABLES
  0
TABLE
  2
LTYPE
 70
2
  0
LTYPE
  2
CONTINUOUS
 70
64
  3
Solid-Line
 72
65
 73
0
 40
0
  0
LTYPE
  2
DASHED
 70
64
  3
DASHED
 72
65
 73
2
 40
.75
 49
.5
 49
-.25
  0
LTYPE
  2
HIDDEN
 70
64
  3
HIDDEN
 72
65
 73
2
 40
.375
 49
.25
 49
-.125
  0
LTYPE
  2
CENTER
 70
64
  3
CENTER
 72
65
 73
4
 40
2
 49
1.25
 49
-.25
 49
.25
 49
-.25
  0
LTYPE
  2
PHANTOM
 70
64
  3
PHANTOM
 72
65
 73
6
 40
2.5
 49
1.25
 49
-.25
 49
.25
 49
-.25
 49
.25
 49
-.25
  0
ENDTAB
  0
TABLE
  2
LAYER
 70
1
  0
LAYER
  2
1
 70
0
 62
7
  6
CONTINUOUS
 0
ENDTAB
  0
TABLE
  2
STYLE
 70
2
  0
STYLE
  2
MONOTXT
 70
0
 40
0
 41
1
 50
0
 71
0
 42
.2
  3
monotxt
  0
STYLE
  2
BIGFONT
 70
0
 40
0
 41
1
 50
0
 71
0
 42
.2
  3
txt
  4
bigfont
  0
ENDTAB
  0
ENDSEC
  0
SECTION
  2
ENTITIES
  0
LINE
  8
0
  6
CENTER
 62
6
 10
6.59744797E+01
 20
-9.63157326E+01
 11
4.91647927E+01
 21
-9.63157326E+01
  0
LINE
  8
0
  6
CENTER
 62
6
 10
4.25293900E+01
 20
-6.83157021E+01
 11
7.26098825E+01
 21
-6.83157021E+01
  0
LINE
  8
0
 62
4
 10
5.25526587E+01
 20
-3.03157097E+01
 11
5.25526587E+01
 21
-1.06315706E+02
  0
LINE
  8
0
 62
4
 10
6.25527193E+01
 20
-1.06315706E+02
 11
6.25527193E+01
 21
-3.03157097E+01
  0
LINE
  8
0
  6
CENTER
 62
6
 10
6.59744797E+01
 20
-4.03157021E+01
 11
4.97546059E+01
 21
-4.03157021E+01
  0
LINE
  8
0
 62
4
 10
5.25526587E+01
 20
-1.06315706E+02
 11
6.25527193E+01
 21
-1.06315706E+02
  0
LINE
  8
0
 62
4
 10
5.25526587E+01
 20
-3.03157097E+01
 11
6.25527193E+01
 21
-3.03157097E+01
  0
ARC
  8
0
 62
4
 10
5.28027198E+01
 20
-8.53242470E+01
 40
2.50000000E-01
 50
1.79999977E+02
 51
2.68001132E+02
  0
LINE
  8
0
  6
CENTER
 62
6
 10
-9.74474796E+01
 20
-1.02728128E+02
 11
-9.74474796E+01
 21
-8.92185112E+01
  0
LINE
  8
0
  6
CENTER
 62
6
 10
-9.74473880E+01
 20
-4.69650094E+01
 11
-9.74473880E+01
 21
-3.43177086E+01
  0
LINE
  8
0
  6
CENTER
 62
6
 10
-6.94473575E+01
 20
-2.68481499E+01
 11
-6.94473575E+01
 21
-1.09341768E+02
  0
LINE
  8
0
 62
4
 10
-1.27447357E+02
 20
-4.03157021E+01
 11
-1.27447357E+02
 21
-9.63157021E+01
  0
LINE
  8
0
  6
CENTER
 62
6
 10
-2.04473727E+01
 20
-3.36308495E+01
 11
-2.04473727E+01
 21
-4.77406594E+01
  0
LINE
  8
0
 62
4
 10
-1.14473727E+01
 20
-4.03157021E+01
 11
-1.14473727E+01
 21
-9.63157021E+01
  0
LINE
  8
0
 62
4
 10
-1.17447357E+02
 20
-1.06315706E+02
 11
-2.14473727E+01
 21
-1.06315706E+02
  0
LINE
  8
0
 62
4
 10
-1.17447357E+02
 20
-3.03157097E+01
 11
-2.14473727E+01
 21
-3.03157097E+01
  0
LINE
  8
0
  6
CENTER
 62
6
 10
-4.14472965E+01
 20
-3.37428338E+01
 11
-4.14472965E+01
 21
-4.78273293E+01
  0
LINE
  8
0
  6
CENTER
 62
6
 10
-7.34388764E+00
 20
-6.83157021E+01
 11
-1.32671479E+02
 21
-6.83157021E+01
  0
LINE
  8
0
  6
CENTER
 62
6
 10
-1.43015598E+01
 20
-9.63157479E+01
 11
-4.74117587E+01
 21
-9.63157479E+01
  0
LINE
  8
0
  6
CENTER
 62
6
 10
-4.14473422E+01
 20
-8.86436287E+01
 11
-4.14473422E+01
 21
-1.03303007E+02
  0
LINE
  8
0
  6
CENTER
 62
6
 10
-2.04473727E+01
 20
-8.86935250E+01
 11
-2.04473727E+01
 21
-1.03491621E+02
  0
LINE
  8
0
  6
CENTER
 62
6
 10
-1.41295017E+01
 20
-4.03157021E+01
 11
-5.02643741E+01
 21
-4.03157021E+01
  0
LINE
  8
0
  6
CENTER
 62
6
 10
-1.18447357E+02
 20
-9.05863091E+01
 11
-1.18447357E+02
 21
-1.02115053E+02
  0
LINE
  8
0
  6
CENTER
 62
6
 10
-9.11024478E+01
 20
-9.63157021E+01
 11
-1.24943146E+02
 21
-9.63157021E+01
  0
LINE
  8
0
  6
CENTER
 62
6
 10
-1.18447357E+02
 20
-3.39749962E+01
 11
-1.18447357E+02
 21
-4.67082344E+01
  0
LINE
  8
0
  6
CENTER
 62
6
 10
-9.13898929E+01
 20
-4.03157021E+01
 11
-1.24771057E+02
 21
-4.03157021E+01
  0
ARC
  8
0
 62
4
 10
-2.14473727E+01
 20
-4.03157021E+01
 40
1.00000000E+01
 50
0.00000000E+00
 51
9.00000025E+01
  0
ARC
  8
0
 62
4
 10
-2.14473727E+01
 20
-9.63157021E+01
 40
1.00000000E+01
 50
2.69999998E+02
 51
0.00000000E+00
  0
CIRCLE
  8
0
 62
4
 10
-6.94473575E+01
 20
-6.83157021E+01
 40
1.90000000E+01
  0
ARC
  8
0
 62
4
 10
-1.17447357E+02
 20
-9.63157021E+01
 40
1.00000000E+01
 50
1.79999991E+02
 51
2.70000001E+02
  0
ARC
  8
0
 62
4
 10
-1.17447357E+02
 20
-4.03157021E+01
 40
1.00000000E+01
 50
9.00000025E+01
 51
1.80000005E+02
  0
CIRCLE
  8
0
 62
4
 10
-2.04473727E+01
 20
-4.03157021E+01
 40
4.50000000E+00
  0
CIRCLE
  8
0
 62
4
 10
-2.04473727E+01
 20
-9.63157021E+01
 40
4.50000000E+00
  0
CIRCLE
  8
0
 62
4
 10
-1.18447357E+02
 20
-9.63157021E+01
 40
4.50000000E+00
  0
CIRCLE
  8
0
 62
4
 10
-1.18447357E+02
 20
-4.03157021E+01
 40
4.50000000E+00
  0
CIRCLE
  8
0
 62
4
 10
-9.74473880E+01
 20
-9.63157479E+01
 40
3.84999990E+00
  0
CIRCLE
  8
0
 62
4
 10
-4.14473422E+01
 20
-9.63157784E+01
 40
3.84999990E+00
  0
CIRCLE
  8
0
 62
4
 10
-4.14473422E+01
 20
-4.03156258E+01
 40
3.84999990E+00
  0
CIRCLE
  8
0
 62
4
 10
-9.74473880E+01
 20
-4.03156563E+01
 40
3.84999990E+00
  0
LINE
  8
0
  6
CENTER
 62
6
 10
4.25293900E+01
 20
6.86843360E+01
 11
7.26098825E+01
 21
6.86843360E+01
  0
LINE
  8
0
 62
4
 10
6.25527193E+01
 20
1.06843360E+01
 11
6.25527193E+01
 21
1.26684336E+02
  0
LINE
  8
0
 62
4
 10
5.25526587E+01
 20
1.26684336E+02
 11
5.25526587E+01
 21
1.06843360E+01
  0
LINE
  8
0
 62
4
 10
5.25526587E+01
 20
1.06843360E+01
 11
6.25527193E+01
 21
1.06843360E+01
  0
LINE
  8
0
  6
CENTER
 62
6
 10
6.59744797E+01
 20
4.06842750E+01
 11
4.91647927E+01
 21
4.06842750E+01
  0
LINE
  8
0
  6
CENTER
 62
6
 10
6.59744797E+01
 20
9.66843971E+01
 11
4.91647927E+01
 21
9.66843971E+01
  0
LINE
  8
0
 62
4
 10
5.25526587E+01
 20
1.26684336E+02
 11
6.25527193E+01
 21
1.26684336E+02
  0
LINE
  8
0
  6
CENTER
 62
6
 10
4.91647927E+01
 20
1.96843360E+01
 11
6.59744797E+01
 21
1.96843360E+01
  0
LINE
  8
0
  6
CENTER
 62
6
 10
4.91647927E+01
 20
1.17684336E+02
 11
6.59744797E+01
 21
1.17684336E+02
  0
ARC
  8
0
 62
4
 10
5.28027198E+01
 20
5.16757911E+01
 40
2.50000000E-01
 50
1.79999977E+02
 51
2.68001132E+02
  0
ARC
  8
0
 62
4
 10
5.28027198E+01
 20
8.56928199E+01
 40
2.50000000E-01
 50
9.19988230E+01
 51
1.79999977E+02
  0
LINE
  8
0
 62
7
 10
1.09800003E+02
 20
-1.18500000E+02
 11
1.09800003E+02
 21
-1.33500000E+02
  0
LINE
  8
0
 62
7
 10
1.09800003E+02
 20
-1.18500000E+02
 11
1.94800003E+02
 21
-1.18500000E+02
  0
TEXT
  8
0
 62
7
 10
1.15249715E+02
 20
-1.29150000E+02
 40
6.30000019E+00
  1
KOGANEI CORP.
 41
1.04838725E+00
  7
MONOTXT
  0
TEXT
  8
0
 62
7
 10
1.34942863E+02
 20
1.22850006E+02
 40
4.50000000E+00
  1
Ver. 1.0
 41
1.08108085E+00
  7
MONOTXT
  0
LINE
  8
0
 62
7
 10
1.09800003E+02
 20
1.32600006E+02
 11
1.09800003E+02
 21
1.17600006E+02
  0
LINE
  8
0
 62
7
 10
1.09800003E+02
 20
1.17600006E+02
 11
1.94800003E+02
 21
1.17600006E+02
  0
TEXT
  8
0
 62
7
 10
-1.89357136E+02
 20
1.22850006E+02
 40
4.50000000E+00
  1
NEW DYNA CYLINDER
 41
1.07594914E+00
  7
MONOTXT
  0
LINE
  8
0
 62
7
 10
-1.94250000E+02
 20
1.17600006E+02
 11
-1.09250000E+02
 21
1.17600006E+02
  0
LINE
  8
0
 62
7
 10
-1.09250000E+02
 20
1.32600006E+02
 11
-1.09250000E+02
 21
1.17600006E+02
  0
TEXT
  8
0
 62
7
 10
-1.85214688E+02
 20
1.05350006E+02
 40
4.50000000E+00
  1
MODEL:DDA63-3
 41
1.00000000E+00
  7
MONOTXT
  0
LINE
  8
0
 62
7
 10
-1.94250000E+02
 20
1.32600006E+02
 11
1.94800003E+02
 21
1.32600006E+02
  0
LINE
  8
0
 62
7
 10
1.94800003E+02
 20
1.32600006E+02
 11
1.94800003E+02
 21
-1.33500000E+02
  0
LINE
  8
0
 62
7
 10
-1.94250000E+02
 20
1.32600006E+02
 11
-1.94250000E+02
 21
-1.33500000E+02
  0
LINE
  8
0
 62
7
 10
-1.94250000E+02
 20
-1.33500000E+02
 11
1.94800003E+02
 21
-1.33500000E+02
  0
ENDSEC
  0
EOF
