  0
SECTION
  2
HEADER
  9
$ACADVER
  1
AC1003
  9
$EXTMIN
 10
-1.94250000E+02
 20
-1.33500000E+02
  9
$EXTMAX
 10
1.94800003E+02
 20
1.32600006E+02
  9
$LIMMIN
 10
-1.94251000E+02
 20
-1.33501000E+02
  9
$LIMMAX
 10
1.94801003E+02
 20
1.32601006E+02
  9
$SNAPUNIT
 10
1
 20
1
  9
$SNAPBASE
 10
0
 20
0
  9
$GRIDMODE
 70
0
  9
$GRIDUNIT
 10
0
 20
0
  9
$LTSCALE
 40
6.48416672E+00
  9
$TEXTSIZE
 40
3.2
  9
$DIMTAD
 70
0
  9
$LUNITS
 70
2
  9
$LUPREC
 70
4
  9
$FILLETRAD
 40
0
  9
$AUNITS
 70
0
  9
$AUPREC
 70
0
  0
ENDSEC
  0
SECTION
  2
TABLES
  0
TABLE
  2
LTYPE
 70
2
  0
LTYPE
  2
CONTINUOUS
 70
64
  3
Solid-Line
 72
65
 73
0
 40
0
  0
LTYPE
  2
DASHED
 70
64
  3
DASHED
 72
65
 73
2
 40
.75
 49
.5
 49
-.25
  0
LTYPE
  2
HIDDEN
 70
64
  3
HIDDEN
 72
65
 73
2
 40
.375
 49
.25
 49
-.125
  0
LTYPE
  2
CENTER
 70
64
  3
CENTER
 72
65
 73
4
 40
2
 49
1.25
 49
-.25
 49
.25
 49
-.25
  0
LTYPE
  2
PHANTOM
 70
64
  3
PHANTOM
 72
65
 73
6
 40
2.5
 49
1.25
 49
-.25
 49
.25
 49
-.25
 49
.25
 49
-.25
  0
ENDTAB
  0
TABLE
  2
LAYER
 70
1
  0
LAYER
  2
1
 70
0
 62
7
  6
CONTINUOUS
 0
ENDTAB
  0
TABLE
  2
STYLE
 70
2
  0
STYLE
  2
MONOTXT
 70
0
 40
0
 41
1
 50
0
 71
0
 42
.2
  3
monotxt
  0
STYLE
  2
BIGFONT
 70
0
 40
0
 41
1
 50
0
 71
0
 42
.2
  3
txt
  4
bigfont
  0
ENDTAB
  0
ENDSEC
  0
SECTION
  2
ENTITIES
  0
LINE
  8
0
 62
4
 10
5.69916063E+01
 20
-9.25778932E+01
 11
5.69916063E+01
 21
-9.85778932E+01
  0
LINE
  8
0
 62
4
 10
6.59010213E+01
 20
-7.88832833E+01
 11
6.40152731E+01
 21
-8.95778902E+01
  0
LINE
  8
0
 62
4
 10
5.06916185E+01
 20
-9.25778932E+01
 11
5.06916185E+01
 21
-9.85778932E+01
  0
LINE
  8
0
 62
4
 10
4.96916185E+01
 20
-8.05778932E+01
 11
4.96916185E+01
 21
-9.85778932E+01
  0
LINE
  8
0
 62
4
 10
6.31916185E+01
 20
-8.95778932E+01
 11
9.01916185E+01
 21
-8.95778932E+01
  0
LINE
  8
0
 62
4
 10
5.26916185E+01
 20
-9.05778932E+01
 11
6.78716111E+01
 21
-9.05778932E+01
  0
LINE
  8
0
 62
4
 10
5.36916185E+01
 20
-7.65778932E+01
 11
6.66916185E+01
 21
-7.65778932E+01
  0
LINE
  8
0
 62
4
 10
9.06916185E+01
 20
-9.04439211E+01
 11
9.06916185E+01
 21
-9.85778932E+01
  0
LINE
  8
0
  6
CENTER
 62
6
 10
7.66916185E+01
 20
-8.80789613E+01
 11
7.66916185E+01
 21
-1.00998105E+02
  0
LINE
  8
0
 62
4
 10
4.96916185E+01
 20
-9.85778932E+01
 11
9.06916185E+01
 21
-9.85778932E+01
  0
LINE
  8
0
  6
CENTER
 62
6
 10
6.98685270E+01
 20
-8.85778932E+01
 11
4.67933030E+01
 21
-8.85778932E+01
  0
LINE
  8
0
 62
4
 10
6.66916185E+01
 20
-8.95778932E+01
 11
6.66916185E+01
 21
-7.65778932E+01
  0
ARC
  8
0
 62
4
 10
6.98402391E+01
 20
-7.95778932E+01
 40
4.00000000E+00
 50
1.41921181E+02
 51
1.69999911E+02
  0
ARC
  8
0
 62
4
 10
6.78716111E+01
 20
-8.95778932E+01
 40
1.00000000E+00
 50
2.70000018E+02
 51
0.00000000E+00
  0
ARC
  8
0
 62
4
 10
9.11916185E+01
 20
-8.95778932E+01
 40
1.00000000E+00
 50
1.79999977E+02
 51
2.40000062E+02
  0
ARC
  8
0
 62
4
 10
6.21916185E+01
 20
-8.95778932E+01
 40
1.00000000E+00
 50
2.70000018E+02
 51
0.00000000E+00
  0
ARC
  8
0
 62
4
 10
5.36916185E+01
 20
-8.05778932E+01
 40
4.00000000E+00
 50
8.99999818E+01
 51
1.79999964E+02
  0
ARC
  8
0
 62
4
 10
5.26916185E+01
 20
-9.25778932E+01
 40
2.00000000E+00
 50
8.99999818E+01
 51
1.79999964E+02
  0
LINE
  8
0
 62
4
 10
-1.53808481E+02
 20
-8.95779085E+01
 11
-1.53808481E+02
 21
-9.85779085E+01
  0
LINE
  8
0
 62
4
 10
-1.17457132E+02
 20
-7.55779085E+01
 11
-1.29159830E+02
 21
-7.55779085E+01
  0
LINE
  8
0
 62
4
 10
-1.33099046E+02
 20
-7.88833280E+01
 11
-1.36571735E+02
 21
-9.85779198E+01
  0
LINE
  8
0
 62
4
 10
-1.10045195E+02
 20
-9.85779041E+01
 11
-1.13517880E+02
 21
-7.88833348E+01
  0
LINE
  8
0
  6
CENTER
 62
6
 10
-1.12934518E+02
 20
-8.85779085E+01
 11
-1.32016183E+02
 21
-8.85779085E+01
  0
LINE
  8
0
  6
CENTER
 62
6
 10
-1.23308481E+02
 20
-7.81995210E+01
 11
-1.23308481E+02
 21
-9.74969301E+01
  0
LINE
  8
0
 62
4
 10
-1.36419778E+02
 20
-9.05779085E+01
 11
-1.51808481E+02
 21
-9.05779085E+01
  0
LINE
  8
0
 62
4
 10
-1.35005563E+02
 20
-8.95779085E+01
 11
-1.53808481E+02
 21
-8.95779085E+01
  0
LINE
  8
0
  6
CENTER
 62
6
 10
-1.42808481E+02
 20
-8.78827028E+01
 11
-1.42808481E+02
 21
-1.01419293E+02
  0
LINE
  8
0
 62
4
 10
-1.09844522E+02
 20
-9.25779085E+01
 11
-8.07724394E+01
 21
-9.25779085E+01
  0
LINE
  8
0
 62
4
 10
-1.11431467E+02
 20
-8.35779085E+01
 11
-7.91854949E+01
 21
-8.35779085E+01
  0
LINE
  8
0
 62
4
 10
-3.68084807E+01
 20
-8.95779085E+01
 11
-3.68084807E+01
 21
-9.85779085E+01
  0
LINE
  8
0
 62
4
 10
-7.31598296E+01
 20
-7.55779085E+01
 11
-6.14571318E+01
 21
-7.55779085E+01
  0
LINE
  8
0
 62
4
 10
-5.75178881E+01
 20
-7.88833088E+01
 11
-5.40451979E+01
 21
-9.85779081E+01
  0
LINE
  8
0
 62
4
 10
-8.05717079E+01
 20
-9.85779211E+01
 11
-7.70990190E+01
 21
-7.88833293E+01
  0
LINE
  8
0
  6
CENTER
 62
6
 10
-7.76824736E+01
 20
-8.85779085E+01
 11
-5.70206084E+01
 21
-8.85779085E+01
  0
LINE
  8
0
  6
CENTER
 62
6
 10
-6.73084807E+01
 20
-7.81995210E+01
 11
-6.73084807E+01
 21
-9.74969301E+01
  0
LINE
  8
0
 62
4
 10
-5.41971831E+01
 20
-9.05779085E+01
 11
-3.88084807E+01
 21
-9.05779085E+01
  0
LINE
  8
0
 62
4
 10
-5.56113982E+01
 20
-8.95779085E+01
 11
-3.68084807E+01
 21
-8.95779085E+01
  0
LINE
  8
0
  6
CENTER
 62
6
 10
-4.78084807E+01
 20
-8.78827028E+01
 11
-4.78084807E+01
 21
-1.01419293E+02
  0
LINE
  8
0
 62
4
 10
-1.53808481E+02
 20
-9.85779085E+01
 11
-3.68084807E+01
 21
-9.85779085E+01
  0
LINE
  8
0
  6
CENTER
 62
6
 10
-9.53084807E+01
 20
-7.19409303E+01
 11
-9.53084807E+01
 21
-1.03662938E+02
  0
CIRCLE
  8
0
 62
4
 10
-1.23308481E+02
 20
-8.85779085E+01
 40
7.25000000E+00
  0
ARC
  8
0
 62
4
 10
-1.29159830E+02
 20
-7.95779085E+01
 40
4.00000000E+00
 50
8.99999818E+01
 51
1.69999911E+02
  0
ARC
  8
0
 62
4
 10
-1.17457132E+02
 20
-7.95779085E+01
 40
4.00000000E+00
 50
9.99995702E+00
 51
8.99999818E+01
  0
ARC
  8
0
 62
4
 10
-1.09844522E+02
 20
-9.10779085E+01
 40
1.50000000E+00
 50
1.90000048E+02
 51
2.69999970E+02
  0
ARC
  8
0
 62
4
 10
-1.11431467E+02
 20
-8.20779085E+01
 40
1.50000000E+00
 50
1.90000143E+02
 51
2.69999963E+02
  0
ARC
  8
0
 62
4
 10
-1.36419778E+02
 20
-8.90779085E+01
 40
1.50000000E+00
 50
2.69999963E+02
 51
3.49999838E+02
  0
ARC
  8
0
 62
4
 10
-1.51808481E+02
 20
-9.25779085E+01
 40
2.00000000E+00
 50
8.99999818E+01
 51
1.79999964E+02
  0
ARC
  8
0
 62
4
 10
-7.91854949E+01
 20
-8.20779085E+01
 40
1.50000000E+00
 50
2.70000018E+02
 51
3.49999837E+02
  0
ARC
  8
0
 62
4
 10
-8.07724394E+01
 20
-9.10779085E+01
 40
1.50000000E+00
 50
2.70000018E+02
 51
3.49999938E+02
  0
ARC
  8
0
 62
4
 10
-3.88084807E+01
 20
-9.25779085E+01
 40
2.00000000E+00
 50
0.00000000E+00
 51
8.99999818E+01
  0
ARC
  8
0
 62
4
 10
-5.41971831E+01
 20
-8.90779085E+01
 40
1.50000000E+00
 50
1.90000143E+02
 51
2.70000018E+02
  0
CIRCLE
  8
0
 62
4
 10
-6.73084807E+01
 20
-8.85779085E+01
 40
7.25000000E+00
  0
ARC
  8
0
 62
4
 10
-6.14571318E+01
 20
-7.95779085E+01
 40
4.00000000E+00
 50
1.00000535E+01
 51
8.99999818E+01
  0
ARC
  8
0
 62
4
 10
-7.31598296E+01
 20
-7.95779085E+01
 40
4.00000000E+00
 50
8.99999818E+01
 51
1.70000007E+02
  0
CIRCLE
  8
0
 62
4
 10
-1.23308481E+02
 20
-8.85779085E+01
 40
3.84999990E+00
  0
CIRCLE
  8
0
 62
4
 10
-6.73084807E+01
 20
-8.85779085E+01
 40
3.84999990E+00
  0
LINE
  8
0
 62
4
 10
6.46916185E+01
 20
7.49221068E+01
 11
6.46916185E+01
 21
3.79221068E+01
  0
LINE
  8
0
 62
4
 10
6.66916185E+01
 20
9.39221678E+01
 11
6.66916185E+01
 21
1.89221678E+01
  0
LINE
  8
0
 62
4
 10
6.51915574E+01
 20
3.74221068E+01
 11
6.66915574E+01
 21
3.74221068E+01
  0
LINE
  8
0
 62
4
 10
6.51915574E+01
 20
7.54221068E+01
 11
6.66915574E+01
 21
7.54221068E+01
  0
LINE
  8
0
 62
4
 10
5.08007210E+01
 20
7.23927432E+01
 11
5.96916602E+01
 21
7.38036859E+01
  0
LINE
  8
0
 62
4
 10
5.06996945E+01
 20
4.04674329E+01
 11
5.96916037E+01
 21
3.90404668E+01
  0
LINE
  8
0
 62
4
 10
5.96916185E+01
 20
4.01435423E+01
 11
5.96916185E+01
 21
7.29474974E+01
  0
LINE
  8
0
 62
4
 10
6.55664964E+01
 20
1.65695067E+01
 11
5.07824388E+01
 21
1.65695067E+01
  0
LINE
  8
0
 62
4
 10
6.46916185E+01
 20
3.90405150E+01
 11
5.96916185E+01
 21
3.90405150E+01
  0
LINE
  8
0
 62
4
 10
9.06612375E+01
 20
1.65748618E+01
 11
8.82465114E+01
 21
2.88027004E+00
  0
LINE
  8
0
 62
4
 10
5.05375074E+01
 20
1.55825243E+01
 11
5.55284461E+01
 21
1.87003222E+00
  0
LINE
  8
0
 62
4
 10
6.64779344E+01
 20
1.92144347E+01
 11
5.26916185E+01
 21
1.92144347E+01
  0
LINE
  8
0
 62
4
 10
9.00144945E+01
 20
1.84221678E+01
 11
6.71916185E+01
 21
1.84221678E+01
  0
LINE
  8
0
 62
4
 10
8.23376756E+01
 20
-2.07783218E+00
 11
6.11665330E+01
 21
-2.07783218E+00
  0
LINE
  8
0
  6
CENTER
 62
6
 10
4.66058641E+01
 20
2.84221068E+01
 11
7.05004735E+01
 21
2.84221068E+01
  0
LINE
  8
0
  6
CENTER
 62
6
 10
8.52948289E+01
 20
8.92216782E+00
 11
6.83374315E+01
 21
8.92216782E+00
  0
LINE
  8
0
  6
CENTER
 62
6
 10
7.66916185E+01
 20
1.74179869E+01
 11
7.66916185E+01
 21
4.60589447E-01
  0
LINE
  8
0
 62
4
 10
4.96916185E+01
 20
4.16854124E+01
 11
4.96916185E+01
 21
1.51588927E+01
  0
LINE
  8
0
 62
4
 10
6.55664964E+01
 20
9.62748289E+01
 11
5.07824388E+01
 21
9.62748289E+01
  0
LINE
  8
0
 62
4
 10
6.46916185E+01
 20
7.38038206E+01
 11
5.96916185E+01
 21
7.38038206E+01
  0
LINE
  8
0
 62
4
 10
9.06611672E+01
 20
9.62694903E+01
 11
8.82464464E+01
 21
1.09964052E+02
  0
LINE
  8
0
 62
4
 10
5.05374534E+01
 20
9.72618290E+01
 11
5.55283921E+01
 21
1.10974321E+02
  0
LINE
  8
0
 62
4
 10
5.06916185E+01
 20
4.24174681E+01
 11
5.06916185E+01
 21
7.04268675E+01
  0
LINE
  8
0
 62
4
 10
6.46916185E+01
 20
7.52144652E+01
 11
5.26916185E+01
 21
7.52144652E+01
  0
LINE
  8
0
 62
4
 10
6.64779344E+01
 20
9.36299315E+01
 11
5.26916185E+01
 21
9.36299315E+01
  0
LINE
  8
0
 62
4
 10
9.00144945E+01
 20
9.44221678E+01
 11
6.71916185E+01
 21
9.44221678E+01
  0
LINE
  8
0
 62
4
 10
8.23376756E+01
 20
1.14922168E+02
 11
6.11665330E+01
 21
1.14922168E+02
  0
LINE
  8
0
  6
CENTER
 62
6
 10
8.52948289E+01
 20
1.03922168E+02
 11
6.83374315E+01
 21
1.03922168E+02
  0
LINE
  8
0
  6
CENTER
 62
6
 10
7.66916185E+01
 20
9.54263792E+01
 11
7.66916185E+01
 21
1.12383777E+02
  0
LINE
  8
0
 62
4
 10
4.96916185E+01
 20
7.11589232E+01
 11
4.96916185E+01
 21
9.76854124E+01
  0
LINE
  8
0
  6
CENTER
 62
6
 10
4.66058641E+01
 20
8.44221068E+01
 11
7.12560735E+01
 21
8.44221068E+01
  0
LINE
  8
0
  6
CENTER
 62
6
 10
7.23894716E+01
 20
5.64221068E+01
 11
4.58893113E+01
 21
5.64221068E+01
  0
ARC
  8
0
 62
4
 10
7.66916185E+01
 20
8.92216782E+00
 40
1.45000000E+01
 50
1.33602817E+02
 51
1.48169876E+02
  0
ARC
  8
0
 62
4
 10
7.66916185E+01
 20
1.03922168E+02
 40
1.45000000E+01
 50
2.11830138E+02
 51
2.26397197E+02
  0
ARC
  8
0
 62
4
 10
7.66916185E+01
 20
1.03922168E+02
 40
1.35000000E+01
 50
1.25430960E+02
 51
2.14504413E+02
  0
ARC
  8
0
 62
4
 10
7.66916185E+01
 20
8.92216782E+00
 40
1.35000000E+01
 50
1.45495597E+02
 51
2.34569077E+02
  0
ARC
  8
0
 62
4
 10
8.23376756E+01
 20
3.92216782E+00
 40
6.00000000E+00
 50
2.70000038E+02
 51
3.49999994E+02
  0
ARC
  8
0
 62
4
 10
8.86916185E+01
 20
1.69221678E+01
 40
2.00000000E+00
 50
3.50000243E+02
 51
4.85904268E+01
  0
ARC
  8
0
 62
4
 10
6.11665330E+01
 20
3.92216782E+00
 40
6.00000000E+00
 50
2.00000073E+02
 51
2.70000038E+02
  0
ARC
  8
0
 62
4
 10
7.66916185E+01
 20
8.92216782E+00
 40
1.35000000E+01
 50
1.29816300E+01
 51
4.47249905E+01
  0
ARC
  8
0
 62
4
 10
6.71916185E+01
 20
1.89221678E+01
 40
5.00000000E-01
 50
1.80000050E+02
 51
2.70000038E+02
  0
CIRCLE
  8
0
 62
4
 10
7.66916185E+01
 20
8.92216782E+00
 40
6.00000000E+00
  0
ARC
  8
0
 62
4
 10
4.91278978E+01
 20
1.50695067E+01
 40
1.50000000E+00
 50
2.00000865E+01
 51
6.79251928E+01
  0
ARC
  8
0
 62
4
 10
4.86916185E+01
 20
4.34174681E+01
 40
2.00000000E+00
 50
2.99999964E+02
 51
2.23117997E-05
  0
ARC
  8
0
 62
4
 10
4.86916185E+01
 20
4.24174681E+01
 40
2.00000000E+00
 50
2.99999964E+02
 51
2.23117997E-05
  0
ARC
  8
0
 62
4
 10
4.92752366E+01
 20
1.32027159E+01
 40
2.00000000E+00
 50
1.99999363E+01
 51
7.79843407E+01
  0
ARC
  8
0
 62
4
 10
4.91278978E+01
 20
9.77748289E+01
 40
1.50000000E+00
 50
2.92074841E+02
 51
3.39999941E+02
  0
ARC
  8
0
 62
4
 10
4.86916185E+01
 20
6.94268675E+01
 40
2.00000000E+00
 50
2.23117997E-05
 51
6.00000630E+01
  0
ARC
  8
0
 62
4
 10
4.86916185E+01
 20
7.04268675E+01
 40
2.00000000E+00
 50
2.23117997E-05
 51
6.00000630E+01
  0
ARC
  8
0
 62
4
 10
4.92752366E+01
 20
9.96415892E+01
 40
2.00000000E+00
 50
2.82015694E+02
 51
3.40000104E+02
  0
ARC
  8
0
 62
4
 10
8.23376756E+01
 20
1.08922168E+02
 40
6.00000000E+00
 50
1.00000475E+01
 51
8.99999956E+01
  0
ARC
  8
0
 62
4
 10
8.86916185E+01
 20
9.59221678E+01
 40
2.00000000E+00
 50
3.11409621E+02
 51
9.99980163E+00
  0
ARC
  8
0
 62
4
 10
6.11665330E+01
 20
1.08922168E+02
 40
6.00000000E+00
 50
8.99999956E+01
 51
1.59999968E+02
  0
ARC
  8
0
 62
4
 10
7.66916185E+01
 20
1.03922168E+02
 40
1.35000000E+01
 50
3.15275050E+02
 51
3.47018411E+02
  0
ARC
  8
0
 62
4
 10
6.71916185E+01
 20
9.39221678E+01
 40
5.00000000E-01
 50
8.99999956E+01
 51
1.79999977E+02
  0
CIRCLE
  8
0
 62
4
 10
7.66916185E+01
 20
1.03922168E+02
 40
6.00000000E+00
  0
ARC
  8
0
 62
4
 10
6.51916185E+01
 20
3.79221068E+01
 40
5.00000000E-01
 50
1.79999951E+02
 51
2.69999919E+02
  0
ARC
  8
0
 62
4
 10
6.51916185E+01
 20
7.49221068E+01
 40
5.00000000E-01
 50
8.99999618E+01
 51
1.79999951E+02
  0
TEXT
  8
0
 62
7
 10
-1.89357136E+02
 20
1.22850006E+02
 40
4.50000000E+00
  1
NEW DYNA CYLINDER
 41
1.07594914E+00
  7
MONOTXT
  0
LINE
  8
0
 62
7
 10
-1.94250000E+02
 20
1.17600006E+02
 11
-1.09250000E+02
 21
1.17600006E+02
  0
LINE
  8
0
 62
7
 10
-1.09250000E+02
 20
1.32600006E+02
 11
-1.09250000E+02
 21
1.17600006E+02
  0
LINE
  8
0
 62
7
 10
1.09800003E+02
 20
-1.18500000E+02
 11
1.09800003E+02
 21
-1.33500000E+02
  0
LINE
  8
0
 62
7
 10
1.09800003E+02
 20
-1.18500000E+02
 11
1.94800003E+02
 21
-1.18500000E+02
  0
TEXT
  8
0
 62
7
 10
1.15249715E+02
 20
-1.29150000E+02
 40
6.30000019E+00
  1
KOGANEI CORP.
 41
1.04838725E+00
  7
MONOTXT
  0
LINE
  8
0
 62
7
 10
1.09800003E+02
 20
1.32600006E+02
 11
1.09800003E+02
 21
1.17600006E+02
  0
LINE
  8
0
 62
7
 10
1.09800003E+02
 20
1.17600006E+02
 11
1.94800003E+02
 21
1.17600006E+02
  0
TEXT
  8
0
 62
7
 10
1.34942863E+02
 20
1.22850006E+02
 40
4.50000000E+00
  1
Ver. 1.0
 41
1.08108085E+00
  7
MONOTXT
  0
TEXT
  8
0
 62
7
 10
-1.85214688E+02
 20
1.05350006E+02
 40
4.50000000E+00
  1
MODEL:DDA63-2
 41
1.00000000E+00
  7
MONOTXT
  0
LINE
  8
0
 62
7
 10
-1.94250000E+02
 20
1.32600006E+02
 11
1.94800003E+02
 21
1.32600006E+02
  0
LINE
  8
0
 62
7
 10
1.94800003E+02
 20
1.32600006E+02
 11
1.94800003E+02
 21
-1.33500000E+02
  0
LINE
  8
0
 62
7
 10
-1.94250000E+02
 20
1.32600006E+02
 11
-1.94250000E+02
 21
-1.33500000E+02
  0
LINE
  8
0
 62
7
 10
-1.94250000E+02
 20
-1.33500000E+02
 11
1.94800003E+02
 21
-1.33500000E+02
  0
ENDSEC
  0
EOF
